  0
SECTION
  2
HEADER
  9
$ACADVER
  1
AC1015
  9
$ACADMAINTVER
 70
    20
  9
$DWGCODEPAGE
  3
ANSI_932
  9
$INSBASE
 10
0.0
 20
0.0
 30
0.0
  9
$EXTMIN
 10
10.0
 20
9.999999999999998
 30
0.0
  9
$EXTMAX
 10
466.3670159999998
 20
334.4047849999999
 30
0.0
  9
$LIMMIN
 10
0.0
 20
0.0
  9
$LIMMAX
 10
495.0
 20
341.25
  9
$ORTHOMODE
 70
     1
  9
$REGENMODE
 70
     1
  9
$FILLMODE
 70
     1
  9
$QTEXTMODE
 70
     0
  9
$MIRRTEXT
 70
     1
  9
$LTSCALE
 40
20.0
  9
$ATTMODE
 70
     1
  9
$TEXTSIZE
 40
5.0
  9
$TRACEWID
 40
1.0
  9
$TEXTSTYLE
  7
STANDARD
  9
$CLAYER
  8
0
  9
$CELTYPE
  6
BYLAYER
  9
$CECOLOR
 62
   256
  9
$CELTSCALE
 40
1.0
  9
$DISPSILH
 70
     0
  9
$DIMSCALE
 40
1.0
  9
$DIMASZ
 40
3.0
  9
$DIMEXO
 40
1.0
  9
$DIMDLI
 40
10.0
  9
$DIMRND
 40
0.0
  9
$DIMDLE
 40
0.0
  9
$DIMEXE
 40
1.0
  9
$DIMTP
 40
0.0
  9
$DIMTM
 40
0.0
  9
$DIMTXT
 40
3.2
  9
$DIMCEN
 40
0.0
  9
$DIMTSZ
 40
0.0
  9
$DIMTOL
 70
     0
  9
$DIMLIM
 70
     0
  9
$DIMTIH
 70
     0
  9
$DIMTOH
 70
     0
  9
$DIMSE1
 70
     0
  9
$DIMSE2
 70
     0
  9
$DIMTAD
 70
     3
  9
$DIMZIN
 70
     8
  9
$DIMBLK
  1

  9
$DIMASO
 70
     1
  9
$DIMSHO
 70
     1
  9
$DIMPOST
  1

  9
$DIMAPOST
  1

  9
$DIMALT
 70
     0
  9
$DIMALTD
 70
     2
  9
$DIMALTF
 40
25.4
  9
$DIMLFAC
 40
1.0
  9
$DIMTOFL
 70
     1
  9
$DIMTVP
 40
0.0
  9
$DIMTIX
 70
     0
  9
$DIMSOXD
 70
     0
  9
$DIMSAH
 70
     1
  9
$DIMBLK1
  1

  9
$DIMBLK2
  1

  9
$DIMSTYLE
  2
STANDARD
  9
$DIMCLRD
 70
     0
  9
$DIMCLRE
 70
     0
  9
$DIMCLRT
 70
     0
  9
$DIMTFAC
 40
1.0
  9
$DIMGAP
 40
1.0
  9
$DIMJUST
 70
     0
  9
$DIMSD1
 70
     0
  9
$DIMSD2
 70
     0
  9
$DIMTOLJ
 70
     1
  9
$DIMTZIN
 70
     0
  9
$DIMALTZ
 70
     0
  9
$DIMALTTZ
 70
     0
  9
$DIMUPT
 70
     0
  9
$DIMDEC
 70
     4
  9
$DIMTDEC
 70
     4
  9
$DIMALTU
 70
     2
  9
$DIMALTTD
 70
     2
  9
$DIMTXSTY
  7
STANDARD
  9
$DIMAUNIT
 70
     0
  9
$DIMADEC
 70
     0
  9
$DIMALTRND
 40
0.0
  9
$DIMAZIN
 70
     0
  9
$DIMDSEP
 70
    46
  9
$DIMATFIT
 70
     3
  9
$DIMFRAC
 70
     0
  9
$DIMLDRBLK
  1

  9
$DIMLUNIT
 70
     2
  9
$DIMLWD
 70
    -2
  9
$DIMLWE
 70
    -2
  9
$DIMTMOVE
 70
     0
  9
$LUNITS
 70
     2
  9
$LUPREC
 70
     4
  9
$SKETCHINC
 40
1.0
  9
$FILLETRAD
 40
0.0
  9
$AUNITS
 70
     0
  9
$AUPREC
 70
     2
  9
$MENU
  1
.
  9
$ELEVATION
 40
0.0
  9
$PELEVATION
 40
0.0
  9
$THICKNESS
 40
0.0
  9
$LIMCHECK
 70
     0
  9
$CHAMFERA
 40
10.0
  9
$CHAMFERB
 40
10.0
  9
$CHAMFERC
 40
0.0
  9
$CHAMFERD
 40
0.0
  9
$SKPOLY
 70
     0
  9
$TDCREATE
 40
2451066.413337847
  9
$TDUCREATE
 40
2451066.038337847
  9
$TDUPDATE
 40
2457192.598583275
  9
$TDUUPDATE
 40
2457192.223583275
  9
$TDINDWG
 40
0.0000154977
  9
$TDUSRTIMER
 40
0.0000151852
  9
$USRTIMER
 70
     1
  9
$ANGBASE
 50
0.0
  9
$ANGDIR
 70
     0
  9
$PDMODE
 70
     0
  9
$PDSIZE
 40
0.0
  9
$PLINEWID
 40
0.0
  9
$SPLFRAME
 70
     0
  9
$SPLINETYPE
 70
     6
  9
$SPLINESEGS
 70
     8
  9
$HANDSEED
  5
BF9B
  9
$SURFTAB1
 70
     6
  9
$SURFTAB2
 70
     6
  9
$SURFTYPE
 70
     6
  9
$SURFU
 70
     6
  9
$SURFV
 70
     6
  9
$UCSBASE
  2

  9
$UCSNAME
  2

  9
$UCSORG
 10
0.0
 20
0.0
 30
0.0
  9
$UCSXDIR
 10
1.0
 20
0.0
 30
0.0
  9
$UCSYDIR
 10
0.0
 20
1.0
 30
0.0
  9
$UCSORTHOREF
  2

  9
$UCSORTHOVIEW
 70
     0
  9
$UCSORGTOP
 10
0.0
 20
0.0
 30
0.0
  9
$UCSORGBOTTOM
 10
0.0
 20
0.0
 30
0.0
  9
$UCSORGLEFT
 10
0.0
 20
0.0
 30
0.0
  9
$UCSORGRIGHT
 10
0.0
 20
0.0
 30
0.0
  9
$UCSORGFRONT
 10
0.0
 20
0.0
 30
0.0
  9
$UCSORGBACK
 10
0.0
 20
0.0
 30
0.0
  9
$PUCSBASE
  2

  9
$PUCSNAME
  2

  9
$PUCSORG
 10
0.0
 20
0.0
 30
0.0
  9
$PUCSXDIR
 10
1.0
 20
0.0
 30
0.0
  9
$PUCSYDIR
 10
0.0
 20
1.0
 30
0.0
  9
$PUCSORTHOREF
  2

  9
$PUCSORTHOVIEW
 70
     0
  9
$PUCSORGTOP
 10
0.0
 20
0.0
 30
0.0
  9
$PUCSORGBOTTOM
 10
0.0
 20
0.0
 30
0.0
  9
$PUCSORGLEFT
 10
0.0
 20
0.0
 30
0.0
  9
$PUCSORGRIGHT
 10
0.0
 20
0.0
 30
0.0
  9
$PUCSORGFRONT
 10
0.0
 20
0.0
 30
0.0
  9
$PUCSORGBACK
 10
0.0
 20
0.0
 30
0.0
  9
$USERI1
 70
     0
  9
$USERI2
 70
     0
  9
$USERI3
 70
     0
  9
$USERI4
 70
     0
  9
$USERI5
 70
     0
  9
$USERR1
 40
0.0
  9
$USERR2
 40
0.0
  9
$USERR3
 40
0.0
  9
$USERR4
 40
0.0
  9
$USERR5
 40
0.0
  9
$WORLDVIEW
 70
     1
  9
$SHADEDGE
 70
     3
  9
$SHADEDIF
 70
    70
  9
$TILEMODE
 70
     1
  9
$MAXACTVP
 70
    16
  9
$PINSBASE
 10
0.0
 20
0.0
 30
0.0
  9
$PLIMCHECK
 70
     0
  9
$PEXTMIN
 10
1.000000000000000E+20
 20
1.000000000000000E+20
 30
1.000000000000000E+20
  9
$PEXTMAX
 10
-1.000000000000000E+20
 20
-1.000000000000000E+20
 30
-1.000000000000000E+20
  9
$PLIMMIN
 10
0.0
 20
0.0
  9
$PLIMMAX
 10
420.0
 20
297.0
  9
$UNITMODE
 70
     0
  9
$VISRETAIN
 70
     0
  9
$PLINEGEN
 70
     0
  9
$PSLTSCALE
 70
     0
  9
$TREEDEPTH
 70
  3020
  9
$CMLSTYLE
  2
STANDARD
  9
$CMLJUST
 70
     0
  9
$CMLSCALE
 40
1.0
  9
$PROXYGRAPHICS
 70
     1
  9
$MEASUREMENT
 70
     0
  9
$CELWEIGHT
370
    -1
  9
$ENDCAPS
280
     0
  9
$JOINSTYLE
280
     0
  9
$LWDISPLAY
290
     0
  9
$INSUNITS
 70
     0
  9
$HYPERLINKBASE
  1

  9
$STYLESHEET
  1

  9
$XEDIT
290
     1
  9
$CEPSNTYPE
380
     0
  9
$PSTYLEMODE
290
     1
  9
$FINGERPRINTGUID
  2
{BFF86353-72EF-4EF8-81C4-438A76006203}
  9
$VERSIONGUID
  2
{1E73C760-F080-43B2-9F28-F46B8A5CDE56}
  9
$EXTNAMES
290
     1
  9
$PSVPSCALE
 40
0.0
  9
$OLESTARTUP
290
     0
  0
ENDSEC
  0
SECTION
  2
CLASSES
  0
CLASS
  1
ACDBDICTIONARYWDFLT
  2
AcDbDictionaryWithDefault
  3
ObjectDBX Classes
 90
        0
280
     0
281
     0
  0
CLASS
  1
ACDBPLACEHOLDER
  2
AcDbPlaceHolder
  3
ObjectDBX Classes
 90
        0
280
     0
281
     0
  0
CLASS
  1
LAYOUT
  2
AcDbLayout
  3
ObjectDBX Classes
 90
        0
280
     0
281
     0
  0
CLASS
  1
DICTIONARYVAR
  2
AcDbDictionaryVar
  3
ObjectDBX Classes
 90
        0
280
     0
281
     0
  0
CLASS
  1
MATERIAL
  2
AcDbMaterial
  3
ObjectDBX Classes
 90
     1153
280
     0
281
     0
  0
CLASS
  1
VISUALSTYLE
  2
AcDbVisualStyle
  3
ObjectDBX Classes
 90
     4095
280
     0
281
     0
  0
CLASS
  1
TABLESTYLE
  2
AcDbTableStyle
  3
ObjectDBX Classes
 90
     4095
280
     0
281
     0
  0
CLASS
  1
SCALE
  2
AcDbScale
  3
ObjectDBX Classes
 90
     1153
280
     0
281
     0
  0
CLASS
  1
MLEADERSTYLE
  2
AcDbMLeaderStyle
  3
ACDB_MLEADERSTYLE_CLASS
 90
     4095
280
     0
281
     0
  0
CLASS
  1
ACDBSECTIONVIEWSTYLE
  2
AcDbSectionViewStyle
  3
ObjectDBX Classes
 90
     1025
280
     0
281
     0
  0
CLASS
  1
ACDBDETAILVIEWSTYLE
  2
AcDbDetailViewStyle
  3
ObjectDBX Classes
 90
     1025
280
     0
281
     0
  0
CLASS
  1
CELLSTYLEMAP
  2
AcDbCellStyleMap
  3
ObjectDBX Classes
 90
     1152
280
     0
281
     0
  0
ENDSEC
  0
SECTION
  2
TABLES
  0
TABLE
  2
VPORT
  5
BB87
330
0
100
AcDbSymbolTable
 70
     1
  0
VPORT
  5
BEE4
330
BB87
100
AcDbSymbolTableRecord
100
AcDbViewportTableRecord
  2
*ACTIVE
 70
     0
 10
0.0
 20
0.0
 11
1.0
 21
1.0
 12
336.4535810355031
 22
172.2001369810605
 13
0.0
 23
0.0
 14
10.0
 24
10.0
 15
10.0
 25
10.0
 16
0.0
 26
0.0
 36
1.0
 17
0.0
 27
0.0
 37
0.0
 40
328.0544991143803
 41
1.899603698811096
 42
50.0
 43
0.0
 44
0.0
 50
0.0
 51
0.0
 71
     0
 72
   100
 73
     1
 74
     0
 75
     0
 76
     0
 77
     0
 78
     0
281
     0
 65
     1
110
0.0
120
0.0
130
0.0
111
1.0
121
0.0
131
0.0
112
0.0
122
1.0
132
0.0
 79
     0
146
0.0
1001
ACAD_NAV_VCDISPLAY
1070
     3
  0
ENDTAB
  0
TABLE
  2
LTYPE
  5
BB84
330
0
100
AcDbSymbolTable
 70
     4
  0
LTYPE
  5
BB92
330
BB84
100
AcDbSymbolTableRecord
100
AcDbLinetypeTableRecord
  2
BYBLOCK
 70
     0
  3

 72
    65
 73
     0
 40
0.0
  0
LTYPE
  5
BB93
330
BB84
100
AcDbSymbolTableRecord
100
AcDbLinetypeTableRecord
  2
BYLAYER
 70
     0
  3

 72
    65
 73
     0
 40
0.0
  0
LTYPE
  5
BB94
330
BB84
100
AcDbSymbolTableRecord
100
AcDbLinetypeTableRecord
  2
CONTINUOUS
 70
     0
  3
Solid line
 72
    65
 73
     0
 40
0.0
  0
LTYPE
  5
BBA2
330
BB84
100
AcDbSymbolTableRecord
100
AcDbLinetypeTableRecord
  2
DASHED
 70
     0
  3
__ __ __ __ __ __ __ __ __ __ __ __ __ __ __ __
 72
    65
 73
     2
 40
0.75
 49
0.5
 74
     0
 49
-0.25
 74
     0
  0
LTYPE
  5
BBA3
330
BB84
100
AcDbSymbolTableRecord
100
AcDbLinetypeTableRecord
  2
CENTER
 70
     0
  3
____ _ ____ _ ____ _ ____ _ ____ _ ____ _ ____ 
 72
    65
 73
     4
 40
2.0
 49
1.25
 74
     0
 49
-0.25
 74
     0
 49
0.25
 74
     0
 49
-0.25
 74
     0
  0
LTYPE
  5
BBA4
330
BB84
100
AcDbSymbolTableRecord
100
AcDbLinetypeTableRecord
  2
PHANTOM
 70
     0
  3
______  __  __  ______  __  __  ______  __  __ 
 72
    65
 73
     6
 40
2.5
 49
1.25
 74
     0
 49
-0.25
 74
     0
 49
0.25
 74
     0
 49
-0.25
 74
     0
 49
0.25
 74
     0
 49
-0.25
 74
     0
  0
ENDTAB
  0
TABLE
  2
LAYER
  5
BB81
330
0
100
AcDbSymbolTable
 70
     8
  0
LAYER
  5
BB8F
102
{ACAD_XDICTIONARY
360
BF3F
102
}
330
BB81
100
AcDbSymbolTableRecord
100
AcDbLayerTableRecord
  2
0
 70
     0
 62
     7
  6
CONTINUOUS
370
    -3
390
BEED
  0
LAYER
  5
BBA5
102
{ACAD_XDICTIONARY
360
BF41
102
}
330
BB81
100
AcDbSymbolTableRecord
100
AcDbLayerTableRecord
  2
4
 70
     0
 62
     1
  6
CENTER
370
    -3
390
BEED
  0
LAYER
  5
BBA6
102
{ACAD_XDICTIONARY
360
BF43
102
}
330
BB81
100
AcDbSymbolTableRecord
100
AcDbLayerTableRecord
  2
5
 70
     0
 62
     6
  6
PHANTOM
370
    -3
390
BEED
  0
LAYER
  5
BBA7
102
{ACAD_XDICTIONARY
360
BF45
102
}
330
BB81
100
AcDbSymbolTableRecord
100
AcDbLayerTableRecord
  2
1
 70
     0
 62
     7
  6
CONTINUOUS
370
    -3
390
BEED
  0
LAYER
  5
BBA8
102
{ACAD_XDICTIONARY
360
BF47
102
}
330
BB81
100
AcDbSymbolTableRecord
100
AcDbLayerTableRecord
  2
2
 70
     0
 62
     4
  6
CONTINUOUS
370
    -3
390
BEED
  0
LAYER
  5
BBA9
102
{ACAD_XDICTIONARY
360
BF49
102
}
330
BB81
100
AcDbSymbolTableRecord
100
AcDbLayerTableRecord
  2
3
 70
     0
 62
     2
  6
DASHED
370
    -3
390
BEED
  0
LAYER
  5
BBAA
102
{ACAD_XDICTIONARY
360
BF4B
102
}
330
BB81
100
AcDbSymbolTableRecord
100
AcDbLayerTableRecord
  2
6
 70
     0
 62
     5
  6
CONTINUOUS
370
    -3
390
BEED
  0
LAYER
  5
BBAB
102
{ACAD_XDICTIONARY
360
BF4D
102
}
330
BB81
100
AcDbSymbolTableRecord
100
AcDbLayerTableRecord
  2
7
 70
     0
 62
     3
  6
CONTINUOUS
370
    -3
390
BEED
  0
ENDTAB
  0
TABLE
  2
STYLE
  5
BB82
330
0
100
AcDbSymbolTable
 70
     1
  0
STYLE
  5
BB90
330
BB82
100
AcDbSymbolTableRecord
100
AcDbTextStyleTableRecord
  2
STANDARD
 70
     0
 40
0.0
 41
1.0
 50
0.0
 71
     0
 42
5.0
  3
txt
  4

  0
ENDTAB
  0
TABLE
  2
VIEW
  5
BB85
330
0
100
AcDbSymbolTable
 70
     0
  0
ENDTAB
  0
TABLE
  2
UCS
  5
BB86
330
0
100
AcDbSymbolTable
 70
     0
  0
ENDTAB
  0
TABLE
  2
APPID
  5
BB88
330
0
100
AcDbSymbolTable
 70
     3
  0
APPID
  5
BB91
330
BB88
100
AcDbSymbolTableRecord
100
AcDbRegAppTableRecord
  2
ACAD
 70
     0
  0
APPID
  5
BF59
330
BB88
100
AcDbSymbolTableRecord
100
AcDbRegAppTableRecord
  2
ACAD_NAV_VCDISPLAY
 70
     0
  0
APPID
  5
BF92
330
BB88
100
AcDbSymbolTableRecord
100
AcDbRegAppTableRecord
  2
ACAD_MLEADERVER
 70
     0
  0
ENDTAB
  0
TABLE
  2
DIMSTYLE
  5
BB89
330
0
100
AcDbSymbolTable
 70
     1
100
AcDbDimStyleTable
 71
     0
  0
DIMSTYLE
105
BBAD
330
BB89
100
AcDbSymbolTableRecord
100
AcDbDimStyleTableRecord
  2
STANDARD
 70
     0
 41
3.0
 42
1.0
 43
10.0
 44
1.0
 73
     0
 74
     0
 77
     3
 78
     8
140
3.2
141
0.0
147
1.0
172
     1
173
     1
284
     8
285
     8
286
     8
340
BB90
  0
ENDTAB
  0
TABLE
  2
BLOCK_RECORD
  5
BB80
330
0
100
AcDbSymbolTable
 70
     0
  0
BLOCK_RECORD
  5
BB9D
102
{ACAD_XDICTIONARY
360
BEE7
102
}
330
BB80
100
AcDbSymbolTableRecord
100
AcDbBlockTableRecord
  2
*MODEL_SPACE
340
BF3B
  0
BLOCK_RECORD
  5
BB99
102
{ACAD_XDICTIONARY
360
BEE5
102
}
330
BB80
100
AcDbSymbolTableRecord
100
AcDbBlockTableRecord
  2
*PAPER_SPACE
340
BF3C
  0
ENDTAB
  0
ENDSEC
  0
SECTION
  2
BLOCKS
  0
BLOCK
  5
BB9E
330
BB9D
100
AcDbEntity
  8
0
100
AcDbBlockBegin
  2
*MODEL_SPACE
 70
     0
 10
0.0
 20
0.0
 30
0.0
  3
*MODEL_SPACE
  1

  0
ENDBLK
  5
BB9F
330
BB9D
100
AcDbEntity
  8
0
100
AcDbBlockEnd
  0
BLOCK
  5
BB9A
330
BB99
100
AcDbEntity
 67
     1
  8
0
100
AcDbBlockBegin
  2
*PAPER_SPACE
 70
     0
 10
0.0
 20
0.0
 30
0.0
  3
*PAPER_SPACE
  1

  0
ENDBLK
  5
BB9B
330
BB99
100
AcDbEntity
 67
     1
  8
0
100
AcDbBlockEnd
  0
ENDSEC
  0
SECTION
  2
ENTITIES
  0
TEXT
  5
BBB5
330
BB9D
100
AcDbEntity
  8
7
  6
Continuous
100
AcDbText
 10
10.0
 20
18.0
 30
0.0
 40
3.0
  1
TYPE No.TL-11G-2
100
AcDbText
  0
TEXT
  5
BBB6
330
BB9D
100
AcDbEntity
  8
7
  6
Continuous
100
AcDbText
 10
10.0
 20
26.0
 30
0.0
 40
3.0
  1
CODE No.1045
100
AcDbText
  0
TEXT
  5
BBB7
330
BB9D
100
AcDbEntity
  8
1
  6
Continuous
100
AcDbText
 10
10.0
 20
10.0
 30
0.0
 40
1.399999999999999
  1
LAYER
100
AcDbText
  0
TEXT
  5
BBB8
330
BB9D
100
AcDbEntity
  8
1
  6
Continuous
100
AcDbText
 10
17.97951099999998
 20
10.04873699999998
 30
0.0
 40
1.399999999999999
  1
1
100
AcDbText
  0
TEXT
  5
BBB9
330
BB9D
100
AcDbEntity
  8
7
  6
Continuous
100
AcDbText
 10
29.97951099999999
 20
10.04873699999998
 30
0.0
 40
1.399999999999999
  1
7
100
AcDbText
  0
TEXT
  5
BBBA
330
BB9D
100
AcDbEntity
  8
4
  6
CENTER
100
AcDbText
 10
23.97951099999999
 20
10.04873699999998
 30
0.0
 40
1.399999999999999
  1
4
100
AcDbText
  0
TEXT
  5
BBBB
330
BB9D
100
AcDbEntity
  8
3
  6
DASHED
100
AcDbText
 10
21.979511
 20
10.04873699999998
 30
0.0
 40
1.399999999999999
  1
3
100
AcDbText
  0
TEXT
  5
BBBC
330
BB9D
100
AcDbEntity
  8
2
  6
Continuous
100
AcDbText
 10
19.97951099999999
 20
10.04873699999998
 30
0.0
 40
1.399999999999999
  1
2
100
AcDbText
  0
TEXT
  5
BBBD
330
BB9D
100
AcDbEntity
  8
6
  6
Continuous
100
AcDbText
 10
27.979511
 20
10.04873699999998
 30
0.0
 40
1.399999999999999
  1
6
100
AcDbText
  0
TEXT
  5
BBBE
330
BB9D
100
AcDbEntity
  8
5
  6
PHANTOM
100
AcDbText
 10
25.97951099999999
 20
10.04873699999998
 30
0.0
 40
1.399999999999999
  1
5
100
AcDbText
  0
LINE
  5
BBBF
330
BB9D
100
AcDbEntity
  8
4
  6
CENTER
100
AcDbLine
 10
29.813418
 20
272.531448
 30
0.0
 11
29.813418
 21
334.4047849999999
 31
0.0
  0
LINE
  5
BBC0
330
BB9D
100
AcDbEntity
  8
1
  6
Continuous
100
AcDbLine
 10
24.313418
 20
280.735718
 30
0.0
 11
24.313418
 21
280.935395
 31
0.0
  0
LINE
  5
BBC1
330
BB9D
100
AcDbEntity
  8
1
  6
Continuous
100
AcDbLine
 10
35.31341799999999
 20
280.735718
 30
0.0
 11
35.31341799999999
 21
280.935395
 31
0.0
  0
LINE
  5
BBC2
330
BB9D
100
AcDbEntity
  8
1
  6
Continuous
100
AcDbLine
 10
371.307721
 20
194.2628769999998
 30
0.0
 11
383.307721
 21
194.2628769999998
 31
0.0
  0
LINE
  5
BBC3
330
BB9D
100
AcDbEntity
  8
1
  6
Continuous
100
AcDbLine
 10
369.807721
 20
192.262877
 30
0.0
 11
384.8077209999999
 21
192.262877
 31
0.0
  0
LINE
  5
BBC4
330
BB9D
100
AcDbEntity
  8
1
  6
Continuous
100
AcDbLine
 10
369.807721
 20
193.0429369999999
 30
0.0
 11
369.807721
 21
192.262877
 31
0.0
  0
LINE
  5
BBC5
330
BB9D
100
AcDbEntity
  8
1
  6
Continuous
100
AcDbLine
 10
384.8077209999999
 20
193.0429369999999
 30
0.0
 11
384.8077209999999
 21
192.262877
 31
0.0
  0
LINE
  5
BBC6
330
BB9D
100
AcDbEntity
  8
1
  6
Continuous
100
AcDbLine
 10
382.807721
 20
194.2628769999998
 30
0.0
 11
382.807721
 21
187.9942919999998
 31
0.0
  0
LINE
  5
BBC7
330
BB9D
100
AcDbEntity
  8
1
  6
Continuous
100
AcDbLine
 10
371.807721
 20
194.2628769999998
 30
0.0
 11
371.807721
 21
187.9942919999998
 31
0.0
  0
LINE
  5
BBC8
330
BB9D
100
AcDbEntity
  8
1
  6
Continuous
100
AcDbLine
 10
35.31341799999999
 20
280.735718
 30
0.0
 11
35.913418
 21
280.735718
 31
0.0
  0
LINE
  5
BBC9
330
BB9D
100
AcDbEntity
  8
1
  6
Continuous
100
AcDbLine
 10
369.307721
 20
188.8229969999999
 30
0.0
 11
369.307721
 21
185.262877
 31
0.0
  0
LINE
  5
BBCA
330
BB9D
100
AcDbEntity
  8
1
  6
Continuous
100
AcDbLine
 10
385.307721
 20
188.8229969999999
 30
0.0
 11
385.307721
 21
185.262877
 31
0.0
  0
LINE
  5
BBCB
330
BB9D
100
AcDbEntity
  8
1
  6
Continuous
100
AcDbLine
 10
35.31341799999999
 20
194.2628769999998
 30
0.0
 11
35.31341799999999
 21
188.8229969999999
 31
0.0
  0
LINE
  5
BBCC
330
BB9D
100
AcDbEntity
  8
1
  6
Continuous
100
AcDbLine
 10
24.313418
 20
194.2628769999998
 30
0.0
 11
24.313418
 21
188.8229969999999
 31
0.0
  0
LINE
  5
BBCD
330
BB9D
100
AcDbEntity
  8
1
  6
Continuous
100
AcDbLine
 10
35.913424
 20
194.2628769999998
 30
0.0
 11
23.71341999999999
 21
194.2628769999998
 31
0.0
  0
LINE
  5
BBCE
330
BB9D
100
AcDbEntity
  8
1
  6
Continuous
100
AcDbLine
 10
21.81341799999999
 20
188.8229969999999
 30
0.0
 11
21.81341799999999
 21
185.262877
 31
0.0
  0
LINE
  5
BBCF
330
BB9D
100
AcDbEntity
  8
1
  6
Continuous
100
AcDbLine
 10
37.81341799999999
 20
188.8229969999999
 30
0.0
 11
37.81341799999999
 21
185.262877
 31
0.0
  0
LINE
  5
BBD0
330
BB9D
100
AcDbEntity
  8
4
  6
CENTER
100
AcDbLine
 10
26.31341799999999
 20
45.20352599999998
 30
0.0
 11
33.313418
 21
45.20352599999998
 31
0.0
  0
LINE
  5
BBD1
330
BB9D
100
AcDbEntity
  8
4
  6
CENTER
100
AcDbLine
 10
29.813418
 20
97.17290900000001
 30
0.0
 11
29.813418
 21
34.703526
 31
0.0
  0
LINE
  5
BBD2
330
BB9D
100
AcDbEntity
  8
1
  6
Continuous
100
AcDbLine
 10
200.189123
 20
203.0429369999999
 30
0.0
 11
237.689123
 21
203.0429369999999
 31
0.0
  0
LINE
  5
BBD3
330
BB9D
100
AcDbEntity
  8
1
  6
Continuous
100
AcDbLine
 10
235.189123
 20
203.0429369999999
 30
0.0
 11
235.189123
 21
193.0429369999999
 31
0.0
  0
LINE
  5
BBD4
330
BB9D
100
AcDbEntity
  8
1
  6
Continuous
100
AcDbLine
 10
215.1891229999999
 20
193.0429369999999
 30
0.0
 11
235.189123
 21
193.0429369999999
 31
0.0
  0
LINE
  5
BBD5
330
BB9D
100
AcDbEntity
  8
1
  6
Continuous
100
AcDbLine
 10
215.1891229999999
 20
194.542937
 30
0.0
 11
215.1891229999999
 21
193.0429369999999
 31
0.0
  0
LINE
  5
BBD6
330
BB9D
100
AcDbEntity
  8
1
  6
Continuous
100
AcDbLine
 10
210.189123
 20
194.542937
 30
0.0
 11
215.1891229999999
 21
194.542937
 31
0.0
  0
LINE
  5
BBD7
330
BB9D
100
AcDbEntity
  8
1
  6
Continuous
100
AcDbLine
 10
247.6891489999999
 20
204.8881489999998
 30
0.0
 11
246.7291009999999
 21
206.042937
 31
0.0
  0
LINE
  5
BBD8
330
BB9D
100
AcDbEntity
  8
1
  6
Continuous
100
AcDbLine
 10
22.21341199999999
 20
276.935395
 30
0.0
 11
23.713418
 21
276.935395
 31
0.0
  0
LINE
  5
BBD9
330
BB9D
100
AcDbEntity
  8
1
  6
Continuous
100
AcDbLine
 10
22.21341199999999
 20
276.935395
 30
0.0
 11
22.21341199999999
 21
315.935395
 31
0.0
  0
LINE
  5
BBDA
330
BB9D
100
AcDbEntity
  8
1
  6
Continuous
100
AcDbLine
 10
37.413424
 20
276.935395
 30
0.0
 11
37.413424
 21
315.935395
 31
0.0
  0
LINE
  5
BBDB
330
BB9D
100
AcDbEntity
  8
1
  6
Continuous
100
AcDbLine
 10
22.21341199999999
 20
280.935395
 30
0.0
 11
37.413424
 21
280.935395
 31
0.0
  0
LINE
  5
BBDC
330
BB9D
100
AcDbEntity
  8
1
  6
Continuous
100
AcDbLine
 10
23.713418
 20
276.935395
 30
0.0
 11
23.713418
 21
280.935395
 31
0.0
  0
LINE
  5
BBDD
330
BB9D
100
AcDbEntity
  8
1
  6
Continuous
100
AcDbLine
 10
35.913418
 20
276.935395
 30
0.0
 11
35.913418
 21
280.935395
 31
0.0
  0
LINE
  5
BBDE
330
BB9D
100
AcDbEntity
  8
1
  6
Continuous
100
AcDbLine
 10
22.21341199999999
 20
315.935395
 30
0.0
 11
24.313418
 21
315.935395
 31
0.0
  0
LINE
  5
BBDF
330
BB9D
100
AcDbEntity
  8
1
  6
Continuous
100
AcDbLine
 10
24.313418
 20
315.935395
 30
0.0
 11
24.313418
 21
323.9047849999999
 31
0.0
  0
LINE
  5
BBE0
330
BB9D
100
AcDbEntity
  8
1
  6
Continuous
100
AcDbLine
 10
35.31341799999999
 20
315.935395
 30
0.0
 11
35.31341799999999
 21
323.9047849999999
 31
0.0
  0
LINE
  5
BBE1
330
BB9D
100
AcDbEntity
  8
1
  6
Continuous
100
AcDbLine
 10
31.813418
 20
313.935395
 30
0.0
 11
31.813418
 21
317.935395
 31
0.0
  0
LINE
  5
BBE2
330
BB9D
100
AcDbEntity
  8
1
  6
Continuous
100
AcDbLine
 10
27.81341799999999
 20
313.935395
 30
0.0
 11
27.81341799999999
 21
317.935395
 31
0.0
  0
LINE
  5
BBE3
330
BB9D
100
AcDbEntity
  8
1
  6
Continuous
100
AcDbLine
 10
232.689123
 20
204.5429369999999
 30
0.0
 11
237.689123
 21
204.5429369999999
 31
0.0
  0
LINE
  5
BBE4
330
BB9D
100
AcDbEntity
  8
1
  6
Continuous
100
AcDbLine
 10
35.31341799999999
 20
315.935395
 30
0.0
 11
37.413424
 21
315.935395
 31
0.0
  0
LINE
  5
BBE5
330
BB9D
100
AcDbEntity
  8
1
  6
Continuous
100
AcDbLine
 10
35.913418
 20
276.935395
 30
0.0
 11
37.413424
 21
276.935395
 31
0.0
  0
LINE
  5
BBE6
330
BB9D
100
AcDbEntity
  8
1
  6
Continuous
100
AcDbLine
 10
23.71341999999999
 20
203.0429369999999
 30
0.0
 11
35.913424
 21
203.0429369999999
 31
0.0
  0
LINE
  5
BBE7
330
BB9D
100
AcDbEntity
  8
1
  6
Continuous
100
AcDbLine
 10
22.21341999999999
 20
183.042937
 30
0.0
 11
23.71341999999999
 21
183.042937
 31
0.0
  0
LINE
  5
BBE8
330
BB9D
100
AcDbEntity
  8
4
  6
CENTER
100
AcDbLine
 10
29.813418
 20
209.542937
 30
0.0
 11
29.813418
 21
156.5429369999999
 31
0.0
  0
LINE
  5
BBE9
330
BB9D
100
AcDbEntity
  8
1
  6
Continuous
100
AcDbLine
 10
22.21341999999999
 20
201.542937
 30
0.0
 11
22.21341999999999
 21
183.042937
 31
0.0
  0
LINE
  5
BBEA
330
BB9D
100
AcDbEntity
  8
1
  6
Continuous
100
AcDbLine
 10
37.413424
 20
201.542937
 30
0.0
 11
37.413424
 21
183.042937
 31
0.0
  0
LINE
  5
BBEB
330
BB9D
100
AcDbEntity
  8
1
  6
Continuous
100
AcDbLine
 10
35.913424
 20
183.042937
 30
0.0
 11
37.413424
 21
183.042937
 31
0.0
  0
LINE
  5
BBEC
330
BB9D
100
AcDbEntity
  8
1
  6
Continuous
100
AcDbLine
 10
29.313418
 20
204.5429369999999
 30
0.0
 11
30.31341799999999
 21
204.5429369999999
 31
0.0
  0
LINE
  5
BBED
330
BB9D
100
AcDbEntity
  8
1
  6
Continuous
100
AcDbLine
 10
369.707745
 20
201.542937
 30
0.0
 11
369.707745
 21
183.042937
 31
0.0
  0
LINE
  5
BBEE
330
BB9D
100
AcDbEntity
  8
1
  6
Continuous
100
AcDbLine
 10
384.907696
 20
201.542937
 30
0.0
 11
384.907696
 21
183.042937
 31
0.0
  0
LINE
  5
BBEF
330
BB9D
100
AcDbEntity
  8
1
  6
Continuous
100
AcDbLine
 10
369.707745
 20
183.042937
 30
0.0
 11
371.2077209999998
 21
183.042937
 31
0.0
  0
LINE
  5
BBF0
330
BB9D
100
AcDbEntity
  8
1
  6
Continuous
100
AcDbLine
 10
371.2077449999999
 20
203.0429369999999
 30
0.0
 11
371.807721
 21
203.0429369999999
 31
0.0
  0
LINE
  5
BBF1
330
BB9D
100
AcDbEntity
  8
1
  6
Continuous
100
AcDbLine
 10
371.2077209999998
 20
201.542931
 30
0.0
 11
383.4077209999999
 21
201.542931
 31
0.0
  0
LINE
  5
BBF2
330
BB9D
100
AcDbEntity
  8
1
  6
Continuous
100
AcDbLine
 10
371.2077209999998
 20
201.542931
 30
0.0
 11
371.2077209999998
 21
193.0429369999999
 31
0.0
  0
LINE
  5
BBF3
330
BB9D
100
AcDbEntity
  8
1
  6
Continuous
100
AcDbLine
 10
383.4077209999999
 20
201.542931
 30
0.0
 11
383.4077209999999
 21
193.0429369999999
 31
0.0
  0
LINE
  5
BBF4
330
BB9D
100
AcDbEntity
  8
1
  6
Continuous
100
AcDbLine
 10
371.807721
 20
203.4397569999999
 30
0.0
 11
371.807721
 21
201.542931
 31
0.0
  0
LINE
  5
BBF5
330
BB9D
100
AcDbEntity
  8
1
  6
Continuous
100
AcDbLine
 10
382.807721
 20
203.4397569999999
 30
0.0
 11
382.807721
 21
201.542931
 31
0.0
  0
LINE
  5
BBF6
330
BB9D
100
AcDbEntity
  8
1
  6
Continuous
100
AcDbLine
 10
383.4077209999999
 20
183.042937
 30
0.0
 11
384.907696
 21
183.042937
 31
0.0
  0
LINE
  5
BBF7
330
BB9D
100
AcDbEntity
  8
1
  6
Continuous
100
AcDbLine
 10
382.807721
 20
203.0429369999999
 30
0.0
 11
383.4076959999999
 21
203.0429369999999
 31
0.0
  0
LINE
  5
BBF8
330
BB9D
100
AcDbEntity
  8
1
  6
Continuous
100
AcDbLine
 10
369.707745
 20
193.0429369999999
 30
0.0
 11
371.2077209999998
 21
193.0429369999999
 31
0.0
  0
LINE
  5
BBF9
330
BB9D
100
AcDbEntity
  8
1
  6
Continuous
100
AcDbLine
 10
383.4077209999999
 20
193.0429369999999
 30
0.0
 11
384.907696
 21
193.0429369999999
 31
0.0
  0
LINE
  5
BBFA
330
BB9D
100
AcDbEntity
  8
1
  6
Continuous
100
AcDbLine
 10
248.6585129999999
 20
194.2628769999998
 30
0.0
 11
248.6585129999999
 21
192.262877
 31
0.0
  0
LINE
  5
BBFB
330
BB9D
100
AcDbEntity
  8
1
  6
Continuous
100
AcDbLine
 10
209.996892
 20
194.2628769999998
 30
0.0
 11
215.1891229999999
 21
194.2628769999998
 31
0.0
  0
LINE
  5
BBFC
330
BB9D
100
AcDbEntity
  8
1
  6
Continuous
100
AcDbLine
 10
208.623998
 20
192.262877
 30
0.0
 11
248.6585129999999
 21
192.262877
 31
0.0
  0
LINE
  5
BBFD
330
BB9D
100
AcDbEntity
  8
1
  6
Continuous
100
AcDbLine
 10
213.6585129999999
 20
194.2628769999998
 30
0.0
 11
213.6585129999999
 21
192.262877
 31
0.0
  0
LINE
  5
BBFE
330
BB9D
100
AcDbEntity
  8
1
  6
Continuous
100
AcDbLine
 10
210.658513
 20
194.2628769999998
 30
0.0
 11
210.658513
 21
192.262877
 31
0.0
  0
LINE
  5
BBFF
330
BB9D
100
AcDbEntity
  8
4
  6
CENTER
100
AcDbLine
 10
231.9585009999999
 20
196.262877
 30
0.0
 11
231.9585009999999
 21
190.2628769999998
 31
0.0
  0
LINE
  5
BC00
330
BB9D
100
AcDbEntity
  8
4
  6
CENTER
100
AcDbLine
 10
243.158513
 20
196.262877
 30
0.0
 11
243.158513
 21
190.2628769999998
 31
0.0
  0
LINE
  5
BC01
330
BB9D
100
AcDbEntity
  8
1
  6
Continuous
100
AcDbLine
 10
21.81341799999999
 20
185.262877
 30
0.0
 11
22.21341999999999
 21
185.262877
 31
0.0
  0
LINE
  5
BC02
330
BB9D
100
AcDbEntity
  8
1
  6
Continuous
100
AcDbLine
 10
21.81341799999999
 20
188.8229969999999
 30
0.0
 11
22.21341999999999
 21
188.8229969999999
 31
0.0
  0
LINE
  5
BC03
330
BB9D
100
AcDbEntity
  8
1
  6
Continuous
100
AcDbLine
 10
35.31341799999999
 20
188.8229969999999
 30
0.0
 11
35.913424
 21
188.8229969999999
 31
0.0
  0
LINE
  5
BC04
330
BB9D
100
AcDbEntity
  8
1
  6
Continuous
100
AcDbLine
 10
369.307721
 20
188.8229969999999
 30
0.0
 11
369.707745
 21
188.8229969999999
 31
0.0
  0
LINE
  5
BC05
330
BB9D
100
AcDbEntity
  8
1
  6
Continuous
100
AcDbLine
 10
369.307721
 20
187.9942919999998
 30
0.0
 11
369.707745
 21
187.9942919999998
 31
0.0
  0
LINE
  5
BC06
330
BB9D
100
AcDbEntity
  8
1
  6
Continuous
100
AcDbLine
 10
369.307721
 20
185.262877
 30
0.0
 11
369.707745
 21
185.262877
 31
0.0
  0
LINE
  5
BC07
330
BB9D
100
AcDbEntity
  8
1
  6
Continuous
100
AcDbLine
 10
382.807721
 20
188.8229969999999
 30
0.0
 11
383.307721
 21
188.8229969999999
 31
0.0
  0
LINE
  5
BC08
330
BB9D
100
AcDbEntity
  8
1
  6
Continuous
100
AcDbLine
 10
382.807721
 20
187.9942919999998
 30
0.0
 11
383.307721
 21
187.9942919999998
 31
0.0
  0
LINE
  5
BC09
330
BB9D
100
AcDbEntity
  8
4
  6
CENTER
100
AcDbLine
 10
364.807721
 20
197.0429369999999
 30
0.0
 11
389.807721
 21
197.0429369999999
 31
0.0
  0
LINE
  5
BC0A
330
BB9D
100
AcDbEntity
  8
1
  6
Continuous
100
AcDbLine
 10
368.807721
 20
198.542937
 30
0.0
 11
369.707745
 21
198.542937
 31
0.0
  0
LINE
  5
BC0B
330
BB9D
100
AcDbEntity
  8
1
  6
Continuous
100
AcDbLine
 10
368.807721
 20
195.542937
 30
0.0
 11
369.707745
 21
195.542937
 31
0.0
  0
LINE
  5
BC0C
330
BB9D
100
AcDbEntity
  8
1
  6
Continuous
100
AcDbLine
 10
19.813412
 20
199.042937
 30
0.0
 11
21.31341799999999
 21
199.042937
 31
0.0
  0
LINE
  5
BC0D
330
BB9D
100
AcDbEntity
  8
4
  6
CENTER
100
AcDbLine
 10
17.313418
 20
197.0429369999999
 30
0.0
 11
42.313418
 21
197.0429369999999
 31
0.0
  0
LINE
  5
BC0E
330
BB9D
100
AcDbEntity
  8
1
  6
Continuous
100
AcDbLine
 10
21.31341799999999
 20
198.542937
 30
0.0
 11
22.21341999999999
 21
198.542937
 31
0.0
  0
LINE
  5
BC0F
330
BB9D
100
AcDbEntity
  8
1
  6
Continuous
100
AcDbLine
 10
21.31341799999999
 20
195.542937
 30
0.0
 11
22.21341999999999
 21
195.542937
 31
0.0
  0
LINE
  5
BC10
330
BB9D
100
AcDbEntity
  8
1
  6
Continuous
100
AcDbLine
 10
19.813414
 20
157.662887
 30
0.0
 11
21.31342
 21
157.662887
 31
0.0
  0
LINE
  5
BC11
330
BB9D
100
AcDbEntity
  8
1
  6
Continuous
100
AcDbLine
 10
19.813414
 20
161.7859959999998
 30
0.0
 11
21.31342
 21
161.7859959999998
 31
0.0
  0
LINE
  5
BC12
330
BB9D
100
AcDbEntity
  8
4
  6
CENTER
100
AcDbLine
 10
42.313418
 20
159.662887
 30
0.0
 11
17.313418
 21
159.662887
 31
0.0
  0
LINE
  5
BC13
330
BB9D
100
AcDbEntity
  8
1
  6
Continuous
100
AcDbLine
 10
38.313418
 20
161.162887
 30
0.0
 11
21.31341799999999
 21
161.162887
 31
0.0
  0
LINE
  5
BC14
330
BB9D
100
AcDbEntity
  8
1
  6
Continuous
100
AcDbLine
 10
38.313418
 20
158.162887
 30
0.0
 11
21.31341799999999
 21
158.162887
 31
0.0
  0
LINE
  5
BC15
330
BB9D
100
AcDbEntity
  8
1
  6
Continuous
100
AcDbLine
 10
23.713418
 20
279.404785
 30
0.0
 11
35.913418
 21
279.404785
 31
0.0
  0
LINE
  5
BC16
330
BB9D
100
AcDbEntity
  8
1
  6
Continuous
100
AcDbLine
 10
23.713418
 20
280.735718
 30
0.0
 11
24.313418
 21
280.735718
 31
0.0
  0
LINE
  5
BC17
330
BB9D
100
AcDbEntity
  8
1
  6
Continuous
100
AcDbLine
 10
23.71341999999999
 20
188.8229969999999
 30
0.0
 11
24.313418
 21
188.8229969999999
 31
0.0
  0
LINE
  5
BC18
330
BB9D
100
AcDbEntity
  8
1
  6
Continuous
100
AcDbLine
 10
23.71341999999999
 20
185.262877
 30
0.0
 11
35.913424
 21
185.262877
 31
0.0
  0
LINE
  5
BC19
330
BB9D
100
AcDbEntity
  8
1
  6
Continuous
100
AcDbLine
 10
37.413424
 20
188.8229969999999
 30
0.0
 11
37.81341799999999
 21
188.8229969999999
 31
0.0
  0
LINE
  5
BC1A
330
BB9D
100
AcDbEntity
  8
1
  6
Continuous
100
AcDbLine
 10
37.413424
 20
185.262877
 30
0.0
 11
37.81341799999999
 21
185.262877
 31
0.0
  0
LINE
  5
BC1B
330
BB9D
100
AcDbEntity
  8
1
  6
Continuous
100
AcDbLine
 10
23.71341999999999
 20
198.542937
 30
0.0
 11
35.913424
 21
198.542937
 31
0.0
  0
LINE
  5
BC1C
330
BB9D
100
AcDbEntity
  8
1
  6
Continuous
100
AcDbLine
 10
23.71341999999999
 20
195.542937
 30
0.0
 11
35.913424
 21
195.542937
 31
0.0
  0
LINE
  5
BC1D
330
BB9D
100
AcDbEntity
  8
1
  6
Continuous
100
AcDbLine
 10
37.413424
 20
198.542937
 30
0.0
 11
38.313418
 21
198.542937
 31
0.0
  0
LINE
  5
BC1E
330
BB9D
100
AcDbEntity
  8
1
  6
Continuous
100
AcDbLine
 10
37.413424
 20
195.542937
 30
0.0
 11
38.313418
 21
195.542937
 31
0.0
  0
LINE
  5
BC1F
330
BB9D
100
AcDbEntity
  8
1
  6
Continuous
100
AcDbLine
 10
235.189123
 20
194.2628769999998
 30
0.0
 11
248.6585129999999
 21
194.2628769999998
 31
0.0
  0
LINE
  5
BC20
330
BB9D
100
AcDbEntity
  8
1
  6
Continuous
100
AcDbLine
 10
371.307721
 20
198.542937
 30
0.0
 11
383.307721
 21
198.542937
 31
0.0
  0
LINE
  5
BC21
330
BB9D
100
AcDbEntity
  8
1
  6
Continuous
100
AcDbLine
 10
371.307721
 20
195.542937
 30
0.0
 11
383.307721
 21
195.542937
 31
0.0
  0
LINE
  5
BC22
330
BB9D
100
AcDbEntity
  8
1
  6
Continuous
100
AcDbLine
 10
384.907696
 20
198.542937
 30
0.0
 11
385.807721
 21
198.542937
 31
0.0
  0
LINE
  5
BC23
330
BB9D
100
AcDbEntity
  8
1
  6
Continuous
100
AcDbLine
 10
384.907696
 20
195.542937
 30
0.0
 11
385.807721
 21
195.542937
 31
0.0
  0
LINE
  5
BC24
330
BB9D
100
AcDbEntity
  8
1
  6
Continuous
100
AcDbLine
 10
371.307721
 20
188.8229969999999
 30
0.0
 11
371.807721
 21
188.8229969999999
 31
0.0
  0
LINE
  5
BC25
330
BB9D
100
AcDbEntity
  8
1
  6
Continuous
100
AcDbLine
 10
371.307721
 20
187.9942919999998
 30
0.0
 11
371.807721
 21
187.9942919999998
 31
0.0
  0
LINE
  5
BC26
330
BB9D
100
AcDbEntity
  8
1
  6
Continuous
100
AcDbLine
 10
371.307721
 20
185.262877
 30
0.0
 11
383.4077209999999
 21
185.262877
 31
0.0
  0
LINE
  5
BC27
330
BB9D
100
AcDbEntity
  8
1
  6
Continuous
100
AcDbLine
 10
384.907696
 20
188.8229969999999
 30
0.0
 11
385.307721
 21
188.8229969999999
 31
0.0
  0
LINE
  5
BC28
330
BB9D
100
AcDbEntity
  8
1
  6
Continuous
100
AcDbLine
 10
384.907696
 20
187.9942919999998
 30
0.0
 11
385.307721
 21
187.9942919999998
 31
0.0
  0
LINE
  5
BC29
330
BB9D
100
AcDbEntity
  8
1
  6
Continuous
100
AcDbLine
 10
384.907696
 20
185.262877
 30
0.0
 11
385.307721
 21
185.262877
 31
0.0
  0
LINE
  5
BC2A
330
BB9D
100
AcDbEntity
  8
1
  6
Continuous
100
AcDbLine
 10
371.2077209999998
 20
192.262877
 30
0.0
 11
371.2077209999998
 21
183.042937
 31
0.0
  0
LINE
  5
BC2B
330
BB9D
100
AcDbEntity
  8
1
  6
Continuous
100
AcDbLine
 10
383.4077209999999
 20
192.262877
 30
0.0
 11
383.4077209999999
 21
183.042937
 31
0.0
  0
LINE
  5
BC2C
330
BB9D
100
AcDbEntity
  8
4
  6
CENTER
100
AcDbLine
 10
377.307721
 20
209.542937
 30
0.0
 11
377.307721
 21
156.5429369999999
 31
0.0
  0
LINE
  5
BC2D
330
BB9D
100
AcDbEntity
  8
1
  6
Continuous
100
AcDbLine
 10
35.31341799999999
 20
203.502807
 30
0.0
 11
35.31341799999999
 21
203.0429369999999
 31
0.0
  0
LINE
  5
BC2E
330
BB9D
100
AcDbEntity
  8
1
  6
Continuous
100
AcDbLine
 10
24.313418
 20
203.502807
 30
0.0
 11
24.313418
 21
203.0429369999999
 31
0.0
  0
LINE
  5
BC2F
330
BB9D
100
AcDbEntity
  8
4
  6
CENTER
100
AcDbLine
 10
20.71342
 20
187.042937
 30
0.0
 11
25.31341799999999
 21
187.042937
 31
0.0
  0
LINE
  5
BC30
330
BB9D
100
AcDbEntity
  8
4
  6
CENTER
100
AcDbLine
 10
34.313418
 20
187.042937
 30
0.0
 11
38.913424
 21
187.042937
 31
0.0
  0
LINE
  5
BC31
330
BB9D
100
AcDbEntity
  8
4
  6
CENTER
100
AcDbLine
 10
368.2077449999999
 20
187.042937
 30
0.0
 11
372.807721
 21
187.042937
 31
0.0
  0
LINE
  5
BC32
330
BB9D
100
AcDbEntity
  8
4
  6
CENTER
100
AcDbLine
 10
386.4076959999999
 20
187.042937
 30
0.0
 11
381.807721
 21
187.042937
 31
0.0
  0
LINE
  5
BC33
330
BB9D
100
AcDbEntity
  8
4
  6
CENTER
100
AcDbLine
 10
104.971403
 20
275.204773
 30
0.0
 11
104.971403
 21
296.204773
 31
0.0
  0
LINE
  5
BC34
330
BB9D
100
AcDbEntity
  8
1
  6
Continuous
100
AcDbLine
 10
89.72140300000004
 20
288.204773
 30
0.0
 11
98.97140300000003
 21
288.204773
 31
0.0
  0
LINE
  5
BC35
330
BB9D
100
AcDbEntity
  8
1
  6
Continuous
100
AcDbLine
 10
89.72140300000004
 20
280.2047729999998
 30
0.0
 11
120.221403
 21
280.2047729999998
 31
0.0
  0
LINE
  5
BC36
330
BB9D
100
AcDbEntity
  8
4
  6
CENTER
100
AcDbLine
 10
80.72140299999999
 20
284.2047729999998
 30
0.0
 11
129.221403
 21
284.2047729999998
 31
0.0
  0
LINE
  5
BC37
330
BB9D
100
AcDbEntity
  8
1
  6
Continuous
100
AcDbLine
 10
283.390982
 20
157.662887
 30
0.0
 11
283.390982
 21
153.7628769999998
 31
0.0
  0
LINE
  5
BC38
330
BB9D
100
AcDbEntity
  8
1
  6
Continuous
100
AcDbLine
 10
98.97140300000003
 20
282.7047729999998
 30
0.0
 11
98.97140300000003
 21
291.2047729999999
 31
0.0
  0
LINE
  5
BC39
330
BB9D
100
AcDbEntity
  8
1
  6
Continuous
100
AcDbLine
 10
110.971403
 20
282.7047729999998
 30
0.0
 11
110.971403
 21
291.2047729999999
 31
0.0
  0
LINE
  5
BC3A
330
BB9D
100
AcDbEntity
  8
1
  6
Continuous
100
AcDbLine
 10
272.390982
 20
152.262877
 30
0.0
 11
272.390982
 21
150.762877
 31
0.0
  0
LINE
  5
BC3B
330
BB9D
100
AcDbEntity
  8
1
  6
Continuous
100
AcDbLine
 10
272.390982
 20
150.762877
 30
0.0
 11
280.390982
 21
150.762877
 31
0.0
  0
LINE
  5
BC3C
330
BB9D
100
AcDbEntity
  8
1
  6
Continuous
100
AcDbLine
 10
98.97140300000003
 20
282.7047729999998
 30
0.0
 11
110.971403
 21
282.7047729999998
 31
0.0
  0
LINE
  5
BC3D
330
BB9D
100
AcDbEntity
  8
1
  6
Continuous
100
AcDbLine
 10
98.97140300000003
 20
291.2047729999999
 30
0.0
 11
110.971403
 21
291.2047729999999
 31
0.0
  0
LINE
  5
BC3E
330
BB9D
100
AcDbEntity
  8
1
  6
Continuous
100
AcDbLine
 10
110.971403
 20
288.204773
 30
0.0
 11
120.221403
 21
288.204773
 31
0.0
  0
LINE
  5
BC3F
330
BB9D
100
AcDbEntity
  8
1
  6
Continuous
100
AcDbLine
 10
275.3671729999999
 20
162.358599
 30
0.0
 11
274.890982
 21
160.7628769999998
 31
0.0
  0
LINE
  5
BC40
330
BB9D
100
AcDbEntity
  8
1
  6
Continuous
100
AcDbLine
 10
280.390982
 20
152.262877
 30
0.0
 11
280.390982
 21
150.7644949999999
 31
0.0
  0
LINE
  5
BC41
330
BB9D
100
AcDbEntity
  8
1
  6
Continuous
100
AcDbLine
 10
85.72140299999999
 20
150.762877
 30
0.0
 11
124.221403
 21
150.762877
 31
0.0
  0
LINE
  5
BC42
330
BB9D
100
AcDbEntity
  8
4
  6
CENTER
100
AcDbLine
 10
104.971403
 20
167.762893
 30
0.0
 11
104.971403
 21
145.762877
 31
0.0
  0
LINE
  5
BC43
330
BB9D
100
AcDbEntity
  8
1
  6
Continuous
100
AcDbLine
 10
85.72140299999999
 20
152.262884
 30
0.0
 11
85.72140299999999
 21
150.762877
 31
0.0
  0
LINE
  5
BC44
330
BB9D
100
AcDbEntity
  8
1
  6
Continuous
100
AcDbLine
 10
124.221403
 20
152.262884
 30
0.0
 11
124.221403
 21
150.762877
 31
0.0
  0
LINE
  5
BC45
330
BB9D
100
AcDbEntity
  8
1
  6
Continuous
100
AcDbLine
 10
85.72140299999999
 20
152.262884
 30
0.0
 11
124.221403
 21
152.262884
 31
0.0
  0
LINE
  5
BC46
330
BB9D
100
AcDbEntity
  8
1
  6
Continuous
100
AcDbLine
 10
98.97140300000003
 20
162.762893
 30
0.0
 11
98.97140300000003
 21
152.262884
 31
0.0
  0
LINE
  5
BC47
330
BB9D
100
AcDbEntity
  8
1
  6
Continuous
100
AcDbLine
 10
110.971403
 20
162.762893
 30
0.0
 11
110.971403
 21
152.262884
 31
0.0
  0
LINE
  5
BC48
330
BB9D
100
AcDbEntity
  8
1
  6
Continuous
100
AcDbLine
 10
98.97140300000003
 20
162.762893
 30
0.0
 11
110.971403
 21
162.762893
 31
0.0
  0
LINE
  5
BC49
330
BB9D
100
AcDbEntity
  8
1
  6
Continuous
100
AcDbLine
 10
98.97140300000003
 20
162.358599
 30
0.0
 11
110.971403
 21
162.358599
 31
0.0
  0
LINE
  5
BC4A
330
BB9D
100
AcDbEntity
  8
1
  6
Continuous
100
AcDbLine
 10
98.97140300000003
 20
160.7628929999999
 30
0.0
 11
110.971403
 21
160.7628929999999
 31
0.0
  0
LINE
  5
BC4B
330
BB9D
100
AcDbEntity
  8
4
  6
CENTER
100
AcDbLine
 10
89.72140300000004
 20
154.362884
 30
0.0
 11
89.72140300000004
 21
148.762877
 31
0.0
  0
LINE
  5
BC4C
330
BB9D
100
AcDbEntity
  8
4
  6
CENTER
100
AcDbLine
 10
120.221403
 20
154.362884
 30
0.0
 11
120.221403
 21
148.762877
 31
0.0
  0
LINE
  5
BC4D
330
BB9D
100
AcDbEntity
  8
1
  6
Continuous
100
AcDbLine
 10
466.3670159999998
 20
150.762877
 30
0.0
 11
427.8670159999999
 21
150.762877
 31
0.0
  0
LINE
  5
BC4E
330
BB9D
100
AcDbEntity
  8
4
  6
CENTER
100
AcDbLine
 10
447.1170159999998
 20
167.762893
 30
0.0
 11
447.1170159999998
 21
145.762877
 31
0.0
  0
LINE
  5
BC4F
330
BB9D
100
AcDbEntity
  8
1
  6
Continuous
100
AcDbLine
 10
466.3670159999998
 20
152.262884
 30
0.0
 11
466.3670159999998
 21
150.762877
 31
0.0
  0
LINE
  5
BC50
330
BB9D
100
AcDbEntity
  8
1
  6
Continuous
100
AcDbLine
 10
427.8670159999999
 20
152.262884
 30
0.0
 11
427.8670159999999
 21
150.762877
 31
0.0
  0
LINE
  5
BC51
330
BB9D
100
AcDbEntity
  8
1
  6
Continuous
100
AcDbLine
 10
466.3670159999998
 20
152.262884
 30
0.0
 11
453.117016
 21
152.262884
 31
0.0
  0
LINE
  5
BC52
330
BB9D
100
AcDbEntity
  8
1
  6
Continuous
100
AcDbLine
 10
453.117016
 20
162.762893
 30
0.0
 11
453.117016
 21
150.762877
 31
0.0
  0
LINE
  5
BC53
330
BB9D
100
AcDbEntity
  8
1
  6
Continuous
100
AcDbLine
 10
441.117016
 20
162.762893
 30
0.0
 11
441.117016
 21
150.762877
 31
0.0
  0
LINE
  5
BC54
330
BB9D
100
AcDbEntity
  8
1
  6
Continuous
100
AcDbLine
 10
453.117016
 20
162.762893
 30
0.0
 11
441.117016
 21
162.762893
 31
0.0
  0
LINE
  5
BC55
330
BB9D
100
AcDbEntity
  8
4
  6
CENTER
100
AcDbLine
 10
431.8670159999999
 20
154.362884
 30
0.0
 11
431.8670159999999
 21
148.762877
 31
0.0
  0
LINE
  5
BC56
330
BB9D
100
AcDbEntity
  8
4
  6
CENTER
100
AcDbLine
 10
462.3670159999998
 20
154.362884
 30
0.0
 11
462.3670159999998
 21
148.762877
 31
0.0
  0
LINE
  5
BC57
330
BB9D
100
AcDbEntity
  8
1
  6
Continuous
100
AcDbLine
 10
441.117016
 20
152.262884
 30
0.0
 11
427.8670159999999
 21
152.262884
 31
0.0
  0
LINE
  5
BC58
330
BB9D
100
AcDbEntity
  8
4
  6
CENTER
100
AcDbLine
 10
276.390982
 20
154.362884
 30
0.0
 11
276.390982
 21
148.762877
 31
0.0
  0
LINE
  5
BC59
330
BB9D
100
AcDbEntity
  8
4
  6
CENTER
100
AcDbLine
 10
89.72140300000004
 20
280.2047729999998
 30
0.0
 11
89.72140300000004
 21
288.204773
 31
0.0
  0
LINE
  5
BC5A
330
BB9D
100
AcDbEntity
  8
4
  6
CENTER
100
AcDbLine
 10
120.221403
 20
280.2047729999998
 30
0.0
 11
120.221403
 21
288.204773
 31
0.0
  0
LINE
  5
BC5B
330
BB9D
100
AcDbEntity
  8
4
  6
CENTER
100
AcDbLine
 10
80.72140299999999
 20
84.90353799999999
 30
0.0
 11
129.221403
 21
84.90353799999999
 31
0.0
  0
LINE
  5
BC5C
330
BB9D
100
AcDbEntity
  8
4
  6
CENTER
100
AcDbLine
 10
104.971403
 20
93.903546
 30
0.0
 11
104.971403
 21
72.903538
 31
0.0
  0
LINE
  5
BC5D
330
BB9D
100
AcDbEntity
  8
1
  6
Continuous
100
AcDbLine
 10
89.72140300000004
 20
80.903538
 30
0.0
 11
98.97140300000003
 21
80.903538
 31
0.0
  0
LINE
  5
BC5E
330
BB9D
100
AcDbEntity
  8
1
  6
Continuous
100
AcDbLine
 10
89.72140300000004
 20
88.903546
 30
0.0
 11
120.221403
 21
88.903546
 31
0.0
  0
LINE
  5
BC5F
330
BB9D
100
AcDbEntity
  8
1
  6
Continuous
100
AcDbLine
 10
98.97140300000003
 20
80.903538
 30
0.0
 11
98.97140300000003
 21
77.903538
 31
0.0
  0
LINE
  5
BC60
330
BB9D
100
AcDbEntity
  8
1
  6
Continuous
100
AcDbLine
 10
110.971403
 20
80.903538
 30
0.0
 11
110.971403
 21
77.903538
 31
0.0
  0
LINE
  5
BC61
330
BB9D
100
AcDbEntity
  8
1
  6
Continuous
100
AcDbLine
 10
98.97140300000003
 20
77.903538
 30
0.0
 11
110.971403
 21
77.903538
 31
0.0
  0
LINE
  5
BC62
330
BB9D
100
AcDbEntity
  8
4
  6
CENTER
100
AcDbLine
 10
89.72140300000004
 20
88.903546
 30
0.0
 11
89.72140300000004
 21
80.903538
 31
0.0
  0
LINE
  5
BC63
330
BB9D
100
AcDbEntity
  8
4
  6
CENTER
100
AcDbLine
 10
120.221403
 20
88.903546
 30
0.0
 11
120.221403
 21
80.903538
 31
0.0
  0
LINE
  5
BC64
330
BB9D
100
AcDbEntity
  8
1
  6
Continuous
100
AcDbLine
 10
110.971403
 20
80.903538
 30
0.0
 11
120.221403
 21
80.903538
 31
0.0
  0
LINE
  5
BC65
330
BB9D
100
AcDbEntity
  8
1
  6
Continuous
100
AcDbLine
 10
98.97140300000003
 20
283.2047729999998
 30
0.0
 11
110.971403
 21
283.2047729999998
 31
0.0
  0
ARC
  5
BC66
330
BB9D
100
AcDbEntity
  8
1
  6
Continuous
100
AcDbCircle
 10
29.813418
 20
323.9047849999999
 30
0.0
 40
5.5
100
AcDbArc
 50
359.999997
 51
180.000005
  0
ARC
  5
BC67
330
BB9D
100
AcDbEntity
  8
1
  6
Continuous
100
AcDbCircle
 10
29.813418
 20
322.9353950000001
 30
0.0
 40
5.5
100
AcDbArc
 50
359.999997
 51
180.000005
  0
ARC
  5
BC68
330
BB9D
100
AcDbEntity
  8
1
  6
Continuous
100
AcDbCircle
 10
29.813418
 20
317.935395
 30
0.0
 40
2.0
100
AcDbArc
 50
359.999997
 51
180.000005
  0
ARC
  5
BC69
330
BB9D
100
AcDbEntity
  8
1
  6
Continuous
100
AcDbCircle
 10
29.813418
 20
313.935395
 30
0.0
 40
2.0
100
AcDbArc
 50
180.000009
 51
0.000001
  0
ARC
  5
BC6A
330
BB9D
100
AcDbEntity
  8
1
  6
Continuous
100
AcDbCircle
 10
232.689123
 20
203.0429369999999
 30
0.0
 40
1.5
100
AcDbArc
 50
90.00000300000001
 51
180.000005
  0
ARC
  5
BC6B
330
BB9D
100
AcDbEntity
  8
1
  6
Continuous
100
AcDbCircle
 10
237.689123
 20
203.0429369999999
 30
0.0
 40
1.5
100
AcDbArc
 50
1.896021
 51
90.00000300000001
  0
ARC
  5
BC6C
330
BB9D
100
AcDbEntity
  8
1
  6
Continuous
100
AcDbCircle
 10
29.313418
 20
203.0429369999999
 30
0.0
 40
1.5
100
AcDbArc
 50
90.00000300000001
 51
180.000005
  0
ARC
  5
BC6D
330
BB9D
100
AcDbEntity
  8
1
  6
Continuous
100
AcDbCircle
 10
30.31341799999999
 20
203.0429369999999
 30
0.0
 40
1.5
100
AcDbArc
 50
0.0
 51
90.00000300000001
  0
ARC
  5
BC6E
330
BB9D
100
AcDbEntity
  8
1
  6
Continuous
100
AcDbCircle
 10
377.307721
 20
193.5865159999999
 30
0.0
 40
12.456407
100
AcDbArc
 50
70.44430300000001
 51
109.5556949999999
  0
ARC
  5
BC6F
330
BB9D
100
AcDbEntity
  8
1
  6
Continuous
100
AcDbCircle
 10
377.307721
 20
192.3065179999999
 30
0.0
 40
12.456407
100
AcDbArc
 50
70.44430300000001
 51
109.5556949999999
  0
ARC
  5
BC70
330
BB9D
100
AcDbEntity
  8
1
  6
Continuous
100
AcDbCircle
 10
380.807721
 20
203.4397569999999
 30
0.0
 40
2.0
100
AcDbArc
 50
0.0
 51
70.44430300000001
  0
ARC
  5
BC71
330
BB9D
100
AcDbEntity
  8
1
  6
Continuous
100
AcDbCircle
 10
380.807721
 20
202.159759
 30
0.0
 40
2.0
100
AcDbArc
 50
0.0
 51
70.44430300000001
  0
ARC
  5
BC72
330
BB9D
100
AcDbEntity
  8
1
  6
Continuous
100
AcDbCircle
 10
373.807721
 20
203.4397569999999
 30
0.0
 40
2.0
100
AcDbArc
 50
109.5556949999999
 51
180.000005
  0
ARC
  5
BC73
330
BB9D
100
AcDbEntity
  8
1
  6
Continuous
100
AcDbCircle
 10
373.807721
 20
202.159759
 30
0.0
 40
2.0
100
AcDbArc
 50
109.5556949999999
 51
180.000005
  0
ARC
  5
BC74
330
BB9D
100
AcDbEntity
  8
1
  6
Continuous
100
AcDbCircle
 10
22.267592
 20
159.662887
 30
0.0
 40
2.754166999999998
100
AcDbArc
 50
153.0085319999998
 51
206.991465
  0
ARC
  5
BC75
330
BB9D
100
AcDbEntity
  8
1
  6
Continuous
100
AcDbCircle
 10
37.359253
 20
159.662887
 30
0.0
 40
2.754166999999998
100
AcDbArc
 50
333.008534
 51
26.991466
  0
ARC
  5
BC76
330
BB9D
100
AcDbEntity
  8
1
  6
Continuous
100
AcDbCircle
 10
29.813418
 20
192.432769
 30
0.0
 40
13.61017399999999
100
AcDbArc
 50
72.454701
 51
107.5452969999999
  0
ARC
  5
BC77
330
BB9D
100
AcDbEntity
  8
1
  6
Continuous
100
AcDbCircle
 10
26.31341799999999
 20
203.502807
 30
0.0
 40
2.0
100
AcDbArc
 50
107.5452969999999
 51
180.000005
  0
ARC
  5
BC78
330
BB9D
100
AcDbEntity
  8
1
  6
Continuous
100
AcDbCircle
 10
33.313418
 20
203.502807
 30
0.0
 40
2.0
100
AcDbArc
 50
0.0
 51
72.454701
  0
ARC
  5
BC79
330
BB9D
100
AcDbEntity
  8
1
  6
Continuous
100
AcDbCircle
 10
237.72907
 20
218.0428759999998
 30
0.0
 40
15.0
100
AcDbArc
 50
269.847479
 51
306.8702359999999
  0
ARC
  5
BC7A
330
BB9D
100
AcDbEntity
  8
1
  6
Continuous
100
AcDbCircle
 10
89.72140300000004
 20
284.2047729999998
 30
0.0
 40
4.0
100
AcDbArc
 50
90.00000300000001
 51
270.000001
  0
ARC
  5
BC7B
330
BB9D
100
AcDbEntity
  8
1
  6
Continuous
100
AcDbCircle
 10
120.221403
 20
284.2047729999998
 30
0.0
 40
4.0
100
AcDbArc
 50
269.9999969999999
 51
90.00000300000001
  0
CIRCLE
  5
BC7C
330
BB9D
100
AcDbEntity
  8
1
  6
Continuous
100
AcDbCircle
 10
89.72140300000004
 20
284.2047729999998
 30
0.0
 40
2.25
  0
CIRCLE
  5
BC7D
330
BB9D
100
AcDbEntity
  8
1
  6
Continuous
100
AcDbCircle
 10
120.221403
 20
284.2047729999998
 30
0.0
 40
2.25
  0
ARC
  5
BC7E
330
BB9D
100
AcDbEntity
  8
1
  6
Continuous
100
AcDbCircle
 10
278.2910069999999
 20
157.662887
 30
0.0
 40
5.099999999999997
100
AcDbArc
 50
0.0
 51
99.12568500000002
  0
ARC
  5
BC7F
330
BB9D
100
AcDbEntity
  8
1
  6
Continuous
100
AcDbCircle
 10
89.72140300000004
 20
84.90353799999999
 30
0.0
 40
4.0
100
AcDbArc
 50
89.99999599999998
 51
270.000001
  0
ARC
  5
BC80
330
BB9D
100
AcDbEntity
  8
1
  6
Continuous
100
AcDbCircle
 10
120.221403
 20
84.90353799999999
 30
0.0
 40
4.0
100
AcDbArc
 50
269.9999969999999
 51
90.00000300000001
  0
CIRCLE
  5
BC81
330
BB9D
100
AcDbEntity
  8
1
  6
Continuous
100
AcDbCircle
 10
120.221403
 20
84.90353799999999
 30
0.0
 40
2.25
  0
CIRCLE
  5
BC82
330
BB9D
100
AcDbEntity
  8
1
  6
Continuous
100
AcDbCircle
 10
89.72140300000004
 20
84.90353799999999
 30
0.0
 40
2.25
  0
LINE
  5
BC83
330
BB9D
100
AcDbEntity
  8
4
  6
CENTER
100
AcDbLine
 10
26.31341799999999
 20
312.704773
 30
0.0
 11
33.313418
 21
312.704773
 31
0.0
  0
LINE
  5
BC84
330
BB9D
100
AcDbEntity
  8
4
  6
CENTER
100
AcDbLine
 10
26.31341799999999
 20
323.9047849999999
 30
0.0
 11
33.313418
 21
323.9047849999999
 31
0.0
  0
LINE
  5
BC85
330
BB9D
100
AcDbEntity
  8
4
  6
CENTER
100
AcDbLine
 10
25.909018
 20
159.662887
 30
0.0
 11
32.825182
 21
159.662887
 31
0.0
  0
ARC
  5
BC86
330
BB9D
100
AcDbEntity
  8
1
  6
Continuous
100
AcDbCircle
 10
21.56654
 20
197.0429369999999
 30
0.0
 40
2.153125
100
AcDbArc
 50
144.510658
 51
215.489342
  0
ARC
  5
BC87
330
BB9D
100
AcDbEntity
  8
1
  6
Continuous
100
AcDbCircle
 10
369.06085
 20
197.0429369999999
 30
0.0
 40
2.153125
100
AcDbArc
 50
144.510656
 51
215.48934
  0
ARC
  5
BC88
330
BB9D
100
AcDbEntity
  8
1
  6
Continuous
100
AcDbCircle
 10
369.0608429999999
 20
197.0429369999999
 30
0.0
 40
2.153125
100
AcDbArc
 50
144.510658
 51
215.489342
  0
ARC
  5
BC89
330
BB9D
100
AcDbEntity
  8
1
  6
Continuous
100
AcDbCircle
 10
385.5545989999998
 20
197.0429369999999
 30
0.0
 40
2.153125
100
AcDbArc
 50
324.5106579999998
 51
35.489342
  0
LINE
  5
BC8A
330
BB9D
100
AcDbEntity
  8
1
  6
Continuous
100
AcDbLine
 10
385.807721
 20
161.162887
 30
0.0
 11
368.807721
 21
161.162887
 31
0.0
  0
LINE
  5
BC8B
330
BB9D
100
AcDbEntity
  8
4
  6
CENTER
100
AcDbLine
 10
389.807721
 20
159.662887
 30
0.0
 11
364.807721
 21
159.662887
 31
0.0
  0
LINE
  5
BC8C
330
BB9D
100
AcDbEntity
  8
1
  6
Continuous
100
AcDbLine
 10
385.807721
 20
158.162887
 30
0.0
 11
368.807721
 21
158.162887
 31
0.0
  0
LINE
  5
BC8D
330
BB9D
100
AcDbEntity
  8
4
  6
CENTER
100
AcDbLine
 10
373.40332
 20
159.662887
 30
0.0
 11
380.3194839999999
 21
159.662887
 31
0.0
  0
ARC
  5
BC8E
330
BB9D
100
AcDbEntity
  8
1
  6
Continuous
100
AcDbCircle
 10
280.390982
 20
153.7628769999998
 30
0.0
 40
3.0
100
AcDbArc
 50
270.0
 51
0.0
  0
LINE
  5
BC8F
330
BB9D
100
AcDbEntity
  8
1
  6
Continuous
100
AcDbLine
 10
272.390982
 20
152.262877
 30
0.0
 11
280.390982
 21
152.262877
 31
0.0
  0
ARC
  5
BC90
330
BB9D
100
AcDbEntity
  8
1
  6
Continuous
100
AcDbCircle
 10
280.390982
 20
153.7628769999998
 30
0.0
 40
1.5
100
AcDbArc
 50
270.0
 51
0.0
  0
LINE
  5
BC91
330
BB9D
100
AcDbEntity
  8
1
  6
Continuous
100
AcDbLine
 10
281.890982
 20
157.662887
 30
0.0
 11
281.890982
 21
153.7628769999998
 31
0.0
  0
ARC
  5
BC92
330
BB9D
100
AcDbEntity
  8
1
  6
Continuous
100
AcDbCircle
 10
278.2910069999999
 20
157.662887
 30
0.0
 40
3.6
100
AcDbArc
 50
0.0
 51
99.12568500000002
  0
LINE
  5
BC93
330
BB9D
100
AcDbEntity
  8
1
  6
Continuous
100
AcDbLine
 10
274.890982
 20
160.7628769999998
 30
0.0
 11
277.7200439999999
 21
161.2173209999999
 31
0.0
  0
LINE
  5
BC94
330
BB9D
100
AcDbEntity
  8
1
  6
Continuous
100
AcDbLine
 10
275.3671729999999
 20
162.358599
 30
0.0
 11
277.482143
 21
162.6983349999999
 31
0.0
  0
ARC
  5
BC95
330
BB9D
100
AcDbEntity
  8
1
  6
Continuous
100
AcDbCircle
 10
38.060296
 20
197.0429369999999
 30
0.0
 40
2.153125
100
AcDbArc
 50
324.5106579999998
 51
35.489342
  0
LINE
  5
BC96
330
BB9D
100
AcDbEntity
  8
1
  6
Continuous
100
AcDbLine
 10
39.81342399999999
 20
199.042937
 30
0.0
 11
38.313418
 21
199.042937
 31
0.0
  0
LINE
  5
BC97
330
BB9D
100
AcDbEntity
  8
1
  6
Continuous
100
AcDbLine
 10
39.813423
 20
161.7859959999998
 30
0.0
 11
38.313417
 21
161.7859959999998
 31
0.0
  0
ARC
  5
BC98
330
BB9D
100
AcDbEntity
  8
1
  6
Continuous
100
AcDbCircle
 10
37.359245
 20
159.662887
 30
0.0
 40
2.754166999999998
100
AcDbArc
 50
333.008535
 51
26.99146799999999
  0
LINE
  5
BC99
330
BB9D
100
AcDbEntity
  8
1
  6
Continuous
100
AcDbLine
 10
39.813423
 20
157.662887
 30
0.0
 11
38.313417
 21
157.662887
 31
0.0
  0
LINE
  5
BC9A
330
BB9D
100
AcDbEntity
  8
1
  6
Continuous
100
AcDbLine
 10
23.71341999999999
 20
201.542937
 30
0.0
 11
35.913424
 21
201.542937
 31
0.0
  0
LINE
  5
BC9B
330
BB9D
100
AcDbEntity
  8
1
  6
Continuous
100
AcDbLine
 10
35.913424
 20
201.542937
 30
0.0
 11
35.913424
 21
183.042937
 31
0.0
  0
LINE
  5
BC9C
330
BB9D
100
AcDbEntity
  8
1
  6
Continuous
100
AcDbLine
 10
23.71341999999999
 20
201.542937
 30
0.0
 11
23.71341999999999
 21
183.042937
 31
0.0
  0
ARC
  5
BC9D
330
BB9D
100
AcDbEntity
  8
1
  6
Continuous
100
AcDbCircle
 10
23.71341999999999
 20
201.542937
 30
0.0
 40
1.5
100
AcDbArc
 50
90.0
 51
180.0
  0
ARC
  5
BC9E
330
BB9D
100
AcDbEntity
  8
1
  6
Continuous
100
AcDbCircle
 10
35.913424
 20
201.542937
 30
0.0
 40
1.5
100
AcDbArc
 50
0.0
 51
90.0
  0
ARC
  5
BC9F
330
BB9D
100
AcDbEntity
  8
1
  6
Continuous
100
AcDbCircle
 10
237.72907
 20
218.0428759999998
 30
0.0
 40
16.5
100
AcDbArc
 50
269.85502
 51
307.131121
  0
LINE
  5
BCA0
330
BB9D
100
AcDbEntity
  8
1
  6
Continuous
100
AcDbLine
 10
235.189123
 20
201.542937
 30
0.0
 11
237.689123
 21
201.542937
 31
0.0
  0
ARC
  5
BCA1
330
BB9D
100
AcDbEntity
  8
1
  6
Continuous
100
AcDbCircle
 10
384.8535549999999
 20
159.662887
 30
0.0
 40
2.754166999999998
100
AcDbArc
 50
333.008534
 51
26.991466
  0
ARC
  5
BCA2
330
BB9D
100
AcDbEntity
  8
1
  6
Continuous
100
AcDbCircle
 10
384.8535469999998
 20
159.662887
 30
0.0
 40
2.754166999999998
100
AcDbArc
 50
333.008535
 51
26.99146799999999
  0
LINE
  5
BCA3
330
BB9D
100
AcDbEntity
  8
1
  6
Continuous
100
AcDbLine
 10
387.307725
 20
157.662887
 30
0.0
 11
385.807719
 21
157.662887
 31
0.0
  0
LINE
  5
BCA4
330
BB9D
100
AcDbEntity
  8
1
  6
Continuous
100
AcDbLine
 10
387.3077269999998
 20
199.042937
 30
0.0
 11
385.807721
 21
199.042937
 31
0.0
  0
LINE
  5
BCA5
330
BB9D
100
AcDbEntity
  8
1
  6
Continuous
100
AcDbLine
 10
367.3077149999999
 20
199.042937
 30
0.0
 11
368.807721
 21
199.042937
 31
0.0
  0
LINE
  5
BCA6
330
BB9D
100
AcDbEntity
  8
1
  6
Continuous
100
AcDbLine
 10
368.807721
 20
191.4532759999999
 30
0.0
 11
368.807721
 21
199.042937
 31
0.0
  0
LINE
  5
BCA7
330
BB9D
100
AcDbEntity
  8
1
  6
Continuous
100
AcDbLine
 10
367.3077149999999
 20
191.4514709999999
 30
0.0
 11
367.3077149999999
 21
199.042937
 31
0.0
  0
LINE
  5
BCA8
330
BB9D
100
AcDbEntity
  8
1
  6
Continuous
100
AcDbLine
 10
365.307719
 20
185.759711
 30
0.0
 11
365.307719
 21
189.9532759999999
 31
0.0
  0
LINE
  5
BCA9
330
BB9D
100
AcDbEntity
  8
1
  6
Continuous
100
AcDbLine
 10
363.807721
 20
190.1476399999999
 30
0.0
 11
363.807721
 21
185.516287
 31
0.0
  0
LINE
  5
BCAA
330
BB9D
100
AcDbEntity
  8
1
  6
Continuous
100
AcDbLine
 10
365.307719
 20
171.803287
 30
0.0
 11
365.307719
 21
175.5438189999999
 31
0.0
  0
LINE
  5
BCAB
330
BB9D
100
AcDbEntity
  8
1
  6
Continuous
100
AcDbLine
 10
362.3077149999998
 20
188.594495
 30
0.0
 11
362.3077149999998
 21
185.2998129999998
 31
0.0
  0
LINE
  5
BCAC
330
BB9D
100
AcDbEntity
  8
1
  6
Continuous
100
AcDbLine
 10
363.807721
 20
175.3273209999999
 30
0.0
 11
363.807721
 21
168.150858
 31
0.0
  0
LINE
  5
BCAD
330
BB9D
100
AcDbEntity
  8
1
  6
Continuous
100
AcDbLine
 10
362.3077149999998
 20
175.1108229999999
 30
0.0
 11
362.3077149999998
 21
168.1526619999999
 31
0.0
  0
LINE
  5
BCAE
330
BB9D
100
AcDbEntity
  8
1
  6
Continuous
100
AcDbLine
 10
367.307716
 20
166.6526619999999
 30
0.0
 11
367.307716
 21
157.662887
 31
0.0
  0
LINE
  5
BCAF
330
BB9D
100
AcDbEntity
  8
1
  6
Continuous
100
AcDbLine
 10
368.8077149999998
 20
166.847027
 30
0.0
 11
368.8077149999998
 21
157.662887
 31
0.0
  0
LINE
  5
BCB0
330
BB9D
100
AcDbEntity
  8
1
  6
Continuous
100
AcDbLine
 10
367.307716
 20
157.662887
 30
0.0
 11
368.807722
 21
157.662887
 31
0.0
  0
ARC
  5
BCB1
330
BB9D
100
AcDbEntity
  8
1
  6
Continuous
100
AcDbCircle
 10
371.2077449999999
 20
201.542937
 30
0.0
 40
1.5
100
AcDbArc
 50
90.0
 51
180.0
  0
ARC
  5
BCB2
330
BB9D
100
AcDbEntity
  8
1
  6
Continuous
100
AcDbCircle
 10
383.4076959999999
 20
201.542937
 30
0.0
 40
1.5
100
AcDbArc
 50
0.0
 51
90.0
  0
ARC
  5
BCB3
330
BB9D
100
AcDbEntity
  8
1
  6
Continuous
100
AcDbCircle
 10
369.7618939999999
 20
159.662887
 30
0.0
 40
2.754166999999998
100
AcDbArc
 50
153.0085319999998
 51
206.991465
  0
LINE
  5
BCB4
330
BB9D
100
AcDbEntity
  8
4
  6
CENTER
100
AcDbLine
 10
200.189123
 20
190.542937
 30
0.0
 11
200.189123
 21
183.5429369999999
 31
0.0
  0
LINE
  5
BCB5
330
BB9D
100
AcDbEntity
  8
1
  6
Continuous
100
AcDbLine
 10
201.191529
 20
197.1410219999999
 30
0.0
 11
200.763454
 21
188.422847
 31
0.0
  0
LINE
  5
BCB6
330
BB9D
100
AcDbEntity
  8
1
  6
Continuous
100
AcDbLine
 10
205.186716
 20
196.944852
 30
0.0
 11
204.758641
 21
188.226677
 31
0.0
  0
LINE
  5
BCB7
330
BB9D
100
AcDbEntity
  8
1
  6
Continuous
100
AcDbLine
 10
200.189123
 20
203.0429369999999
 30
0.0
 11
196.316137
 21
188.0429369999999
 31
0.0
  0
LINE
  5
BCB8
330
BB9D
100
AcDbEntity
  8
1
  6
Continuous
100
AcDbLine
 10
204.1484819999999
 20
175.800197
 30
0.0
 11
203.59773
 21
164.5835909999999
 31
0.0
  0
LINE
  5
BCB9
330
BB9D
100
AcDbEntity
  8
1
  6
Continuous
100
AcDbLine
 10
200.1249819999999
 20
175.419734
 30
0.0
 11
199.5212869999998
 21
163.1248939999998
 31
0.0
  0
LINE
  5
BCBA
330
BB9D
100
AcDbEntity
  8
1
  6
Continuous
100
AcDbLine
 10
203.59773
 20
164.5835909999999
 30
0.0
 11
206.8403949999999
 21
161.006043
 31
0.0
  0
LINE
  5
BCBB
330
BB9D
100
AcDbEntity
  8
4
  6
CENTER
100
AcDbLine
 10
202.01937
 20
159.662887
 30
0.0
 11
208.935534
 21
159.662887
 31
0.0
  0
ARC
  5
BCBC
330
BB9D
100
AcDbEntity
  8
1
  6
Continuous
100
AcDbCircle
 10
205.358526
 20
159.662887
 30
0.0
 40
2.0
100
AcDbArc
 50
222.18895
 51
42.188951
  0
CIRCLE
  5
BCBD
330
BB9D
100
AcDbEntity
  8
1
  6
Continuous
100
AcDbCircle
 10
205.358526
 20
159.662887
 30
0.0
 40
1.25
  0
LINE
  5
BCBE
330
BB9D
100
AcDbEntity
  8
1
  6
Continuous
100
AcDbLine
 10
203.699325
 20
166.6526619999999
 30
0.0
 11
199.7041379999998
 21
166.8488319999999
 31
0.0
  0
LINE
  5
BCBF
330
BB9D
100
AcDbEntity
  8
1
  6
Continuous
100
AcDbLine
 10
199.5212869999998
 20
163.1248939999998
 30
0.0
 11
203.876656
 21
158.3197299999999
 31
0.0
  0
LINE
  5
BCC0
330
BB9D
100
AcDbEntity
  8
4
  6
CENTER
100
AcDbLine
 10
205.358526
 20
163.162887
 30
0.0
 11
205.358526
 21
156.162887
 31
0.0
  0
LINE
  5
BCC1
330
BB9D
100
AcDbEntity
  8
1
  6
Continuous
100
AcDbLine
 10
206.250594
 20
183.947582
 30
0.0
 11
198.605949
 21
183.224824
 31
0.0
  0
LINE
  5
BCC2
330
BB9D
100
AcDbEntity
  8
1
  6
Continuous
100
AcDbLine
 10
206.382368
 20
182.553797
 30
0.0
 11
198.7377229999999
 21
181.8310389999998
 31
0.0
  0
LINE
  5
BCC3
330
BB9D
100
AcDbEntity
  8
1
  6
Continuous
100
AcDbLine
 10
206.4899469999998
 20
184.7447579999999
 30
0.0
 11
198.845303
 21
184.022
 31
0.0
  0
LINE
  5
BCC4
330
BB9D
100
AcDbEntity
  8
1
  6
Continuous
100
AcDbLine
 10
206.358173
 20
186.1385419999998
 30
0.0
 11
198.713528
 21
185.415784
 31
0.0
  0
LINE
  5
BCC5
330
BB9D
100
AcDbEntity
  8
1
  6
Continuous
100
AcDbLine
 10
208.2544289999999
 20
188.055029
 30
0.0
 11
197.267665
 21
188.594495
 31
0.0
  0
LINE
  5
BCC6
330
BB9D
100
AcDbEntity
  8
1
  6
Continuous
100
AcDbLine
 10
204.3636419999999
 20
180.182149
 30
0.0
 11
204.3254339999998
 21
179.40399
 31
0.0
  0
LINE
  5
BCC7
330
BB9D
100
AcDbEntity
  8
1
  6
Continuous
100
AcDbLine
 10
204.243334
 20
177.7319409999998
 30
0.0
 11
206.127585
 21
177.364893
 31
0.0
  0
LINE
  5
BCC8
330
BB9D
100
AcDbEntity
  8
1
  6
Continuous
100
AcDbLine
 10
204.3138959999998
 20
175.815839
 30
0.0
 11
206.0039269999998
 21
175.5761109999999
 31
0.0
  0
LINE
  5
BCC9
330
BB9D
100
AcDbEntity
  8
1
  6
Continuous
100
AcDbLine
 10
204.107783
 20
174.971325
 30
0.0
 11
207.6035719999999
 21
174.799677
 31
0.0
  0
LINE
  5
BCCA
330
BB9D
100
AcDbEntity
  8
1
  6
Continuous
100
AcDbLine
 10
203.960656
 20
171.9749349999999
 30
0.0
 11
207.456444
 21
171.803287
 31
0.0
  0
LINE
  5
BCCB
330
BB9D
100
AcDbEntity
  8
1
  6
Continuous
100
AcDbLine
 10
206.2747889999999
 20
180.362837
 30
0.0
 11
198.630144
 21
179.6400789999999
 31
0.0
  0
LINE
  5
BCCC
330
BB9D
100
AcDbEntity
  8
1
  6
Continuous
100
AcDbLine
 10
206.059641
 20
175.980917
 30
0.0
 11
198.41499
 21
175.2580369999998
 31
0.0
  0
LINE
  5
BCCD
330
BB9D
100
AcDbEntity
  8
1
  6
Continuous
100
AcDbLine
 10
198.2831939999999
 20
176.6518199999999
 30
0.0
 11
205.9278439999999
 21
177.374699
 31
0.0
  0
LINE
  5
BCCE
330
BB9D
100
AcDbEntity
  8
1
  6
Continuous
100
AcDbLine
 10
206.0354349999999
 20
179.5656609999998
 30
0.0
 11
198.3907899999999
 21
178.842903
 31
0.0
  0
LINE
  5
BCCF
330
BB9D
100
AcDbEntity
  8
1
  6
Continuous
100
AcDbLine
 10
206.167209
 20
178.1718759999999
 30
0.0
 11
198.5225649999999
 21
177.449118
 31
0.0
  0
LINE
  5
BCD0
330
BB9D
100
AcDbEntity
  8
1
  6
Continuous
100
AcDbLine
 10
206.143014
 20
181.756621
 30
0.0
 11
198.4983699999999
 21
181.033863
 31
0.0
  0
LINE
  5
BCD1
330
BB9D
100
AcDbEntity
  8
1
  6
Continuous
100
AcDbLine
 10
200.6653689999999
 20
186.4252529999999
 30
0.0
 11
200.6246749999998
 21
185.596472
 31
0.0
  0
LINE
  5
BCD2
330
BB9D
100
AcDbEntity
  8
1
  6
Continuous
100
AcDbLine
 10
200.555304
 20
184.183671
 30
0.0
 11
200.5170949999999
 21
183.405512
 31
0.0
  0
LINE
  5
BCD3
330
BB9D
100
AcDbEntity
  8
1
  6
Continuous
100
AcDbLine
 10
199.8993409999999
 20
188.8229999999999
 30
0.0
 11
200.7800809999999
 21
188.42203
 31
0.0
  0
ARC
  5
BCD4
330
BB9D
100
AcDbEntity
  8
1
  6
Continuous
100
AcDbCircle
 10
198.7794159999999
 20
184.7188919999999
 30
0.0
 40
0.7
100
AcDbArc
 50
95.40093799999999
 51
275.4009379999999
  0
ARC
  5
BCD5
330
BB9D
100
AcDbEntity
  8
1
  6
Continuous
100
AcDbCircle
 10
198.867535
 20
186.51353
 30
0.0
 40
0.7
100
AcDbArc
 50
177.18895
 51
261.926554
  0
ARC
  5
BCD6
330
BB9D
100
AcDbEntity
  8
1
  6
Continuous
100
AcDbCircle
 10
200.189123
 20
187.042937
 30
0.0
 40
1.75
100
AcDbArc
 50
225.592989
 51
243.213316
  0
ARC
  5
BCD7
330
BB9D
100
AcDbEntity
  8
1
  6
Continuous
100
AcDbCircle
 10
200.189123
 20
187.042937
 30
0.0
 40
4.0
100
AcDbArc
 50
165.52249
 51
251.3293819999999
  0
LINE
  5
BCD8
330
BB9D
100
AcDbEntity
  8
1
  6
Continuous
100
AcDbLine
 10
197.267665
 20
188.594495
 30
0.0
 11
197.1695809999999
 21
186.596902
 31
0.0
  0
LINE
  5
BCD9
330
BB9D
100
AcDbEntity
  8
1
  6
Continuous
100
AcDbLine
 10
200.6653689999999
 20
186.4252529999999
 30
0.0
 11
198.168377
 21
186.547859
 31
0.0
  0
LINE
  5
BCDA
330
BB9D
100
AcDbEntity
  8
1
  6
Continuous
100
AcDbLine
 10
198.769225
 20
185.820468
 30
0.0
 11
200.458862
 21
185.5807959999999
 31
0.0
  0
LINE
  5
BCDB
330
BB9D
100
AcDbEntity
  8
1
  6
Continuous
100
AcDbLine
 10
198.6455729999999
 20
184.031807
 30
0.0
 11
200.529825
 21
183.664759
 31
0.0
  0
LINE
  5
BCDC
330
BB9D
100
AcDbEntity
  8
1
  6
Continuous
100
AcDbLine
 10
200.6653689999999
 20
186.4252529999999
 30
0.0
 11
197.1695809999999
 21
186.596902
 31
0.0
  0
ARC
  5
BCDD
330
BB9D
100
AcDbEntity
  8
1
  6
Continuous
100
AcDbCircle
 10
200.189123
 20
187.042937
 30
0.0
 40
1.75
100
AcDbArc
 50
70.38346199999998
 51
123.7073169999999
  0
LINE
  5
BCDE
330
BB9D
100
AcDbEntity
  8
1
  6
Continuous
100
AcDbLine
 10
199.8993409999999
 20
188.8229999999999
 30
0.0
 11
199.7404009999999
 21
188.4730799999999
 31
0.0
  0
LINE
  5
BCDF
330
BB9D
100
AcDbEntity
  8
4
  6
CENTER
100
AcDbLine
 10
203.689123
 20
187.042937
 30
0.0
 11
196.689123
 21
187.042937
 31
0.0
  0
LINE
  5
BCE0
330
BB9D
100
AcDbEntity
  8
1
  6
Continuous
100
AcDbLine
 10
204.2560629999999
 20
177.991188
 30
0.0
 11
204.217853
 21
177.2130019999999
 31
0.0
  0
LINE
  5
BCE1
330
BB9D
100
AcDbEntity
  8
1
  6
Continuous
100
AcDbLine
 10
200.2325659999999
 20
177.6107889999999
 30
0.0
 11
200.194353
 21
176.832539
 31
0.0
  0
LINE
  5
BCE2
330
BB9D
100
AcDbEntity
  8
1
  6
Continuous
100
AcDbLine
 10
200.340145
 20
179.80175
 30
0.0
 11
200.301936
 21
179.0235909999999
 31
0.0
  0
ARC
  5
BCE3
330
BB9D
100
AcDbEntity
  8
1
  6
Continuous
100
AcDbCircle
 10
198.5642569999999
 20
180.336971
 30
0.0
 40
0.7
100
AcDbArc
 50
95.40093799999999
 51
275.4009379999999
  0
ARC
  5
BCE4
330
BB9D
100
AcDbEntity
  8
1
  6
Continuous
100
AcDbCircle
 10
198.456677
 20
178.1460109999999
 30
0.0
 40
0.7
100
AcDbArc
 50
95.40093799999999
 51
275.4009379999999
  0
ARC
  5
BCE5
330
BB9D
100
AcDbEntity
  8
1
  6
Continuous
100
AcDbCircle
 10
198.3490919999999
 20
175.9549289999999
 30
0.0
 40
0.7
100
AcDbArc
 50
95.401836
 51
275.4018359999998
  0
LINE
  5
BCE6
330
BB9D
100
AcDbEntity
  8
1
  6
Continuous
100
AcDbLine
 10
196.469681
 20
172.3427529999999
 30
0.0
 11
196.6168079999999
 21
175.339143
 31
0.0
  0
LINE
  5
BCE7
330
BB9D
100
AcDbEntity
  8
1
  6
Continuous
100
AcDbLine
 10
198.4304139999999
 20
179.6498859999999
 30
0.0
 11
200.314666
 21
179.2828379999999
 31
0.0
  0
LINE
  5
BCE8
330
BB9D
100
AcDbEntity
  8
1
  6
Continuous
100
AcDbLine
 10
198.322835
 20
177.458925
 30
0.0
 11
200.2070859999999
 21
177.091878
 31
0.0
  0
LINE
  5
BCE9
330
BB9D
100
AcDbEntity
  8
1
  6
Continuous
100
AcDbLine
 10
196.6168079999999
 20
175.339143
 30
0.0
 11
200.1125959999999
 21
175.1674949999998
 31
0.0
  0
LINE
  5
BCEA
330
BB9D
100
AcDbEntity
  8
1
  6
Continuous
100
AcDbLine
 10
196.469681
 20
172.3427529999999
 30
0.0
 11
199.9654689999999
 21
172.171105
 31
0.0
  0
LINE
  5
BCEB
330
BB9D
100
AcDbEntity
  8
1
  6
Continuous
100
AcDbLine
 10
200.4477249999999
 20
181.9927099999999
 30
0.0
 11
200.4095159999998
 21
181.214551
 31
0.0
  0
LINE
  5
BCEC
330
BB9D
100
AcDbEntity
  8
1
  6
Continuous
100
AcDbLine
 10
198.5379939999999
 20
181.840846
 30
0.0
 11
200.4222449999998
 21
181.4737979999999
 31
0.0
  0
ARC
  5
BCED
330
BB9D
100
AcDbEntity
  8
1
  6
Continuous
100
AcDbCircle
 10
198.671836
 20
182.5279309999999
 30
0.0
 40
0.7
100
AcDbArc
 50
95.40093799999999
 51
275.4009379999999
  0
LINE
  5
BCEE
330
BB9D
100
AcDbEntity
  8
1
  6
Continuous
100
AcDbLine
 10
204.660556
 20
186.229084
 30
0.0
 11
204.648172
 21
185.9768709999999
 31
0.0
  0
LINE
  5
BCEF
330
BB9D
100
AcDbEntity
  8
1
  6
Continuous
100
AcDbLine
 10
204.5660719999999
 20
184.304822
 30
0.0
 11
206.450323
 21
183.9377749999999
 31
0.0
  0
ARC
  5
BCF0
330
BB9D
100
AcDbEntity
  8
1
  6
Continuous
100
AcDbCircle
 10
206.3164809999999
 20
183.2506889999999
 30
0.0
 40
0.7
100
AcDbArc
 50
275.4009379999999
 51
95.40093799999999
  0
ARC
  5
BCF1
330
BB9D
100
AcDbEntity
  8
1
  6
Continuous
100
AcDbCircle
 10
206.42406
 20
185.44165
 30
0.0
 40
0.7
100
AcDbArc
 50
275.4009379999999
 51
95.40093799999999
  0
LINE
  5
BCF2
330
BB9D
100
AcDbEntity
  8
1
  6
Continuous
100
AcDbLine
 10
204.5788009999998
 20
184.5640689999999
 30
0.0
 11
204.5405919999998
 21
183.785911
 31
0.0
  0
LINE
  5
BCF3
330
BB9D
100
AcDbEntity
  8
1
  6
Continuous
100
AcDbLine
 10
208.156344
 20
186.057435
 30
0.0
 11
204.660556
 21
186.229084
 31
0.0
  0
LINE
  5
BCF4
330
BB9D
100
AcDbEntity
  8
1
  6
Continuous
100
AcDbLine
 10
208.2544289999999
 20
188.055029
 30
0.0
 11
208.156344
 21
186.057435
 31
0.0
  0
LINE
  5
BCF5
330
BB9D
100
AcDbEntity
  8
1
  6
Continuous
100
AcDbLine
 10
204.3509129999999
 20
179.922902
 30
0.0
 11
206.235165
 21
179.555854
 31
0.0
  0
ARC
  5
BCF6
330
BB9D
100
AcDbEntity
  8
1
  6
Continuous
100
AcDbCircle
 10
206.1013219999999
 20
178.8687689999999
 30
0.0
 40
0.7
100
AcDbArc
 50
275.4009379999999
 51
95.40093799999999
  0
ARC
  5
BCF7
330
BB9D
100
AcDbEntity
  8
1
  6
Continuous
100
AcDbCircle
 10
205.993743
 20
176.6778079999999
 30
0.0
 40
0.7
100
AcDbArc
 50
275.4018359999998
 51
95.401836
  0
ARC
  5
BCF8
330
BB9D
100
AcDbEntity
  8
1
  6
Continuous
100
AcDbCircle
 10
205.905617
 20
174.883049
 30
0.0
 40
0.7
100
AcDbArc
 50
357.1889499999999
 51
81.92655400000003
  0
LINE
  5
BCF9
330
BB9D
100
AcDbEntity
  8
1
  6
Continuous
100
AcDbLine
 10
207.456444
 20
171.803287
 30
0.0
 11
207.6035719999999
 21
174.799677
 31
0.0
  0
ARC
  5
BCFA
330
BB9D
100
AcDbEntity
  8
1
  6
Continuous
100
AcDbCircle
 10
206.208901
 20
181.059729
 30
0.0
 40
0.7
100
AcDbArc
 50
275.4009379999999
 51
95.40093799999999
  0
LINE
  5
BCFB
330
BB9D
100
AcDbEntity
  8
1
  6
Continuous
100
AcDbLine
 10
204.471222
 20
182.373109
 30
0.0
 11
204.433013
 21
181.59495
 31
0.0
  0
LINE
  5
BCFC
330
BB9D
100
AcDbEntity
  8
1
  6
Continuous
100
AcDbLine
 10
204.4584919999998
 20
182.113862
 30
0.0
 11
206.3427439999999
 21
181.746814
 31
0.0
  0
CIRCLE
  5
BCFD
330
BB9D
100
AcDbEntity
  8
1
  6
Continuous
100
AcDbCircle
 10
203.1891229999998
 20
197.0429369999999
 30
0.0
 40
1.25
  0
ARC
  5
BCFE
330
BB9D
100
AcDbEntity
  8
1
  6
Continuous
100
AcDbCircle
 10
203.1891229999998
 20
197.0429369999999
 30
0.0
 40
2.0
100
AcDbArc
 50
357.1889499999999
 51
177.18895
  0
LINE
  5
BCFF
330
BB9D
100
AcDbEntity
  8
4
  6
CENTER
100
AcDbLine
 10
199.8499669999999
 20
197.0429369999999
 30
0.0
 11
206.766131
 21
197.0429369999999
 31
0.0
  0
LINE
  5
BD00
330
BB9D
100
AcDbEntity
  8
4
  6
CENTER
100
AcDbLine
 10
203.1891229999998
 20
200.5429369999999
 30
0.0
 11
203.1891229999998
 21
193.5429369999999
 31
0.0
  0
LINE
  5
BD01
330
BB9D
100
AcDbEntity
  8
1
  6
Continuous
100
AcDbLine
 10
210.1891529999998
 20
194.542937
 30
0.0
 11
205.817735
 21
188.174674
 31
0.0
  0
LINE
  5
BD02
330
BB9D
100
AcDbEntity
  8
1
  6
Continuous
100
AcDbLine
 10
200.9217959999999
 20
191.64764
 30
0.0
 11
204.9169829999999
 21
191.4514709999999
 31
0.0
  0
LINE
  5
BD03
330
BB9D
100
AcDbEntity
  8
1
  6
Continuous
100
AcDbLine
 10
365.307719
 20
189.9532759999999
 30
0.0
 11
367.307721
 21
189.9532759999999
 31
0.0
  0
LINE
  5
BD04
330
BB9D
100
AcDbEntity
  8
1
  6
Continuous
100
AcDbLine
 10
365.307721
 20
191.4514709999999
 30
0.0
 11
367.3077149999999
 21
191.4514709999999
 31
0.0
  0
LINE
  5
BD05
330
BB9D
100
AcDbEntity
  8
1
  6
Continuous
100
AcDbLine
 10
365.307721
 20
191.64764
 30
0.0
 11
367.3077149999999
 21
191.64764
 31
0.0
  0
ARC
  5
BD06
330
BB9D
100
AcDbEntity
  8
1
  6
Continuous
100
AcDbCircle
 10
365.307721
 20
189.951471
 30
0.0
 40
1.5
100
AcDbArc
 50
90.0
 51
180.0
  0
ARC
  5
BD07
330
BB9D
100
AcDbEntity
  8
1
  6
Continuous
100
AcDbCircle
 10
365.307721
 20
190.1476399999999
 30
0.0
 40
1.5
100
AcDbArc
 50
90.0
 51
180.0
  0
ARC
  5
BD08
330
BB9D
100
AcDbEntity
  8
1
  6
Continuous
100
AcDbCircle
 10
367.307721
 20
191.4532759999999
 30
0.0
 40
1.5
100
AcDbArc
 50
270.0
 51
0.0
  0
LINE
  5
BD09
330
BB9D
100
AcDbEntity
  8
1
  6
Continuous
100
AcDbLine
 10
362.3077149999998
 20
188.055029
 30
0.0
 11
363.807721
 21
188.055029
 31
0.0
  0
LINE
  5
BD0A
330
BB9D
100
AcDbEntity
  8
1
  6
Continuous
100
AcDbLine
 10
362.3077149999998
 20
188.594495
 30
0.0
 11
363.807721
 21
188.594495
 31
0.0
  0
ARC
  5
BD0B
330
BB9D
100
AcDbEntity
  8
1
  6
Continuous
100
AcDbCircle
 10
360.007721
 20
175.4861139999999
 30
0.0
 40
0.7
100
AcDbArc
 50
98.212886
 51
278.2128859999999
  0
ARC
  5
BD0C
330
BB9D
100
AcDbEntity
  8
1
  6
Continuous
100
AcDbCircle
 10
367.6077209999998
 20
176.5830349999999
 30
0.0
 40
0.7
100
AcDbArc
 50
278.2128859999999
 51
98.212886
  0
LINE
  5
BD0D
330
BB9D
100
AcDbEntity
  8
1
  6
Continuous
100
AcDbLine
 10
367.707717
 20
175.8902149999999
 30
0.0
 11
360.1077169999999
 21
174.793293
 31
0.0
  0
LINE
  5
BD0E
330
BB9D
100
AcDbEntity
  8
1
  6
Continuous
100
AcDbLine
 10
360.007721
 20
174.7861139999999
 30
0.0
 11
362.3077149999998
 21
174.7861139999999
 31
0.0
  0
LINE
  5
BD0F
330
BB9D
100
AcDbEntity
  8
1
  6
Continuous
100
AcDbLine
 10
365.972168
 20
175.6397199999999
 30
0.0
 11
367.6719229999998
 21
175.4831629999999
 31
0.0
  0
ARC
  5
BD10
330
BB9D
100
AcDbEntity
  8
1
  6
Continuous
100
AcDbCircle
 10
367.6077209999998
 20
174.7861139999999
 30
0.0
 40
0.7
100
AcDbArc
 50
0.0
 51
84.737605
  0
LINE
  5
BD11
330
BB9D
100
AcDbEntity
  8
1
  6
Continuous
100
AcDbLine
 10
363.807721
 20
174.7861139999999
 30
0.0
 11
368.307721
 21
174.7861139999999
 31
0.0
  0
LINE
  5
BD12
330
BB9D
100
AcDbEntity
  8
1
  6
Continuous
100
AcDbLine
 10
367.7077059999998
 20
182.4710129999999
 30
0.0
 11
360.107706
 21
181.3742129999999
 31
0.0
  0
LINE
  5
BD13
330
BB9D
100
AcDbEntity
  8
1
  6
Continuous
100
AcDbLine
 10
367.507735
 20
181.6630579999998
 30
0.0
 11
359.9077349999998
 21
180.566258
 31
0.0
  0
LINE
  5
BD14
330
BB9D
100
AcDbEntity
  8
1
  6
Continuous
100
AcDbLine
 10
367.7077059999998
 20
180.2774129999999
 30
0.0
 11
360.107706
 21
179.1806129999999
 31
0.0
  0
LINE
  5
BD15
330
BB9D
100
AcDbEntity
  8
1
  6
Continuous
100
AcDbLine
 10
367.7077059999998
 20
178.083813
 30
0.0
 11
360.107706
 21
176.9870129999999
 31
0.0
  0
LINE
  5
BD16
330
BB9D
100
AcDbEntity
  8
1
  6
Continuous
100
AcDbLine
 10
367.507735
 20
179.4694579999998
 30
0.0
 11
359.9077349999998
 21
178.3726579999998
 31
0.0
  0
LINE
  5
BD17
330
BB9D
100
AcDbEntity
  8
1
  6
Continuous
100
AcDbLine
 10
367.507735
 20
186.050258
 30
0.0
 11
359.9077349999998
 21
184.953458
 31
0.0
  0
LINE
  5
BD18
330
BB9D
100
AcDbEntity
  8
1
  6
Continuous
100
AcDbLine
 10
367.7077059999998
 20
184.664613
 30
0.0
 11
360.107706
 21
183.5678129999998
 31
0.0
  0
LINE
  5
BD19
330
BB9D
100
AcDbEntity
  8
1
  6
Continuous
100
AcDbLine
 10
367.507735
 20
183.856658
 30
0.0
 11
359.9077349999998
 21
182.759858
 31
0.0
  0
LINE
  5
BD1A
330
BB9D
100
AcDbEntity
  8
1
  6
Continuous
100
AcDbLine
 10
363.807721
 20
186.057435
 30
0.0
 11
359.307721
 21
186.057435
 31
0.0
  0
LINE
  5
BD1B
330
BB9D
100
AcDbEntity
  8
1
  6
Continuous
100
AcDbLine
 10
359.9077250000001
 20
176.1789349999999
 30
0.0
 11
367.507725
 21
177.2758559999998
 31
0.0
  0
ARC
  5
BD1C
330
BB9D
100
AcDbEntity
  8
1
  6
Continuous
100
AcDbCircle
 10
360.007721
 20
182.067035
 30
0.0
 40
0.7
100
AcDbArc
 50
98.21198800000001
 51
278.2119879999999
  0
ARC
  5
BD1D
330
BB9D
100
AcDbEntity
  8
1
  6
Continuous
100
AcDbCircle
 10
360.007721
 20
177.6798349999999
 30
0.0
 40
0.7
100
AcDbArc
 50
98.21198800000001
 51
278.2119879999999
  0
ARC
  5
BD1E
330
BB9D
100
AcDbEntity
  8
1
  6
Continuous
100
AcDbCircle
 10
360.007721
 20
179.873435
 30
0.0
 40
0.7
100
AcDbArc
 50
98.21198800000001
 51
278.2119879999999
  0
LINE
  5
BD1F
330
BB9D
100
AcDbEntity
  8
1
  6
Continuous
100
AcDbLine
 10
359.9077349999998
 20
181.3742129999999
 30
0.0
 11
362.2077149999999
 21
181.0422899999998
 31
0.0
  0
LINE
  5
BD20
330
BB9D
100
AcDbEntity
  8
1
  6
Continuous
100
AcDbLine
 10
362.2077149999999
 20
180.8981809999999
 30
0.0
 11
362.2077149999999
 21
181.677277
 31
0.0
  0
LINE
  5
BD21
330
BB9D
100
AcDbEntity
  8
1
  6
Continuous
100
AcDbLine
 10
359.9077349999998
 20
176.9870129999999
 30
0.0
 11
362.2077149999999
 21
176.65509
 31
0.0
  0
LINE
  5
BD22
330
BB9D
100
AcDbEntity
  8
1
  6
Continuous
100
AcDbLine
 10
359.9077349999998
 20
179.1806129999999
 30
0.0
 11
362.2077149999999
 21
178.84869
 31
0.0
  0
LINE
  5
BD23
330
BB9D
100
AcDbEntity
  8
1
  6
Continuous
100
AcDbLine
 10
362.2077149999999
 20
176.510896
 30
0.0
 11
362.2077149999999
 21
177.2900769999999
 31
0.0
  0
LINE
  5
BD24
330
BB9D
100
AcDbEntity
  8
1
  6
Continuous
100
AcDbLine
 10
362.2077149999999
 20
178.7045809999999
 30
0.0
 11
362.2077149999999
 21
179.483677
 31
0.0
  0
ARC
  5
BD25
330
BB9D
100
AcDbEntity
  8
1
  6
Continuous
100
AcDbCircle
 10
360.007721
 20
186.057435
 30
0.0
 40
0.7
100
AcDbArc
 50
180.0
 51
264.7376049999999
  0
ARC
  5
BD26
330
BB9D
100
AcDbEntity
  8
1
  6
Continuous
100
AcDbCircle
 10
360.007721
 20
184.260635
 30
0.0
 40
0.7
100
AcDbArc
 50
98.21198800000001
 51
278.2119879999999
  0
LINE
  5
BD27
330
BB9D
100
AcDbEntity
  8
1
  6
Continuous
100
AcDbLine
 10
359.9077349999998
 20
183.5678129999998
 30
0.0
 11
362.2077149999999
 21
183.2358899999999
 31
0.0
  0
LINE
  5
BD28
330
BB9D
100
AcDbEntity
  8
1
  6
Continuous
100
AcDbLine
 10
359.9435189999999
 20
185.3603859999998
 30
0.0
 11
361.642876
 21
185.203866
 31
0.0
  0
LINE
  5
BD29
330
BB9D
100
AcDbEntity
  8
1
  6
Continuous
100
AcDbLine
 10
362.2077149999999
 20
183.091781
 30
0.0
 11
362.2077149999999
 21
183.870877
 31
0.0
  0
LINE
  5
BD2A
330
BB9D
100
AcDbEntity
  8
1
  6
Continuous
100
AcDbLine
 10
365.4077189999999
 20
181.9949819999999
 30
0.0
 11
367.7077059999998
 21
181.6630579999998
 31
0.0
  0
LINE
  5
BD2B
330
BB9D
100
AcDbEntity
  8
1
  6
Continuous
100
AcDbLine
 10
363.807721
 20
181.129087
 30
0.0
 11
363.807721
 21
181.908184
 31
0.0
  0
LINE
  5
BD2C
330
BB9D
100
AcDbEntity
  8
1
  6
Continuous
100
AcDbLine
 10
365.4077189999999
 20
181.359992
 30
0.0
 11
365.4077189999999
 21
182.1390889999999
 31
0.0
  0
LINE
  5
BD2D
330
BB9D
100
AcDbEntity
  8
1
  6
Continuous
100
AcDbLine
 10
365.4077189999999
 20
177.6077819999999
 30
0.0
 11
367.7077059999998
 21
177.275858
 31
0.0
  0
LINE
  5
BD2E
330
BB9D
100
AcDbEntity
  8
1
  6
Continuous
100
AcDbLine
 10
365.4077189999999
 20
179.8013819999999
 30
0.0
 11
367.7077059999998
 21
179.4694579999998
 31
0.0
  0
LINE
  5
BD2F
330
BB9D
100
AcDbEntity
  8
1
  6
Continuous
100
AcDbLine
 10
365.4077189999999
 20
176.972759
 30
0.0
 11
365.4077189999999
 21
177.7518889999998
 31
0.0
  0
LINE
  5
BD30
330
BB9D
100
AcDbEntity
  8
1
  6
Continuous
100
AcDbLine
 10
363.807721
 20
176.741828
 30
0.0
 11
363.807721
 21
177.520984
 31
0.0
  0
LINE
  5
BD31
330
BB9D
100
AcDbEntity
  8
1
  6
Continuous
100
AcDbLine
 10
365.4077189999999
 20
179.1663919999998
 30
0.0
 11
365.4077189999999
 21
179.9454889999999
 31
0.0
  0
LINE
  5
BD32
330
BB9D
100
AcDbEntity
  8
1
  6
Continuous
100
AcDbLine
 10
363.807721
 20
178.9354869999999
 30
0.0
 11
363.807721
 21
179.7145839999998
 31
0.0
  0
ARC
  5
BD33
330
BB9D
100
AcDbEntity
  8
1
  6
Continuous
100
AcDbCircle
 10
367.6077209999998
 20
178.776635
 30
0.0
 40
0.7
100
AcDbArc
 50
278.2119879999999
 51
98.21198800000001
  0
ARC
  5
BD34
330
BB9D
100
AcDbEntity
  8
1
  6
Continuous
100
AcDbCircle
 10
367.6077209999998
 20
180.970235
 30
0.0
 40
0.7
100
AcDbArc
 50
278.2119879999999
 51
98.21198800000001
  0
LINE
  5
BD35
330
BB9D
100
AcDbEntity
  8
1
  6
Continuous
100
AcDbLine
 10
367.6077209999998
 20
186.057435
 30
0.0
 11
365.307719
 21
186.057435
 31
0.0
  0
LINE
  5
BD36
330
BB9D
100
AcDbEntity
  8
1
  6
Continuous
100
AcDbLine
 10
365.4077189999999
 20
184.1885819999999
 30
0.0
 11
367.7077059999998
 21
183.856658
 31
0.0
  0
LINE
  5
BD37
330
BB9D
100
AcDbEntity
  8
1
  6
Continuous
100
AcDbLine
 10
365.4077189999999
 20
183.5535919999999
 30
0.0
 11
365.4077189999999
 21
184.3326889999999
 31
0.0
  0
LINE
  5
BD38
330
BB9D
100
AcDbEntity
  8
1
  6
Continuous
100
AcDbLine
 10
363.807721
 20
183.322687
 30
0.0
 11
363.807721
 21
184.101784
 31
0.0
  0
ARC
  5
BD39
330
BB9D
100
AcDbEntity
  8
1
  6
Continuous
100
AcDbCircle
 10
367.6077209999998
 20
183.163835
 30
0.0
 40
0.7
100
AcDbArc
 50
278.2119879999999
 51
98.21198800000001
  0
ARC
  5
BD3A
330
BB9D
100
AcDbEntity
  8
1
  6
Continuous
100
AcDbCircle
 10
367.6077209999998
 20
185.357435
 30
0.0
 40
0.7
100
AcDbArc
 50
278.2119879999999
 51
98.21198800000001
  0
LINE
  5
BD3B
330
BB9D
100
AcDbEntity
  8
1
  6
Continuous
100
AcDbLine
 10
363.807721
 20
171.803287
 30
0.0
 11
365.307719
 21
171.803287
 31
0.0
  0
LINE
  5
BD3C
330
BB9D
100
AcDbEntity
  8
1
  6
Continuous
100
AcDbLine
 10
363.807721
 20
168.3470269999999
 30
0.0
 11
367.3077149999999
 21
168.3470269999999
 31
0.0
  0
LINE
  5
BD3D
330
BB9D
100
AcDbEntity
  8
1
  6
Continuous
100
AcDbLine
 10
363.807721
 20
168.150858
 30
0.0
 11
367.3077149999999
 21
168.150858
 31
0.0
  0
LINE
  5
BD3E
330
BB9D
100
AcDbEntity
  8
1
  6
Continuous
100
AcDbLine
 10
367.307716
 20
166.6526619999999
 30
0.0
 11
363.8077149999999
 21
166.6526619999999
 31
0.0
  0
ARC
  5
BD3F
330
BB9D
100
AcDbEntity
  8
1
  6
Continuous
100
AcDbCircle
 10
363.8077149999999
 20
168.1526619999999
 30
0.0
 40
1.5
100
AcDbArc
 50
180.0
 51
270.0
  0
ARC
  5
BD40
330
BB9D
100
AcDbEntity
  8
1
  6
Continuous
100
AcDbCircle
 10
367.3077149999999
 20
166.650858
 30
0.0
 40
1.5
100
AcDbArc
 50
0.0
 51
90.0
  0
ARC
  5
BD41
330
BB9D
100
AcDbEntity
  8
1
  6
Continuous
100
AcDbCircle
 10
367.3077149999999
 20
166.847027
 30
0.0
 40
1.5
100
AcDbArc
 50
0.0
 51
90.0
  0
LINE
  5
BD42
330
BB9D
100
AcDbEntity
  8
1
  6
Continuous
100
AcDbLine
 10
367.307716
 20
164.5835909999999
 30
0.0
 11
368.807722
 21
164.5835909999999
 31
0.0
  0
LINE
  5
BD43
330
BB9D
100
AcDbEntity
  8
1
  6
Continuous
100
AcDbLine
 10
387.307725
 20
164.5835909999999
 30
0.0
 11
385.8077269999999
 21
164.5835909999999
 31
0.0
  0
ARC
  5
BD44
330
BB9D
100
AcDbEntity
  8
1
  6
Continuous
100
AcDbCircle
 10
394.6077209999998
 20
176.5830349999999
 30
0.0
 40
0.7
100
AcDbArc
 50
278.2128859999999
 51
98.212886
  0
ARC
  5
BD45
330
BB9D
100
AcDbEntity
  8
1
  6
Continuous
100
AcDbCircle
 10
387.007721
 20
175.4861139999999
 30
0.0
 40
0.7
100
AcDbArc
 50
98.212886
 51
278.2128859999999
  0
LINE
  5
BD46
330
BB9D
100
AcDbEntity
  8
1
  6
Continuous
100
AcDbLine
 10
392.307727
 20
174.7861139999999
 30
0.0
 11
395.307721
 21
174.7861139999999
 31
0.0
  0
LINE
  5
BD47
330
BB9D
100
AcDbEntity
  8
1
  6
Continuous
100
AcDbLine
 10
392.972168
 20
175.6397199999999
 30
0.0
 11
394.6719229999999
 21
175.4831629999999
 31
0.0
  0
LINE
  5
BD48
330
BB9D
100
AcDbEntity
  8
1
  6
Continuous
100
AcDbLine
 10
394.707717
 20
175.8902149999999
 30
0.0
 11
387.1077169999999
 21
174.793293
 31
0.0
  0
LINE
  5
BD49
330
BB9D
100
AcDbEntity
  8
1
  6
Continuous
100
AcDbLine
 10
387.007721
 20
174.7861139999999
 30
0.0
 11
390.807721
 21
174.7861139999999
 31
0.0
  0
ARC
  5
BD4A
330
BB9D
100
AcDbEntity
  8
1
  6
Continuous
100
AcDbCircle
 10
394.6077209999998
 20
174.7861139999999
 30
0.0
 40
0.7
100
AcDbArc
 50
0.0
 51
84.737605
  0
LINE
  5
BD4B
330
BB9D
100
AcDbEntity
  8
1
  6
Continuous
100
AcDbLine
 10
394.6077209999998
 20
186.057435
 30
0.0
 11
390.807721
 21
186.057435
 31
0.0
  0
LINE
  5
BD4C
330
BB9D
100
AcDbEntity
  8
1
  6
Continuous
100
AcDbLine
 10
392.4077189999999
 20
184.1885819999999
 30
0.0
 11
394.7077059999998
 21
183.856658
 31
0.0
  0
LINE
  5
BD4D
330
BB9D
100
AcDbEntity
  8
1
  6
Continuous
100
AcDbLine
 10
392.4077189999999
 20
179.8013819999999
 30
0.0
 11
394.7077059999998
 21
179.4694579999998
 31
0.0
  0
LINE
  5
BD4E
330
BB9D
100
AcDbEntity
  8
1
  6
Continuous
100
AcDbLine
 10
392.4077189999999
 20
177.6077819999999
 30
0.0
 11
394.7077059999998
 21
177.275858
 31
0.0
  0
LINE
  5
BD4F
330
BB9D
100
AcDbEntity
  8
1
  6
Continuous
100
AcDbLine
 10
392.4077189999999
 20
181.9949819999999
 30
0.0
 11
394.7077059999998
 21
181.6630579999998
 31
0.0
  0
LINE
  5
BD50
330
BB9D
100
AcDbEntity
  8
1
  6
Continuous
100
AcDbLine
 10
386.9077250000001
 20
176.1789349999999
 30
0.0
 11
394.507725
 21
177.2758559999998
 31
0.0
  0
LINE
  5
BD51
330
BB9D
100
AcDbEntity
  8
1
  6
Continuous
100
AcDbLine
 10
394.507735
 20
183.856658
 30
0.0
 11
386.9077349999998
 21
182.759858
 31
0.0
  0
LINE
  5
BD52
330
BB9D
100
AcDbEntity
  8
1
  6
Continuous
100
AcDbLine
 10
394.7077059999998
 20
184.664613
 30
0.0
 11
387.107706
 21
183.5678129999998
 31
0.0
  0
LINE
  5
BD53
330
BB9D
100
AcDbEntity
  8
1
  6
Continuous
100
AcDbLine
 10
394.507735
 20
186.050258
 30
0.0
 11
386.9077349999998
 21
184.953458
 31
0.0
  0
LINE
  5
BD54
330
BB9D
100
AcDbEntity
  8
1
  6
Continuous
100
AcDbLine
 10
394.507735
 20
179.4694579999998
 30
0.0
 11
386.9077349999998
 21
178.3726579999998
 31
0.0
  0
LINE
  5
BD55
330
BB9D
100
AcDbEntity
  8
1
  6
Continuous
100
AcDbLine
 10
394.7077059999998
 20
178.083813
 30
0.0
 11
387.107706
 21
176.9870129999999
 31
0.0
  0
LINE
  5
BD56
330
BB9D
100
AcDbEntity
  8
1
  6
Continuous
100
AcDbLine
 10
394.7077059999998
 20
180.2774129999999
 30
0.0
 11
387.107706
 21
179.1806129999999
 31
0.0
  0
LINE
  5
BD57
330
BB9D
100
AcDbEntity
  8
1
  6
Continuous
100
AcDbLine
 10
394.507735
 20
181.6630579999998
 30
0.0
 11
386.9077349999998
 21
180.566258
 31
0.0
  0
LINE
  5
BD58
330
BB9D
100
AcDbEntity
  8
1
  6
Continuous
100
AcDbLine
 10
394.7077059999998
 20
182.4710129999999
 30
0.0
 11
387.107706
 21
181.3742129999999
 31
0.0
  0
LINE
  5
BD59
330
BB9D
100
AcDbEntity
  8
1
  6
Continuous
100
AcDbLine
 10
389.307722
 20
189.9532759999999
 30
0.0
 11
387.307721
 21
189.9532759999999
 31
0.0
  0
LINE
  5
BD5A
330
BB9D
100
AcDbEntity
  8
1
  6
Continuous
100
AcDbLine
 10
390.807721
 20
183.322687
 30
0.0
 11
390.807721
 21
184.101784
 31
0.0
  0
LINE
  5
BD5B
330
BB9D
100
AcDbEntity
  8
1
  6
Continuous
100
AcDbLine
 10
392.4077189999999
 20
183.5535919999999
 30
0.0
 11
392.4077189999999
 21
184.3326889999999
 31
0.0
  0
LINE
  5
BD5C
330
BB9D
100
AcDbEntity
  8
1
  6
Continuous
100
AcDbLine
 10
390.807721
 20
178.9354869999999
 30
0.0
 11
390.807721
 21
179.7145839999998
 31
0.0
  0
LINE
  5
BD5D
330
BB9D
100
AcDbEntity
  8
1
  6
Continuous
100
AcDbLine
 10
392.4077189999999
 20
179.1663919999998
 30
0.0
 11
392.4077189999999
 21
179.9454889999999
 31
0.0
  0
LINE
  5
BD5E
330
BB9D
100
AcDbEntity
  8
1
  6
Continuous
100
AcDbLine
 10
390.807721
 20
176.741828
 30
0.0
 11
390.807721
 21
177.520984
 31
0.0
  0
LINE
  5
BD5F
330
BB9D
100
AcDbEntity
  8
1
  6
Continuous
100
AcDbLine
 10
392.4077189999999
 20
176.972759
 30
0.0
 11
392.4077189999999
 21
177.7518889999998
 31
0.0
  0
LINE
  5
BD60
330
BB9D
100
AcDbEntity
  8
1
  6
Continuous
100
AcDbLine
 10
392.4077189999999
 20
181.359992
 30
0.0
 11
392.4077189999999
 21
182.1390889999999
 31
0.0
  0
LINE
  5
BD61
330
BB9D
100
AcDbEntity
  8
1
  6
Continuous
100
AcDbLine
 10
390.807721
 20
181.129087
 30
0.0
 11
390.807721
 21
181.908184
 31
0.0
  0
LINE
  5
BD62
330
BB9D
100
AcDbEntity
  8
1
  6
Continuous
100
AcDbLine
 10
389.207715
 20
183.091781
 30
0.0
 11
389.207715
 21
183.870877
 31
0.0
  0
LINE
  5
BD63
330
BB9D
100
AcDbEntity
  8
1
  6
Continuous
100
AcDbLine
 10
386.9435189999999
 20
185.3603859999998
 30
0.0
 11
388.642876
 21
185.203866
 31
0.0
  0
LINE
  5
BD64
330
BB9D
100
AcDbEntity
  8
1
  6
Continuous
100
AcDbLine
 10
386.9077349999998
 20
183.5678129999998
 30
0.0
 11
389.207715
 21
183.2358899999999
 31
0.0
  0
ARC
  5
BD65
330
BB9D
100
AcDbEntity
  8
1
  6
Continuous
100
AcDbCircle
 10
387.007721
 20
184.260635
 30
0.0
 40
0.7
100
AcDbArc
 50
98.21198800000001
 51
278.2119879999999
  0
ARC
  5
BD66
330
BB9D
100
AcDbEntity
  8
1
  6
Continuous
100
AcDbCircle
 10
387.007721
 20
186.057435
 30
0.0
 40
0.7
100
AcDbArc
 50
180.0
 51
264.7376049999999
  0
LINE
  5
BD67
330
BB9D
100
AcDbEntity
  8
1
  6
Continuous
100
AcDbLine
 10
389.207715
 20
178.7045809999999
 30
0.0
 11
389.207715
 21
179.483677
 31
0.0
  0
LINE
  5
BD68
330
BB9D
100
AcDbEntity
  8
1
  6
Continuous
100
AcDbLine
 10
389.207715
 20
176.510896
 30
0.0
 11
389.207715
 21
177.2900769999999
 31
0.0
  0
LINE
  5
BD69
330
BB9D
100
AcDbEntity
  8
1
  6
Continuous
100
AcDbLine
 10
386.9077349999998
 20
179.1806129999999
 30
0.0
 11
389.207715
 21
178.84869
 31
0.0
  0
LINE
  5
BD6A
330
BB9D
100
AcDbEntity
  8
1
  6
Continuous
100
AcDbLine
 10
386.9077349999998
 20
176.9870129999999
 30
0.0
 11
389.207715
 21
176.65509
 31
0.0
  0
LINE
  5
BD6B
330
BB9D
100
AcDbEntity
  8
1
  6
Continuous
100
AcDbLine
 10
389.207715
 20
180.8981809999999
 30
0.0
 11
389.207715
 21
181.677277
 31
0.0
  0
LINE
  5
BD6C
330
BB9D
100
AcDbEntity
  8
1
  6
Continuous
100
AcDbLine
 10
386.9077349999998
 20
181.3742129999999
 30
0.0
 11
389.207715
 21
181.0422899999998
 31
0.0
  0
ARC
  5
BD6D
330
BB9D
100
AcDbEntity
  8
1
  6
Continuous
100
AcDbCircle
 10
387.007721
 20
179.873435
 30
0.0
 40
0.7
100
AcDbArc
 50
98.21198800000001
 51
278.2119879999999
  0
ARC
  5
BD6E
330
BB9D
100
AcDbEntity
  8
1
  6
Continuous
100
AcDbCircle
 10
387.007721
 20
177.6798349999999
 30
0.0
 40
0.7
100
AcDbArc
 50
98.21198800000001
 51
278.2119879999999
  0
ARC
  5
BD6F
330
BB9D
100
AcDbEntity
  8
1
  6
Continuous
100
AcDbCircle
 10
387.007721
 20
182.067035
 30
0.0
 40
0.7
100
AcDbArc
 50
98.21198800000001
 51
278.2119879999999
  0
LINE
  5
BD70
330
BB9D
100
AcDbEntity
  8
1
  6
Continuous
100
AcDbLine
 10
389.307722
 20
186.057435
 30
0.0
 11
386.307721
 21
186.057435
 31
0.0
  0
LINE
  5
BD71
330
BB9D
100
AcDbEntity
  8
1
  6
Continuous
100
AcDbLine
 10
392.307727
 20
188.594495
 30
0.0
 11
390.807721
 21
188.594495
 31
0.0
  0
LINE
  5
BD72
330
BB9D
100
AcDbEntity
  8
1
  6
Continuous
100
AcDbLine
 10
392.307727
 20
188.594495
 30
0.0
 11
392.307727
 21
185.732762
 31
0.0
  0
LINE
  5
BD73
330
BB9D
100
AcDbEntity
  8
1
  6
Continuous
100
AcDbLine
 10
392.307727
 20
188.055029
 30
0.0
 11
390.807721
 21
188.055029
 31
0.0
  0
LINE
  5
BD74
330
BB9D
100
AcDbEntity
  8
1
  6
Continuous
100
AcDbLine
 10
390.807721
 20
190.1476399999999
 30
0.0
 11
390.807721
 21
185.516287
 31
0.0
  0
LINE
  5
BD75
330
BB9D
100
AcDbEntity
  8
1
  6
Continuous
100
AcDbLine
 10
389.307722
 20
185.299814
 30
0.0
 11
389.307722
 21
189.9532759999999
 31
0.0
  0
ARC
  5
BD76
330
BB9D
100
AcDbEntity
  8
1
  6
Continuous
100
AcDbCircle
 10
394.6077209999998
 20
185.357435
 30
0.0
 40
0.7
100
AcDbArc
 50
278.2119879999999
 51
98.21198800000001
  0
ARC
  5
BD77
330
BB9D
100
AcDbEntity
  8
1
  6
Continuous
100
AcDbCircle
 10
394.6077209999998
 20
183.163835
 30
0.0
 40
0.7
100
AcDbArc
 50
278.2119879999999
 51
98.21198800000001
  0
ARC
  5
BD78
330
BB9D
100
AcDbEntity
  8
1
  6
Continuous
100
AcDbCircle
 10
394.6077209999998
 20
180.970235
 30
0.0
 40
0.7
100
AcDbArc
 50
278.2119879999999
 51
98.21198800000001
  0
ARC
  5
BD79
330
BB9D
100
AcDbEntity
  8
1
  6
Continuous
100
AcDbCircle
 10
394.6077209999998
 20
178.776635
 30
0.0
 40
0.7
100
AcDbArc
 50
278.2119879999999
 51
98.21198800000001
  0
ARC
  5
BD7A
330
BB9D
100
AcDbEntity
  8
1
  6
Continuous
100
AcDbCircle
 10
387.307721
 20
191.4532759999999
 30
0.0
 40
1.5
100
AcDbArc
 50
180.0
 51
270.0
  0
LINE
  5
BD7B
330
BB9D
100
AcDbEntity
  8
1
  6
Continuous
100
AcDbLine
 10
389.307721
 20
191.64764
 30
0.0
 11
387.3077269999998
 21
191.64764
 31
0.0
  0
LINE
  5
BD7C
330
BB9D
100
AcDbEntity
  8
1
  6
Continuous
100
AcDbLine
 10
389.307721
 20
191.4514709999999
 30
0.0
 11
387.3077269999998
 21
191.4514709999999
 31
0.0
  0
ARC
  5
BD7D
330
BB9D
100
AcDbEntity
  8
1
  6
Continuous
100
AcDbCircle
 10
389.307721
 20
190.1476399999999
 30
0.0
 40
1.5
100
AcDbArc
 50
0.0
 51
90.0
  0
ARC
  5
BD7E
330
BB9D
100
AcDbEntity
  8
1
  6
Continuous
100
AcDbCircle
 10
389.307721
 20
189.951471
 30
0.0
 40
1.5
100
AcDbArc
 50
0.0
 51
90.0
  0
LINE
  5
BD7F
330
BB9D
100
AcDbEntity
  8
1
  6
Continuous
100
AcDbLine
 10
387.3077269999998
 20
191.4514709999999
 30
0.0
 11
387.3077269999998
 21
199.042937
 31
0.0
  0
LINE
  5
BD80
330
BB9D
100
AcDbEntity
  8
1
  6
Continuous
100
AcDbLine
 10
385.807721
 20
191.4532759999999
 30
0.0
 11
385.807721
 21
199.042937
 31
0.0
  0
LINE
  5
BD81
330
BB9D
100
AcDbEntity
  8
1
  6
Continuous
100
AcDbLine
 10
392.307727
 20
175.5438199999999
 30
0.0
 11
392.307727
 21
168.1526619999999
 31
0.0
  0
LINE
  5
BD82
330
BB9D
100
AcDbEntity
  8
1
  6
Continuous
100
AcDbLine
 10
390.807721
 20
175.3273209999999
 30
0.0
 11
390.807721
 21
168.150858
 31
0.0
  0
LINE
  5
BD83
330
BB9D
100
AcDbEntity
  8
1
  6
Continuous
100
AcDbLine
 10
390.807721
 20
171.803287
 30
0.0
 11
389.307722
 21
171.803287
 31
0.0
  0
LINE
  5
BD84
330
BB9D
100
AcDbEntity
  8
1
  6
Continuous
100
AcDbLine
 10
389.307722
 20
171.803287
 30
0.0
 11
389.307722
 21
175.110824
 31
0.0
  0
LINE
  5
BD85
330
BB9D
100
AcDbEntity
  8
1
  6
Continuous
100
AcDbLine
 10
390.807721
 20
168.3470269999999
 30
0.0
 11
387.3077269999998
 21
168.3470269999999
 31
0.0
  0
LINE
  5
BD86
330
BB9D
100
AcDbEntity
  8
1
  6
Continuous
100
AcDbLine
 10
390.807721
 20
168.150858
 30
0.0
 11
387.3077269999998
 21
168.150858
 31
0.0
  0
LINE
  5
BD87
330
BB9D
100
AcDbEntity
  8
1
  6
Continuous
100
AcDbLine
 10
387.307725
 20
166.6526619999999
 30
0.0
 11
390.807727
 21
166.6526619999999
 31
0.0
  0
ARC
  5
BD88
330
BB9D
100
AcDbEntity
  8
1
  6
Continuous
100
AcDbCircle
 10
390.807727
 20
168.1526619999999
 30
0.0
 40
1.5
100
AcDbArc
 50
270.0
 51
0.0
  0
ARC
  5
BD89
330
BB9D
100
AcDbEntity
  8
1
  6
Continuous
100
AcDbCircle
 10
387.3077269999998
 20
166.847027
 30
0.0
 40
1.5
100
AcDbArc
 50
90.0
 51
180.0
  0
ARC
  5
BD8A
330
BB9D
100
AcDbEntity
  8
1
  6
Continuous
100
AcDbCircle
 10
387.3077269999998
 20
166.650858
 30
0.0
 40
1.5
100
AcDbArc
 50
90.0
 51
180.0
  0
LINE
  5
BD8B
330
BB9D
100
AcDbEntity
  8
1
  6
Continuous
100
AcDbLine
 10
385.8077269999999
 20
166.847027
 30
0.0
 11
385.8077269999999
 21
157.662887
 31
0.0
  0
LINE
  5
BD8C
330
BB9D
100
AcDbEntity
  8
1
  6
Continuous
100
AcDbLine
 10
387.307725
 20
166.6526619999999
 30
0.0
 11
387.307725
 21
157.662887
 31
0.0
  0
LINE
  5
BD8D
330
BB9D
100
AcDbEntity
  8
1
  6
Continuous
100
AcDbLine
 10
44.81342399999999
 20
174.7861139999999
 30
0.0
 11
47.81341799999998
 21
174.7861139999999
 31
0.0
  0
LINE
  5
BD8E
330
BB9D
100
AcDbEntity
  8
1
  6
Continuous
100
AcDbLine
 10
47.11341799999998
 20
186.057435
 30
0.0
 11
44.81342399999999
 21
186.057435
 31
0.0
  0
LINE
  5
BD8F
330
BB9D
100
AcDbEntity
  8
1
  6
Continuous
100
AcDbLine
 10
44.91341699999998
 20
181.9949819999999
 30
0.0
 11
47.213403
 21
181.6630579999998
 31
0.0
  0
LINE
  5
BD90
330
BB9D
100
AcDbEntity
  8
1
  6
Continuous
100
AcDbLine
 10
44.91341699999998
 20
177.6077819999999
 30
0.0
 11
47.213403
 21
177.275858
 31
0.0
  0
LINE
  5
BD91
330
BB9D
100
AcDbEntity
  8
1
  6
Continuous
100
AcDbLine
 10
44.91341699999998
 20
179.8013819999999
 30
0.0
 11
47.213403
 21
179.4694579999998
 31
0.0
  0
LINE
  5
BD92
330
BB9D
100
AcDbEntity
  8
1
  6
Continuous
100
AcDbLine
 10
44.91341699999998
 20
184.1885819999999
 30
0.0
 11
47.213403
 21
183.856658
 31
0.0
  0
LINE
  5
BD93
330
BB9D
100
AcDbEntity
  8
1
  6
Continuous
100
AcDbLine
 10
45.477866
 20
175.6397199999999
 30
0.0
 11
47.17761999999999
 21
175.4831629999999
 31
0.0
  0
LINE
  5
BD94
330
BB9D
100
AcDbEntity
  8
1
  6
Continuous
100
AcDbLine
 10
47.213414
 20
175.8902149999999
 30
0.0
 11
39.613414
 21
174.793293
 31
0.0
  0
LINE
  5
BD95
330
BB9D
100
AcDbEntity
  8
1
  6
Continuous
100
AcDbLine
 10
47.213403
 20
182.4710129999999
 30
0.0
 11
39.61340299999999
 21
181.3742129999999
 31
0.0
  0
LINE
  5
BD96
330
BB9D
100
AcDbEntity
  8
1
  6
Continuous
100
AcDbLine
 10
47.013433
 20
181.6630579999998
 30
0.0
 11
39.41343299999999
 21
180.566258
 31
0.0
  0
LINE
  5
BD97
330
BB9D
100
AcDbEntity
  8
1
  6
Continuous
100
AcDbLine
 10
47.213403
 20
180.2774129999999
 30
0.0
 11
39.61340299999999
 21
179.1806129999999
 31
0.0
  0
LINE
  5
BD98
330
BB9D
100
AcDbEntity
  8
1
  6
Continuous
100
AcDbLine
 10
47.213403
 20
178.083813
 30
0.0
 11
39.61340299999999
 21
176.9870129999999
 31
0.0
  0
LINE
  5
BD99
330
BB9D
100
AcDbEntity
  8
1
  6
Continuous
100
AcDbLine
 10
47.013433
 20
179.4694579999998
 30
0.0
 11
39.41343299999999
 21
178.3726579999998
 31
0.0
  0
LINE
  5
BD9A
330
BB9D
100
AcDbEntity
  8
1
  6
Continuous
100
AcDbLine
 10
47.013433
 20
186.050258
 30
0.0
 11
39.41343299999999
 21
184.953458
 31
0.0
  0
LINE
  5
BD9B
330
BB9D
100
AcDbEntity
  8
1
  6
Continuous
100
AcDbLine
 10
47.213403
 20
184.664613
 30
0.0
 11
39.61340299999999
 21
183.5678129999998
 31
0.0
  0
LINE
  5
BD9C
330
BB9D
100
AcDbEntity
  8
1
  6
Continuous
100
AcDbLine
 10
47.013433
 20
183.856658
 30
0.0
 11
39.41343299999999
 21
182.759858
 31
0.0
  0
LINE
  5
BD9D
330
BB9D
100
AcDbEntity
  8
1
  6
Continuous
100
AcDbLine
 10
39.41342199999999
 20
176.1789349999999
 30
0.0
 11
47.013422
 21
177.2758559999998
 31
0.0
  0
ARC
  5
BD9E
330
BB9D
100
AcDbEntity
  8
1
  6
Continuous
100
AcDbCircle
 10
39.513418
 20
175.4861139999999
 30
0.0
 40
0.7
100
AcDbArc
 50
98.212886
 51
278.2128859999999
  0
LINE
  5
BD9F
330
BB9D
100
AcDbEntity
  8
1
  6
Continuous
100
AcDbLine
 10
39.513418
 20
174.7861139999999
 30
0.0
 11
43.31341799999999
 21
174.7861139999999
 31
0.0
  0
ARC
  5
BDA0
330
BB9D
100
AcDbEntity
  8
1
  6
Continuous
100
AcDbCircle
 10
39.513418
 20
182.067035
 30
0.0
 40
0.7
100
AcDbArc
 50
98.21198800000001
 51
278.2119879999999
  0
ARC
  5
BDA1
330
BB9D
100
AcDbEntity
  8
1
  6
Continuous
100
AcDbCircle
 10
39.513418
 20
177.6798349999999
 30
0.0
 40
0.7
100
AcDbArc
 50
98.21198800000001
 51
278.2119879999999
  0
ARC
  5
BDA2
330
BB9D
100
AcDbEntity
  8
1
  6
Continuous
100
AcDbCircle
 10
39.513418
 20
179.873435
 30
0.0
 40
0.7
100
AcDbArc
 50
98.21198800000001
 51
278.2119879999999
  0
ARC
  5
BDA3
330
BB9D
100
AcDbEntity
  8
1
  6
Continuous
100
AcDbCircle
 10
39.513418
 20
186.057435
 30
0.0
 40
0.7
100
AcDbArc
 50
180.0
 51
264.7376049999999
  0
ARC
  5
BDA4
330
BB9D
100
AcDbEntity
  8
1
  6
Continuous
100
AcDbCircle
 10
39.513418
 20
184.260635
 30
0.0
 40
0.7
100
AcDbArc
 50
98.21198800000001
 51
278.2119879999999
  0
LINE
  5
BDA5
330
BB9D
100
AcDbEntity
  8
1
  6
Continuous
100
AcDbLine
 10
41.71341199999999
 20
180.8981809999999
 30
0.0
 11
41.71341199999999
 21
181.677277
 31
0.0
  0
LINE
  5
BDA6
330
BB9D
100
AcDbEntity
  8
1
  6
Continuous
100
AcDbLine
 10
41.71341199999999
 20
176.510896
 30
0.0
 11
41.71341199999999
 21
177.2900769999999
 31
0.0
  0
LINE
  5
BDA7
330
BB9D
100
AcDbEntity
  8
1
  6
Continuous
100
AcDbLine
 10
41.71341199999999
 20
178.7045809999999
 30
0.0
 11
41.71341199999999
 21
179.483677
 31
0.0
  0
LINE
  5
BDA8
330
BB9D
100
AcDbEntity
  8
1
  6
Continuous
100
AcDbLine
 10
41.71341199999999
 20
183.091781
 30
0.0
 11
41.71341199999999
 21
183.870877
 31
0.0
  0
LINE
  5
BDA9
330
BB9D
100
AcDbEntity
  8
1
  6
Continuous
100
AcDbLine
 10
43.31341799999999
 20
181.129087
 30
0.0
 11
43.31341799999999
 21
181.908184
 31
0.0
  0
LINE
  5
BDAA
330
BB9D
100
AcDbEntity
  8
1
  6
Continuous
100
AcDbLine
 10
44.91341699999998
 20
181.359992
 30
0.0
 11
44.91341699999998
 21
182.1390889999999
 31
0.0
  0
LINE
  5
BDAB
330
BB9D
100
AcDbEntity
  8
1
  6
Continuous
100
AcDbLine
 10
44.91341699999998
 20
176.972759
 30
0.0
 11
44.91341699999998
 21
177.7518889999998
 31
0.0
  0
LINE
  5
BDAC
330
BB9D
100
AcDbEntity
  8
1
  6
Continuous
100
AcDbLine
 10
43.31341799999999
 20
176.741828
 30
0.0
 11
43.31341799999999
 21
177.520984
 31
0.0
  0
LINE
  5
BDAD
330
BB9D
100
AcDbEntity
  8
1
  6
Continuous
100
AcDbLine
 10
44.91341699999998
 20
179.1663919999998
 30
0.0
 11
44.91341699999998
 21
179.9454889999999
 31
0.0
  0
LINE
  5
BDAE
330
BB9D
100
AcDbEntity
  8
1
  6
Continuous
100
AcDbLine
 10
43.31341799999999
 20
178.9354869999999
 30
0.0
 11
43.31341799999999
 21
179.7145839999998
 31
0.0
  0
LINE
  5
BDAF
330
BB9D
100
AcDbEntity
  8
1
  6
Continuous
100
AcDbLine
 10
44.91341699999998
 20
183.5535919999999
 30
0.0
 11
44.91341699999998
 21
184.3326889999999
 31
0.0
  0
LINE
  5
BDB0
330
BB9D
100
AcDbEntity
  8
1
  6
Continuous
100
AcDbLine
 10
43.31341799999999
 20
183.322687
 30
0.0
 11
43.31341799999999
 21
184.101784
 31
0.0
  0
LINE
  5
BDB1
330
BB9D
100
AcDbEntity
  8
1
  6
Continuous
100
AcDbLine
 10
43.31341799999999
 20
186.057435
 30
0.0
 11
38.81341799999999
 21
186.057435
 31
0.0
  0
LINE
  5
BDB2
330
BB9D
100
AcDbEntity
  8
1
  6
Continuous
100
AcDbLine
 10
39.41343299999999
 20
181.3742129999999
 30
0.0
 11
41.71341199999999
 21
181.0422899999998
 31
0.0
  0
LINE
  5
BDB3
330
BB9D
100
AcDbEntity
  8
1
  6
Continuous
100
AcDbLine
 10
39.41343299999999
 20
176.9870129999999
 30
0.0
 11
41.71341199999999
 21
176.65509
 31
0.0
  0
LINE
  5
BDB4
330
BB9D
100
AcDbEntity
  8
1
  6
Continuous
100
AcDbLine
 10
39.41343299999999
 20
179.1806129999999
 30
0.0
 11
41.71341199999999
 21
178.84869
 31
0.0
  0
LINE
  5
BDB5
330
BB9D
100
AcDbEntity
  8
1
  6
Continuous
100
AcDbLine
 10
39.41343299999999
 20
183.5678129999998
 30
0.0
 11
41.71341199999999
 21
183.2358899999999
 31
0.0
  0
LINE
  5
BDB6
330
BB9D
100
AcDbEntity
  8
1
  6
Continuous
100
AcDbLine
 10
39.449216
 20
185.3603859999998
 30
0.0
 11
41.14857399999999
 21
185.203866
 31
0.0
  0
ARC
  5
BDB7
330
BB9D
100
AcDbEntity
  8
1
  6
Continuous
100
AcDbCircle
 10
47.11341799999998
 20
176.5830349999999
 30
0.0
 40
0.7
100
AcDbArc
 50
278.2128859999999
 51
98.212886
  0
ARC
  5
BDB8
330
BB9D
100
AcDbEntity
  8
1
  6
Continuous
100
AcDbCircle
 10
47.11341799999998
 20
174.7861139999999
 30
0.0
 40
0.7
100
AcDbArc
 50
0.0
 51
84.737605
  0
ARC
  5
BDB9
330
BB9D
100
AcDbEntity
  8
1
  6
Continuous
100
AcDbCircle
 10
47.11341799999998
 20
178.776635
 30
0.0
 40
0.7
100
AcDbArc
 50
278.2119879999999
 51
98.21198800000001
  0
ARC
  5
BDBA
330
BB9D
100
AcDbEntity
  8
1
  6
Continuous
100
AcDbCircle
 10
47.11341799999998
 20
180.970235
 30
0.0
 40
0.7
100
AcDbArc
 50
278.2119879999999
 51
98.21198800000001
  0
ARC
  5
BDBB
330
BB9D
100
AcDbEntity
  8
1
  6
Continuous
100
AcDbCircle
 10
47.11341799999998
 20
183.163835
 30
0.0
 40
0.7
100
AcDbArc
 50
278.2119879999999
 51
98.21198800000001
  0
ARC
  5
BDBC
330
BB9D
100
AcDbEntity
  8
1
  6
Continuous
100
AcDbCircle
 10
47.11341799999998
 20
185.357435
 30
0.0
 40
0.7
100
AcDbArc
 50
278.2119879999999
 51
98.21198800000001
  0
LINE
  5
BDBD
330
BB9D
100
AcDbEntity
  8
1
  6
Continuous
100
AcDbLine
 10
41.81341999999999
 20
171.803287
 30
0.0
 11
41.81341999999999
 21
175.110824
 31
0.0
  0
LINE
  5
BDBE
330
BB9D
100
AcDbEntity
  8
1
  6
Continuous
100
AcDbLine
 10
44.81342399999999
 20
175.5438199999999
 30
0.0
 11
44.81342399999999
 21
168.1526619999999
 31
0.0
  0
LINE
  5
BDBF
330
BB9D
100
AcDbEntity
  8
1
  6
Continuous
100
AcDbLine
 10
43.31341799999999
 20
175.3273209999999
 30
0.0
 11
43.31341799999999
 21
168.3470269999999
 31
0.0
  0
LINE
  5
BDC0
330
BB9D
100
AcDbEntity
  8
1
  6
Continuous
100
AcDbLine
 10
43.31341799999999
 20
171.803287
 30
0.0
 11
41.81341999999999
 21
171.803287
 31
0.0
  0
LINE
  5
BDC1
330
BB9D
100
AcDbEntity
  8
1
  6
Continuous
100
AcDbLine
 10
38.313424
 20
166.847027
 30
0.0
 11
38.313424
 21
157.662887
 31
0.0
  0
LINE
  5
BDC2
330
BB9D
100
AcDbEntity
  8
1
  6
Continuous
100
AcDbLine
 10
39.813423
 20
166.8488319999999
 30
0.0
 11
39.813423
 21
157.662887
 31
0.0
  0
LINE
  5
BDC3
330
BB9D
100
AcDbEntity
  8
1
  6
Continuous
100
AcDbLine
 10
19.813414
 20
166.8488319999999
 30
0.0
 11
19.813414
 21
157.662887
 31
0.0
  0
LINE
  5
BDC4
330
BB9D
100
AcDbEntity
  8
1
  6
Continuous
100
AcDbLine
 10
21.313412
 20
166.847027
 30
0.0
 11
21.313412
 21
157.662887
 31
0.0
  0
ARC
  5
BDC5
330
BB9D
100
AcDbEntity
  8
1
  6
Continuous
100
AcDbCircle
 10
19.813412
 20
166.847027
 30
0.0
 40
1.5
100
AcDbArc
 50
0.0
 51
90.0
  0
LINE
  5
BDC6
330
BB9D
100
AcDbEntity
  8
1
  6
Continuous
100
AcDbLine
 10
19.813414
 20
166.6526619999999
 30
0.0
 11
16.313412
 21
166.6526619999999
 31
0.0
  0
LINE
  5
BDC7
330
BB9D
100
AcDbEntity
  8
1
  6
Continuous
100
AcDbLine
 10
16.31341799999999
 20
168.3470269999999
 30
0.0
 11
19.813412
 21
168.3470269999999
 31
0.0
  0
LINE
  5
BDC8
330
BB9D
100
AcDbEntity
  8
1
  6
Continuous
100
AcDbLine
 10
16.31341799999999
 20
175.3273209999999
 30
0.0
 11
16.31341799999999
 21
168.3470269999999
 31
0.0
  0
LINE
  5
BDC9
330
BB9D
100
AcDbEntity
  8
1
  6
Continuous
100
AcDbLine
 10
14.813412
 20
175.1108229999999
 30
0.0
 11
14.813412
 21
168.1526619999999
 31
0.0
  0
ARC
  5
BDCA
330
BB9D
100
AcDbEntity
  8
1
  6
Continuous
100
AcDbCircle
 10
12.513418
 20
175.4861139999999
 30
0.0
 40
0.7
100
AcDbArc
 50
98.212886
 51
278.2128859999999
  0
ARC
  5
BDCB
330
BB9D
100
AcDbEntity
  8
1
  6
Continuous
100
AcDbCircle
 10
20.11341799999998
 20
176.5830349999999
 30
0.0
 40
0.7
100
AcDbArc
 50
278.2128859999999
 51
98.212886
  0
LINE
  5
BDCC
330
BB9D
100
AcDbEntity
  8
1
  6
Continuous
100
AcDbLine
 10
20.213414
 20
175.8902149999999
 30
0.0
 11
12.613414
 21
174.793293
 31
0.0
  0
LINE
  5
BDCD
330
BB9D
100
AcDbEntity
  8
1
  6
Continuous
100
AcDbLine
 10
12.513418
 20
174.7861139999999
 30
0.0
 11
14.713412
 21
174.7861139999999
 31
0.0
  0
ARC
  5
BDCE
330
BB9D
100
AcDbEntity
  8
1
  6
Continuous
100
AcDbCircle
 10
20.11341799999998
 20
174.7861139999999
 30
0.0
 40
0.7
100
AcDbArc
 50
0.0
 51
84.737605
  0
LINE
  5
BDCF
330
BB9D
100
AcDbEntity
  8
1
  6
Continuous
100
AcDbLine
 10
17.813417
 20
171.803287
 30
0.0
 11
17.813417
 21
175.5438189999999
 31
0.0
  0
LINE
  5
BDD0
330
BB9D
100
AcDbEntity
  8
1
  6
Continuous
100
AcDbLine
 10
16.31341799999999
 20
171.803287
 30
0.0
 11
17.813417
 21
171.803287
 31
0.0
  0
LINE
  5
BDD1
330
BB9D
100
AcDbEntity
  8
1
  6
Continuous
100
AcDbLine
 10
18.477866
 20
175.6397199999999
 30
0.0
 11
20.17762
 21
175.4831629999999
 31
0.0
  0
LINE
  5
BDD2
330
BB9D
100
AcDbEntity
  8
1
  6
Continuous
100
AcDbLine
 10
16.31341799999999
 20
174.7861139999999
 30
0.0
 11
20.813418
 21
174.7861139999999
 31
0.0
  0
LINE
  5
BDD3
330
BB9D
100
AcDbEntity
  8
1
  6
Continuous
100
AcDbLine
 10
16.31341799999999
 20
186.057435
 30
0.0
 11
11.813418
 21
186.057435
 31
0.0
  0
LINE
  5
BDD4
330
BB9D
100
AcDbEntity
  8
1
  6
Continuous
100
AcDbLine
 10
20.21340299999998
 20
182.4710129999999
 30
0.0
 11
12.613403
 21
181.3742129999999
 31
0.0
  0
LINE
  5
BDD5
330
BB9D
100
AcDbEntity
  8
1
  6
Continuous
100
AcDbLine
 10
20.01343299999998
 20
181.6630579999998
 30
0.0
 11
12.413433
 21
180.566258
 31
0.0
  0
LINE
  5
BDD6
330
BB9D
100
AcDbEntity
  8
1
  6
Continuous
100
AcDbLine
 10
20.21340299999998
 20
180.2774129999999
 30
0.0
 11
12.613403
 21
179.1806129999999
 31
0.0
  0
LINE
  5
BDD7
330
BB9D
100
AcDbEntity
  8
1
  6
Continuous
100
AcDbLine
 10
20.21340299999998
 20
178.083813
 30
0.0
 11
12.613403
 21
176.9870129999999
 31
0.0
  0
LINE
  5
BDD8
330
BB9D
100
AcDbEntity
  8
1
  6
Continuous
100
AcDbLine
 10
20.01343299999998
 20
179.4694579999998
 30
0.0
 11
12.413433
 21
178.3726579999998
 31
0.0
  0
LINE
  5
BDD9
330
BB9D
100
AcDbEntity
  8
1
  6
Continuous
100
AcDbLine
 10
20.01343299999998
 20
186.050258
 30
0.0
 11
12.413433
 21
184.953458
 31
0.0
  0
LINE
  5
BDDA
330
BB9D
100
AcDbEntity
  8
1
  6
Continuous
100
AcDbLine
 10
20.21340299999998
 20
184.664613
 30
0.0
 11
12.613403
 21
183.5678129999998
 31
0.0
  0
LINE
  5
BDDB
330
BB9D
100
AcDbEntity
  8
1
  6
Continuous
100
AcDbLine
 10
20.01343299999998
 20
183.856658
 30
0.0
 11
12.413433
 21
182.759858
 31
0.0
  0
LINE
  5
BDDC
330
BB9D
100
AcDbEntity
  8
1
  6
Continuous
100
AcDbLine
 10
12.413422
 20
176.1789349999999
 30
0.0
 11
20.01342199999999
 21
177.2758559999998
 31
0.0
  0
ARC
  5
BDDD
330
BB9D
100
AcDbEntity
  8
1
  6
Continuous
100
AcDbCircle
 10
12.513418
 20
182.067035
 30
0.0
 40
0.7
100
AcDbArc
 50
98.21198800000001
 51
278.2119879999999
  0
ARC
  5
BDDE
330
BB9D
100
AcDbEntity
  8
1
  6
Continuous
100
AcDbCircle
 10
12.513418
 20
177.6798349999999
 30
0.0
 40
0.7
100
AcDbArc
 50
98.21198800000001
 51
278.2119879999999
  0
ARC
  5
BDDF
330
BB9D
100
AcDbEntity
  8
1
  6
Continuous
100
AcDbCircle
 10
12.513418
 20
179.873435
 30
0.0
 40
0.7
100
AcDbArc
 50
98.21198800000001
 51
278.2119879999999
  0
LINE
  5
BDE0
330
BB9D
100
AcDbEntity
  8
1
  6
Continuous
100
AcDbLine
 10
12.413433
 20
181.3742129999999
 30
0.0
 11
14.713412
 21
181.0422899999998
 31
0.0
  0
LINE
  5
BDE1
330
BB9D
100
AcDbEntity
  8
1
  6
Continuous
100
AcDbLine
 10
14.713412
 20
180.8981809999999
 30
0.0
 11
14.713412
 21
181.677277
 31
0.0
  0
LINE
  5
BDE2
330
BB9D
100
AcDbEntity
  8
1
  6
Continuous
100
AcDbLine
 10
12.413433
 20
176.9870129999999
 30
0.0
 11
14.713412
 21
176.65509
 31
0.0
  0
LINE
  5
BDE3
330
BB9D
100
AcDbEntity
  8
1
  6
Continuous
100
AcDbLine
 10
12.413433
 20
179.1806129999999
 30
0.0
 11
14.713412
 21
178.84869
 31
0.0
  0
LINE
  5
BDE4
330
BB9D
100
AcDbEntity
  8
1
  6
Continuous
100
AcDbLine
 10
14.713412
 20
176.510896
 30
0.0
 11
14.713412
 21
177.2900769999999
 31
0.0
  0
LINE
  5
BDE5
330
BB9D
100
AcDbEntity
  8
1
  6
Continuous
100
AcDbLine
 10
14.713412
 20
178.7045809999999
 30
0.0
 11
14.713412
 21
179.483677
 31
0.0
  0
ARC
  5
BDE6
330
BB9D
100
AcDbEntity
  8
1
  6
Continuous
100
AcDbCircle
 10
12.513418
 20
186.057435
 30
0.0
 40
0.7
100
AcDbArc
 50
180.0
 51
264.7376049999999
  0
ARC
  5
BDE7
330
BB9D
100
AcDbEntity
  8
1
  6
Continuous
100
AcDbCircle
 10
12.513418
 20
184.260635
 30
0.0
 40
0.7
100
AcDbArc
 50
98.21198800000001
 51
278.2119879999999
  0
LINE
  5
BDE8
330
BB9D
100
AcDbEntity
  8
1
  6
Continuous
100
AcDbLine
 10
12.413433
 20
183.5678129999998
 30
0.0
 11
14.713412
 21
183.2358899999999
 31
0.0
  0
LINE
  5
BDE9
330
BB9D
100
AcDbEntity
  8
1
  6
Continuous
100
AcDbLine
 10
12.449216
 20
185.3603859999998
 30
0.0
 11
14.14857399999998
 21
185.203866
 31
0.0
  0
LINE
  5
BDEA
330
BB9D
100
AcDbEntity
  8
1
  6
Continuous
100
AcDbLine
 10
14.713412
 20
183.091781
 30
0.0
 11
14.713412
 21
183.870877
 31
0.0
  0
ARC
  5
BDEB
330
BB9D
100
AcDbEntity
  8
1
  6
Continuous
100
AcDbCircle
 10
20.11341799999998
 20
178.776635
 30
0.0
 40
0.7
100
AcDbArc
 50
278.2119879999999
 51
98.21198800000001
  0
ARC
  5
BDEC
330
BB9D
100
AcDbEntity
  8
1
  6
Continuous
100
AcDbCircle
 10
20.11341799999998
 20
180.970235
 30
0.0
 40
0.7
100
AcDbArc
 50
278.2119879999999
 51
98.21198800000001
  0
ARC
  5
BDED
330
BB9D
100
AcDbEntity
  8
1
  6
Continuous
100
AcDbCircle
 10
20.11341799999998
 20
183.163835
 30
0.0
 40
0.7
100
AcDbArc
 50
278.2119879999999
 51
98.21198800000001
  0
ARC
  5
BDEE
330
BB9D
100
AcDbEntity
  8
1
  6
Continuous
100
AcDbCircle
 10
20.11341799999998
 20
185.357435
 30
0.0
 40
0.7
100
AcDbArc
 50
278.2119879999999
 51
98.21198800000001
  0
LINE
  5
BDEF
330
BB9D
100
AcDbEntity
  8
1
  6
Continuous
100
AcDbLine
 10
14.813412
 20
188.055029
 30
0.0
 11
16.31341799999999
 21
188.055029
 31
0.0
  0
LINE
  5
BDF0
330
BB9D
100
AcDbEntity
  8
1
  6
Continuous
100
AcDbLine
 10
14.813412
 20
188.594495
 30
0.0
 11
14.813412
 21
185.3741679999999
 31
0.0
  0
LINE
  5
BDF1
330
BB9D
100
AcDbEntity
  8
1
  6
Continuous
100
AcDbLine
 10
14.813412
 20
188.594495
 30
0.0
 11
16.31341799999999
 21
188.594495
 31
0.0
  0
LINE
  5
BDF2
330
BB9D
100
AcDbEntity
  8
1
  6
Continuous
100
AcDbLine
 10
16.31341799999999
 20
181.129087
 30
0.0
 11
16.31341799999999
 21
181.908184
 31
0.0
  0
LINE
  5
BDF3
330
BB9D
100
AcDbEntity
  8
1
  6
Continuous
100
AcDbLine
 10
17.913417
 20
181.359992
 30
0.0
 11
17.913417
 21
182.1390889999999
 31
0.0
  0
LINE
  5
BDF4
330
BB9D
100
AcDbEntity
  8
1
  6
Continuous
100
AcDbLine
 10
17.913417
 20
176.972759
 30
0.0
 11
17.913417
 21
177.7518889999998
 31
0.0
  0
LINE
  5
BDF5
330
BB9D
100
AcDbEntity
  8
1
  6
Continuous
100
AcDbLine
 10
16.31341799999999
 20
176.741828
 30
0.0
 11
16.31341799999999
 21
177.520984
 31
0.0
  0
LINE
  5
BDF6
330
BB9D
100
AcDbEntity
  8
1
  6
Continuous
100
AcDbLine
 10
17.913417
 20
179.1663919999998
 30
0.0
 11
17.913417
 21
179.9454889999999
 31
0.0
  0
LINE
  5
BDF7
330
BB9D
100
AcDbEntity
  8
1
  6
Continuous
100
AcDbLine
 10
16.31341799999999
 20
178.9354869999999
 30
0.0
 11
16.31341799999999
 21
179.7145839999998
 31
0.0
  0
LINE
  5
BDF8
330
BB9D
100
AcDbEntity
  8
1
  6
Continuous
100
AcDbLine
 10
17.913417
 20
183.5535919999999
 30
0.0
 11
17.913417
 21
184.3326889999999
 31
0.0
  0
LINE
  5
BDF9
330
BB9D
100
AcDbEntity
  8
1
  6
Continuous
100
AcDbLine
 10
16.31341799999999
 20
183.322687
 30
0.0
 11
16.31341799999999
 21
184.101784
 31
0.0
  0
LINE
  5
BDFA
330
BB9D
100
AcDbEntity
  8
1
  6
Continuous
100
AcDbLine
 10
17.913417
 20
181.9949819999999
 30
0.0
 11
20.21340299999998
 21
181.6630579999998
 31
0.0
  0
LINE
  5
BDFB
330
BB9D
100
AcDbEntity
  8
1
  6
Continuous
100
AcDbLine
 10
17.913417
 20
177.6077819999999
 30
0.0
 11
20.21340299999998
 21
177.275858
 31
0.0
  0
LINE
  5
BDFC
330
BB9D
100
AcDbEntity
  8
1
  6
Continuous
100
AcDbLine
 10
17.913417
 20
179.8013819999999
 30
0.0
 11
20.21340299999998
 21
179.4694579999998
 31
0.0
  0
LINE
  5
BDFD
330
BB9D
100
AcDbEntity
  8
1
  6
Continuous
100
AcDbLine
 10
17.913417
 20
184.1885819999999
 30
0.0
 11
20.21340299999998
 21
183.856658
 31
0.0
  0
LINE
  5
BDFE
330
BB9D
100
AcDbEntity
  8
1
  6
Continuous
100
AcDbLine
 10
20.11341799999998
 20
186.057435
 30
0.0
 11
17.813417
 21
186.057435
 31
0.0
  0
LINE
  5
BDFF
330
BB9D
100
AcDbEntity
  8
1
  6
Continuous
100
AcDbLine
 10
19.813412
 20
191.64764
 30
0.0
 11
19.813412
 21
199.042937
 31
0.0
  0
LINE
  5
BE00
330
BB9D
100
AcDbEntity
  8
1
  6
Continuous
100
AcDbLine
 10
21.31341799999999
 20
191.6494449999999
 30
0.0
 11
21.31341799999999
 21
199.042937
 31
0.0
  0
ARC
  5
BE01
330
BB9D
100
AcDbEntity
  8
1
  6
Continuous
100
AcDbCircle
 10
19.813418
 20
191.4532759999999
 30
0.0
 40
1.5
100
AcDbArc
 50
270.0
 51
0.0
  0
LINE
  5
BE02
330
BB9D
100
AcDbEntity
  8
1
  6
Continuous
100
AcDbLine
 10
17.813417
 20
185.759711
 30
0.0
 11
17.813417
 21
190.1494449999999
 31
0.0
  0
LINE
  5
BE03
330
BB9D
100
AcDbEntity
  8
1
  6
Continuous
100
AcDbLine
 10
16.31341799999999
 20
190.1476399999999
 30
0.0
 11
16.31341799999999
 21
185.573157
 31
0.0
  0
ARC
  5
BE04
330
BB9D
100
AcDbEntity
  8
1
  6
Continuous
100
AcDbCircle
 10
17.81341799999999
 20
190.1476399999999
 30
0.0
 40
1.5
100
AcDbArc
 50
90.0
 51
180.0
  0
LINE
  5
BE05
330
BB9D
100
AcDbEntity
  8
1
  6
Continuous
100
AcDbLine
 10
17.81341799999999
 20
191.64764
 30
0.0
 11
19.813412
 21
191.64764
 31
0.0
  0
LINE
  5
BE06
330
BB9D
100
AcDbEntity
  8
1
  6
Continuous
100
AcDbLine
 10
17.813417
 20
189.9532759999999
 30
0.0
 11
19.813418
 21
189.9532759999999
 31
0.0
  0
LINE
  5
BE07
330
BB9D
100
AcDbEntity
  8
1
  6
Continuous
100
AcDbLine
 10
39.81342399999999
 20
191.64764
 30
0.0
 11
39.81342399999999
 21
199.042937
 31
0.0
  0
LINE
  5
BE08
330
BB9D
100
AcDbEntity
  8
1
  6
Continuous
100
AcDbLine
 10
44.81342399999999
 20
188.594495
 30
0.0
 11
44.81342399999999
 21
185.732762
 31
0.0
  0
LINE
  5
BE09
330
BB9D
100
AcDbEntity
  8
1
  6
Continuous
100
AcDbLine
 10
41.81341999999999
 20
185.299814
 30
0.0
 11
41.81341999999999
 21
190.1494449999999
 31
0.0
  0
LINE
  5
BE0A
330
BB9D
100
AcDbEntity
  8
1
  6
Continuous
100
AcDbLine
 10
41.81341999999999
 20
189.9532759999999
 30
0.0
 11
39.813418
 21
189.9532759999999
 31
0.0
  0
LINE
  5
BE0B
330
BB9D
100
AcDbEntity
  8
1
  6
Continuous
100
AcDbLine
 10
44.81342399999999
 20
188.594495
 30
0.0
 11
43.31341799999999
 21
188.594495
 31
0.0
  0
LINE
  5
BE0C
330
BB9D
100
AcDbEntity
  8
1
  6
Continuous
100
AcDbLine
 10
44.81342399999999
 20
188.055029
 30
0.0
 11
43.31341799999999
 21
188.055029
 31
0.0
  0
LINE
  5
BE0D
330
BB9D
100
AcDbEntity
  8
1
  6
Continuous
100
AcDbLine
 10
43.31341799999999
 20
190.1476399999999
 30
0.0
 11
43.31341799999999
 21
185.573157
 31
0.0
  0
ARC
  5
BE0E
330
BB9D
100
AcDbEntity
  8
1
  6
Continuous
100
AcDbCircle
 10
39.813418
 20
191.4532759999999
 30
0.0
 40
1.5
100
AcDbArc
 50
180.0
 51
270.0
  0
LINE
  5
BE0F
330
BB9D
100
AcDbEntity
  8
1
  6
Continuous
100
AcDbLine
 10
41.813418
 20
191.64764
 30
0.0
 11
39.81342399999999
 21
191.64764
 31
0.0
  0
ARC
  5
BE10
330
BB9D
100
AcDbEntity
  8
1
  6
Continuous
100
AcDbCircle
 10
41.813418
 20
190.1476399999999
 30
0.0
 40
1.5
100
AcDbArc
 50
0.0
 51
90.0
  0
LINE
  5
BE11
330
BB9D
100
AcDbEntity
  8
1
  6
Continuous
100
AcDbLine
 10
38.313418
 20
191.6494449999999
 30
0.0
 11
38.313418
 21
199.042937
 31
0.0
  0
LINE
  5
BE12
330
BB9D
100
AcDbEntity
  8
1
  6
Continuous
100
AcDbLine
 10
19.813414
 20
166.8488319999999
 30
0.0
 11
16.313412
 21
166.8488319999999
 31
0.0
  0
LINE
  5
BE13
330
BB9D
100
AcDbEntity
  8
1
  6
Continuous
100
AcDbLine
 10
19.813414
 20
166.6526619999999
 30
0.0
 11
16.313412
 21
166.6526619999999
 31
0.0
  0
ARC
  5
BE14
330
BB9D
100
AcDbEntity
  8
1
  6
Continuous
100
AcDbCircle
 10
16.313412
 20
168.3488319999999
 30
0.0
 40
1.5
100
AcDbArc
 50
180.0
 51
270.0
  0
ARC
  5
BE15
330
BB9D
100
AcDbEntity
  8
1
  6
Continuous
100
AcDbCircle
 10
16.313412
 20
168.1526619999999
 30
0.0
 40
1.5
100
AcDbArc
 50
180.0
 51
270.0
  0
LINE
  5
BE16
330
BB9D
100
AcDbEntity
  8
1
  6
Continuous
100
AcDbLine
 10
39.813423
 20
166.8488319999999
 30
0.0
 11
43.31342399999999
 21
166.8488319999999
 31
0.0
  0
LINE
  5
BE17
330
BB9D
100
AcDbEntity
  8
1
  6
Continuous
100
AcDbLine
 10
39.813423
 20
166.6526619999999
 30
0.0
 11
43.31342399999999
 21
166.6526619999999
 31
0.0
  0
LINE
  5
BE18
330
BB9D
100
AcDbEntity
  8
1
  6
Continuous
100
AcDbLine
 10
43.31341799999999
 20
168.3470269999999
 30
0.0
 11
39.81342399999999
 21
168.3470269999999
 31
0.0
  0
LINE
  5
BE19
330
BB9D
100
AcDbEntity
  8
1
  6
Continuous
100
AcDbLine
 10
39.813423
 20
166.6526619999999
 30
0.0
 11
43.31342399999999
 21
166.6526619999999
 31
0.0
  0
ARC
  5
BE1A
330
BB9D
100
AcDbEntity
  8
1
  6
Continuous
100
AcDbCircle
 10
39.81342399999999
 20
166.847027
 30
0.0
 40
1.5
100
AcDbArc
 50
90.0
 51
180.0
  0
ARC
  5
BE1B
330
BB9D
100
AcDbEntity
  8
1
  6
Continuous
100
AcDbCircle
 10
43.31342399999999
 20
168.1526619999999
 30
0.0
 40
1.5
100
AcDbArc
 50
270.0
 51
0.0
  0
ARC
  5
BE1C
330
BB9D
100
AcDbEntity
  8
1
  6
Continuous
100
AcDbCircle
 10
43.31342399999999
 20
168.3488319999999
 30
0.0
 40
1.5
100
AcDbArc
 50
270.0
 51
0.0
  0
LINE
  5
BE1D
330
BB9D
100
AcDbEntity
  8
1
  6
Continuous
100
AcDbLine
 10
41.81341999999999
 20
190.1494449999999
 30
0.0
 11
39.813418
 21
190.1494449999999
 31
0.0
  0
LINE
  5
BE1E
330
BB9D
100
AcDbEntity
  8
1
  6
Continuous
100
AcDbLine
 10
19.813418
 20
190.1494449999999
 30
0.0
 11
17.813417
 21
190.1494449999999
 31
0.0
  0
ARC
  5
BE1F
330
BB9D
100
AcDbEntity
  8
1
  6
Continuous
100
AcDbCircle
 10
19.813418
 20
191.6494449999999
 30
0.0
 40
1.5
100
AcDbArc
 50
270.0
 51
0.0
  0
ARC
  5
BE20
330
BB9D
100
AcDbEntity
  8
1
  6
Continuous
100
AcDbCircle
 10
39.813418
 20
191.6494449999999
 30
0.0
 40
1.5
100
AcDbArc
 50
180.0
 51
270.0
  0
LINE
  5
BE21
330
BB9D
100
AcDbEntity
  8
1
  6
Continuous
100
AcDbLine
 10
39.81342999999998
 20
88.84075300000002
 30
0.0
 11
38.313424
 21
88.84075300000002
 31
0.0
  0
LINE
  5
BE22
330
BB9D
100
AcDbEntity
  8
1
  6
Continuous
100
AcDbLine
 10
38.313424
 20
81.00351399999999
 30
0.0
 11
39.81342999999998
 21
81.00351399999999
 31
0.0
  0
LINE
  5
BE23
330
BB9D
100
AcDbEntity
  8
4
  6
CENTER
100
AcDbLine
 10
12.41965
 20
85.17291699999999
 30
0.0
 11
48.007876
 21
85.17291699999999
 31
0.0
  0
LINE
  5
BE24
330
BB9D
100
AcDbEntity
  8
4
  6
CENTER
100
AcDbLine
 10
18.88340499999999
 20
83.00351399999998
 30
0.0
 11
41.664413
 21
83.00351399999998
 31
0.0
  0
LINE
  5
BE25
330
BB9D
100
AcDbEntity
  8
1
  6
Continuous
100
AcDbLine
 10
38.313424
 20
81.00351399999999
 30
0.0
 11
38.313424
 21
88.84075300000002
 31
0.0
  0
ARC
  5
BE26
330
BB9D
100
AcDbEntity
  8
1
  6
Continuous
100
AcDbCircle
 10
16.313403
 20
86.25185
 30
0.0
 40
4.5
100
AcDbArc
 50
90.0
 51
270.0
  0
ARC
  5
BE27
330
BB9D
100
AcDbEntity
  8
1
  6
Continuous
100
AcDbCircle
 10
16.313403
 20
86.25185
 30
0.0
 40
3.1
100
AcDbArc
 50
90.0
 51
270.0
  0
ARC
  5
BE28
330
BB9D
100
AcDbEntity
  8
1
  6
Continuous
100
AcDbCircle
 10
16.313403
 20
85.69907699999998
 30
0.0
 40
3.1
100
AcDbArc
 50
90.0
 51
174.884895
  0
LINE
  5
BE29
330
BB9D
100
AcDbEntity
  8
1
  6
Continuous
100
AcDbLine
 10
17.813409
 20
91.89235899999998
 30
0.0
 11
17.813409
 21
80.75846799999998
 31
0.0
  0
LINE
  5
BE2A
330
BB9D
100
AcDbEntity
  8
1
  6
Continuous
100
AcDbLine
 10
16.313403
 20
91.89235899999998
 30
0.0
 11
16.313403
 21
80.10760999999998
 31
0.0
  0
LINE
  5
BE2B
330
BB9D
100
AcDbEntity
  8
1
  6
Continuous
100
AcDbLine
 10
14.813412
 20
88.412014
 30
0.0
 11
14.813412
 21
83.53891299999999
 31
0.0
  0
LINE
  5
BE2C
330
BB9D
100
AcDbEntity
  8
1
  6
Continuous
100
AcDbLine
 10
19.813406
 20
81.00351399999999
 30
0.0
 11
19.813406
 21
88.84075300000002
 31
0.0
  0
LINE
  5
BE2D
330
BB9D
100
AcDbEntity
  8
1
  6
Continuous
100
AcDbLine
 10
35.913418
 20
92.172909
 30
0.0
 11
35.913418
 21
84.50351399999998
 31
0.0
  0
LINE
  5
BE2E
330
BB9D
100
AcDbEntity
  8
1
  6
Continuous
100
AcDbLine
 10
21.313412
 20
81.00351399999999
 30
0.0
 11
21.313412
 21
88.84075300000002
 31
0.0
  0
LINE
  5
BE2F
330
BB9D
100
AcDbEntity
  8
1
  6
Continuous
100
AcDbLine
 10
23.713418
 20
92.172909
 30
0.0
 11
23.713418
 21
84.50351399999998
 31
0.0
  0
LINE
  5
BE30
330
BB9D
100
AcDbEntity
  8
1
  6
Continuous
100
AcDbLine
 10
22.21341199999999
 20
92.172909
 30
0.0
 11
22.21341199999999
 21
84.50351399999998
 31
0.0
  0
LINE
  5
BE31
330
BB9D
100
AcDbEntity
  8
1
  6
Continuous
100
AcDbLine
 10
21.81341799999999
 20
89.70351800000001
 30
0.0
 11
21.81341799999999
 21
86.58013599999998
 31
0.0
  0
LINE
  5
BE32
330
BB9D
100
AcDbEntity
  8
1
  6
Continuous
100
AcDbLine
 10
37.413409
 20
92.172909
 30
0.0
 11
37.413409
 21
84.50351399999998
 31
0.0
  0
LINE
  5
BE33
330
BB9D
100
AcDbEntity
  8
1
  6
Continuous
100
AcDbLine
 10
37.81341799999999
 20
89.70351800000001
 30
0.0
 11
37.81341799999999
 21
86.58013599999998
 31
0.0
  0
ARC
  5
BE34
330
BB9D
100
AcDbEntity
  8
1
  6
Continuous
100
AcDbCircle
 10
29.813418
 20
45.20352599999998
 30
0.0
 40
5.5
100
AcDbArc
 50
179.9999909999999
 51
0.00001
  0
CIRCLE
  5
BE35
330
BB9D
100
AcDbEntity
  8
1
  6
Continuous
100
AcDbCircle
 10
29.813418
 20
45.20352599999998
 30
0.0
 40
2.25
  0
LINE
  5
BE36
330
BB9D
100
AcDbEntity
  8
1
  6
Continuous
100
AcDbLine
 10
37.413409
 20
81.50351399999998
 30
0.0
 11
37.413409
 21
53.17291700000001
 31
0.0
  0
LINE
  5
BE37
330
BB9D
100
AcDbEntity
  8
1
  6
Continuous
100
AcDbLine
 10
24.313418
 20
74.70352599999998
 30
0.0
 11
24.313418
 21
45.20352599999998
 31
0.0
  0
LINE
  5
BE38
330
BB9D
100
AcDbEntity
  8
1
  6
Continuous
100
AcDbLine
 10
35.31341799999999
 20
74.70352599999998
 30
0.0
 11
35.31341799999999
 21
45.20352599999998
 31
0.0
  0
LINE
  5
BE39
330
BB9D
100
AcDbEntity
  8
1
  6
Continuous
100
AcDbLine
 10
22.21341199999999
 20
81.50351399999998
 30
0.0
 11
22.21341199999999
 21
53.17291700000001
 31
0.0
  0
LINE
  5
BE3A
330
BB9D
100
AcDbEntity
  8
1
  6
Continuous
100
AcDbLine
 10
23.713418
 20
74.70352599999998
 30
0.0
 11
23.713418
 21
53.17291700000001
 31
0.0
  0
LINE
  5
BE3B
330
BB9D
100
AcDbEntity
  8
1
  6
Continuous
100
AcDbLine
 10
35.913418
 20
74.70352599999998
 30
0.0
 11
35.913418
 21
53.17291700000001
 31
0.0
  0
LINE
  5
BE3C
330
BB9D
100
AcDbEntity
  8
1
  6
Continuous
100
AcDbLine
 10
22.21341199999999
 20
53.17291700000001
 30
0.0
 11
24.313418
 21
53.17291700000001
 31
0.0
  0
LINE
  5
BE3D
330
BB9D
100
AcDbEntity
  8
4
  6
CENTER
100
AcDbLine
 10
26.31341799999999
 20
56.40353799999999
 30
0.0
 11
33.313418
 21
56.40353799999999
 31
0.0
  0
CIRCLE
  5
BE3E
330
BB9D
100
AcDbEntity
  8
1
  6
Continuous
100
AcDbCircle
 10
29.813418
 20
56.40353799999999
 30
0.0
 40
2.25
  0
LINE
  5
BE3F
330
BB9D
100
AcDbEntity
  8
1
  6
Continuous
100
AcDbLine
 10
35.31341799999999
 20
53.17291700000001
 30
0.0
 11
37.413409
 21
53.17291700000001
 31
0.0
  0
LINE
  5
BE40
330
BB9D
100
AcDbEntity
  8
1
  6
Continuous
100
AcDbLine
 10
23.713418
 20
73.172917
 30
0.0
 11
22.21341199999999
 21
73.172917
 31
0.0
  0
LINE
  5
BE41
330
BB9D
100
AcDbEntity
  8
1
  6
Continuous
100
AcDbLine
 10
23.713418
 20
78.172917
 30
0.0
 11
22.21341199999999
 21
78.172917
 31
0.0
  0
LINE
  5
BE42
330
BB9D
100
AcDbEntity
  8
1
  6
Continuous
100
AcDbLine
 10
22.313418
 20
77.70352599999998
 30
0.0
 11
24.313418
 21
77.70352599999998
 31
0.0
  0
LINE
  5
BE43
330
BB9D
100
AcDbEntity
  8
1
  6
Continuous
100
AcDbLine
 10
22.313418
 20
74.70352599999998
 30
0.0
 11
24.313418
 21
74.70352599999998
 31
0.0
  0
LINE
  5
BE44
330
BB9D
100
AcDbEntity
  8
1
  6
Continuous
100
AcDbLine
 10
38.313424
 20
81.50351399999998
 30
0.0
 11
21.31342399999999
 21
81.50351399999998
 31
0.0
  0
LINE
  5
BE45
330
BB9D
100
AcDbEntity
  8
1
  6
Continuous
100
AcDbLine
 10
38.313424
 20
84.50351399999998
 30
0.0
 11
21.31342399999999
 21
84.50351399999998
 31
0.0
  0
ARC
  5
BE46
330
BB9D
100
AcDbEntity
  8
1
  6
Continuous
100
AcDbCircle
 10
16.313403
 20
85.69907699999998
 30
0.0
 40
4.5
100
AcDbArc
 50
176.4787239999998
 51
270.0
  0
ARC
  5
BE47
330
BB9D
100
AcDbEntity
  8
1
  6
Continuous
100
AcDbCircle
 10
16.313403
 20
85.69907699999998
 30
0.0
 40
4.5
100
AcDbArc
 50
289.4713029999999
 51
315.9497629999999
  0
ARC
  5
BE48
330
BB9D
100
AcDbEntity
  8
1
  6
Continuous
100
AcDbCircle
 10
16.313403
 20
86.25185
 30
0.0
 40
4.5
100
AcDbArc
 50
289.4713029999999
 51
315.349604
  0
ARC
  5
BE49
330
BB9D
100
AcDbEntity
  8
1
  6
Continuous
100
AcDbCircle
 10
16.313403
 20
86.25185
 30
0.0
 40
3.1
100
AcDbArc
 50
298.9386569999999
 51
319.880422
  0
LINE
  5
BE4A
330
BB9D
100
AcDbEntity
  8
1
  6
Continuous
100
AcDbLine
 10
17.813409
 20
83.70148399999996
 30
0.0
 11
18.075684
 21
83.70148399999996
 31
0.0
  0
LINE
  5
BE4B
330
BB9D
100
AcDbEntity
  8
1
  6
Continuous
100
AcDbLine
 10
17.813409
 20
84.25425600000002
 30
0.0
 11
19.813406
 21
84.25425600000002
 31
0.0
  0
LINE
  5
BE4C
330
BB9D
100
AcDbEntity
  8
1
  6
Continuous
100
AcDbLine
 10
14.813412
 20
80.10760999999998
 30
0.0
 11
16.313403
 21
80.10760999999998
 31
0.0
  0
LINE
  5
BE4D
330
BB9D
100
AcDbEntity
  8
1
  6
Continuous
100
AcDbLine
 10
16.313403
 20
80.75846799999998
 30
0.0
 11
17.813409
 21
80.75846799999998
 31
0.0
  0
LINE
  5
BE4E
330
BB9D
100
AcDbEntity
  8
1
  6
Continuous
100
AcDbLine
 10
21.81341799999999
 20
86.67290899999995
 30
0.0
 11
21.313412
 21
86.67290899999995
 31
0.0
  0
LINE
  5
BE4F
330
BB9D
100
AcDbEntity
  8
1
  6
Continuous
100
AcDbLine
 10
22.313418
 20
77.70352599999998
 30
0.0
 11
22.313418
 21
74.70352599999998
 31
0.0
  0
LINE
  5
BE50
330
BB9D
100
AcDbEntity
  8
1
  6
Continuous
100
AcDbLine
 10
21.81341799999999
 20
86.58013599999998
 30
0.0
 11
22.21341199999999
 21
86.58013599999998
 31
0.0
  0
LINE
  5
BE51
330
BB9D
100
AcDbEntity
  8
1
  6
Continuous
100
AcDbLine
 10
14.813412
 20
81.45643299999997
 30
0.0
 11
14.813412
 21
80.10760999999998
 31
0.0
  0
ARC
  5
BE52
330
BB9D
100
AcDbEntity
  8
1
  6
Continuous
100
AcDbCircle
 10
22.267569
 20
83.00351399999998
 30
0.0
 40
2.754166999999998
100
AcDbArc
 50
153.00835
 51
206.991465
  0
LINE
  5
BE53
330
BB9D
100
AcDbEntity
  8
1
  6
Continuous
100
AcDbLine
 10
21.313412
 20
81.00351399999999
 30
0.0
 11
19.813406
 21
81.00351399999999
 31
0.0
  0
LINE
  5
BE54
330
BB9D
100
AcDbEntity
  8
1
  6
Continuous
100
AcDbLine
 10
37.81341799999999
 20
86.67290899999995
 30
0.0
 11
38.313424
 21
86.67290899999995
 31
0.0
  0
LINE
  5
BE55
330
BB9D
100
AcDbEntity
  8
1
  6
Continuous
100
AcDbLine
 10
37.313418
 20
77.70352599999998
 30
0.0
 11
37.313418
 21
74.70352599999998
 31
0.0
  0
LINE
  5
BE56
330
BB9D
100
AcDbEntity
  8
1
  6
Continuous
100
AcDbLine
 10
37.413409
 20
86.58013599999998
 30
0.0
 11
37.81341799999999
 21
86.58013599999998
 31
0.0
  0
LINE
  5
BE57
330
BB9D
100
AcDbEntity
  8
1
  6
Continuous
100
AcDbLine
 10
33.313418
 20
84.70352599999998
 30
0.0
 11
26.31341799999999
 21
84.70352599999998
 31
0.0
  0
LINE
  5
BE58
330
BB9D
100
AcDbEntity
  8
1
  6
Continuous
100
AcDbLine
 10
24.313418
 20
81.50351399999998
 30
0.0
 11
24.313418
 21
77.70352599999998
 31
0.0
  0
LINE
  5
BE59
330
BB9D
100
AcDbEntity
  8
1
  6
Continuous
100
AcDbLine
 10
24.313418
 20
86.58013599999998
 30
0.0
 11
24.313418
 21
84.50351399999998
 31
0.0
  0
LINE
  5
BE5A
330
BB9D
100
AcDbEntity
  8
1
  6
Continuous
100
AcDbLine
 10
35.31341799999999
 20
81.50351399999998
 30
0.0
 11
35.31341799999999
 21
77.70352599999998
 31
0.0
  0
LINE
  5
BE5B
330
BB9D
100
AcDbEntity
  8
1
  6
Continuous
100
AcDbLine
 10
35.913418
 20
81.50351399999998
 30
0.0
 11
35.913418
 21
77.70352599999998
 31
0.0
  0
LINE
  5
BE5C
330
BB9D
100
AcDbEntity
  8
1
  6
Continuous
100
AcDbLine
 10
35.31341799999999
 20
86.58013599999998
 30
0.0
 11
35.913418
 21
86.58013599999998
 31
0.0
  0
LINE
  5
BE5D
330
BB9D
100
AcDbEntity
  8
1
  6
Continuous
100
AcDbLine
 10
35.31341799999999
 20
86.58013599999998
 30
0.0
 11
35.31341799999999
 21
84.50351399999998
 31
0.0
  0
LINE
  5
BE5E
330
BB9D
100
AcDbEntity
  8
1
  6
Continuous
100
AcDbLine
 10
23.713418
 20
81.50351399999998
 30
0.0
 11
23.713418
 21
77.70352599999998
 31
0.0
  0
LINE
  5
BE5F
330
BB9D
100
AcDbEntity
  8
1
  6
Continuous
100
AcDbLine
 10
23.713418
 20
86.58013599999998
 30
0.0
 11
24.313418
 21
86.58013599999998
 31
0.0
  0
LINE
  5
BE60
330
BB9D
100
AcDbEntity
  8
1
  6
Continuous
100
AcDbLine
 10
37.413409
 20
73.172917
 30
0.0
 11
35.913418
 21
73.172917
 31
0.0
  0
LINE
  5
BE61
330
BB9D
100
AcDbEntity
  8
1
  6
Continuous
100
AcDbLine
 10
37.413409
 20
78.172917
 30
0.0
 11
35.913418
 21
78.172917
 31
0.0
  0
LINE
  5
BE62
330
BB9D
100
AcDbEntity
  8
1
  6
Continuous
100
AcDbLine
 10
37.313418
 20
74.70352599999998
 30
0.0
 11
35.31341799999999
 21
74.70352599999998
 31
0.0
  0
LINE
  5
BE63
330
BB9D
100
AcDbEntity
  8
1
  6
Continuous
100
AcDbLine
 10
37.313418
 20
77.70352599999998
 30
0.0
 11
35.31341799999999
 21
77.70352599999998
 31
0.0
  0
LINE
  5
BE64
330
BB9D
100
AcDbEntity
  8
1
  6
Continuous
100
AcDbLine
 10
22.21341199999999
 20
92.172909
 30
0.0
 11
23.713418
 21
92.172909
 31
0.0
  0
LINE
  5
BE65
330
BB9D
100
AcDbEntity
  8
1
  6
Continuous
100
AcDbLine
 10
17.813409
 20
88.73636999999998
 30
0.0
 11
19.813406
 21
88.73636999999998
 31
0.0
  0
ARC
  5
BE66
330
BB9D
100
AcDbEntity
  8
1
  6
Continuous
100
AcDbCircle
 10
16.313403
 20
86.25185
 30
0.0
 40
3.1
100
AcDbArc
 50
53.269561
 51
61.061343
  0
ARC
  5
BE67
330
BB9D
100
AcDbEntity
  8
1
  6
Continuous
100
AcDbCircle
 10
16.313403
 20
86.25185
 30
0.0
 40
4.5
100
AcDbArc
 50
35.121468
 51
70.52869699999998
  0
LINE
  5
BE68
330
BB9D
100
AcDbEntity
  8
1
  6
Continuous
100
AcDbLine
 10
16.313403
 20
91.89235899999998
 30
0.0
 11
17.813409
 21
91.89235899999998
 31
0.0
  0
LINE
  5
BE69
330
BB9D
100
AcDbEntity
  8
1
  6
Continuous
100
AcDbLine
 10
14.813412
 20
91.19245900000001
 30
0.0
 11
16.313403
 21
91.19245900000001
 31
0.0
  0
LINE
  5
BE6A
330
BB9D
100
AcDbEntity
  8
1
  6
Continuous
100
AcDbLine
 10
21.81341799999999
 20
88.372586
 30
0.0
 11
22.21341199999999
 21
88.372586
 31
0.0
  0
LINE
  5
BE6B
330
BB9D
100
AcDbEntity
  8
1
  6
Continuous
100
AcDbLine
 10
21.81341799999999
 20
89.70351800000001
 30
0.0
 11
22.21341199999999
 21
89.70351800000001
 31
0.0
  0
LINE
  5
BE6C
330
BB9D
100
AcDbEntity
  8
1
  6
Continuous
100
AcDbLine
 10
14.813412
 20
91.19245900000001
 30
0.0
 11
14.813412
 21
90.45780099999999
 31
0.0
  0
LINE
  5
BE6D
330
BB9D
100
AcDbEntity
  8
1
  6
Continuous
100
AcDbLine
 10
19.813406
 20
88.84075300000002
 30
0.0
 11
21.313412
 21
88.84075300000002
 31
0.0
  0
LINE
  5
BE6E
330
BB9D
100
AcDbEntity
  8
1
  6
Continuous
100
AcDbLine
 10
37.413409
 20
88.372586
 30
0.0
 11
37.81341799999999
 21
88.372586
 31
0.0
  0
LINE
  5
BE6F
330
BB9D
100
AcDbEntity
  8
1
  6
Continuous
100
AcDbLine
 10
37.413409
 20
89.70351800000001
 30
0.0
 11
37.81341799999999
 21
89.70351800000001
 31
0.0
  0
LINE
  5
BE70
330
BB9D
100
AcDbEntity
  8
1
  6
Continuous
100
AcDbLine
 10
23.713418
 20
88.372586
 30
0.0
 11
35.913418
 21
88.372586
 31
0.0
  0
LINE
  5
BE71
330
BB9D
100
AcDbEntity
  8
1
  6
Continuous
100
AcDbLine
 10
23.713418
 20
89.70351800000001
 30
0.0
 11
35.913418
 21
89.70351800000001
 31
0.0
  0
LINE
  5
BE72
330
BB9D
100
AcDbEntity
  8
1
  6
Continuous
100
AcDbLine
 10
35.913418
 20
92.172909
 30
0.0
 11
37.413409
 21
92.172909
 31
0.0
  0
LINE
  5
BE73
330
BB9D
100
AcDbEntity
  8
1
  6
Continuous
100
AcDbLine
 10
39.81342999999998
 20
81.00351399999999
 30
0.0
 11
39.81342999999998
 21
88.84075300000002
 31
0.0
  0
LINE
  5
BE74
330
BB9D
100
AcDbEntity
  8
1
  6
Continuous
100
AcDbLine
 10
44.81342399999999
 20
88.35426600000003
 30
0.0
 11
44.81342399999999
 21
83.53891299999999
 31
0.0
  0
LINE
  5
BE75
330
BB9D
100
AcDbEntity
  8
1
  6
Continuous
100
AcDbLine
 10
43.313434
 20
91.89235899999998
 30
0.0
 11
43.313434
 21
80.10760999999998
 31
0.0
  0
LINE
  5
BE76
330
BB9D
100
AcDbEntity
  8
1
  6
Continuous
100
AcDbLine
 10
41.813427
 20
91.89235899999998
 30
0.0
 11
41.813427
 21
80.75846799999998
 31
0.0
  0
ARC
  5
BE77
330
BB9D
100
AcDbEntity
  8
1
  6
Continuous
100
AcDbCircle
 10
43.313434
 20
85.69907699999998
 30
0.0
 40
3.1
100
AcDbArc
 50
5.115104999999998
 51
90.0
  0
ARC
  5
BE78
330
BB9D
100
AcDbEntity
  8
1
  6
Continuous
100
AcDbCircle
 10
43.313434
 20
86.25185
 30
0.0
 40
3.1
100
AcDbArc
 50
270.0
 51
90.0
  0
ARC
  5
BE79
330
BB9D
100
AcDbEntity
  8
1
  6
Continuous
100
AcDbCircle
 10
43.313434
 20
86.25185
 30
0.0
 40
4.5
100
AcDbArc
 50
270.0
 51
90.0
  0
ARC
  5
BE7A
330
BB9D
100
AcDbEntity
  8
1
  6
Continuous
100
AcDbCircle
 10
37.359268
 20
83.00351399999998
 30
0.0
 40
2.754166999999998
100
AcDbArc
 50
333.008535
 51
26.99164999999998
  0
LINE
  5
BE7B
330
BB9D
100
AcDbEntity
  8
1
  6
Continuous
100
AcDbLine
 10
44.81342399999999
 20
81.45643299999997
 30
0.0
 11
44.81342399999999
 21
80.10760999999998
 31
0.0
  0
LINE
  5
BE7C
330
BB9D
100
AcDbEntity
  8
1
  6
Continuous
100
AcDbLine
 10
43.313434
 20
80.75846799999998
 30
0.0
 11
41.813427
 21
80.75846799999998
 31
0.0
  0
LINE
  5
BE7D
330
BB9D
100
AcDbEntity
  8
1
  6
Continuous
100
AcDbLine
 10
44.81342399999999
 20
80.10760999999998
 30
0.0
 11
43.313434
 21
80.10760999999998
 31
0.0
  0
LINE
  5
BE7E
330
BB9D
100
AcDbEntity
  8
1
  6
Continuous
100
AcDbLine
 10
41.813427
 20
84.25425600000002
 30
0.0
 11
39.81342999999998
 21
84.25425600000002
 31
0.0
  0
LINE
  5
BE7F
330
BB9D
100
AcDbEntity
  8
1
  6
Continuous
100
AcDbLine
 10
41.813427
 20
83.70148399999996
 30
0.0
 11
41.551153
 21
83.70148399999996
 31
0.0
  0
ARC
  5
BE80
330
BB9D
100
AcDbEntity
  8
1
  6
Continuous
100
AcDbCircle
 10
43.313434
 20
86.25185
 30
0.0
 40
3.1
100
AcDbArc
 50
220.1195779999999
 51
241.061343
  0
ARC
  5
BE81
330
BB9D
100
AcDbEntity
  8
1
  6
Continuous
100
AcDbCircle
 10
43.313434
 20
86.25185
 30
0.0
 40
4.5
100
AcDbArc
 50
224.650396
 51
250.5286969999999
  0
ARC
  5
BE82
330
BB9D
100
AcDbEntity
  8
1
  6
Continuous
100
AcDbCircle
 10
43.313434
 20
85.69907699999998
 30
0.0
 40
4.5
100
AcDbArc
 50
224.050237
 51
250.5286969999999
  0
ARC
  5
BE83
330
BB9D
100
AcDbEntity
  8
1
  6
Continuous
100
AcDbCircle
 10
43.313434
 20
85.69907699999998
 30
0.0
 40
4.5
100
AcDbArc
 50
270.0
 51
3.521275999999998
  0
LINE
  5
BE84
330
BB9D
100
AcDbEntity
  8
1
  6
Continuous
100
AcDbLine
 10
44.81342399999999
 20
91.19245900000001
 30
0.0
 11
44.81342399999999
 21
90.45780099999999
 31
0.0
  0
LINE
  5
BE85
330
BB9D
100
AcDbEntity
  8
1
  6
Continuous
100
AcDbLine
 10
44.81342399999999
 20
91.19245900000001
 30
0.0
 11
43.313434
 21
91.19245900000001
 31
0.0
  0
LINE
  5
BE86
330
BB9D
100
AcDbEntity
  8
1
  6
Continuous
100
AcDbLine
 10
43.313434
 20
91.89235899999998
 30
0.0
 11
41.813427
 21
91.89235899999998
 31
0.0
  0
ARC
  5
BE87
330
BB9D
100
AcDbEntity
  8
1
  6
Continuous
100
AcDbCircle
 10
43.313434
 20
86.25185
 30
0.0
 40
4.5
100
AcDbArc
 50
109.471303
 51
144.8785319999998
  0
ARC
  5
BE88
330
BB9D
100
AcDbEntity
  8
1
  6
Continuous
100
AcDbCircle
 10
43.313434
 20
86.25185
 30
0.0
 40
3.1
100
AcDbArc
 50
118.938657
 51
126.7304389999999
  0
LINE
  5
BE89
330
BB9D
100
AcDbEntity
  8
1
  6
Continuous
100
AcDbLine
 10
41.813427
 20
88.73636999999998
 30
0.0
 11
39.81342999999998
 21
88.73636999999998
 31
0.0
  0
LINE
  5
BE8A
330
BB9D
100
AcDbEntity
  8
4
  6
CENTER
100
AcDbLine
 10
101.5074859999999
 20
284.2047729999998
 30
0.0
 11
108.507486
 21
284.2047729999998
 31
0.0
  0
LINE
  5
BE8B
330
BB9D
100
AcDbEntity
  8
1
  6
Continuous
100
AcDbLine
 10
44.81342399999999
 20
289.000701
 30
0.0
 11
43.313434
 21
289.000701
 31
0.0
  0
LINE
  5
BE8C
330
BB9D
100
AcDbEntity
  8
1
  6
Continuous
100
AcDbLine
 10
44.81342399999999
 20
277.9158529999999
 30
0.0
 11
43.313434
 21
277.9158529999999
 31
0.0
  0
LINE
  5
BE8D
330
BB9D
100
AcDbEntity
  8
1
  6
Continuous
100
AcDbLine
 10
44.81342399999999
 20
278.013937
 30
0.0
 11
43.313434
 21
278.013937
 31
0.0
  0
LINE
  5
BE8E
330
BB9D
100
AcDbEntity
  8
1
  6
Continuous
100
AcDbLine
 10
37.413424
 20
285.435387
 30
0.0
 11
38.313424
 21
285.435387
 31
0.0
  0
LINE
  5
BE8F
330
BB9D
100
AcDbEntity
  8
1
  6
Continuous
100
AcDbLine
 10
43.313434
 20
285.4068279999999
 30
0.0
 11
39.813434
 21
285.4068279999999
 31
0.0
  0
LINE
  5
BE90
330
BB9D
100
AcDbEntity
  8
1
  6
Continuous
100
AcDbLine
 10
39.81342999999998
 20
288.104798
 30
0.0
 11
39.81342999999998
 21
286.237658
 31
0.0
  0
ARC
  5
BE91
330
BB9D
100
AcDbEntity
  8
1
  6
Continuous
100
AcDbCircle
 10
37.359268
 20
286.104798
 30
0.0
 40
2.754166999999998
100
AcDbArc
 50
9.050340999999999
 51
26.991465
  0
LINE
  5
BE92
330
BB9D
100
AcDbEntity
  8
1
  6
Continuous
100
AcDbLine
 10
39.813434
 20
281.6925889999998
 30
0.0
 11
38.313434
 21
281.6925889999998
 31
0.0
  0
LINE
  5
BE93
330
BB9D
100
AcDbEntity
  8
1
  6
Continuous
100
AcDbLine
 10
39.813434
 20
285.6877759999998
 30
0.0
 11
38.313434
 21
285.6877759999998
 31
0.0
  0
LINE
  5
BE94
330
BB9D
100
AcDbEntity
  8
1
  6
Continuous
100
AcDbLine
 10
38.313424
 20
288.104798
 30
0.0
 11
39.81342999999998
 21
288.104798
 31
0.0
  0
ARC
  5
BE95
330
BB9D
100
AcDbEntity
  8
1
  6
Continuous
100
AcDbCircle
 10
37.359271
 20
283.935395
 30
0.0
 40
2.754166999999998
100
AcDbArc
 50
333.008532
 51
26.991465
  0
LINE
  5
BE96
330
BB9D
100
AcDbEntity
  8
1
  6
Continuous
100
AcDbLine
 10
39.813434
 20
281.411641
 30
0.0
 11
39.813434
 21
285.6877759999998
 31
0.0
  0
LINE
  5
BE97
330
BB9D
100
AcDbEntity
  8
1
  6
Continuous
100
AcDbLine
 10
41.813427
 20
285.4068279999999
 30
0.0
 11
41.813427
 21
285.5693899999998
 31
0.0
  0
LINE
  5
BE98
330
BB9D
100
AcDbEntity
  8
1
  6
Continuous
100
AcDbLine
 10
41.813427
 20
280.696306
 30
0.0
 11
41.813427
 21
281.411641
 31
0.0
  0
ARC
  5
BE99
330
BB9D
100
AcDbEntity
  8
1
  6
Continuous
100
AcDbCircle
 10
43.313434
 20
282.856462
 30
0.0
 40
4.5
100
AcDbArc
 50
198.727723
 51
270.0
  0
ARC
  5
BE9A
330
BB9D
100
AcDbEntity
  8
1
  6
Continuous
100
AcDbCircle
 10
43.313434
 20
283.4092339999999
 30
0.0
 40
4.5
100
AcDbArc
 50
206.3535989999998
 51
270.0
  0
ARC
  5
BE9B
330
BB9D
100
AcDbEntity
  8
1
  6
Continuous
100
AcDbCircle
 10
43.313434
 20
283.4092339999999
 30
0.0
 40
3.1
100
AcDbArc
 50
220.1195779999999
 51
270.0
  0
LINE
  5
BE9C
330
BB9D
100
AcDbEntity
  8
1
  6
Continuous
100
AcDbLine
 10
43.313434
 20
281.411641
 30
0.0
 11
38.313424
 21
281.411641
 31
0.0
  0
ARC
  5
BE9D
330
BB9D
100
AcDbEntity
  8
1
  6
Continuous
100
AcDbCircle
 10
43.313434
 20
282.856462
 30
0.0
 40
3.1
100
AcDbArc
 50
90.0
 51
124.644134
  0
ARC
  5
BE9E
330
BB9D
100
AcDbEntity
  8
1
  6
Continuous
100
AcDbCircle
 10
43.313434
 20
283.4092339999999
 30
0.0
 40
3.1
100
AcDbArc
 50
90.0
 51
139.880422
  0
ARC
  5
BE9F
330
BB9D
100
AcDbEntity
  8
1
  6
Continuous
100
AcDbCircle
 10
43.313434
 20
283.4092339999999
 30
0.0
 40
4.5
100
AcDbArc
 50
90.0
 51
149.579485
  0
LINE
  5
BEA0
330
BB9D
100
AcDbEntity
  8
1
  6
Continuous
100
AcDbLine
 10
41.813427
 20
287.6859129999999
 30
0.0
 11
41.813427
 21
288.349844
 31
0.0
  0
LINE
  5
BEA1
330
BB9D
100
AcDbEntity
  8
1
  6
Continuous
100
AcDbLine
 10
43.313434
 20
288.349844
 30
0.0
 11
41.813427
 21
288.349844
 31
0.0
  0
LINE
  5
BEA2
330
BB9D
100
AcDbEntity
  8
1
  6
Continuous
100
AcDbLine
 10
41.813427
 20
277.2159529999999
 30
0.0
 11
41.813427
 21
278.579783
 31
0.0
  0
LINE
  5
BEA3
330
BB9D
100
AcDbEntity
  8
1
  6
Continuous
100
AcDbLine
 10
43.313434
 20
277.2159529999999
 30
0.0
 11
41.813427
 21
277.2159529999999
 31
0.0
  0
LINE
  5
BEA4
330
BB9D
100
AcDbEntity
  8
1
  6
Continuous
100
AcDbLine
 10
43.313434
 20
277.3630799999998
 30
0.0
 11
41.813427
 21
277.3630799999998
 31
0.0
  0
LINE
  5
BEA5
330
BB9D
100
AcDbEntity
  8
1
  6
Continuous
100
AcDbLine
 10
43.313434
 20
277.2159529999999
 30
0.0
 11
43.313434
 21
289.000701
 31
0.0
  0
LINE
  5
BEA6
330
BB9D
100
AcDbEntity
  8
1
  6
Continuous
100
AcDbLine
 10
37.413424
 20
282.435395
 30
0.0
 11
38.313424
 21
282.435395
 31
0.0
  0
LINE
  5
BEA7
330
BB9D
100
AcDbEntity
  8
1
  6
Continuous
100
AcDbLine
 10
38.313424
 20
288.104798
 30
0.0
 11
38.313424
 21
280.267559
 31
0.0
  0
LINE
  5
BEA8
330
BB9D
100
AcDbEntity
  8
1
  6
Continuous
100
AcDbLine
 10
39.63273
 20
280.267559
 30
0.0
 11
38.313424
 21
280.267559
 31
0.0
  0
LINE
  5
BEA9
330
BB9D
100
AcDbEntity
  8
1
  6
Continuous
100
AcDbLine
 10
38.313424
 20
287.604798
 30
0.0
 11
37.413424
 21
287.604798
 31
0.0
  0
LINE
  5
BEAA
330
BB9D
100
AcDbEntity
  8
1
  6
Continuous
100
AcDbLine
 10
37.413424
 20
280.735718
 30
0.0
 11
37.81341799999999
 21
280.735718
 31
0.0
  0
LINE
  5
BEAB
330
BB9D
100
AcDbEntity
  8
1
  6
Continuous
100
AcDbLine
 10
37.413424
 20
279.404785
 30
0.0
 11
37.81341799999999
 21
279.404785
 31
0.0
  0
LINE
  5
BEAC
330
BB9D
100
AcDbEntity
  8
1
  6
Continuous
100
AcDbLine
 10
37.81341799999999
 20
279.404785
 30
0.0
 11
37.81341799999999
 21
282.435395
 31
0.0
  0
ARC
  5
BEAD
330
BB9D
100
AcDbEntity
  8
1
  6
Continuous
100
AcDbCircle
 10
43.313434
 20
282.856462
 30
0.0
 40
3.1
100
AcDbArc
 50
5.115104999999998
 51
61.061666
  0
ARC
  5
BEAE
330
BB9D
100
AcDbEntity
  8
1
  6
Continuous
100
AcDbCircle
 10
43.313434
 20
282.856462
 30
0.0
 40
4.5
100
AcDbArc
 50
289.4710969999999
 51
3.521275999999998
  0
ARC
  5
BEAF
330
BB9D
100
AcDbEntity
  8
1
  6
Continuous
100
AcDbCircle
 10
43.313434
 20
283.4092339999999
 30
0.0
 40
3.1
100
AcDbArc
 50
298.9383339999998
 51
61.061666
  0
ARC
  5
BEB0
330
BB9D
100
AcDbEntity
  8
1
  6
Continuous
100
AcDbCircle
 10
43.313434
 20
283.4092339999999
 30
0.0
 40
4.5
100
AcDbArc
 50
289.4710969999999
 51
70.528903
  0
LINE
  5
BEB1
330
BB9D
100
AcDbEntity
  8
1
  6
Continuous
100
AcDbLine
 10
44.81342399999999
 20
277.9158529999999
 30
0.0
 11
44.81342399999999
 21
289.000701
 31
0.0
  0
LINE
  5
BEB2
330
BB9D
100
AcDbEntity
  8
4
  6
CENTER
100
AcDbLine
 10
17.93187899999999
 20
286.104798
 30
0.0
 11
41.664413
 21
286.104798
 31
0.0
  0
LINE
  5
BEB3
330
BB9D
100
AcDbEntity
  8
4
  6
CENTER
100
AcDbLine
 10
42.213412
 20
283.935395
 30
0.0
 11
17.41342399999998
 21
283.935395
 31
0.0
  0
LINE
  5
BEB4
330
BB9D
100
AcDbEntity
  8
1
  6
Continuous
100
AcDbLine
 10
22.21341199999999
 20
282.435395
 30
0.0
 11
21.313412
 21
282.435395
 31
0.0
  0
LINE
  5
BEB5
330
BB9D
100
AcDbEntity
  8
1
  6
Continuous
100
AcDbLine
 10
22.21341199999999
 20
285.435387
 30
0.0
 11
21.313412
 21
285.435387
 31
0.0
  0
LINE
  5
BEB6
330
BB9D
100
AcDbEntity
  8
1
  6
Continuous
100
AcDbLine
 10
21.313412
 20
287.604798
 30
0.0
 11
22.21341199999999
 21
287.604798
 31
0.0
  0
LINE
  5
BEB7
330
BB9D
100
AcDbEntity
  8
1
  6
Continuous
100
AcDbLine
 10
14.813412
 20
277.9158529999999
 30
0.0
 11
14.813412
 21
289.000701
 31
0.0
  0
ARC
  5
BEB8
330
BB9D
100
AcDbEntity
  8
1
  6
Continuous
100
AcDbCircle
 10
16.313403
 20
283.4092339999999
 30
0.0
 40
4.5
100
AcDbArc
 50
109.4710969999999
 51
250.528903
  0
ARC
  5
BEB9
330
BB9D
100
AcDbEntity
  8
1
  6
Continuous
100
AcDbCircle
 10
16.313403
 20
283.4092339999999
 30
0.0
 40
3.1
100
AcDbArc
 50
118.938334
 51
241.061666
  0
ARC
  5
BEBA
330
BB9D
100
AcDbEntity
  8
1
  6
Continuous
100
AcDbCircle
 10
16.313403
 20
282.856462
 30
0.0
 40
4.5
100
AcDbArc
 50
176.4787239999998
 51
250.528903
  0
ARC
  5
BEBB
330
BB9D
100
AcDbEntity
  8
1
  6
Continuous
100
AcDbCircle
 10
16.313403
 20
282.856462
 30
0.0
 40
3.1
100
AcDbArc
 50
118.938334
 51
174.884895
  0
LINE
  5
BEBC
330
BB9D
100
AcDbEntity
  8
1
  6
Continuous
100
AcDbLine
 10
19.994107
 20
280.267559
 30
0.0
 11
21.313412
 21
280.267559
 31
0.0
  0
LINE
  5
BEBD
330
BB9D
100
AcDbEntity
  8
1
  6
Continuous
100
AcDbLine
 10
21.313412
 20
288.104798
 30
0.0
 11
21.313412
 21
280.267559
 31
0.0
  0
LINE
  5
BEBE
330
BB9D
100
AcDbEntity
  8
1
  6
Continuous
100
AcDbLine
 10
16.313403
 20
277.2159529999999
 30
0.0
 11
16.313403
 21
289.000701
 31
0.0
  0
LINE
  5
BEBF
330
BB9D
100
AcDbEntity
  8
1
  6
Continuous
100
AcDbLine
 10
16.313403
 20
277.3630799999998
 30
0.0
 11
17.813409
 21
277.3630799999998
 31
0.0
  0
LINE
  5
BEC0
330
BB9D
100
AcDbEntity
  8
1
  6
Continuous
100
AcDbLine
 10
16.313403
 20
277.2159529999999
 30
0.0
 11
17.813409
 21
277.2159529999999
 31
0.0
  0
LINE
  5
BEC1
330
BB9D
100
AcDbEntity
  8
1
  6
Continuous
100
AcDbLine
 10
17.813409
 20
277.2159529999999
 30
0.0
 11
17.813409
 21
278.579783
 31
0.0
  0
LINE
  5
BEC2
330
BB9D
100
AcDbEntity
  8
1
  6
Continuous
100
AcDbLine
 10
16.313403
 20
288.349844
 30
0.0
 11
17.813409
 21
288.349844
 31
0.0
  0
LINE
  5
BEC3
330
BB9D
100
AcDbEntity
  8
1
  6
Continuous
100
AcDbLine
 10
17.813409
 20
287.6859129999999
 30
0.0
 11
17.813409
 21
288.349844
 31
0.0
  0
ARC
  5
BEC4
330
BB9D
100
AcDbEntity
  8
1
  6
Continuous
100
AcDbCircle
 10
16.313403
 20
283.4092339999999
 30
0.0
 40
4.5
100
AcDbArc
 50
30.42051500000001
 51
90.0
  0
ARC
  5
BEC5
330
BB9D
100
AcDbEntity
  8
1
  6
Continuous
100
AcDbCircle
 10
16.313403
 20
283.4092339999999
 30
0.0
 40
3.1
100
AcDbArc
 50
40.119578
 51
90.0
  0
ARC
  5
BEC6
330
BB9D
100
AcDbEntity
  8
1
  6
Continuous
100
AcDbCircle
 10
16.313403
 20
282.856462
 30
0.0
 40
3.1
100
AcDbArc
 50
55.35586600000001
 51
90.0
  0
LINE
  5
BEC7
330
BB9D
100
AcDbEntity
  8
1
  6
Continuous
100
AcDbLine
 10
16.313403
 20
281.411641
 30
0.0
 11
21.313412
 21
281.411641
 31
0.0
  0
ARC
  5
BEC8
330
BB9D
100
AcDbEntity
  8
1
  6
Continuous
100
AcDbCircle
 10
16.313403
 20
283.4092339999999
 30
0.0
 40
3.1
100
AcDbArc
 50
270.0
 51
319.880422
  0
ARC
  5
BEC9
330
BB9D
100
AcDbEntity
  8
1
  6
Continuous
100
AcDbCircle
 10
16.313403
 20
283.4092339999999
 30
0.0
 40
4.5
100
AcDbArc
 50
270.0
 51
333.6464009999999
  0
ARC
  5
BECA
330
BB9D
100
AcDbEntity
  8
1
  6
Continuous
100
AcDbCircle
 10
16.313403
 20
282.856462
 30
0.0
 40
4.5
100
AcDbArc
 50
270.0
 51
341.2722769999998
  0
LINE
  5
BECB
330
BB9D
100
AcDbEntity
  8
1
  6
Continuous
100
AcDbLine
 10
17.813409
 20
280.696306
 30
0.0
 11
17.813409
 21
281.411641
 31
0.0
  0
LINE
  5
BECC
330
BB9D
100
AcDbEntity
  8
1
  6
Continuous
100
AcDbLine
 10
17.813409
 20
285.4068279999999
 30
0.0
 11
17.813409
 21
285.5693899999998
 31
0.0
  0
LINE
  5
BECD
330
BB9D
100
AcDbEntity
  8
1
  6
Continuous
100
AcDbLine
 10
19.813403
 20
281.411641
 30
0.0
 11
19.813403
 21
285.6877759999998
 31
0.0
  0
ARC
  5
BECE
330
BB9D
100
AcDbEntity
  8
1
  6
Continuous
100
AcDbCircle
 10
22.26756599999999
 20
283.935395
 30
0.0
 40
2.754166999999998
100
AcDbArc
 50
153.008535
 51
206.991468
  0
LINE
  5
BECF
330
BB9D
100
AcDbEntity
  8
1
  6
Continuous
100
AcDbLine
 10
21.313412
 20
288.104798
 30
0.0
 11
19.813406
 21
288.104798
 31
0.0
  0
LINE
  5
BED0
330
BB9D
100
AcDbEntity
  8
1
  6
Continuous
100
AcDbLine
 10
19.813403
 20
285.6877759999998
 30
0.0
 11
21.313403
 21
285.6877759999998
 31
0.0
  0
LINE
  5
BED1
330
BB9D
100
AcDbEntity
  8
1
  6
Continuous
100
AcDbLine
 10
19.813403
 20
281.6925889999998
 30
0.0
 11
21.313403
 21
281.6925889999998
 31
0.0
  0
ARC
  5
BED2
330
BB9D
100
AcDbEntity
  8
1
  6
Continuous
100
AcDbCircle
 10
22.267569
 20
286.104798
 30
0.0
 40
2.754166999999998
100
AcDbArc
 50
153.008535
 51
170.949659
  0
LINE
  5
BED3
330
BB9D
100
AcDbEntity
  8
1
  6
Continuous
100
AcDbLine
 10
19.813406
 20
288.104798
 30
0.0
 11
19.813406
 21
286.237658
 31
0.0
  0
LINE
  5
BED4
330
BB9D
100
AcDbEntity
  8
1
  6
Continuous
100
AcDbLine
 10
16.313403
 20
285.4068279999999
 30
0.0
 11
19.813403
 21
285.4068279999999
 31
0.0
  0
LINE
  5
BED5
330
BB9D
100
AcDbEntity
  8
1
  6
Continuous
100
AcDbLine
 10
14.813412
 20
278.013937
 30
0.0
 11
16.313403
 21
278.013937
 31
0.0
  0
LINE
  5
BED6
330
BB9D
100
AcDbEntity
  8
1
  6
Continuous
100
AcDbLine
 10
14.813412
 20
277.9158529999999
 30
0.0
 11
16.313403
 21
277.9158529999999
 31
0.0
  0
LINE
  5
BED7
330
BB9D
100
AcDbEntity
  8
1
  6
Continuous
100
AcDbLine
 10
14.813412
 20
289.000701
 30
0.0
 11
16.313403
 21
289.000701
 31
0.0
  0
LINE
  5
BED8
330
BB9D
100
AcDbEntity
  8
1
  6
Continuous
100
AcDbLine
 10
21.81341799999999
 20
279.404785
 30
0.0
 11
21.81341799999999
 21
282.435395
 31
0.0
  0
LINE
  5
BED9
330
BB9D
100
AcDbEntity
  8
1
  6
Continuous
100
AcDbLine
 10
21.81341799999999
 20
280.735718
 30
0.0
 11
22.21341199999999
 21
280.735718
 31
0.0
  0
LINE
  5
BEDA
330
BB9D
100
AcDbEntity
  8
1
  6
Continuous
100
AcDbLine
 10
21.81341799999999
 20
279.404785
 30
0.0
 11
22.21341199999999
 21
279.404785
 31
0.0
  0
ENDSEC
  0
SECTION
  2
OBJECTS
  0
DICTIONARY
  5
BB8B
330
0
100
AcDbDictionary
281
     1
  3
ACAD_CIP_PREVIOUS_PRODUCT_INFO
350
BF3E
  3
ACAD_COLOR
350
BF20
  3
ACAD_DETAILVIEWSTYLE
350
BF39
  3
ACAD_GROUP
350
BB8C
  3
ACAD_LAYOUT
350
BB98
  3
ACAD_MATERIAL
350
BEEE
  3
ACAD_MLEADERSTYLE
350
BF35
  3
ACAD_MLINESTYLE
350
BB95
  3
ACAD_PLOTSETTINGS
350
BB97
  3
ACAD_PLOTSTYLENAME
350
BEEC
  3
ACAD_SCALELIST
350
BF23
  3
ACAD_SECTIONVIEWSTYLE
350
BF37
  3
ACAD_TABLESTYLE
350
BF21
  3
ACAD_VISUALSTYLE
350
BF07
  3
ACDB_RECOMPOSE_DATA
350
BF5C
  3
AcDbVariableDictionary
350
BF4F
  3
DWGPROPS
350
BF5D
  0
DICTIONARY
  5
BF3F
330
BB8F
100
AcDbDictionary
280
     1
281
     1
  3
ADSK_XREC_LAYER_RECONCILED
360
BF40
  0
DICTIONARY
  5
BF41
330
BBA5
100
AcDbDictionary
280
     1
281
     1
  3
ADSK_XREC_LAYER_RECONCILED
360
BF42
  0
DICTIONARY
  5
BF43
330
BBA6
100
AcDbDictionary
280
     1
281
     1
  3
ADSK_XREC_LAYER_RECONCILED
360
BF44
  0
DICTIONARY
  5
BF45
330
BBA7
100
AcDbDictionary
280
     1
281
     1
  3
ADSK_XREC_LAYER_RECONCILED
360
BF46
  0
DICTIONARY
  5
BF47
330
BBA8
100
AcDbDictionary
280
     1
281
     1
  3
ADSK_XREC_LAYER_RECONCILED
360
BF48
  0
DICTIONARY
  5
BF49
330
BBA9
100
AcDbDictionary
280
     1
281
     1
  3
ADSK_XREC_LAYER_RECONCILED
360
BF4A
  0
DICTIONARY
  5
BF4B
330
BBAA
100
AcDbDictionary
280
     1
281
     1
  3
ADSK_XREC_LAYER_RECONCILED
360
BF4C
  0
DICTIONARY
  5
BF4D
330
BBAB
100
AcDbDictionary
280
     1
281
     1
  3
ADSK_XREC_LAYER_RECONCILED
360
BF4E
  0
DICTIONARY
  5
BEE7
330
BB9D
100
AcDbDictionary
281
     1
  3
ACAD_LAYOUTSELFREF
350
BEE8
  0
DICTIONARY
  5
BEE5
330
BB99
100
AcDbDictionary
281
     1
  3
ACAD_LAYOUTSELFREF
350
BEE6
  0
XRECORD
  5
BF3E
102
{ACAD_REACTORS
330
BB8B
102
}
330
BB8B
100
AcDbXrecord
280
     1
300
ACDLT
300
2014
300
ACDLT_F_S
  0
DICTIONARY
  5
BF20
102
{ACAD_REACTORS
330
BB8B
102
}
330
BB8B
100
AcDbDictionary
281
     1
  0
DICTIONARY
  5
BF39
102
{ACAD_REACTORS
330
BB8B
102
}
330
BB8B
100
AcDbDictionary
281
     1
  3
Imperial24
350
BF3A
  0
DICTIONARY
  5
BB8C
102
{ACAD_REACTORS
330
BB8B
102
}
330
BB8B
100
AcDbDictionary
281
     1
  0
DICTIONARY
  5
BB98
102
{ACAD_REACTORS
330
BB8B
102
}
330
BB8B
100
AcDbDictionary
281
     1
  3
Model
350
BF3B
  3
レイアウト1
350
BF3C
  0
DICTIONARY
  5
BEEE
102
{ACAD_REACTORS
330
BB8B
102
}
330
BB8B
100
AcDbDictionary
281
     1
  3
ByBlock
350
BEF7
  3
ByLayer
350
BEEF
  3
Global
350
BEFF
  0
DICTIONARY
  5
BF35
102
{ACAD_REACTORS
330
BB8B
102
}
330
BB8B
100
AcDbDictionary
281
     1
  3
Standard
350
BF36
  0
DICTIONARY
  5
BB95
102
{ACAD_REACTORS
330
BB8B
102
}
330
BB8B
100
AcDbDictionary
281
     1
  3
STANDARD
350
BB96
  0
DICTIONARY
  5
BB97
102
{ACAD_REACTORS
330
BB8B
102
}
330
BB8B
100
AcDbDictionary
281
     1
  0
ACDBDICTIONARYWDFLT
  5
BEEC
102
{ACAD_REACTORS
330
BB8B
102
}
330
BB8B
100
AcDbDictionary
281
     1
  3
Normal
350
BEED
100
AcDbDictionaryWithDefault
340
BEED
  0
DICTIONARY
  5
BF23
102
{ACAD_REACTORS
330
BB8B
102
}
330
BB8B
100
AcDbDictionary
281
     1
  3
A0
350
BF24
  3
A1
350
BF25
  3
A2
350
BF26
  3
A3
350
BF27
  3
A4
350
BF28
  3
A5
350
BF29
  3
A6
350
BF2A
  3
A7
350
BF2B
  3
A8
350
BF2C
  3
A9
350
BF2D
  3
B0
350
BF2E
  3
B1
350
BF2F
  3
B2
350
BF30
  3
B3
350
BF31
  3
B4
350
BF32
  3
B5
350
BF33
  3
B6
350
BF34
  0
DICTIONARY
  5
BF37
102
{ACAD_REACTORS
330
BB8B
102
}
330
BB8B
100
AcDbDictionary
281
     1
  3
Imperial24
350
BF38
  0
DICTIONARY
  5
BF21
102
{ACAD_REACTORS
330
BB8B
102
}
330
BB8B
100
AcDbDictionary
281
     1
  3
Standard
350
BF22
  0
DICTIONARY
  5
BF07
102
{ACAD_REACTORS
330
BB8B
102
}
330
BB8B
100
AcDbDictionary
281
     1
  3
2dWireframe
350
BF0D
  3
Basic
350
BF0C
  3
Brighten
350
BF13
  3
ColorChange
350
BF17
  3
Conceptual
350
BF10
  3
Dim
350
BF12
  3
EdgeColorOff
350
BF1F
  3
Facepattern
350
BF16
  3
Flat
350
BF08
  3
FlatWithEdges
350
BF09
  3
Gouraud
350
BF0A
  3
GouraudWithEdges
350
BF0B
  3
Hidden
350
BF0F
  3
JitterOff
350
BF1D
  3
Linepattern
350
BF15
  3
OverhangOff
350
BF1E
  3
Realistic
350
BF11
  3
Shaded
350
BF1C
  3
Shaded with edges
350
BF1B
  3
Shades of Gray
350
BF18
  3
Sketchy
350
BF19
  3
Thicken
350
BF14
  3
Wireframe
350
BF0E
  3
X-Ray
350
BF1A
  0
XRECORD
  5
BF5C
102
{ACAD_REACTORS
330
BB8B
102
}
330
BB8B
100
AcDbXrecord
280
     1
 90
        1
330
BF22
  0
DICTIONARY
  5
BF4F
102
{ACAD_REACTORS
330
BB8B
102
}
330
BB8B
100
AcDbDictionary
281
     1
  3
CANNOSCALE
350
BF54
  3
CMLEADERSTYLE
350
BF51
  3
CTABLESTYLE
350
BF50
  3
CVIEWDETAILSTYLE
350
BF52
  3
CVIEWSECTIONSTYLE
350
BF53
  3
DIMASSOC
350
BF57
  3
INDEXCTL
350
BF56
  3
SORTENTS
350
BF55
  3
XCLIPFRAME
350
BF58
  0
XRECORD
  5
BF5D
102
{ACAD_REACTORS
330
BB8B
102
}
330
BB8B
100
AcDbXrecord
280
     1
  1
DWGPROPS COOKIE
  2

  3

  4

  6

  7

  8
Yoshitsune
  9

300
=
301
=
302
=
303
=
304
=
305
=
306
=
307
=
308
=
309
=
 40
0.0000148148148148
 41
2451066.413337847
 42
2457192.598583275
  1

 90
        0
  0
XRECORD
  5
BF40
102
{ACAD_REACTORS
330
BF3F
102
}
330
BF3F
100
AcDbXrecord
280
     1
290
     1
  0
XRECORD
  5
BF42
102
{ACAD_REACTORS
330
BF41
102
}
330
BF41
100
AcDbXrecord
280
     1
290
     1
  0
XRECORD
  5
BF44
102
{ACAD_REACTORS
330
BF43
102
}
330
BF43
100
AcDbXrecord
280
     1
290
     1
  0
XRECORD
  5
BF46
102
{ACAD_REACTORS
330
BF45
102
}
330
BF45
100
AcDbXrecord
280
     1
290
     1
  0
XRECORD
  5
BF48
102
{ACAD_REACTORS
330
BF47
102
}
330
BF47
100
AcDbXrecord
280
     1
290
     1
  0
XRECORD
  5
BF4A
102
{ACAD_REACTORS
330
BF49
102
}
330
BF49
100
AcDbXrecord
280
     1
290
     1
  0
XRECORD
  5
BF4C
102
{ACAD_REACTORS
330
BF4B
102
}
330
BF4B
100
AcDbXrecord
280
     1
290
     1
  0
XRECORD
  5
BF4E
102
{ACAD_REACTORS
330
BF4D
102
}
330
BF4D
100
AcDbXrecord
280
     1
290
     1
  0
XRECORD
  5
BEE8
102
{ACAD_REACTORS
330
BEE7
102
}
330
BEE7
100
AcDbXrecord
280
     1
340
BB9D
  0
XRECORD
  5
BEE6
102
{ACAD_REACTORS
330
BEE5
102
}
330
BEE5
100
AcDbXrecord
280
     1
340
BB99
  0
ACDBDETAILVIEWSTYLE
  5
BF3A
102
{ACAD_XDICTIONARY
360
BF95
102
}
102
{ACAD_REACTORS
330
BF39
102
}
330
BF39
100
AcDbModelDocViewStyle
 70
     0
  3
Imperial24
290
     0
100
AcDbDetailViewStyle
 70
     0
 71
     0
 90
        3
 71
     1
340
BB90
 40
0.24
340
0
 40
0.24
300

 40
0.36
280
     3
 71
     2
340
BB94
 90
       25
 71
     3
340
BB90
 40
0.24
 90
        1
 40
0.75
 90
        1
300
%<\AcVar ViewType \f "%tc1">% %<\AcVar ViewDetailId>%\PSCALE %<\AcVar ViewScale \f "%sn">%
 71
     4
340
BB94
 90
       25
340
BB94
 90
       25
280
     0
  0
LAYOUT
  5
BF3B
102
{ACAD_XDICTIONARY
360
BF97
102
}
102
{ACAD_REACTORS
330
BB98
102
}
330
BB98
100
AcDbPlotSettings
  1

  2
Canon LBP9100C
  4

  6

 40
0.0
 41
0.0
 42
0.0
 43
0.0
 44
0.0
 45
0.0
 46
0.0
 47
0.0
 48
0.0
 49
0.0
140
0.0
141
0.0
142
1.0
143
1.0
 70
  1712
 72
     0
 73
     0
 74
     0
  7

 75
     0
147
1.0
148
0.0
149
0.0
100
AcDbLayout
  1
Model
 70
     1
 71
     0
 10
0.0
 20
0.0
 11
12.0
 21
9.0
 12
0.0
 22
0.0
 32
0.0
 14
0.0
 24
0.0
 34
0.0
 15
0.0
 25
0.0
 35
0.0
146
0.0
 13
0.0
 23
0.0
 33
0.0
 16
1.0
 26
0.0
 36
0.0
 17
0.0
 27
1.0
 37
0.0
 76
     0
330
BB9D
331
BEE4
  0
LAYOUT
  5
BF3C
102
{ACAD_XDICTIONARY
360
BF99
102
}
102
{ACAD_REACTORS
330
BB98
102
}
330
BB98
100
AcDbPlotSettings
  1

  2
Canon LBP9100C
  4

  6

 40
0.0
 41
0.0
 42
0.0
 43
0.0
 44
0.0
 45
0.0
 46
0.0
 47
0.0
 48
0.0
 49
0.0
140
0.0
141
0.0
142
1.0
143
1.0
 70
   688
 72
     0
 73
     0
 74
     5
  7

 75
    16
147
1.0
148
0.0
149
0.0
100
AcDbLayout
  1
レイアウト1
 70
     0
 71
     1
 10
0.0
 20
0.0
 11
420.0
 21
297.0
 12
0.0
 22
0.0
 32
0.0
 14
1.000000000000000E+20
 24
1.000000000000000E+20
 34
1.000000000000000E+20
 15
-1.000000000000000E+20
 25
-1.000000000000000E+20
 35
-1.000000000000000E+20
146
0.0
 13
0.0
 23
0.0
 33
0.0
 16
1.0
 26
0.0
 36
0.0
 17
0.0
 27
1.0
 37
0.0
 76
     0
330
BB99
  0
MATERIAL
  5
BEF7
102
{ACAD_XDICTIONARY
360
BEF8
102
}
102
{ACAD_REACTORS
330
BEEE
102
}
330
BEEE
100
AcDbMaterial
  1
ByBlock
 72
     0
 43
0.0208333333333333
 43
0.0
 43
0.0
 43
0.0
 43
0.0
 43
0.0208333333333333
 43
0.0
 43
0.0
 43
0.0
 43
0.0
 43
1.0
 43
0.0
 43
0.0
 43
0.0
 43
0.0
 43
1.0
 77
     0
 47
0.0208333333333333
 47
0.0
 47
0.0
 47
0.0
 47
0.0
 47
0.0208333333333333
 47
0.0
 47
0.0
 47
0.0
 47
0.0
 47
1.0
 47
0.0
 47
0.0
 47
0.0
 47
0.0
 47
1.0
171
     0
 49
0.0208333333333333
 49
0.0
 49
0.0
 49
0.0
 49
0.0
 49
0.0208333333333333
 49
0.0
 49
0.0
 49
0.0
 49
0.0
 49
1.0
 49
0.0
 49
0.0
 49
0.0
 49
0.0
 49
1.0
175
     0
142
0.0208333333333333
142
0.0
142
0.0
142
0.0
142
0.0
142
0.0208333333333333
142
0.0
142
0.0
142
0.0
142
0.0
142
1.0
142
0.0
142
0.0
142
0.0
142
0.0
142
1.0
179
     0
144
0.0208333333333333
144
0.0
144
0.0
144
0.0
144
0.0
144
0.0208333333333333
144
0.0
144
0.0
144
0.0
144
0.0
144
1.0
144
0.0
144
0.0
144
0.0
144
0.0
144
1.0
147
0.0208333333333333
147
0.0
147
0.0
147
0.0
147
0.0
147
0.0208333333333333
147
0.0
147
0.0
147
0.0
147
0.0
147
1.0
147
0.0
147
0.0
147
0.0
147
0.0
147
1.0
  0
MATERIAL
  5
BEEF
102
{ACAD_XDICTIONARY
360
BEF0
102
}
102
{ACAD_REACTORS
330
BEEE
102
}
330
BEEE
100
AcDbMaterial
  1
ByLayer
 72
     0
 43
0.0208333333333333
 43
0.0
 43
0.0
 43
0.0
 43
0.0
 43
0.0208333333333333
 43
0.0
 43
0.0
 43
0.0
 43
0.0
 43
1.0
 43
0.0
 43
0.0
 43
0.0
 43
0.0
 43
1.0
 77
     0
 47
0.0208333333333333
 47
0.0
 47
0.0
 47
0.0
 47
0.0
 47
0.0208333333333333
 47
0.0
 47
0.0
 47
0.0
 47
0.0
 47
1.0
 47
0.0
 47
0.0
 47
0.0
 47
0.0
 47
1.0
171
     0
 49
0.0208333333333333
 49
0.0
 49
0.0
 49
0.0
 49
0.0
 49
0.0208333333333333
 49
0.0
 49
0.0
 49
0.0
 49
0.0
 49
1.0
 49
0.0
 49
0.0
 49
0.0
 49
0.0
 49
1.0
175
     0
142
0.0208333333333333
142
0.0
142
0.0
142
0.0
142
0.0
142
0.0208333333333333
142
0.0
142
0.0
142
0.0
142
0.0
142
1.0
142
0.0
142
0.0
142
0.0
142
0.0
142
1.0
179
     0
144
0.0208333333333333
144
0.0
144
0.0
144
0.0
144
0.0
144
0.0208333333333333
144
0.0
144
0.0
144
0.0
144
0.0
144
1.0
144
0.0
144
0.0
144
0.0
144
0.0
144
1.0
147
0.0208333333333333
147
0.0
147
0.0
147
0.0
147
0.0
147
0.0208333333333333
147
0.0
147
0.0
147
0.0
147
0.0
147
1.0
147
0.0
147
0.0
147
0.0
147
0.0
147
1.0
  0
MATERIAL
  5
BEFF
102
{ACAD_XDICTIONARY
360
BF00
102
}
102
{ACAD_REACTORS
330
BEEE
102
}
330
BEEE
100
AcDbMaterial
  1
Global
 72
     0
 43
0.0208333333333333
 43
0.0
 43
0.0
 43
0.0
 43
0.0
 43
0.0208333333333333
 43
0.0
 43
0.0
 43
0.0
 43
0.0
 43
1.0
 43
0.0
 43
0.0
 43
0.0
 43
0.0
 43
1.0
 77
     0
 47
0.0208333333333333
 47
0.0
 47
0.0
 47
0.0
 47
0.0
 47
0.0208333333333333
 47
0.0
 47
0.0
 47
0.0
 47
0.0
 47
1.0
 47
0.0
 47
0.0
 47
0.0
 47
0.0
 47
1.0
171
     0
 49
0.0208333333333333
 49
0.0
 49
0.0
 49
0.0
 49
0.0
 49
0.0208333333333333
 49
0.0
 49
0.0
 49
0.0
 49
0.0
 49
1.0
 49
0.0
 49
0.0
 49
0.0
 49
0.0
 49
1.0
175
     0
142
0.0208333333333333
142
0.0
142
0.0
142
0.0
142
0.0
142
0.0208333333333333
142
0.0
142
0.0
142
0.0
142
0.0
142
1.0
142
0.0
142
0.0
142
0.0
142
0.0
142
1.0
179
     0
144
0.0208333333333333
144
0.0
144
0.0
144
0.0
144
0.0
144
0.0208333333333333
144
0.0
144
0.0
144
0.0
144
0.0
144
1.0
144
0.0
144
0.0
144
0.0
144
0.0
144
1.0
147
0.0208333333333333
147
0.0
147
0.0
147
0.0
147
0.0
147
0.0208333333333333
147
0.0
147
0.0
147
0.0
147
0.0
147
1.0
147
0.0
147
0.0
147
0.0
147
0.0
147
1.0
  0
MLEADERSTYLE
  5
BF36
102
{ACAD_REACTORS
330
BF35
102
}
330
BF35
100
AcDbMLeaderStyle
170
     2
171
     1
172
     0
 90
        2
 40
0.0
 41
0.0
173
     1
 91
-1056964608
340
BB92
 92
       -2
290
     1
 42
0.09
291
     1
 43
0.36
  3
Standard
 44
0.18
300

342
BB90
174
     1
178
     6
175
     1
176
     0
 93
-1056964608
 45
0.18
292
     0
297
     0
 46
0.18
 94
-1056964608
 47
1.0
 49
1.0
140
1.0
293
     1
141
0.0
294
     1
177
     0
142
1.0
295
     0
296
     0
143
0.125
1001
ACAD_MLEADERVER
1070
     2
  0
MLINESTYLE
  5
BB96
102
{ACAD_REACTORS
330
BB95
102
}
330
BB95
100
AcDbMlineStyle
  2
STANDARD
 70
     0
  3

 62
   256
 51
90.0
 52
90.0
 71
     2
 49
0.5
 62
   256
  6
BYLAYER
 49
-0.5
 62
   256
  6
BYLAYER
  0
ACDBPLACEHOLDER
  5
BEED
102
{ACAD_REACTORS
330
BEEC
102
}
330
BEEC
  0
SCALE
  5
BF24
102
{ACAD_REACTORS
330
BF23
102
}
330
BF23
100
AcDbScale
 70
     0
300
1:1
140
1.0
141
1.0
290
     1
  0
SCALE
  5
BF25
102
{ACAD_REACTORS
330
BF23
102
}
330
BF23
100
AcDbScale
 70
     0
300
1/128" = 1'-0"
140
0.0078125
141
12.0
290
     0
  0
SCALE
  5
BF26
102
{ACAD_REACTORS
330
BF23
102
}
330
BF23
100
AcDbScale
 70
     0
300
1/64" = 1'-0"
140
0.015625
141
12.0
290
     0
  0
SCALE
  5
BF27
102
{ACAD_REACTORS
330
BF23
102
}
330
BF23
100
AcDbScale
 70
     0
300
1/32" = 1'-0"
140
0.03125
141
12.0
290
     0
  0
SCALE
  5
BF28
102
{ACAD_REACTORS
330
BF23
102
}
330
BF23
100
AcDbScale
 70
     0
300
1/16" = 1'-0"
140
0.0625
141
12.0
290
     0
  0
SCALE
  5
BF29
102
{ACAD_REACTORS
330
BF23
102
}
330
BF23
100
AcDbScale
 70
     0
300
3/32" = 1'-0"
140
0.09375
141
12.0
290
     0
  0
SCALE
  5
BF2A
102
{ACAD_REACTORS
330
BF23
102
}
330
BF23
100
AcDbScale
 70
     0
300
1/8" = 1'-0"
140
0.125
141
12.0
290
     0
  0
SCALE
  5
BF2B
102
{ACAD_REACTORS
330
BF23
102
}
330
BF23
100
AcDbScale
 70
     0
300
3/16" = 1'-0"
140
0.1875
141
12.0
290
     0
  0
SCALE
  5
BF2C
102
{ACAD_REACTORS
330
BF23
102
}
330
BF23
100
AcDbScale
 70
     0
300
1/4" = 1'-0"
140
0.25
141
12.0
290
     0
  0
SCALE
  5
BF2D
102
{ACAD_REACTORS
330
BF23
102
}
330
BF23
100
AcDbScale
 70
     0
300
3/8" = 1'-0"
140
0.375
141
12.0
290
     0
  0
SCALE
  5
BF2E
102
{ACAD_REACTORS
330
BF23
102
}
330
BF23
100
AcDbScale
 70
     0
300
1/2" = 1'-0"
140
0.5
141
12.0
290
     0
  0
SCALE
  5
BF2F
102
{ACAD_REACTORS
330
BF23
102
}
330
BF23
100
AcDbScale
 70
     0
300
3/4" = 1'-0"
140
0.75
141
12.0
290
     0
  0
SCALE
  5
BF30
102
{ACAD_REACTORS
330
BF23
102
}
330
BF23
100
AcDbScale
 70
     0
300
1" = 1'-0"
140
1.0
141
12.0
290
     0
  0
SCALE
  5
BF31
102
{ACAD_REACTORS
330
BF23
102
}
330
BF23
100
AcDbScale
 70
     0
300
1-1/2" = 1'-0"
140
1.5
141
12.0
290
     0
  0
SCALE
  5
BF32
102
{ACAD_REACTORS
330
BF23
102
}
330
BF23
100
AcDbScale
 70
     0
300
3" = 1'-0"
140
3.0
141
12.0
290
     0
  0
SCALE
  5
BF33
102
{ACAD_REACTORS
330
BF23
102
}
330
BF23
100
AcDbScale
 70
     0
300
6" = 1'-0"
140
6.0
141
12.0
290
     0
  0
SCALE
  5
BF34
102
{ACAD_REACTORS
330
BF23
102
}
330
BF23
100
AcDbScale
 70
     0
300
1'-0" = 1'-0"
140
12.0
141
12.0
290
     0
  0
ACDBSECTIONVIEWSTYLE
  5
BF38
102
{ACAD_XDICTIONARY
360
BF93
102
}
102
{ACAD_REACTORS
330
BF37
102
}
330
BF37
100
AcDbModelDocViewStyle
 70
     0
  3
Imperial24
290
     0
100
AcDbSectionViewStyle
 70
     0
 71
     0
 90
       78
 71
     1
340
BB90
 40
0.24
340
0
340
0
 40
0.24
300
I, O, Q, S, X, Z
 40
0.48
 90
        3
 40
0.18
 90
        1
 71
     2
340
BB94
 90
       25
340
BB94
 90
       50
 40
0.24
 40
0.0
 40
0.24
 71
     3
340
BB90
 40
0.24
 90
        1
 40
0.75
 90
        1
300
%<\AcVar ViewType \f "%tc1">% %<\AcVar ViewSectionStartId>%-%<\AcVar ViewSectionEndId>%\PSCALE %<\AcVar ViewScale \f "%sn">%
 71
     4
300
ANSI31
 40
1.0
 90
        0
290
     0
290
     0
 90
        6
 40
0.0
 40
1.570796326794896
 40
0.2617993877991494
 40
1.308996938995747
 40
-0.2617993877991494
 40
1.832595714594046
  0
TABLESTYLE
  5
BF22
102
{ACAD_XDICTIONARY
360
BF5A
102
}
102
{ACAD_REACTORS
330
BF21
102
}
330
BF21
100
AcDbTableStyle
  3
Standard
 70
     0
 71
     0
 40
0.06
 41
0.06
280
     0
281
     0
  7
STANDARD
140
0.18
170
     2
 62
     0
 63
     7
283
     0
274
    -2
284
     1
 64
     0
275
    -2
285
     1
 65
     0
276
    -2
286
     1
 66
     0
277
    -2
287
     1
 67
     0
278
    -2
288
     1
 68
     0
279
    -2
289
     1
 69
     0
  7
STANDARD
140
0.25
170
     5
 62
     0
 63
     7
283
     0
274
    -2
284
     1
 64
     0
275
    -2
285
     1
 65
     0
276
    -2
286
     1
 66
     0
277
    -2
287
     1
 67
     0
278
    -2
288
     1
 68
     0
279
    -2
289
     1
 69
     0
  7
STANDARD
140
0.18
170
     5
 62
     0
 63
     7
283
     0
274
    -2
284
     1
 64
     0
275
    -2
285
     1
 65
     0
276
    -2
286
     1
 66
     0
277
    -2
287
     1
 67
     0
278
    -2
288
     1
 68
     0
279
    -2
289
     1
 69
     0
  0
VISUALSTYLE
  5
BF0D
102
{ACAD_XDICTIONARY
360
BF6B
102
}
102
{ACAD_REACTORS
330
BF07
102
}
330
BF07
100
AcDbVisualStyle
  2
2dWireframe
 70
     4
 71
     0
 72
     2
 73
     0
 90
        0
 40
-0.6
 41
-30.0
 62
     5
 63
     7
 74
     1
 91
        4
 64
     7
 65
   257
 75
     1
175
     1
 42
1.0
 92
        0
 66
   257
 43
1.0
 76
     1
 77
     6
 78
     2
 67
     7
 79
     5
170
     0
171
     0
290
     0
174
     0
 93
        1
 44
0.0
173
     0
291
     0
 45
0.0
1001
ACAD
1000
AcDbSavedByObjectVersion
1070
     0
  0
VISUALSTYLE
  5
BF0C
102
{ACAD_XDICTIONARY
360
BF69
102
}
102
{ACAD_REACTORS
330
BF07
102
}
330
BF07
100
AcDbVisualStyle
  2
Basic
 70
     7
 71
     1
 72
     0
 73
     1
 90
        0
 40
-0.6
 41
-30.0
 62
     5
 63
     7
 74
     0
 91
        4
 64
     7
 65
   257
 75
     1
175
     1
 42
1.0
 92
        8
 66
     7
 43
1.0
 76
     1
 77
     6
 78
     2
 67
     7
 79
     5
170
     0
171
     0
290
     0
174
     0
 93
        1
 44
0.0
173
     0
291
     1
 45
0.0
1001
ACAD
1000
AcDbSavedByObjectVersion
1070
     0
  0
VISUALSTYLE
  5
BF13
102
{ACAD_XDICTIONARY
360
BF77
102
}
102
{ACAD_REACTORS
330
BF07
102
}
330
BF07
100
AcDbVisualStyle
  2
Brighten
 70
    12
 71
     2
 72
     2
 73
     0
 90
        0
 40
-0.6
 41
-30.0
 62
     5
 63
     7
 74
     1
 91
        4
 64
     7
 65
   257
 75
     1
175
     1
 42
1.0
 92
        8
 66
     7
 43
1.0
 76
     1
 77
     6
 78
     2
 67
     7
 79
     5
170
     0
171
     0
290
     0
174
     0
 93
        1
 44
50.0
173
     0
291
     1
 45
0.0
1001
ACAD
1000
AcDbSavedByObjectVersion
1070
     0
  0
VISUALSTYLE
  5
BF17
102
{ACAD_XDICTIONARY
360
BF7F
102
}
102
{ACAD_REACTORS
330
BF07
102
}
330
BF07
100
AcDbVisualStyle
  2
ColorChange
 70
    16
 71
     2
 72
     2
 73
     3
 90
        0
 40
-0.6
 41
-30.0
 62
     5
 63
     8
 74
     1
 91
        4
 64
     7
 65
   257
 75
     1
175
     1
 42
1.0
 92
        8
 66
     8
 43
1.0
 76
     1
 77
     6
 78
     2
 67
     7
 79
     5
170
     0
171
     0
290
     0
174
     0
 93
        1
 44
0.0
173
     0
291
     1
 45
0.0
1001
ACAD
1000
AcDbSavedByObjectVersion
1070
     0
  0
VISUALSTYLE
  5
BF10
102
{ACAD_XDICTIONARY
360
BF71
102
}
102
{ACAD_REACTORS
330
BF07
102
}
330
BF07
100
AcDbVisualStyle
  2
Conceptual
 70
     9
 71
     3
 72
     2
 73
     0
 90
        0
 40
-0.6
 41
-30.0
 62
     5
 63
     7
 74
     2
 91
        2
 64
     7
 65
   257
 75
     1
175
     1
 42
179.0
 92
        8
 66
     7
 43
1.0
 76
     1
 77
     6
 78
     2
 67
     7
 79
     3
170
     0
171
     0
290
     0
174
     0
 93
        1
 44
0.0
173
     0
291
     0
 45
0.0
1001
ACAD
1000
AcDbSavedByObjectVersion
1070
     0
  0
VISUALSTYLE
  5
BF12
102
{ACAD_XDICTIONARY
360
BF75
102
}
102
{ACAD_REACTORS
330
BF07
102
}
330
BF07
100
AcDbVisualStyle
  2
Dim
 70
    11
 71
     2
 72
     2
 73
     0
 90
        0
 40
-0.6
 41
-30.0
 62
     5
 63
     7
 74
     1
 91
        4
 64
     7
 65
   257
 75
     1
175
     1
 42
1.0
 92
        8
 66
     7
 43
1.0
 76
     1
 77
     6
 78
     2
 67
     7
 79
     5
170
     0
171
     0
290
     0
174
     0
 93
        1
 44
-50.0
173
     0
291
     1
 45
0.0
1001
ACAD
1000
AcDbSavedByObjectVersion
1070
     0
  0
VISUALSTYLE
  5
BF1F
102
{ACAD_XDICTIONARY
360
BF8F
102
}
102
{ACAD_REACTORS
330
BF07
102
}
330
BF07
100
AcDbVisualStyle
  2
EdgeColorOff
 70
    22
 71
     2
 72
     2
 73
     0
 90
        0
 40
-0.6
 41
-30.0
 62
     5
 63
     7
 74
     1
 91
        4
 64
     7
 65
   257
 75
     1
175
     1
 42
1.0
 92
        8
 66
     7
 43
1.0
 76
     1
 77
     6
 78
     2
 67
     7
 79
     5
170
     0
171
     0
290
     0
174
     0
 93
        1
 44
0.0
173
     0
291
     1
 45
0.0
1001
ACAD
1000
AcDbSavedByObjectVersion
1070
     0
  0
VISUALSTYLE
  5
BF16
102
{ACAD_XDICTIONARY
360
BF7D
102
}
102
{ACAD_REACTORS
330
BF07
102
}
330
BF07
100
AcDbVisualStyle
  2
Facepattern
 70
    15
 71
     2
 72
     2
 73
     0
 90
        0
 40
-0.6
 41
-30.0
 62
     5
 63
     7
 74
     1
 91
        4
 64
     7
 65
   257
 75
     1
175
     1
 42
1.0
 92
        8
 66
     7
 43
1.0
 76
     1
 77
     6
 78
     2
 67
     7
 79
     5
170
     0
171
     0
290
     0
174
     0
 93
        1
 44
0.0
173
     0
291
     1
 45
0.0
1001
ACAD
1000
AcDbSavedByObjectVersion
1070
     0
  0
VISUALSTYLE
  5
BF08
102
{ACAD_XDICTIONARY
360
BF61
102
}
102
{ACAD_REACTORS
330
BF07
102
}
330
BF07
100
AcDbVisualStyle
  2
Flat
 70
     0
 71
     2
 72
     1
 73
     1
 90
        2
 40
-0.6
 41
30.0
 62
     5
 63
     7
 74
     0
 91
        0
 64
     7
 65
   257
 75
     1
175
     1
 42
1.0
 92
        8
 66
     7
 43
1.0
 76
     1
 77
     6
 78
     2
 67
     7
 79
     5
170
     0
171
     0
290
     0
174
     0
 93
       13
 44
0.0
173
     0
291
     1
 45
0.0
1001
ACAD
1000
AcDbSavedByObjectVersion
1070
     0
  0
VISUALSTYLE
  5
BF09
102
{ACAD_XDICTIONARY
360
BF63
102
}
102
{ACAD_REACTORS
330
BF07
102
}
330
BF07
100
AcDbVisualStyle
  2
FlatWithEdges
 70
     1
 71
     2
 72
     1
 73
     1
 90
        2
 40
-0.6
 41
30.0
 62
     5
 63
     7
 74
     1
 91
        0
 64
     7
 65
   257
 75
     1
175
     1
 42
1.0
 92
        0
 66
   257
 43
1.0
 76
     1
 77
     6
 78
     2
 67
     7
 79
     5
170
     0
171
     0
290
     0
174
     0
 93
       13
 44
0.0
173
     0
291
     1
 45
0.0
1001
ACAD
1000
AcDbSavedByObjectVersion
1070
     0
  0
VISUALSTYLE
  5
BF0A
102
{ACAD_XDICTIONARY
360
BF65
102
}
102
{ACAD_REACTORS
330
BF07
102
}
330
BF07
100
AcDbVisualStyle
  2
Gouraud
 70
     2
 71
     2
 72
     2
 73
     1
 90
        2
 40
-0.6
 41
30.0
 62
     5
 63
     7
 74
     0
 91
        0
 64
     7
 65
   257
 75
     1
175
     1
 42
1.0
 92
        0
 66
     7
 43
1.0
 76
     1
 77
     6
 78
     2
 67
     7
 79
     5
170
     0
171
     0
290
     0
174
     0
 93
       13
 44
0.0
173
     0
291
     1
 45
0.0
1001
ACAD
1000
AcDbSavedByObjectVersion
1070
     0
  0
VISUALSTYLE
  5
BF0B
102
{ACAD_XDICTIONARY
360
BF67
102
}
102
{ACAD_REACTORS
330
BF07
102
}
330
BF07
100
AcDbVisualStyle
  2
GouraudWithEdges
 70
     3
 71
     2
 72
     2
 73
     1
 90
        2
 40
-0.6
 41
30.0
 62
     5
 63
     7
 74
     1
 91
        0
 64
     7
 65
   257
 75
     1
175
     1
 42
1.0
 92
        0
 66
   257
 43
1.0
 76
     1
 77
     6
 78
     2
 67
     7
 79
     5
170
     0
171
     0
290
     0
174
     0
 93
       13
 44
0.0
173
     0
291
     1
 45
0.0
1001
ACAD
1000
AcDbSavedByObjectVersion
1070
     0
  0
VISUALSTYLE
  5
BF0F
102
{ACAD_XDICTIONARY
360
BF6F
102
}
102
{ACAD_REACTORS
330
BF07
102
}
330
BF07
100
AcDbVisualStyle
  2
Hidden
 70
     6
 71
     1
 72
     2
 73
     2
 90
        0
 40
-0.6
 41
-30.0
 62
     5
 63
     7
 74
     2
 91
        2
 64
     7
 65
   257
 75
     2
175
     1
 42
40.0
 92
        0
 66
   257
 43
1.0
 76
     1
 77
     6
 78
     2
 67
     7
 79
     3
170
     0
171
     0
290
     0
174
     0
 93
        1
 44
0.0
173
     0
291
     0
 45
0.0
1001
ACAD
1000
AcDbSavedByObjectVersion
1070
     0
  0
VISUALSTYLE
  5
BF1D
102
{ACAD_XDICTIONARY
360
BF8B
102
}
102
{ACAD_REACTORS
330
BF07
102
}
330
BF07
100
AcDbVisualStyle
  2
JitterOff
 70
    20
 71
     2
 72
     2
 73
     0
 90
        0
 40
-0.6
 41
-30.0
 62
     5
 63
     7
 74
     1
 91
        4
 64
     7
 65
   257
 75
     1
175
     1
 42
1.0
 92
       10
 66
     7
 43
1.0
 76
     1
 77
     6
 78
     2
 67
     7
 79
     5
170
     0
171
     0
290
     0
174
     0
 93
        1
 44
0.0
173
     0
291
     1
 45
0.0
1001
ACAD
1000
AcDbSavedByObjectVersion
1070
     0
  0
VISUALSTYLE
  5
BF15
102
{ACAD_XDICTIONARY
360
BF7B
102
}
102
{ACAD_REACTORS
330
BF07
102
}
330
BF07
100
AcDbVisualStyle
  2
Linepattern
 70
    14
 71
     2
 72
     2
 73
     0
 90
        0
 40
-0.6
 41
-30.0
 62
     5
 63
     7
 74
     1
 91
        4
 64
     7
 65
   257
 75
     7
175
     7
 42
1.0
 92
        8
 66
     7
 43
1.0
 76
     1
 77
     6
 78
     2
 67
     7
 79
     5
170
     0
171
     0
290
     0
174
     0
 93
        1
 44
0.0
173
     0
291
     1
 45
0.0
1001
ACAD
1000
AcDbSavedByObjectVersion
1070
     0
  0
VISUALSTYLE
  5
BF1E
102
{ACAD_XDICTIONARY
360
BF8D
102
}
102
{ACAD_REACTORS
330
BF07
102
}
330
BF07
100
AcDbVisualStyle
  2
OverhangOff
 70
    21
 71
     2
 72
     2
 73
     0
 90
        0
 40
-0.6
 41
-30.0
 62
     5
 63
     7
 74
     1
 91
        4
 64
     7
 65
   257
 75
     1
175
     1
 42
1.0
 92
        9
 66
     7
 43
1.0
 76
     1
 77
     6
 78
     2
 67
     7
 79
     5
170
     0
171
     0
290
     0
174
     0
 93
        1
 44
0.0
173
     0
291
     1
 45
0.0
1001
ACAD
1000
AcDbSavedByObjectVersion
1070
     0
  0
VISUALSTYLE
  5
BF11
102
{ACAD_XDICTIONARY
360
BF73
102
}
102
{ACAD_REACTORS
330
BF07
102
}
330
BF07
100
AcDbVisualStyle
  2
Realistic
 70
     8
 71
     2
 72
     3
 73
     0
 90
        2
 40
-0.6
 41
30.0
 62
     5
 63
     7
 74
     0
 91
        0
 64
     7
 65
   257
 75
     1
175
     1
 42
1.0
 92
        8
 66
   257
 43
1.0
 76
     1
 77
     6
 78
     2
 67
     7
 79
     3
170
     0
171
     0
290
     0
174
     0
 93
       13
 44
0.0
173
     0
291
     0
 45
0.0
1001
ACAD
1000
AcDbSavedByObjectVersion
1070
     0
  0
VISUALSTYLE
  5
BF1C
102
{ACAD_XDICTIONARY
360
BF89
102
}
102
{ACAD_REACTORS
330
BF07
102
}
330
BF07
100
AcDbVisualStyle
  2
Shaded
 70
    27
 71
     2
 72
     2
 73
     1
 90
        2
 40
-0.6
 41
30.0
 62
     5
 63
     7
 74
     0
 91
        4
 64
     7
 65
   257
 75
     1
175
     1
 42
1.0
 92
        8
 66
   257
 43
1.0
 76
     1
 77
     6
 78
     2
 67
     8
 79
     3
170
     0
171
     0
290
     0
174
     0
 93
        5
 44
0.0
173
     0
291
     0
 45
0.0
1001
ACAD
1000
AcDbSavedByObjectVersion
1070
     0
  0
VISUALSTYLE
  5
BF1B
102
{ACAD_XDICTIONARY
360
BF87
102
}
102
{ACAD_REACTORS
330
BF07
102
}
330
BF07
100
AcDbVisualStyle
  2
Shaded with edges
 70
    26
 71
     2
 72
     2
 73
     1
 90
        2
 40
-0.6
 41
30.0
 62
     5
 63
     7
 74
     1
 91
       10
 64
     7
 65
   257
 75
     2
175
     1
 42
1.0
 92
        8
 66
   257
 43
1.0
 76
     1
 77
     6
 78
     2
 67
     7
 79
     3
170
     0
171
     0
290
     0
174
     0
 93
        5
 44
0.0
173
     0
291
     0
 45
0.0
1001
ACAD
1000
AcDbSavedByObjectVersion
1070
     0
  0
VISUALSTYLE
  5
BF18
102
{ACAD_XDICTIONARY
360
BF81
102
}
102
{ACAD_REACTORS
330
BF07
102
}
330
BF07
100
AcDbVisualStyle
  2
Shades of Gray
 70
    23
 71
     2
 72
     2
 73
     3
 90
        0
 40
-0.6
 41
-30.0
 62
     5
 63
     7
 74
     2
 91
        2
 64
     7
 65
     7
 75
     1
175
     1
 42
40.0
 92
        8
 66
     7
 43
1.0
 76
     1
 77
     6
 78
     2
 67
     7
 79
     3
170
     0
171
     0
290
     0
174
     0
 93
        1
 44
0.0
173
     0
291
     0
 45
0.0
1001
ACAD
1000
AcDbSavedByObjectVersion
1070
     0
  0
VISUALSTYLE
  5
BF19
102
{ACAD_XDICTIONARY
360
BF83
102
}
102
{ACAD_REACTORS
330
BF07
102
}
330
BF07
100
AcDbVisualStyle
  2
Sketchy
 70
    24
 71
     1
 72
     2
 73
     2
 90
        0
 40
-0.6
 41
-30.0
 62
     5
 63
     7
 74
     2
 91
        2
 64
     7
 65
     7
 75
     1
175
     1
 42
40.0
 92
       11
 66
     7
 43
1.0
 76
     1
 77
     6
 78
     2
 67
     7
 79
     6
170
     0
171
     0
290
     0
174
     0
 93
        1
 44
0.0
173
     0
291
     0
 45
0.0
1001
ACAD
1000
AcDbSavedByObjectVersion
1070
     0
  0
VISUALSTYLE
  5
BF14
102
{ACAD_XDICTIONARY
360
BF79
102
}
102
{ACAD_REACTORS
330
BF07
102
}
330
BF07
100
AcDbVisualStyle
  2
Thicken
 70
    13
 71
     2
 72
     2
 73
     0
 90
        0
 40
-0.6
 41
-30.0
 62
     5
 63
     7
 74
     1
 91
        4
 64
     7
 65
   257
 75
     1
175
     1
 42
1.0
 92
       12
 66
     7
 43
1.0
 76
     1
 77
     6
 78
     2
 67
     7
 79
     5
170
     0
171
     0
290
     0
174
     0
 93
        1
 44
0.0
173
     0
291
     1
 45
0.0
1001
ACAD
1000
AcDbSavedByObjectVersion
1070
     0
  0
VISUALSTYLE
  5
BF0E
102
{ACAD_XDICTIONARY
360
BF6D
102
}
102
{ACAD_REACTORS
330
BF07
102
}
330
BF07
100
AcDbVisualStyle
  2
Wireframe
 70
     5
 71
     0
 72
     2
 73
     0
 90
        0
 40
-0.6
 41
-30.0
 62
     5
 63
     7
 74
     1
 91
        4
 64
     7
 65
   257
 75
     1
175
     1
 42
1.0
 92
        0
 66
   257
 43
1.0
 76
     1
 77
     6
 78
     2
 67
     7
 79
     3
170
     0
171
     0
290
     0
174
     0
 93
        1
 44
0.0
173
     0
291
     0
 45
0.0
1001
ACAD
1000
AcDbSavedByObjectVersion
1070
     0
  0
VISUALSTYLE
  5
BF1A
102
{ACAD_XDICTIONARY
360
BF85
102
}
102
{ACAD_REACTORS
330
BF07
102
}
330
BF07
100
AcDbVisualStyle
  2
X-Ray
 70
    25
 71
     2
 72
     2
 73
     1
 90
        1
 40
0.5
 41
-30.0
 62
     5
 63
     7
 74
     1
 91
        0
 64
     7
 65
   257
 75
     1
175
     1
 42
1.0
 92
        8
 66
     7
 43
1.0
 76
     1
 77
     6
 78
     2
 67
     7
 79
     3
170
     0
171
     0
290
     0
174
     0
 93
       13
 44
0.0
173
     0
291
     0
 45
0.0
1001
ACAD
1000
AcDbSavedByObjectVersion
1070
     0
  0
DICTIONARYVAR
  5
BF54
102
{ACAD_REACTORS
330
BF4F
102
}
330
BF4F
100
DictionaryVariables
280
     0
  1
1:1
  0
DICTIONARYVAR
  5
BF51
102
{ACAD_REACTORS
330
BF4F
102
}
330
BF4F
100
DictionaryVariables
280
     0
  1
STANDARD
  0
DICTIONARYVAR
  5
BF50
102
{ACAD_REACTORS
330
BF4F
102
}
330
BF4F
100
DictionaryVariables
280
     0
  1
STANDARD
  0
DICTIONARYVAR
  5
BF52
102
{ACAD_REACTORS
330
BF4F
102
}
330
BF4F
100
DictionaryVariables
280
     0
  1
Imperial24
  0
DICTIONARYVAR
  5
BF53
102
{ACAD_REACTORS
330
BF4F
102
}
330
BF4F
100
DictionaryVariables
280
     0
  1
Imperial24
  0
DICTIONARYVAR
  5
BF57
102
{ACAD_REACTORS
330
BF4F
102
}
330
BF4F
100
DictionaryVariables
280
     0
  1
1
  0
DICTIONARYVAR
  5
BF56
102
{ACAD_REACTORS
330
BF4F
102
}
330
BF4F
100
DictionaryVariables
280
     0
  1
0
  0
DICTIONARYVAR
  5
BF55
102
{ACAD_REACTORS
330
BF4F
102
}
330
BF4F
100
DictionaryVariables
280
     0
  1
127
  0
DICTIONARYVAR
  5
BF58
102
{ACAD_REACTORS
330
BF4F
102
}
330
BF4F
100
DictionaryVariables
280
     0
  1
2
  0
DICTIONARY
  5
BF95
330
BF3A
100
AcDbDictionary
280
     1
281
     1
  3
ACAD_XREC_ROUNDTRIP
360
BF96
  0
DICTIONARY
  5
BF97
330
BF3B
100
AcDbDictionary
280
     1
281
     1
  3
ACAD_XREC_ROUNDTRIP
360
BF98
  0
DICTIONARY
  5
BF99
330
BF3C
100
AcDbDictionary
280
     1
281
     1
  3
ACAD_XREC_ROUNDTRIP
360
BF9A
  0
DICTIONARY
  5
BEF8
330
BEF7
100
AcDbDictionary
280
     1
281
     1
  3
ACAD_XREC_ROUNDTRIP
360
BF5F
  3
BUMPTILE
360
BEFA
  3
DIFFUSETILE
360
BEF9
  3
OPACITYTILE
360
BEFD
  3
REFLECTIONTILE
360
BEFC
  3
REFRACTIONTILE
360
BEFE
  3
SPECULARTILE
360
BEFB
  0
DICTIONARY
  5
BEF0
330
BEEF
100
AcDbDictionary
280
     1
281
     1
  3
ACAD_XREC_ROUNDTRIP
360
BF5E
  3
BUMPTILE
360
BEF2
  3
DIFFUSETILE
360
BEF1
  3
OPACITYTILE
360
BEF5
  3
REFLECTIONTILE
360
BEF4
  3
REFRACTIONTILE
360
BEF6
  3
SPECULARTILE
360
BEF3
  0
DICTIONARY
  5
BF00
330
BEFF
100
AcDbDictionary
280
     1
281
     1
  3
ACAD_XREC_ROUNDTRIP
360
BF60
  3
BUMPTILE
360
BF02
  3
DIFFUSETILE
360
BF01
  3
OPACITYTILE
360
BF05
  3
REFLECTIONTILE
360
BF04
  3
REFRACTIONTILE
360
BF06
  3
SPECULARTILE
360
BF03
  0
DICTIONARY
  5
BF93
330
BF38
100
AcDbDictionary
280
     1
281
     1
  3
ACAD_XREC_ROUNDTRIP
360
BF94
  0
DICTIONARY
  5
BF5A
330
BF22
100
AcDbDictionary
280
     1
281
     1
  3
ACAD_ROUNDTRIP_2008_TABLESTYLE_CELLSTYLEMAP
360
BF5B
  3
ACAD_XREC_ROUNDTRIP
360
BF91
  0
DICTIONARY
  5
BF6B
330
BF0D
100
AcDbDictionary
280
     1
281
     1
  3
ACAD_XREC_ROUNDTRIP
360
BF6C
  0
DICTIONARY
  5
BF69
330
BF0C
100
AcDbDictionary
280
     1
281
     1
  3
ACAD_XREC_ROUNDTRIP
360
BF6A
  0
DICTIONARY
  5
BF77
330
BF13
100
AcDbDictionary
280
     1
281
     1
  3
ACAD_XREC_ROUNDTRIP
360
BF78
  0
DICTIONARY
  5
BF7F
330
BF17
100
AcDbDictionary
280
     1
281
     1
  3
ACAD_XREC_ROUNDTRIP
360
BF80
  0
DICTIONARY
  5
BF71
330
BF10
100
AcDbDictionary
280
     1
281
     1
  3
ACAD_XREC_ROUNDTRIP
360
BF72
  0
DICTIONARY
  5
BF75
330
BF12
100
AcDbDictionary
280
     1
281
     1
  3
ACAD_XREC_ROUNDTRIP
360
BF76
  0
DICTIONARY
  5
BF8F
330
BF1F
100
AcDbDictionary
280
     1
281
     1
  3
ACAD_XREC_ROUNDTRIP
360
BF90
  0
DICTIONARY
  5
BF7D
330
BF16
100
AcDbDictionary
280
     1
281
     1
  3
ACAD_XREC_ROUNDTRIP
360
BF7E
  0
DICTIONARY
  5
BF61
330
BF08
100
AcDbDictionary
280
     1
281
     1
  3
ACAD_XREC_ROUNDTRIP
360
BF62
  0
DICTIONARY
  5
BF63
330
BF09
100
AcDbDictionary
280
     1
281
     1
  3
ACAD_XREC_ROUNDTRIP
360
BF64
  0
DICTIONARY
  5
BF65
330
BF0A
100
AcDbDictionary
280
     1
281
     1
  3
ACAD_XREC_ROUNDTRIP
360
BF66
  0
DICTIONARY
  5
BF67
330
BF0B
100
AcDbDictionary
280
     1
281
     1
  3
ACAD_XREC_ROUNDTRIP
360
BF68
  0
DICTIONARY
  5
BF6F
330
BF0F
100
AcDbDictionary
280
     1
281
     1
  3
ACAD_XREC_ROUNDTRIP
360
BF70
  0
DICTIONARY
  5
BF8B
330
BF1D
100
AcDbDictionary
280
     1
281
     1
  3
ACAD_XREC_ROUNDTRIP
360
BF8C
  0
DICTIONARY
  5
BF7B
330
BF15
100
AcDbDictionary
280
     1
281
     1
  3
ACAD_XREC_ROUNDTRIP
360
BF7C
  0
DICTIONARY
  5
BF8D
330
BF1E
100
AcDbDictionary
280
     1
281
     1
  3
ACAD_XREC_ROUNDTRIP
360
BF8E
  0
DICTIONARY
  5
BF73
330
BF11
100
AcDbDictionary
280
     1
281
     1
  3
ACAD_XREC_ROUNDTRIP
360
BF74
  0
DICTIONARY
  5
BF89
330
BF1C
100
AcDbDictionary
280
     1
281
     1
  3
ACAD_XREC_ROUNDTRIP
360
BF8A
  0
DICTIONARY
  5
BF87
330
BF1B
100
AcDbDictionary
280
     1
281
     1
  3
ACAD_XREC_ROUNDTRIP
360
BF88
  0
DICTIONARY
  5
BF81
330
BF18
100
AcDbDictionary
280
     1
281
     1
  3
ACAD_XREC_ROUNDTRIP
360
BF82
  0
DICTIONARY
  5
BF83
330
BF19
100
AcDbDictionary
280
     1
281
     1
  3
ACAD_XREC_ROUNDTRIP
360
BF84
  0
DICTIONARY
  5
BF79
330
BF14
100
AcDbDictionary
280
     1
281
     1
  3
ACAD_XREC_ROUNDTRIP
360
BF7A
  0
DICTIONARY
  5
BF6D
330
BF0E
100
AcDbDictionary
280
     1
281
     1
  3
ACAD_XREC_ROUNDTRIP
360
BF6E
  0
DICTIONARY
  5
BF85
330
BF1A
100
AcDbDictionary
280
     1
281
     1
  3
ACAD_XREC_ROUNDTRIP
360
BF86
  0
XRECORD
  5
BF96
102
{ACAD_REACTORS
330
BF95
102
}
330
BF95
100
AcDbXrecord
280
     1
102
DISPLAYNAME
  1
Imperial24
102
FLAGS
 90
        0
  0
XRECORD
  5
BF98
102
{ACAD_REACTORS
330
BF97
102
}
330
BF97
100
AcDbXrecord
280
     1
102
SHADEPLOT
 70
     0
102
SHADEPLOTRESLEVEL
 70
     2
102
SHADEPLOTCUSTOMDPI
 70
   300
  0
XRECORD
  5
BF9A
102
{ACAD_REACTORS
330
BF99
102
}
330
BF99
100
AcDbXrecord
280
     1
102
SHADEPLOT
 70
     0
102
SHADEPLOTRESLEVEL
 70
     2
102
SHADEPLOTCUSTOMDPI
 70
   300
  0
XRECORD
  5
BF5F
102
{ACAD_REACTORS
330
BEF8
102
}
330
BEF8
100
AcDbXrecord
280
     1
102
MATERIAL
148
0.0
149
0.0
149
0.0
 93
        0
 94
      127
282
     0
 72
     0
 77
     0
171
     0
175
     0
179
     0
273
     0
  0
XRECORD
  5
BEFA
102
{ACAD_REACTORS
330
BEF8
102
}
330
BEF8
100
AcDbXrecord
280
     1
270
     1
271
     1
  0
XRECORD
  5
BEF9
102
{ACAD_REACTORS
330
BEF8
102
}
330
BEF8
100
AcDbXrecord
280
     1
270
     1
271
     1
  0
XRECORD
  5
BEFD
102
{ACAD_REACTORS
330
BEF8
102
}
330
BEF8
100
AcDbXrecord
280
     1
270
     1
271
     1
  0
XRECORD
  5
BEFC
102
{ACAD_REACTORS
330
BEF8
102
}
330
BEF8
100
AcDbXrecord
280
     1
270
     1
271
     1
  0
XRECORD
  5
BEFE
102
{ACAD_REACTORS
330
BEF8
102
}
330
BEF8
100
AcDbXrecord
280
     1
270
     1
271
     1
  0
XRECORD
  5
BEFB
102
{ACAD_REACTORS
330
BEF8
102
}
330
BEF8
100
AcDbXrecord
280
     1
270
     1
271
     1
  0
XRECORD
  5
BF5E
102
{ACAD_REACTORS
330
BEF0
102
}
330
BEF0
100
AcDbXrecord
280
     1
102
MATERIAL
148
0.0
149
0.0
149
0.0
 93
        0
 94
      127
282
     0
 72
     0
 77
     0
171
     0
175
     0
179
     0
273
     0
  0
XRECORD
  5
BEF2
102
{ACAD_REACTORS
330
BEF0
102
}
330
BEF0
100
AcDbXrecord
280
     1
270
     1
271
     1
  0
XRECORD
  5
BEF1
102
{ACAD_REACTORS
330
BEF0
102
}
330
BEF0
100
AcDbXrecord
280
     1
270
     1
271
     1
  0
XRECORD
  5
BEF5
102
{ACAD_REACTORS
330
BEF0
102
}
330
BEF0
100
AcDbXrecord
280
     1
270
     1
271
     1
  0
XRECORD
  5
BEF4
102
{ACAD_REACTORS
330
BEF0
102
}
330
BEF0
100
AcDbXrecord
280
     1
270
     1
271
     1
  0
XRECORD
  5
BEF6
102
{ACAD_REACTORS
330
BEF0
102
}
330
BEF0
100
AcDbXrecord
280
     1
270
     1
271
     1
  0
XRECORD
  5
BEF3
102
{ACAD_REACTORS
330
BEF0
102
}
330
BEF0
100
AcDbXrecord
280
     1
270
     1
271
     1
  0
XRECORD
  5
BF60
102
{ACAD_REACTORS
330
BF00
102
}
330
BF00
100
AcDbXrecord
280
     1
102
MATERIAL
148
0.0
149
0.0
149
0.0
 93
        0
 94
      127
282
     0
 72
     0
 77
     0
171
     0
175
     0
179
     0
273
     0
  0
XRECORD
  5
BF02
102
{ACAD_REACTORS
330
BF00
102
}
330
BF00
100
AcDbXrecord
280
     1
270
     1
271
     1
  0
XRECORD
  5
BF01
102
{ACAD_REACTORS
330
BF00
102
}
330
BF00
100
AcDbXrecord
280
     1
270
     1
271
     1
  0
XRECORD
  5
BF05
102
{ACAD_REACTORS
330
BF00
102
}
330
BF00
100
AcDbXrecord
280
     1
270
     1
271
     1
  0
XRECORD
  5
BF04
102
{ACAD_REACTORS
330
BF00
102
}
330
BF00
100
AcDbXrecord
280
     1
270
     1
271
     1
  0
XRECORD
  5
BF06
102
{ACAD_REACTORS
330
BF00
102
}
330
BF00
100
AcDbXrecord
280
     1
270
     1
271
     1
  0
XRECORD
  5
BF03
102
{ACAD_REACTORS
330
BF00
102
}
330
BF00
100
AcDbXrecord
280
     1
270
     1
271
     1
  0
XRECORD
  5
BF94
102
{ACAD_REACTORS
330
BF93
102
}
330
BF93
100
AcDbXrecord
280
     1
102
DISPLAYNAME
  1
Imperial24
102
FLAGS
 90
        0
  0
CELLSTYLEMAP
  5
BF5B
102
{ACAD_REACTORS
330
BF5A
102
}
330
BF5A
100
AcDbCellStyleMap
 90
        3
300
CELLSTYLE
  1
TABLEFORMAT_BEGIN
 90
        5
170
     1
 91
        0
 92
    32768
 62
   257
 93
        1
300
CONTENTFORMAT
  1
CONTENTFORMAT_BEGIN
 90
        0
 91
        0
 92
      512
 93
        0
300

 40
0.0
140
1.0
 94
        5
 62
     0
340
BB90
144
0.25
309
CONTENTFORMAT_END
171
     0
 94
        0
309
TABLEFORMAT_END
  1
CELLSTYLE_BEGIN
 90
        1
 91
        1
300
_TITLE
309
CELLSTYLE_END
300
CELLSTYLE
  1
TABLEFORMAT_BEGIN
 90
        5
170
     1
 91
        0
 92
        0
 62
   257
 93
        1
300
CONTENTFORMAT
  1
CONTENTFORMAT_BEGIN
 90
        0
 91
        0
 92
      512
 93
        0
300

 40
0.0
140
1.0
 94
        5
 62
     0
340
BB90
144
0.18
309
CONTENTFORMAT_END
171
     0
 94
        0
309
TABLEFORMAT_END
  1
CELLSTYLE_BEGIN
 90
        2
 91
        1
300
_HEADER
309
CELLSTYLE_END
300
CELLSTYLE
  1
TABLEFORMAT_BEGIN
 90
        5
170
     1
 91
        0
 92
        0
 62
   257
 93
        1
300
CONTENTFORMAT
  1
CONTENTFORMAT_BEGIN
 90
        0
 91
        0
 92
      512
 93
        0
300

 40
0.0
140
1.0
 94
        2
 62
     0
340
BB90
144
0.18
309
CONTENTFORMAT_END
171
     0
 94
        0
309
TABLEFORMAT_END
  1
CELLSTYLE_BEGIN
 90
        3
 91
        2
300
_DATA
309
CELLSTYLE_END
  0
XRECORD
  5
BF91
102
{ACAD_REACTORS
330
BF5A
102
}
330
BF5A
100
AcDbXrecord
280
     1
102
ACAD_ROUNDTRIP_PRE2007_TABLESTYLE
 90
      512
 91
        0
  1

 92
      512
 93
        0
  2

 94
      512
 95
        0
  3

  0
XRECORD
  5
BF6C
102
{ACAD_REACTORS
330
BF6B
102
}
330
BF6B
100
AcDbXrecord
280
     1
102
RTVSPost2010Prop28
280
     1
102
RTVSPost2010PropOp28
 70
     1
102
RTVSPost2010Prop29
280
     1
102
RTVSPost2010PropOp29
 70
     1
102
RTVSPost2010Prop30
280
     0
102
RTVSPost2010PropOp30
 70
     1
102
RTVSPost2010Prop31
280
     0
102
RTVSPost2010PropOp31
 70
     1
102
RTVSPost2010Prop32
280
     0
102
RTVSPost2010PropOp32
 70
     1
102
RTVSPost2010Prop33
280
     0
102
RTVSPost2010PropOp33
 70
     1
102
RTVSPost2010Prop34
280
     0
102
RTVSPost2010PropOp34
 70
     1
102
RTVSPost2010Prop35
280
     0
102
RTVSPost2010PropOp35
 70
     1
102
RTVSPost2010Prop36
280
     0
102
RTVSPost2010PropOp36
 70
     1
102
RTVSPost2010Prop37
 90
       50
102
RTVSPost2010PropOp37
 70
     1
102
RTVSPost2010Prop38
140
0.0
102
RTVSPost2010PropOp38
 70
     1
102
RTVSPost2010Prop39
140
1.0
102
RTVSPost2010PropOp39
 70
     1
102
RTVSPost2010Prop40
 90
        0
102
RTVSPost2010PropOp40
 70
     1
102
RTVSPost2010Prop41ColorIndex
 90
       18
102
RTVSPost2010Prop41ColorRGB
 90
        0
102
RTVSPost2010PropOp41
 70
     1
102
RTVSPost2010Prop42
 90
       50
102
RTVSPost2010PropOp42
 70
     1
102
RTVSPost2010Prop43
 90
        3
102
RTVSPost2010PropOp43
 70
     1
102
RTVSPost2010Prop44ColorIndex
 90
        5
102
RTVSPost2010Prop44ColorRGB
 90
      255
102
RTVSPost2010PropOp44
 70
     1
102
RTVSPost2010Prop45
280
     0
102
RTVSPost2010PropOp45
 70
     1
102
RTVSPost2010Prop46
 90
       50
102
RTVSPost2010PropOp46
 70
     1
102
RTVSPost2010Prop47
 90
       50
102
RTVSPost2010PropOp47
 70
     1
102
RTVSPost2010Prop48
 90
       50
102
RTVSPost2010PropOp48
 70
     1
102
RTVSPost2010Prop49
280
     0
102
RTVSPost2010PropOp49
 70
     1
102
RTVSPost2010Prop50
 90
       50
102
RTVSPost2010PropOp50
 70
     1
102
RTVSPost2010Prop51ColorIndex
 90
      256
102
RTVSPost2010Prop51ColorRGB
 90
-16777216
102
RTVSPost2010PropOp51
 70
     0
102
RTVSPost2010Prop52
140
1.0
102
RTVSPost2010PropOp52
 70
     0
102
RTVSPost2010Prop53
 90
        2
102
RTVSPost2010PropOp53
 70
     1
102
RTVSPost2010Prop54
  1
strokes_ogs.tif
102
RTVSPost2010PropOp54
 70
     1
102
RTVSPost2010Prop55
280
     0
102
RTVSPost2010PropOp55
 70
     1
102
RTVSPost2010Prop56
140
1.0
102
RTVSPost2010PropOp56
 70
     1
102
RTVSPost2010Prop57
140
1.0
102
RTVSPost2010PropOp57
 70
     1
102
RTVSPropertyOp0
 70
     1
102
RTVSPropertyOp1
 70
     1
102
RTVSPropertyOp2
 70
     1
102
RTVSPropertyOp3
 70
     1
102
RTVSPropertyOp4
 70
     1
102
RTVSPropertyOp5
 70
     1
102
RTVSPropertyOp6
 70
     1
102
RTVSPropertyOp7
 70
     1
102
RTVSPropertyOp8
 70
     1
102
RTVSPropertyOp9
 70
     1
102
RTVSPropertyOp10
 70
     1
102
RTVSPropertyOp11
 70
     1
102
RTVSPropertyOp12
 70
     1
102
RTVSPropertyOp13
 70
     1
102
RTVSPropertyOp14
 70
     1
102
RTVSPropertyOp15
 70
     1
102
RTVSPropertyOp16
 70
     1
102
RTVSPropertyOp17
 70
     1
102
RTVSPropertyOp18
 70
     1
102
RTVSPropertyOp19
 70
     1
102
RTVSPropertyOp20
 70
     1
102
RTVSPropertyOp21
 70
     1
102
RTVSPropertyOp22
 70
     1
102
RTVSPropertyOp23
 70
     1
102
RTVSPropertyOp24
 70
     1
102
RTVSPropertyOp25
 70
     1
102
RTVSPropertyOp26
 70
     1
102
RTVSPropertyOp27
 70
     1
102
RTVSPropertyOp28
 70
     1
102
RTVSPropertyOp29
 70
     1
102
RTVSPropertyOp30
 70
     1
102
RTVSPropertyOp31
 70
     1
102
RTVSPropertyOp32
 70
     1
102
RTVSPropertyOp33
 70
     1
102
RTVSPropertyOp34
 70
     1
102
RTVSPropertyOp35
 70
     1
102
RTVSPropertyOp36
 70
     1
102
RTVSPropertyOp37
 70
     1
102
RTVSPropertyOp38
 70
     1
102
RTVSPropertyOp39
 70
     1
102
RTVSPropertyOp40
 70
     1
102
RTVSPropertyOp41
 70
     1
102
RTVSPropertyOp42
 70
     1
102
RTVSPropertyOp43
 70
     1
102
RTVSPropertyOp44
 70
     1
102
RTVSPropertyOp45
 70
     1
102
RTVSPropertyOp46
 70
     1
102
RTVSPropertyOp47
 70
     1
102
RTVSPropertyOp48
 70
     1
102
RTVSPropertyOp49
 70
     1
102
RTVSPropertyOp50
 70
     1
102
RTVSPropertyOp51
 70
     0
102
RTVSPropertyOp52
 70
     0
102
RTVSPropertyOp53
 70
     1
102
RTVSPropertyOp54
 70
     1
102
RTVSPropertyOp55
 70
     1
102
RTVSPropertyOp56
 70
     1
102
RTVSPropertyOp57
 70
     1
102
RTVSPropertyOp58
 70
     1
102
RTVSPropertyOp59
 70
     1
102
RTVSPropertyOp60
 70
     1
102
RTVSPropertyOp61
 70
     1
102
RTVSPropertyOp62
 70
     1
  0
XRECORD
  5
BF6A
102
{ACAD_REACTORS
330
BF69
102
}
330
BF69
100
AcDbXrecord
280
     1
102
RTVSPost2010Prop28
280
     0
102
RTVSPost2010PropOp28
 70
     1
102
RTVSPost2010Prop29
280
     1
102
RTVSPost2010PropOp29
 70
     1
102
RTVSPost2010Prop30
280
     1
102
RTVSPost2010PropOp30
 70
     1
102
RTVSPost2010Prop31
280
     0
102
RTVSPost2010PropOp31
 70
     1
102
RTVSPost2010Prop32
280
     0
102
RTVSPost2010PropOp32
 70
     1
102
RTVSPost2010Prop33
280
     0
102
RTVSPost2010PropOp33
 70
     1
102
RTVSPost2010Prop34
280
     0
102
RTVSPost2010PropOp34
 70
     1
102
RTVSPost2010Prop35
280
     0
102
RTVSPost2010PropOp35
 70
     1
102
RTVSPost2010Prop36
280
     0
102
RTVSPost2010PropOp36
 70
     1
102
RTVSPost2010Prop37
 90
       50
102
RTVSPost2010PropOp37
 70
     1
102
RTVSPost2010Prop38
140
0.0
102
RTVSPost2010PropOp38
 70
     1
102
RTVSPost2010Prop39
140
1.0
102
RTVSPost2010PropOp39
 70
     1
102
RTVSPost2010Prop40
 90
        0
102
RTVSPost2010PropOp40
 70
     1
102
RTVSPost2010Prop41ColorIndex
 90
       18
102
RTVSPost2010Prop41ColorRGB
 90
        0
102
RTVSPost2010PropOp41
 70
     1
102
RTVSPost2010Prop42
 90
       50
102
RTVSPost2010PropOp42
 70
     1
102
RTVSPost2010Prop43
 90
        3
102
RTVSPost2010PropOp43
 70
     1
102
RTVSPost2010Prop44ColorIndex
 90
        5
102
RTVSPost2010Prop44ColorRGB
 90
      255
102
RTVSPost2010PropOp44
 70
     1
102
RTVSPost2010Prop45
280
     0
102
RTVSPost2010PropOp45
 70
     1
102
RTVSPost2010Prop46
 90
       50
102
RTVSPost2010PropOp46
 70
     1
102
RTVSPost2010Prop47
 90
       50
102
RTVSPost2010PropOp47
 70
     1
102
RTVSPost2010Prop48
 90
       50
102
RTVSPost2010PropOp48
 70
     1
102
RTVSPost2010Prop49
280
     0
102
RTVSPost2010PropOp49
 70
     1
102
RTVSPost2010Prop50
 90
       50
102
RTVSPost2010PropOp50
 70
     1
102
RTVSPost2010Prop51ColorIndex
 90
      256
102
RTVSPost2010Prop51ColorRGB
 90
-16777216
102
RTVSPost2010PropOp51
 70
     0
102
RTVSPost2010Prop52
140
1.0
102
RTVSPost2010PropOp52
 70
     0
102
RTVSPost2010Prop53
 90
        2
102
RTVSPost2010PropOp53
 70
     1
102
RTVSPost2010Prop54
  1
strokes_ogs.tif
102
RTVSPost2010PropOp54
 70
     1
102
RTVSPost2010Prop55
280
     0
102
RTVSPost2010PropOp55
 70
     1
102
RTVSPost2010Prop56
140
1.0
102
RTVSPost2010PropOp56
 70
     1
102
RTVSPost2010Prop57
140
1.0
102
RTVSPost2010PropOp57
 70
     1
102
RTVSPropertyOp0
 70
     1
102
RTVSPropertyOp1
 70
     1
102
RTVSPropertyOp2
 70
     1
102
RTVSPropertyOp3
 70
     1
102
RTVSPropertyOp4
 70
     1
102
RTVSPropertyOp5
 70
     1
102
RTVSPropertyOp6
 70
     1
102
RTVSPropertyOp7
 70
     1
102
RTVSPropertyOp8
 70
     1
102
RTVSPropertyOp9
 70
     1
102
RTVSPropertyOp10
 70
     1
102
RTVSPropertyOp11
 70
     1
102
RTVSPropertyOp12
 70
     1
102
RTVSPropertyOp13
 70
     1
102
RTVSPropertyOp14
 70
     1
102
RTVSPropertyOp15
 70
     1
102
RTVSPropertyOp16
 70
     1
102
RTVSPropertyOp17
 70
     1
102
RTVSPropertyOp18
 70
     1
102
RTVSPropertyOp19
 70
     1
102
RTVSPropertyOp20
 70
     1
102
RTVSPropertyOp21
 70
     1
102
RTVSPropertyOp22
 70
     1
102
RTVSPropertyOp23
 70
     1
102
RTVSPropertyOp24
 70
     1
102
RTVSPropertyOp25
 70
     1
102
RTVSPropertyOp26
 70
     1
102
RTVSPropertyOp27
 70
     1
102
RTVSPropertyOp28
 70
     1
102
RTVSPropertyOp29
 70
     1
102
RTVSPropertyOp30
 70
     1
102
RTVSPropertyOp31
 70
     1
102
RTVSPropertyOp32
 70
     1
102
RTVSPropertyOp33
 70
     1
102
RTVSPropertyOp34
 70
     1
102
RTVSPropertyOp35
 70
     1
102
RTVSPropertyOp36
 70
     1
102
RTVSPropertyOp37
 70
     1
102
RTVSPropertyOp38
 70
     1
102
RTVSPropertyOp39
 70
     1
102
RTVSPropertyOp40
 70
     1
102
RTVSPropertyOp41
 70
     1
102
RTVSPropertyOp42
 70
     1
102
RTVSPropertyOp43
 70
     1
102
RTVSPropertyOp44
 70
     1
102
RTVSPropertyOp45
 70
     1
102
RTVSPropertyOp46
 70
     1
102
RTVSPropertyOp47
 70
     1
102
RTVSPropertyOp48
 70
     1
102
RTVSPropertyOp49
 70
     1
102
RTVSPropertyOp50
 70
     1
102
RTVSPropertyOp51
 70
     0
102
RTVSPropertyOp52
 70
     0
102
RTVSPropertyOp53
 70
     1
102
RTVSPropertyOp54
 70
     1
102
RTVSPropertyOp55
 70
     1
102
RTVSPropertyOp56
 70
     1
102
RTVSPropertyOp57
 70
     1
102
RTVSPropertyOp58
 70
     1
102
RTVSPropertyOp59
 70
     1
102
RTVSPropertyOp60
 70
     1
102
RTVSPropertyOp61
 70
     1
102
RTVSPropertyOp62
 70
     1
  0
XRECORD
  5
BF78
102
{ACAD_REACTORS
330
BF77
102
}
330
BF77
100
AcDbXrecord
280
     1
102
RTVSPost2010Prop28
280
     0
102
RTVSPost2010PropOp28
 70
     1
102
RTVSPost2010Prop29
280
     1
102
RTVSPost2010PropOp29
 70
     1
102
RTVSPost2010Prop30
280
     1
102
RTVSPost2010PropOp30
 70
     1
102
RTVSPost2010Prop31
280
     0
102
RTVSPost2010PropOp31
 70
     1
102
RTVSPost2010Prop32
280
     0
102
RTVSPost2010PropOp32
 70
     1
102
RTVSPost2010Prop33
280
     0
102
RTVSPost2010PropOp33
 70
     1
102
RTVSPost2010Prop34
280
     0
102
RTVSPost2010PropOp34
 70
     1
102
RTVSPost2010Prop35
280
     0
102
RTVSPost2010PropOp35
 70
     1
102
RTVSPost2010Prop36
280
     0
102
RTVSPost2010PropOp36
 70
     1
102
RTVSPost2010Prop37
 90
       50
102
RTVSPost2010PropOp37
 70
     1
102
RTVSPost2010Prop38
140
0.0
102
RTVSPost2010PropOp38
 70
     1
102
RTVSPost2010Prop39
140
1.0
102
RTVSPost2010PropOp39
 70
     1
102
RTVSPost2010Prop40
 90
        0
102
RTVSPost2010PropOp40
 70
     1
102
RTVSPost2010Prop41ColorIndex
 90
       18
102
RTVSPost2010Prop41ColorRGB
 90
        0
102
RTVSPost2010PropOp41
 70
     1
102
RTVSPost2010Prop42
 90
       50
102
RTVSPost2010PropOp42
 70
     1
102
RTVSPost2010Prop43
 90
        3
102
RTVSPost2010PropOp43
 70
     1
102
RTVSPost2010Prop44ColorIndex
 90
        5
102
RTVSPost2010Prop44ColorRGB
 90
      255
102
RTVSPost2010PropOp44
 70
     1
102
RTVSPost2010Prop45
280
     0
102
RTVSPost2010PropOp45
 70
     1
102
RTVSPost2010Prop46
 90
       50
102
RTVSPost2010PropOp46
 70
     1
102
RTVSPost2010Prop47
 90
       50
102
RTVSPost2010PropOp47
 70
     1
102
RTVSPost2010Prop48
 90
       50
102
RTVSPost2010PropOp48
 70
     1
102
RTVSPost2010Prop49
280
     0
102
RTVSPost2010PropOp49
 70
     1
102
RTVSPost2010Prop50
 90
       50
102
RTVSPost2010PropOp50
 70
     1
102
RTVSPost2010Prop51ColorIndex
 90
      256
102
RTVSPost2010Prop51ColorRGB
 90
-16777216
102
RTVSPost2010PropOp51
 70
     0
102
RTVSPost2010Prop52
140
1.0
102
RTVSPost2010PropOp52
 70
     0
102
RTVSPost2010Prop53
 90
        2
102
RTVSPost2010PropOp53
 70
     1
102
RTVSPost2010Prop54
  1
strokes_ogs.tif
102
RTVSPost2010PropOp54
 70
     1
102
RTVSPost2010Prop55
280
     0
102
RTVSPost2010PropOp55
 70
     1
102
RTVSPost2010Prop56
140
1.0
102
RTVSPost2010PropOp56
 70
     1
102
RTVSPost2010Prop57
140
1.0
102
RTVSPost2010PropOp57
 70
     1
102
RTVSPropertyOp0
 70
     1
102
RTVSPropertyOp1
 70
     1
102
RTVSPropertyOp2
 70
     1
102
RTVSPropertyOp3
 70
     1
102
RTVSPropertyOp4
 70
     1
102
RTVSPropertyOp5
 70
     1
102
RTVSPropertyOp6
 70
     1
102
RTVSPropertyOp7
 70
     1
102
RTVSPropertyOp8
 70
     1
102
RTVSPropertyOp9
 70
     1
102
RTVSPropertyOp10
 70
     1
102
RTVSPropertyOp11
 70
     1
102
RTVSPropertyOp12
 70
     1
102
RTVSPropertyOp13
 70
     1
102
RTVSPropertyOp14
 70
     1
102
RTVSPropertyOp15
 70
     1
102
RTVSPropertyOp16
 70
     1
102
RTVSPropertyOp17
 70
     1
102
RTVSPropertyOp18
 70
     1
102
RTVSPropertyOp19
 70
     1
102
RTVSPropertyOp20
 70
     1
102
RTVSPropertyOp21
 70
     1
102
RTVSPropertyOp22
 70
     1
102
RTVSPropertyOp23
 70
     1
102
RTVSPropertyOp24
 70
     1
102
RTVSPropertyOp25
 70
     1
102
RTVSPropertyOp26
 70
     1
102
RTVSPropertyOp27
 70
     1
102
RTVSPropertyOp28
 70
     1
102
RTVSPropertyOp29
 70
     1
102
RTVSPropertyOp30
 70
     1
102
RTVSPropertyOp31
 70
     1
102
RTVSPropertyOp32
 70
     1
102
RTVSPropertyOp33
 70
     1
102
RTVSPropertyOp34
 70
     1
102
RTVSPropertyOp35
 70
     1
102
RTVSPropertyOp36
 70
     1
102
RTVSPropertyOp37
 70
     1
102
RTVSPropertyOp38
 70
     1
102
RTVSPropertyOp39
 70
     1
102
RTVSPropertyOp40
 70
     1
102
RTVSPropertyOp41
 70
     1
102
RTVSPropertyOp42
 70
     1
102
RTVSPropertyOp43
 70
     1
102
RTVSPropertyOp44
 70
     1
102
RTVSPropertyOp45
 70
     1
102
RTVSPropertyOp46
 70
     1
102
RTVSPropertyOp47
 70
     1
102
RTVSPropertyOp48
 70
     1
102
RTVSPropertyOp49
 70
     1
102
RTVSPropertyOp50
 70
     1
102
RTVSPropertyOp51
 70
     0
102
RTVSPropertyOp52
 70
     0
102
RTVSPropertyOp53
 70
     1
102
RTVSPropertyOp54
 70
     1
102
RTVSPropertyOp55
 70
     1
102
RTVSPropertyOp56
 70
     1
102
RTVSPropertyOp57
 70
     1
102
RTVSPropertyOp58
 70
     1
102
RTVSPropertyOp59
 70
     1
102
RTVSPropertyOp60
 70
     1
102
RTVSPropertyOp61
 70
     1
102
RTVSPropertyOp62
 70
     1
  0
XRECORD
  5
BF80
102
{ACAD_REACTORS
330
BF7F
102
}
330
BF7F
100
AcDbXrecord
280
     1
102
RTVSPost2010Prop28
280
     0
102
RTVSPost2010PropOp28
 70
     1
102
RTVSPost2010Prop29
280
     1
102
RTVSPost2010PropOp29
 70
     1
102
RTVSPost2010Prop30
280
     1
102
RTVSPost2010PropOp30
 70
     1
102
RTVSPost2010Prop31
280
     0
102
RTVSPost2010PropOp31
 70
     1
102
RTVSPost2010Prop32
280
     0
102
RTVSPost2010PropOp32
 70
     1
102
RTVSPost2010Prop33
280
     0
102
RTVSPost2010PropOp33
 70
     1
102
RTVSPost2010Prop34
280
     0
102
RTVSPost2010PropOp34
 70
     1
102
RTVSPost2010Prop35
280
     0
102
RTVSPost2010PropOp35
 70
     1
102
RTVSPost2010Prop36
280
     0
102
RTVSPost2010PropOp36
 70
     1
102
RTVSPost2010Prop37
 90
       50
102
RTVSPost2010PropOp37
 70
     1
102
RTVSPost2010Prop38
140
0.0
102
RTVSPost2010PropOp38
 70
     1
102
RTVSPost2010Prop39
140
1.0
102
RTVSPost2010PropOp39
 70
     1
102
RTVSPost2010Prop40
 90
        0
102
RTVSPost2010PropOp40
 70
     1
102
RTVSPost2010Prop41ColorIndex
 90
       18
102
RTVSPost2010Prop41ColorRGB
 90
        0
102
RTVSPost2010PropOp41
 70
     1
102
RTVSPost2010Prop42
 90
       50
102
RTVSPost2010PropOp42
 70
     1
102
RTVSPost2010Prop43
 90
        3
102
RTVSPost2010PropOp43
 70
     1
102
RTVSPost2010Prop44ColorIndex
 90
        5
102
RTVSPost2010Prop44ColorRGB
 90
      255
102
RTVSPost2010PropOp44
 70
     1
102
RTVSPost2010Prop45
280
     0
102
RTVSPost2010PropOp45
 70
     1
102
RTVSPost2010Prop46
 90
       50
102
RTVSPost2010PropOp46
 70
     1
102
RTVSPost2010Prop47
 90
       50
102
RTVSPost2010PropOp47
 70
     1
102
RTVSPost2010Prop48
 90
       50
102
RTVSPost2010PropOp48
 70
     1
102
RTVSPost2010Prop49
280
     0
102
RTVSPost2010PropOp49
 70
     1
102
RTVSPost2010Prop50
 90
       50
102
RTVSPost2010PropOp50
 70
     1
102
RTVSPost2010Prop51ColorIndex
 90
      256
102
RTVSPost2010Prop51ColorRGB
 90
-16777216
102
RTVSPost2010PropOp51
 70
     0
102
RTVSPost2010Prop52
140
1.0
102
RTVSPost2010PropOp52
 70
     0
102
RTVSPost2010Prop53
 90
        2
102
RTVSPost2010PropOp53
 70
     1
102
RTVSPost2010Prop54
  1
strokes_ogs.tif
102
RTVSPost2010PropOp54
 70
     1
102
RTVSPost2010Prop55
280
     0
102
RTVSPost2010PropOp55
 70
     1
102
RTVSPost2010Prop56
140
1.0
102
RTVSPost2010PropOp56
 70
     1
102
RTVSPost2010Prop57
140
1.0
102
RTVSPost2010PropOp57
 70
     1
102
RTVSPropertyOp0
 70
     1
102
RTVSPropertyOp1
 70
     1
102
RTVSPropertyOp2
 70
     1
102
RTVSPropertyOp3
 70
     1
102
RTVSPropertyOp4
 70
     1
102
RTVSPropertyOp5
 70
     1
102
RTVSPropertyOp6
 70
     1
102
RTVSPropertyOp7
 70
     1
102
RTVSPropertyOp8
 70
     1
102
RTVSPropertyOp9
 70
     1
102
RTVSPropertyOp10
 70
     1
102
RTVSPropertyOp11
 70
     1
102
RTVSPropertyOp12
 70
     1
102
RTVSPropertyOp13
 70
     1
102
RTVSPropertyOp14
 70
     1
102
RTVSPropertyOp15
 70
     1
102
RTVSPropertyOp16
 70
     1
102
RTVSPropertyOp17
 70
     1
102
RTVSPropertyOp18
 70
     1
102
RTVSPropertyOp19
 70
     1
102
RTVSPropertyOp20
 70
     1
102
RTVSPropertyOp21
 70
     1
102
RTVSPropertyOp22
 70
     1
102
RTVSPropertyOp23
 70
     1
102
RTVSPropertyOp24
 70
     1
102
RTVSPropertyOp25
 70
     1
102
RTVSPropertyOp26
 70
     1
102
RTVSPropertyOp27
 70
     1
102
RTVSPropertyOp28
 70
     1
102
RTVSPropertyOp29
 70
     1
102
RTVSPropertyOp30
 70
     1
102
RTVSPropertyOp31
 70
     1
102
RTVSPropertyOp32
 70
     1
102
RTVSPropertyOp33
 70
     1
102
RTVSPropertyOp34
 70
     1
102
RTVSPropertyOp35
 70
     1
102
RTVSPropertyOp36
 70
     1
102
RTVSPropertyOp37
 70
     1
102
RTVSPropertyOp38
 70
     1
102
RTVSPropertyOp39
 70
     1
102
RTVSPropertyOp40
 70
     1
102
RTVSPropertyOp41
 70
     1
102
RTVSPropertyOp42
 70
     1
102
RTVSPropertyOp43
 70
     1
102
RTVSPropertyOp44
 70
     1
102
RTVSPropertyOp45
 70
     1
102
RTVSPropertyOp46
 70
     1
102
RTVSPropertyOp47
 70
     1
102
RTVSPropertyOp48
 70
     1
102
RTVSPropertyOp49
 70
     1
102
RTVSPropertyOp50
 70
     1
102
RTVSPropertyOp51
 70
     0
102
RTVSPropertyOp52
 70
     0
102
RTVSPropertyOp53
 70
     1
102
RTVSPropertyOp54
 70
     1
102
RTVSPropertyOp55
 70
     1
102
RTVSPropertyOp56
 70
     1
102
RTVSPropertyOp57
 70
     1
102
RTVSPropertyOp58
 70
     1
102
RTVSPropertyOp59
 70
     1
102
RTVSPropertyOp60
 70
     1
102
RTVSPropertyOp61
 70
     1
102
RTVSPropertyOp62
 70
     1
  0
XRECORD
  5
BF72
102
{ACAD_REACTORS
330
BF71
102
}
330
BF71
100
AcDbXrecord
280
     1
102
RTVSPost2010Prop28
280
     0
102
RTVSPost2010PropOp28
 70
     1
102
RTVSPost2010Prop29
280
     1
102
RTVSPost2010PropOp29
 70
     1
102
RTVSPost2010Prop30
280
     1
102
RTVSPost2010PropOp30
 70
     1
102
RTVSPost2010Prop31
280
     0
102
RTVSPost2010PropOp31
 70
     1
102
RTVSPost2010Prop32
280
     0
102
RTVSPost2010PropOp32
 70
     1
102
RTVSPost2010Prop33
280
     0
102
RTVSPost2010PropOp33
 70
     1
102
RTVSPost2010Prop34
280
     0
102
RTVSPost2010PropOp34
 70
     1
102
RTVSPost2010Prop35
280
     0
102
RTVSPost2010PropOp35
 70
     1
102
RTVSPost2010Prop36
280
     0
102
RTVSPost2010PropOp36
 70
     1
102
RTVSPost2010Prop37
 90
       50
102
RTVSPost2010PropOp37
 70
     1
102
RTVSPost2010Prop38
140
0.0
102
RTVSPost2010PropOp38
 70
     1
102
RTVSPost2010Prop39
140
1.0
102
RTVSPost2010PropOp39
 70
     1
102
RTVSPost2010Prop40
 90
        0
102
RTVSPost2010PropOp40
 70
     1
102
RTVSPost2010Prop41ColorIndex
 90
       18
102
RTVSPost2010Prop41ColorRGB
 90
        0
102
RTVSPost2010PropOp41
 70
     1
102
RTVSPost2010Prop42
 90
       50
102
RTVSPost2010PropOp42
 70
     1
102
RTVSPost2010Prop43
 90
        3
102
RTVSPost2010PropOp43
 70
     1
102
RTVSPost2010Prop44ColorIndex
 90
        5
102
RTVSPost2010Prop44ColorRGB
 90
      255
102
RTVSPost2010PropOp44
 70
     1
102
RTVSPost2010Prop45
280
     0
102
RTVSPost2010PropOp45
 70
     1
102
RTVSPost2010Prop46
 90
       50
102
RTVSPost2010PropOp46
 70
     1
102
RTVSPost2010Prop47
 90
       50
102
RTVSPost2010PropOp47
 70
     1
102
RTVSPost2010Prop48
 90
       50
102
RTVSPost2010PropOp48
 70
     1
102
RTVSPost2010Prop49
280
     0
102
RTVSPost2010PropOp49
 70
     1
102
RTVSPost2010Prop50
 90
       50
102
RTVSPost2010PropOp50
 70
     1
102
RTVSPost2010Prop51ColorIndex
 90
      256
102
RTVSPost2010Prop51ColorRGB
 90
-16777216
102
RTVSPost2010PropOp51
 70
     0
102
RTVSPost2010Prop52
140
1.0
102
RTVSPost2010PropOp52
 70
     0
102
RTVSPost2010Prop53
 90
        2
102
RTVSPost2010PropOp53
 70
     1
102
RTVSPost2010Prop54
  1
strokes_ogs.tif
102
RTVSPost2010PropOp54
 70
     1
102
RTVSPost2010Prop55
280
     0
102
RTVSPost2010PropOp55
 70
     1
102
RTVSPost2010Prop56
140
1.0
102
RTVSPost2010PropOp56
 70
     1
102
RTVSPost2010Prop57
140
1.0
102
RTVSPost2010PropOp57
 70
     1
102
RTVSPropertyOp0
 70
     1
102
RTVSPropertyOp1
 70
     1
102
RTVSPropertyOp2
 70
     1
102
RTVSPropertyOp3
 70
     1
102
RTVSPropertyOp4
 70
     1
102
RTVSPropertyOp5
 70
     1
102
RTVSPropertyOp6
 70
     1
102
RTVSPropertyOp7
 70
     1
102
RTVSPropertyOp8
 70
     1
102
RTVSPropertyOp9
 70
     1
102
RTVSPropertyOp10
 70
     1
102
RTVSPropertyOp11
 70
     1
102
RTVSPropertyOp12
 70
     1
102
RTVSPropertyOp13
 70
     1
102
RTVSPropertyOp14
 70
     1
102
RTVSPropertyOp15
 70
     1
102
RTVSPropertyOp16
 70
     1
102
RTVSPropertyOp17
 70
     1
102
RTVSPropertyOp18
 70
     1
102
RTVSPropertyOp19
 70
     1
102
RTVSPropertyOp20
 70
     1
102
RTVSPropertyOp21
 70
     1
102
RTVSPropertyOp22
 70
     1
102
RTVSPropertyOp23
 70
     1
102
RTVSPropertyOp24
 70
     1
102
RTVSPropertyOp25
 70
     1
102
RTVSPropertyOp26
 70
     1
102
RTVSPropertyOp27
 70
     1
102
RTVSPropertyOp28
 70
     1
102
RTVSPropertyOp29
 70
     1
102
RTVSPropertyOp30
 70
     1
102
RTVSPropertyOp31
 70
     1
102
RTVSPropertyOp32
 70
     1
102
RTVSPropertyOp33
 70
     1
102
RTVSPropertyOp34
 70
     1
102
RTVSPropertyOp35
 70
     1
102
RTVSPropertyOp36
 70
     1
102
RTVSPropertyOp37
 70
     1
102
RTVSPropertyOp38
 70
     1
102
RTVSPropertyOp39
 70
     1
102
RTVSPropertyOp40
 70
     1
102
RTVSPropertyOp41
 70
     1
102
RTVSPropertyOp42
 70
     1
102
RTVSPropertyOp43
 70
     1
102
RTVSPropertyOp44
 70
     1
102
RTVSPropertyOp45
 70
     1
102
RTVSPropertyOp46
 70
     1
102
RTVSPropertyOp47
 70
     1
102
RTVSPropertyOp48
 70
     1
102
RTVSPropertyOp49
 70
     1
102
RTVSPropertyOp50
 70
     1
102
RTVSPropertyOp51
 70
     0
102
RTVSPropertyOp52
 70
     0
102
RTVSPropertyOp53
 70
     1
102
RTVSPropertyOp54
 70
     1
102
RTVSPropertyOp55
 70
     1
102
RTVSPropertyOp56
 70
     1
102
RTVSPropertyOp57
 70
     1
102
RTVSPropertyOp58
 70
     1
102
RTVSPropertyOp59
 70
     1
102
RTVSPropertyOp60
 70
     1
102
RTVSPropertyOp61
 70
     1
102
RTVSPropertyOp62
 70
     1
  0
XRECORD
  5
BF76
102
{ACAD_REACTORS
330
BF75
102
}
330
BF75
100
AcDbXrecord
280
     1
102
RTVSPost2010Prop28
280
     0
102
RTVSPost2010PropOp28
 70
     1
102
RTVSPost2010Prop29
280
     1
102
RTVSPost2010PropOp29
 70
     1
102
RTVSPost2010Prop30
280
     1
102
RTVSPost2010PropOp30
 70
     1
102
RTVSPost2010Prop31
280
     0
102
RTVSPost2010PropOp31
 70
     1
102
RTVSPost2010Prop32
280
     0
102
RTVSPost2010PropOp32
 70
     1
102
RTVSPost2010Prop33
280
     0
102
RTVSPost2010PropOp33
 70
     1
102
RTVSPost2010Prop34
280
     0
102
RTVSPost2010PropOp34
 70
     1
102
RTVSPost2010Prop35
280
     0
102
RTVSPost2010PropOp35
 70
     1
102
RTVSPost2010Prop36
280
     0
102
RTVSPost2010PropOp36
 70
     1
102
RTVSPost2010Prop37
 90
       50
102
RTVSPost2010PropOp37
 70
     1
102
RTVSPost2010Prop38
140
0.0
102
RTVSPost2010PropOp38
 70
     1
102
RTVSPost2010Prop39
140
1.0
102
RTVSPost2010PropOp39
 70
     1
102
RTVSPost2010Prop40
 90
        0
102
RTVSPost2010PropOp40
 70
     1
102
RTVSPost2010Prop41ColorIndex
 90
       18
102
RTVSPost2010Prop41ColorRGB
 90
        0
102
RTVSPost2010PropOp41
 70
     1
102
RTVSPost2010Prop42
 90
       50
102
RTVSPost2010PropOp42
 70
     1
102
RTVSPost2010Prop43
 90
        3
102
RTVSPost2010PropOp43
 70
     1
102
RTVSPost2010Prop44ColorIndex
 90
        5
102
RTVSPost2010Prop44ColorRGB
 90
      255
102
RTVSPost2010PropOp44
 70
     1
102
RTVSPost2010Prop45
280
     0
102
RTVSPost2010PropOp45
 70
     1
102
RTVSPost2010Prop46
 90
       50
102
RTVSPost2010PropOp46
 70
     1
102
RTVSPost2010Prop47
 90
       50
102
RTVSPost2010PropOp47
 70
     1
102
RTVSPost2010Prop48
 90
       50
102
RTVSPost2010PropOp48
 70
     1
102
RTVSPost2010Prop49
280
     0
102
RTVSPost2010PropOp49
 70
     1
102
RTVSPost2010Prop50
 90
       50
102
RTVSPost2010PropOp50
 70
     1
102
RTVSPost2010Prop51ColorIndex
 90
      256
102
RTVSPost2010Prop51ColorRGB
 90
-16777216
102
RTVSPost2010PropOp51
 70
     0
102
RTVSPost2010Prop52
140
1.0
102
RTVSPost2010PropOp52
 70
     0
102
RTVSPost2010Prop53
 90
        2
102
RTVSPost2010PropOp53
 70
     1
102
RTVSPost2010Prop54
  1
strokes_ogs.tif
102
RTVSPost2010PropOp54
 70
     1
102
RTVSPost2010Prop55
280
     0
102
RTVSPost2010PropOp55
 70
     1
102
RTVSPost2010Prop56
140
1.0
102
RTVSPost2010PropOp56
 70
     1
102
RTVSPost2010Prop57
140
1.0
102
RTVSPost2010PropOp57
 70
     1
102
RTVSPropertyOp0
 70
     1
102
RTVSPropertyOp1
 70
     1
102
RTVSPropertyOp2
 70
     1
102
RTVSPropertyOp3
 70
     1
102
RTVSPropertyOp4
 70
     1
102
RTVSPropertyOp5
 70
     1
102
RTVSPropertyOp6
 70
     1
102
RTVSPropertyOp7
 70
     1
102
RTVSPropertyOp8
 70
     1
102
RTVSPropertyOp9
 70
     1
102
RTVSPropertyOp10
 70
     1
102
RTVSPropertyOp11
 70
     1
102
RTVSPropertyOp12
 70
     1
102
RTVSPropertyOp13
 70
     1
102
RTVSPropertyOp14
 70
     1
102
RTVSPropertyOp15
 70
     1
102
RTVSPropertyOp16
 70
     1
102
RTVSPropertyOp17
 70
     1
102
RTVSPropertyOp18
 70
     1
102
RTVSPropertyOp19
 70
     1
102
RTVSPropertyOp20
 70
     1
102
RTVSPropertyOp21
 70
     1
102
RTVSPropertyOp22
 70
     1
102
RTVSPropertyOp23
 70
     1
102
RTVSPropertyOp24
 70
     1
102
RTVSPropertyOp25
 70
     1
102
RTVSPropertyOp26
 70
     1
102
RTVSPropertyOp27
 70
     1
102
RTVSPropertyOp28
 70
     1
102
RTVSPropertyOp29
 70
     1
102
RTVSPropertyOp30
 70
     1
102
RTVSPropertyOp31
 70
     1
102
RTVSPropertyOp32
 70
     1
102
RTVSPropertyOp33
 70
     1
102
RTVSPropertyOp34
 70
     1
102
RTVSPropertyOp35
 70
     1
102
RTVSPropertyOp36
 70
     1
102
RTVSPropertyOp37
 70
     1
102
RTVSPropertyOp38
 70
     1
102
RTVSPropertyOp39
 70
     1
102
RTVSPropertyOp40
 70
     1
102
RTVSPropertyOp41
 70
     1
102
RTVSPropertyOp42
 70
     1
102
RTVSPropertyOp43
 70
     1
102
RTVSPropertyOp44
 70
     1
102
RTVSPropertyOp45
 70
     1
102
RTVSPropertyOp46
 70
     1
102
RTVSPropertyOp47
 70
     1
102
RTVSPropertyOp48
 70
     1
102
RTVSPropertyOp49
 70
     1
102
RTVSPropertyOp50
 70
     1
102
RTVSPropertyOp51
 70
     0
102
RTVSPropertyOp52
 70
     0
102
RTVSPropertyOp53
 70
     1
102
RTVSPropertyOp54
 70
     1
102
RTVSPropertyOp55
 70
     1
102
RTVSPropertyOp56
 70
     1
102
RTVSPropertyOp57
 70
     1
102
RTVSPropertyOp58
 70
     1
102
RTVSPropertyOp59
 70
     1
102
RTVSPropertyOp60
 70
     1
102
RTVSPropertyOp61
 70
     1
102
RTVSPropertyOp62
 70
     1
  0
XRECORD
  5
BF90
102
{ACAD_REACTORS
330
BF8F
102
}
330
BF8F
100
AcDbXrecord
280
     1
102
RTVSPost2010Prop28
280
     0
102
RTVSPost2010PropOp28
 70
     1
102
RTVSPost2010Prop29
280
     1
102
RTVSPost2010PropOp29
 70
     1
102
RTVSPost2010Prop30
280
     1
102
RTVSPost2010PropOp30
 70
     1
102
RTVSPost2010Prop31
280
     0
102
RTVSPost2010PropOp31
 70
     1
102
RTVSPost2010Prop32
280
     0
102
RTVSPost2010PropOp32
 70
     1
102
RTVSPost2010Prop33
280
     0
102
RTVSPost2010PropOp33
 70
     1
102
RTVSPost2010Prop34
280
     0
102
RTVSPost2010PropOp34
 70
     1
102
RTVSPost2010Prop35
280
     0
102
RTVSPost2010PropOp35
 70
     1
102
RTVSPost2010Prop36
280
     0
102
RTVSPost2010PropOp36
 70
     1
102
RTVSPost2010Prop37
 90
       50
102
RTVSPost2010PropOp37
 70
     0
102
RTVSPost2010Prop38
140
0.0
102
RTVSPost2010PropOp38
 70
     0
102
RTVSPost2010Prop39
140
1.0
102
RTVSPost2010PropOp39
 70
     0
102
RTVSPost2010Prop40
 90
        0
102
RTVSPost2010PropOp40
 70
     0
102
RTVSPost2010Prop41ColorIndex
 90
       18
102
RTVSPost2010Prop41ColorRGB
 90
        0
102
RTVSPost2010PropOp41
 70
     0
102
RTVSPost2010Prop42
 90
       50
102
RTVSPost2010PropOp42
 70
     0
102
RTVSPost2010Prop43
 90
        3
102
RTVSPost2010PropOp43
 70
     0
102
RTVSPost2010Prop44ColorIndex
 90
        5
102
RTVSPost2010Prop44ColorRGB
 90
      255
102
RTVSPost2010PropOp44
 70
     0
102
RTVSPost2010Prop45
280
     0
102
RTVSPost2010PropOp45
 70
     1
102
RTVSPost2010Prop46
 90
       50
102
RTVSPost2010PropOp46
 70
     0
102
RTVSPost2010Prop47
 90
       50
102
RTVSPost2010PropOp47
 70
     0
102
RTVSPost2010Prop48
 90
       50
102
RTVSPost2010PropOp48
 70
     0
102
RTVSPost2010Prop49
280
     0
102
RTVSPost2010PropOp49
 70
     1
102
RTVSPost2010Prop50
 90
       50
102
RTVSPost2010PropOp50
 70
     0
102
RTVSPost2010Prop51ColorIndex
 90
      256
102
RTVSPost2010Prop51ColorRGB
 90
-16777216
102
RTVSPost2010PropOp51
 70
     0
102
RTVSPost2010Prop52
140
1.0
102
RTVSPost2010PropOp52
 70
     0
102
RTVSPost2010Prop53
 90
        2
102
RTVSPost2010PropOp53
 70
     0
102
RTVSPost2010Prop54
  1
strokes_ogs.tif
102
RTVSPost2010PropOp54
 70
     0
102
RTVSPost2010Prop55
280
     0
102
RTVSPost2010PropOp55
 70
     1
102
RTVSPost2010Prop56
140
1.0
102
RTVSPost2010PropOp56
 70
     0
102
RTVSPost2010Prop57
140
1.0
102
RTVSPost2010PropOp57
 70
     0
102
RTVSPropertyOp0
 70
     0
102
RTVSPropertyOp1
 70
     0
102
RTVSPropertyOp2
 70
     0
102
RTVSPropertyOp3
 70
     0
102
RTVSPropertyOp4
 70
     0
102
RTVSPropertyOp5
 70
     0
102
RTVSPropertyOp6
 70
     0
102
RTVSPropertyOp7
 70
     0
102
RTVSPropertyOp8
 70
     0
102
RTVSPropertyOp9
 70
     0
102
RTVSPropertyOp10
 70
     0
102
RTVSPropertyOp11
 70
     0
102
RTVSPropertyOp12
 70
     0
102
RTVSPropertyOp13
 70
     0
102
RTVSPropertyOp14
 70
     2
102
RTVSPropertyOp15
 70
     0
102
RTVSPropertyOp16
 70
     0
102
RTVSPropertyOp17
 70
     0
102
RTVSPropertyOp18
 70
     0
102
RTVSPropertyOp19
 70
     0
102
RTVSPropertyOp20
 70
     0
102
RTVSPropertyOp21
 70
     0
102
RTVSPropertyOp22
 70
     0
102
RTVSPropertyOp23
 70
     0
102
RTVSPropertyOp24
 70
     0
102
RTVSPropertyOp25
 70
     0
102
RTVSPropertyOp26
 70
     0
102
RTVSPropertyOp27
 70
     0
102
RTVSPropertyOp28
 70
     1
102
RTVSPropertyOp29
 70
     1
102
RTVSPropertyOp30
 70
     1
102
RTVSPropertyOp31
 70
     1
102
RTVSPropertyOp32
 70
     1
102
RTVSPropertyOp33
 70
     1
102
RTVSPropertyOp34
 70
     1
102
RTVSPropertyOp35
 70
     1
102
RTVSPropertyOp36
 70
     1
102
RTVSPropertyOp37
 70
     0
102
RTVSPropertyOp38
 70
     0
102
RTVSPropertyOp39
 70
     0
102
RTVSPropertyOp40
 70
     0
102
RTVSPropertyOp41
 70
     0
102
RTVSPropertyOp42
 70
     0
102
RTVSPropertyOp43
 70
     0
102
RTVSPropertyOp44
 70
     0
102
RTVSPropertyOp45
 70
     1
102
RTVSPropertyOp46
 70
     0
102
RTVSPropertyOp47
 70
     0
102
RTVSPropertyOp48
 70
     0
102
RTVSPropertyOp49
 70
     1
102
RTVSPropertyOp50
 70
     0
102
RTVSPropertyOp51
 70
     0
102
RTVSPropertyOp52
 70
     0
102
RTVSPropertyOp53
 70
     0
102
RTVSPropertyOp54
 70
     0
102
RTVSPropertyOp55
 70
     1
102
RTVSPropertyOp56
 70
     0
102
RTVSPropertyOp57
 70
     0
102
RTVSPropertyOp58
 70
     0
102
RTVSPropertyOp59
 70
     0
102
RTVSPropertyOp60
 70
     0
102
RTVSPropertyOp61
 70
     0
102
RTVSPropertyOp62
 70
     0
  0
XRECORD
  5
BF7E
102
{ACAD_REACTORS
330
BF7D
102
}
330
BF7D
100
AcDbXrecord
280
     1
102
RTVSPost2010Prop28
280
     0
102
RTVSPost2010PropOp28
 70
     1
102
RTVSPost2010Prop29
280
     1
102
RTVSPost2010PropOp29
 70
     1
102
RTVSPost2010Prop30
280
     1
102
RTVSPost2010PropOp30
 70
     1
102
RTVSPost2010Prop31
280
     0
102
RTVSPost2010PropOp31
 70
     1
102
RTVSPost2010Prop32
280
     0
102
RTVSPost2010PropOp32
 70
     1
102
RTVSPost2010Prop33
280
     0
102
RTVSPost2010PropOp33
 70
     1
102
RTVSPost2010Prop34
280
     0
102
RTVSPost2010PropOp34
 70
     1
102
RTVSPost2010Prop35
280
     0
102
RTVSPost2010PropOp35
 70
     1
102
RTVSPost2010Prop36
280
     0
102
RTVSPost2010PropOp36
 70
     1
102
RTVSPost2010Prop37
 90
       50
102
RTVSPost2010PropOp37
 70
     1
102
RTVSPost2010Prop38
140
0.0
102
RTVSPost2010PropOp38
 70
     1
102
RTVSPost2010Prop39
140
1.0
102
RTVSPost2010PropOp39
 70
     1
102
RTVSPost2010Prop40
 90
        0
102
RTVSPost2010PropOp40
 70
     1
102
RTVSPost2010Prop41ColorIndex
 90
       18
102
RTVSPost2010Prop41ColorRGB
 90
        0
102
RTVSPost2010PropOp41
 70
     1
102
RTVSPost2010Prop42
 90
       50
102
RTVSPost2010PropOp42
 70
     1
102
RTVSPost2010Prop43
 90
        3
102
RTVSPost2010PropOp43
 70
     1
102
RTVSPost2010Prop44ColorIndex
 90
        5
102
RTVSPost2010Prop44ColorRGB
 90
      255
102
RTVSPost2010PropOp44
 70
     1
102
RTVSPost2010Prop45
280
     0
102
RTVSPost2010PropOp45
 70
     1
102
RTVSPost2010Prop46
 90
       50
102
RTVSPost2010PropOp46
 70
     1
102
RTVSPost2010Prop47
 90
       50
102
RTVSPost2010PropOp47
 70
     1
102
RTVSPost2010Prop48
 90
       50
102
RTVSPost2010PropOp48
 70
     1
102
RTVSPost2010Prop49
280
     0
102
RTVSPost2010PropOp49
 70
     1
102
RTVSPost2010Prop50
 90
       50
102
RTVSPost2010PropOp50
 70
     1
102
RTVSPost2010Prop51ColorIndex
 90
      256
102
RTVSPost2010Prop51ColorRGB
 90
-16777216
102
RTVSPost2010PropOp51
 70
     0
102
RTVSPost2010Prop52
140
1.0
102
RTVSPost2010PropOp52
 70
     0
102
RTVSPost2010Prop53
 90
        2
102
RTVSPost2010PropOp53
 70
     1
102
RTVSPost2010Prop54
  1
strokes_ogs.tif
102
RTVSPost2010PropOp54
 70
     1
102
RTVSPost2010Prop55
280
     0
102
RTVSPost2010PropOp55
 70
     1
102
RTVSPost2010Prop56
140
1.0
102
RTVSPost2010PropOp56
 70
     1
102
RTVSPost2010Prop57
140
1.0
102
RTVSPost2010PropOp57
 70
     1
102
RTVSPropertyOp0
 70
     1
102
RTVSPropertyOp1
 70
     1
102
RTVSPropertyOp2
 70
     1
102
RTVSPropertyOp3
 70
     1
102
RTVSPropertyOp4
 70
     1
102
RTVSPropertyOp5
 70
     1
102
RTVSPropertyOp6
 70
     1
102
RTVSPropertyOp7
 70
     1
102
RTVSPropertyOp8
 70
     1
102
RTVSPropertyOp9
 70
     1
102
RTVSPropertyOp10
 70
     1
102
RTVSPropertyOp11
 70
     1
102
RTVSPropertyOp12
 70
     1
102
RTVSPropertyOp13
 70
     1
102
RTVSPropertyOp14
 70
     1
102
RTVSPropertyOp15
 70
     1
102
RTVSPropertyOp16
 70
     1
102
RTVSPropertyOp17
 70
     1
102
RTVSPropertyOp18
 70
     1
102
RTVSPropertyOp19
 70
     1
102
RTVSPropertyOp20
 70
     1
102
RTVSPropertyOp21
 70
     1
102
RTVSPropertyOp22
 70
     1
102
RTVSPropertyOp23
 70
     1
102
RTVSPropertyOp24
 70
     1
102
RTVSPropertyOp25
 70
     1
102
RTVSPropertyOp26
 70
     1
102
RTVSPropertyOp27
 70
     1
102
RTVSPropertyOp28
 70
     1
102
RTVSPropertyOp29
 70
     1
102
RTVSPropertyOp30
 70
     1
102
RTVSPropertyOp31
 70
     1
102
RTVSPropertyOp32
 70
     1
102
RTVSPropertyOp33
 70
     1
102
RTVSPropertyOp34
 70
     1
102
RTVSPropertyOp35
 70
     1
102
RTVSPropertyOp36
 70
     1
102
RTVSPropertyOp37
 70
     1
102
RTVSPropertyOp38
 70
     1
102
RTVSPropertyOp39
 70
     1
102
RTVSPropertyOp40
 70
     1
102
RTVSPropertyOp41
 70
     1
102
RTVSPropertyOp42
 70
     1
102
RTVSPropertyOp43
 70
     1
102
RTVSPropertyOp44
 70
     1
102
RTVSPropertyOp45
 70
     1
102
RTVSPropertyOp46
 70
     1
102
RTVSPropertyOp47
 70
     1
102
RTVSPropertyOp48
 70
     1
102
RTVSPropertyOp49
 70
     1
102
RTVSPropertyOp50
 70
     1
102
RTVSPropertyOp51
 70
     0
102
RTVSPropertyOp52
 70
     0
102
RTVSPropertyOp53
 70
     1
102
RTVSPropertyOp54
 70
     1
102
RTVSPropertyOp55
 70
     1
102
RTVSPropertyOp56
 70
     1
102
RTVSPropertyOp57
 70
     1
102
RTVSPropertyOp58
 70
     1
102
RTVSPropertyOp59
 70
     1
102
RTVSPropertyOp60
 70
     1
102
RTVSPropertyOp61
 70
     1
102
RTVSPropertyOp62
 70
     1
  0
XRECORD
  5
BF62
102
{ACAD_REACTORS
330
BF61
102
}
330
BF61
100
AcDbXrecord
280
     1
102
RTVSPost2010Prop28
280
     0
102
RTVSPost2010PropOp28
 70
     1
102
RTVSPost2010Prop29
280
     1
102
RTVSPost2010PropOp29
 70
     1
102
RTVSPost2010Prop30
280
     1
102
RTVSPost2010PropOp30
 70
     1
102
RTVSPost2010Prop31
280
     0
102
RTVSPost2010PropOp31
 70
     1
102
RTVSPost2010Prop32
280
     0
102
RTVSPost2010PropOp32
 70
     1
102
RTVSPost2010Prop33
280
     0
102
RTVSPost2010PropOp33
 70
     1
102
RTVSPost2010Prop34
280
     0
102
RTVSPost2010PropOp34
 70
     1
102
RTVSPost2010Prop35
280
     0
102
RTVSPost2010PropOp35
 70
     1
102
RTVSPost2010Prop36
280
     0
102
RTVSPost2010PropOp36
 70
     1
102
RTVSPost2010Prop37
 90
       50
102
RTVSPost2010PropOp37
 70
     1
102
RTVSPost2010Prop38
140
0.0
102
RTVSPost2010PropOp38
 70
     1
102
RTVSPost2010Prop39
140
1.0
102
RTVSPost2010PropOp39
 70
     1
102
RTVSPost2010Prop40
 90
        0
102
RTVSPost2010PropOp40
 70
     1
102
RTVSPost2010Prop41ColorIndex
 90
       18
102
RTVSPost2010Prop41ColorRGB
 90
        0
102
RTVSPost2010PropOp41
 70
     1
102
RTVSPost2010Prop42
 90
       50
102
RTVSPost2010PropOp42
 70
     1
102
RTVSPost2010Prop43
 90
        3
102
RTVSPost2010PropOp43
 70
     1
102
RTVSPost2010Prop44ColorIndex
 90
        5
102
RTVSPost2010Prop44ColorRGB
 90
      255
102
RTVSPost2010PropOp44
 70
     1
102
RTVSPost2010Prop45
280
     0
102
RTVSPost2010PropOp45
 70
     1
102
RTVSPost2010Prop46
 90
       50
102
RTVSPost2010PropOp46
 70
     1
102
RTVSPost2010Prop47
 90
       50
102
RTVSPost2010PropOp47
 70
     1
102
RTVSPost2010Prop48
 90
       50
102
RTVSPost2010PropOp48
 70
     1
102
RTVSPost2010Prop49
280
     0
102
RTVSPost2010PropOp49
 70
     1
102
RTVSPost2010Prop50
 90
       50
102
RTVSPost2010PropOp50
 70
     1
102
RTVSPost2010Prop51ColorIndex
 90
      256
102
RTVSPost2010Prop51ColorRGB
 90
-16777216
102
RTVSPost2010PropOp51
 70
     0
102
RTVSPost2010Prop52
140
1.0
102
RTVSPost2010PropOp52
 70
     0
102
RTVSPost2010Prop53
 90
        2
102
RTVSPost2010PropOp53
 70
     1
102
RTVSPost2010Prop54
  1
strokes_ogs.tif
102
RTVSPost2010PropOp54
 70
     1
102
RTVSPost2010Prop55
280
     0
102
RTVSPost2010PropOp55
 70
     1
102
RTVSPost2010Prop56
140
1.0
102
RTVSPost2010PropOp56
 70
     1
102
RTVSPost2010Prop57
140
1.0
102
RTVSPost2010PropOp57
 70
     1
102
RTVSPropertyOp0
 70
     1
102
RTVSPropertyOp1
 70
     1
102
RTVSPropertyOp2
 70
     1
102
RTVSPropertyOp3
 70
     1
102
RTVSPropertyOp4
 70
     1
102
RTVSPropertyOp5
 70
     1
102
RTVSPropertyOp6
 70
     1
102
RTVSPropertyOp7
 70
     1
102
RTVSPropertyOp8
 70
     1
102
RTVSPropertyOp9
 70
     1
102
RTVSPropertyOp10
 70
     1
102
RTVSPropertyOp11
 70
     1
102
RTVSPropertyOp12
 70
     1
102
RTVSPropertyOp13
 70
     1
102
RTVSPropertyOp14
 70
     1
102
RTVSPropertyOp15
 70
     1
102
RTVSPropertyOp16
 70
     1
102
RTVSPropertyOp17
 70
     1
102
RTVSPropertyOp18
 70
     1
102
RTVSPropertyOp19
 70
     1
102
RTVSPropertyOp20
 70
     1
102
RTVSPropertyOp21
 70
     1
102
RTVSPropertyOp22
 70
     1
102
RTVSPropertyOp23
 70
     1
102
RTVSPropertyOp24
 70
     1
102
RTVSPropertyOp25
 70
     1
102
RTVSPropertyOp26
 70
     1
102
RTVSPropertyOp27
 70
     1
102
RTVSPropertyOp28
 70
     1
102
RTVSPropertyOp29
 70
     1
102
RTVSPropertyOp30
 70
     1
102
RTVSPropertyOp31
 70
     1
102
RTVSPropertyOp32
 70
     1
102
RTVSPropertyOp33
 70
     1
102
RTVSPropertyOp34
 70
     1
102
RTVSPropertyOp35
 70
     1
102
RTVSPropertyOp36
 70
     1
102
RTVSPropertyOp37
 70
     1
102
RTVSPropertyOp38
 70
     1
102
RTVSPropertyOp39
 70
     1
102
RTVSPropertyOp40
 70
     1
102
RTVSPropertyOp41
 70
     1
102
RTVSPropertyOp42
 70
     1
102
RTVSPropertyOp43
 70
     1
102
RTVSPropertyOp44
 70
     1
102
RTVSPropertyOp45
 70
     1
102
RTVSPropertyOp46
 70
     1
102
RTVSPropertyOp47
 70
     1
102
RTVSPropertyOp48
 70
     1
102
RTVSPropertyOp49
 70
     1
102
RTVSPropertyOp50
 70
     1
102
RTVSPropertyOp51
 70
     0
102
RTVSPropertyOp52
 70
     0
102
RTVSPropertyOp53
 70
     1
102
RTVSPropertyOp54
 70
     1
102
RTVSPropertyOp55
 70
     1
102
RTVSPropertyOp56
 70
     1
102
RTVSPropertyOp57
 70
     1
102
RTVSPropertyOp58
 70
     1
102
RTVSPropertyOp59
 70
     1
102
RTVSPropertyOp60
 70
     1
102
RTVSPropertyOp61
 70
     1
102
RTVSPropertyOp62
 70
     1
  0
XRECORD
  5
BF64
102
{ACAD_REACTORS
330
BF63
102
}
330
BF63
100
AcDbXrecord
280
     1
102
RTVSPost2010Prop28
280
     0
102
RTVSPost2010PropOp28
 70
     1
102
RTVSPost2010Prop29
280
     1
102
RTVSPost2010PropOp29
 70
     1
102
RTVSPost2010Prop30
280
     1
102
RTVSPost2010PropOp30
 70
     1
102
RTVSPost2010Prop31
280
     0
102
RTVSPost2010PropOp31
 70
     1
102
RTVSPost2010Prop32
280
     0
102
RTVSPost2010PropOp32
 70
     1
102
RTVSPost2010Prop33
280
     0
102
RTVSPost2010PropOp33
 70
     1
102
RTVSPost2010Prop34
280
     0
102
RTVSPost2010PropOp34
 70
     1
102
RTVSPost2010Prop35
280
     0
102
RTVSPost2010PropOp35
 70
     1
102
RTVSPost2010Prop36
280
     0
102
RTVSPost2010PropOp36
 70
     1
102
RTVSPost2010Prop37
 90
       50
102
RTVSPost2010PropOp37
 70
     1
102
RTVSPost2010Prop38
140
0.0
102
RTVSPost2010PropOp38
 70
     1
102
RTVSPost2010Prop39
140
1.0
102
RTVSPost2010PropOp39
 70
     1
102
RTVSPost2010Prop40
 90
        0
102
RTVSPost2010PropOp40
 70
     1
102
RTVSPost2010Prop41ColorIndex
 90
       18
102
RTVSPost2010Prop41ColorRGB
 90
        0
102
RTVSPost2010PropOp41
 70
     1
102
RTVSPost2010Prop42
 90
       50
102
RTVSPost2010PropOp42
 70
     1
102
RTVSPost2010Prop43
 90
        3
102
RTVSPost2010PropOp43
 70
     1
102
RTVSPost2010Prop44ColorIndex
 90
        5
102
RTVSPost2010Prop44ColorRGB
 90
      255
102
RTVSPost2010PropOp44
 70
     1
102
RTVSPost2010Prop45
280
     0
102
RTVSPost2010PropOp45
 70
     1
102
RTVSPost2010Prop46
 90
       50
102
RTVSPost2010PropOp46
 70
     1
102
RTVSPost2010Prop47
 90
       50
102
RTVSPost2010PropOp47
 70
     1
102
RTVSPost2010Prop48
 90
       50
102
RTVSPost2010PropOp48
 70
     1
102
RTVSPost2010Prop49
280
     0
102
RTVSPost2010PropOp49
 70
     1
102
RTVSPost2010Prop50
 90
       50
102
RTVSPost2010PropOp50
 70
     1
102
RTVSPost2010Prop51ColorIndex
 90
      256
102
RTVSPost2010Prop51ColorRGB
 90
-16777216
102
RTVSPost2010PropOp51
 70
     0
102
RTVSPost2010Prop52
140
1.0
102
RTVSPost2010PropOp52
 70
     0
102
RTVSPost2010Prop53
 90
        2
102
RTVSPost2010PropOp53
 70
     1
102
RTVSPost2010Prop54
  1
strokes_ogs.tif
102
RTVSPost2010PropOp54
 70
     1
102
RTVSPost2010Prop55
280
     0
102
RTVSPost2010PropOp55
 70
     1
102
RTVSPost2010Prop56
140
1.0
102
RTVSPost2010PropOp56
 70
     1
102
RTVSPost2010Prop57
140
1.0
102
RTVSPost2010PropOp57
 70
     1
102
RTVSPropertyOp0
 70
     1
102
RTVSPropertyOp1
 70
     1
102
RTVSPropertyOp2
 70
     1
102
RTVSPropertyOp3
 70
     1
102
RTVSPropertyOp4
 70
     1
102
RTVSPropertyOp5
 70
     1
102
RTVSPropertyOp6
 70
     1
102
RTVSPropertyOp7
 70
     1
102
RTVSPropertyOp8
 70
     1
102
RTVSPropertyOp9
 70
     1
102
RTVSPropertyOp10
 70
     1
102
RTVSPropertyOp11
 70
     1
102
RTVSPropertyOp12
 70
     1
102
RTVSPropertyOp13
 70
     1
102
RTVSPropertyOp14
 70
     1
102
RTVSPropertyOp15
 70
     1
102
RTVSPropertyOp16
 70
     1
102
RTVSPropertyOp17
 70
     1
102
RTVSPropertyOp18
 70
     1
102
RTVSPropertyOp19
 70
     1
102
RTVSPropertyOp20
 70
     1
102
RTVSPropertyOp21
 70
     1
102
RTVSPropertyOp22
 70
     1
102
RTVSPropertyOp23
 70
     1
102
RTVSPropertyOp24
 70
     1
102
RTVSPropertyOp25
 70
     1
102
RTVSPropertyOp26
 70
     1
102
RTVSPropertyOp27
 70
     1
102
RTVSPropertyOp28
 70
     1
102
RTVSPropertyOp29
 70
     1
102
RTVSPropertyOp30
 70
     1
102
RTVSPropertyOp31
 70
     1
102
RTVSPropertyOp32
 70
     1
102
RTVSPropertyOp33
 70
     1
102
RTVSPropertyOp34
 70
     1
102
RTVSPropertyOp35
 70
     1
102
RTVSPropertyOp36
 70
     1
102
RTVSPropertyOp37
 70
     1
102
RTVSPropertyOp38
 70
     1
102
RTVSPropertyOp39
 70
     1
102
RTVSPropertyOp40
 70
     1
102
RTVSPropertyOp41
 70
     1
102
RTVSPropertyOp42
 70
     1
102
RTVSPropertyOp43
 70
     1
102
RTVSPropertyOp44
 70
     1
102
RTVSPropertyOp45
 70
     1
102
RTVSPropertyOp46
 70
     1
102
RTVSPropertyOp47
 70
     1
102
RTVSPropertyOp48
 70
     1
102
RTVSPropertyOp49
 70
     1
102
RTVSPropertyOp50
 70
     1
102
RTVSPropertyOp51
 70
     0
102
RTVSPropertyOp52
 70
     0
102
RTVSPropertyOp53
 70
     1
102
RTVSPropertyOp54
 70
     1
102
RTVSPropertyOp55
 70
     1
102
RTVSPropertyOp56
 70
     1
102
RTVSPropertyOp57
 70
     1
102
RTVSPropertyOp58
 70
     1
102
RTVSPropertyOp59
 70
     1
102
RTVSPropertyOp60
 70
     1
102
RTVSPropertyOp61
 70
     1
102
RTVSPropertyOp62
 70
     1
  0
XRECORD
  5
BF66
102
{ACAD_REACTORS
330
BF65
102
}
330
BF65
100
AcDbXrecord
280
     1
102
RTVSPost2010Prop28
280
     0
102
RTVSPost2010PropOp28
 70
     1
102
RTVSPost2010Prop29
280
     1
102
RTVSPost2010PropOp29
 70
     1
102
RTVSPost2010Prop30
280
     1
102
RTVSPost2010PropOp30
 70
     1
102
RTVSPost2010Prop31
280
     0
102
RTVSPost2010PropOp31
 70
     1
102
RTVSPost2010Prop32
280
     0
102
RTVSPost2010PropOp32
 70
     1
102
RTVSPost2010Prop33
280
     0
102
RTVSPost2010PropOp33
 70
     1
102
RTVSPost2010Prop34
280
     0
102
RTVSPost2010PropOp34
 70
     1
102
RTVSPost2010Prop35
280
     0
102
RTVSPost2010PropOp35
 70
     1
102
RTVSPost2010Prop36
280
     0
102
RTVSPost2010PropOp36
 70
     1
102
RTVSPost2010Prop37
 90
       50
102
RTVSPost2010PropOp37
 70
     1
102
RTVSPost2010Prop38
140
0.0
102
RTVSPost2010PropOp38
 70
     1
102
RTVSPost2010Prop39
140
1.0
102
RTVSPost2010PropOp39
 70
     1
102
RTVSPost2010Prop40
 90
        0
102
RTVSPost2010PropOp40
 70
     1
102
RTVSPost2010Prop41ColorIndex
 90
       18
102
RTVSPost2010Prop41ColorRGB
 90
        0
102
RTVSPost2010PropOp41
 70
     1
102
RTVSPost2010Prop42
 90
       50
102
RTVSPost2010PropOp42
 70
     1
102
RTVSPost2010Prop43
 90
        3
102
RTVSPost2010PropOp43
 70
     1
102
RTVSPost2010Prop44ColorIndex
 90
        5
102
RTVSPost2010Prop44ColorRGB
 90
      255
102
RTVSPost2010PropOp44
 70
     1
102
RTVSPost2010Prop45
280
     0
102
RTVSPost2010PropOp45
 70
     1
102
RTVSPost2010Prop46
 90
       50
102
RTVSPost2010PropOp46
 70
     1
102
RTVSPost2010Prop47
 90
       50
102
RTVSPost2010PropOp47
 70
     1
102
RTVSPost2010Prop48
 90
       50
102
RTVSPost2010PropOp48
 70
     1
102
RTVSPost2010Prop49
280
     0
102
RTVSPost2010PropOp49
 70
     1
102
RTVSPost2010Prop50
 90
       50
102
RTVSPost2010PropOp50
 70
     1
102
RTVSPost2010Prop51ColorIndex
 90
      256
102
RTVSPost2010Prop51ColorRGB
 90
-16777216
102
RTVSPost2010PropOp51
 70
     0
102
RTVSPost2010Prop52
140
1.0
102
RTVSPost2010PropOp52
 70
     0
102
RTVSPost2010Prop53
 90
        2
102
RTVSPost2010PropOp53
 70
     1
102
RTVSPost2010Prop54
  1
strokes_ogs.tif
102
RTVSPost2010PropOp54
 70
     1
102
RTVSPost2010Prop55
280
     0
102
RTVSPost2010PropOp55
 70
     1
102
RTVSPost2010Prop56
140
1.0
102
RTVSPost2010PropOp56
 70
     1
102
RTVSPost2010Prop57
140
1.0
102
RTVSPost2010PropOp57
 70
     1
102
RTVSPropertyOp0
 70
     1
102
RTVSPropertyOp1
 70
     1
102
RTVSPropertyOp2
 70
     1
102
RTVSPropertyOp3
 70
     1
102
RTVSPropertyOp4
 70
     1
102
RTVSPropertyOp5
 70
     1
102
RTVSPropertyOp6
 70
     1
102
RTVSPropertyOp7
 70
     1
102
RTVSPropertyOp8
 70
     1
102
RTVSPropertyOp9
 70
     1
102
RTVSPropertyOp10
 70
     1
102
RTVSPropertyOp11
 70
     1
102
RTVSPropertyOp12
 70
     1
102
RTVSPropertyOp13
 70
     1
102
RTVSPropertyOp14
 70
     1
102
RTVSPropertyOp15
 70
     1
102
RTVSPropertyOp16
 70
     1
102
RTVSPropertyOp17
 70
     1
102
RTVSPropertyOp18
 70
     1
102
RTVSPropertyOp19
 70
     1
102
RTVSPropertyOp20
 70
     1
102
RTVSPropertyOp21
 70
     1
102
RTVSPropertyOp22
 70
     1
102
RTVSPropertyOp23
 70
     1
102
RTVSPropertyOp24
 70
     1
102
RTVSPropertyOp25
 70
     1
102
RTVSPropertyOp26
 70
     1
102
RTVSPropertyOp27
 70
     1
102
RTVSPropertyOp28
 70
     1
102
RTVSPropertyOp29
 70
     1
102
RTVSPropertyOp30
 70
     1
102
RTVSPropertyOp31
 70
     1
102
RTVSPropertyOp32
 70
     1
102
RTVSPropertyOp33
 70
     1
102
RTVSPropertyOp34
 70
     1
102
RTVSPropertyOp35
 70
     1
102
RTVSPropertyOp36
 70
     1
102
RTVSPropertyOp37
 70
     1
102
RTVSPropertyOp38
 70
     1
102
RTVSPropertyOp39
 70
     1
102
RTVSPropertyOp40
 70
     1
102
RTVSPropertyOp41
 70
     1
102
RTVSPropertyOp42
 70
     1
102
RTVSPropertyOp43
 70
     1
102
RTVSPropertyOp44
 70
     1
102
RTVSPropertyOp45
 70
     1
102
RTVSPropertyOp46
 70
     1
102
RTVSPropertyOp47
 70
     1
102
RTVSPropertyOp48
 70
     1
102
RTVSPropertyOp49
 70
     1
102
RTVSPropertyOp50
 70
     1
102
RTVSPropertyOp51
 70
     0
102
RTVSPropertyOp52
 70
     0
102
RTVSPropertyOp53
 70
     1
102
RTVSPropertyOp54
 70
     1
102
RTVSPropertyOp55
 70
     1
102
RTVSPropertyOp56
 70
     1
102
RTVSPropertyOp57
 70
     1
102
RTVSPropertyOp58
 70
     1
102
RTVSPropertyOp59
 70
     1
102
RTVSPropertyOp60
 70
     1
102
RTVSPropertyOp61
 70
     1
102
RTVSPropertyOp62
 70
     1
  0
XRECORD
  5
BF68
102
{ACAD_REACTORS
330
BF67
102
}
330
BF67
100
AcDbXrecord
280
     1
102
RTVSPost2010Prop28
280
     0
102
RTVSPost2010PropOp28
 70
     1
102
RTVSPost2010Prop29
280
     1
102
RTVSPost2010PropOp29
 70
     1
102
RTVSPost2010Prop30
280
     1
102
RTVSPost2010PropOp30
 70
     1
102
RTVSPost2010Prop31
280
     0
102
RTVSPost2010PropOp31
 70
     1
102
RTVSPost2010Prop32
280
     0
102
RTVSPost2010PropOp32
 70
     1
102
RTVSPost2010Prop33
280
     0
102
RTVSPost2010PropOp33
 70
     1
102
RTVSPost2010Prop34
280
     0
102
RTVSPost2010PropOp34
 70
     1
102
RTVSPost2010Prop35
280
     0
102
RTVSPost2010PropOp35
 70
     1
102
RTVSPost2010Prop36
280
     0
102
RTVSPost2010PropOp36
 70
     1
102
RTVSPost2010Prop37
 90
       50
102
RTVSPost2010PropOp37
 70
     1
102
RTVSPost2010Prop38
140
0.0
102
RTVSPost2010PropOp38
 70
     1
102
RTVSPost2010Prop39
140
1.0
102
RTVSPost2010PropOp39
 70
     1
102
RTVSPost2010Prop40
 90
        0
102
RTVSPost2010PropOp40
 70
     1
102
RTVSPost2010Prop41ColorIndex
 90
       18
102
RTVSPost2010Prop41ColorRGB
 90
        0
102
RTVSPost2010PropOp41
 70
     1
102
RTVSPost2010Prop42
 90
       50
102
RTVSPost2010PropOp42
 70
     1
102
RTVSPost2010Prop43
 90
        3
102
RTVSPost2010PropOp43
 70
     1
102
RTVSPost2010Prop44ColorIndex
 90
        5
102
RTVSPost2010Prop44ColorRGB
 90
      255
102
RTVSPost2010PropOp44
 70
     1
102
RTVSPost2010Prop45
280
     0
102
RTVSPost2010PropOp45
 70
     1
102
RTVSPost2010Prop46
 90
       50
102
RTVSPost2010PropOp46
 70
     1
102
RTVSPost2010Prop47
 90
       50
102
RTVSPost2010PropOp47
 70
     1
102
RTVSPost2010Prop48
 90
       50
102
RTVSPost2010PropOp48
 70
     1
102
RTVSPost2010Prop49
280
     0
102
RTVSPost2010PropOp49
 70
     1
102
RTVSPost2010Prop50
 90
       50
102
RTVSPost2010PropOp50
 70
     1
102
RTVSPost2010Prop51ColorIndex
 90
      256
102
RTVSPost2010Prop51ColorRGB
 90
-16777216
102
RTVSPost2010PropOp51
 70
     0
102
RTVSPost2010Prop52
140
1.0
102
RTVSPost2010PropOp52
 70
     0
102
RTVSPost2010Prop53
 90
        2
102
RTVSPost2010PropOp53
 70
     1
102
RTVSPost2010Prop54
  1
strokes_ogs.tif
102
RTVSPost2010PropOp54
 70
     1
102
RTVSPost2010Prop55
280
     0
102
RTVSPost2010PropOp55
 70
     1
102
RTVSPost2010Prop56
140
1.0
102
RTVSPost2010PropOp56
 70
     1
102
RTVSPost2010Prop57
140
1.0
102
RTVSPost2010PropOp57
 70
     1
102
RTVSPropertyOp0
 70
     1
102
RTVSPropertyOp1
 70
     1
102
RTVSPropertyOp2
 70
     1
102
RTVSPropertyOp3
 70
     1
102
RTVSPropertyOp4
 70
     1
102
RTVSPropertyOp5
 70
     1
102
RTVSPropertyOp6
 70
     1
102
RTVSPropertyOp7
 70
     1
102
RTVSPropertyOp8
 70
     1
102
RTVSPropertyOp9
 70
     1
102
RTVSPropertyOp10
 70
     1
102
RTVSPropertyOp11
 70
     1
102
RTVSPropertyOp12
 70
     1
102
RTVSPropertyOp13
 70
     1
102
RTVSPropertyOp14
 70
     1
102
RTVSPropertyOp15
 70
     1
102
RTVSPropertyOp16
 70
     1
102
RTVSPropertyOp17
 70
     1
102
RTVSPropertyOp18
 70
     1
102
RTVSPropertyOp19
 70
     1
102
RTVSPropertyOp20
 70
     1
102
RTVSPropertyOp21
 70
     1
102
RTVSPropertyOp22
 70
     1
102
RTVSPropertyOp23
 70
     1
102
RTVSPropertyOp24
 70
     1
102
RTVSPropertyOp25
 70
     1
102
RTVSPropertyOp26
 70
     1
102
RTVSPropertyOp27
 70
     1
102
RTVSPropertyOp28
 70
     1
102
RTVSPropertyOp29
 70
     1
102
RTVSPropertyOp30
 70
     1
102
RTVSPropertyOp31
 70
     1
102
RTVSPropertyOp32
 70
     1
102
RTVSPropertyOp33
 70
     1
102
RTVSPropertyOp34
 70
     1
102
RTVSPropertyOp35
 70
     1
102
RTVSPropertyOp36
 70
     1
102
RTVSPropertyOp37
 70
     1
102
RTVSPropertyOp38
 70
     1
102
RTVSPropertyOp39
 70
     1
102
RTVSPropertyOp40
 70
     1
102
RTVSPropertyOp41
 70
     1
102
RTVSPropertyOp42
 70
     1
102
RTVSPropertyOp43
 70
     1
102
RTVSPropertyOp44
 70
     1
102
RTVSPropertyOp45
 70
     1
102
RTVSPropertyOp46
 70
     1
102
RTVSPropertyOp47
 70
     1
102
RTVSPropertyOp48
 70
     1
102
RTVSPropertyOp49
 70
     1
102
RTVSPropertyOp50
 70
     1
102
RTVSPropertyOp51
 70
     0
102
RTVSPropertyOp52
 70
     0
102
RTVSPropertyOp53
 70
     1
102
RTVSPropertyOp54
 70
     1
102
RTVSPropertyOp55
 70
     1
102
RTVSPropertyOp56
 70
     1
102
RTVSPropertyOp57
 70
     1
102
RTVSPropertyOp58
 70
     1
102
RTVSPropertyOp59
 70
     1
102
RTVSPropertyOp60
 70
     1
102
RTVSPropertyOp61
 70
     1
102
RTVSPropertyOp62
 70
     1
  0
XRECORD
  5
BF70
102
{ACAD_REACTORS
330
BF6F
102
}
330
BF6F
100
AcDbXrecord
280
     1
102
RTVSPost2010Prop28
280
     0
102
RTVSPost2010PropOp28
 70
     1
102
RTVSPost2010Prop29
280
     1
102
RTVSPost2010PropOp29
 70
     1
102
RTVSPost2010Prop30
280
     1
102
RTVSPost2010PropOp30
 70
     1
102
RTVSPost2010Prop31
280
     0
102
RTVSPost2010PropOp31
 70
     1
102
RTVSPost2010Prop32
280
     0
102
RTVSPost2010PropOp32
 70
     1
102
RTVSPost2010Prop33
280
     0
102
RTVSPost2010PropOp33
 70
     1
102
RTVSPost2010Prop34
280
     0
102
RTVSPost2010PropOp34
 70
     1
102
RTVSPost2010Prop35
280
     0
102
RTVSPost2010PropOp35
 70
     1
102
RTVSPost2010Prop36
280
     0
102
RTVSPost2010PropOp36
 70
     1
102
RTVSPost2010Prop37
 90
       50
102
RTVSPost2010PropOp37
 70
     1
102
RTVSPost2010Prop38
140
0.0
102
RTVSPost2010PropOp38
 70
     1
102
RTVSPost2010Prop39
140
1.0
102
RTVSPost2010PropOp39
 70
     1
102
RTVSPost2010Prop40
 90
        0
102
RTVSPost2010PropOp40
 70
     1
102
RTVSPost2010Prop41ColorIndex
 90
       18
102
RTVSPost2010Prop41ColorRGB
 90
        0
102
RTVSPost2010PropOp41
 70
     1
102
RTVSPost2010Prop42
 90
       50
102
RTVSPost2010PropOp42
 70
     1
102
RTVSPost2010Prop43
 90
        3
102
RTVSPost2010PropOp43
 70
     1
102
RTVSPost2010Prop44ColorIndex
 90
        5
102
RTVSPost2010Prop44ColorRGB
 90
      255
102
RTVSPost2010PropOp44
 70
     1
102
RTVSPost2010Prop45
280
     0
102
RTVSPost2010PropOp45
 70
     1
102
RTVSPost2010Prop46
 90
       50
102
RTVSPost2010PropOp46
 70
     1
102
RTVSPost2010Prop47
 90
       50
102
RTVSPost2010PropOp47
 70
     1
102
RTVSPost2010Prop48
 90
       50
102
RTVSPost2010PropOp48
 70
     1
102
RTVSPost2010Prop49
280
     0
102
RTVSPost2010PropOp49
 70
     1
102
RTVSPost2010Prop50
 90
       50
102
RTVSPost2010PropOp50
 70
     1
102
RTVSPost2010Prop51ColorIndex
 90
      256
102
RTVSPost2010Prop51ColorRGB
 90
-16777216
102
RTVSPost2010PropOp51
 70
     0
102
RTVSPost2010Prop52
140
1.0
102
RTVSPost2010PropOp52
 70
     0
102
RTVSPost2010Prop53
 90
        2
102
RTVSPost2010PropOp53
 70
     1
102
RTVSPost2010Prop54
  1
strokes_ogs.tif
102
RTVSPost2010PropOp54
 70
     1
102
RTVSPost2010Prop55
280
     0
102
RTVSPost2010PropOp55
 70
     1
102
RTVSPost2010Prop56
140
1.0
102
RTVSPost2010PropOp56
 70
     1
102
RTVSPost2010Prop57
140
1.0
102
RTVSPost2010PropOp57
 70
     1
102
RTVSPropertyOp0
 70
     1
102
RTVSPropertyOp1
 70
     1
102
RTVSPropertyOp2
 70
     1
102
RTVSPropertyOp3
 70
     1
102
RTVSPropertyOp4
 70
     1
102
RTVSPropertyOp5
 70
     1
102
RTVSPropertyOp6
 70
     1
102
RTVSPropertyOp7
 70
     1
102
RTVSPropertyOp8
 70
     1
102
RTVSPropertyOp9
 70
     1
102
RTVSPropertyOp10
 70
     1
102
RTVSPropertyOp11
 70
     1
102
RTVSPropertyOp12
 70
     1
102
RTVSPropertyOp13
 70
     1
102
RTVSPropertyOp14
 70
     1
102
RTVSPropertyOp15
 70
     1
102
RTVSPropertyOp16
 70
     1
102
RTVSPropertyOp17
 70
     1
102
RTVSPropertyOp18
 70
     1
102
RTVSPropertyOp19
 70
     1
102
RTVSPropertyOp20
 70
     1
102
RTVSPropertyOp21
 70
     1
102
RTVSPropertyOp22
 70
     1
102
RTVSPropertyOp23
 70
     1
102
RTVSPropertyOp24
 70
     1
102
RTVSPropertyOp25
 70
     1
102
RTVSPropertyOp26
 70
     1
102
RTVSPropertyOp27
 70
     1
102
RTVSPropertyOp28
 70
     1
102
RTVSPropertyOp29
 70
     1
102
RTVSPropertyOp30
 70
     1
102
RTVSPropertyOp31
 70
     1
102
RTVSPropertyOp32
 70
     1
102
RTVSPropertyOp33
 70
     1
102
RTVSPropertyOp34
 70
     1
102
RTVSPropertyOp35
 70
     1
102
RTVSPropertyOp36
 70
     1
102
RTVSPropertyOp37
 70
     1
102
RTVSPropertyOp38
 70
     1
102
RTVSPropertyOp39
 70
     1
102
RTVSPropertyOp40
 70
     1
102
RTVSPropertyOp41
 70
     1
102
RTVSPropertyOp42
 70
     1
102
RTVSPropertyOp43
 70
     1
102
RTVSPropertyOp44
 70
     1
102
RTVSPropertyOp45
 70
     1
102
RTVSPropertyOp46
 70
     1
102
RTVSPropertyOp47
 70
     1
102
RTVSPropertyOp48
 70
     1
102
RTVSPropertyOp49
 70
     1
102
RTVSPropertyOp50
 70
     1
102
RTVSPropertyOp51
 70
     0
102
RTVSPropertyOp52
 70
     0
102
RTVSPropertyOp53
 70
     1
102
RTVSPropertyOp54
 70
     1
102
RTVSPropertyOp55
 70
     1
102
RTVSPropertyOp56
 70
     1
102
RTVSPropertyOp57
 70
     1
102
RTVSPropertyOp58
 70
     1
102
RTVSPropertyOp59
 70
     1
102
RTVSPropertyOp60
 70
     1
102
RTVSPropertyOp61
 70
     1
102
RTVSPropertyOp62
 70
     1
  0
XRECORD
  5
BF8C
102
{ACAD_REACTORS
330
BF8B
102
}
330
BF8B
100
AcDbXrecord
280
     1
102
RTVSPost2010Prop28
280
     0
102
RTVSPost2010PropOp28
 70
     1
102
RTVSPost2010Prop29
280
     1
102
RTVSPost2010PropOp29
 70
     1
102
RTVSPost2010Prop30
280
     1
102
RTVSPost2010PropOp30
 70
     1
102
RTVSPost2010Prop31
280
     0
102
RTVSPost2010PropOp31
 70
     1
102
RTVSPost2010Prop32
280
     0
102
RTVSPost2010PropOp32
 70
     1
102
RTVSPost2010Prop33
280
     0
102
RTVSPost2010PropOp33
 70
     1
102
RTVSPost2010Prop34
280
     0
102
RTVSPost2010PropOp34
 70
     1
102
RTVSPost2010Prop35
280
     0
102
RTVSPost2010PropOp35
 70
     1
102
RTVSPost2010Prop36
280
     0
102
RTVSPost2010PropOp36
 70
     1
102
RTVSPost2010Prop37
 90
       50
102
RTVSPost2010PropOp37
 70
     0
102
RTVSPost2010Prop38
140
0.0
102
RTVSPost2010PropOp38
 70
     0
102
RTVSPost2010Prop39
140
1.0
102
RTVSPost2010PropOp39
 70
     0
102
RTVSPost2010Prop40
 90
        0
102
RTVSPost2010PropOp40
 70
     0
102
RTVSPost2010Prop41ColorIndex
 90
       18
102
RTVSPost2010Prop41ColorRGB
 90
        0
102
RTVSPost2010PropOp41
 70
     0
102
RTVSPost2010Prop42
 90
       50
102
RTVSPost2010PropOp42
 70
     0
102
RTVSPost2010Prop43
 90
        3
102
RTVSPost2010PropOp43
 70
     0
102
RTVSPost2010Prop44ColorIndex
 90
        5
102
RTVSPost2010Prop44ColorRGB
 90
      255
102
RTVSPost2010PropOp44
 70
     0
102
RTVSPost2010Prop45
280
     0
102
RTVSPost2010PropOp45
 70
     1
102
RTVSPost2010Prop46
 90
       50
102
RTVSPost2010PropOp46
 70
     0
102
RTVSPost2010Prop47
 90
       50
102
RTVSPost2010PropOp47
 70
     0
102
RTVSPost2010Prop48
 90
       50
102
RTVSPost2010PropOp48
 70
     0
102
RTVSPost2010Prop49
280
     0
102
RTVSPost2010PropOp49
 70
     1
102
RTVSPost2010Prop50
 90
       50
102
RTVSPost2010PropOp50
 70
     0
102
RTVSPost2010Prop51ColorIndex
 90
      256
102
RTVSPost2010Prop51ColorRGB
 90
-16777216
102
RTVSPost2010PropOp51
 70
     0
102
RTVSPost2010Prop52
140
1.0
102
RTVSPost2010PropOp52
 70
     0
102
RTVSPost2010Prop53
 90
        2
102
RTVSPost2010PropOp53
 70
     0
102
RTVSPost2010Prop54
  1
strokes_ogs.tif
102
RTVSPost2010PropOp54
 70
     0
102
RTVSPost2010Prop55
280
     0
102
RTVSPost2010PropOp55
 70
     1
102
RTVSPost2010Prop56
140
1.0
102
RTVSPost2010PropOp56
 70
     0
102
RTVSPost2010Prop57
140
1.0
102
RTVSPost2010PropOp57
 70
     0
102
RTVSPropertyOp0
 70
     0
102
RTVSPropertyOp1
 70
     0
102
RTVSPropertyOp2
 70
     0
102
RTVSPropertyOp3
 70
     0
102
RTVSPropertyOp4
 70
     0
102
RTVSPropertyOp5
 70
     0
102
RTVSPropertyOp6
 70
     0
102
RTVSPropertyOp7
 70
     0
102
RTVSPropertyOp8
 70
     0
102
RTVSPropertyOp9
 70
     0
102
RTVSPropertyOp10
 70
     0
102
RTVSPropertyOp11
 70
     0
102
RTVSPropertyOp12
 70
     0
102
RTVSPropertyOp13
 70
     0
102
RTVSPropertyOp14
 70
     2
102
RTVSPropertyOp15
 70
     0
102
RTVSPropertyOp16
 70
     0
102
RTVSPropertyOp17
 70
     0
102
RTVSPropertyOp18
 70
     0
102
RTVSPropertyOp19
 70
     0
102
RTVSPropertyOp20
 70
     0
102
RTVSPropertyOp21
 70
     0
102
RTVSPropertyOp22
 70
     0
102
RTVSPropertyOp23
 70
     0
102
RTVSPropertyOp24
 70
     0
102
RTVSPropertyOp25
 70
     0
102
RTVSPropertyOp26
 70
     0
102
RTVSPropertyOp27
 70
     0
102
RTVSPropertyOp28
 70
     1
102
RTVSPropertyOp29
 70
     1
102
RTVSPropertyOp30
 70
     1
102
RTVSPropertyOp31
 70
     1
102
RTVSPropertyOp32
 70
     1
102
RTVSPropertyOp33
 70
     1
102
RTVSPropertyOp34
 70
     1
102
RTVSPropertyOp35
 70
     1
102
RTVSPropertyOp36
 70
     1
102
RTVSPropertyOp37
 70
     0
102
RTVSPropertyOp38
 70
     0
102
RTVSPropertyOp39
 70
     0
102
RTVSPropertyOp40
 70
     0
102
RTVSPropertyOp41
 70
     0
102
RTVSPropertyOp42
 70
     0
102
RTVSPropertyOp43
 70
     0
102
RTVSPropertyOp44
 70
     0
102
RTVSPropertyOp45
 70
     1
102
RTVSPropertyOp46
 70
     0
102
RTVSPropertyOp47
 70
     0
102
RTVSPropertyOp48
 70
     0
102
RTVSPropertyOp49
 70
     1
102
RTVSPropertyOp50
 70
     0
102
RTVSPropertyOp51
 70
     0
102
RTVSPropertyOp52
 70
     0
102
RTVSPropertyOp53
 70
     0
102
RTVSPropertyOp54
 70
     0
102
RTVSPropertyOp55
 70
     1
102
RTVSPropertyOp56
 70
     0
102
RTVSPropertyOp57
 70
     0
102
RTVSPropertyOp58
 70
     0
102
RTVSPropertyOp59
 70
     0
102
RTVSPropertyOp60
 70
     0
102
RTVSPropertyOp61
 70
     0
102
RTVSPropertyOp62
 70
     0
  0
XRECORD
  5
BF7C
102
{ACAD_REACTORS
330
BF7B
102
}
330
BF7B
100
AcDbXrecord
280
     1
102
RTVSPost2010Prop28
280
     0
102
RTVSPost2010PropOp28
 70
     1
102
RTVSPost2010Prop29
280
     1
102
RTVSPost2010PropOp29
 70
     1
102
RTVSPost2010Prop30
280
     1
102
RTVSPost2010PropOp30
 70
     1
102
RTVSPost2010Prop31
280
     0
102
RTVSPost2010PropOp31
 70
     1
102
RTVSPost2010Prop32
280
     0
102
RTVSPost2010PropOp32
 70
     1
102
RTVSPost2010Prop33
280
     0
102
RTVSPost2010PropOp33
 70
     1
102
RTVSPost2010Prop34
280
     0
102
RTVSPost2010PropOp34
 70
     1
102
RTVSPost2010Prop35
280
     0
102
RTVSPost2010PropOp35
 70
     1
102
RTVSPost2010Prop36
280
     0
102
RTVSPost2010PropOp36
 70
     1
102
RTVSPost2010Prop37
 90
       50
102
RTVSPost2010PropOp37
 70
     1
102
RTVSPost2010Prop38
140
0.0
102
RTVSPost2010PropOp38
 70
     1
102
RTVSPost2010Prop39
140
1.0
102
RTVSPost2010PropOp39
 70
     1
102
RTVSPost2010Prop40
 90
        0
102
RTVSPost2010PropOp40
 70
     1
102
RTVSPost2010Prop41ColorIndex
 90
       18
102
RTVSPost2010Prop41ColorRGB
 90
        0
102
RTVSPost2010PropOp41
 70
     1
102
RTVSPost2010Prop42
 90
       50
102
RTVSPost2010PropOp42
 70
     1
102
RTVSPost2010Prop43
 90
        3
102
RTVSPost2010PropOp43
 70
     1
102
RTVSPost2010Prop44ColorIndex
 90
        5
102
RTVSPost2010Prop44ColorRGB
 90
      255
102
RTVSPost2010PropOp44
 70
     1
102
RTVSPost2010Prop45
280
     0
102
RTVSPost2010PropOp45
 70
     1
102
RTVSPost2010Prop46
 90
       50
102
RTVSPost2010PropOp46
 70
     1
102
RTVSPost2010Prop47
 90
       50
102
RTVSPost2010PropOp47
 70
     1
102
RTVSPost2010Prop48
 90
       50
102
RTVSPost2010PropOp48
 70
     1
102
RTVSPost2010Prop49
280
     0
102
RTVSPost2010PropOp49
 70
     1
102
RTVSPost2010Prop50
 90
       50
102
RTVSPost2010PropOp50
 70
     1
102
RTVSPost2010Prop51ColorIndex
 90
      256
102
RTVSPost2010Prop51ColorRGB
 90
-16777216
102
RTVSPost2010PropOp51
 70
     0
102
RTVSPost2010Prop52
140
1.0
102
RTVSPost2010PropOp52
 70
     0
102
RTVSPost2010Prop53
 90
        2
102
RTVSPost2010PropOp53
 70
     1
102
RTVSPost2010Prop54
  1
strokes_ogs.tif
102
RTVSPost2010PropOp54
 70
     1
102
RTVSPost2010Prop55
280
     0
102
RTVSPost2010PropOp55
 70
     1
102
RTVSPost2010Prop56
140
1.0
102
RTVSPost2010PropOp56
 70
     1
102
RTVSPost2010Prop57
140
1.0
102
RTVSPost2010PropOp57
 70
     1
102
RTVSPropertyOp0
 70
     1
102
RTVSPropertyOp1
 70
     1
102
RTVSPropertyOp2
 70
     1
102
RTVSPropertyOp3
 70
     1
102
RTVSPropertyOp4
 70
     1
102
RTVSPropertyOp5
 70
     1
102
RTVSPropertyOp6
 70
     1
102
RTVSPropertyOp7
 70
     1
102
RTVSPropertyOp8
 70
     1
102
RTVSPropertyOp9
 70
     1
102
RTVSPropertyOp10
 70
     1
102
RTVSPropertyOp11
 70
     1
102
RTVSPropertyOp12
 70
     1
102
RTVSPropertyOp13
 70
     1
102
RTVSPropertyOp14
 70
     1
102
RTVSPropertyOp15
 70
     1
102
RTVSPropertyOp16
 70
     1
102
RTVSPropertyOp17
 70
     1
102
RTVSPropertyOp18
 70
     1
102
RTVSPropertyOp19
 70
     1
102
RTVSPropertyOp20
 70
     1
102
RTVSPropertyOp21
 70
     1
102
RTVSPropertyOp22
 70
     1
102
RTVSPropertyOp23
 70
     1
102
RTVSPropertyOp24
 70
     1
102
RTVSPropertyOp25
 70
     1
102
RTVSPropertyOp26
 70
     1
102
RTVSPropertyOp27
 70
     1
102
RTVSPropertyOp28
 70
     1
102
RTVSPropertyOp29
 70
     1
102
RTVSPropertyOp30
 70
     1
102
RTVSPropertyOp31
 70
     1
102
RTVSPropertyOp32
 70
     1
102
RTVSPropertyOp33
 70
     1
102
RTVSPropertyOp34
 70
     1
102
RTVSPropertyOp35
 70
     1
102
RTVSPropertyOp36
 70
     1
102
RTVSPropertyOp37
 70
     1
102
RTVSPropertyOp38
 70
     1
102
RTVSPropertyOp39
 70
     1
102
RTVSPropertyOp40
 70
     1
102
RTVSPropertyOp41
 70
     1
102
RTVSPropertyOp42
 70
     1
102
RTVSPropertyOp43
 70
     1
102
RTVSPropertyOp44
 70
     1
102
RTVSPropertyOp45
 70
     1
102
RTVSPropertyOp46
 70
     1
102
RTVSPropertyOp47
 70
     1
102
RTVSPropertyOp48
 70
     1
102
RTVSPropertyOp49
 70
     1
102
RTVSPropertyOp50
 70
     1
102
RTVSPropertyOp51
 70
     0
102
RTVSPropertyOp52
 70
     0
102
RTVSPropertyOp53
 70
     1
102
RTVSPropertyOp54
 70
     1
102
RTVSPropertyOp55
 70
     1
102
RTVSPropertyOp56
 70
     1
102
RTVSPropertyOp57
 70
     1
102
RTVSPropertyOp58
 70
     1
102
RTVSPropertyOp59
 70
     1
102
RTVSPropertyOp60
 70
     1
102
RTVSPropertyOp61
 70
     1
102
RTVSPropertyOp62
 70
     1
  0
XRECORD
  5
BF8E
102
{ACAD_REACTORS
330
BF8D
102
}
330
BF8D
100
AcDbXrecord
280
     1
102
RTVSPost2010Prop28
280
     0
102
RTVSPost2010PropOp28
 70
     1
102
RTVSPost2010Prop29
280
     1
102
RTVSPost2010PropOp29
 70
     1
102
RTVSPost2010Prop30
280
     1
102
RTVSPost2010PropOp30
 70
     1
102
RTVSPost2010Prop31
280
     0
102
RTVSPost2010PropOp31
 70
     1
102
RTVSPost2010Prop32
280
     0
102
RTVSPost2010PropOp32
 70
     1
102
RTVSPost2010Prop33
280
     0
102
RTVSPost2010PropOp33
 70
     1
102
RTVSPost2010Prop34
280
     0
102
RTVSPost2010PropOp34
 70
     1
102
RTVSPost2010Prop35
280
     0
102
RTVSPost2010PropOp35
 70
     1
102
RTVSPost2010Prop36
280
     0
102
RTVSPost2010PropOp36
 70
     1
102
RTVSPost2010Prop37
 90
       50
102
RTVSPost2010PropOp37
 70
     0
102
RTVSPost2010Prop38
140
0.0
102
RTVSPost2010PropOp38
 70
     0
102
RTVSPost2010Prop39
140
1.0
102
RTVSPost2010PropOp39
 70
     0
102
RTVSPost2010Prop40
 90
        0
102
RTVSPost2010PropOp40
 70
     0
102
RTVSPost2010Prop41ColorIndex
 90
       18
102
RTVSPost2010Prop41ColorRGB
 90
        0
102
RTVSPost2010PropOp41
 70
     0
102
RTVSPost2010Prop42
 90
       50
102
RTVSPost2010PropOp42
 70
     0
102
RTVSPost2010Prop43
 90
        3
102
RTVSPost2010PropOp43
 70
     0
102
RTVSPost2010Prop44ColorIndex
 90
        5
102
RTVSPost2010Prop44ColorRGB
 90
      255
102
RTVSPost2010PropOp44
 70
     0
102
RTVSPost2010Prop45
280
     0
102
RTVSPost2010PropOp45
 70
     1
102
RTVSPost2010Prop46
 90
       50
102
RTVSPost2010PropOp46
 70
     0
102
RTVSPost2010Prop47
 90
       50
102
RTVSPost2010PropOp47
 70
     0
102
RTVSPost2010Prop48
 90
       50
102
RTVSPost2010PropOp48
 70
     0
102
RTVSPost2010Prop49
280
     0
102
RTVSPost2010PropOp49
 70
     1
102
RTVSPost2010Prop50
 90
       50
102
RTVSPost2010PropOp50
 70
     0
102
RTVSPost2010Prop51ColorIndex
 90
      256
102
RTVSPost2010Prop51ColorRGB
 90
-16777216
102
RTVSPost2010PropOp51
 70
     0
102
RTVSPost2010Prop52
140
1.0
102
RTVSPost2010PropOp52
 70
     0
102
RTVSPost2010Prop53
 90
        2
102
RTVSPost2010PropOp53
 70
     0
102
RTVSPost2010Prop54
  1
strokes_ogs.tif
102
RTVSPost2010PropOp54
 70
     0
102
RTVSPost2010Prop55
280
     0
102
RTVSPost2010PropOp55
 70
     1
102
RTVSPost2010Prop56
140
1.0
102
RTVSPost2010PropOp56
 70
     0
102
RTVSPost2010Prop57
140
1.0
102
RTVSPost2010PropOp57
 70
     0
102
RTVSPropertyOp0
 70
     0
102
RTVSPropertyOp1
 70
     0
102
RTVSPropertyOp2
 70
     0
102
RTVSPropertyOp3
 70
     0
102
RTVSPropertyOp4
 70
     0
102
RTVSPropertyOp5
 70
     0
102
RTVSPropertyOp6
 70
     0
102
RTVSPropertyOp7
 70
     0
102
RTVSPropertyOp8
 70
     0
102
RTVSPropertyOp9
 70
     0
102
RTVSPropertyOp10
 70
     0
102
RTVSPropertyOp11
 70
     0
102
RTVSPropertyOp12
 70
     0
102
RTVSPropertyOp13
 70
     0
102
RTVSPropertyOp14
 70
     2
102
RTVSPropertyOp15
 70
     0
102
RTVSPropertyOp16
 70
     0
102
RTVSPropertyOp17
 70
     0
102
RTVSPropertyOp18
 70
     0
102
RTVSPropertyOp19
 70
     0
102
RTVSPropertyOp20
 70
     0
102
RTVSPropertyOp21
 70
     0
102
RTVSPropertyOp22
 70
     0
102
RTVSPropertyOp23
 70
     0
102
RTVSPropertyOp24
 70
     0
102
RTVSPropertyOp25
 70
     0
102
RTVSPropertyOp26
 70
     0
102
RTVSPropertyOp27
 70
     0
102
RTVSPropertyOp28
 70
     1
102
RTVSPropertyOp29
 70
     1
102
RTVSPropertyOp30
 70
     1
102
RTVSPropertyOp31
 70
     1
102
RTVSPropertyOp32
 70
     1
102
RTVSPropertyOp33
 70
     1
102
RTVSPropertyOp34
 70
     1
102
RTVSPropertyOp35
 70
     1
102
RTVSPropertyOp36
 70
     1
102
RTVSPropertyOp37
 70
     0
102
RTVSPropertyOp38
 70
     0
102
RTVSPropertyOp39
 70
     0
102
RTVSPropertyOp40
 70
     0
102
RTVSPropertyOp41
 70
     0
102
RTVSPropertyOp42
 70
     0
102
RTVSPropertyOp43
 70
     0
102
RTVSPropertyOp44
 70
     0
102
RTVSPropertyOp45
 70
     1
102
RTVSPropertyOp46
 70
     0
102
RTVSPropertyOp47
 70
     0
102
RTVSPropertyOp48
 70
     0
102
RTVSPropertyOp49
 70
     1
102
RTVSPropertyOp50
 70
     0
102
RTVSPropertyOp51
 70
     0
102
RTVSPropertyOp52
 70
     0
102
RTVSPropertyOp53
 70
     0
102
RTVSPropertyOp54
 70
     0
102
RTVSPropertyOp55
 70
     1
102
RTVSPropertyOp56
 70
     0
102
RTVSPropertyOp57
 70
     0
102
RTVSPropertyOp58
 70
     0
102
RTVSPropertyOp59
 70
     0
102
RTVSPropertyOp60
 70
     0
102
RTVSPropertyOp61
 70
     0
102
RTVSPropertyOp62
 70
     0
  0
XRECORD
  5
BF74
102
{ACAD_REACTORS
330
BF73
102
}
330
BF73
100
AcDbXrecord
280
     1
102
RTVSPost2010Prop28
280
     0
102
RTVSPost2010PropOp28
 70
     1
102
RTVSPost2010Prop29
280
     1
102
RTVSPost2010PropOp29
 70
     1
102
RTVSPost2010Prop30
280
     1
102
RTVSPost2010PropOp30
 70
     1
102
RTVSPost2010Prop31
280
     0
102
RTVSPost2010PropOp31
 70
     1
102
RTVSPost2010Prop32
280
     0
102
RTVSPost2010PropOp32
 70
     1
102
RTVSPost2010Prop33
280
     0
102
RTVSPost2010PropOp33
 70
     1
102
RTVSPost2010Prop34
280
     0
102
RTVSPost2010PropOp34
 70
     1
102
RTVSPost2010Prop35
280
     0
102
RTVSPost2010PropOp35
 70
     1
102
RTVSPost2010Prop36
280
     0
102
RTVSPost2010PropOp36
 70
     1
102
RTVSPost2010Prop37
 90
       50
102
RTVSPost2010PropOp37
 70
     1
102
RTVSPost2010Prop38
140
0.0
102
RTVSPost2010PropOp38
 70
     1
102
RTVSPost2010Prop39
140
1.0
102
RTVSPost2010PropOp39
 70
     1
102
RTVSPost2010Prop40
 90
        0
102
RTVSPost2010PropOp40
 70
     1
102
RTVSPost2010Prop41ColorIndex
 90
       18
102
RTVSPost2010Prop41ColorRGB
 90
        0
102
RTVSPost2010PropOp41
 70
     1
102
RTVSPost2010Prop42
 90
       50
102
RTVSPost2010PropOp42
 70
     1
102
RTVSPost2010Prop43
 90
        3
102
RTVSPost2010PropOp43
 70
     1
102
RTVSPost2010Prop44ColorIndex
 90
        5
102
RTVSPost2010Prop44ColorRGB
 90
      255
102
RTVSPost2010PropOp44
 70
     1
102
RTVSPost2010Prop45
280
     0
102
RTVSPost2010PropOp45
 70
     1
102
RTVSPost2010Prop46
 90
       50
102
RTVSPost2010PropOp46
 70
     1
102
RTVSPost2010Prop47
 90
       50
102
RTVSPost2010PropOp47
 70
     1
102
RTVSPost2010Prop48
 90
       50
102
RTVSPost2010PropOp48
 70
     1
102
RTVSPost2010Prop49
280
     0
102
RTVSPost2010PropOp49
 70
     1
102
RTVSPost2010Prop50
 90
       50
102
RTVSPost2010PropOp50
 70
     1
102
RTVSPost2010Prop51ColorIndex
 90
      256
102
RTVSPost2010Prop51ColorRGB
 90
-16777216
102
RTVSPost2010PropOp51
 70
     0
102
RTVSPost2010Prop52
140
1.0
102
RTVSPost2010PropOp52
 70
     0
102
RTVSPost2010Prop53
 90
        2
102
RTVSPost2010PropOp53
 70
     1
102
RTVSPost2010Prop54
  1
strokes_ogs.tif
102
RTVSPost2010PropOp54
 70
     1
102
RTVSPost2010Prop55
280
     0
102
RTVSPost2010PropOp55
 70
     1
102
RTVSPost2010Prop56
140
1.0
102
RTVSPost2010PropOp56
 70
     1
102
RTVSPost2010Prop57
140
1.0
102
RTVSPost2010PropOp57
 70
     1
102
RTVSPropertyOp0
 70
     1
102
RTVSPropertyOp1
 70
     1
102
RTVSPropertyOp2
 70
     1
102
RTVSPropertyOp3
 70
     1
102
RTVSPropertyOp4
 70
     1
102
RTVSPropertyOp5
 70
     1
102
RTVSPropertyOp6
 70
     1
102
RTVSPropertyOp7
 70
     1
102
RTVSPropertyOp8
 70
     1
102
RTVSPropertyOp9
 70
     1
102
RTVSPropertyOp10
 70
     1
102
RTVSPropertyOp11
 70
     1
102
RTVSPropertyOp12
 70
     1
102
RTVSPropertyOp13
 70
     1
102
RTVSPropertyOp14
 70
     1
102
RTVSPropertyOp15
 70
     1
102
RTVSPropertyOp16
 70
     1
102
RTVSPropertyOp17
 70
     1
102
RTVSPropertyOp18
 70
     1
102
RTVSPropertyOp19
 70
     1
102
RTVSPropertyOp20
 70
     1
102
RTVSPropertyOp21
 70
     1
102
RTVSPropertyOp22
 70
     1
102
RTVSPropertyOp23
 70
     1
102
RTVSPropertyOp24
 70
     1
102
RTVSPropertyOp25
 70
     1
102
RTVSPropertyOp26
 70
     1
102
RTVSPropertyOp27
 70
     1
102
RTVSPropertyOp28
 70
     1
102
RTVSPropertyOp29
 70
     1
102
RTVSPropertyOp30
 70
     1
102
RTVSPropertyOp31
 70
     1
102
RTVSPropertyOp32
 70
     1
102
RTVSPropertyOp33
 70
     1
102
RTVSPropertyOp34
 70
     1
102
RTVSPropertyOp35
 70
     1
102
RTVSPropertyOp36
 70
     1
102
RTVSPropertyOp37
 70
     1
102
RTVSPropertyOp38
 70
     1
102
RTVSPropertyOp39
 70
     1
102
RTVSPropertyOp40
 70
     1
102
RTVSPropertyOp41
 70
     1
102
RTVSPropertyOp42
 70
     1
102
RTVSPropertyOp43
 70
     1
102
RTVSPropertyOp44
 70
     1
102
RTVSPropertyOp45
 70
     1
102
RTVSPropertyOp46
 70
     1
102
RTVSPropertyOp47
 70
     1
102
RTVSPropertyOp48
 70
     1
102
RTVSPropertyOp49
 70
     1
102
RTVSPropertyOp50
 70
     1
102
RTVSPropertyOp51
 70
     0
102
RTVSPropertyOp52
 70
     0
102
RTVSPropertyOp53
 70
     1
102
RTVSPropertyOp54
 70
     1
102
RTVSPropertyOp55
 70
     1
102
RTVSPropertyOp56
 70
     1
102
RTVSPropertyOp57
 70
     1
102
RTVSPropertyOp58
 70
     1
102
RTVSPropertyOp59
 70
     1
102
RTVSPropertyOp60
 70
     1
102
RTVSPropertyOp61
 70
     1
102
RTVSPropertyOp62
 70
     1
  0
XRECORD
  5
BF8A
102
{ACAD_REACTORS
330
BF89
102
}
330
BF89
100
AcDbXrecord
280
     1
102
RTVSPost2010Prop28
280
     0
102
RTVSPost2010PropOp28
 70
     1
102
RTVSPost2010Prop29
280
     1
102
RTVSPost2010PropOp29
 70
     1
102
RTVSPost2010Prop30
280
     1
102
RTVSPost2010PropOp30
 70
     1
102
RTVSPost2010Prop31
280
     0
102
RTVSPost2010PropOp31
 70
     1
102
RTVSPost2010Prop32
280
     0
102
RTVSPost2010PropOp32
 70
     1
102
RTVSPost2010Prop33
280
     0
102
RTVSPost2010PropOp33
 70
     1
102
RTVSPost2010Prop34
280
     0
102
RTVSPost2010PropOp34
 70
     1
102
RTVSPost2010Prop35
280
     0
102
RTVSPost2010PropOp35
 70
     1
102
RTVSPost2010Prop36
280
     0
102
RTVSPost2010PropOp36
 70
     1
102
RTVSPost2010Prop37
 90
       50
102
RTVSPost2010PropOp37
 70
     1
102
RTVSPost2010Prop38
140
0.0
102
RTVSPost2010PropOp38
 70
     1
102
RTVSPost2010Prop39
140
1.0
102
RTVSPost2010PropOp39
 70
     1
102
RTVSPost2010Prop40
 90
        0
102
RTVSPost2010PropOp40
 70
     1
102
RTVSPost2010Prop41ColorIndex
 90
       18
102
RTVSPost2010Prop41ColorRGB
 90
        0
102
RTVSPost2010PropOp41
 70
     1
102
RTVSPost2010Prop42
 90
       50
102
RTVSPost2010PropOp42
 70
     1
102
RTVSPost2010Prop43
 90
        3
102
RTVSPost2010PropOp43
 70
     1
102
RTVSPost2010Prop44ColorIndex
 90
        5
102
RTVSPost2010Prop44ColorRGB
 90
      255
102
RTVSPost2010PropOp44
 70
     1
102
RTVSPost2010Prop45
280
     0
102
RTVSPost2010PropOp45
 70
     1
102
RTVSPost2010Prop46
 90
       50
102
RTVSPost2010PropOp46
 70
     1
102
RTVSPost2010Prop47
 90
       50
102
RTVSPost2010PropOp47
 70
     1
102
RTVSPost2010Prop48
 90
       50
102
RTVSPost2010PropOp48
 70
     1
102
RTVSPost2010Prop49
280
     0
102
RTVSPost2010PropOp49
 70
     1
102
RTVSPost2010Prop50
 90
       50
102
RTVSPost2010PropOp50
 70
     1
102
RTVSPost2010Prop51ColorIndex
 90
      256
102
RTVSPost2010Prop51ColorRGB
 90
-16777216
102
RTVSPost2010PropOp51
 70
     0
102
RTVSPost2010Prop52
140
1.0
102
RTVSPost2010PropOp52
 70
     0
102
RTVSPost2010Prop53
 90
        2
102
RTVSPost2010PropOp53
 70
     1
102
RTVSPost2010Prop54
  1
strokes_ogs.tif
102
RTVSPost2010PropOp54
 70
     1
102
RTVSPost2010Prop55
280
     0
102
RTVSPost2010PropOp55
 70
     1
102
RTVSPost2010Prop56
140
1.0
102
RTVSPost2010PropOp56
 70
     1
102
RTVSPost2010Prop57
140
1.0
102
RTVSPost2010PropOp57
 70
     1
102
RTVSPropertyOp0
 70
     1
102
RTVSPropertyOp1
 70
     1
102
RTVSPropertyOp2
 70
     1
102
RTVSPropertyOp3
 70
     1
102
RTVSPropertyOp4
 70
     1
102
RTVSPropertyOp5
 70
     1
102
RTVSPropertyOp6
 70
     1
102
RTVSPropertyOp7
 70
     1
102
RTVSPropertyOp8
 70
     1
102
RTVSPropertyOp9
 70
     1
102
RTVSPropertyOp10
 70
     1
102
RTVSPropertyOp11
 70
     1
102
RTVSPropertyOp12
 70
     1
102
RTVSPropertyOp13
 70
     1
102
RTVSPropertyOp14
 70
     1
102
RTVSPropertyOp15
 70
     1
102
RTVSPropertyOp16
 70
     1
102
RTVSPropertyOp17
 70
     1
102
RTVSPropertyOp18
 70
     1
102
RTVSPropertyOp19
 70
     1
102
RTVSPropertyOp20
 70
     1
102
RTVSPropertyOp21
 70
     1
102
RTVSPropertyOp22
 70
     1
102
RTVSPropertyOp23
 70
     1
102
RTVSPropertyOp24
 70
     1
102
RTVSPropertyOp25
 70
     1
102
RTVSPropertyOp26
 70
     1
102
RTVSPropertyOp27
 70
     1
102
RTVSPropertyOp28
 70
     1
102
RTVSPropertyOp29
 70
     1
102
RTVSPropertyOp30
 70
     1
102
RTVSPropertyOp31
 70
     1
102
RTVSPropertyOp32
 70
     1
102
RTVSPropertyOp33
 70
     1
102
RTVSPropertyOp34
 70
     1
102
RTVSPropertyOp35
 70
     1
102
RTVSPropertyOp36
 70
     1
102
RTVSPropertyOp37
 70
     1
102
RTVSPropertyOp38
 70
     1
102
RTVSPropertyOp39
 70
     1
102
RTVSPropertyOp40
 70
     1
102
RTVSPropertyOp41
 70
     1
102
RTVSPropertyOp42
 70
     1
102
RTVSPropertyOp43
 70
     1
102
RTVSPropertyOp44
 70
     1
102
RTVSPropertyOp45
 70
     1
102
RTVSPropertyOp46
 70
     1
102
RTVSPropertyOp47
 70
     1
102
RTVSPropertyOp48
 70
     1
102
RTVSPropertyOp49
 70
     1
102
RTVSPropertyOp50
 70
     1
102
RTVSPropertyOp51
 70
     0
102
RTVSPropertyOp52
 70
     0
102
RTVSPropertyOp53
 70
     1
102
RTVSPropertyOp54
 70
     1
102
RTVSPropertyOp55
 70
     1
102
RTVSPropertyOp56
 70
     1
102
RTVSPropertyOp57
 70
     1
102
RTVSPropertyOp58
 70
     1
102
RTVSPropertyOp59
 70
     1
102
RTVSPropertyOp60
 70
     1
102
RTVSPropertyOp61
 70
     1
102
RTVSPropertyOp62
 70
     1
  0
XRECORD
  5
BF88
102
{ACAD_REACTORS
330
BF87
102
}
330
BF87
100
AcDbXrecord
280
     1
102
RTVSPost2010Prop28
280
     0
102
RTVSPost2010PropOp28
 70
     1
102
RTVSPost2010Prop29
280
     1
102
RTVSPost2010PropOp29
 70
     1
102
RTVSPost2010Prop30
280
     1
102
RTVSPost2010PropOp30
 70
     1
102
RTVSPost2010Prop31
280
     0
102
RTVSPost2010PropOp31
 70
     1
102
RTVSPost2010Prop32
280
     0
102
RTVSPost2010PropOp32
 70
     1
102
RTVSPost2010Prop33
280
     0
102
RTVSPost2010PropOp33
 70
     1
102
RTVSPost2010Prop34
280
     0
102
RTVSPost2010PropOp34
 70
     1
102
RTVSPost2010Prop35
280
     0
102
RTVSPost2010PropOp35
 70
     1
102
RTVSPost2010Prop36
280
     0
102
RTVSPost2010PropOp36
 70
     1
102
RTVSPost2010Prop37
 90
       50
102
RTVSPost2010PropOp37
 70
     1
102
RTVSPost2010Prop38
140
0.0
102
RTVSPost2010PropOp38
 70
     1
102
RTVSPost2010Prop39
140
1.0
102
RTVSPost2010PropOp39
 70
     1
102
RTVSPost2010Prop40
 90
        0
102
RTVSPost2010PropOp40
 70
     1
102
RTVSPost2010Prop41ColorIndex
 90
       18
102
RTVSPost2010Prop41ColorRGB
 90
        0
102
RTVSPost2010PropOp41
 70
     1
102
RTVSPost2010Prop42
 90
       50
102
RTVSPost2010PropOp42
 70
     1
102
RTVSPost2010Prop43
 90
        3
102
RTVSPost2010PropOp43
 70
     1
102
RTVSPost2010Prop44ColorIndex
 90
        5
102
RTVSPost2010Prop44ColorRGB
 90
      255
102
RTVSPost2010PropOp44
 70
     1
102
RTVSPost2010Prop45
280
     0
102
RTVSPost2010PropOp45
 70
     1
102
RTVSPost2010Prop46
 90
       50
102
RTVSPost2010PropOp46
 70
     1
102
RTVSPost2010Prop47
 90
       50
102
RTVSPost2010PropOp47
 70
     1
102
RTVSPost2010Prop48
 90
       50
102
RTVSPost2010PropOp48
 70
     1
102
RTVSPost2010Prop49
280
     0
102
RTVSPost2010PropOp49
 70
     1
102
RTVSPost2010Prop50
 90
       50
102
RTVSPost2010PropOp50
 70
     1
102
RTVSPost2010Prop51ColorIndex
 90
      256
102
RTVSPost2010Prop51ColorRGB
 90
-16777216
102
RTVSPost2010PropOp51
 70
     0
102
RTVSPost2010Prop52
140
1.0
102
RTVSPost2010PropOp52
 70
     0
102
RTVSPost2010Prop53
 90
        2
102
RTVSPost2010PropOp53
 70
     1
102
RTVSPost2010Prop54
  1
strokes_ogs.tif
102
RTVSPost2010PropOp54
 70
     1
102
RTVSPost2010Prop55
280
     0
102
RTVSPost2010PropOp55
 70
     1
102
RTVSPost2010Prop56
140
1.0
102
RTVSPost2010PropOp56
 70
     1
102
RTVSPost2010Prop57
140
1.0
102
RTVSPost2010PropOp57
 70
     1
102
RTVSPropertyOp0
 70
     1
102
RTVSPropertyOp1
 70
     1
102
RTVSPropertyOp2
 70
     1
102
RTVSPropertyOp3
 70
     1
102
RTVSPropertyOp4
 70
     1
102
RTVSPropertyOp5
 70
     1
102
RTVSPropertyOp6
 70
     1
102
RTVSPropertyOp7
 70
     1
102
RTVSPropertyOp8
 70
     1
102
RTVSPropertyOp9
 70
     1
102
RTVSPropertyOp10
 70
     1
102
RTVSPropertyOp11
 70
     1
102
RTVSPropertyOp12
 70
     1
102
RTVSPropertyOp13
 70
     1
102
RTVSPropertyOp14
 70
     1
102
RTVSPropertyOp15
 70
     1
102
RTVSPropertyOp16
 70
     1
102
RTVSPropertyOp17
 70
     1
102
RTVSPropertyOp18
 70
     1
102
RTVSPropertyOp19
 70
     1
102
RTVSPropertyOp20
 70
     1
102
RTVSPropertyOp21
 70
     1
102
RTVSPropertyOp22
 70
     1
102
RTVSPropertyOp23
 70
     1
102
RTVSPropertyOp24
 70
     1
102
RTVSPropertyOp25
 70
     1
102
RTVSPropertyOp26
 70
     1
102
RTVSPropertyOp27
 70
     1
102
RTVSPropertyOp28
 70
     1
102
RTVSPropertyOp29
 70
     1
102
RTVSPropertyOp30
 70
     1
102
RTVSPropertyOp31
 70
     1
102
RTVSPropertyOp32
 70
     1
102
RTVSPropertyOp33
 70
     1
102
RTVSPropertyOp34
 70
     1
102
RTVSPropertyOp35
 70
     1
102
RTVSPropertyOp36
 70
     1
102
RTVSPropertyOp37
 70
     1
102
RTVSPropertyOp38
 70
     1
102
RTVSPropertyOp39
 70
     1
102
RTVSPropertyOp40
 70
     1
102
RTVSPropertyOp41
 70
     1
102
RTVSPropertyOp42
 70
     1
102
RTVSPropertyOp43
 70
     1
102
RTVSPropertyOp44
 70
     1
102
RTVSPropertyOp45
 70
     1
102
RTVSPropertyOp46
 70
     1
102
RTVSPropertyOp47
 70
     1
102
RTVSPropertyOp48
 70
     1
102
RTVSPropertyOp49
 70
     1
102
RTVSPropertyOp50
 70
     1
102
RTVSPropertyOp51
 70
     0
102
RTVSPropertyOp52
 70
     0
102
RTVSPropertyOp53
 70
     1
102
RTVSPropertyOp54
 70
     1
102
RTVSPropertyOp55
 70
     1
102
RTVSPropertyOp56
 70
     1
102
RTVSPropertyOp57
 70
     1
102
RTVSPropertyOp58
 70
     1
102
RTVSPropertyOp59
 70
     1
102
RTVSPropertyOp60
 70
     1
102
RTVSPropertyOp61
 70
     1
102
RTVSPropertyOp62
 70
     1
  0
XRECORD
  5
BF82
102
{ACAD_REACTORS
330
BF81
102
}
330
BF81
100
AcDbXrecord
280
     1
102
RTVSPost2010Prop28
280
     0
102
RTVSPost2010PropOp28
 70
     1
102
RTVSPost2010Prop29
280
     1
102
RTVSPost2010PropOp29
 70
     1
102
RTVSPost2010Prop30
280
     1
102
RTVSPost2010PropOp30
 70
     1
102
RTVSPost2010Prop31
280
     0
102
RTVSPost2010PropOp31
 70
     1
102
RTVSPost2010Prop32
280
     0
102
RTVSPost2010PropOp32
 70
     1
102
RTVSPost2010Prop33
280
     0
102
RTVSPost2010PropOp33
 70
     1
102
RTVSPost2010Prop34
280
     0
102
RTVSPost2010PropOp34
 70
     1
102
RTVSPost2010Prop35
280
     0
102
RTVSPost2010PropOp35
 70
     1
102
RTVSPost2010Prop36
280
     0
102
RTVSPost2010PropOp36
 70
     1
102
RTVSPost2010Prop37
 90
       50
102
RTVSPost2010PropOp37
 70
     1
102
RTVSPost2010Prop38
140
0.0
102
RTVSPost2010PropOp38
 70
     1
102
RTVSPost2010Prop39
140
1.0
102
RTVSPost2010PropOp39
 70
     1
102
RTVSPost2010Prop40
 90
        0
102
RTVSPost2010PropOp40
 70
     1
102
RTVSPost2010Prop41ColorIndex
 90
       18
102
RTVSPost2010Prop41ColorRGB
 90
        0
102
RTVSPost2010PropOp41
 70
     1
102
RTVSPost2010Prop42
 90
       50
102
RTVSPost2010PropOp42
 70
     1
102
RTVSPost2010Prop43
 90
        3
102
RTVSPost2010PropOp43
 70
     1
102
RTVSPost2010Prop44ColorIndex
 90
        5
102
RTVSPost2010Prop44ColorRGB
 90
      255
102
RTVSPost2010PropOp44
 70
     1
102
RTVSPost2010Prop45
280
     0
102
RTVSPost2010PropOp45
 70
     1
102
RTVSPost2010Prop46
 90
       50
102
RTVSPost2010PropOp46
 70
     1
102
RTVSPost2010Prop47
 90
       50
102
RTVSPost2010PropOp47
 70
     1
102
RTVSPost2010Prop48
 90
       50
102
RTVSPost2010PropOp48
 70
     1
102
RTVSPost2010Prop49
280
     0
102
RTVSPost2010PropOp49
 70
     1
102
RTVSPost2010Prop50
 90
       50
102
RTVSPost2010PropOp50
 70
     1
102
RTVSPost2010Prop51ColorIndex
 90
      256
102
RTVSPost2010Prop51ColorRGB
 90
-16777216
102
RTVSPost2010PropOp51
 70
     0
102
RTVSPost2010Prop52
140
1.0
102
RTVSPost2010PropOp52
 70
     0
102
RTVSPost2010Prop53
 90
        2
102
RTVSPost2010PropOp53
 70
     1
102
RTVSPost2010Prop54
  1
strokes_ogs.tif
102
RTVSPost2010PropOp54
 70
     1
102
RTVSPost2010Prop55
280
     0
102
RTVSPost2010PropOp55
 70
     1
102
RTVSPost2010Prop56
140
1.0
102
RTVSPost2010PropOp56
 70
     1
102
RTVSPost2010Prop57
140
1.0
102
RTVSPost2010PropOp57
 70
     1
102
RTVSPropertyOp0
 70
     1
102
RTVSPropertyOp1
 70
     1
102
RTVSPropertyOp2
 70
     1
102
RTVSPropertyOp3
 70
     1
102
RTVSPropertyOp4
 70
     1
102
RTVSPropertyOp5
 70
     1
102
RTVSPropertyOp6
 70
     1
102
RTVSPropertyOp7
 70
     1
102
RTVSPropertyOp8
 70
     1
102
RTVSPropertyOp9
 70
     1
102
RTVSPropertyOp10
 70
     1
102
RTVSPropertyOp11
 70
     1
102
RTVSPropertyOp12
 70
     1
102
RTVSPropertyOp13
 70
     1
102
RTVSPropertyOp14
 70
     1
102
RTVSPropertyOp15
 70
     1
102
RTVSPropertyOp16
 70
     1
102
RTVSPropertyOp17
 70
     1
102
RTVSPropertyOp18
 70
     1
102
RTVSPropertyOp19
 70
     1
102
RTVSPropertyOp20
 70
     1
102
RTVSPropertyOp21
 70
     1
102
RTVSPropertyOp22
 70
     1
102
RTVSPropertyOp23
 70
     1
102
RTVSPropertyOp24
 70
     1
102
RTVSPropertyOp25
 70
     1
102
RTVSPropertyOp26
 70
     1
102
RTVSPropertyOp27
 70
     1
102
RTVSPropertyOp28
 70
     1
102
RTVSPropertyOp29
 70
     1
102
RTVSPropertyOp30
 70
     1
102
RTVSPropertyOp31
 70
     1
102
RTVSPropertyOp32
 70
     1
102
RTVSPropertyOp33
 70
     1
102
RTVSPropertyOp34
 70
     1
102
RTVSPropertyOp35
 70
     1
102
RTVSPropertyOp36
 70
     1
102
RTVSPropertyOp37
 70
     1
102
RTVSPropertyOp38
 70
     1
102
RTVSPropertyOp39
 70
     1
102
RTVSPropertyOp40
 70
     1
102
RTVSPropertyOp41
 70
     1
102
RTVSPropertyOp42
 70
     1
102
RTVSPropertyOp43
 70
     1
102
RTVSPropertyOp44
 70
     1
102
RTVSPropertyOp45
 70
     1
102
RTVSPropertyOp46
 70
     1
102
RTVSPropertyOp47
 70
     1
102
RTVSPropertyOp48
 70
     1
102
RTVSPropertyOp49
 70
     1
102
RTVSPropertyOp50
 70
     1
102
RTVSPropertyOp51
 70
     0
102
RTVSPropertyOp52
 70
     0
102
RTVSPropertyOp53
 70
     1
102
RTVSPropertyOp54
 70
     1
102
RTVSPropertyOp55
 70
     1
102
RTVSPropertyOp56
 70
     1
102
RTVSPropertyOp57
 70
     1
102
RTVSPropertyOp58
 70
     1
102
RTVSPropertyOp59
 70
     1
102
RTVSPropertyOp60
 70
     1
102
RTVSPropertyOp61
 70
     1
102
RTVSPropertyOp62
 70
     1
  0
XRECORD
  5
BF84
102
{ACAD_REACTORS
330
BF83
102
}
330
BF83
100
AcDbXrecord
280
     1
102
RTVSPost2010Prop28
280
     0
102
RTVSPost2010PropOp28
 70
     1
102
RTVSPost2010Prop29
280
     1
102
RTVSPost2010PropOp29
 70
     1
102
RTVSPost2010Prop30
280
     1
102
RTVSPost2010PropOp30
 70
     1
102
RTVSPost2010Prop31
280
     0
102
RTVSPost2010PropOp31
 70
     1
102
RTVSPost2010Prop32
280
     0
102
RTVSPost2010PropOp32
 70
     1
102
RTVSPost2010Prop33
280
     0
102
RTVSPost2010PropOp33
 70
     1
102
RTVSPost2010Prop34
280
     0
102
RTVSPost2010PropOp34
 70
     1
102
RTVSPost2010Prop35
280
     0
102
RTVSPost2010PropOp35
 70
     1
102
RTVSPost2010Prop36
280
     0
102
RTVSPost2010PropOp36
 70
     1
102
RTVSPost2010Prop37
 90
       50
102
RTVSPost2010PropOp37
 70
     1
102
RTVSPost2010Prop38
140
0.0
102
RTVSPost2010PropOp38
 70
     1
102
RTVSPost2010Prop39
140
1.0
102
RTVSPost2010PropOp39
 70
     1
102
RTVSPost2010Prop40
 90
        0
102
RTVSPost2010PropOp40
 70
     1
102
RTVSPost2010Prop41ColorIndex
 90
       18
102
RTVSPost2010Prop41ColorRGB
 90
        0
102
RTVSPost2010PropOp41
 70
     1
102
RTVSPost2010Prop42
 90
       50
102
RTVSPost2010PropOp42
 70
     1
102
RTVSPost2010Prop43
 90
        3
102
RTVSPost2010PropOp43
 70
     1
102
RTVSPost2010Prop44ColorIndex
 90
        5
102
RTVSPost2010Prop44ColorRGB
 90
      255
102
RTVSPost2010PropOp44
 70
     1
102
RTVSPost2010Prop45
280
     0
102
RTVSPost2010PropOp45
 70
     1
102
RTVSPost2010Prop46
 90
       50
102
RTVSPost2010PropOp46
 70
     1
102
RTVSPost2010Prop47
 90
       50
102
RTVSPost2010PropOp47
 70
     1
102
RTVSPost2010Prop48
 90
       50
102
RTVSPost2010PropOp48
 70
     1
102
RTVSPost2010Prop49
280
     0
102
RTVSPost2010PropOp49
 70
     1
102
RTVSPost2010Prop50
 90
       50
102
RTVSPost2010PropOp50
 70
     1
102
RTVSPost2010Prop51ColorIndex
 90
      256
102
RTVSPost2010Prop51ColorRGB
 90
-16777216
102
RTVSPost2010PropOp51
 70
     0
102
RTVSPost2010Prop52
140
1.0
102
RTVSPost2010PropOp52
 70
     0
102
RTVSPost2010Prop53
 90
        2
102
RTVSPost2010PropOp53
 70
     1
102
RTVSPost2010Prop54
  1
strokes_ogs.tif
102
RTVSPost2010PropOp54
 70
     1
102
RTVSPost2010Prop55
280
     0
102
RTVSPost2010PropOp55
 70
     1
102
RTVSPost2010Prop56
140
1.0
102
RTVSPost2010PropOp56
 70
     1
102
RTVSPost2010Prop57
140
1.0
102
RTVSPost2010PropOp57
 70
     1
102
RTVSPropertyOp0
 70
     1
102
RTVSPropertyOp1
 70
     1
102
RTVSPropertyOp2
 70
     1
102
RTVSPropertyOp3
 70
     1
102
RTVSPropertyOp4
 70
     1
102
RTVSPropertyOp5
 70
     1
102
RTVSPropertyOp6
 70
     1
102
RTVSPropertyOp7
 70
     1
102
RTVSPropertyOp8
 70
     1
102
RTVSPropertyOp9
 70
     1
102
RTVSPropertyOp10
 70
     1
102
RTVSPropertyOp11
 70
     1
102
RTVSPropertyOp12
 70
     1
102
RTVSPropertyOp13
 70
     1
102
RTVSPropertyOp14
 70
     1
102
RTVSPropertyOp15
 70
     1
102
RTVSPropertyOp16
 70
     1
102
RTVSPropertyOp17
 70
     1
102
RTVSPropertyOp18
 70
     1
102
RTVSPropertyOp19
 70
     1
102
RTVSPropertyOp20
 70
     1
102
RTVSPropertyOp21
 70
     1
102
RTVSPropertyOp22
 70
     1
102
RTVSPropertyOp23
 70
     1
102
RTVSPropertyOp24
 70
     1
102
RTVSPropertyOp25
 70
     1
102
RTVSPropertyOp26
 70
     1
102
RTVSPropertyOp27
 70
     1
102
RTVSPropertyOp28
 70
     1
102
RTVSPropertyOp29
 70
     1
102
RTVSPropertyOp30
 70
     1
102
RTVSPropertyOp31
 70
     1
102
RTVSPropertyOp32
 70
     1
102
RTVSPropertyOp33
 70
     1
102
RTVSPropertyOp34
 70
     1
102
RTVSPropertyOp35
 70
     1
102
RTVSPropertyOp36
 70
     1
102
RTVSPropertyOp37
 70
     1
102
RTVSPropertyOp38
 70
     1
102
RTVSPropertyOp39
 70
     1
102
RTVSPropertyOp40
 70
     1
102
RTVSPropertyOp41
 70
     1
102
RTVSPropertyOp42
 70
     1
102
RTVSPropertyOp43
 70
     1
102
RTVSPropertyOp44
 70
     1
102
RTVSPropertyOp45
 70
     1
102
RTVSPropertyOp46
 70
     1
102
RTVSPropertyOp47
 70
     1
102
RTVSPropertyOp48
 70
     1
102
RTVSPropertyOp49
 70
     1
102
RTVSPropertyOp50
 70
     1
102
RTVSPropertyOp51
 70
     0
102
RTVSPropertyOp52
 70
     0
102
RTVSPropertyOp53
 70
     1
102
RTVSPropertyOp54
 70
     1
102
RTVSPropertyOp55
 70
     1
102
RTVSPropertyOp56
 70
     1
102
RTVSPropertyOp57
 70
     1
102
RTVSPropertyOp58
 70
     1
102
RTVSPropertyOp59
 70
     1
102
RTVSPropertyOp60
 70
     1
102
RTVSPropertyOp61
 70
     1
102
RTVSPropertyOp62
 70
     1
  0
XRECORD
  5
BF7A
102
{ACAD_REACTORS
330
BF79
102
}
330
BF79
100
AcDbXrecord
280
     1
102
RTVSPost2010Prop28
280
     0
102
RTVSPost2010PropOp28
 70
     1
102
RTVSPost2010Prop29
280
     1
102
RTVSPost2010PropOp29
 70
     1
102
RTVSPost2010Prop30
280
     1
102
RTVSPost2010PropOp30
 70
     1
102
RTVSPost2010Prop31
280
     0
102
RTVSPost2010PropOp31
 70
     1
102
RTVSPost2010Prop32
280
     0
102
RTVSPost2010PropOp32
 70
     1
102
RTVSPost2010Prop33
280
     0
102
RTVSPost2010PropOp33
 70
     1
102
RTVSPost2010Prop34
280
     0
102
RTVSPost2010PropOp34
 70
     1
102
RTVSPost2010Prop35
280
     0
102
RTVSPost2010PropOp35
 70
     1
102
RTVSPost2010Prop36
280
     0
102
RTVSPost2010PropOp36
 70
     1
102
RTVSPost2010Prop37
 90
       50
102
RTVSPost2010PropOp37
 70
     1
102
RTVSPost2010Prop38
140
0.0
102
RTVSPost2010PropOp38
 70
     1
102
RTVSPost2010Prop39
140
1.0
102
RTVSPost2010PropOp39
 70
     1
102
RTVSPost2010Prop40
 90
        0
102
RTVSPost2010PropOp40
 70
     1
102
RTVSPost2010Prop41ColorIndex
 90
       18
102
RTVSPost2010Prop41ColorRGB
 90
        0
102
RTVSPost2010PropOp41
 70
     1
102
RTVSPost2010Prop42
 90
       50
102
RTVSPost2010PropOp42
 70
     1
102
RTVSPost2010Prop43
 90
        3
102
RTVSPost2010PropOp43
 70
     1
102
RTVSPost2010Prop44ColorIndex
 90
        5
102
RTVSPost2010Prop44ColorRGB
 90
      255
102
RTVSPost2010PropOp44
 70
     1
102
RTVSPost2010Prop45
280
     0
102
RTVSPost2010PropOp45
 70
     1
102
RTVSPost2010Prop46
 90
       50
102
RTVSPost2010PropOp46
 70
     1
102
RTVSPost2010Prop47
 90
       50
102
RTVSPost2010PropOp47
 70
     1
102
RTVSPost2010Prop48
 90
       50
102
RTVSPost2010PropOp48
 70
     1
102
RTVSPost2010Prop49
280
     0
102
RTVSPost2010PropOp49
 70
     1
102
RTVSPost2010Prop50
 90
       50
102
RTVSPost2010PropOp50
 70
     1
102
RTVSPost2010Prop51ColorIndex
 90
      256
102
RTVSPost2010Prop51ColorRGB
 90
-16777216
102
RTVSPost2010PropOp51
 70
     0
102
RTVSPost2010Prop52
140
1.0
102
RTVSPost2010PropOp52
 70
     0
102
RTVSPost2010Prop53
 90
        2
102
RTVSPost2010PropOp53
 70
     1
102
RTVSPost2010Prop54
  1
strokes_ogs.tif
102
RTVSPost2010PropOp54
 70
     1
102
RTVSPost2010Prop55
280
     0
102
RTVSPost2010PropOp55
 70
     1
102
RTVSPost2010Prop56
140
1.0
102
RTVSPost2010PropOp56
 70
     1
102
RTVSPost2010Prop57
140
1.0
102
RTVSPost2010PropOp57
 70
     1
102
RTVSPropertyOp0
 70
     1
102
RTVSPropertyOp1
 70
     1
102
RTVSPropertyOp2
 70
     1
102
RTVSPropertyOp3
 70
     1
102
RTVSPropertyOp4
 70
     1
102
RTVSPropertyOp5
 70
     1
102
RTVSPropertyOp6
 70
     1
102
RTVSPropertyOp7
 70
     1
102
RTVSPropertyOp8
 70
     1
102
RTVSPropertyOp9
 70
     1
102
RTVSPropertyOp10
 70
     1
102
RTVSPropertyOp11
 70
     1
102
RTVSPropertyOp12
 70
     1
102
RTVSPropertyOp13
 70
     1
102
RTVSPropertyOp14
 70
     1
102
RTVSPropertyOp15
 70
     1
102
RTVSPropertyOp16
 70
     1
102
RTVSPropertyOp17
 70
     1
102
RTVSPropertyOp18
 70
     1
102
RTVSPropertyOp19
 70
     1
102
RTVSPropertyOp20
 70
     1
102
RTVSPropertyOp21
 70
     1
102
RTVSPropertyOp22
 70
     1
102
RTVSPropertyOp23
 70
     1
102
RTVSPropertyOp24
 70
     1
102
RTVSPropertyOp25
 70
     1
102
RTVSPropertyOp26
 70
     1
102
RTVSPropertyOp27
 70
     1
102
RTVSPropertyOp28
 70
     1
102
RTVSPropertyOp29
 70
     1
102
RTVSPropertyOp30
 70
     1
102
RTVSPropertyOp31
 70
     1
102
RTVSPropertyOp32
 70
     1
102
RTVSPropertyOp33
 70
     1
102
RTVSPropertyOp34
 70
     1
102
RTVSPropertyOp35
 70
     1
102
RTVSPropertyOp36
 70
     1
102
RTVSPropertyOp37
 70
     1
102
RTVSPropertyOp38
 70
     1
102
RTVSPropertyOp39
 70
     1
102
RTVSPropertyOp40
 70
     1
102
RTVSPropertyOp41
 70
     1
102
RTVSPropertyOp42
 70
     1
102
RTVSPropertyOp43
 70
     1
102
RTVSPropertyOp44
 70
     1
102
RTVSPropertyOp45
 70
     1
102
RTVSPropertyOp46
 70
     1
102
RTVSPropertyOp47
 70
     1
102
RTVSPropertyOp48
 70
     1
102
RTVSPropertyOp49
 70
     1
102
RTVSPropertyOp50
 70
     1
102
RTVSPropertyOp51
 70
     0
102
RTVSPropertyOp52
 70
     0
102
RTVSPropertyOp53
 70
     1
102
RTVSPropertyOp54
 70
     1
102
RTVSPropertyOp55
 70
     1
102
RTVSPropertyOp56
 70
     1
102
RTVSPropertyOp57
 70
     1
102
RTVSPropertyOp58
 70
     1
102
RTVSPropertyOp59
 70
     1
102
RTVSPropertyOp60
 70
     1
102
RTVSPropertyOp61
 70
     1
102
RTVSPropertyOp62
 70
     1
  0
XRECORD
  5
BF6E
102
{ACAD_REACTORS
330
BF6D
102
}
330
BF6D
100
AcDbXrecord
280
     1
102
RTVSPost2010Prop28
280
     0
102
RTVSPost2010PropOp28
 70
     1
102
RTVSPost2010Prop29
280
     1
102
RTVSPost2010PropOp29
 70
     1
102
RTVSPost2010Prop30
280
     1
102
RTVSPost2010PropOp30
 70
     1
102
RTVSPost2010Prop31
280
     0
102
RTVSPost2010PropOp31
 70
     1
102
RTVSPost2010Prop32
280
     0
102
RTVSPost2010PropOp32
 70
     1
102
RTVSPost2010Prop33
280
     0
102
RTVSPost2010PropOp33
 70
     1
102
RTVSPost2010Prop34
280
     0
102
RTVSPost2010PropOp34
 70
     1
102
RTVSPost2010Prop35
280
     0
102
RTVSPost2010PropOp35
 70
     1
102
RTVSPost2010Prop36
280
     0
102
RTVSPost2010PropOp36
 70
     1
102
RTVSPost2010Prop37
 90
       50
102
RTVSPost2010PropOp37
 70
     1
102
RTVSPost2010Prop38
140
0.0
102
RTVSPost2010PropOp38
 70
     1
102
RTVSPost2010Prop39
140
1.0
102
RTVSPost2010PropOp39
 70
     1
102
RTVSPost2010Prop40
 90
        0
102
RTVSPost2010PropOp40
 70
     1
102
RTVSPost2010Prop41ColorIndex
 90
       18
102
RTVSPost2010Prop41ColorRGB
 90
        0
102
RTVSPost2010PropOp41
 70
     1
102
RTVSPost2010Prop42
 90
       50
102
RTVSPost2010PropOp42
 70
     1
102
RTVSPost2010Prop43
 90
        3
102
RTVSPost2010PropOp43
 70
     1
102
RTVSPost2010Prop44ColorIndex
 90
        5
102
RTVSPost2010Prop44ColorRGB
 90
      255
102
RTVSPost2010PropOp44
 70
     1
102
RTVSPost2010Prop45
280
     0
102
RTVSPost2010PropOp45
 70
     1
102
RTVSPost2010Prop46
 90
       50
102
RTVSPost2010PropOp46
 70
     1
102
RTVSPost2010Prop47
 90
       50
102
RTVSPost2010PropOp47
 70
     1
102
RTVSPost2010Prop48
 90
       50
102
RTVSPost2010PropOp48
 70
     1
102
RTVSPost2010Prop49
280
     0
102
RTVSPost2010PropOp49
 70
     1
102
RTVSPost2010Prop50
 90
       50
102
RTVSPost2010PropOp50
 70
     1
102
RTVSPost2010Prop51ColorIndex
 90
      256
102
RTVSPost2010Prop51ColorRGB
 90
-16777216
102
RTVSPost2010PropOp51
 70
     0
102
RTVSPost2010Prop52
140
1.0
102
RTVSPost2010PropOp52
 70
     0
102
RTVSPost2010Prop53
 90
        2
102
RTVSPost2010PropOp53
 70
     1
102
RTVSPost2010Prop54
  1
strokes_ogs.tif
102
RTVSPost2010PropOp54
 70
     1
102
RTVSPost2010Prop55
280
     0
102
RTVSPost2010PropOp55
 70
     1
102
RTVSPost2010Prop56
140
1.0
102
RTVSPost2010PropOp56
 70
     1
102
RTVSPost2010Prop57
140
1.0
102
RTVSPost2010PropOp57
 70
     1
102
RTVSPropertyOp0
 70
     1
102
RTVSPropertyOp1
 70
     1
102
RTVSPropertyOp2
 70
     1
102
RTVSPropertyOp3
 70
     1
102
RTVSPropertyOp4
 70
     1
102
RTVSPropertyOp5
 70
     1
102
RTVSPropertyOp6
 70
     1
102
RTVSPropertyOp7
 70
     1
102
RTVSPropertyOp8
 70
     1
102
RTVSPropertyOp9
 70
     1
102
RTVSPropertyOp10
 70
     1
102
RTVSPropertyOp11
 70
     1
102
RTVSPropertyOp12
 70
     1
102
RTVSPropertyOp13
 70
     1
102
RTVSPropertyOp14
 70
     1
102
RTVSPropertyOp15
 70
     1
102
RTVSPropertyOp16
 70
     1
102
RTVSPropertyOp17
 70
     1
102
RTVSPropertyOp18
 70
     1
102
RTVSPropertyOp19
 70
     1
102
RTVSPropertyOp20
 70
     1
102
RTVSPropertyOp21
 70
     1
102
RTVSPropertyOp22
 70
     1
102
RTVSPropertyOp23
 70
     1
102
RTVSPropertyOp24
 70
     1
102
RTVSPropertyOp25
 70
     1
102
RTVSPropertyOp26
 70
     1
102
RTVSPropertyOp27
 70
     1
102
RTVSPropertyOp28
 70
     1
102
RTVSPropertyOp29
 70
     1
102
RTVSPropertyOp30
 70
     1
102
RTVSPropertyOp31
 70
     1
102
RTVSPropertyOp32
 70
     1
102
RTVSPropertyOp33
 70
     1
102
RTVSPropertyOp34
 70
     1
102
RTVSPropertyOp35
 70
     1
102
RTVSPropertyOp36
 70
     1
102
RTVSPropertyOp37
 70
     1
102
RTVSPropertyOp38
 70
     1
102
RTVSPropertyOp39
 70
     1
102
RTVSPropertyOp40
 70
     1
102
RTVSPropertyOp41
 70
     1
102
RTVSPropertyOp42
 70
     1
102
RTVSPropertyOp43
 70
     1
102
RTVSPropertyOp44
 70
     1
102
RTVSPropertyOp45
 70
     1
102
RTVSPropertyOp46
 70
     1
102
RTVSPropertyOp47
 70
     1
102
RTVSPropertyOp48
 70
     1
102
RTVSPropertyOp49
 70
     1
102
RTVSPropertyOp50
 70
     1
102
RTVSPropertyOp51
 70
     0
102
RTVSPropertyOp52
 70
     0
102
RTVSPropertyOp53
 70
     1
102
RTVSPropertyOp54
 70
     1
102
RTVSPropertyOp55
 70
     1
102
RTVSPropertyOp56
 70
     1
102
RTVSPropertyOp57
 70
     1
102
RTVSPropertyOp58
 70
     1
102
RTVSPropertyOp59
 70
     1
102
RTVSPropertyOp60
 70
     1
102
RTVSPropertyOp61
 70
     1
102
RTVSPropertyOp62
 70
     1
  0
XRECORD
  5
BF86
102
{ACAD_REACTORS
330
BF85
102
}
330
BF85
100
AcDbXrecord
280
     1
102
RTVSPost2010Prop28
280
     0
102
RTVSPost2010PropOp28
 70
     1
102
RTVSPost2010Prop29
280
     1
102
RTVSPost2010PropOp29
 70
     1
102
RTVSPost2010Prop30
280
     1
102
RTVSPost2010PropOp30
 70
     1
102
RTVSPost2010Prop31
280
     0
102
RTVSPost2010PropOp31
 70
     1
102
RTVSPost2010Prop32
280
     0
102
RTVSPost2010PropOp32
 70
     1
102
RTVSPost2010Prop33
280
     0
102
RTVSPost2010PropOp33
 70
     1
102
RTVSPost2010Prop34
280
     0
102
RTVSPost2010PropOp34
 70
     1
102
RTVSPost2010Prop35
280
     0
102
RTVSPost2010PropOp35
 70
     1
102
RTVSPost2010Prop36
280
     0
102
RTVSPost2010PropOp36
 70
     1
102
RTVSPost2010Prop37
 90
       50
102
RTVSPost2010PropOp37
 70
     1
102
RTVSPost2010Prop38
140
0.0
102
RTVSPost2010PropOp38
 70
     1
102
RTVSPost2010Prop39
140
1.0
102
RTVSPost2010PropOp39
 70
     1
102
RTVSPost2010Prop40
 90
        0
102
RTVSPost2010PropOp40
 70
     1
102
RTVSPost2010Prop41ColorIndex
 90
       18
102
RTVSPost2010Prop41ColorRGB
 90
        0
102
RTVSPost2010PropOp41
 70
     1
102
RTVSPost2010Prop42
 90
       50
102
RTVSPost2010PropOp42
 70
     1
102
RTVSPost2010Prop43
 90
        3
102
RTVSPost2010PropOp43
 70
     1
102
RTVSPost2010Prop44ColorIndex
 90
        5
102
RTVSPost2010Prop44ColorRGB
 90
      255
102
RTVSPost2010PropOp44
 70
     1
102
RTVSPost2010Prop45
280
     0
102
RTVSPost2010PropOp45
 70
     1
102
RTVSPost2010Prop46
 90
       50
102
RTVSPost2010PropOp46
 70
     1
102
RTVSPost2010Prop47
 90
       50
102
RTVSPost2010PropOp47
 70
     1
102
RTVSPost2010Prop48
 90
       50
102
RTVSPost2010PropOp48
 70
     1
102
RTVSPost2010Prop49
280
     0
102
RTVSPost2010PropOp49
 70
     1
102
RTVSPost2010Prop50
 90
       50
102
RTVSPost2010PropOp50
 70
     1
102
RTVSPost2010Prop51ColorIndex
 90
      256
102
RTVSPost2010Prop51ColorRGB
 90
-16777216
102
RTVSPost2010PropOp51
 70
     0
102
RTVSPost2010Prop52
140
1.0
102
RTVSPost2010PropOp52
 70
     0
102
RTVSPost2010Prop53
 90
        2
102
RTVSPost2010PropOp53
 70
     1
102
RTVSPost2010Prop54
  1
strokes_ogs.tif
102
RTVSPost2010PropOp54
 70
     1
102
RTVSPost2010Prop55
280
     0
102
RTVSPost2010PropOp55
 70
     1
102
RTVSPost2010Prop56
140
1.0
102
RTVSPost2010PropOp56
 70
     1
102
RTVSPost2010Prop57
140
1.0
102
RTVSPost2010PropOp57
 70
     1
102
RTVSPropertyOp0
 70
     1
102
RTVSPropertyOp1
 70
     1
102
RTVSPropertyOp2
 70
     1
102
RTVSPropertyOp3
 70
     1
102
RTVSPropertyOp4
 70
     1
102
RTVSPropertyOp5
 70
     1
102
RTVSPropertyOp6
 70
     1
102
RTVSPropertyOp7
 70
     1
102
RTVSPropertyOp8
 70
     1
102
RTVSPropertyOp9
 70
     1
102
RTVSPropertyOp10
 70
     1
102
RTVSPropertyOp11
 70
     1
102
RTVSPropertyOp12
 70
     1
102
RTVSPropertyOp13
 70
     1
102
RTVSPropertyOp14
 70
     1
102
RTVSPropertyOp15
 70
     1
102
RTVSPropertyOp16
 70
     1
102
RTVSPropertyOp17
 70
     1
102
RTVSPropertyOp18
 70
     1
102
RTVSPropertyOp19
 70
     1
102
RTVSPropertyOp20
 70
     1
102
RTVSPropertyOp21
 70
     1
102
RTVSPropertyOp22
 70
     1
102
RTVSPropertyOp23
 70
     1
102
RTVSPropertyOp24
 70
     1
102
RTVSPropertyOp25
 70
     1
102
RTVSPropertyOp26
 70
     1
102
RTVSPropertyOp27
 70
     1
102
RTVSPropertyOp28
 70
     1
102
RTVSPropertyOp29
 70
     1
102
RTVSPropertyOp30
 70
     1
102
RTVSPropertyOp31
 70
     1
102
RTVSPropertyOp32
 70
     1
102
RTVSPropertyOp33
 70
     1
102
RTVSPropertyOp34
 70
     1
102
RTVSPropertyOp35
 70
     1
102
RTVSPropertyOp36
 70
     1
102
RTVSPropertyOp37
 70
     1
102
RTVSPropertyOp38
 70
     1
102
RTVSPropertyOp39
 70
     1
102
RTVSPropertyOp40
 70
     1
102
RTVSPropertyOp41
 70
     1
102
RTVSPropertyOp42
 70
     1
102
RTVSPropertyOp43
 70
     1
102
RTVSPropertyOp44
 70
     1
102
RTVSPropertyOp45
 70
     1
102
RTVSPropertyOp46
 70
     1
102
RTVSPropertyOp47
 70
     1
102
RTVSPropertyOp48
 70
     1
102
RTVSPropertyOp49
 70
     1
102
RTVSPropertyOp50
 70
     1
102
RTVSPropertyOp51
 70
     0
102
RTVSPropertyOp52
 70
     0
102
RTVSPropertyOp53
 70
     1
102
RTVSPropertyOp54
 70
     1
102
RTVSPropertyOp55
 70
     1
102
RTVSPropertyOp56
 70
     1
102
RTVSPropertyOp57
 70
     1
102
RTVSPropertyOp58
 70
     1
102
RTVSPropertyOp59
 70
     1
102
RTVSPropertyOp60
 70
     1
102
RTVSPropertyOp61
 70
     1
102
RTVSPropertyOp62
 70
     1
  0
ENDSEC
  0
EOF
