  0
SECTION
  2
HEADER
  9
$ACADVER
  1
AC1015
  9
$DWGCODEPAGE
  3
ANSI_932
  9
$LTSCALE
 40
20.0
  9
$FILLMODE
 70
     1
  9
$CLAYER
  8
0
  9
$PDMODE
 70
     0
  9
$SPLFRAME
 70
     0
  9
$SPLINETYPE
 70
     6
  9
$SPLINESEGS
 70
     8
  9
$DIMASZ
 40
2.000000
  9
$DIMEXE
 40
1.500000
  9
$DIMEXO
 40
0.800000
  9
$DIMTAD
 70
     1
  9
$DIMTIH
 70
     0
  9
$DIMTOH
 70
     0
  9
$DIMTVP
 40
0.500000
  9
$DIMTXT
 40
3.100000
  9
$EXTMIN
 10
0.000000
 20
0.000000
 30
0.000000
  9
$EXTMAX
 10
297.000000
 20
420.000000
 30
0.000000
  9
$MEASUREMENT
 70
  1
  9
$LIMMIN
 10
0.000000
 20
0.000000
  9
$LIMMAX
 10
297.000000
 20
420.000000
  9
$HANDSEED
  5
2A0
  9
$LWDISPLAY
290
     0
  9
$DIMBLK
  1
_OPEN
  9
$DIMDEC
 70
     2
  9
$DIMADEC
 70
     2
  9
$DIMAUNIT
 70
     0
  9
$DIMZIN
 70
     8
  9
$DIMAZIN
 70
     2
  9
$DIMTOFL
 70
     1
  0
ENDSEC
  0
SECTION
  2
CLASSES
  0
ENDSEC
  0
SECTION
  2
TABLES
  0
TABLE
  2
VPORT
  5
268
100
AcDbSymbolTable
 70
     1
  0
VPORT
  5
269
100
AcDbSymbolTableRecord
100
AcDbViewportTableRecord
  2
*ACTIVE
 70
     0
 12
145.415901
 22
116.618396
 40
197.236791
 41
1.373130
  0
ENDTAB
  0
TABLE
  2
LTYPE
  5
26A
100
AcDbSymbolTable
 70
     3
  0
LTYPE
  5
26B
100
AcDbSymbolTableRecord
100
AcDbLinetypeTableRecord
  2
BYBLOCK
 70
     0
  3

 72
    65
 73
     0
 40
0.0
  0
LTYPE
  5
26C
100
AcDbSymbolTableRecord
100
AcDbLinetypeTableRecord
  2
BYLAYER
 70
     0
  3

 72
    65
 73
     0
 40
0.0
  0
LTYPE
  5
26D
100
AcDbSymbolTableRecord
100
AcDbLinetypeTableRecord
  2
CONTINUOUS
 70
     0
  3
Solid line (NEC CAE2D for Win R17.0 : 2022.11.10)
 72
    65
 73
     0
 40
0.0
  0
LTYPE
  5
26E
100
AcDbSymbolTableRecord
100
AcDbLinetypeTableRecord
  2
DASHED
 70
     0
  3
__ __ __ __ __ __ __ __ __ __ __ __ __ _
 72
    65
 73
     2
 40
0.75
 49
0.5
 74
     0
 49
-0.25
 74
     0
  0
LTYPE
  5
26F
100
AcDbSymbolTableRecord
100
AcDbLinetypeTableRecord
  2
CENTER
 70
     0
  3
____ _ ____ _ ____ _ ____ _ ____ _ ____
 72
    65
 73
     4
 40
2.0
 49
1.25
 74
     0
 49
-0.25
 74
     0
 49
0.25
 74
     0
 49
-0.25
 74
     0
  0
ENDTAB
  0
TABLE
  2
LAYER
  5
270
100
AcDbSymbolTable
 70
    17
  0
LAYER
  5
271
100
AcDbSymbolTableRecord
100
AcDbLayerTableRecord
  2
0
 70
     0
 62
     7
  6
CONTINUOUS
370
    -3
390

  0
LAYER
  5
272
100
AcDbSymbolTableRecord
100
AcDbLayerTableRecord
  2
A0
 70
     0
 62
     9
  6
CONTINUOUS
370
    -3
390

  0
LAYER
  5
273
100
AcDbSymbolTableRecord
100
AcDbLayerTableRecord
  2
A1
 70
     0
 62
    12
  6
CONTINUOUS
370
    -3
390

  0
LAYER
  5
274
100
AcDbSymbolTableRecord
100
AcDbLayerTableRecord
  2
A2
 70
     0
 62
     9
  6
CONTINUOUS
370
    -3
390

  0
LAYER
  5
275
100
AcDbSymbolTableRecord
100
AcDbLayerTableRecord
  2
A3
 70
     0
 62
    12
  6
CONTINUOUS
370
    -3
390

  0
LAYER
  5
276
100
AcDbSymbolTableRecord
100
AcDbLayerTableRecord
  2
A4
 70
     0
 62
     9
  6
CONTINUOUS
370
    -3
390

  0
LAYER
  5
277
100
AcDbSymbolTableRecord
100
AcDbLayerTableRecord
  2
A5
 70
     0
 62
     8
  6
CONTINUOUS
370
    -3
390

  0
LAYER
  5
278
100
AcDbSymbolTableRecord
100
AcDbLayerTableRecord
  2
A6
 70
     0
 62
    12
  6
CONTINUOUS
370
    -3
390

  0
LAYER
  5
279
100
AcDbSymbolTableRecord
100
AcDbLayerTableRecord
  2
A7
 70
     0
 62
    10
  6
CONTINUOUS
370
    -3
390

  0
LAYER
  5
27A
100
AcDbSymbolTableRecord
100
AcDbLayerTableRecord
  2
A8
 70
     0
 62
    10
  6
CONTINUOUS
370
    -3
390

  0
LAYER
  5
27B
100
AcDbSymbolTableRecord
100
AcDbLayerTableRecord
  2
A9
 70
     0
 62
     9
  6
CONTINUOUS
370
    -3
390

  0
LAYER
  5
27C
100
AcDbSymbolTableRecord
100
AcDbLayerTableRecord
  2
A10
 70
     0
 62
     6
  6
CONTINUOUS
370
    -3
390

  0
LAYER
  5
27D
100
AcDbSymbolTableRecord
100
AcDbLayerTableRecord
  2
A20
 70
     0
 62
     1
  6
CONTINUOUS
370
    -3
390

  0
LAYER
  5
27E
100
AcDbSymbolTableRecord
100
AcDbLayerTableRecord
  2
A30
 70
     0
 62
     1
  6
CONTINUOUS
370
    -3
390

  0
LAYER
  5
27F
100
AcDbSymbolTableRecord
100
AcDbLayerTableRecord
  2
A40
 70
     0
 62
     9
  6
CONTINUOUS
370
    -3
390

  0
LAYER
  5
280
100
AcDbSymbolTableRecord
100
AcDbLayerTableRecord
  2
A50
 70
     0
 62
    12
  6
CONTINUOUS
370
    -3
390

  0
LAYER
  5
281
100
AcDbSymbolTableRecord
100
AcDbLayerTableRecord
  2
A1023
 70
     0
 62
    16
  6
CONTINUOUS
370
    -3
390

  0
ENDTAB
  0
TABLE
  2
STYLE
  5
282
100
AcDbSymbolTable
 70
     4
  0
STYLE
  5
283
100
AcDbSymbolTableRecord
100
AcDbTextStyleTableRecord
  2
STANDARD
 70
    64
 40
0.0
 41
1.0
 50
0.0
 71
     0
 42
3.000000000000000
  3
TXT
  4

  0
STYLE
  5
284
100
AcDbSymbolTableRecord
100
AcDbTextStyleTableRecord
  2
ANKTATE
 70
    68
 40
0.0
 41
1.0
 50
0.0
 71
     0
 42
3.000000000000000
  3
TXT
  4

  0
STYLE
  5
285
100
AcDbSymbolTableRecord
100
AcDbTextStyleTableRecord
  2
KNJYOKO
 70
    64
 40
0.0
 41
1.0
 50
0.0
 71
     0
 42
3.000000000000000
  3
TXT
  4
BIGFONT
  0
STYLE
  5
286
100
AcDbSymbolTableRecord
100
AcDbTextStyleTableRecord
  2
KNJTATE
 70
    68
 40
0.0
 41
1.0
 50
0.0
 71
     0
 42
3.000000000000000
  3
TXT
  4
BIGFONT
  0
ENDTAB
  0
TABLE
  2
VIEW
  5
287
100
AcDbSymbolTable
 70
     0
  0
ENDTAB
  0
TABLE
  2
UCS
  5
288
100
AcDbSymbolTable
 70
     0
  0
ENDTAB
  0
TABLE
  2
APPID
  5
289
100
AcDbSymbolTable
 70
     1
  0
APPID
  5
28A
100
AcDbSymbolTableRecord
100
AcDbRegAppTableRecord
  2
ACAD
 70
     0
  0
ENDTAB
  0
TABLE
  2
DIMSTYLE
  5
28B
100
AcDbSymbolTable
 70
     2
100
AcDbDimStyleTable
  0
DIMSTYLE
105
28C
100
AcDbSymbolTableRecord
100
AcDbDimStyleTableRecord
  2
STANDARD
 70
     0
 41
2.000000
 44
1.500000
 42
0.800000
145
0.661290
140
3.100000
144
1.000000
146
0.645161
340
283
  0
DIMSTYLE
105
28D
100
AcDbSymbolTableRecord
100
AcDbDimStyleTableRecord
  2
A001
 70
     0
 41
2.000000
 44
1.500000
 42
0.800000
145
0.661290
140
3.100000
144
1.000000
146
0.645161
 77
     1
 73
     0
 74
     0
271
     2
179
     2
275
     0
 78
     8
 79
     2
172
     1
340
283
  0
ENDTAB
  0
TABLE
  2
BLOCK_RECORD
  5
28E
100
AcDbSymbolTable
 70
    12
  0
BLOCK_RECORD
  5
28F
100
AcDbSymbolTableRecord
100
AcDbBlockTableRecord
  2
*MODEL_SPACE
  0
BLOCK_RECORD
  5
290
100
AcDbSymbolTableRecord
100
AcDbBlockTableRecord
  2
*PAPER_SPACE
  0
BLOCK_RECORD
  5
291
100
AcDbSymbolTableRecord
100
AcDbBlockTableRecord
  2
*PAPER_SPACE0
  0
BLOCK_RECORD
  5
1
100
AcDbSymbolTableRecord
100
AcDbBlockTableRecord
  2
_NONE
  0
BLOCK_RECORD
  5
4
100
AcDbSymbolTableRecord
100
AcDbBlockTableRecord
  2
_CLOSED
  0
BLOCK_RECORD
  5
B
100
AcDbSymbolTableRecord
100
AcDbBlockTableRecord
  2
_DOT
  0
BLOCK_RECORD
  5
13
100
AcDbSymbolTableRecord
100
AcDbBlockTableRecord
  2
_OPEN
  0
BLOCK_RECORD
  5
19
100
AcDbSymbolTableRecord
100
AcDbBlockTableRecord
  2
_ORIGIN
  0
BLOCK_RECORD
  5
1E
100
AcDbSymbolTableRecord
100
AcDbBlockTableRecord
  2
_OPEN30
  0
BLOCK_RECORD
  5
24
100
AcDbSymbolTableRecord
100
AcDbBlockTableRecord
  2
_BOXFILLED
  0
BLOCK_RECORD
  5
29
100
AcDbSymbolTableRecord
100
AcDbBlockTableRecord
  2
_BOXBLANK
  0
BLOCK_RECORD
  5
31
100
AcDbSymbolTableRecord
100
AcDbBlockTableRecord
  2
_OBLIQUE
  0
BLOCK_RECORD
  5
35
100
AcDbSymbolTableRecord
100
AcDbBlockTableRecord
  2
_OPEN90
  0
BLOCK_RECORD
  5
3B
100
AcDbSymbolTableRecord
100
AcDbBlockTableRecord
  2
_CLOSEDBLANK
  0
BLOCK_RECORD
  5
41
100
AcDbSymbolTableRecord
100
AcDbBlockTableRecord
  2
_DOTBLANK
  0
ENDTAB
  0
ENDSEC
  0
SECTION
  2
BLOCKS
  0
BLOCK
  5
292
100
AcDbEntity
  8
0
100
AcDbBlockBegin
  2
*MODEL_SPACE
 70
     0
 10
0.0
 20
0.0
 30
0.0
  3
*MODEL_SPACE
  1

  0
ENDBLK
  5
293
100
AcDbEntity
  8
0
100
AcDbBlockEnd
  0
BLOCK
  5
294
100
AcDbEntity
  8
0
100
AcDbBlockBegin
  2
*PAPER_SPACE
 70
     0
 10
0.0
 20
0.0
 30
0.0
  3
*PAPER_SPACE
  1

  0
ENDBLK
  5
295
100
AcDbEntity
  8
0
100
AcDbBlockEnd
  0
BLOCK
  5
296
100
AcDbEntity
  8
0
100
AcDbBlockBegin
  2
*PAPER_SPACE0
 70
     0
 10
0.0
 20
0.0
 30
0.0
  3
*PAPER_SPACE0
  1

  0
ENDBLK
  5
297
100
AcDbEntity
  8
0
100
AcDbBlockEnd
  0
BLOCK
  5
2
330
1
100
AcDbEntity
  8
0
100
AcDbBlockBegin
  2
_NONE
 70
     0
 10
0.0
 20
0.0
 30
0.0
  3
_NONE
  1

  0
ENDBLK
  5
3
330
1
100
AcDbEntity
  8
0
100
AcDbBlockEnd
  0
BLOCK
  5
5
330
4
100
AcDbEntity
  8
0
100
AcDbBlockBegin
  2
_CLOSED
 70
     0
 10
0.0
 20
0.0
 30
0.0
  3
_CLOSED
  1

  0
LINE
  5
6
330
4
100
AcDbEntity
  8
0
  6
BYBLOCK
 62
     0
370
    -2
100
AcDbLine
 10
-1.0
 20
0.166667
 30
0.0
 11
0.0
 21
0.0
 31
0.0
  0
LINE
  5
7
330
4
100
AcDbEntity
  8
0
  6
BYBLOCK
 62
     0
370
    -2
100
AcDbLine
 10
0.0
 20
0.0
 30
0.0
 11
-1.0
 21
-0.166667
 31
0.0
  0
LINE
  5
8
330
4
100
AcDbEntity
  8
0
  6
BYBLOCK
 62
     0
370
    -2
100
AcDbLine
 10
-1.0
 20
0.166667
 30
0.0
 11
-1.0
 21
-0.166667
 31
0.0
  0
LINE
  5
9
330
4
100
AcDbEntity
  8
0
  6
BYBLOCK
 62
     0
370
    -2
100
AcDbLine
 10
0.0
 20
0.0
 30
0.0
 11
-1.0
 21
0.0
 31
0.0
  0
ENDBLK
  5
A
330
4
100
AcDbEntity
  8
0
100
AcDbBlockEnd
  0
BLOCK
  5
C
330
B
100
AcDbEntity
  8
0
100
AcDbBlockBegin
  2
_DOT
 70
     0
 10
0.0
 20
0.0
 30
0.0
  3
_DOT
  1

  0
POLYLINE
  5
D
330
B
100
AcDbEntity
  8
0
  6
BYBLOCK
 62
     0
370
    -2
100
AcDb2dPolyline
 66
     1
 10
0.0
 20
0.0
 30
0.0
 70
     1
 40
0.5
 41
0.5
  0
VERTEX
  5
E
330
B
100
AcDbEntity
  8
0
  6
BYBLOCK
 62
     0
370
    -2
100
AcDbVertex
100
AcDb2dVertex
 10
-0.25
 20
0.0
 30
0.0
 42
1.0
  0
VERTEX
  5
F
330
B
100
AcDbEntity
  8
0
  6
BYBLOCK
 62
     0
370
    -2
100
AcDbVertex
100
AcDb2dVertex
 10
0.25
 20
0.0
 30
0.0
 42
1.0
  0
SEQEND
  5
10
330
B
100
AcDbEntity
  8
0
  6
BYBLOCK
 62
     0
370
    -2
  0
LINE
  5
11
330
B
100
AcDbEntity
  8
0
  6
BYBLOCK
 62
     0
370
    -2
100
AcDbLine
 10
-0.5
 20
0.0
 30
0.0
 11
-1.0
 21
0.0
 31
0.0
  0
ENDBLK
  5
12
330
B
100
AcDbEntity
  8
0
100
AcDbBlockEnd
  0
BLOCK
  5
14
330
13
100
AcDbEntity
  8
0
100
AcDbBlockBegin
  2
_OPEN
 70
     0
 10
0.0
 20
0.0
 30
0.0
  3
_OPEN
  1

  0
LINE
  5
15
330
13
100
AcDbEntity
  8
0
  6
BYBLOCK
 62
     0
370
    -2
100
AcDbLine
 10
-1.0
 20
0.166667
 30
0.0
 11
0.0
 21
0.0
 31
0.0
  0
LINE
  5
16
330
13
100
AcDbEntity
  8
0
  6
BYBLOCK
 62
     0
370
    -2
100
AcDbLine
 10
0.0
 20
0.0
 30
0.0
 11
-1.0
 21
-0.166667
 31
0.0
  0
LINE
  5
17
330
13
100
AcDbEntity
  8
0
  6
BYBLOCK
 62
     0
370
    -2
100
AcDbLine
 10
0.0
 20
0.0
 30
0.0
 11
-1.0
 21
0.0
 31
0.0
  0
ENDBLK
  5
18
330
13
100
AcDbEntity
  8
0
100
AcDbBlockEnd
  0
BLOCK
  5
1A
330
19
100
AcDbEntity
  8
0
100
AcDbBlockBegin
  2
_ORIGIN
 70
     0
 10
0.0
 20
0.0
 30
0.0
  3
_ORIGIN
  1

  0
CIRCLE
  5
1B
330
19
100
AcDbEntity
  8
0
  6
BYBLOCK
 62
     0
370
    -2
100
AcDbCircle
 10
0.0
 20
0.0
 30
0.0
 40
0.5
  0
LINE
  5
1C
330
19
100
AcDbEntity
  8
0
  6
BYBLOCK
 62
     0
370
    -2
100
AcDbLine
 10
0.0
 20
0.0
 30
0.0
 11
-1.0
 21
0.0
 31
0.0
  0
ENDBLK
  5
1D
330
19
100
AcDbEntity
  8
0
100
AcDbBlockEnd
  0
BLOCK
  5
1F
330
1E
100
AcDbEntity
  8
0
100
AcDbBlockBegin
  2
_OPEN30
 70
     0
 10
0.0
 20
0.0
 30
0.0
  3
_OPEN30
  1

  0
LINE
  5
20
330
1E
100
AcDbEntity
  8
0
  6
BYBLOCK
 62
     0
370
    -2
100
AcDbLine
 10
-1.0
 20
0.267949
 30
0.0
 11
0.0
 21
0.0
 31
0.0
  0
LINE
  5
21
330
1E
100
AcDbEntity
  8
0
  6
BYBLOCK
 62
     0
370
    -2
100
AcDbLine
 10
0.0
 20
0.0
 30
0.0
 11
-1.0
 21
-0.267949
 31
0.0
  0
LINE
  5
22
330
1E
100
AcDbEntity
  8
0
  6
BYBLOCK
 62
     0
370
    -2
100
AcDbLine
 10
0.0
 20
0.0
 30
0.0
 11
-1.0
 21
0.0
 31
0.0
  0
ENDBLK
  5
23
330
1E
100
AcDbEntity
  8
0
100
AcDbBlockEnd
  0
BLOCK
  5
25
330
24
100
AcDbEntity
  8
0
100
AcDbBlockBegin
  2
_BOXFILLED
 70
     0
 10
0.0
 20
0.0
 30
0.0
  3
_BOXFILLED
  1

  0
SOLID
  5
26
330
24
100
AcDbEntity
  8
0
  6
BYBLOCK
 62
     0
370
    -2
100
AcDbTrace
 10
-0.5
 20
0.5
 30
0.0
 11
0.5
 21
0.5
 31
0.0
 12
-0.5
 22
-0.5
 32
0.0
 13
0.5
 23
-0.5
 33
0.0
  0
LINE
  5
27
330
24
100
AcDbEntity
  8
0
  6
BYBLOCK
 62
     0
370
    -2
100
AcDbLine
 10
-0.5
 20
0.0
 30
0.0
 11
-1.0
 21
0.0
 31
0.0
  0
ENDBLK
  5
28
330
24
100
AcDbEntity
  8
0
100
AcDbBlockEnd
  0
BLOCK
  5
2A
330
29
100
AcDbEntity
  8
0
100
AcDbBlockBegin
  2
_BOXBLANK
 70
     0
 10
0.0
 20
0.0
 30
0.0
  3
_BOXBLANK
  1

  0
LINE
  5
2B
330
29
100
AcDbEntity
  8
0
  6
BYBLOCK
 62
     0
370
    -2
100
AcDbLine
 10
-0.5
 20
-0.5
 30
0.0
 11
0.5
 21
-0.5
 31
0.0
  0
LINE
  5
2C
330
29
100
AcDbEntity
  8
0
  6
BYBLOCK
 62
     0
370
    -2
100
AcDbLine
 10
0.5
 20
-0.5
 30
0.0
 11
0.5
 21
0.5
 31
0.0
  0
LINE
  5
2D
330
29
100
AcDbEntity
  8
0
  6
BYBLOCK
 62
     0
370
    -2
100
AcDbLine
 10
0.5
 20
0.5
 30
0.0
 11
-0.5
 21
0.5
 31
0.0
  0
LINE
  5
2E
330
29
100
AcDbEntity
  8
0
  6
BYBLOCK
 62
     0
370
    -2
100
AcDbLine
 10
-0.5
 20
0.5
 30
0.0
 11
-0.5
 21
-0.5
 31
0.0
  0
LINE
  5
2F
330
29
100
AcDbEntity
  8
0
  6
BYBLOCK
 62
     0
370
    -2
100
AcDbLine
 10
-0.5
 20
0.0
 30
0.0
 11
-1.0
 21
0.0
 31
0.0
  0
ENDBLK
  5
30
330
29
100
AcDbEntity
  8
0
100
AcDbBlockEnd
  0
BLOCK
  5
32
330
31
100
AcDbEntity
  8
0
100
AcDbBlockBegin
  2
_OBLIQUE
 70
     0
 10
0.0
 20
0.0
 30
0.0
  3
_OBLIQUE
  1

  0
LINE
  5
33
330
31
100
AcDbEntity
  8
0
  6
BYBLOCK
 62
     0
370
    -2
100
AcDbLine
 10
-0.5
 20
-0.5
 30
0.0
 11
0.5
 21
0.5
 31
0.0
  0
ENDBLK
  5
34
330
31
100
AcDbEntity
  8
0
100
AcDbBlockEnd
  0
BLOCK
  5
36
330
35
100
AcDbEntity
  8
0
100
AcDbBlockBegin
  2
_OPEN90
 70
     0
 10
0.0
 20
0.0
 30
0.0
  3
_OPEN90
  1

  0
LINE
  5
37
330
35
100
AcDbEntity
  8
0
  6
BYBLOCK
 62
     0
370
    -2
100
AcDbLine
 10
-0.5
 20
0.5
 30
0.0
 11
0.0
 21
0.0
 31
0.0
  0
LINE
  5
38
330
35
100
AcDbEntity
  8
0
  6
BYBLOCK
 62
     0
370
    -2
100
AcDbLine
 10
0.0
 20
0.0
 30
0.0
 11
-0.5
 21
-0.5
 31
0.0
  0
LINE
  5
39
330
35
100
AcDbEntity
  8
0
  6
BYBLOCK
 62
     0
370
    -2
100
AcDbLine
 10
0.0
 20
0.0
 30
0.0
 11
-1.0
 21
0.0
 31
0.0
  0
ENDBLK
  5
3A
330
35
100
AcDbEntity
  8
0
100
AcDbBlockEnd
  0
BLOCK
  5
3C
330
3B
100
AcDbEntity
  8
0
100
AcDbBlockBegin
  2
_CLOSEDBLANK
 70
     0
 10
0.0
 20
0.0
 30
0.0
  3
_CLOSEDBLANK
  1

  0
LINE
  5
3D
330
3B
100
AcDbEntity
  8
0
  6
BYBLOCK
 62
     0
370
    -2
100
AcDbLine
 10
-1.0
 20
0.1666666666666666
 30
0.0
 11
0.0
 21
0.0
 31
0.0
  0
LINE
  5
3E
330
3B
100
AcDbEntity
  8
0
  6
BYBLOCK
 62
     0
370
    -2
100
AcDbLine
 10
0.0
 20
0.0
 30
0.0
 11
-1.0
 21
-0.1666666666666666
 31
0.0
  0
LINE
  5
3F
330
3B
100
AcDbEntity
  8
0
  6
BYBLOCK
 62
     0
370
    -2
100
AcDbLine
 10
-1.0
 20
0.1666666666666666
 30
0.0
 11
-1.0
 21
-0.1666666666666666
 31
0.0
  0
ENDBLK
  5
40
330
3B
100
AcDbEntity
  8
0
100
AcDbBlockEnd
  0
BLOCK
  5
42
330
41
100
AcDbEntity
  8
0
100
AcDbBlockBegin
  2
_DOTBLANK
 70
     0
 10
0.0
 20
0.0
 30
0.0
  3
_DOTBLANK
  1

  0
CIRCLE
  5
43
330
41
100
AcDbEntity
  8
0
  6
BYBLOCK
 62
     0
370
    -2
100
AcDbCircle
 10
0.0
 20
0.0
 30
0.0
 40
0.5
  0
LINE
  5
44
330
41
100
AcDbEntity
  8
0
  6
BYBLOCK
 62
     0
370
    -2
100
AcDbLine
 10
-0.5
 20
0.0
 30
0.0
 11
-1.0
 21
0.0
 31
0.0
  0
ENDBLK
  5
45
330
41
100
AcDbEntity
  8
0
100
AcDbBlockEnd
  0
ENDSEC
  0
SECTION
  2
ENTITIES
  0
MTEXT
  5
46
100
AcDbEntity
  8
A7
  6
CONTINUOUS
 62
3
100
AcDbMText
 10
9.999997526638502
 20
18.00000076076889
 30
0.000000000000000
 40
3.000000000000000
 41
0.000000000000000
 44
0.6739999771118164
 71
     7
 72
     1
  1
{\H0.93x;{TYPE No.TL-11Z-3}}
 11
1.000000000000000
 21
0.000000000000000
 31
0.000000000000000
  7
STANDARD
  0
POINT
  5
47
100
AcDbEntity
  8
A7
  6
CONTINUOUS
 62
3
100
AcDbPoint
 10
9.999997526638502
 20
18.00000076076889
 30
0.000000000000000
  0
LINE
  5
48
100
AcDbEntity
  8
A1
  6
CONTINUOUS
 62
7
100
AcDbLine
 10
180.5376434251132
 20
202.3867917454082
 30
0.000000000000000
 11
180.5376434251132
 21
178.3867917454085
 31
0.000000000000000
  0
LINE
  5
49
100
AcDbEntity
  8
A1
  6
CONTINUOUS
 62
7
100
AcDbLine
 10
165.3376434251131
 20
202.3867917454082
 30
0.000000000000000
 11
165.3376434251131
 21
178.3867917454085
 31
0.000000000000000
  0
ARC
  5
4A
100
AcDbEntity
  8
A1
  6
CONTINUOUS
 62
7
100
AcDbCircle
 10
172.9376434251131
 20
170.3867917454082
 30
0.000000000000000
 40
6.000000000000028
100
AcDbArc
 50
180.0000000000000
 51
360.0000000000000
  0
LINE
  5
4B
100
AcDbEntity
  8
A1
  6
CONTINUOUS
 62
7
100
AcDbLine
 10
166.9376434251131
 20
178.3867917454085
 30
0.000000000000000
 11
165.3376434251132
 21
178.3867917454085
 31
0.000000000000000
  0
LINE
  5
4C
100
AcDbEntity
  8
A1
  6
CONTINUOUS
 62
7
100
AcDbLine
 10
180.5376434251130
 20
178.3867917454085
 30
0.000000000000000
 11
178.9376434251131
 21
178.3867917454085
 31
0.000000000000000
  0
LINE
  5
4D
100
AcDbEntity
  8
A1
  6
CONTINUOUS
 62
7
100
AcDbLine
 10
178.9376434251131
 20
178.3867917454085
 30
0.000000000000000
 11
178.9376434251131
 21
170.3867917454082
 31
0.000000000000000
  0
LINE
  5
4E
100
AcDbEntity
  8
A1
  6
CONTINUOUS
 62
7
100
AcDbLine
 10
166.9376434251131
 20
178.3867917454085
 30
0.000000000000000
 11
166.9376434251131
 21
170.3867917454082
 31
0.000000000000000
  0
LINE
  5
4F
100
AcDbEntity
  8
A3
  6
DASHED
 62
2
100
AcDbLine
 10
180.4376434249835
 20
200.3867917452934
 30
0.000000000000000
 11
165.4376434249835
 21
200.3867917452934
 31
0.000000000000000
  0
LINE
  5
50
100
AcDbEntity
  8
A1
  6
CONTINUOUS
 62
7
100
AcDbLine
 10
180.9376434249835
 20
199.8867917452934
 30
0.000000000000000
 11
180.9376434249835
 21
197.7867917452933
 31
0.000000000000000
  0
LINE
  5
51
100
AcDbEntity
  8
A1
  6
CONTINUOUS
 62
7
100
AcDbLine
 10
180.9376434249839
 20
187.7867917453610
 30
0.000000000000000
 11
180.9376434249839
 21
185.6867917453611
 31
0.000000000000000
  0
LINE
  5
52
100
AcDbEntity
  8
A1
  6
CONTINUOUS
 62
7
100
AcDbLine
 10
164.9376434249839
 20
199.8867917452934
 30
0.000000000000000
 11
164.9376434249839
 21
197.7867917452933
 31
0.000000000000000
  0
LINE
  5
53
100
AcDbEntity
  8
A3
  6
DASHED
 62
2
100
AcDbLine
 10
166.9376434252345
 20
188.2867917453610
 30
0.000000000000000
 11
165.4376434249839
 21
188.2867917453610
 31
0.000000000000000
  0
LINE
  5
54
100
AcDbEntity
  8
A3
  6
DASHED
 62
2
100
AcDbLine
 10
180.4376434249839
 20
188.2867917453610
 30
0.000000000000000
 11
178.9376434252345
 21
188.2867917453610
 31
0.000000000000000
  0
LINE
  5
55
100
AcDbEntity
  8
A3
  6
DASHED
 62
2
100
AcDbLine
 10
166.9376434252390
 20
185.1867917453611
 30
0.000000000000000
 11
165.4376434249839
 21
185.1867917453611
 31
0.000000000000000
  0
LINE
  5
56
100
AcDbEntity
  8
A3
  6
DASHED
 62
2
100
AcDbLine
 10
180.4376434249839
 20
185.1867917453611
 30
0.000000000000000
 11
178.9376434252390
 21
185.1867917453611
 31
0.000000000000000
  0
LINE
  5
57
100
AcDbEntity
  8
A3
  6
DASHED
 62
2
100
AcDbLine
 10
166.9376434252256
 20
197.2867917452933
 30
0.000000000000000
 11
165.4376434249839
 21
197.2867917452933
 31
0.000000000000000
  0
LINE
  5
58
100
AcDbEntity
  8
A3
  6
DASHED
 62
2
100
AcDbLine
 10
180.4376434249835
 20
197.2867917452933
 30
0.000000000000000
 11
178.9376434252252
 21
197.2867917452933
 31
0.000000000000000
  0
LINE
  5
59
100
AcDbEntity
  8
A3
  6
DASHED
 62
2
100
AcDbLine
 10
178.4376434252258
 20
196.7867917452930
 30
0.000000000000000
 11
178.4376434252347
 21
188.7867917453607
 31
0.000000000000000
  0
LINE
  5
5A
100
AcDbEntity
  8
A3
  6
DASHED
 62
2
100
AcDbLine
 10
178.4376434252392
 20
184.6867917453604
 30
0.000000000000000
 11
178.4376434252539
 21
171.3867917453670
 31
0.000000000000000
  0
LINE
  5
5B
100
AcDbEntity
  8
A3
  6
DASHED
 62
2
100
AcDbLine
 10
167.4376434252258
 20
196.7867917452942
 30
0.000000000000000
 11
167.4376434252348
 21
188.6867917453616
 31
0.000000000000000
  0
LINE
  5
5C
100
AcDbEntity
  8
A3
  6
DASHED
 62
2
100
AcDbLine
 10
167.4376434252392
 20
184.6867917453615
 30
0.000000000000000
 11
167.4376434252539
 21
171.3867917453550
 31
0.000000000000000
  0
ARC
  5
5D
100
AcDbEntity
  8
A3
  6
DASHED
 62
2
100
AcDbCircle
 10
172.9376434252600
 20
171.3867917453609
 30
0.000000000000000
 40
5.499999999993956
100
AcDbArc
 50
180.0000000000000
 51
360.0000000000000
  0
ARC
  5
5E
100
AcDbEntity
  8
A3
  6
DASHED
 62
2
100
AcDbCircle
 10
178.9376434252252
 20
196.7867917452932
 30
0.000000000000000
 40
0.5000000000000000
100
AcDbArc
 50
90.00000000000000
 51
180.0000000000000
  0
ARC
  5
5F
100
AcDbEntity
  8
A3
  6
DASHED
 62
2
100
AcDbCircle
 10
178.9376434252345
 20
188.7867917453610
 30
0.000000000000000
 40
0.5000000000000000
100
AcDbArc
 50
180.0000000000000
 51
270.0000000000000
  0
ARC
  5
60
100
AcDbEntity
  8
A3
  6
DASHED
 62
2
100
AcDbCircle
 10
178.9376434252391
 20
184.6867917453611
 30
0.000000000000000
 40
0.5000000000000000
100
AcDbArc
 50
90.00000000000000
 51
180.0000000000000
  0
ARC
  5
61
100
AcDbEntity
  8
A3
  6
DASHED
 62
2
100
AcDbCircle
 10
166.9376434252256
 20
196.7867917452932
 30
0.000000000000000
 40
0.5000000000000000
100
AcDbArc
 50
0.000000000000000
 51
90.00000000000000
  0
ARC
  5
62
100
AcDbEntity
  8
A3
  6
DASHED
 62
2
100
AcDbCircle
 10
166.9376434252345
 20
188.7867917453610
 30
0.000000000000000
 40
0.5000000000000000
100
AcDbArc
 50
270.0000000000000
 51
360.0000000000000
  0
ARC
  5
63
100
AcDbEntity
  8
A3
  6
DASHED
 62
2
100
AcDbCircle
 10
166.9376434252391
 20
184.6867917453611
 30
0.000000000000000
 40
0.5000000000000000
100
AcDbArc
 50
0.000000000000000
 51
90.00000000000000
  0
LINE
  5
64
100
AcDbEntity
  8
A4
  6
CENTER
 62
1
100
AcDbLine
 10
176.0376434252599
 20
182.3867917453671
 30
0.000000000000000
 11
169.8376434252600
 21
182.3867917453671
 31
0.000000000000000
  0
LINE
  5
65
100
AcDbEntity
  8
A4
  6
CENTER
 62
1
100
AcDbLine
 10
176.0376434252599
 20
171.3867917453671
 30
0.000000000000000
 11
169.8376434252600
 21
171.3867917453671
 31
0.000000000000000
  0
CIRCLE
  5
66
100
AcDbEntity
  8
A3
  6
DASHED
 62
2
100
AcDbCircle
 10
172.9376434252538
 20
171.3867917453670
 30
0.000000000000000
 40
1.650000000000000
  0
CIRCLE
  5
67
100
AcDbEntity
  8
A3
  6
DASHED
 62
2
100
AcDbCircle
 10
172.9376434252418
 20
182.3867917453670
 30
0.000000000000000
 40
1.650000000000000
  0
ARC
  5
68
100
AcDbEntity
  8
A3
  6
DASHED
 62
2
100
AcDbCircle
 10
180.4376434249839
 20
185.6867917453611
 30
0.000000000000000
 40
0.5000000000000000
100
AcDbArc
 50
270.0000000000000
 51
281.5369590479351
  0
ARC
  5
69
100
AcDbEntity
  8
A1
  6
CONTINUOUS
 62
7
100
AcDbCircle
 10
180.4376434249839
 20
187.7867917453610
 30
0.000000000000000
 40
0.5000000000000000
100
AcDbArc
 50
0.000000000000000
 51
78.46304095206492
  0
ARC
  5
6A
100
AcDbEntity
  8
A3
  6
DASHED
 62
2
100
AcDbCircle
 10
180.4376434249839
 20
187.7867917453610
 30
0.000000000000000
 40
0.5000000000000000
100
AcDbArc
 50
78.46304095206492
 51
90.00000000000000
  0
ARC
  5
6B
100
AcDbEntity
  8
A1
  6
CONTINUOUS
 62
7
100
AcDbCircle
 10
180.4376434249835
 20
197.7867917452932
 30
0.000000000000000
 40
0.5000000000000000
100
AcDbArc
 50
270.0000000000000
 51
281.5369590479861
  0
ARC
  5
6C
100
AcDbEntity
  8
A1
  6
CONTINUOUS
 62
7
100
AcDbCircle
 10
180.4376434249835
 20
197.7867917452932
 30
0.000000000000000
 40
0.5000000000000000
100
AcDbArc
 50
281.5369590479861
 51
360.0000000000000
  0
ARC
  5
6D
100
AcDbEntity
  8
A1
  6
CONTINUOUS
 62
7
100
AcDbCircle
 10
180.4376434249835
 20
199.8867917452934
 30
0.000000000000000
 40
0.5000000000000000
100
AcDbArc
 50
0.000000000000000
 51
78.46304095201384
  0
ARC
  5
6E
100
AcDbEntity
  8
A1
  6
CONTINUOUS
 62
7
100
AcDbCircle
 10
180.4376434249835
 20
199.8867917452934
 30
0.000000000000000
 40
0.5000000000000000
100
AcDbArc
 50
78.46304095201384
 51
90.00000000000000
  0
ARC
  5
6F
100
AcDbEntity
  8
A1
  6
CONTINUOUS
 62
7
100
AcDbCircle
 10
165.4376434249839
 20
199.8867917452934
 30
0.000000000000000
 40
0.5000000000000000
100
AcDbArc
 50
90.00000000000000
 51
101.5369590176948
  0
ARC
  5
70
100
AcDbEntity
  8
A1
  6
CONTINUOUS
 62
7
100
AcDbCircle
 10
165.4376434249839
 20
199.8867917452934
 30
0.000000000000000
 40
0.5000000000000000
100
AcDbArc
 50
101.5369590176948
 51
180.0000000000000
  0
ARC
  5
71
100
AcDbEntity
  8
A1
  6
CONTINUOUS
 62
7
100
AcDbCircle
 10
165.4376434249839
 20
197.7867917452932
 30
0.000000000000000
 40
0.5000000000000000
100
AcDbArc
 50
180.0000000000000
 51
258.4630409823052
  0
ARC
  5
72
100
AcDbEntity
  8
A1
  6
CONTINUOUS
 62
7
100
AcDbCircle
 10
165.4376434249839
 20
197.7867917452932
 30
0.000000000000000
 40
0.5000000000000000
100
AcDbArc
 50
258.4630409823052
 51
270.0000000000000
  0
ARC
  5
73
100
AcDbEntity
  8
A3
  6
DASHED
 62
2
100
AcDbCircle
 10
165.4376434249839
 20
187.7867917453610
 30
0.000000000000000
 40
0.5000000000000000
100
AcDbArc
 50
90.00000000000000
 51
101.5369590176948
  0
ARC
  5
74
100
AcDbEntity
  8
A1
  6
CONTINUOUS
 62
7
100
AcDbCircle
 10
165.4376434249839
 20
187.7867917453610
 30
0.000000000000000
 40
0.5000000000000000
100
AcDbArc
 50
101.5369590176948
 51
180.0000000000000
  0
LINE
  5
75
100
AcDbEntity
  8
A1
  6
CONTINUOUS
 62
7
100
AcDbLine
 10
279.3318036668715
 20
190.2867917454084
 30
0.000000000000000
 11
279.3318036668715
 21
165.8867917454085
 31
0.000000000000000
  0
LINE
  5
76
100
AcDbEntity
  8
A1
  6
CONTINUOUS
 62
7
100
AcDbLine
 10
277.3318036668715
 20
165.8867917454085
 30
0.000000000000000
 11
279.3318036668715
 21
165.8867917454085
 31
0.000000000000000
  0
LINE
  5
77
100
AcDbEntity
  8
A4
  6
CENTER
 62
1
100
AcDbLine
 10
275.8318036668715
 20
182.3867917453994
 30
0.000000000000000
 11
280.8318036668715
 21
182.3867917453994
 31
0.000000000000000
  0
LINE
  5
78
100
AcDbEntity
  8
A4
  6
CENTER
 62
1
100
AcDbLine
 10
275.8318036668715
 20
171.3867917453994
 30
0.000000000000000
 11
280.8318036668715
 21
171.3867917453994
 31
0.000000000000000
  0
LINE
  5
79
100
AcDbEntity
  8
A1
  6
CONTINUOUS
 62
7
100
AcDbLine
 10
279.3318036668717
 20
185.1867917453243
 30
0.000000000000000
 11
277.3318036668612
 21
185.1867917453210
 31
0.000000000000000
  0
LINE
  5
7A
100
AcDbEntity
  8
A1
  6
CONTINUOUS
 62
7
100
AcDbLine
 10
279.3318036668715
 20
188.2867917454141
 30
0.000000000000000
 11
277.8318036668153
 21
188.2867917454143
 31
0.000000000000000
  0
ARC
  5
7B
100
AcDbEntity
  8
A1
  6
CONTINUOUS
 62
7
100
AcDbCircle
 10
273.7318036668718
 20
198.1867917454086
 30
0.000000000000000
 40
3.600000000000000
100
AcDbArc
 50
203.9096546253278
 51
210.0000000001705
  0
LINE
  5
7C
100
AcDbEntity
  8
A1
  6
CONTINUOUS
 62
7
100
AcDbLine
 10
277.5999005982811
 20
193.5815961872133
 30
0.000000000000000
 11
277.5443460333930
 21
193.6198391665385
 31
0.000000000000000
  0
ARC
  5
7D
100
AcDbEntity
  8
A1
  6
CONTINUOUS
 62
7
100
AcDbCircle
 10
275.3318036668715
 20
190.2867917454083
 30
0.000000000000000
 40
4.000000000000000
100
AcDbArc
 50
0.000000000000000
 51
55.45702394691750
  0
ARC
  5
7E
100
AcDbEntity
  8
A1
  6
CONTINUOUS
 62
7
100
AcDbCircle
 10
273.7318036668718
 20
198.1867917454086
 30
0.000000000000000
 40
4.100000000000000
100
AcDbArc
 50
199.6803560339717
 51
206.0416499560947
  0
LINE
  5
7F
100
AcDbEntity
  8
A1
  6
CONTINUOUS
 62
7
100
AcDbLine
 10
267.3318036668715
 20
198.2867917453995
 30
0.000000000000000
 11
267.3318036668715
 21
178.3877115477901
 31
0.000000000000000
  0
LINE
  5
80
100
AcDbEntity
  8
A1
  6
CONTINUOUS
 62
7
100
AcDbLine
 10
278.8318036668715
 20
182.8867917453994
 30
0.000000000000000
 11
278.8318036668715
 21
179.8867917453994
 31
0.000000000000000
  0
LINE
  5
81
100
AcDbEntity
  8
A1
  6
CONTINUOUS
 62
7
100
AcDbLine
 10
267.3318036668715
 20
178.3867917453994
 30
0.000000000000000
 11
277.3318036668715
 21
178.3867917453994
 31
0.000000000000000
  0
LINE
  5
82
100
AcDbEntity
  8
A1
  6
CONTINUOUS
 62
7
100
AcDbLine
 10
269.8318036668715
 20
196.3867917453994
 30
0.000000000000000
 11
270.7818036668522
 21
196.3867917453994
 31
0.000000000000000
  0
ARC
  5
83
100
AcDbEntity
  8
A1
  6
CONTINUOUS
 62
7
100
AcDbCircle
 10
275.8318036668715
 20
198.8867917453994
 30
0.000000000000000
 40
1.500000000000000
100
AcDbArc
 50
19.26637881150628
 51
53.72033478283747
  0
ARC
  5
84
100
AcDbEntity
  8
A1
  6
CONTINUOUS
 62
7
100
AcDbCircle
 10
277.3318036668715
 20
179.8867917453994
 30
0.000000000000000
 40
1.500000000000000
100
AcDbArc
 50
270.0000000000000
 51
360.0000000000000
  0
LINE
  5
85
100
AcDbEntity
  8
A1
  6
CONTINUOUS
 62
7
100
AcDbLine
 10
277.3318036668717
 20
183.3867917453994
 30
0.000000000000000
 11
278.8318036668716
 21
182.8867917453996
 31
0.000000000000000
  0
ARC
  5
86
100
AcDbEntity
  8
A1
  6
CONTINUOUS
 62
7
100
AcDbCircle
 10
271.4318036668716
 20
198.2867917453995
 30
0.000000000000000
 40
4.100000000000000
100
AcDbArc
 50
129.1249744900921
 51
180.0000000000000
  0
ARC
  5
87
100
AcDbEntity
  8
A1
  6
CONTINUOUS
 62
7
100
AcDbCircle
 10
269.8318036668715
 20
198.8867917453994
 30
0.000000000000000
 40
2.500000000000000
100
AcDbArc
 50
186.0388195281663
 51
270.0000000000000
  0
ARC
  5
88
100
AcDbEntity
  8
A1
  6
CONTINUOUS
 62
7
100
AcDbCircle
 10
267.8318036668715
 20
178.3877115477900
 30
0.000000000000000
 40
0.5000000000000000
100
AcDbArc
 50
180.0000000000000
 51
213.8275150334313
  0
ARC
  5
89
100
AcDbEntity
  8
A1
  6
CONTINUOUS
 62
7
100
AcDbCircle
 10
264.6318036668717
 20
171.4867917453995
 30
0.000000000000000
 40
6.000000000000000
100
AcDbArc
 50
348.0550647383764
 51
393.8275150334298
  0
LINE
  5
8A
100
AcDbEntity
  8
A1
  6
CONTINUOUS
 62
7
100
AcDbLine
 10
269.6161070155154
 20
174.8269594251270
 30
0.000000000000000
 11
267.4164450544848
 21
178.1093642411453
 31
0.000000000000000
  0
LINE
  5
8B
100
AcDbEntity
  8
A1
  6
CONTINUOUS
 62
7
100
AcDbLine
 10
270.9452545751533
 20
175.7176708063883
 30
0.000000000000000
 11
269.1565770268263
 21
178.3867917453992
 31
0.000000000000000
  0
ARC
  5
8C
100
AcDbEntity
  8
A1
  6
CONTINUOUS
 62
7
100
AcDbCircle
 10
264.6318036668717
 20
171.4867917453995
 30
0.000000000000000
 40
7.600000000000000
100
AcDbArc
 50
348.0549833320995
 51
393.8275150334298
  0
LINE
  5
8D
100
AcDbEntity
  8
A1
  6
CONTINUOUS
 62
7
100
AcDbLine
 10
269.3318036668718
 20
164.7140282228301
 30
0.000000000000000
 11
270.8981998023597
 21
164.3878332708034
 31
0.000000000000000
  0
LINE
  5
8E
100
AcDbEntity
  8
A1
  6
CONTINUOUS
 62
7
100
AcDbLine
 10
270.5018854556147
 20
170.2449625327174
 30
0.000000000000000
 11
269.3318036668717
 21
164.7140282228297
 31
0.000000000000000
  0
LINE
  5
8F
100
AcDbEntity
  8
A1
  6
CONTINUOUS
 62
7
100
AcDbLine
 10
272.0672383643647
 20
169.9137975116800
 30
0.000000000000000
 11
270.8981998023597
 21
164.3878332708036
 31
0.000000000000000
  0
LINE
  5
90
100
AcDbEntity
  8
A1
  6
CONTINUOUS
 62
7
100
AcDbLine
 10
183.2876434252439
 20
178.4867917454086
 30
0.000000000000000
 11
181.6876434252440
 21
178.4867917454086
 31
0.000000000000000
  0
LINE
  5
91
100
AcDbEntity
  8
A1
  6
CONTINUOUS
 62
7
100
AcDbLine
 10
183.2876434252439
 20
185.2363699620256
 30
0.000000000000000
 11
183.2876434252439
 21
178.4867917454086
 31
0.000000000000000
  0
ARC
  5
92
100
AcDbEntity
  8
A1
  6
CONTINUOUS
 62
7
100
AcDbCircle
 10
184.5876434252440
 20
189.2372135287918
 30
0.000000000000000
 40
0.5000000000000000
100
AcDbArc
 50
309.1054600577236
 51
354.2122511364979
  0
ARC
  5
93
100
AcDbEntity
  8
A1
  6
CONTINUOUS
 62
7
100
AcDbCircle
 10
184.5876434252440
 20
189.2372135287918
 30
0.000000000000000
 40
2.100000000000000
100
AcDbArc
 50
309.1054600577257
 51
358.6241747444629
  0
ARC
  5
94
100
AcDbEntity
  8
A1
  6
CONTINUOUS
 62
7
100
AcDbCircle
 10
183.7876434252440
 20
185.2363699620255
 30
0.000000000000000
 40
2.100000000000000
100
AcDbArc
 50
129.1054600577247
 51
180.0000000000000
  0
ARC
  5
95
100
AcDbEntity
  8
A1
  6
CONTINUOUS
 62
7
100
AcDbCircle
 10
183.7876434252440
 20
185.2363699620255
 30
0.000000000000000
 40
0.5000000000000000
100
AcDbArc
 50
129.1054600577244
 51
180.0000000000000
  0
LINE
  5
96
100
AcDbEntity
  8
A1
  6
CONTINUOUS
 62
7
100
AcDbLine
 10
165.3376434251092
 20
185.2363699619474
 30
0.000000000000000
 11
165.3376434251242
 21
178.4867917453304
 31
0.000000000000000
  0
LINE
  5
97
100
AcDbEntity
  8
A1
  6
CONTINUOUS
 62
7
100
AcDbLine
 10
183.2876434252439
 20
214.4867917454218
 30
0.000000000000000
 11
183.2876434252439
 21
209.0867917454085
 31
0.000000000000000
  0
LINE
  5
98
100
AcDbEntity
  8
A1
  6
CONTINUOUS
 62
7
100
AcDbLine
 10
181.6876434252437
 20
214.4867917454211
 30
0.000000000000000
 11
183.2876434251683
 21
214.4867917454216
 31
0.000000000000000
  0
LINE
  5
99
100
AcDbEntity
  8
A1
  6
CONTINUOUS
 62
7
100
AcDbLine
 10
188.2876434252437
 20
186.4867917454086
 30
0.000000000000000
 11
186.6876434252438
 21
186.4867917454086
 31
0.000000000000000
  0
LINE
  5
9A
100
AcDbEntity
  8
A1
  6
CONTINUOUS
 62
7
100
AcDbLine
 10
186.1876434252438
 20
208.5867917454085
 30
0.000000000000000
 11
183.7876434252438
 21
208.5867917454085
 31
0.000000000000000
  0
ARC
  5
9B
100
AcDbEntity
  8
A1
  6
CONTINUOUS
 62
7
100
AcDbCircle
 10
183.7876434252438
 20
209.0867917454084
 30
0.000000000000000
 40
0.5000000000000000
100
AcDbArc
 50
180.0000000000000
 51
270.0000000000000
  0
ARC
  5
9C
100
AcDbEntity
  8
A1
  6
CONTINUOUS
 62
7
100
AcDbCircle
 10
183.7876434252438
 20
209.0867917454084
 30
0.000000000000000
 40
2.100000000000000
100
AcDbArc
 50
180.0000000000000
 51
270.0000000000000
  0
ARC
  5
9D
100
AcDbEntity
  8
A1
  6
CONTINUOUS
 62
7
100
AcDbCircle
 10
186.1876434252439
 20
206.4867917454085
 30
0.000000000000000
 40
0.5000000000000000
100
AcDbArc
 50
0.000000000000000
 51
90.00000000000000
  0
ARC
  5
9E
100
AcDbEntity
  8
A1
  6
CONTINUOUS
 62
7
100
AcDbCircle
 10
186.1876434252439
 20
206.4867917454085
 30
0.000000000000000
 40
2.100000000000000
100
AcDbArc
 50
0.000000000000000
 51
90.00000000000000
  0
LINE
  5
9F
100
AcDbEntity
  8
A1
  6
CONTINUOUS
 62
7
100
AcDbLine
 10
183.7876434252438
 20
206.9867917454086
 30
0.000000000000000
 11
186.1876434252438
 21
206.9867917454086
 31
0.000000000000000
  0
LINE
  5
A0
100
AcDbEntity
  8
A1
  6
CONTINUOUS
 62
7
100
AcDbLine
 10
185.0876434252439
 20
206.4867917454086
 30
0.000000000000000
 11
186.6876434252438
 21
206.4867917454086
 31
0.000000000000000
  0
LINE
  5
A1
100
AcDbEntity
  8
A1
  6
CONTINUOUS
 62
7
100
AcDbLine
 10
277.8318036668404
 20
206.4867917454257
 30
0.000000000000000
 11
277.8318036668404
 21
203.7867917454257
 31
0.000000000000000
  0
LINE
  5
A2
100
AcDbEntity
  8
A1
  6
CONTINUOUS
 62
7
100
AcDbLine
 10
268.8318036668404
 20
206.4867917454257
 30
0.000000000000000
 11
268.8318036668404
 21
203.7867917454257
 31
0.000000000000000
  0
LINE
  5
A3
100
AcDbEntity
  8
A1
  6
CONTINUOUS
 62
7
100
AcDbLine
 10
270.7818036668440
 20
203.7867917454257
 30
0.000000000000000
 11
268.8318036668404
 21
203.7867917454257
 31
0.000000000000000
  0
LINE
  5
A4
100
AcDbEntity
  8
A1
  6
CONTINUOUS
 62
7
100
AcDbLine
 10
277.8318036668404
 20
203.7867917454257
 30
0.000000000000000
 11
275.8818036668444
 21
203.7867917454257
 31
0.000000000000000
  0
ARC
  5
A5
100
AcDbEntity
  8
A1
  6
CONTINUOUS
 62
7
100
AcDbCircle
 10
273.3318036668722
 20
181.0367917454315
 30
0.000000000000000
 40
2.549999999997397
100
AcDbArc
 50
180.0000000000000
 51
360.0000000000000
  0
LINE
  5
A6
100
AcDbEntity
  8
A1
  6
CONTINUOUS
 62
7
100
AcDbLine
 10
268.8318036668153
 20
189.1867917453789
 30
0.000000000000000
 11
268.8318036668153
 21
186.4867917453791
 31
0.000000000000000
  0
LINE
  5
A7
100
AcDbEntity
  8
A1
  6
CONTINUOUS
 62
7
100
AcDbLine
 10
277.8318036668153
 20
189.1867917453789
 30
0.000000000000000
 11
277.8318036668153
 21
186.4867917453791
 31
0.000000000000000
  0
ARC
  5
A8
100
AcDbEntity
  8
A1
  6
CONTINUOUS
 62
7
100
AcDbCircle
 10
274.8318036668592
 20
211.9867917453790
 30
0.000000000000000
 40
2.500000000000000
100
AcDbArc
 50
341.9502660499767
 51
524.3217237748893
  0
LINE
  5
A9
100
AcDbEntity
  8
A1
  6
CONTINUOUS
 62
7
100
AcDbLine
 10
268.8318036668153
 20
186.4867917453791
 30
0.000000000000000
 11
277.8318036668153
 21
186.4867917453791
 31
0.000000000000000
  0
LINE
  5
AA
100
AcDbEntity
  8
A1
  6
CONTINUOUS
 62
7
100
AcDbLine
 10
270.8318036668535
 20
206.9867917453791
 30
0.000000000000000
 11
275.8318036668535
 21
206.9867917453791
 31
0.000000000000000
  0
LINE
  5
AB
100
AcDbEntity
  8
A3
  6
DASHED
 62
2
100
AcDbLine
 10
271.2808888804495
 20
208.5867917453790
 30
0.000000000000000
 11
276.3532110713692
 21
208.5867917453790
 31
0.000000000000000
  0
LINE
  5
AC
100
AcDbEntity
  8
A1
  6
CONTINUOUS
 62
7
100
AcDbLine
 10
270.8318036668534
 20
206.9867917453788
 30
0.000000000000000
 11
272.4248179774463
 21
212.6623802969117
 31
0.000000000000000
  0
LINE
  5
AD
100
AcDbEntity
  8
A1
  6
CONTINUOUS
 62
7
100
AcDbLine
 10
277.2087734787128
 20
211.2121857077473
 30
0.000000000000000
 11
275.8318036668535
 21
206.9867917453794
 31
0.000000000000000
  0
LINE
  5
AE
100
AcDbEntity
  8
A1
  6
CONTINUOUS
 62
7
100
AcDbLine
 10
275.8318036668335
 20
189.1867917453789
 30
0.000000000000000
 11
277.8318036668153
 21
189.1867917453789
 31
0.000000000000000
  0
LINE
  5
AF
100
AcDbEntity
  8
A1
  6
CONTINUOUS
 62
7
100
AcDbLine
 10
268.8318036668153
 20
189.1867917453789
 30
0.000000000000000
 11
270.8318036668335
 21
189.1867917453789
 31
0.000000000000000
  0
LINE
  5
B0
100
AcDbEntity
  8
A4
  6
CENTER
 62
1
100
AcDbLine
 10
274.7318036668591
 20
208.7367917453791
 30
0.000000000000000
 11
274.7318036668591
 21
215.2367917453791
 31
0.000000000000000
  0
LINE
  5
B1
100
AcDbEntity
  8
A4
  6
CENTER
 62
1
100
AcDbLine
 10
271.4818036668591
 20
211.9867917453791
 30
0.000000000000000
 11
277.9818036668591
 21
211.9867917453791
 31
0.000000000000000
  0
LINE
  5
B2
100
AcDbEntity
  8
A1
  6
CONTINUOUS
 62
7
100
AcDbLine
 10
275.8818036668637
 20
186.4867917453792
 30
0.000000000000000
 11
275.8818036668697
 21
181.0367917454314
 31
0.000000000000000
  0
LINE
  5
B3
100
AcDbEntity
  8
A1
  6
CONTINUOUS
 62
7
100
AcDbLine
 10
270.7818036668633
 20
186.4867917453788
 30
0.000000000000000
 11
270.7818036668693
 21
181.0367917454255
 31
0.000000000000000
  0
LINE
  5
B4
100
AcDbEntity
  8
A1
  6
CONTINUOUS
 62
7
100
AcDbLine
 10
164.9376434249839
 20
187.7867917453610
 30
0.000000000000000
 11
164.9376434249839
 21
185.6867917453611
 31
0.000000000000000
  0
ARC
  5
B5
100
AcDbEntity
  8
A1
  6
CONTINUOUS
 62
7
100
AcDbCircle
 10
180.4376434249839
 20
185.6867917453611
 30
0.000000000000000
 40
0.5000000000000000
100
AcDbArc
 50
281.5369590479399
 51
360.0000000000000
  0
ARC
  5
B6
100
AcDbEntity
  8
A1
  6
CONTINUOUS
 62
7
100
AcDbCircle
 10
165.4376434249839
 20
185.6867917453611
 30
0.000000000000000
 40
0.5000000000000000
100
AcDbArc
 50
180.0000000000000
 51
258.4630409818408
  0
ARC
  5
B7
100
AcDbEntity
  8
A3
  6
DASHED
 62
2
100
AcDbCircle
 10
165.4376434249839
 20
185.6867917453611
 30
0.000000000000000
 40
0.5000000000000000
100
AcDbArc
 50
258.4630409818408
 51
270.0000000000000
  0
LINE
  5
B8
100
AcDbEntity
  8
A1
  6
CONTINUOUS
 62
7
100
AcDbLine
 10
165.3376434251186
 20
180.9867917454400
 30
0.000000000000000
 11
164.1876434252577
 21
180.9867917454400
 31
0.000000000000000
  0
LINE
  5
B9
100
AcDbEntity
  8
A1
  6
CONTINUOUS
 62
7
100
AcDbLine
 10
181.6876434252577
 20
180.9867917454400
 30
0.000000000000000
 11
180.5376434251132
 21
180.9867917454400
 31
0.000000000000000
  0
LINE
  5
BA
100
AcDbEntity
  8
A1
  6
CONTINUOUS
 62
7
100
AcDbLine
 10
165.3376434251132
 20
183.9867917454400
 30
0.000000000000000
 11
164.1876434252577
 21
183.9867917454400
 31
0.000000000000000
  0
LINE
  5
BB
100
AcDbEntity
  8
A1
  6
CONTINUOUS
 62
7
100
AcDbLine
 10
181.6876434252577
 20
183.9867917454400
 30
0.000000000000000
 11
180.5376434251132
 21
183.9867917454400
 31
0.000000000000000
  0
ARC
  5
BC
100
AcDbEntity
  8
A1
  6
CONTINUOUS
 62
7
100
AcDbCircle
 10
182.9376434252438
 20
182.4867917454029
 30
0.000000000000000
 40
1.249999999999972
100
AcDbArc
 50
286.2602047083087
 51
433.7397952916907
  0
LINE
  5
BD
100
AcDbEntity
  8
A1
  6
CONTINUOUS
 62
7
100
AcDbLine
 10
181.6876434252427
 20
213.4867917454347
 30
0.000000000000000
 11
164.1876434252427
 21
213.4867917454347
 31
0.000000000000000
  0
LINE
  5
BE
100
AcDbEntity
  8
A1
  6
CONTINUOUS
 62
7
100
AcDbLine
 10
181.6876434252427
 20
210.4867917454347
 30
0.000000000000000
 11
164.1876434252427
 21
210.4867917454347
 31
0.000000000000000
  0
LINE
  5
BF
100
AcDbEntity
  8
A1
  6
CONTINUOUS
 62
7
100
AcDbLine
 10
181.6876434252427
 20
213.4867917454347
 30
0.000000000000000
 11
181.6876434252427
 21
210.4867917454347
 31
0.000000000000000
  0
LINE
  5
C0
100
AcDbEntity
  8
A1
  6
CONTINUOUS
 62
7
100
AcDbLine
 10
164.1876434252427
 20
213.4867917454347
 30
0.000000000000000
 11
164.1876434252427
 21
210.4867917454347
 31
0.000000000000000
  0
ARC
  5
C1
100
AcDbEntity
  8
A1
  6
CONTINUOUS
 62
7
100
AcDbCircle
 10
182.9376434252435
 20
211.9867917454064
 30
0.000000000000000
 40
1.249999999999972
100
AcDbArc
 50
286.2602047083087
 51
433.7397952916907
  0
LINE
  5
C2
100
AcDbEntity
  8
A4
  6
CENTER
 62
1
100
AcDbLine
 10
160.1876434251506
 20
211.9867917453145
 30
0.000000000000000
 11
185.6876434251299
 21
211.9867917454130
 31
0.000000000000000
  0
ARC
  5
C3
100
AcDbEntity
  8
A1
  6
CONTINUOUS
 62
7
100
AcDbCircle
 10
190.6876434252375
 20
189.5367917453516
 30
0.000000000000000
 40
0.6999999999999886
100
AcDbArc
 50
330.0000000025510
 51
455.0006445975597
  0
ARC
  5
C4
100
AcDbEntity
  8
A1
  6
CONTINUOUS
 62
7
100
AcDbCircle
 10
182.6876434252375
 20
188.8367917453518
 30
0.000000000000000
 40
0.6999999999999886
100
AcDbArc
 50
95.00064459755680
 51
149.9999999974469
  0
LINE
  5
C5
100
AcDbEntity
  8
A1
  6
CONTINUOUS
 62
7
100
AcDbLine
 10
190.7486602904283
 20
203.4394561431436
 30
0.000000000000000
 11
182.7486602904287
 21
202.7394561431468
 31
0.000000000000000
  0
ARC
  5
C6
100
AcDbEntity
  8
A1
  6
CONTINUOUS
 62
7
100
AcDbCircle
 10
182.6876434252320
 20
203.4367917453952
 30
0.000000000000000
 40
0.6999999999999886
100
AcDbArc
 50
149.9999999989886
 51
275.0006445975371
  0
ARC
  5
C7
100
AcDbEntity
  8
A1
  6
CONTINUOUS
 62
7
100
AcDbCircle
 10
190.6876434252320
 20
204.1367917453920
 30
0.000000000000000
 40
0.6999999999999886
100
AcDbArc
 50
275.0006445975361
 51
330.0000000013054
  0
ARC
  5
C8
100
AcDbEntity
  8
A1
  6
CONTINUOUS
 62
7
100
AcDbCircle
 10
190.6876434252320
 20
202.7367917453919
 30
0.000000000000000
 40
0.6999999999999886
100
AcDbArc
 50
277.8290765186906
 51
457.8290765186924
  0
ARC
  5
C9
100
AcDbEntity
  8
A1
  6
CONTINUOUS
 62
7
100
AcDbCircle
 10
182.6876434252375
 20
190.2367917453519
 30
0.000000000000000
 40
0.6999999999999886
100
AcDbArc
 50
100.6196552762066
 51
280.6196552762055
  0
LINE
  5
CA
100
AcDbEntity
  8
A1
  6
CONTINUOUS
 62
7
100
AcDbLine
 10
182.6266265600411
 20
189.5341273475985
 30
0.000000000000000
 11
190.6266265600410
 21
190.2341273475982
 31
0.000000000000000
  0
LINE
  5
CB
100
AcDbEntity
  8
A1
  6
CONTINUOUS
 62
7
100
AcDbLine
 10
188.2876434252437
 20
206.4867917454086
 30
0.000000000000000
 11
188.2876434252437
 21
203.7867917454060
 31
0.000000000000000
  0
LINE
  5
CC
100
AcDbEntity
  8
A1
  6
CONTINUOUS
 62
7
100
AcDbLine
 10
186.6876434252438
 20
206.4867917454086
 30
0.000000000000000
 11
186.6876434252438
 21
203.7867917454060
 31
0.000000000000000
  0
LINE
  5
CD
100
AcDbEntity
  8
A1
  6
CONTINUOUS
 62
7
100
AcDbLine
 10
182.0814256426038
 20
189.1867917453789
 30
0.000000000000000
 11
191.2938612079020
 21
189.1867917453789
 31
0.000000000000000
  0
LINE
  5
CE
100
AcDbEntity
  8
A1
  6
CONTINUOUS
 62
7
100
AcDbLine
 10
182.0814256425891
 20
203.7867917454060
 30
0.000000000000000
 11
191.2938612078891
 21
203.7867917454060
 31
0.000000000000000
  0
ARC
  5
CF
100
AcDbEntity
  8
A1
  6
CONTINUOUS
 62
7
100
AcDbCircle
 10
277.3318036668770
 20
203.0867917454108
 30
0.000000000000000
 40
0.6999999999999886
100
AcDbArc
 50
277.9461947266719
 51
457.9461947266725
  0
LINE
  5
D0
100
AcDbEntity
  8
A1
  6
CONTINUOUS
 62
7
100
AcDbLine
 10
268.6318087764380
 20
203.7867917454026
 30
0.000000000000000
 11
274.0165527729348
 21
203.7867917454146
 31
0.000000000000000
  0
ARC
  5
D1
100
AcDbEntity
  8
A1
  6
CONTINUOUS
 62
7
100
AcDbCircle
 10
269.3318036668715
 20
203.7841171674719
 30
0.000000000000000
 40
0.6999999999999886
100
AcDbArc
 50
179.7810838826194
 51
271.8529896501454
  0
LINE
  5
D2
100
AcDbEntity
  8
A1
  6
CONTINUOUS
 62
7
100
AcDbLine
 10
273.3542956169584
 20
203.2138867965296
 30
0.000000000000000
 11
269.3544382599877
 21
203.0844832094665
 31
0.000000000000000
  0
ARC
  5
D3
100
AcDbEntity
  8
A1
  6
CONTINUOUS
 62
7
100
AcDbCircle
 10
273.3318036670657
 20
203.9091116607809
 30
0.000000000000000
 40
0.6955885994490814
100
AcDbArc
 50
270.1014991582632
 51
349.8718181217070
  0
LINE
  5
D4
100
AcDbEntity
  8
A1
  6
CONTINUOUS
 62
7
100
AcDbLine
 10
269.2710181751648
 20
189.8868221320819
 30
0.000000000000000
 11
277.2710181751707
 21
190.5841475541293
 31
0.000000000000000
  0
ARC
  5
D5
100
AcDbEntity
  8
A1
  6
CONTINUOUS
 62
7
100
AcDbCircle
 10
277.3318036668770
 20
189.8867917453787
 30
0.000000000000000
 40
0.6999999999999886
100
AcDbArc
 50
270.0000000000000
 51
454.9816343358786
  0
ARC
  5
D6
100
AcDbEntity
  8
A1
  6
CONTINUOUS
 62
7
100
AcDbCircle
 10
269.3318036668715
 20
189.1894663233314
 30
0.000000000000000
 40
0.7000000000000001
100
AcDbArc
 50
94.96262297354909
 51
180.2189161185158
  0
LINE
  5
D7
100
AcDbEntity
  8
A1
  6
CONTINUOUS
 62
7
100
AcDbLine
 10
268.6318087764379
 20
189.1867917453789
 30
0.000000000000000
 11
277.8305069721218
 21
189.1867917453789
 31
0.000000000000000
  0
ARC
  5
D8
100
AcDbEntity
  8
A1
  6
CONTINUOUS
 62
7
100
AcDbCircle
 10
269.3318036668213
 20
201.9701250799491
 30
0.000000000000000
 40
0.6999999999999886
100
AcDbArc
 50
97.94619472667250
 51
277.9461947266719
  0
LINE
  5
D9
100
AcDbEntity
  8
A1
  6
CONTINUOUS
 62
7
100
AcDbLine
 10
269.4285738365482
 20
201.2768462513015
 30
0.000000000000000
 11
277.4285738366042
 21
202.3935129167632
 31
0.000000000000000
  0
LINE
  5
DA
100
AcDbEntity
  8
A1
  6
CONTINUOUS
 62
7
100
AcDbLine
 10
277.2350334971503
 20
203.7800705740586
 30
0.000000000000000
 11
269.2350334970943
 21
202.6634039085968
 31
0.000000000000000
  0
LINE
  5
DB
100
AcDbEntity
  8
A1
  6
CONTINUOUS
 62
7
100
AcDbLine
 10
269.2710181751636
 20
203.0867613587219
 30
0.000000000000000
 11
270.7818036668450
 21
202.9550727173931
 31
0.000000000000000
  0
ARC
  5
DC
100
AcDbEntity
  8
A1
  6
CONTINUOUS
 62
7
100
AcDbCircle
 10
190.6876434252320
 20
200.5367917453853
 30
0.000000000000000
 40
0.6999999999999886
100
AcDbArc
 50
277.8290765186906
 51
457.8290765186924
  0
ARC
  5
DD
100
AcDbEntity
  8
A1
  6
CONTINUOUS
 62
7
100
AcDbCircle
 10
190.6876434252320
 20
198.3367917453784
 30
0.000000000000000
 40
0.6999999999999886
100
AcDbArc
 50
277.8290765186901
 51
457.8290765186905
  0
ARC
  5
DE
100
AcDbEntity
  8
A1
  6
CONTINUOUS
 62
7
100
AcDbCircle
 10
190.6876434252320
 20
196.1367917453718
 30
0.000000000000000
 40
0.6999999999999886
100
AcDbArc
 50
277.8290765186926
 51
457.8290765186924
  0
ARC
  5
DF
100
AcDbEntity
  8
A1
  6
CONTINUOUS
 62
7
100
AcDbCircle
 10
190.6876434252320
 20
193.9367917453652
 30
0.000000000000000
 40
0.6999999999999886
100
AcDbArc
 50
277.8290765186903
 51
457.8290765186924
  0
ARC
  5
E0
100
AcDbEntity
  8
A1
  6
CONTINUOUS
 62
7
100
AcDbCircle
 10
190.6876434252320
 20
191.7367917453583
 30
0.000000000000000
 40
0.6999999999999886
100
AcDbArc
 50
280.6196552762043
 51
460.6196552762065
  0
ARC
  5
E1
100
AcDbEntity
  8
A1
  6
CONTINUOUS
 62
7
100
AcDbCircle
 10
182.6876434252375
 20
192.8367917441379
 30
0.000000000000000
 40
0.6999999999999886
100
AcDbArc
 50
97.82907651869242
 51
277.8290765186926
  0
ARC
  5
E2
100
AcDbEntity
  8
A1
  6
CONTINUOUS
 62
7
100
AcDbCircle
 10
182.6876434252375
 20
195.0367917441445
 30
0.000000000000000
 40
0.6999999999999886
100
AcDbArc
 50
97.82907651869242
 51
277.8290765186926
  0
ARC
  5
E3
100
AcDbEntity
  8
A1
  6
CONTINUOUS
 62
7
100
AcDbCircle
 10
182.6876434252375
 20
197.2367917441514
 30
0.000000000000000
 40
0.6999999999999886
100
AcDbArc
 50
97.82907651869057
 51
277.8290765186901
  0
ARC
  5
E4
100
AcDbEntity
  8
A1
  6
CONTINUOUS
 62
7
100
AcDbCircle
 10
182.6876434252375
 20
199.4367917441580
 30
0.000000000000000
 40
0.6999999999999886
100
AcDbArc
 50
97.82907651869242
 51
277.8290765186906
  0
ARC
  5
E5
100
AcDbEntity
  8
A1
  6
CONTINUOUS
 62
7
100
AcDbCircle
 10
182.6876434252375
 20
201.6367917441647
 30
0.000000000000000
 40
0.6999999999999886
100
AcDbArc
 50
97.82907651869242
 51
277.8290765186906
  0
LINE
  5
E6
100
AcDbEntity
  8
A1
  6
CONTINUOUS
 62
7
100
AcDbLine
 10
190.7829962636719
 20
202.0433165575149
 30
0.000000000000000
 11
182.7829962636773
 21
200.9433165562876
 31
0.000000000000000
  0
LINE
  5
E7
100
AcDbEntity
  8
A1
  6
CONTINUOUS
 62
7
100
AcDbLine
 10
182.5922905867981
 20
202.3302669320423
 30
0.000000000000000
 11
190.5922905867925
 21
203.4302669332696
 31
0.000000000000000
  0
LINE
  5
E8
100
AcDbEntity
  8
A1
  6
CONTINUOUS
 62
7
100
AcDbLine
 10
190.5922905867925
 20
201.2302669332630
 30
0.000000000000000
 11
182.5922905867981
 21
200.1302669320357
 31
0.000000000000000
  0
LINE
  5
E9
100
AcDbEntity
  8
A1
  6
CONTINUOUS
 62
7
100
AcDbLine
 10
182.7829962636773
 20
198.7433165562809
 30
0.000000000000000
 11
190.7829962636719
 21
199.8433165575082
 31
0.000000000000000
  0
LINE
  5
EA
100
AcDbEntity
  8
A1
  6
CONTINUOUS
 62
7
100
AcDbLine
 10
190.5922905867926
 20
199.0302669332556
 30
0.000000000000000
 11
182.5922905867979
 21
197.9302669320286
 31
0.000000000000000
  0
LINE
  5
EB
100
AcDbEntity
  8
A1
  6
CONTINUOUS
 62
7
100
AcDbLine
 10
182.7829962636773
 20
196.5433165562740
 30
0.000000000000000
 11
190.7829962636717
 21
197.6433165575011
 31
0.000000000000000
  0
LINE
  5
EC
100
AcDbEntity
  8
A1
  6
CONTINUOUS
 62
7
100
AcDbLine
 10
190.5922905867925
 20
196.8302669332492
 30
0.000000000000000
 11
182.5922905867981
 21
195.7302669320219
 31
0.000000000000000
  0
LINE
  5
ED
100
AcDbEntity
  8
A1
  6
CONTINUOUS
 62
7
100
AcDbLine
 10
182.7829962636773
 20
194.3433165562672
 30
0.000000000000000
 11
190.7829962636719
 21
195.4433165574944
 31
0.000000000000000
  0
LINE
  5
EE
100
AcDbEntity
  8
A1
  6
CONTINUOUS
 62
7
100
AcDbLine
 10
190.5922905867925
 20
194.6302669332425
 30
0.000000000000000
 11
182.5922905867981
 21
193.5302669320153
 31
0.000000000000000
  0
LINE
  5
EF
100
AcDbEntity
  8
A1
  6
CONTINUOUS
 62
7
100
AcDbLine
 10
182.7829962636773
 20
192.1433165562605
 30
0.000000000000000
 11
190.7829962636719
 21
193.2433165574878
 31
0.000000000000000
  0
LINE
  5
F0
100
AcDbEntity
  8
A1
  6
CONTINUOUS
 62
7
100
AcDbLine
 10
190.5586414506965
 20
192.4248022762119
 30
0.000000000000000
 11
182.5586414507019
 21
190.9248022762055
 31
0.000000000000000
  0
LINE
  5
F1
100
AcDbEntity
  8
A1
  6
CONTINUOUS
 62
7
100
AcDbLine
 10
190.8166453997678
 20
191.0487812145042
 30
0.000000000000000
 11
182.8166453997734
 21
189.5487812144978
 31
0.000000000000000
  0
LINE
  5
F2
100
AcDbEntity
  8
A1
  6
CONTINUOUS
 62
7
100
AcDbLine
 10
190.7486602904344
 20
190.2341273475990
 30
0.000000000000000
 11
188.2876434252441
 21
190.4494663233030
 31
0.000000000000000
  0
LINE
  5
F3
100
AcDbEntity
  8
A1
  6
CONTINUOUS
 62
7
100
AcDbLine
 10
190.7829962634636
 20
192.4302669332641
 30
0.000000000000000
 11
188.2876434252440
 21
192.7733779481388
 31
0.000000000000000
  0
LINE
  5
F4
100
AcDbEntity
  8
A1
  6
CONTINUOUS
 62
7
100
AcDbLine
 10
182.5922905870061
 20
192.1433165562320
 30
0.000000000000000
 11
185.0876434252440
 21
191.8002055413548
 31
0.000000000000000
  0
LINE
  5
F5
100
AcDbEntity
  8
A1
  6
CONTINUOUS
 62
7
100
AcDbLine
 10
190.7829962634634
 20
194.6302669332709
 30
0.000000000000000
 11
188.2876434252437
 21
194.9733779481456
 31
0.000000000000000
  0
LINE
  5
F6
100
AcDbEntity
  8
A1
  6
CONTINUOUS
 62
7
100
AcDbLine
 10
182.5922905870063
 20
194.3433165562390
 30
0.000000000000000
 11
185.0876434252440
 21
194.0002055413619
 31
0.000000000000000
  0
LINE
  5
F7
100
AcDbEntity
  8
A1
  6
CONTINUOUS
 62
7
100
AcDbLine
 10
185.0876434252440
 20
196.2002055413684
 30
0.000000000000000
 11
182.5922905870061
 21
196.5433165562458
 31
0.000000000000000
  0
LINE
  5
F8
100
AcDbEntity
  8
A1
  6
CONTINUOUS
 62
7
100
AcDbLine
 10
188.2876434252441
 20
197.1733779481524
 30
0.000000000000000
 11
190.7829962634637
 21
196.8302669332776
 31
0.000000000000000
  0
LINE
  5
F9
100
AcDbEntity
  8
A1
  6
CONTINUOUS
 62
7
100
AcDbLine
 10
185.0876434252438
 20
198.4002055413752
 30
0.000000000000000
 11
182.5922905870059
 21
198.7433165562524
 31
0.000000000000000
  0
LINE
  5
FA
100
AcDbEntity
  8
A1
  6
CONTINUOUS
 62
7
100
AcDbLine
 10
188.2876434252440
 20
199.3733779481597
 30
0.000000000000000
 11
190.7829962634637
 21
199.0302669332850
 31
0.000000000000000
  0
LINE
  5
FB
100
AcDbEntity
  8
A1
  6
CONTINUOUS
 62
7
100
AcDbLine
 10
185.0876434252441
 20
200.6002055413819
 30
0.000000000000000
 11
182.5922905870062
 21
200.9433165562590
 31
0.000000000000000
  0
LINE
  5
FC
100
AcDbEntity
  8
A1
  6
CONTINUOUS
 62
7
100
AcDbLine
 10
188.2876434252443
 20
201.5733779481662
 30
0.000000000000000
 11
190.7829962634637
 21
201.2302669332915
 31
0.000000000000000
  0
LINE
  5
FD
100
AcDbEntity
  8
A1
  6
CONTINUOUS
 62
7
100
AcDbLine
 10
184.4242621800517
 20
202.5821630263954
 30
0.000000000000000
 11
182.6266265600353
 21
202.7394561431476
 31
0.000000000000000
  0
LINE
  5
FE
100
AcDbEntity
  8
A1
  6
CONTINUOUS
 62
7
100
AcDbLine
 10
188.2876434252437
 20
189.1867917453789
 30
0.000000000000000
 11
188.2876434252437
 21
186.4867917454086
 31
0.000000000000000
  0
LINE
  5
FF
100
AcDbEntity
  8
A1
  6
CONTINUOUS
 62
7
100
AcDbLine
 10
185.0876434252439
 20
206.4867917454086
 30
0.000000000000000
 11
185.0876434252439
 21
203.7867917454060
 31
0.000000000000000
  0
LINE
  5
100
100
AcDbEntity
  8
A1
  6
CONTINUOUS
 62
7
100
AcDbLine
 10
188.2876434252437
 20
203.2241171674410
 30
0.000000000000000
 11
188.2876434252437
 21
203.1133779482028
 31
0.000000000000000
  0
LINE
  5
101
100
AcDbEntity
  8
A1
  6
CONTINUOUS
 62
7
100
AcDbLine
 10
186.6876434252438
 20
203.0841171674418
 30
0.000000000000000
 11
186.6876434252438
 21
202.8933779479572
 31
0.000000000000000
  0
LINE
  5
102
100
AcDbEntity
  8
A1
  6
CONTINUOUS
 62
7
100
AcDbLine
 10
185.0876434252439
 20
202.9441171674426
 30
0.000000000000000
 11
185.0876434252439
 21
202.6733779477114
 31
0.000000000000000
  0
LINE
  5
103
100
AcDbEntity
  8
A1
  6
CONTINUOUS
 62
7
100
AcDbLine
 10
188.2876434252437
 20
201.7002055418480
 30
0.000000000000000
 11
188.2876434252437
 21
200.9133779481962
 31
0.000000000000000
  0
LINE
  5
104
100
AcDbEntity
  8
A1
  6
CONTINUOUS
 62
7
100
AcDbLine
 10
186.6876434252438
 20
201.4802055416025
 30
0.000000000000000
 11
186.6876434252438
 21
200.6933779479506
 31
0.000000000000000
  0
LINE
  5
105
100
AcDbEntity
  8
A1
  6
CONTINUOUS
 62
7
100
AcDbLine
 10
185.0876434252439
 20
201.2602055413566
 30
0.000000000000000
 11
185.0876434252439
 21
200.4733779477050
 31
0.000000000000000
  0
LINE
  5
106
100
AcDbEntity
  8
A1
  6
CONTINUOUS
 62
7
100
AcDbLine
 10
185.0876434252439
 20
199.0602055413502
 30
0.000000000000000
 11
185.0876434252439
 21
198.2733779476979
 31
0.000000000000000
  0
LINE
  5
107
100
AcDbEntity
  8
A1
  6
CONTINUOUS
 62
7
100
AcDbLine
 10
186.6876434252438
 20
199.2802055415958
 30
0.000000000000000
 11
186.6876434252438
 21
198.4933779479433
 31
0.000000000000000
  0
LINE
  5
108
100
AcDbEntity
  8
A1
  6
CONTINUOUS
 62
7
100
AcDbLine
 10
188.2876434252437
 20
199.5002055418414
 30
0.000000000000000
 11
188.2876434252437
 21
198.7133779481888
 31
0.000000000000000
  0
LINE
  5
109
100
AcDbEntity
  8
A1
  6
CONTINUOUS
 62
7
100
AcDbLine
 10
188.2876434252437
 20
197.3002055418341
 30
0.000000000000000
 11
188.2876434252437
 21
196.5133779481827
 31
0.000000000000000
  0
LINE
  5
10A
100
AcDbEntity
  8
A1
  6
CONTINUOUS
 62
7
100
AcDbLine
 10
186.6876434252438
 20
197.0802055415887
 30
0.000000000000000
 11
186.6876434252438
 21
196.2933779479371
 31
0.000000000000000
  0
LINE
  5
10B
100
AcDbEntity
  8
A1
  6
CONTINUOUS
 62
7
100
AcDbLine
 10
185.0876434252439
 20
196.8602055413429
 30
0.000000000000000
 11
185.0876434252439
 21
196.0733779476915
 31
0.000000000000000
  0
LINE
  5
10C
100
AcDbEntity
  8
A1
  6
CONTINUOUS
 62
7
100
AcDbLine
 10
185.0876434252439
 20
194.6602055413365
 30
0.000000000000000
 11
185.0876434252439
 21
193.8733779476848
 31
0.000000000000000
  0
LINE
  5
10D
100
AcDbEntity
  8
A1
  6
CONTINUOUS
 62
7
100
AcDbLine
 10
186.6876434252438
 20
194.8802055415821
 30
0.000000000000000
 11
186.6876434252438
 21
194.0933779479307
 31
0.000000000000000
  0
LINE
  5
10E
100
AcDbEntity
  8
A1
  6
CONTINUOUS
 62
7
100
AcDbLine
 10
188.2876434252437
 20
195.1002055418277
 30
0.000000000000000
 11
188.2876434252437
 21
194.3133779481760
 31
0.000000000000000
  0
LINE
  5
10F
100
AcDbEntity
  8
A1
  6
CONTINUOUS
 62
7
100
AcDbLine
 10
188.2876434252437
 20
192.9002055418210
 30
0.000000000000000
 11
188.2876434252437
 21
191.9989901464379
 31
0.000000000000000
  0
LINE
  5
110
100
AcDbEntity
  8
A1
  6
CONTINUOUS
 62
7
100
AcDbLine
 10
188.2876434252437
 20
190.5745933442789
 30
0.000000000000000
 11
188.2876434252437
 21
190.0294663233036
 31
0.000000000000000
  0
LINE
  5
111
100
AcDbEntity
  8
A1
  6
CONTINUOUS
 62
7
100
AcDbLine
 10
186.6876434252438
 20
192.6802055415754
 30
0.000000000000000
 11
186.6876434252438
 21
191.6989901464364
 31
0.000000000000000
  0
LINE
  5
112
100
AcDbEntity
  8
A1
  6
CONTINUOUS
 62
7
100
AcDbLine
 10
185.0876434252439
 20
192.4602055413299
 30
0.000000000000000
 11
185.0876434252439
 21
191.3989901464348
 31
0.000000000000000
  0
LINE
  5
113
100
AcDbEntity
  8
A1
  6
CONTINUOUS
 62
7
100
AcDbLine
 10
185.0876434252439
 20
189.9745933442761
 30
0.000000000000000
 11
185.0876434252439
 21
189.7494663233039
 31
0.000000000000000
  0
LINE
  5
114
100
AcDbEntity
  8
A1
  6
CONTINUOUS
 62
7
100
AcDbLine
 10
186.6876434252438
 20
190.2745933442776
 30
0.000000000000000
 11
186.6876434252438
 21
189.8894663233037
 31
0.000000000000000
  0
LINE
  5
115
100
AcDbEntity
  8
A1
  6
CONTINUOUS
 62
7
100
AcDbLine
 10
186.6876434252438
 20
189.1867917453789
 30
0.000000000000000
 11
186.6876434252438
 21
186.4867917454086
 31
0.000000000000000
  0
LINE
  5
116
100
AcDbEntity
  8
A1
  6
CONTINUOUS
 62
7
100
AcDbLine
 10
270.8318036668529
 20
206.4867917454257
 30
0.000000000000000
 11
268.8318036668404
 21
206.4867917454257
 31
0.000000000000000
  0
LINE
  5
117
100
AcDbEntity
  8
A1
  6
CONTINUOUS
 62
7
100
AcDbLine
 10
277.8318036668404
 20
206.4867917454257
 30
0.000000000000000
 11
275.8318036668529
 21
206.4867917454257
 31
0.000000000000000
  0
LINE
  5
118
100
AcDbEntity
  8
A1
  6
CONTINUOUS
 62
7
100
AcDbLine
 10
277.3318036668715
 20
186.4867917453791
 30
0.000000000000000
 11
277.3318036668715
 21
183.3867917453997
 31
0.000000000000000
  0
ARC
  5
119
100
AcDbEntity
  8
A1
  6
CONTINUOUS
 62
7
100
AcDbCircle
 10
277.3318036668770
 20
200.8867917454055
 30
0.000000000000000
 40
0.6999999999999886
100
AcDbArc
 50
277.8290765100425
 51
457.8290765100423
  0
ARC
  5
11A
100
AcDbEntity
  8
A1
  6
CONTINUOUS
 62
7
100
AcDbCircle
 10
277.3318036668770
 20
198.6867917454000
 30
0.000000000000000
 40
0.6999999999999886
100
AcDbArc
 50
277.8290765100402
 51
457.8290765100402
  0
ARC
  5
11B
100
AcDbEntity
  8
A1
  6
CONTINUOUS
 62
7
100
AcDbCircle
 10
277.3318036668770
 20
196.4867917453947
 30
0.000000000000000
 40
0.6999999999999886
100
AcDbArc
 50
277.8290765100380
 51
457.8290765100377
  0
ARC
  5
11C
100
AcDbEntity
  8
A1
  6
CONTINUOUS
 62
7
100
AcDbCircle
 10
277.3318036668770
 20
194.2867917453895
 30
0.000000000000000
 40
0.6999999999999886
100
AcDbArc
 50
277.8290765100384
 51
457.8290765100377
  0
ARC
  5
11D
100
AcDbEntity
  8
A1
  6
CONTINUOUS
 62
7
100
AcDbCircle
 10
277.3318036668770
 20
192.0867917453839
 30
0.000000000000000
 40
0.6999999999999886
100
AcDbArc
 50
277.8290765100338
 51
457.8290765100326
  0
ARC
  5
11E
100
AcDbEntity
  8
A1
  6
CONTINUOUS
 62
7
100
AcDbCircle
 10
269.3318036668642
 20
190.9867917453859
 30
0.000000000000000
 40
0.6999999999999886
100
AcDbArc
 50
97.82907651003264
 51
277.8290765100338
  0
ARC
  5
11F
100
AcDbEntity
  8
A1
  6
CONTINUOUS
 62
7
100
AcDbCircle
 10
269.3318036668667
 20
193.1867917453911
 30
0.000000000000000
 40
0.6999999999999886
100
AcDbArc
 50
97.82907651003771
 51
277.8290765100384
  0
ARC
  5
120
100
AcDbEntity
  8
A1
  6
CONTINUOUS
 62
7
100
AcDbCircle
 10
269.3318036668692
 20
195.3867917453966
 30
0.000000000000000
 40
0.6999999999999886
100
AcDbArc
 50
97.82907651003771
 51
277.8290765100380
  0
ARC
  5
121
100
AcDbEntity
  8
A1
  6
CONTINUOUS
 62
7
100
AcDbCircle
 10
269.3318036668717
 20
197.5867917454019
 30
0.000000000000000
 40
0.6999999999999886
100
AcDbArc
 50
97.82907651004024
 51
277.8290765100402
  0
ARC
  5
122
100
AcDbEntity
  8
A1
  6
CONTINUOUS
 62
7
100
AcDbCircle
 10
269.3318036668742
 20
199.7867917454074
 30
0.000000000000000
 40
0.6999999999999886
100
AcDbArc
 50
97.82907651004234
 51
277.8290765100425
  0
LINE
  5
123
100
AcDbEntity
  8
A1
  6
CONTINUOUS
 62
7
100
AcDbLine
 10
277.2364508285422
 20
201.5802669332973
 30
0.000000000000000
 11
269.2364508285392
 21
200.4802669332992
 31
0.000000000000000
  0
LINE
  5
124
100
AcDbEntity
  8
A1
  6
CONTINUOUS
 62
7
100
AcDbLine
 10
277.4271565052120
 20
200.1933165575139
 30
0.000000000000000
 11
269.4271565052090
 21
199.0933165575158
 31
0.000000000000000
  0
LINE
  5
125
100
AcDbEntity
  8
A1
  6
CONTINUOUS
 62
7
100
AcDbLine
 10
269.2364508285369
 20
198.2802669332937
 30
0.000000000000000
 11
277.2364508285424
 21
199.3802669332918
 31
0.000000000000000
  0
LINE
  5
126
100
AcDbEntity
  8
A1
  6
CONTINUOUS
 62
7
100
AcDbLine
 10
277.4271565052121
 20
197.9933165575085
 30
0.000000000000000
 11
269.4271565052066
 21
196.8933165575104
 31
0.000000000000000
  0
LINE
  5
127
100
AcDbEntity
  8
A1
  6
CONTINUOUS
 62
7
100
AcDbLine
 10
269.2364508285343
 20
196.0802669332884
 30
0.000000000000000
 11
277.2364508285420
 21
197.1802669332864
 31
0.000000000000000
  0
LINE
  5
128
100
AcDbEntity
  8
A1
  6
CONTINUOUS
 62
7
100
AcDbLine
 10
277.4271565052117
 20
195.7933165575031
 30
0.000000000000000
 11
269.4271565052039
 21
194.6933165575050
 31
0.000000000000000
  0
LINE
  5
129
100
AcDbEntity
  8
A1
  6
CONTINUOUS
 62
7
100
AcDbLine
 10
269.2364508285316
 20
193.8802669332833
 30
0.000000000000000
 11
277.2364508285422
 21
194.9802669332816
 31
0.000000000000000
  0
LINE
  5
12A
100
AcDbEntity
  8
A1
  6
CONTINUOUS
 62
7
100
AcDbLine
 10
277.4271565052118
 20
193.5933165574984
 30
0.000000000000000
 11
269.4271565052013
 21
192.4933165575001
 31
0.000000000000000
  0
LINE
  5
12B
100
AcDbEntity
  8
A1
  6
CONTINUOUS
 62
7
100
AcDbLine
 10
269.2364508285294
 20
191.6802669332775
 30
0.000000000000000
 11
277.2364508285422
 21
192.7802669332756
 31
0.000000000000000
  0
LINE
  5
12C
100
AcDbEntity
  8
A1
  6
CONTINUOUS
 62
7
100
AcDbLine
 10
277.4271565052118
 20
191.3933165574922
 30
0.000000000000000
 11
269.4271565051990
 21
190.2933165574941
 31
0.000000000000000
  0
LINE
  5
12D
100
AcDbEntity
  8
A1
  6
CONTINUOUS
 62
7
100
AcDbLine
 10
269.2378693557977
 20
201.2764563223907
 30
0.000000000000000
 11
270.7818036668472
 21
201.0673818842039
 31
0.000000000000000
  0
LINE
  5
12E
100
AcDbEntity
  8
A1
  6
CONTINUOUS
 62
7
100
AcDbLine
 10
275.8818036668491
 20
199.5927529485685
 30
0.000000000000000
 11
277.4271565052129
 21
199.3802669332920
 31
0.000000000000000
  0
LINE
  5
12F
100
AcDbEntity
  8
A1
  6
CONTINUOUS
 62
7
100
AcDbLine
 10
270.7818036668494
 20
198.8808305422468
 30
0.000000000000000
 11
269.2364508285387
 21
199.0933165575159
 31
0.000000000000000
  0
LINE
  5
130
100
AcDbEntity
  8
A1
  6
CONTINUOUS
 62
7
100
AcDbLine
 10
275.8818036668517
 20
197.3927529485625
 30
0.000000000000000
 11
277.4271565052130
 21
197.1802669332865
 31
0.000000000000000
  0
LINE
  5
131
100
AcDbEntity
  8
A1
  6
CONTINUOUS
 62
7
100
AcDbLine
 10
269.2364508285359
 20
196.8933165575100
 30
0.000000000000000
 11
270.7818036668518
 21
196.6808305422404
 31
0.000000000000000
  0
LINE
  5
132
100
AcDbEntity
  8
A1
  6
CONTINUOUS
 62
7
100
AcDbLine
 10
277.4271565052125
 20
194.9802669332815
 30
0.000000000000000
 11
275.8818036668541
 21
195.1927529485570
 31
0.000000000000000
  0
LINE
  5
133
100
AcDbEntity
  8
A1
  6
CONTINUOUS
 62
7
100
AcDbLine
 10
269.2364508285334
 20
194.6933165575053
 30
0.000000000000000
 11
270.7818036668542
 21
194.4808305422349
 31
0.000000000000000
  0
LINE
  5
134
100
AcDbEntity
  8
A1
  6
CONTINUOUS
 62
7
100
AcDbLine
 10
277.4271565052126
 20
192.7802669332756
 30
0.000000000000000
 11
275.8818036668564
 21
192.9927529485507
 31
0.000000000000000
  0
LINE
  5
135
100
AcDbEntity
  8
A1
  6
CONTINUOUS
 62
7
100
AcDbLine
 10
269.2364508285308
 20
192.4933165574999
 30
0.000000000000000
 11
270.7818036668564
 21
192.2808305422289
 31
0.000000000000000
  0
LINE
  5
136
100
AcDbEntity
  8
A1
  6
CONTINUOUS
 62
7
100
AcDbLine
 10
275.8318036668538
 20
206.9867917453790
 30
0.000000000000000
 11
275.8318036668500
 21
203.5842030771247
 31
0.000000000000000
  0
LINE
  5
137
100
AcDbEntity
  8
A1
  6
CONTINUOUS
 62
7
100
AcDbLine
 10
275.8818036668445
 20
203.7867917454256
 30
0.000000000000000
 11
275.8818036668447
 21
203.5911822437830
 31
0.000000000000000
  0
LINE
  5
138
100
AcDbEntity
  8
A1
  6
CONTINUOUS
 62
7
100
AcDbLine
 10
270.7818036668447
 20
203.1306614071402
 30
0.000000000000000
 11
270.7818036668450
 21
202.8793072445560
 31
0.000000000000000
  0
ARC
  5
139
100
AcDbEntity
  8
A1
  6
CONTINUOUS
 62
7
100
AcDbCircle
 10
271.4318036668716
 20
198.2867917453995
 30
0.000000000000000
 40
2.500000000000000
100
AcDbArc
 50
105.0700621454636
 51
106.4005497951653
  0
LINE
  5
13A
100
AcDbEntity
  8
A1
  6
CONTINUOUS
 62
7
100
AcDbLine
 10
270.7818036668467
 20
201.4657345815749
 30
0.000000000000000
 11
270.7818036668475
 21
200.6927529485661
 31
0.000000000000000
  0
LINE
  5
13B
100
AcDbEntity
  8
A1
  6
CONTINUOUS
 62
7
100
AcDbLine
 10
270.8318036668472
 20
201.4727137482344
 30
0.000000000000000
 11
270.8318036668464
 21
200.6996279485661
 31
0.000000000000000
  0
LINE
  5
13C
100
AcDbEntity
  8
A1
  6
CONTINUOUS
 62
7
100
AcDbLine
 10
275.8318036668484
 20
202.1706304141433
 30
0.000000000000000
 11
275.8318036668476
 21
201.3871279485645
 31
0.000000000000000
  0
LINE
  5
13D
100
AcDbEntity
  8
A1
  6
CONTINUOUS
 62
7
100
AcDbLine
 10
275.8818036668462
 20
202.1776095808015
 30
0.000000000000000
 11
275.8818036668470
 21
201.3940029485643
 31
0.000000000000000
  0
LINE
  5
13E
100
AcDbEntity
  8
A1
  6
CONTINUOUS
 62
7
100
AcDbLine
 10
275.8818036668487
 20
199.9808305422393
 30
0.000000000000000
 11
275.8818036668496
 21
199.1940029485595
 31
0.000000000000000
  0
LINE
  5
13F
100
AcDbEntity
  8
A1
  6
CONTINUOUS
 62
7
100
AcDbLine
 10
275.8318036668458
 20
199.9739555422388
 30
0.000000000000000
 11
275.8318036668450
 21
199.1871279485589
 31
0.000000000000000
  0
LINE
  5
140
100
AcDbEntity
  8
A1
  6
CONTINUOUS
 62
7
100
AcDbLine
 10
270.7818036668492
 20
199.2795805422411
 30
0.000000000000000
 11
270.7818036668501
 21
198.4927529485612
 31
0.000000000000000
  0
LINE
  5
141
100
AcDbEntity
  8
A1
  6
CONTINUOUS
 62
7
100
AcDbLine
 10
270.8318036668450
 20
199.2864555422400
 30
0.000000000000000
 11
270.8318036668441
 21
198.4996279485604
 31
0.000000000000000
  0
ARC
  5
142
100
AcDbEntity
  8
A1
  6
CONTINUOUS
 62
7
100
AcDbCircle
 10
271.4318036668716
 20
198.2867917453995
 30
0.000000000000000
 40
2.500000000000000
100
AcDbArc
 50
160.1964385434954
 51
182.8300189077925
  0
ARC
  5
143
100
AcDbEntity
  8
A1
  6
CONTINUOUS
 62
7
100
AcDbCircle
 10
271.4318036668716
 20
198.2867917453995
 30
0.000000000000000
 40
2.500000000000000
100
AcDbArc
 50
214.0398787379325
 51
229.4598065396729
  0
LINE
  5
144
100
AcDbEntity
  8
A1
  6
CONTINUOUS
 62
7
100
AcDbLine
 10
270.8318036668425
 20
197.0864555422348
 30
0.000000000000000
 11
270.8318036668417
 21
196.2996279485552
 31
0.000000000000000
  0
LINE
  5
145
100
AcDbEntity
  8
A1
  6
CONTINUOUS
 62
7
100
AcDbLine
 10
270.7818036668516
 20
197.0795805422362
 30
0.000000000000000
 11
270.7818036668525
 21
196.2927529485569
 31
0.000000000000000
  0
LINE
  5
146
100
AcDbEntity
  8
A1
  6
CONTINUOUS
 62
7
100
AcDbLine
 10
275.8818036668512
 20
197.7808305422345
 30
0.000000000000000
 11
275.8818036668520
 21
196.9940029485547
 31
0.000000000000000
  0
LINE
  5
147
100
AcDbEntity
  8
A1
  6
CONTINUOUS
 62
7
100
AcDbLine
 10
277.3318036668715
 20
197.9802055422371
 30
0.000000000000000
 11
277.3318036668715
 21
197.1867917453949
 31
0.000000000000000
  0
LINE
  5
148
100
AcDbEntity
  8
A1
  6
CONTINUOUS
 62
7
100
AcDbLine
 10
275.8318036668434
 20
197.7739555422333
 30
0.000000000000000
 11
275.8318036668425
 21
196.9871279485532
 31
0.000000000000000
  0
LINE
  5
149
100
AcDbEntity
  8
A1
  6
CONTINUOUS
 62
7
100
AcDbLine
 10
275.8818036668536
 20
195.5808305422295
 30
0.000000000000000
 11
275.8818036668545
 21
194.7940029485494
 31
0.000000000000000
  0
LINE
  5
14A
100
AcDbEntity
  8
A1
  6
CONTINUOUS
 62
7
100
AcDbLine
 10
275.8318036668409
 20
195.5739555422275
 30
0.000000000000000
 11
275.8318036668400
 21
194.7871279485475
 31
0.000000000000000
  0
LINE
  5
14B
100
AcDbEntity
  8
A1
  6
CONTINUOUS
 62
7
100
AcDbLine
 10
277.3318036668715
 20
195.7802055422316
 30
0.000000000000000
 11
277.3318036668715
 21
194.9867917453896
 31
0.000000000000000
  0
LINE
  5
14C
100
AcDbEntity
  8
A1
  6
CONTINUOUS
 62
7
100
AcDbLine
 10
275.8318036668384
 20
193.3739555422220
 30
0.000000000000000
 11
275.8318036668376
 21
192.5871279485422
 31
0.000000000000000
  0
LINE
  5
14D
100
AcDbEntity
  8
A1
  6
CONTINUOUS
 62
7
100
AcDbLine
 10
275.8318036668360
 20
191.1739555422169
 30
0.000000000000000
 11
275.8318036668352
 21
190.4586974460745
 31
0.000000000000000
  0
LINE
  5
14E
100
AcDbEntity
  8
A1
  6
CONTINUOUS
 62
7
100
AcDbLine
 10
275.8818036668561
 20
193.3808305422247
 30
0.000000000000000
 11
275.8818036668570
 21
192.5940029485448
 31
0.000000000000000
  0
LINE
  5
14F
100
AcDbEntity
  8
A1
  6
CONTINUOUS
 62
7
100
AcDbLine
 10
275.8818036668584
 20
191.1808305422198
 30
0.000000000000000
 11
275.8818036668592
 21
190.4630557299645
 31
0.000000000000000
  0
LINE
  5
150
100
AcDbEntity
  8
A1
  6
CONTINUOUS
 62
7
100
AcDbLine
 10
270.8318036668354
 20
190.4864555422187
 30
0.000000000000000
 11
270.8318036668348
 21
190.0228690572952
 31
0.000000000000000
  0
LINE
  5
151
100
AcDbEntity
  8
A1
  6
CONTINUOUS
 62
7
100
AcDbLine
 10
270.7818036668588
 20
190.4795805422222
 30
0.000000000000000
 11
270.7818036668593
 21
190.0185107734098
 31
0.000000000000000
  0
LINE
  5
152
100
AcDbEntity
  8
A1
  6
CONTINUOUS
 62
7
100
AcDbLine
 10
277.3318036668715
 20
191.3802055422211
 30
0.000000000000000
 11
277.3318036668715
 21
190.5867917453788
 31
0.000000000000000
  0
LINE
  5
153
100
AcDbEntity
  8
A1
  6
CONTINUOUS
 62
7
100
AcDbLine
 10
277.3318036668715
 20
193.5802055422266
 30
0.000000000000000
 11
277.3318036668715
 21
192.7867917453841
 31
0.000000000000000
  0
LINE
  5
154
100
AcDbEntity
  8
A1
  6
CONTINUOUS
 62
7
100
AcDbLine
 10
269.2364508285286
 20
190.2933165574942
 30
0.000000000000000
 11
270.7818036668592
 21
190.0808305422227
 31
0.000000000000000
  0
LINE
  5
155
100
AcDbEntity
  8
A1
  6
CONTINUOUS
 62
7
100
AcDbLine
 10
277.4271565052128
 20
190.5802669332699
 30
0.000000000000000
 11
275.8818036668588
 21
190.7927529485446
 31
0.000000000000000
  0
LINE
  5
156
100
AcDbEntity
  8
A1
  6
CONTINUOUS
 62
7
100
AcDbLine
 10
277.4257379779007
 20
201.5804605029632
 30
0.000000000000000
 11
275.8818036668466
 21
201.7895349411505
 31
0.000000000000000
  0
LINE
  5
157
100
AcDbEntity
  8
A1
  6
CONTINUOUS
 62
7
100
AcDbLine
 10
270.8318036668537
 20
206.9867917453792
 30
0.000000000000000
 11
270.8318036668502
 21
203.7867917454076
 31
0.000000000000000
  0
LINE
  5
158
100
AcDbEntity
  8
A1
  6
CONTINUOUS
 62
7
100
AcDbLine
 10
270.8318036668494
 20
203.1322790096638
 30
0.000000000000000
 11
270.8318036668491
 21
202.8862864112157
 31
0.000000000000000
  0
LINE
  5
159
100
AcDbEntity
  8
A1
  6
CONTINUOUS
 62
7
100
AcDbLine
 10
270.8318036668401
 20
194.8864555422297
 30
0.000000000000000
 11
270.8318036668392
 21
194.0996279485494
 31
0.000000000000000
  0
LINE
  5
15A
100
AcDbEntity
  8
A1
  6
CONTINUOUS
 62
7
100
AcDbLine
 10
270.8318036668376
 20
192.6864555422242
 30
0.000000000000000
 11
270.8318036668367
 21
191.8996279485446
 31
0.000000000000000
  0
LINE
  5
15B
100
AcDbEntity
  8
A1
  6
CONTINUOUS
 62
7
100
AcDbLine
 10
270.7818036668541
 20
194.8795805422317
 30
0.000000000000000
 11
270.7818036668550
 21
194.0927529485516
 31
0.000000000000000
  0
LINE
  5
15C
100
AcDbEntity
  8
A1
  6
CONTINUOUS
 62
7
100
AcDbLine
 10
270.7818036668563
 20
192.6795805422268
 30
0.000000000000000
 11
270.7818036668572
 21
191.8927529485474
 31
0.000000000000000
  0
LINE
  5
15D
100
AcDbEntity
  8
A1
  6
CONTINUOUS
 62
7
100
AcDbLine
 10
277.3318036668715
 20
186.4867917453791
 30
0.000000000000000
 11
277.3318036668715
 21
183.3867917453997
 31
0.000000000000000
  0
LINE
  5
15E
100
AcDbEntity
  8
A1
  6
CONTINUOUS
 62
7
100
AcDbLine
 10
277.3318036668715
 20
178.3867917453994
 30
0.000000000000000
 11
277.3318036668715
 21
165.8867917454085
 31
0.000000000000000
  0
LINE
  5
15F
100
AcDbEntity
  8
A1
  6
CONTINUOUS
 62
7
100
AcDbLine
 10
165.3376434251132
 20
202.3867917454082
 30
0.000000000000000
 11
180.5376434251132
 21
202.3867917454082
 31
0.000000000000000
  0
CIRCLE
  5
160
100
AcDbEntity
  8
A1
  6
CONTINUOUS
 62
7
100
AcDbCircle
 10
273.3318036668715
 20
182.4867917454256
 30
0.000000000000000
 40
1.200000000132349
  0
CIRCLE
  5
161
100
AcDbEntity
  8
A1
  6
CONTINUOUS
 62
7
100
AcDbCircle
 10
274.7318036668591
 20
211.9867917453791
 30
0.000000000000000
 40
1.200000000115438
  0
LINE
  5
162
100
AcDbEntity
  8
A4
  6
CENTER
 62
1
100
AcDbLine
 10
276.0318036670039
 20
182.4867917454256
 30
0.000000000000000
 11
270.6318036667391
 21
182.4867917454256
 31
0.000000000000000
  0
LINE
  5
163
100
AcDbEntity
  8
A4
  6
CENTER
 62
1
100
AcDbLine
 10
273.3318036668715
 20
185.1867917455580
 30
0.000000000000000
 11
273.3318036668715
 21
179.7867917452933
 31
0.000000000000000
  0
LINE
  5
164
100
AcDbEntity
  8
A4
  6
CENTER
 62
1
100
AcDbLine
 10
160.1876434252645
 20
182.4867917454257
 30
0.000000000000000
 11
185.6876434252438
 21
182.4867917454257
 31
0.000000000000000
  0
LINE
  5
165
100
AcDbEntity
  8
A4
  6
CENTER
 62
1
100
AcDbLine
 10
172.9376434252639
 20
162.3786363451549
 30
0.000000000000000
 11
172.9376434252461
 21
213.9867917454348
 31
0.000000000000000
  0
LINE
  5
166
100
AcDbEntity
  8
A1
  6
CONTINUOUS
 62
7
100
AcDbLine
 10
185.9122179184593
 20
187.6076422931831
 30
0.000000000000000
 11
183.4722685459070
 21
185.6243631133610
 31
0.000000000000000
  0
LINE
  5
167
100
AcDbEntity
  8
A1
  6
CONTINUOUS
 62
7
100
AcDbLine
 10
182.4630689320286
 20
186.8659411976342
 30
0.000000000000000
 11
184.9030183045810
 21
188.8492203774563
 31
0.000000000000000
  0
LINE
  5
168
100
AcDbEntity
  8
A1
  6
CONTINUOUS
 62
7
100
AcDbLine
 10
181.6876434252438
 20
209.0867917454085
 30
0.000000000000000
 11
181.6876434252438
 21
214.4867917454211
 31
0.000000000000000
  0
LINE
  5
169
100
AcDbEntity
  8
A1
  6
CONTINUOUS
 62
7
100
AcDbLine
 10
181.6876434252440
 20
178.4867917454086
 30
0.000000000000000
 11
181.6876434252440
 21
185.2363699620256
 31
0.000000000000000
  0
LINE
  5
16A
100
AcDbEntity
  8
A1
  6
CONTINUOUS
 62
7
100
AcDbLine
 10
162.5876434252727
 20
178.4867917454015
 30
0.000000000000000
 11
164.1876434252726
 21
178.4867917454026
 31
0.000000000000000
  0
LINE
  5
16B
100
AcDbEntity
  8
A1
  6
CONTINUOUS
 62
7
100
AcDbLine
 10
162.5876434252680
 20
185.2363699620185
 30
0.000000000000000
 11
162.5876434252727
 21
178.4867917454015
 31
0.000000000000000
  0
ARC
  5
16C
100
AcDbEntity
  8
A1
  6
CONTINUOUS
 62
7
100
AcDbCircle
 10
161.2876434252653
 20
189.2372135287837
 30
0.000000000000000
 40
0.5000000000000000
100
AcDbArc
 50
185.7877488635418
 51
230.8945399423160
  0
ARC
  5
16D
100
AcDbEntity
  8
A1
  6
CONTINUOUS
 62
7
100
AcDbCircle
 10
161.2876434252653
 20
189.2372135287837
 30
0.000000000000000
 40
2.100000000000000
100
AcDbArc
 50
181.3758252555767
 51
230.8945399423139
  0
ARC
  5
16E
100
AcDbEntity
  8
A1
  6
CONTINUOUS
 62
7
100
AcDbCircle
 10
162.0876434252680
 20
185.2363699620180
 30
0.000000000000000
 40
2.100000000000000
100
AcDbArc
 50
3.959154467485786e-11
 51
50.89453994231490
  0
ARC
  5
16F
100
AcDbEntity
  8
A1
  6
CONTINUOUS
 62
7
100
AcDbCircle
 10
162.0876434252680
 20
185.2363699620180
 30
0.000000000000000
 40
0.5000000000000000
100
AcDbArc
 50
3.959154467485786e-11
 51
50.89453994231520
  0
LINE
  5
170
100
AcDbEntity
  8
A1
  6
CONTINUOUS
 62
7
100
AcDbLine
 10
157.5876434252673
 20
186.4867917453980
 30
0.000000000000000
 11
159.1876434252673
 21
186.4867917453991
 31
0.000000000000000
  0
LINE
  5
171
100
AcDbEntity
  8
A1
  6
CONTINUOUS
 62
7
100
AcDbLine
 10
159.6876434252520
 20
208.5867917453994
 30
0.000000000000000
 11
162.0876434252521
 21
208.5867917454010
 31
0.000000000000000
  0
ARC
  5
172
100
AcDbEntity
  8
A1
  6
CONTINUOUS
 62
7
100
AcDbCircle
 10
162.0876434252517
 20
209.0867917454009
 30
0.000000000000000
 40
0.5000000000000000
100
AcDbArc
 50
270.0000000000396
 51
360.0000000000396
  0
ARC
  5
173
100
AcDbEntity
  8
A1
  6
CONTINUOUS
 62
7
100
AcDbCircle
 10
162.0876434252517
 20
209.0867917454009
 30
0.000000000000000
 40
2.100000000000000
100
AcDbArc
 50
270.0000000000396
 51
360.0000000000396
  0
ARC
  5
174
100
AcDbEntity
  8
A1
  6
CONTINUOUS
 62
7
100
AcDbCircle
 10
159.6876434252534
 20
206.4867917453994
 30
0.000000000000000
 40
0.5000000000000000
100
AcDbArc
 50
90.00000000003959
 51
180.0000000000396
  0
ARC
  5
175
100
AcDbEntity
  8
A1
  6
CONTINUOUS
 62
7
100
AcDbCircle
 10
159.6876434252534
 20
206.4867917453994
 30
0.000000000000000
 40
2.100000000000000
100
AcDbArc
 50
90.00000000003959
 51
180.0000000000396
  0
LINE
  5
176
100
AcDbEntity
  8
A1
  6
CONTINUOUS
 62
7
100
AcDbLine
 10
162.0876434252532
 20
206.9867917454011
 30
0.000000000000000
 11
159.6876434252531
 21
206.9867917453994
 31
0.000000000000000
  0
LINE
  5
177
100
AcDbEntity
  8
A1
  6
CONTINUOUS
 62
7
100
AcDbLine
 10
160.7876434252533
 20
206.4867917454002
 30
0.000000000000000
 11
159.1876434252534
 21
206.4867917453991
 31
0.000000000000000
  0
ARC
  5
178
100
AcDbEntity
  8
A1
  6
CONTINUOUS
 62
7
100
AcDbCircle
 10
162.9376434252701
 20
182.4867917453960
 30
0.000000000000000
 40
1.249999999999972
100
AcDbArc
 50
106.2602047083489
 51
253.7397952917309
  0
ARC
  5
179
100
AcDbEntity
  8
A1
  6
CONTINUOUS
 62
7
100
AcDbCircle
 10
155.1876434252715
 20
189.5367917453394
 30
0.000000000000000
 40
0.6999999999999886
100
AcDbArc
 50
84.99935540247994
 51
209.9999999974886
  0
ARC
  5
17A
100
AcDbEntity
  8
A1
  6
CONTINUOUS
 62
7
100
AcDbCircle
 10
163.1876434252720
 20
188.8367917453451
 30
0.000000000000000
 40
0.6999999999999886
100
AcDbArc
 50
30.00000000259265
 51
84.99935540248279
  0
LINE
  5
17B
100
AcDbEntity
  8
A1
  6
CONTINUOUS
 62
7
100
AcDbLine
 10
155.1266265600710
 20
203.4394561431313
 30
0.000000000000000
 11
163.1266265600712
 21
202.7394561431400
 31
0.000000000000000
  0
ARC
  5
17C
100
AcDbEntity
  8
A1
  6
CONTINUOUS
 62
7
100
AcDbCircle
 10
163.1876434252674
 20
203.4367917453885
 30
0.000000000000000
 40
0.6999999999999886
100
AcDbArc
 50
264.9993554025025
 51
390.0000000010510
  0
ARC
  5
17D
100
AcDbEntity
  8
A1
  6
CONTINUOUS
 62
7
100
AcDbCircle
 10
155.1876434252669
 20
204.1367917453798
 30
0.000000000000000
 40
0.6999999999999886
100
AcDbArc
 50
209.9999999987342
 51
264.9993554025035
  0
ARC
  5
17E
100
AcDbEntity
  8
A1
  6
CONTINUOUS
 62
7
100
AcDbCircle
 10
155.1876434252679
 20
202.7367917453797
 30
0.000000000000000
 40
0.6999999999999886
100
AcDbArc
 50
82.17092348134722
 51
262.1709234813490
  0
ARC
  5
17F
100
AcDbEntity
  8
A1
  6
CONTINUOUS
 62
7
100
AcDbCircle
 10
163.1876434252711
 20
190.2367917453452
 30
0.000000000000000
 40
0.6999999999999886
100
AcDbArc
 50
259.3803447238342
 51
439.3803447238330
  0
LINE
  5
180
100
AcDbEntity
  8
A1
  6
CONTINUOUS
 62
7
100
AcDbLine
 10
163.2486602904680
 20
189.5341273475918
 30
0.000000000000000
 11
155.2486602904676
 21
190.2341273475861
 31
0.000000000000000
  0
LINE
  5
181
100
AcDbEntity
  8
A1
  6
CONTINUOUS
 62
7
100
AcDbLine
 10
157.5876434252535
 20
206.4867917453980
 30
0.000000000000000
 11
157.5876434252554
 21
203.7867917453955
 31
0.000000000000000
  0
LINE
  5
182
100
AcDbEntity
  8
A1
  6
CONTINUOUS
 62
7
100
AcDbLine
 10
159.1876434252534
 20
206.4867917453991
 30
0.000000000000000
 11
159.1876434252553
 21
203.7867917453966
 31
0.000000000000000
  0
LINE
  5
183
100
AcDbEntity
  8
A1
  6
CONTINUOUS
 62
7
100
AcDbLine
 10
163.7938612079054
 20
189.1867917453726
 30
0.000000000000000
 11
154.5814256426072
 21
189.1867917453662
 31
0.000000000000000
  0
LINE
  5
184
100
AcDbEntity
  8
A1
  6
CONTINUOUS
 62
7
100
AcDbLine
 10
163.7938612079101
 20
203.7867917453998
 30
0.000000000000000
 11
154.5814256426101
 21
203.7867917453934
 31
0.000000000000000
  0
ARC
  5
185
100
AcDbEntity
  8
A1
  6
CONTINUOUS
 62
7
100
AcDbCircle
 10
155.1876434252694
 20
200.5367917453731
 30
0.000000000000000
 40
0.6999999999999886
100
AcDbArc
 50
82.17092348134722
 51
262.1709234813490
  0
ARC
  5
186
100
AcDbEntity
  8
A1
  6
CONTINUOUS
 62
7
100
AcDbCircle
 10
155.1876434252709
 20
198.3367917453662
 30
0.000000000000000
 40
0.6999999999999886
100
AcDbArc
 50
82.17092348134905
 51
262.1709234813495
  0
ARC
  5
187
100
AcDbEntity
  8
A1
  6
CONTINUOUS
 62
7
100
AcDbCircle
 10
155.1876434252724
 20
196.1367917453596
 30
0.000000000000000
 40
0.6999999999999886
100
AcDbArc
 50
82.17092348134722
 51
262.1709234813470
  0
ARC
  5
188
100
AcDbEntity
  8
A1
  6
CONTINUOUS
 62
7
100
AcDbCircle
 10
155.1876434252740
 20
193.9367917453529
 30
0.000000000000000
 40
0.6999999999999886
100
AcDbArc
 50
82.17092348134722
 51
262.1709234813493
  0
ARC
  5
189
100
AcDbEntity
  8
A1
  6
CONTINUOUS
 62
7
100
AcDbCircle
 10
155.1876434252755
 20
191.7367917453461
 30
0.000000000000000
 40
0.6999999999999886
100
AcDbArc
 50
79.38034472383306
 51
259.3803447238353
  0
ARC
  5
18A
100
AcDbEntity
  8
A1
  6
CONTINUOUS
 62
7
100
AcDbCircle
 10
163.1876434252692
 20
192.8367917441312
 30
0.000000000000000
 40
0.6999999999999886
100
AcDbArc
 50
262.1709234813470
 51
442.1709234813472
  0
ARC
  5
18B
100
AcDbEntity
  8
A1
  6
CONTINUOUS
 62
7
100
AcDbCircle
 10
163.1876434252677
 20
195.0367917441378
 30
0.000000000000000
 40
0.6999999999999886
100
AcDbArc
 50
262.1709234813470
 51
442.1709234813472
  0
ARC
  5
18C
100
AcDbEntity
  8
A1
  6
CONTINUOUS
 62
7
100
AcDbCircle
 10
163.1876434252662
 20
197.2367917441447
 30
0.000000000000000
 40
0.6999999999999886
100
AcDbArc
 50
262.1709234813495
 51
442.1709234813491
  0
ARC
  5
18D
100
AcDbEntity
  8
A1
  6
CONTINUOUS
 62
7
100
AcDbCircle
 10
163.1876434252647
 20
199.4367917441513
 30
0.000000000000000
 40
0.6999999999999886
100
AcDbArc
 50
262.1709234813490
 51
442.1709234813472
  0
ARC
  5
18E
100
AcDbEntity
  8
A1
  6
CONTINUOUS
 62
7
100
AcDbCircle
 10
163.1876434252632
 20
201.6367917441580
 30
0.000000000000000
 40
0.6999999999999886
100
AcDbArc
 50
262.1709234813490
 51
442.1709234813472
  0
LINE
  5
18F
100
AcDbEntity
  8
A1
  6
CONTINUOUS
 62
7
100
AcDbLine
 10
155.0922905868285
 20
202.0433165575025
 30
0.000000000000000
 11
163.0922905868239
 21
200.9433165562807
 31
0.000000000000000
  0
LINE
  5
190
100
AcDbEntity
  8
A1
  6
CONTINUOUS
 62
7
100
AcDbLine
 10
163.2829962637021
 20
202.3302669320356
 30
0.000000000000000
 11
155.2829962637070
 21
203.4302669332574
 31
0.000000000000000
  0
LINE
  5
191
100
AcDbEntity
  8
A1
  6
CONTINUOUS
 62
7
100
AcDbLine
 10
155.2829962637085
 20
201.2302669332507
 30
0.000000000000000
 11
163.2829962637036
 21
200.1302669320290
 31
0.000000000000000
  0
LINE
  5
192
100
AcDbEntity
  8
A1
  6
CONTINUOUS
 62
7
100
AcDbLine
 10
163.0922905868254
 20
198.7433165562741
 30
0.000000000000000
 11
155.0922905868300
 21
199.8433165574958
 31
0.000000000000000
  0
LINE
  5
193
100
AcDbEntity
  8
A1
  6
CONTINUOUS
 62
7
100
AcDbLine
 10
155.2829962637099
 20
199.0302669332434
 30
0.000000000000000
 11
163.2829962637053
 21
197.9302669320219
 31
0.000000000000000
  0
LINE
  5
194
100
AcDbEntity
  8
A1
  6
CONTINUOUS
 62
7
100
AcDbLine
 10
163.0922905868269
 20
196.5433165562673
 30
0.000000000000000
 11
155.0922905868318
 21
197.6433165574888
 31
0.000000000000000
  0
LINE
  5
195
100
AcDbEntity
  8
A1
  6
CONTINUOUS
 62
7
100
AcDbLine
 10
155.2829962637115
 20
196.8302669332369
 30
0.000000000000000
 11
163.2829962637066
 21
195.7302669320152
 31
0.000000000000000
  0
LINE
  5
196
100
AcDbEntity
  8
A1
  6
CONTINUOUS
 62
7
100
AcDbLine
 10
163.0922905868284
 20
194.3433165562603
 30
0.000000000000000
 11
155.0922905868330
 21
195.4433165574820
 31
0.000000000000000
  0
LINE
  5
197
100
AcDbEntity
  8
A1
  6
CONTINUOUS
 62
7
100
AcDbLine
 10
155.2829962637130
 20
194.6302669332303
 30
0.000000000000000
 11
163.2829962637082
 21
193.5302669320085
 31
0.000000000000000
  0
LINE
  5
198
100
AcDbEntity
  8
A1
  6
CONTINUOUS
 62
7
100
AcDbLine
 10
163.0922905868299
 20
192.1433165562536
 30
0.000000000000000
 11
155.0922905868346
 21
193.2433165574754
 31
0.000000000000000
  0
LINE
  5
199
100
AcDbEntity
  8
A1
  6
CONTINUOUS
 62
7
100
AcDbLine
 10
155.3166453998105
 20
192.4248022761998
 30
0.000000000000000
 11
163.3166453998061
 21
190.9248022761989
 31
0.000000000000000
  0
LINE
  5
19A
100
AcDbEntity
  8
A1
  6
CONTINUOUS
 62
7
100
AcDbLine
 10
155.0586414507402
 20
191.0487812144919
 30
0.000000000000000
 11
163.0586414507356
 21
189.5487812144911
 31
0.000000000000000
  0
LINE
  5
19B
100
AcDbEntity
  8
A1
  6
CONTINUOUS
 62
7
100
AcDbLine
 10
155.1266265600741
 20
190.2341273475867
 30
0.000000000000000
 11
157.5876434252642
 21
190.4494663232925
 31
0.000000000000000
  0
LINE
  5
19C
100
AcDbEntity
  8
A1
  6
CONTINUOUS
 62
7
100
AcDbLine
 10
155.0922905870434
 20
192.4302669332518
 30
0.000000000000000
 11
157.5876434252628
 21
192.7733779481282
 31
0.000000000000000
  0
LINE
  5
19D
100
AcDbEntity
  8
A1
  6
CONTINUOUS
 62
7
100
AcDbLine
 10
163.2829962635011
 20
192.1433165562254
 30
0.000000000000000
 11
160.7876434252634
 21
191.8002055413464
 31
0.000000000000000
  0
LINE
  5
19E
100
AcDbEntity
  8
A1
  6
CONTINUOUS
 62
7
100
AcDbLine
 10
155.0922905870421
 20
194.6302669332586
 30
0.000000000000000
 11
157.5876434252615
 21
194.9733779481351
 31
0.000000000000000
  0
LINE
  5
19F
100
AcDbEntity
  8
A1
  6
CONTINUOUS
 62
7
100
AcDbLine
 10
163.2829962634994
 20
194.3433165562323
 30
0.000000000000000
 11
160.7876434252620
 21
194.0002055413534
 31
0.000000000000000
  0
LINE
  5
1A0
100
AcDbEntity
  8
A1
  6
CONTINUOUS
 62
7
100
AcDbLine
 10
160.7876434252605
 20
196.2002055413600
 30
0.000000000000000
 11
163.2829962634981
 21
196.5433165562392
 31
0.000000000000000
  0
LINE
  5
1A1
100
AcDbEntity
  8
A1
  6
CONTINUOUS
 62
7
100
AcDbLine
 10
157.5876434252597
 20
197.1733779481417
 30
0.000000000000000
 11
155.0922905870403
 21
196.8302669332653
 31
0.000000000000000
  0
LINE
  5
1A2
100
AcDbEntity
  8
A1
  6
CONTINUOUS
 62
7
100
AcDbLine
 10
160.7876434252590
 20
198.4002055413668
 30
0.000000000000000
 11
163.2829962634967
 21
198.7433165562457
 31
0.000000000000000
  0
LINE
  5
1A3
100
AcDbEntity
  8
A1
  6
CONTINUOUS
 62
7
100
AcDbLine
 10
157.5876434252582
 20
199.3733779481491
 30
0.000000000000000
 11
155.0922905870388
 21
199.0302669332727
 31
0.000000000000000
  0
LINE
  5
1A4
100
AcDbEntity
  8
A1
  6
CONTINUOUS
 62
7
100
AcDbLine
 10
160.7876434252574
 20
200.6002055413735
 30
0.000000000000000
 11
163.2829962634950
 21
200.9433165562524
 31
0.000000000000000
  0
LINE
  5
1A5
100
AcDbEntity
  8
A1
  6
CONTINUOUS
 62
7
100
AcDbLine
 10
157.5876434252564
 20
201.5733779481556
 30
0.000000000000000
 11
155.0922905870372
 21
201.2302669332792
 31
0.000000000000000
  0
LINE
  5
1A6
100
AcDbEntity
  8
A1
  6
CONTINUOUS
 62
7
100
AcDbLine
 10
161.4510246704483
 20
202.5821630263874
 30
0.000000000000000
 11
163.2486602904646
 21
202.7394561431409
 31
0.000000000000000
  0
LINE
  5
1A7
100
AcDbEntity
  8
A1
  6
CONTINUOUS
 62
7
100
AcDbLine
 10
157.5876434252655
 20
189.1867917453683
 30
0.000000000000000
 11
157.5876434252673
 21
186.4867917453980
 31
0.000000000000000
  0
LINE
  5
1A8
100
AcDbEntity
  8
A1
  6
CONTINUOUS
 62
7
100
AcDbLine
 10
160.7876434252533
 20
206.4867917454002
 30
0.000000000000000
 11
160.7876434252552
 21
203.7867917453977
 31
0.000000000000000
  0
LINE
  5
1A9
100
AcDbEntity
  8
A1
  6
CONTINUOUS
 62
7
100
AcDbLine
 10
157.5876434252558
 20
203.2241171674304
 30
0.000000000000000
 11
157.5876434252559
 21
203.1133779481922
 31
0.000000000000000
  0
LINE
  5
1AA
100
AcDbEntity
  8
A1
  6
CONTINUOUS
 62
7
100
AcDbLine
 10
159.1876434252558
 20
203.0841171674324
 30
0.000000000000000
 11
159.1876434252559
 21
202.8933779479478
 31
0.000000000000000
  0
LINE
  5
1AB
100
AcDbEntity
  8
A1
  6
CONTINUOUS
 62
7
100
AcDbLine
 10
160.7876434252558
 20
202.9441171674343
 30
0.000000000000000
 11
160.7876434252560
 21
202.6733779477030
 31
0.000000000000000
  0
LINE
  5
1AC
100
AcDbEntity
  8
A1
  6
CONTINUOUS
 62
7
100
AcDbLine
 10
157.5876434252569
 20
201.7002055418375
 30
0.000000000000000
 11
157.5876434252574
 21
200.9133779481856
 31
0.000000000000000
  0
LINE
  5
1AD
100
AcDbEntity
  8
A1
  6
CONTINUOUS
 62
7
100
AcDbLine
 10
159.1876434252569
 20
201.4802055415930
 30
0.000000000000000
 11
159.1876434252574
 21
200.6933779479411
 31
0.000000000000000
  0
LINE
  5
1AE
100
AcDbEntity
  8
A1
  6
CONTINUOUS
 62
7
100
AcDbLine
 10
160.7876434252570
 20
201.2602055413483
 30
0.000000000000000
 11
160.7876434252575
 21
200.4733779476966
 31
0.000000000000000
  0
LINE
  5
1AF
100
AcDbEntity
  8
A1
  6
CONTINUOUS
 62
7
100
AcDbLine
 10
160.7876434252585
 20
199.0602055413419
 30
0.000000000000000
 11
160.7876434252590
 21
198.2733779476895
 31
0.000000000000000
  0
LINE
  5
1B0
100
AcDbEntity
  8
A1
  6
CONTINUOUS
 62
7
100
AcDbLine
 10
159.1876434252584
 20
199.2802055415864
 30
0.000000000000000
 11
159.1876434252590
 21
198.4933779479338
 31
0.000000000000000
  0
LINE
  5
1B1
100
AcDbEntity
  8
A1
  6
CONTINUOUS
 62
7
100
AcDbLine
 10
157.5876434252584
 20
199.5002055418308
 30
0.000000000000000
 11
157.5876434252589
 21
198.7133779481783
 31
0.000000000000000
  0
LINE
  5
1B2
100
AcDbEntity
  8
A1
  6
CONTINUOUS
 62
7
100
AcDbLine
 10
157.5876434252599
 20
197.3002055418235
 30
0.000000000000000
 11
157.5876434252604
 21
196.5133779481721
 31
0.000000000000000
  0
LINE
  5
1B3
100
AcDbEntity
  8
A1
  6
CONTINUOUS
 62
7
100
AcDbLine
 10
159.1876434252599
 20
197.0802055415793
 30
0.000000000000000
 11
159.1876434252605
 21
196.2933779479276
 31
0.000000000000000
  0
LINE
  5
1B4
100
AcDbEntity
  8
A1
  6
CONTINUOUS
 62
7
100
AcDbLine
 10
160.7876434252600
 20
196.8602055413346
 30
0.000000000000000
 11
160.7876434252605
 21
196.0733779476831
 31
0.000000000000000
  0
LINE
  5
1B5
100
AcDbEntity
  8
A1
  6
CONTINUOUS
 62
7
100
AcDbLine
 10
160.7876434252615
 20
194.6602055413281
 30
0.000000000000000
 11
160.7876434252621
 21
193.8733779476765
 31
0.000000000000000
  0
LINE
  5
1B6
100
AcDbEntity
  8
A1
  6
CONTINUOUS
 62
7
100
AcDbLine
 10
159.1876434252615
 20
194.8802055415726
 30
0.000000000000000
 11
159.1876434252620
 21
194.0933779479212
 31
0.000000000000000
  0
LINE
  5
1B7
100
AcDbEntity
  8
A1
  6
CONTINUOUS
 62
7
100
AcDbLine
 10
157.5876434252614
 20
195.1002055418171
 30
0.000000000000000
 11
157.5876434252619
 21
194.3133779481655
 31
0.000000000000000
  0
LINE
  5
1B8
100
AcDbEntity
  8
A1
  6
CONTINUOUS
 62
7
100
AcDbLine
 10
157.5876434252629
 20
192.9002055418105
 30
0.000000000000000
 11
157.5876434252635
 21
191.9989901464273
 31
0.000000000000000
  0
LINE
  5
1B9
100
AcDbEntity
  8
A1
  6
CONTINUOUS
 62
7
100
AcDbLine
 10
157.5876434252645
 20
190.5745933442684
 30
0.000000000000000
 11
157.5876434252649
 21
190.0294663232930
 31
0.000000000000000
  0
LINE
  5
1BA
100
AcDbEntity
  8
A1
  6
CONTINUOUS
 62
7
100
AcDbLine
 10
159.1876434252630
 20
192.6802055415660
 30
0.000000000000000
 11
159.1876434252637
 21
191.6989901464269
 31
0.000000000000000
  0
LINE
  5
1BB
100
AcDbEntity
  8
A1
  6
CONTINUOUS
 62
7
100
AcDbLine
 10
160.7876434252630
 20
192.4602055413215
 30
0.000000000000000
 11
160.7876434252638
 21
191.3989901464265
 31
0.000000000000000
  0
LINE
  5
1BC
100
AcDbEntity
  8
A1
  6
CONTINUOUS
 62
7
100
AcDbLine
 10
160.7876434252648
 20
189.9745933442677
 30
0.000000000000000
 11
160.7876434252649
 21
189.7494663232955
 31
0.000000000000000
  0
LINE
  5
1BD
100
AcDbEntity
  8
A1
  6
CONTINUOUS
 62
7
100
AcDbLine
 10
159.1876434252646
 20
190.2745933442681
 30
0.000000000000000
 11
159.1876434252649
 21
189.8894663232943
 31
0.000000000000000
  0
LINE
  5
1BE
100
AcDbEntity
  8
A1
  6
CONTINUOUS
 62
7
100
AcDbLine
 10
159.1876434252654
 20
189.1867917453694
 30
0.000000000000000
 11
159.1876434252673
 21
186.4867917453991
 31
0.000000000000000
  0
LINE
  5
1BF
100
AcDbEntity
  8
A1
  6
CONTINUOUS
 62
7
100
AcDbLine
 10
159.9630689320510
 20
187.6076422931741
 30
0.000000000000000
 11
162.4030183046047
 21
185.6243631133537
 31
0.000000000000000
  0
LINE
  5
1C0
100
AcDbEntity
  8
A1
  6
CONTINUOUS
 62
7
100
AcDbLine
 10
163.4122179184823
 20
186.8659411976277
 30
0.000000000000000
 11
160.9722685459286
 21
188.8492203774481
 31
0.000000000000000
  0
LINE
  5
1C1
100
AcDbEntity
  8
A1
  6
CONTINUOUS
 62
7
100
AcDbLine
 10
164.1876434252726
 20
178.4867917454026
 30
0.000000000000000
 11
164.1876434252679
 21
185.2363699620196
 31
0.000000000000000
  0
LINE
  5
1C2
100
AcDbEntity
  8
A1
  6
CONTINUOUS
 62
7
100
AcDbLine
 10
162.5876434252478
 20
214.4867917454146
 30
0.000000000000000
 11
162.5876434252515
 21
209.0867917454014
 31
0.000000000000000
  0
LINE
  5
1C3
100
AcDbEntity
  8
A1
  6
CONTINUOUS
 62
7
100
AcDbLine
 10
164.1876434252517
 20
209.0867917454025
 30
0.000000000000000
 11
164.1876434252480
 21
214.4867917454151
 31
0.000000000000000
  0
LINE
  5
1C4
100
AcDbEntity
  8
A1
  6
CONTINUOUS
 62
7
100
AcDbLine
 10
164.1876434252481
 20
214.4867917454150
 30
0.000000000000000
 11
162.5876434253234
 21
214.4867917454145
 31
0.000000000000000
  0
ARC
  5
1C5
100
AcDbEntity
  8
A1
  6
CONTINUOUS
 62
7
100
AcDbCircle
 10
162.9376434252500
 20
211.9867917453995
 30
0.000000000000000
 40
1.249999999999972
100
AcDbArc
 50
106.2602047083489
 51
253.7397952917309
  0
SPLINE
  5
1C6
100
AcDbEntity
  8
A1
  6
CONTINUOUS
 62
7
100
AcDbSpline
210
0.000000000000000
220
0.000000000000000
230
1.000000000000000
 70
     8
 71
     3
 72
    17
 73
    13
 74
     0
 42
1.000000000000000e-07
 43
1.000000000000000e-07
 12
0.7738636836438673
 22
0.6333521920232670
 32
0.000000000000000
 13
0.9999995384721387
 23
0.0009607578763279889
 33
0.000000000000000
 40
0.000000000000000
 40
0.000000000000000
 40
0.000000000000000
 40
0.000000000000000
 40
0.04142836793865150
 40
0.1474389640785910
 40
0.2793902521848665
 40
0.4956639281770828
 40
0.7580727657742656
 40
1.066656287107752
 40
1.328477891001513
 40
1.616370573314422
 40
1.930483332202894
 40
2.271197987520888
 40
2.271197987520888
 40
2.271197987520888
 40
2.271197987520888
 10
184.5904630560205
 20
112.0136778778155
 30
0.000000000000000
 10
184.6011496924939
 20
112.0224241270308
 30
0.000000000000000
 10
184.6393808041874
 20
112.0533085908760
 30
0.000000000000000
 10
184.7131413631560
 20
112.1101936542780
 30
0.000000000000000
 10
184.8363409864860
 20
112.1982764805332
 30
0.000000000000000
 10
185.0080410054704
 20
112.3078688928427
 30
0.000000000000000
 10
185.2390071442314
 20
112.4329960888554
 30
0.000000000000000
 10
185.4937914049480
 20
112.5442464775938
 30
0.000000000000000
 10
185.7649782919383
 20
112.6362599639837
 30
0.000000000000000
 10
186.0446700904037
 20
112.7062138937255
 30
0.000000000000000
 10
186.3556167509062
 20
112.7546483482895
 30
0.000000000000000
 10
186.5740719260250
 20
112.7661899629023
 30
0.000000000000000
 10
186.6876434253812
 20
112.7662990776652
 30
0.000000000000000
  0
SPLINE
  5
1C7
100
AcDbEntity
  8
A1
  6
CONTINUOUS
 62
7
100
AcDbSpline
210
0.000000000000000
220
0.000000000000000
230
1.000000000000000
 70
     8
 71
     3
 72
     9
 73
     5
 74
     0
 42
1.000000000000000e-07
 43
1.000000000000000e-07
 12
0.1396713610456572
 22
-0.9901979150167790
 32
0.000000000000000
 13
0.0003176211537265772
 23
-0.9999999495585143
 33
0.000000000000000
 40
0.000000000000000
 40
0.000000000000000
 40
0.000000000000000
 40
0.000000000000000
 40
0.1163520384138819
 40
0.4521773543063662
 40
0.4521773543063662
 40
0.4521773543063662
 40
0.4521773543063662
 10
189.9575839298028
 20
109.9131599174441
 30
0.000000000000000
 10
189.9630009456580
 20
109.8747560688290
 30
0.000000000000000
 10
189.9813745757599
 20
109.7251401323053
 30
0.000000000000000
 10
189.9892235458308
 20
109.5742473580872
 30
0.000000000000000
 10
189.9892591009056
 20
109.4623055917695
 30
0.000000000000000
  0
SPLINE
  5
1C8
100
AcDbEntity
  8
A1
  6
CONTINUOUS
 62
7
100
AcDbSpline
210
0.000000000000000
220
0.000000000000000
230
1.000000000000000
 70
     8
 71
     3
 72
    19
 73
    15
 74
     0
 42
1.000000000000000e-07
 43
1.000000000000000e-07
 12
0.8749891854886300
 22
-0.4841424638261742
 32
0.000000000000000
 13
0.1398477129923776
 23
-0.9901730238550499
 33
0.000000000000000
 40
0.000000000000000
 40
0.000000000000000
 40
0.000000000000000
 40
0.000000000000000
 40
0.07102468121552941
 40
0.3009664475274071
 40
0.4910983156583149
 40
0.6665690607167004
 40
0.8807147596906886
 40
1.135233854237714
 40
1.429857425947910
 40
1.764742341127921
 40
2.140000779879519
 40
2.555621688329723
 40
2.855218071828523
 40
3.056539144939725
 40
3.056539144939725
 40
3.056539144939725
 40
3.056539144939725
 10
188.2921701444842
 20
112.3472661339370
 30
0.000000000000000
 10
188.3128854204730
 20
112.3358041125516
 30
0.000000000000000
 10
188.4001471268222
 20
112.2862983964416
 30
0.000000000000000
 10
188.5388902502686
 20
112.1991370425824
 30
0.000000000000000
 10
188.7000329089540
 20
112.0830226004366
 30
0.000000000000000
 10
188.8503302365235
 20
111.9614028503598
 30
0.000000000000000
 10
189.0089158503690
 20
111.8164151293341
 30
0.000000000000000
 10
189.1836533906918
 20
111.6311040573113
 30
0.000000000000000
 10
189.3670457425675
 20
111.3999366993744
 30
0.000000000000000
 10
189.5495208853648
 20
111.1184093158601
 30
0.000000000000000
 10
189.7195500620875
 20
110.7830332677131
 30
0.000000000000000
 10
189.8453181998321
 20
110.4409580900493
 30
0.000000000000000
 10
189.9198625782733
 20
110.1442734303283
 30
0.000000000000000
 10
189.9481991659189
 20
109.9796074826869
 30
0.000000000000000
 10
189.9575839298028
 20
109.9131599174441
 30
0.000000000000000
  0
SPLINE
  5
1C9
100
AcDbEntity
  8
A1
  6
CONTINUOUS
 62
7
100
AcDbSpline
210
0.000000000000000
220
0.000000000000000
230
1.000000000000000
 70
     8
 71
     3
 72
    12
 73
     8
 74
     0
 42
1.000000000000000e-07
 43
1.000000000000000e-07
 12
0.7748378215146658
 22
0.6321600670323733
 32
0.000000000000000
 13
0.9999977353550094
 23
0.002128211679973901
 33
0.000000000000000
 40
0.000000000000000
 40
0.000000000000000
 40
0.000000000000000
 40
0.000000000000000
 40
0.4573845062959626
 40
0.9258382338308457
 40
1.394368661745680
 40
1.863132083797031
 40
2.332711513696596
 40
2.332711513696596
 40
2.332711513696596
 40
2.332711513696596
 10
184.5327456786199
 20
112.0339213997085
 30
0.000000000000000
 10
184.6508786167709
 20
112.1303014730951
 30
0.000000000000000
 10
184.9031570523998
 20
112.3099271036030
 30
0.000000000000000
 10
185.3161342348627
 20
112.5261952982294
 30
0.000000000000000
 10
185.7580377103926
 20
112.6863128063662
 30
0.000000000000000
 10
186.2179049667313
 20
112.7852902679478
 30
0.000000000000000
 10
186.5311173032249
 20
112.8074298395771
 30
0.000000000000000
 10
186.6876434253812
 20
112.8077629610529
 30
0.000000000000000
  0
SPLINE
  5
1CA
100
AcDbEntity
  8
A1
  6
CONTINUOUS
 62
7
100
AcDbSpline
210
0.000000000000000
220
0.000000000000000
230
1.000000000000000
 70
     8
 71
     3
 72
    25
 73
    21
 74
     0
 42
1.000000000000000e-07
 43
1.000000000000000e-07
 12
-0.9999991556403529
 22
-0.001299507050816828
 32
0.000000000000000
 13
-0.5415551878350016
 23
-0.8406652000221584
 33
0.000000000000000
 40
0.000000000000000
 40
0.000000000000000
 40
0.000000000000000
 40
0.000000000000000
 40
0.5107741533608517
 40
0.9770013123513864
 40
1.399321140718902
 40
1.777984844141310
 40
2.113106481329127
 40
2.404769537058668
 40
2.697502203015344
 40
2.927914343117291
 40
3.109546280413944
 40
3.275424879911847
 40
3.427085416568672
 40
3.542623397625618
 40
3.654710731945849
 40
3.807293044566267
 40
4.008568408402789
 40
4.258486527625768
 40
4.557051106021363
 40
4.674364335211048
 40
4.674364335211048
 40
4.674364335211048
 40
4.674364335211048
 10
186.6876434253812
 20
114.1647749642706
 30
0.000000000000000
 10
186.5173855180199
 20
114.1645537127328
 30
0.000000000000000
 10
186.1914257350951
 20
114.1463687037296
 30
0.000000000000000
 10
185.7303886187840
 20
114.0708877366337
 30
0.000000000000000
 10
185.3211991539451
 20
113.9638322876595
 30
0.000000000000000
 10
184.9637626765231
 20
113.8375363897379
 30
0.000000000000000
 10
184.6566574987604
 20
113.7026480670286
 30
0.000000000000000
 10
184.3845028414200
 20
113.5612613727015
 30
0.000000000000000
 10
184.1514370131005
 20
113.4214574802442
 30
0.000000000000000
 10
183.9568811226288
 20
113.2896192906497
 30
0.000000000000000
 10
183.8022661414493
 20
113.1746273379839
 30
0.000000000000000
 10
183.6725267328963
 20
113.0703908346942
 30
0.000000000000000
 10
183.5631482796564
 20
112.9761376369020
 30
0.000000000000000
 10
183.4698155610909
 20
112.8908352099864
 30
0.000000000000000
 10
183.3784275629278
 20
112.8030092895534
 30
0.000000000000000
 10
183.2696290135478
 20
112.6921276174269
 30
0.000000000000000
 10
183.1343293912267
 20
112.5430447130861
 30
0.000000000000000
 10
182.9755840592117
 20
112.3498662066168
 30
0.000000000000000
 10
182.8449377807243
 20
112.1702527612488
 30
0.000000000000000
 10
182.7684061968984
 20
112.0546538645433
 30
0.000000000000000
 10
182.7472290009419
 20
112.0217801481159
 30
0.000000000000000
  0
SPLINE
  5
1CB
100
AcDbEntity
  8
A1
  6
CONTINUOUS
 62
7
100
AcDbSpline
210
0.000000000000000
220
0.000000000000000
230
1.000000000000000
 70
     8
 71
     3
 72
    20
 73
    16
 74
     0
 42
1.000000000000000e-07
 43
1.000000000000000e-07
 12
-0.002348264015836321
 22
-0.9999972428241790
 32
0.000000000000000
 13
-0.8749617050216330
 23
-0.4841921258603179
 33
0.000000000000000
 40
0.000000000000000
 40
0.000000000000000
 40
0.000000000000000
 40
0.000000000000000
 40
0.4287123432216952
 40
0.8173560393258658
 40
1.166352543310643
 40
1.475776087080945
 40
1.745641773731397
 40
1.975987017036230
 40
2.166864479296557
 40
2.341636442399560
 40
2.554795801084190
 40
2.808509222790034
 40
3.102485944329592
 40
3.436859084704524
 40
3.505731163220714
 40
3.505731163220714
 40
3.505731163220714
 40
3.505731163220714
 10
189.9892591009056
 20
109.4623055917695
 30
0.000000000000000
 10
189.9889235243160
 20
109.3194018713741
 30
0.000000000000000
 10
189.9706700872307
 20
109.0466120143611
 30
0.000000000000000
 10
189.8957600112224
 20
108.6642417282476
 30
0.000000000000000
 10
189.7913627128454
 20
108.3305408703901
 30
0.000000000000000
 10
189.6704788380642
 20
108.0452330693038
 30
0.000000000000000
 10
189.5441601082388
 20
107.8064151903570
 30
0.000000000000000
 10
189.4214666639954
 20
107.6112278022672
 30
0.000000000000000
 10
189.3052044510602
 20
107.4499987532354
 30
0.000000000000000
 10
189.1837452831657
 20
107.2999776160121
 30
0.000000000000000
 10
189.0393384642148
 20
107.1419898953473
 30
0.000000000000000
 10
188.8547030093889
 20
106.9677199321313
 30
0.000000000000000
 10
188.6242167036032
 20
106.7845588937210
 30
0.000000000000000
 10
188.4289186457182
 20
106.6577325132227
 30
0.000000000000000
 10
188.3119897956641
 20
106.5914333347508
 30
0.000000000000000
 10
188.2919029852485
 20
106.5803175620477
 30
0.000000000000000
  0
SPLINE
  5
1CC
100
AcDbEntity
  8
A1
  6
CONTINUOUS
 62
7
100
AcDbSpline
210
0.000000000000000
220
0.000000000000000
230
1.000000000000000
 70
     8
 71
     3
 72
     9
 73
     5
 74
     0
 42
1.000000000000000e-07
 43
1.000000000000000e-07
 12
-0.4026455473212991
 22
0.9153559762344230
 32
0.000000000000000
 13
0.9933916224217683
 23
0.1147740584819985
 33
0.000000000000000
 40
0.000000000000000
 40
0.000000000000000
 40
0.000000000000000
 40
0.000000000000000
 40
0.003384927044480200
 40
0.03154468261025450
 40
0.03154468261025450
 40
0.03154468261025450
 40
0.03154468261025450
 10
189.9892442980627
 20
109.4623291192790
 30
0.000000000000000
 10
189.9887899894619
 20
109.4633619236788
 30
0.000000000000000
 10
189.9848206714610
 20
109.4737342808565
 30
0.000000000000000
 10
190.0021769070717
 20
109.4802540004919
 30
0.000000000000000
 10
190.0115014621612
 20
109.4813313369693
 30
0.000000000000000
  0
SPLINE
  5
1CD
100
AcDbEntity
  8
A1
  6
CONTINUOUS
 62
7
100
AcDbSpline
210
0.000000000000000
220
0.000000000000000
230
1.000000000000000
 70
     8
 71
     3
 72
    15
 73
    11
 74
     0
 42
1.000000000000000e-07
 43
1.000000000000000e-07
 12
0.8768304061159142
 22
-0.4807997908808375
 32
0.000000000000000
 13
0.002265959788473992
 23
-0.9999974327098471
 33
0.000000000000000
 40
0.000000000000000
 40
0.000000000000000
 40
0.000000000000000
 40
0.000000000000000
 40
0.2704176431787577
 40
0.7568945057037986
 40
1.244059343830497
 40
1.703364450430973
 40
2.162943799531866
 40
2.622762375155377
 40
3.082731286628593
 40
3.543184540091907
 40
3.543184540091907
 40
3.543184540091907
 40
3.543184540091907
 10
188.2918267274817
 20
112.3918240995431
 30
0.000000000000000
 10
188.3708635314449
 20
112.3484851841128
 30
0.000000000000000
 10
188.5872045348046
 20
112.2181675469415
 30
0.000000000000000
 10
188.9174131953530
 20
111.9646440678031
 30
0.000000000000000
 10
189.2491392419528
 20
111.6184175785952
 30
0.000000000000000
 10
189.5216902390518
 20
111.2353012999499
 30
0.000000000000000
 10
189.7354277395191
 20
110.8268786860211
 30
0.000000000000000
 10
189.8923247742850
 20
110.3932007699464
 30
0.000000000000000
 10
189.9894302672694
 20
109.9420442419771
 30
0.000000000000000
 10
190.0111536726423
 20
109.6348153607514
 30
0.000000000000000
 10
190.0115014621612
 20
109.4813313369693
 30
0.000000000000000
  0
SPLINE
  5
1CE
100
AcDbEntity
  8
A1
  6
CONTINUOUS
 62
7
100
AcDbSpline
210
0.000000000000000
220
0.000000000000000
230
1.000000000000000
 70
     8
 71
     3
 72
    11
 73
     7
 74
     0
 42
1.000000000000000e-07
 43
1.000000000000000e-07
 12
-0.9577166010567453
 22
0.2877132463036105
 32
0.000000000000000
 13
-0.9999993557821654
 23
0.001135092579261254
 33
0.000000000000000
 40
0.000000000000000
 40
0.000000000000000
 40
0.000000000000000
 40
0.000000000000000
 40
0.004562988339768700
 40
0.4305734393022492
 40
0.8821115875722449
 40
1.359468916386771
 40
1.359468916386771
 40
1.359468916386771
 40
1.359468916386771
 10
188.0281297194677
 20
113.9656703587064
 30
0.000000000000000
 10
188.0266730362399
 20
113.9661079694358
 30
0.000000000000000
 10
187.8891976706028
 20
114.0073351555731
 30
0.000000000000000
 10
187.6035881218531
 20
114.0791454461390
 30
0.000000000000000
 10
187.1566428531993
 20
114.1484088516893
 30
0.000000000000000
 10
186.8467624324787
 20
114.1645943493501
 30
0.000000000000000
 10
186.6876434253812
 20
114.1647749642706
 30
0.000000000000000
  0
SPLINE
  5
1CF
100
AcDbEntity
  8
A1
  6
CONTINUOUS
 62
7
100
AcDbSpline
210
0.000000000000000
220
0.000000000000000
230
1.000000000000000
 70
     8
 71
     3
 72
    25
 73
    21
 74
     0
 42
1.000000000000000e-07
 43
1.000000000000000e-07
 12
-0.001224563851792482
 22
0.9999992502213217
 32
0.000000000000000
 13
-0.9394874879480994
 23
0.3425832161515245
 33
0.000000000000000
 40
0.000000000000000
 40
0.000000000000000
 40
0.000000000000000
 40
0.000000000000000
 40
0.4129591632009027
 40
0.8005418127991790
 40
1.163020855315559
 40
1.500484325149567
 40
1.812940368388263
 40
2.100375129616984
 40
2.412239789528112
 40
2.688073152528926
 40
2.927899146349678
 40
3.131744459535469
 40
3.333103798023946
 40
3.636735686211347
 40
3.998066512642576
 40
4.416646867006127
 40
4.892649050988587
 40
5.242044846859208
 40
5.617025823009463
 40
5.735692848118028
 40
5.735692848118028
 40
5.735692848118028
 40
5.735692848118028
 10
191.3860277498669
 20
109.4687684501933
 30
0.000000000000000
 10
191.3858591849124
 20
109.6064214013843
 30
0.000000000000000
 10
191.3736602400615
 20
109.8734219820481
 30
0.000000000000000
 10
191.3220532981076
 20
110.2580776638505
 30
0.000000000000000
 10
191.2453416602592
 20
110.6127427072654
 30
0.000000000000000
 10
191.1498666670925
 20
110.9367123308305
 30
0.000000000000000
 10
191.0413863633291
 20
111.2299640207860
 30
0.000000000000000
 10
190.9183161668840
 20
111.5080405009723
 30
0.000000000000000
 10
190.7837600629364
 20
111.7671047156604
 30
0.000000000000000
 10
190.6417265660556
 20
112.0037465838941
 30
0.000000000000000
 10
190.5072348368328
 20
112.2024489784263
 30
0.000000000000000
 10
190.3783888257242
 20
112.3746625629990
 30
0.000000000000000
 10
190.2286812688528
 20
112.5575497611826
 30
0.000000000000000
 10
190.0336262579712
 20
112.7707917752389
 30
0.000000000000000
 10
189.7705527008692
 20
113.0188306799935
 30
0.000000000000000
 10
189.4421800268101
 20
113.2794014851339
 30
0.000000000000000
 10
189.0936255008910
 20
113.5054032955105
 30
0.000000000000000
 10
188.7400604898033
 20
113.6933966197546
 30
0.000000000000000
 10
188.4824036409244
 20
113.8063904059456
 30
0.000000000000000
 10
188.3285089278337
 20
113.8646681825576
 30
0.000000000000000
 10
188.2913468660599
 20
113.8782192929285
 30
0.000000000000000
  0
SPLINE
  5
1D0
100
AcDbEntity
  8
A1
  6
CONTINUOUS
 62
7
100
AcDbSpline
210
0.000000000000000
220
0.000000000000000
230
1.000000000000000
 70
     8
 71
     3
 72
    18
 73
    14
 74
     0
 42
1.000000000000000e-07
 43
1.000000000000000e-07
 12
0.9708931901186588
 22
0.2395128668404141
 32
0.000000000000000
 13
0.8359160518048157
 23
-0.5488573169150186
 33
0.000000000000000
 40
0.000000000000000
 40
0.000000000000000
 40
0.000000000000000
 40
0.000000000000000
 40
0.07189147018041001
 40
0.1838373725290960
 40
0.3287213379902854
 40
0.4977435385202171
 40
0.6789014139683842
 40
0.8600287580692901
 40
1.028645976455307
 40
1.173918323814749
 40
1.286207084924299
 40
1.357141133894332
 40
1.383146533536805
 40
1.383146533536805
 40
1.383146533536805
 40
1.383146533536805
 10
190.0115014621612
 20
109.4813313369693
 30
0.000000000000000
 10
190.0347677751031
 20
109.4870709810107
 30
0.000000000000000
 10
190.0947871444018
 20
109.4999124686196
 30
0.000000000000000
 10
190.2040507793797
 20
109.5100814922924
 30
0.000000000000000
 10
190.3456379069344
 20
109.5196997819675
 30
0.000000000000000
 10
190.5106185256043
 20
109.5251556447744
 30
0.000000000000000
 10
190.6877011966032
 20
109.5271536044565
 30
0.000000000000000
 10
190.8647224516885
 20
109.5253647367098
 30
0.000000000000000
 10
191.0294938003721
 20
109.5192250404724
 30
0.000000000000000
 10
191.1717330401072
 20
109.5111413132588
 30
0.000000000000000
 10
191.2795756023429
 20
109.4974115645969
 30
0.000000000000000
 10
191.3504569263428
 20
109.4897657167551
 30
0.000000000000000
 10
191.3787870806027
 20
109.4735175723723
 30
0.000000000000000
 10
191.3860331909343
 20
109.4687598210812
 30
0.000000000000000
  0
SPLINE
  5
1D1
100
AcDbEntity
  8
A1
  6
CONTINUOUS
 62
7
100
AcDbSpline
210
0.000000000000000
220
0.000000000000000
230
1.000000000000000
 70
     8
 71
     3
 72
    15
 73
    11
 74
     0
 42
1.000000000000000e-07
 43
1.000000000000000e-07
 12
-0.002492050373348320
 22
-0.9999968948376363
 32
0.000000000000000
 13
-0.8768420228470859
 23
-0.4807786049416336
 33
0.000000000000000
 40
0.000000000000000
 40
0.000000000000000
 40
0.000000000000000
 40
0.000000000000000
 40
0.4881182520352108
 40
0.9755326090648196
 40
1.462662111869736
 40
1.949463018141556
 40
2.436057393185997
 40
2.922761416800165
 40
3.381247153667108
 40
3.544001293395017
 40
3.544001293395017
 40
3.544001293395017
 40
3.544001293395017
 10
190.0115014621612
 20
109.4813313369693
 30
0.000000000000000
 10
190.0110959904038
 20
109.3186257581864
 30
0.000000000000000
 10
189.9867402574275
 20
108.9929484578092
 30
0.000000000000000
 10
189.8779171074422
 20
108.5159803605422
 30
0.000000000000000
 10
189.7024049818443
 20
108.0598005361051
 30
0.000000000000000
 10
189.4636995071474
 20
107.6335828994479
 30
0.000000000000000
 10
189.1658718708632
 20
107.2463703383147
 30
0.000000000000000
 10
188.8197788647601
 20
106.9151018134932
 30
0.000000000000000
 10
188.5177110320572
 20
106.7003842252847
 30
0.000000000000000
 10
188.3385654467885
 20
106.5963970023965
 30
0.000000000000000
 10
188.2909955570865
 20
106.5703140996476
 30
0.000000000000000
  0
SPLINE
  5
1D2
100
AcDbEntity
  8
A1
  6
CONTINUOUS
 62
7
100
AcDbSpline
210
0.000000000000000
220
0.000000000000000
230
1.000000000000000
 70
     8
 71
     3
 72
    39
 73
    35
 74
     0
 42
1.000000000000000e-07
 43
1.000000000000000e-07
 12
0.8982579400276336
 22
0.4394686259312266
 32
0.000000000000000
 13
-0.9304495415135534
 23
-0.3664200468003855
 33
0.000000000000000
 40
0.000000000000000
 40
0.000000000000000
 40
0.000000000000000
 40
0.000000000000000
 40
0.3359610193740368
 40
0.7338527493778357
 40
1.157139415399981
 40
1.581814961811459
 40
2.005420830550362
 40
2.481667383189321
 40
2.958167180803995
 40
3.324308588056936
 40
3.690458014476573
 40
3.841469027150246
 40
3.917253978293492
 40
3.946457036722398
 40
3.975955115682003
 40
3.997263790577028
 40
4.018521775925166
 40
4.053019100720648
 40
4.121136829965723
 40
4.233638990163258
 40
4.346643960002574
 40
4.699575373783890
 40
5.053617366441150
 40
5.444608080522049
 40
5.836961508734335
 40
6.228339224581583
 40
6.631458317164293
 40
7.035629095479312
 40
7.438775745165962
 40
7.886263331525993
 40
8.335144614142393
 40
8.782831338431665
 40
9.251711939044744
 40
9.501132871862312
 40
9.501132871862312
 40
9.501132871862312
 40
9.501132871862312
 10
188.2889495314368
 20
106.4467079758859
 30
0.000000000000000
 10
188.3895427491676
 20
106.4959227517362
 30
0.000000000000000
 10
188.6046313897665
 20
106.6131518432235
 30
0.000000000000000
 10
188.9249398737049
 20
106.8293366352120
 30
0.000000000000000
 10
189.2413816455056
 20
107.0997022340897
 30
0.000000000000000
 10
189.5321172619585
 20
107.4091864533341
 30
0.000000000000000
 10
189.8003162159218
 20
107.7608966514199
 30
0.000000000000000
 10
190.0382374926596
 20
108.1540754906347
 30
0.000000000000000
 10
190.2314691503820
 20
108.5497049688379
 30
0.000000000000000
 10
190.3780692591235
 20
108.9251265421050
 30
0.000000000000000
 10
190.4833400228041
 20
109.2001814678091
 30
0.000000000000000
 10
190.5661132294174
 20
109.3798307914504
 30
0.000000000000000
 10
190.6156842654653
 20
109.4505629358604
 30
0.000000000000000
 10
190.6504177980125
 20
109.4793315923893
 30
0.000000000000000
 10
190.6755644870640
 20
109.4901386406514
 30
0.000000000000000
 10
190.7000990268842
 20
109.4903068916677
 30
0.000000000000000
 10
190.7247344470505
 20
109.4817255974526
 30
0.000000000000000
 10
190.7577787736246
 20
109.4558087713193
 30
0.000000000000000
 10
190.7984291854034
 20
109.3956851529586
 30
0.000000000000000
 10
190.8365331405506
 20
109.3050613570330
 30
0.000000000000000
 10
190.8855706598675
 20
109.1182840510923
 30
0.000000000000000
 10
190.9177142162959
 20
108.8451583098436
 30
0.000000000000000
 10
190.9049777161707
 20
108.4785926039925
 30
0.000000000000000
 10
190.8506423061189
 20
108.1025634234066
 30
0.000000000000000
 10
190.7508158694876
 20
107.7231209180624
 30
0.000000000000000
 10
190.6112594581972
 20
107.3522355354579
 30
0.000000000000000
 10
190.4329524810352
 20
106.9938887403357
 30
0.000000000000000
 10
190.2174681366434
 20
106.6519836484747
 30
0.000000000000000
 10
189.9599236313190
 20
106.3215081726621
 30
0.000000000000000
 10
189.6575830908152
 20
106.0100179776075
 30
0.000000000000000
 10
189.3121011795448
 20
105.7234855181359
 30
0.000000000000000
 10
188.9328296188967
 20
105.4703995021851
 30
0.000000000000000
 10
188.5876758812176
 20
105.2900067777104
 30
0.000000000000000
 10
188.3673230719145
 20
105.1960614686768
 30
0.000000000000000
 10
188.2899652077198
 20
105.1655971920515
 30
0.000000000000000
  0
SPLINE
  5
1D3
100
AcDbEntity
  8
A1
  6
CONTINUOUS
 62
7
100
AcDbSpline
210
0.000000000000000
220
0.000000000000000
230
1.000000000000000
 70
     8
 71
     3
 72
    24
 73
    20
 74
     0
 42
1.000000000000000e-07
 43
1.000000000000000e-07
 12
0.9394861393229803
 22
0.3425869145498837
 32
0.000000000000000
 13
0.0007981819226188236
 23
0.9999996814528913
 33
0.000000000000000
 40
0.000000000000000
 40
0.000000000000000
 40
0.000000000000000
 40
0.000000000000000
 40
0.1795278136432666
 40
0.4670925938100285
 40
0.7789261061275424
 40
1.054542148680360
 40
1.293978060906843
 40
1.497269905576039
 40
1.699078543229025
 40
2.003119890078450
 40
2.364639655492578
 40
2.783240363519896
 40
3.259119290499806
 40
3.608375412401632
 40
3.983198947886974
 40
4.383582591932847
 40
4.809533885590835
 40
5.261167715133849
 40
5.738878069045406
 40
5.738878069045406
 40
5.738878069045406
 40
5.738878069045406
 10
188.2913738184707
 20
105.0559514823705
 30
0.000000000000000
 10
188.3475951159843
 20
105.0764527756211
 30
0.000000000000000
 10
188.4928859064212
 20
105.1325248214127
 30
0.000000000000000
 10
188.7304370841504
 20
105.2377195326492
 30
0.000000000000000
 10
188.9894330142616
 20
105.3723149376278
 30
0.000000000000000
 10
189.2258632118524
 20
105.5142882345724
 30
0.000000000000000
 10
189.4242237540658
 20
105.6485936331879
 30
0.000000000000000
 10
189.5962956148071
 20
105.7773534781242
 30
0.000000000000000
 10
189.7792460383321
 20
105.9271452689419
 30
0.000000000000000
 10
189.9927055732541
 20
106.1224809796623
 30
0.000000000000000
 10
190.2408319342349
 20
106.3857546882968
 30
0.000000000000000
 10
190.5013802448704
 20
106.7141820557842
 30
0.000000000000000
 10
190.7273101966931
 20
107.0626807326224
 30
0.000000000000000
 10
190.9152160263830
 20
107.4161491817986
 30
0.000000000000000
 10
191.0658734368617
 20
107.7597827724746
 30
0.000000000000000
 10
191.1967391619718
 20
108.1386667596739
 30
0.000000000000000
 10
191.3006574956943
 20
108.5523789330843
 30
0.000000000000000
 10
191.3698039461723
 20
108.9995029840764
 30
0.000000000000000
 10
191.3859006499439
 20
109.3095317162806
 30
0.000000000000000
 10
191.3860277498669
 20
109.4687684501933
 30
0.000000000000000
  0
SPLINE
  5
1D4
100
AcDbEntity
  8
A1
  6
CONTINUOUS
 62
7
100
AcDbSpline
210
0.000000000000000
220
0.000000000000000
230
1.000000000000000
 70
     8
 71
     3
 72
    11
 73
     7
 74
     0
 42
1.000000000000000e-07
 43
1.000000000000000e-07
 12
0.9999995185698936
 22
0.0009812539240101614
 32
0.000000000000000
 13
0.9587346073890330
 23
0.2843025722615948
 33
0.000000000000000
 40
0.000000000000000
 40
0.000000000000000
 40
0.000000000000000
 40
0.000000000000000
 40
0.4141685439695325
 40
0.8026692071303225
 40
1.165822298095192
 40
1.342410592819998
 40
1.342410592819998
 40
1.342410592819998
 40
1.342410592819998
 10
186.6876434254012
 20
104.7693850002660
 30
0.000000000000000
 10
186.8256995402600
 20
104.7695204684356
 30
0.000000000000000
 10
187.0934145307027
 20
104.7817055732673
 30
0.000000000000000
 10
187.4789957762411
 20
104.8333966803177
 30
0.000000000000000
 10
187.7817341115510
 20
104.8988881646456
 30
0.000000000000000
 10
187.9551808734929
 20
104.9468341690540
 30
0.000000000000000
 10
188.0116146432970
 20
104.9635690045279
 30
0.000000000000000
  0
SPLINE
  5
1D5
100
AcDbEntity
  8
A1
  6
CONTINUOUS
 62
7
100
AcDbSpline
210
0.000000000000000
220
0.000000000000000
230
1.000000000000000
 70
     8
 71
     3
 72
    20
 73
    16
 74
     0
 42
1.000000000000000e-07
 43
1.000000000000000e-07
 12
-0.9999998104735823
 22
0.0006156731556075101
 32
0.000000000000000
 13
-0.5584076768577688
 23
0.8295666738890759
 33
0.000000000000000
 40
0.000000000000000
 40
0.000000000000000
 40
0.000000000000000
 40
0.000000000000000
 40
0.3413254246738061
 40
0.6826617225533164
 40
1.031291474870007
 40
1.379926518678769
 40
1.721173761838185
 40
2.062419438601860
 40
2.410711252351434
 40
2.758994438074876
 40
3.159901338392720
 40
3.560781717305016
 40
3.974845126641852
 40
4.388927703928839
 40
4.595807719480183
 40
4.595807719480183
 40
4.595807719480183
 40
4.595807719480183
 10
186.6876434254012
 20
104.8594389725380
 30
0.000000000000000
 10
186.5738683054067
 20
104.8595090208384
 30
0.000000000000000
 10
186.3462301359152
 20
104.8678470014504
 30
0.000000000000000
 10
186.0042413624367
 20
104.9054350120789
 30
0.000000000000000
 10
185.6634351430337
 20
104.9680255574627
 30
0.000000000000000
 10
185.3280428823684
 20
105.0549290223773
 30
0.000000000000000
 10
185.0020111524342
 20
105.1646207119918
 30
0.000000000000000
 10
184.6845446778424
 20
105.2967792446066
 30
0.000000000000000
 10
184.3751986348529
 20
105.4523113512023
 30
0.000000000000000
 10
184.0608533777475
 20
105.6400622869429
 30
0.000000000000000
 10
183.7480754184372
 20
105.8625528970588
 30
0.000000000000000
 10
183.4390265873965
 20
106.1255638886433
 30
0.000000000000000
 10
183.1522970659868
 20
106.4189860093821
 30
0.000000000000000
 10
182.9343191545858
 20
106.6870634494448
 30
0.000000000000000
 10
182.8148527079855
 20
106.8561754131494
 30
0.000000000000000
 10
182.7763449116948
 20
106.9133823352811
 30
0.000000000000000
  0
SPLINE
  5
1D6
100
AcDbEntity
  8
A1
  6
CONTINUOUS
 62
7
100
AcDbSpline
210
0.000000000000000
220
0.000000000000000
230
1.000000000000000
 70
     8
 71
     3
 72
    16
 73
    12
 74
     0
 42
1.000000000000000e-07
 43
1.000000000000000e-07
 12
0.7438855206564767
 22
-0.6683070642793609
 32
0.000000000000000
 13
0.9999992199293501
 23
-0.001249055835160107
 33
0.000000000000000
 40
0.000000000000000
 40
0.000000000000000
 40
0.000000000000000
 40
0.000000000000000
 40
0.01709625952791290
 40
0.3146084799724978
 40
0.6121297400469862
 40
0.8845219994044760
 40
1.156913130273292
 40
1.437032023802363
 40
1.717141737752353
 40
2.049338170865282
 40
2.385262526529471
 40
2.385262526529471
 40
2.385262526529471
 40
2.385262526529471
 10
184.5117305937741
 20
106.9150023054897
 30
0.000000000000000
 10
184.5159698137475
 20
106.9111937884846
 30
0.000000000000000
 10
184.5941676873274
 20
106.8413190266799
 30
0.000000000000000
 10
184.7529545937126
 20
106.7126601453291
 30
0.000000000000000
 10
184.9933187650895
 20
106.5512762096413
 30
0.000000000000000
 10
185.2392556330161
 20
106.4151837868329
 30
0.000000000000000
 10
185.4901469161471
 20
106.3019225841317
 30
0.000000000000000
 10
185.7520667601542
 20
106.2091119112516
 30
0.000000000000000
 10
186.0402296933916
 20
106.1338512485436
 30
0.000000000000000
 10
186.3527847207053
 20
106.0831275517733
 30
0.000000000000000
 10
186.5756687292880
 20
106.0711212460101
 30
0.000000000000000
 10
186.6876434271612
 20
106.0709813832512
 30
0.000000000000000
  0
SPLINE
  5
1D7
100
AcDbEntity
  8
A1
  6
CONTINUOUS
 62
7
100
AcDbSpline
210
0.000000000000000
220
0.000000000000000
230
1.000000000000000
 70
     8
 71
     3
 72
    18
 73
    14
 74
     0
 42
1.000000000000000e-07
 43
1.000000000000000e-07
 12
-0.9999989729039953
 22
0.001433244959116564
 32
0.000000000000000
 13
-0.7747524844726286
 23
0.6322646501294003
 33
0.000000000000000
 40
0.000000000000000
 40
0.000000000000000
 40
0.000000000000000
 40
0.000000000000000
 40
0.3808326700880640
 40
0.7227149883332162
 40
1.025994918224382
 40
1.290748685224084
 40
1.516982777859538
 40
1.704701341414078
 40
1.879132179845342
 40
1.999876489168227
 40
2.105811207150093
 40
2.212954924675919
 40
2.266645309012320
 40
2.266645309012320
 40
2.266645309012320
 40
2.266645309012320
 10
186.6876434254012
 20
106.1652189643178
 30
0.000000000000000
 10
186.5606993324224
 20
106.1654009064860
 30
0.000000000000000
 10
186.3195485876601
 20
106.1796694108092
 30
0.000000000000000
 10
185.9819811442598
 20
106.2380760805008
 30
0.000000000000000
 10
185.6890901366262
 20
106.3184659665649
 30
0.000000000000000
 10
185.4403448381730
 20
106.4099260083445
 30
0.000000000000000
 10
185.2340813899412
 20
106.5032803682069
 30
0.000000000000000
 10
185.0606162076187
 20
106.5950126284750
 30
0.000000000000000
 10
184.9225276879866
 20
106.6778728970916
 30
0.000000000000000
 10
184.8110210352357
 20
106.7516992623791
 30
0.000000000000000
 10
184.7203846325835
 20
106.8162838396618
 30
0.000000000000000
 10
184.6496653186333
 20
106.8702201866556
 30
0.000000000000000
 10
184.6078498338918
 20
106.9037744484717
 30
0.000000000000000
 10
184.5939842476728
 20
106.9150899591610
 30
0.000000000000000
  0
SPLINE
  5
1D8
100
AcDbEntity
  8
A1
  6
CONTINUOUS
 62
7
100
AcDbSpline
210
0.000000000000000
220
0.000000000000000
230
1.000000000000000
 70
     8
 71
     3
 72
    20
 73
    16
 74
     0
 42
1.000000000000000e-07
 43
1.000000000000000e-07
 12
0.5401349538997238
 22
-0.8415784167714264
 32
0.000000000000000
 13
0.9999936963706659
 23
-0.003550664579165641
 33
0.000000000000000
 40
0.000000000000000
 40
0.000000000000000
 40
0.000000000000000
 40
0.000000000000000
 40
0.2327981571620048
 40
0.4364225995551475
 40
0.6378963720146972
 40
0.9416204923678217
 40
1.303003931486164
 40
1.721675993487041
 40
2.197856946973029
 40
2.547452287860110
 40
2.922730284256638
 40
3.323686874320031
 40
3.750332766766630
 40
4.202787608570554
 40
4.670371479692864
 40
4.670371479692864
 40
4.670371479692864
 40
4.670371479692864
 10
182.7431396896463
 20
106.9150566295995
 30
0.000000000000000
 10
182.7850538302752
 20
106.8497506614223
 30
0.000000000000000
 10
182.8666820252433
 20
106.7292497504001
 30
0.000000000000000
 10
182.9940087884916
 20
106.5588762622601
 30
0.000000000000000
 10
183.1436157933036
 20
106.3759111944147
 30
0.000000000000000
 10
183.3386079427893
 20
106.1624957808656
 30
0.000000000000000
 10
183.6015749270313
 20
105.9142302955004
 30
0.000000000000000
 10
183.9298420568409
 20
105.6533526993355
 30
0.000000000000000
 10
184.2783493391028
 20
105.4269984242350
 30
0.000000000000000
 10
184.6319856424284
 20
105.2386293579585
 30
0.000000000000000
 10
184.9759177385412
 20
105.0875165319991
 30
0.000000000000000
 10
185.3552486709627
 20
104.9561821526265
 30
0.000000000000000
 10
185.7695673373985
 20
104.8518167403968
 30
0.000000000000000
 10
186.2138184838075
 20
104.7828621362488
 30
0.000000000000000
 10
186.5206848955692
 20
104.7664221528370
 30
0.000000000000000
 10
186.6765452034515
 20
104.7658687416740
 30
0.000000000000000
  0
SPLINE
  5
1D9
100
AcDbEntity
  8
A1
  6
CONTINUOUS
 62
7
100
AcDbSpline
210
0.000000000000000
220
0.000000000000000
230
1.000000000000000
 70
     8
 71
     3
 72
    16
 73
    12
 74
     0
 42
1.000000000000000e-07
 43
1.000000000000000e-07
 12
-0.9999996787487362
 22
-0.0008015626756332495
 32
0.000000000000000
 13
-0.7440518954085746
 23
-0.6681218279172754
 33
0.000000000000000
 40
0.000000000000000
 40
0.000000000000000
 40
0.000000000000000
 40
0.000000000000000
 40
0.2626389126922061
 40
0.5252895805093054
 40
0.7954404206469328
 40
1.065600227870667
 40
1.328117939860592
 40
1.590638608190383
 40
1.860023822146544
 40
2.129406466748962
 40
2.385781598269285
 40
2.385781598269285
 40
2.385781598269285
 40
2.385781598269285
 10
186.6876434253812
 20
112.8599412169997
 30
0.000000000000000
 10
186.6000971492748
 20
112.8598710431498
 30
0.000000000000000
 10
186.4249153286817
 20
112.8524787943522
 30
0.000000000000000
 10
186.1615833286549
 20
112.8191074433878
 30
0.000000000000000
 10
185.8994698007423
 20
112.7633922676632
 30
0.000000000000000
 10
185.6429112949356
 20
112.6862221318147
 30
0.000000000000000
 10
185.3958439727711
 20
112.5894501039548
 30
0.000000000000000
 10
185.1573935991067
 20
112.4736510518187
 30
0.000000000000000
 10
184.9269914326369
 20
112.3379567805203
 30
0.000000000000000
 10
184.7099645928338
 20
112.1853159942464
 30
0.000000000000000
 10
184.5749857959609
 20
112.0732132400840
 30
0.000000000000000
 10
184.5114003284465
 20
112.0161166329160
 30
0.000000000000000
  0
SPLINE
  5
1DA
100
AcDbEntity
  8
A1
  6
CONTINUOUS
 62
7
100
AcDbSpline
210
0.000000000000000
220
0.000000000000000
230
1.000000000000000
 70
     8
 71
     3
 72
    20
 73
    16
 74
     0
 42
1.000000000000000e-07
 43
1.000000000000000e-07
 12
0.5583653608300665
 22
0.8295951565814903
 32
0.000000000000000
 13
0.9999997701534085
 23
0.0006780071245202635
 33
0.000000000000000
 40
0.000000000000000
 40
0.000000000000000
 40
0.000000000000000
 40
0.000000000000000
 40
0.02106045813745060
 40
0.4073750373027177
 40
0.7936767900066199
 40
1.191779645328255
 40
1.589904101303577
 40
1.967965679513533
 40
2.346041008398049
 40
2.734012633470309
 40
3.121988858518446
 40
3.486559121197819
 40
3.851124677592619
 40
4.224477499782203
 40
4.597817256938442
 40
4.597817256938442
 40
4.597817256938442
 40
4.597817256938442
 10
182.7749191683339
 20
112.0159482701569
 30
0.000000000000000
 10
182.7788389784363
 20
112.0217721548456
 30
0.000000000000000
 10
182.8549247661244
 20
112.1342443881998
 30
0.000000000000000
 10
183.0129108317356
 20
112.3469023684835
 30
0.000000000000000
 10
183.2714497688033
 20
112.6398202750833
 30
0.000000000000000
 10
183.5576857448490
 20
112.9115915789021
 30
0.000000000000000
 10
183.8643834871251
 20
113.1555990466940
 30
0.000000000000000
 10
184.1848434954656
 20
113.3692794056476
 30
0.000000000000000
 10
184.5182854382914
 20
113.5551883264965
 30
0.000000000000000
 10
184.8685277854673
 20
113.7152612729143
 30
0.000000000000000
 10
185.2261690029604
 20
113.8453917199237
 30
0.000000000000000
 10
185.5852480536318
 20
113.9452914639685
 30
0.000000000000000
 10
185.9460363936064
 20
114.0170151799026
 30
0.000000000000000
 10
186.3141908547476
 20
114.0611156318753
 30
0.000000000000000
 10
186.5631968682661
 20
114.0710484492749
 30
0.000000000000000
 10
186.6876434253812
 20
114.0711328249466
 30
0.000000000000000
  0
ARC
  5
1DB
100
AcDbEntity
  8
A1
  6
CONTINUOUS
 62
7
100
AcDbCircle
 10
186.6826062152861
 20
109.2106089839768
 30
0.000000000000000
 40
4.351172927146219
100
AcDbArc
 50
270.0663294586106
 51
282.6610874526707
  0
LINE
  5
1DC
100
AcDbEntity
  8
A1
  6
CONTINUOUS
 62
7
100
AcDbLine
 10
188.9523863892860
 20
111.8656564272314
 30
0.000000000000000
 11
188.9683587630012
 21
111.8505143150267
 31
0.000000000000000
  0
LINE
  5
1DD
100
AcDbEntity
  8
A1
  6
CONTINUOUS
 62
7
100
AcDbLine
 10
186.6876434253812
 20
113.9655370210329
 30
0.000000000000000
 11
186.6876434253812
 21
114.0731692588429
 31
0.000000000000000
  0
LINE
  5
1DE
100
AcDbEntity
  8
A1
  6
CONTINUOUS
 62
7
100
AcDbLine
 10
186.6876434253812
 20
114.0861262639984
 30
0.000000000000000
 11
186.6876434253812
 21
114.1647757974038
 31
0.000000000000000
  0
LINE
  5
1DF
100
AcDbEntity
  8
A1
  6
CONTINUOUS
 62
7
100
AcDbLine
 10
186.6876434254012
 20
104.7693974416020
 30
0.000000000000000
 11
186.6876434254012
 21
104.8594389725229
 31
0.000000000000000
  0
LINE
  5
1E0
100
AcDbEntity
  8
A1
  6
CONTINUOUS
 62
7
100
AcDbLine
 10
186.6765452034514
 20
104.7658687416740
 30
0.000000000000000
 11
186.6876434254011
 21
104.7658550816552
 31
0.000000000000000
  0
SPLINE
  5
1E1
100
AcDbEntity
  8
A1
  6
CONTINUOUS
 62
7
100
AcDbSpline
210
0.000000000000000
220
0.000000000000000
230
1.000000000000000
 70
     8
 71
     3
 72
     9
 73
     5
 74
     0
 42
1.000000000000000e-07
 43
1.000000000000000e-07
 12
-0.2918335089161701
 22
-0.9564691333616793
 32
0.000000000000000
 13
-0.02421137121564243
 23
-0.9997068617867626
 33
0.000000000000000
 40
0.000000000000000
 40
0.000000000000000
 40
0.000000000000000
 40
0.000000000000000
 40
0.03797580032388570
 40
0.06288783587585210
 40
0.06288783587585210
 40
0.06288783587585210
 40
0.06288783587585210
 10
166.9476674957312
 20
112.2954552322329
 30
0.000000000000000
 10
166.9439732920437
 20
112.2833476719581
 30
0.000000000000000
 10
166.9394689734327
 20
112.2627533907558
 30
0.000000000000000
 10
166.9378444766547
 20
112.2418150473504
 30
0.000000000000000
 10
166.9376434251412
 20
112.2335134697229
 30
0.000000000000000
  0
SPLINE
  5
1E2
100
AcDbEntity
  8
A1
  6
CONTINUOUS
 62
7
100
AcDbSpline
210
0.000000000000000
220
0.000000000000000
230
1.000000000000000
 70
     8
 71
     3
 72
     9
 73
     5
 74
     0
 42
1.000000000000000e-07
 43
1.000000000000000e-07
 12
0.2918335100566765
 22
-0.9564691330142523
 32
0.000000000000000
 13
0.02421137032797560
 23
-0.9997068618067715
 33
0.000000000000000
 40
0.000000000000000
 40
0.000000000000000
 40
0.000000000000000
 40
0.000000000000000
 40
0.03797580032860190
 40
0.06288783587962030
 40
0.06288783587962030
 40
0.06288783587962030
 40
0.06288783587962030
 10
178.9276193548012
 20
112.2954552322329
 30
0.000000000000000
 10
178.9313135585035
 20
112.2833476719610
 30
0.000000000000000
 10
178.9358178771274
 20
112.2627533907584
 30
0.000000000000000
 10
178.9374423738951
 20
112.2418150473502
 30
0.000000000000000
 10
178.9376434254012
 20
112.2335134697229
 30
0.000000000000000
  0
ELLIPSE
  5
1E3
100
AcDbEntity
  8
A1
  6
CONTINUOUS
 62
7
100
AcDbEllipse
 10
172.9376434254012
 20
112.2237081681729
 30
0.000000000000000
 11
5.999998261220000
 21
0.000000000000000
 31
0.000000000000000
210
0.000000000000000
220
0.000000000000000
230
1.000000000000000
 40
0.2069715354480510
 41
0.05780751438415671
 42
3.083785139207852
  0
ELLIPSE
  5
1E4
100
AcDbEntity
  8
A1
  6
CONTINUOUS
 62
7
100
AcDbEllipse
 10
170.6374257059812
 20
113.5426943087029
 30
0.000000000000000
 11
3.680953576546016
 21
2.939412369780273
 31
0.000000000000000
210
0.000000000000000
220
0.000000000000000
230
1.000000000000000
 40
0.1268234415540206
 41
2.965934773335043
 42
3.040673720583426
  0
ELLIPSE
  5
1E5
100
AcDbEntity
  8
A1
  6
CONTINUOUS
 62
7
100
AcDbEllipse
 10
172.9376434253912
 20
110.6573036980329
 30
0.000000000000000
 11
-5.999998234150000
 21
0.000000000000000
 31
0.000000000000000
210
0.000000000000000
220
0.000000000000000
230
1.000000000000000
 40
0.2069729254880165
 41
3.200247996065335
 42
6.224529964706389
  0
ELLIPSE
  5
1E6
100
AcDbEntity
  8
A1
  6
CONTINUOUS
 62
7
100
AcDbEllipse
 10
175.2378611457912
 20
113.5426943035429
 30
0.000000000000000
 11
-3.680953575358172
 21
2.939412364553080
 31
0.000000000000000
210
0.000000000000000
220
0.000000000000000
230
1.000000000000000
 40
0.1268234416250574
 41
3.242511586536360
 42
3.317250533851102
  0
ARC
  5
1E7
100
AcDbEntity
  8
A1
  6
CONTINUOUS
 62
7
100
AcDbCircle
 10
180.0376434254012
 20
114.9655370209729
 30
0.000000000000000
 40
0.5000000000000000
100
AcDbArc
 50
0.000000000000000
 51
90.00000000000000
  0
ARC
  5
1E8
100
AcDbEntity
  8
A1
  6
CONTINUOUS
 62
7
100
AcDbCircle
 10
165.8376434251442
 20
114.9655370209729
 30
0.000000000000000
 40
0.5000000000000000
100
AcDbArc
 50
90.00000000000000
 51
180.0000000000000
  0
LINE
  5
1E9
100
AcDbEntity
  8
A1
  6
CONTINUOUS
 62
7
100
AcDbLine
 10
165.3376434251446
 20
103.9655370209729
 30
0.000000000000000
 11
165.3376434251446
 21
105.4655370209729
 31
0.000000000000000
  0
LINE
  5
1EA
100
AcDbEntity
  8
A1
  6
CONTINUOUS
 62
7
100
AcDbLine
 10
166.9376434251412
 20
103.9655370209729
 30
0.000000000000000
 11
165.3376434251446
 21
103.9655370209729
 31
0.000000000000000
  0
LINE
  5
1EB
100
AcDbEntity
  8
A1
  6
CONTINUOUS
 62
7
100
AcDbLine
 10
165.3376434251446
 20
105.4655370209729
 30
0.000000000000000
 11
165.3376434251446
 21
114.9655370209729
 31
0.000000000000000
  0
LINE
  5
1EC
100
AcDbEntity
  8
A1
  6
CONTINUOUS
 62
7
100
AcDbLine
 10
178.9376434254012
 20
103.9655370209729
 30
0.000000000000000
 11
180.5376434254012
 21
103.9655370209729
 31
0.000000000000000
  0
LINE
  5
1ED
100
AcDbEntity
  8
A1
  6
CONTINUOUS
 62
7
100
AcDbLine
 10
166.9376434251412
 20
115.3808956333627
 30
0.000000000000000
 11
166.9376434251412
 21
115.4655361749386
 31
0.000000000000000
  0
LINE
  5
1EE
100
AcDbEntity
  8
A1
  6
CONTINUOUS
 62
7
100
AcDbLine
 10
178.9376434254012
 20
115.3808956333627
 30
0.000000000000000
 11
178.9376434254012
 21
115.4655361749386
 31
0.000000000000000
  0
LINE
  5
1EF
100
AcDbEntity
  8
A1
  6
CONTINUOUS
 62
7
100
AcDbLine
 10
166.9376434251412
 20
110.5655370209729
 30
0.000000000000000
 11
178.9376434254012
 21
110.5655370209729
 31
0.000000000000000
  0
ARC
  5
1F0
100
AcDbEntity
  8
A1
  6
CONTINUOUS
 62
7
100
AcDbCircle
 10
171.0876434259112
 20
105.4655370209729
 30
0.000000000000000
 40
0.5000000000000000
100
AcDbArc
 50
0.000000000000000
 51
90.00000000000000
  0
ARC
  5
1F1
100
AcDbEntity
  8
A1
  6
CONTINUOUS
 62
7
100
AcDbCircle
 10
169.3876434259112
 20
105.4655370209729
 30
0.000000000000000
 40
0.5000000000000000
100
AcDbArc
 50
90.00000000000000
 51
180.0000000000000
  0
ARC
  5
1F2
100
AcDbEntity
  8
A1
  6
CONTINUOUS
 62
7
100
AcDbCircle
 10
174.7876434254212
 20
105.4655370209729
 30
0.000000000000000
 40
0.5000000000000000
100
AcDbArc
 50
90.00000000000000
 51
180.0000000000000
  0
ARC
  5
1F3
100
AcDbEntity
  8
A1
  6
CONTINUOUS
 62
7
100
AcDbCircle
 10
176.4876434254012
 20
105.4655370209729
 30
0.000000000000000
 40
0.5000000000000000
100
AcDbArc
 50
0.000000000000000
 51
90.00000000000000
  0
LINE
  5
1F4
100
AcDbEntity
  8
A1
  6
CONTINUOUS
 62
7
100
AcDbLine
 10
180.9376434254980
 20
110.9655370209829
 30
0.000000000000000
 11
180.9376434255394
 21
112.6432457849614
 31
0.000000000000000
  0
LINE
  5
1F5
100
AcDbEntity
  8
A1
  6
CONTINUOUS
 62
7
100
AcDbLine
 10
164.9376434258669
 20
110.9655370209829
 30
0.000000000000000
 11
164.9376434258578
 21
112.6432457849614
 31
0.000000000000000
  0
LINE
  5
1F6
100
AcDbEntity
  8
A1
  6
CONTINUOUS
 62
7
100
AcDbLine
 10
165.3376434251446
 20
112.6655370209729
 30
0.000000000000000
 11
164.9376434258662
 21
112.6655370209729
 31
0.000000000000000
  0
LINE
  5
1F7
100
AcDbEntity
  8
A1
  6
CONTINUOUS
 62
7
100
AcDbLine
 10
164.9376434258662
 20
112.6432457849614
 30
0.000000000000000
 11
164.9376434258662
 21
112.6655370209729
 31
0.000000000000000
  0
LINE
  5
1F8
100
AcDbEntity
  8
A1
  6
CONTINUOUS
 62
7
100
AcDbLine
 10
180.9376434255012
 20
112.6432457849614
 30
0.000000000000000
 11
180.9376434255012
 21
112.6655370209729
 31
0.000000000000000
  0
LINE
  5
1F9
100
AcDbEntity
  8
A1
  6
CONTINUOUS
 62
7
100
AcDbLine
 10
180.5376434254012
 20
112.6655370209729
 30
0.000000000000000
 11
180.9376434255012
 21
112.6655370209729
 31
0.000000000000000
  0
LINE
  5
1FA
100
AcDbEntity
  8
A1
  6
CONTINUOUS
 62
7
100
AcDbLine
 10
169.3876434259112
 20
105.9655370209890
 30
0.000000000000000
 11
171.0876434259112
 21
105.9655370209890
 31
0.000000000000000
  0
LINE
  5
1FB
100
AcDbEntity
  8
A1
  6
CONTINUOUS
 62
7
100
AcDbLine
 10
176.4876434254012
 20
105.9655370209890
 30
0.000000000000000
 11
174.7876434254012
 21
105.9655370209890
 31
0.000000000000000
  0
LINE
  5
1FC
100
AcDbEntity
  8
A1
  6
CONTINUOUS
 62
7
100
AcDbLine
 10
164.9376434258612
 20
105.4655370209829
 30
0.000000000000000
 11
165.3376434251446
 21
105.4655370209829
 31
0.000000000000000
  0
LINE
  5
1FD
100
AcDbEntity
  8
A1
  6
CONTINUOUS
 62
7
100
AcDbLine
 10
164.9376434258612
 20
103.4655370209729
 30
0.000000000000000
 11
164.9376434258662
 21
105.4655370209729
 31
0.000000000000000
  0
LINE
  5
1FE
100
AcDbEntity
  8
A1
  6
CONTINUOUS
 62
7
100
AcDbLine
 10
180.9376434255012
 20
105.4655370209829
 30
0.000000000000000
 11
180.5376434254012
 21
105.4655370209829
 31
0.000000000000000
  0
LINE
  5
1FF
100
AcDbEntity
  8
A1
  6
CONTINUOUS
 62
7
100
AcDbLine
 10
180.9376434255012
 20
103.4655370209729
 30
0.000000000000000
 11
180.9376434255012
 21
105.4655370209729
 31
0.000000000000000
  0
ARC
  5
200
100
AcDbEntity
  8
A1
  6
CONTINUOUS
 62
7
100
AcDbCircle
 10
162.9376434251412
 20
109.4655370209729
 30
0.000000000000000
 40
1.250000000000000
100
AcDbArc
 50
180.0000000000000
 51
253.7397952911009
  0
ARC
  5
201
100
AcDbEntity
  8
A1
  6
CONTINUOUS
 62
7
100
AcDbCircle
 10
162.9376434251412
 20
109.4655370209729
 30
0.000000000000000
 40
1.250000000000000
100
AcDbArc
 50
106.2602047088991
 51
180.0000000000000
  0
ARC
  5
202
100
AcDbEntity
  8
A1
  6
CONTINUOUS
 62
7
100
AcDbCircle
 10
182.9376434251212
 20
109.4655370209729
 30
0.000000000000000
 40
1.250000000000000
100
AcDbArc
 50
286.2602047088991
 51
433.7397952911009
  0
LINE
  5
203
100
AcDbEntity
  8
A1
  6
CONTINUOUS
 62
7
100
AcDbLine
 10
185.0876434251312
 20
112.3422724751843
 30
0.000000000000000
 11
185.0876434251312
 21
112.0155370210029
 31
0.000000000000000
  0
LINE
  5
204
100
AcDbEntity
  8
A1
  6
CONTINUOUS
 62
7
100
AcDbLine
 10
185.0876434251312
 20
113.9655370210029
 30
0.000000000000000
 11
185.0876434251312
 21
113.8790551339286
 31
0.000000000000000
  0
LINE
  5
205
100
AcDbEntity
  8
A1
  6
CONTINUOUS
 62
7
100
AcDbLine
 10
185.0876434251312
 20
113.9655370210029
 30
0.000000000000000
 11
185.3467255292689
 21
113.9655370210029
 31
0.000000000000000
  0
LINE
  5
206
100
AcDbEntity
  8
A1
  6
CONTINUOUS
 62
7
100
AcDbLine
 10
160.7876434251312
 20
112.3392272703959
 30
0.000000000000000
 11
160.7876434251312
 21
112.0155370210029
 31
0.000000000000000
  0
LINE
  5
207
100
AcDbEntity
  8
A1
  6
CONTINUOUS
 62
7
100
AcDbLine
 10
160.7876434251312
 20
113.9655370210029
 30
0.000000000000000
 11
160.7876434251312
 21
113.8772617842130
 31
0.000000000000000
  0
LINE
  5
208
100
AcDbEntity
  8
A1
  6
CONTINUOUS
 62
7
100
AcDbLine
 10
160.7876434251312
 20
113.9655370210029
 30
0.000000000000000
 11
160.5308171842561
 21
113.9655370210029
 31
0.000000000000000
  0
LINE
  5
209
100
AcDbEntity
  8
A1
  6
CONTINUOUS
 62
7
100
AcDbLine
 10
185.0876434251312
 20
105.0510904434276
 30
0.000000000000000
 11
185.0876434251312
 21
104.9655370210029
 31
0.000000000000000
  0
LINE
  5
20A
100
AcDbEntity
  8
A1
  6
CONTINUOUS
 62
7
100
AcDbLine
 10
185.0876434251312
 20
106.9155370210029
 30
0.000000000000000
 11
185.0876434251312
 21
106.5850574682150
 31
0.000000000000000
  0
LINE
  5
20B
100
AcDbEntity
  8
A1
  6
CONTINUOUS
 62
7
100
AcDbLine
 10
185.0876434251312
 20
104.9655370210029
 30
0.000000000000000
 11
185.3447387170420
 21
104.9655370210029
 31
0.000000000000000
  0
LINE
  5
20C
100
AcDbEntity
  8
A1
  6
CONTINUOUS
 62
7
100
AcDbLine
 10
160.7876434251312
 20
105.0521250963706
 30
0.000000000000000
 11
160.7876434251312
 21
104.9655370210029
 31
0.000000000000000
  0
LINE
  5
20D
100
AcDbEntity
  8
A1
  6
CONTINUOUS
 62
7
100
AcDbLine
 10
160.7876434251312
 20
106.9155370210029
 30
0.000000000000000
 11
160.7876434251312
 21
106.5858886054549
 31
0.000000000000000
  0
LINE
  5
20E
100
AcDbEntity
  8
A1
  6
CONTINUOUS
 62
7
100
AcDbLine
 10
160.7876434251312
 20
104.9655370210029
 30
0.000000000000000
 11
160.5234742368419
 21
104.9655370210029
 31
0.000000000000000
  0
LINE
  5
20F
100
AcDbEntity
  8
A1
  6
CONTINUOUS
 62
7
100
AcDbLine
 10
159.9630689319257
 20
112.0155370210029
 30
0.000000000000000
 11
159.1876434251312
 21
112.0155370210029
 31
0.000000000000000
  0
LINE
  5
210
100
AcDbEntity
  8
A1
  6
CONTINUOUS
 62
7
100
AcDbLine
 10
159.9630689319257
 20
106.9155370210029
 30
0.000000000000000
 11
159.1876434251312
 21
106.9155370210029
 31
0.000000000000000
  0
LINE
  5
211
100
AcDbEntity
  8
A1
  6
CONTINUOUS
 62
7
100
AcDbLine
 10
185.9122179183367
 20
106.9155370210029
 30
0.000000000000000
 11
186.6876434251312
 21
106.9155370210029
 31
0.000000000000000
  0
LINE
  5
212
100
AcDbEntity
  8
A1
  6
CONTINUOUS
 62
7
100
AcDbLine
 10
185.9122179183367
 20
112.0155370210029
 30
0.000000000000000
 11
186.6876434251312
 21
112.0155370210029
 31
0.000000000000000
  0
LINE
  5
213
100
AcDbEntity
  8
A1
  6
CONTINUOUS
 62
7
100
AcDbLine
 10
183.4722685458312
 20
106.9155370210029
 30
0.000000000000000
 11
185.9122179183312
 21
106.9155370210029
 31
0.000000000000000
  0
LINE
  5
214
100
AcDbEntity
  8
A1
  6
CONTINUOUS
 62
7
100
AcDbLine
 10
183.4722685458312
 20
112.0155370210029
 30
0.000000000000000
 11
185.9122179183312
 21
112.0155370210029
 31
0.000000000000000
  0
LINE
  5
215
100
AcDbEntity
  8
A1
  6
CONTINUOUS
 62
7
100
AcDbLine
 10
162.4030183044312
 20
112.0155370210029
 30
0.000000000000000
 11
159.9630689319312
 21
112.0155370210029
 31
0.000000000000000
  0
LINE
  5
216
100
AcDbEntity
  8
A1
  6
CONTINUOUS
 62
7
100
AcDbLine
 10
162.4030183044312
 20
106.9155370210029
 30
0.000000000000000
 11
159.9630689319312
 21
106.9155370210029
 31
0.000000000000000
  0
LINE
  5
217
100
AcDbEntity
  8
A1
  6
CONTINUOUS
 62
7
100
AcDbLine
 10
183.2876434251312
 20
106.9155370210029
 30
0.000000000000000
 11
183.4722685458187
 21
106.9155370210029
 31
0.000000000000000
  0
LINE
  5
218
100
AcDbEntity
  8
A1
  6
CONTINUOUS
 62
7
100
AcDbLine
 10
183.2876434251312
 20
112.0155370210029
 30
0.000000000000000
 11
183.4722685458187
 21
112.0155370210029
 31
0.000000000000000
  0
LINE
  5
219
100
AcDbEntity
  8
A1
  6
CONTINUOUS
 62
7
100
AcDbLine
 10
162.5876434251312
 20
112.0155370210029
 30
0.000000000000000
 11
162.4030183044437
 21
112.0155370210029
 31
0.000000000000000
  0
LINE
  5
21A
100
AcDbEntity
  8
A1
  6
CONTINUOUS
 62
7
100
AcDbLine
 10
162.5876434251312
 20
106.9155370210029
 30
0.000000000000000
 11
162.4030183044437
 21
106.9155370210029
 31
0.000000000000000
  0
LINE
  5
21B
100
AcDbEntity
  8
A1
  6
CONTINUOUS
 62
7
100
AcDbLine
 10
180.5376434254012
 20
107.9655370209629
 30
0.000000000000000
 11
181.6876434251212
 21
107.9655370209629
 31
0.000000000000000
  0
LINE
  5
21C
100
AcDbEntity
  8
A1
  6
CONTINUOUS
 62
7
100
AcDbLine
 10
166.9376434251412
 20
107.9655370209629
 30
0.000000000000000
 11
178.9376434254012
 21
107.9655370209629
 31
0.000000000000000
  0
LINE
  5
21D
100
AcDbEntity
  8
A1
  6
CONTINUOUS
 62
7
100
AcDbLine
 10
164.1876434251412
 20
107.9655370209629
 30
0.000000000000000
 11
165.3376434251446
 21
107.9655370209629
 31
0.000000000000000
  0
LINE
  5
21E
100
AcDbEntity
  8
A1
  6
CONTINUOUS
 62
7
100
AcDbLine
 10
165.3376434251446
 20
110.9655370209829
 30
0.000000000000000
 11
164.1876434251412
 21
110.9655370209829
 31
0.000000000000000
  0
LINE
  5
21F
100
AcDbEntity
  8
A1
  6
CONTINUOUS
 62
7
100
AcDbLine
 10
181.6876434251212
 20
110.9655370209829
 30
0.000000000000000
 11
180.5376434254012
 21
110.9655370209829
 31
0.000000000000000
  0
LINE
  5
220
100
AcDbEntity
  8
A1
  6
CONTINUOUS
 62
7
100
AcDbLine
 10
164.1876434251413
 20
106.9155370210002
 30
0.000000000000000
 11
164.1876434251412
 21
112.0155370210002
 31
0.000000000000000
  0
LINE
  5
221
100
AcDbEntity
  8
A1
  6
CONTINUOUS
 62
7
100
AcDbLine
 10
162.5876434251312
 20
112.0155370210002
 30
0.000000000000000
 11
162.5876434251312
 21
106.9155370210002
 31
0.000000000000000
  0
LINE
  5
222
100
AcDbEntity
  8
A1
  6
CONTINUOUS
 62
7
100
AcDbLine
 10
164.1876434251412
 20
112.0155370210029
 30
0.000000000000000
 11
162.5876434251312
 21
112.0155370210029
 31
0.000000000000000
  0
LINE
  5
223
100
AcDbEntity
  8
A1
  6
CONTINUOUS
 62
7
100
AcDbLine
 10
162.5876434251312
 20
106.9155370210029
 30
0.000000000000000
 11
164.1876434251412
 21
106.9155370210029
 31
0.000000000000000
  0
LINE
  5
224
100
AcDbEntity
  8
A1
  6
CONTINUOUS
 62
7
100
AcDbLine
 10
181.6876434251212
 20
106.9155370210002
 30
0.000000000000000
 11
181.6876434251212
 21
112.0155370210002
 31
0.000000000000000
  0
LINE
  5
225
100
AcDbEntity
  8
A1
  6
CONTINUOUS
 62
7
100
AcDbLine
 10
183.2876434251312
 20
112.0155370210002
 30
0.000000000000000
 11
183.2876434251312
 21
106.9155370210002
 31
0.000000000000000
  0
LINE
  5
226
100
AcDbEntity
  8
A1
  6
CONTINUOUS
 62
7
100
AcDbLine
 10
181.6876434251212
 20
112.0155370210029
 30
0.000000000000000
 11
183.2876434251312
 21
112.0155370210029
 31
0.000000000000000
  0
LINE
  5
227
100
AcDbEntity
  8
A1
  6
CONTINUOUS
 62
7
100
AcDbLine
 10
183.2876434251312
 20
106.9155370210029
 30
0.000000000000000
 11
181.6876434251212
 21
106.9155370210029
 31
0.000000000000000
  0
LINE
  5
228
100
AcDbEntity
  8
A1
  6
CONTINUOUS
 62
7
100
AcDbLine
 10
181.6876434251212
 20
105.5885672091495
 30
0.000000000000000
 11
181.6876434251212
 21
105.4655370209829
 31
0.000000000000000
  0
LINE
  5
229
100
AcDbEntity
  8
A1
  6
CONTINUOUS
 62
7
100
AcDbLine
 10
183.2876434251312
 20
105.5885672091495
 30
0.000000000000000
 11
183.2876434251312
 21
105.4655370209829
 31
0.000000000000000
  0
LINE
  5
22A
100
AcDbEntity
  8
A1
  6
CONTINUOUS
 62
7
100
AcDbLine
 10
181.6876434251212
 20
105.4655370209829
 30
0.000000000000000
 11
183.2876434251312
 21
105.4655370209829
 31
0.000000000000000
  0
LINE
  5
22B
100
AcDbEntity
  8
A1
  6
CONTINUOUS
 62
7
100
AcDbLine
 10
162.5876434251312
 20
105.5885672091495
 30
0.000000000000000
 11
162.5876434251312
 21
105.4655370209829
 31
0.000000000000000
  0
LINE
  5
22C
100
AcDbEntity
  8
A1
  6
CONTINUOUS
 62
7
100
AcDbLine
 10
164.1876434251412
 20
105.5885672091495
 30
0.000000000000000
 11
164.1876434251412
 21
105.4655370209829
 31
0.000000000000000
  0
LINE
  5
22D
100
AcDbEntity
  8
A1
  6
CONTINUOUS
 62
7
100
AcDbLine
 10
162.5876434251312
 20
105.4655370209829
 30
0.000000000000000
 11
164.1876434251412
 21
105.4655370209829
 31
0.000000000000000
  0
LINE
  5
22E
100
AcDbEntity
  8
A1
  6
CONTINUOUS
 62
7
100
AcDbLine
 10
180.5376434254012
 20
106.5655370208629
 30
0.000000000000000
 11
181.6876434251212
 21
106.5655370208629
 31
0.000000000000000
  0
LINE
  5
22F
100
AcDbEntity
  8
A1
  6
CONTINUOUS
 62
7
100
AcDbLine
 10
164.1876434251412
 20
106.5655370208629
 30
0.000000000000000
 11
165.3376434251446
 21
106.5655370208629
 31
0.000000000000000
  0
LINE
  5
230
100
AcDbEntity
  8
A1
  6
CONTINUOUS
 62
7
100
AcDbLine
 10
162.5876434251312
 20
105.5885672091329
 30
0.000000000000000
 11
162.5876434251312
 21
106.2231457646138
 31
0.000000000000000
  0
LINE
  5
231
100
AcDbEntity
  8
A1
  6
CONTINUOUS
 62
7
100
AcDbLine
 10
164.1876434251412
 20
105.5885672091329
 30
0.000000000000000
 11
164.1876434251412
 21
106.2811898025629
 31
0.000000000000000
  0
LINE
  5
232
100
AcDbEntity
  8
A1
  6
CONTINUOUS
 62
7
100
AcDbLine
 10
181.6876434251212
 20
105.5885672091329
 30
0.000000000000000
 11
181.6876434251212
 21
106.2811898025629
 31
0.000000000000000
  0
LINE
  5
233
100
AcDbEntity
  8
A1
  6
CONTINUOUS
 62
7
100
AcDbLine
 10
183.2876434251312
 20
105.5885672091329
 30
0.000000000000000
 11
183.2876434251312
 21
106.2228345904482
 31
0.000000000000000
  0
LINE
  5
234
100
AcDbEntity
  8
A1
  6
CONTINUOUS
 62
7
100
AcDbLine
 10
163.0989712902208
 20
106.8809513998607
 30
0.000000000000000
 11
163.1078088386109
 21
106.8793598157574
 31
0.000000000000000
  0
LINE
  5
235
100
AcDbEntity
  8
A1
  6
CONTINUOUS
 62
7
100
AcDbLine
 10
164.1876434251412
 20
106.2811898025629
 30
0.000000000000000
 11
164.1876434251412
 21
106.9155370210002
 31
0.000000000000000
  0
LINE
  5
236
100
AcDbEntity
  8
A1
  6
CONTINUOUS
 62
7
100
AcDbLine
 10
181.6876434251212
 20
106.2811898025629
 30
0.000000000000000
 11
181.6876434251212
 21
106.9155370210002
 31
0.000000000000000
  0
LINE
  5
237
100
AcDbEntity
  8
A1
  6
CONTINUOUS
 62
7
100
AcDbLine
 10
186.6876434251312
 20
113.9655370210329
 30
0.000000000000000
 11
188.2876434251312
 21
113.9655370210329
 31
0.000000000000000
  0
LINE
  5
238
100
AcDbEntity
  8
A1
  6
CONTINUOUS
 62
7
100
AcDbLine
 10
188.2876434251312
 20
104.9655370210329
 30
0.000000000000000
 11
188.2876434251312
 21
113.9655370210329
 31
0.000000000000000
  0
LINE
  5
239
100
AcDbEntity
  8
A1
  6
CONTINUOUS
 62
7
100
AcDbLine
 10
186.6876434251312
 20
104.9655370210329
 30
0.000000000000000
 11
186.6876434251312
 21
113.9655370210329
 31
0.000000000000000
  0
LINE
  5
23A
100
AcDbEntity
  8
A1
  6
CONTINUOUS
 62
7
100
AcDbLine
 10
186.6876434251312
 20
104.9655370210329
 30
0.000000000000000
 11
188.2876434251312
 21
104.9655370210329
 31
0.000000000000000
  0
LINE
  5
23B
100
AcDbEntity
  8
A1
  6
CONTINUOUS
 62
7
100
AcDbLine
 10
159.1876434251312
 20
104.9655370210329
 30
0.000000000000000
 11
157.5876434251312
 21
104.9655370210329
 31
0.000000000000000
  0
LINE
  5
23C
100
AcDbEntity
  8
A1
  6
CONTINUOUS
 62
7
100
AcDbLine
 10
157.5876434251312
 20
104.9655370210329
 30
0.000000000000000
 11
157.5876434251312
 21
113.9655370210329
 31
0.000000000000000
  0
LINE
  5
23D
100
AcDbEntity
  8
A1
  6
CONTINUOUS
 62
7
100
AcDbLine
 10
159.1876434251312
 20
104.9655370210329
 30
0.000000000000000
 11
159.1876434251312
 21
113.9655370210329
 31
0.000000000000000
  0
LINE
  5
23E
100
AcDbEntity
  8
A1
  6
CONTINUOUS
 62
7
100
AcDbLine
 10
159.1876434251312
 20
113.9655370210329
 30
0.000000000000000
 11
157.5876434251312
 21
113.9655370210329
 31
0.000000000000000
  0
SPLINE
  5
23F
100
AcDbEntity
  8
A1
  6
CONTINUOUS
 62
7
100
AcDbSpline
210
0.000000000000000
220
0.000000000000000
230
1.000000000000000
 70
     8
 71
     3
 72
    22
 73
    18
 74
     0
 42
1.000000000000000e-07
 43
1.000000000000000e-07
 12
0.2233558285533945
 22
0.9747369767540022
 32
0.000000000000000
 13
0.8745529695906953
 23
0.4849299984352911
 33
0.000000000000000
 40
0.000000000000000
 40
0.000000000000000
 40
0.000000000000000
 40
0.000000000000000
 40
0.1751013266497686
 40
0.5623229502470911
 40
0.9050259427253005
 40
1.203261507513803
 40
1.457111222755989
 40
1.667818336406219
 40
1.842232057693401
 40
1.981381835452611
 40
2.085196685479803
 40
2.139351141187967
 40
2.219412761055248
 40
2.325423406057054
 40
2.457374619610293
 40
2.673648219261917
 40
2.772084548359595
 40
2.772084548359595
 40
2.772084548359595
 40
2.772084548359595
 10
155.9696476371897
 20
110.1912580706474
 30
0.000000000000000
 10
155.9826842711546
 20
110.2481506499021
 30
0.000000000000000
 10
156.0292907768848
 20
110.4297819553932
 30
0.000000000000000
 10
156.1287642693273
 20
110.7153695614208
 30
0.000000000000000
 10
156.2759544424243
 20
111.0254998126634
 30
0.000000000000000
 10
156.4291112044437
 20
111.2819039418963
 30
0.000000000000000
 10
156.5773314682871
 20
111.4888072080537
 30
0.000000000000000
 10
156.7134590314998
 20
111.6528133591960
 30
0.000000000000000
 10
156.8329867697676
 20
111.7804212995014
 30
0.000000000000000
 10
156.9330396866974
 20
111.8771570694032
 30
0.000000000000000
 10
157.0068141272984
 20
111.9432608175215
 30
0.000000000000000
 10
157.0671864997915
 20
111.9947493950756
 30
0.000000000000000
 10
157.1291818929681
 20
112.0454443210638
 30
0.000000000000000
 10
157.2131421072706
 20
112.1101935373241
 30
0.000000000000000
 10
157.3363390841879
 20
112.1982762986265
 30
0.000000000000000
 10
157.4619461147005
 20
112.2784439702606
 30
0.000000000000000
 10
157.5529387705525
 20
112.3306704584669
 30
0.000000000000000
 10
157.5816346985285
 20
112.3465820347720
 30
0.000000000000000
  0
SPLINE
  5
240
100
AcDbEntity
  8
A1
  6
CONTINUOUS
 62
7
100
AcDbSpline
210
0.000000000000000
220
0.000000000000000
230
1.000000000000000
 70
     8
 71
     3
 72
    15
 73
    11
 74
     0
 42
1.000000000000000e-07
 43
1.000000000000000e-07
 12
0.9999980762461291
 22
-0.001961505511985706
 32
0.000000000000000
 13
0.7757441787607604
 23
-0.6310475173218038
 33
0.000000000000000
 40
0.000000000000000
 40
0.000000000000000
 40
0.000000000000000
 40
0.000000000000000
 40
0.4287519052687691
 40
0.8176275313231149
 40
1.166856800334542
 40
1.476383911424866
 40
1.746133517900594
 40
1.976075438645121
 40
2.166207269028590
 40
2.262416067865340
 40
2.262416067865340
 40
2.262416067865340
 40
2.262416067865340
 10
159.1876434253812
 20
112.7662990776652
 30
0.000000000000000
 10
159.3305604521997
 20
112.7660187445900
 30
0.000000000000000
 10
159.6034488095749
 20
112.7478581638769
 30
0.000000000000000
 10
159.9860034368129
 20
112.6730060945735
 30
0.000000000000000
 10
160.3199085902346
 20
112.5686256133028
 30
0.000000000000000
 10
160.6053075519937
 20
112.4477684349093
 30
0.000000000000000
 10
160.8440279211684
 20
112.3215607955666
 30
0.000000000000000
 10
161.0388843490481
 20
112.1991385273724
 30
0.000000000000000
 10
161.1785909786339
 20
112.0984754292226
 30
0.000000000000000
 10
161.2535188198636
 20
112.0393273502281
 30
0.000000000000000
 10
161.2783966250780
 20
112.0190899090113
 30
0.000000000000000
  0
SPLINE
  5
241
100
AcDbEntity
  8
A1
  6
CONTINUOUS
 62
7
100
AcDbSpline
210
0.000000000000000
220
0.000000000000000
230
1.000000000000000
 70
     8
 71
     3
 72
     9
 73
     5
 74
     0
 42
1.000000000000000e-07
 43
1.000000000000000e-07
 12
0.7746023378899736
 22
0.6324485893217116
 32
0.000000000000000
 13
0.8818686077747770
 23
0.4714952371139134
 33
0.000000000000000
 40
0.000000000000000
 40
0.000000000000000
 40
0.000000000000000
 40
0.000000000000000
 40
0.4573839940732779
 40
0.6631830464493744
 40
0.6631830464493744
 40
0.6631830464493744
 40
0.6631830464493744
 10
157.0327456786199
 20
112.0339213997085
 30
0.000000000000000
 10
157.1508425823275
 20
112.1303453536519
 30
0.000000000000000
 10
157.3316614981279
 20
112.2590328304047
 30
0.000000000000000
 10
157.5234881170103
 20
112.3690833217703
 30
0.000000000000000
 10
157.5839840249437
 20
112.4014277461030
 30
0.000000000000000
  0
SPLINE
  5
242
100
AcDbEntity
  8
A1
  6
CONTINUOUS
 62
7
100
AcDbSpline
210
0.000000000000000
220
0.000000000000000
230
1.000000000000000
 70
     8
 71
     3
 72
     9
 73
     5
 74
     0
 42
1.000000000000000e-07
 43
1.000000000000000e-07
 12
-0.3392769532172224
 22
-0.9406865306871168
 32
0.000000000000000
 13
-0.2210949523851014
 23
-0.9752522863493596
 33
0.000000000000000
 40
0.000000000000000
 40
0.000000000000000
 40
0.000000000000000
 40
0.000000000000000
 40
0.3547087374193252
 40
0.5883739180761369
 40
0.5883739180761369
 40
0.5883739180761369
 40
0.5883739180761369
 10
154.7688677209489
 20
111.0537185877876
 30
0.000000000000000
 10
154.7287528877118
 20
110.9424953439185
 30
0.000000000000000
 10
154.6690172168188
 20
110.7554518467237
 30
0.000000000000000
 10
154.6209826128416
 20
110.5652249114680
 30
0.000000000000000
 10
154.6037618821778
 20
110.4892640775761
 30
0.000000000000000
  0
SPLINE
  5
243
100
AcDbEntity
  8
A1
  6
CONTINUOUS
 62
7
100
AcDbSpline
210
0.000000000000000
220
0.000000000000000
230
1.000000000000000
 70
     8
 71
     3
 72
    25
 73
    21
 74
     0
 42
1.000000000000000e-07
 43
1.000000000000000e-07
 12
-0.9393304619538867
 22
-0.3430135321618764
 32
0.000000000000000
 13
-0.3392253319834708
 23
-0.9407051472880994
 33
0.000000000000000
 40
0.000000000000000
 40
0.000000000000000
 40
0.000000000000000
 40
0.000000000000000
 40
0.1388505179196162
 40
0.4739721128535799
 40
0.7656351616884958
 40
1.058367819974464
 40
1.288779957050929
 40
1.470411893803579
 40
1.636290494268760
 40
1.787951032880672
 40
1.903489015730166
 40
2.015576351604244
 40
2.168158665143527
 40
2.369434027848634
 40
2.619352140876213
 40
2.917916727430081
 40
3.265173948506837
 40
3.661183887147077
 40
4.105986393514351
 40
4.116987840409426
 40
4.116987840409426
 40
4.116987840409426
 40
4.116987840409426
 10
157.5816319203199
 20
113.8775836880523
 30
0.000000000000000
 10
157.5381564132733
 20
113.8617078191876
 30
0.000000000000000
 10
157.3905322598220
 20
113.8053714843364
 30
0.000000000000000
 10
157.1566520759266
 20
113.7026458194821
 30
0.000000000000000
 10
156.8845044470216
 20
113.5612620961777
 30
0.000000000000000
 10
156.6514369009458
 20
113.4214574815266
 30
0.000000000000000
 10
156.4568813629290
 20
113.2896194437673
 30
0.000000000000000
 10
156.3022663145466
 20
113.1746274657202
 30
0.000000000000000
 10
156.1725269181867
 20
113.0703909690911
 30
0.000000000000000
 10
156.0631484597812
 20
112.9761377740708
 30
0.000000000000000
 10
155.9698157360269
 20
112.8908353388448
 30
0.000000000000000
 10
155.8784277462383
 20
112.8030094538017
 30
0.000000000000000
 10
155.7696291312782
 20
112.6921275868504
 30
0.000000000000000
 10
155.6343298642059
 20
112.5430457880734
 30
0.000000000000000
 10
155.4755826938050
 20
112.3498615954360
 30
0.000000000000000
 10
155.2998244380607
 20
112.1082432699231
 30
0.000000000000000
 10
155.1150888556299
 20
111.8138040085931
 30
0.000000000000000
 10
154.9311835987000
 20
111.4625921486852
 30
0.000000000000000
 10
154.8218340652746
 20
111.2000270271818
 30
0.000000000000000
 10
154.7701117107740
 20
111.0571682936949
 30
0.000000000000000
 10
154.7688677209489
 20
111.0537185877876
 30
0.000000000000000
  0
SPLINE
  5
244
100
AcDbEntity
  8
A1
  6
CONTINUOUS
 62
7
100
AcDbSpline
210
0.000000000000000
220
0.000000000000000
230
1.000000000000000
 70
     8
 71
     3
 72
    10
 73
     6
 74
     0
 42
1.000000000000000e-07
 43
1.000000000000000e-07
 12
-0.9999991556402392
 22
-0.001299507050703141
 32
0.000000000000000
 13
-0.9578537481386320
 23
-0.2872563266084853
 33
0.000000000000000
 40
0.000000000000000
 40
0.000000000000000
 40
0.000000000000000
 40
0.000000000000000
 40
0.5107742236198167
 40
0.9770014790503756
 40
1.356621113747529
 40
1.356621113747529
 40
1.356621113747529
 40
1.356621113747529
 10
159.1876434253812
 20
114.1647749642706
 30
0.000000000000000
 10
159.0173854946003
 20
114.1645537127023
 30
0.000000000000000
 10
158.6914212040193
 20
114.1463743052256
 30
0.000000000000000
 10
158.2444700281229
 20
114.0731744552277
 30
0.000000000000000
 10
157.9710387665695
 20
114.0030028774289
 30
0.000000000000000
 10
157.8498320699156
 20
113.9666534968384
 30
0.000000000000000
  0
SPLINE
  5
245
100
AcDbEntity
  8
A1
  6
CONTINUOUS
 62
7
100
AcDbSpline
210
0.000000000000000
220
0.000000000000000
230
1.000000000000000
 70
     8
 71
     3
 72
     9
 73
     5
 74
     0
 42
1.000000000000000e-07
 43
1.000000000000000e-07
 12
-0.9804984376266930
 22
-0.1965268780911629
 32
0.000000000000000
 13
-0.9999996652995833
 23
-0.0008181694413451623
 33
0.000000000000000
 40
0.000000000000000
 40
0.000000000000000
 40
0.000000000000000
 40
0.000000000000000
 40
0.3041937126288449
 40
0.6403024025931241
 40
0.6403024025931241
 40
0.6403024025931241
 40
0.6403024025931241
 10
159.8240177700564
 20
106.2250847150391
 30
0.000000000000000
 10
159.7245972834002
 20
106.2051573014798
 30
0.000000000000000
 10
159.5132668799080
 20
106.1729215522300
 30
0.000000000000000
 10
159.2996796178907
 20
106.1617807063018
 30
0.000000000000000
 10
159.1876434254012
 20
106.1616890416821
 30
0.000000000000000
  0
SPLINE
  5
246
100
AcDbEntity
  8
A1
  6
CONTINUOUS
 62
7
100
AcDbSpline
210
0.000000000000000
220
0.000000000000000
230
1.000000000000000
 70
     8
 71
     3
 72
    12
 73
     8
 74
     0
 42
1.000000000000000e-07
 43
1.000000000000000e-07
 12
-0.7735679550514760
 22
-0.6337133570611968
 32
0.000000000000000
 13
-0.9782675072794973
 23
-0.2073467728253036
 33
0.000000000000000
 40
0.000000000000000
 40
0.000000000000000
 40
0.000000000000000
 40
0.000000000000000
 40
0.1958984294899875
 40
0.5302715028476512
 40
0.9051548974978337
 40
1.320569254573150
 40
1.597151696767829
 40
1.597151696767829
 40
1.597151696767829
 40
1.597151696767829
 10
161.2873398842792
 20
106.9160866456433
 30
0.000000000000000
 10
161.2368263017797
 20
106.8747054951783
 30
0.000000000000000
 10
161.0967633738462
 20
106.7667085823887
 30
0.000000000000000
 10
160.8432620624259
 20
106.6021000002336
 30
0.000000000000000
 10
160.5083656342566
 20
106.4319551073615
 30
0.000000000000000
 10
160.1737866511495
 20
106.3086286620389
 30
0.000000000000000
 10
159.9500083982105
 20
106.2515645230514
 30
0.000000000000000
 10
159.8598178594495
 20
106.2324483641150
 30
0.000000000000000
  0
SPLINE
  5
247
100
AcDbEntity
  8
A1
  6
CONTINUOUS
 62
7
100
AcDbSpline
210
0.000000000000000
220
0.000000000000000
230
1.000000000000000
 70
     8
 71
     3
 72
    12
 73
     8
 74
     0
 42
1.000000000000000e-07
 43
1.000000000000000e-07
 12
0.9999967272381127
 22
-0.002558419985803084
 32
0.000000000000000
 13
0.7657088281800952
 23
-0.6431873680718354
 33
0.000000000000000
 40
0.000000000000000
 40
0.000000000000000
 40
0.000000000000000
 40
0.000000000000000
 40
0.4856802353762313
 40
0.9713293451767337
 40
1.457263228122744
 40
1.943396868459841
 40
2.331659116683595
 40
2.331659116683595
 40
2.331659116683595
 40
2.331659116683595
 10
159.1876434253812
 20
112.8077629610529
 30
0.000000000000000
 10
159.3495363073347
 20
112.8073487697126
 30
0.000000000000000
 10
159.6738042539384
 20
112.7831420886363
 30
0.000000000000000
 10
160.1490616104636
 20
112.6749325140789
 30
0.000000000000000
 10
160.6041900981020
 20
112.5001369656052
 30
0.000000000000000
 10
161.0014631855348
 20
112.2782373820259
 30
0.000000000000000
 10
161.2355772399179
 20
112.1033825042715
 30
0.000000000000000
 10
161.3346758502892
 20
112.0201407130859
 30
0.000000000000000
  0
SPLINE
  5
248
100
AcDbEntity
  8
A1
  6
CONTINUOUS
 62
7
100
AcDbSpline
210
0.000000000000000
220
0.000000000000000
230
1.000000000000000
 70
     8
 71
     3
 72
    20
 73
    16
 74
     0
 42
1.000000000000000e-07
 43
1.000000000000000e-07
 12
-0.5399452468896015
 22
0.8417001427833384
 32
0.000000000000000
 13
-0.9999993557821654
 23
0.001135092579033881
 33
0.000000000000000
 40
0.000000000000000
 40
0.000000000000000
 40
0.000000000000000
 40
0.000000000000000
 40
0.2360151826926392
 40
0.4398605161728417
 40
0.6412198564205436
 40
0.9448517339480215
 40
1.306182542210698
 40
1.724762882593209
 40
2.200765067738293
 40
2.550160875014516
 40
2.925141897745303
 40
3.325662058226894
 40
3.751672582944501
 40
4.203210536560683
 40
4.680567747893127
 40
4.680567747893127
 40
4.680567747893127
 40
4.680567747893127
 10
163.1312345729406
 20
112.0158071340771
 30
0.000000000000000
 10
163.0887561475778
 20
112.0820251384009
 30
0.000000000000000
 10
163.0064683064478
 20
112.2034667687844
 30
0.000000000000000
 10
162.8783903982271
 20
112.3746622169914
 30
0.000000000000000
 10
162.7286809284422
 20
112.5575496151606
 30
0.000000000000000
 10
162.5336266622533
 20
112.7707915664358
 30
0.000000000000000
 10
162.2705530765164
 20
113.0188304040729
 30
0.000000000000000
 10
161.9421794024546
 20
113.2794016403097
 30
0.000000000000000
 10
161.5936292239271
 20
113.5054017248465
 30
0.000000000000000
 10
161.2400513470929
 20
113.6934001617032
 30
0.000000000000000
 10
160.8963014194565
 20
113.8441515518855
 30
0.000000000000000
 10
160.5173279749596
 20
113.9751172530246
 30
0.000000000000000
 10
160.1036091453306
 20
114.0791409162359
 30
0.000000000000000
 10
159.6566361131671
 20
114.1484103668935
 30
0.000000000000000
 10
159.3467623933180
 20
114.1645943493945
 30
0.000000000000000
 10
159.1876434253812
 20
114.1647749642706
 30
0.000000000000000
  0
SPLINE
  5
249
100
AcDbEntity
  8
A1
  6
CONTINUOUS
 62
7
100
AcDbSpline
210
0.000000000000000
220
0.000000000000000
230
1.000000000000000
 70
     8
 71
     3
 72
    12
 73
     8
 74
     0
 42
1.000000000000000e-07
 43
1.000000000000000e-07
 12
-0.7741751256869520
 22
-0.6329714644185742
 32
0.000000000000000
 13
-0.9999975805876602
 23
-0.002199731517748660
 33
0.000000000000000
 40
0.000000000000000
 40
0.000000000000000
 40
0.000000000000000
 40
0.000000000000000
 40
0.4542661002335969
 40
0.9127635429864850
 40
1.371348139600923
 40
1.830038765440640
 40
2.289261077464127
 40
2.289261077464127
 40
2.289261077464127
 40
2.289261077464127
 10
161.3019423954058
 20
106.9153031411160
 30
0.000000000000000
 10
161.1847152236580
 20
106.8194573148825
 30
0.000000000000000
 10
160.9359937094841
 20
106.6423151449416
 30
0.000000000000000
 10
160.5296448463291
 20
106.4299952261318
 30
0.000000000000000
 10
160.0970699395993
 20
106.2735706708750
 30
0.000000000000000
 10
159.6471073930168
 20
106.1768690279881
 30
0.000000000000000
 10
159.3407171590596
 20
106.1552364347940
 30
0.000000000000000
 10
159.1876434254012
 20
106.1548997128629
 30
0.000000000000000
  0
SPLINE
  5
24A
100
AcDbEntity
  8
A1
  6
CONTINUOUS
 62
7
100
AcDbSpline
210
0.000000000000000
220
0.000000000000000
230
1.000000000000000
 70
     8
 71
     3
 72
    17
 73
    13
 74
     0
 42
1.000000000000000e-07
 43
1.000000000000000e-07
 12
-0.5114015894052955
 22
-0.8593418495299829
 32
0.000000000000000
 13
-0.9999989154360946
 23
-0.001472795620315992
 33
0.000000000000000
 40
0.000000000000000
 40
0.000000000000000
 40
0.000000000000000
 40
0.000000000000000
 40
0.3073946283462763
 40
0.7105412341259232
 40
1.158028695802414
 40
1.606909896971592
 40
2.054596577368175
 40
2.523477143366672
 40
2.993688296308670
 40
3.462589753761377
 40
3.937725495043080
 40
4.412818454153959
 40
4.412818454153959
 40
4.412818454153959
 40
4.412818454153959
 10
162.8788712388408
 20
106.9135738767692
 30
0.000000000000000
 10
162.8264705383371
 20
106.8255215206163
 30
0.000000000000000
 10
162.6975717418229
 20
106.6265299623793
 30
0.000000000000000
 10
162.4599354238025
 20
106.3214988544302
 30
0.000000000000000
 10
162.1575783282463
 20
106.0100249567289
 30
0.000000000000000
 10
161.8121096859500
 20
105.7234787503308
 30
0.000000000000000
 10
161.4328023876171
 20
105.4704312933835
 30
0.000000000000000
 10
161.0224267171399
 20
105.2557326961533
 30
0.000000000000000
 10
160.5853327680212
 20
105.0824913538322
 30
0.000000000000000
 10
160.1304889687752
 20
104.9552736396136
 30
0.000000000000000
 10
159.6630066762065
 20
104.8772670195555
 30
0.000000000000000
 10
159.3460075733486
 20
104.8596722108144
 30
0.000000000000000
 10
159.1876434254012
 20
104.8594389725380
 30
0.000000000000000
  0
SPLINE
  5
24B
100
AcDbEntity
  8
A1
  6
CONTINUOUS
 62
7
100
AcDbSpline
210
0.000000000000000
220
0.000000000000000
230
1.000000000000000
 70
     8
 71
     3
 72
    14
 73
    10
 74
     0
 42
1.000000000000000e-07
 43
1.000000000000000e-07
 12
0.9999972887883359
 22
0.002328608194375192
 32
0.000000000000000
 13
0.7756304420427114
 23
0.6311873076801930
 33
0.000000000000000
 40
0.000000000000000
 40
0.000000000000000
 40
0.000000000000000
 40
0.000000000000000
 40
0.3985382086458720
 40
0.7983797220794596
 40
1.197069379789376
 40
1.594954041502940
 40
1.993959095398253
 40
2.391850685412943
 40
2.523071208983843
 40
2.523071208983843
 40
2.523071208983843
 40
2.523071208983843
 10
159.1876434271612
 20
106.0709813832512
 30
0.000000000000000
 10
159.3204891365360
 20
106.0712907296974
 30
0.000000000000000
 10
159.5868406917256
 20
106.0864938921982
 30
0.000000000000000
 10
159.9808784425253
 20
106.1540861634772
 30
0.000000000000000
 10
160.3652235163000
 20
106.2633798799636
 30
0.000000000000000
 10
160.7352003961884
 20
106.4135399955882
 30
0.000000000000000
 10
161.0872240129577
 20
106.6012663178225
 30
0.000000000000000
 10
161.3440599417123
 20
106.7748963690394
 30
0.000000000000000
 10
161.4827981817445
 20
106.8838351349711
 30
0.000000000000000
 10
161.5167243926453
 20
106.9114433779662
 30
0.000000000000000
  0
SPLINE
  5
24C
100
AcDbEntity
  8
A1
  6
CONTINUOUS
 62
7
100
AcDbSpline
210
0.000000000000000
220
0.000000000000000
230
1.000000000000000
 70
     8
 71
     3
 72
    22
 73
    18
 74
     0
 42
1.000000000000000e-07
 43
1.000000000000000e-07
 12
0.9999995185701209
 22
0.0009812539238964746
 32
0.000000000000000
 13
0.5425014887207453
 23
0.8400548403144512
 33
0.000000000000000
 40
0.000000000000000
 40
0.000000000000000
 40
0.000000000000000
 40
0.000000000000000
 40
0.4141685033633179
 40
0.8026692096883359
 40
1.165822642943887
 40
1.503753492561440
 40
1.816497774919703
 40
2.104062577034653
 40
2.415896103915018
 40
2.691512153840115
 40
2.930948068653742
 40
3.134239913032181
 40
3.336048548462970
 40
3.640089887856715
 40
4.001609651350176
 40
4.420210363348702
 40
4.666634176672693
 40
4.666634176672693
 40
4.666634176672693
 40
4.666634176672693
 10
159.1876434254012
 20
104.7693850002660
 30
0.000000000000000
 10
159.3256995267246
 20
104.7695204684223
 30
0.000000000000000
 10
159.5934129094508
 20
104.7817046050357
 30
0.000000000000000
 10
159.9790009936590
 20
104.8333996550187
 30
0.000000000000000
 10
160.3343376917941
 20
104.9102617292836
 30
0.000000000000000
 10
160.6587558054948
 20
105.0059046182743
 30
0.000000000000000
 10
160.9522665327507
 20
105.1145372855769
 30
0.000000000000000
 10
161.2304351369998
 20
105.2377187849080
 30
0.000000000000000
 10
161.4894338184298
 20
105.3723153587485
 30
0.000000000000000
 10
161.7258633714670
 20
105.5142883961698
 30
0.000000000000000
 10
161.9242240496187
 20
105.6485938258230
 30
0.000000000000000
 10
162.0962958973002
 20
105.7773537636140
 30
0.000000000000000
 10
162.2792462424283
 20
105.9271451294876
 30
0.000000000000000
 10
162.4927062578508
 20
106.1224834412509
 30
0.000000000000000
 10
162.7408301598885
 20
106.3857442087393
 30
0.000000000000000
 10
162.9537889129537
 20
106.6542211993001
 30
0.000000000000000
 10
163.0789766040411
 20
106.8372843265510
 30
0.000000000000000
 10
163.1235383659026
 20
106.9062874989349
 30
0.000000000000000
  0
SPLINE
  5
24D
100
AcDbEntity
  8
A1
  6
CONTINUOUS
 62
7
100
AcDbSpline
210
0.000000000000000
220
0.000000000000000
230
1.000000000000000
 70
     8
 71
     3
 72
    23
 73
    19
 74
     0
 42
1.000000000000000e-07
 43
1.000000000000000e-07
 12
-0.9422940030981408
 22
0.3347865166470001
 32
0.000000000000000
 13
-0.0009950239048066578
 23
0.9999995049633981
 33
0.000000000000000
 40
0.000000000000000
 40
0.000000000000000
 40
0.000000000000000
 40
0.000000000000000
 40
0.08886210093069920
 40
0.4301077478924803
 40
0.7783995640396688
 40
1.126682761889603
 40
1.527589686457398
 40
1.928470099663599
 40
2.342533524386966
 40
2.756616117873091
 40
3.135333115369569
 40
3.514056377549585
 40
3.903326159089171
 40
4.292592429696613
 40
4.633677643729554
 40
4.974754918076758
 40
5.323916677762535
 40
5.673064376352509
 40
5.673064376352509
 40
5.673064376352509
 40
5.673064376352509
 10
157.5868703499508
 20
105.1378334972877
 30
0.000000000000000
 10
157.5589589416810
 20
105.1477501083652
 30
0.000000000000000
 10
157.4243036675392
 20
105.1969825634065
 30
0.000000000000000
 10
157.1845359326933
 20
105.2967777094143
 30
0.000000000000000
 10
156.8752015164773
 20
105.4523115425963
 30
0.000000000000000
 10
156.5608530097948
 20
105.6400618334970
 30
0.000000000000000
 10
156.2480759948241
 20
105.8625533169134
 30
0.000000000000000
 10
155.9390269135769
 20
106.1255614300296
 30
0.000000000000000
 10
155.6522971884143
 20
106.4189944633220
 30
0.000000000000000
 10
155.3981310674077
 20
106.7315388620753
 30
0.000000000000000
 10
155.1786438708198
 20
107.0550481465780
 30
0.000000000000000
 10
154.9902126789997
 20
107.3880959997534
 30
0.000000000000000
 10
154.8284216763815
 20
107.7387721262038
 30
0.000000000000000
 10
154.7006244962477
 20
108.0898903857104
 30
0.000000000000000
 10
154.6053030799800
 20
108.4344081133723
 30
0.000000000000000
 10
154.5384030301787
 20
108.7719418728675
 30
0.000000000000000
 10
154.4971879698677
 20
109.1162864777060
 30
0.000000000000000
 10
154.4878631702446
 20
109.3491545123840
 30
0.000000000000000
 10
154.4877473668091
 20
109.4655370209671
 30
0.000000000000000
  0
SPLINE
  5
24E
100
AcDbEntity
  8
A1
  6
CONTINUOUS
 62
7
100
AcDbSpline
210
0.000000000000000
220
0.000000000000000
230
1.000000000000000
 70
     8
 71
     3
 72
    20
 73
    16
 74
     0
 42
1.000000000000000e-07
 43
1.000000000000000e-07
 12
0.001142378747999828
 22
-0.9999993474850726
 32
0.000000000000000
 13
0.8691838696013292
 23
-0.4944890300362204
 33
0.000000000000000
 40
0.000000000000000
 40
0.000000000000000
 40
0.000000000000000
 40
0.000000000000000
 40
0.2846444556918480
 40
0.5693032770142640
 40
0.8620734976678575
 40
1.154849409941336
 40
1.439408523516576
 40
1.723962616085803
 40
2.016501617257980
 40
2.309023537582562
 40
2.597071495038639
 40
2.885112180646261
 40
3.182624778432514
 40
3.480145719963723
 40
3.577359370060123
 40
3.577359370060123
 40
3.577359370060123
 40
3.577359370060123
 10
155.8875394839614
 20
109.4655370209671
 30
0.000000000000000
 10
155.8876478745537
 20
109.3706555976481
 30
0.000000000000000
 10
155.8957108728734
 20
109.1807976811351
 30
0.000000000000000
 10
155.9319461575420
 20
108.8954172885411
 30
0.000000000000000
 10
155.9922865968202
 20
108.6113465472327
 30
0.000000000000000
 10
156.0759128558440
 20
108.3332823509889
 30
0.000000000000000
 10
156.1809601070089
 20
108.0655480957048
 30
0.000000000000000
 10
156.3071476622229
 20
107.8071854769583
 30
0.000000000000000
 10
156.4557273685997
 20
107.5578853108349
 30
0.000000000000000
 10
156.6256850758932
 20
107.3211758200424
 30
0.000000000000000
 10
156.8148661285814
 20
107.1014961357363
 30
0.000000000000000
 10
157.0238975524747
 20
106.8982003555086
 30
0.000000000000000
 10
157.2529440401081
 20
106.7126806826471
 30
0.000000000000000
 10
157.4447983118811
 20
106.5838596035956
 30
0.000000000000000
 10
157.5582122939431
 20
106.5171242953963
 30
0.000000000000000
 10
157.5863778061327
 20
106.5011006008822
 30
0.000000000000000
  0
SPLINE
  5
24F
100
AcDbEntity
  8
A1
  6
CONTINUOUS
 62
7
100
AcDbSpline
210
0.000000000000000
220
0.000000000000000
230
1.000000000000000
 70
     8
 71
     3
 72
    23
 73
    19
 74
     0
 42
1.000000000000000e-07
 43
1.000000000000000e-07
 12
-0.8751119507360272
 22
0.4839205241351010
 32
0.000000000000000
 13
-0.1336272788760198
 23
0.9910316596054827
 33
0.000000000000000
 40
0.000000000000000
 40
0.000000000000000
 40
0.000000000000000
 40
0.000000000000000
 40
0.03117680861656210
 40
0.2056075271160069
 40
0.3263517541051397
 40
0.4322863859186517
 40
0.5394301312729858
 40
0.6477925082555576
 40
0.7583492002757507
 40
0.8980937954236161
 40
1.079246872146832
 40
1.301643346358935
 40
1.565332694300930
 40
1.816707642995029
 40
2.096873662392365
 40
2.405848381395472
 40
2.743635347108174
 40
3.077970927695737
 40
3.077970927695737
 40
3.077970927695737
 40
3.077970927695737
 10
157.5847728768447
 20
106.5833954371779
 30
0.000000000000000
 10
157.5756784775760
 20
106.5884244697001
 30
0.000000000000000
 10
157.5158590524852
 20
106.6218727440299
 30
0.000000000000000
 10
157.4225259415228
 20
106.6778729039268
 30
0.000000000000000
 10
157.3110219094476
 20
106.7516988214067
 30
0.000000000000000
 10
157.2203848092841
 20
106.8162838466982
 30
0.000000000000000
 10
157.1351732623476
 20
106.8812725183809
 30
0.000000000000000
 10
157.0509617990845
 20
106.9500173724399
 30
0.000000000000000
 10
156.9609435375313
 20
107.0287284547622
 30
0.000000000000000
 10
156.8564193131807
 20
107.1275797242816
 30
0.000000000000000
 10
156.7312551885023
 20
107.2586000773945
 30
0.000000000000000
 10
156.5879381869948
 20
107.4289089173123
 30
0.000000000000000
 10
156.4439459044895
 20
107.6284784409332
 30
0.000000000000000
 10
156.3058621190925
 20
107.8550334187642
 30
0.000000000000000
 10
156.1792838219950
 20
108.1053466703357
 30
0.000000000000000
 10
156.0642623600577
 20
108.3925798105110
 30
0.000000000000000
 10
155.9720892803664
 20
108.7069167680477
 30
0.000000000000000
 10
155.9310894944834
 20
108.9276258445931
 30
0.000000000000000
 10
155.9161973765283
 20
109.0380715596913
 30
0.000000000000000
  0
SPLINE
  5
250
100
AcDbEntity
  8
A1
  6
CONTINUOUS
 62
7
100
AcDbSpline
210
0.000000000000000
220
0.000000000000000
230
1.000000000000000
 70
     8
 71
     3
 72
    11
 73
     7
 74
     0
 42
1.000000000000000e-07
 43
1.000000000000000e-07
 12
0.9576190631923964
 22
-0.2880377228575526
 32
0.000000000000000
 13
0.9999936963705522
 23
-0.003550664579051954
 33
0.000000000000000
 40
0.000000000000000
 40
0.000000000000000
 40
0.000000000000000
 40
0.000000000000000
 40
0.003721547701332000
 40
0.4303673530093222
 40
0.8828224024691558
 40
1.350406396690231
 40
1.350406396690231
 40
1.350406396690231
 40
1.350406396690231
 10
157.8451989388647
 20
104.9654281086727
 30
0.000000000000000
 10
157.8463868805391
 20
104.9650707932976
 30
0.000000000000000
 10
157.9837788625732
 20
104.9238044982021
 30
0.000000000000000
 10
158.2695884752001
 20
104.8518121588217
 30
0.000000000000000
 10
158.7138118553033
 20
104.7828636368440
 30
0.000000000000000
 10
159.0206848545365
 20
104.7664221529827
 30
0.000000000000000
 10
159.1765452034515
 20
104.7658687416740
 30
0.000000000000000
  0
SPLINE
  5
251
100
AcDbEntity
  8
A1
  6
CONTINUOUS
 62
7
100
AcDbSpline
210
0.000000000000000
220
0.000000000000000
230
1.000000000000000
 70
     8
 71
     3
 72
    24
 73
    20
 74
     0
 42
1.000000000000000e-07
 43
1.000000000000000e-07
 12
0.1555794546793550
 22
-0.9878233816230022
 32
0.000000000000000
 13
0.9395027257337460
 23
-0.3425414257258126
 33
0.000000000000000
 40
0.000000000000000
 40
0.000000000000000
 40
0.000000000000000
 40
0.000000000000000
 40
0.08383915959507010
 40
0.4464785651687694
 40
0.7840171119987194
 40
1.096484116352108
 40
1.383881067305848
 40
1.695650263964901
 40
1.971343094719138
 40
2.210988024885353
 40
2.414612444696929
 40
2.616086213178280
 40
2.919810340677382
 40
3.281193794085715
 40
3.699865866511929
 40
4.176046815513133
 40
4.525642145710570
 40
4.900920092035658
 40
5.022837783045847
 40
5.022837783045847
 40
5.022837783045847
 40
5.022837783045847
 10
154.5440239839660
 20
108.7509320344212
 30
0.000000000000000
 10
154.5483718675428
 20
108.7233259403733
 30
0.000000000000000
 10
154.5728313760326
 20
108.5765202219170
 30
0.000000000000000
 10
154.6280442503175
 20
108.3207771264843
 30
0.000000000000000
 10
154.7234034642861
 20
107.9967010499142
 30
0.000000000000000
 10
154.8317768690310
 20
107.7033892303479
 30
0.000000000000000
 10
154.9547254581556
 20
107.4253043630910
 30
0.000000000000000
 10
155.0891416080448
 20
107.1662702462934
 30
0.000000000000000
 10
155.2310085314884
 20
106.9296909233503
 30
0.000000000000000
 10
155.3653102753284
 20
106.7310786848645
 30
0.000000000000000
 10
155.4940102960742
 20
106.5588759508867
 30
0.000000000000000
 10
155.6436154702164
 20
106.3759110454017
 30
0.000000000000000
 10
155.8386083287383
 20
106.1624955873952
 30
0.000000000000000
 10
156.1015752913485
 20
105.9142300320489
 30
0.000000000000000
 10
156.4298414269426
 20
105.6533528685243
 30
0.000000000000000
 10
156.7783530067634
 20
105.4269968782713
 30
0.000000000000000
 10
157.1319765843433
 20
105.2386328978420
 30
0.000000000000000
 10
157.3907008339066
 20
105.1249591454760
 30
0.000000000000000
 10
157.5456850269168
 20
105.0662163350077
 30
0.000000000000000
 10
157.5838656945899
 20
105.0522957151078
 30
0.000000000000000
  0
SPLINE
  5
252
100
AcDbEntity
  8
A1
  6
CONTINUOUS
 62
7
100
AcDbSpline
210
0.000000000000000
220
0.000000000000000
230
1.000000000000000
 70
     8
 71
     3
 72
    12
 73
     8
 74
     0
 42
1.000000000000000e-07
 43
1.000000000000000e-07
 12
0.0003891970457061689
 22
0.9999999242627382
 32
0.000000000000000
 13
0.3526209905553515
 23
0.9357662298989453
 33
0.000000000000000
 40
0.000000000000000
 40
0.000000000000000
 40
0.000000000000000
 40
0.000000000000000
 40
0.3373081628149129
 40
0.6746278462446589
 40
1.019915510321467
 40
1.365211992621754
 40
1.628002306261148
 40
1.628002306261148
 40
1.628002306261148
 40
1.628002306261148
 10
154.4877473668170
 20
109.4655370209672
 30
0.000000000000000
 10
154.4877911265972
 20
109.5779730667233
 30
0.000000000000000
 10
154.4963853631982
 20
109.8029429430422
 30
0.000000000000000
 10
154.5353298074796
 20
110.1409897647591
 30
0.000000000000000
 10
154.6003204750296
 20
110.4777450207073
 30
0.000000000000000
 10
154.6839684067136
 20
110.7846419139926
 30
0.000000000000000
 10
154.7500595333407
 20
110.9763874559820
 30
0.000000000000000
 10
154.7809479935753
 20
111.0583575563314
 30
0.000000000000000
  0
SPLINE
  5
253
100
AcDbEntity
  8
A1
  6
CONTINUOUS
 62
7
100
AcDbSpline
210
0.000000000000000
220
0.000000000000000
230
1.000000000000000
 70
     8
 71
     3
 72
    19
 73
    15
 74
     0
 42
1.000000000000000e-07
 43
1.000000000000000e-07
 12
-0.8691296233841967
 22
-0.4945843686941771
 32
0.000000000000000
 13
-0.1195079482240544
 23
-0.9928332439603764
 33
0.000000000000000
 40
0.000000000000000
 40
0.000000000000000
 40
0.000000000000000
 40
0.000000000000000
 40
0.1842038241434681
 40
0.4535863232770785
 40
0.7294551677664074
 40
1.005315697136289
 40
1.289417047563886
 40
1.573537827670921
 40
1.847100972677944
 40
2.120672771240509
 40
2.401232336514409
 40
2.681792156996952
 40
3.125979515885387
 40
3.171219183260336
 40
3.171219183260336
 40
3.171219183260336
 40
3.171219183260336
 10
157.5864749815024
 20
112.4304043937389
 30
0.000000000000000
 10
157.5331093147346
 20
112.4000362830472
 30
0.000000000000000
 10
157.4037493848537
 20
112.3216096972294
 30
0.000000000000000
 10
157.2046409971995
 20
112.1815627431385
 30
0.000000000000000
 10
156.9943369482968
 20
112.0058888880662
 30
0.000000000000000
 10
156.7960459262647
 20
111.8096927931241
 30
0.000000000000000
 10
156.6138076575711
 20
111.5948569252852
 30
0.000000000000000
 10
156.4509262316017
 20
111.3659699667464
 30
0.000000000000000
 10
156.3091433177499
 20
111.1275691836307
 30
0.000000000000000
 10
156.1869931694007
 20
110.8798779220897
 30
0.000000000000000
 10
156.0838757965838
 20
110.6211273235887
 30
0.000000000000000
 10
155.9847278614344
 20
110.3007388439219
 30
0.000000000000000
 10
155.9342897166647
 20
110.0481882056997
 30
0.000000000000000
 10
155.9137399725243
 20
109.8863506035154
 30
0.000000000000000
 10
155.9119378059155
 20
109.8713787882769
 30
0.000000000000000
  0
SPLINE
  5
254
100
AcDbEntity
  8
A1
  6
CONTINUOUS
 62
7
100
AcDbSpline
210
0.000000000000000
220
0.000000000000000
230
1.000000000000000
 70
     8
 71
     3
 72
    19
 73
    15
 74
     0
 42
1.000000000000000e-07
 43
1.000000000000000e-07
 12
0.3527105807761473
 22
0.9357324650836745
 32
0.000000000000000
 13
0.9423172791480283
 23
0.3347209963837940
 33
0.000000000000000
 40
0.000000000000000
 40
0.000000000000000
 40
0.000000000000000
 40
0.000000000000000
 40
0.07443790343260059
 40
0.4116303091790183
 40
0.7561855912927555
 40
1.100738021443469
 40
1.487052655149331
 40
1.873354391019989
 40
2.271457264998257
 40
2.669581735964718
 40
3.047643324137225
 40
3.425718655408211
 40
3.813690269828212
 40
4.044835091792857
 40
4.044835091792857
 40
4.044835091792857
 40
4.044835091792857
 10
154.7809479935753
 20
111.0583575563314
 30
0.000000000000000
 10
154.7896996722924
 20
111.0815755439563
 30
0.000000000000000
 10
154.8391198243073
 20
111.2095787288512
 30
0.000000000000000
 10
154.9402317032968
 20
111.4407445186553
 30
0.000000000000000
 10
155.1000973417773
 20
111.7435368864040
 30
0.000000000000000
 10
155.2905527673163
 20
112.0476160509757
 30
0.000000000000000
 10
155.5129052790008
 20
112.3468890469947
 30
0.000000000000000
 10
155.7714516197553
 20
112.6398241783679
 30
0.000000000000000
 10
156.0576857080722
 20
112.9115907328746
 30
0.000000000000000
 10
156.3643835026941
 20
113.1555994121266
 30
0.000000000000000
 10
156.6848452247291
 20
113.3692796424371
 30
0.000000000000000
 10
157.0182803643488
 20
113.5551878908144
 30
0.000000000000000
 10
157.3209475135455
 20
113.6935094367984
 30
0.000000000000000
 10
157.5137883555079
 20
113.7672245443947
 30
0.000000000000000
 10
157.5863922754155
 20
113.7930142194337
 30
0.000000000000000
  0
ARC
  5
255
100
AcDbEntity
  8
A1
  6
CONTINUOUS
 62
7
100
AcDbCircle
 10
159.1921520390399
 20
109.6031308692129
 30
0.000000000000000
 40
4.743694039266956
100
AcDbArc
 50
257.9260583981848
 51
269.9455435848707
  0
ARC
  5
256
100
AcDbEntity
  8
A1
  6
CONTINUOUS
 62
7
100
AcDbCircle
 10
159.1915330636907
 20
109.3212373361783
 30
0.000000000000000
 40
4.749897081359517
100
AcDbArc
 50
90.04691888688484
 51
101.9263076483603
  0
LINE
  5
257
100
AcDbEntity
  8
A1
  6
CONTINUOUS
 62
7
100
AcDbLine
 10
159.1876434253812
 20
113.9655370210329
 30
0.000000000000000
 11
159.1876434253812
 21
114.0731692588429
 31
0.000000000000000
  0
LINE
  5
258
100
AcDbEntity
  8
A1
  6
CONTINUOUS
 62
7
100
AcDbLine
 10
159.1876434253812
 20
114.0861262639984
 30
0.000000000000000
 11
159.1876434253812
 21
114.1647757974038
 31
0.000000000000000
  0
LINE
  5
259
100
AcDbEntity
  8
A1
  6
CONTINUOUS
 62
7
100
AcDbLine
 10
159.1876434254012
 20
104.7693974416020
 30
0.000000000000000
 11
159.1876434254012
 21
104.8594389725229
 31
0.000000000000000
  0
LINE
  5
25A
100
AcDbEntity
  8
A1
  6
CONTINUOUS
 62
7
100
AcDbLine
 10
159.1765452034515
 20
104.7658687416740
 30
0.000000000000000
 11
159.1876434254012
 21
104.7658550816551
 31
0.000000000000000
  0
LINE
  5
25B
100
AcDbEntity
  8
A1
  6
CONTINUOUS
 62
7
100
AcDbLine
 10
154.4877448086534
 20
109.4656414994017
 30
0.000000000000000
 11
154.5033056322299
 21
109.0901876128770
 31
0.000000000000000
  0
LINE
  5
25C
100
AcDbEntity
  8
A1
  6
CONTINUOUS
 62
7
100
AcDbLine
 10
155.9119378059155
 20
109.8713787882769
 30
0.000000000000000
 11
155.8875394839594
 21
109.4655370209671
 31
0.000000000000000
  0
LINE
  5
25D
100
AcDbEntity
  8
A4
  6
CENTER
 62
1
100
AcDbLine
 10
172.9376434252729
 20
101.9655370209729
 30
0.000000000000000
 11
172.9376434252729
 21
116.9655370209729
 31
0.000000000000000
  0
LINE
  5
25E
100
AcDbEntity
  8
A1
  6
CONTINUOUS
 62
7
100
AcDbLine
 10
165.8376434251442
 20
115.4655370209729
 30
0.000000000000000
 11
180.0376434254012
 21
115.4655370209729
 31
0.000000000000000
  0
LINE
  5
25F
100
AcDbEntity
  8
A1
  6
CONTINUOUS
 62
7
100
AcDbLine
 10
166.9376434256012
 20
103.4655370209729
 30
0.000000000000000
 11
166.9376434251411
 21
115.3808956333629
 31
0.000000000000000
  0
LINE
  5
260
100
AcDbEntity
  8
A1
  6
CONTINUOUS
 62
7
100
AcDbLine
 10
164.9376434258612
 20
103.4655370209729
 30
0.000000000000000
 11
180.9376434255012
 21
103.4655370209729
 31
0.000000000000000
  0
LINE
  5
261
100
AcDbEntity
  8
A1
  6
CONTINUOUS
 62
7
100
AcDbLine
 10
180.5376434254012
 20
103.9655370209729
 30
0.000000000000000
 11
180.5376434254012
 21
114.9655370209729
 31
0.000000000000000
  0
LINE
  5
262
100
AcDbEntity
  8
A1
  6
CONTINUOUS
 62
7
100
AcDbLine
 10
178.9376434257012
 20
103.4655370209729
 30
0.000000000000000
 11
178.9376434254012
 21
115.3808956333629
 31
0.000000000000000
  0
LINE
  5
263
100
AcDbEntity
  8
A1
  6
CONTINUOUS
 62
7
100
AcDbLine
 10
166.9376434256012
 20
105.4655370209829
 30
0.000000000000000
 11
178.9376434257012
 21
105.4655370209829
 31
0.000000000000000
  0
LINE
  5
264
100
AcDbEntity
  8
A1
  6
CONTINUOUS
 62
7
100
AcDbLine
 10
168.8876434259112
 20
105.4655370209729
 30
0.000000000000000
 11
168.8876434259112
 21
107.9655370209629
 31
0.000000000000000
  0
LINE
  5
265
100
AcDbEntity
  8
A1
  6
CONTINUOUS
 62
7
100
AcDbLine
 10
171.5876434259112
 20
105.4655370209729
 30
0.000000000000000
 11
171.5876434259112
 21
107.9655370209629
 31
0.000000000000000
  0
LINE
  5
266
100
AcDbEntity
  8
A1
  6
CONTINUOUS
 62
7
100
AcDbLine
 10
174.2876434254212
 20
105.4655370209729
 30
0.000000000000000
 11
174.2876434254212
 21
107.9655370209629
 31
0.000000000000000
  0
LINE
  5
267
100
AcDbEntity
  8
A1
  6
CONTINUOUS
 62
7
100
AcDbLine
 10
176.9876434254012
 20
105.4655370209729
 30
0.000000000000000
 11
176.9876434254012
 21
107.9655370209629
 31
0.000000000000000
  0
ENDSEC
  0
SECTION
  2
OBJECTS
  0
DICTIONARY
  5
298
100
AcDbDictionary
  3
ACAD_GROUP
350
299
  3
ACAD_LAYOUT
350
29A
  3
ACAD_MLINESTYLE
350
29B
  0
DICTIONARY
  5
299
102
{ACAD_REACTORS
330
298
102
}
330
298
100
AcDbDictionary
  0
DICTIONARY
  5
29A
102
{ACAD_REACTORS
330
298
102
}
330
298
100
AcDbDictionary
  3
Model
350
29C
  3
ﾚｲｱｳﾄ1
350
29D
  3
ﾚｲｱｳﾄ2
350
29E
  0
DICTIONARY
  5
29B
102
{ACAD_REACTORS
330
298
102
}
330
298
100
AcDbDictionary
  3
STANDARD
350
29F
  0
LAYOUT
  5
29C
102
{ACAD_REACTORS
330
29A
102
}
330
29A
100
AcDbPlotSettings
 70
11952
  4
A3
 44
297.000000
 45
420.000000
 73
  1
 72
  1
100
AcDbLayout
  1
Model
 71
0
330
28F
  0
LAYOUT
  5
29D
102
{ACAD_REACTORS
330
29A
102
}
330
29A
100
AcDbPlotSettings
100
AcDbLayout
  1
ﾚｲｱｳﾄ1
 71
1
330
290
  0
LAYOUT
  5
29E
102
{ACAD_REACTORS
330
29A
102
}
330
29A
100
AcDbPlotSettings
100
AcDbLayout
  1
ﾚｲｱｳﾄ2
 71
2
330
291
  0
MLINESTYLE
  5
29F
102
{ACAD_REACTORS
330
29B
102
}
330
29B
100
AcDbMlineStyle
  2
STANDARD
 70
     0
  3

 62
   256
 51
90.00
 52
90.00
 71
     2
 49
0.50
 62
   256
  6
BYLAYER
 49
-0.50
 62
   256
  6
BYLAYER
  0
ENDSEC
  0
EOF
