  0
SECTION
  2
HEADER
  9
$ACADVER
  1
AC1015
  9
$ACADMAINTVER
 70
    20
  9
$DWGCODEPAGE
  3
ANSI_932
  9
$INSBASE
 10
0.0
 20
0.0
 30
0.0
  9
$EXTMIN
 10
10.0
 20
9.999999999999998
 30
0.0
  9
$EXTMAX
 10
476.0641749999998
 20
320.8591119999998
 30
0.0
  9
$LIMMIN
 10
0.0
 20
0.0
  9
$LIMMAX
 10
495.0
 20
341.25
  9
$ORTHOMODE
 70
     1
  9
$REGENMODE
 70
     1
  9
$FILLMODE
 70
     1
  9
$QTEXTMODE
 70
     0
  9
$MIRRTEXT
 70
     1
  9
$LTSCALE
 40
20.0
  9
$ATTMODE
 70
     1
  9
$TEXTSIZE
 40
5.0
  9
$TRACEWID
 40
1.0
  9
$TEXTSTYLE
  7
STANDARD
  9
$CLAYER
  8
0
  9
$CELTYPE
  6
BYLAYER
  9
$CECOLOR
 62
   256
  9
$CELTSCALE
 40
1.0
  9
$DISPSILH
 70
     0
  9
$DIMSCALE
 40
1.0
  9
$DIMASZ
 40
3.0
  9
$DIMEXO
 40
1.0
  9
$DIMDLI
 40
10.0
  9
$DIMRND
 40
0.0
  9
$DIMDLE
 40
0.0
  9
$DIMEXE
 40
1.0
  9
$DIMTP
 40
0.0
  9
$DIMTM
 40
0.0
  9
$DIMTXT
 40
3.2
  9
$DIMCEN
 40
0.0
  9
$DIMTSZ
 40
0.0
  9
$DIMTOL
 70
     0
  9
$DIMLIM
 70
     0
  9
$DIMTIH
 70
     0
  9
$DIMTOH
 70
     0
  9
$DIMSE1
 70
     0
  9
$DIMSE2
 70
     0
  9
$DIMTAD
 70
     3
  9
$DIMZIN
 70
     8
  9
$DIMBLK
  1

  9
$DIMASO
 70
     1
  9
$DIMSHO
 70
     1
  9
$DIMPOST
  1

  9
$DIMAPOST
  1

  9
$DIMALT
 70
     0
  9
$DIMALTD
 70
     2
  9
$DIMALTF
 40
25.4
  9
$DIMLFAC
 40
1.0
  9
$DIMTOFL
 70
     1
  9
$DIMTVP
 40
0.0
  9
$DIMTIX
 70
     0
  9
$DIMSOXD
 70
     0
  9
$DIMSAH
 70
     1
  9
$DIMBLK1
  1

  9
$DIMBLK2
  1

  9
$DIMSTYLE
  2
STANDARD
  9
$DIMCLRD
 70
     0
  9
$DIMCLRE
 70
     0
  9
$DIMCLRT
 70
     0
  9
$DIMTFAC
 40
1.0
  9
$DIMGAP
 40
1.0
  9
$DIMJUST
 70
     0
  9
$DIMSD1
 70
     0
  9
$DIMSD2
 70
     0
  9
$DIMTOLJ
 70
     1
  9
$DIMTZIN
 70
     0
  9
$DIMALTZ
 70
     0
  9
$DIMALTTZ
 70
     0
  9
$DIMUPT
 70
     0
  9
$DIMDEC
 70
     4
  9
$DIMTDEC
 70
     4
  9
$DIMALTU
 70
     2
  9
$DIMALTTD
 70
     2
  9
$DIMTXSTY
  7
STANDARD
  9
$DIMAUNIT
 70
     0
  9
$DIMADEC
 70
     0
  9
$DIMALTRND
 40
0.0
  9
$DIMAZIN
 70
     0
  9
$DIMDSEP
 70
    46
  9
$DIMATFIT
 70
     3
  9
$DIMFRAC
 70
     0
  9
$DIMLDRBLK
  1

  9
$DIMLUNIT
 70
     2
  9
$DIMLWD
 70
    -2
  9
$DIMLWE
 70
    -2
  9
$DIMTMOVE
 70
     0
  9
$LUNITS
 70
     2
  9
$LUPREC
 70
     4
  9
$SKETCHINC
 40
1.0
  9
$FILLETRAD
 40
0.0
  9
$AUNITS
 70
     0
  9
$AUPREC
 70
     2
  9
$MENU
  1
.
  9
$ELEVATION
 40
0.0
  9
$PELEVATION
 40
0.0
  9
$THICKNESS
 40
0.0
  9
$LIMCHECK
 70
     0
  9
$CHAMFERA
 40
10.0
  9
$CHAMFERB
 40
10.0
  9
$CHAMFERC
 40
0.0
  9
$CHAMFERD
 40
0.0
  9
$SKPOLY
 70
     0
  9
$TDCREATE
 40
2451074.458335996
  9
$TDUCREATE
 40
2451074.083335995
  9
$TDUPDATE
 40
2457192.598630753
  9
$TDUUPDATE
 40
2457192.223630753
  9
$TDINDWG
 40
0.1116344792
  9
$TDUSRTIMER
 40
0.1116337037
  9
$USRTIMER
 70
     1
  9
$ANGBASE
 50
0.0
  9
$ANGDIR
 70
     0
  9
$PDMODE
 70
     0
  9
$PDSIZE
 40
0.0
  9
$PLINEWID
 40
0.0
  9
$SPLFRAME
 70
     0
  9
$SPLINETYPE
 70
     6
  9
$SPLINESEGS
 70
     8
  9
$HANDSEED
  5
B0E4
  9
$SURFTAB1
 70
     6
  9
$SURFTAB2
 70
     6
  9
$SURFTYPE
 70
     6
  9
$SURFU
 70
     6
  9
$SURFV
 70
     6
  9
$UCSBASE
  2

  9
$UCSNAME
  2

  9
$UCSORG
 10
0.0
 20
0.0
 30
0.0
  9
$UCSXDIR
 10
1.0
 20
0.0
 30
0.0
  9
$UCSYDIR
 10
0.0
 20
1.0
 30
0.0
  9
$UCSORTHOREF
  2

  9
$UCSORTHOVIEW
 70
     0
  9
$UCSORGTOP
 10
0.0
 20
0.0
 30
0.0
  9
$UCSORGBOTTOM
 10
0.0
 20
0.0
 30
0.0
  9
$UCSORGLEFT
 10
0.0
 20
0.0
 30
0.0
  9
$UCSORGRIGHT
 10
0.0
 20
0.0
 30
0.0
  9
$UCSORGFRONT
 10
0.0
 20
0.0
 30
0.0
  9
$UCSORGBACK
 10
0.0
 20
0.0
 30
0.0
  9
$PUCSBASE
  2

  9
$PUCSNAME
  2

  9
$PUCSORG
 10
0.0
 20
0.0
 30
0.0
  9
$PUCSXDIR
 10
1.0
 20
0.0
 30
0.0
  9
$PUCSYDIR
 10
0.0
 20
1.0
 30
0.0
  9
$PUCSORTHOREF
  2

  9
$PUCSORTHOVIEW
 70
     0
  9
$PUCSORGTOP
 10
0.0
 20
0.0
 30
0.0
  9
$PUCSORGBOTTOM
 10
0.0
 20
0.0
 30
0.0
  9
$PUCSORGLEFT
 10
0.0
 20
0.0
 30
0.0
  9
$PUCSORGRIGHT
 10
0.0
 20
0.0
 30
0.0
  9
$PUCSORGFRONT
 10
0.0
 20
0.0
 30
0.0
  9
$PUCSORGBACK
 10
0.0
 20
0.0
 30
0.0
  9
$USERI1
 70
     0
  9
$USERI2
 70
     0
  9
$USERI3
 70
     0
  9
$USERI4
 70
     0
  9
$USERI5
 70
     0
  9
$USERR1
 40
0.0
  9
$USERR2
 40
0.0
  9
$USERR3
 40
0.0
  9
$USERR4
 40
0.0
  9
$USERR5
 40
0.0
  9
$WORLDVIEW
 70
     1
  9
$SHADEDGE
 70
     3
  9
$SHADEDIF
 70
    70
  9
$TILEMODE
 70
     1
  9
$MAXACTVP
 70
    16
  9
$PINSBASE
 10
0.0
 20
0.0
 30
0.0
  9
$PLIMCHECK
 70
     0
  9
$PEXTMIN
 10
1.000000000000000E+20
 20
1.000000000000000E+20
 30
1.000000000000000E+20
  9
$PEXTMAX
 10
-1.000000000000000E+20
 20
-1.000000000000000E+20
 30
-1.000000000000000E+20
  9
$PLIMMIN
 10
0.0
 20
0.0
  9
$PLIMMAX
 10
420.0
 20
297.0
  9
$UNITMODE
 70
     0
  9
$VISRETAIN
 70
     0
  9
$PLINEGEN
 70
     0
  9
$PSLTSCALE
 70
     0
  9
$TREEDEPTH
 70
  3020
  9
$CMLSTYLE
  2
STANDARD
  9
$CMLJUST
 70
     0
  9
$CMLSCALE
 40
1.0
  9
$PROXYGRAPHICS
 70
     1
  9
$MEASUREMENT
 70
     0
  9
$CELWEIGHT
370
    -1
  9
$ENDCAPS
280
     0
  9
$JOINSTYLE
280
     0
  9
$LWDISPLAY
290
     0
  9
$INSUNITS
 70
     0
  9
$HYPERLINKBASE
  1

  9
$STYLESHEET
  1

  9
$XEDIT
290
     1
  9
$CEPSNTYPE
380
     0
  9
$PSTYLEMODE
290
     1
  9
$FINGERPRINTGUID
  2
{5113A851-35C5-4E97-AEED-9C58D06B9021}
  9
$VERSIONGUID
  2
{B8FAAC51-41A5-4636-B00B-0F005ADACE27}
  9
$EXTNAMES
290
     1
  9
$PSVPSCALE
 40
0.0
  9
$OLESTARTUP
290
     0
  0
ENDSEC
  0
SECTION
  2
CLASSES
  0
CLASS
  1
ACDBDICTIONARYWDFLT
  2
AcDbDictionaryWithDefault
  3
ObjectDBX Classes
 90
        0
280
     0
281
     0
  0
CLASS
  1
ACDBPLACEHOLDER
  2
AcDbPlaceHolder
  3
ObjectDBX Classes
 90
        0
280
     0
281
     0
  0
CLASS
  1
LAYOUT
  2
AcDbLayout
  3
ObjectDBX Classes
 90
        0
280
     0
281
     0
  0
CLASS
  1
DICTIONARYVAR
  2
AcDbDictionaryVar
  3
ObjectDBX Classes
 90
        0
280
     0
281
     0
  0
CLASS
  1
MATERIAL
  2
AcDbMaterial
  3
ObjectDBX Classes
 90
     1153
280
     0
281
     0
  0
CLASS
  1
VISUALSTYLE
  2
AcDbVisualStyle
  3
ObjectDBX Classes
 90
     4095
280
     0
281
     0
  0
CLASS
  1
TABLESTYLE
  2
AcDbTableStyle
  3
ObjectDBX Classes
 90
     4095
280
     0
281
     0
  0
CLASS
  1
SCALE
  2
AcDbScale
  3
ObjectDBX Classes
 90
     1153
280
     0
281
     0
  0
CLASS
  1
MLEADERSTYLE
  2
AcDbMLeaderStyle
  3
ACDB_MLEADERSTYLE_CLASS
 90
     4095
280
     0
281
     0
  0
CLASS
  1
ACDBSECTIONVIEWSTYLE
  2
AcDbSectionViewStyle
  3
ObjectDBX Classes
 90
     1025
280
     0
281
     0
  0
CLASS
  1
ACDBDETAILVIEWSTYLE
  2
AcDbDetailViewStyle
  3
ObjectDBX Classes
 90
     1025
280
     0
281
     0
  0
CLASS
  1
CELLSTYLEMAP
  2
AcDbCellStyleMap
  3
ObjectDBX Classes
 90
     1152
280
     0
281
     0
  0
ENDSEC
  0
SECTION
  2
TABLES
  0
TABLE
  2
VPORT
  5
9D01
330
0
100
AcDbSymbolTable
 70
     1
  0
VPORT
  5
B02F
330
9D01
100
AcDbSymbolTableRecord
100
AcDbViewportTableRecord
  2
*ACTIVE
 70
     0
 10
0.0
 20
0.0
 11
1.0
 21
1.0
 12
370.9967209723142
 22
165.4309566753286
 13
0.0
 23
0.0
 14
10.0
 24
10.0
 15
10.0
 25
10.0
 16
0.0
 26
0.0
 36
1.0
 17
0.0
 27
0.0
 37
0.0
 40
313.3055675179857
 41
1.899603698811096
 42
50.0
 43
0.0
 44
0.0
 50
0.0
 51
0.0
 71
     0
 72
   100
 73
     1
 74
     0
 75
     0
 76
     0
 77
     0
 78
     0
281
     0
 65
     1
110
0.0
120
0.0
130
0.0
111
1.0
121
0.0
131
0.0
112
0.0
122
1.0
132
0.0
 79
     0
146
0.0
1001
ACAD_NAV_VCDISPLAY
1070
     3
  0
ENDTAB
  0
TABLE
  2
LTYPE
  5
9CFE
330
0
100
AcDbSymbolTable
 70
     4
  0
LTYPE
  5
9D0C
330
9CFE
100
AcDbSymbolTableRecord
100
AcDbLinetypeTableRecord
  2
BYBLOCK
 70
     0
  3

 72
    65
 73
     0
 40
0.0
  0
LTYPE
  5
9D0D
330
9CFE
100
AcDbSymbolTableRecord
100
AcDbLinetypeTableRecord
  2
BYLAYER
 70
     0
  3

 72
    65
 73
     0
 40
0.0
  0
LTYPE
  5
9D0E
330
9CFE
100
AcDbSymbolTableRecord
100
AcDbLinetypeTableRecord
  2
CONTINUOUS
 70
     0
  3
Solid line
 72
    65
 73
     0
 40
0.0
  0
LTYPE
  5
9D1C
330
9CFE
100
AcDbSymbolTableRecord
100
AcDbLinetypeTableRecord
  2
DASHED
 70
     0
  3
__ __ __ __ __ __ __ __ __ __ __ __ __ __ __ __
 72
    65
 73
     2
 40
0.75
 49
0.5
 74
     0
 49
-0.25
 74
     0
  0
LTYPE
  5
9D1D
330
9CFE
100
AcDbSymbolTableRecord
100
AcDbLinetypeTableRecord
  2
CENTER
 70
     0
  3
____ _ ____ _ ____ _ ____ _ ____ _ ____ _ ____ 
 72
    65
 73
     4
 40
2.0
 49
1.25
 74
     0
 49
-0.25
 74
     0
 49
0.25
 74
     0
 49
-0.25
 74
     0
  0
LTYPE
  5
9D1E
330
9CFE
100
AcDbSymbolTableRecord
100
AcDbLinetypeTableRecord
  2
PHANTOM
 70
     0
  3
______  __  __  ______  __  __  ______  __  __ 
 72
    65
 73
     6
 40
2.5
 49
1.25
 74
     0
 49
-0.25
 74
     0
 49
0.25
 74
     0
 49
-0.25
 74
     0
 49
0.25
 74
     0
 49
-0.25
 74
     0
  0
ENDTAB
  0
TABLE
  2
LAYER
  5
9CFB
330
0
100
AcDbSymbolTable
 70
     8
  0
LAYER
  5
9D09
102
{ACAD_XDICTIONARY
360
B088
102
}
330
9CFB
100
AcDbSymbolTableRecord
100
AcDbLayerTableRecord
  2
0
 70
     0
 62
     7
  6
CONTINUOUS
370
    -3
390
B036
  0
LAYER
  5
9D1F
102
{ACAD_XDICTIONARY
360
B08A
102
}
330
9CFB
100
AcDbSymbolTableRecord
100
AcDbLayerTableRecord
  2
4
 70
     0
 62
     1
  6
CENTER
370
    -3
390
B036
  0
LAYER
  5
9D20
102
{ACAD_XDICTIONARY
360
B08C
102
}
330
9CFB
100
AcDbSymbolTableRecord
100
AcDbLayerTableRecord
  2
5
 70
     0
 62
     6
  6
PHANTOM
370
    -3
390
B036
  0
LAYER
  5
9D21
102
{ACAD_XDICTIONARY
360
B08E
102
}
330
9CFB
100
AcDbSymbolTableRecord
100
AcDbLayerTableRecord
  2
1
 70
     0
 62
     7
  6
CONTINUOUS
370
    -3
390
B036
  0
LAYER
  5
9D22
102
{ACAD_XDICTIONARY
360
B090
102
}
330
9CFB
100
AcDbSymbolTableRecord
100
AcDbLayerTableRecord
  2
2
 70
     0
 62
     4
  6
CONTINUOUS
370
    -3
390
B036
  0
LAYER
  5
9D23
102
{ACAD_XDICTIONARY
360
B092
102
}
330
9CFB
100
AcDbSymbolTableRecord
100
AcDbLayerTableRecord
  2
3
 70
     0
 62
     2
  6
DASHED
370
    -3
390
B036
  0
LAYER
  5
9D24
102
{ACAD_XDICTIONARY
360
B094
102
}
330
9CFB
100
AcDbSymbolTableRecord
100
AcDbLayerTableRecord
  2
6
 70
     0
 62
     5
  6
CONTINUOUS
370
    -3
390
B036
  0
LAYER
  5
9D25
102
{ACAD_XDICTIONARY
360
B096
102
}
330
9CFB
100
AcDbSymbolTableRecord
100
AcDbLayerTableRecord
  2
7
 70
     0
 62
     3
  6
CONTINUOUS
370
    -3
390
B036
  0
ENDTAB
  0
TABLE
  2
STYLE
  5
9CFC
330
0
100
AcDbSymbolTable
 70
     1
  0
STYLE
  5
9D0A
330
9CFC
100
AcDbSymbolTableRecord
100
AcDbTextStyleTableRecord
  2
STANDARD
 70
     0
 40
0.0
 41
1.0
 50
0.0
 71
     0
 42
5.0
  3
txt
  4

  0
ENDTAB
  0
TABLE
  2
VIEW
  5
9CFF
330
0
100
AcDbSymbolTable
 70
     0
  0
ENDTAB
  0
TABLE
  2
UCS
  5
9D00
330
0
100
AcDbSymbolTable
 70
     0
  0
ENDTAB
  0
TABLE
  2
APPID
  5
9D02
330
0
100
AcDbSymbolTable
 70
     7
  0
APPID
  5
9D0B
330
9D02
100
AcDbSymbolTableRecord
100
AcDbRegAppTableRecord
  2
ACAD
 70
     0
  0
APPID
  5
A0A5
330
9D02
100
AcDbSymbolTableRecord
100
AcDbRegAppTableRecord
  2
CONTENTTABDATA
 70
     0
  0
APPID
  5
A0A6
330
9D02
100
AcDbSymbolTableRecord
100
AcDbRegAppTableRecord
  2
CONTENTCURRENTTAB
 70
     0
  0
APPID
  5
A0A7
330
9D02
100
AcDbSymbolTableRecord
100
AcDbRegAppTableRecord
  2
CONTENTBLOCKICON
 70
     0
  0
APPID
  5
A0A8
330
9D02
100
AcDbSymbolTableRecord
100
AcDbRegAppTableRecord
  2
CONTENTBLOCKDESCRIPTION
 70
     0
  0
APPID
  5
B0A2
330
9D02
100
AcDbSymbolTableRecord
100
AcDbRegAppTableRecord
  2
ACAD_NAV_VCDISPLAY
 70
     0
  0
APPID
  5
B0DB
330
9D02
100
AcDbSymbolTableRecord
100
AcDbRegAppTableRecord
  2
ACAD_MLEADERVER
 70
     0
  0
ENDTAB
  0
TABLE
  2
DIMSTYLE
  5
9D03
330
0
100
AcDbSymbolTable
 70
     1
100
AcDbDimStyleTable
 71
     0
  0
DIMSTYLE
105
9D27
330
9D03
100
AcDbSymbolTableRecord
100
AcDbDimStyleTableRecord
  2
STANDARD
 70
     0
 41
3.0
 42
1.0
 43
10.0
 44
1.0
 73
     0
 74
     0
 77
     3
 78
     8
140
3.2
141
0.0
147
1.0
172
     1
173
     1
284
     8
285
     8
286
     8
340
9D0A
  0
ENDTAB
  0
TABLE
  2
BLOCK_RECORD
  5
9CFA
330
0
100
AcDbSymbolTable
 70
     0
  0
BLOCK_RECORD
  5
9D17
102
{ACAD_XDICTIONARY
360
9FB1
102
}
330
9CFA
100
AcDbSymbolTableRecord
100
AcDbBlockTableRecord
  2
*MODEL_SPACE
340
B084
  0
BLOCK_RECORD
  5
9D13
102
{ACAD_XDICTIONARY
360
9FAF
102
}
330
9CFA
100
AcDbSymbolTableRecord
100
AcDbBlockTableRecord
  2
*PAPER_SPACE
340
B085
  0
ENDTAB
  0
ENDSEC
  0
SECTION
  2
BLOCKS
  0
BLOCK
  5
9D18
330
9D17
100
AcDbEntity
  8
0
100
AcDbBlockBegin
  2
*MODEL_SPACE
 70
     0
 10
0.0
 20
0.0
 30
0.0
  3
*MODEL_SPACE
  1

  0
ENDBLK
  5
9D19
330
9D17
100
AcDbEntity
  8
0
100
AcDbBlockEnd
  0
BLOCK
  5
9D14
330
9D13
100
AcDbEntity
 67
     1
  8
0
100
AcDbBlockBegin
  2
*PAPER_SPACE
 70
     0
 10
0.0
 20
0.0
 30
0.0
  3
*PAPER_SPACE
  1

  0
ENDBLK
  5
9D15
330
9D13
100
AcDbEntity
 67
     1
  8
0
100
AcDbBlockEnd
  0
ENDSEC
  0
SECTION
  2
ENTITIES
  0
TEXT
  5
9D2F
330
9D17
100
AcDbEntity
  8
7
  6
Continuous
100
AcDbText
 10
10.0
 20
18.0
 30
0.0
 40
3.0
  1
TYPE No.TL-11-001
100
AcDbText
  0
TEXT
  5
9D30
330
9D17
100
AcDbEntity
  8
7
  6
Continuous
100
AcDbText
 10
10.0
 20
26.0
 30
0.0
 40
3.0
  1
CODE No.1801
100
AcDbText
  0
TEXT
  5
9D31
330
9D17
100
AcDbEntity
  8
1
  6
Continuous
100
AcDbText
 10
10.0
 20
10.0
 30
0.0
 40
1.399999999999999
  1
LAYER
100
AcDbText
  0
TEXT
  5
9D32
330
9D17
100
AcDbEntity
  8
1
  6
Continuous
100
AcDbText
 10
17.97951099999998
 20
10.04873699999998
 30
0.0
 40
1.399999999999999
  1
1
100
AcDbText
  0
TEXT
  5
9D33
330
9D17
100
AcDbEntity
  8
7
  6
Continuous
100
AcDbText
 10
29.97951099999999
 20
10.04873699999998
 30
0.0
 40
1.399999999999999
  1
7
100
AcDbText
  0
TEXT
  5
9D34
330
9D17
100
AcDbEntity
  8
4
  6
CENTER
100
AcDbText
 10
23.97951099999999
 20
10.04873699999998
 30
0.0
 40
1.399999999999999
  1
4
100
AcDbText
  0
TEXT
  5
9D35
330
9D17
100
AcDbEntity
  8
3
  6
DASHED
100
AcDbText
 10
21.979511
 20
10.04873699999998
 30
0.0
 40
1.399999999999999
  1
3
100
AcDbText
  0
TEXT
  5
9D36
330
9D17
100
AcDbEntity
  8
2
  6
Continuous
100
AcDbText
 10
19.97951099999998
 20
10.04873699999998
 30
0.0
 40
1.399999999999999
  1
2
100
AcDbText
  0
TEXT
  5
9D37
330
9D17
100
AcDbEntity
  8
6
  6
Continuous
100
AcDbText
 10
27.979511
 20
10.04873699999998
 30
0.0
 40
1.399999999999999
  1
6
100
AcDbText
  0
TEXT
  5
9D38
330
9D17
100
AcDbEntity
  8
5
  6
PHANTOM
100
AcDbText
 10
25.97951099999999
 20
10.04873699999998
 30
0.0
 40
1.399999999999999
  1
5
100
AcDbText
  0
LINE
  5
9D39
330
9D17
100
AcDbEntity
  8
4
  6
CENTER
 48
0.2
100
AcDbLine
 10
37.564375
 20
219.715727
 30
0.0
 11
37.564375
 21
132.2157269999999
 31
0.0
  0
LINE
  5
9D3A
330
9D17
100
AcDbEntity
  8
1
  6
Continuous
100
AcDbLine
 10
26.81437499999999
 20
199.2157269999999
 30
0.0
 11
48.31437499999999
 21
199.2157269999999
 31
0.0
  0
LINE
  5
9D3B
330
9D17
100
AcDbEntity
  8
1
  6
Continuous
100
AcDbLine
 10
29.56437499999999
 20
162.7157269999998
 30
0.0
 11
29.56437499999998
 21
141.7157269999998
 31
0.0
  0
LINE
  5
9D3C
330
9D17
100
AcDbEntity
  8
1
  6
Continuous
100
AcDbLine
 10
45.564375
 20
162.7157269999998
 30
0.0
 11
45.564375
 21
141.7157269999998
 31
0.0
  0
LINE
  5
9D3D
330
9D17
100
AcDbEntity
  8
1
  6
Continuous
100
AcDbLine
 10
26.564375
 20
197.2157269999999
 30
0.0
 11
26.564375
 21
162.7157269999998
 31
0.0
  0
LINE
  5
9D3E
330
9D17
100
AcDbEntity
  8
1
  6
Continuous
100
AcDbLine
 10
48.564375
 20
197.2157269999999
 30
0.0
 11
48.564375
 21
162.7157269999998
 31
0.0
  0
LINE
  5
9D3F
330
9D17
100
AcDbEntity
  8
1
  6
Continuous
100
AcDbLine
 10
26.314375
 20
162.7157269999998
 30
0.0
 11
29.56437499999999
 21
162.7157269999998
 31
0.0
  0
LINE
  5
9D40
330
9D17
100
AcDbEntity
  8
1
  6
Continuous
100
AcDbLine
 10
45.564375
 20
162.7157269999998
 30
0.0
 11
48.814375
 21
162.7157269999998
 31
0.0
  0
LINE
  5
9D41
330
9D17
100
AcDbEntity
  8
4
  6
CENTER
 48
0.2
100
AcDbLine
 10
19.364375
 20
169.2157269999999
 30
0.0
 11
55.764375
 21
169.2157269999999
 31
0.0
  0
LINE
  5
9D42
330
9D17
100
AcDbEntity
  8
1
  6
Continuous
100
AcDbLine
 10
26.81437499999999
 20
199.2157269999999
 30
0.0
 11
26.81437499999999
 21
197.2157269999999
 31
0.0
  0
LINE
  5
9D43
330
9D17
100
AcDbEntity
  8
1
  6
Continuous
100
AcDbLine
 10
48.31437499999999
 20
199.2157269999999
 30
0.0
 11
48.31437499999999
 21
197.2157269999999
 31
0.0
  0
LINE
  5
9D44
330
9D17
100
AcDbEntity
  8
4
  6
CENTER
 48
0.2
100
AcDbLine
 10
377.5641749999999
 20
221.215727
 30
0.0
 11
377.5641749999999
 21
132.2157269999999
 31
0.0
  0
LINE
  5
9D45
330
9D17
100
AcDbEntity
  8
1
  6
Continuous
100
AcDbLine
 10
388.314175
 20
199.2157269999999
 30
0.0
 11
366.8141749999999
 21
199.2157269999999
 31
0.0
  0
LINE
  5
9D46
330
9D17
100
AcDbEntity
  8
1
  6
Continuous
100
AcDbLine
 10
385.5641749999999
 20
178.2157269999999
 30
0.0
 11
385.5641749999999
 21
141.7157269999999
 31
0.0
  0
LINE
  5
9D47
330
9D17
100
AcDbEntity
  8
1
  6
Continuous
100
AcDbLine
 10
369.564175
 20
178.2157269999999
 30
0.0
 11
369.564175
 21
141.7157269999999
 31
0.0
  0
LINE
  5
9D48
330
9D17
100
AcDbEntity
  8
1
  6
Continuous
100
AcDbLine
 10
388.8141749999999
 20
162.7157269999998
 30
0.0
 11
385.5641749999999
 21
162.7157269999998
 31
0.0
  0
LINE
  5
9D49
330
9D17
100
AcDbEntity
  8
1
  6
Continuous
100
AcDbLine
 10
369.564175
 20
162.7157269999998
 30
0.0
 11
366.3141749999998
 21
162.7157269999998
 31
0.0
  0
LINE
  5
9D4A
330
9D17
100
AcDbEntity
  8
4
  6
CENTER
 48
0.2
100
AcDbLine
 10
395.764175
 20
169.2157269999999
 30
0.0
 11
359.3641749999999
 21
169.2157269999999
 31
0.0
  0
LINE
  5
9D4B
330
9D17
100
AcDbEntity
  8
1
  6
Continuous
100
AcDbLine
 10
392.3641749999999
 20
163.7157269999998
 30
0.0
 11
389.5641749999999
 21
163.7157269999998
 31
0.0
  0
LINE
  5
9D4C
330
9D17
100
AcDbEntity
  8
1
  6
Continuous
100
AcDbLine
 10
392.3641749999999
 20
163.7157269999998
 30
0.0
 11
392.3641749999999
 21
173.2157269999999
 31
0.0
  0
LINE
  5
9D4D
330
9D17
100
AcDbEntity
  8
1
  6
Continuous
100
AcDbLine
 10
389.5641749999999
 20
163.7157269999998
 30
0.0
 11
389.5641749999999
 21
173.216082
 31
0.0
  0
LINE
  5
9D4F
330
9D17
100
AcDbEntity
  8
1
  6
Continuous
100
AcDbLine
 10
359.5641749999999
 20
177.216062
 30
0.0
 11
359.5641749999999
 21
187.0567554664055
 31
0.0
  0
LINE
  5
9D50
330
9D17
100
AcDbEntity
  8
1
  6
Continuous
100
AcDbLine
 10
362.764175
 20
163.7157269999998
 30
0.0
 11
365.564175
 21
163.7157269999998
 31
0.0
  0
LINE
  5
9D51
330
9D17
100
AcDbEntity
  8
1
  6
Continuous
100
AcDbLine
 10
362.764175
 20
163.7157269999998
 30
0.0
 11
362.764175
 21
173.2157269999999
 31
0.0
  0
LINE
  5
9D52
330
9D17
100
AcDbEntity
  8
1
  6
Continuous
100
AcDbLine
 10
362.3641749999999
 20
177.2157269999999
 30
0.0
 11
362.3641749999999
 21
187.3038505063157
 31
0.0
  0
LINE
  5
9D55
330
9D17
100
AcDbEntity
  8
1
  6
Continuous
100
AcDbLine
 10
361.8141749999999
 20
170.7157269999999
 30
0.0
 11
361.8141749999999
 21
167.7157269999999
 31
0.0
  0
LINE
  5
9D56
330
9D17
100
AcDbEntity
  8
1
  6
Continuous
100
AcDbLine
 10
393.3141749999998
 20
170.7157269999999
 30
0.0
 11
393.3141749999998
 21
167.7157269999999
 31
0.0
  0
LINE
  5
9D57
330
9D17
100
AcDbEntity
  8
1
  6
Continuous
100
AcDbLine
 10
389.5641749999999
 20
171.2157269999998
 30
0.0
 11
388.8141749999999
 21
171.2157269999998
 31
0.0
  0
LINE
  5
9D58
330
9D17
100
AcDbEntity
  8
1
  6
Continuous
100
AcDbLine
 10
389.5641749999999
 20
167.2157269999999
 30
0.0
 11
388.8141749999999
 21
167.2157269999999
 31
0.0
  0
LINE
  5
9D59
330
9D17
100
AcDbEntity
  8
1
  6
Continuous
100
AcDbLine
 10
393.3141749999998
 20
167.7157269999999
 30
0.0
 11
392.3641749999999
 21
167.7157269999999
 31
0.0
  0
LINE
  5
9D5A
330
9D17
100
AcDbEntity
  8
1
  6
Continuous
100
AcDbLine
 10
393.3141749999998
 20
170.7157269999999
 30
0.0
 11
392.3641749999999
 21
170.7157269999999
 31
0.0
  0
LINE
  5
9D5B
330
9D17
100
AcDbEntity
  8
1
  6
Continuous
100
AcDbLine
 10
366.3141749999998
 20
171.2157269999998
 30
0.0
 11
365.564175
 21
171.2157269999998
 31
0.0
  0
LINE
  5
9D5C
330
9D17
100
AcDbEntity
  8
1
  6
Continuous
100
AcDbLine
 10
366.3141749999998
 20
167.2157269999999
 30
0.0
 11
365.564175
 21
167.2157269999999
 31
0.0
  0
LINE
  5
9D5D
330
9D17
100
AcDbEntity
  8
1
  6
Continuous
100
AcDbLine
 10
362.764175
 20
170.7157269999999
 30
0.0
 11
361.8141749999999
 21
170.7157269999999
 31
0.0
  0
LINE
  5
9D5E
330
9D17
100
AcDbEntity
  8
1
  6
Continuous
100
AcDbLine
 10
362.764175
 20
167.7157269999999
 30
0.0
 11
361.8141749999999
 21
167.7157269999999
 31
0.0
  0
LINE
  5
9D65
330
9D17
100
AcDbEntity
  8
1
  6
Continuous
100
AcDbLine
 10
388.314175
 20
199.2157269999999
 30
0.0
 11
388.314175
 21
197.2157269999999
 31
0.0
  0
LINE
  5
9D66
330
9D17
100
AcDbEntity
  8
1
  6
Continuous
100
AcDbLine
 10
366.8141749999999
 20
199.2157269999999
 30
0.0
 11
366.8141749999999
 21
197.2157269999999
 31
0.0
  0
LINE
  5
9D67
330
9D17
100
AcDbEntity
  8
1
  6
Continuous
100
AcDbLine
 10
388.8141749999999
 20
197.2157269999999
 30
0.0
 11
366.3141749999998
 21
197.2157269999999
 31
0.0
  0
LINE
  5
9D68
330
9D17
100
AcDbEntity
  8
1
  6
Continuous
100
AcDbLine
 10
385.5641749999999
 20
141.7157269999998
 30
0.0
 11
369.564175
 21
141.7157269999998
 31
0.0
  0
LINE
  5
9D69
330
9D17
100
AcDbEntity
  8
1
  6
Continuous
100
AcDbLine
 10
388.8141749999999
 20
178.2157269999999
 30
0.0
 11
385.5641749999999
 21
178.2157269999999
 31
0.0
  0
LINE
  5
9D6A
330
9D17
100
AcDbEntity
  8
1
  6
Continuous
100
AcDbLine
 10
388.8141749999999
 20
183.2157269999999
 30
0.0
 11
386.5641749999999
 21
183.2157269999999
 31
0.0
  0
LINE
  5
9D6B
330
9D17
100
AcDbEntity
  8
1
  6
Continuous
100
AcDbLine
 10
368.5641749999998
 20
183.2157269999999
 30
0.0
 11
366.3141749999998
 21
183.2157269999999
 31
0.0
  0
LINE
  5
9D6C
330
9D17
100
AcDbEntity
  8
1
  6
Continuous
100
AcDbLine
 10
369.564175
 20
178.2157269999999
 30
0.0
 11
366.3141749999998
 21
178.2157269999999
 31
0.0
  0
LINE
  5
9D6D
330
9D17
100
AcDbEntity
  8
1
  6
Continuous
100
AcDbLine
 10
368.5641749999998
 20
197.2157269999999
 30
0.0
 11
368.5641749999998
 21
183.2157269999999
 31
0.0
  0
LINE
  5
9D6E
330
9D17
100
AcDbEntity
  8
1
  6
Continuous
100
AcDbLine
 10
386.5641749999999
 20
197.2157269999999
 30
0.0
 11
386.5641749999999
 21
183.2157269999999
 31
0.0
  0
LINE
  5
9D6F
330
9D17
100
AcDbEntity
  8
1
  6
Continuous
100
AcDbLine
 10
366.3141749999998
 20
197.2157269999999
 30
0.0
 11
366.3141749999998
 21
162.7157269999998
 31
0.0
  0
LINE
  5
9D70
330
9D17
100
AcDbEntity
  8
1
  6
Continuous
100
AcDbLine
 10
388.8141749999999
 20
197.2157269999999
 30
0.0
 11
388.8141749999999
 21
162.7157269999998
 31
0.0
  0
LINE
  5
9D71
330
9D17
100
AcDbEntity
  8
1
  6
Continuous
100
AcDbLine
 10
375.0641749999999
 20
192.715727
 30
0.0
 11
375.0641749999999
 21
181.7157269999999
 31
0.0
  0
LINE
  5
9D72
330
9D17
100
AcDbEntity
  8
1
  6
Continuous
100
AcDbLine
 10
380.064175
 20
192.715727
 30
0.0
 11
380.064175
 21
181.7157269999999
 31
0.0
  0
LINE
  5
9D73
330
9D17
100
AcDbEntity
  8
1
  6
Continuous
100
AcDbLine
 10
383.0641749999998
 20
192.715727
 30
0.0
 11
383.0641749999998
 21
181.7157269999999
 31
0.0
  0
LINE
  5
9D74
330
9D17
100
AcDbEntity
  8
1
  6
Continuous
100
AcDbLine
 10
372.0641749999999
 20
192.715727
 30
0.0
 11
372.0641749999999
 21
181.7157269999999
 31
0.0
  0
LINE
  5
9D75
330
9D17
100
AcDbEntity
  8
4
  6
CENTER
 48
0.2
100
AcDbLine
 10
372.914175
 20
175.215727
 30
0.0
 11
382.214175
 21
175.215727
 31
0.0
  0
LINE
  5
9D76
330
9D17
100
AcDbEntity
  8
4
  6
CENTER
 48
0.2
100
AcDbLine
 10
372.914175
 20
161.2157269999999
 30
0.0
 11
382.214175
 21
161.2157269999999
 31
0.0
  0
LINE
  5
9D77
330
9D17
100
AcDbEntity
  8
4
  6
CENTER
 48
0.2
100
AcDbLine
 10
372.914175
 20
147.2157269999998
 30
0.0
 11
382.214175
 21
147.2157269999998
 31
0.0
  0
LINE
  5
9D8B
330
9D17
100
AcDbEntity
  8
1
  6
Continuous
100
AcDbLine
 10
368.3141749999998
 20
178.2157269999999
 30
0.0
 11
368.3141749999998
 21
162.7157269999998
 31
0.0
  0
LINE
  5
9D8C
330
9D17
100
AcDbEntity
  8
1
  6
Continuous
100
AcDbLine
 10
386.8141749999999
 20
178.2157269999999
 30
0.0
 11
386.8141749999999
 21
162.7157269999998
 31
0.0
  0
LINE
  5
9D8D
330
9D17
100
AcDbEntity
  8
1
  6
Continuous
100
AcDbLine
 10
368.3141749999998
 20
171.2157269999998
 30
0.0
 11
369.564175
 21
171.2157269999998
 31
0.0
  0
LINE
  5
9D8E
330
9D17
100
AcDbEntity
  8
1
  6
Continuous
100
AcDbLine
 10
368.3141749999998
 20
167.2157269999999
 30
0.0
 11
369.564175
 21
167.2157269999999
 31
0.0
  0
LINE
  5
9D8F
330
9D17
100
AcDbEntity
  8
1
  6
Continuous
100
AcDbLine
 10
385.5641749999999
 20
171.2157269999998
 30
0.0
 11
386.8141749999999
 21
171.2157269999998
 31
0.0
  0
LINE
  5
9D90
330
9D17
100
AcDbEntity
  8
1
  6
Continuous
100
AcDbLine
 10
385.5641749999999
 20
167.2157269999999
 30
0.0
 11
386.8141749999999
 21
167.2157269999999
 31
0.0
  0
LINE
  5
9D91
330
9D17
100
AcDbEntity
  8
1
  6
Continuous
100
AcDbLine
 10
368.5641749999998
 20
178.2157269999999
 30
0.0
 11
368.5641749999998
 21
171.2157269999998
 31
0.0
  0
LINE
  5
9D92
330
9D17
100
AcDbEntity
  8
1
  6
Continuous
100
AcDbLine
 10
386.5641749999999
 20
178.2157269999999
 30
0.0
 11
386.5641749999999
 21
171.2157269999998
 31
0.0
  0
LINE
  5
9D93
330
9D17
100
AcDbEntity
  8
1
  6
Continuous
100
AcDbLine
 10
368.5641749999998
 20
167.2157269999999
 30
0.0
 11
368.5641749999998
 21
162.7157269999998
 31
0.0
  0
LINE
  5
9D94
330
9D17
100
AcDbEntity
  8
1
  6
Continuous
100
AcDbLine
 10
386.5641749999999
 20
167.2157269999999
 30
0.0
 11
386.5641749999999
 21
162.7157269999998
 31
0.0
  0
LINE
  5
9D95
330
9D17
100
AcDbEntity
  8
1
  6
Continuous
100
AcDbLine
 10
26.314375
 20
197.2157269999999
 30
0.0
 11
26.81437499999999
 21
197.2157269999999
 31
0.0
  0
LINE
  5
9D96
330
9D17
100
AcDbEntity
  8
1
  6
Continuous
100
AcDbLine
 10
48.31437499999999
 20
197.2157269999999
 30
0.0
 11
48.814375
 21
197.2157269999999
 31
0.0
  0
LINE
  5
9D97
330
9D17
100
AcDbEntity
  8
1
  6
Continuous
100
AcDbLine
 10
365.564175
 20
163.7157269999998
 30
0.0
 11
365.564175
 21
173.216082
 31
0.0
  0
LINE
  5
9D98
330
9D17
100
AcDbEntity
  8
1
  6
Continuous
100
AcDbLine
 10
48.814375
 20
41.315827
 30
0.0
 11
26.314375
 21
41.315827
 31
0.0
  0
LINE
  5
9D99
330
9D17
100
AcDbEntity
  8
4
  6
CENTER
 48
0.2
100
AcDbLine
 10
37.564375
 20
36.315827
 30
0.0
 11
37.564375
 21
63.015827
 31
0.0
  0
LINE
  5
9D9A
330
9D17
100
AcDbEntity
  8
1
  6
Continuous
100
AcDbLine
 10
45.564375
 20
41.315827
 30
0.0
 11
45.564375
 21
44.515827
 31
0.0
  0
LINE
  5
9D9B
330
9D17
100
AcDbEntity
  8
1
  6
Continuous
100
AcDbLine
 10
29.56437499999999
 20
41.315827
 30
0.0
 11
29.56437499999999
 21
44.515827
 31
0.0
  0
LINE
  5
9D9C
330
9D17
100
AcDbEntity
  8
1
  6
Continuous
100
AcDbLine
 10
48.814375
 20
41.715827
 30
0.0
 11
46.814375
 21
41.715827
 31
0.0
  0
LINE
  5
9D9D
330
9D17
100
AcDbEntity
  8
1
  6
Continuous
100
AcDbLine
 10
28.31437499999999
 20
41.715827
 30
0.0
 11
26.314375
 21
41.715827
 31
0.0
  0
LINE
  5
9D9E
330
9D17
100
AcDbEntity
  8
1
  6
Continuous
100
AcDbLine
 10
46.564347
 20
56.515827
 30
0.0
 11
42.50897499999999
 21
56.515827
 31
0.0
  0
LINE
  5
9D9F
330
9D17
100
AcDbEntity
  8
1
  6
Continuous
100
AcDbLine
 10
46.59817499999999
 20
54.515827
 30
0.0
 11
45.564375
 21
54.515827
 31
0.0
  0
LINE
  5
9DA0
330
9D17
100
AcDbEntity
  8
1
  6
Continuous
100
AcDbLine
 10
32.619675
 20
56.515827
 30
0.0
 11
28.564302
 21
56.515827
 31
0.0
  0
LINE
  5
9DA1
330
9D17
100
AcDbEntity
  8
1
  6
Continuous
100
AcDbLine
 10
29.56437499999999
 20
54.515827
 30
0.0
 11
28.564375
 21
54.515827
 31
0.0
  0
LINE
  5
9DA2
330
9D17
100
AcDbEntity
  8
1
  6
Continuous
100
AcDbLine
 10
45.564375
 20
51.015827
 30
0.0
 11
45.564375
 21
56.515827
 31
0.0
  0
LINE
  5
9DA3
330
9D17
100
AcDbEntity
  8
1
  6
Continuous
100
AcDbLine
 10
29.56437499999999
 20
51.015827
 30
0.0
 11
29.56437499999999
 21
56.515827
 31
0.0
  0
LINE
  5
9DA4
330
9D17
100
AcDbEntity
  8
1
  6
Continuous
100
AcDbLine
 10
48.814375
 20
41.315827
 30
0.0
 11
48.814375
 21
44.515827
 31
0.0
  0
LINE
  5
9DA5
330
9D17
100
AcDbEntity
  8
1
  6
Continuous
100
AcDbLine
 10
26.314375
 20
41.315827
 30
0.0
 11
26.314375
 21
44.515827
 31
0.0
  0
LINE
  5
9DA6
330
9D17
100
AcDbEntity
  8
1
  6
Continuous
100
AcDbLine
 10
48.814375
 20
52.015827
 30
0.0
 11
48.814375
 21
51.21582700000001
 31
0.0
  0
LINE
  5
9DA7
330
9D17
100
AcDbEntity
  8
1
  6
Continuous
100
AcDbLine
 10
26.314375
 20
52.015827
 30
0.0
 11
26.314375
 21
51.21582700000001
 31
0.0
  0
LINE
  5
9DA8
330
9D17
100
AcDbEntity
  8
1
  6
Continuous
100
AcDbLine
 10
55.564375
 20
52.015827
 30
0.0
 11
49.56437499999999
 21
52.015827
 31
0.0
  0
LINE
  5
9DA9
330
9D17
100
AcDbEntity
  8
1
  6
Continuous
100
AcDbLine
 10
55.564375
 20
46.41582699999999
 30
0.0
 11
49.56437499999999
 21
46.41582699999999
 31
0.0
  0
LINE
  5
9DAA
330
9D17
100
AcDbEntity
  8
1
  6
Continuous
100
AcDbLine
 10
52.764375
 20
46.085327
 30
0.0
 11
52.764375
 21
46.41582699999999
 31
0.0
  0
LINE
  5
9DAB
330
9D17
100
AcDbEntity
  8
1
  6
Continuous
100
AcDbLine
 10
49.56437499999999
 20
41.615988
 30
0.0
 11
49.56437499999999
 21
52.015827
 31
0.0
  0
LINE
  5
9DAC
330
9D17
100
AcDbEntity
  8
1
  6
Continuous
100
AcDbLine
 10
25.56437499999999
 20
41.615988
 30
0.0
 11
25.56437499999999
 21
52.015827
 31
0.0
  0
LINE
  5
9DAD
330
9D17
100
AcDbEntity
  8
1
  6
Continuous
100
AcDbLine
 10
58.364175
 20
55.56582699999999
 30
0.0
 11
52.764375
 21
55.56582699999999
 31
0.0
  0
LINE
  5
9DAE
330
9D17
100
AcDbEntity
  8
1
  6
Continuous
100
AcDbLine
 10
58.364175
 20
42.865827
 30
0.0
 11
52.764375
 21
42.865827
 31
0.0
  0
LINE
  5
9DAF
330
9D17
100
AcDbEntity
  8
1
  6
Continuous
100
AcDbLine
 10
16.764375
 20
42.865827
 30
0.0
 11
16.764375
 21
55.56582699999999
 31
0.0
  0
LINE
  5
9DB0
330
9D17
100
AcDbEntity
  8
1
  6
Continuous
100
AcDbLine
 10
58.364175
 20
42.865827
 30
0.0
 11
58.364175
 21
55.56582699999999
 31
0.0
  0
LINE
  5
9DB1
330
9D17
100
AcDbEntity
  8
1
  6
Continuous
100
AcDbLine
 10
55.564375
 20
42.865827
 30
0.0
 11
55.564375
 21
55.56582699999999
 31
0.0
  0
LINE
  5
9DB2
330
9D17
100
AcDbEntity
  8
1
  6
Continuous
100
AcDbLine
 10
19.56437499999998
 20
42.865827
 30
0.0
 11
19.56437499999998
 21
55.56582699999999
 31
0.0
  0
LINE
  5
9DB3
330
9D17
100
AcDbEntity
  8
1
  6
Continuous
100
AcDbLine
 10
22.364375
 20
55.56582699999999
 30
0.0
 11
16.764375
 21
55.56582699999999
 31
0.0
  0
LINE
  5
9DB4
330
9D17
100
AcDbEntity
  8
1
  6
Continuous
100
AcDbLine
 10
22.364375
 20
42.865827
 30
0.0
 11
16.764375
 21
42.865827
 31
0.0
  0
LINE
  5
9DB5
330
9D17
100
AcDbEntity
  8
1
  6
Continuous
100
AcDbLine
 10
25.56437499999999
 20
52.015827
 30
0.0
 11
19.56437499999998
 21
52.015827
 31
0.0
  0
LINE
  5
9DB6
330
9D17
100
AcDbEntity
  8
1
  6
Continuous
100
AcDbLine
 10
25.56437499999999
 20
46.41582699999999
 30
0.0
 11
19.56437499999998
 21
46.41582699999999
 31
0.0
  0
LINE
  5
9DB7
330
9D17
100
AcDbEntity
  8
1
  6
Continuous
100
AcDbLine
 10
49.56437499999999
 20
47.21582699999999
 30
0.0
 11
48.726475
 21
47.21582699999999
 31
0.0
  0
LINE
  5
9DB8
330
9D17
100
AcDbEntity
  8
1
  6
Continuous
100
AcDbLine
 10
49.56437499999999
 20
51.21582700000001
 30
0.0
 11
48.635075
 21
51.21582700000001
 31
0.0
  0
LINE
  5
9DB9
330
9D17
100
AcDbEntity
  8
1
  6
Continuous
100
AcDbLine
 10
26.499475
 20
51.21582700000001
 30
0.0
 11
25.56437499999999
 21
51.21582700000001
 31
0.0
  0
LINE
  5
9DBA
330
9D17
100
AcDbEntity
  8
1
  6
Continuous
100
AcDbLine
 10
26.402175
 20
47.21582699999999
 30
0.0
 11
25.56437499999999
 21
47.21582699999999
 31
0.0
  0
LINE
  5
9DBB
330
9D17
100
AcDbEntity
  8
1
  6
Continuous
100
AcDbLine
 10
53.31437499999999
 20
50.715827
 30
0.0
 11
52.364375
 21
50.715827
 31
0.0
  0
LINE
  5
9DBC
330
9D17
100
AcDbEntity
  8
1
  6
Continuous
100
AcDbLine
 10
53.31437499999999
 20
47.71582699999998
 30
0.0
 11
52.364375
 21
47.71582699999998
 31
0.0
  0
LINE
  5
9DBD
330
9D17
100
AcDbEntity
  8
1
  6
Continuous
100
AcDbLine
 10
53.31437499999999
 20
47.71582699999998
 30
0.0
 11
53.31437499999999
 21
50.715827
 31
0.0
  0
LINE
  5
9DBE
330
9D17
100
AcDbEntity
  8
1
  6
Continuous
100
AcDbLine
 10
21.81437499999999
 20
47.71582699999998
 30
0.0
 11
21.81437499999999
 21
50.715827
 31
0.0
  0
LINE
  5
9DBF
330
9D17
100
AcDbEntity
  8
1
  6
Continuous
100
AcDbLine
 10
22.764375
 20
50.715827
 30
0.0
 11
21.81437499999999
 21
50.715827
 31
0.0
  0
LINE
  5
9DC0
330
9D17
100
AcDbEntity
  8
1
  6
Continuous
100
AcDbLine
 10
22.764375
 20
47.71582699999998
 30
0.0
 11
21.81437499999999
 21
47.71582699999998
 31
0.0
  0
LINE
  5
9DC1
330
9D17
100
AcDbEntity
  8
1
  6
Continuous
100
AcDbLine
 10
52.764375
 20
42.865827
 30
0.0
 11
52.764375
 21
43.90922699999999
 31
0.0
  0
LINE
  5
9DC2
330
9D17
100
AcDbEntity
  8
1
  6
Continuous
100
AcDbLine
 10
52.764375
 20
54.522427
 30
0.0
 11
52.764375
 21
55.56582699999999
 31
0.0
  0
LINE
  5
9DC3
330
9D17
100
AcDbEntity
  8
1
  6
Continuous
100
AcDbLine
 10
22.764375
 20
41.615988
 30
0.0
 11
22.764375
 21
44.140427
 31
0.0
  0
LINE
  5
9DC4
330
9D17
100
AcDbEntity
  8
1
  6
Continuous
100
AcDbLine
 10
22.364375
 20
52.015827
 30
0.0
 11
22.364375
 21
52.346327
 31
0.0
  0
LINE
  5
9DC5
330
9D17
100
AcDbEntity
  8
1
  6
Continuous
100
AcDbLine
 10
22.764375
 20
46.41582699999999
 30
0.0
 11
22.764375
 21
52.015827
 31
0.0
  0
LINE
  5
9DC6
330
9D17
100
AcDbEntity
  8
1
  6
Continuous
100
AcDbLine
 10
49.56437499999999
 20
44.515827
 30
0.0
 11
48.760075
 21
44.515827
 31
0.0
  0
LINE
  5
9DC7
330
9D17
100
AcDbEntity
  8
1
  6
Continuous
100
AcDbLine
 10
26.368675
 20
44.515827
 30
0.0
 11
25.56437499999999
 21
44.515827
 31
0.0
  0
LINE
  5
9DC8
330
9D17
100
AcDbEntity
  8
4
  6
CENTER
 48
0.2
100
AcDbLine
 10
37.564375
 20
317.115727
 30
0.0
 11
37.564375
 21
294.715727
 31
0.0
  0
LINE
  5
9DC9
330
9D17
100
AcDbEntity
  8
1
  6
Continuous
100
AcDbLine
 10
22.364375
 20
312.865727
 30
0.0
 11
22.364375
 21
311.415727
 31
0.0
  0
LINE
  5
9DCA
330
9D17
100
AcDbEntity
  8
1
  6
Continuous
100
AcDbLine
 10
25.56437499999999
 20
314.1155659999999
 30
0.0
 11
25.56437499999999
 21
303.715727
 31
0.0
  0
LINE
  5
9DCB
330
9D17
100
AcDbEntity
  8
1
  6
Continuous
100
AcDbLine
 10
16.764375
 20
312.865727
 30
0.0
 11
16.764375
 21
311.8227269999998
 31
0.0
  0
LINE
  5
9DCC
330
9D17
100
AcDbEntity
  8
1
  6
Continuous
100
AcDbLine
 10
19.56437499999998
 20
312.865727
 30
0.0
 11
19.56437499999998
 21
309.3157269999998
 31
0.0
  0
LINE
  5
9DCD
330
9D17
100
AcDbEntity
  8
1
  6
Continuous
100
AcDbLine
 10
22.364375
 20
300.1657269999999
 30
0.0
 11
16.764375
 21
300.1657269999999
 31
0.0
  0
LINE
  5
9DCE
330
9D17
100
AcDbEntity
  8
1
  6
Continuous
100
AcDbLine
 10
22.364375
 20
312.865727
 30
0.0
 11
16.764375
 21
312.865727
 31
0.0
  0
LINE
  5
9DCF
330
9D17
100
AcDbEntity
  8
1
  6
Continuous
100
AcDbLine
 10
25.56437499999999
 20
303.715727
 30
0.0
 11
16.764375
 21
303.715727
 31
0.0
  0
LINE
  5
9DD0
330
9D17
100
AcDbEntity
  8
1
  6
Continuous
100
AcDbLine
 10
21.81437499999999
 20
309.3157269999998
 30
0.0
 11
16.764375
 21
309.3157269999998
 31
0.0
  0
LINE
  5
9DD1
330
9D17
100
AcDbEntity
  8
1
  6
Continuous
100
AcDbLine
 10
26.314375
 20
304.515727
 30
0.0
 11
25.56437499999999
 21
304.515727
 31
0.0
  0
LINE
  5
9DD2
330
9D17
100
AcDbEntity
  8
1
  6
Continuous
100
AcDbLine
 10
22.764275
 20
314.1155659999999
 30
0.0
 11
22.764275
 21
303.715727
 31
0.0
  0
LINE
  5
9DD3
330
9D17
100
AcDbEntity
  8
1
  6
Continuous
100
AcDbLine
 10
19.56437499999998
 20
303.715727
 30
0.0
 11
19.56437499999998
 21
300.1657269999999
 31
0.0
  0
LINE
  5
9DD4
330
9D17
100
AcDbEntity
  8
1
  6
Continuous
100
AcDbLine
 10
16.764375
 20
301.208727
 30
0.0
 11
16.764375
 21
300.1657269999999
 31
0.0
  0
LINE
  5
9DD5
330
9D17
100
AcDbEntity
  8
1
  6
Continuous
100
AcDbLine
 10
16.764375
 20
309.646727
 30
0.0
 11
16.764375
 21
303.3857269999998
 31
0.0
  0
LINE
  5
9DD6
330
9D17
100
AcDbEntity
  8
1
  6
Continuous
100
AcDbLine
 10
49.56437499999999
 20
314.1155659999999
 30
0.0
 11
49.56437499999999
 21
303.715727
 31
0.0
  0
LINE
  5
9DD7
330
9D17
100
AcDbEntity
  8
1
  6
Continuous
100
AcDbLine
 10
58.364175
 20
312.865727
 30
0.0
 11
58.364175
 21
311.8227269999998
 31
0.0
  0
LINE
  5
9DD8
330
9D17
100
AcDbEntity
  8
1
  6
Continuous
100
AcDbLine
 10
55.564375
 20
312.865727
 30
0.0
 11
55.564375
 21
309.3157269999998
 31
0.0
  0
LINE
  5
9DD9
330
9D17
100
AcDbEntity
  8
1
  6
Continuous
100
AcDbLine
 10
52.764375
 20
300.1657269999999
 30
0.0
 11
58.364175
 21
300.1657269999999
 31
0.0
  0
LINE
  5
9DDA
330
9D17
100
AcDbEntity
  8
1
  6
Continuous
100
AcDbLine
 10
52.764375
 20
312.865727
 30
0.0
 11
58.364175
 21
312.865727
 31
0.0
  0
LINE
  5
9DDB
330
9D17
100
AcDbEntity
  8
1
  6
Continuous
100
AcDbLine
 10
49.56437499999999
 20
303.715727
 30
0.0
 11
58.364175
 21
303.715727
 31
0.0
  0
LINE
  5
9DDC
330
9D17
100
AcDbEntity
  8
1
  6
Continuous
100
AcDbLine
 10
53.31437499999999
 20
309.3157269999998
 30
0.0
 11
58.364175
 21
309.3157269999998
 31
0.0
  0
LINE
  5
9DDD
330
9D17
100
AcDbEntity
  8
1
  6
Continuous
100
AcDbLine
 10
52.364375
 20
314.1155659999999
 30
0.0
 11
52.364375
 21
303.715727
 31
0.0
  0
LINE
  5
9DDE
330
9D17
100
AcDbEntity
  8
1
  6
Continuous
100
AcDbLine
 10
55.564375
 20
303.715727
 30
0.0
 11
55.564375
 21
300.1657269999999
 31
0.0
  0
LINE
  5
9DDF
330
9D17
100
AcDbEntity
  8
1
  6
Continuous
100
AcDbLine
 10
58.364175
 20
301.2097269999998
 30
0.0
 11
58.364175
 21
300.1657269999999
 31
0.0
  0
LINE
  5
9DE0
330
9D17
100
AcDbEntity
  8
1
  6
Continuous
100
AcDbLine
 10
58.364175
 20
309.646727
 30
0.0
 11
58.364175
 21
303.3857269999998
 31
0.0
  0
LINE
  5
9DE1
330
9D17
100
AcDbEntity
  8
1
  6
Continuous
100
AcDbLine
 10
48.814375
 20
304.515727
 30
0.0
 11
49.56437499999999
 21
304.515727
 31
0.0
  0
LINE
  5
9DE2
330
9D17
100
AcDbEntity
  8
4
  6
CENTER
 48
0.2
100
AcDbLine
 10
55.764375
 20
309.915727
 30
0.0
 11
19.364375
 21
309.915727
 31
0.0
  0
LINE
  5
9DE3
330
9D17
100
AcDbEntity
  8
1
  6
Continuous
100
AcDbLine
 10
49.56437499999999
 20
307.915727
 30
0.0
 11
25.56437499999999
 21
307.915727
 31
0.0
  0
LINE
  5
9DE4
330
9D17
100
AcDbEntity
  8
1
  6
Continuous
100
AcDbLine
 10
49.56437499999999
 20
311.915727
 30
0.0
 11
25.56437499999999
 21
311.915727
 31
0.0
  0
LINE
  5
9DE5
330
9D17
100
AcDbEntity
  8
1
  6
Continuous
100
AcDbLine
 10
53.31437499999999
 20
311.415727
 30
0.0
 11
53.31437499999999
 21
308.4157269999999
 31
0.0
  0
LINE
  5
9DE6
330
9D17
100
AcDbEntity
  8
1
  6
Continuous
100
AcDbLine
 10
21.81437499999999
 20
311.415727
 30
0.0
 11
21.81437499999999
 21
308.4157269999999
 31
0.0
  0
LINE
  5
9DE7
330
9D17
100
AcDbEntity
  8
1
  6
Continuous
100
AcDbLine
 10
21.81437499999999
 20
311.415727
 30
0.0
 11
22.764275
 21
311.415727
 31
0.0
  0
LINE
  5
9DE8
330
9D17
100
AcDbEntity
  8
1
  6
Continuous
100
AcDbLine
 10
21.81437499999999
 20
308.4157269999999
 30
0.0
 11
22.764275
 21
308.4157269999999
 31
0.0
  0
LINE
  5
9DE9
330
9D17
100
AcDbEntity
  8
1
  6
Continuous
100
AcDbLine
 10
52.364375
 20
311.415727
 30
0.0
 11
53.31437499999999
 21
311.415727
 31
0.0
  0
LINE
  5
9DEA
330
9D17
100
AcDbEntity
  8
1
  6
Continuous
100
AcDbLine
 10
52.364375
 20
308.4157269999999
 30
0.0
 11
53.31437499999999
 21
308.4157269999999
 31
0.0
  0
LINE
  5
9DEB
330
9D17
100
AcDbEntity
  8
4
  6
CENTER
 48
0.2
100
AcDbLine
 10
10.564375
 20
306.515727
 30
0.0
 11
64.564175
 21
306.515727
 31
0.0
  0
LINE
  5
9DED
330
9D17
100
AcDbEntity
  8
4
  6
CENTER
 48
0.2
100
AcDbLine
 10
64.564175
 20
49.215827
 30
0.0
 11
10.564375
 21
49.215827
 31
0.0
  0
LINE
  5
9DEE
330
9D17
100
AcDbEntity
  8
1
  6
Continuous
100
AcDbLine
 10
362.764175
 20
173.2157269999999
 30
0.0
 11
360.5589269999999
 21
175.075716
 31
0.0
  0
LINE
  5
9DEF
330
9D17
100
AcDbEntity
  8
1
  6
Continuous
100
AcDbLine
 10
362.3641749999999
 20
177.2157269999999
 30
0.0
 11
364.5690319999998
 21
175.3567569999999
 31
0.0
  0
LINE
  5
9DF0
330
9D17
100
AcDbEntity
  8
1
  6
Continuous
100
AcDbLine
 10
392.764175
 20
177.2157269999999
 30
0.0
 11
390.559318
 21
175.3567569999999
 31
0.0
  0
LINE
  5
9DF1
330
9D17
100
AcDbEntity
  8
1
  6
Continuous
100
AcDbLine
 10
392.3641749999999
 20
173.2157269999999
 30
0.0
 11
394.5694229999999
 21
175.075716
 31
0.0
  0
LINE
  5
9DF3
330
9D17
100
AcDbEntity
  8
1
  6
Continuous
100
AcDbLine
 10
368.3141749999998
 20
197.2157269999999
 30
0.0
 11
368.3141749999998
 21
183.2157269999999
 31
0.0
  0
LINE
  5
9DF4
330
9D17
100
AcDbEntity
  8
1
  6
Continuous
100
AcDbLine
 10
386.8141749999999
 20
197.2157269999999
 30
0.0
 11
386.8141749999999
 21
183.2157269999999
 31
0.0
  0
LINE
  5
9DFC
330
9D17
100
AcDbEntity
  8
1
  6
Continuous
100
AcDbLine
 10
22.364375
 20
303.715727
 30
0.0
 11
22.364375
 21
300.1657269999999
 31
0.0
  0
LINE
  5
9DFD
330
9D17
100
AcDbEntity
  8
1
  6
Continuous
100
AcDbLine
 10
52.764375
 20
300.1657269999999
 30
0.0
 11
52.764375
 21
303.715727
 31
0.0
  0
LINE
  5
9DFE
330
9D17
100
AcDbEntity
  8
1
  6
Continuous
100
AcDbLine
 10
52.764375
 20
311.415727
 30
0.0
 11
52.764375
 21
312.865727
 31
0.0
  0
LINE
  5
9DFF
330
9D17
100
AcDbEntity
  8
1
  6
Continuous
100
AcDbLine
 10
26.314375
 20
314.415727
 30
0.0
 11
48.814375
 21
314.415727
 31
0.0
  0
LINE
  5
9E00
330
9D17
100
AcDbEntity
  8
1
  6
Continuous
100
AcDbLine
 10
48.31437499999999
 20
307.915727
 30
0.0
 11
48.31437499999999
 21
301.215727
 31
0.0
  0
LINE
  5
9E01
330
9D17
100
AcDbEntity
  8
1
  6
Continuous
100
AcDbLine
 10
26.81437499999999
 20
307.915727
 30
0.0
 11
26.81437499999999
 21
301.215727
 31
0.0
  0
LINE
  5
9E02
330
9D17
100
AcDbEntity
  8
1
  6
Continuous
100
AcDbLine
 10
28.814375
 20
299.215727
 30
0.0
 11
46.31437499999999
 21
299.215727
 31
0.0
  0
LINE
  5
9E03
330
9D17
100
AcDbEntity
  8
1
  6
Continuous
100
AcDbLine
 10
26.314375
 20
306.915727
 30
0.0
 11
26.314375
 21
303.715727
 31
0.0
  0
LINE
  5
9E04
330
9D17
100
AcDbEntity
  8
1
  6
Continuous
100
AcDbLine
 10
48.814375
 20
306.915727
 30
0.0
 11
48.814375
 21
303.715727
 31
0.0
  0
LINE
  5
9E05
330
9D17
100
AcDbEntity
  8
1
  6
Continuous
100
AcDbLine
 10
52.364375
 20
41.615988
 30
0.0
 11
52.364375
 21
44.140427
 31
0.0
  0
LINE
  5
9E06
330
9D17
100
AcDbEntity
  8
1
  6
Continuous
100
AcDbLine
 10
22.364375
 20
42.865827
 30
0.0
 11
22.364375
 21
43.90922699999999
 31
0.0
  0
LINE
  5
9E07
330
9D17
100
AcDbEntity
  8
1
  6
Continuous
100
AcDbLine
 10
22.364375
 20
46.085327
 30
0.0
 11
22.364375
 21
46.41582699999999
 31
0.0
  0
LINE
  5
9E08
330
9D17
100
AcDbEntity
  8
1
  6
Continuous
100
AcDbLine
 10
22.364375
 20
54.522427
 30
0.0
 11
22.364375
 21
55.56582699999999
 31
0.0
  0
LINE
  5
9E09
330
9D17
100
AcDbEntity
  8
1
  6
Continuous
100
AcDbLine
 10
52.364375
 20
46.41582699999999
 30
0.0
 11
52.364375
 21
52.015827
 31
0.0
  0
LINE
  5
9E0A
330
9D17
100
AcDbEntity
  8
1
  6
Continuous
100
AcDbLine
 10
52.764375
 20
52.015827
 30
0.0
 11
52.764375
 21
52.346327
 31
0.0
  0
LINE
  5
9E0B
330
9D17
100
AcDbEntity
  8
1
  6
Continuous
100
AcDbLine
 10
46.634675
 20
51.21582700000001
 30
0.0
 11
45.564375
 21
51.21582700000001
 31
0.0
  0
LINE
  5
9E0C
330
9D17
100
AcDbEntity
  8
1
  6
Continuous
100
AcDbLine
 10
46.712775
 20
47.21582699999999
 30
0.0
 11
28.40217499999999
 21
47.21582699999999
 31
0.0
  0
LINE
  5
9E0D
330
9D17
100
AcDbEntity
  8
1
  6
Continuous
100
AcDbLine
 10
29.56437499999999
 20
51.21582700000001
 30
0.0
 11
28.49407499999999
 21
51.21582700000001
 31
0.0
  0
LINE
  5
9E0E
330
9D17
100
AcDbEntity
  8
1
  6
Continuous
100
AcDbLine
 10
46.564375
 20
54.515827
 30
0.0
 11
46.814375
 21
41.715827
 31
0.0
  0
LINE
  5
9E0F
330
9D17
100
AcDbEntity
  8
1
  6
Continuous
100
AcDbLine
 10
28.564375
 20
54.515827
 30
0.0
 11
28.31437499999999
 21
41.715827
 31
0.0
  0
LINE
  5
9E10
330
9D17
100
AcDbEntity
  8
1
  6
Continuous
100
AcDbLine
 10
48.563966
 20
54.55487399999999
 30
0.0
 11
48.814675
 21
41.715827
 31
0.0
  0
LINE
  5
9E11
330
9D17
100
AcDbEntity
  8
1
  6
Continuous
100
AcDbLine
 10
26.564683
 20
54.55487399999999
 30
0.0
 11
26.313975
 21
41.715827
 31
0.0
  0
LINE
  5
9E12
330
9D17
100
AcDbEntity
  8
1
  6
Continuous
100
AcDbLine
 10
45.564375
 20
51.015827
 30
0.0
 11
29.56437499999999
 21
51.015827
 31
0.0
  0
LINE
  5
9E13
330
9D17
100
AcDbEntity
  8
1
  6
Continuous
100
AcDbLine
 10
30.56437499999999
 20
162.7157269999998
 30
0.0
 11
44.56437499999998
 21
162.7157269999998
 31
0.0
  0
LINE
  5
9E14
330
9D17
100
AcDbEntity
  8
1
  6
Continuous
100
AcDbLine
 10
48.814375
 20
197.2157269999999
 30
0.0
 11
48.814375
 21
162.7157269999998
 31
0.0
  0
LINE
  5
9E15
330
9D17
100
AcDbEntity
  8
1
  6
Continuous
100
AcDbLine
 10
26.314375
 20
197.2157269999999
 30
0.0
 11
26.314375
 21
162.7157269999998
 31
0.0
  0
LINE
  5
9E17
330
9D17
100
AcDbEntity
  8
1
  6
Continuous
100
AcDbLine
 10
26.314375
 20
303.715727
 30
0.0
 11
26.81437499999999
 21
303.715727
 31
0.0
  0
LINE
  5
9E18
330
9D17
100
AcDbEntity
  8
1
  6
Continuous
100
AcDbLine
 10
26.53048
 20
301.1812429999999
 30
0.0
 11
26.486775
 21
303.715727
 31
0.0
  0
LINE
  5
9E19
330
9D17
100
AcDbEntity
  8
1
  6
Continuous
100
AcDbLine
 10
28.302275
 20
314.415727
 30
0.0
 11
28.34532199999999
 21
311.915727
 31
0.0
  0
LINE
  5
9E1A
330
9D17
100
AcDbEntity
  8
1
  6
Continuous
100
AcDbLine
 10
48.814375
 20
313.4167269999998
 30
0.0
 11
48.78846
 21
311.915727
 31
0.0
  0
LINE
  5
9E1B
330
9D17
100
AcDbEntity
  8
1
  6
Continuous
100
AcDbLine
 10
46.778165
 20
311.915727
 30
0.0
 11
46.820275
 21
314.415727
 31
0.0
  0
LINE
  5
9E1C
330
9D17
100
AcDbEntity
  8
1
  6
Continuous
100
AcDbLine
 10
26.340216
 20
311.915727
 30
0.0
 11
26.314375
 21
313.415727
 31
0.0
  0
LINE
  5
9E1D
330
9D17
100
AcDbEntity
  8
1
  6
Continuous
100
AcDbLine
 10
48.31437499999999
 20
303.715727
 30
0.0
 11
48.814375
 21
303.715727
 31
0.0
  0
LINE
  5
9E1E
330
9D17
100
AcDbEntity
  8
1
  6
Continuous
100
AcDbLine
 10
48.714408
 20
307.915727
 30
0.0
 11
48.697075
 21
306.915727
 31
0.0
  0
LINE
  5
9E21
330
9D17
100
AcDbEntity
  8
1
  6
Continuous
100
AcDbLine
 10
48.814375
 20
52.015827
 30
0.0
 11
48.613575
 21
52.015827
 31
0.0
  0
LINE
  5
9E22
330
9D17
100
AcDbEntity
  8
1
  6
Continuous
100
AcDbLine
 10
26.515175
 20
52.015827
 30
0.0
 11
26.314375
 21
52.015827
 31
0.0
  0
LINE
  5
9E23
330
9D17
100
AcDbEntity
  8
1
  6
Continuous
100
AcDbLine
 10
48.814375
 20
311.915727
 30
0.0
 11
48.814375
 21
314.415727
 31
0.0
  0
LINE
  5
9E26
330
9D17
100
AcDbEntity
  8
1
  6
Continuous
100
AcDbLine
 10
26.314375
 20
306.915727
 30
0.0
 11
26.81437499999999
 21
306.915727
 31
0.0
  0
LINE
  5
9E27
330
9D17
100
AcDbEntity
  8
1
  6
Continuous
100
AcDbLine
 10
48.31437499999999
 20
306.915727
 30
0.0
 11
48.814375
 21
306.915727
 31
0.0
  0
LINE
  5
9E28
330
9D17
100
AcDbEntity
  8
1
  6
Continuous
100
AcDbLine
 10
26.431575
 20
306.915727
 30
0.0
 11
26.414241
 21
307.915727
 31
0.0
  0
LINE
  5
9E29
330
9D17
100
AcDbEntity
  8
1
  6
Continuous
100
AcDbLine
 10
48.641975
 20
303.715727
 30
0.0
 11
48.598269
 21
301.1812429999999
 31
0.0
  0
LINE
  5
9E2A
330
9D17
100
AcDbEntity
  8
1
  6
Continuous
100
AcDbLine
 10
30.56437499999999
 20
150.7357269999999
 30
0.0
 11
44.56437499999998
 21
150.7357269999999
 31
0.0
  0
LINE
  5
9E2D
330
9D17
100
AcDbEntity
  8
1
  6
Continuous
100
AcDbLine
 10
30.56437499999999
 20
197.715727
 30
0.0
 11
44.56437499999998
 21
197.715727
 31
0.0
  0
LINE
  5
9E2E
330
9D17
100
AcDbEntity
  8
1
  6
Continuous
100
AcDbLine
 10
105.0641749999999
 20
235.2157269999999
 30
0.0
 11
130.0641749999999
 21
235.2157269999999
 31
0.0
  0
LINE
  5
9E2F
330
9D17
100
AcDbEntity
  8
1
  6
Continuous
100
AcDbLine
 10
107.0641749999999
 20
210.2157269999999
 30
0.0
 11
128.0641749999999
 21
210.2157269999999
 31
0.0
  0
LINE
  5
9E30
330
9D17
100
AcDbEntity
  8
1
  6
Continuous
100
AcDbLine
 10
107.0641749999999
 20
223.2157269999999
 30
0.0
 11
107.0641749999999
 21
210.2157269999999
 31
0.0
  0
LINE
  5
9E31
330
9D17
100
AcDbEntity
  8
4
  6
CENTER
 48
0.2
100
AcDbLine
 10
100.3141749999999
 20
229.2157269999999
 30
0.0
 11
109.8141749999999
 21
229.2157269999999
 31
0.0
  0
LINE
  5
9E32
330
9D17
100
AcDbEntity
  8
4
  6
CENTER
 48
0.2
100
AcDbLine
 10
105.0641749999999
 20
233.965727
 30
0.0
 11
105.0641749999999
 21
224.4657269999999
 31
0.0
  0
LINE
  5
9E33
330
9D17
100
AcDbEntity
  8
4
  6
CENTER
 48
0.2
100
AcDbLine
 10
130.0641749999999
 20
233.965727
 30
0.0
 11
130.0641749999999
 21
224.4657269999999
 31
0.0
  0
LINE
  5
9E34
330
9D17
100
AcDbEntity
  8
4
  6
CENTER
 48
0.2
100
AcDbLine
 10
134.8141749999999
 20
229.2157269999999
 30
0.0
 11
125.3141749999999
 21
229.2157269999999
 31
0.0
  0
LINE
  5
9E35
330
9D17
100
AcDbEntity
  8
1
  6
Continuous
100
AcDbLine
 10
128.0641749999999
 20
223.2157269999999
 30
0.0
 11
128.0641749999999
 21
210.2157269999999
 31
0.0
  0
LINE
  5
9E36
330
9D17
100
AcDbEntity
  8
1
  6
Continuous
100
AcDbLine
 10
272.8641749999998
 20
235.2157269999999
 30
0.0
 11
274.8641749999998
 21
235.2157269999999
 31
0.0
  0
LINE
  5
9E37
330
9D17
100
AcDbEntity
  8
1
  6
Continuous
100
AcDbLine
 10
274.8641749999998
 20
235.2157269999999
 30
0.0
 11
274.8641749999998
 21
214.7157269999999
 31
0.0
  0
LINE
  5
9E38
330
9D17
100
AcDbEntity
  8
1
  6
Continuous
100
AcDbLine
 10
272.8641749999998
 20
235.2157269999999
 30
0.0
 11
272.8641749999998
 21
214.7157269999999
 31
0.0
  0
LINE
  5
9E39
330
9D17
100
AcDbEntity
  8
1
  6
Continuous
100
AcDbLine
 10
105.0641749999999
 20
223.2157269999999
 30
0.0
 11
107.0641749999999
 21
223.2157269999999
 31
0.0
  0
LINE
  5
9E3A
330
9D17
100
AcDbEntity
  8
1
  6
Continuous
100
AcDbLine
 10
128.0641749999999
 20
223.2157269999999
 30
0.0
 11
130.0641749999999
 21
223.2157269999999
 31
0.0
  0
LINE
  5
9E3B
330
9D17
100
AcDbEntity
  8
1
  6
Continuous
100
AcDbLine
 10
272.8641749999998
 20
223.2157269999999
 30
0.0
 11
274.8641749999998
 21
223.2157269999999
 31
0.0
  0
LINE
  5
9E3C
330
9D17
100
AcDbEntity
  8
1
  6
Continuous
100
AcDbLine
 10
25.56437499999999
 20
44.015827
 30
0.0
 11
26.358875
 21
44.015827
 31
0.0
  0
LINE
  5
9E3D
330
9D17
100
AcDbEntity
  8
1
  6
Continuous
100
AcDbLine
 10
48.814375
 20
44.015827
 30
0.0
 11
49.56437499999999
 21
44.015827
 31
0.0
  0
LINE
  5
9E3E
330
9D17
100
AcDbEntity
  8
1
  6
Continuous
100
AcDbLine
 10
99.06417500000001
 20
312.4157269999999
 30
0.0
 11
136.064175
 21
312.4157269999999
 31
0.0
  0
LINE
  5
9E3F
330
9D17
100
AcDbEntity
  8
1
  6
Continuous
100
AcDbLine
 10
99.06417500000001
 20
314.415727
 30
0.0
 11
99.06417500000001
 21
312.4157269999999
 31
0.0
  0
LINE
  5
9E40
330
9D17
100
AcDbEntity
  8
1
  6
Continuous
100
AcDbLine
 10
136.064175
 20
314.415727
 30
0.0
 11
136.064175
 21
312.4157269999999
 31
0.0
  0
LINE
  5
9E41
330
9D17
100
AcDbEntity
  8
1
  6
Continuous
100
AcDbLine
 10
265.619175
 20
218.2157269999999
 30
0.0
 11
268.167175
 21
213.522727
 31
0.0
  0
LINE
  5
9E42
330
9D17
100
AcDbEntity
  8
1
  6
Continuous
100
AcDbLine
 10
263.864175
 20
217.256727
 30
0.0
 11
266.409175
 21
212.5687269999999
 31
0.0
  0
LINE
  5
9E43
330
9D17
100
AcDbEntity
  8
1
  6
Continuous
100
AcDbLine
 10
263.864175
 20
217.256727
 30
0.0
 11
265.619175
 21
218.2157269999999
 31
0.0
  0
LINE
  5
9E44
330
9D17
100
AcDbEntity
  8
1
  6
Continuous
100
AcDbLine
 10
108.5641749999999
 20
217.256727
 30
0.0
 11
126.5641749999999
 21
217.256727
 31
0.0
  0
LINE
  5
9E45
330
9D17
100
AcDbEntity
  8
1
  6
Continuous
100
AcDbLine
 10
108.5641749999999
 20
218.2157269999999
 30
0.0
 11
126.5641749999999
 21
218.2157269999999
 31
0.0
  0
LINE
  5
9E46
330
9D17
100
AcDbEntity
  8
1
  6
Continuous
100
AcDbLine
 10
108.564175
 20
303.415727
 30
0.0
 11
126.564175
 21
303.415727
 31
0.0
  0
LINE
  5
9E47
330
9D17
100
AcDbEntity
  8
1
  6
Continuous
100
AcDbLine
 10
108.564175
 20
305.170727
 30
0.0
 11
126.564175
 21
305.170727
 31
0.0
  0
LINE
  5
9E48
330
9D17
100
AcDbEntity
  8
4
  6
CENTER
 48
0.2
100
AcDbLine
 10
269.8641749999998
 20
229.2157269999999
 30
0.0
 11
277.8641749999998
 21
229.2157269999999
 31
0.0
  0
LINE
  5
9E49
330
9D17
100
AcDbEntity
  8
1
  6
Continuous
100
AcDbLine
 10
470.0641749999999
 20
235.2157269999999
 30
0.0
 11
445.0641749999999
 21
235.2157269999999
 31
0.0
  0
LINE
  5
9E4A
330
9D17
100
AcDbEntity
  8
1
  6
Continuous
100
AcDbLine
 10
468.0641749999998
 20
210.2157269999999
 30
0.0
 11
447.0641749999998
 21
210.2157269999999
 31
0.0
  0
LINE
  5
9E4B
330
9D17
100
AcDbEntity
  8
1
  6
Continuous
100
AcDbLine
 10
468.0641749999998
 20
223.2157269999999
 30
0.0
 11
468.0641749999998
 21
210.2157269999999
 31
0.0
  0
LINE
  5
9E4C
330
9D17
100
AcDbEntity
  8
4
  6
CENTER
 48
0.2
100
AcDbLine
 10
474.814175
 20
229.2157269999999
 30
0.0
 11
465.3141749999998
 21
229.2157269999999
 31
0.0
  0
LINE
  5
9E4D
330
9D17
100
AcDbEntity
  8
4
  6
CENTER
 48
0.2
100
AcDbLine
 10
470.0641749999999
 20
233.965727
 30
0.0
 11
470.0641749999999
 21
224.4657269999999
 31
0.0
  0
LINE
  5
9E4E
330
9D17
100
AcDbEntity
  8
4
  6
CENTER
 48
0.2
100
AcDbLine
 10
445.0641749999999
 20
233.965727
 30
0.0
 11
445.0641749999999
 21
224.4657269999999
 31
0.0
  0
LINE
  5
9E4F
330
9D17
100
AcDbEntity
  8
4
  6
CENTER
 48
0.2
100
AcDbLine
 10
440.3141749999998
 20
229.2157269999999
 30
0.0
 11
449.814175
 21
229.2157269999999
 31
0.0
  0
LINE
  5
9E50
330
9D17
100
AcDbEntity
  8
1
  6
Continuous
100
AcDbLine
 10
447.0641749999998
 20
223.2157269999999
 30
0.0
 11
447.0641749999998
 21
210.2157269999999
 31
0.0
  0
LINE
  5
9E51
330
9D17
100
AcDbEntity
  8
1
  6
Continuous
100
AcDbLine
 10
470.0641749999999
 20
223.2157269999999
 30
0.0
 11
468.0641749999998
 21
223.2157269999999
 31
0.0
  0
LINE
  5
9E52
330
9D17
100
AcDbEntity
  8
1
  6
Continuous
100
AcDbLine
 10
447.0641749999998
 20
223.2157269999999
 30
0.0
 11
445.0641749999999
 21
223.2157269999999
 31
0.0
  0
LINE
  5
9E59
330
9D17
100
AcDbEntity
  8
1
  6
Continuous
100
AcDbLine
 10
107.064175
 20
312.4157269999999
 30
0.0
 11
107.064175
 21
304.915727
 31
0.0
  0
LINE
  5
9E5A
330
9D17
100
AcDbEntity
  8
1
  6
Continuous
100
AcDbLine
 10
128.064175
 20
312.4157269999999
 30
0.0
 11
128.064175
 21
304.915727
 31
0.0
  0
LINE
  5
9E5B
330
9D17
100
AcDbEntity
  8
1
  6
Continuous
100
AcDbLine
 10
46.564375
 20
314.415727
 30
0.0
 11
46.564375
 21
311.915727
 31
0.0
  0
LINE
  5
9E5C
330
9D17
100
AcDbEntity
  8
1
  6
Continuous
100
AcDbLine
 10
28.564375
 20
314.415727
 30
0.0
 11
28.564375
 21
311.915727
 31
0.0
  0
LINE
  5
9E5D
330
9D17
100
AcDbEntity
  8
1
  6
Continuous
100
AcDbLine
 10
26.314375
 20
314.415727
 30
0.0
 11
26.314375
 21
311.915727
 31
0.0
  0
LINE
  5
9E5E
330
9D17
100
AcDbEntity
  8
1
  6
Continuous
100
AcDbLine
 10
99.06417500000001
 20
314.415727
 30
0.0
 11
136.064175
 21
314.415727
 31
0.0
  0
LINE
  5
9E5F
330
9D17
100
AcDbEntity
  8
4
  6
CENTER
 48
0.2
100
AcDbLine
 10
117.5641749999999
 20
240.215727
 30
0.0
 11
117.5641749999999
 21
205.215727
 31
0.0
  0
LINE
  5
9E60
330
9D17
100
AcDbEntity
  8
4
  6
CENTER
 48
0.2
100
AcDbLine
 10
105.0641749999999
 20
214.2157269999999
 30
0.0
 11
130.0641749999999
 21
214.2157269999999
 31
0.0
  0
LINE
  5
9E61
330
9D17
100
AcDbEntity
  8
4
  6
CENTER
 48
0.2
100
AcDbLine
 10
457.5641749999999
 20
240.215727
 30
0.0
 11
457.5641749999999
 21
203.7157269999999
 31
0.0
  0
LINE
  5
9E62
330
9D17
100
AcDbEntity
  8
4
  6
CENTER
 48
0.2
100
AcDbLine
 10
445.0641749999999
 20
214.2157269999999
 30
0.0
 11
470.0641749999999
 21
214.2157269999999
 31
0.0
  0
LINE
  5
9E66
330
9D17
100
AcDbEntity
  8
4
  6
CENTER
 48
0.1
100
AcDbLine
 10
34.064375
 20
175.215727
 30
0.0
 11
41.06437499999999
 21
175.215727
 31
0.0
  0
LINE
  5
9E67
330
9D17
100
AcDbEntity
  8
4
  6
CENTER
 48
0.1
100
AcDbLine
 10
34.064375
 20
147.2157269999998
 30
0.0
 11
41.06437499999999
 21
147.2157269999998
 31
0.0
  0
LINE
  5
9E68
330
9D17
100
AcDbEntity
  8
4
  6
CENTER
 48
0.2
100
AcDbLine
 10
117.564175
 20
320.8591119999998
 30
0.0
 11
117.564175
 21
298.415727
 31
0.0
  0
LINE
  5
9E69
330
9D17
100
AcDbEntity
  8
4
  6
CENTER
 48
0.2
100
AcDbLine
 10
105.064175
 20
309.915727
 30
0.0
 11
130.064175
 21
309.915727
 31
0.0
  0
ARC
  5
9E6A
330
9D17
100
AcDbEntity
  8
1
  6
Continuous
100
AcDbCircle
 10
37.564375
 20
145.2157269999998
 30
0.0
 40
8.0
100
AcDbArc
 50
180.0
 51
0.00001
  0
CIRCLE
  5
9E6B
330
9D17
100
AcDbEntity
  8
1
  6
Continuous
100
AcDbCircle
 10
377.5641749999999
 20
147.2157269999998
 30
0.0
 40
2.649999999999999
  0
CIRCLE
  5
9E6C
330
9D17
100
AcDbEntity
  8
1
  6
Continuous
100
AcDbCircle
 10
377.5641749999999
 20
161.2157269999999
 30
0.0
 40
2.649999999999999
  0
CIRCLE
  5
9E6D
330
9D17
100
AcDbEntity
  8
1
  6
Continuous
100
AcDbCircle
 10
377.5641749999999
 20
175.215727
 30
0.0
 40
2.649999999999999
  0
ARC
  5
9E6E
330
9D17
100
AcDbEntity
  8
1
  6
Continuous
100
AcDbCircle
 10
381.5641749999999
 20
192.715727
 30
0.0
 40
1.5
100
AcDbArc
 50
0.0
 51
180.0
  0
ARC
  5
9E6F
330
9D17
100
AcDbEntity
  8
1
  6
Continuous
100
AcDbCircle
 10
381.5641749999999
 20
181.7157269999999
 30
0.0
 40
1.5
100
AcDbArc
 50
180.0
 51
0.0
  0
ARC
  5
9E70
330
9D17
100
AcDbEntity
  8
1
  6
Continuous
100
AcDbCircle
 10
373.5641749999999
 20
192.715727
 30
0.0
 40
1.5
100
AcDbArc
 50
0.0
 51
180.0
  0
ARC
  5
9E71
330
9D17
100
AcDbEntity
  8
1
  6
Continuous
100
AcDbCircle
 10
373.5641749999999
 20
181.7157269999999
 30
0.0
 40
1.5
100
AcDbArc
 50
180.0
 51
0.0
  0
ARC
  5
9E77
330
9D17
100
AcDbEntity
  8
1
  6
Continuous
100
AcDbCircle
 10
55.564375
 20
49.215827
 30
0.0
 40
6.0
100
AcDbArc
 50
297.818
 51
62.18189999999999
  0
ARC
  5
9E78
330
9D17
100
AcDbEntity
  8
1
  6
Continuous
100
AcDbCircle
 10
19.56437499999998
 20
49.215827
 30
0.0
 40
4.2
100
AcDbArc
 50
270.0
 51
318.19
  0
ARC
  5
9E79
330
9D17
100
AcDbEntity
  8
1
  6
Continuous
100
AcDbCircle
 10
55.564375
 20
49.215827
 30
0.0
 40
4.2
100
AcDbArc
 50
311.81
 51
48.1897
  0
ARC
  5
9E7A
330
9D17
100
AcDbEntity
  8
1
  6
Continuous
100
AcDbCircle
 10
55.564375
 20
49.215827
 30
0.0
 40
4.2
100
AcDbArc
 50
221.81
 51
270.0
  0
ARC
  5
9E7B
330
9D17
100
AcDbEntity
  8
1
  6
Continuous
100
AcDbCircle
 10
55.564375
 20
49.215827
 30
0.0
 40
6.0
100
AcDbArc
 50
207.8179999999999
 51
270.0
  0
ARC
  5
9E7C
330
9D17
100
AcDbEntity
  8
1
  6
Continuous
100
AcDbCircle
 10
55.564375
 20
49.215827
 30
0.0
 40
6.0
100
AcDbArc
 50
90.0
 51
152.1819999999999
  0
ARC
  5
9E7D
330
9D17
100
AcDbEntity
  8
1
  6
Continuous
100
AcDbCircle
 10
55.564375
 20
49.215827
 30
0.0
 40
4.2
100
AcDbArc
 50
90.0
 51
138.1899999999999
  0
ARC
  5
9E7E
330
9D17
100
AcDbEntity
  8
1
  6
Continuous
100
AcDbCircle
 10
19.56437499999998
 20
49.215827
 30
0.0
 40
6.0
100
AcDbArc
 50
117.818
 51
242.1819999999999
  0
ARC
  5
9E7F
330
9D17
100
AcDbEntity
  8
1
  6
Continuous
100
AcDbCircle
 10
19.56437499999998
 20
49.215827
 30
0.0
 40
6.0
100
AcDbArc
 50
27.8181
 51
90.0
  0
ARC
  5
9E80
330
9D17
100
AcDbEntity
  8
1
  6
Continuous
100
AcDbCircle
 10
19.56437499999998
 20
49.215827
 30
0.0
 40
6.0
100
AcDbArc
 50
270.0
 51
332.1819999999997
  0
ARC
  5
9E81
330
9D17
100
AcDbEntity
  8
1
  6
Continuous
100
AcDbCircle
 10
19.56437499999998
 20
49.215827
 30
0.0
 40
4.2
100
AcDbArc
 50
131.81
 51
228.1899999999999
  0
ARC
  5
9E82
330
9D17
100
AcDbEntity
  8
1
  6
Continuous
100
AcDbCircle
 10
19.56437499999998
 20
49.215827
 30
0.0
 40
4.2
100
AcDbArc
 50
41.81009999999999
 51
90.0
  0
ARC
  5
9E83
330
9D17
100
AcDbEntity
  8
1
  6
Continuous
100
AcDbCircle
 10
19.56437499999998
 20
306.515727
 30
0.0
 40
6.0
100
AcDbArc
 50
57.7692
 51
62.18199999999998
  0
ARC
  5
9E84
330
9D17
100
AcDbEntity
  8
1
  6
Continuous
100
AcDbCircle
 10
19.56437499999998
 20
306.515727
 30
0.0
 40
4.2
100
AcDbArc
 50
90.0
 51
270.0
  0
ARC
  5
9E85
330
9D17
100
AcDbEntity
  8
1
  6
Continuous
100
AcDbCircle
 10
19.56437499999998
 20
306.515727
 30
0.0
 40
4.2
100
AcDbArc
 50
311.81
 51
318.19
  0
ARC
  5
9E86
330
9D17
100
AcDbEntity
  8
1
  6
Continuous
100
AcDbCircle
 10
19.56437499999998
 20
306.515727
 30
0.0
 40
6.0
100
AcDbArc
 50
297.818
 51
332.1819999999997
  0
ARC
  5
9E87
330
9D17
100
AcDbEntity
  8
1
  6
Continuous
100
AcDbCircle
 10
55.564375
 20
306.515727
 30
0.0
 40
6.0
100
AcDbArc
 50
270.0
 51
90.0
  0
ARC
  5
9E88
330
9D17
100
AcDbEntity
  8
1
  6
Continuous
100
AcDbCircle
 10
55.564375
 20
306.515727
 30
0.0
 40
4.2
100
AcDbArc
 50
270.0
 51
90.0
  0
ARC
  5
9E89
330
9D17
100
AcDbEntity
  8
1
  6
Continuous
100
AcDbCircle
 10
55.564375
 20
306.515727
 30
0.0
 40
4.2
100
AcDbArc
 50
221.81
 51
228.1899999999999
  0
ARC
  5
9E8A
330
9D17
100
AcDbEntity
  8
1
  6
Continuous
100
AcDbCircle
 10
55.564375
 20
306.515727
 30
0.0
 40
6.0
100
AcDbArc
 50
207.8179999999999
 51
242.1819999999999
  0
ARC
  5
9E91
330
9D17
100
AcDbEntity
  8
1
  6
Continuous
100
AcDbCircle
 10
19.56437499999998
 20
306.515727
 30
0.0
 40
6.0
100
AcDbArc
 50
90.0
 51
270.0
  0
ARC
  5
9E92
330
9D17
100
AcDbEntity
  8
1
  6
Continuous
100
AcDbCircle
 10
55.564375
 20
306.515727
 30
0.0
 40
6.0
100
AcDbArc
 50
117.818
 51
122.231
  0
ARC
  5
9E93
330
9D17
100
AcDbEntity
  8
1
  6
Continuous
100
AcDbCircle
 10
37.564375
 20
49.115827
 30
0.0
 40
8.900009999999998
100
AcDbArc
 50
25.9894
 51
154.011
  0
ARC
  5
9E94
330
9D17
100
AcDbEntity
  8
1
  6
Continuous
100
AcDbCircle
 10
37.564375
 20
47.430427
 30
0.0
 40
8.766719999999997
100
AcDbArc
 50
24.141
 51
155.859
  0
ARC
  5
9E97
330
9D17
100
AcDbEntity
  8
1
  6
Continuous
100
AcDbCircle
 10
105.0641749999999
 20
229.2157269999999
 30
0.0
 40
6.0
100
AcDbArc
 50
90.0
 51
270.0
  0
CIRCLE
  5
9E98
330
9D17
100
AcDbEntity
  8
1
  6
Continuous
100
AcDbCircle
 10
105.0641749999999
 20
229.2157269999999
 30
0.0
 40
2.75
  0
CIRCLE
  5
9E99
330
9D17
100
AcDbEntity
  8
1
  6
Continuous
100
AcDbCircle
 10
130.0641749999999
 20
229.2157269999999
 30
0.0
 40
2.75
  0
ARC
  5
9E9A
330
9D17
100
AcDbEntity
  8
1
  6
Continuous
100
AcDbCircle
 10
130.0641749999999
 20
229.2157269999999
 30
0.0
 40
6.0
100
AcDbArc
 50
270.0
 51
90.0
  0
ARC
  5
9E9B
330
9D17
100
AcDbEntity
  8
1
  6
Continuous
100
AcDbCircle
 10
270.364175
 20
214.7157269999999
 30
0.0
 40
4.5
100
AcDbArc
 50
208.4999999999999
 51
0.0
  0
ARC
  5
9E9C
330
9D17
100
AcDbEntity
  8
1
  6
Continuous
100
AcDbCircle
 10
126.5641749999999
 20
215.756727
 30
0.0
 40
1.5
100
AcDbArc
 50
0.0
 51
90.0
  0
ARC
  5
9E9D
330
9D17
100
AcDbEntity
  8
1
  6
Continuous
100
AcDbCircle
 10
108.5641749999999
 20
215.756727
 30
0.0
 40
1.5
100
AcDbArc
 50
90.0
 51
180.0
  0
ARC
  5
9E9E
330
9D17
100
AcDbEntity
  8
1
  6
Continuous
100
AcDbCircle
 10
126.5641749999999
 20
216.7157269999999
 30
0.0
 40
1.5
100
AcDbArc
 50
0.0
 51
90.0
  0
ARC
  5
9E9F
330
9D17
100
AcDbEntity
  8
1
  6
Continuous
100
AcDbCircle
 10
108.5641749999999
 20
216.7157269999999
 30
0.0
 40
1.5
100
AcDbArc
 50
90.0
 51
180.0
  0
ARC
  5
9EA0
330
9D17
100
AcDbEntity
  8
1
  6
Continuous
100
AcDbCircle
 10
108.564175
 20
304.915727
 30
0.0
 40
1.5
100
AcDbArc
 50
180.0
 51
270.0
  0
ARC
  5
9EA1
330
9D17
100
AcDbEntity
  8
1
  6
Continuous
100
AcDbCircle
 10
126.564175
 20
304.915727
 30
0.0
 40
1.5
100
AcDbArc
 50
270.0
 51
0.000001
  0
ARC
  5
9EA2
330
9D17
100
AcDbEntity
  8
1
  6
Continuous
100
AcDbCircle
 10
126.564175
 20
306.670727
 30
0.0
 40
1.5
100
AcDbArc
 50
270.0
 51
0.000001
  0
ARC
  5
9EA3
330
9D17
100
AcDbEntity
  8
1
  6
Continuous
100
AcDbCircle
 10
108.564175
 20
306.670727
 30
0.0
 40
1.5
100
AcDbArc
 50
180.0
 51
270.0
  0
ARC
  5
9EA4
330
9D17
100
AcDbEntity
  8
1
  6
Continuous
100
AcDbCircle
 10
470.0641749999999
 20
229.2157269999999
 30
0.0
 40
6.0
100
AcDbArc
 50
270.0
 51
90.0
  0
CIRCLE
  5
9EA5
330
9D17
100
AcDbEntity
  8
1
  6
Continuous
100
AcDbCircle
 10
470.0641749999999
 20
229.2157269999999
 30
0.0
 40
2.75
  0
CIRCLE
  5
9EA6
330
9D17
100
AcDbEntity
  8
1
  6
Continuous
100
AcDbCircle
 10
445.0641749999999
 20
229.2157269999999
 30
0.0
 40
2.75
  0
ARC
  5
9EA7
330
9D17
100
AcDbEntity
  8
1
  6
Continuous
100
AcDbCircle
 10
445.0641749999999
 20
229.2157269999999
 30
0.0
 40
6.0
100
AcDbArc
 50
90.0
 51
270.0
  0
ARC
  5
9EA9
330
9D17
100
AcDbEntity
  8
1
  6
Continuous
100
AcDbCircle
 10
270.364175
 20
214.7157269999999
 30
0.0
 40
2.5
100
AcDbArc
 50
208.4999999999999
 51
0.0
  0
ARC
  5
9EC4
330
9D17
100
AcDbEntity
  8
1
  6
Continuous
100
AcDbCircle
 10
377.5641749999999
 20
145.2157269999998
 30
0.0
 40
8.0
100
AcDbArc
 50
205.9444797723699
 51
334.0555202276301
  0
LINE
  5
9EC5
330
9D17
100
AcDbEntity
  8
1
  6
Continuous
100
AcDbLine
 10
45.564375
 20
141.7157269999998
 30
0.0
 11
44.75812228496907
 21
141.7157269999998
 31
0.0
  0
LINE
  5
9EC6
330
9D17
100
AcDbEntity
  8
1
  6
Continuous
100
AcDbLine
 10
30.37062771503091
 20
141.7157269999999
 30
0.0
 11
29.56437499999999
 21
141.7157269999998
 31
0.0
  0
LINE
  5
9EC7
330
9D17
100
AcDbEntity
  8
4
  6
CENTER
 48
0.2
100
AcDbLine
 10
265.3641749999998
 20
214.2157269999999
 30
0.0
 11
275.3641749999998
 21
214.2157269999999
 31
0.0
  0
LINE
  5
9EC8
330
9D17
100
AcDbEntity
  8
4
  6
CENTER
 48
0.2
100
AcDbLine
 10
270.364175
 20
209.215727
 30
0.0
 11
270.364175
 21
219.2157269999999
 31
0.0
  0
LINE
  5
9F16
330
9D17
100
AcDbEntity
  8
1
  6
Continuous
100
AcDbLine
 10
395.5641749999998
 20
177.216062
 30
0.0
 11
395.5641749999998
 21
187.0567554664055
 31
0.0
  0
LINE
  5
9F17
330
9D17
100
AcDbEntity
  8
1
  6
Continuous
100
AcDbLine
 10
392.764175
 20
177.2157269999999
 30
0.0
 11
392.764175
 21
186.8096604264953
 31
0.0
  0
ARC
  5
9F18
330
9D17
100
AcDbEntity
  8
1
  6
Continuous
100
AcDbCircle
 10
362.3641749999999
 20
177.216062
 30
0.0
 40
2.799999999999998
100
AcDbArc
 50
180.0
 51
229.8544609999999
  0
ARC
  5
9F19
330
9D17
100
AcDbEntity
  8
1
  6
Continuous
100
AcDbCircle
 10
362.764175
 20
173.216082
 30
0.0
 40
2.799999999999998
100
AcDbArc
 50
0.0
 51
49.864925
  0
ARC
  5
9F1A
330
9D17
100
AcDbEntity
  8
1
  6
Continuous
100
AcDbCircle
 10
392.3641749999999
 20
173.216082
 30
0.0
 40
2.799999999999998
100
AcDbArc
 50
130.135075
 51
180.0
  0
ARC
  5
9F1B
330
9D17
100
AcDbEntity
  8
1
  6
Continuous
100
AcDbCircle
 10
392.764175
 20
177.216062
 30
0.0
 40
2.799999999999998
100
AcDbArc
 50
310.1455389999998
 51
0.0
  0
LINE
  5
9F1C
330
9D17
100
AcDbEntity
  8
1
  6
Continuous
100
AcDbLine
 10
368.3141749999998
 20
177.015727
 30
0.0
 11
366.3141749999998
 21
177.015727
 31
0.0
  0
LINE
  5
9F1D
330
9D17
100
AcDbEntity
  8
1
  6
Continuous
100
AcDbLine
 10
368.3141749999998
 20
184.5157269999999
 30
0.0
 11
366.3141749999998
 21
184.5157269999999
 31
0.0
  0
LINE
  5
9F1E
330
9D17
100
AcDbEntity
  8
1
  6
Continuous
100
AcDbLine
 10
386.8141749999999
 20
184.5157269999999
 30
0.0
 11
388.8141749999999
 21
184.5157269999999
 31
0.0
  0
LINE
  5
9F1F
330
9D17
100
AcDbEntity
  8
1
  6
Continuous
100
AcDbLine
 10
386.8141749999999
 20
177.015727
 30
0.0
 11
388.8141749999999
 21
177.015727
 31
0.0
  0
LINE
  5
9F20
330
9D17
100
AcDbEntity
  8
1
  6
Continuous
100
AcDbLine
 10
25.56437499999999
 20
212.2157269999999
 30
0.0
 11
49.56437499999999
 21
212.2157269999999
 31
0.0
  0
LINE
  5
9F21
330
9D17
100
AcDbEntity
  8
1
  6
Continuous
100
AcDbLine
 10
25.56437499999999
 20
216.2157269999999
 30
0.0
 11
49.56437499999999
 21
216.2157269999999
 31
0.0
  0
LINE
  5
9F22
330
9D17
100
AcDbEntity
  8
4
  6
CENTER
 48
0.2
100
AcDbLine
 10
19.364375
 20
214.2157269999999
 30
0.0
 11
55.764375
 21
214.2157269999999
 31
0.0
  0
LINE
  5
9F23
330
9D17
100
AcDbEntity
  8
1
  6
Continuous
100
AcDbLine
 10
52.364375
 20
209.46476
 30
0.0
 11
52.364375
 21
218.9504129999999
 31
0.0
  0
LINE
  5
9F24
330
9D17
100
AcDbEntity
  8
1
  6
Continuous
100
AcDbLine
 10
49.56437499999999
 20
209.46476
 30
0.0
 11
49.56437499999999
 21
218.9504129999999
 31
0.0
  0
LINE
  5
9F25
330
9D17
100
AcDbEntity
  8
1
  6
Continuous
100
AcDbLine
 10
55.564375
 20
197.8567554664055
 30
0.0
 11
55.564375
 21
205.950413
 31
0.0
  0
LINE
  5
9F26
330
9D17
100
AcDbEntity
  8
1
  6
Continuous
100
AcDbLine
 10
58.364375
 20
198.1038505063157
 30
0.0
 11
58.364375
 21
205.950413
 31
0.0
  0
LINE
  5
9F27
330
9D17
100
AcDbEntity
  8
1
  6
Continuous
100
AcDbLine
 10
53.31437499999999
 20
215.715727
 30
0.0
 11
52.364375
 21
215.715727
 31
0.0
  0
LINE
  5
9F28
330
9D17
100
AcDbEntity
  8
1
  6
Continuous
100
AcDbLine
 10
53.31437499999999
 20
212.7157269999999
 30
0.0
 11
52.364375
 21
212.7157269999999
 31
0.0
  0
LINE
  5
9F29
330
9D17
100
AcDbEntity
  8
1
  6
Continuous
100
AcDbLine
 10
53.31437499999999
 20
215.715727
 30
0.0
 11
53.31437499999999
 21
212.7157269999999
 31
0.0
  0
ARC
  5
9F2A
330
9D17
100
AcDbEntity
  8
1
  6
Continuous
100
AcDbCircle
 10
52.364375
 20
209.46476
 30
0.0
 40
2.799999999999998
100
AcDbArc
 50
180.0
 51
258.4131569999998
  0
LINE
  5
9F2B
330
9D17
100
AcDbEntity
  8
1
  6
Continuous
100
AcDbLine
 10
55.564375
 20
205.950413
 30
0.0
 11
51.801986
 21
206.72182
 31
0.0
  0
LINE
  5
9F2C
330
9D17
100
AcDbEntity
  8
1
  6
Continuous
100
AcDbLine
 10
52.364375
 20
209.46476
 30
0.0
 11
56.126763
 21
208.6933529999998
 31
0.0
  0
ARC
  5
9F2D
330
9D17
100
AcDbEntity
  8
1
  6
Continuous
100
AcDbCircle
 10
55.564375
 20
205.950413
 30
0.0
 40
2.799999999999998
100
AcDbArc
 50
0.0
 51
78.41315699999999
  0
LINE
  5
9F2E
330
9D17
100
AcDbEntity
  8
1
  6
Continuous
100
AcDbLine
 10
52.364375
 20
218.9504129999999
 30
0.0
 11
49.56437499999999
 21
218.9504129999999
 31
0.0
  0
LINE
  5
9F2F
330
9D17
100
AcDbEntity
  8
1
  6
Continuous
100
AcDbLine
 10
22.764375
 20
209.46476
 30
0.0
 11
22.764375
 21
218.9504129999999
 31
0.0
  0
LINE
  5
9F30
330
9D17
100
AcDbEntity
  8
1
  6
Continuous
100
AcDbLine
 10
25.56437499999999
 20
209.46476
 30
0.0
 11
25.56437499999999
 21
218.9504129999999
 31
0.0
  0
LINE
  5
9F31
330
9D17
100
AcDbEntity
  8
1
  6
Continuous
100
AcDbLine
 10
19.56437499999998
 20
197.8582554664054
 30
0.0
 11
19.56437499999998
 21
205.950413
 31
0.0
  0
LINE
  5
9F32
330
9D17
100
AcDbEntity
  8
1
  6
Continuous
100
AcDbLine
 10
16.76437499999999
 20
197.6111604264953
 30
0.0
 11
16.764375
 21
205.950413
 31
0.0
  0
LINE
  5
9F33
330
9D17
100
AcDbEntity
  8
1
  6
Continuous
100
AcDbLine
 10
19.56437499999998
 20
205.950413
 30
0.0
 11
23.326763
 21
206.72182
 31
0.0
  0
LINE
  5
9F34
330
9D17
100
AcDbEntity
  8
1
  6
Continuous
100
AcDbLine
 10
22.764375
 20
209.46476
 30
0.0
 11
19.00198599999998
 21
208.6933529999998
 31
0.0
  0
ARC
  5
9F35
330
9D17
100
AcDbEntity
  8
1
  6
Continuous
100
AcDbCircle
 10
19.56437499999998
 20
205.950413
 30
0.0
 40
2.799999999999998
100
AcDbArc
 50
101.586843
 51
180.0
  0
ARC
  5
9F36
330
9D17
100
AcDbEntity
  8
1
  6
Continuous
100
AcDbCircle
 10
22.764375
 20
209.46476
 30
0.0
 40
2.799999999999998
100
AcDbArc
 50
281.586843
 51
0.0
  0
LINE
  5
9F37
330
9D17
100
AcDbEntity
  8
1
  6
Continuous
100
AcDbLine
 10
21.81437499999999
 20
215.715727
 30
0.0
 11
21.81437499999999
 21
212.7157269999999
 31
0.0
  0
LINE
  5
9F38
330
9D17
100
AcDbEntity
  8
1
  6
Continuous
100
AcDbLine
 10
21.81437499999999
 20
212.7157269999999
 30
0.0
 11
22.764375
 21
212.7157269999999
 31
0.0
  0
LINE
  5
9F39
330
9D17
100
AcDbEntity
  8
1
  6
Continuous
100
AcDbLine
 10
21.81437499999999
 20
215.715727
 30
0.0
 11
22.764375
 21
215.715727
 31
0.0
  0
LINE
  5
9F3A
330
9D17
100
AcDbEntity
  8
1
  6
Continuous
100
AcDbLine
 10
22.764375
 20
218.9504129999999
 30
0.0
 11
25.56437499999999
 21
218.9504129999999
 31
0.0
  0
ARC
  5
9F3B
330
9D17
100
AcDbEntity
  8
1
  6
Continuous
100
AcDbCircle
 10
22.364375
 20
177.216062
 30
0.0
 40
2.799999999999998
100
AcDbArc
 50
180.0
 51
229.8544609999999
  0
LINE
  5
9F3C
330
9D17
100
AcDbEntity
  8
1
  6
Continuous
100
AcDbLine
 10
22.364375
 20
177.2157269999999
 30
0.0
 11
24.569232
 21
175.3567569999999
 31
0.0
  0
ARC
  5
9F3D
330
9D17
100
AcDbEntity
  8
1
  6
Continuous
100
AcDbCircle
 10
22.764375
 20
173.216082
 30
0.0
 40
2.799999999999998
100
AcDbArc
 50
0.0
 51
49.864925
  0
LINE
  5
9F3E
330
9D17
100
AcDbEntity
  8
1
  6
Continuous
100
AcDbLine
 10
22.764375
 20
173.2157269999999
 30
0.0
 11
20.55912699999999
 21
175.075716
 31
0.0
  0
LINE
  5
9F56
330
9D17
100
AcDbEntity
  8
1
  6
Continuous
100
AcDbLine
 10
16.764375
 20
182.6054819999999
 30
0.0
 11
19.56437499999998
 21
182.6054819999999
 31
0.0
  0
LINE
  5
9F58
330
9D17
100
AcDbEntity
  8
1
  6
Continuous
100
AcDbLine
 10
16.76437499999999
 20
182.6054819999999
 30
0.0
 11
16.76437499999999
 21
186.8081604264953
 31
0.0
  0
LINE
  5
9F59
330
9D17
100
AcDbEntity
  8
1
  6
Continuous
100
AcDbLine
 10
22.364375
 20
177.2157269999999
 30
0.0
 11
22.364375
 21
187.3023505063157
 31
0.0
  0
LINE
  5
9F5A
330
9D17
100
AcDbEntity
  8
1
  6
Continuous
100
AcDbLine
 10
19.56437499999998
 20
177.216062
 30
0.0
 11
19.56437499999998
 21
187.0552554664055
 31
0.0
  0
LINE
  5
9F5D
330
9D17
100
AcDbEntity
  8
1
  6
Continuous
100
AcDbLine
 10
19.56437499999998
 20
202.307531
 30
0.0
 11
22.364375
 21
202.307531
 31
0.0
  0
LINE
  5
9F5E
330
9D17
100
AcDbEntity
  8
1
  6
Continuous
100
AcDbLine
 10
22.36437499999999
 20
198.1053505063157
 30
0.0
 11
22.364375
 21
202.307531
 31
0.0
  0
LINE
  5
9F5F
330
9D17
100
AcDbEntity
  8
1
  6
Continuous
100
AcDbLine
 10
25.56437499999999
 20
163.7157269999998
 30
0.0
 11
25.56437499999999
 21
173.216082
 31
0.0
  0
LINE
  5
9F60
330
9D17
100
AcDbEntity
  8
1
  6
Continuous
100
AcDbLine
 10
22.764375
 20
167.7157269999999
 30
0.0
 11
21.81437499999999
 21
167.7157269999999
 31
0.0
  0
LINE
  5
9F61
330
9D17
100
AcDbEntity
  8
1
  6
Continuous
100
AcDbLine
 10
22.764375
 20
170.7157269999999
 30
0.0
 11
21.81437499999999
 21
170.7157269999999
 31
0.0
  0
LINE
  5
9F62
330
9D17
100
AcDbEntity
  8
1
  6
Continuous
100
AcDbLine
 10
21.81437499999999
 20
170.7157269999999
 30
0.0
 11
21.81437499999999
 21
167.7157269999999
 31
0.0
  0
LINE
  5
9F63
330
9D17
100
AcDbEntity
  8
1
  6
Continuous
100
AcDbLine
 10
22.764375
 20
163.7157269999998
 30
0.0
 11
22.764375
 21
173.2157269999999
 31
0.0
  0
LINE
  5
9F64
330
9D17
100
AcDbEntity
  8
1
  6
Continuous
100
AcDbLine
 10
22.764375
 20
163.7157269999998
 30
0.0
 11
25.56437499999999
 21
163.7157269999998
 31
0.0
  0
LINE
  5
9F65
330
9D17
100
AcDbEntity
  8
1
  6
Continuous
100
AcDbLine
 10
26.314375
 20
167.2157269999999
 30
0.0
 11
25.56437499999999
 21
167.2157269999999
 31
0.0
  0
LINE
  5
9F66
330
9D17
100
AcDbEntity
  8
1
  6
Continuous
100
AcDbLine
 10
26.314375
 20
171.2157269999998
 30
0.0
 11
25.56437499999999
 21
171.2157269999998
 31
0.0
  0
LINE
  5
9F67
330
9D17
100
AcDbEntity
  8
1
  6
Continuous
100
AcDbLine
 10
53.31437499999999
 20
170.7157269999999
 30
0.0
 11
52.364375
 21
170.7157269999999
 31
0.0
  0
LINE
  5
9F68
330
9D17
100
AcDbEntity
  8
1
  6
Continuous
100
AcDbLine
 10
53.31437499999999
 20
167.7157269999999
 30
0.0
 11
52.364375
 21
167.7157269999999
 31
0.0
  0
LINE
  5
9F69
330
9D17
100
AcDbEntity
  8
1
  6
Continuous
100
AcDbLine
 10
49.56437499999999
 20
167.2157269999999
 30
0.0
 11
48.814375
 21
167.2157269999999
 31
0.0
  0
LINE
  5
9F6A
330
9D17
100
AcDbEntity
  8
1
  6
Continuous
100
AcDbLine
 10
49.56437499999999
 20
171.2157269999998
 30
0.0
 11
48.814375
 21
171.2157269999998
 31
0.0
  0
LINE
  5
9F6B
330
9D17
100
AcDbEntity
  8
1
  6
Continuous
100
AcDbLine
 10
53.31437499999999
 20
170.7157269999999
 30
0.0
 11
53.31437499999999
 21
167.7157269999999
 31
0.0
  0
LINE
  5
9F6C
330
9D17
100
AcDbEntity
  8
1
  6
Continuous
100
AcDbLine
 10
52.364375
 20
163.7157269999998
 30
0.0
 11
52.364375
 21
173.2157269999999
 31
0.0
  0
LINE
  5
9F6D
330
9D17
100
AcDbEntity
  8
1
  6
Continuous
100
AcDbLine
 10
52.364375
 20
163.7157269999998
 30
0.0
 11
49.56437499999999
 21
163.7157269999998
 31
0.0
  0
LINE
  5
9F6E
330
9D17
100
AcDbEntity
  8
1
  6
Continuous
100
AcDbLine
 10
49.56437499999999
 20
163.7157269999998
 30
0.0
 11
49.56437499999999
 21
173.216082
 31
0.0
  0
LINE
  5
9F6F
330
9D17
100
AcDbEntity
  8
1
  6
Continuous
100
AcDbLine
 10
52.764375
 20
177.2157269999999
 30
0.0
 11
52.764375
 21
186.8096604264951
 31
0.0
  0
LINE
  5
9F70
330
9D17
100
AcDbEntity
  8
1
  6
Continuous
100
AcDbLine
 10
55.564375
 20
177.216062
 30
0.0
 11
55.564375
 21
187.0567554664055
 31
0.0
  0
ARC
  5
9F71
330
9D17
100
AcDbEntity
  8
1
  6
Continuous
100
AcDbCircle
 10
52.764375
 20
177.216062
 30
0.0
 40
2.799999999999998
100
AcDbArc
 50
310.1455389999998
 51
0.0
  0
LINE
  5
9F72
330
9D17
100
AcDbEntity
  8
1
  6
Continuous
100
AcDbLine
 10
52.764375
 20
177.2157269999999
 30
0.0
 11
50.55951799999998
 21
175.3567569999999
 31
0.0
  0
ARC
  5
9F73
330
9D17
100
AcDbEntity
  8
1
  6
Continuous
100
AcDbCircle
 10
52.364375
 20
173.216082
 30
0.0
 40
2.799999999999998
100
AcDbArc
 50
130.135075
 51
180.0
  0
LINE
  5
9F74
330
9D17
100
AcDbEntity
  8
1
  6
Continuous
100
AcDbLine
 10
52.364375
 20
173.2157269999999
 30
0.0
 11
54.569623
 21
175.075716
 31
0.0
  0
LINE
  5
9F87
330
9D17
100
AcDbEntity
  8
1
  6
Continuous
100
AcDbLine
 10
52.76437499999999
 20
197.6096604264951
 30
0.0
 11
52.764375
 21
202.307531
 31
0.0
  0
LINE
  5
9F88
330
9D17
100
AcDbEntity
  8
1
  6
Continuous
100
AcDbLine
 10
55.564375
 20
202.307531
 30
0.0
 11
52.764375
 21
202.307531
 31
0.0
  0
LINE
  5
9F8A
330
9D17
100
AcDbEntity
  8
1
  6
Continuous
100
AcDbLine
 10
58.364375
 20
182.6054819999999
 30
0.0
 11
55.564375
 21
182.6054819999999
 31
0.0
  0
LINE
  5
9F8B
330
9D17
100
AcDbEntity
  8
1
  6
Continuous
100
AcDbLine
 10
58.364375
 20
182.6054819999999
 30
0.0
 11
58.364375
 21
187.3038505063157
 31
0.0
  0
ARC
  5
9F93
330
9D17
100
AcDbEntity
  8
1
  6
Continuous
100
AcDbCircle
 10
28.530183
 20
301.215727
 30
0.0
 40
2.0
100
AcDbArc
 50
180.9879359999999
 51
270.0
  0
ARC
  5
9F94
330
9D17
100
AcDbEntity
  8
1
  6
Continuous
100
AcDbCircle
 10
46.598566
 20
301.215727
 30
0.0
 40
2.0
100
AcDbArc
 50
270.0
 51
359.012064
  0
ARC
  5
9F95
330
9D17
100
AcDbEntity
  8
1
  6
Continuous
100
AcDbCircle
 10
46.31437499999999
 20
301.215727
 30
0.0
 40
2.0
100
AcDbArc
 50
270.0
 51
0.0
  0
ARC
  5
9F96
330
9D17
100
AcDbEntity
  8
1
  6
Continuous
100
AcDbCircle
 10
28.814375
 20
301.215727
 30
0.0
 40
2.0
100
AcDbArc
 50
180.0
 51
270.0
  0
ARC
  5
9F97
330
9D17
100
AcDbEntity
  8
1
  6
Continuous
100
AcDbCircle
 10
28.564302
 20
54.515827
 30
0.0
 40
2.0
100
AcDbArc
 50
90.0
 51
178.8813259999997
  0
ARC
  5
9F98
330
9D17
100
AcDbEntity
  8
1
  6
Continuous
100
AcDbCircle
 10
46.564347
 20
54.515827
 30
0.0
 40
2.0
100
AcDbArc
 50
1.118673999999999
 51
90.0
  0
LINE
  5
9F99
330
9D17
100
AcDbEntity
  8
1
  6
Continuous
100
AcDbLine
 10
52.364375
 20
314.1155659999999
 30
0.0
 11
49.56437499999999
 21
314.1155659999999
 31
0.0
  0
LINE
  5
9F9A
330
9D17
100
AcDbEntity
  8
1
  6
Continuous
100
AcDbLine
 10
22.764275
 20
314.1155659999999
 30
0.0
 11
25.56437499999999
 21
314.1155659999999
 31
0.0
  0
LINE
  5
9F9B
330
9D17
100
AcDbEntity
  8
4
  6
CENTER
 48
0.2
100
AcDbLine
 10
55.764375
 20
45.815827
 30
0.0
 11
19.364375
 21
45.815827
 31
0.0
  0
LINE
  5
9F9C
330
9D17
100
AcDbEntity
  8
1
  6
Continuous
100
AcDbLine
 10
52.364375
 20
41.615988
 30
0.0
 11
49.56437499999999
 21
41.615988
 31
0.0
  0
LINE
  5
9F9D
330
9D17
100
AcDbEntity
  8
1
  6
Continuous
100
AcDbLine
 10
22.764375
 20
41.615988
 30
0.0
 11
25.56437499999999
 21
41.615988
 31
0.0
  0
LINE
  5
9F9E
330
9D17
100
AcDbEntity
  8
1
  6
Continuous
100
AcDbLine
 10
46.759687
 20
44.515827
 30
0.0
 11
28.36906199999999
 21
44.515827
 31
0.0
  0
ARC
  5
9F9F
330
9D17
100
AcDbEntity
  8
1
  6
Continuous
100
AcDbCircle
 10
37.564375
 20
306.615727
 30
0.0
 40
8.900009999999998
100
AcDbArc
 50
236.2489819999999
 51
303.7510179999998
  0
LINE
  5
9FA1
330
9D17
100
AcDbEntity
  8
1
  6
Continuous
100
AcDbLine
 10
51.899729
 20
211.335787
 30
0.0
 11
50.065582
 21
211.335787
 31
0.0
  0
LINE
  5
9FA2
330
9D17
100
AcDbEntity
  8
1
  6
Continuous
100
AcDbLine
 10
23.22902
 20
211.335787
 30
0.0
 11
25.063168
 21
211.335787
 31
0.0
  0
LINE
  5
9FA3
330
9D17
100
AcDbEntity
  8
4
  6
CENTER
 48
0.2
100
AcDbLine
 10
130.064175
 20
318.219491
 30
0.0
 11
130.064175
 21
308.719491
 31
0.0
  0
LINE
  5
9FA4
330
9D17
100
AcDbEntity
  8
4
  6
CENTER
 48
0.2
100
AcDbLine
 10
105.064175
 20
318.219491
 30
0.0
 11
105.064175
 21
308.719491
 31
0.0
  0
LINE
  5
9FBC
330
9D17
100
AcDbEntity
  8
4
  6
CENTER
 48
0.1
100
AcDbLine
 10
34.064375
 20
161.2157269999999
 30
0.0
 11
41.06437499999999
 21
161.2157269999999
 31
0.0
  0
LINE
  5
A324
330
9D17
100
AcDbEntity
  8
4
  6
CENTER
 48
0.2
100
AcDbLine
 10
359.3641749999999
 20
214.2157269999999
 30
0.0
 11
395.7641749999999
 21
214.2157269999999
 31
0.0
  0
LINE
  5
A325
330
9D17
100
AcDbEntity
  8
1
  6
Continuous
100
AcDbLine
 10
395.5641749999998
 20
205.950413
 30
0.0
 11
391.8017859999998
 21
206.72182
 31
0.0
  0
LINE
  5
A326
330
9D17
100
AcDbEntity
  8
1
  6
Continuous
100
AcDbLine
 10
392.3641749999999
 20
209.46476
 30
0.0
 11
396.1265629999999
 21
208.6933529999998
 31
0.0
  0
LINE
  5
A327
330
9D17
100
AcDbEntity
  8
1
  6
Continuous
100
AcDbLine
 10
395.5641749999998
 20
202.307531
 30
0.0
 11
392.7641749999999
 21
202.307531
 31
0.0
  0
LINE
  5
A329
330
9D17
100
AcDbEntity
  8
1
  6
Continuous
100
AcDbLine
 10
392.7641749999999
 20
197.6096604264951
 30
0.0
 11
392.7641749999999
 21
202.307531
 31
0.0
  0
LINE
  5
A32A
330
9D17
100
AcDbEntity
  8
1
  6
Continuous
100
AcDbLine
 10
356.7641749999999
 20
197.6096604264953
 30
0.0
 11
356.7641749999999
 21
205.950413
 31
0.0
  0
LINE
  5
A32B
330
9D17
100
AcDbEntity
  8
1
  6
Continuous
100
AcDbLine
 10
359.5641749999999
 20
197.8567554664055
 30
0.0
 11
359.5641749999999
 21
205.950413
 31
0.0
  0
LINE
  5
A330
330
9D17
100
AcDbEntity
  8
1
  6
Continuous
100
AcDbLine
 10
356.7641749999999
 20
182.6054819999999
 30
0.0
 11
356.7641749999999
 21
186.8096604264953
 31
0.0
  0
LINE
  5
A337
330
9D17
100
AcDbEntity
  8
1
  6
Continuous
100
AcDbLine
 10
356.7641749999999
 20
182.6054819999999
 30
0.0
 11
359.5641749999999
 21
182.6054819999999
 31
0.0
  0
LINE
  5
A34B
330
9D17
100
AcDbEntity
  8
1
  6
Continuous
100
AcDbLine
 10
365.5641749999999
 20
212.2157269999999
 30
0.0
 11
389.5641749999999
 21
212.2157269999999
 31
0.0
  0
LINE
  5
A34C
330
9D17
100
AcDbEntity
  8
1
  6
Continuous
100
AcDbLine
 10
365.5641749999999
 20
216.2157269999999
 30
0.0
 11
389.5641749999999
 21
216.2157269999999
 31
0.0
  0
LINE
  5
A34F
330
9D17
100
AcDbEntity
  8
1
  6
Continuous
100
AcDbLine
 10
365.5641749999999
 20
209.46476
 30
0.0
 11
365.5641749999999
 21
218.9504129999999
 31
0.0
  0
LINE
  5
A350
330
9D17
100
AcDbEntity
  8
1
  6
Continuous
100
AcDbLine
 10
362.7641749999999
 20
209.46476
 30
0.0
 11
362.7641749999999
 21
218.9504129999999
 31
0.0
  0
ARC
  5
A351
330
9D17
100
AcDbEntity
  8
1
  6
Continuous
100
AcDbCircle
 10
362.7641749999999
 20
209.46476
 30
0.0
 40
2.799999999999998
100
AcDbArc
 50
281.586843
 51
0.0
  0
LINE
  5
A353
330
9D17
100
AcDbEntity
  8
1
  6
Continuous
100
AcDbLine
 10
359.5641749999999
 20
202.307531
 30
0.0
 11
362.3641749999999
 21
202.307531
 31
0.0
  0
LINE
  5
A355
330
9D17
100
AcDbEntity
  8
1
  6
Continuous
100
AcDbLine
 10
362.3641749999999
 20
198.1038505063157
 30
0.0
 11
362.3641749999999
 21
202.307531
 31
0.0
  0
LINE
  5
A356
330
9D17
100
AcDbEntity
  8
1
  6
Continuous
100
AcDbLine
 10
359.5641749999999
 20
205.950413
 30
0.0
 11
363.3265629999999
 21
206.72182
 31
0.0
  0
LINE
  5
A357
330
9D17
100
AcDbEntity
  8
1
  6
Continuous
100
AcDbLine
 10
362.7641749999999
 20
209.46476
 30
0.0
 11
359.0017859999999
 21
208.6933529999998
 31
0.0
  0
ARC
  5
A358
330
9D17
100
AcDbEntity
  8
1
  6
Continuous
100
AcDbCircle
 10
359.5641749999999
 20
205.950413
 30
0.0
 40
2.799999999999998
100
AcDbArc
 50
101.586843
 51
180.0
  0
LINE
  5
A359
330
9D17
100
AcDbEntity
  8
1
  6
Continuous
100
AcDbLine
 10
362.7641749999999
 20
218.9504129999999
 30
0.0
 11
365.5641749999999
 21
218.9504129999999
 31
0.0
  0
LINE
  5
A35A
330
9D17
100
AcDbEntity
  8
1
  6
Continuous
100
AcDbLine
 10
361.8141749999999
 20
215.715727
 30
0.0
 11
361.8141749999999
 21
212.7157269999999
 31
0.0
  0
LINE
  5
A35B
330
9D17
100
AcDbEntity
  8
1
  6
Continuous
100
AcDbLine
 10
361.8141749999999
 20
212.7157269999999
 30
0.0
 11
362.7641749999999
 21
212.7157269999999
 31
0.0
  0
LINE
  5
A35C
330
9D17
100
AcDbEntity
  8
1
  6
Continuous
100
AcDbLine
 10
361.8141749999999
 20
215.715727
 30
0.0
 11
362.7641749999999
 21
215.715727
 31
0.0
  0
LINE
  5
A35E
330
9D17
100
AcDbEntity
  8
1
  6
Continuous
100
AcDbLine
 10
392.3641749999999
 20
209.46476
 30
0.0
 11
392.3641749999999
 21
218.9504129999999
 31
0.0
  0
LINE
  5
A35F
330
9D17
100
AcDbEntity
  8
1
  6
Continuous
100
AcDbLine
 10
389.5641749999999
 20
209.46476
 30
0.0
 11
389.5641749999999
 21
218.9504129999999
 31
0.0
  0
ARC
  5
A361
330
9D17
100
AcDbEntity
  8
1
  6
Continuous
100
AcDbCircle
 10
392.3641749999999
 20
209.46476
 30
0.0
 40
2.799999999999998
100
AcDbArc
 50
180.0
 51
258.4131569999998
  0
LINE
  5
A362
330
9D17
100
AcDbEntity
  8
1
  6
Continuous
100
AcDbLine
 10
393.3141749999998
 20
215.715727
 30
0.0
 11
392.3641749999999
 21
215.715727
 31
0.0
  0
LINE
  5
A363
330
9D17
100
AcDbEntity
  8
1
  6
Continuous
100
AcDbLine
 10
393.3141749999998
 20
212.7157269999999
 30
0.0
 11
392.3641749999999
 21
212.7157269999999
 31
0.0
  0
LINE
  5
A364
330
9D17
100
AcDbEntity
  8
1
  6
Continuous
100
AcDbLine
 10
393.3141749999998
 20
215.715727
 30
0.0
 11
393.3141749999998
 21
212.7157269999999
 31
0.0
  0
LINE
  5
A366
330
9D17
100
AcDbEntity
  8
1
  6
Continuous
100
AcDbLine
 10
392.3641749999999
 20
218.9504129999999
 30
0.0
 11
389.5641749999999
 21
218.9504129999999
 31
0.0
  0
LINE
  5
A367
330
9D17
100
AcDbEntity
  8
1
  6
Continuous
100
AcDbLine
 10
395.5641749999998
 20
197.8567554664055
 30
0.0
 11
395.5641749999998
 21
205.950413
 31
0.0
  0
LINE
  5
A369
330
9D17
100
AcDbEntity
  8
1
  6
Continuous
100
AcDbLine
 10
398.3641749999999
 20
182.6054819999999
 30
0.0
 11
398.3641749999999
 21
187.3038505063157
 31
0.0
  0
LINE
  5
A36C
330
9D17
100
AcDbEntity
  8
1
  6
Continuous
100
AcDbLine
 10
398.3641749999999
 20
182.6054819999999
 30
0.0
 11
395.5641749999998
 21
182.6054819999999
 31
0.0
  0
LINE
  5
A374
330
9D17
100
AcDbEntity
  8
1
  6
Continuous
100
AcDbLine
 10
398.3641749999999
 20
198.1038505063157
 30
0.0
 11
398.3641749999999
 21
205.950413
 31
0.0
  0
ARC
  5
A376
330
9D17
100
AcDbEntity
  8
1
  6
Continuous
100
AcDbCircle
 10
395.5641749999998
 20
205.950413
 30
0.0
 40
2.799999999999998
100
AcDbArc
 50
0.0
 51
78.41315699999999
  0
LINE
  5
A377
330
9D17
100
AcDbEntity
  8
1
  6
Continuous
100
AcDbLine
 10
363.2806879999998
 20
209.46476
 30
0.0
 11
365.080688
 21
209.46476
 31
0.0
  0
LINE
  5
A378
330
9D17
100
AcDbEntity
  8
1
  6
Continuous
100
AcDbLine
 10
391.847662
 20
209.46476
 30
0.0
 11
390.047662
 21
209.46476
 31
0.0
  0
LINE
  5
AAF1
330
9D17
100
AcDbEntity
  8
1
  6
Continuous
100
AcDbLine
 10
205.0645373373098
 20
182.552410261805
 30
0.0
 11
204.823869
 21
166.5581599999998
 31
0.0
  0
LINE
  5
AAF2
330
9D17
100
AcDbEntity
  8
1
  6
Continuous
100
AcDbLine
 10
210.6639033459392
 20
182.4681558352934
 30
0.0
 11
210.423235
 21
166.4739049999999
 31
0.0
  0
LINE
  5
AAF3
330
9D17
100
AcDbEntity
  8
1
  6
Continuous
100
AcDbLine
 10
200.3641749999999
 20
195.2157269999999
 30
0.0
 11
200.3641749999999
 21
162.7157269999998
 31
0.0
  0
LINE
  5
AAF4
330
9D17
100
AcDbEntity
  8
1
  6
Continuous
100
AcDbLine
 10
215.564175
 20
180.215727
 30
0.0
 11
215.564175
 21
141.7157269999998
 31
0.0
  0
LINE
  5
AAF7
330
9D17
100
AcDbEntity
  8
1
  6
Continuous
100
AcDbLine
 10
215.164175
 20
177.015727
 30
0.0
 11
215.164175
 21
162.7157269999998
 31
0.0
  0
LINE
  5
AB19
330
9D17
100
AcDbEntity
  8
1
  6
Continuous
100
AcDbLine
 10
205.4246169999999
 20
173.2498789999998
 30
0.0
 11
210.0240959999999
 21
173.1806699999998
 31
0.0
  0
LINE
  5
AB1A
330
9D17
100
AcDbEntity
  8
1
  6
Continuous
100
AcDbLine
 10
200.3641749999999
 20
162.7157269999998
 30
0.0
 11
215.164175
 21
162.7157269999998
 31
0.0
  0
ARC
  5
AB1B
330
9D17
100
AcDbEntity
  8
1
  6
Continuous
100
AcDbCircle
 10
207.623552
 20
166.5160329999999
 30
0.0
 40
2.799999999999998
100
AcDbArc
 50
179.137925
 51
359.1379349999995
  0
LINE
  5
AB1C
330
9D17
100
AcDbEntity
  8
4
  6
CENTER
 48
0.1
100
AcDbLine
 10
204.664175
 20
169.2157269999998
 30
0.0
 11
210.664175
 21
169.2157269999998
 31
0.0
  0
CIRCLE
  5
AB1D
330
9D17
100
AcDbEntity
  8
1
  6
Continuous
100
AcDbCircle
 10
207.6641749999998
 20
169.2157269999998
 30
0.0
 40
1.5
  0
ARC
  5
AB1E
330
9D17
100
AcDbEntity
  8
1
  6
Continuous
100
AcDbCircle
 10
196.164175
 20
150.7157269999998
 30
0.0
 40
8.0
100
AcDbArc
 50
335.9830000000014
 51
19.70399999999956
  0
ARC
  5
AB1F
330
9D17
100
AcDbEntity
  8
1
  6
Continuous
100
AcDbCircle
 10
196.164175
 20
150.7157269999998
 30
0.0
 40
10.0
100
AcDbArc
 50
335.9830000000014
 51
19.70399999999956
  0
LINE
  5
AB20
330
9D17
100
AcDbEntity
  8
1
  6
Continuous
100
AcDbLine
 10
199.164175
 20
138.048727
 30
0.0
 11
203.480175
 21
147.4777269999998
 31
0.0
  0
LINE
  5
AB21
330
9D17
100
AcDbEntity
  8
1
  6
Continuous
100
AcDbLine
 10
200.983175
 20
137.2167269999999
 30
0.0
 11
205.2981749999999
 21
146.645727
 31
0.0
  0
LINE
  5
AB22
330
9D17
100
AcDbEntity
  8
1
  6
Continuous
100
AcDbLine
 10
199.164175
 20
138.048727
 30
0.0
 11
200.983175
 21
137.2167269999999
 31
0.0
  0
LINE
  5
AB23
330
9D17
100
AcDbEntity
  8
1
  6
Continuous
100
AcDbLine
 10
200.3641749999999
 20
162.7157269999998
 30
0.0
 11
203.696175
 21
153.4127269999998
 31
0.0
  0
LINE
  5
AB24
330
9D17
100
AcDbEntity
  8
1
  6
Continuous
100
AcDbLine
 10
202.489175
 20
162.7157269999998
 30
0.0
 11
205.579175
 21
154.087727
 31
0.0
  0
LINE
  5
AB25
330
9D17
100
AcDbEntity
  8
4
  6
CENTER
 48
0.1
100
AcDbLine
 10
207.6641749999998
 20
166.2157269999998
 30
0.0
 11
207.6641749999998
 21
172.2157269999999
 31
0.0
  0
LINE
  5
AB27
330
9D17
100
AcDbEntity
  8
1
  6
Continuous
100
AcDbLine
 10
212.3641749999999
 20
162.7157269999998
 30
0.0
 11
212.3641749999999
 21
141.7157269999998
 31
0.0
  0
LINE
  5
AB29
330
9D17
100
AcDbEntity
  8
4
  6
CENTER
 48
0.1
100
AcDbLine
 10
210.3641749999999
 20
147.2157269999998
 30
0.0
 11
217.564175
 21
147.2157269999998
 31
0.0
  0
LINE
  5
AB2A
330
9D17
100
AcDbEntity
  8
1
  6
Continuous
100
AcDbLine
 10
212.3641749999999
 20
141.7157269999998
 30
0.0
 11
215.564175
 21
141.7157269999998
 31
0.0
  0
LINE
  5
AB2B
330
9D17
100
AcDbEntity
  8
4
  6
CENTER
 48
0.1
100
AcDbLine
 10
210.3641749999999
 20
161.2157269999998
 30
0.0
 11
217.564175
 21
161.2157269999998
 31
0.0
  0
LINE
  5
AB96
330
9D17
100
AcDbEntity
  8
4
  6
CENTER
 48
0.1
100
AcDbLine
 10
211.064175
 20
211.8743689999999
 30
0.0
 11
211.064175
 21
216.5555349999999
 31
0.0
  0
ARC
  5
AB97
330
9D17
100
AcDbEntity
  8
1
  6
Continuous
100
AcDbCircle
 10
212.465463
 20
216.1518629999999
 30
0.0
 40
2.79855
100
AcDbArc
 50
324.233925000001
 51
144.0749250000016
  0
LINE
  5
AB98
330
9D17
100
AcDbEntity
  8
1
  6
Continuous
100
AcDbLine
 10
210.1989009999999
 20
217.7931499999998
 30
0.0
 11
206.5589029999999
 21
212.7693469999999
 31
0.0
  0
LINE
  5
AB9D
330
9D17
100
AcDbEntity
  8
1
  6
Continuous
100
AcDbLine
 10
205.465225
 20
175.9485729999999
 30
0.0
 11
210.064704
 21
175.8793639999999
 31
0.0
  0
LINE
  5
AB9E
330
9D17
100
AcDbEntity
  8
4
  6
CENTER
 48
0.1
100
AcDbLine
 10
208.673959
 20
214.2157269999999
 30
0.0
 11
213.4136189999999
 21
214.2157269999999
 31
0.0
  0
LINE
  5
AB9F
330
9D17
100
AcDbEntity
  8
1
  6
Continuous
100
AcDbLine
 10
211.0926969999999
 20
209.46476
 30
0.0
 11
205.492063
 21
209.46476
 31
0.0
  0
LINE
  5
ABAC
330
9D17
100
AcDbEntity
  8
1
  6
Continuous
100
AcDbLine
 10
205.4930152254501
 20
209.46476
 30
0.0
 11
205.3036320333428
 21
197.5697548163084
 31
0.0
  0
ARC
  5
ABB3
330
9D17
100
AcDbEntity
  8
1
  6
Continuous
100
AcDbCircle
 10
211.0929829999999
 20
209.4837579999998
 30
0.0
 40
5.599999999999997
100
AcDbArc
 50
144.0749250000016
 51
180.1943763048483
  0
ARC
  5
ABB6
330
9D17
100
AcDbEntity
  8
1
  6
Continuous
100
AcDbCircle
 10
206.3641749999999
 20
180.215727
 30
0.0
 40
9.199999999999999
100
AcDbArc
 50
0.0
 51
30.71375268484624
  0
LINE
  5
ABB8
330
9D17
100
AcDbEntity
  8
4
  6
CENTER
 48
0.1
100
AcDbLine
 10
210.3641749999999
 20
175.2157269999999
 30
0.0
 11
217.564175
 21
175.2157269999999
 31
0.0
  0
LINE
  5
ABB9
330
9D17
100
AcDbEntity
  8
1
  6
Continuous
100
AcDbLine
 10
212.3641749999999
 20
180.215727
 30
0.0
 11
212.3641749999999
 21
177.015727
 31
0.0
  0
LINE
  5
ABBA
330
9D17
100
AcDbEntity
  8
1
  6
Continuous
100
AcDbLine
 10
212.0641749999998
 20
182.447085756111
 30
0.0
 11
212.0641749999998
 21
177.015727
 31
0.0
  0
LINE
  5
ABBB
330
9D17
100
AcDbEntity
  8
1
  6
Continuous
100
AcDbLine
 10
212.3641749999999
 20
178.2157269999999
 30
0.0
 11
215.564175
 21
178.2157269999999
 31
0.0
  0
LINE
  5
ABBC
330
9D17
100
AcDbEntity
  8
1
  6
Continuous
100
AcDbLine
 10
212.0641749999998
 20
177.015727
 30
0.0
 11
215.164175
 21
177.015727
 31
0.0
  0
ARC
  5
ABBD
330
9D17
100
AcDbEntity
  8
1
  6
Continuous
100
AcDbCircle
 10
206.3641749999999
 20
180.215727
 30
0.0
 40
6.0
100
AcDbArc
 50
0.0
 51
18.19500000000011
  0
LINE
  5
ABC9
330
9D17
100
AcDbEntity
  8
1
  6
Continuous
100
AcDbLine
 10
211.0926969999999
 20
209.46476
 30
0.0
 11
210.9100600417334
 21
197.9660411605926
 31
0.0
  0
LINE
  5
ABCE
330
9D17
100
AcDbEntity
  8
1
  6
Continuous
100
AcDbLine
 10
211.0926969999999
 20
209.46476
 30
0.0
 11
214.8179119999999
 21
214.6352979999999
 31
0.0
  0
CIRCLE
  5
ABCF
330
9D17
100
AcDbEntity
  8
1
  6
Continuous
100
AcDbCircle
 10
211.064175
 20
214.2157269999999
 30
0.0
 40
1.5
  0
LINE
  5
AE37
330
9D17
100
AcDbEntity
  8
1
  6
Continuous
100
AcDbLine
 10
19.56437499999998
 20
198.307983
 30
0.0
 11
22.36437499999999
 21
198.307983
 31
0.0
  0
LINE
  5
AE38
330
9D17
100
AcDbEntity
  8
1
  6
Continuous
100
AcDbLine
 10
24.66054000000002
 20
196.5064829999998
 30
0.0
 11
14.4620366845254
 21
195.6005982735751
 31
0.0
  0
LINE
  5
AE39
330
9D17
100
AcDbEntity
  8
1
  6
Continuous
100
AcDbLine
 10
24.66054000000002
 20
198.3064829999998
 30
0.0
 11
14.46203668452534
 21
197.4005982735751
 31
0.0
  0
LINE
  5
AE3A
330
9D17
100
AcDbEntity
  8
1
  6
Continuous
100
AcDbLine
 10
24.66054000000002
 20
194.7064829999997
 30
0.0
 11
14.46203668452551
 21
193.8005982735751
 31
0.0
  0
LINE
  5
AE3B
330
9D17
100
AcDbEntity
  8
1
  6
Continuous
100
AcDbLine
 10
24.66054000000002
 20
192.9064829999998
 30
0.0
 11
14.46203668452568
 21
192.0005982735751
 31
0.0
  0
LINE
  5
AE3C
330
9D17
100
AcDbEntity
  8
1
  6
Continuous
100
AcDbLine
 10
24.66054000000002
 20
191.1064829999998
 30
0.0
 11
14.46203668452585
 21
190.2005982735751
 31
0.0
  0
LINE
  5
AE3D
330
9D17
100
AcDbEntity
  8
1
  6
Continuous
100
AcDbLine
 10
24.66054000000002
 20
187.5064829999998
 30
0.0
 11
14.46203668450255
 21
186.6005982735751
 31
0.0
  0
LINE
  5
AE3E
330
9D17
100
AcDbEntity
  8
1
  6
Continuous
100
AcDbLine
 10
24.66054000000002
 20
189.3064829999998
 30
0.0
 11
14.46203668452585
 21
188.4005982735751
 31
0.0
  0
ARC
  5
AE3F
330
9D17
100
AcDbEntity
  8
1
  6
Continuous
100
AcDbCircle
 10
14.46203668452551
 20
192.9005982735751
 30
0.0
 40
0.9
100
AcDbArc
 50
90.00000000000225
 51
270.0000000000181
  0
ARC
  5
AE40
330
9D17
100
AcDbEntity
  8
1
  6
Continuous
100
AcDbCircle
 10
14.46203668452574
 20
187.5005982735751
 30
0.0
 40
0.9
100
AcDbArc
 50
90.00000000000225
 51
270.0000000000361
  0
LINE
  5
AE41
330
9D17
100
AcDbEntity
  8
1
  6
Continuous
100
AcDbLine
 10
14.47123270574731
 20
186.60353
 30
0.0
 11
19.56437499999999
 21
186.60353
 31
0.0
  0
ARC
  5
AE42
330
9D17
100
AcDbEntity
  8
1
  6
Continuous
100
AcDbCircle
 10
14.46203668452585
 20
191.1005982735751
 30
0.0
 40
0.9
100
AcDbArc
 50
90.00000000000225
 51
269.9999999999855
  0
ARC
  5
AE43
330
9D17
100
AcDbEntity
  8
1
  6
Continuous
100
AcDbCircle
 10
14.46203668452591
 20
189.3005982735751
 30
0.0
 40
0.9
100
AcDbArc
 50
90.00000000000225
 51
269.9999999999855
  0
LINE
  5
AE44
330
9D17
100
AcDbEntity
  8
1
  6
Continuous
100
AcDbLine
 10
13.56204897447941
 20
198.3079829999999
 30
0.0
 11
16.76437499999997
 21
198.307983
 31
0.0
  0
ARC
  5
AE45
330
9D17
100
AcDbEntity
  8
1
  6
Continuous
100
AcDbCircle
 10
14.4620366845254
 20
196.5005982735751
 30
0.0
 40
0.9
100
AcDbArc
 50
90.00000000000225
 51
270.0000000000181
  0
ARC
  5
AE46
330
9D17
100
AcDbEntity
  8
1
  6
Continuous
100
AcDbCircle
 10
14.46455966463531
 20
198.3031185466568
 30
0.0
 40
0.9025237995488003
100
AcDbArc
 50
179.6911837717638
 51
269.8398310377601
  0
ARC
  5
AE47
330
9D17
100
AcDbEntity
  8
1
  6
Continuous
100
AcDbCircle
 10
14.46203668452545
 20
194.7005982735751
 30
0.0
 40
0.9
100
AcDbArc
 50
90.00000000000225
 51
269.9999999999855
  0
ARC
  5
AE48
330
9D17
100
AcDbEntity
  8
1
  6
Continuous
100
AcDbCircle
 10
24.66054000000002
 20
193.8064829999998
 30
0.0
 40
0.9
100
AcDbArc
 50
270.0000000000021
 51
89.99999999998552
  0
ARC
  5
AE49
330
9D17
100
AcDbEntity
  8
1
  6
Continuous
100
AcDbCircle
 10
24.66054000000002
 20
186.6064829999998
 30
0.0
 40
0.9
100
AcDbArc
 50
359.9074991069052
 51
90.0000000000181
  0
LINE
  5
AE4A
330
9D17
100
AcDbEntity
  8
1
  6
Continuous
100
AcDbLine
 10
22.364375
 20
186.60503
 30
0.0
 11
25.56053999877274
 21
186.60503
 31
0.0
  0
ARC
  5
AE4B
330
9D17
100
AcDbEntity
  8
1
  6
Continuous
100
AcDbCircle
 10
24.66054000000002
 20
192.0064829999998
 30
0.0
 40
0.9
100
AcDbArc
 50
270.0000000000021
 51
89.99999999998552
  0
ARC
  5
AE4C
330
9D17
100
AcDbEntity
  8
1
  6
Continuous
100
AcDbCircle
 10
24.66054000000002
 20
188.4064829999998
 30
0.0
 40
0.9
100
AcDbArc
 50
270.0000000000021
 51
89.99999999998552
  0
ARC
  5
AE4D
330
9D17
100
AcDbEntity
  8
1
  6
Continuous
100
AcDbCircle
 10
24.66054000000002
 20
190.2064829999998
 30
0.0
 40
0.9
100
AcDbArc
 50
270.0000000000021
 51
89.99999999998552
  0
ARC
  5
AE4E
330
9D17
100
AcDbEntity
  8
1
  6
Continuous
100
AcDbCircle
 10
24.66054000000002
 20
197.4064829999998
 30
0.0
 40
0.9
100
AcDbArc
 50
270.0000000000021
 51
89.99999999998552
  0
ARC
  5
AE4F
330
9D17
100
AcDbEntity
  8
1
  6
Continuous
100
AcDbCircle
 10
24.66054000000002
 20
195.6064829999998
 30
0.0
 40
0.9
100
AcDbArc
 50
270.0000000000021
 51
90.0000000000362
  0
LINE
  5
AE50
330
9D17
100
AcDbEntity
  8
1
  6
Continuous
100
AcDbLine
 10
22.36437499999999
 20
198.3079826531639
 30
0.0
 11
24.66053999999997
 21
198.3079826531639
 31
0.0
  0
LINE
  5
AE51
330
9D17
100
AcDbEntity
  8
1
  6
Continuous
100
AcDbLine
 10
58.36437499999998
 20
198.3079826531639
 30
0.0
 11
60.66053999999997
 21
198.3079826531639
 31
0.0
  0
LINE
  5
AE52
330
9D17
100
AcDbEntity
  8
1
  6
Continuous
100
AcDbLine
 10
60.66054000000002
 20
196.5064829999998
 30
0.0
 11
50.46203668452539
 21
195.6005982735751
 31
0.0
  0
LINE
  5
AE53
330
9D17
100
AcDbEntity
  8
1
  6
Continuous
100
AcDbLine
 10
60.66054000000002
 20
198.3064829999998
 30
0.0
 11
50.46203668452534
 21
197.4005982735751
 31
0.0
  0
LINE
  5
AE54
330
9D17
100
AcDbEntity
  8
1
  6
Continuous
100
AcDbLine
 10
55.56437499999998
 20
186.60503
 30
0.0
 11
61.56053999877275
 21
186.60503
 31
0.0
  0
LINE
  5
AE55
330
9D17
100
AcDbEntity
  8
1
  6
Continuous
100
AcDbLine
 10
60.66054000000002
 20
187.5064829999998
 30
0.0
 11
50.46203668450254
 21
186.6005982735751
 31
0.0
  0
LINE
  5
AE56
330
9D17
100
AcDbEntity
  8
1
  6
Continuous
100
AcDbLine
 10
60.66054000000002
 20
189.3064829999998
 30
0.0
 11
50.46203668452585
 21
188.4005982735751
 31
0.0
  0
LINE
  5
AE57
330
9D17
100
AcDbEntity
  8
1
  6
Continuous
100
AcDbLine
 10
60.66054000000002
 20
191.1064829999998
 30
0.0
 11
50.46203668452585
 21
190.2005982735751
 31
0.0
  0
LINE
  5
AE58
330
9D17
100
AcDbEntity
  8
1
  6
Continuous
100
AcDbLine
 10
60.66054000000002
 20
192.9064829999998
 30
0.0
 11
50.46203668452569
 21
192.0005982735751
 31
0.0
  0
LINE
  5
AE59
330
9D17
100
AcDbEntity
  8
1
  6
Continuous
100
AcDbLine
 10
60.66054000000002
 20
194.7064829999997
 30
0.0
 11
50.46203668452553
 21
193.8005982735751
 31
0.0
  0
ARC
  5
AE5A
330
9D17
100
AcDbEntity
  8
1
  6
Continuous
100
AcDbCircle
 10
50.46203668452553
 20
192.9005982735751
 30
0.0
 40
0.9
100
AcDbArc
 50
90.00000000000225
 51
270.0000000000181
  0
ARC
  5
AE5B
330
9D17
100
AcDbEntity
  8
1
  6
Continuous
100
AcDbCircle
 10
50.46203668452573
 20
187.5005982735751
 30
0.0
 40
0.9
100
AcDbArc
 50
90.00000000000225
 51
270.0000000000361
  0
LINE
  5
AE5C
330
9D17
100
AcDbEntity
  8
1
  6
Continuous
100
AcDbLine
 10
50.47123270574732
 20
186.60353
 30
0.0
 11
52.764375
 21
186.60353
 31
0.0
  0
ARC
  5
AE5D
330
9D17
100
AcDbEntity
  8
1
  6
Continuous
100
AcDbCircle
 10
50.46203668452585
 20
191.1005982735751
 30
0.0
 40
0.9
100
AcDbArc
 50
90.00000000000225
 51
269.9999999999855
  0
ARC
  5
AE5E
330
9D17
100
AcDbEntity
  8
1
  6
Continuous
100
AcDbCircle
 10
50.46203668452591
 20
189.3005982735751
 30
0.0
 40
0.9
100
AcDbArc
 50
90.00000000000225
 51
269.9999999999855
  0
LINE
  5
AE5F
330
9D17
100
AcDbEntity
  8
1
  6
Continuous
100
AcDbLine
 10
49.56204897447941
 20
198.307983
 30
0.0
 11
55.56437499999998
 21
198.307983
 31
0.0
  0
ARC
  5
AE60
330
9D17
100
AcDbEntity
  8
1
  6
Continuous
100
AcDbCircle
 10
50.46455966463532
 20
198.3031185466568
 30
0.0
 40
0.9025237995488003
100
AcDbArc
 50
179.6911837717638
 51
269.8398310377601
  0
ARC
  5
AE61
330
9D17
100
AcDbEntity
  8
1
  6
Continuous
100
AcDbCircle
 10
50.46203668452539
 20
196.5005982735751
 30
0.0
 40
0.9
100
AcDbArc
 50
90.00000000000225
 51
270.0000000000181
  0
ARC
  5
AE62
330
9D17
100
AcDbEntity
  8
1
  6
Continuous
100
AcDbCircle
 10
50.46203668452545
 20
194.7005982735751
 30
0.0
 40
0.9
100
AcDbArc
 50
90.00000000000225
 51
269.9999999999855
  0
ARC
  5
AE63
330
9D17
100
AcDbEntity
  8
1
  6
Continuous
100
AcDbCircle
 10
60.66054000000002
 20
193.8064829999998
 30
0.0
 40
0.9
100
AcDbArc
 50
270.0000000000021
 51
89.99999999998552
  0
ARC
  5
AE64
330
9D17
100
AcDbEntity
  8
1
  6
Continuous
100
AcDbCircle
 10
60.66054000000002
 20
186.6064829999998
 30
0.0
 40
0.9
100
AcDbArc
 50
359.9074991069052
 51
90.0000000000181
  0
ARC
  5
AE65
330
9D17
100
AcDbEntity
  8
1
  6
Continuous
100
AcDbCircle
 10
60.66054000000002
 20
192.0064829999998
 30
0.0
 40
0.9
100
AcDbArc
 50
270.0000000000021
 51
89.99999999998552
  0
ARC
  5
AE66
330
9D17
100
AcDbEntity
  8
1
  6
Continuous
100
AcDbCircle
 10
60.66054000000002
 20
188.4064829999998
 30
0.0
 40
0.9
100
AcDbArc
 50
270.0000000000021
 51
89.99999999998552
  0
ARC
  5
AE67
330
9D17
100
AcDbEntity
  8
1
  6
Continuous
100
AcDbCircle
 10
60.66054000000002
 20
190.2064829999998
 30
0.0
 40
0.9
100
AcDbArc
 50
270.0000000000021
 51
89.99999999998552
  0
ARC
  5
AE68
330
9D17
100
AcDbEntity
  8
1
  6
Continuous
100
AcDbCircle
 10
60.66054000000002
 20
197.4064829999998
 30
0.0
 40
0.9
100
AcDbArc
 50
270.0000000000021
 51
89.99999999998552
  0
ARC
  5
AE69
330
9D17
100
AcDbEntity
  8
1
  6
Continuous
100
AcDbCircle
 10
60.66054000000002
 20
195.6064829999998
 30
0.0
 40
0.9
100
AcDbArc
 50
270.0000000000021
 51
90.0000000000362
  0
LINE
  5
AE6A
330
9D17
100
AcDbEntity
  8
1
  6
Continuous
100
AcDbLine
 10
354.4618366845023
 20
186.6005982735751
 30
0.0
 11
359.5641749999999
 21
186.60353
 31
0.0
  0
LINE
  5
AE6B
330
9D17
100
AcDbEntity
  8
1
  6
Continuous
100
AcDbLine
 10
364.6603399999999
 20
189.3064829999998
 30
0.0
 11
354.4618366845256
 21
188.4005982735751
 31
0.0
  0
LINE
  5
AE6C
330
9D17
100
AcDbEntity
  8
1
  6
Continuous
100
AcDbLine
 10
364.6603399999999
 20
187.5064829999998
 30
0.0
 11
354.4618366845023
 21
186.6005982735751
 31
0.0
  0
LINE
  5
AE6D
330
9D17
100
AcDbEntity
  8
1
  6
Continuous
100
AcDbLine
 10
364.6603399999999
 20
191.1064829999998
 30
0.0
 11
354.4618366845256
 21
190.2005982735751
 31
0.0
  0
LINE
  5
AE6E
330
9D17
100
AcDbEntity
  8
1
  6
Continuous
100
AcDbLine
 10
364.6603399999999
 20
192.9064829999998
 30
0.0
 11
354.4618366845255
 21
192.0005982735751
 31
0.0
  0
LINE
  5
AE6F
330
9D17
100
AcDbEntity
  8
1
  6
Continuous
100
AcDbLine
 10
364.6603399999999
 20
194.7064829999997
 30
0.0
 11
354.4618366845253
 21
193.8005982735751
 31
0.0
  0
LINE
  5
AE70
330
9D17
100
AcDbEntity
  8
1
  6
Continuous
100
AcDbLine
 10
364.6603399999999
 20
196.5064829999998
 30
0.0
 11
354.4618366845252
 21
195.6005982735751
 31
0.0
  0
LINE
  5
AE71
330
9D17
100
AcDbEntity
  8
1
  6
Continuous
100
AcDbLine
 10
364.6603399999999
 20
198.3064829999998
 30
0.0
 11
354.4618366845252
 21
197.4005982735751
 31
0.0
  0
LINE
  5
AE72
330
9D17
100
AcDbEntity
  8
1
  6
Continuous
100
AcDbLine
 10
353.5618489744792
 20
198.307983
 30
0.0
 11
356.7641749999999
 21
198.307983
 31
0.0
  0
ARC
  5
AE73
330
9D17
100
AcDbEntity
  8
1
  6
Continuous
100
AcDbCircle
 10
354.4618366845252
 20
194.7005982735751
 30
0.0
 40
0.9
100
AcDbArc
 50
90.00000000000225
 51
269.9999999999855
  0
ARC
  5
AE74
330
9D17
100
AcDbEntity
  8
1
  6
Continuous
100
AcDbCircle
 10
354.4618366845255
 20
187.5005982735751
 30
0.0
 40
0.9
100
AcDbArc
 50
90.00000000000225
 51
270.0000000000361
  0
ARC
  5
AE75
330
9D17
100
AcDbEntity
  8
1
  6
Continuous
100
AcDbCircle
 10
354.4618366845253
 20
192.9005982735751
 30
0.0
 40
0.9
100
AcDbArc
 50
90.00000000000225
 51
270.0000000000181
  0
ARC
  5
AE76
330
9D17
100
AcDbEntity
  8
1
  6
Continuous
100
AcDbCircle
 10
354.4618366845257
 20
189.3005982735751
 30
0.0
 40
0.9
100
AcDbArc
 50
90.00000000000225
 51
269.9999999999855
  0
ARC
  5
AE77
330
9D17
100
AcDbEntity
  8
1
  6
Continuous
100
AcDbCircle
 10
354.4618366845256
 20
191.1005982735751
 30
0.0
 40
0.9
100
AcDbArc
 50
90.00000000000225
 51
269.9999999999855
  0
ARC
  5
AE78
330
9D17
100
AcDbEntity
  8
1
  6
Continuous
100
AcDbCircle
 10
354.4643596646352
 20
198.3031185466568
 30
0.0
 40
0.9025237995488003
100
AcDbArc
 50
179.6911837717638
 51
269.8398310377601
  0
ARC
  5
AE79
330
9D17
100
AcDbEntity
  8
1
  6
Continuous
100
AcDbCircle
 10
354.4618366845252
 20
196.5005982735751
 30
0.0
 40
0.9
100
AcDbArc
 50
90.00000000000225
 51
270.0000000000181
  0
ARC
  5
AE7A
330
9D17
100
AcDbEntity
  8
1
  6
Continuous
100
AcDbCircle
 10
364.6603399999999
 20
195.6064829999998
 30
0.0
 40
0.9
100
AcDbArc
 50
270.0000000000021
 51
90.0000000000362
  0
ARC
  5
AE7B
330
9D17
100
AcDbEntity
  8
1
  6
Continuous
100
AcDbCircle
 10
364.6603399999999
 20
188.4064829999998
 30
0.0
 40
0.9
100
AcDbArc
 50
270.0000000000021
 51
89.99999999998552
  0
ARC
  5
AE7C
330
9D17
100
AcDbEntity
  8
1
  6
Continuous
100
AcDbCircle
 10
364.6603399999999
 20
186.6064829999998
 30
0.0
 40
0.9
100
AcDbArc
 50
359.9074991069052
 51
90.0000000000181
  0
LINE
  5
AE7D
330
9D17
100
AcDbEntity
  8
1
  6
Continuous
100
AcDbLine
 10
362.3641749999999
 20
186.60503
 30
0.0
 11
365.5603399987726
 21
186.60503
 31
0.0
  0
ARC
  5
AE7E
330
9D17
100
AcDbEntity
  8
1
  6
Continuous
100
AcDbCircle
 10
364.6603399999999
 20
193.8064829999998
 30
0.0
 40
0.9
100
AcDbArc
 50
270.0000000000021
 51
89.99999999998552
  0
ARC
  5
AE7F
330
9D17
100
AcDbEntity
  8
1
  6
Continuous
100
AcDbCircle
 10
364.6603399999999
 20
190.2064829999998
 30
0.0
 40
0.9
100
AcDbArc
 50
270.0000000000021
 51
89.99999999998552
  0
ARC
  5
AE80
330
9D17
100
AcDbEntity
  8
1
  6
Continuous
100
AcDbCircle
 10
364.6603399999999
 20
192.0064829999998
 30
0.0
 40
0.9
100
AcDbArc
 50
270.0000000000021
 51
89.99999999998552
  0
LINE
  5
AE81
330
9D17
100
AcDbEntity
  8
1
  6
Continuous
100
AcDbLine
 10
359.5641749999999
 20
198.307983
 30
0.0
 11
362.3641749999999
 21
198.307983
 31
0.0
  0
LINE
  5
AE82
330
9D17
100
AcDbEntity
  8
1
  6
Continuous
100
AcDbLine
 10
362.3641749999999
 20
198.3079826531639
 30
0.0
 11
364.6603399999999
 21
198.3079826531639
 31
0.0
  0
ARC
  5
AE83
330
9D17
100
AcDbEntity
  8
1
  6
Continuous
100
AcDbCircle
 10
364.6603399999999
 20
197.4064829999998
 30
0.0
 40
0.9
100
AcDbArc
 50
270.0000000000021
 51
89.99999999998552
  0
LINE
  5
AE84
330
9D17
100
AcDbEntity
  8
1
  6
Continuous
100
AcDbLine
 10
400.6603399999998
 20
198.3064829999998
 30
0.0
 11
390.4618366845252
 21
197.4005982735751
 31
0.0
  0
LINE
  5
AE85
330
9D17
100
AcDbEntity
  8
1
  6
Continuous
100
AcDbLine
 10
389.5618489744792
 20
198.307983
 30
0.0
 11
395.5641749999998
 21
198.307983
 31
0.0
  0
LINE
  5
AE86
330
9D17
100
AcDbEntity
  8
1
  6
Continuous
100
AcDbLine
 10
400.6603399999998
 20
196.5064829999998
 30
0.0
 11
390.4618366845252
 21
195.6005982735751
 31
0.0
  0
LINE
  5
AE87
330
9D17
100
AcDbEntity
  8
1
  6
Continuous
100
AcDbLine
 10
400.6603399999998
 20
194.7064829999997
 30
0.0
 11
390.4618366845253
 21
193.8005982735751
 31
0.0
  0
LINE
  5
AE88
330
9D17
100
AcDbEntity
  8
1
  6
Continuous
100
AcDbLine
 10
400.6603399999998
 20
192.9064829999998
 30
0.0
 11
390.4618366845255
 21
192.0005982735751
 31
0.0
  0
LINE
  5
AE89
330
9D17
100
AcDbEntity
  8
1
  6
Continuous
100
AcDbLine
 10
400.6603399999998
 20
191.1064829999998
 30
0.0
 11
390.4618366845257
 21
190.2005982735751
 31
0.0
  0
LINE
  5
AE8A
330
9D17
100
AcDbEntity
  8
1
  6
Continuous
100
AcDbLine
 10
400.6603399999998
 20
189.3064829999998
 30
0.0
 11
390.4618366845257
 21
188.4005982735751
 31
0.0
  0
LINE
  5
AE8B
330
9D17
100
AcDbEntity
  8
1
  6
Continuous
100
AcDbLine
 10
400.6603399999998
 20
187.5064829999998
 30
0.0
 11
390.4618366845023
 21
186.6005982735751
 31
0.0
  0
ARC
  5
AE8C
330
9D17
100
AcDbEntity
  8
1
  6
Continuous
100
AcDbCircle
 10
390.4618366845252
 20
194.7005982735751
 30
0.0
 40
0.9
100
AcDbArc
 50
90.00000000000225
 51
269.9999999999855
  0
ARC
  5
AE8D
330
9D17
100
AcDbEntity
  8
1
  6
Continuous
100
AcDbCircle
 10
390.4618366845255
 20
187.5005982735751
 30
0.0
 40
0.9
100
AcDbArc
 50
90.00000000000225
 51
270.0000000000361
  0
LINE
  5
AE8E
330
9D17
100
AcDbEntity
  8
1
  6
Continuous
100
AcDbLine
 10
390.4710327057471
 20
186.60353
 30
0.0
 11
392.7641749999999
 21
186.60353
 31
0.0
  0
ARC
  5
AE8F
330
9D17
100
AcDbEntity
  8
1
  6
Continuous
100
AcDbCircle
 10
390.4618366845253
 20
192.9005982735751
 30
0.0
 40
0.9
100
AcDbArc
 50
90.00000000000225
 51
270.0000000000181
  0
ARC
  5
AE90
330
9D17
100
AcDbEntity
  8
1
  6
Continuous
100
AcDbCircle
 10
390.4618366845257
 20
189.3005982735751
 30
0.0
 40
0.9
100
AcDbArc
 50
90.00000000000225
 51
269.9999999999855
  0
ARC
  5
AE91
330
9D17
100
AcDbEntity
  8
1
  6
Continuous
100
AcDbCircle
 10
390.4618366845257
 20
191.1005982735751
 30
0.0
 40
0.9
100
AcDbArc
 50
90.00000000000225
 51
269.9999999999855
  0
ARC
  5
AE92
330
9D17
100
AcDbEntity
  8
1
  6
Continuous
100
AcDbCircle
 10
390.4643596646351
 20
198.3031185466568
 30
0.0
 40
0.9025237995488003
100
AcDbArc
 50
179.6911837717638
 51
269.8398310377601
  0
ARC
  5
AE93
330
9D17
100
AcDbEntity
  8
1
  6
Continuous
100
AcDbCircle
 10
390.4618366845252
 20
196.5005982735751
 30
0.0
 40
0.9
100
AcDbArc
 50
90.00000000000225
 51
270.0000000000181
  0
ARC
  5
AE94
330
9D17
100
AcDbEntity
  8
1
  6
Continuous
100
AcDbCircle
 10
400.6603399999998
 20
195.6064829999998
 30
0.0
 40
0.9
100
AcDbArc
 50
270.0000000000021
 51
90.0000000000362
  0
ARC
  5
AE95
330
9D17
100
AcDbEntity
  8
1
  6
Continuous
100
AcDbCircle
 10
400.6603399999998
 20
188.4064829999998
 30
0.0
 40
0.9
100
AcDbArc
 50
270.0000000000021
 51
89.99999999998552
  0
LINE
  5
AE96
330
9D17
100
AcDbEntity
  8
1
  6
Continuous
100
AcDbLine
 10
395.5641749999998
 20
186.60503
 30
0.0
 11
401.5603399987726
 21
186.60503
 31
0.0
  0
ARC
  5
AE97
330
9D17
100
AcDbEntity
  8
1
  6
Continuous
100
AcDbCircle
 10
400.6603399999998
 20
186.6064829999998
 30
0.0
 40
0.9
100
AcDbArc
 50
359.9074991069052
 51
90.0000000000181
  0
ARC
  5
AE98
330
9D17
100
AcDbEntity
  8
1
  6
Continuous
100
AcDbCircle
 10
400.6603399999998
 20
193.8064829999998
 30
0.0
 40
0.9
100
AcDbArc
 50
270.0000000000021
 51
89.99999999998552
  0
ARC
  5
AE99
330
9D17
100
AcDbEntity
  8
1
  6
Continuous
100
AcDbCircle
 10
400.6603399999998
 20
190.2064829999998
 30
0.0
 40
0.9
100
AcDbArc
 50
270.0000000000021
 51
89.99999999998552
  0
ARC
  5
AE9A
330
9D17
100
AcDbEntity
  8
1
  6
Continuous
100
AcDbCircle
 10
400.6603399999998
 20
192.0064829999998
 30
0.0
 40
0.9
100
AcDbArc
 50
270.0000000000021
 51
89.99999999998552
  0
LINE
  5
AE9B
330
9D17
100
AcDbEntity
  8
1
  6
Continuous
100
AcDbLine
 10
398.3641749999999
 20
198.3079826531639
 30
0.0
 11
400.6603399999998
 21
198.3079826531639
 31
0.0
  0
ARC
  5
AE9C
330
9D17
100
AcDbEntity
  8
1
  6
Continuous
100
AcDbCircle
 10
400.6603399999998
 20
197.4064829999998
 30
0.0
 40
0.9
100
AcDbArc
 50
270.0000000000021
 51
89.99999999998552
  0
ARC
  5
AEAB
330
9D17
100
AcDbEntity
  8
1
  6
Continuous
100
AcDbCircle
 10
37.564375
 20
146.0265105282909
 30
0.0
 40
8.0
100
AcDbArc
 50
180.0
 51
0.0000099999977495
  0
LINE
  5
AF91
330
9D17
100
AcDbEntity
  8
1
  6
Continuous
100
AcDbLine
 10
201.537505
 20
182.6054819999999
 30
0.0
 11
214.2360669999999
 21
182.4144049999999
 31
0.0
  0
LINE
  5
AF95
330
9D17
100
AcDbEntity
  8
1
  6
Continuous
100
AcDbLine
 10
213.2090905784523
 20
198.1285464858068
 30
0.0
 11
202.9964316943678
 21
197.406672014479
 31
0.0
  0
LINE
  5
AF96
330
9D17
100
AcDbEntity
  8
1
  6
Continuous
100
AcDbLine
 10
213.0206045889296
 20
187.3301913781178
 30
0.0
 11
202.8079457048452
 21
186.6083169067899
 31
0.0
  0
LINE
  5
AF97
330
9D17
100
AcDbEntity
  8
1
  6
Continuous
100
AcDbLine
 10
213.0520189205167
 20
189.1299172293993
 30
0.0
 11
202.8393600364323
 21
188.4080427580714
 31
0.0
  0
LINE
  5
AF98
330
9D17
100
AcDbEntity
  8
1
  6
Continuous
100
AcDbLine
 10
213.0834332521039
 20
190.9296430806808
 30
0.0
 11
202.8707743680194
 21
190.2077686093529
 31
0.0
  0
LINE
  5
AF99
330
9D17
100
AcDbEntity
  8
1
  6
Continuous
100
AcDbLine
 10
213.114847583691
 20
192.7293689319623
 30
0.0
 11
202.9021886996065
 21
192.0074944606344
 31
0.0
  0
LINE
  5
AF9A
330
9D17
100
AcDbEntity
  8
1
  6
Continuous
100
AcDbLine
 10
213.1462619152781
 20
194.5290947832438
 30
0.0
 11
202.9336030311936
 21
193.8072203119159
 31
0.0
  0
LINE
  5
AF9B
330
9D17
100
AcDbEntity
  8
1
  6
Continuous
100
AcDbLine
 10
213.1776762468652
 20
196.3288206345253
 30
0.0
 11
202.9650173627807
 21
195.6069461631974
 31
0.0
  0
ARC
  5
AF9C
330
9D17
100
AcDbEntity
  8
1
  6
Continuous
100
AcDbCircle
 10
202.9493101969872
 20
194.7070832375566
 30
0.0
 40
0.9
100
AcDbArc
 50
89.00000000000151
 51
269.000000000021
  0
LINE
  5
AF9D
330
9D17
100
AcDbEntity
  8
1
  6
Continuous
100
AcDbLine
 10
201.597687
 20
186.6050299999999
 30
0.0
 11
201.537505
 21
182.6054819999999
 31
0.0
  0
ARC
  5
AF9E
330
9D17
100
AcDbEntity
  8
1
  6
Continuous
100
AcDbCircle
 10
202.8550672022258
 20
189.3079056837122
 30
0.0
 40
0.9
100
AcDbArc
 50
89.00000000000151
 51
268.9999999999884
  0
LINE
  5
AF9F
330
9D17
100
AcDbEntity
  8
1
  6
Continuous
100
AcDbLine
 10
205.147285
 20
186.5516179999998
 30
0.0
 11
205.1506301270002
 21
186.7739078755988
 31
0.0
  0
ARC
  5
AFA0
330
9D17
100
AcDbEntity
  8
1
  6
Continuous
100
AcDbCircle
 10
202.8236528706388
 20
187.5081798324306
 30
0.0
 40
0.9
100
AcDbArc
 50
89.00000000000151
 51
268.9999999999558
  0
LINE
  5
AFA1
330
9D17
100
AcDbEntity
  8
1
  6
Continuous
100
AcDbLine
 10
201.597687
 20
186.6050299999999
 30
0.0
 11
205.147285
 21
186.5516179999998
 31
0.0
  0
ARC
  5
AFA2
330
9D17
100
AcDbEntity
  8
1
  6
Continuous
100
AcDbCircle
 10
202.9178958654
 20
192.9073573862751
 30
0.0
 40
0.9
100
AcDbArc
 50
89.00000000000151
 51
268.9999999999705
  0
ARC
  5
AFA3
330
9D17
100
AcDbEntity
  8
1
  6
Continuous
100
AcDbCircle
 10
202.8864815338129
 20
191.1076315349937
 30
0.0
 40
0.9
100
AcDbArc
 50
89.00000000000151
 51
269.0000000000178
  0
ARC
  5
AFA5
330
9D17
100
AcDbEntity
  8
1
  6
Continuous
100
AcDbCircle
 10
204.3641749999999
 20
195.2157269999999
 30
0.0
 40
4.0
100
AcDbArc
 50
129.3953910000001
 51
180.0
  0
LINE
  5
AFA6
330
9D17
100
AcDbEntity
  8
1
  6
Continuous
100
AcDbLine
 10
201.811395
 20
202.3075309999999
 30
0.0
 11
201.7512129999999
 21
198.3079829999999
 31
0.0
  0
LINE
  5
AFA7
330
9D17
100
AcDbEntity
  8
1
  6
Continuous
100
AcDbLine
 10
201.7512129999999
 20
198.3079829999999
 30
0.0
 11
205.3145318826839
 21
198.2543655411094
 31
0.0
  0
ARC
  5
AFA8
330
9D17
100
AcDbEntity
  8
1
  6
Continuous
100
AcDbCircle
 10
203.0121388601614
 20
198.3065349401197
 30
0.0
 40
0.9
100
AcDbArc
 50
180.2535629418389
 51
268.9999999999721
  0
ARC
  5
AFA9
330
9D17
100
AcDbEntity
  8
1
  6
Continuous
100
AcDbCircle
 10
202.9807245285743
 20
196.5068090888381
 30
0.0
 40
0.9
100
AcDbArc
 50
89.00000000000151
 51
268.9999999999884
  0
LINE
  5
AFAA
330
9D17
100
AcDbEntity
  8
1
  6
Continuous
100
AcDbLine
 10
201.811395
 20
202.3075309999999
 30
0.0
 11
205.3609929999999
 21
202.2541189999999
 31
0.0
  0
ARC
  5
AFAC
330
9D17
100
AcDbEntity
  8
1
  6
Continuous
100
AcDbCircle
 10
211.864175
 20
194.2157269999999
 30
0.0
 40
3.0
100
AcDbArc
 50
0.0
 51
50.6355411853378
  0
ARC
  5
AFAD
330
9D17
100
AcDbEntity
  8
1
  6
Continuous
100
AcDbCircle
 10
213.1619690810716
 20
195.4289577088846
 30
0.0
 40
0.9
100
AcDbArc
 50
269.0000000000015
 51
88.99999999997215
  0
LINE
  5
AFAE
330
9D17
100
AcDbEntity
  8
1
  6
Continuous
100
AcDbLine
 10
214.2962489999999
 20
186.4139519999999
 30
0.0
 11
214.2360669999999
 21
182.4144049999999
 31
0.0
  0
LINE
  5
AFB6
330
9D17
100
AcDbEntity
  8
1
  6
Continuous
100
AcDbLine
 10
214.2481246556804
 20
183.2157269999998
 30
0.0
 11
215.0611749999999
 21
183.2157269999999
 31
0.0
  0
LINE
  5
AFB7
330
9D17
100
AcDbEntity
  8
1
  6
Continuous
100
AcDbLine
 10
214.8641749999999
 20
194.2157269999999
 30
0.0
 11
214.8641749999999
 21
187.515727
 31
0.0
  0
ARC
  5
AFB8
330
9D17
100
AcDbEntity
  8
1
  6
Continuous
100
AcDbCircle
 10
213.0677260863103
 20
190.02978015504
 30
0.0
 40
0.9
100
AcDbArc
 50
269.0000000000015
 51
89.00000000001778
  0
LINE
  5
AFB9
330
9D17
100
AcDbEntity
  8
1
  6
Continuous
100
AcDbLine
 10
210.746651
 20
186.4673629999998
 30
0.0
 11
214.2962489999999
 21
186.4139519999999
 31
0.0
  0
LINE
  5
AFBA
330
9D17
100
AcDbEntity
  8
1
  6
Continuous
100
AcDbLine
 10
210.746651
 20
186.4673629999998
 30
0.0
 11
210.7572268290115
 21
187.1702061438707
 31
0.0
  0
ARC
  5
AFBB
330
9D17
100
AcDbEntity
  8
1
  6
Continuous
100
AcDbCircle
 10
211.864175
 20
187.515727
 30
0.0
 40
3.0
100
AcDbArc
 50
323.836691004864
 51
0.0
  0
ARC
  5
AFBC
330
9D17
100
AcDbEntity
  8
1
  6
Continuous
100
AcDbCircle
 10
213.004897423136
 20
186.430328452477
 30
0.0
 40
0.9
100
AcDbArc
 50
359.3323716670341
 51
88.99999999998845
  0
ARC
  5
AFBD
330
9D17
100
AcDbEntity
  8
1
  6
Continuous
100
AcDbCircle
 10
213.0363117547232
 20
188.2300543037586
 30
0.0
 40
0.9
100
AcDbArc
 50
269.0000000000015
 51
88.99999999998845
  0
ARC
  5
AFBE
330
9D17
100
AcDbEntity
  8
1
  6
Continuous
100
AcDbCircle
 10
213.1305547494845
 20
193.6292318576031
 30
0.0
 40
0.9
100
AcDbArc
 50
269.0000000000015
 51
89.00000000000478
  0
ARC
  5
AFBF
330
9D17
100
AcDbEntity
  8
1
  6
Continuous
100
AcDbCircle
 10
213.0991404178974
 20
191.8295060063216
 30
0.0
 40
0.9
100
AcDbArc
 50
269.0000000000015
 51
88.99999999998682
  0
LINE
  5
AFC1
330
9D17
100
AcDbEntity
  8
1
  6
Continuous
100
AcDbLine
 10
214.5099569999999
 20
202.116453
 30
0.0
 11
214.4497749999999
 21
198.116906
 31
0.0
  0
LINE
  5
AFC2
330
9D17
100
AcDbEntity
  8
1
  6
Continuous
100
AcDbLine
 10
210.9133014680601
 20
198.1701195153936
 30
0.0
 11
214.4497749999999
 21
198.116906
 31
0.0
  0
ARC
  5
AFC3
330
9D17
100
AcDbEntity
  8
1
  6
Continuous
100
AcDbCircle
 10
213.1933834126587
 20
197.2286835601661
 30
0.0
 40
0.9
100
AcDbArc
 50
269.0000000000015
 51
89.0000000000194
  0
LINE
  5
AFC4
330
9D17
100
AcDbEntity
  8
1
  6
Continuous
100
AcDbLine
 10
210.9603589999999
 20
202.1698639999998
 30
0.0
 11
214.5099569999999
 21
202.116453
 31
0.0
  0
ENDSEC
  0
SECTION
  2
OBJECTS
  0
DICTIONARY
  5
9D05
330
0
100
AcDbDictionary
281
     1
  3
ACAD_CIP_PREVIOUS_PRODUCT_INFO
350
B087
  3
ACAD_COLOR
350
B069
  3
ACAD_DETAILVIEWSTYLE
350
B082
  3
ACAD_GROUP
350
9D06
  3
ACAD_LAYOUT
350
9D12
  3
ACAD_MATERIAL
350
B037
  3
ACAD_MLEADERSTYLE
350
B07E
  3
ACAD_MLINESTYLE
350
9D0F
  3
ACAD_PLOTSETTINGS
350
9D11
  3
ACAD_PLOTSTYLENAME
350
B035
  3
ACAD_SCALELIST
350
B06C
  3
ACAD_SECTIONVIEWSTYLE
350
B080
  3
ACAD_TABLESTYLE
350
B06A
  3
ACAD_VISUALSTYLE
350
B050
  3
ACDB_RECOMPOSE_DATA
350
B0A5
  3
AcDbVariableDictionary
350
B098
  3
DWGPROPS
350
B0A6
  0
DICTIONARY
  5
B088
330
9D09
100
AcDbDictionary
280
     1
281
     1
  3
ADSK_XREC_LAYER_RECONCILED
360
B089
  0
DICTIONARY
  5
B08A
330
9D1F
100
AcDbDictionary
280
     1
281
     1
  3
ADSK_XREC_LAYER_RECONCILED
360
B08B
  0
DICTIONARY
  5
B08C
330
9D20
100
AcDbDictionary
280
     1
281
     1
  3
ADSK_XREC_LAYER_RECONCILED
360
B08D
  0
DICTIONARY
  5
B08E
330
9D21
100
AcDbDictionary
280
     1
281
     1
  3
ADSK_XREC_LAYER_RECONCILED
360
B08F
  0
DICTIONARY
  5
B090
330
9D22
100
AcDbDictionary
280
     1
281
     1
  3
ADSK_XREC_LAYER_RECONCILED
360
B091
  0
DICTIONARY
  5
B092
330
9D23
100
AcDbDictionary
280
     1
281
     1
  3
ADSK_XREC_LAYER_RECONCILED
360
B093
  0
DICTIONARY
  5
B094
330
9D24
100
AcDbDictionary
280
     1
281
     1
  3
ADSK_XREC_LAYER_RECONCILED
360
B095
  0
DICTIONARY
  5
B096
330
9D25
100
AcDbDictionary
280
     1
281
     1
  3
ADSK_XREC_LAYER_RECONCILED
360
B097
  0
DICTIONARY
  5
9FB1
330
9D17
100
AcDbDictionary
281
     1
  3
ACAD_LAYOUTSELFREF
350
B031
  0
DICTIONARY
  5
9FAF
330
9D13
100
AcDbDictionary
281
     1
  3
ACAD_LAYOUTSELFREF
350
B030
  0
XRECORD
  5
B087
102
{ACAD_REACTORS
330
9D05
102
}
330
9D05
100
AcDbXrecord
280
     1
300
ACDLT
300
2014
300
ACDLT_F_S
  0
DICTIONARY
  5
B069
102
{ACAD_REACTORS
330
9D05
102
}
330
9D05
100
AcDbDictionary
281
     1
  0
DICTIONARY
  5
B082
102
{ACAD_REACTORS
330
9D05
102
}
330
9D05
100
AcDbDictionary
281
     1
  3
Imperial24
350
B083
  0
DICTIONARY
  5
9D06
102
{ACAD_REACTORS
330
9D05
102
}
330
9D05
100
AcDbDictionary
281
     1
  0
DICTIONARY
  5
9D12
102
{ACAD_REACTORS
330
9D05
102
}
330
9D05
100
AcDbDictionary
281
     1
  3
Model
350
B084
  3
レイアウト1
350
B085
  0
DICTIONARY
  5
B037
102
{ACAD_REACTORS
330
9D05
102
}
330
9D05
100
AcDbDictionary
281
     1
  3
ByBlock
350
B040
  3
ByLayer
350
B038
  3
Global
350
B048
  0
DICTIONARY
  5
B07E
102
{ACAD_REACTORS
330
9D05
102
}
330
9D05
100
AcDbDictionary
281
     1
  3
Standard
350
B07F
  0
DICTIONARY
  5
9D0F
102
{ACAD_REACTORS
330
9D05
102
}
330
9D05
100
AcDbDictionary
281
     1
  3
STANDARD
350
9D10
  0
DICTIONARY
  5
9D11
102
{ACAD_REACTORS
330
9D05
102
}
330
9D05
100
AcDbDictionary
281
     1
  0
ACDBDICTIONARYWDFLT
  5
B035
102
{ACAD_REACTORS
330
9D05
102
}
330
9D05
100
AcDbDictionary
281
     1
  3
Normal
350
B036
100
AcDbDictionaryWithDefault
340
B036
  0
DICTIONARY
  5
B06C
102
{ACAD_REACTORS
330
9D05
102
}
330
9D05
100
AcDbDictionary
281
     1
  3
A0
350
B06D
  3
A1
350
B06E
  3
A2
350
B06F
  3
A3
350
B070
  3
A4
350
B071
  3
A5
350
B072
  3
A6
350
B073
  3
A7
350
B074
  3
A8
350
B075
  3
A9
350
B076
  3
B0
350
B077
  3
B1
350
B078
  3
B2
350
B079
  3
B3
350
B07A
  3
B4
350
B07B
  3
B5
350
B07C
  3
B6
350
B07D
  0
DICTIONARY
  5
B080
102
{ACAD_REACTORS
330
9D05
102
}
330
9D05
100
AcDbDictionary
281
     1
  3
Imperial24
350
B081
  0
DICTIONARY
  5
B06A
102
{ACAD_REACTORS
330
9D05
102
}
330
9D05
100
AcDbDictionary
281
     1
  3
Standard
350
B06B
  0
DICTIONARY
  5
B050
102
{ACAD_REACTORS
330
9D05
102
}
330
9D05
100
AcDbDictionary
281
     1
  3
2dWireframe
350
B056
  3
Basic
350
B055
  3
Brighten
350
B05C
  3
ColorChange
350
B060
  3
Conceptual
350
B059
  3
Dim
350
B05B
  3
EdgeColorOff
350
B068
  3
Facepattern
350
B05F
  3
Flat
350
B051
  3
FlatWithEdges
350
B052
  3
Gouraud
350
B053
  3
GouraudWithEdges
350
B054
  3
Hidden
350
B058
  3
JitterOff
350
B066
  3
Linepattern
350
B05E
  3
OverhangOff
350
B067
  3
Realistic
350
B05A
  3
Shaded
350
B065
  3
Shaded with edges
350
B064
  3
Shades of Gray
350
B061
  3
Sketchy
350
B062
  3
Thicken
350
B05D
  3
Wireframe
350
B057
  3
X-Ray
350
B063
  0
XRECORD
  5
B0A5
102
{ACAD_REACTORS
330
9D05
102
}
330
9D05
100
AcDbXrecord
280
     1
 90
        1
330
B06B
  0
DICTIONARY
  5
B098
102
{ACAD_REACTORS
330
9D05
102
}
330
9D05
100
AcDbDictionary
281
     1
  3
CANNOSCALE
350
B09D
  3
CMLEADERSTYLE
350
B09A
  3
CTABLESTYLE
350
B099
  3
CVIEWDETAILSTYLE
350
B09B
  3
CVIEWSECTIONSTYLE
350
B09C
  3
DIMASSOC
350
B0A0
  3
INDEXCTL
350
B09F
  3
SORTENTS
350
B09E
  3
XCLIPFRAME
350
B0A1
  0
XRECORD
  5
B0A6
102
{ACAD_REACTORS
330
9D05
102
}
330
9D05
100
AcDbXrecord
280
     1
  1
DWGPROPS COOKIE
  2

  3

  4

  6

  7

  8
Yoshitsune
  9

300
=
301
=
302
=
303
=
304
=
305
=
306
=
307
=
308
=
309
=
 40
0.1116339351851852
 41
2451074.458335996
 42
2457192.598630753
  1

 90
        0
  0
XRECORD
  5
B089
102
{ACAD_REACTORS
330
B088
102
}
330
B088
100
AcDbXrecord
280
     1
290
     1
  0
XRECORD
  5
B08B
102
{ACAD_REACTORS
330
B08A
102
}
330
B08A
100
AcDbXrecord
280
     1
290
     1
  0
XRECORD
  5
B08D
102
{ACAD_REACTORS
330
B08C
102
}
330
B08C
100
AcDbXrecord
280
     1
290
     1
  0
XRECORD
  5
B08F
102
{ACAD_REACTORS
330
B08E
102
}
330
B08E
100
AcDbXrecord
280
     1
290
     1
  0
XRECORD
  5
B091
102
{ACAD_REACTORS
330
B090
102
}
330
B090
100
AcDbXrecord
280
     1
290
     1
  0
XRECORD
  5
B093
102
{ACAD_REACTORS
330
B092
102
}
330
B092
100
AcDbXrecord
280
     1
290
     1
  0
XRECORD
  5
B095
102
{ACAD_REACTORS
330
B094
102
}
330
B094
100
AcDbXrecord
280
     1
290
     1
  0
XRECORD
  5
B097
102
{ACAD_REACTORS
330
B096
102
}
330
B096
100
AcDbXrecord
280
     1
290
     1
  0
XRECORD
  5
B031
102
{ACAD_REACTORS
330
9FB1
102
}
330
9FB1
100
AcDbXrecord
280
     1
340
9D17
  0
XRECORD
  5
B030
102
{ACAD_REACTORS
330
9FAF
102
}
330
9FAF
100
AcDbXrecord
280
     1
340
9D13
  0
ACDBDETAILVIEWSTYLE
  5
B083
102
{ACAD_XDICTIONARY
360
B0DE
102
}
102
{ACAD_REACTORS
330
B082
102
}
330
B082
100
AcDbModelDocViewStyle
 70
     0
  3
Imperial24
290
     0
100
AcDbDetailViewStyle
 70
     0
 71
     0
 90
        3
 71
     1
340
9D0A
 40
0.24
340
0
 40
0.24
300

 40
0.36
280
     3
 71
     2
340
9D0E
 90
       25
 71
     3
340
9D0A
 40
0.24
 90
        1
 40
0.75
 90
        1
300
%<\AcVar ViewType \f "%tc1">% %<\AcVar ViewDetailId>%\PSCALE %<\AcVar ViewScale \f "%sn">%
 71
     4
340
9D0E
 90
       25
340
9D0E
 90
       25
280
     0
  0
LAYOUT
  5
B084
102
{ACAD_XDICTIONARY
360
B0E0
102
}
102
{ACAD_REACTORS
330
9D12
102
}
330
9D12
100
AcDbPlotSettings
  1

  2
Canon LBP9100C
  4

  6

 40
0.0
 41
0.0
 42
0.0
 43
0.0
 44
0.0
 45
0.0
 46
0.0
 47
0.0
 48
0.0
 49
0.0
140
0.0
141
0.0
142
1.0
143
1.0
 70
  1712
 72
     0
 73
     0
 74
     0
  7

 75
     0
147
1.0
148
0.0
149
0.0
100
AcDbLayout
  1
Model
 70
     1
 71
     0
 10
0.0
 20
0.0
 11
12.0
 21
9.0
 12
0.0
 22
0.0
 32
0.0
 14
0.0
 24
0.0
 34
0.0
 15
0.0
 25
0.0
 35
0.0
146
0.0
 13
0.0
 23
0.0
 33
0.0
 16
1.0
 26
0.0
 36
0.0
 17
0.0
 27
1.0
 37
0.0
 76
     0
330
9D17
331
B02F
  0
LAYOUT
  5
B085
102
{ACAD_XDICTIONARY
360
B0E2
102
}
102
{ACAD_REACTORS
330
9D12
102
}
330
9D12
100
AcDbPlotSettings
  1

  2
Canon LBP9100C
  4

  6

 40
0.0
 41
0.0
 42
0.0
 43
0.0
 44
0.0
 45
0.0
 46
0.0
 47
0.0
 48
0.0
 49
0.0
140
0.0
141
0.0
142
1.0
143
1.0
 70
   688
 72
     0
 73
     0
 74
     5
  7

 75
    16
147
1.0
148
0.0
149
0.0
100
AcDbLayout
  1
レイアウト1
 70
     0
 71
     1
 10
0.0
 20
0.0
 11
420.0
 21
297.0
 12
0.0
 22
0.0
 32
0.0
 14
1.000000000000000E+20
 24
1.000000000000000E+20
 34
1.000000000000000E+20
 15
-1.000000000000000E+20
 25
-1.000000000000000E+20
 35
-1.000000000000000E+20
146
0.0
 13
0.0
 23
0.0
 33
0.0
 16
1.0
 26
0.0
 36
0.0
 17
0.0
 27
1.0
 37
0.0
 76
     0
330
9D13
  0
MATERIAL
  5
B040
102
{ACAD_XDICTIONARY
360
B041
102
}
102
{ACAD_REACTORS
330
B037
102
}
330
B037
100
AcDbMaterial
  1
ByBlock
 72
     0
 43
0.0208333333333333
 43
0.0
 43
0.0
 43
0.0
 43
0.0
 43
0.0208333333333333
 43
0.0
 43
0.0
 43
0.0
 43
0.0
 43
1.0
 43
0.0
 43
0.0
 43
0.0
 43
0.0
 43
1.0
 77
     0
 47
0.0208333333333333
 47
0.0
 47
0.0
 47
0.0
 47
0.0
 47
0.0208333333333333
 47
0.0
 47
0.0
 47
0.0
 47
0.0
 47
1.0
 47
0.0
 47
0.0
 47
0.0
 47
0.0
 47
1.0
171
     0
 49
0.0208333333333333
 49
0.0
 49
0.0
 49
0.0
 49
0.0
 49
0.0208333333333333
 49
0.0
 49
0.0
 49
0.0
 49
0.0
 49
1.0
 49
0.0
 49
0.0
 49
0.0
 49
0.0
 49
1.0
175
     0
142
0.0208333333333333
142
0.0
142
0.0
142
0.0
142
0.0
142
0.0208333333333333
142
0.0
142
0.0
142
0.0
142
0.0
142
1.0
142
0.0
142
0.0
142
0.0
142
0.0
142
1.0
179
     0
144
0.0208333333333333
144
0.0
144
0.0
144
0.0
144
0.0
144
0.0208333333333333
144
0.0
144
0.0
144
0.0
144
0.0
144
1.0
144
0.0
144
0.0
144
0.0
144
0.0
144
1.0
147
0.0208333333333333
147
0.0
147
0.0
147
0.0
147
0.0
147
0.0208333333333333
147
0.0
147
0.0
147
0.0
147
0.0
147
1.0
147
0.0
147
0.0
147
0.0
147
0.0
147
1.0
  0
MATERIAL
  5
B038
102
{ACAD_XDICTIONARY
360
B039
102
}
102
{ACAD_REACTORS
330
B037
102
}
330
B037
100
AcDbMaterial
  1
ByLayer
 72
     0
 43
0.0208333333333333
 43
0.0
 43
0.0
 43
0.0
 43
0.0
 43
0.0208333333333333
 43
0.0
 43
0.0
 43
0.0
 43
0.0
 43
1.0
 43
0.0
 43
0.0
 43
0.0
 43
0.0
 43
1.0
 77
     0
 47
0.0208333333333333
 47
0.0
 47
0.0
 47
0.0
 47
0.0
 47
0.0208333333333333
 47
0.0
 47
0.0
 47
0.0
 47
0.0
 47
1.0
 47
0.0
 47
0.0
 47
0.0
 47
0.0
 47
1.0
171
     0
 49
0.0208333333333333
 49
0.0
 49
0.0
 49
0.0
 49
0.0
 49
0.0208333333333333
 49
0.0
 49
0.0
 49
0.0
 49
0.0
 49
1.0
 49
0.0
 49
0.0
 49
0.0
 49
0.0
 49
1.0
175
     0
142
0.0208333333333333
142
0.0
142
0.0
142
0.0
142
0.0
142
0.0208333333333333
142
0.0
142
0.0
142
0.0
142
0.0
142
1.0
142
0.0
142
0.0
142
0.0
142
0.0
142
1.0
179
     0
144
0.0208333333333333
144
0.0
144
0.0
144
0.0
144
0.0
144
0.0208333333333333
144
0.0
144
0.0
144
0.0
144
0.0
144
1.0
144
0.0
144
0.0
144
0.0
144
0.0
144
1.0
147
0.0208333333333333
147
0.0
147
0.0
147
0.0
147
0.0
147
0.0208333333333333
147
0.0
147
0.0
147
0.0
147
0.0
147
1.0
147
0.0
147
0.0
147
0.0
147
0.0
147
1.0
  0
MATERIAL
  5
B048
102
{ACAD_XDICTIONARY
360
B049
102
}
102
{ACAD_REACTORS
330
B037
102
}
330
B037
100
AcDbMaterial
  1
Global
 72
     0
 43
0.0208333333333333
 43
0.0
 43
0.0
 43
0.0
 43
0.0
 43
0.0208333333333333
 43
0.0
 43
0.0
 43
0.0
 43
0.0
 43
1.0
 43
0.0
 43
0.0
 43
0.0
 43
0.0
 43
1.0
 77
     0
 47
0.0208333333333333
 47
0.0
 47
0.0
 47
0.0
 47
0.0
 47
0.0208333333333333
 47
0.0
 47
0.0
 47
0.0
 47
0.0
 47
1.0
 47
0.0
 47
0.0
 47
0.0
 47
0.0
 47
1.0
171
     0
 49
0.0208333333333333
 49
0.0
 49
0.0
 49
0.0
 49
0.0
 49
0.0208333333333333
 49
0.0
 49
0.0
 49
0.0
 49
0.0
 49
1.0
 49
0.0
 49
0.0
 49
0.0
 49
0.0
 49
1.0
175
     0
142
0.0208333333333333
142
0.0
142
0.0
142
0.0
142
0.0
142
0.0208333333333333
142
0.0
142
0.0
142
0.0
142
0.0
142
1.0
142
0.0
142
0.0
142
0.0
142
0.0
142
1.0
179
     0
144
0.0208333333333333
144
0.0
144
0.0
144
0.0
144
0.0
144
0.0208333333333333
144
0.0
144
0.0
144
0.0
144
0.0
144
1.0
144
0.0
144
0.0
144
0.0
144
0.0
144
1.0
147
0.0208333333333333
147
0.0
147
0.0
147
0.0
147
0.0
147
0.0208333333333333
147
0.0
147
0.0
147
0.0
147
0.0
147
1.0
147
0.0
147
0.0
147
0.0
147
0.0
147
1.0
  0
MLEADERSTYLE
  5
B07F
102
{ACAD_REACTORS
330
B07E
102
}
330
B07E
100
AcDbMLeaderStyle
170
     2
171
     1
172
     0
 90
        2
 40
0.0
 41
0.0
173
     1
 91
-1056964608
340
9D0C
 92
       -2
290
     1
 42
0.09
291
     1
 43
0.36
  3
Standard
 44
0.18
300

342
9D0A
174
     1
178
     6
175
     1
176
     0
 93
-1056964608
 45
0.18
292
     0
297
     0
 46
0.18
 94
-1056964608
 47
1.0
 49
1.0
140
1.0
293
     1
141
0.0
294
     1
177
     0
142
1.0
295
     0
296
     0
143
0.125
1001
ACAD_MLEADERVER
1070
     2
  0
MLINESTYLE
  5
9D10
102
{ACAD_REACTORS
330
9D0F
102
}
330
9D0F
100
AcDbMlineStyle
  2
STANDARD
 70
     0
  3

 62
   256
 51
90.0
 52
90.0
 71
     2
 49
0.5
 62
   256
  6
BYLAYER
 49
-0.5
 62
   256
  6
BYLAYER
  0
ACDBPLACEHOLDER
  5
B036
102
{ACAD_REACTORS
330
B035
102
}
330
B035
  0
SCALE
  5
B06D
102
{ACAD_REACTORS
330
B06C
102
}
330
B06C
100
AcDbScale
 70
     0
300
1:1
140
1.0
141
1.0
290
     1
  0
SCALE
  5
B06E
102
{ACAD_REACTORS
330
B06C
102
}
330
B06C
100
AcDbScale
 70
     0
300
1/128" = 1'-0"
140
0.0078125
141
12.0
290
     0
  0
SCALE
  5
B06F
102
{ACAD_REACTORS
330
B06C
102
}
330
B06C
100
AcDbScale
 70
     0
300
1/64" = 1'-0"
140
0.015625
141
12.0
290
     0
  0
SCALE
  5
B070
102
{ACAD_REACTORS
330
B06C
102
}
330
B06C
100
AcDbScale
 70
     0
300
1/32" = 1'-0"
140
0.03125
141
12.0
290
     0
  0
SCALE
  5
B071
102
{ACAD_REACTORS
330
B06C
102
}
330
B06C
100
AcDbScale
 70
     0
300
1/16" = 1'-0"
140
0.0625
141
12.0
290
     0
  0
SCALE
  5
B072
102
{ACAD_REACTORS
330
B06C
102
}
330
B06C
100
AcDbScale
 70
     0
300
3/32" = 1'-0"
140
0.09375
141
12.0
290
     0
  0
SCALE
  5
B073
102
{ACAD_REACTORS
330
B06C
102
}
330
B06C
100
AcDbScale
 70
     0
300
1/8" = 1'-0"
140
0.125
141
12.0
290
     0
  0
SCALE
  5
B074
102
{ACAD_REACTORS
330
B06C
102
}
330
B06C
100
AcDbScale
 70
     0
300
3/16" = 1'-0"
140
0.1875
141
12.0
290
     0
  0
SCALE
  5
B075
102
{ACAD_REACTORS
330
B06C
102
}
330
B06C
100
AcDbScale
 70
     0
300
1/4" = 1'-0"
140
0.25
141
12.0
290
     0
  0
SCALE
  5
B076
102
{ACAD_REACTORS
330
B06C
102
}
330
B06C
100
AcDbScale
 70
     0
300
3/8" = 1'-0"
140
0.375
141
12.0
290
     0
  0
SCALE
  5
B077
102
{ACAD_REACTORS
330
B06C
102
}
330
B06C
100
AcDbScale
 70
     0
300
1/2" = 1'-0"
140
0.5
141
12.0
290
     0
  0
SCALE
  5
B078
102
{ACAD_REACTORS
330
B06C
102
}
330
B06C
100
AcDbScale
 70
     0
300
3/4" = 1'-0"
140
0.75
141
12.0
290
     0
  0
SCALE
  5
B079
102
{ACAD_REACTORS
330
B06C
102
}
330
B06C
100
AcDbScale
 70
     0
300
1" = 1'-0"
140
1.0
141
12.0
290
     0
  0
SCALE
  5
B07A
102
{ACAD_REACTORS
330
B06C
102
}
330
B06C
100
AcDbScale
 70
     0
300
1-1/2" = 1'-0"
140
1.5
141
12.0
290
     0
  0
SCALE
  5
B07B
102
{ACAD_REACTORS
330
B06C
102
}
330
B06C
100
AcDbScale
 70
     0
300
3" = 1'-0"
140
3.0
141
12.0
290
     0
  0
SCALE
  5
B07C
102
{ACAD_REACTORS
330
B06C
102
}
330
B06C
100
AcDbScale
 70
     0
300
6" = 1'-0"
140
6.0
141
12.0
290
     0
  0
SCALE
  5
B07D
102
{ACAD_REACTORS
330
B06C
102
}
330
B06C
100
AcDbScale
 70
     0
300
1'-0" = 1'-0"
140
12.0
141
12.0
290
     0
  0
ACDBSECTIONVIEWSTYLE
  5
B081
102
{ACAD_XDICTIONARY
360
B0DC
102
}
102
{ACAD_REACTORS
330
B080
102
}
330
B080
100
AcDbModelDocViewStyle
 70
     0
  3
Imperial24
290
     0
100
AcDbSectionViewStyle
 70
     0
 71
     0
 90
       78
 71
     1
340
9D0A
 40
0.24
340
0
340
0
 40
0.24
300
I, O, Q, S, X, Z
 40
0.48
 90
        3
 40
0.18
 90
        1
 71
     2
340
9D0E
 90
       25
340
9D0E
 90
       50
 40
0.24
 40
0.0
 40
0.24
 71
     3
340
9D0A
 40
0.24
 90
        1
 40
0.75
 90
        1
300
%<\AcVar ViewType \f "%tc1">% %<\AcVar ViewSectionStartId>%-%<\AcVar ViewSectionEndId>%\PSCALE %<\AcVar ViewScale \f "%sn">%
 71
     4
300
ANSI31
 40
1.0
 90
        0
290
     0
290
     0
 90
        6
 40
0.0
 40
1.570796326794896
 40
0.2617993877991494
 40
1.308996938995747
 40
-0.2617993877991494
 40
1.832595714594046
  0
TABLESTYLE
  5
B06B
102
{ACAD_XDICTIONARY
360
B0A3
102
}
102
{ACAD_REACTORS
330
B06A
102
}
330
B06A
100
AcDbTableStyle
  3
Standard
 70
     0
 71
     0
 40
0.06
 41
0.06
280
     0
281
     0
  7
STANDARD
140
0.18
170
     2
 62
     0
 63
     7
283
     0
274
    -2
284
     1
 64
     0
275
    -2
285
     1
 65
     0
276
    -2
286
     1
 66
     0
277
    -2
287
     1
 67
     0
278
    -2
288
     1
 68
     0
279
    -2
289
     1
 69
     0
  7
STANDARD
140
0.25
170
     5
 62
     0
 63
     7
283
     0
274
    -2
284
     1
 64
     0
275
    -2
285
     1
 65
     0
276
    -2
286
     1
 66
     0
277
    -2
287
     1
 67
     0
278
    -2
288
     1
 68
     0
279
    -2
289
     1
 69
     0
  7
STANDARD
140
0.18
170
     5
 62
     0
 63
     7
283
     0
274
    -2
284
     1
 64
     0
275
    -2
285
     1
 65
     0
276
    -2
286
     1
 66
     0
277
    -2
287
     1
 67
     0
278
    -2
288
     1
 68
     0
279
    -2
289
     1
 69
     0
  0
VISUALSTYLE
  5
B056
102
{ACAD_XDICTIONARY
360
B0B4
102
}
102
{ACAD_REACTORS
330
B050
102
}
330
B050
100
AcDbVisualStyle
  2
2dWireframe
 70
     4
 71
     0
 72
     2
 73
     0
 90
        0
 40
-0.6
 41
-30.0
 62
     5
 63
     7
 74
     1
 91
        4
 64
     7
 65
   257
 75
     1
175
     1
 42
1.0
 92
        0
 66
   257
 43
1.0
 76
     1
 77
     6
 78
     2
 67
     7
 79
     5
170
     0
171
     0
290
     0
174
     0
 93
        1
 44
0.0
173
     0
291
     0
 45
0.0
1001
ACAD
1000
AcDbSavedByObjectVersion
1070
     0
  0
VISUALSTYLE
  5
B055
102
{ACAD_XDICTIONARY
360
B0B2
102
}
102
{ACAD_REACTORS
330
B050
102
}
330
B050
100
AcDbVisualStyle
  2
Basic
 70
     7
 71
     1
 72
     0
 73
     1
 90
        0
 40
-0.6
 41
-30.0
 62
     5
 63
     7
 74
     0
 91
        4
 64
     7
 65
   257
 75
     1
175
     1
 42
1.0
 92
        8
 66
     7
 43
1.0
 76
     1
 77
     6
 78
     2
 67
     7
 79
     5
170
     0
171
     0
290
     0
174
     0
 93
        1
 44
0.0
173
     0
291
     1
 45
0.0
1001
ACAD
1000
AcDbSavedByObjectVersion
1070
     0
  0
VISUALSTYLE
  5
B05C
102
{ACAD_XDICTIONARY
360
B0C0
102
}
102
{ACAD_REACTORS
330
B050
102
}
330
B050
100
AcDbVisualStyle
  2
Brighten
 70
    12
 71
     2
 72
     2
 73
     0
 90
        0
 40
-0.6
 41
-30.0
 62
     5
 63
     7
 74
     1
 91
        4
 64
     7
 65
   257
 75
     1
175
     1
 42
1.0
 92
        8
 66
     7
 43
1.0
 76
     1
 77
     6
 78
     2
 67
     7
 79
     5
170
     0
171
     0
290
     0
174
     0
 93
        1
 44
50.0
173
     0
291
     1
 45
0.0
1001
ACAD
1000
AcDbSavedByObjectVersion
1070
     0
  0
VISUALSTYLE
  5
B060
102
{ACAD_XDICTIONARY
360
B0C8
102
}
102
{ACAD_REACTORS
330
B050
102
}
330
B050
100
AcDbVisualStyle
  2
ColorChange
 70
    16
 71
     2
 72
     2
 73
     3
 90
        0
 40
-0.6
 41
-30.0
 62
     5
 63
     8
 74
     1
 91
        4
 64
     7
 65
   257
 75
     1
175
     1
 42
1.0
 92
        8
 66
     8
 43
1.0
 76
     1
 77
     6
 78
     2
 67
     7
 79
     5
170
     0
171
     0
290
     0
174
     0
 93
        1
 44
0.0
173
     0
291
     1
 45
0.0
1001
ACAD
1000
AcDbSavedByObjectVersion
1070
     0
  0
VISUALSTYLE
  5
B059
102
{ACAD_XDICTIONARY
360
B0BA
102
}
102
{ACAD_REACTORS
330
B050
102
}
330
B050
100
AcDbVisualStyle
  2
Conceptual
 70
     9
 71
     3
 72
     2
 73
     0
 90
        0
 40
-0.6
 41
-30.0
 62
     5
 63
     7
 74
     2
 91
        2
 64
     7
 65
   257
 75
     1
175
     1
 42
179.0
 92
        8
 66
     7
 43
1.0
 76
     1
 77
     6
 78
     2
 67
     7
 79
     3
170
     0
171
     0
290
     0
174
     0
 93
        1
 44
0.0
173
     0
291
     0
 45
0.0
1001
ACAD
1000
AcDbSavedByObjectVersion
1070
     0
  0
VISUALSTYLE
  5
B05B
102
{ACAD_XDICTIONARY
360
B0BE
102
}
102
{ACAD_REACTORS
330
B050
102
}
330
B050
100
AcDbVisualStyle
  2
Dim
 70
    11
 71
     2
 72
     2
 73
     0
 90
        0
 40
-0.6
 41
-30.0
 62
     5
 63
     7
 74
     1
 91
        4
 64
     7
 65
   257
 75
     1
175
     1
 42
1.0
 92
        8
 66
     7
 43
1.0
 76
     1
 77
     6
 78
     2
 67
     7
 79
     5
170
     0
171
     0
290
     0
174
     0
 93
        1
 44
-50.0
173
     0
291
     1
 45
0.0
1001
ACAD
1000
AcDbSavedByObjectVersion
1070
     0
  0
VISUALSTYLE
  5
B068
102
{ACAD_XDICTIONARY
360
B0D8
102
}
102
{ACAD_REACTORS
330
B050
102
}
330
B050
100
AcDbVisualStyle
  2
EdgeColorOff
 70
    22
 71
     2
 72
     2
 73
     0
 90
        0
 40
-0.6
 41
-30.0
 62
     5
 63
     7
 74
     1
 91
        4
 64
     7
 65
   257
 75
     1
175
     1
 42
1.0
 92
        8
 66
     7
 43
1.0
 76
     1
 77
     6
 78
     2
 67
     7
 79
     5
170
     0
171
     0
290
     0
174
     0
 93
        1
 44
0.0
173
     0
291
     1
 45
0.0
1001
ACAD
1000
AcDbSavedByObjectVersion
1070
     0
  0
VISUALSTYLE
  5
B05F
102
{ACAD_XDICTIONARY
360
B0C6
102
}
102
{ACAD_REACTORS
330
B050
102
}
330
B050
100
AcDbVisualStyle
  2
Facepattern
 70
    15
 71
     2
 72
     2
 73
     0
 90
        0
 40
-0.6
 41
-30.0
 62
     5
 63
     7
 74
     1
 91
        4
 64
     7
 65
   257
 75
     1
175
     1
 42
1.0
 92
        8
 66
     7
 43
1.0
 76
     1
 77
     6
 78
     2
 67
     7
 79
     5
170
     0
171
     0
290
     0
174
     0
 93
        1
 44
0.0
173
     0
291
     1
 45
0.0
1001
ACAD
1000
AcDbSavedByObjectVersion
1070
     0
  0
VISUALSTYLE
  5
B051
102
{ACAD_XDICTIONARY
360
B0AA
102
}
102
{ACAD_REACTORS
330
B050
102
}
330
B050
100
AcDbVisualStyle
  2
Flat
 70
     0
 71
     2
 72
     1
 73
     1
 90
        2
 40
-0.6
 41
30.0
 62
     5
 63
     7
 74
     0
 91
        0
 64
     7
 65
   257
 75
     1
175
     1
 42
1.0
 92
        8
 66
     7
 43
1.0
 76
     1
 77
     6
 78
     2
 67
     7
 79
     5
170
     0
171
     0
290
     0
174
     0
 93
       13
 44
0.0
173
     0
291
     1
 45
0.0
1001
ACAD
1000
AcDbSavedByObjectVersion
1070
     0
  0
VISUALSTYLE
  5
B052
102
{ACAD_XDICTIONARY
360
B0AC
102
}
102
{ACAD_REACTORS
330
B050
102
}
330
B050
100
AcDbVisualStyle
  2
FlatWithEdges
 70
     1
 71
     2
 72
     1
 73
     1
 90
        2
 40
-0.6
 41
30.0
 62
     5
 63
     7
 74
     1
 91
        0
 64
     7
 65
   257
 75
     1
175
     1
 42
1.0
 92
        0
 66
   257
 43
1.0
 76
     1
 77
     6
 78
     2
 67
     7
 79
     5
170
     0
171
     0
290
     0
174
     0
 93
       13
 44
0.0
173
     0
291
     1
 45
0.0
1001
ACAD
1000
AcDbSavedByObjectVersion
1070
     0
  0
VISUALSTYLE
  5
B053
102
{ACAD_XDICTIONARY
360
B0AE
102
}
102
{ACAD_REACTORS
330
B050
102
}
330
B050
100
AcDbVisualStyle
  2
Gouraud
 70
     2
 71
     2
 72
     2
 73
     1
 90
        2
 40
-0.6
 41
30.0
 62
     5
 63
     7
 74
     0
 91
        0
 64
     7
 65
   257
 75
     1
175
     1
 42
1.0
 92
        0
 66
     7
 43
1.0
 76
     1
 77
     6
 78
     2
 67
     7
 79
     5
170
     0
171
     0
290
     0
174
     0
 93
       13
 44
0.0
173
     0
291
     1
 45
0.0
1001
ACAD
1000
AcDbSavedByObjectVersion
1070
     0
  0
VISUALSTYLE
  5
B054
102
{ACAD_XDICTIONARY
360
B0B0
102
}
102
{ACAD_REACTORS
330
B050
102
}
330
B050
100
AcDbVisualStyle
  2
GouraudWithEdges
 70
     3
 71
     2
 72
     2
 73
     1
 90
        2
 40
-0.6
 41
30.0
 62
     5
 63
     7
 74
     1
 91
        0
 64
     7
 65
   257
 75
     1
175
     1
 42
1.0
 92
        0
 66
   257
 43
1.0
 76
     1
 77
     6
 78
     2
 67
     7
 79
     5
170
     0
171
     0
290
     0
174
     0
 93
       13
 44
0.0
173
     0
291
     1
 45
0.0
1001
ACAD
1000
AcDbSavedByObjectVersion
1070
     0
  0
VISUALSTYLE
  5
B058
102
{ACAD_XDICTIONARY
360
B0B8
102
}
102
{ACAD_REACTORS
330
B050
102
}
330
B050
100
AcDbVisualStyle
  2
Hidden
 70
     6
 71
     1
 72
     2
 73
     2
 90
        0
 40
-0.6
 41
-30.0
 62
     5
 63
     7
 74
     2
 91
        2
 64
     7
 65
   257
 75
     2
175
     1
 42
40.0
 92
        0
 66
   257
 43
1.0
 76
     1
 77
     6
 78
     2
 67
     7
 79
     3
170
     0
171
     0
290
     0
174
     0
 93
        1
 44
0.0
173
     0
291
     0
 45
0.0
1001
ACAD
1000
AcDbSavedByObjectVersion
1070
     0
  0
VISUALSTYLE
  5
B066
102
{ACAD_XDICTIONARY
360
B0D4
102
}
102
{ACAD_REACTORS
330
B050
102
}
330
B050
100
AcDbVisualStyle
  2
JitterOff
 70
    20
 71
     2
 72
     2
 73
     0
 90
        0
 40
-0.6
 41
-30.0
 62
     5
 63
     7
 74
     1
 91
        4
 64
     7
 65
   257
 75
     1
175
     1
 42
1.0
 92
       10
 66
     7
 43
1.0
 76
     1
 77
     6
 78
     2
 67
     7
 79
     5
170
     0
171
     0
290
     0
174
     0
 93
        1
 44
0.0
173
     0
291
     1
 45
0.0
1001
ACAD
1000
AcDbSavedByObjectVersion
1070
     0
  0
VISUALSTYLE
  5
B05E
102
{ACAD_XDICTIONARY
360
B0C4
102
}
102
{ACAD_REACTORS
330
B050
102
}
330
B050
100
AcDbVisualStyle
  2
Linepattern
 70
    14
 71
     2
 72
     2
 73
     0
 90
        0
 40
-0.6
 41
-30.0
 62
     5
 63
     7
 74
     1
 91
        4
 64
     7
 65
   257
 75
     7
175
     7
 42
1.0
 92
        8
 66
     7
 43
1.0
 76
     1
 77
     6
 78
     2
 67
     7
 79
     5
170
     0
171
     0
290
     0
174
     0
 93
        1
 44
0.0
173
     0
291
     1
 45
0.0
1001
ACAD
1000
AcDbSavedByObjectVersion
1070
     0
  0
VISUALSTYLE
  5
B067
102
{ACAD_XDICTIONARY
360
B0D6
102
}
102
{ACAD_REACTORS
330
B050
102
}
330
B050
100
AcDbVisualStyle
  2
OverhangOff
 70
    21
 71
     2
 72
     2
 73
     0
 90
        0
 40
-0.6
 41
-30.0
 62
     5
 63
     7
 74
     1
 91
        4
 64
     7
 65
   257
 75
     1
175
     1
 42
1.0
 92
        9
 66
     7
 43
1.0
 76
     1
 77
     6
 78
     2
 67
     7
 79
     5
170
     0
171
     0
290
     0
174
     0
 93
        1
 44
0.0
173
     0
291
     1
 45
0.0
1001
ACAD
1000
AcDbSavedByObjectVersion
1070
     0
  0
VISUALSTYLE
  5
B05A
102
{ACAD_XDICTIONARY
360
B0BC
102
}
102
{ACAD_REACTORS
330
B050
102
}
330
B050
100
AcDbVisualStyle
  2
Realistic
 70
     8
 71
     2
 72
     3
 73
     0
 90
        2
 40
-0.6
 41
30.0
 62
     5
 63
     7
 74
     0
 91
        0
 64
     7
 65
   257
 75
     1
175
     1
 42
1.0
 92
        8
 66
   257
 43
1.0
 76
     1
 77
     6
 78
     2
 67
     7
 79
     3
170
     0
171
     0
290
     0
174
     0
 93
       13
 44
0.0
173
     0
291
     0
 45
0.0
1001
ACAD
1000
AcDbSavedByObjectVersion
1070
     0
  0
VISUALSTYLE
  5
B065
102
{ACAD_XDICTIONARY
360
B0D2
102
}
102
{ACAD_REACTORS
330
B050
102
}
330
B050
100
AcDbVisualStyle
  2
Shaded
 70
    27
 71
     2
 72
     2
 73
     1
 90
        2
 40
-0.6
 41
30.0
 62
     5
 63
     7
 74
     0
 91
        4
 64
     7
 65
   257
 75
     1
175
     1
 42
1.0
 92
        8
 66
   257
 43
1.0
 76
     1
 77
     6
 78
     2
 67
     8
 79
     3
170
     0
171
     0
290
     0
174
     0
 93
        5
 44
0.0
173
     0
291
     0
 45
0.0
1001
ACAD
1000
AcDbSavedByObjectVersion
1070
     0
  0
VISUALSTYLE
  5
B064
102
{ACAD_XDICTIONARY
360
B0D0
102
}
102
{ACAD_REACTORS
330
B050
102
}
330
B050
100
AcDbVisualStyle
  2
Shaded with edges
 70
    26
 71
     2
 72
     2
 73
     1
 90
        2
 40
-0.6
 41
30.0
 62
     5
 63
     7
 74
     1
 91
       10
 64
     7
 65
   257
 75
     2
175
     1
 42
1.0
 92
        8
 66
   257
 43
1.0
 76
     1
 77
     6
 78
     2
 67
     7
 79
     3
170
     0
171
     0
290
     0
174
     0
 93
        5
 44
0.0
173
     0
291
     0
 45
0.0
1001
ACAD
1000
AcDbSavedByObjectVersion
1070
     0
  0
VISUALSTYLE
  5
B061
102
{ACAD_XDICTIONARY
360
B0CA
102
}
102
{ACAD_REACTORS
330
B050
102
}
330
B050
100
AcDbVisualStyle
  2
Shades of Gray
 70
    23
 71
     2
 72
     2
 73
     3
 90
        0
 40
-0.6
 41
-30.0
 62
     5
 63
     7
 74
     2
 91
        2
 64
     7
 65
     7
 75
     1
175
     1
 42
40.0
 92
        8
 66
     7
 43
1.0
 76
     1
 77
     6
 78
     2
 67
     7
 79
     3
170
     0
171
     0
290
     0
174
     0
 93
        1
 44
0.0
173
     0
291
     0
 45
0.0
1001
ACAD
1000
AcDbSavedByObjectVersion
1070
     0
  0
VISUALSTYLE
  5
B062
102
{ACAD_XDICTIONARY
360
B0CC
102
}
102
{ACAD_REACTORS
330
B050
102
}
330
B050
100
AcDbVisualStyle
  2
Sketchy
 70
    24
 71
     1
 72
     2
 73
     2
 90
        0
 40
-0.6
 41
-30.0
 62
     5
 63
     7
 74
     2
 91
        2
 64
     7
 65
     7
 75
     1
175
     1
 42
40.0
 92
       11
 66
     7
 43
1.0
 76
     1
 77
     6
 78
     2
 67
     7
 79
     6
170
     0
171
     0
290
     0
174
     0
 93
        1
 44
0.0
173
     0
291
     0
 45
0.0
1001
ACAD
1000
AcDbSavedByObjectVersion
1070
     0
  0
VISUALSTYLE
  5
B05D
102
{ACAD_XDICTIONARY
360
B0C2
102
}
102
{ACAD_REACTORS
330
B050
102
}
330
B050
100
AcDbVisualStyle
  2
Thicken
 70
    13
 71
     2
 72
     2
 73
     0
 90
        0
 40
-0.6
 41
-30.0
 62
     5
 63
     7
 74
     1
 91
        4
 64
     7
 65
   257
 75
     1
175
     1
 42
1.0
 92
       12
 66
     7
 43
1.0
 76
     1
 77
     6
 78
     2
 67
     7
 79
     5
170
     0
171
     0
290
     0
174
     0
 93
        1
 44
0.0
173
     0
291
     1
 45
0.0
1001
ACAD
1000
AcDbSavedByObjectVersion
1070
     0
  0
VISUALSTYLE
  5
B057
102
{ACAD_XDICTIONARY
360
B0B6
102
}
102
{ACAD_REACTORS
330
B050
102
}
330
B050
100
AcDbVisualStyle
  2
Wireframe
 70
     5
 71
     0
 72
     2
 73
     0
 90
        0
 40
-0.6
 41
-30.0
 62
     5
 63
     7
 74
     1
 91
        4
 64
     7
 65
   257
 75
     1
175
     1
 42
1.0
 92
        0
 66
   257
 43
1.0
 76
     1
 77
     6
 78
     2
 67
     7
 79
     3
170
     0
171
     0
290
     0
174
     0
 93
        1
 44
0.0
173
     0
291
     0
 45
0.0
1001
ACAD
1000
AcDbSavedByObjectVersion
1070
     0
  0
VISUALSTYLE
  5
B063
102
{ACAD_XDICTIONARY
360
B0CE
102
}
102
{ACAD_REACTORS
330
B050
102
}
330
B050
100
AcDbVisualStyle
  2
X-Ray
 70
    25
 71
     2
 72
     2
 73
     1
 90
        1
 40
0.5
 41
-30.0
 62
     5
 63
     7
 74
     1
 91
        0
 64
     7
 65
   257
 75
     1
175
     1
 42
1.0
 92
        8
 66
     7
 43
1.0
 76
     1
 77
     6
 78
     2
 67
     7
 79
     3
170
     0
171
     0
290
     0
174
     0
 93
       13
 44
0.0
173
     0
291
     0
 45
0.0
1001
ACAD
1000
AcDbSavedByObjectVersion
1070
     0
  0
DICTIONARYVAR
  5
B09D
102
{ACAD_REACTORS
330
B098
102
}
330
B098
100
DictionaryVariables
280
     0
  1
1:1
  0
DICTIONARYVAR
  5
B09A
102
{ACAD_REACTORS
330
B098
102
}
330
B098
100
DictionaryVariables
280
     0
  1
STANDARD
  0
DICTIONARYVAR
  5
B099
102
{ACAD_REACTORS
330
B098
102
}
330
B098
100
DictionaryVariables
280
     0
  1
STANDARD
  0
DICTIONARYVAR
  5
B09B
102
{ACAD_REACTORS
330
B098
102
}
330
B098
100
DictionaryVariables
280
     0
  1
Imperial24
  0
DICTIONARYVAR
  5
B09C
102
{ACAD_REACTORS
330
B098
102
}
330
B098
100
DictionaryVariables
280
     0
  1
Imperial24
  0
DICTIONARYVAR
  5
B0A0
102
{ACAD_REACTORS
330
B098
102
}
330
B098
100
DictionaryVariables
280
     0
  1
1
  0
DICTIONARYVAR
  5
B09F
102
{ACAD_REACTORS
330
B098
102
}
330
B098
100
DictionaryVariables
280
     0
  1
0
  0
DICTIONARYVAR
  5
B09E
102
{ACAD_REACTORS
330
B098
102
}
330
B098
100
DictionaryVariables
280
     0
  1
127
  0
DICTIONARYVAR
  5
B0A1
102
{ACAD_REACTORS
330
B098
102
}
330
B098
100
DictionaryVariables
280
     0
  1
2
  0
DICTIONARY
  5
B0DE
330
B083
100
AcDbDictionary
280
     1
281
     1
  3
ACAD_XREC_ROUNDTRIP
360
B0DF
  0
DICTIONARY
  5
B0E0
330
B084
100
AcDbDictionary
280
     1
281
     1
  3
ACAD_XREC_ROUNDTRIP
360
B0E1
  0
DICTIONARY
  5
B0E2
330
B085
100
AcDbDictionary
280
     1
281
     1
  3
ACAD_XREC_ROUNDTRIP
360
B0E3
  0
DICTIONARY
  5
B041
330
B040
100
AcDbDictionary
280
     1
281
     1
  3
ACAD_XREC_ROUNDTRIP
360
B0A8
  3
BUMPTILE
360
B043
  3
DIFFUSETILE
360
B042
  3
OPACITYTILE
360
B046
  3
REFLECTIONTILE
360
B045
  3
REFRACTIONTILE
360
B047
  3
SPECULARTILE
360
B044
  0
DICTIONARY
  5
B039
330
B038
100
AcDbDictionary
280
     1
281
     1
  3
ACAD_XREC_ROUNDTRIP
360
B0A7
  3
BUMPTILE
360
B03B
  3
DIFFUSETILE
360
B03A
  3
OPACITYTILE
360
B03E
  3
REFLECTIONTILE
360
B03D
  3
REFRACTIONTILE
360
B03F
  3
SPECULARTILE
360
B03C
  0
DICTIONARY
  5
B049
330
B048
100
AcDbDictionary
280
     1
281
     1
  3
ACAD_XREC_ROUNDTRIP
360
B0A9
  3
BUMPTILE
360
B04B
  3
DIFFUSETILE
360
B04A
  3
OPACITYTILE
360
B04E
  3
REFLECTIONTILE
360
B04D
  3
REFRACTIONTILE
360
B04F
  3
SPECULARTILE
360
B04C
  0
DICTIONARY
  5
B0DC
330
B081
100
AcDbDictionary
280
     1
281
     1
  3
ACAD_XREC_ROUNDTRIP
360
B0DD
  0
DICTIONARY
  5
B0A3
330
B06B
100
AcDbDictionary
280
     1
281
     1
  3
ACAD_ROUNDTRIP_2008_TABLESTYLE_CELLSTYLEMAP
360
B0A4
  3
ACAD_XREC_ROUNDTRIP
360
B0DA
  0
DICTIONARY
  5
B0B4
330
B056
100
AcDbDictionary
280
     1
281
     1
  3
ACAD_XREC_ROUNDTRIP
360
B0B5
  0
DICTIONARY
  5
B0B2
330
B055
100
AcDbDictionary
280
     1
281
     1
  3
ACAD_XREC_ROUNDTRIP
360
B0B3
  0
DICTIONARY
  5
B0C0
330
B05C
100
AcDbDictionary
280
     1
281
     1
  3
ACAD_XREC_ROUNDTRIP
360
B0C1
  0
DICTIONARY
  5
B0C8
330
B060
100
AcDbDictionary
280
     1
281
     1
  3
ACAD_XREC_ROUNDTRIP
360
B0C9
  0
DICTIONARY
  5
B0BA
330
B059
100
AcDbDictionary
280
     1
281
     1
  3
ACAD_XREC_ROUNDTRIP
360
B0BB
  0
DICTIONARY
  5
B0BE
330
B05B
100
AcDbDictionary
280
     1
281
     1
  3
ACAD_XREC_ROUNDTRIP
360
B0BF
  0
DICTIONARY
  5
B0D8
330
B068
100
AcDbDictionary
280
     1
281
     1
  3
ACAD_XREC_ROUNDTRIP
360
B0D9
  0
DICTIONARY
  5
B0C6
330
B05F
100
AcDbDictionary
280
     1
281
     1
  3
ACAD_XREC_ROUNDTRIP
360
B0C7
  0
DICTIONARY
  5
B0AA
330
B051
100
AcDbDictionary
280
     1
281
     1
  3
ACAD_XREC_ROUNDTRIP
360
B0AB
  0
DICTIONARY
  5
B0AC
330
B052
100
AcDbDictionary
280
     1
281
     1
  3
ACAD_XREC_ROUNDTRIP
360
B0AD
  0
DICTIONARY
  5
B0AE
330
B053
100
AcDbDictionary
280
     1
281
     1
  3
ACAD_XREC_ROUNDTRIP
360
B0AF
  0
DICTIONARY
  5
B0B0
330
B054
100
AcDbDictionary
280
     1
281
     1
  3
ACAD_XREC_ROUNDTRIP
360
B0B1
  0
DICTIONARY
  5
B0B8
330
B058
100
AcDbDictionary
280
     1
281
     1
  3
ACAD_XREC_ROUNDTRIP
360
B0B9
  0
DICTIONARY
  5
B0D4
330
B066
100
AcDbDictionary
280
     1
281
     1
  3
ACAD_XREC_ROUNDTRIP
360
B0D5
  0
DICTIONARY
  5
B0C4
330
B05E
100
AcDbDictionary
280
     1
281
     1
  3
ACAD_XREC_ROUNDTRIP
360
B0C5
  0
DICTIONARY
  5
B0D6
330
B067
100
AcDbDictionary
280
     1
281
     1
  3
ACAD_XREC_ROUNDTRIP
360
B0D7
  0
DICTIONARY
  5
B0BC
330
B05A
100
AcDbDictionary
280
     1
281
     1
  3
ACAD_XREC_ROUNDTRIP
360
B0BD
  0
DICTIONARY
  5
B0D2
330
B065
100
AcDbDictionary
280
     1
281
     1
  3
ACAD_XREC_ROUNDTRIP
360
B0D3
  0
DICTIONARY
  5
B0D0
330
B064
100
AcDbDictionary
280
     1
281
     1
  3
ACAD_XREC_ROUNDTRIP
360
B0D1
  0
DICTIONARY
  5
B0CA
330
B061
100
AcDbDictionary
280
     1
281
     1
  3
ACAD_XREC_ROUNDTRIP
360
B0CB
  0
DICTIONARY
  5
B0CC
330
B062
100
AcDbDictionary
280
     1
281
     1
  3
ACAD_XREC_ROUNDTRIP
360
B0CD
  0
DICTIONARY
  5
B0C2
330
B05D
100
AcDbDictionary
280
     1
281
     1
  3
ACAD_XREC_ROUNDTRIP
360
B0C3
  0
DICTIONARY
  5
B0B6
330
B057
100
AcDbDictionary
280
     1
281
     1
  3
ACAD_XREC_ROUNDTRIP
360
B0B7
  0
DICTIONARY
  5
B0CE
330
B063
100
AcDbDictionary
280
     1
281
     1
  3
ACAD_XREC_ROUNDTRIP
360
B0CF
  0
XRECORD
  5
B0DF
102
{ACAD_REACTORS
330
B0DE
102
}
330
B0DE
100
AcDbXrecord
280
     1
102
DISPLAYNAME
  1
Imperial24
102
FLAGS
 90
        0
  0
XRECORD
  5
B0E1
102
{ACAD_REACTORS
330
B0E0
102
}
330
B0E0
100
AcDbXrecord
280
     1
102
SHADEPLOT
 70
     0
102
SHADEPLOTRESLEVEL
 70
     2
102
SHADEPLOTCUSTOMDPI
 70
   300
  0
XRECORD
  5
B0E3
102
{ACAD_REACTORS
330
B0E2
102
}
330
B0E2
100
AcDbXrecord
280
     1
102
SHADEPLOT
 70
     0
102
SHADEPLOTRESLEVEL
 70
     2
102
SHADEPLOTCUSTOMDPI
 70
   300
  0
XRECORD
  5
B0A8
102
{ACAD_REACTORS
330
B041
102
}
330
B041
100
AcDbXrecord
280
     1
102
MATERIAL
148
0.0
149
0.0
149
0.0
 93
        0
 94
      127
282
     0
 72
     0
 77
     0
171
     0
175
     0
179
     0
273
     0
  0
XRECORD
  5
B043
102
{ACAD_REACTORS
330
B041
102
}
330
B041
100
AcDbXrecord
280
     1
270
     1
271
     1
  0
XRECORD
  5
B042
102
{ACAD_REACTORS
330
B041
102
}
330
B041
100
AcDbXrecord
280
     1
270
     1
271
     1
  0
XRECORD
  5
B046
102
{ACAD_REACTORS
330
B041
102
}
330
B041
100
AcDbXrecord
280
     1
270
     1
271
     1
  0
XRECORD
  5
B045
102
{ACAD_REACTORS
330
B041
102
}
330
B041
100
AcDbXrecord
280
     1
270
     1
271
     1
  0
XRECORD
  5
B047
102
{ACAD_REACTORS
330
B041
102
}
330
B041
100
AcDbXrecord
280
     1
270
     1
271
     1
  0
XRECORD
  5
B044
102
{ACAD_REACTORS
330
B041
102
}
330
B041
100
AcDbXrecord
280
     1
270
     1
271
     1
  0
XRECORD
  5
B0A7
102
{ACAD_REACTORS
330
B039
102
}
330
B039
100
AcDbXrecord
280
     1
102
MATERIAL
148
0.0
149
0.0
149
0.0
 93
        0
 94
      127
282
     0
 72
     0
 77
     0
171
     0
175
     0
179
     0
273
     0
  0
XRECORD
  5
B03B
102
{ACAD_REACTORS
330
B039
102
}
330
B039
100
AcDbXrecord
280
     1
270
     1
271
     1
  0
XRECORD
  5
B03A
102
{ACAD_REACTORS
330
B039
102
}
330
B039
100
AcDbXrecord
280
     1
270
     1
271
     1
  0
XRECORD
  5
B03E
102
{ACAD_REACTORS
330
B039
102
}
330
B039
100
AcDbXrecord
280
     1
270
     1
271
     1
  0
XRECORD
  5
B03D
102
{ACAD_REACTORS
330
B039
102
}
330
B039
100
AcDbXrecord
280
     1
270
     1
271
     1
  0
XRECORD
  5
B03F
102
{ACAD_REACTORS
330
B039
102
}
330
B039
100
AcDbXrecord
280
     1
270
     1
271
     1
  0
XRECORD
  5
B03C
102
{ACAD_REACTORS
330
B039
102
}
330
B039
100
AcDbXrecord
280
     1
270
     1
271
     1
  0
XRECORD
  5
B0A9
102
{ACAD_REACTORS
330
B049
102
}
330
B049
100
AcDbXrecord
280
     1
102
MATERIAL
148
0.0
149
0.0
149
0.0
 93
        0
 94
      127
282
     0
 72
     0
 77
     0
171
     0
175
     0
179
     0
273
     0
  0
XRECORD
  5
B04B
102
{ACAD_REACTORS
330
B049
102
}
330
B049
100
AcDbXrecord
280
     1
270
     1
271
     1
  0
XRECORD
  5
B04A
102
{ACAD_REACTORS
330
B049
102
}
330
B049
100
AcDbXrecord
280
     1
270
     1
271
     1
  0
XRECORD
  5
B04E
102
{ACAD_REACTORS
330
B049
102
}
330
B049
100
AcDbXrecord
280
     1
270
     1
271
     1
  0
XRECORD
  5
B04D
102
{ACAD_REACTORS
330
B049
102
}
330
B049
100
AcDbXrecord
280
     1
270
     1
271
     1
  0
XRECORD
  5
B04F
102
{ACAD_REACTORS
330
B049
102
}
330
B049
100
AcDbXrecord
280
     1
270
     1
271
     1
  0
XRECORD
  5
B04C
102
{ACAD_REACTORS
330
B049
102
}
330
B049
100
AcDbXrecord
280
     1
270
     1
271
     1
  0
XRECORD
  5
B0DD
102
{ACAD_REACTORS
330
B0DC
102
}
330
B0DC
100
AcDbXrecord
280
     1
102
DISPLAYNAME
  1
Imperial24
102
FLAGS
 90
        0
  0
CELLSTYLEMAP
  5
B0A4
102
{ACAD_REACTORS
330
B0A3
102
}
330
B0A3
100
AcDbCellStyleMap
 90
        3
300
CELLSTYLE
  1
TABLEFORMAT_BEGIN
 90
        5
170
     1
 91
        0
 92
    32768
 62
   257
 93
        1
300
CONTENTFORMAT
  1
CONTENTFORMAT_BEGIN
 90
        0
 91
        0
 92
      512
 93
        0
300

 40
0.0
140
1.0
 94
        5
 62
     0
340
9D0A
144
0.25
309
CONTENTFORMAT_END
171
     0
 94
        0
309
TABLEFORMAT_END
  1
CELLSTYLE_BEGIN
 90
        1
 91
        1
300
_TITLE
309
CELLSTYLE_END
300
CELLSTYLE
  1
TABLEFORMAT_BEGIN
 90
        5
170
     1
 91
        0
 92
        0
 62
   257
 93
        1
300
CONTENTFORMAT
  1
CONTENTFORMAT_BEGIN
 90
        0
 91
        0
 92
      512
 93
        0
300

 40
0.0
140
1.0
 94
        5
 62
     0
340
9D0A
144
0.18
309
CONTENTFORMAT_END
171
     0
 94
        0
309
TABLEFORMAT_END
  1
CELLSTYLE_BEGIN
 90
        2
 91
        1
300
_HEADER
309
CELLSTYLE_END
300
CELLSTYLE
  1
TABLEFORMAT_BEGIN
 90
        5
170
     1
 91
        0
 92
        0
 62
   257
 93
        1
300
CONTENTFORMAT
  1
CONTENTFORMAT_BEGIN
 90
        0
 91
        0
 92
      512
 93
        0
300

 40
0.0
140
1.0
 94
        2
 62
     0
340
9D0A
144
0.18
309
CONTENTFORMAT_END
171
     0
 94
        0
309
TABLEFORMAT_END
  1
CELLSTYLE_BEGIN
 90
        3
 91
        2
300
_DATA
309
CELLSTYLE_END
  0
XRECORD
  5
B0DA
102
{ACAD_REACTORS
330
B0A3
102
}
330
B0A3
100
AcDbXrecord
280
     1
102
ACAD_ROUNDTRIP_PRE2007_TABLESTYLE
 90
      512
 91
        0
  1

 92
      512
 93
        0
  2

 94
      512
 95
        0
  3

  0
XRECORD
  5
B0B5
102
{ACAD_REACTORS
330
B0B4
102
}
330
B0B4
100
AcDbXrecord
280
     1
102
RTVSPost2010Prop28
280
     1
102
RTVSPost2010PropOp28
 70
     1
102
RTVSPost2010Prop29
280
     1
102
RTVSPost2010PropOp29
 70
     1
102
RTVSPost2010Prop30
280
     0
102
RTVSPost2010PropOp30
 70
     1
102
RTVSPost2010Prop31
280
     0
102
RTVSPost2010PropOp31
 70
     1
102
RTVSPost2010Prop32
280
     0
102
RTVSPost2010PropOp32
 70
     1
102
RTVSPost2010Prop33
280
     0
102
RTVSPost2010PropOp33
 70
     1
102
RTVSPost2010Prop34
280
     0
102
RTVSPost2010PropOp34
 70
     1
102
RTVSPost2010Prop35
280
     0
102
RTVSPost2010PropOp35
 70
     1
102
RTVSPost2010Prop36
280
     0
102
RTVSPost2010PropOp36
 70
     1
102
RTVSPost2010Prop37
 90
       50
102
RTVSPost2010PropOp37
 70
     1
102
RTVSPost2010Prop38
140
0.0
102
RTVSPost2010PropOp38
 70
     1
102
RTVSPost2010Prop39
140
1.0
102
RTVSPost2010PropOp39
 70
     1
102
RTVSPost2010Prop40
 90
        0
102
RTVSPost2010PropOp40
 70
     1
102
RTVSPost2010Prop41ColorIndex
 90
       18
102
RTVSPost2010Prop41ColorRGB
 90
        0
102
RTVSPost2010PropOp41
 70
     1
102
RTVSPost2010Prop42
 90
       50
102
RTVSPost2010PropOp42
 70
     1
102
RTVSPost2010Prop43
 90
        3
102
RTVSPost2010PropOp43
 70
     1
102
RTVSPost2010Prop44ColorIndex
 90
        5
102
RTVSPost2010Prop44ColorRGB
 90
      255
102
RTVSPost2010PropOp44
 70
     1
102
RTVSPost2010Prop45
280
     0
102
RTVSPost2010PropOp45
 70
     1
102
RTVSPost2010Prop46
 90
       50
102
RTVSPost2010PropOp46
 70
     1
102
RTVSPost2010Prop47
 90
       50
102
RTVSPost2010PropOp47
 70
     1
102
RTVSPost2010Prop48
 90
       50
102
RTVSPost2010PropOp48
 70
     1
102
RTVSPost2010Prop49
280
     0
102
RTVSPost2010PropOp49
 70
     1
102
RTVSPost2010Prop50
 90
       50
102
RTVSPost2010PropOp50
 70
     1
102
RTVSPost2010Prop51ColorIndex
 90
      256
102
RTVSPost2010Prop51ColorRGB
 90
-16777216
102
RTVSPost2010PropOp51
 70
     0
102
RTVSPost2010Prop52
140
1.0
102
RTVSPost2010PropOp52
 70
     0
102
RTVSPost2010Prop53
 90
        2
102
RTVSPost2010PropOp53
 70
     1
102
RTVSPost2010Prop54
  1
strokes_ogs.tif
102
RTVSPost2010PropOp54
 70
     1
102
RTVSPost2010Prop55
280
     0
102
RTVSPost2010PropOp55
 70
     1
102
RTVSPost2010Prop56
140
1.0
102
RTVSPost2010PropOp56
 70
     1
102
RTVSPost2010Prop57
140
1.0
102
RTVSPost2010PropOp57
 70
     1
102
RTVSPropertyOp0
 70
     1
102
RTVSPropertyOp1
 70
     1
102
RTVSPropertyOp2
 70
     1
102
RTVSPropertyOp3
 70
     1
102
RTVSPropertyOp4
 70
     1
102
RTVSPropertyOp5
 70
     1
102
RTVSPropertyOp6
 70
     1
102
RTVSPropertyOp7
 70
     1
102
RTVSPropertyOp8
 70
     1
102
RTVSPropertyOp9
 70
     1
102
RTVSPropertyOp10
 70
     1
102
RTVSPropertyOp11
 70
     1
102
RTVSPropertyOp12
 70
     1
102
RTVSPropertyOp13
 70
     1
102
RTVSPropertyOp14
 70
     1
102
RTVSPropertyOp15
 70
     1
102
RTVSPropertyOp16
 70
     1
102
RTVSPropertyOp17
 70
     1
102
RTVSPropertyOp18
 70
     1
102
RTVSPropertyOp19
 70
     1
102
RTVSPropertyOp20
 70
     1
102
RTVSPropertyOp21
 70
     1
102
RTVSPropertyOp22
 70
     1
102
RTVSPropertyOp23
 70
     1
102
RTVSPropertyOp24
 70
     1
102
RTVSPropertyOp25
 70
     1
102
RTVSPropertyOp26
 70
     1
102
RTVSPropertyOp27
 70
     1
102
RTVSPropertyOp28
 70
     1
102
RTVSPropertyOp29
 70
     1
102
RTVSPropertyOp30
 70
     1
102
RTVSPropertyOp31
 70
     1
102
RTVSPropertyOp32
 70
     1
102
RTVSPropertyOp33
 70
     1
102
RTVSPropertyOp34
 70
     1
102
RTVSPropertyOp35
 70
     1
102
RTVSPropertyOp36
 70
     1
102
RTVSPropertyOp37
 70
     1
102
RTVSPropertyOp38
 70
     1
102
RTVSPropertyOp39
 70
     1
102
RTVSPropertyOp40
 70
     1
102
RTVSPropertyOp41
 70
     1
102
RTVSPropertyOp42
 70
     1
102
RTVSPropertyOp43
 70
     1
102
RTVSPropertyOp44
 70
     1
102
RTVSPropertyOp45
 70
     1
102
RTVSPropertyOp46
 70
     1
102
RTVSPropertyOp47
 70
     1
102
RTVSPropertyOp48
 70
     1
102
RTVSPropertyOp49
 70
     1
102
RTVSPropertyOp50
 70
     1
102
RTVSPropertyOp51
 70
     0
102
RTVSPropertyOp52
 70
     0
102
RTVSPropertyOp53
 70
     1
102
RTVSPropertyOp54
 70
     1
102
RTVSPropertyOp55
 70
     1
102
RTVSPropertyOp56
 70
     1
102
RTVSPropertyOp57
 70
     1
102
RTVSPropertyOp58
 70
     1
102
RTVSPropertyOp59
 70
     1
102
RTVSPropertyOp60
 70
     1
102
RTVSPropertyOp61
 70
     1
102
RTVSPropertyOp62
 70
     1
  0
XRECORD
  5
B0B3
102
{ACAD_REACTORS
330
B0B2
102
}
330
B0B2
100
AcDbXrecord
280
     1
102
RTVSPost2010Prop28
280
     0
102
RTVSPost2010PropOp28
 70
     1
102
RTVSPost2010Prop29
280
     1
102
RTVSPost2010PropOp29
 70
     1
102
RTVSPost2010Prop30
280
     1
102
RTVSPost2010PropOp30
 70
     1
102
RTVSPost2010Prop31
280
     0
102
RTVSPost2010PropOp31
 70
     1
102
RTVSPost2010Prop32
280
     0
102
RTVSPost2010PropOp32
 70
     1
102
RTVSPost2010Prop33
280
     0
102
RTVSPost2010PropOp33
 70
     1
102
RTVSPost2010Prop34
280
     0
102
RTVSPost2010PropOp34
 70
     1
102
RTVSPost2010Prop35
280
     0
102
RTVSPost2010PropOp35
 70
     1
102
RTVSPost2010Prop36
280
     0
102
RTVSPost2010PropOp36
 70
     1
102
RTVSPost2010Prop37
 90
       50
102
RTVSPost2010PropOp37
 70
     1
102
RTVSPost2010Prop38
140
0.0
102
RTVSPost2010PropOp38
 70
     1
102
RTVSPost2010Prop39
140
1.0
102
RTVSPost2010PropOp39
 70
     1
102
RTVSPost2010Prop40
 90
        0
102
RTVSPost2010PropOp40
 70
     1
102
RTVSPost2010Prop41ColorIndex
 90
       18
102
RTVSPost2010Prop41ColorRGB
 90
        0
102
RTVSPost2010PropOp41
 70
     1
102
RTVSPost2010Prop42
 90
       50
102
RTVSPost2010PropOp42
 70
     1
102
RTVSPost2010Prop43
 90
        3
102
RTVSPost2010PropOp43
 70
     1
102
RTVSPost2010Prop44ColorIndex
 90
        5
102
RTVSPost2010Prop44ColorRGB
 90
      255
102
RTVSPost2010PropOp44
 70
     1
102
RTVSPost2010Prop45
280
     0
102
RTVSPost2010PropOp45
 70
     1
102
RTVSPost2010Prop46
 90
       50
102
RTVSPost2010PropOp46
 70
     1
102
RTVSPost2010Prop47
 90
       50
102
RTVSPost2010PropOp47
 70
     1
102
RTVSPost2010Prop48
 90
       50
102
RTVSPost2010PropOp48
 70
     1
102
RTVSPost2010Prop49
280
     0
102
RTVSPost2010PropOp49
 70
     1
102
RTVSPost2010Prop50
 90
       50
102
RTVSPost2010PropOp50
 70
     1
102
RTVSPost2010Prop51ColorIndex
 90
      256
102
RTVSPost2010Prop51ColorRGB
 90
-16777216
102
RTVSPost2010PropOp51
 70
     0
102
RTVSPost2010Prop52
140
1.0
102
RTVSPost2010PropOp52
 70
     0
102
RTVSPost2010Prop53
 90
        2
102
RTVSPost2010PropOp53
 70
     1
102
RTVSPost2010Prop54
  1
strokes_ogs.tif
102
RTVSPost2010PropOp54
 70
     1
102
RTVSPost2010Prop55
280
     0
102
RTVSPost2010PropOp55
 70
     1
102
RTVSPost2010Prop56
140
1.0
102
RTVSPost2010PropOp56
 70
     1
102
RTVSPost2010Prop57
140
1.0
102
RTVSPost2010PropOp57
 70
     1
102
RTVSPropertyOp0
 70
     1
102
RTVSPropertyOp1
 70
     1
102
RTVSPropertyOp2
 70
     1
102
RTVSPropertyOp3
 70
     1
102
RTVSPropertyOp4
 70
     1
102
RTVSPropertyOp5
 70
     1
102
RTVSPropertyOp6
 70
     1
102
RTVSPropertyOp7
 70
     1
102
RTVSPropertyOp8
 70
     1
102
RTVSPropertyOp9
 70
     1
102
RTVSPropertyOp10
 70
     1
102
RTVSPropertyOp11
 70
     1
102
RTVSPropertyOp12
 70
     1
102
RTVSPropertyOp13
 70
     1
102
RTVSPropertyOp14
 70
     1
102
RTVSPropertyOp15
 70
     1
102
RTVSPropertyOp16
 70
     1
102
RTVSPropertyOp17
 70
     1
102
RTVSPropertyOp18
 70
     1
102
RTVSPropertyOp19
 70
     1
102
RTVSPropertyOp20
 70
     1
102
RTVSPropertyOp21
 70
     1
102
RTVSPropertyOp22
 70
     1
102
RTVSPropertyOp23
 70
     1
102
RTVSPropertyOp24
 70
     1
102
RTVSPropertyOp25
 70
     1
102
RTVSPropertyOp26
 70
     1
102
RTVSPropertyOp27
 70
     1
102
RTVSPropertyOp28
 70
     1
102
RTVSPropertyOp29
 70
     1
102
RTVSPropertyOp30
 70
     1
102
RTVSPropertyOp31
 70
     1
102
RTVSPropertyOp32
 70
     1
102
RTVSPropertyOp33
 70
     1
102
RTVSPropertyOp34
 70
     1
102
RTVSPropertyOp35
 70
     1
102
RTVSPropertyOp36
 70
     1
102
RTVSPropertyOp37
 70
     1
102
RTVSPropertyOp38
 70
     1
102
RTVSPropertyOp39
 70
     1
102
RTVSPropertyOp40
 70
     1
102
RTVSPropertyOp41
 70
     1
102
RTVSPropertyOp42
 70
     1
102
RTVSPropertyOp43
 70
     1
102
RTVSPropertyOp44
 70
     1
102
RTVSPropertyOp45
 70
     1
102
RTVSPropertyOp46
 70
     1
102
RTVSPropertyOp47
 70
     1
102
RTVSPropertyOp48
 70
     1
102
RTVSPropertyOp49
 70
     1
102
RTVSPropertyOp50
 70
     1
102
RTVSPropertyOp51
 70
     0
102
RTVSPropertyOp52
 70
     0
102
RTVSPropertyOp53
 70
     1
102
RTVSPropertyOp54
 70
     1
102
RTVSPropertyOp55
 70
     1
102
RTVSPropertyOp56
 70
     1
102
RTVSPropertyOp57
 70
     1
102
RTVSPropertyOp58
 70
     1
102
RTVSPropertyOp59
 70
     1
102
RTVSPropertyOp60
 70
     1
102
RTVSPropertyOp61
 70
     1
102
RTVSPropertyOp62
 70
     1
  0
XRECORD
  5
B0C1
102
{ACAD_REACTORS
330
B0C0
102
}
330
B0C0
100
AcDbXrecord
280
     1
102
RTVSPost2010Prop28
280
     0
102
RTVSPost2010PropOp28
 70
     1
102
RTVSPost2010Prop29
280
     1
102
RTVSPost2010PropOp29
 70
     1
102
RTVSPost2010Prop30
280
     1
102
RTVSPost2010PropOp30
 70
     1
102
RTVSPost2010Prop31
280
     0
102
RTVSPost2010PropOp31
 70
     1
102
RTVSPost2010Prop32
280
     0
102
RTVSPost2010PropOp32
 70
     1
102
RTVSPost2010Prop33
280
     0
102
RTVSPost2010PropOp33
 70
     1
102
RTVSPost2010Prop34
280
     0
102
RTVSPost2010PropOp34
 70
     1
102
RTVSPost2010Prop35
280
     0
102
RTVSPost2010PropOp35
 70
     1
102
RTVSPost2010Prop36
280
     0
102
RTVSPost2010PropOp36
 70
     1
102
RTVSPost2010Prop37
 90
       50
102
RTVSPost2010PropOp37
 70
     1
102
RTVSPost2010Prop38
140
0.0
102
RTVSPost2010PropOp38
 70
     1
102
RTVSPost2010Prop39
140
1.0
102
RTVSPost2010PropOp39
 70
     1
102
RTVSPost2010Prop40
 90
        0
102
RTVSPost2010PropOp40
 70
     1
102
RTVSPost2010Prop41ColorIndex
 90
       18
102
RTVSPost2010Prop41ColorRGB
 90
        0
102
RTVSPost2010PropOp41
 70
     1
102
RTVSPost2010Prop42
 90
       50
102
RTVSPost2010PropOp42
 70
     1
102
RTVSPost2010Prop43
 90
        3
102
RTVSPost2010PropOp43
 70
     1
102
RTVSPost2010Prop44ColorIndex
 90
        5
102
RTVSPost2010Prop44ColorRGB
 90
      255
102
RTVSPost2010PropOp44
 70
     1
102
RTVSPost2010Prop45
280
     0
102
RTVSPost2010PropOp45
 70
     1
102
RTVSPost2010Prop46
 90
       50
102
RTVSPost2010PropOp46
 70
     1
102
RTVSPost2010Prop47
 90
       50
102
RTVSPost2010PropOp47
 70
     1
102
RTVSPost2010Prop48
 90
       50
102
RTVSPost2010PropOp48
 70
     1
102
RTVSPost2010Prop49
280
     0
102
RTVSPost2010PropOp49
 70
     1
102
RTVSPost2010Prop50
 90
       50
102
RTVSPost2010PropOp50
 70
     1
102
RTVSPost2010Prop51ColorIndex
 90
      256
102
RTVSPost2010Prop51ColorRGB
 90
-16777216
102
RTVSPost2010PropOp51
 70
     0
102
RTVSPost2010Prop52
140
1.0
102
RTVSPost2010PropOp52
 70
     0
102
RTVSPost2010Prop53
 90
        2
102
RTVSPost2010PropOp53
 70
     1
102
RTVSPost2010Prop54
  1
strokes_ogs.tif
102
RTVSPost2010PropOp54
 70
     1
102
RTVSPost2010Prop55
280
     0
102
RTVSPost2010PropOp55
 70
     1
102
RTVSPost2010Prop56
140
1.0
102
RTVSPost2010PropOp56
 70
     1
102
RTVSPost2010Prop57
140
1.0
102
RTVSPost2010PropOp57
 70
     1
102
RTVSPropertyOp0
 70
     1
102
RTVSPropertyOp1
 70
     1
102
RTVSPropertyOp2
 70
     1
102
RTVSPropertyOp3
 70
     1
102
RTVSPropertyOp4
 70
     1
102
RTVSPropertyOp5
 70
     1
102
RTVSPropertyOp6
 70
     1
102
RTVSPropertyOp7
 70
     1
102
RTVSPropertyOp8
 70
     1
102
RTVSPropertyOp9
 70
     1
102
RTVSPropertyOp10
 70
     1
102
RTVSPropertyOp11
 70
     1
102
RTVSPropertyOp12
 70
     1
102
RTVSPropertyOp13
 70
     1
102
RTVSPropertyOp14
 70
     1
102
RTVSPropertyOp15
 70
     1
102
RTVSPropertyOp16
 70
     1
102
RTVSPropertyOp17
 70
     1
102
RTVSPropertyOp18
 70
     1
102
RTVSPropertyOp19
 70
     1
102
RTVSPropertyOp20
 70
     1
102
RTVSPropertyOp21
 70
     1
102
RTVSPropertyOp22
 70
     1
102
RTVSPropertyOp23
 70
     1
102
RTVSPropertyOp24
 70
     1
102
RTVSPropertyOp25
 70
     1
102
RTVSPropertyOp26
 70
     1
102
RTVSPropertyOp27
 70
     1
102
RTVSPropertyOp28
 70
     1
102
RTVSPropertyOp29
 70
     1
102
RTVSPropertyOp30
 70
     1
102
RTVSPropertyOp31
 70
     1
102
RTVSPropertyOp32
 70
     1
102
RTVSPropertyOp33
 70
     1
102
RTVSPropertyOp34
 70
     1
102
RTVSPropertyOp35
 70
     1
102
RTVSPropertyOp36
 70
     1
102
RTVSPropertyOp37
 70
     1
102
RTVSPropertyOp38
 70
     1
102
RTVSPropertyOp39
 70
     1
102
RTVSPropertyOp40
 70
     1
102
RTVSPropertyOp41
 70
     1
102
RTVSPropertyOp42
 70
     1
102
RTVSPropertyOp43
 70
     1
102
RTVSPropertyOp44
 70
     1
102
RTVSPropertyOp45
 70
     1
102
RTVSPropertyOp46
 70
     1
102
RTVSPropertyOp47
 70
     1
102
RTVSPropertyOp48
 70
     1
102
RTVSPropertyOp49
 70
     1
102
RTVSPropertyOp50
 70
     1
102
RTVSPropertyOp51
 70
     0
102
RTVSPropertyOp52
 70
     0
102
RTVSPropertyOp53
 70
     1
102
RTVSPropertyOp54
 70
     1
102
RTVSPropertyOp55
 70
     1
102
RTVSPropertyOp56
 70
     1
102
RTVSPropertyOp57
 70
     1
102
RTVSPropertyOp58
 70
     1
102
RTVSPropertyOp59
 70
     1
102
RTVSPropertyOp60
 70
     1
102
RTVSPropertyOp61
 70
     1
102
RTVSPropertyOp62
 70
     1
  0
XRECORD
  5
B0C9
102
{ACAD_REACTORS
330
B0C8
102
}
330
B0C8
100
AcDbXrecord
280
     1
102
RTVSPost2010Prop28
280
     0
102
RTVSPost2010PropOp28
 70
     1
102
RTVSPost2010Prop29
280
     1
102
RTVSPost2010PropOp29
 70
     1
102
RTVSPost2010Prop30
280
     1
102
RTVSPost2010PropOp30
 70
     1
102
RTVSPost2010Prop31
280
     0
102
RTVSPost2010PropOp31
 70
     1
102
RTVSPost2010Prop32
280
     0
102
RTVSPost2010PropOp32
 70
     1
102
RTVSPost2010Prop33
280
     0
102
RTVSPost2010PropOp33
 70
     1
102
RTVSPost2010Prop34
280
     0
102
RTVSPost2010PropOp34
 70
     1
102
RTVSPost2010Prop35
280
     0
102
RTVSPost2010PropOp35
 70
     1
102
RTVSPost2010Prop36
280
     0
102
RTVSPost2010PropOp36
 70
     1
102
RTVSPost2010Prop37
 90
       50
102
RTVSPost2010PropOp37
 70
     1
102
RTVSPost2010Prop38
140
0.0
102
RTVSPost2010PropOp38
 70
     1
102
RTVSPost2010Prop39
140
1.0
102
RTVSPost2010PropOp39
 70
     1
102
RTVSPost2010Prop40
 90
        0
102
RTVSPost2010PropOp40
 70
     1
102
RTVSPost2010Prop41ColorIndex
 90
       18
102
RTVSPost2010Prop41ColorRGB
 90
        0
102
RTVSPost2010PropOp41
 70
     1
102
RTVSPost2010Prop42
 90
       50
102
RTVSPost2010PropOp42
 70
     1
102
RTVSPost2010Prop43
 90
        3
102
RTVSPost2010PropOp43
 70
     1
102
RTVSPost2010Prop44ColorIndex
 90
        5
102
RTVSPost2010Prop44ColorRGB
 90
      255
102
RTVSPost2010PropOp44
 70
     1
102
RTVSPost2010Prop45
280
     0
102
RTVSPost2010PropOp45
 70
     1
102
RTVSPost2010Prop46
 90
       50
102
RTVSPost2010PropOp46
 70
     1
102
RTVSPost2010Prop47
 90
       50
102
RTVSPost2010PropOp47
 70
     1
102
RTVSPost2010Prop48
 90
       50
102
RTVSPost2010PropOp48
 70
     1
102
RTVSPost2010Prop49
280
     0
102
RTVSPost2010PropOp49
 70
     1
102
RTVSPost2010Prop50
 90
       50
102
RTVSPost2010PropOp50
 70
     1
102
RTVSPost2010Prop51ColorIndex
 90
      256
102
RTVSPost2010Prop51ColorRGB
 90
-16777216
102
RTVSPost2010PropOp51
 70
     0
102
RTVSPost2010Prop52
140
1.0
102
RTVSPost2010PropOp52
 70
     0
102
RTVSPost2010Prop53
 90
        2
102
RTVSPost2010PropOp53
 70
     1
102
RTVSPost2010Prop54
  1
strokes_ogs.tif
102
RTVSPost2010PropOp54
 70
     1
102
RTVSPost2010Prop55
280
     0
102
RTVSPost2010PropOp55
 70
     1
102
RTVSPost2010Prop56
140
1.0
102
RTVSPost2010PropOp56
 70
     1
102
RTVSPost2010Prop57
140
1.0
102
RTVSPost2010PropOp57
 70
     1
102
RTVSPropertyOp0
 70
     1
102
RTVSPropertyOp1
 70
     1
102
RTVSPropertyOp2
 70
     1
102
RTVSPropertyOp3
 70
     1
102
RTVSPropertyOp4
 70
     1
102
RTVSPropertyOp5
 70
     1
102
RTVSPropertyOp6
 70
     1
102
RTVSPropertyOp7
 70
     1
102
RTVSPropertyOp8
 70
     1
102
RTVSPropertyOp9
 70
     1
102
RTVSPropertyOp10
 70
     1
102
RTVSPropertyOp11
 70
     1
102
RTVSPropertyOp12
 70
     1
102
RTVSPropertyOp13
 70
     1
102
RTVSPropertyOp14
 70
     1
102
RTVSPropertyOp15
 70
     1
102
RTVSPropertyOp16
 70
     1
102
RTVSPropertyOp17
 70
     1
102
RTVSPropertyOp18
 70
     1
102
RTVSPropertyOp19
 70
     1
102
RTVSPropertyOp20
 70
     1
102
RTVSPropertyOp21
 70
     1
102
RTVSPropertyOp22
 70
     1
102
RTVSPropertyOp23
 70
     1
102
RTVSPropertyOp24
 70
     1
102
RTVSPropertyOp25
 70
     1
102
RTVSPropertyOp26
 70
     1
102
RTVSPropertyOp27
 70
     1
102
RTVSPropertyOp28
 70
     1
102
RTVSPropertyOp29
 70
     1
102
RTVSPropertyOp30
 70
     1
102
RTVSPropertyOp31
 70
     1
102
RTVSPropertyOp32
 70
     1
102
RTVSPropertyOp33
 70
     1
102
RTVSPropertyOp34
 70
     1
102
RTVSPropertyOp35
 70
     1
102
RTVSPropertyOp36
 70
     1
102
RTVSPropertyOp37
 70
     1
102
RTVSPropertyOp38
 70
     1
102
RTVSPropertyOp39
 70
     1
102
RTVSPropertyOp40
 70
     1
102
RTVSPropertyOp41
 70
     1
102
RTVSPropertyOp42
 70
     1
102
RTVSPropertyOp43
 70
     1
102
RTVSPropertyOp44
 70
     1
102
RTVSPropertyOp45
 70
     1
102
RTVSPropertyOp46
 70
     1
102
RTVSPropertyOp47
 70
     1
102
RTVSPropertyOp48
 70
     1
102
RTVSPropertyOp49
 70
     1
102
RTVSPropertyOp50
 70
     1
102
RTVSPropertyOp51
 70
     0
102
RTVSPropertyOp52
 70
     0
102
RTVSPropertyOp53
 70
     1
102
RTVSPropertyOp54
 70
     1
102
RTVSPropertyOp55
 70
     1
102
RTVSPropertyOp56
 70
     1
102
RTVSPropertyOp57
 70
     1
102
RTVSPropertyOp58
 70
     1
102
RTVSPropertyOp59
 70
     1
102
RTVSPropertyOp60
 70
     1
102
RTVSPropertyOp61
 70
     1
102
RTVSPropertyOp62
 70
     1
  0
XRECORD
  5
B0BB
102
{ACAD_REACTORS
330
B0BA
102
}
330
B0BA
100
AcDbXrecord
280
     1
102
RTVSPost2010Prop28
280
     0
102
RTVSPost2010PropOp28
 70
     1
102
RTVSPost2010Prop29
280
     1
102
RTVSPost2010PropOp29
 70
     1
102
RTVSPost2010Prop30
280
     1
102
RTVSPost2010PropOp30
 70
     1
102
RTVSPost2010Prop31
280
     0
102
RTVSPost2010PropOp31
 70
     1
102
RTVSPost2010Prop32
280
     0
102
RTVSPost2010PropOp32
 70
     1
102
RTVSPost2010Prop33
280
     0
102
RTVSPost2010PropOp33
 70
     1
102
RTVSPost2010Prop34
280
     0
102
RTVSPost2010PropOp34
 70
     1
102
RTVSPost2010Prop35
280
     0
102
RTVSPost2010PropOp35
 70
     1
102
RTVSPost2010Prop36
280
     0
102
RTVSPost2010PropOp36
 70
     1
102
RTVSPost2010Prop37
 90
       50
102
RTVSPost2010PropOp37
 70
     1
102
RTVSPost2010Prop38
140
0.0
102
RTVSPost2010PropOp38
 70
     1
102
RTVSPost2010Prop39
140
1.0
102
RTVSPost2010PropOp39
 70
     1
102
RTVSPost2010Prop40
 90
        0
102
RTVSPost2010PropOp40
 70
     1
102
RTVSPost2010Prop41ColorIndex
 90
       18
102
RTVSPost2010Prop41ColorRGB
 90
        0
102
RTVSPost2010PropOp41
 70
     1
102
RTVSPost2010Prop42
 90
       50
102
RTVSPost2010PropOp42
 70
     1
102
RTVSPost2010Prop43
 90
        3
102
RTVSPost2010PropOp43
 70
     1
102
RTVSPost2010Prop44ColorIndex
 90
        5
102
RTVSPost2010Prop44ColorRGB
 90
      255
102
RTVSPost2010PropOp44
 70
     1
102
RTVSPost2010Prop45
280
     0
102
RTVSPost2010PropOp45
 70
     1
102
RTVSPost2010Prop46
 90
       50
102
RTVSPost2010PropOp46
 70
     1
102
RTVSPost2010Prop47
 90
       50
102
RTVSPost2010PropOp47
 70
     1
102
RTVSPost2010Prop48
 90
       50
102
RTVSPost2010PropOp48
 70
     1
102
RTVSPost2010Prop49
280
     0
102
RTVSPost2010PropOp49
 70
     1
102
RTVSPost2010Prop50
 90
       50
102
RTVSPost2010PropOp50
 70
     1
102
RTVSPost2010Prop51ColorIndex
 90
      256
102
RTVSPost2010Prop51ColorRGB
 90
-16777216
102
RTVSPost2010PropOp51
 70
     0
102
RTVSPost2010Prop52
140
1.0
102
RTVSPost2010PropOp52
 70
     0
102
RTVSPost2010Prop53
 90
        2
102
RTVSPost2010PropOp53
 70
     1
102
RTVSPost2010Prop54
  1
strokes_ogs.tif
102
RTVSPost2010PropOp54
 70
     1
102
RTVSPost2010Prop55
280
     0
102
RTVSPost2010PropOp55
 70
     1
102
RTVSPost2010Prop56
140
1.0
102
RTVSPost2010PropOp56
 70
     1
102
RTVSPost2010Prop57
140
1.0
102
RTVSPost2010PropOp57
 70
     1
102
RTVSPropertyOp0
 70
     1
102
RTVSPropertyOp1
 70
     1
102
RTVSPropertyOp2
 70
     1
102
RTVSPropertyOp3
 70
     1
102
RTVSPropertyOp4
 70
     1
102
RTVSPropertyOp5
 70
     1
102
RTVSPropertyOp6
 70
     1
102
RTVSPropertyOp7
 70
     1
102
RTVSPropertyOp8
 70
     1
102
RTVSPropertyOp9
 70
     1
102
RTVSPropertyOp10
 70
     1
102
RTVSPropertyOp11
 70
     1
102
RTVSPropertyOp12
 70
     1
102
RTVSPropertyOp13
 70
     1
102
RTVSPropertyOp14
 70
     1
102
RTVSPropertyOp15
 70
     1
102
RTVSPropertyOp16
 70
     1
102
RTVSPropertyOp17
 70
     1
102
RTVSPropertyOp18
 70
     1
102
RTVSPropertyOp19
 70
     1
102
RTVSPropertyOp20
 70
     1
102
RTVSPropertyOp21
 70
     1
102
RTVSPropertyOp22
 70
     1
102
RTVSPropertyOp23
 70
     1
102
RTVSPropertyOp24
 70
     1
102
RTVSPropertyOp25
 70
     1
102
RTVSPropertyOp26
 70
     1
102
RTVSPropertyOp27
 70
     1
102
RTVSPropertyOp28
 70
     1
102
RTVSPropertyOp29
 70
     1
102
RTVSPropertyOp30
 70
     1
102
RTVSPropertyOp31
 70
     1
102
RTVSPropertyOp32
 70
     1
102
RTVSPropertyOp33
 70
     1
102
RTVSPropertyOp34
 70
     1
102
RTVSPropertyOp35
 70
     1
102
RTVSPropertyOp36
 70
     1
102
RTVSPropertyOp37
 70
     1
102
RTVSPropertyOp38
 70
     1
102
RTVSPropertyOp39
 70
     1
102
RTVSPropertyOp40
 70
     1
102
RTVSPropertyOp41
 70
     1
102
RTVSPropertyOp42
 70
     1
102
RTVSPropertyOp43
 70
     1
102
RTVSPropertyOp44
 70
     1
102
RTVSPropertyOp45
 70
     1
102
RTVSPropertyOp46
 70
     1
102
RTVSPropertyOp47
 70
     1
102
RTVSPropertyOp48
 70
     1
102
RTVSPropertyOp49
 70
     1
102
RTVSPropertyOp50
 70
     1
102
RTVSPropertyOp51
 70
     0
102
RTVSPropertyOp52
 70
     0
102
RTVSPropertyOp53
 70
     1
102
RTVSPropertyOp54
 70
     1
102
RTVSPropertyOp55
 70
     1
102
RTVSPropertyOp56
 70
     1
102
RTVSPropertyOp57
 70
     1
102
RTVSPropertyOp58
 70
     1
102
RTVSPropertyOp59
 70
     1
102
RTVSPropertyOp60
 70
     1
102
RTVSPropertyOp61
 70
     1
102
RTVSPropertyOp62
 70
     1
  0
XRECORD
  5
B0BF
102
{ACAD_REACTORS
330
B0BE
102
}
330
B0BE
100
AcDbXrecord
280
     1
102
RTVSPost2010Prop28
280
     0
102
RTVSPost2010PropOp28
 70
     1
102
RTVSPost2010Prop29
280
     1
102
RTVSPost2010PropOp29
 70
     1
102
RTVSPost2010Prop30
280
     1
102
RTVSPost2010PropOp30
 70
     1
102
RTVSPost2010Prop31
280
     0
102
RTVSPost2010PropOp31
 70
     1
102
RTVSPost2010Prop32
280
     0
102
RTVSPost2010PropOp32
 70
     1
102
RTVSPost2010Prop33
280
     0
102
RTVSPost2010PropOp33
 70
     1
102
RTVSPost2010Prop34
280
     0
102
RTVSPost2010PropOp34
 70
     1
102
RTVSPost2010Prop35
280
     0
102
RTVSPost2010PropOp35
 70
     1
102
RTVSPost2010Prop36
280
     0
102
RTVSPost2010PropOp36
 70
     1
102
RTVSPost2010Prop37
 90
       50
102
RTVSPost2010PropOp37
 70
     1
102
RTVSPost2010Prop38
140
0.0
102
RTVSPost2010PropOp38
 70
     1
102
RTVSPost2010Prop39
140
1.0
102
RTVSPost2010PropOp39
 70
     1
102
RTVSPost2010Prop40
 90
        0
102
RTVSPost2010PropOp40
 70
     1
102
RTVSPost2010Prop41ColorIndex
 90
       18
102
RTVSPost2010Prop41ColorRGB
 90
        0
102
RTVSPost2010PropOp41
 70
     1
102
RTVSPost2010Prop42
 90
       50
102
RTVSPost2010PropOp42
 70
     1
102
RTVSPost2010Prop43
 90
        3
102
RTVSPost2010PropOp43
 70
     1
102
RTVSPost2010Prop44ColorIndex
 90
        5
102
RTVSPost2010Prop44ColorRGB
 90
      255
102
RTVSPost2010PropOp44
 70
     1
102
RTVSPost2010Prop45
280
     0
102
RTVSPost2010PropOp45
 70
     1
102
RTVSPost2010Prop46
 90
       50
102
RTVSPost2010PropOp46
 70
     1
102
RTVSPost2010Prop47
 90
       50
102
RTVSPost2010PropOp47
 70
     1
102
RTVSPost2010Prop48
 90
       50
102
RTVSPost2010PropOp48
 70
     1
102
RTVSPost2010Prop49
280
     0
102
RTVSPost2010PropOp49
 70
     1
102
RTVSPost2010Prop50
 90
       50
102
RTVSPost2010PropOp50
 70
     1
102
RTVSPost2010Prop51ColorIndex
 90
      256
102
RTVSPost2010Prop51ColorRGB
 90
-16777216
102
RTVSPost2010PropOp51
 70
     0
102
RTVSPost2010Prop52
140
1.0
102
RTVSPost2010PropOp52
 70
     0
102
RTVSPost2010Prop53
 90
        2
102
RTVSPost2010PropOp53
 70
     1
102
RTVSPost2010Prop54
  1
strokes_ogs.tif
102
RTVSPost2010PropOp54
 70
     1
102
RTVSPost2010Prop55
280
     0
102
RTVSPost2010PropOp55
 70
     1
102
RTVSPost2010Prop56
140
1.0
102
RTVSPost2010PropOp56
 70
     1
102
RTVSPost2010Prop57
140
1.0
102
RTVSPost2010PropOp57
 70
     1
102
RTVSPropertyOp0
 70
     1
102
RTVSPropertyOp1
 70
     1
102
RTVSPropertyOp2
 70
     1
102
RTVSPropertyOp3
 70
     1
102
RTVSPropertyOp4
 70
     1
102
RTVSPropertyOp5
 70
     1
102
RTVSPropertyOp6
 70
     1
102
RTVSPropertyOp7
 70
     1
102
RTVSPropertyOp8
 70
     1
102
RTVSPropertyOp9
 70
     1
102
RTVSPropertyOp10
 70
     1
102
RTVSPropertyOp11
 70
     1
102
RTVSPropertyOp12
 70
     1
102
RTVSPropertyOp13
 70
     1
102
RTVSPropertyOp14
 70
     1
102
RTVSPropertyOp15
 70
     1
102
RTVSPropertyOp16
 70
     1
102
RTVSPropertyOp17
 70
     1
102
RTVSPropertyOp18
 70
     1
102
RTVSPropertyOp19
 70
     1
102
RTVSPropertyOp20
 70
     1
102
RTVSPropertyOp21
 70
     1
102
RTVSPropertyOp22
 70
     1
102
RTVSPropertyOp23
 70
     1
102
RTVSPropertyOp24
 70
     1
102
RTVSPropertyOp25
 70
     1
102
RTVSPropertyOp26
 70
     1
102
RTVSPropertyOp27
 70
     1
102
RTVSPropertyOp28
 70
     1
102
RTVSPropertyOp29
 70
     1
102
RTVSPropertyOp30
 70
     1
102
RTVSPropertyOp31
 70
     1
102
RTVSPropertyOp32
 70
     1
102
RTVSPropertyOp33
 70
     1
102
RTVSPropertyOp34
 70
     1
102
RTVSPropertyOp35
 70
     1
102
RTVSPropertyOp36
 70
     1
102
RTVSPropertyOp37
 70
     1
102
RTVSPropertyOp38
 70
     1
102
RTVSPropertyOp39
 70
     1
102
RTVSPropertyOp40
 70
     1
102
RTVSPropertyOp41
 70
     1
102
RTVSPropertyOp42
 70
     1
102
RTVSPropertyOp43
 70
     1
102
RTVSPropertyOp44
 70
     1
102
RTVSPropertyOp45
 70
     1
102
RTVSPropertyOp46
 70
     1
102
RTVSPropertyOp47
 70
     1
102
RTVSPropertyOp48
 70
     1
102
RTVSPropertyOp49
 70
     1
102
RTVSPropertyOp50
 70
     1
102
RTVSPropertyOp51
 70
     0
102
RTVSPropertyOp52
 70
     0
102
RTVSPropertyOp53
 70
     1
102
RTVSPropertyOp54
 70
     1
102
RTVSPropertyOp55
 70
     1
102
RTVSPropertyOp56
 70
     1
102
RTVSPropertyOp57
 70
     1
102
RTVSPropertyOp58
 70
     1
102
RTVSPropertyOp59
 70
     1
102
RTVSPropertyOp60
 70
     1
102
RTVSPropertyOp61
 70
     1
102
RTVSPropertyOp62
 70
     1
  0
XRECORD
  5
B0D9
102
{ACAD_REACTORS
330
B0D8
102
}
330
B0D8
100
AcDbXrecord
280
     1
102
RTVSPost2010Prop28
280
     0
102
RTVSPost2010PropOp28
 70
     1
102
RTVSPost2010Prop29
280
     1
102
RTVSPost2010PropOp29
 70
     1
102
RTVSPost2010Prop30
280
     1
102
RTVSPost2010PropOp30
 70
     1
102
RTVSPost2010Prop31
280
     0
102
RTVSPost2010PropOp31
 70
     1
102
RTVSPost2010Prop32
280
     0
102
RTVSPost2010PropOp32
 70
     1
102
RTVSPost2010Prop33
280
     0
102
RTVSPost2010PropOp33
 70
     1
102
RTVSPost2010Prop34
280
     0
102
RTVSPost2010PropOp34
 70
     1
102
RTVSPost2010Prop35
280
     0
102
RTVSPost2010PropOp35
 70
     1
102
RTVSPost2010Prop36
280
     0
102
RTVSPost2010PropOp36
 70
     1
102
RTVSPost2010Prop37
 90
       50
102
RTVSPost2010PropOp37
 70
     0
102
RTVSPost2010Prop38
140
0.0
102
RTVSPost2010PropOp38
 70
     0
102
RTVSPost2010Prop39
140
1.0
102
RTVSPost2010PropOp39
 70
     0
102
RTVSPost2010Prop40
 90
        0
102
RTVSPost2010PropOp40
 70
     0
102
RTVSPost2010Prop41ColorIndex
 90
       18
102
RTVSPost2010Prop41ColorRGB
 90
        0
102
RTVSPost2010PropOp41
 70
     0
102
RTVSPost2010Prop42
 90
       50
102
RTVSPost2010PropOp42
 70
     0
102
RTVSPost2010Prop43
 90
        3
102
RTVSPost2010PropOp43
 70
     0
102
RTVSPost2010Prop44ColorIndex
 90
        5
102
RTVSPost2010Prop44ColorRGB
 90
      255
102
RTVSPost2010PropOp44
 70
     0
102
RTVSPost2010Prop45
280
     0
102
RTVSPost2010PropOp45
 70
     1
102
RTVSPost2010Prop46
 90
       50
102
RTVSPost2010PropOp46
 70
     0
102
RTVSPost2010Prop47
 90
       50
102
RTVSPost2010PropOp47
 70
     0
102
RTVSPost2010Prop48
 90
       50
102
RTVSPost2010PropOp48
 70
     0
102
RTVSPost2010Prop49
280
     0
102
RTVSPost2010PropOp49
 70
     1
102
RTVSPost2010Prop50
 90
       50
102
RTVSPost2010PropOp50
 70
     0
102
RTVSPost2010Prop51ColorIndex
 90
      256
102
RTVSPost2010Prop51ColorRGB
 90
-16777216
102
RTVSPost2010PropOp51
 70
     0
102
RTVSPost2010Prop52
140
1.0
102
RTVSPost2010PropOp52
 70
     0
102
RTVSPost2010Prop53
 90
        2
102
RTVSPost2010PropOp53
 70
     0
102
RTVSPost2010Prop54
  1
strokes_ogs.tif
102
RTVSPost2010PropOp54
 70
     0
102
RTVSPost2010Prop55
280
     0
102
RTVSPost2010PropOp55
 70
     1
102
RTVSPost2010Prop56
140
1.0
102
RTVSPost2010PropOp56
 70
     0
102
RTVSPost2010Prop57
140
1.0
102
RTVSPost2010PropOp57
 70
     0
102
RTVSPropertyOp0
 70
     0
102
RTVSPropertyOp1
 70
     0
102
RTVSPropertyOp2
 70
     0
102
RTVSPropertyOp3
 70
     0
102
RTVSPropertyOp4
 70
     0
102
RTVSPropertyOp5
 70
     0
102
RTVSPropertyOp6
 70
     0
102
RTVSPropertyOp7
 70
     0
102
RTVSPropertyOp8
 70
     0
102
RTVSPropertyOp9
 70
     0
102
RTVSPropertyOp10
 70
     0
102
RTVSPropertyOp11
 70
     0
102
RTVSPropertyOp12
 70
     0
102
RTVSPropertyOp13
 70
     0
102
RTVSPropertyOp14
 70
     2
102
RTVSPropertyOp15
 70
     0
102
RTVSPropertyOp16
 70
     0
102
RTVSPropertyOp17
 70
     0
102
RTVSPropertyOp18
 70
     0
102
RTVSPropertyOp19
 70
     0
102
RTVSPropertyOp20
 70
     0
102
RTVSPropertyOp21
 70
     0
102
RTVSPropertyOp22
 70
     0
102
RTVSPropertyOp23
 70
     0
102
RTVSPropertyOp24
 70
     0
102
RTVSPropertyOp25
 70
     0
102
RTVSPropertyOp26
 70
     0
102
RTVSPropertyOp27
 70
     0
102
RTVSPropertyOp28
 70
     1
102
RTVSPropertyOp29
 70
     1
102
RTVSPropertyOp30
 70
     1
102
RTVSPropertyOp31
 70
     1
102
RTVSPropertyOp32
 70
     1
102
RTVSPropertyOp33
 70
     1
102
RTVSPropertyOp34
 70
     1
102
RTVSPropertyOp35
 70
     1
102
RTVSPropertyOp36
 70
     1
102
RTVSPropertyOp37
 70
     0
102
RTVSPropertyOp38
 70
     0
102
RTVSPropertyOp39
 70
     0
102
RTVSPropertyOp40
 70
     0
102
RTVSPropertyOp41
 70
     0
102
RTVSPropertyOp42
 70
     0
102
RTVSPropertyOp43
 70
     0
102
RTVSPropertyOp44
 70
     0
102
RTVSPropertyOp45
 70
     1
102
RTVSPropertyOp46
 70
     0
102
RTVSPropertyOp47
 70
     0
102
RTVSPropertyOp48
 70
     0
102
RTVSPropertyOp49
 70
     1
102
RTVSPropertyOp50
 70
     0
102
RTVSPropertyOp51
 70
     0
102
RTVSPropertyOp52
 70
     0
102
RTVSPropertyOp53
 70
     0
102
RTVSPropertyOp54
 70
     0
102
RTVSPropertyOp55
 70
     1
102
RTVSPropertyOp56
 70
     0
102
RTVSPropertyOp57
 70
     0
102
RTVSPropertyOp58
 70
     0
102
RTVSPropertyOp59
 70
     0
102
RTVSPropertyOp60
 70
     0
102
RTVSPropertyOp61
 70
     0
102
RTVSPropertyOp62
 70
     0
  0
XRECORD
  5
B0C7
102
{ACAD_REACTORS
330
B0C6
102
}
330
B0C6
100
AcDbXrecord
280
     1
102
RTVSPost2010Prop28
280
     0
102
RTVSPost2010PropOp28
 70
     1
102
RTVSPost2010Prop29
280
     1
102
RTVSPost2010PropOp29
 70
     1
102
RTVSPost2010Prop30
280
     1
102
RTVSPost2010PropOp30
 70
     1
102
RTVSPost2010Prop31
280
     0
102
RTVSPost2010PropOp31
 70
     1
102
RTVSPost2010Prop32
280
     0
102
RTVSPost2010PropOp32
 70
     1
102
RTVSPost2010Prop33
280
     0
102
RTVSPost2010PropOp33
 70
     1
102
RTVSPost2010Prop34
280
     0
102
RTVSPost2010PropOp34
 70
     1
102
RTVSPost2010Prop35
280
     0
102
RTVSPost2010PropOp35
 70
     1
102
RTVSPost2010Prop36
280
     0
102
RTVSPost2010PropOp36
 70
     1
102
RTVSPost2010Prop37
 90
       50
102
RTVSPost2010PropOp37
 70
     1
102
RTVSPost2010Prop38
140
0.0
102
RTVSPost2010PropOp38
 70
     1
102
RTVSPost2010Prop39
140
1.0
102
RTVSPost2010PropOp39
 70
     1
102
RTVSPost2010Prop40
 90
        0
102
RTVSPost2010PropOp40
 70
     1
102
RTVSPost2010Prop41ColorIndex
 90
       18
102
RTVSPost2010Prop41ColorRGB
 90
        0
102
RTVSPost2010PropOp41
 70
     1
102
RTVSPost2010Prop42
 90
       50
102
RTVSPost2010PropOp42
 70
     1
102
RTVSPost2010Prop43
 90
        3
102
RTVSPost2010PropOp43
 70
     1
102
RTVSPost2010Prop44ColorIndex
 90
        5
102
RTVSPost2010Prop44ColorRGB
 90
      255
102
RTVSPost2010PropOp44
 70
     1
102
RTVSPost2010Prop45
280
     0
102
RTVSPost2010PropOp45
 70
     1
102
RTVSPost2010Prop46
 90
       50
102
RTVSPost2010PropOp46
 70
     1
102
RTVSPost2010Prop47
 90
       50
102
RTVSPost2010PropOp47
 70
     1
102
RTVSPost2010Prop48
 90
       50
102
RTVSPost2010PropOp48
 70
     1
102
RTVSPost2010Prop49
280
     0
102
RTVSPost2010PropOp49
 70
     1
102
RTVSPost2010Prop50
 90
       50
102
RTVSPost2010PropOp50
 70
     1
102
RTVSPost2010Prop51ColorIndex
 90
      256
102
RTVSPost2010Prop51ColorRGB
 90
-16777216
102
RTVSPost2010PropOp51
 70
     0
102
RTVSPost2010Prop52
140
1.0
102
RTVSPost2010PropOp52
 70
     0
102
RTVSPost2010Prop53
 90
        2
102
RTVSPost2010PropOp53
 70
     1
102
RTVSPost2010Prop54
  1
strokes_ogs.tif
102
RTVSPost2010PropOp54
 70
     1
102
RTVSPost2010Prop55
280
     0
102
RTVSPost2010PropOp55
 70
     1
102
RTVSPost2010Prop56
140
1.0
102
RTVSPost2010PropOp56
 70
     1
102
RTVSPost2010Prop57
140
1.0
102
RTVSPost2010PropOp57
 70
     1
102
RTVSPropertyOp0
 70
     1
102
RTVSPropertyOp1
 70
     1
102
RTVSPropertyOp2
 70
     1
102
RTVSPropertyOp3
 70
     1
102
RTVSPropertyOp4
 70
     1
102
RTVSPropertyOp5
 70
     1
102
RTVSPropertyOp6
 70
     1
102
RTVSPropertyOp7
 70
     1
102
RTVSPropertyOp8
 70
     1
102
RTVSPropertyOp9
 70
     1
102
RTVSPropertyOp10
 70
     1
102
RTVSPropertyOp11
 70
     1
102
RTVSPropertyOp12
 70
     1
102
RTVSPropertyOp13
 70
     1
102
RTVSPropertyOp14
 70
     1
102
RTVSPropertyOp15
 70
     1
102
RTVSPropertyOp16
 70
     1
102
RTVSPropertyOp17
 70
     1
102
RTVSPropertyOp18
 70
     1
102
RTVSPropertyOp19
 70
     1
102
RTVSPropertyOp20
 70
     1
102
RTVSPropertyOp21
 70
     1
102
RTVSPropertyOp22
 70
     1
102
RTVSPropertyOp23
 70
     1
102
RTVSPropertyOp24
 70
     1
102
RTVSPropertyOp25
 70
     1
102
RTVSPropertyOp26
 70
     1
102
RTVSPropertyOp27
 70
     1
102
RTVSPropertyOp28
 70
     1
102
RTVSPropertyOp29
 70
     1
102
RTVSPropertyOp30
 70
     1
102
RTVSPropertyOp31
 70
     1
102
RTVSPropertyOp32
 70
     1
102
RTVSPropertyOp33
 70
     1
102
RTVSPropertyOp34
 70
     1
102
RTVSPropertyOp35
 70
     1
102
RTVSPropertyOp36
 70
     1
102
RTVSPropertyOp37
 70
     1
102
RTVSPropertyOp38
 70
     1
102
RTVSPropertyOp39
 70
     1
102
RTVSPropertyOp40
 70
     1
102
RTVSPropertyOp41
 70
     1
102
RTVSPropertyOp42
 70
     1
102
RTVSPropertyOp43
 70
     1
102
RTVSPropertyOp44
 70
     1
102
RTVSPropertyOp45
 70
     1
102
RTVSPropertyOp46
 70
     1
102
RTVSPropertyOp47
 70
     1
102
RTVSPropertyOp48
 70
     1
102
RTVSPropertyOp49
 70
     1
102
RTVSPropertyOp50
 70
     1
102
RTVSPropertyOp51
 70
     0
102
RTVSPropertyOp52
 70
     0
102
RTVSPropertyOp53
 70
     1
102
RTVSPropertyOp54
 70
     1
102
RTVSPropertyOp55
 70
     1
102
RTVSPropertyOp56
 70
     1
102
RTVSPropertyOp57
 70
     1
102
RTVSPropertyOp58
 70
     1
102
RTVSPropertyOp59
 70
     1
102
RTVSPropertyOp60
 70
     1
102
RTVSPropertyOp61
 70
     1
102
RTVSPropertyOp62
 70
     1
  0
XRECORD
  5
B0AB
102
{ACAD_REACTORS
330
B0AA
102
}
330
B0AA
100
AcDbXrecord
280
     1
102
RTVSPost2010Prop28
280
     0
102
RTVSPost2010PropOp28
 70
     1
102
RTVSPost2010Prop29
280
     1
102
RTVSPost2010PropOp29
 70
     1
102
RTVSPost2010Prop30
280
     1
102
RTVSPost2010PropOp30
 70
     1
102
RTVSPost2010Prop31
280
     0
102
RTVSPost2010PropOp31
 70
     1
102
RTVSPost2010Prop32
280
     0
102
RTVSPost2010PropOp32
 70
     1
102
RTVSPost2010Prop33
280
     0
102
RTVSPost2010PropOp33
 70
     1
102
RTVSPost2010Prop34
280
     0
102
RTVSPost2010PropOp34
 70
     1
102
RTVSPost2010Prop35
280
     0
102
RTVSPost2010PropOp35
 70
     1
102
RTVSPost2010Prop36
280
     0
102
RTVSPost2010PropOp36
 70
     1
102
RTVSPost2010Prop37
 90
       50
102
RTVSPost2010PropOp37
 70
     1
102
RTVSPost2010Prop38
140
0.0
102
RTVSPost2010PropOp38
 70
     1
102
RTVSPost2010Prop39
140
1.0
102
RTVSPost2010PropOp39
 70
     1
102
RTVSPost2010Prop40
 90
        0
102
RTVSPost2010PropOp40
 70
     1
102
RTVSPost2010Prop41ColorIndex
 90
       18
102
RTVSPost2010Prop41ColorRGB
 90
        0
102
RTVSPost2010PropOp41
 70
     1
102
RTVSPost2010Prop42
 90
       50
102
RTVSPost2010PropOp42
 70
     1
102
RTVSPost2010Prop43
 90
        3
102
RTVSPost2010PropOp43
 70
     1
102
RTVSPost2010Prop44ColorIndex
 90
        5
102
RTVSPost2010Prop44ColorRGB
 90
      255
102
RTVSPost2010PropOp44
 70
     1
102
RTVSPost2010Prop45
280
     0
102
RTVSPost2010PropOp45
 70
     1
102
RTVSPost2010Prop46
 90
       50
102
RTVSPost2010PropOp46
 70
     1
102
RTVSPost2010Prop47
 90
       50
102
RTVSPost2010PropOp47
 70
     1
102
RTVSPost2010Prop48
 90
       50
102
RTVSPost2010PropOp48
 70
     1
102
RTVSPost2010Prop49
280
     0
102
RTVSPost2010PropOp49
 70
     1
102
RTVSPost2010Prop50
 90
       50
102
RTVSPost2010PropOp50
 70
     1
102
RTVSPost2010Prop51ColorIndex
 90
      256
102
RTVSPost2010Prop51ColorRGB
 90
-16777216
102
RTVSPost2010PropOp51
 70
     0
102
RTVSPost2010Prop52
140
1.0
102
RTVSPost2010PropOp52
 70
     0
102
RTVSPost2010Prop53
 90
        2
102
RTVSPost2010PropOp53
 70
     1
102
RTVSPost2010Prop54
  1
strokes_ogs.tif
102
RTVSPost2010PropOp54
 70
     1
102
RTVSPost2010Prop55
280
     0
102
RTVSPost2010PropOp55
 70
     1
102
RTVSPost2010Prop56
140
1.0
102
RTVSPost2010PropOp56
 70
     1
102
RTVSPost2010Prop57
140
1.0
102
RTVSPost2010PropOp57
 70
     1
102
RTVSPropertyOp0
 70
     1
102
RTVSPropertyOp1
 70
     1
102
RTVSPropertyOp2
 70
     1
102
RTVSPropertyOp3
 70
     1
102
RTVSPropertyOp4
 70
     1
102
RTVSPropertyOp5
 70
     1
102
RTVSPropertyOp6
 70
     1
102
RTVSPropertyOp7
 70
     1
102
RTVSPropertyOp8
 70
     1
102
RTVSPropertyOp9
 70
     1
102
RTVSPropertyOp10
 70
     1
102
RTVSPropertyOp11
 70
     1
102
RTVSPropertyOp12
 70
     1
102
RTVSPropertyOp13
 70
     1
102
RTVSPropertyOp14
 70
     1
102
RTVSPropertyOp15
 70
     1
102
RTVSPropertyOp16
 70
     1
102
RTVSPropertyOp17
 70
     1
102
RTVSPropertyOp18
 70
     1
102
RTVSPropertyOp19
 70
     1
102
RTVSPropertyOp20
 70
     1
102
RTVSPropertyOp21
 70
     1
102
RTVSPropertyOp22
 70
     1
102
RTVSPropertyOp23
 70
     1
102
RTVSPropertyOp24
 70
     1
102
RTVSPropertyOp25
 70
     1
102
RTVSPropertyOp26
 70
     1
102
RTVSPropertyOp27
 70
     1
102
RTVSPropertyOp28
 70
     1
102
RTVSPropertyOp29
 70
     1
102
RTVSPropertyOp30
 70
     1
102
RTVSPropertyOp31
 70
     1
102
RTVSPropertyOp32
 70
     1
102
RTVSPropertyOp33
 70
     1
102
RTVSPropertyOp34
 70
     1
102
RTVSPropertyOp35
 70
     1
102
RTVSPropertyOp36
 70
     1
102
RTVSPropertyOp37
 70
     1
102
RTVSPropertyOp38
 70
     1
102
RTVSPropertyOp39
 70
     1
102
RTVSPropertyOp40
 70
     1
102
RTVSPropertyOp41
 70
     1
102
RTVSPropertyOp42
 70
     1
102
RTVSPropertyOp43
 70
     1
102
RTVSPropertyOp44
 70
     1
102
RTVSPropertyOp45
 70
     1
102
RTVSPropertyOp46
 70
     1
102
RTVSPropertyOp47
 70
     1
102
RTVSPropertyOp48
 70
     1
102
RTVSPropertyOp49
 70
     1
102
RTVSPropertyOp50
 70
     1
102
RTVSPropertyOp51
 70
     0
102
RTVSPropertyOp52
 70
     0
102
RTVSPropertyOp53
 70
     1
102
RTVSPropertyOp54
 70
     1
102
RTVSPropertyOp55
 70
     1
102
RTVSPropertyOp56
 70
     1
102
RTVSPropertyOp57
 70
     1
102
RTVSPropertyOp58
 70
     1
102
RTVSPropertyOp59
 70
     1
102
RTVSPropertyOp60
 70
     1
102
RTVSPropertyOp61
 70
     1
102
RTVSPropertyOp62
 70
     1
  0
XRECORD
  5
B0AD
102
{ACAD_REACTORS
330
B0AC
102
}
330
B0AC
100
AcDbXrecord
280
     1
102
RTVSPost2010Prop28
280
     0
102
RTVSPost2010PropOp28
 70
     1
102
RTVSPost2010Prop29
280
     1
102
RTVSPost2010PropOp29
 70
     1
102
RTVSPost2010Prop30
280
     1
102
RTVSPost2010PropOp30
 70
     1
102
RTVSPost2010Prop31
280
     0
102
RTVSPost2010PropOp31
 70
     1
102
RTVSPost2010Prop32
280
     0
102
RTVSPost2010PropOp32
 70
     1
102
RTVSPost2010Prop33
280
     0
102
RTVSPost2010PropOp33
 70
     1
102
RTVSPost2010Prop34
280
     0
102
RTVSPost2010PropOp34
 70
     1
102
RTVSPost2010Prop35
280
     0
102
RTVSPost2010PropOp35
 70
     1
102
RTVSPost2010Prop36
280
     0
102
RTVSPost2010PropOp36
 70
     1
102
RTVSPost2010Prop37
 90
       50
102
RTVSPost2010PropOp37
 70
     1
102
RTVSPost2010Prop38
140
0.0
102
RTVSPost2010PropOp38
 70
     1
102
RTVSPost2010Prop39
140
1.0
102
RTVSPost2010PropOp39
 70
     1
102
RTVSPost2010Prop40
 90
        0
102
RTVSPost2010PropOp40
 70
     1
102
RTVSPost2010Prop41ColorIndex
 90
       18
102
RTVSPost2010Prop41ColorRGB
 90
        0
102
RTVSPost2010PropOp41
 70
     1
102
RTVSPost2010Prop42
 90
       50
102
RTVSPost2010PropOp42
 70
     1
102
RTVSPost2010Prop43
 90
        3
102
RTVSPost2010PropOp43
 70
     1
102
RTVSPost2010Prop44ColorIndex
 90
        5
102
RTVSPost2010Prop44ColorRGB
 90
      255
102
RTVSPost2010PropOp44
 70
     1
102
RTVSPost2010Prop45
280
     0
102
RTVSPost2010PropOp45
 70
     1
102
RTVSPost2010Prop46
 90
       50
102
RTVSPost2010PropOp46
 70
     1
102
RTVSPost2010Prop47
 90
       50
102
RTVSPost2010PropOp47
 70
     1
102
RTVSPost2010Prop48
 90
       50
102
RTVSPost2010PropOp48
 70
     1
102
RTVSPost2010Prop49
280
     0
102
RTVSPost2010PropOp49
 70
     1
102
RTVSPost2010Prop50
 90
       50
102
RTVSPost2010PropOp50
 70
     1
102
RTVSPost2010Prop51ColorIndex
 90
      256
102
RTVSPost2010Prop51ColorRGB
 90
-16777216
102
RTVSPost2010PropOp51
 70
     0
102
RTVSPost2010Prop52
140
1.0
102
RTVSPost2010PropOp52
 70
     0
102
RTVSPost2010Prop53
 90
        2
102
RTVSPost2010PropOp53
 70
     1
102
RTVSPost2010Prop54
  1
strokes_ogs.tif
102
RTVSPost2010PropOp54
 70
     1
102
RTVSPost2010Prop55
280
     0
102
RTVSPost2010PropOp55
 70
     1
102
RTVSPost2010Prop56
140
1.0
102
RTVSPost2010PropOp56
 70
     1
102
RTVSPost2010Prop57
140
1.0
102
RTVSPost2010PropOp57
 70
     1
102
RTVSPropertyOp0
 70
     1
102
RTVSPropertyOp1
 70
     1
102
RTVSPropertyOp2
 70
     1
102
RTVSPropertyOp3
 70
     1
102
RTVSPropertyOp4
 70
     1
102
RTVSPropertyOp5
 70
     1
102
RTVSPropertyOp6
 70
     1
102
RTVSPropertyOp7
 70
     1
102
RTVSPropertyOp8
 70
     1
102
RTVSPropertyOp9
 70
     1
102
RTVSPropertyOp10
 70
     1
102
RTVSPropertyOp11
 70
     1
102
RTVSPropertyOp12
 70
     1
102
RTVSPropertyOp13
 70
     1
102
RTVSPropertyOp14
 70
     1
102
RTVSPropertyOp15
 70
     1
102
RTVSPropertyOp16
 70
     1
102
RTVSPropertyOp17
 70
     1
102
RTVSPropertyOp18
 70
     1
102
RTVSPropertyOp19
 70
     1
102
RTVSPropertyOp20
 70
     1
102
RTVSPropertyOp21
 70
     1
102
RTVSPropertyOp22
 70
     1
102
RTVSPropertyOp23
 70
     1
102
RTVSPropertyOp24
 70
     1
102
RTVSPropertyOp25
 70
     1
102
RTVSPropertyOp26
 70
     1
102
RTVSPropertyOp27
 70
     1
102
RTVSPropertyOp28
 70
     1
102
RTVSPropertyOp29
 70
     1
102
RTVSPropertyOp30
 70
     1
102
RTVSPropertyOp31
 70
     1
102
RTVSPropertyOp32
 70
     1
102
RTVSPropertyOp33
 70
     1
102
RTVSPropertyOp34
 70
     1
102
RTVSPropertyOp35
 70
     1
102
RTVSPropertyOp36
 70
     1
102
RTVSPropertyOp37
 70
     1
102
RTVSPropertyOp38
 70
     1
102
RTVSPropertyOp39
 70
     1
102
RTVSPropertyOp40
 70
     1
102
RTVSPropertyOp41
 70
     1
102
RTVSPropertyOp42
 70
     1
102
RTVSPropertyOp43
 70
     1
102
RTVSPropertyOp44
 70
     1
102
RTVSPropertyOp45
 70
     1
102
RTVSPropertyOp46
 70
     1
102
RTVSPropertyOp47
 70
     1
102
RTVSPropertyOp48
 70
     1
102
RTVSPropertyOp49
 70
     1
102
RTVSPropertyOp50
 70
     1
102
RTVSPropertyOp51
 70
     0
102
RTVSPropertyOp52
 70
     0
102
RTVSPropertyOp53
 70
     1
102
RTVSPropertyOp54
 70
     1
102
RTVSPropertyOp55
 70
     1
102
RTVSPropertyOp56
 70
     1
102
RTVSPropertyOp57
 70
     1
102
RTVSPropertyOp58
 70
     1
102
RTVSPropertyOp59
 70
     1
102
RTVSPropertyOp60
 70
     1
102
RTVSPropertyOp61
 70
     1
102
RTVSPropertyOp62
 70
     1
  0
XRECORD
  5
B0AF
102
{ACAD_REACTORS
330
B0AE
102
}
330
B0AE
100
AcDbXrecord
280
     1
102
RTVSPost2010Prop28
280
     0
102
RTVSPost2010PropOp28
 70
     1
102
RTVSPost2010Prop29
280
     1
102
RTVSPost2010PropOp29
 70
     1
102
RTVSPost2010Prop30
280
     1
102
RTVSPost2010PropOp30
 70
     1
102
RTVSPost2010Prop31
280
     0
102
RTVSPost2010PropOp31
 70
     1
102
RTVSPost2010Prop32
280
     0
102
RTVSPost2010PropOp32
 70
     1
102
RTVSPost2010Prop33
280
     0
102
RTVSPost2010PropOp33
 70
     1
102
RTVSPost2010Prop34
280
     0
102
RTVSPost2010PropOp34
 70
     1
102
RTVSPost2010Prop35
280
     0
102
RTVSPost2010PropOp35
 70
     1
102
RTVSPost2010Prop36
280
     0
102
RTVSPost2010PropOp36
 70
     1
102
RTVSPost2010Prop37
 90
       50
102
RTVSPost2010PropOp37
 70
     1
102
RTVSPost2010Prop38
140
0.0
102
RTVSPost2010PropOp38
 70
     1
102
RTVSPost2010Prop39
140
1.0
102
RTVSPost2010PropOp39
 70
     1
102
RTVSPost2010Prop40
 90
        0
102
RTVSPost2010PropOp40
 70
     1
102
RTVSPost2010Prop41ColorIndex
 90
       18
102
RTVSPost2010Prop41ColorRGB
 90
        0
102
RTVSPost2010PropOp41
 70
     1
102
RTVSPost2010Prop42
 90
       50
102
RTVSPost2010PropOp42
 70
     1
102
RTVSPost2010Prop43
 90
        3
102
RTVSPost2010PropOp43
 70
     1
102
RTVSPost2010Prop44ColorIndex
 90
        5
102
RTVSPost2010Prop44ColorRGB
 90
      255
102
RTVSPost2010PropOp44
 70
     1
102
RTVSPost2010Prop45
280
     0
102
RTVSPost2010PropOp45
 70
     1
102
RTVSPost2010Prop46
 90
       50
102
RTVSPost2010PropOp46
 70
     1
102
RTVSPost2010Prop47
 90
       50
102
RTVSPost2010PropOp47
 70
     1
102
RTVSPost2010Prop48
 90
       50
102
RTVSPost2010PropOp48
 70
     1
102
RTVSPost2010Prop49
280
     0
102
RTVSPost2010PropOp49
 70
     1
102
RTVSPost2010Prop50
 90
       50
102
RTVSPost2010PropOp50
 70
     1
102
RTVSPost2010Prop51ColorIndex
 90
      256
102
RTVSPost2010Prop51ColorRGB
 90
-16777216
102
RTVSPost2010PropOp51
 70
     0
102
RTVSPost2010Prop52
140
1.0
102
RTVSPost2010PropOp52
 70
     0
102
RTVSPost2010Prop53
 90
        2
102
RTVSPost2010PropOp53
 70
     1
102
RTVSPost2010Prop54
  1
strokes_ogs.tif
102
RTVSPost2010PropOp54
 70
     1
102
RTVSPost2010Prop55
280
     0
102
RTVSPost2010PropOp55
 70
     1
102
RTVSPost2010Prop56
140
1.0
102
RTVSPost2010PropOp56
 70
     1
102
RTVSPost2010Prop57
140
1.0
102
RTVSPost2010PropOp57
 70
     1
102
RTVSPropertyOp0
 70
     1
102
RTVSPropertyOp1
 70
     1
102
RTVSPropertyOp2
 70
     1
102
RTVSPropertyOp3
 70
     1
102
RTVSPropertyOp4
 70
     1
102
RTVSPropertyOp5
 70
     1
102
RTVSPropertyOp6
 70
     1
102
RTVSPropertyOp7
 70
     1
102
RTVSPropertyOp8
 70
     1
102
RTVSPropertyOp9
 70
     1
102
RTVSPropertyOp10
 70
     1
102
RTVSPropertyOp11
 70
     1
102
RTVSPropertyOp12
 70
     1
102
RTVSPropertyOp13
 70
     1
102
RTVSPropertyOp14
 70
     1
102
RTVSPropertyOp15
 70
     1
102
RTVSPropertyOp16
 70
     1
102
RTVSPropertyOp17
 70
     1
102
RTVSPropertyOp18
 70
     1
102
RTVSPropertyOp19
 70
     1
102
RTVSPropertyOp20
 70
     1
102
RTVSPropertyOp21
 70
     1
102
RTVSPropertyOp22
 70
     1
102
RTVSPropertyOp23
 70
     1
102
RTVSPropertyOp24
 70
     1
102
RTVSPropertyOp25
 70
     1
102
RTVSPropertyOp26
 70
     1
102
RTVSPropertyOp27
 70
     1
102
RTVSPropertyOp28
 70
     1
102
RTVSPropertyOp29
 70
     1
102
RTVSPropertyOp30
 70
     1
102
RTVSPropertyOp31
 70
     1
102
RTVSPropertyOp32
 70
     1
102
RTVSPropertyOp33
 70
     1
102
RTVSPropertyOp34
 70
     1
102
RTVSPropertyOp35
 70
     1
102
RTVSPropertyOp36
 70
     1
102
RTVSPropertyOp37
 70
     1
102
RTVSPropertyOp38
 70
     1
102
RTVSPropertyOp39
 70
     1
102
RTVSPropertyOp40
 70
     1
102
RTVSPropertyOp41
 70
     1
102
RTVSPropertyOp42
 70
     1
102
RTVSPropertyOp43
 70
     1
102
RTVSPropertyOp44
 70
     1
102
RTVSPropertyOp45
 70
     1
102
RTVSPropertyOp46
 70
     1
102
RTVSPropertyOp47
 70
     1
102
RTVSPropertyOp48
 70
     1
102
RTVSPropertyOp49
 70
     1
102
RTVSPropertyOp50
 70
     1
102
RTVSPropertyOp51
 70
     0
102
RTVSPropertyOp52
 70
     0
102
RTVSPropertyOp53
 70
     1
102
RTVSPropertyOp54
 70
     1
102
RTVSPropertyOp55
 70
     1
102
RTVSPropertyOp56
 70
     1
102
RTVSPropertyOp57
 70
     1
102
RTVSPropertyOp58
 70
     1
102
RTVSPropertyOp59
 70
     1
102
RTVSPropertyOp60
 70
     1
102
RTVSPropertyOp61
 70
     1
102
RTVSPropertyOp62
 70
     1
  0
XRECORD
  5
B0B1
102
{ACAD_REACTORS
330
B0B0
102
}
330
B0B0
100
AcDbXrecord
280
     1
102
RTVSPost2010Prop28
280
     0
102
RTVSPost2010PropOp28
 70
     1
102
RTVSPost2010Prop29
280
     1
102
RTVSPost2010PropOp29
 70
     1
102
RTVSPost2010Prop30
280
     1
102
RTVSPost2010PropOp30
 70
     1
102
RTVSPost2010Prop31
280
     0
102
RTVSPost2010PropOp31
 70
     1
102
RTVSPost2010Prop32
280
     0
102
RTVSPost2010PropOp32
 70
     1
102
RTVSPost2010Prop33
280
     0
102
RTVSPost2010PropOp33
 70
     1
102
RTVSPost2010Prop34
280
     0
102
RTVSPost2010PropOp34
 70
     1
102
RTVSPost2010Prop35
280
     0
102
RTVSPost2010PropOp35
 70
     1
102
RTVSPost2010Prop36
280
     0
102
RTVSPost2010PropOp36
 70
     1
102
RTVSPost2010Prop37
 90
       50
102
RTVSPost2010PropOp37
 70
     1
102
RTVSPost2010Prop38
140
0.0
102
RTVSPost2010PropOp38
 70
     1
102
RTVSPost2010Prop39
140
1.0
102
RTVSPost2010PropOp39
 70
     1
102
RTVSPost2010Prop40
 90
        0
102
RTVSPost2010PropOp40
 70
     1
102
RTVSPost2010Prop41ColorIndex
 90
       18
102
RTVSPost2010Prop41ColorRGB
 90
        0
102
RTVSPost2010PropOp41
 70
     1
102
RTVSPost2010Prop42
 90
       50
102
RTVSPost2010PropOp42
 70
     1
102
RTVSPost2010Prop43
 90
        3
102
RTVSPost2010PropOp43
 70
     1
102
RTVSPost2010Prop44ColorIndex
 90
        5
102
RTVSPost2010Prop44ColorRGB
 90
      255
102
RTVSPost2010PropOp44
 70
     1
102
RTVSPost2010Prop45
280
     0
102
RTVSPost2010PropOp45
 70
     1
102
RTVSPost2010Prop46
 90
       50
102
RTVSPost2010PropOp46
 70
     1
102
RTVSPost2010Prop47
 90
       50
102
RTVSPost2010PropOp47
 70
     1
102
RTVSPost2010Prop48
 90
       50
102
RTVSPost2010PropOp48
 70
     1
102
RTVSPost2010Prop49
280
     0
102
RTVSPost2010PropOp49
 70
     1
102
RTVSPost2010Prop50
 90
       50
102
RTVSPost2010PropOp50
 70
     1
102
RTVSPost2010Prop51ColorIndex
 90
      256
102
RTVSPost2010Prop51ColorRGB
 90
-16777216
102
RTVSPost2010PropOp51
 70
     0
102
RTVSPost2010Prop52
140
1.0
102
RTVSPost2010PropOp52
 70
     0
102
RTVSPost2010Prop53
 90
        2
102
RTVSPost2010PropOp53
 70
     1
102
RTVSPost2010Prop54
  1
strokes_ogs.tif
102
RTVSPost2010PropOp54
 70
     1
102
RTVSPost2010Prop55
280
     0
102
RTVSPost2010PropOp55
 70
     1
102
RTVSPost2010Prop56
140
1.0
102
RTVSPost2010PropOp56
 70
     1
102
RTVSPost2010Prop57
140
1.0
102
RTVSPost2010PropOp57
 70
     1
102
RTVSPropertyOp0
 70
     1
102
RTVSPropertyOp1
 70
     1
102
RTVSPropertyOp2
 70
     1
102
RTVSPropertyOp3
 70
     1
102
RTVSPropertyOp4
 70
     1
102
RTVSPropertyOp5
 70
     1
102
RTVSPropertyOp6
 70
     1
102
RTVSPropertyOp7
 70
     1
102
RTVSPropertyOp8
 70
     1
102
RTVSPropertyOp9
 70
     1
102
RTVSPropertyOp10
 70
     1
102
RTVSPropertyOp11
 70
     1
102
RTVSPropertyOp12
 70
     1
102
RTVSPropertyOp13
 70
     1
102
RTVSPropertyOp14
 70
     1
102
RTVSPropertyOp15
 70
     1
102
RTVSPropertyOp16
 70
     1
102
RTVSPropertyOp17
 70
     1
102
RTVSPropertyOp18
 70
     1
102
RTVSPropertyOp19
 70
     1
102
RTVSPropertyOp20
 70
     1
102
RTVSPropertyOp21
 70
     1
102
RTVSPropertyOp22
 70
     1
102
RTVSPropertyOp23
 70
     1
102
RTVSPropertyOp24
 70
     1
102
RTVSPropertyOp25
 70
     1
102
RTVSPropertyOp26
 70
     1
102
RTVSPropertyOp27
 70
     1
102
RTVSPropertyOp28
 70
     1
102
RTVSPropertyOp29
 70
     1
102
RTVSPropertyOp30
 70
     1
102
RTVSPropertyOp31
 70
     1
102
RTVSPropertyOp32
 70
     1
102
RTVSPropertyOp33
 70
     1
102
RTVSPropertyOp34
 70
     1
102
RTVSPropertyOp35
 70
     1
102
RTVSPropertyOp36
 70
     1
102
RTVSPropertyOp37
 70
     1
102
RTVSPropertyOp38
 70
     1
102
RTVSPropertyOp39
 70
     1
102
RTVSPropertyOp40
 70
     1
102
RTVSPropertyOp41
 70
     1
102
RTVSPropertyOp42
 70
     1
102
RTVSPropertyOp43
 70
     1
102
RTVSPropertyOp44
 70
     1
102
RTVSPropertyOp45
 70
     1
102
RTVSPropertyOp46
 70
     1
102
RTVSPropertyOp47
 70
     1
102
RTVSPropertyOp48
 70
     1
102
RTVSPropertyOp49
 70
     1
102
RTVSPropertyOp50
 70
     1
102
RTVSPropertyOp51
 70
     0
102
RTVSPropertyOp52
 70
     0
102
RTVSPropertyOp53
 70
     1
102
RTVSPropertyOp54
 70
     1
102
RTVSPropertyOp55
 70
     1
102
RTVSPropertyOp56
 70
     1
102
RTVSPropertyOp57
 70
     1
102
RTVSPropertyOp58
 70
     1
102
RTVSPropertyOp59
 70
     1
102
RTVSPropertyOp60
 70
     1
102
RTVSPropertyOp61
 70
     1
102
RTVSPropertyOp62
 70
     1
  0
XRECORD
  5
B0B9
102
{ACAD_REACTORS
330
B0B8
102
}
330
B0B8
100
AcDbXrecord
280
     1
102
RTVSPost2010Prop28
280
     0
102
RTVSPost2010PropOp28
 70
     1
102
RTVSPost2010Prop29
280
     1
102
RTVSPost2010PropOp29
 70
     1
102
RTVSPost2010Prop30
280
     1
102
RTVSPost2010PropOp30
 70
     1
102
RTVSPost2010Prop31
280
     0
102
RTVSPost2010PropOp31
 70
     1
102
RTVSPost2010Prop32
280
     0
102
RTVSPost2010PropOp32
 70
     1
102
RTVSPost2010Prop33
280
     0
102
RTVSPost2010PropOp33
 70
     1
102
RTVSPost2010Prop34
280
     0
102
RTVSPost2010PropOp34
 70
     1
102
RTVSPost2010Prop35
280
     0
102
RTVSPost2010PropOp35
 70
     1
102
RTVSPost2010Prop36
280
     0
102
RTVSPost2010PropOp36
 70
     1
102
RTVSPost2010Prop37
 90
       50
102
RTVSPost2010PropOp37
 70
     1
102
RTVSPost2010Prop38
140
0.0
102
RTVSPost2010PropOp38
 70
     1
102
RTVSPost2010Prop39
140
1.0
102
RTVSPost2010PropOp39
 70
     1
102
RTVSPost2010Prop40
 90
        0
102
RTVSPost2010PropOp40
 70
     1
102
RTVSPost2010Prop41ColorIndex
 90
       18
102
RTVSPost2010Prop41ColorRGB
 90
        0
102
RTVSPost2010PropOp41
 70
     1
102
RTVSPost2010Prop42
 90
       50
102
RTVSPost2010PropOp42
 70
     1
102
RTVSPost2010Prop43
 90
        3
102
RTVSPost2010PropOp43
 70
     1
102
RTVSPost2010Prop44ColorIndex
 90
        5
102
RTVSPost2010Prop44ColorRGB
 90
      255
102
RTVSPost2010PropOp44
 70
     1
102
RTVSPost2010Prop45
280
     0
102
RTVSPost2010PropOp45
 70
     1
102
RTVSPost2010Prop46
 90
       50
102
RTVSPost2010PropOp46
 70
     1
102
RTVSPost2010Prop47
 90
       50
102
RTVSPost2010PropOp47
 70
     1
102
RTVSPost2010Prop48
 90
       50
102
RTVSPost2010PropOp48
 70
     1
102
RTVSPost2010Prop49
280
     0
102
RTVSPost2010PropOp49
 70
     1
102
RTVSPost2010Prop50
 90
       50
102
RTVSPost2010PropOp50
 70
     1
102
RTVSPost2010Prop51ColorIndex
 90
      256
102
RTVSPost2010Prop51ColorRGB
 90
-16777216
102
RTVSPost2010PropOp51
 70
     0
102
RTVSPost2010Prop52
140
1.0
102
RTVSPost2010PropOp52
 70
     0
102
RTVSPost2010Prop53
 90
        2
102
RTVSPost2010PropOp53
 70
     1
102
RTVSPost2010Prop54
  1
strokes_ogs.tif
102
RTVSPost2010PropOp54
 70
     1
102
RTVSPost2010Prop55
280
     0
102
RTVSPost2010PropOp55
 70
     1
102
RTVSPost2010Prop56
140
1.0
102
RTVSPost2010PropOp56
 70
     1
102
RTVSPost2010Prop57
140
1.0
102
RTVSPost2010PropOp57
 70
     1
102
RTVSPropertyOp0
 70
     1
102
RTVSPropertyOp1
 70
     1
102
RTVSPropertyOp2
 70
     1
102
RTVSPropertyOp3
 70
     1
102
RTVSPropertyOp4
 70
     1
102
RTVSPropertyOp5
 70
     1
102
RTVSPropertyOp6
 70
     1
102
RTVSPropertyOp7
 70
     1
102
RTVSPropertyOp8
 70
     1
102
RTVSPropertyOp9
 70
     1
102
RTVSPropertyOp10
 70
     1
102
RTVSPropertyOp11
 70
     1
102
RTVSPropertyOp12
 70
     1
102
RTVSPropertyOp13
 70
     1
102
RTVSPropertyOp14
 70
     1
102
RTVSPropertyOp15
 70
     1
102
RTVSPropertyOp16
 70
     1
102
RTVSPropertyOp17
 70
     1
102
RTVSPropertyOp18
 70
     1
102
RTVSPropertyOp19
 70
     1
102
RTVSPropertyOp20
 70
     1
102
RTVSPropertyOp21
 70
     1
102
RTVSPropertyOp22
 70
     1
102
RTVSPropertyOp23
 70
     1
102
RTVSPropertyOp24
 70
     1
102
RTVSPropertyOp25
 70
     1
102
RTVSPropertyOp26
 70
     1
102
RTVSPropertyOp27
 70
     1
102
RTVSPropertyOp28
 70
     1
102
RTVSPropertyOp29
 70
     1
102
RTVSPropertyOp30
 70
     1
102
RTVSPropertyOp31
 70
     1
102
RTVSPropertyOp32
 70
     1
102
RTVSPropertyOp33
 70
     1
102
RTVSPropertyOp34
 70
     1
102
RTVSPropertyOp35
 70
     1
102
RTVSPropertyOp36
 70
     1
102
RTVSPropertyOp37
 70
     1
102
RTVSPropertyOp38
 70
     1
102
RTVSPropertyOp39
 70
     1
102
RTVSPropertyOp40
 70
     1
102
RTVSPropertyOp41
 70
     1
102
RTVSPropertyOp42
 70
     1
102
RTVSPropertyOp43
 70
     1
102
RTVSPropertyOp44
 70
     1
102
RTVSPropertyOp45
 70
     1
102
RTVSPropertyOp46
 70
     1
102
RTVSPropertyOp47
 70
     1
102
RTVSPropertyOp48
 70
     1
102
RTVSPropertyOp49
 70
     1
102
RTVSPropertyOp50
 70
     1
102
RTVSPropertyOp51
 70
     0
102
RTVSPropertyOp52
 70
     0
102
RTVSPropertyOp53
 70
     1
102
RTVSPropertyOp54
 70
     1
102
RTVSPropertyOp55
 70
     1
102
RTVSPropertyOp56
 70
     1
102
RTVSPropertyOp57
 70
     1
102
RTVSPropertyOp58
 70
     1
102
RTVSPropertyOp59
 70
     1
102
RTVSPropertyOp60
 70
     1
102
RTVSPropertyOp61
 70
     1
102
RTVSPropertyOp62
 70
     1
  0
XRECORD
  5
B0D5
102
{ACAD_REACTORS
330
B0D4
102
}
330
B0D4
100
AcDbXrecord
280
     1
102
RTVSPost2010Prop28
280
     0
102
RTVSPost2010PropOp28
 70
     1
102
RTVSPost2010Prop29
280
     1
102
RTVSPost2010PropOp29
 70
     1
102
RTVSPost2010Prop30
280
     1
102
RTVSPost2010PropOp30
 70
     1
102
RTVSPost2010Prop31
280
     0
102
RTVSPost2010PropOp31
 70
     1
102
RTVSPost2010Prop32
280
     0
102
RTVSPost2010PropOp32
 70
     1
102
RTVSPost2010Prop33
280
     0
102
RTVSPost2010PropOp33
 70
     1
102
RTVSPost2010Prop34
280
     0
102
RTVSPost2010PropOp34
 70
     1
102
RTVSPost2010Prop35
280
     0
102
RTVSPost2010PropOp35
 70
     1
102
RTVSPost2010Prop36
280
     0
102
RTVSPost2010PropOp36
 70
     1
102
RTVSPost2010Prop37
 90
       50
102
RTVSPost2010PropOp37
 70
     0
102
RTVSPost2010Prop38
140
0.0
102
RTVSPost2010PropOp38
 70
     0
102
RTVSPost2010Prop39
140
1.0
102
RTVSPost2010PropOp39
 70
     0
102
RTVSPost2010Prop40
 90
        0
102
RTVSPost2010PropOp40
 70
     0
102
RTVSPost2010Prop41ColorIndex
 90
       18
102
RTVSPost2010Prop41ColorRGB
 90
        0
102
RTVSPost2010PropOp41
 70
     0
102
RTVSPost2010Prop42
 90
       50
102
RTVSPost2010PropOp42
 70
     0
102
RTVSPost2010Prop43
 90
        3
102
RTVSPost2010PropOp43
 70
     0
102
RTVSPost2010Prop44ColorIndex
 90
        5
102
RTVSPost2010Prop44ColorRGB
 90
      255
102
RTVSPost2010PropOp44
 70
     0
102
RTVSPost2010Prop45
280
     0
102
RTVSPost2010PropOp45
 70
     1
102
RTVSPost2010Prop46
 90
       50
102
RTVSPost2010PropOp46
 70
     0
102
RTVSPost2010Prop47
 90
       50
102
RTVSPost2010PropOp47
 70
     0
102
RTVSPost2010Prop48
 90
       50
102
RTVSPost2010PropOp48
 70
     0
102
RTVSPost2010Prop49
280
     0
102
RTVSPost2010PropOp49
 70
     1
102
RTVSPost2010Prop50
 90
       50
102
RTVSPost2010PropOp50
 70
     0
102
RTVSPost2010Prop51ColorIndex
 90
      256
102
RTVSPost2010Prop51ColorRGB
 90
-16777216
102
RTVSPost2010PropOp51
 70
     0
102
RTVSPost2010Prop52
140
1.0
102
RTVSPost2010PropOp52
 70
     0
102
RTVSPost2010Prop53
 90
        2
102
RTVSPost2010PropOp53
 70
     0
102
RTVSPost2010Prop54
  1
strokes_ogs.tif
102
RTVSPost2010PropOp54
 70
     0
102
RTVSPost2010Prop55
280
     0
102
RTVSPost2010PropOp55
 70
     1
102
RTVSPost2010Prop56
140
1.0
102
RTVSPost2010PropOp56
 70
     0
102
RTVSPost2010Prop57
140
1.0
102
RTVSPost2010PropOp57
 70
     0
102
RTVSPropertyOp0
 70
     0
102
RTVSPropertyOp1
 70
     0
102
RTVSPropertyOp2
 70
     0
102
RTVSPropertyOp3
 70
     0
102
RTVSPropertyOp4
 70
     0
102
RTVSPropertyOp5
 70
     0
102
RTVSPropertyOp6
 70
     0
102
RTVSPropertyOp7
 70
     0
102
RTVSPropertyOp8
 70
     0
102
RTVSPropertyOp9
 70
     0
102
RTVSPropertyOp10
 70
     0
102
RTVSPropertyOp11
 70
     0
102
RTVSPropertyOp12
 70
     0
102
RTVSPropertyOp13
 70
     0
102
RTVSPropertyOp14
 70
     2
102
RTVSPropertyOp15
 70
     0
102
RTVSPropertyOp16
 70
     0
102
RTVSPropertyOp17
 70
     0
102
RTVSPropertyOp18
 70
     0
102
RTVSPropertyOp19
 70
     0
102
RTVSPropertyOp20
 70
     0
102
RTVSPropertyOp21
 70
     0
102
RTVSPropertyOp22
 70
     0
102
RTVSPropertyOp23
 70
     0
102
RTVSPropertyOp24
 70
     0
102
RTVSPropertyOp25
 70
     0
102
RTVSPropertyOp26
 70
     0
102
RTVSPropertyOp27
 70
     0
102
RTVSPropertyOp28
 70
     1
102
RTVSPropertyOp29
 70
     1
102
RTVSPropertyOp30
 70
     1
102
RTVSPropertyOp31
 70
     1
102
RTVSPropertyOp32
 70
     1
102
RTVSPropertyOp33
 70
     1
102
RTVSPropertyOp34
 70
     1
102
RTVSPropertyOp35
 70
     1
102
RTVSPropertyOp36
 70
     1
102
RTVSPropertyOp37
 70
     0
102
RTVSPropertyOp38
 70
     0
102
RTVSPropertyOp39
 70
     0
102
RTVSPropertyOp40
 70
     0
102
RTVSPropertyOp41
 70
     0
102
RTVSPropertyOp42
 70
     0
102
RTVSPropertyOp43
 70
     0
102
RTVSPropertyOp44
 70
     0
102
RTVSPropertyOp45
 70
     1
102
RTVSPropertyOp46
 70
     0
102
RTVSPropertyOp47
 70
     0
102
RTVSPropertyOp48
 70
     0
102
RTVSPropertyOp49
 70
     1
102
RTVSPropertyOp50
 70
     0
102
RTVSPropertyOp51
 70
     0
102
RTVSPropertyOp52
 70
     0
102
RTVSPropertyOp53
 70
     0
102
RTVSPropertyOp54
 70
     0
102
RTVSPropertyOp55
 70
     1
102
RTVSPropertyOp56
 70
     0
102
RTVSPropertyOp57
 70
     0
102
RTVSPropertyOp58
 70
     0
102
RTVSPropertyOp59
 70
     0
102
RTVSPropertyOp60
 70
     0
102
RTVSPropertyOp61
 70
     0
102
RTVSPropertyOp62
 70
     0
  0
XRECORD
  5
B0C5
102
{ACAD_REACTORS
330
B0C4
102
}
330
B0C4
100
AcDbXrecord
280
     1
102
RTVSPost2010Prop28
280
     0
102
RTVSPost2010PropOp28
 70
     1
102
RTVSPost2010Prop29
280
     1
102
RTVSPost2010PropOp29
 70
     1
102
RTVSPost2010Prop30
280
     1
102
RTVSPost2010PropOp30
 70
     1
102
RTVSPost2010Prop31
280
     0
102
RTVSPost2010PropOp31
 70
     1
102
RTVSPost2010Prop32
280
     0
102
RTVSPost2010PropOp32
 70
     1
102
RTVSPost2010Prop33
280
     0
102
RTVSPost2010PropOp33
 70
     1
102
RTVSPost2010Prop34
280
     0
102
RTVSPost2010PropOp34
 70
     1
102
RTVSPost2010Prop35
280
     0
102
RTVSPost2010PropOp35
 70
     1
102
RTVSPost2010Prop36
280
     0
102
RTVSPost2010PropOp36
 70
     1
102
RTVSPost2010Prop37
 90
       50
102
RTVSPost2010PropOp37
 70
     1
102
RTVSPost2010Prop38
140
0.0
102
RTVSPost2010PropOp38
 70
     1
102
RTVSPost2010Prop39
140
1.0
102
RTVSPost2010PropOp39
 70
     1
102
RTVSPost2010Prop40
 90
        0
102
RTVSPost2010PropOp40
 70
     1
102
RTVSPost2010Prop41ColorIndex
 90
       18
102
RTVSPost2010Prop41ColorRGB
 90
        0
102
RTVSPost2010PropOp41
 70
     1
102
RTVSPost2010Prop42
 90
       50
102
RTVSPost2010PropOp42
 70
     1
102
RTVSPost2010Prop43
 90
        3
102
RTVSPost2010PropOp43
 70
     1
102
RTVSPost2010Prop44ColorIndex
 90
        5
102
RTVSPost2010Prop44ColorRGB
 90
      255
102
RTVSPost2010PropOp44
 70
     1
102
RTVSPost2010Prop45
280
     0
102
RTVSPost2010PropOp45
 70
     1
102
RTVSPost2010Prop46
 90
       50
102
RTVSPost2010PropOp46
 70
     1
102
RTVSPost2010Prop47
 90
       50
102
RTVSPost2010PropOp47
 70
     1
102
RTVSPost2010Prop48
 90
       50
102
RTVSPost2010PropOp48
 70
     1
102
RTVSPost2010Prop49
280
     0
102
RTVSPost2010PropOp49
 70
     1
102
RTVSPost2010Prop50
 90
       50
102
RTVSPost2010PropOp50
 70
     1
102
RTVSPost2010Prop51ColorIndex
 90
      256
102
RTVSPost2010Prop51ColorRGB
 90
-16777216
102
RTVSPost2010PropOp51
 70
     0
102
RTVSPost2010Prop52
140
1.0
102
RTVSPost2010PropOp52
 70
     0
102
RTVSPost2010Prop53
 90
        2
102
RTVSPost2010PropOp53
 70
     1
102
RTVSPost2010Prop54
  1
strokes_ogs.tif
102
RTVSPost2010PropOp54
 70
     1
102
RTVSPost2010Prop55
280
     0
102
RTVSPost2010PropOp55
 70
     1
102
RTVSPost2010Prop56
140
1.0
102
RTVSPost2010PropOp56
 70
     1
102
RTVSPost2010Prop57
140
1.0
102
RTVSPost2010PropOp57
 70
     1
102
RTVSPropertyOp0
 70
     1
102
RTVSPropertyOp1
 70
     1
102
RTVSPropertyOp2
 70
     1
102
RTVSPropertyOp3
 70
     1
102
RTVSPropertyOp4
 70
     1
102
RTVSPropertyOp5
 70
     1
102
RTVSPropertyOp6
 70
     1
102
RTVSPropertyOp7
 70
     1
102
RTVSPropertyOp8
 70
     1
102
RTVSPropertyOp9
 70
     1
102
RTVSPropertyOp10
 70
     1
102
RTVSPropertyOp11
 70
     1
102
RTVSPropertyOp12
 70
     1
102
RTVSPropertyOp13
 70
     1
102
RTVSPropertyOp14
 70
     1
102
RTVSPropertyOp15
 70
     1
102
RTVSPropertyOp16
 70
     1
102
RTVSPropertyOp17
 70
     1
102
RTVSPropertyOp18
 70
     1
102
RTVSPropertyOp19
 70
     1
102
RTVSPropertyOp20
 70
     1
102
RTVSPropertyOp21
 70
     1
102
RTVSPropertyOp22
 70
     1
102
RTVSPropertyOp23
 70
     1
102
RTVSPropertyOp24
 70
     1
102
RTVSPropertyOp25
 70
     1
102
RTVSPropertyOp26
 70
     1
102
RTVSPropertyOp27
 70
     1
102
RTVSPropertyOp28
 70
     1
102
RTVSPropertyOp29
 70
     1
102
RTVSPropertyOp30
 70
     1
102
RTVSPropertyOp31
 70
     1
102
RTVSPropertyOp32
 70
     1
102
RTVSPropertyOp33
 70
     1
102
RTVSPropertyOp34
 70
     1
102
RTVSPropertyOp35
 70
     1
102
RTVSPropertyOp36
 70
     1
102
RTVSPropertyOp37
 70
     1
102
RTVSPropertyOp38
 70
     1
102
RTVSPropertyOp39
 70
     1
102
RTVSPropertyOp40
 70
     1
102
RTVSPropertyOp41
 70
     1
102
RTVSPropertyOp42
 70
     1
102
RTVSPropertyOp43
 70
     1
102
RTVSPropertyOp44
 70
     1
102
RTVSPropertyOp45
 70
     1
102
RTVSPropertyOp46
 70
     1
102
RTVSPropertyOp47
 70
     1
102
RTVSPropertyOp48
 70
     1
102
RTVSPropertyOp49
 70
     1
102
RTVSPropertyOp50
 70
     1
102
RTVSPropertyOp51
 70
     0
102
RTVSPropertyOp52
 70
     0
102
RTVSPropertyOp53
 70
     1
102
RTVSPropertyOp54
 70
     1
102
RTVSPropertyOp55
 70
     1
102
RTVSPropertyOp56
 70
     1
102
RTVSPropertyOp57
 70
     1
102
RTVSPropertyOp58
 70
     1
102
RTVSPropertyOp59
 70
     1
102
RTVSPropertyOp60
 70
     1
102
RTVSPropertyOp61
 70
     1
102
RTVSPropertyOp62
 70
     1
  0
XRECORD
  5
B0D7
102
{ACAD_REACTORS
330
B0D6
102
}
330
B0D6
100
AcDbXrecord
280
     1
102
RTVSPost2010Prop28
280
     0
102
RTVSPost2010PropOp28
 70
     1
102
RTVSPost2010Prop29
280
     1
102
RTVSPost2010PropOp29
 70
     1
102
RTVSPost2010Prop30
280
     1
102
RTVSPost2010PropOp30
 70
     1
102
RTVSPost2010Prop31
280
     0
102
RTVSPost2010PropOp31
 70
     1
102
RTVSPost2010Prop32
280
     0
102
RTVSPost2010PropOp32
 70
     1
102
RTVSPost2010Prop33
280
     0
102
RTVSPost2010PropOp33
 70
     1
102
RTVSPost2010Prop34
280
     0
102
RTVSPost2010PropOp34
 70
     1
102
RTVSPost2010Prop35
280
     0
102
RTVSPost2010PropOp35
 70
     1
102
RTVSPost2010Prop36
280
     0
102
RTVSPost2010PropOp36
 70
     1
102
RTVSPost2010Prop37
 90
       50
102
RTVSPost2010PropOp37
 70
     0
102
RTVSPost2010Prop38
140
0.0
102
RTVSPost2010PropOp38
 70
     0
102
RTVSPost2010Prop39
140
1.0
102
RTVSPost2010PropOp39
 70
     0
102
RTVSPost2010Prop40
 90
        0
102
RTVSPost2010PropOp40
 70
     0
102
RTVSPost2010Prop41ColorIndex
 90
       18
102
RTVSPost2010Prop41ColorRGB
 90
        0
102
RTVSPost2010PropOp41
 70
     0
102
RTVSPost2010Prop42
 90
       50
102
RTVSPost2010PropOp42
 70
     0
102
RTVSPost2010Prop43
 90
        3
102
RTVSPost2010PropOp43
 70
     0
102
RTVSPost2010Prop44ColorIndex
 90
        5
102
RTVSPost2010Prop44ColorRGB
 90
      255
102
RTVSPost2010PropOp44
 70
     0
102
RTVSPost2010Prop45
280
     0
102
RTVSPost2010PropOp45
 70
     1
102
RTVSPost2010Prop46
 90
       50
102
RTVSPost2010PropOp46
 70
     0
102
RTVSPost2010Prop47
 90
       50
102
RTVSPost2010PropOp47
 70
     0
102
RTVSPost2010Prop48
 90
       50
102
RTVSPost2010PropOp48
 70
     0
102
RTVSPost2010Prop49
280
     0
102
RTVSPost2010PropOp49
 70
     1
102
RTVSPost2010Prop50
 90
       50
102
RTVSPost2010PropOp50
 70
     0
102
RTVSPost2010Prop51ColorIndex
 90
      256
102
RTVSPost2010Prop51ColorRGB
 90
-16777216
102
RTVSPost2010PropOp51
 70
     0
102
RTVSPost2010Prop52
140
1.0
102
RTVSPost2010PropOp52
 70
     0
102
RTVSPost2010Prop53
 90
        2
102
RTVSPost2010PropOp53
 70
     0
102
RTVSPost2010Prop54
  1
strokes_ogs.tif
102
RTVSPost2010PropOp54
 70
     0
102
RTVSPost2010Prop55
280
     0
102
RTVSPost2010PropOp55
 70
     1
102
RTVSPost2010Prop56
140
1.0
102
RTVSPost2010PropOp56
 70
     0
102
RTVSPost2010Prop57
140
1.0
102
RTVSPost2010PropOp57
 70
     0
102
RTVSPropertyOp0
 70
     0
102
RTVSPropertyOp1
 70
     0
102
RTVSPropertyOp2
 70
     0
102
RTVSPropertyOp3
 70
     0
102
RTVSPropertyOp4
 70
     0
102
RTVSPropertyOp5
 70
     0
102
RTVSPropertyOp6
 70
     0
102
RTVSPropertyOp7
 70
     0
102
RTVSPropertyOp8
 70
     0
102
RTVSPropertyOp9
 70
     0
102
RTVSPropertyOp10
 70
     0
102
RTVSPropertyOp11
 70
     0
102
RTVSPropertyOp12
 70
     0
102
RTVSPropertyOp13
 70
     0
102
RTVSPropertyOp14
 70
     2
102
RTVSPropertyOp15
 70
     0
102
RTVSPropertyOp16
 70
     0
102
RTVSPropertyOp17
 70
     0
102
RTVSPropertyOp18
 70
     0
102
RTVSPropertyOp19
 70
     0
102
RTVSPropertyOp20
 70
     0
102
RTVSPropertyOp21
 70
     0
102
RTVSPropertyOp22
 70
     0
102
RTVSPropertyOp23
 70
     0
102
RTVSPropertyOp24
 70
     0
102
RTVSPropertyOp25
 70
     0
102
RTVSPropertyOp26
 70
     0
102
RTVSPropertyOp27
 70
     0
102
RTVSPropertyOp28
 70
     1
102
RTVSPropertyOp29
 70
     1
102
RTVSPropertyOp30
 70
     1
102
RTVSPropertyOp31
 70
     1
102
RTVSPropertyOp32
 70
     1
102
RTVSPropertyOp33
 70
     1
102
RTVSPropertyOp34
 70
     1
102
RTVSPropertyOp35
 70
     1
102
RTVSPropertyOp36
 70
     1
102
RTVSPropertyOp37
 70
     0
102
RTVSPropertyOp38
 70
     0
102
RTVSPropertyOp39
 70
     0
102
RTVSPropertyOp40
 70
     0
102
RTVSPropertyOp41
 70
     0
102
RTVSPropertyOp42
 70
     0
102
RTVSPropertyOp43
 70
     0
102
RTVSPropertyOp44
 70
     0
102
RTVSPropertyOp45
 70
     1
102
RTVSPropertyOp46
 70
     0
102
RTVSPropertyOp47
 70
     0
102
RTVSPropertyOp48
 70
     0
102
RTVSPropertyOp49
 70
     1
102
RTVSPropertyOp50
 70
     0
102
RTVSPropertyOp51
 70
     0
102
RTVSPropertyOp52
 70
     0
102
RTVSPropertyOp53
 70
     0
102
RTVSPropertyOp54
 70
     0
102
RTVSPropertyOp55
 70
     1
102
RTVSPropertyOp56
 70
     0
102
RTVSPropertyOp57
 70
     0
102
RTVSPropertyOp58
 70
     0
102
RTVSPropertyOp59
 70
     0
102
RTVSPropertyOp60
 70
     0
102
RTVSPropertyOp61
 70
     0
102
RTVSPropertyOp62
 70
     0
  0
XRECORD
  5
B0BD
102
{ACAD_REACTORS
330
B0BC
102
}
330
B0BC
100
AcDbXrecord
280
     1
102
RTVSPost2010Prop28
280
     0
102
RTVSPost2010PropOp28
 70
     1
102
RTVSPost2010Prop29
280
     1
102
RTVSPost2010PropOp29
 70
     1
102
RTVSPost2010Prop30
280
     1
102
RTVSPost2010PropOp30
 70
     1
102
RTVSPost2010Prop31
280
     0
102
RTVSPost2010PropOp31
 70
     1
102
RTVSPost2010Prop32
280
     0
102
RTVSPost2010PropOp32
 70
     1
102
RTVSPost2010Prop33
280
     0
102
RTVSPost2010PropOp33
 70
     1
102
RTVSPost2010Prop34
280
     0
102
RTVSPost2010PropOp34
 70
     1
102
RTVSPost2010Prop35
280
     0
102
RTVSPost2010PropOp35
 70
     1
102
RTVSPost2010Prop36
280
     0
102
RTVSPost2010PropOp36
 70
     1
102
RTVSPost2010Prop37
 90
       50
102
RTVSPost2010PropOp37
 70
     1
102
RTVSPost2010Prop38
140
0.0
102
RTVSPost2010PropOp38
 70
     1
102
RTVSPost2010Prop39
140
1.0
102
RTVSPost2010PropOp39
 70
     1
102
RTVSPost2010Prop40
 90
        0
102
RTVSPost2010PropOp40
 70
     1
102
RTVSPost2010Prop41ColorIndex
 90
       18
102
RTVSPost2010Prop41ColorRGB
 90
        0
102
RTVSPost2010PropOp41
 70
     1
102
RTVSPost2010Prop42
 90
       50
102
RTVSPost2010PropOp42
 70
     1
102
RTVSPost2010Prop43
 90
        3
102
RTVSPost2010PropOp43
 70
     1
102
RTVSPost2010Prop44ColorIndex
 90
        5
102
RTVSPost2010Prop44ColorRGB
 90
      255
102
RTVSPost2010PropOp44
 70
     1
102
RTVSPost2010Prop45
280
     0
102
RTVSPost2010PropOp45
 70
     1
102
RTVSPost2010Prop46
 90
       50
102
RTVSPost2010PropOp46
 70
     1
102
RTVSPost2010Prop47
 90
       50
102
RTVSPost2010PropOp47
 70
     1
102
RTVSPost2010Prop48
 90
       50
102
RTVSPost2010PropOp48
 70
     1
102
RTVSPost2010Prop49
280
     0
102
RTVSPost2010PropOp49
 70
     1
102
RTVSPost2010Prop50
 90
       50
102
RTVSPost2010PropOp50
 70
     1
102
RTVSPost2010Prop51ColorIndex
 90
      256
102
RTVSPost2010Prop51ColorRGB
 90
-16777216
102
RTVSPost2010PropOp51
 70
     0
102
RTVSPost2010Prop52
140
1.0
102
RTVSPost2010PropOp52
 70
     0
102
RTVSPost2010Prop53
 90
        2
102
RTVSPost2010PropOp53
 70
     1
102
RTVSPost2010Prop54
  1
strokes_ogs.tif
102
RTVSPost2010PropOp54
 70
     1
102
RTVSPost2010Prop55
280
     0
102
RTVSPost2010PropOp55
 70
     1
102
RTVSPost2010Prop56
140
1.0
102
RTVSPost2010PropOp56
 70
     1
102
RTVSPost2010Prop57
140
1.0
102
RTVSPost2010PropOp57
 70
     1
102
RTVSPropertyOp0
 70
     1
102
RTVSPropertyOp1
 70
     1
102
RTVSPropertyOp2
 70
     1
102
RTVSPropertyOp3
 70
     1
102
RTVSPropertyOp4
 70
     1
102
RTVSPropertyOp5
 70
     1
102
RTVSPropertyOp6
 70
     1
102
RTVSPropertyOp7
 70
     1
102
RTVSPropertyOp8
 70
     1
102
RTVSPropertyOp9
 70
     1
102
RTVSPropertyOp10
 70
     1
102
RTVSPropertyOp11
 70
     1
102
RTVSPropertyOp12
 70
     1
102
RTVSPropertyOp13
 70
     1
102
RTVSPropertyOp14
 70
     1
102
RTVSPropertyOp15
 70
     1
102
RTVSPropertyOp16
 70
     1
102
RTVSPropertyOp17
 70
     1
102
RTVSPropertyOp18
 70
     1
102
RTVSPropertyOp19
 70
     1
102
RTVSPropertyOp20
 70
     1
102
RTVSPropertyOp21
 70
     1
102
RTVSPropertyOp22
 70
     1
102
RTVSPropertyOp23
 70
     1
102
RTVSPropertyOp24
 70
     1
102
RTVSPropertyOp25
 70
     1
102
RTVSPropertyOp26
 70
     1
102
RTVSPropertyOp27
 70
     1
102
RTVSPropertyOp28
 70
     1
102
RTVSPropertyOp29
 70
     1
102
RTVSPropertyOp30
 70
     1
102
RTVSPropertyOp31
 70
     1
102
RTVSPropertyOp32
 70
     1
102
RTVSPropertyOp33
 70
     1
102
RTVSPropertyOp34
 70
     1
102
RTVSPropertyOp35
 70
     1
102
RTVSPropertyOp36
 70
     1
102
RTVSPropertyOp37
 70
     1
102
RTVSPropertyOp38
 70
     1
102
RTVSPropertyOp39
 70
     1
102
RTVSPropertyOp40
 70
     1
102
RTVSPropertyOp41
 70
     1
102
RTVSPropertyOp42
 70
     1
102
RTVSPropertyOp43
 70
     1
102
RTVSPropertyOp44
 70
     1
102
RTVSPropertyOp45
 70
     1
102
RTVSPropertyOp46
 70
     1
102
RTVSPropertyOp47
 70
     1
102
RTVSPropertyOp48
 70
     1
102
RTVSPropertyOp49
 70
     1
102
RTVSPropertyOp50
 70
     1
102
RTVSPropertyOp51
 70
     0
102
RTVSPropertyOp52
 70
     0
102
RTVSPropertyOp53
 70
     1
102
RTVSPropertyOp54
 70
     1
102
RTVSPropertyOp55
 70
     1
102
RTVSPropertyOp56
 70
     1
102
RTVSPropertyOp57
 70
     1
102
RTVSPropertyOp58
 70
     1
102
RTVSPropertyOp59
 70
     1
102
RTVSPropertyOp60
 70
     1
102
RTVSPropertyOp61
 70
     1
102
RTVSPropertyOp62
 70
     1
  0
XRECORD
  5
B0D3
102
{ACAD_REACTORS
330
B0D2
102
}
330
B0D2
100
AcDbXrecord
280
     1
102
RTVSPost2010Prop28
280
     0
102
RTVSPost2010PropOp28
 70
     1
102
RTVSPost2010Prop29
280
     1
102
RTVSPost2010PropOp29
 70
     1
102
RTVSPost2010Prop30
280
     1
102
RTVSPost2010PropOp30
 70
     1
102
RTVSPost2010Prop31
280
     0
102
RTVSPost2010PropOp31
 70
     1
102
RTVSPost2010Prop32
280
     0
102
RTVSPost2010PropOp32
 70
     1
102
RTVSPost2010Prop33
280
     0
102
RTVSPost2010PropOp33
 70
     1
102
RTVSPost2010Prop34
280
     0
102
RTVSPost2010PropOp34
 70
     1
102
RTVSPost2010Prop35
280
     0
102
RTVSPost2010PropOp35
 70
     1
102
RTVSPost2010Prop36
280
     0
102
RTVSPost2010PropOp36
 70
     1
102
RTVSPost2010Prop37
 90
       50
102
RTVSPost2010PropOp37
 70
     1
102
RTVSPost2010Prop38
140
0.0
102
RTVSPost2010PropOp38
 70
     1
102
RTVSPost2010Prop39
140
1.0
102
RTVSPost2010PropOp39
 70
     1
102
RTVSPost2010Prop40
 90
        0
102
RTVSPost2010PropOp40
 70
     1
102
RTVSPost2010Prop41ColorIndex
 90
       18
102
RTVSPost2010Prop41ColorRGB
 90
        0
102
RTVSPost2010PropOp41
 70
     1
102
RTVSPost2010Prop42
 90
       50
102
RTVSPost2010PropOp42
 70
     1
102
RTVSPost2010Prop43
 90
        3
102
RTVSPost2010PropOp43
 70
     1
102
RTVSPost2010Prop44ColorIndex
 90
        5
102
RTVSPost2010Prop44ColorRGB
 90
      255
102
RTVSPost2010PropOp44
 70
     1
102
RTVSPost2010Prop45
280
     0
102
RTVSPost2010PropOp45
 70
     1
102
RTVSPost2010Prop46
 90
       50
102
RTVSPost2010PropOp46
 70
     1
102
RTVSPost2010Prop47
 90
       50
102
RTVSPost2010PropOp47
 70
     1
102
RTVSPost2010Prop48
 90
       50
102
RTVSPost2010PropOp48
 70
     1
102
RTVSPost2010Prop49
280
     0
102
RTVSPost2010PropOp49
 70
     1
102
RTVSPost2010Prop50
 90
       50
102
RTVSPost2010PropOp50
 70
     1
102
RTVSPost2010Prop51ColorIndex
 90
      256
102
RTVSPost2010Prop51ColorRGB
 90
-16777216
102
RTVSPost2010PropOp51
 70
     0
102
RTVSPost2010Prop52
140
1.0
102
RTVSPost2010PropOp52
 70
     0
102
RTVSPost2010Prop53
 90
        2
102
RTVSPost2010PropOp53
 70
     1
102
RTVSPost2010Prop54
  1
strokes_ogs.tif
102
RTVSPost2010PropOp54
 70
     1
102
RTVSPost2010Prop55
280
     0
102
RTVSPost2010PropOp55
 70
     1
102
RTVSPost2010Prop56
140
1.0
102
RTVSPost2010PropOp56
 70
     1
102
RTVSPost2010Prop57
140
1.0
102
RTVSPost2010PropOp57
 70
     1
102
RTVSPropertyOp0
 70
     1
102
RTVSPropertyOp1
 70
     1
102
RTVSPropertyOp2
 70
     1
102
RTVSPropertyOp3
 70
     1
102
RTVSPropertyOp4
 70
     1
102
RTVSPropertyOp5
 70
     1
102
RTVSPropertyOp6
 70
     1
102
RTVSPropertyOp7
 70
     1
102
RTVSPropertyOp8
 70
     1
102
RTVSPropertyOp9
 70
     1
102
RTVSPropertyOp10
 70
     1
102
RTVSPropertyOp11
 70
     1
102
RTVSPropertyOp12
 70
     1
102
RTVSPropertyOp13
 70
     1
102
RTVSPropertyOp14
 70
     1
102
RTVSPropertyOp15
 70
     1
102
RTVSPropertyOp16
 70
     1
102
RTVSPropertyOp17
 70
     1
102
RTVSPropertyOp18
 70
     1
102
RTVSPropertyOp19
 70
     1
102
RTVSPropertyOp20
 70
     1
102
RTVSPropertyOp21
 70
     1
102
RTVSPropertyOp22
 70
     1
102
RTVSPropertyOp23
 70
     1
102
RTVSPropertyOp24
 70
     1
102
RTVSPropertyOp25
 70
     1
102
RTVSPropertyOp26
 70
     1
102
RTVSPropertyOp27
 70
     1
102
RTVSPropertyOp28
 70
     1
102
RTVSPropertyOp29
 70
     1
102
RTVSPropertyOp30
 70
     1
102
RTVSPropertyOp31
 70
     1
102
RTVSPropertyOp32
 70
     1
102
RTVSPropertyOp33
 70
     1
102
RTVSPropertyOp34
 70
     1
102
RTVSPropertyOp35
 70
     1
102
RTVSPropertyOp36
 70
     1
102
RTVSPropertyOp37
 70
     1
102
RTVSPropertyOp38
 70
     1
102
RTVSPropertyOp39
 70
     1
102
RTVSPropertyOp40
 70
     1
102
RTVSPropertyOp41
 70
     1
102
RTVSPropertyOp42
 70
     1
102
RTVSPropertyOp43
 70
     1
102
RTVSPropertyOp44
 70
     1
102
RTVSPropertyOp45
 70
     1
102
RTVSPropertyOp46
 70
     1
102
RTVSPropertyOp47
 70
     1
102
RTVSPropertyOp48
 70
     1
102
RTVSPropertyOp49
 70
     1
102
RTVSPropertyOp50
 70
     1
102
RTVSPropertyOp51
 70
     0
102
RTVSPropertyOp52
 70
     0
102
RTVSPropertyOp53
 70
     1
102
RTVSPropertyOp54
 70
     1
102
RTVSPropertyOp55
 70
     1
102
RTVSPropertyOp56
 70
     1
102
RTVSPropertyOp57
 70
     1
102
RTVSPropertyOp58
 70
     1
102
RTVSPropertyOp59
 70
     1
102
RTVSPropertyOp60
 70
     1
102
RTVSPropertyOp61
 70
     1
102
RTVSPropertyOp62
 70
     1
  0
XRECORD
  5
B0D1
102
{ACAD_REACTORS
330
B0D0
102
}
330
B0D0
100
AcDbXrecord
280
     1
102
RTVSPost2010Prop28
280
     0
102
RTVSPost2010PropOp28
 70
     1
102
RTVSPost2010Prop29
280
     1
102
RTVSPost2010PropOp29
 70
     1
102
RTVSPost2010Prop30
280
     1
102
RTVSPost2010PropOp30
 70
     1
102
RTVSPost2010Prop31
280
     0
102
RTVSPost2010PropOp31
 70
     1
102
RTVSPost2010Prop32
280
     0
102
RTVSPost2010PropOp32
 70
     1
102
RTVSPost2010Prop33
280
     0
102
RTVSPost2010PropOp33
 70
     1
102
RTVSPost2010Prop34
280
     0
102
RTVSPost2010PropOp34
 70
     1
102
RTVSPost2010Prop35
280
     0
102
RTVSPost2010PropOp35
 70
     1
102
RTVSPost2010Prop36
280
     0
102
RTVSPost2010PropOp36
 70
     1
102
RTVSPost2010Prop37
 90
       50
102
RTVSPost2010PropOp37
 70
     1
102
RTVSPost2010Prop38
140
0.0
102
RTVSPost2010PropOp38
 70
     1
102
RTVSPost2010Prop39
140
1.0
102
RTVSPost2010PropOp39
 70
     1
102
RTVSPost2010Prop40
 90
        0
102
RTVSPost2010PropOp40
 70
     1
102
RTVSPost2010Prop41ColorIndex
 90
       18
102
RTVSPost2010Prop41ColorRGB
 90
        0
102
RTVSPost2010PropOp41
 70
     1
102
RTVSPost2010Prop42
 90
       50
102
RTVSPost2010PropOp42
 70
     1
102
RTVSPost2010Prop43
 90
        3
102
RTVSPost2010PropOp43
 70
     1
102
RTVSPost2010Prop44ColorIndex
 90
        5
102
RTVSPost2010Prop44ColorRGB
 90
      255
102
RTVSPost2010PropOp44
 70
     1
102
RTVSPost2010Prop45
280
     0
102
RTVSPost2010PropOp45
 70
     1
102
RTVSPost2010Prop46
 90
       50
102
RTVSPost2010PropOp46
 70
     1
102
RTVSPost2010Prop47
 90
       50
102
RTVSPost2010PropOp47
 70
     1
102
RTVSPost2010Prop48
 90
       50
102
RTVSPost2010PropOp48
 70
     1
102
RTVSPost2010Prop49
280
     0
102
RTVSPost2010PropOp49
 70
     1
102
RTVSPost2010Prop50
 90
       50
102
RTVSPost2010PropOp50
 70
     1
102
RTVSPost2010Prop51ColorIndex
 90
      256
102
RTVSPost2010Prop51ColorRGB
 90
-16777216
102
RTVSPost2010PropOp51
 70
     0
102
RTVSPost2010Prop52
140
1.0
102
RTVSPost2010PropOp52
 70
     0
102
RTVSPost2010Prop53
 90
        2
102
RTVSPost2010PropOp53
 70
     1
102
RTVSPost2010Prop54
  1
strokes_ogs.tif
102
RTVSPost2010PropOp54
 70
     1
102
RTVSPost2010Prop55
280
     0
102
RTVSPost2010PropOp55
 70
     1
102
RTVSPost2010Prop56
140
1.0
102
RTVSPost2010PropOp56
 70
     1
102
RTVSPost2010Prop57
140
1.0
102
RTVSPost2010PropOp57
 70
     1
102
RTVSPropertyOp0
 70
     1
102
RTVSPropertyOp1
 70
     1
102
RTVSPropertyOp2
 70
     1
102
RTVSPropertyOp3
 70
     1
102
RTVSPropertyOp4
 70
     1
102
RTVSPropertyOp5
 70
     1
102
RTVSPropertyOp6
 70
     1
102
RTVSPropertyOp7
 70
     1
102
RTVSPropertyOp8
 70
     1
102
RTVSPropertyOp9
 70
     1
102
RTVSPropertyOp10
 70
     1
102
RTVSPropertyOp11
 70
     1
102
RTVSPropertyOp12
 70
     1
102
RTVSPropertyOp13
 70
     1
102
RTVSPropertyOp14
 70
     1
102
RTVSPropertyOp15
 70
     1
102
RTVSPropertyOp16
 70
     1
102
RTVSPropertyOp17
 70
     1
102
RTVSPropertyOp18
 70
     1
102
RTVSPropertyOp19
 70
     1
102
RTVSPropertyOp20
 70
     1
102
RTVSPropertyOp21
 70
     1
102
RTVSPropertyOp22
 70
     1
102
RTVSPropertyOp23
 70
     1
102
RTVSPropertyOp24
 70
     1
102
RTVSPropertyOp25
 70
     1
102
RTVSPropertyOp26
 70
     1
102
RTVSPropertyOp27
 70
     1
102
RTVSPropertyOp28
 70
     1
102
RTVSPropertyOp29
 70
     1
102
RTVSPropertyOp30
 70
     1
102
RTVSPropertyOp31
 70
     1
102
RTVSPropertyOp32
 70
     1
102
RTVSPropertyOp33
 70
     1
102
RTVSPropertyOp34
 70
     1
102
RTVSPropertyOp35
 70
     1
102
RTVSPropertyOp36
 70
     1
102
RTVSPropertyOp37
 70
     1
102
RTVSPropertyOp38
 70
     1
102
RTVSPropertyOp39
 70
     1
102
RTVSPropertyOp40
 70
     1
102
RTVSPropertyOp41
 70
     1
102
RTVSPropertyOp42
 70
     1
102
RTVSPropertyOp43
 70
     1
102
RTVSPropertyOp44
 70
     1
102
RTVSPropertyOp45
 70
     1
102
RTVSPropertyOp46
 70
     1
102
RTVSPropertyOp47
 70
     1
102
RTVSPropertyOp48
 70
     1
102
RTVSPropertyOp49
 70
     1
102
RTVSPropertyOp50
 70
     1
102
RTVSPropertyOp51
 70
     0
102
RTVSPropertyOp52
 70
     0
102
RTVSPropertyOp53
 70
     1
102
RTVSPropertyOp54
 70
     1
102
RTVSPropertyOp55
 70
     1
102
RTVSPropertyOp56
 70
     1
102
RTVSPropertyOp57
 70
     1
102
RTVSPropertyOp58
 70
     1
102
RTVSPropertyOp59
 70
     1
102
RTVSPropertyOp60
 70
     1
102
RTVSPropertyOp61
 70
     1
102
RTVSPropertyOp62
 70
     1
  0
XRECORD
  5
B0CB
102
{ACAD_REACTORS
330
B0CA
102
}
330
B0CA
100
AcDbXrecord
280
     1
102
RTVSPost2010Prop28
280
     0
102
RTVSPost2010PropOp28
 70
     1
102
RTVSPost2010Prop29
280
     1
102
RTVSPost2010PropOp29
 70
     1
102
RTVSPost2010Prop30
280
     1
102
RTVSPost2010PropOp30
 70
     1
102
RTVSPost2010Prop31
280
     0
102
RTVSPost2010PropOp31
 70
     1
102
RTVSPost2010Prop32
280
     0
102
RTVSPost2010PropOp32
 70
     1
102
RTVSPost2010Prop33
280
     0
102
RTVSPost2010PropOp33
 70
     1
102
RTVSPost2010Prop34
280
     0
102
RTVSPost2010PropOp34
 70
     1
102
RTVSPost2010Prop35
280
     0
102
RTVSPost2010PropOp35
 70
     1
102
RTVSPost2010Prop36
280
     0
102
RTVSPost2010PropOp36
 70
     1
102
RTVSPost2010Prop37
 90
       50
102
RTVSPost2010PropOp37
 70
     1
102
RTVSPost2010Prop38
140
0.0
102
RTVSPost2010PropOp38
 70
     1
102
RTVSPost2010Prop39
140
1.0
102
RTVSPost2010PropOp39
 70
     1
102
RTVSPost2010Prop40
 90
        0
102
RTVSPost2010PropOp40
 70
     1
102
RTVSPost2010Prop41ColorIndex
 90
       18
102
RTVSPost2010Prop41ColorRGB
 90
        0
102
RTVSPost2010PropOp41
 70
     1
102
RTVSPost2010Prop42
 90
       50
102
RTVSPost2010PropOp42
 70
     1
102
RTVSPost2010Prop43
 90
        3
102
RTVSPost2010PropOp43
 70
     1
102
RTVSPost2010Prop44ColorIndex
 90
        5
102
RTVSPost2010Prop44ColorRGB
 90
      255
102
RTVSPost2010PropOp44
 70
     1
102
RTVSPost2010Prop45
280
     0
102
RTVSPost2010PropOp45
 70
     1
102
RTVSPost2010Prop46
 90
       50
102
RTVSPost2010PropOp46
 70
     1
102
RTVSPost2010Prop47
 90
       50
102
RTVSPost2010PropOp47
 70
     1
102
RTVSPost2010Prop48
 90
       50
102
RTVSPost2010PropOp48
 70
     1
102
RTVSPost2010Prop49
280
     0
102
RTVSPost2010PropOp49
 70
     1
102
RTVSPost2010Prop50
 90
       50
102
RTVSPost2010PropOp50
 70
     1
102
RTVSPost2010Prop51ColorIndex
 90
      256
102
RTVSPost2010Prop51ColorRGB
 90
-16777216
102
RTVSPost2010PropOp51
 70
     0
102
RTVSPost2010Prop52
140
1.0
102
RTVSPost2010PropOp52
 70
     0
102
RTVSPost2010Prop53
 90
        2
102
RTVSPost2010PropOp53
 70
     1
102
RTVSPost2010Prop54
  1
strokes_ogs.tif
102
RTVSPost2010PropOp54
 70
     1
102
RTVSPost2010Prop55
280
     0
102
RTVSPost2010PropOp55
 70
     1
102
RTVSPost2010Prop56
140
1.0
102
RTVSPost2010PropOp56
 70
     1
102
RTVSPost2010Prop57
140
1.0
102
RTVSPost2010PropOp57
 70
     1
102
RTVSPropertyOp0
 70
     1
102
RTVSPropertyOp1
 70
     1
102
RTVSPropertyOp2
 70
     1
102
RTVSPropertyOp3
 70
     1
102
RTVSPropertyOp4
 70
     1
102
RTVSPropertyOp5
 70
     1
102
RTVSPropertyOp6
 70
     1
102
RTVSPropertyOp7
 70
     1
102
RTVSPropertyOp8
 70
     1
102
RTVSPropertyOp9
 70
     1
102
RTVSPropertyOp10
 70
     1
102
RTVSPropertyOp11
 70
     1
102
RTVSPropertyOp12
 70
     1
102
RTVSPropertyOp13
 70
     1
102
RTVSPropertyOp14
 70
     1
102
RTVSPropertyOp15
 70
     1
102
RTVSPropertyOp16
 70
     1
102
RTVSPropertyOp17
 70
     1
102
RTVSPropertyOp18
 70
     1
102
RTVSPropertyOp19
 70
     1
102
RTVSPropertyOp20
 70
     1
102
RTVSPropertyOp21
 70
     1
102
RTVSPropertyOp22
 70
     1
102
RTVSPropertyOp23
 70
     1
102
RTVSPropertyOp24
 70
     1
102
RTVSPropertyOp25
 70
     1
102
RTVSPropertyOp26
 70
     1
102
RTVSPropertyOp27
 70
     1
102
RTVSPropertyOp28
 70
     1
102
RTVSPropertyOp29
 70
     1
102
RTVSPropertyOp30
 70
     1
102
RTVSPropertyOp31
 70
     1
102
RTVSPropertyOp32
 70
     1
102
RTVSPropertyOp33
 70
     1
102
RTVSPropertyOp34
 70
     1
102
RTVSPropertyOp35
 70
     1
102
RTVSPropertyOp36
 70
     1
102
RTVSPropertyOp37
 70
     1
102
RTVSPropertyOp38
 70
     1
102
RTVSPropertyOp39
 70
     1
102
RTVSPropertyOp40
 70
     1
102
RTVSPropertyOp41
 70
     1
102
RTVSPropertyOp42
 70
     1
102
RTVSPropertyOp43
 70
     1
102
RTVSPropertyOp44
 70
     1
102
RTVSPropertyOp45
 70
     1
102
RTVSPropertyOp46
 70
     1
102
RTVSPropertyOp47
 70
     1
102
RTVSPropertyOp48
 70
     1
102
RTVSPropertyOp49
 70
     1
102
RTVSPropertyOp50
 70
     1
102
RTVSPropertyOp51
 70
     0
102
RTVSPropertyOp52
 70
     0
102
RTVSPropertyOp53
 70
     1
102
RTVSPropertyOp54
 70
     1
102
RTVSPropertyOp55
 70
     1
102
RTVSPropertyOp56
 70
     1
102
RTVSPropertyOp57
 70
     1
102
RTVSPropertyOp58
 70
     1
102
RTVSPropertyOp59
 70
     1
102
RTVSPropertyOp60
 70
     1
102
RTVSPropertyOp61
 70
     1
102
RTVSPropertyOp62
 70
     1
  0
XRECORD
  5
B0CD
102
{ACAD_REACTORS
330
B0CC
102
}
330
B0CC
100
AcDbXrecord
280
     1
102
RTVSPost2010Prop28
280
     0
102
RTVSPost2010PropOp28
 70
     1
102
RTVSPost2010Prop29
280
     1
102
RTVSPost2010PropOp29
 70
     1
102
RTVSPost2010Prop30
280
     1
102
RTVSPost2010PropOp30
 70
     1
102
RTVSPost2010Prop31
280
     0
102
RTVSPost2010PropOp31
 70
     1
102
RTVSPost2010Prop32
280
     0
102
RTVSPost2010PropOp32
 70
     1
102
RTVSPost2010Prop33
280
     0
102
RTVSPost2010PropOp33
 70
     1
102
RTVSPost2010Prop34
280
     0
102
RTVSPost2010PropOp34
 70
     1
102
RTVSPost2010Prop35
280
     0
102
RTVSPost2010PropOp35
 70
     1
102
RTVSPost2010Prop36
280
     0
102
RTVSPost2010PropOp36
 70
     1
102
RTVSPost2010Prop37
 90
       50
102
RTVSPost2010PropOp37
 70
     1
102
RTVSPost2010Prop38
140
0.0
102
RTVSPost2010PropOp38
 70
     1
102
RTVSPost2010Prop39
140
1.0
102
RTVSPost2010PropOp39
 70
     1
102
RTVSPost2010Prop40
 90
        0
102
RTVSPost2010PropOp40
 70
     1
102
RTVSPost2010Prop41ColorIndex
 90
       18
102
RTVSPost2010Prop41ColorRGB
 90
        0
102
RTVSPost2010PropOp41
 70
     1
102
RTVSPost2010Prop42
 90
       50
102
RTVSPost2010PropOp42
 70
     1
102
RTVSPost2010Prop43
 90
        3
102
RTVSPost2010PropOp43
 70
     1
102
RTVSPost2010Prop44ColorIndex
 90
        5
102
RTVSPost2010Prop44ColorRGB
 90
      255
102
RTVSPost2010PropOp44
 70
     1
102
RTVSPost2010Prop45
280
     0
102
RTVSPost2010PropOp45
 70
     1
102
RTVSPost2010Prop46
 90
       50
102
RTVSPost2010PropOp46
 70
     1
102
RTVSPost2010Prop47
 90
       50
102
RTVSPost2010PropOp47
 70
     1
102
RTVSPost2010Prop48
 90
       50
102
RTVSPost2010PropOp48
 70
     1
102
RTVSPost2010Prop49
280
     0
102
RTVSPost2010PropOp49
 70
     1
102
RTVSPost2010Prop50
 90
       50
102
RTVSPost2010PropOp50
 70
     1
102
RTVSPost2010Prop51ColorIndex
 90
      256
102
RTVSPost2010Prop51ColorRGB
 90
-16777216
102
RTVSPost2010PropOp51
 70
     0
102
RTVSPost2010Prop52
140
1.0
102
RTVSPost2010PropOp52
 70
     0
102
RTVSPost2010Prop53
 90
        2
102
RTVSPost2010PropOp53
 70
     1
102
RTVSPost2010Prop54
  1
strokes_ogs.tif
102
RTVSPost2010PropOp54
 70
     1
102
RTVSPost2010Prop55
280
     0
102
RTVSPost2010PropOp55
 70
     1
102
RTVSPost2010Prop56
140
1.0
102
RTVSPost2010PropOp56
 70
     1
102
RTVSPost2010Prop57
140
1.0
102
RTVSPost2010PropOp57
 70
     1
102
RTVSPropertyOp0
 70
     1
102
RTVSPropertyOp1
 70
     1
102
RTVSPropertyOp2
 70
     1
102
RTVSPropertyOp3
 70
     1
102
RTVSPropertyOp4
 70
     1
102
RTVSPropertyOp5
 70
     1
102
RTVSPropertyOp6
 70
     1
102
RTVSPropertyOp7
 70
     1
102
RTVSPropertyOp8
 70
     1
102
RTVSPropertyOp9
 70
     1
102
RTVSPropertyOp10
 70
     1
102
RTVSPropertyOp11
 70
     1
102
RTVSPropertyOp12
 70
     1
102
RTVSPropertyOp13
 70
     1
102
RTVSPropertyOp14
 70
     1
102
RTVSPropertyOp15
 70
     1
102
RTVSPropertyOp16
 70
     1
102
RTVSPropertyOp17
 70
     1
102
RTVSPropertyOp18
 70
     1
102
RTVSPropertyOp19
 70
     1
102
RTVSPropertyOp20
 70
     1
102
RTVSPropertyOp21
 70
     1
102
RTVSPropertyOp22
 70
     1
102
RTVSPropertyOp23
 70
     1
102
RTVSPropertyOp24
 70
     1
102
RTVSPropertyOp25
 70
     1
102
RTVSPropertyOp26
 70
     1
102
RTVSPropertyOp27
 70
     1
102
RTVSPropertyOp28
 70
     1
102
RTVSPropertyOp29
 70
     1
102
RTVSPropertyOp30
 70
     1
102
RTVSPropertyOp31
 70
     1
102
RTVSPropertyOp32
 70
     1
102
RTVSPropertyOp33
 70
     1
102
RTVSPropertyOp34
 70
     1
102
RTVSPropertyOp35
 70
     1
102
RTVSPropertyOp36
 70
     1
102
RTVSPropertyOp37
 70
     1
102
RTVSPropertyOp38
 70
     1
102
RTVSPropertyOp39
 70
     1
102
RTVSPropertyOp40
 70
     1
102
RTVSPropertyOp41
 70
     1
102
RTVSPropertyOp42
 70
     1
102
RTVSPropertyOp43
 70
     1
102
RTVSPropertyOp44
 70
     1
102
RTVSPropertyOp45
 70
     1
102
RTVSPropertyOp46
 70
     1
102
RTVSPropertyOp47
 70
     1
102
RTVSPropertyOp48
 70
     1
102
RTVSPropertyOp49
 70
     1
102
RTVSPropertyOp50
 70
     1
102
RTVSPropertyOp51
 70
     0
102
RTVSPropertyOp52
 70
     0
102
RTVSPropertyOp53
 70
     1
102
RTVSPropertyOp54
 70
     1
102
RTVSPropertyOp55
 70
     1
102
RTVSPropertyOp56
 70
     1
102
RTVSPropertyOp57
 70
     1
102
RTVSPropertyOp58
 70
     1
102
RTVSPropertyOp59
 70
     1
102
RTVSPropertyOp60
 70
     1
102
RTVSPropertyOp61
 70
     1
102
RTVSPropertyOp62
 70
     1
  0
XRECORD
  5
B0C3
102
{ACAD_REACTORS
330
B0C2
102
}
330
B0C2
100
AcDbXrecord
280
     1
102
RTVSPost2010Prop28
280
     0
102
RTVSPost2010PropOp28
 70
     1
102
RTVSPost2010Prop29
280
     1
102
RTVSPost2010PropOp29
 70
     1
102
RTVSPost2010Prop30
280
     1
102
RTVSPost2010PropOp30
 70
     1
102
RTVSPost2010Prop31
280
     0
102
RTVSPost2010PropOp31
 70
     1
102
RTVSPost2010Prop32
280
     0
102
RTVSPost2010PropOp32
 70
     1
102
RTVSPost2010Prop33
280
     0
102
RTVSPost2010PropOp33
 70
     1
102
RTVSPost2010Prop34
280
     0
102
RTVSPost2010PropOp34
 70
     1
102
RTVSPost2010Prop35
280
     0
102
RTVSPost2010PropOp35
 70
     1
102
RTVSPost2010Prop36
280
     0
102
RTVSPost2010PropOp36
 70
     1
102
RTVSPost2010Prop37
 90
       50
102
RTVSPost2010PropOp37
 70
     1
102
RTVSPost2010Prop38
140
0.0
102
RTVSPost2010PropOp38
 70
     1
102
RTVSPost2010Prop39
140
1.0
102
RTVSPost2010PropOp39
 70
     1
102
RTVSPost2010Prop40
 90
        0
102
RTVSPost2010PropOp40
 70
     1
102
RTVSPost2010Prop41ColorIndex
 90
       18
102
RTVSPost2010Prop41ColorRGB
 90
        0
102
RTVSPost2010PropOp41
 70
     1
102
RTVSPost2010Prop42
 90
       50
102
RTVSPost2010PropOp42
 70
     1
102
RTVSPost2010Prop43
 90
        3
102
RTVSPost2010PropOp43
 70
     1
102
RTVSPost2010Prop44ColorIndex
 90
        5
102
RTVSPost2010Prop44ColorRGB
 90
      255
102
RTVSPost2010PropOp44
 70
     1
102
RTVSPost2010Prop45
280
     0
102
RTVSPost2010PropOp45
 70
     1
102
RTVSPost2010Prop46
 90
       50
102
RTVSPost2010PropOp46
 70
     1
102
RTVSPost2010Prop47
 90
       50
102
RTVSPost2010PropOp47
 70
     1
102
RTVSPost2010Prop48
 90
       50
102
RTVSPost2010PropOp48
 70
     1
102
RTVSPost2010Prop49
280
     0
102
RTVSPost2010PropOp49
 70
     1
102
RTVSPost2010Prop50
 90
       50
102
RTVSPost2010PropOp50
 70
     1
102
RTVSPost2010Prop51ColorIndex
 90
      256
102
RTVSPost2010Prop51ColorRGB
 90
-16777216
102
RTVSPost2010PropOp51
 70
     0
102
RTVSPost2010Prop52
140
1.0
102
RTVSPost2010PropOp52
 70
     0
102
RTVSPost2010Prop53
 90
        2
102
RTVSPost2010PropOp53
 70
     1
102
RTVSPost2010Prop54
  1
strokes_ogs.tif
102
RTVSPost2010PropOp54
 70
     1
102
RTVSPost2010Prop55
280
     0
102
RTVSPost2010PropOp55
 70
     1
102
RTVSPost2010Prop56
140
1.0
102
RTVSPost2010PropOp56
 70
     1
102
RTVSPost2010Prop57
140
1.0
102
RTVSPost2010PropOp57
 70
     1
102
RTVSPropertyOp0
 70
     1
102
RTVSPropertyOp1
 70
     1
102
RTVSPropertyOp2
 70
     1
102
RTVSPropertyOp3
 70
     1
102
RTVSPropertyOp4
 70
     1
102
RTVSPropertyOp5
 70
     1
102
RTVSPropertyOp6
 70
     1
102
RTVSPropertyOp7
 70
     1
102
RTVSPropertyOp8
 70
     1
102
RTVSPropertyOp9
 70
     1
102
RTVSPropertyOp10
 70
     1
102
RTVSPropertyOp11
 70
     1
102
RTVSPropertyOp12
 70
     1
102
RTVSPropertyOp13
 70
     1
102
RTVSPropertyOp14
 70
     1
102
RTVSPropertyOp15
 70
     1
102
RTVSPropertyOp16
 70
     1
102
RTVSPropertyOp17
 70
     1
102
RTVSPropertyOp18
 70
     1
102
RTVSPropertyOp19
 70
     1
102
RTVSPropertyOp20
 70
     1
102
RTVSPropertyOp21
 70
     1
102
RTVSPropertyOp22
 70
     1
102
RTVSPropertyOp23
 70
     1
102
RTVSPropertyOp24
 70
     1
102
RTVSPropertyOp25
 70
     1
102
RTVSPropertyOp26
 70
     1
102
RTVSPropertyOp27
 70
     1
102
RTVSPropertyOp28
 70
     1
102
RTVSPropertyOp29
 70
     1
102
RTVSPropertyOp30
 70
     1
102
RTVSPropertyOp31
 70
     1
102
RTVSPropertyOp32
 70
     1
102
RTVSPropertyOp33
 70
     1
102
RTVSPropertyOp34
 70
     1
102
RTVSPropertyOp35
 70
     1
102
RTVSPropertyOp36
 70
     1
102
RTVSPropertyOp37
 70
     1
102
RTVSPropertyOp38
 70
     1
102
RTVSPropertyOp39
 70
     1
102
RTVSPropertyOp40
 70
     1
102
RTVSPropertyOp41
 70
     1
102
RTVSPropertyOp42
 70
     1
102
RTVSPropertyOp43
 70
     1
102
RTVSPropertyOp44
 70
     1
102
RTVSPropertyOp45
 70
     1
102
RTVSPropertyOp46
 70
     1
102
RTVSPropertyOp47
 70
     1
102
RTVSPropertyOp48
 70
     1
102
RTVSPropertyOp49
 70
     1
102
RTVSPropertyOp50
 70
     1
102
RTVSPropertyOp51
 70
     0
102
RTVSPropertyOp52
 70
     0
102
RTVSPropertyOp53
 70
     1
102
RTVSPropertyOp54
 70
     1
102
RTVSPropertyOp55
 70
     1
102
RTVSPropertyOp56
 70
     1
102
RTVSPropertyOp57
 70
     1
102
RTVSPropertyOp58
 70
     1
102
RTVSPropertyOp59
 70
     1
102
RTVSPropertyOp60
 70
     1
102
RTVSPropertyOp61
 70
     1
102
RTVSPropertyOp62
 70
     1
  0
XRECORD
  5
B0B7
102
{ACAD_REACTORS
330
B0B6
102
}
330
B0B6
100
AcDbXrecord
280
     1
102
RTVSPost2010Prop28
280
     0
102
RTVSPost2010PropOp28
 70
     1
102
RTVSPost2010Prop29
280
     1
102
RTVSPost2010PropOp29
 70
     1
102
RTVSPost2010Prop30
280
     1
102
RTVSPost2010PropOp30
 70
     1
102
RTVSPost2010Prop31
280
     0
102
RTVSPost2010PropOp31
 70
     1
102
RTVSPost2010Prop32
280
     0
102
RTVSPost2010PropOp32
 70
     1
102
RTVSPost2010Prop33
280
     0
102
RTVSPost2010PropOp33
 70
     1
102
RTVSPost2010Prop34
280
     0
102
RTVSPost2010PropOp34
 70
     1
102
RTVSPost2010Prop35
280
     0
102
RTVSPost2010PropOp35
 70
     1
102
RTVSPost2010Prop36
280
     0
102
RTVSPost2010PropOp36
 70
     1
102
RTVSPost2010Prop37
 90
       50
102
RTVSPost2010PropOp37
 70
     1
102
RTVSPost2010Prop38
140
0.0
102
RTVSPost2010PropOp38
 70
     1
102
RTVSPost2010Prop39
140
1.0
102
RTVSPost2010PropOp39
 70
     1
102
RTVSPost2010Prop40
 90
        0
102
RTVSPost2010PropOp40
 70
     1
102
RTVSPost2010Prop41ColorIndex
 90
       18
102
RTVSPost2010Prop41ColorRGB
 90
        0
102
RTVSPost2010PropOp41
 70
     1
102
RTVSPost2010Prop42
 90
       50
102
RTVSPost2010PropOp42
 70
     1
102
RTVSPost2010Prop43
 90
        3
102
RTVSPost2010PropOp43
 70
     1
102
RTVSPost2010Prop44ColorIndex
 90
        5
102
RTVSPost2010Prop44ColorRGB
 90
      255
102
RTVSPost2010PropOp44
 70
     1
102
RTVSPost2010Prop45
280
     0
102
RTVSPost2010PropOp45
 70
     1
102
RTVSPost2010Prop46
 90
       50
102
RTVSPost2010PropOp46
 70
     1
102
RTVSPost2010Prop47
 90
       50
102
RTVSPost2010PropOp47
 70
     1
102
RTVSPost2010Prop48
 90
       50
102
RTVSPost2010PropOp48
 70
     1
102
RTVSPost2010Prop49
280
     0
102
RTVSPost2010PropOp49
 70
     1
102
RTVSPost2010Prop50
 90
       50
102
RTVSPost2010PropOp50
 70
     1
102
RTVSPost2010Prop51ColorIndex
 90
      256
102
RTVSPost2010Prop51ColorRGB
 90
-16777216
102
RTVSPost2010PropOp51
 70
     0
102
RTVSPost2010Prop52
140
1.0
102
RTVSPost2010PropOp52
 70
     0
102
RTVSPost2010Prop53
 90
        2
102
RTVSPost2010PropOp53
 70
     1
102
RTVSPost2010Prop54
  1
strokes_ogs.tif
102
RTVSPost2010PropOp54
 70
     1
102
RTVSPost2010Prop55
280
     0
102
RTVSPost2010PropOp55
 70
     1
102
RTVSPost2010Prop56
140
1.0
102
RTVSPost2010PropOp56
 70
     1
102
RTVSPost2010Prop57
140
1.0
102
RTVSPost2010PropOp57
 70
     1
102
RTVSPropertyOp0
 70
     1
102
RTVSPropertyOp1
 70
     1
102
RTVSPropertyOp2
 70
     1
102
RTVSPropertyOp3
 70
     1
102
RTVSPropertyOp4
 70
     1
102
RTVSPropertyOp5
 70
     1
102
RTVSPropertyOp6
 70
     1
102
RTVSPropertyOp7
 70
     1
102
RTVSPropertyOp8
 70
     1
102
RTVSPropertyOp9
 70
     1
102
RTVSPropertyOp10
 70
     1
102
RTVSPropertyOp11
 70
     1
102
RTVSPropertyOp12
 70
     1
102
RTVSPropertyOp13
 70
     1
102
RTVSPropertyOp14
 70
     1
102
RTVSPropertyOp15
 70
     1
102
RTVSPropertyOp16
 70
     1
102
RTVSPropertyOp17
 70
     1
102
RTVSPropertyOp18
 70
     1
102
RTVSPropertyOp19
 70
     1
102
RTVSPropertyOp20
 70
     1
102
RTVSPropertyOp21
 70
     1
102
RTVSPropertyOp22
 70
     1
102
RTVSPropertyOp23
 70
     1
102
RTVSPropertyOp24
 70
     1
102
RTVSPropertyOp25
 70
     1
102
RTVSPropertyOp26
 70
     1
102
RTVSPropertyOp27
 70
     1
102
RTVSPropertyOp28
 70
     1
102
RTVSPropertyOp29
 70
     1
102
RTVSPropertyOp30
 70
     1
102
RTVSPropertyOp31
 70
     1
102
RTVSPropertyOp32
 70
     1
102
RTVSPropertyOp33
 70
     1
102
RTVSPropertyOp34
 70
     1
102
RTVSPropertyOp35
 70
     1
102
RTVSPropertyOp36
 70
     1
102
RTVSPropertyOp37
 70
     1
102
RTVSPropertyOp38
 70
     1
102
RTVSPropertyOp39
 70
     1
102
RTVSPropertyOp40
 70
     1
102
RTVSPropertyOp41
 70
     1
102
RTVSPropertyOp42
 70
     1
102
RTVSPropertyOp43
 70
     1
102
RTVSPropertyOp44
 70
     1
102
RTVSPropertyOp45
 70
     1
102
RTVSPropertyOp46
 70
     1
102
RTVSPropertyOp47
 70
     1
102
RTVSPropertyOp48
 70
     1
102
RTVSPropertyOp49
 70
     1
102
RTVSPropertyOp50
 70
     1
102
RTVSPropertyOp51
 70
     0
102
RTVSPropertyOp52
 70
     0
102
RTVSPropertyOp53
 70
     1
102
RTVSPropertyOp54
 70
     1
102
RTVSPropertyOp55
 70
     1
102
RTVSPropertyOp56
 70
     1
102
RTVSPropertyOp57
 70
     1
102
RTVSPropertyOp58
 70
     1
102
RTVSPropertyOp59
 70
     1
102
RTVSPropertyOp60
 70
     1
102
RTVSPropertyOp61
 70
     1
102
RTVSPropertyOp62
 70
     1
  0
XRECORD
  5
B0CF
102
{ACAD_REACTORS
330
B0CE
102
}
330
B0CE
100
AcDbXrecord
280
     1
102
RTVSPost2010Prop28
280
     0
102
RTVSPost2010PropOp28
 70
     1
102
RTVSPost2010Prop29
280
     1
102
RTVSPost2010PropOp29
 70
     1
102
RTVSPost2010Prop30
280
     1
102
RTVSPost2010PropOp30
 70
     1
102
RTVSPost2010Prop31
280
     0
102
RTVSPost2010PropOp31
 70
     1
102
RTVSPost2010Prop32
280
     0
102
RTVSPost2010PropOp32
 70
     1
102
RTVSPost2010Prop33
280
     0
102
RTVSPost2010PropOp33
 70
     1
102
RTVSPost2010Prop34
280
     0
102
RTVSPost2010PropOp34
 70
     1
102
RTVSPost2010Prop35
280
     0
102
RTVSPost2010PropOp35
 70
     1
102
RTVSPost2010Prop36
280
     0
102
RTVSPost2010PropOp36
 70
     1
102
RTVSPost2010Prop37
 90
       50
102
RTVSPost2010PropOp37
 70
     1
102
RTVSPost2010Prop38
140
0.0
102
RTVSPost2010PropOp38
 70
     1
102
RTVSPost2010Prop39
140
1.0
102
RTVSPost2010PropOp39
 70
     1
102
RTVSPost2010Prop40
 90
        0
102
RTVSPost2010PropOp40
 70
     1
102
RTVSPost2010Prop41ColorIndex
 90
       18
102
RTVSPost2010Prop41ColorRGB
 90
        0
102
RTVSPost2010PropOp41
 70
     1
102
RTVSPost2010Prop42
 90
       50
102
RTVSPost2010PropOp42
 70
     1
102
RTVSPost2010Prop43
 90
        3
102
RTVSPost2010PropOp43
 70
     1
102
RTVSPost2010Prop44ColorIndex
 90
        5
102
RTVSPost2010Prop44ColorRGB
 90
      255
102
RTVSPost2010PropOp44
 70
     1
102
RTVSPost2010Prop45
280
     0
102
RTVSPost2010PropOp45
 70
     1
102
RTVSPost2010Prop46
 90
       50
102
RTVSPost2010PropOp46
 70
     1
102
RTVSPost2010Prop47
 90
       50
102
RTVSPost2010PropOp47
 70
     1
102
RTVSPost2010Prop48
 90
       50
102
RTVSPost2010PropOp48
 70
     1
102
RTVSPost2010Prop49
280
     0
102
RTVSPost2010PropOp49
 70
     1
102
RTVSPost2010Prop50
 90
       50
102
RTVSPost2010PropOp50
 70
     1
102
RTVSPost2010Prop51ColorIndex
 90
      256
102
RTVSPost2010Prop51ColorRGB
 90
-16777216
102
RTVSPost2010PropOp51
 70
     0
102
RTVSPost2010Prop52
140
1.0
102
RTVSPost2010PropOp52
 70
     0
102
RTVSPost2010Prop53
 90
        2
102
RTVSPost2010PropOp53
 70
     1
102
RTVSPost2010Prop54
  1
strokes_ogs.tif
102
RTVSPost2010PropOp54
 70
     1
102
RTVSPost2010Prop55
280
     0
102
RTVSPost2010PropOp55
 70
     1
102
RTVSPost2010Prop56
140
1.0
102
RTVSPost2010PropOp56
 70
     1
102
RTVSPost2010Prop57
140
1.0
102
RTVSPost2010PropOp57
 70
     1
102
RTVSPropertyOp0
 70
     1
102
RTVSPropertyOp1
 70
     1
102
RTVSPropertyOp2
 70
     1
102
RTVSPropertyOp3
 70
     1
102
RTVSPropertyOp4
 70
     1
102
RTVSPropertyOp5
 70
     1
102
RTVSPropertyOp6
 70
     1
102
RTVSPropertyOp7
 70
     1
102
RTVSPropertyOp8
 70
     1
102
RTVSPropertyOp9
 70
     1
102
RTVSPropertyOp10
 70
     1
102
RTVSPropertyOp11
 70
     1
102
RTVSPropertyOp12
 70
     1
102
RTVSPropertyOp13
 70
     1
102
RTVSPropertyOp14
 70
     1
102
RTVSPropertyOp15
 70
     1
102
RTVSPropertyOp16
 70
     1
102
RTVSPropertyOp17
 70
     1
102
RTVSPropertyOp18
 70
     1
102
RTVSPropertyOp19
 70
     1
102
RTVSPropertyOp20
 70
     1
102
RTVSPropertyOp21
 70
     1
102
RTVSPropertyOp22
 70
     1
102
RTVSPropertyOp23
 70
     1
102
RTVSPropertyOp24
 70
     1
102
RTVSPropertyOp25
 70
     1
102
RTVSPropertyOp26
 70
     1
102
RTVSPropertyOp27
 70
     1
102
RTVSPropertyOp28
 70
     1
102
RTVSPropertyOp29
 70
     1
102
RTVSPropertyOp30
 70
     1
102
RTVSPropertyOp31
 70
     1
102
RTVSPropertyOp32
 70
     1
102
RTVSPropertyOp33
 70
     1
102
RTVSPropertyOp34
 70
     1
102
RTVSPropertyOp35
 70
     1
102
RTVSPropertyOp36
 70
     1
102
RTVSPropertyOp37
 70
     1
102
RTVSPropertyOp38
 70
     1
102
RTVSPropertyOp39
 70
     1
102
RTVSPropertyOp40
 70
     1
102
RTVSPropertyOp41
 70
     1
102
RTVSPropertyOp42
 70
     1
102
RTVSPropertyOp43
 70
     1
102
RTVSPropertyOp44
 70
     1
102
RTVSPropertyOp45
 70
     1
102
RTVSPropertyOp46
 70
     1
102
RTVSPropertyOp47
 70
     1
102
RTVSPropertyOp48
 70
     1
102
RTVSPropertyOp49
 70
     1
102
RTVSPropertyOp50
 70
     1
102
RTVSPropertyOp51
 70
     0
102
RTVSPropertyOp52
 70
     0
102
RTVSPropertyOp53
 70
     1
102
RTVSPropertyOp54
 70
     1
102
RTVSPropertyOp55
 70
     1
102
RTVSPropertyOp56
 70
     1
102
RTVSPropertyOp57
 70
     1
102
RTVSPropertyOp58
 70
     1
102
RTVSPropertyOp59
 70
     1
102
RTVSPropertyOp60
 70
     1
102
RTVSPropertyOp61
 70
     1
102
RTVSPropertyOp62
 70
     1
  0
ENDSEC
  0
EOF
