  0
SECTION
  2
HEADER
  9
$ACADVER
  1
AC1015
  9
$ACADMAINTVER
 70
    20
  9
$DWGCODEPAGE
  3
ANSI_932
  9
$INSBASE
 10
0.0
 20
0.0
 30
0.0
  9
$EXTMIN
 10
10.00000153760811
 20
9.999999806846744
 30
0.0
  9
$EXTMAX
 10
373.0877746859249
 20
238.6313155670706
 30
0.0
  9
$LIMMIN
 10
0.0000015376081137
 20
-0.0000001931532552
  9
$LIMMAX
 10
396.0000015376081
 20
272.9999998068465
  9
$ORTHOMODE
 70
     0
  9
$REGENMODE
 70
     1
  9
$FILLMODE
 70
     1
  9
$QTEXTMODE
 70
     0
  9
$MIRRTEXT
 70
     1
  9
$LTSCALE
 40
1.0
  9
$ATTMODE
 70
     1
  9
$TEXTSIZE
 40
2.5
  9
$TRACEWID
 40
1.0
  9
$TEXTSTYLE
  7
STANDARD
  9
$CLAYER
  8
0
  9
$CELTYPE
  6
ByLayer
  9
$CECOLOR
 62
   256
  9
$CELTSCALE
 40
1.0
  9
$DISPSILH
 70
     0
  9
$DIMSCALE
 40
1.0
  9
$DIMASZ
 40
3.0
  9
$DIMEXO
 40
1.0
  9
$DIMDLI
 40
10.0
  9
$DIMRND
 40
0.0
  9
$DIMDLE
 40
0.0
  9
$DIMEXE
 40
1.0
  9
$DIMTP
 40
0.0
  9
$DIMTM
 40
0.0
  9
$DIMTXT
 40
3.2
  9
$DIMCEN
 40
0.0
  9
$DIMTSZ
 40
0.0
  9
$DIMTOL
 70
     0
  9
$DIMLIM
 70
     0
  9
$DIMTIH
 70
     0
  9
$DIMTOH
 70
     0
  9
$DIMSE1
 70
     0
  9
$DIMSE2
 70
     0
  9
$DIMTAD
 70
     3
  9
$DIMZIN
 70
     8
  9
$DIMBLK
  1

  9
$DIMASO
 70
     1
  9
$DIMSHO
 70
     1
  9
$DIMPOST
  1

  9
$DIMAPOST
  1

  9
$DIMALT
 70
     0
  9
$DIMALTD
 70
     2
  9
$DIMALTF
 40
25.4
  9
$DIMLFAC
 40
1.0
  9
$DIMTOFL
 70
     1
  9
$DIMTVP
 40
0.0
  9
$DIMTIX
 70
     0
  9
$DIMSOXD
 70
     0
  9
$DIMSAH
 70
     1
  9
$DIMBLK1
  1
OPEN
  9
$DIMBLK2
  1
OPEN
  9
$DIMSTYLE
  2
STANDARD
  9
$DIMCLRD
 70
     0
  9
$DIMCLRE
 70
     0
  9
$DIMCLRT
 70
     0
  9
$DIMTFAC
 40
1.0
  9
$DIMGAP
 40
1.0
  9
$DIMJUST
 70
     0
  9
$DIMSD1
 70
     0
  9
$DIMSD2
 70
     0
  9
$DIMTOLJ
 70
     1
  9
$DIMTZIN
 70
     0
  9
$DIMALTZ
 70
     0
  9
$DIMALTTZ
 70
     0
  9
$DIMUPT
 70
     0
  9
$DIMDEC
 70
     4
  9
$DIMTDEC
 70
     4
  9
$DIMALTU
 70
     2
  9
$DIMALTTD
 70
     2
  9
$DIMTXSTY
  7
STANDARD
  9
$DIMAUNIT
 70
     0
  9
$DIMADEC
 70
     0
  9
$DIMALTRND
 40
0.0
  9
$DIMAZIN
 70
     0
  9
$DIMDSEP
 70
    46
  9
$DIMATFIT
 70
     3
  9
$DIMFRAC
 70
     0
  9
$DIMLDRBLK
  1
OPEN
  9
$DIMLUNIT
 70
     2
  9
$DIMLWD
 70
    -2
  9
$DIMLWE
 70
    -2
  9
$DIMTMOVE
 70
     0
  9
$LUNITS
 70
     2
  9
$LUPREC
 70
     4
  9
$SKETCHINC
 40
1.0
  9
$FILLETRAD
 40
0.0
  9
$AUNITS
 70
     0
  9
$AUPREC
 70
     0
  9
$MENU
  1
.
  9
$ELEVATION
 40
0.0
  9
$PELEVATION
 40
0.0
  9
$THICKNESS
 40
0.0
  9
$LIMCHECK
 70
     0
  9
$CHAMFERA
 40
10.0
  9
$CHAMFERB
 40
10.0
  9
$CHAMFERC
 40
0.0
  9
$CHAMFERD
 40
0.0
  9
$SKPOLY
 70
     0
  9
$TDCREATE
 40
2456276.593431018
  9
$TDUCREATE
 40
2456276.218431018
  9
$TDUPDATE
 40
2457192.598639641
  9
$TDUUPDATE
 40
2457192.223639641
  9
$TDINDWG
 40
0.2969512616
  9
$TDUSRTIMER
 40
0.2969512384
  9
$USRTIMER
 70
     1
  9
$ANGBASE
 50
0.0
  9
$ANGDIR
 70
     0
  9
$PDMODE
 70
     0
  9
$PDSIZE
 40
0.0
  9
$PLINEWID
 40
0.0
  9
$SPLFRAME
 70
     0
  9
$SPLINETYPE
 70
     6
  9
$SPLINESEGS
 70
     8
  9
$HANDSEED
  5
1CFF
  9
$SURFTAB1
 70
     6
  9
$SURFTAB2
 70
     6
  9
$SURFTYPE
 70
     6
  9
$SURFU
 70
     6
  9
$SURFV
 70
     6
  9
$UCSBASE
  2

  9
$UCSNAME
  2

  9
$UCSORG
 10
0.0
 20
0.0
 30
0.0
  9
$UCSXDIR
 10
1.0
 20
0.0
 30
0.0
  9
$UCSYDIR
 10
0.0
 20
1.0
 30
0.0
  9
$UCSORTHOREF
  2

  9
$UCSORTHOVIEW
 70
     0
  9
$UCSORGTOP
 10
0.0
 20
0.0
 30
0.0
  9
$UCSORGBOTTOM
 10
0.0
 20
0.0
 30
0.0
  9
$UCSORGLEFT
 10
0.0
 20
0.0
 30
0.0
  9
$UCSORGRIGHT
 10
0.0
 20
0.0
 30
0.0
  9
$UCSORGFRONT
 10
0.0
 20
0.0
 30
0.0
  9
$UCSORGBACK
 10
0.0
 20
0.0
 30
0.0
  9
$PUCSBASE
  2

  9
$PUCSNAME
  2

  9
$PUCSORG
 10
0.0
 20
0.0
 30
0.0
  9
$PUCSXDIR
 10
1.0
 20
0.0
 30
0.0
  9
$PUCSYDIR
 10
0.0
 20
1.0
 30
0.0
  9
$PUCSORTHOREF
  2

  9
$PUCSORTHOVIEW
 70
     0
  9
$PUCSORGTOP
 10
0.0
 20
0.0
 30
0.0
  9
$PUCSORGBOTTOM
 10
0.0
 20
0.0
 30
0.0
  9
$PUCSORGLEFT
 10
0.0
 20
0.0
 30
0.0
  9
$PUCSORGRIGHT
 10
0.0
 20
0.0
 30
0.0
  9
$PUCSORGFRONT
 10
0.0
 20
0.0
 30
0.0
  9
$PUCSORGBACK
 10
0.0
 20
0.0
 30
0.0
  9
$USERI1
 70
     0
  9
$USERI2
 70
     0
  9
$USERI3
 70
     0
  9
$USERI4
 70
     0
  9
$USERI5
 70
     0
  9
$USERR1
 40
0.0
  9
$USERR2
 40
0.0
  9
$USERR3
 40
0.0
  9
$USERR4
 40
0.0
  9
$USERR5
 40
0.0
  9
$WORLDVIEW
 70
     1
  9
$SHADEDGE
 70
     3
  9
$SHADEDIF
 70
    70
  9
$TILEMODE
 70
     1
  9
$MAXACTVP
 70
    48
  9
$PINSBASE
 10
0.0
 20
0.0
 30
0.0
  9
$PLIMCHECK
 70
     0
  9
$PEXTMIN
 10
1.000000000000000E+20
 20
1.000000000000000E+20
 30
1.000000000000000E+20
  9
$PEXTMAX
 10
-1.000000000000000E+20
 20
-1.000000000000000E+20
 30
-1.000000000000000E+20
  9
$PLIMMIN
 10
0.0
 20
0.0
  9
$PLIMMAX
 10
420.0
 20
297.0
  9
$UNITMODE
 70
     0
  9
$VISRETAIN
 70
     1
  9
$PLINEGEN
 70
     0
  9
$PSLTSCALE
 70
     1
  9
$TREEDEPTH
 70
  3020
  9
$CMLSTYLE
  2
Standard
  9
$CMLJUST
 70
     0
  9
$CMLSCALE
 40
1.0
  9
$PROXYGRAPHICS
 70
     1
  9
$MEASUREMENT
 70
     0
  9
$CELWEIGHT
370
    -1
  9
$ENDCAPS
280
     0
  9
$JOINSTYLE
280
     0
  9
$LWDISPLAY
290
     0
  9
$INSUNITS
 70
     0
  9
$HYPERLINKBASE
  1

  9
$STYLESHEET
  1

  9
$XEDIT
290
     1
  9
$CEPSNTYPE
380
     0
  9
$PSTYLEMODE
290
     1
  9
$FINGERPRINTGUID
  2
{02400312-4EF2-4E1A-AD8D-039652631AD2}
  9
$VERSIONGUID
  2
{63B41A0E-8974-4F8C-BF9D-461D53BBB0B0}
  9
$EXTNAMES
290
     1
  9
$PSVPSCALE
 40
0.0
  9
$OLESTARTUP
290
     0
  0
ENDSEC
  0
SECTION
  2
CLASSES
  0
CLASS
  1
ACDBDICTIONARYWDFLT
  2
AcDbDictionaryWithDefault
  3
ObjectDBX Classes
 90
        0
280
     0
281
     0
  0
CLASS
  1
MATERIAL
  2
AcDbMaterial
  3
ObjectDBX Classes
 90
     1153
280
     0
281
     0
  0
CLASS
  1
VISUALSTYLE
  2
AcDbVisualStyle
  3
ObjectDBX Classes
 90
     4095
280
     0
281
     0
  0
CLASS
  1
SCALE
  2
AcDbScale
  3
ObjectDBX Classes
 90
     1153
280
     0
281
     0
  0
CLASS
  1
TABLESTYLE
  2
AcDbTableStyle
  3
ObjectDBX Classes
 90
     4095
280
     0
281
     0
  0
CLASS
  1
MLEADERSTYLE
  2
AcDbMLeaderStyle
  3
ACDB_MLEADERSTYLE_CLASS
 90
     4095
280
     0
281
     0
  0
CLASS
  1
ACDBSECTIONVIEWSTYLE
  2
AcDbSectionViewStyle
  3
ObjectDBX Classes
 90
     1025
280
     0
281
     0
  0
CLASS
  1
ACDBDETAILVIEWSTYLE
  2
AcDbDetailViewStyle
  3
ObjectDBX Classes
 90
     1025
280
     0
281
     0
  0
CLASS
  1
DICTIONARYVAR
  2
AcDbDictionaryVar
  3
ObjectDBX Classes
 90
        0
280
     0
281
     0
  0
CLASS
  1
CELLSTYLEMAP
  2
AcDbCellStyleMap
  3
ObjectDBX Classes
 90
     1152
280
     0
281
     0
  0
CLASS
  1
ACDBPLACEHOLDER
  2
AcDbPlaceHolder
  3
ObjectDBX Classes
 90
        0
280
     0
281
     0
  0
CLASS
  1
LAYOUT
  2
AcDbLayout
  3
ObjectDBX Classes
 90
        0
280
     0
281
     0
  0
ENDSEC
  0
SECTION
  2
TABLES
  0
TABLE
  2
VPORT
  5
1C22
330
0
100
AcDbSymbolTable
 70
     1
  0
VPORT
  5
1C8D
330
1C22
100
AcDbSymbolTableRecord
100
AcDbViewportTableRecord
  2
*ACTIVE
 70
     0
 10
0.0
 20
0.0
 11
1.0
 21
1.0
 12
289.7310277134957
 22
124.3154758921568
 13
0.0
 23
0.0
 14
10.0
 24
10.0
 15
10.0
 25
10.0
 16
0.0
 26
0.0
 36
1.0
 17
0.0
 27
0.0
 37
0.0
 40
238.8731479928881
 41
1.899603698811096
 42
50.0
 43
0.0
 44
0.0
 50
0.0
 51
0.0
 71
     0
 72
   100
 73
     1
 74
     0
 75
     0
 76
     0
 77
     0
 78
     0
281
     0
 65
     1
110
0.0
120
0.0
130
0.0
111
1.0
121
0.0
131
0.0
112
0.0
122
1.0
132
0.0
 79
     0
146
0.0
1001
ACAD_NAV_VCDISPLAY
1070
     3
  0
ENDTAB
  0
TABLE
  2
LTYPE
  5
1C1F
330
0
100
AcDbSymbolTable
 70
     4
  0
LTYPE
  5
1C74
330
1C1F
100
AcDbSymbolTableRecord
100
AcDbLinetypeTableRecord
  2
ByBlock
 70
     0
  3

 72
    65
 73
     0
 40
0.0
  0
LTYPE
  5
1C75
330
1C1F
100
AcDbSymbolTableRecord
100
AcDbLinetypeTableRecord
  2
ByLayer
 70
     0
  3

 72
    65
 73
     0
 40
0.0
  0
LTYPE
  5
1C76
330
1C1F
100
AcDbSymbolTableRecord
100
AcDbLinetypeTableRecord
  2
CONTINUOUS
 70
     0
  3
Solid line
 72
    65
 73
     0
 40
0.0
  0
LTYPE
  5
1C8E
330
1C1F
100
AcDbSymbolTableRecord
100
AcDbLinetypeTableRecord
  2
DASHED
 70
     0
  3
Dashed __ __ __ __ __ __ __ __ __ __ __ __ __ _
 72
    65
 73
     2
 40
19.04999999999999
 49
12.7
 74
     0
 49
-6.349999999999998
 74
     0
  0
LTYPE
  5
1C8F
330
1C1F
100
AcDbSymbolTableRecord
100
AcDbLinetypeTableRecord
  2
CENTER
 70
     0
  3
Center ____ _ ____ _ ____ _ ____ _ ____ _ ____
 72
    65
 73
     4
 40
50.8
 49
31.75
 74
     0
 49
-6.349999999999998
 74
     0
 49
6.349999999999998
 74
     0
 49
-6.349999999999998
 74
     0
  0
LTYPE
  5
1C90
330
1C1F
100
AcDbSymbolTableRecord
100
AcDbLinetypeTableRecord
  2
PHANTOM
 70
     0
  3
Phantom ______  __  __  ______  __  __  ______
 72
    65
 73
     6
 40
63.5
 49
31.75
 74
     0
 49
-6.349999999999998
 74
     0
 49
6.349999999999998
 74
     0
 49
-6.349999999999998
 74
     0
 49
6.349999999999998
 74
     0
 49
-6.349999999999998
 74
     0
  0
ENDTAB
  0
TABLE
  2
LAYER
  5
1C1C
330
0
100
AcDbSymbolTable
 70
     8
  0
LAYER
  5
1C6E
102
{ACAD_XDICTIONARY
360
1CA3
102
}
330
1C1C
100
AcDbSymbolTableRecord
100
AcDbLayerTableRecord
  2
0
 70
     0
 62
     7
  6
CONTINUOUS
370
    -3
390
1C29
  0
LAYER
  5
1C91
102
{ACAD_XDICTIONARY
360
1CA5
102
}
330
1C1C
100
AcDbSymbolTableRecord
100
AcDbLayerTableRecord
  2
4
 70
     0
 62
     1
  6
CENTER
370
    -3
390
1C29
  0
LAYER
  5
1C92
102
{ACAD_XDICTIONARY
360
1CA7
102
}
330
1C1C
100
AcDbSymbolTableRecord
100
AcDbLayerTableRecord
  2
5
 70
     0
 62
     6
  6
PHANTOM
370
    -3
390
1C29
  0
LAYER
  5
1C93
102
{ACAD_XDICTIONARY
360
1CA9
102
}
330
1C1C
100
AcDbSymbolTableRecord
100
AcDbLayerTableRecord
  2
1
 70
     0
 62
     7
  6
CONTINUOUS
370
    -3
390
1C29
  0
LAYER
  5
1C94
102
{ACAD_XDICTIONARY
360
1CAB
102
}
330
1C1C
100
AcDbSymbolTableRecord
100
AcDbLayerTableRecord
  2
2
 70
     0
 62
     4
  6
CONTINUOUS
370
    -3
390
1C29
  0
LAYER
  5
1C95
102
{ACAD_XDICTIONARY
360
1CAD
102
}
330
1C1C
100
AcDbSymbolTableRecord
100
AcDbLayerTableRecord
  2
3
 70
     0
 62
     2
  6
DASHED
370
    -3
390
1C29
  0
LAYER
  5
1C96
102
{ACAD_XDICTIONARY
360
1CAF
102
}
330
1C1C
100
AcDbSymbolTableRecord
100
AcDbLayerTableRecord
  2
6
 70
     0
 62
     5
  6
CONTINUOUS
370
    -3
390
1C29
  0
LAYER
  5
1C97
102
{ACAD_XDICTIONARY
360
1CB1
102
}
330
1C1C
100
AcDbSymbolTableRecord
100
AcDbLayerTableRecord
  2
7
 70
     0
 62
     3
  6
CONTINUOUS
370
    -3
390
1C29
  0
ENDTAB
  0
TABLE
  2
STYLE
  5
1C1D
330
0
100
AcDbSymbolTable
 70
     2
  0
STYLE
  5
1C6F
330
1C1D
100
AcDbSymbolTableRecord
100
AcDbTextStyleTableRecord
  2
STANDARD
 70
     0
 40
0.0
 41
1.0
 50
0.0
 71
     0
 42
2.5
  3
simplex.shx
  4

  0
STYLE
  5
1C73
330
1C1D
100
AcDbSymbolTableRecord
100
AcDbTextStyleTableRecord
  2
Annotative
 70
     0
 40
0.0
 41
1.0
 50
0.0
 71
     0
 42
0.2
  3
txt
  4

1001
AcadAnnotative
1000
AnnotativeData
1002
{
1070
     1
1070
     1
1002
}
  0
ENDTAB
  0
TABLE
  2
VIEW
  5
1C20
330
0
100
AcDbSymbolTable
 70
     0
  0
ENDTAB
  0
TABLE
  2
UCS
  5
1C21
330
0
100
AcDbSymbolTable
 70
     0
  0
ENDTAB
  0
TABLE
  2
APPID
  5
1C23
330
0
100
AcDbSymbolTable
 70
     6
  0
APPID
  5
1C70
330
1C23
100
AcDbSymbolTableRecord
100
AcDbRegAppTableRecord
  2
ACAD
 70
     0
  0
APPID
  5
1C77
330
1C23
100
AcDbSymbolTableRecord
100
AcDbRegAppTableRecord
  2
AcadAnnotative
 70
     0
  0
APPID
  5
1C98
330
1C23
100
AcDbSymbolTableRecord
100
AcDbRegAppTableRecord
  2
CONTENTTABDATA
 70
     0
  0
APPID
  5
1C99
330
1C23
100
AcDbSymbolTableRecord
100
AcDbRegAppTableRecord
  2
CONTENTCURRENTTAB
 70
     0
  0
APPID
  5
1CBD
330
1C23
100
AcDbSymbolTableRecord
100
AcDbRegAppTableRecord
  2
ACAD_NAV_VCDISPLAY
 70
     0
  0
APPID
  5
1CF6
330
1C23
100
AcDbSymbolTableRecord
100
AcDbRegAppTableRecord
  2
ACAD_MLEADERVER
 70
     0
  0
ENDTAB
  0
TABLE
  2
DIMSTYLE
  5
1C24
330
0
100
AcDbSymbolTable
 70
     2
100
AcDbDimStyleTable
 71
     0
  0
DIMSTYLE
105
1C71
330
1C24
100
AcDbSymbolTableRecord
100
AcDbDimStyleTableRecord
  2
STANDARD
 70
     0
 41
3.0
 42
1.0
 43
10.0
 44
1.0
 73
     0
 74
     0
 77
     3
 78
     8
140
3.2
141
0.0
147
1.0
172
     1
173
     1
279
     2
284
     8
285
     8
286
     8
340
1C6F
  0
DIMSTYLE
105
1C72
330
1C24
100
AcDbSymbolTableRecord
100
AcDbDimStyleTableRecord
  2
Annotative
 70
     0
340
1C6F
1001
AcadAnnotative
1000
AnnotativeData
1002
{
1070
     1
1070
     1
1002
}
  0
ENDTAB
  0
TABLE
  2
BLOCK_RECORD
  5
1C1B
330
0
100
AcDbSymbolTable
 70
     3
  0
BLOCK_RECORD
  5
1C89
330
1C1B
100
AcDbSymbolTableRecord
100
AcDbBlockTableRecord
  2
*Model_Space
340
1C8C
  0
BLOCK_RECORD
  5
1C85
330
1C1B
100
AcDbSymbolTableRecord
100
AcDbBlockTableRecord
  2
*Paper_Space
340
1C88
  0
BLOCK_RECORD
  5
1C9C
330
1C1B
100
AcDbSymbolTableRecord
100
AcDbBlockTableRecord
  2
$MODEL_SPACE
340
0
  0
BLOCK_RECORD
  5
1C9E
330
1C1B
100
AcDbSymbolTableRecord
100
AcDbBlockTableRecord
  2
$PAPER_SPACE
340
0
  0
BLOCK_RECORD
  5
1CA0
330
1C1B
100
AcDbSymbolTableRecord
100
AcDbBlockTableRecord
  2
_OPEN
340
0
  0
ENDTAB
  0
ENDSEC
  0
SECTION
  2
BLOCKS
  0
BLOCK
  5
1C8A
330
1C89
100
AcDbEntity
  8
0
100
AcDbBlockBegin
  2
*Model_Space
 70
     0
 10
0.0
 20
0.0
 30
0.0
  3
*Model_Space
  1

  0
ENDBLK
  5
1C8B
330
1C89
100
AcDbEntity
  8
0
100
AcDbBlockEnd
  0
BLOCK
  5
1C86
330
1C85
100
AcDbEntity
 67
     1
  8
0
100
AcDbBlockBegin
  2
*Paper_Space
 70
     0
 10
0.0
 20
0.0
 30
0.0
  3
*Paper_Space
  1

  0
ENDBLK
  5
1C87
330
1C85
100
AcDbEntity
 67
     1
  8
0
100
AcDbBlockEnd
  0
BLOCK
  5
1C9D
330
1C9C
100
AcDbEntity
  8
0
100
AcDbBlockBegin
  2
$MODEL_SPACE
 70
     0
 10
0.0
 20
0.0
 30
0.0
  3
$MODEL_SPACE
  1

  0
ENDBLK
  5
1A
330
1C9C
100
AcDbEntity
  8
0
100
AcDbBlockEnd
  0
BLOCK
  5
1C9F
330
1C9E
100
AcDbEntity
  8
0
100
AcDbBlockBegin
  2
$PAPER_SPACE
 70
     0
 10
0.0
 20
0.0
 30
0.0
  3
$PAPER_SPACE
  1

  0
ENDBLK
  5
17
330
1C9E
100
AcDbEntity
  8
0
100
AcDbBlockEnd
  0
BLOCK
  5
1CA1
330
1CA0
100
AcDbEntity
  8
0
100
AcDbBlockBegin
  2
_OPEN
 70
     0
 10
0.0
 20
0.0
 30
0.0
  3
_OPEN
  1

  0
LINE
  5
30
330
1CA0
100
AcDbEntity
  8
0
  6
ByBlock
 62
     0
100
AcDbLine
 10
-1.0
 20
0.1666666666666666
 30
0.0
 11
0.0
 21
0.0
 31
0.0
  0
LINE
  5
31
330
1CA0
100
AcDbEntity
  8
0
  6
ByBlock
 62
     0
100
AcDbLine
 10
0.0
 20
0.0
 30
0.0
 11
-1.0
 21
-0.1666666666666666
 31
0.0
  0
LINE
  5
32
330
1CA0
100
AcDbEntity
  8
0
  6
ByBlock
 62
     0
100
AcDbLine
 10
0.0
 20
0.0
 30
0.0
 11
-1.0
 21
0.0
 31
0.0
  0
ENDBLK
  5
33
330
1CA0
100
AcDbEntity
  8
0
100
AcDbBlockEnd
  0
ENDSEC
  0
SECTION
  2
ENTITIES
  0
LINE
  5
3BD
330
1C89
100
AcDbEntity
  8
1
  6
Continuous
100
AcDbLine
 10
51.6246746859249
 20
130.1622925670707
 30
0.0
 11
54.05367468592493
 21
132.1142925670707
 31
0.0
  0
ARC
  5
3BE
330
1C89
100
AcDbEntity
  8
1
  6
Continuous
100
AcDbCircle
 10
51.93767468592489
 20
129.7722925670707
 30
0.0
 40
2.1
100
AcDbArc
 50
128.7968
 51
180.0
  0
LINE
  5
3BF
330
1C89
100
AcDbEntity
  8
1
  6
Continuous
100
AcDbLine
 10
31.05067468592494
 20
130.1622925670707
 30
0.0
 11
28.62167468592491
 21
132.1142925670707
 31
0.0
  0
ARC
  5
3C0
330
1C89
100
AcDbEntity
  8
1
  6
Continuous
100
AcDbCircle
 10
30.73767468592496
 20
129.7722925670707
 30
0.0
 40
2.1
100
AcDbArc
 50
0.0
 51
51.2032
  0
LINE
  5
3C1
330
1C89
100
AcDbEntity
  8
1
  6
Continuous
100
AcDbLine
 10
49.33767468592492
 20
132.5313155670707
 30
0.0
 11
49.33767468592492
 21
129.5313155670707
 31
0.0
  0
LINE
  5
3C2
330
1C89
100
AcDbEntity
  8
1
  6
Continuous
100
AcDbLine
 10
33.33767468592493
 20
132.5313155670707
 30
0.0
 11
33.33767468592493
 21
129.5313155670707
 31
0.0
  0
LINE
  5
3C7
330
1C89
100
AcDbEntity
  8
1
  6
Continuous
100
AcDbLine
 10
48.93767468592495
 20
147.0313155670707
 30
0.0
 11
48.93767468592495
 21
123.0313155670707
 31
0.0
  0
LINE
  5
3C8
330
1C89
100
AcDbEntity
  8
1
  6
Continuous
100
AcDbLine
 10
33.7376746859249
 20
147.0313155670707
 30
0.0
 11
33.7376746859249
 21
123.0313155670707
 31
0.0
  0
LINE
  5
3C9
330
1C89
100
AcDbEntity
  8
4
  6
CENTER
100
AcDbLine
 10
41.33767468592492
 20
165.3813155670704
 30
0.0
 11
41.33767468592492
 21
104.0313155670707
 31
0.0
  0
TEXT
  5
3DC
330
1C89
100
AcDbEntity
  8
1
  6
Continuous
100
AcDbText
 10
10.00000153760811
 20
9.999999806846744
 30
0.0
 40
1.399999999999999
  1
LAYER
100
AcDbText
  0
TEXT
  5
3DD
330
1C89
100
AcDbEntity
  8
7
  6
Continuous
100
AcDbText
 10
10.00000153760811
 20
25.99999980684674
 30
0.0
 40
3.0
  1
CODE No.1803
100
AcDbText
  0
TEXT
  5
3DE
330
1C89
100
AcDbEntity
  8
7
  6
Continuous
100
AcDbText
 10
10.00000153760811
 20
17.99999980684674
 30
0.0
 40
3.0
  1
TYPE No.TL-11-003
100
AcDbText
  0
TEXT
  5
3E2
330
1C89
100
AcDbEntity
  8
2
  6
Continuous
100
AcDbText
 10
19.97951253760809
 20
10.04873680684672
 30
0.0
 40
1.399999999999999
  1
2
100
AcDbText
  0
TEXT
  5
3E3
330
1C89
100
AcDbEntity
  8
1
  6
Continuous
100
AcDbText
 10
17.97951253760809
 20
10.04873680684672
 30
0.0
 40
1.399999999999999
  1
1
100
AcDbText
  0
TEXT
  5
3E4
330
1C89
100
AcDbEntity
  8
3
  6
DASHED
100
AcDbText
 10
21.97951253760811
 20
10.04873680684672
 30
0.0
 40
1.399999999999999
  1
3
100
AcDbText
  0
TEXT
  5
3E5
330
1C89
100
AcDbEntity
  8
5
  6
PHANTOM
100
AcDbText
 10
25.97951253760811
 20
10.04873680684672
 30
0.0
 40
1.399999999999999
  1
5
100
AcDbText
  0
TEXT
  5
3E6
330
1C89
100
AcDbEntity
  8
4
  6
CENTER
100
AcDbText
 10
23.9795125376081
 20
10.04873680684672
 30
0.0
 40
1.399999999999999
  1
4
100
AcDbText
  0
TEXT
  5
3E7
330
1C89
100
AcDbEntity
  8
6
  6
Continuous
100
AcDbText
 10
27.97951253760811
 20
10.04873680684672
 30
0.0
 40
1.399999999999999
  1
6
100
AcDbText
  0
TEXT
  5
3E8
330
1C89
100
AcDbEntity
  8
7
  6
Continuous
100
AcDbText
 10
29.97951253760811
 20
10.04873680684672
 30
0.0
 40
1.399999999999999
  1
7
100
AcDbText
  0
LINE
  5
428
330
1C89
100
AcDbEntity
  8
4
  6
CENTER
100
AcDbLine
 10
28.33767468592492
 20
127.0313155670707
 30
0.0
 11
54.33767468592492
 21
127.0313155670707
 31
0.0
  0
ARC
  5
429
330
1C89
100
AcDbEntity
  8
1
  6
Continuous
100
AcDbCircle
 10
41.33767468592492
 20
115.0313155670707
 30
0.0
 40
6.0
100
AcDbArc
 50
180.0
 51
0.00001
  0
LINE
  5
42A
330
1C89
100
AcDbEntity
  8
1
  6
Continuous
100
AcDbLine
 10
36.33767468592492
 20
123.0313155670707
 30
0.0
 11
46.33767468592492
 21
123.0313155670707
 31
0.0
  0
LINE
  5
42B
330
1C89
100
AcDbEntity
  8
1
  6
Continuous
100
AcDbLine
 10
36.33767468592492
 20
116.3403155670706
 30
0.0
 11
46.33767468592492
 21
116.3403155670706
 31
0.0
  0
LINE
  5
42C
330
1C89
100
AcDbEntity
  8
1
  6
Continuous
100
AcDbLine
 10
35.33767468592492
 20
123.0313155670707
 30
0.0
 11
35.33767468592492
 21
115.0313155670707
 31
0.0
  0
LINE
  5
42D
330
1C89
100
AcDbEntity
  8
1
  6
Continuous
100
AcDbLine
 10
31.23767468592495
 20
128.0313155670707
 30
0.0
 11
30.33767468592492
 21
128.0313155670707
 31
0.0
  0
LINE
  5
42E
330
1C89
100
AcDbEntity
  8
1
  6
Continuous
100
AcDbLine
 10
31.23767468592495
 20
126.0313155670707
 30
0.0
 11
30.33767468592492
 21
126.0313155670707
 31
0.0
  0
LINE
  5
42F
330
1C89
100
AcDbEntity
  8
1
  6
Continuous
100
AcDbLine
 10
30.33767468592492
 20
128.0313155670707
 30
0.0
 11
30.33767468592492
 21
126.0313155670707
 31
0.0
  0
LINE
  5
430
330
1C89
100
AcDbEntity
  8
1
  6
Continuous
100
AcDbLine
 10
32.83767468592492
 20
129.7722925670707
 30
0.0
 11
32.83767468592492
 21
123.5313155670707
 31
0.0
  0
LINE
  5
431
330
1C89
100
AcDbEntity
  8
1
  6
Continuous
100
AcDbLine
 10
31.23767468592495
 20
129.7722925670707
 30
0.0
 11
31.23767468592495
 21
123.5313155670707
 31
0.0
  0
LINE
  5
432
330
1C89
100
AcDbEntity
  8
1
  6
Continuous
100
AcDbLine
 10
33.7376746859249
 20
123.0313155670707
 30
0.0
 11
35.33767468592492
 21
123.0313155670707
 31
0.0
  0
LINE
  5
433
330
1C89
100
AcDbEntity
  8
1
  6
Continuous
100
AcDbLine
 10
31.23767468592495
 20
123.5313155670707
 30
0.0
 11
32.83767468592492
 21
123.5313155670707
 31
0.0
  0
LINE
  5
434
330
1C89
100
AcDbEntity
  8
1
  6
Continuous
100
AcDbLine
 10
33.7376746859249
 20
125.5313155670707
 30
0.0
 11
32.83767468592492
 21
125.5313155670707
 31
0.0
  0
ARC
  5
435
330
1C89
100
AcDbEntity
  8
1
  6
Continuous
100
AcDbCircle
 10
30.73767468592496
 20
129.7722925670707
 30
0.0
 40
0.5
100
AcDbArc
 50
0.0
 51
51.2032
  0
LINE
  5
436
330
1C89
100
AcDbEntity
  8
1
  6
Continuous
100
AcDbLine
 10
33.7376746859249
 20
128.5313155670707
 30
0.0
 11
32.83767468592492
 21
128.5313155670707
 31
0.0
  0
LINE
  5
437
330
1C89
100
AcDbEntity
  8
1
  6
Continuous
100
AcDbLine
 10
33.33767468592493
 20
129.5313155670707
 30
0.0
 11
33.7376746859249
 21
129.5313155670707
 31
0.0
  0
LINE
  5
438
330
1C89
100
AcDbEntity
  8
1
  6
Continuous
100
AcDbLine
 10
47.33767468592492
 20
123.0313155670707
 30
0.0
 11
47.33767468592492
 21
115.0313155670707
 31
0.0
  0
LINE
  5
43A
330
1C89
100
AcDbEntity
  8
1
  6
Continuous
100
AcDbLine
 10
51.43767468592489
 20
129.7722925670707
 30
0.0
 11
51.43767468592489
 21
123.5313155670707
 31
0.0
  0
LINE
  5
43B
330
1C89
100
AcDbEntity
  8
1
  6
Continuous
100
AcDbLine
 10
49.83767468592493
 20
129.7722925670707
 30
0.0
 11
49.83767468592493
 21
123.5313155670707
 31
0.0
  0
LINE
  5
43C
330
1C89
100
AcDbEntity
  8
1
  6
Continuous
100
AcDbLine
 10
51.43767468592489
 20
123.5313155670707
 30
0.0
 11
49.83767468592493
 21
123.5313155670707
 31
0.0
  0
LINE
  5
43D
330
1C89
100
AcDbEntity
  8
1
  6
Continuous
100
AcDbLine
 10
49.83767468592493
 20
125.5313155670707
 30
0.0
 11
48.93767468592495
 21
125.5313155670707
 31
0.0
  0
LINE
  5
43E
330
1C89
100
AcDbEntity
  8
1
  6
Continuous
100
AcDbLine
 10
47.33767468592492
 20
123.0313155670707
 30
0.0
 11
48.93767468592495
 21
123.0313155670707
 31
0.0
  0
LINE
  5
43F
330
1C89
100
AcDbEntity
  8
1
  6
Continuous
100
AcDbLine
 10
49.83767468592493
 20
128.5313155670707
 30
0.0
 11
48.93767468592495
 21
128.5313155670707
 31
0.0
  0
LINE
  5
440
330
1C89
100
AcDbEntity
  8
1
  6
Continuous
100
AcDbLine
 10
48.93767468592495
 20
129.5313155670707
 30
0.0
 11
49.33767468592492
 21
129.5313155670707
 31
0.0
  0
LINE
  5
441
330
1C89
100
AcDbEntity
  8
1
  6
Continuous
100
AcDbLine
 10
52.33767468592493
 20
128.0313155670707
 30
0.0
 11
51.43767468592489
 21
128.0313155670707
 31
0.0
  0
LINE
  5
442
330
1C89
100
AcDbEntity
  8
1
  6
Continuous
100
AcDbLine
 10
52.33767468592493
 20
126.0313155670707
 30
0.0
 11
51.43767468592489
 21
126.0313155670707
 31
0.0
  0
LINE
  5
443
330
1C89
100
AcDbEntity
  8
1
  6
Continuous
100
AcDbLine
 10
52.33767468592493
 20
128.0313155670707
 30
0.0
 11
52.33767468592493
 21
126.0313155670707
 31
0.0
  0
ARC
  5
444
330
1C89
100
AcDbEntity
  8
1
  6
Continuous
100
AcDbCircle
 10
51.93795482789697
 20
129.7726060871333
 30
0.0
 40
0.5
100
AcDbArc
 50
128.7968
 51
180.0
  0
LINE
  5
460
330
1C89
100
AcDbEntity
  8
1
  6
Continuous
100
AcDbLine
 10
54.83767468592493
 20
151.1337898989076
 30
0.0
 11
53.23767468592496
 21
151.1337898989076
 31
0.0
  0
ARC
  5
461
330
1C89
100
AcDbEntity
  8
1
  6
Continuous
100
AcDbCircle
 10
52.73767468592495
 20
133.7512925670707
 30
0.0
 40
2.1
100
AcDbArc
 50
308.7969999999998
 51
0.000000000000007
  0
LINE
  5
46F
330
1C89
100
AcDbEntity
  8
1
  6
Continuous
100
AcDbLine
 10
54.33767468592492
 20
155.4685725670707
 30
0.0
 11
51.93767468592493
 21
155.4685725670707
 31
0.0
  0
LINE
  5
470
330
1C89
100
AcDbEntity
  8
1
  6
Continuous
100
AcDbLine
 10
54.33767468592492
 20
153.8685725670707
 30
0.0
 11
51.93767468592493
 21
153.8685725670707
 31
0.0
  0
LINE
  5
471
330
1C89
100
AcDbEntity
  8
4
  6
CENTER
100
AcDbLine
 10
54.33767468592492
 20
158.8813155670707
 30
0.0
 11
28.33767468592492
 21
158.8813155670707
 31
0.0
  0
LINE
  5
474
330
1C89
100
AcDbEntity
  8
1
  6
Continuous
100
AcDbLine
 10
36.33767468592492
 20
143.0313155670707
 30
0.0
 11
46.33767468592492
 21
143.0313155670707
 31
0.0
  0
LINE
  5
475
330
1C89
100
AcDbEntity
  8
1
  6
Continuous
100
AcDbLine
 10
33.7376746859249
 20
147.0313155670707
 30
0.0
 11
48.93767468592495
 21
147.0313155670707
 31
0.0
  0
LINE
  5
479
330
1C89
100
AcDbEntity
  8
1
  6
Continuous
100
AcDbLine
 10
33.33767468592493
 20
144.5313155670707
 30
0.0
 11
33.33767468592493
 21
141.5313155670707
 31
0.0
  0
LINE
  5
483
330
1C89
100
AcDbEntity
  8
1
  6
Continuous
100
AcDbLine
 10
29.62467468592496
 20
133.3612925670707
 30
0.0
 11
32.05367468592493
 21
131.4092925670707
 31
0.0
  0
LINE
  5
484
330
1C89
100
AcDbEntity
  8
1
  6
Continuous
100
AcDbLine
 10
29.43767468592494
 20
136.780906959997
 30
0.0
 11
29.43767468592494
 21
133.7512925670707
 31
0.0
  0
ARC
  5
488
330
1C89
100
AcDbEntity
  8
1
  6
Continuous
100
AcDbCircle
 10
29.93767468592494
 20
133.7512925670707
 30
0.0
 40
2.1
100
AcDbArc
 50
180.0
 51
231.203
  0
ARC
  5
489
330
1C89
100
AcDbEntity
  8
1
  6
Continuous
100
AcDbCircle
 10
29.93767468592494
 20
133.7512925670707
 30
0.0
 40
0.5
100
AcDbArc
 50
180.0
 51
231.203
  0
LINE
  5
48A
330
1C89
100
AcDbEntity
  8
1
  6
Continuous
100
AcDbLine
 10
27.83767468592492
 20
136.567181959997
 30
0.0
 11
27.83767468592492
 21
133.3622925670705
 31
0.0
  0
LINE
  5
494
330
1C89
100
AcDbEntity
  8
1
  6
Continuous
100
AcDbLine
 10
33.33767468592493
 20
132.5313155670707
 30
0.0
 11
33.7376746859249
 21
132.5313155670707
 31
0.0
  0
LINE
  5
497
330
1C89
100
AcDbEntity
  8
1
  6
Continuous
100
AcDbLine
 10
33.33767468592493
 20
141.5313155670707
 30
0.0
 11
33.7376746859249
 21
141.5313155670707
 31
0.0
  0
LINE
  5
4AF
330
1C89
100
AcDbEntity
  8
1
  6
Continuous
100
AcDbLine
 10
27.83767468592492
 20
148.6345760983987
 30
0.0
 11
29.43767468592494
 21
148.6345760983987
 31
0.0
  0
LINE
  5
4B0
330
1C89
100
AcDbEntity
  8
1
  6
Continuous
100
AcDbLine
 10
27.83767468592492
 20
151.1337898989076
 30
0.0
 11
29.43767468592494
 21
151.1337898989076
 31
0.0
  0
LINE
  5
4B3
330
1C89
100
AcDbEntity
  8
1
  6
Continuous
100
AcDbLine
 10
33.33767468592493
 20
144.5313155670707
 30
0.0
 11
33.7376746859249
 21
144.5313155670707
 31
0.0
  0
LINE
  5
4B6
330
1C89
100
AcDbEntity
  8
1
  6
Continuous
100
AcDbLine
 10
49.33767468592492
 20
144.5313155670707
 30
0.0
 11
49.33767468592492
 21
141.5313155670707
 31
0.0
  0
LINE
  5
4B8
330
1C89
100
AcDbEntity
  8
1
  6
Continuous
100
AcDbLine
 10
48.93767468592495
 20
132.5313155670707
 30
0.0
 11
49.33767468592492
 21
132.5313155670707
 31
0.0
  0
ARC
  5
4B9
330
1C89
100
AcDbEntity
  8
1
  6
Continuous
100
AcDbCircle
 10
52.73767468592495
 20
133.7512925670707
 30
0.0
 40
0.5
100
AcDbArc
 50
308.7969999999998
 51
0.000000000000007
  0
LINE
  5
4BA
330
1C89
100
AcDbEntity
  8
1
  6
Continuous
100
AcDbLine
 10
53.23767468592496
 20
136.353456959997
 30
0.0
 11
53.23767468592496
 21
133.7512925670707
 31
0.0
  0
LINE
  5
4BC
330
1C89
100
AcDbEntity
  8
1
  6
Continuous
100
AcDbLine
 10
53.05067468592489
 20
133.3612925670707
 30
0.0
 11
50.6216746859249
 21
131.4092925670707
 31
0.0
  0
LINE
  5
4BF
330
1C89
100
AcDbEntity
  8
1
  6
Continuous
100
AcDbLine
 10
48.93767468592495
 20
141.5313155670707
 30
0.0
 11
49.33767468592492
 21
141.5313155670707
 31
0.0
  0
LINE
  5
4C7
330
1C89
100
AcDbEntity
  8
1
  6
Continuous
100
AcDbLine
 10
48.93767468592495
 20
144.5313155670707
 30
0.0
 11
49.33767468592492
 21
144.5313155670707
 31
0.0
  0
LINE
  5
4D0
330
1C89
100
AcDbEntity
  8
1
  6
Continuous
100
AcDbLine
 10
49.83767468592493
 20
160.3813155670707
 30
0.0
 11
32.83767468592492
 21
160.3813155670707
 31
0.0
  0
LINE
  5
4D1
330
1C89
100
AcDbEntity
  8
1
  6
Continuous
100
AcDbLine
 10
49.83767468592493
 20
157.3813155670707
 30
0.0
 11
32.83767468592492
 21
157.3813155670707
 31
0.0
  0
LINE
  5
4D2
330
1C89
100
AcDbEntity
  8
1
  6
Continuous
100
AcDbLine
 10
31.2376746859249
 20
159.8813155670707
 30
0.0
 11
30.33767468592492
 21
159.8813155670707
 31
0.0
  0
LINE
  5
4D3
330
1C89
100
AcDbEntity
  8
1
  6
Continuous
100
AcDbLine
 10
31.2376746859249
 20
157.8813155670706
 30
0.0
 11
30.33767468592492
 21
157.8813155670706
 31
0.0
  0
ARC
  5
4D4
330
1C89
100
AcDbEntity
  8
1
  6
Continuous
100
AcDbCircle
 10
30.7376746859249
 20
155.9685725670707
 30
0.0
 40
2.1
100
AcDbArc
 50
270.0
 51
0.0
  0
ARC
  5
4D5
330
1C89
100
AcDbEntity
  8
1
  6
Continuous
100
AcDbCircle
 10
30.7376746859249
 20
155.9685725670707
 30
0.0
 40
0.5
100
AcDbArc
 50
270.0
 51
0.0
  0
ARC
  5
4D6
330
1C89
100
AcDbEntity
  8
1
  6
Continuous
100
AcDbCircle
 10
28.33767468592492
 20
153.3685725670707
 30
0.0
 40
2.1
100
AcDbArc
 50
90.0
 51
180.0
  0
LINE
  5
4D7
330
1C89
100
AcDbEntity
  8
1
  6
Continuous
100
AcDbLine
 10
28.33767468592492
 20
153.8685725670707
 30
0.0
 11
30.7376746859249
 21
153.8685725670707
 31
0.0
  0
LINE
  5
4D8
330
1C89
100
AcDbEntity
  8
1
  6
Continuous
100
AcDbLine
 10
28.33767468592492
 20
155.4685725670707
 30
0.0
 11
30.7376746859249
 21
155.4685725670707
 31
0.0
  0
ARC
  5
4D9
330
1C89
100
AcDbEntity
  8
1
  6
Continuous
100
AcDbCircle
 10
28.33767468592492
 20
153.3685725670707
 30
0.0
 40
0.5
100
AcDbArc
 50
90.0
 51
180.0
  0
LINE
  5
4DA
330
1C89
100
AcDbEntity
  8
1
  6
Continuous
100
AcDbLine
 10
30.33767468592492
 20
159.8813155670707
 30
0.0
 11
30.33767468592492
 21
157.8813155670706
 31
0.0
  0
LINE
  5
4DB
330
1C89
100
AcDbEntity
  8
1
  6
Continuous
100
AcDbLine
 10
32.83767468592492
 20
161.3813155670707
 30
0.0
 11
32.83767468592492
 21
155.9685725670707
 31
0.0
  0
LINE
  5
4DC
330
1C89
100
AcDbEntity
  8
1
  6
Continuous
100
AcDbLine
 10
31.2376746859249
 20
161.3813155670707
 30
0.0
 11
31.2376746859249
 21
155.9685725670707
 31
0.0
  0
LINE
  5
4DD
330
1C89
100
AcDbEntity
  8
1
  6
Continuous
100
AcDbLine
 10
32.57064468592494
 20
155.4685725670707
 30
0.0
 11
31.40369668592495
 21
155.4685725670707
 31
0.0
  0
LINE
  5
4DE
330
1C89
100
AcDbEntity
  8
1
  6
Continuous
100
AcDbLine
 10
31.2376746859249
 20
161.3813155670707
 30
0.0
 11
32.83767468592492
 21
161.3813155670707
 31
0.0
  0
LINE
  5
4DF
330
1C89
100
AcDbEntity
  8
1
  6
Continuous
100
AcDbLine
 10
51.43767468592489
 20
161.3813155670707
 30
0.0
 11
51.43767468592489
 21
155.9685725670707
 31
0.0
  0
LINE
  5
4E0
330
1C89
100
AcDbEntity
  8
1
  6
Continuous
100
AcDbLine
 10
49.83767468592493
 20
161.3813155670707
 30
0.0
 11
49.83767468592493
 21
155.9685725670707
 31
0.0
  0
LINE
  5
4E1
330
1C89
100
AcDbEntity
  8
1
  6
Continuous
100
AcDbLine
 10
50.10470368592496
 20
155.4685725670707
 30
0.0
 11
51.27165268592495
 21
155.4685725670707
 31
0.0
  0
ARC
  5
4E2
330
1C89
100
AcDbEntity
  8
1
  6
Continuous
100
AcDbCircle
 10
51.93767468592493
 20
155.9685725670707
 30
0.0
 40
2.1
100
AcDbArc
 50
180.0
 51
270.0
  0
ARC
  5
4E3
330
1C89
100
AcDbEntity
  8
1
  6
Continuous
100
AcDbCircle
 10
51.93767468592493
 20
155.9685725670707
 30
0.0
 40
0.5
100
AcDbArc
 50
180.0
 51
270.0
  0
LINE
  5
4E4
330
1C89
100
AcDbEntity
  8
1
  6
Continuous
100
AcDbLine
 10
51.43767468592489
 20
161.3813155670707
 30
0.0
 11
49.83767468592493
 21
161.3813155670707
 31
0.0
  0
LINE
  5
4E5
330
1C89
100
AcDbEntity
  8
1
  6
Continuous
100
AcDbLine
 10
51.43767468592489
 20
159.8813155670707
 30
0.0
 11
52.33767468592493
 21
159.8813155670707
 31
0.0
  0
LINE
  5
4E6
330
1C89
100
AcDbEntity
  8
1
  6
Continuous
100
AcDbLine
 10
51.43767468592489
 20
157.8813155670706
 30
0.0
 11
52.33767468592493
 21
157.8813155670706
 31
0.0
  0
LINE
  5
4E7
330
1C89
100
AcDbEntity
  8
1
  6
Continuous
100
AcDbLine
 10
52.33767468592493
 20
159.8813155670707
 30
0.0
 11
52.33767468592493
 21
157.8813155670706
 31
0.0
  0
LINE
  5
4EB
330
1C89
100
AcDbEntity
  8
1
  6
Continuous
100
AcDbLine
 10
56.43767468592489
 20
136.780906959997
 30
0.0
 11
56.43767468592489
 21
133.3140766774787
 31
0.0
  0
LINE
  5
4EE
330
1C89
100
AcDbEntity
  8
1
  6
Continuous
100
AcDbLine
 10
56.43767468592489
 20
133.3140766774787
 30
0.0
 11
54.83767468592493
 21
133.3140766774787
 31
0.0
  0
LINE
  5
4EF
330
1C89
100
AcDbEntity
  8
1
  6
Continuous
100
AcDbLine
 10
54.83767468592493
 20
136.567181959997
 30
0.0
 11
54.83767468592493
 21
133.3140766774787
 31
0.0
  0
ARC
  5
506
330
1C89
100
AcDbEntity
  8
1
  6
Continuous
100
AcDbCircle
 10
54.33767468592492
 20
153.3685725670707
 30
0.0
 40
2.1
100
AcDbArc
 50
0.0
 51
90.0
  0
ARC
  5
507
330
1C89
100
AcDbEntity
  8
1
  6
Continuous
100
AcDbCircle
 10
54.33767468592492
 20
153.3685725670707
 30
0.0
 40
0.5
100
AcDbArc
 50
0.0
 51
90.0
  0
LINE
  5
55A
330
1C89
100
AcDbEntity
  8
4
  6
CENTER
100
AcDbLine
 10
101.3377746859248
 20
176.2813155670707
 30
0.0
 11
101.3377746859248
 21
150.7813155670707
 31
0.0
  0
LINE
  5
55B
330
1C89
100
AcDbEntity
  8
4
  6
CENTER
100
AcDbLine
 10
92.33777468592496
 20
158.8813155670707
 30
0.0
 11
110.3377746859249
 21
158.8813155670707
 31
0.0
  0
LINE
  5
55C
330
1C89
100
AcDbEntity
  8
1
  6
Continuous
100
AcDbLine
 10
96.33777468592496
 20
160.1173155670707
 30
0.0
 11
106.3377746859249
 21
160.1173155670707
 31
0.0
  0
LINE
  5
55D
330
1C89
100
AcDbEntity
  8
1
  6
Continuous
100
AcDbLine
 10
96.33777468592496
 20
160.7813155670707
 30
0.0
 11
106.3377746859249
 21
160.7813155670707
 31
0.0
  0
LINE
  5
55E
330
1C89
100
AcDbEntity
  8
1
  6
Continuous
100
AcDbLine
 10
94.33777468592495
 20
155.7813155670707
 30
0.0
 11
108.3377746859249
 21
155.7813155670707
 31
0.0
  0
LINE
  5
55F
330
1C89
100
AcDbEntity
  8
1
  6
Continuous
100
AcDbLine
 10
92.83777468592495
 20
171.2813155670706
 30
0.0
 11
109.8377746859249
 21
171.2813155670706
 31
0.0
  0
ARC
  5
560
330
1C89
100
AcDbEntity
  8
1
  6
Continuous
100
AcDbCircle
 10
92.83777468592495
 20
168.0313155670707
 30
0.0
 40
3.25
100
AcDbArc
 50
90.0
 51
270.0
  0
LINE
  5
561
330
1C89
100
AcDbEntity
  8
1
  6
Continuous
100
AcDbLine
 10
94.33777468592495
 20
164.7813155670707
 30
0.0
 11
94.33777468592495
 21
155.7813155670707
 31
0.0
  0
ARC
  5
562
330
1C89
100
AcDbEntity
  8
1
  6
Continuous
100
AcDbCircle
 10
96.33777468592496
 20
158.7813155670704
 30
0.0
 40
2.0
100
AcDbArc
 50
90.0
 51
180.0
  0
ARC
  5
563
330
1C89
100
AcDbEntity
  8
1
  6
Continuous
100
AcDbCircle
 10
96.33777468592496
 20
158.1173155670706
 30
0.0
 40
2.0
100
AcDbArc
 50
90.0
 51
180.0
  0
CIRCLE
  5
564
330
1C89
100
AcDbEntity
  8
1
  6
Continuous
100
AcDbCircle
 10
93.33777468592495
 20
168.0313155670707
 30
0.0
 40
1.6
  0
LINE
  5
565
330
1C89
100
AcDbEntity
  8
4
  6
CENTER
100
AcDbLine
 10
93.33777468592495
 20
170.5313155670707
 30
0.0
 11
93.33777468592495
 21
165.5313155670707
 31
0.0
  0
LINE
  5
566
330
1C89
100
AcDbEntity
  8
4
  6
CENTER
100
AcDbLine
 10
90.83777468592495
 20
168.0313155670707
 30
0.0
 11
95.83777468592495
 21
168.0313155670707
 31
0.0
  0
LINE
  5
567
330
1C89
100
AcDbEntity
  8
1
  6
Continuous
100
AcDbLine
 10
92.83777468592495
 20
164.7813155670707
 30
0.0
 11
94.33777468592495
 21
164.7813155670707
 31
0.0
  0
LINE
  5
568
330
1C89
100
AcDbEntity
  8
1
  6
Continuous
100
AcDbLine
 10
108.3377746859249
 20
164.7813155670707
 30
0.0
 11
108.3377746859249
 21
155.7813155670707
 31
0.0
  0
ARC
  5
569
330
1C89
100
AcDbEntity
  8
1
  6
Continuous
100
AcDbCircle
 10
106.3377746859249
 20
158.7813155670704
 30
0.0
 40
2.0
100
AcDbArc
 50
0.0
 51
90.0
  0
ARC
  5
56A
330
1C89
100
AcDbEntity
  8
1
  6
Continuous
100
AcDbCircle
 10
106.3377746859249
 20
158.1173155670706
 30
0.0
 40
2.0
100
AcDbArc
 50
0.0
 51
90.0
  0
CIRCLE
  5
56B
330
1C89
100
AcDbEntity
  8
1
  6
Continuous
100
AcDbCircle
 10
109.3377746859249
 20
168.0313155670707
 30
0.0
 40
1.6
  0
ARC
  5
56C
330
1C89
100
AcDbEntity
  8
1
  6
Continuous
100
AcDbCircle
 10
109.8377746859249
 20
168.0313155670707
 30
0.0
 40
3.25
100
AcDbArc
 50
270.0
 51
90.0
  0
LINE
  5
56D
330
1C89
100
AcDbEntity
  8
4
  6
CENTER
100
AcDbLine
 10
109.3377746859249
 20
170.5313155670707
 30
0.0
 11
109.3377746859249
 21
165.5313155670707
 31
0.0
  0
LINE
  5
56E
330
1C89
100
AcDbEntity
  8
4
  6
CENTER
100
AcDbLine
 10
111.8377746859249
 20
168.0313155670707
 30
0.0
 11
106.8377746859249
 21
168.0313155670707
 31
0.0
  0
LINE
  5
56F
330
1C89
100
AcDbEntity
  8
1
  6
Continuous
100
AcDbLine
 10
109.8377746859249
 20
164.7813155670707
 30
0.0
 11
108.3377746859249
 21
164.7813155670707
 31
0.0
  0
LINE
  5
5BA
330
1C89
100
AcDbEntity
  8
4
  6
CENTER
100
AcDbLine
 10
92.33777468592496
 20
230.5313155670706
 30
0.0
 11
110.3377746859249
 21
230.5313155670706
 31
0.0
  0
LINE
  5
5BB
330
1C89
100
AcDbEntity
  8
1
  6
Continuous
100
AcDbLine
 10
89.58777468592492
 20
232.0313155670705
 30
0.0
 11
113.0877746859249
 21
232.0313155670705
 31
0.0
  0
LINE
  5
5BC
330
1C89
100
AcDbEntity
  8
1
  6
Continuous
100
AcDbLine
 10
96.33777468592496
 20
228.0863155670706
 30
0.0
 11
106.3377746859249
 21
228.0863155670706
 31
0.0
  0
LINE
  5
5BD
330
1C89
100
AcDbEntity
  8
1
  6
Continuous
100
AcDbLine
 10
96.33777468592496
 20
226.6313155670705
 30
0.0
 11
106.3377746859249
 21
226.6313155670705
 31
0.0
  0
LINE
  5
5BE
330
1C89
100
AcDbEntity
  8
1
  6
Continuous
100
AcDbLine
 10
89.58777468592492
 20
233.6313155670706
 30
0.0
 11
113.0877746859249
 21
233.6313155670706
 31
0.0
  0
LINE
  5
5BF
330
1C89
100
AcDbEntity
  8
1
  6
Continuous
100
AcDbLine
 10
89.58777468592492
 20
233.6313155670706
 30
0.0
 11
89.58777468592492
 21
232.0313155670705
 31
0.0
  0
ARC
  5
5C0
330
1C89
100
AcDbEntity
  8
1
  6
Continuous
100
AcDbCircle
 10
96.33777468592496
 20
230.0863155670706
 30
0.0
 40
2.0
100
AcDbArc
 50
180.0
 51
270.0
  0
ARC
  5
5C1
330
1C89
100
AcDbEntity
  8
1
  6
Continuous
100
AcDbCircle
 10
96.33777468592496
 20
228.6313155670705
 30
0.0
 40
2.0
100
AcDbArc
 50
180.0
 51
270.0
  0
LINE
  5
5C2
330
1C89
100
AcDbEntity
  8
4
  6
CENTER
100
AcDbLine
 10
101.3377746859248
 20
238.6313155670706
 30
0.0
 11
101.3377746859248
 21
221.6313155670706
 31
0.0
  0
LINE
  5
5C3
330
1C89
100
AcDbEntity
  8
4
  6
CENTER
100
AcDbLine
 10
93.33777468592495
 20
235.3144265670706
 30
0.0
 11
93.33777468592495
 21
230.3144265670705
 31
0.0
  0
LINE
  5
5C4
330
1C89
100
AcDbEntity
  8
1
  6
Continuous
100
AcDbLine
 10
94.33777468592495
 20
232.0313155670705
 30
0.0
 11
94.33777468592495
 21
228.6313155670705
 31
0.0
  0
ARC
  5
5C5
330
1C89
100
AcDbEntity
  8
1
  6
Continuous
100
AcDbCircle
 10
106.3377746859249
 20
230.0863155670706
 30
0.0
 40
2.0
100
AcDbArc
 50
270.0
 51
0.0
  0
ARC
  5
5C6
330
1C89
100
AcDbEntity
  8
1
  6
Continuous
100
AcDbCircle
 10
106.3377746859249
 20
228.6313155670705
 30
0.0
 40
2.0
100
AcDbArc
 50
270.0
 51
0.000001
  0
LINE
  5
5C7
330
1C89
100
AcDbEntity
  8
4
  6
CENTER
100
AcDbLine
 10
109.3377746859249
 20
235.3144265670706
 30
0.0
 11
109.3377746859249
 21
230.3144265670705
 31
0.0
  0
LINE
  5
5C8
330
1C89
100
AcDbEntity
  8
1
  6
Continuous
100
AcDbLine
 10
113.0877746859249
 20
233.6313155670706
 30
0.0
 11
113.0877746859249
 21
232.0313155670705
 31
0.0
  0
LINE
  5
5C9
330
1C89
100
AcDbEntity
  8
1
  6
Continuous
100
AcDbLine
 10
108.3377746859249
 20
232.0313155670705
 30
0.0
 11
108.3377746859249
 21
228.6313155670705
 31
0.0
  0
LINE
  5
5CD
330
1C89
100
AcDbEntity
  8
1
  6
Continuous
100
AcDbLine
 10
309.3377746859249
 20
132.5313155670707
 30
0.0
 11
309.3377746859249
 21
129.5313155670707
 31
0.0
  0
LINE
  5
5CE
330
1C89
100
AcDbEntity
  8
1
  6
Continuous
100
AcDbLine
 10
293.3377746859249
 20
132.5313155670707
 30
0.0
 11
293.3377746859249
 21
129.5313155670707
 31
0.0
  0
LINE
  5
5CF
330
1C89
100
AcDbEntity
  8
4
  6
CENTER
100
AcDbLine
 10
301.3377746859249
 20
165.3813155670704
 30
0.0
 11
301.3377746859249
 21
105.0313155670707
 31
0.0
  0
ARC
  5
5D1
330
1C89
100
AcDbEntity
  8
1
  6
Continuous
100
AcDbCircle
 10
301.3377746859249
 20
115.5313155670707
 30
0.0
 40
5.5
100
AcDbArc
 50
180.0
 51
0.0
  0
CIRCLE
  5
5D2
330
1C89
100
AcDbEntity
  8
1
  6
Continuous
100
AcDbCircle
 10
301.3377746859249
 20
116.0313155670707
 30
0.0
 40
1.6
  0
CIRCLE
  5
5D3
330
1C89
100
AcDbEntity
  8
1
  6
Continuous
100
AcDbCircle
 10
301.3377746859249
 20
127.0313155670707
 30
0.0
 40
1.6
  0
ARC
  5
5D4
330
1C89
100
AcDbEntity
  8
1
  6
Continuous
100
AcDbCircle
 10
301.3377746859249
 20
115.0313155670707
 30
0.0
 40
6.0
100
AcDbArc
 50
180.0
 51
0.0
  0
LINE
  5
5D5
330
1C89
100
AcDbEntity
  8
4
  6
CENTER
100
AcDbLine
 10
297.7377746859249
 20
116.0313155670707
 30
0.0
 11
304.9377746859247
 21
116.0313155670707
 31
0.0
  0
LINE
  5
5D7
330
1C89
100
AcDbEntity
  8
1
  6
Continuous
100
AcDbLine
 10
295.3377746859248
 20
129.5313155670707
 30
0.0
 11
295.3377746859249
 21
115.0313155670707
 31
0.0
  0
LINE
  5
5D8
330
1C89
100
AcDbEntity
  8
1
  6
Continuous
100
AcDbLine
 10
295.8377746859249
 20
129.5313155670707
 30
0.0
 11
295.8377746859249
 21
115.5313155670707
 31
0.0
  0
LINE
  5
5D9
330
1C89
100
AcDbEntity
  8
1
  6
Continuous
100
AcDbLine
 10
295.8377746859249
 20
129.5313155670707
 30
0.0
 11
293.3377746859249
 21
129.5313155670707
 31
0.0
  0
LINE
  5
5DA
330
1C89
100
AcDbEntity
  8
1
  6
Continuous
100
AcDbLine
 10
295.3377746859249
 20
123.0313155670707
 30
0.0
 11
293.7377746859248
 21
123.0313155670707
 31
0.0
  0
LINE
  5
5DB
330
1C89
100
AcDbEntity
  8
1
  6
Continuous
100
AcDbLine
 10
293.7377746859248
 20
129.5313155670707
 30
0.0
 11
293.7377746859248
 21
123.0313155670707
 31
0.0
  0
LINE
  5
5E5
330
1C89
100
AcDbEntity
  8
1
  6
Continuous
100
AcDbLine
 10
307.3377746859248
 20
129.5313155670707
 30
0.0
 11
307.3377746859249
 21
115.0313155670707
 31
0.0
  0
LINE
  5
5E6
330
1C89
100
AcDbEntity
  8
1
  6
Continuous
100
AcDbLine
 10
306.8377746859249
 20
129.5313155670707
 30
0.0
 11
306.8377746859249
 21
115.5313155670707
 31
0.0
  0
LINE
  5
5E9
330
1C89
100
AcDbEntity
  8
1
  6
Continuous
100
AcDbLine
 10
308.9377746859247
 20
129.5313155670707
 30
0.0
 11
308.9377746859247
 21
123.0313155670707
 31
0.0
  0
LINE
  5
5EA
330
1C89
100
AcDbEntity
  8
1
  6
Continuous
100
AcDbLine
 10
308.9377746859247
 20
123.0313155670707
 30
0.0
 11
307.3377746859249
 21
123.0313155670707
 31
0.0
  0
LINE
  5
5EB
330
1C89
100
AcDbEntity
  8
1
  6
Continuous
100
AcDbLine
 10
309.3377746859249
 20
129.5313155670707
 30
0.0
 11
306.8377746859249
 21
129.5313155670707
 31
0.0
  0
LINE
  5
5F3
330
1C89
100
AcDbEntity
  8
1
  6
Continuous
100
AcDbLine
 10
222.8377746859249
 20
171.2813155670706
 30
0.0
 11
222.8377746859249
 21
158.8813155670707
 31
0.0
  0
LINE
  5
5F4
330
1C89
100
AcDbEntity
  8
1
  6
Continuous
100
AcDbLine
 10
224.4377746859249
 20
171.2813155670706
 30
0.0
 11
224.4377746859249
 21
158.8813155670707
 31
0.0
  0
ARC
  5
5F5
330
1C89
100
AcDbEntity
  8
1
  6
Continuous
100
AcDbCircle
 10
221.3377746859248
 20
158.8813155670707
 30
0.0
 40
1.5
100
AcDbArc
 50
203.143
 51
0.0
  0
ARC
  5
5F6
330
1C89
100
AcDbEntity
  8
1
  6
Continuous
100
AcDbCircle
 10
221.3377746859248
 20
158.8813155670707
 30
0.0
 40
3.1
100
AcDbArc
 50
203.143
 51
0.0
  0
LINE
  5
5F7
330
1C89
100
AcDbEntity
  8
4
  6
CENTER
100
AcDbLine
 10
217.8377746859248
 20
158.8813155670707
 30
0.0
 11
224.8377746859249
 21
158.8813155670707
 31
0.0
  0
LINE
  5
5F8
330
1C89
100
AcDbEntity
  8
4
  6
CENTER
100
AcDbLine
 10
221.3377746859248
 20
162.3813155670707
 30
0.0
 11
221.3377746859248
 21
155.3813155670707
 31
0.0
  0
LINE
  5
5F9
330
1C89
100
AcDbEntity
  8
1
  6
Continuous
100
AcDbLine
 10
217.4377746859249
 20
160.1173155670707
 30
0.0
 11
218.4867746859248
 21
157.6623155670707
 31
0.0
  0
LINE
  5
5FA
330
1C89
100
AcDbEntity
  8
1
  6
Continuous
100
AcDbLine
 10
217.4377746859249
 20
160.1173155670707
 30
0.0
 11
218.8937746859249
 21
160.7813155670707
 31
0.0
  0
LINE
  5
5FB
330
1C89
100
AcDbEntity
  8
1
  6
Continuous
100
AcDbLine
 10
218.8937746859249
 20
160.7813155670707
 30
0.0
 11
219.9587746859249
 21
158.2913155670707
 31
0.0
  0
LINE
  5
5FC
330
1C89
100
AcDbEntity
  8
4
  6
CENTER
100
AcDbLine
 10
219.8377746859248
 20
168.0313155670707
 30
0.0
 11
227.4377746859248
 21
168.0313155670707
 31
0.0
  0
LINE
  5
5FD
330
1C89
100
AcDbEntity
  8
1
  6
Continuous
100
AcDbLine
 10
222.8377746859249
 20
164.7813155670707
 30
0.0
 11
224.4377746859249
 21
164.7813155670707
 31
0.0
  0
LINE
  5
5FE
330
1C89
100
AcDbEntity
  8
1
  6
Continuous
100
AcDbLine
 10
222.8377746859249
 20
171.2813155670706
 30
0.0
 11
224.4377746859249
 21
171.2813155670706
 31
0.0
  0
LINE
  5
601
330
1C89
100
AcDbEntity
  8
1
  6
Continuous
100
AcDbLine
 10
295.3377746859249
 20
144.5313155670707
 30
0.0
 11
307.3377746859249
 21
144.5313155670707
 31
0.0
  0
LINE
  5
602
330
1C89
100
AcDbEntity
  8
1
  6
Continuous
100
AcDbLine
 10
308.9377746859247
 20
145.4313155670706
 30
0.0
 11
293.7377746859248
 21
145.4313155670706
 31
0.0
  0
LINE
  5
603
330
1C89
100
AcDbEntity
  8
1
  6
Continuous
100
AcDbLine
 10
308.9377746859247
 20
147.0313155670707
 30
0.0
 11
293.7377746859248
 21
147.0313155670707
 31
0.0
  0
LINE
  5
624
330
1C89
100
AcDbEntity
  8
1
  6
Continuous
100
AcDbLine
 10
293.3377746859249
 20
144.5313155670707
 30
0.0
 11
293.3377746859249
 21
141.5313155670707
 31
0.0
  0
LINE
  5
625
330
1C89
100
AcDbEntity
  8
1
  6
Continuous
100
AcDbLine
 10
297.3377746859248
 20
143.0313155670707
 30
0.0
 11
297.3377746859248
 21
134.0313155670707
 31
0.0
  0
LINE
  5
626
330
1C89
100
AcDbEntity
  8
1
  6
Continuous
100
AcDbLine
 10
299.8377746859249
 20
143.0313155670707
 30
0.0
 11
299.8377746859249
 21
134.0313155670707
 31
0.0
  0
LINE
  5
627
330
1C89
100
AcDbEntity
  8
1
  6
Continuous
100
AcDbLine
 10
295.3377746859249
 20
145.0313155670707
 30
0.0
 11
295.3377746859249
 21
132.5313155670707
 31
0.0
  0
LINE
  5
628
330
1C89
100
AcDbEntity
  8
1
  6
Continuous
100
AcDbLine
 10
293.7377746859248
 20
147.0313155670707
 30
0.0
 11
293.7377746859248
 21
132.5313155670707
 31
0.0
  0
LINE
  5
629
330
1C89
100
AcDbEntity
  8
1
  6
Continuous
100
AcDbLine
 10
295.8377746859249
 20
132.5313155670707
 30
0.0
 11
293.3377746859249
 21
132.5313155670707
 31
0.0
  0
LINE
  5
63E
330
1C89
100
AcDbEntity
  8
1
  6
Continuous
100
AcDbLine
 10
293.3377746859249
 20
141.5313155670707
 30
0.0
 11
293.7377746859248
 21
141.5313155670707
 31
0.0
  0
LINE
  5
63F
330
1C89
100
AcDbEntity
  8
1
  6
Continuous
100
AcDbLine
 10
295.8377746859249
 20
141.5313155670707
 30
0.0
 11
295.8377746859249
 21
132.5313155670707
 31
0.0
  0
LINE
  5
640
330
1C89
100
AcDbEntity
  8
1
  6
Continuous
100
AcDbLine
 10
299.8377746859249
 20
134.0313155670707
 30
0.0
 11
297.3377746859248
 21
134.0313155670707
 31
0.0
  0
LINE
  5
641
330
1C89
100
AcDbEntity
  8
1
  6
Continuous
100
AcDbLine
 10
295.8377746859249
 20
141.5313155670707
 30
0.0
 11
295.3377746859249
 21
141.5313155670707
 31
0.0
  0
LINE
  5
642
330
1C89
100
AcDbEntity
  8
1
  6
Continuous
100
AcDbLine
 10
295.3377746859249
 20
145.0313155670707
 30
0.0
 11
293.7377746859248
 21
145.0313155670707
 31
0.0
  0
LINE
  5
650
330
1C89
100
AcDbEntity
  8
1
  6
Continuous
100
AcDbLine
 10
293.3377746859249
 20
144.5313155670707
 30
0.0
 11
293.7377746859248
 21
144.5313155670707
 31
0.0
  0
LINE
  5
656
330
1C89
100
AcDbEntity
  8
1
  6
Continuous
100
AcDbLine
 10
299.8377746859249
 20
143.0313155670707
 30
0.0
 11
297.3377746859248
 21
143.0313155670707
 31
0.0
  0
LINE
  5
67A
330
1C89
100
AcDbEntity
  8
1
  6
Continuous
100
AcDbLine
 10
309.3377746859249
 20
144.5313155670707
 30
0.0
 11
309.3377746859249
 21
141.5313155670707
 31
0.0
  0
LINE
  5
67B
330
1C89
100
AcDbEntity
  8
1
  6
Continuous
100
AcDbLine
 10
305.3377746859249
 20
143.0313155670707
 30
0.0
 11
305.3377746859249
 21
134.0313155670707
 31
0.0
  0
LINE
  5
67C
330
1C89
100
AcDbEntity
  8
1
  6
Continuous
100
AcDbLine
 10
302.8377746859249
 20
143.0313155670707
 30
0.0
 11
302.8377746859249
 21
134.0313155670707
 31
0.0
  0
LINE
  5
67D
330
1C89
100
AcDbEntity
  8
1
  6
Continuous
100
AcDbLine
 10
307.3377746859249
 20
145.0313155670707
 30
0.0
 11
307.3377746859249
 21
132.5313155670707
 31
0.0
  0
LINE
  5
67E
330
1C89
100
AcDbEntity
  8
1
  6
Continuous
100
AcDbLine
 10
308.9377746859247
 20
147.0313155670707
 30
0.0
 11
308.9377746859247
 21
132.5313155670707
 31
0.0
  0
LINE
  5
67F
330
1C89
100
AcDbEntity
  8
1
  6
Continuous
100
AcDbLine
 10
306.8377746859249
 20
141.5313155670707
 30
0.0
 11
306.8377746859249
 21
132.5313155670707
 31
0.0
  0
LINE
  5
680
330
1C89
100
AcDbEntity
  8
1
  6
Continuous
100
AcDbLine
 10
305.3377746859249
 20
134.0313155670707
 30
0.0
 11
302.8377746859249
 21
134.0313155670707
 31
0.0
  0
LINE
  5
681
330
1C89
100
AcDbEntity
  8
1
  6
Continuous
100
AcDbLine
 10
309.3377746859249
 20
132.5313155670707
 30
0.0
 11
306.8377746859249
 21
132.5313155670707
 31
0.0
  0
LINE
  5
682
330
1C89
100
AcDbEntity
  8
1
  6
Continuous
100
AcDbLine
 10
308.9377746859247
 20
141.5313155670707
 30
0.0
 11
309.3377746859249
 21
141.5313155670707
 31
0.0
  0
LINE
  5
683
330
1C89
100
AcDbEntity
  8
1
  6
Continuous
100
AcDbLine
 10
307.3377746859249
 20
141.5313155670707
 30
0.0
 11
306.8377746859249
 21
141.5313155670707
 31
0.0
  0
LINE
  5
697
330
1C89
100
AcDbEntity
  8
1
  6
Continuous
100
AcDbLine
 10
305.3377746859249
 20
143.0313155670707
 30
0.0
 11
302.8377746859249
 21
143.0313155670707
 31
0.0
  0
LINE
  5
698
330
1C89
100
AcDbEntity
  8
1
  6
Continuous
100
AcDbLine
 10
308.9377746859247
 20
144.5313155670707
 30
0.0
 11
309.3377746859249
 21
144.5313155670707
 31
0.0
  0
LINE
  5
699
330
1C89
100
AcDbEntity
  8
1
  6
Continuous
100
AcDbLine
 10
308.9377746859247
 20
145.0313155670707
 30
0.0
 11
307.3377746859249
 21
145.0313155670707
 31
0.0
  0
LINE
  5
6C2
330
1C89
100
AcDbEntity
  8
4
  6
CENTER
100
AcDbLine
 10
361.3377746859249
 20
176.2813155670707
 30
0.0
 11
361.3377746859249
 21
150.7813155670707
 31
0.0
  0
CIRCLE
  5
6C3
330
1C89
100
AcDbEntity
  8
1
  6
Continuous
100
AcDbCircle
 10
353.3377746859249
 20
168.0313155670707
 30
0.0
 40
1.6
  0
LINE
  5
6C4
330
1C89
100
AcDbEntity
  8
4
  6
CENTER
100
AcDbLine
 10
352.3377746859249
 20
158.8813155670707
 30
0.0
 11
370.3377746859249
 21
158.8813155670707
 31
0.0
  0
LINE
  5
6C5
330
1C89
100
AcDbEntity
  8
4
  6
CENTER
100
AcDbLine
 10
350.8377746859249
 20
168.0313155670707
 30
0.0
 11
355.8377746859249
 21
168.0313155670707
 31
0.0
  0
LINE
  5
6C6
330
1C89
100
AcDbEntity
  8
1
  6
Continuous
100
AcDbLine
 10
352.8377746859249
 20
164.7813155670707
 30
0.0
 11
354.3377746859249
 21
164.7813155670707
 31
0.0
  0
LINE
  5
6C7
330
1C89
100
AcDbEntity
  8
1
  6
Continuous
100
AcDbLine
 10
369.8377746859249
 20
171.2813155670706
 30
0.0
 11
352.8377746859249
 21
171.2813155670706
 31
0.0
  0
ARC
  5
6C8
330
1C89
100
AcDbEntity
  8
1
  6
Continuous
100
AcDbCircle
 10
352.8377746859249
 20
168.0313155670707
 30
0.0
 40
3.25
100
AcDbArc
 50
90.0
 51
270.0
  0
LINE
  5
6C9
330
1C89
100
AcDbEntity
  8
4
  6
CENTER
100
AcDbLine
 10
353.3377746859249
 20
170.5313155670707
 30
0.0
 11
353.3377746859249
 21
165.5313155670707
 31
0.0
  0
CIRCLE
  5
6CA
330
1C89
100
AcDbEntity
  8
1
  6
Continuous
100
AcDbCircle
 10
369.3377746859249
 20
168.0313155670707
 30
0.0
 40
1.6
  0
LINE
  5
6CB
330
1C89
100
AcDbEntity
  8
4
  6
CENTER
100
AcDbLine
 10
371.8377746859249
 20
168.0313155670707
 30
0.0
 11
366.8377746859249
 21
168.0313155670707
 31
0.0
  0
LINE
  5
6CC
330
1C89
100
AcDbEntity
  8
1
  6
Continuous
100
AcDbLine
 10
369.8377746859249
 20
164.7813155670707
 30
0.0
 11
368.3377746859249
 21
164.7813155670707
 31
0.0
  0
LINE
  5
6CD
330
1C89
100
AcDbEntity
  8
1
  6
Continuous
100
AcDbLine
 10
354.3377746859249
 20
164.7813155670707
 30
0.0
 11
354.3377746859249
 21
155.7813155670707
 31
0.0
  0
LINE
  5
6CE
330
1C89
100
AcDbEntity
  8
1
  6
Continuous
100
AcDbLine
 10
368.3377746859249
 20
164.7813155670707
 30
0.0
 11
368.3377746859249
 21
155.7813155670707
 31
0.0
  0
LINE
  5
6CF
330
1C89
100
AcDbEntity
  8
1
  6
Continuous
100
AcDbLine
 10
368.3377746859249
 20
155.7813155670707
 30
0.0
 11
354.3377746859249
 21
155.7813155670707
 31
0.0
  0
ARC
  5
6D0
330
1C89
100
AcDbEntity
  8
1
  6
Continuous
100
AcDbCircle
 10
369.8377746859249
 20
168.0313155670707
 30
0.0
 40
3.25
100
AcDbArc
 50
270.0
 51
90.0
  0
LINE
  5
6D1
330
1C89
100
AcDbEntity
  8
4
  6
CENTER
100
AcDbLine
 10
369.3377746859249
 20
170.5313155670707
 30
0.0
 11
369.3377746859249
 21
165.5313155670707
 31
0.0
  0
LINE
  5
887
330
1C89
100
AcDbEntity
  8
1
  6
Continuous
100
AcDbLine
 10
51.43767468592489
 20
233.0313155670707
 30
0.0
 11
49.83767468592493
 21
233.0313155670707
 31
0.0
  0
LINE
  5
889
330
1C89
100
AcDbEntity
  8
4
  6
CENTER
100
AcDbLine
 10
28.75297268592488
 20
230.5313155670708
 30
0.0
 11
54.41152868592496
 21
230.5313155670708
 31
0.0
  0
ARC
  5
88B
330
1C89
100
AcDbEntity
  8
1
  6
Continuous
100
AcDbCircle
 10
54.83767468592493
 20
228.7539896030557
 30
0.0
 40
4.7
100
AcDbArc
 50
209.3925677389303
 51
102.9320132341863
  0
LINE
  5
88C
330
1C89
100
AcDbEntity
  8
4
  6
CENTER
100
AcDbLine
 10
20.23767468592495
 20
228.2313155670706
 30
0.0
 11
62.43767468592494
 21
228.2313155670706
 31
0.0
  0
LINE
  5
88D
330
1C89
100
AcDbEntity
  8
1
  6
Continuous
100
AcDbLine
 10
49.83767468592493
 20
226.4472731350584
 30
0.0
 11
49.83767468592493
 21
233.0313155670707
 31
0.0
  0
LINE
  5
892
330
1C89
100
AcDbEntity
  8
4
  6
CENTER
100
AcDbLine
 10
41.33767468592492
 20
216.6313155670706
 30
0.0
 11
41.33767468592492
 21
238.6313155670706
 31
0.0
  0
LINE
  5
894
330
1C89
100
AcDbEntity
  8
1
  6
Continuous
100
AcDbLine
 10
33.73767468592495
 20
227.6313155670707
 30
0.0
 11
48.93767468592495
 21
227.6313155670707
 31
0.0
  0
LINE
  5
895
330
1C89
100
AcDbEntity
  8
1
  6
Continuous
100
AcDbLine
 10
35.33767468592492
 20
221.6313155670707
 30
0.0
 11
47.33767468592492
 21
221.6313155670707
 31
0.0
  0
LINE
  5
896
330
1C89
100
AcDbEntity
  8
1
  6
Continuous
100
AcDbLine
 10
32.83767468592492
 20
229.0313155670708
 30
0.0
 11
49.83767468592493
 21
229.0313155670708
 31
0.0
  0
LINE
  5
8A7
330
1C89
100
AcDbEntity
  8
1
  6
Continuous
100
AcDbLine
 10
48.93767468592495
 20
226.7313155670708
 30
0.0
 11
49.83767468592493
 21
226.7313155670708
 31
0.0
  0
LINE
  5
8A8
330
1C89
100
AcDbEntity
  8
1
  6
Continuous
100
AcDbLine
 10
49.33767468592492
 20
224.6313155670706
 30
0.0
 11
49.33767468592492
 21
226.6313155670706
 31
0.0
  0
LINE
  5
8A9
330
1C89
100
AcDbEntity
  8
1
  6
Continuous
100
AcDbLine
 10
48.93767468592495
 20
224.6313155670706
 30
0.0
 11
49.33767468592492
 21
224.6313155670706
 31
0.0
  0
LINE
  5
8AA
330
1C89
100
AcDbEntity
  8
1
  6
Continuous
100
AcDbLine
 10
48.93767468592495
 20
226.6313155670706
 30
0.0
 11
49.33767468592492
 21
226.6313155670706
 31
0.0
  0
ARC
  5
8AB
330
1C89
100
AcDbEntity
  8
1
  6
Continuous
100
AcDbCircle
 10
47.33767468592492
 20
223.2313155670707
 30
0.0
 40
1.6
100
AcDbArc
 50
270.0
 51
0.0
  0
LINE
  5
8AC
330
1C89
100
AcDbEntity
  8
1
  6
Continuous
100
AcDbLine
 10
48.93767468592495
 20
223.2313155670707
 30
0.0
 11
48.93767468592495
 21
229.0313155670708
 31
0.0
  0
LINE
  5
8AD
330
1C89
100
AcDbEntity
  8
1
  6
Continuous
100
AcDbLine
 10
46.83767468592492
 20
227.6313155670707
 30
0.0
 11
46.83767468592492
 21
229.0313155670708
 31
0.0
  0
LINE
  5
8AE
330
1C89
100
AcDbEntity
  8
1
  6
Continuous
100
AcDbLine
 10
47.33767468592492
 20
227.6313155670707
 30
0.0
 11
47.33767468592492
 21
229.0313155670708
 31
0.0
  0
LINE
  5
8B0
330
1C89
100
AcDbEntity
  8
1
  6
Continuous
100
AcDbLine
 10
32.83767468592492
 20
232.0313155670707
 30
0.0
 11
49.83767468592493
 21
232.0313155670707
 31
0.0
  0
LINE
  5
8B1
330
1C89
100
AcDbEntity
  8
1
  6
Continuous
100
AcDbLine
 10
33.33767468592493
 20
233.6313155670706
 30
0.0
 11
49.33767468592492
 21
233.6313155670706
 31
0.0
  0
LINE
  5
8C3
330
1C89
100
AcDbEntity
  8
1
  6
Continuous
100
AcDbLine
 10
46.83767468592492
 20
232.0313155670707
 30
0.0
 11
46.83767468592492
 21
233.6313155670706
 31
0.0
  0
LINE
  5
8C6
330
1C89
100
AcDbEntity
  8
1
  6
Continuous
100
AcDbLine
 10
49.33767468592492
 20
232.0313155670707
 30
0.0
 11
49.33767468592492
 21
233.6313155670706
 31
0.0
  0
LINE
  5
8C7
330
1C89
100
AcDbEntity
  8
1
  6
Continuous
100
AcDbLine
 10
56.43767468592495
 20
223.9561675044057
 30
0.0
 11
56.43767468592495
 21
224.3347136442588
 31
0.0
  0
ARC
  5
8C8
330
1C89
100
AcDbEntity
  8
1
  6
Continuous
100
AcDbCircle
 10
54.83767468592493
 20
228.7539896030557
 30
0.0
 40
3.299999999999998
100
AcDbArc
 50
224.3472286461653
 51
240.9974539733287
  0
LINE
  5
8C9
330
1C89
100
AcDbEntity
  8
1
  6
Continuous
100
AcDbLine
 10
51.4376746859249
 20
226.4472731350584
 30
0.0
 11
51.43767468592489
 21
233.0313155670707
 31
0.0
  0
LINE
  5
8CB
330
1C89
100
AcDbEntity
  8
1
  6
Continuous
100
AcDbLine
 10
54.83767468592493
 20
224.3347802322843
 30
0.0
 11
54.83767468592493
 21
226.4472731350584
 31
0.0
  0
LINE
  5
8CD
330
1C89
100
AcDbEntity
  8
1
  6
Continuous
100
AcDbLine
 10
53.2376746859249
 20
224.3347802322843
 30
0.0
 11
53.2376746859249
 21
226.4472731350584
 31
0.0
  0
LINE
  5
8CF
330
1C89
100
AcDbEntity
  8
1
  6
Continuous
100
AcDbLine
 10
53.2376746859249
 20
224.3347802322843
 30
0.0
 11
54.83767468592493
 21
224.3347802322843
 31
0.0
  0
LINE
  5
8D0
330
1C89
100
AcDbEntity
  8
1
  6
Continuous
100
AcDbLine
 10
54.83767468592493
 20
231.4456997364758
 30
0.0
 11
54.83767468592493
 21
233.3347802322843
 31
0.0
  0
LINE
  5
8D3
330
1C89
100
AcDbEntity
  8
1
  6
Continuous
100
AcDbLine
 10
51.43767468592489
 20
229.5313155670708
 30
0.0
 11
52.33767468592493
 21
229.5313155670708
 31
0.0
  0
LINE
  5
8D4
330
1C89
100
AcDbEntity
  8
1
  6
Continuous
100
AcDbLine
 10
53.2376746859249
 20
231.4456997364758
 30
0.0
 11
53.2376746859249
 21
233.3347802322843
 31
0.0
  0
LINE
  5
8D5
330
1C89
100
AcDbEntity
  8
1
  6
Continuous
100
AcDbLine
 10
52.33767468592493
 20
229.5313155670708
 30
0.0
 11
52.33767468592493
 21
231.5313155670707
 31
0.0
  0
ARC
  5
8D6
330
1C89
100
AcDbEntity
  8
1
  6
Continuous
100
AcDbCircle
 10
54.83767468592493
 20
228.7539896030557
 30
0.0
 40
4.7
100
AcDbArc
 50
109.9030000000008
 51
135.402043338522
  0
LINE
  5
8D8
330
1C89
100
AcDbEntity
  8
1
  6
Continuous
100
AcDbLine
 10
51.43767468592489
 20
231.5313155670707
 30
0.0
 11
52.33767468592493
 21
231.5313155670707
 31
0.0
  0
LINE
  5
8D9
330
1C89
100
AcDbEntity
  8
1
  6
Continuous
100
AcDbLine
 10
52.33767468592493
 20
231.4456997364758
 30
0.0
 11
56.43767468592495
 21
231.4456997364758
 31
0.0
  0
LINE
  5
8DA
330
1C89
100
AcDbEntity
  8
1
  6
Continuous
100
AcDbLine
 10
53.2376746859249
 20
233.3347802322843
 30
0.0
 11
54.83767468592493
 21
233.3347802322843
 31
0.0
  0
LINE
  5
8DF
330
1C89
100
AcDbEntity
  8
4
  6
CENTER
100
AcDbLine
 10
181.0576436859249
 20
116.0313155670707
 30
0.0
 11
186.1476626859248
 21
116.0313155670707
 31
0.0
  0
LINE
  5
8E1
330
1C89
100
AcDbEntity
  8
1
  6
Continuous
100
AcDbLine
 10
184.3377746859248
 20
133.0284444670227
 30
0.0
 11
184.3377746859249
 21
110.0313155670707
 31
0.0
  0
LINE
  5
8E2
330
1C89
100
AcDbEntity
  8
1
  6
Continuous
100
AcDbLine
 10
173.8377746859248
 20
109.4223155670706
 30
0.0
 11
175.1497746859249
 21
114.5413155670707
 31
0.0
  0
LINE
  5
8E3
330
1C89
100
AcDbEntity
  8
1
  6
Continuous
100
AcDbLine
 10
175.3887746859249
 20
109.0313155670707
 30
0.0
 11
176.6997746859248
 21
114.1433155670707
 31
0.0
  0
LINE
  5
8E4
330
1C89
100
AcDbEntity
  8
1
  6
Continuous
100
AcDbLine
 10
182.3377746859248
 20
123.0313155670707
 30
0.0
 11
182.3377746859248
 21
110.0313155670707
 31
0.0
  0
LINE
  5
8E5
330
1C89
100
AcDbEntity
  8
1
  6
Continuous
100
AcDbLine
 10
173.8377746859248
 20
109.4223155670706
 30
0.0
 11
175.3887746859249
 21
109.0313155670707
 31
0.0
  0
LINE
  5
8E6
330
1C89
100
AcDbEntity
  8
1
  6
Continuous
100
AcDbLine
 10
182.3377746859248
 20
110.0313155670707
 30
0.0
 11
184.3377746859249
 21
110.0313155670707
 31
0.0
  0
LINE
  5
8E7
330
1C89
100
AcDbEntity
  8
1
  6
Continuous
100
AcDbLine
 10
177.1537322539124
 20
155.5275450130309
 30
0.0
 11
176.9578574418198
 21
147.7226528142058
 31
0.0
  0
LINE
  5
8E8
330
1C89
100
AcDbEntity
  8
1
  6
Continuous
100
AcDbLine
 10
182.1521588553299
 20
155.4021021440918
 30
0.0
 11
181.9730330943542
 21
148.2646283900287
 31
0.0
  0
LINE
  5
8E9
330
1C89
100
AcDbEntity
  8
1
  6
Continuous
100
AcDbLine
 10
176.5976813074826
 20
133.4345411452283
 30
0.0
 11
176.4133967034457
 21
126.0914817151677
 31
0.0
  0
LINE
  5
8EA
330
1C89
100
AcDbEntity
  8
1
  6
Continuous
100
AcDbLine
 10
181.5961069232022
 20
133.3090988585273
 30
0.0
 11
181.4118223052632
 21
125.9660388745062
 31
0.0
  0
LINE
  5
8EB
330
1C89
100
AcDbEntity
  8
1
  6
Continuous
100
AcDbLine
 10
172.3377746859248
 20
142.9313155670705
 30
0.0
 11
172.3377746859248
 21
123.0313155670707
 31
0.0
  0
ARC
  5
8EC
330
1C89
100
AcDbEntity
  8
1
  6
Continuous
100
AcDbCircle
 10
178.3377746859248
 20
133.0284444670225
 30
0.0
 40
6.000000000000026
100
AcDbArc
 50
0.0
 51
27.6566752031639
  0
LINE
  5
8ED
330
1C89
100
AcDbEntity
  8
1
  6
Continuous
100
AcDbLine
 10
182.3377746859248
 20
129.5313155670707
 30
0.0
 11
182.3377746859248
 21
133.3846948719172
 31
0.0
  0
LINE
  5
8EE
330
1C89
100
AcDbEntity
  8
1
  6
Continuous
100
AcDbLine
 10
172.3377746859249
 20
123.0313155670707
 30
0.0
 11
174.596774685925
 21
118.9203155670707
 31
0.0
  0
LINE
  5
8EF
330
1C89
100
AcDbEntity
  8
1
  6
Continuous
100
AcDbLine
 10
174.1637746859248
 20
123.0313155670707
 30
0.0
 11
175.9987746859249
 21
119.6903155670707
 31
0.0
  0
ARC
  5
8F0
330
1C89
100
AcDbEntity
  8
1
  6
Continuous
100
AcDbCircle
 10
169.3377746859248
 20
116.0313155670707
 30
0.0
 40
7.599999999999997
100
AcDbArc
 50
345.6219999999996
 51
28.78539999999894
  0
ARC
  5
8F1
330
1C89
100
AcDbEntity
  8
1
  6
Continuous
100
AcDbCircle
 10
169.3377746859248
 20
116.0313155670707
 30
0.0
 40
6.0
100
AcDbArc
 50
345.6219999999996
 51
28.78539999999894
  0
LINE
  5
8F2
330
1C89
100
AcDbEntity
  8
1
  6
Continuous
100
AcDbLine
 10
172.3377746859248
 20
123.0313155670707
 30
0.0
 11
182.3377746859248
 21
123.0313155670707
 31
0.0
  0
ARC
  5
8F3
330
1C89
100
AcDbEntity
  8
1
  6
Continuous
100
AcDbCircle
 10
178.9126095043544
 20
126.0287602948368
 30
0.0
 40
2.5
100
AcDbArc
 50
178.5623810620226
 51
358.5623910620232
  0
LINE
  5
8F4
330
1C89
100
AcDbEntity
  8
1
  6
Continuous
100
AcDbLine
 10
183.8377746859248
 20
129.0313155670707
 30
0.0
 11
183.8377746859248
 21
124.5313155670707
 31
0.0
  0
LINE
  5
8F5
330
1C89
100
AcDbEntity
  8
4
  6
CENTER
100
AcDbLine
 10
176.9377792655008
 20
127.0313155670707
 30
0.0
 11
186.1476626859248
 21
127.0313155670707
 31
0.0
  0
LINE
  5
8F6
330
1C89
100
AcDbEntity
  8
1
  6
Continuous
100
AcDbLine
 10
182.3377746859248
 20
129.5313155670707
 30
0.0
 11
183.8377746859248
 21
129.0313155670707
 31
0.0
  0
ARC
  5
8F7
330
1C89
100
AcDbEntity
  8
1
  6
Continuous
100
AcDbCircle
 10
182.3377746859248
 20
124.5313155670707
 30
0.0
 40
1.5
100
AcDbArc
 50
270.0
 51
0.0
  0
CIRCLE
  5
8F8
330
1C89
100
AcDbEntity
  8
1
  6
Continuous
100
AcDbCircle
 10
178.9377792655008
 20
127.0313155670707
 30
0.0
 40
1.0
  0
LINE
  5
8F9
330
1C89
100
AcDbEntity
  8
4
  6
CENTER
100
AcDbLine
 10
178.9377792655008
 20
125.0313155670707
 30
0.0
 11
178.9377792655008
 21
129.0313155670707
 31
0.0
  0
LINE
  5
8FA
330
1C89
100
AcDbEntity
  8
1
  6
Continuous
100
AcDbLine
 10
184.3377746859248
 20
132.5313155670707
 30
0.0
 11
182.3377746859248
 21
132.5313155670707
 31
0.0
  0
LINE
  5
8FB
330
1C89
100
AcDbEntity
  8
1
  6
Continuous
100
AcDbLine
 10
184.3377746859249
 20
129.5313155670707
 30
0.0
 11
182.3377746859248
 21
129.5313155670707
 31
0.0
  0
LINE
  5
8FC
330
1C89
100
AcDbEntity
  8
1
  6
Continuous
100
AcDbLine
 10
175.3377746859248
 20
144.1191585910665
 30
0.0
 11
175.3377746859248
 21
143.4855306092738
 31
0.0
  0
ARC
  5
8FD
330
1C89
100
AcDbEntity
  8
1
  6
Continuous
100
AcDbCircle
 10
176.4377746859248
 20
142.9313155670705
 30
0.0
 40
4.099999999999996
100
AcDbArc
 50
114.1535332456321
 51
180.0
  0
ARC
  5
8FE
330
1C89
100
AcDbEntity
  8
1
  6
Continuous
100
AcDbCircle
 10
176.4377746859248
 20
142.9313155670705
 30
0.0
 40
2.5
100
AcDbArc
 50
134.3020796320584
 51
225.9819834816376
  0
LINE
  5
8FF
330
1C89
100
AcDbEntity
  8
1
  6
Continuous
100
AcDbLine
 10
183.2828209257891
 20
144.3441288537071
 30
0.0
 11
175.2584874291255
 21
143.4769622639882
 31
0.0
  0
LINE
  5
900
330
1C89
100
AcDbEntity
  8
1
  6
Continuous
100
AcDbLine
 10
175.2748145187763
 20
144.1262820247908
 30
0.0
 11
176.8628634684766
 21
143.937491702576
 31
0.0
  0
ARC
  5
901
330
1C89
100
AcDbEntity
  8
1
  6
Continuous
100
AcDbCircle
 10
175.3849061924352
 20
144.8175700894642
 30
0.0
 40
0.7
100
AcDbArc
 50
96.16785406202154
 51
276.1678540620215
  0
ARC
  5
902
330
1C89
100
AcDbEntity
  8
1
  6
Continuous
100
AcDbCircle
 10
183.3580306562875
 20
143.6481804008152
 30
0.0
 40
0.7
100
AcDbArc
 50
276.1678540620215
 51
96.16785406202154
  0
LINE
  5
903
330
1C89
100
AcDbEntity
  8
1
  6
Continuous
100
AcDbLine
 10
176.8713117984275
 20
144.274126637005
 30
0.0
 11
176.8556374567819
 21
143.6495616634684
 31
0.0
  0
LINE
  5
904
330
1C89
100
AcDbEntity
  8
1
  6
Continuous
100
AcDbLine
 10
174.5999051746515
 20
133.5398728136911
 30
0.0
 11
183.5970720858801
 21
133.3140766774787
 31
0.0
  0
LINE
  5
905
330
1C89
100
AcDbEntity
  8
1
  6
Continuous
100
AcDbLine
 10
183.2796143131737
 20
136.897758847595
 30
0.0
 11
175.2552801880861
 21
136.0305672657758
 31
0.0
  0
LINE
  5
906
330
1C89
100
AcDbEntity
  8
1
  6
Continuous
100
AcDbLine
 10
183.215400549182
 20
138.2989714355775
 30
0.0
 11
175.104857677763
 21
137.422462247602
 31
0.0
  0
LINE
  5
907
330
1C89
100
AcDbEntity
  8
1
  6
Continuous
100
AcDbLine
 10
183.3308213466168
 20
138.8791204160094
 30
0.0
 11
175.3064878499534
 21
138.0119538262908
 31
0.0
  0
LINE
  5
908
330
1C89
100
AcDbEntity
  8
1
  6
Continuous
100
AcDbLine
 10
183.1804028601668
 20
140.2710162969718
 30
0.0
 11
175.1560693635034
 21
139.403849707253
 31
0.0
  0
LINE
  5
909
330
1C89
100
AcDbEntity
  8
1
  6
Continuous
100
AcDbLine
 10
183.382030379428
 20
140.9156766943769
 30
0.0
 11
175.3576968827645
 21
140.0485101046583
 31
0.0
  0
LINE
  5
90A
330
1C89
100
AcDbEntity
  8
1
  6
Continuous
100
AcDbLine
 10
183.2316118929781
 20
142.3075725753394
 30
0.0
 11
175.2072789768976
 21
141.4404060483628
 31
0.0
  0
LINE
  5
90B
330
1C89
100
AcDbEntity
  8
1
  6
Continuous
100
AcDbLine
 10
183.4332394122389
 20
142.9522329727447
 30
0.0
 11
175.4089059155754
 21
142.085066383026
 31
0.0
  0
LINE
  5
90C
330
1C89
100
AcDbEntity
  8
1
  6
Continuous
100
AcDbLine
 10
174.66262662326
 20
136.0390866142001
 30
0.0
 11
176.6619973609511
 21
135.988909464187
 31
0.0
  0
LINE
  5
90D
330
1C89
100
AcDbEntity
  8
1
  6
Continuous
100
AcDbLine
 10
174.6626266232599
 20
136.0390866142
 30
0.0
 11
174.5999051746515
 21
133.5398728136911
 31
0.0
  0
ARC
  5
90E
330
1C89
100
AcDbEntity
  8
1
  6
Continuous
100
AcDbCircle
 10
180.3377746859249
 20
142.0313155670707
 30
0.0
 40
5.0
100
AcDbArc
 50
179.4864665276933
 51
186.5833721811955
  0
LINE
  5
910
330
1C89
100
AcDbEntity
  8
1
  6
Continuous
100
AcDbLine
 10
175.2236054859654
 20
142.0897257464234
 30
0.0
 11
176.8117529135411
 21
141.9009237169686
 31
0.0
  0
LINE
  5
911
330
1C89
100
AcDbEntity
  8
1
  6
Continuous
100
AcDbLine
 10
175.1723964531541
 20
140.0531694680556
 30
0.0
 11
176.7606423586055
 21
139.8643557313611
 31
0.0
  0
ARC
  5
912
330
1C89
100
AcDbEntity
  8
1
  6
Continuous
100
AcDbCircle
 10
175.3336971596241
 20
142.7810138110965
 30
0.0
 40
0.7
100
AcDbArc
 50
96.16785406202154
 51
276.1678540620215
  0
ARC
  5
913
330
1C89
100
AcDbEntity
  8
1
  6
Continuous
100
AcDbCircle
 10
175.2312795013035
 20
138.7079015690294
 30
0.0
 40
0.7000002685176434
100
AcDbArc
 50
96.16793733018967
 51
276.2419546705424
  0
ARC
  5
914
330
1C89
100
AcDbEntity
  8
1
  6
Continuous
100
AcDbCircle
 10
175.1800694327666
 20
136.7265147441202
 30
0.0
 40
0.7
100
AcDbArc
 50
96.16803306202076
 51
276.1680330620206
  0
ARC
  5
915
330
1C89
100
AcDbEntity
  8
1
  6
Continuous
100
AcDbCircle
 10
175.2824881268128
 20
140.7444575327289
 30
0.0
 40
0.7
100
AcDbArc
 50
96.16785406202154
 51
276.1678540620215
  0
LINE
  5
916
330
1C89
100
AcDbEntity
  8
1
  6
Continuous
100
AcDbLine
 10
176.8202018059083
 20
142.237581061636
 30
0.0
 11
176.8045274642627
 21
141.6130160880997
 31
0.0
  0
LINE
  5
917
330
1C89
100
AcDbEntity
  8
1
  6
Continuous
100
AcDbLine
 10
176.7690918133893
 20
140.2010354862673
 30
0.0
 11
176.7534174717438
 21
139.5764705127308
 31
0.0
  0
LINE
  5
918
330
1C89
100
AcDbEntity
  8
1
  6
Continuous
100
AcDbLine
 10
176.7179818208704
 20
138.1644899108985
 30
0.0
 11
176.7036959211848
 21
137.5952492524503
 31
0.0
  0
LINE
  5
919
330
1C89
100
AcDbEntity
  8
1
  6
Continuous
100
AcDbLine
 10
176.6668713047749
 20
136.183118233156
 30
0.0
 11
176.6619973609511
 21
135.988909464187
 31
0.0
  0
LINE
  5
91A
330
1C89
100
AcDbEntity
  8
1
  6
Continuous
100
AcDbLine
 10
181.6604218800999
 20
135.8634666506966
 30
0.0
 11
183.859730180669
 21
135.8082717734072
 31
0.0
  0
ARC
  5
91B
330
1C89
100
AcDbEntity
  8
1
  6
Continuous
100
AcDbCircle
 10
183.2044035578541
 20
137.5937063259394
 30
0.0
 40
0.7
100
AcDbArc
 50
276.1131422267456
 51
82.04478557306044
  0
LINE
  5
91C
330
1C89
100
AcDbEntity
  8
1
  6
Continuous
100
AcDbLine
 10
181.681340935775
 20
136.6970106927507
 30
0.0
 11
183.2384722941968
 21
136.5212210535031
 31
0.0
  0
ARC
  5
91D
330
1C89
100
AcDbEntity
  8
1
  6
Continuous
100
AcDbCircle
 10
183.1599456864349
 20
135.8256401822972
 30
0.0
 40
0.7
100
AcDbArc
 50
358.5782304835293
 51
83.55896106202145
  0
LINE
  5
91E
330
1C89
100
AcDbEntity
  8
1
  6
Continuous
100
AcDbLine
 10
181.8281548789634
 20
142.491787821167
 30
0.0
 11
183.416912322588
 21
142.3029132119422
 31
0.0
  0
LINE
  5
91F
330
1C89
100
AcDbEntity
  8
1
  6
Continuous
100
AcDbLine
 10
181.777044108098
 20
140.4552198612263
 30
0.0
 11
183.3657032897771
 21
140.2663569335746
 31
0.0
  0
ARC
  5
921
330
1C89
100
AcDbEntity
  8
1
  6
Continuous
100
AcDbCircle
 10
183.2556125906654
 20
139.5750678440801
 30
0.0
 40
0.7
100
AcDbArc
 50
276.1678540620215
 51
96.16785406202154
  0
ARC
  5
922
330
1C89
100
AcDbEntity
  8
1
  6
Continuous
100
AcDbCircle
 10
183.3068216234764
 20
141.6116241224476
 30
0.0
 40
0.7
100
AcDbArc
 50
276.1678540620215
 51
96.16785406202154
  0
LINE
  5
923
330
1C89
100
AcDbEntity
  8
1
  6
Continuous
100
AcDbLine
 10
181.6820461129466
 20
136.7251092952429
 30
0.0
 11
181.6604218801001
 21
135.8634666506966
 31
0.0
  0
LINE
  5
924
330
1C89
100
AcDbEntity
  8
1
  6
Continuous
100
AcDbLine
 10
181.7331564542002
 20
138.7064653765789
 30
0.0
 11
181.7188709015003
 21
138.1372409562414
 31
0.0
  0
LINE
  5
925
330
1C89
100
AcDbEntity
  8
1
  6
Continuous
100
AcDbLine
 10
181.78426666388
 20
140.7430109754155
 30
0.0
 11
181.7685922556358
 21
140.118445994682
 31
0.0
  0
LINE
  5
926
330
1C89
100
AcDbEntity
  8
1
  6
Continuous
100
AcDbLine
 10
181.8353768735597
 20
142.7795565742522
 30
0.0
 11
181.8197024653156
 21
142.1549915935187
 31
0.0
  0
LINE
  5
927
330
1C89
100
AcDbEntity
  8
1
  6
Continuous
100
AcDbLine
 10
183.5970720858801
 20
133.3140766774787
 30
0.0
 11
183.667766036505
 21
135.8130893960076
 31
0.0
  0
ARC
  5
928
330
1C89
100
AcDbEntity
  8
1
  6
Continuous
100
AcDbCircle
 10
178.3377746859248
 20
133.0284444670225
 30
0.0
 40
6.000000000000026
100
AcDbArc
 50
35.51154690214604
 51
39.71750573668128
  0
LINE
  5
929
330
1C89
100
AcDbEntity
  8
1
  6
Continuous
100
AcDbLine
 10
182.3377746859248
 20
136.6371817815207
 30
0.0
 11
182.3377746859248
 21
136.7959740286378
 31
0.0
  0
LINE
  5
92A
330
1C89
100
AcDbEntity
  8
1
  6
Continuous
100
AcDbLine
 10
182.3377746859248
 20
138.4085228881632
 30
0.0
 11
182.3377746859248
 21
138.7718047259846
 31
0.0
  0
LINE
  5
92B
330
1C89
100
AcDbEntity
  8
1
  6
Continuous
100
AcDbLine
 10
182.3377746859248
 20
140.388559107445
 30
0.0
 11
182.3377746859248
 21
140.8028269917934
 31
0.0
  0
LINE
  5
92C
330
1C89
100
AcDbEntity
  8
1
  6
Continuous
100
AcDbLine
 10
182.3377746859248
 20
142.4312032163368
 30
0.0
 11
182.3377746859248
 21
142.8338492576025
 31
0.0
  0
LINE
  5
92D
330
1C89
100
AcDbEntity
  8
1
  6
Continuous
100
AcDbLine
 10
183.4844484450501
 20
144.9887892511122
 30
0.0
 11
175.4601149483867
 21
144.1216226613937
 31
0.0
  0
LINE
  5
92E
330
1C89
100
AcDbEntity
  8
1
  6
Continuous
100
AcDbLine
 10
183.3340299586003
 20
146.3806851320748
 30
0.0
 11
175.3096964619367
 21
145.5135185423561
 31
0.0
  0
LINE
  5
92F
330
1C89
100
AcDbEntity
  8
1
  6
Continuous
100
AcDbLine
 10
183.5356574778612
 20
147.0253455294798
 30
0.0
 11
175.5113239811979
 21
146.1581789397611
 31
0.0
  0
LINE
  5
930
330
1C89
100
AcDbEntity
  8
1
  6
Continuous
100
AcDbLine
 10
183.3852389914114
 20
148.4172414104422
 30
0.0
 11
175.3609054947478
 21
147.5500748207234
 31
0.0
  0
LINE
  5
931
330
1C89
100
AcDbEntity
  8
1
  6
Continuous
100
AcDbLine
 10
175.0412393514186
 20
151.1337898989076
 30
0.0
 11
174.9785179028104
 21
148.6345760983987
 31
0.0
  0
LINE
  5
932
330
1C89
100
AcDbEntity
  8
1
  6
Continuous
100
AcDbLine
 10
175.0412393511385
 20
151.1337898877457
 30
0.0
 11
177.0422044820687
 21
151.0835727272823
 31
0.0
  0
LINE
  5
933
330
1C89
100
AcDbEntity
  8
1
  6
Continuous
100
AcDbLine
 10
174.7807936567072
 20
148.6397633975241
 30
0.0
 11
176.9794861507033
 21
148.584477463488
 31
0.0
  0
LINE
  5
934
330
1C89
100
AcDbEntity
  8
1
  6
Continuous
100
AcDbLine
 10
175.3260235515875
 20
146.1628383031585
 30
0.0
 11
176.9139740234124
 21
145.9740596881834
 31
0.0
  0
ARC
  5
935
330
1C89
100
AcDbEntity
  8
1
  6
Continuous
100
AcDbCircle
 10
175.4361152252462
 20
146.8541263678319
 30
0.0
 40
0.7
100
AcDbArc
 50
96.16785406202154
 51
276.1678540620215
  0
ARC
  5
936
330
1C89
100
AcDbEntity
  8
1
  6
Continuous
100
AcDbCircle
 10
175.4805724682412
 20
148.6221675193736
 30
0.0
 40
0.7
100
AcDbArc
 50
178.5596060620232
 51
263.5589610620214
  0
LINE
  5
937
330
1C89
100
AcDbEntity
  8
1
  6
Continuous
100
AcDbLine
 10
175.4020458604794
 20
147.926586648168
 30
0.0
 11
177.0859034909086
 21
147.7364905042225
 31
0.0
  0
LINE
  5
938
330
1C89
100
AcDbEntity
  8
1
  6
Continuous
100
AcDbLine
 10
176.9224217909464
 20
146.3106722123735
 30
0.0
 11
176.9067474493008
 21
145.6861072388372
 31
0.0
  0
LINE
  5
939
330
1C89
100
AcDbEntity
  8
1
  6
Continuous
100
AcDbLine
 10
184.0384062343698
 20
150.9079927630949
 30
0.0
 11
183.9756848140392
 21
148.4087799621861
 31
0.0
  0
LINE
  5
93A
330
1C89
100
AcDbEntity
  8
1
  6
Continuous
100
AcDbLine
 10
182.0406306113999
 20
150.9581298781688
 30
0.0
 11
184.0384062343698
 21
150.9079927630949
 31
0.0
  0
LINE
  5
93B
330
1C89
100
AcDbEntity
  8
1
  6
Continuous
100
AcDbLine
 10
181.9779090645811
 20
148.4589170804345
 30
0.0
 11
183.9756848140392
 21
148.4087799621861
 31
0.0
  0
LINE
  5
93C
330
1C89
100
AcDbEntity
  8
1
  6
Continuous
100
AcDbLine
 10
181.9303764206946
 20
146.564923741049
 30
0.0
 11
183.5193303882103
 21
146.3760257686774
 31
0.0
  0
LINE
  5
93D
330
1C89
100
AcDbEntity
  8
1
  6
Continuous
100
AcDbLine
 10
181.8792656498291
 20
144.528355781108
 30
0.0
 11
183.4681213553992
 21
144.3394694903098
 31
0.0
  0
ARC
  5
93E
330
1C89
100
AcDbEntity
  8
1
  6
Continuous
100
AcDbCircle
 10
183.4092396890986
 20
145.6847366791828
 30
0.0
 40
0.7
100
AcDbArc
 50
276.1678540620215
 51
96.16785406202154
  0
ARC
  5
93F
330
1C89
100
AcDbEntity
  8
1
  6
Continuous
100
AcDbCircle
 10
183.4604487219098
 20
147.7212929575506
 30
0.0
 40
0.7
100
AcDbArc
 50
276.1678540620215
 51
96.16785406202154
  0
LINE
  5
940
330
1C89
100
AcDbEntity
  8
1
  6
Continuous
100
AcDbLine
 10
181.8864870832391
 20
144.8161021730888
 30
0.0
 11
181.8708126749952
 21
144.1915371923554
 31
0.0
  0
LINE
  5
941
330
1C89
100
AcDbEntity
  8
1
  6
Continuous
100
AcDbLine
 10
181.9375972929187
 20
146.8526477719256
 30
0.0
 11
181.9219228846747
 21
146.2280827911921
 31
0.0
  0
ARC
  5
942
330
1C89
100
AcDbEntity
  8
1
  6
Continuous
100
AcDbCircle
 10
180.8377746859248
 20
143.5313155670707
 30
0.0
 40
1.5
100
AcDbArc
 50
41.1234294437284
 51
45.9190421108781
  0
LINE
  5
943
330
1C89
100
AcDbEntity
  8
1
  6
Continuous
100
AcDbLine
 10
177.1537322539124
 20
155.582739773258
 30
0.0
 11
178.9301883633224
 21
159.8435119693731
 31
0.0
  0
LINE
  5
944
330
1C89
100
AcDbEntity
  8
1
  6
Continuous
100
AcDbLine
 10
177.1537322539124
 20
155.582739773258
 30
0.0
 11
182.1521588553299
 21
155.4572969043188
 31
0.0
  0
LINE
  5
945
330
1C89
100
AcDbEntity
  8
1
  6
Continuous
100
AcDbLine
 10
182.1521588553299
 20
155.4572969043188
 30
0.0
 11
183.4051769620255
 21
157.6345464137949
 31
0.0
  0
ARC
  5
946
330
1C89
100
AcDbEntity
  8
1
  6
Continuous
100
AcDbCircle
 10
181.2377746859249
 20
158.8813155670706
 30
0.0
 40
2.5
100
AcDbArc
 50
330.0883810620228
 51
157.3653810620227
  0
CIRCLE
  5
947
330
1C89
100
AcDbEntity
  8
1
  6
Continuous
100
AcDbCircle
 10
181.2377746859249
 20
158.8813155670706
 30
0.0
 40
1.0
  0
LINE
  5
94D
330
1C89
100
AcDbEntity
  8
4
  6
CENTER
100
AcDbLine
 10
41.33767468592492
 20
59.63081556707074
 30
0.0
 11
41.33767468592492
 21
37.53081556707073
 31
0.0
  0
LINE
  5
94E
330
1C89
100
AcDbEntity
  8
1
  6
Continuous
100
AcDbLine
 10
51.43767468592489
 20
49.99069856717539
 30
0.0
 11
54.83767468592493
 21
49.99069856717539
 31
0.0
  0
ARC
  5
94F
330
1C89
100
AcDbEntity
  8
1
  6
Continuous
100
AcDbCircle
 10
54.83767468592493
 20
47.78852082022903
 30
0.0
 40
4.7
100
AcDbArc
 50
77.03391107829334
 51
142.9558190900618
  0
LINE
  5
950
330
1C89
100
AcDbEntity
  8
4
  6
CENTER
100
AcDbLine
 10
62.43767468592494
 20
48.03081556707073
 30
0.0
 11
20.23767468592495
 21
48.03081556707073
 31
0.0
  0
LINE
  5
951
330
1C89
100
AcDbEntity
  8
1
  6
Continuous
100
AcDbLine
 10
51.43767468592489
 20
43.23081556707069
 30
0.0
 11
49.83767468592493
 21
43.23081556707069
 31
0.0
  0
LINE
  5
952
330
1C89
100
AcDbEntity
  8
1
  6
Continuous
100
AcDbLine
 10
49.83767468592493
 20
44.63081556707066
 30
0.0
 11
54.83767468592493
 21
44.63081556707066
 31
0.0
  0
LINE
  5
954
330
1C89
100
AcDbEntity
  8
4
  6
CENTER
100
AcDbLine
 10
23.11617468592493
 20
45.73081556707069
 30
0.0
 11
59.33767468592492
 21
45.73081556707069
 31
0.0
  0
LINE
  5
955
330
1C89
100
AcDbEntity
  8
1
  6
Continuous
100
AcDbLine
 10
35.33767468592492
 20
54.63081556707074
 30
0.0
 11
47.33767468592492
 21
54.63081556707074
 31
0.0
  0
LINE
  5
956
330
1C89
100
AcDbEntity
  8
1
  6
Continuous
100
AcDbLine
 10
47.33767468592492
 20
50.03081556707073
 30
0.0
 11
35.33767468592492
 21
50.03081556707073
 31
0.0
  0
LINE
  5
957
330
1C89
100
AcDbEntity
  8
1
  6
Continuous
100
AcDbLine
 10
35.33767468592492
 20
49.63081556707074
 30
0.0
 11
47.33767468592492
 21
49.63081556707074
 31
0.0
  0
LINE
  5
958
330
1C89
100
AcDbEntity
  8
1
  6
Continuous
100
AcDbLine
 10
47.33767468592492
 20
49.53081556707072
 30
0.0
 11
35.33767468592492
 21
49.53081556707072
 31
0.0
  0
ARC
  5
959
330
1C89
100
AcDbEntity
  8
1
  6
Continuous
100
AcDbCircle
 10
41.33767468592492
 20
39.18281556707071
 30
0.0
 40
12.3968
100
AcDbArc
 50
61.05320000000014
 51
118.9470000000009
  0
ARC
  5
95A
330
1C89
100
AcDbEntity
  8
1
  6
Continuous
100
AcDbCircle
 10
41.33767468592492
 20
40.38081556707072
 30
0.0
 40
12.75
100
AcDbArc
 50
61.92750000000106
 51
118.0720000000003
  0
LINE
  5
95B
330
1C89
100
AcDbEntity
  8
1
  6
Continuous
100
AcDbLine
 10
35.33767468592492
 20
44.63081556707072
 30
0.0
 11
35.83767468592493
 21
44.63081556707072
 31
0.0
  0
LINE
  5
95C
330
1C89
100
AcDbEntity
  8
1
  6
Continuous
100
AcDbLine
 10
35.33767468592492
 20
44.23081556707072
 30
0.0
 11
35.83767468592493
 21
44.23081556707072
 31
0.0
  0
LINE
  5
95D
330
1C89
100
AcDbEntity
  8
1
  6
Continuous
100
AcDbLine
 10
33.73767468592495
 20
42.63081556707072
 30
0.0
 11
48.93767468592495
 21
42.63081556707072
 31
0.0
  0
LINE
  5
95E
330
1C89
100
AcDbEntity
  8
1
  6
Continuous
100
AcDbLine
 10
47.33767468592492
 20
46.53081556707072
 30
0.0
 11
35.33767468592492
 21
46.53081556707072
 31
0.0
  0
LINE
  5
963
330
1C89
100
AcDbEntity
  8
1
  6
Continuous
100
AcDbLine
 10
33.73767468592495
 20
53.03081556707073
 30
0.0
 11
33.73767468592495
 21
42.63081556707072
 31
0.0
  0
LINE
  5
964
330
1C89
100
AcDbEntity
  8
1
  6
Continuous
100
AcDbLine
 10
35.33767468592492
 20
54.63081556707074
 30
0.0
 11
35.33767468592492
 21
43.13081556707071
 31
0.0
  0
LINE
  5
96C
330
1C89
100
AcDbEntity
  8
1
  6
Continuous
100
AcDbLine
 10
32.83767468592492
 20
46.53081556707072
 30
0.0
 11
33.73767468592495
 21
46.53081556707072
 31
0.0
  0
LINE
  5
96D
330
1C89
100
AcDbEntity
  8
1
  6
Continuous
100
AcDbLine
 10
32.83767468592492
 20
45.13081556707072
 30
0.0
 11
33.73767468592495
 21
45.13081556707072
 31
0.0
  0
LINE
  5
96F
330
1C89
100
AcDbEntity
  8
1
  6
Continuous
100
AcDbLine
 10
33.73767468592495
 20
43.13081556707071
 30
0.0
 11
35.33767468592492
 21
43.13081556707071
 31
0.0
  0
ARC
  5
977
330
1C89
100
AcDbEntity
  8
1
  6
Continuous
100
AcDbCircle
 10
35.33767468592492
 20
53.03081556707073
 30
0.0
 40
1.6
100
AcDbArc
 50
90.0
 51
180.0
  0
LINE
  5
978
330
1C89
100
AcDbEntity
  8
1
  6
Continuous
100
AcDbLine
 10
32.83767468592492
 20
49.53081556707072
 30
0.0
 11
33.73767468592495
 21
49.53081556707072
 31
0.0
  0
LINE
  5
97F
330
1C89
100
AcDbEntity
  8
1
  6
Continuous
100
AcDbLine
 10
49.83767468592493
 20
50.61994498749482
 30
0.0
 11
49.83767468592493
 21
43.23081556707069
 31
0.0
  0
LINE
  5
980
330
1C89
100
AcDbEntity
  8
1
  6
Continuous
100
AcDbLine
 10
48.93767468592495
 20
53.03081556707073
 30
0.0
 11
48.93767468592495
 21
42.63081556707072
 31
0.0
  0
LINE
  5
981
330
1C89
100
AcDbEntity
  8
1
  6
Continuous
100
AcDbLine
 10
47.33767468592492
 20
54.63081556707074
 30
0.0
 11
47.33767468592492
 21
43.13081556707071
 31
0.0
  0
LINE
  5
982
330
1C89
100
AcDbEntity
  8
1
  6
Continuous
100
AcDbLine
 10
35.83767468592493
 20
44.63081556707072
 30
0.0
 11
46.83767468592492
 21
44.63081556707072
 31
0.0
  0
LINE
  5
983
330
1C89
100
AcDbEntity
  8
1
  6
Continuous
100
AcDbLine
 10
35.83767468592493
 20
46.53081556707072
 30
0.0
 11
35.83767468592493
 21
42.63081556707072
 31
0.0
  0
LINE
  5
984
330
1C89
100
AcDbEntity
  8
1
  6
Continuous
100
AcDbLine
 10
47.33767468592492
 20
43.13081556707071
 30
0.0
 11
48.93767468592495
 21
43.13081556707071
 31
0.0
  0
LINE
  5
985
330
1C89
100
AcDbEntity
  8
1
  6
Continuous
100
AcDbLine
 10
46.83767468592492
 20
44.63081556707072
 30
0.0
 11
47.33767468592492
 21
44.63081556707072
 31
0.0
  0
LINE
  5
986
330
1C89
100
AcDbEntity
  8
1
  6
Continuous
100
AcDbLine
 10
48.93767468592495
 20
46.53081556707072
 30
0.0
 11
49.83767468592493
 21
46.53081556707072
 31
0.0
  0
LINE
  5
987
330
1C89
100
AcDbEntity
  8
1
  6
Continuous
100
AcDbLine
 10
46.83767468592492
 20
46.53081556707072
 30
0.0
 11
46.83767468592492
 21
42.63081556707072
 31
0.0
  0
LINE
  5
988
330
1C89
100
AcDbEntity
  8
1
  6
Continuous
100
AcDbLine
 10
47.33767468592492
 20
44.23081556707072
 30
0.0
 11
46.83767468592492
 21
44.23081556707072
 31
0.0
  0
LINE
  5
989
330
1C89
100
AcDbEntity
  8
1
  6
Continuous
100
AcDbLine
 10
49.83767468592493
 20
45.13081556707072
 30
0.0
 11
48.93767468592495
 21
45.13081556707072
 31
0.0
  0
LINE
  5
98A
330
1C89
100
AcDbEntity
  8
1
  6
Continuous
100
AcDbLine
 10
35.83767468592493
 20
50.03081556707073
 30
0.0
 11
35.83767468592493
 21
49.53081556707072
 31
0.0
  0
ARC
  5
98B
330
1C89
100
AcDbEntity
  8
1
  6
Continuous
100
AcDbCircle
 10
47.33767468592492
 20
53.03081556707073
 30
0.0
 40
1.6
100
AcDbArc
 50
0.0
 51
90.0
  0
LINE
  5
98C
330
1C89
100
AcDbEntity
  8
1
  6
Continuous
100
AcDbLine
 10
46.83767468592492
 20
50.03081556707073
 30
0.0
 11
46.83767468592492
 21
49.53081556707072
 31
0.0
  0
LINE
  5
98D
330
1C89
100
AcDbEntity
  8
1
  6
Continuous
100
AcDbLine
 10
48.93767468592495
 20
49.53081556707072
 30
0.0
 11
49.83767468592493
 21
49.53081556707072
 31
0.0
  0
LINE
  5
98E
330
1C89
100
AcDbEntity
  8
1
  6
Continuous
100
AcDbLine
 10
52.33767468592493
 20
49.03081556707072
 30
0.0
 11
52.33767468592493
 21
47.03081556707072
 31
0.0
  0
LINE
  5
98F
330
1C89
100
AcDbEntity
  8
1
  6
Continuous
100
AcDbLine
 10
51.43767468592489
 20
50.61994498749482
 30
0.0
 11
51.43767468592489
 21
44.63081556707066
 31
0.0
  0
LINE
  5
990
330
1C89
100
AcDbEntity
  8
1
  6
Continuous
100
AcDbLine
 10
54.83767468592493
 20
52.36868507834405
 30
0.0
 11
54.83767468592493
 21
43.37151816711547
 31
0.0
  0
LINE
  5
991
330
1C89
100
AcDbEntity
  8
1
  6
Continuous
100
AcDbLine
 10
56.43767468592495
 20
52.36868507834405
 30
0.0
 11
56.43767468592495
 21
43.37151816711547
 31
0.0
  0
ARC
  5
992
330
1C89
100
AcDbEntity
  8
1
  6
Continuous
100
AcDbCircle
 10
54.83767468592493
 20
47.78852082022903
 30
0.0
 40
4.7
100
AcDbArc
 50
223.6637379361991
 51
70.09729999999951
  0
ARC
  5
993
330
1C89
100
AcDbEntity
  8
1
  6
Continuous
100
AcDbCircle
 10
54.83767468592493
 20
47.78852082022903
 30
0.0
 40
3.299999999999998
100
AcDbArc
 50
299.0020000000011
 51
60.99760000000028
  0
LINE
  5
994
330
1C89
100
AcDbEntity
  8
1
  6
Continuous
100
AcDbLine
 10
51.43767468592489
 20
47.03081556707072
 30
0.0
 11
52.33767468592493
 21
47.03081556707072
 31
0.0
  0
LINE
  5
997
330
1C89
100
AcDbEntity
  8
1
  6
Continuous
100
AcDbLine
 10
53.2376746859249
 20
42.99290543895628
 30
0.0
 11
54.83767468592493
 21
42.99290543895627
 31
0.0
  0
LINE
  5
998
330
1C89
100
AcDbEntity
  8
1
  6
Continuous
100
AcDbLine
 10
53.2376746859249
 20
43.36924486143217
 30
0.0
 11
53.2376746859249
 21
42.99290543895628
 31
0.0
  0
LINE
  5
999
330
1C89
100
AcDbEntity
  8
1
  6
Continuous
100
AcDbLine
 10
51.43767468592489
 20
44.63081556707066
 30
0.0
 11
51.43767468592489
 21
43.23081556707069
 31
0.0
  0
ARC
  5
99A
330
1C89
100
AcDbEntity
  8
1
  6
Continuous
100
AcDbCircle
 10
54.83767468592493
 20
47.78852082022903
 30
0.0
 40
3.299999999999998
100
AcDbArc
 50
253.1131700391709
 51
270.0
  0
LINE
  5
99B
330
1C89
100
AcDbEntity
  8
1
  6
Continuous
100
AcDbLine
 10
54.83767468592493
 20
52.36868507834405
 30
0.0
 11
56.43767468592495
 21
52.36868507834405
 31
0.0
  0
LINE
  5
99F
330
1C89
100
AcDbEntity
  8
1
  6
Continuous
100
AcDbLine
 10
51.43767468592489
 20
49.03081556707072
 30
0.0
 11
52.33767468592493
 21
49.03081556707072
 31
0.0
  0
ARC
  5
9A0
330
1C89
100
AcDbEntity
  8
1
  6
Continuous
100
AcDbCircle
 10
54.83767468592493
 20
47.78852082022903
 30
0.0
 40
3.299999999999998
100
AcDbArc
 50
90.0
 51
138.1389364560418
  0
LINE
  5
B77
330
1C89
100
AcDbEntity
  8
1
  6
Continuous
100
AcDbLine
 10
23.74499468592495
 20
142.0977390983987
 30
0.0
 11
26.23767468592495
 21
141.8647790983985
 31
0.0
  0
LINE
  5
B78
330
1C89
100
AcDbEntity
  8
1
  6
Continuous
100
AcDbLine
 10
23.74499468592495
 20
144.1349390983988
 30
0.0
 11
26.23767468592495
 21
143.9019790983987
 31
0.0
  0
LINE
  5
B79
330
1C89
100
AcDbEntity
  8
1
  6
Continuous
100
AcDbLine
 10
23.74499468592495
 20
146.1721390983987
 30
0.0
 11
26.23767468592495
 21
145.9391790983986
 31
0.0
  0
LINE
  5
B7A
330
1C89
100
AcDbEntity
  8
1
  6
Continuous
100
AcDbLine
 10
31.7449946859249
 20
144.5540140983987
 30
0.0
 11
23.74499468592495
 21
143.4854140983985
 31
0.0
  0
LINE
  5
B7B
330
1C89
100
AcDbEntity
  8
1
  6
Continuous
100
AcDbLine
 10
31.93035368592495
 20
143.1663390983988
 30
0.0
 11
23.93035368592495
 21
142.0977390983987
 31
0.0
  0
LINE
  5
B7C
330
1C89
100
AcDbEntity
  8
1
  6
Continuous
100
AcDbLine
 10
31.7449946859249
 20
148.6284140983988
 30
0.0
 11
23.74499468592495
 21
147.5598140983986
 31
0.0
  0
LINE
  5
B7D
330
1C89
100
AcDbEntity
  8
1
  6
Continuous
100
AcDbLine
 10
31.93035368592495
 20
147.2407390983987
 30
0.0
 11
23.93035368592495
 21
146.1721390983987
 31
0.0
  0
LINE
  5
B7E
330
1C89
100
AcDbEntity
  8
1
  6
Continuous
100
AcDbLine
 10
31.7449946859249
 20
146.5912140983987
 30
0.0
 11
23.74499468592495
 21
145.5226140983988
 31
0.0
  0
LINE
  5
B7F
330
1C89
100
AcDbEntity
  8
1
  6
Continuous
100
AcDbLine
 10
31.93035368592495
 20
145.2035390983988
 30
0.0
 11
23.93035368592495
 21
144.1349390983988
 31
0.0
  0
LINE
  5
B81
330
1C89
100
AcDbEntity
  8
1
  6
Continuous
100
AcDbLine
 10
23.74499468592495
 20
140.0605390983985
 30
0.0
 11
26.23767468592495
 21
139.8275790983985
 31
0.0
  0
LINE
  5
B83
330
1C89
100
AcDbEntity
  8
1
  6
Continuous
100
AcDbLine
 10
31.93035368592495
 20
141.1291390983986
 30
0.0
 11
23.93035368592495
 21
140.0605390983985
 31
0.0
  0
LINE
  5
B84
330
1C89
100
AcDbEntity
  8
1
  6
Continuous
100
AcDbLine
 10
31.7449946859249
 20
140.4796140983987
 30
0.0
 11
23.74499468592495
 21
139.4110140983986
 31
0.0
  0
LINE
  5
B85
330
1C89
100
AcDbEntity
  8
1
  6
Continuous
100
AcDbLine
 10
31.93035368592495
 20
139.0919390983986
 30
0.0
 11
23.93035368592495
 21
138.0233390983986
 31
0.0
  0
LINE
  5
B88
330
1C89
100
AcDbEntity
  8
1
  6
Continuous
100
AcDbLine
 10
31.7449946859249
 20
142.5168140983986
 30
0.0
 11
23.74499468592495
 21
141.4482140983987
 31
0.0
  0
LINE
  5
B89
330
1C89
100
AcDbEntity
  8
1
  6
Continuous
100
AcDbLine
 10
23.13767468592493
 20
148.6345760983987
 30
0.0
 11
26.23767468592495
 21
148.6345760983987
 31
0.0
  0
ARC
  5
B8A
330
1C89
100
AcDbEntity
  8
1
  6
Continuous
100
AcDbCircle
 10
23.83767468592492
 20
144.8287760983985
 30
0.0
 40
0.7
100
AcDbArc
 50
97.60824799999967
 51
277.6082479999996
  0
ARC
  5
B8C
330
1C89
100
AcDbEntity
  8
1
  6
Continuous
100
AcDbCircle
 10
23.83767468592492
 20
142.7915760983985
 30
0.0
 40
0.7
100
AcDbArc
 50
97.60824799999967
 51
277.6082479999996
  0
ARC
  5
B8D
330
1C89
100
AcDbEntity
  8
1
  6
Continuous
100
AcDbCircle
 10
23.83767468592492
 20
140.7543760983987
 30
0.0
 40
0.7
100
AcDbArc
 50
97.60824799999967
 51
277.6082479999996
  0
ARC
  5
B8E
330
1C89
100
AcDbEntity
  8
1
  6
Continuous
100
AcDbCircle
 10
23.83767468592492
 20
138.7171760983986
 30
0.0
 40
0.7
100
AcDbArc
 50
97.60824799999967
 51
277.6082479999996
  0
LINE
  5
B8F
330
1C89
100
AcDbEntity
  8
1
  6
Continuous
100
AcDbLine
 10
23.77665768592493
 20
147.9372410983987
 30
0.0
 11
25.46476168592494
 21
147.7895320983988
 31
0.0
  0
ARC
  5
B90
330
1C89
100
AcDbEntity
  8
1
  6
Continuous
100
AcDbCircle
 10
23.83767468592492
 20
148.6345760983987
 30
0.0
 40
0.7
100
AcDbArc
 50
180.0
 51
264.9993549999998
  0
ARC
  5
B91
330
1C89
100
AcDbEntity
  8
1
  6
Continuous
100
AcDbCircle
 10
23.83767468592492
 20
146.8659760983987
 30
0.0
 40
0.7
100
AcDbArc
 50
97.60824799999967
 51
277.6082479999996
  0
LINE
  5
B96
330
1C89
100
AcDbEntity
  8
1
  6
Continuous
100
AcDbLine
 10
56.43767468592495
 20
148.6345760983987
 30
0.0
 11
58.83767468592492
 21
148.6345760983987
 31
0.0
  0
LINE
  5
B97
330
1C89
100
AcDbEntity
  8
1
  6
Continuous
100
AcDbLine
 10
56.43767468592495
 20
142.7497740983988
 30
0.0
 11
58.93035368592496
 21
142.5168140983986
 31
0.0
  0
LINE
  5
B98
330
1C89
100
AcDbEntity
  8
1
  6
Continuous
100
AcDbLine
 10
56.43767468592495
 20
146.8241740983987
 30
0.0
 11
58.93035368592496
 21
146.5912140983987
 31
0.0
  0
LINE
  5
B99
330
1C89
100
AcDbEntity
  8
1
  6
Continuous
100
AcDbLine
 10
56.43767468592495
 20
144.7869740983986
 30
0.0
 11
58.93035368592496
 21
144.5540140983987
 31
0.0
  0
LINE
  5
B9A
330
1C89
100
AcDbEntity
  8
1
  6
Continuous
100
AcDbLine
 10
56.43767468592495
 20
140.7125740983988
 30
0.0
 11
58.93035368592496
 21
140.4796140983987
 31
0.0
  0
LINE
  5
B9C
330
1C89
100
AcDbEntity
  8
1
  6
Continuous
100
AcDbLine
 10
54.83767468592493
 20
136.0390866142
 30
0.0
 11
59.53767468592497
 21
136.0390866142
 31
0.0
  0
LINE
  5
B9D
330
1C89
100
AcDbEntity
  8
1
  6
Continuous
100
AcDbLine
 10
58.93035568592495
 20
137.1138746142001
 30
0.0
 11
50.93035568592495
 21
136.0452496142001
 31
0.0
  0
LINE
  5
B9E
330
1C89
100
AcDbEntity
  8
1
  6
Continuous
100
AcDbLine
 10
58.83076104047128
 20
138.5130064009058
 30
0.0
 11
50.74499268592496
 21
137.4329236142
 31
0.0
  0
LINE
  5
B9F
330
1C89
100
AcDbEntity
  8
1
  6
Continuous
100
AcDbLine
 10
58.93035368592496
 20
139.0919390983986
 30
0.0
 11
50.93035368592495
 21
138.0233390983986
 31
0.0
  0
LINE
  5
BA0
330
1C89
100
AcDbEntity
  8
1
  6
Continuous
100
AcDbLine
 10
58.74499468592495
 20
140.4796140983987
 30
0.0
 11
50.74499468592495
 21
139.4110140983986
 31
0.0
  0
LINE
  5
BA1
330
1C89
100
AcDbEntity
  8
1
  6
Continuous
100
AcDbLine
 10
58.93035368592496
 20
141.1291390983986
 30
0.0
 11
50.93035368592495
 21
140.0605390983985
 31
0.0
  0
LINE
  5
BA2
330
1C89
100
AcDbEntity
  8
1
  6
Continuous
100
AcDbLine
 10
58.74499468592495
 20
142.5168140983986
 30
0.0
 11
50.74499468592495
 21
141.4482140983987
 31
0.0
  0
LINE
  5
BA3
330
1C89
100
AcDbEntity
  8
1
  6
Continuous
100
AcDbLine
 10
58.93035368592496
 20
143.1663390983988
 30
0.0
 11
50.93035368592495
 21
142.0977390983987
 31
0.0
  0
LINE
  5
BA4
330
1C89
100
AcDbEntity
  8
1
  6
Continuous
100
AcDbLine
 10
58.93035368592496
 20
145.2035390983988
 30
0.0
 11
50.93035368592495
 21
144.1349390983988
 31
0.0
  0
LINE
  5
BA5
330
1C89
100
AcDbEntity
  8
1
  6
Continuous
100
AcDbLine
 10
58.74499468592495
 20
146.5912140983987
 30
0.0
 11
50.74499468592495
 21
145.5226140983988
 31
0.0
  0
LINE
  5
BA6
330
1C89
100
AcDbEntity
  8
1
  6
Continuous
100
AcDbLine
 10
58.93035368592496
 20
147.2407390983987
 30
0.0
 11
50.93035368592495
 21
146.1721390983987
 31
0.0
  0
LINE
  5
BA7
330
1C89
100
AcDbEntity
  8
1
  6
Continuous
100
AcDbLine
 10
58.74499468592495
 20
148.6284140983988
 30
0.0
 11
50.74499468592495
 21
147.5598140983986
 31
0.0
  0
LINE
  5
BA8
330
1C89
100
AcDbEntity
  8
1
  6
Continuous
100
AcDbLine
 10
58.74499468592495
 20
144.5540140983987
 30
0.0
 11
50.74499468592495
 21
143.4854140983985
 31
0.0
  0
LINE
  5
BAF
330
1C89
100
AcDbEntity
  8
4
  6
CENTER
100
AcDbLine
 10
38.83767468592493
 20
116.0313155670707
 30
0.0
 11
43.83767468592492
 21
116.0313155670707
 31
0.0
  0
ARC
  5
BD5
330
1C89
100
AcDbEntity
  8
1
  6
Continuous
100
AcDbCircle
 10
31.83767468592492
 20
143.8601760983985
 30
0.0
 40
0.7
100
AcDbArc
 50
277.6082479999996
 51
97.60824799999967
  0
LINE
  5
BD6
330
1C89
100
AcDbEntity
  8
1
  6
Continuous
100
AcDbLine
 10
27.83767468592492
 20
144.6568590983987
 30
0.0
 11
27.83767468592492
 21
144.0320940983987
 31
0.0
  0
LINE
  5
BD7
330
1C89
100
AcDbEntity
  8
1
  6
Continuous
100
AcDbLine
 10
26.23767468592495
 20
144.4431390983987
 30
0.0
 11
26.23767468592495
 21
143.8183740983988
 31
0.0
  0
LINE
  5
BD9
330
1C89
100
AcDbEntity
  8
1
  6
Continuous
100
AcDbLine
 10
29.43767468592494
 20
142.8333790983986
 30
0.0
 11
29.43767468592494
 21
142.2086140983986
 31
0.0
  0
LINE
  5
BDA
330
1C89
100
AcDbEntity
  8
1
  6
Continuous
100
AcDbLine
 10
27.83767468592492
 20
142.6196590983987
 30
0.0
 11
27.83767468592492
 21
141.9948940983985
 31
0.0
  0
LINE
  5
BDB
330
1C89
100
AcDbEntity
  8
1
  6
Continuous
100
AcDbLine
 10
29.43767468592494
 20
142.7497740983988
 30
0.0
 11
31.93035368592495
 21
142.5168140983986
 31
0.0
  0
ARC
  5
BDD
330
1C89
100
AcDbEntity
  8
1
  6
Continuous
100
AcDbCircle
 10
31.83767468592492
 20
139.7857760983987
 30
0.0
 40
0.7
100
AcDbArc
 50
277.6082479999996
 51
97.60824799999967
  0
LINE
  5
BDF
330
1C89
100
AcDbEntity
  8
1
  6
Continuous
100
AcDbLine
 10
29.43767468592494
 20
138.7589790983987
 30
0.0
 11
29.43767468592494
 21
138.1933421135665
 31
0.0
  0
LINE
  5
BE0
330
1C89
100
AcDbEntity
  8
1
  6
Continuous
100
AcDbLine
 10
27.83767468592492
 20
138.5452590983987
 30
0.0
 11
27.83767468592492
 21
137.9796169135665
 31
0.0
  0
LINE
  5
BE1
330
1C89
100
AcDbEntity
  8
1
  6
Continuous
100
AcDbLine
 10
29.43767468592494
 20
140.7961790983985
 30
0.0
 11
29.43767468592494
 21
140.1714140983987
 31
0.0
  0
LINE
  5
BE2
330
1C89
100
AcDbEntity
  8
1
  6
Continuous
100
AcDbLine
 10
27.83767468592492
 20
140.5824590983986
 30
0.0
 11
27.83767468592492
 21
139.9576940983987
 31
0.0
  0
LINE
  5
BE3
330
1C89
100
AcDbEntity
  8
1
  6
Continuous
100
AcDbLine
 10
26.23767468592495
 20
138.3315390983988
 30
0.0
 11
26.23767468592495
 21
137.7658917135665
 31
0.0
  0
LINE
  5
BE4
330
1C89
100
AcDbEntity
  8
1
  6
Continuous
100
AcDbLine
 10
26.23767468592495
 20
140.3687390983986
 30
0.0
 11
26.23767468592495
 21
139.7439740983987
 31
0.0
  0
LINE
  5
BEC
330
1C89
100
AcDbEntity
  8
1
  6
Continuous
100
AcDbLine
 10
29.43767468592494
 20
140.7125740983988
 30
0.0
 11
31.93035368592495
 21
140.4796140983987
 31
0.0
  0
LINE
  5
BEE
330
1C89
100
AcDbEntity
  8
1
  6
Continuous
100
AcDbLine
 10
26.23767468592495
 20
142.4059390983986
 30
0.0
 11
26.23767468592495
 21
141.7811740983987
 31
0.0
  0
ARC
  5
BEF
330
1C89
100
AcDbEntity
  8
1
  6
Continuous
100
AcDbCircle
 10
31.83767468592492
 20
141.8229760983986
 30
0.0
 40
0.7
100
AcDbArc
 50
277.6082479999996
 51
97.60824799999967
  0
ARC
  5
BF3
330
1C89
100
AcDbEntity
  8
1
  6
Continuous
100
AcDbCircle
 10
31.83767468592492
 20
147.9345760983987
 30
0.0
 40
0.7
100
AcDbArc
 50
277.6082479999996
 51
97.60824799999967
  0
ARC
  5
BF4
330
1C89
100
AcDbEntity
  8
1
  6
Continuous
100
AcDbCircle
 10
31.83767468592492
 20
145.8973760983986
 30
0.0
 40
0.7
100
AcDbArc
 50
277.6082479999996
 51
97.60824799999967
  0
LINE
  5
BF6
330
1C89
100
AcDbEntity
  8
1
  6
Continuous
100
AcDbLine
 10
27.83767468592492
 20
148.6345760983987
 30
0.0
 11
29.43767468592494
 21
148.6345760983987
 31
0.0
  0
LINE
  5
BF7
330
1C89
100
AcDbEntity
  8
1
  6
Continuous
100
AcDbLine
 10
29.43767468592494
 20
151.1337898989076
 30
0.0
 11
29.43767468592495
 21
148.3202138293987
 31
0.0
  0
LINE
  5
BF8
330
1C89
100
AcDbEntity
  8
1
  6
Continuous
100
AcDbLine
 10
29.43767468592494
 20
146.9077790983988
 30
0.0
 11
29.43767468592494
 21
146.2830140983988
 31
0.0
  0
LINE
  5
BF9
330
1C89
100
AcDbEntity
  8
1
  6
Continuous
100
AcDbLine
 10
27.83767468592492
 20
146.6940590983988
 30
0.0
 11
27.83767468592492
 21
146.0692940983987
 31
0.0
  0
LINE
  5
BFA
330
1C89
100
AcDbEntity
  8
1
  6
Continuous
100
AcDbLine
 10
29.43767468592494
 20
144.8705790983987
 30
0.0
 11
29.43767468592494
 21
144.2458140983987
 31
0.0
  0
LINE
  5
BFB
330
1C89
100
AcDbEntity
  8
1
  6
Continuous
100
AcDbLine
 10
26.23767468592495
 20
146.4803390983988
 30
0.0
 11
26.23767468592495
 21
145.8555740983987
 31
0.0
  0
LINE
  5
BFC
330
1C89
100
AcDbEntity
  8
1
  6
Continuous
100
AcDbLine
 10
29.43767468592494
 20
144.7869740983986
 30
0.0
 11
31.93035368592495
 21
144.5540140983987
 31
0.0
  0
LINE
  5
BFD
330
1C89
100
AcDbEntity
  8
1
  6
Continuous
100
AcDbLine
 10
29.43767468592494
 20
146.8241740983987
 30
0.0
 11
31.93035368592495
 21
146.5912140983987
 31
0.0
  0
LINE
  5
BFE
330
1C89
100
AcDbEntity
  8
1
  6
Continuous
100
AcDbLine
 10
27.83767468592492
 20
148.6345760983987
 30
0.0
 11
31.83767468592492
 21
148.6345760983987
 31
0.0
  0
LINE
  5
BFF
330
1C89
100
AcDbEntity
  8
1
  6
Continuous
100
AcDbLine
 10
26.23767468592495
 20
153.3685725670707
 30
0.0
 11
26.23767468592495
 21
147.8927738293987
 31
0.0
  0
LINE
  5
C00
330
1C89
100
AcDbEntity
  8
1
  6
Continuous
100
AcDbLine
 10
27.83767468592492
 20
153.3685725670707
 30
0.0
 11
27.83767468592492
 21
148.1064938293987
 31
0.0
  0
LINE
  5
C02
330
1C89
100
AcDbEntity
  8
1
  6
Continuous
100
AcDbLine
 10
54.83767468592493
 20
144.6568590983987
 30
0.0
 11
54.83767468592493
 21
144.0320940983987
 31
0.0
  0
LINE
  5
C03
330
1C89
100
AcDbEntity
  8
1
  6
Continuous
100
AcDbLine
 10
50.74499468592495
 20
144.1349390983988
 30
0.0
 11
53.23767468592496
 21
143.9019790983987
 31
0.0
  0
LINE
  5
C04
330
1C89
100
AcDbEntity
  8
1
  6
Continuous
100
AcDbLine
 10
53.23767468592496
 20
144.4431390983987
 30
0.0
 11
53.23767468592496
 21
143.8183740983988
 31
0.0
  0
ARC
  5
C05
330
1C89
100
AcDbEntity
  8
1
  6
Continuous
100
AcDbCircle
 10
50.83767468592492
 20
144.8287760983985
 30
0.0
 40
0.7
100
AcDbArc
 50
97.60824799999967
 51
277.6082479999996
  0
LINE
  5
C07
330
1C89
100
AcDbEntity
  8
1
  6
Continuous
100
AcDbLine
 10
54.83767468592493
 20
142.6196590983987
 30
0.0
 11
54.83767468592493
 21
141.9948940983985
 31
0.0
  0
LINE
  5
C08
330
1C89
100
AcDbEntity
  8
1
  6
Continuous
100
AcDbLine
 10
56.43767468592495
 20
142.8333790983986
 30
0.0
 11
56.43767468592495
 21
142.2086140983986
 31
0.0
  0
LINE
  5
C09
330
1C89
100
AcDbEntity
  8
1
  6
Continuous
100
AcDbLine
 10
54.83767468592493
 20
138.5452590983987
 30
0.0
 11
54.83767468592493
 21
137.9796169135665
 31
0.0
  0
LINE
  5
C0A
330
1C89
100
AcDbEntity
  8
1
  6
Continuous
100
AcDbLine
 10
54.83767468592493
 20
140.5824590983986
 30
0.0
 11
54.83767468592493
 21
139.9576940983987
 31
0.0
  0
LINE
  5
C0B
330
1C89
100
AcDbEntity
  8
1
  6
Continuous
100
AcDbLine
 10
56.43767468592495
 20
140.7961790983985
 30
0.0
 11
56.43767468592495
 21
140.1714140983987
 31
0.0
  0
LINE
  5
C0C
330
1C89
100
AcDbEntity
  8
1
  6
Continuous
100
AcDbLine
 10
56.43767468592495
 20
138.7589790983987
 30
0.0
 11
56.43767468592495
 21
138.1933421135665
 31
0.0
  0
LINE
  5
C10
330
1C89
100
AcDbEntity
  8
1
  6
Continuous
100
AcDbLine
 10
50.74499468592495
 20
142.0977390983987
 30
0.0
 11
53.23767468592496
 21
141.8647790983985
 31
0.0
  0
ARC
  5
C11
330
1C89
100
AcDbEntity
  8
1
  6
Continuous
100
AcDbCircle
 10
50.83767468592492
 20
142.7915760983985
 30
0.0
 40
0.7
100
AcDbArc
 50
97.60824799999967
 51
277.6082479999996
  0
LINE
  5
C13
330
1C89
100
AcDbEntity
  8
1
  6
Continuous
100
AcDbLine
 10
53.23767468592496
 20
138.3315390983988
 30
0.0
 11
53.23767468592496
 21
137.7658917135665
 31
0.0
  0
LINE
  5
C14
330
1C89
100
AcDbEntity
  8
1
  6
Continuous
100
AcDbLine
 10
50.74499468592495
 20
140.0605390983985
 30
0.0
 11
53.23767468592496
 21
139.8275790983985
 31
0.0
  0
LINE
  5
C15
330
1C89
100
AcDbEntity
  8
1
  6
Continuous
100
AcDbLine
 10
53.23767468592496
 20
140.3687390983986
 30
0.0
 11
53.23767468592496
 21
139.7439740983987
 31
0.0
  0
ARC
  5
C17
330
1C89
100
AcDbEntity
  8
1
  6
Continuous
100
AcDbCircle
 10
50.83767510323178
 20
138.7171764256277
 30
0.0
 40
0.7000002685059222
100
AcDbArc
 50
97.6083327583067
 51
277.6823471123944
  0
ARC
  5
C18
330
1C89
100
AcDbEntity
  8
1
  6
Continuous
100
AcDbCircle
 10
50.83767468592492
 20
140.7543760983987
 30
0.0
 40
0.7
100
AcDbArc
 50
97.60824799999967
 51
277.6082479999996
  0
LINE
  5
C19
330
1C89
100
AcDbEntity
  8
1
  6
Continuous
100
AcDbLine
 10
50.83767468592492
 20
136.0390866142
 30
0.0
 11
53.23767468592496
 21
136.0390866142
 31
0.0
  0
ARC
  5
C1C
330
1C89
100
AcDbEntity
  8
1
  6
Continuous
100
AcDbCircle
 10
50.83767468592492
 20
136.7390866141998
 30
0.0
 40
0.7
100
AcDbArc
 50
97.60842700000008
 51
277.6084270000001
  0
LINE
  5
C1D
330
1C89
100
AcDbEntity
  8
1
  6
Continuous
100
AcDbLine
 10
53.23767468592496
 20
142.4059390983986
 30
0.0
 11
53.23767468592496
 21
141.7811740983987
 31
0.0
  0
LINE
  5
C1F
330
1C89
100
AcDbEntity
  8
1
  6
Continuous
100
AcDbLine
 10
56.43767468592495
 20
144.8705790983987
 30
0.0
 11
56.43767468592495
 21
144.2458140983987
 31
0.0
  0
LINE
  5
C20
330
1C89
100
AcDbEntity
  8
1
  6
Continuous
100
AcDbLine
 10
54.83767468592493
 20
146.6940590983988
 30
0.0
 11
54.83767468592493
 21
146.0692940983987
 31
0.0
  0
LINE
  5
C21
330
1C89
100
AcDbEntity
  8
1
  6
Continuous
100
AcDbLine
 10
56.43767468592495
 20
146.9077790983988
 30
0.0
 11
56.43767468592495
 21
146.2830140983988
 31
0.0
  0
LINE
  5
C22
330
1C89
100
AcDbEntity
  8
1
  6
Continuous
100
AcDbLine
 10
54.83767468592493
 20
153.3685725670707
 30
0.0
 11
54.83767468592493
 21
148.1064938293987
 31
0.0
  0
LINE
  5
C23
330
1C89
100
AcDbEntity
  8
1
  6
Continuous
100
AcDbLine
 10
56.43767468592495
 20
153.3685725670707
 30
0.0
 11
56.43767468592495
 21
148.3202138293987
 31
0.0
  0
LINE
  5
C24
330
1C89
100
AcDbEntity
  8
1
  6
Continuous
100
AcDbLine
 10
50.77665768592493
 20
147.9372410983987
 30
0.0
 11
52.46476168592494
 21
147.7895320983988
 31
0.0
  0
LINE
  5
C25
330
1C89
100
AcDbEntity
  8
1
  6
Continuous
100
AcDbLine
 10
53.23767468592496
 20
151.1337898989076
 30
0.0
 11
53.2376746859249
 21
147.8927738293986
 31
0.0
  0
ARC
  5
C26
330
1C89
100
AcDbEntity
  8
1
  6
Continuous
100
AcDbCircle
 10
50.83767468592492
 20
148.6345760983987
 30
0.0
 40
0.7
100
AcDbArc
 50
180.0
 51
264.9993549999998
  0
LINE
  5
C27
330
1C89
100
AcDbEntity
  8
1
  6
Continuous
100
AcDbLine
 10
50.74499468592495
 20
146.1721390983987
 30
0.0
 11
53.23767468592496
 21
145.9391790983986
 31
0.0
  0
LINE
  5
C28
330
1C89
100
AcDbEntity
  8
1
  6
Continuous
100
AcDbLine
 10
53.23767468592496
 20
146.4803390983988
 30
0.0
 11
53.23767468592496
 21
145.8555740983987
 31
0.0
  0
ARC
  5
C2A
330
1C89
100
AcDbEntity
  8
1
  6
Continuous
100
AcDbCircle
 10
50.83767468592492
 20
146.8659760983987
 30
0.0
 40
0.7
100
AcDbArc
 50
97.60824799999967
 51
277.6082479999996
  0
LINE
  5
C2C
330
1C89
100
AcDbEntity
  8
1
  6
Continuous
100
AcDbLine
 10
50.13767468592494
 20
148.6345760983987
 30
0.0
 11
54.83767468592493
 21
148.6345760983987
 31
0.0
  0
ARC
  5
C2E
330
1C89
100
AcDbEntity
  8
1
  6
Continuous
100
AcDbCircle
 10
58.83767468592492
 20
143.8601760983985
 30
0.0
 40
0.7
100
AcDbArc
 50
277.6082479999996
 51
97.60824799999967
  0
ARC
  5
C2F
330
1C89
100
AcDbEntity
  8
1
  6
Continuous
100
AcDbCircle
 10
58.83767468592492
 20
137.8077116141998
 30
0.0
 40
0.7
100
AcDbArc
 50
277.5535361719131
 51
83.51428489563149
  0
ARC
  5
C30
330
1C89
100
AcDbEntity
  8
1
  6
Continuous
100
AcDbCircle
 10
58.83767468592492
 20
139.7857760983987
 30
0.0
 40
0.7
100
AcDbArc
 50
277.6082479999996
 51
97.60824799999967
  0
LINE
  5
C31
330
1C89
100
AcDbEntity
  8
1
  6
Continuous
100
AcDbLine
 10
57.2104966859249
 20
136.8841386141999
 30
0.0
 11
58.89869168592497
 21
136.7364216142001
 31
0.0
  0
ARC
  5
C32
330
1C89
100
AcDbEntity
  8
1
  6
Continuous
100
AcDbCircle
 10
58.83767468592492
 20
136.0390866142
 30
0.0
 40
0.7
100
AcDbArc
 50
0.0
 51
84.99935499999985
  0
ARC
  5
C33
330
1C89
100
AcDbEntity
  8
1
  6
Continuous
100
AcDbCircle
 10
58.83767468592492
 20
141.8229760983986
 30
0.0
 40
0.7
100
AcDbArc
 50
277.6082479999996
 51
97.60824799999967
  0
ARC
  5
C34
330
1C89
100
AcDbEntity
  8
1
  6
Continuous
100
AcDbCircle
 10
58.83767468592492
 20
147.9345760983987
 30
0.0
 40
0.7
100
AcDbArc
 50
277.6082479999996
 51
97.60824799999967
  0
ARC
  5
C35
330
1C89
100
AcDbEntity
  8
1
  6
Continuous
100
AcDbCircle
 10
58.83767468592492
 20
145.8973760983986
 30
0.0
 40
0.7
100
AcDbArc
 50
277.6082479999996
 51
97.60824799999967
  0
LINE
  5
F1F
330
1C89
100
AcDbEntity
  8
1
  6
Continuous
100
AcDbLine
 10
56.43767468592495
 20
226.4472731350584
 30
0.0
 11
49.83767468592493
 21
226.4472731350584
 31
0.0
  0
LINE
  5
FB7
330
1C89
100
AcDbEntity
  8
1
  6
Continuous
100
AcDbLine
 10
51.43767468592489
 20
50.61994498749482
 30
0.0
 11
49.8376746859249
 21
50.61994498749481
 31
0.0
  0
LINE
  5
18CE
330
1C89
100
AcDbEntity
  8
4
  6
CENTER
100
AcDbLine
 10
177.7377746859249
 20
158.8813155670706
 30
0.0
 11
184.737774685925
 21
158.8813155670706
 31
0.0
  0
LINE
  5
18CF
330
1C89
100
AcDbEntity
  8
4
  6
CENTER
100
AcDbLine
 10
181.2377746859249
 20
162.3813155670706
 30
0.0
 11
181.2377746859249
 21
155.3813155670706
 31
0.0
  0
LINE
  5
18DC
330
1C89
100
AcDbEntity
  8
1
  6
Continuous
100
AcDbLine
 10
181.7281457014518
 20
138.5068061202265
 30
0.0
 11
183.3012828647385
 21
138.286969912101
 31
0.0
  0
LINE
  5
18DE
330
1C89
100
AcDbEntity
  8
1
  6
Continuous
100
AcDbLine
 10
175.1343997871175
 20
138.0146376681998
 30
0.0
 11
176.7086998876604
 21
137.7946389467711
 31
0.0
  0
LINE
  5
18FF
330
1C89
100
AcDbEntity
  8
1
  6
Continuous
100
AcDbLine
 10
56.54315266614474
 20
138.7730687221814
 30
0.0
 11
58.91674353203651
 21
138.5032316481131
 31
0.0
  0
LINE
  5
1901
330
1C89
100
AcDbEntity
  8
1
  6
Continuous
100
AcDbLine
 10
50.75860583981333
 20
138.0216560644854
 30
0.0
 11
53.1322648152762
 21
137.7518112475125
 31
0.0
  0
LINE
  5
1903
330
1C89
100
AcDbEntity
  8
1
  6
Continuous
100
AcDbLine
 10
31.83076104047125
 20
138.5130064009058
 30
0.0
 11
23.74499268592495
 21
137.4329236142
 31
0.0
  0
LINE
  5
1904
330
1C89
100
AcDbEntity
  8
1
  6
Continuous
100
AcDbLine
 10
31.93035568592495
 20
137.1138746142001
 30
0.0
 11
23.93035568592495
 21
136.0452496142001
 31
0.0
  0
LINE
  5
1905
330
1C89
100
AcDbEntity
  8
1
  6
Continuous
100
AcDbLine
 10
29.54315266614473
 20
138.7730687221814
 30
0.0
 11
31.91674353203651
 21
138.5032316481131
 31
0.0
  0
ARC
  5
1906
330
1C89
100
AcDbEntity
  8
1
  6
Continuous
100
AcDbCircle
 10
31.83767468592492
 20
137.8077116141998
 30
0.0
 40
0.7
100
AcDbArc
 50
277.5535361719131
 51
83.51428489563149
  0
LINE
  5
1907
330
1C89
100
AcDbEntity
  8
1
  6
Continuous
100
AcDbLine
 10
30.21049668592491
 20
136.8841386141999
 30
0.0
 11
31.89869168592497
 21
136.7364216142001
 31
0.0
  0
ARC
  5
1908
330
1C89
100
AcDbEntity
  8
1
  6
Continuous
100
AcDbCircle
 10
31.83767468592492
 20
136.0390866142
 30
0.0
 40
0.7
100
AcDbArc
 50
0.0
 51
84.99935499999985
  0
LINE
  5
1909
330
1C89
100
AcDbEntity
  8
1
  6
Continuous
100
AcDbLine
 10
27.83767468592492
 20
136.0390866142
 30
0.0
 11
32.53767468592497
 21
136.0390866142
 31
0.0
  0
LINE
  5
190A
330
1C89
100
AcDbEntity
  8
1
  6
Continuous
100
AcDbLine
 10
23.75860583981333
 20
138.0216560644854
 30
0.0
 11
26.1322648152762
 21
137.7518112475125
 31
0.0
  0
ARC
  5
190B
330
1C89
100
AcDbEntity
  8
1
  6
Continuous
100
AcDbCircle
 10
23.83767468592492
 20
136.7390866141998
 30
0.0
 40
0.7
100
AcDbArc
 50
97.60842700000008
 51
277.6084270000001
  0
LINE
  5
190C
330
1C89
100
AcDbEntity
  8
1
  6
Continuous
100
AcDbLine
 10
23.83767468592492
 20
136.0390866142
 30
0.0
 11
26.23767468592495
 21
136.0390866142
 31
0.0
  0
LINE
  5
190F
330
1C89
100
AcDbEntity
  8
1
  6
Continuous
100
AcDbLine
 10
56.43767468592489
 20
133.5398728136911
 30
0.0
 11
54.83767468592493
 21
133.5398728136911
 31
0.0
  0
LINE
  5
1912
330
1C89
100
AcDbEntity
  8
1
  6
Continuous
100
AcDbLine
 10
26.23767468592495
 20
133.5398728136911
 30
0.0
 11
27.83767468592492
 21
133.5398728136911
 31
0.0
  0
LINE
  5
1913
330
1C89
100
AcDbEntity
  8
1
  6
Continuous
100
AcDbLine
 10
26.23767468592495
 20
133.3140766774787
 30
0.0
 11
27.83767468592492
 21
133.3140766774787
 31
0.0
  0
LINE
  5
1914
330
1C89
100
AcDbEntity
  8
1
  6
Continuous
100
AcDbLine
 10
26.23767468592495
 20
136.353456959997
 30
0.0
 11
26.23767468592495
 21
133.3140766774787
 31
0.0
  0
LINE
  5
1916
330
1C89
100
AcDbEntity
  8
1
  6
Continuous
100
AcDbLine
 10
286.237774685925
 20
133.3140766774787
 30
0.0
 11
287.8377746859249
 21
133.3140766774787
 31
0.0
  0
LINE
  5
1918
330
1C89
100
AcDbEntity
  8
1
  6
Continuous
100
AcDbLine
 10
291.9304556859249
 20
136.8878773960076
 30
0.0
 11
283.9304556859249
 21
135.8192523960076
 31
0.0
  0
LINE
  5
1919
330
1C89
100
AcDbEntity
  8
1
  6
Continuous
100
AcDbLine
 10
291.8308610404713
 20
138.2870091827133
 30
0.0
 11
283.7450926859249
 21
137.2069263960076
 31
0.0
  0
LINE
  5
191A
330
1C89
100
AcDbEntity
  8
1
  6
Continuous
100
AcDbLine
 10
291.7450946859249
 20
144.3280168802061
 30
0.0
 11
283.7450946859249
 21
143.259416880206
 31
0.0
  0
LINE
  5
191B
330
1C89
100
AcDbEntity
  8
1
  6
Continuous
100
AcDbLine
 10
291.9304536859249
 20
142.9403418802063
 30
0.0
 11
283.9304536859249
 21
141.8717418802061
 31
0.0
  0
LINE
  5
191C
330
1C89
100
AcDbEntity
  8
1
  6
Continuous
100
AcDbLine
 10
291.7450946859249
 20
148.4024168802063
 30
0.0
 11
283.7450946859249
 21
147.3338168802061
 31
0.0
  0
LINE
  5
191D
330
1C89
100
AcDbEntity
  8
1
  6
Continuous
100
AcDbLine
 10
291.9304536859249
 20
147.0147418802062
 30
0.0
 11
283.9304536859249
 21
145.9461418802062
 31
0.0
  0
LINE
  5
191E
330
1C89
100
AcDbEntity
  8
1
  6
Continuous
100
AcDbLine
 10
291.7450946859249
 20
146.3652168802062
 30
0.0
 11
283.7450946859249
 21
145.2966168802063
 31
0.0
  0
LINE
  5
191F
330
1C89
100
AcDbEntity
  8
1
  6
Continuous
100
AcDbLine
 10
291.9304536859249
 20
144.9775418802063
 30
0.0
 11
283.9304536859249
 21
143.9089418802064
 31
0.0
  0
LINE
  5
1920
330
1C89
100
AcDbEntity
  8
1
  6
Continuous
100
AcDbLine
 10
291.9304536859249
 20
140.9031418802061
 30
0.0
 11
283.9304536859249
 21
139.834541880206
 31
0.0
  0
LINE
  5
1921
330
1C89
100
AcDbEntity
  8
1
  6
Continuous
100
AcDbLine
 10
291.7450946859249
 20
140.2536168802062
 30
0.0
 11
283.7450946859249
 21
139.1850168802062
 31
0.0
  0
LINE
  5
1922
330
1C89
100
AcDbEntity
  8
1
  6
Continuous
100
AcDbLine
 10
291.9304536859249
 20
138.865941880206
 30
0.0
 11
283.9304536859249
 21
137.7973418802062
 31
0.0
  0
LINE
  5
1923
330
1C89
100
AcDbEntity
  8
1
  6
Continuous
100
AcDbLine
 10
291.7450946859249
 20
142.2908168802061
 30
0.0
 11
283.7450946859249
 21
141.2222168802062
 31
0.0
  0
ARC
  5
1924
330
1C89
100
AcDbEntity
  8
1
  6
Continuous
100
AcDbCircle
 10
288.3377746859249
 20
153.3685725670707
 30
0.0
 40
2.1
100
AcDbArc
 50
90.0
 51
180.0
  0
LINE
  5
1925
330
1C89
100
AcDbEntity
  8
1
  6
Continuous
100
AcDbLine
 10
286.237774685925
 20
153.3685725670707
 30
0.0
 11
286.237774685925
 21
147.6667766112062
 31
0.0
  0
LINE
  5
1926
330
1C89
100
AcDbEntity
  8
1
  6
Continuous
100
AcDbLine
 10
283.7450946859249
 20
141.8717418802061
 30
0.0
 11
286.237774685925
 21
141.638781880206
 31
0.0
  0
LINE
  5
1927
330
1C89
100
AcDbEntity
  8
1
  6
Continuous
100
AcDbLine
 10
286.237774685925
 20
142.1799418802061
 30
0.0
 11
286.237774685925
 21
141.5551768802061
 31
0.0
  0
LINE
  5
1928
330
1C89
100
AcDbEntity
  8
1
  6
Continuous
100
AcDbLine
 10
286.237774685925
 20
136.1274597418045
 30
0.0
 11
286.237774685925
 21
133.3140766774787
 31
0.0
  0
LINE
  5
1929
330
1C89
100
AcDbEntity
  8
1
  6
Continuous
100
AcDbLine
 10
286.237774685925
 20
138.1055418802063
 30
0.0
 11
286.237774685925
 21
137.5398944953741
 31
0.0
  0
LINE
  5
192A
330
1C89
100
AcDbEntity
  8
1
  6
Continuous
100
AcDbLine
 10
283.8377746859249
 20
135.8130893960076
 30
0.0
 11
286.237774685925
 21
135.8130893960076
 31
0.0
  0
ARC
  5
192B
330
1C89
100
AcDbEntity
  8
1
  6
Continuous
100
AcDbCircle
 10
283.8377746859249
 20
136.5130893960075
 30
0.0
 40
0.7
100
AcDbArc
 50
97.60842700000008
 51
277.6084270000001
  0
LINE
  5
192C
330
1C89
100
AcDbEntity
  8
1
  6
Continuous
100
AcDbLine
 10
283.7587058398132
 20
137.795658846293
 30
0.0
 11
286.1323648152763
 21
137.5258140293201
 31
0.0
  0
LINE
  5
192D
330
1C89
100
AcDbEntity
  8
1
  6
Continuous
100
AcDbLine
 10
283.7450946859249
 20
139.834541880206
 30
0.0
 11
286.237774685925
 21
139.601581880206
 31
0.0
  0
ARC
  5
192E
330
1C89
100
AcDbEntity
  8
1
  6
Continuous
100
AcDbCircle
 10
283.8377746859249
 20
140.5283788802062
 30
0.0
 40
0.7
100
AcDbArc
 50
97.60824799999967
 51
277.6082479999996
  0
ARC
  5
192F
330
1C89
100
AcDbEntity
  8
1
  6
Continuous
100
AcDbCircle
 10
283.8377746859249
 20
138.491178880206
 30
0.0
 40
0.7
100
AcDbArc
 50
97.60824799999967
 51
277.6082479999996
  0
LINE
  5
1930
330
1C89
100
AcDbEntity
  8
1
  6
Continuous
100
AcDbLine
 10
286.237774685925
 20
140.1427418802061
 30
0.0
 11
286.237774685925
 21
139.5179768802062
 31
0.0
  0
LINE
  5
1931
330
1C89
100
AcDbEntity
  8
1
  6
Continuous
100
AcDbLine
 10
283.7450946859249
 20
143.9089418802064
 30
0.0
 11
286.237774685925
 21
143.6759818802062
 31
0.0
  0
LINE
  5
1932
330
1C89
100
AcDbEntity
  8
1
  6
Continuous
100
AcDbLine
 10
283.7450946859249
 20
145.9461418802062
 30
0.0
 11
286.237774685925
 21
145.7131818802061
 31
0.0
  0
LINE
  5
1933
330
1C89
100
AcDbEntity
  8
1
  6
Continuous
100
AcDbLine
 10
283.1377746859248
 20
148.4085788802062
 30
0.0
 11
286.237774685925
 21
148.4085788802062
 31
0.0
  0
ARC
  5
1934
330
1C89
100
AcDbEntity
  8
1
  6
Continuous
100
AcDbCircle
 10
283.8377746859249
 20
144.6027788802061
 30
0.0
 40
0.7
100
AcDbArc
 50
97.60824799999967
 51
277.6082479999996
  0
LINE
  5
1935
330
1C89
100
AcDbEntity
  8
1
  6
Continuous
100
AcDbLine
 10
283.7767576859249
 20
147.7112438802062
 30
0.0
 11
285.4648616859249
 21
147.5635348802063
 31
0.0
  0
ARC
  5
1936
330
1C89
100
AcDbEntity
  8
1
  6
Continuous
100
AcDbCircle
 10
283.8377746859249
 20
148.4085788802062
 30
0.0
 40
0.7
100
AcDbArc
 50
180.0
 51
264.9993549999998
  0
ARC
  5
1937
330
1C89
100
AcDbEntity
  8
1
  6
Continuous
100
AcDbCircle
 10
283.8377746859249
 20
146.6399788802061
 30
0.0
 40
0.7
100
AcDbArc
 50
97.60824799999967
 51
277.6082479999996
  0
LINE
  5
1938
330
1C89
100
AcDbEntity
  8
1
  6
Continuous
100
AcDbLine
 10
286.237774685925
 20
144.2171418802063
 30
0.0
 11
286.237774685925
 21
143.5923768802063
 31
0.0
  0
LINE
  5
1939
330
1C89
100
AcDbEntity
  8
1
  6
Continuous
100
AcDbLine
 10
286.237774685925
 20
146.2543418802064
 30
0.0
 11
286.237774685925
 21
145.6295768802061
 31
0.0
  0
ARC
  5
193A
330
1C89
100
AcDbEntity
  8
1
  6
Continuous
100
AcDbCircle
 10
283.8377746859249
 20
142.565578880206
 30
0.0
 40
0.7
100
AcDbArc
 50
97.60824799999967
 51
277.6082479999996
  0
LINE
  5
193C
330
1C89
100
AcDbEntity
  8
4
  6
CENTER
100
AcDbLine
 10
301.3377746859249
 20
165.3813155670704
 30
0.0
 11
301.3377746859249
 21
104.0313155670707
 31
0.0
  0
ARC
  5
1941
330
1C89
100
AcDbEntity
  8
1
  6
Continuous
100
AcDbCircle
 10
290.7377746859249
 20
129.7722925670707
 30
0.0
 40
2.1
100
AcDbArc
 50
0.0
 51
51.2032
  0
LINE
  5
1942
330
1C89
100
AcDbEntity
  8
1
  6
Continuous
100
AcDbLine
 10
291.0507746859249
 20
130.1622925670707
 30
0.0
 11
288.6217746859249
 21
132.1142925670707
 31
0.0
  0
ARC
  5
1943
330
1C89
100
AcDbEntity
  8
1
  6
Continuous
100
AcDbCircle
 10
311.9377746859249
 20
129.7722925670707
 30
0.0
 40
2.1
100
AcDbArc
 50
128.7968
 51
180.0
  0
LINE
  5
1944
330
1C89
100
AcDbEntity
  8
1
  6
Continuous
100
AcDbLine
 10
311.6247746859249
 20
130.1622925670707
 30
0.0
 11
314.0537746859248
 21
132.1142925670707
 31
0.0
  0
LINE
  5
1948
330
1C89
100
AcDbEntity
  8
4
  6
CENTER
100
AcDbLine
 10
288.3377746859249
 20
127.0313155670707
 30
0.0
 11
314.3377746859249
 21
127.0313155670707
 31
0.0
  0
LINE
  5
194C
330
1C89
100
AcDbEntity
  8
1
  6
Continuous
100
AcDbLine
 10
293.7377746859249
 20
128.5313155670707
 30
0.0
 11
292.8377746859249
 21
128.5313155670707
 31
0.0
  0
ARC
  5
194D
330
1C89
100
AcDbEntity
  8
1
  6
Continuous
100
AcDbCircle
 10
290.7377746859249
 20
129.7722925670707
 30
0.0
 40
0.5
100
AcDbArc
 50
0.0
 51
51.2032
  0
LINE
  5
194E
330
1C89
100
AcDbEntity
  8
1
  6
Continuous
100
AcDbLine
 10
293.7377746859249
 20
125.5313155670707
 30
0.0
 11
292.8377746859249
 21
125.5313155670707
 31
0.0
  0
LINE
  5
194F
330
1C89
100
AcDbEntity
  8
1
  6
Continuous
100
AcDbLine
 10
291.2377746859249
 20
123.5313155670707
 30
0.0
 11
292.8377746859249
 21
123.5313155670707
 31
0.0
  0
LINE
  5
1951
330
1C89
100
AcDbEntity
  8
1
  6
Continuous
100
AcDbLine
 10
291.2377746859249
 20
129.7722925670707
 30
0.0
 11
291.2377746859249
 21
123.5313155670707
 31
0.0
  0
LINE
  5
1952
330
1C89
100
AcDbEntity
  8
1
  6
Continuous
100
AcDbLine
 10
292.8377746859249
 20
129.7722925670707
 30
0.0
 11
292.8377746859249
 21
123.5313155670707
 31
0.0
  0
LINE
  5
1953
330
1C89
100
AcDbEntity
  8
1
  6
Continuous
100
AcDbLine
 10
290.3377746859249
 20
128.0313155670707
 30
0.0
 11
290.3377746859249
 21
126.0313155670707
 31
0.0
  0
LINE
  5
1954
330
1C89
100
AcDbEntity
  8
1
  6
Continuous
100
AcDbLine
 10
291.2377746859249
 20
126.0313155670707
 30
0.0
 11
290.3377746859249
 21
126.0313155670707
 31
0.0
  0
LINE
  5
1955
330
1C89
100
AcDbEntity
  8
1
  6
Continuous
100
AcDbLine
 10
291.2377746859249
 20
128.0313155670707
 30
0.0
 11
290.3377746859249
 21
128.0313155670707
 31
0.0
  0
ARC
  5
1957
330
1C89
100
AcDbEntity
  8
1
  6
Continuous
100
AcDbCircle
 10
311.9380548278971
 20
129.7726060871333
 30
0.0
 40
0.5
100
AcDbArc
 50
128.7968
 51
180.0
  0
LINE
  5
1958
330
1C89
100
AcDbEntity
  8
1
  6
Continuous
100
AcDbLine
 10
312.3377746859249
 20
128.0313155670707
 30
0.0
 11
312.3377746859249
 21
126.0313155670707
 31
0.0
  0
LINE
  5
1959
330
1C89
100
AcDbEntity
  8
1
  6
Continuous
100
AcDbLine
 10
312.3377746859249
 20
126.0313155670707
 30
0.0
 11
311.4377746859249
 21
126.0313155670707
 31
0.0
  0
LINE
  5
195A
330
1C89
100
AcDbEntity
  8
1
  6
Continuous
100
AcDbLine
 10
312.3377746859249
 20
128.0313155670707
 30
0.0
 11
311.4377746859249
 21
128.0313155670707
 31
0.0
  0
LINE
  5
195C
330
1C89
100
AcDbEntity
  8
1
  6
Continuous
100
AcDbLine
 10
309.8377746859249
 20
128.5313155670707
 30
0.0
 11
308.9377746859249
 21
128.5313155670707
 31
0.0
  0
LINE
  5
195E
330
1C89
100
AcDbEntity
  8
1
  6
Continuous
100
AcDbLine
 10
309.8377746859249
 20
125.5313155670707
 30
0.0
 11
308.9377746859249
 21
125.5313155670707
 31
0.0
  0
LINE
  5
195F
330
1C89
100
AcDbEntity
  8
1
  6
Continuous
100
AcDbLine
 10
311.4377746859249
 20
123.5313155670707
 30
0.0
 11
309.8377746859249
 21
123.5313155670707
 31
0.0
  0
LINE
  5
1960
330
1C89
100
AcDbEntity
  8
1
  6
Continuous
100
AcDbLine
 10
309.8377746859249
 20
129.7722925670707
 30
0.0
 11
309.8377746859249
 21
123.5313155670707
 31
0.0
  0
LINE
  5
1961
330
1C89
100
AcDbEntity
  8
1
  6
Continuous
100
AcDbLine
 10
311.4377746859249
 20
129.7722925670707
 30
0.0
 11
311.4377746859249
 21
123.5313155670707
 31
0.0
  0
LINE
  5
1962
330
1C89
100
AcDbEntity
  8
1
  6
Continuous
100
AcDbLine
 10
287.8377746859249
 20
153.3685725670707
 30
0.0
 11
287.8377746859249
 21
147.8804966112063
 31
0.0
  0
LINE
  5
1963
330
1C89
100
AcDbEntity
  8
1
  6
Continuous
100
AcDbLine
 10
314.8377746859249
 20
153.3685725670707
 30
0.0
 11
314.8377746859249
 21
147.8804966112062
 31
0.0
  0
LINE
  5
1964
330
1C89
100
AcDbEntity
  8
1
  6
Continuous
100
AcDbLine
 10
316.4377746859249
 20
153.3685725670707
 30
0.0
 11
316.4377746859249
 21
148.0942166112062
 31
0.0
  0
ARC
  5
1967
330
1C89
100
AcDbEntity
  8
1
  6
Continuous
100
AcDbCircle
 10
291.8377746859249
 20
141.5969788802061
 30
0.0
 40
0.7
100
AcDbArc
 50
277.6082479999996
 51
97.60824799999967
  0
LINE
  5
1969
330
1C89
100
AcDbEntity
  8
1
  6
Continuous
100
AcDbLine
 10
289.4377746859249
 20
136.5549097418045
 30
0.0
 11
289.4377746859249
 21
133.7512925670707
 31
0.0
  0
LINE
  5
196A
330
1C89
100
AcDbEntity
  8
1
  6
Continuous
100
AcDbLine
 10
287.8377746859249
 20
136.3411847418045
 30
0.0
 11
287.8377746859249
 21
133.3622925670705
 31
0.0
  0
LINE
  5
196B
330
1C89
100
AcDbEntity
  8
1
  6
Continuous
100
AcDbLine
 10
289.4377746859249
 20
138.5329818802062
 30
0.0
 11
289.4377746859249
 21
137.9673448953741
 31
0.0
  0
LINE
  5
196C
330
1C89
100
AcDbEntity
  8
1
  6
Continuous
100
AcDbLine
 10
287.8377746859249
 20
138.3192618802062
 30
0.0
 11
287.8377746859249
 21
137.7536196953741
 31
0.0
  0
LINE
  5
196D
330
1C89
100
AcDbEntity
  8
1
  6
Continuous
100
AcDbLine
 10
287.8377746859249
 20
135.8130893960076
 30
0.0
 11
292.537774685925
 21
135.8130893960076
 31
0.0
  0
ARC
  5
196E
330
1C89
100
AcDbEntity
  8
1
  6
Continuous
100
AcDbCircle
 10
291.8377746859249
 20
135.8130893960076
 30
0.0
 40
0.7
100
AcDbArc
 50
0.0
 51
84.99935499999985
  0
LINE
  5
196F
330
1C89
100
AcDbEntity
  8
1
  6
Continuous
100
AcDbLine
 10
290.2105966859249
 20
136.6581413960074
 30
0.0
 11
291.898791685925
 21
136.5104243960076
 31
0.0
  0
ARC
  5
1970
330
1C89
100
AcDbEntity
  8
1
  6
Continuous
100
AcDbCircle
 10
291.8377746859249
 20
137.5817143960075
 30
0.0
 40
0.7
100
AcDbArc
 50
277.5535361719131
 51
83.51428489563149
  0
LINE
  5
1971
330
1C89
100
AcDbEntity
  8
1
  6
Continuous
100
AcDbLine
 10
289.5432526661447
 20
138.547071503989
 30
0.0
 11
291.9168435320365
 21
138.2772344299206
 31
0.0
  0
ARC
  5
1972
330
1C89
100
AcDbEntity
  8
1
  6
Continuous
100
AcDbCircle
 10
291.8377746859249
 20
139.5597788802062
 30
0.0
 40
0.7
100
AcDbArc
 50
277.6082479999996
 51
97.60824799999967
  0
LINE
  5
1973
330
1C89
100
AcDbEntity
  8
1
  6
Continuous
100
AcDbLine
 10
289.4377746859249
 20
140.570181880206
 30
0.0
 11
289.4377746859249
 21
139.9454168802062
 31
0.0
  0
LINE
  5
1974
330
1C89
100
AcDbEntity
  8
1
  6
Continuous
100
AcDbLine
 10
287.8377746859249
 20
140.3564618802061
 30
0.0
 11
287.8377746859249
 21
139.7316968802063
 31
0.0
  0
LINE
  5
1975
330
1C89
100
AcDbEntity
  8
1
  6
Continuous
100
AcDbLine
 10
289.4377746859249
 20
140.4865768802063
 30
0.0
 11
291.9304536859249
 21
140.2536168802062
 31
0.0
  0
ARC
  5
1978
330
1C89
100
AcDbEntity
  8
1
  6
Continuous
100
AcDbCircle
 10
289.9377746859249
 20
133.7512925670707
 30
0.0
 40
0.5
100
AcDbArc
 50
180.0
 51
231.203
  0
ARC
  5
1979
330
1C89
100
AcDbEntity
  8
1
  6
Continuous
100
AcDbCircle
 10
289.9377746859249
 20
133.7512925670707
 30
0.0
 40
2.1
100
AcDbArc
 50
180.0
 51
231.203
  0
LINE
  5
197A
330
1C89
100
AcDbEntity
  8
1
  6
Continuous
100
AcDbLine
 10
289.6247746859249
 20
133.3612925670707
 30
0.0
 11
292.0537746859249
 21
131.4092925670707
 31
0.0
  0
LINE
  5
197B
330
1C89
100
AcDbEntity
  8
1
  6
Continuous
100
AcDbLine
 10
287.8377746859249
 20
151.1337898989076
 30
0.0
 11
289.4377746859249
 21
151.1337898989076
 31
0.0
  0
LINE
  5
197C
330
1C89
100
AcDbEntity
  8
1
  6
Continuous
100
AcDbLine
 10
289.4377746859249
 20
151.1337898989076
 30
0.0
 11
289.4377746859249
 21
148.0942166112063
 31
0.0
  0
LINE
  5
197D
330
1C89
100
AcDbEntity
  8
1
  6
Continuous
100
AcDbLine
 10
287.8377746859249
 20
148.4085788802062
 30
0.0
 11
289.4377746859249
 21
148.4085788802062
 31
0.0
  0
ARC
  5
197E
330
1C89
100
AcDbEntity
  8
1
  6
Continuous
100
AcDbCircle
 10
291.8377746859249
 20
143.6341788802059
 30
0.0
 40
0.7
100
AcDbArc
 50
277.6082479999996
 51
97.60824799999967
  0
LINE
  5
197F
330
1C89
100
AcDbEntity
  8
1
  6
Continuous
100
AcDbLine
 10
287.8377746859249
 20
144.4308618802063
 30
0.0
 11
287.8377746859249
 21
143.8060968802061
 31
0.0
  0
LINE
  5
1980
330
1C89
100
AcDbEntity
  8
1
  6
Continuous
100
AcDbLine
 10
289.4377746859249
 20
142.6073818802061
 30
0.0
 11
289.4377746859249
 21
141.9826168802061
 31
0.0
  0
LINE
  5
1981
330
1C89
100
AcDbEntity
  8
1
  6
Continuous
100
AcDbLine
 10
289.4377746859249
 20
142.5237768802063
 30
0.0
 11
291.9304536859249
 21
142.2908168802061
 31
0.0
  0
ARC
  5
1982
330
1C89
100
AcDbEntity
  8
1
  6
Continuous
100
AcDbCircle
 10
291.8377746859249
 20
147.7085788802062
 30
0.0
 40
0.7
100
AcDbArc
 50
277.6082479999996
 51
97.60824799999967
  0
ARC
  5
1983
330
1C89
100
AcDbEntity
  8
1
  6
Continuous
100
AcDbCircle
 10
291.8377746859249
 20
145.6713788802062
 30
0.0
 40
0.7
100
AcDbArc
 50
277.6082479999996
 51
97.60824799999967
  0
LINE
  5
1984
330
1C89
100
AcDbEntity
  8
1
  6
Continuous
100
AcDbLine
 10
287.8377746859249
 20
148.4085788802062
 30
0.0
 11
289.4377746859249
 21
148.4085788802062
 31
0.0
  0
LINE
  5
1985
330
1C89
100
AcDbEntity
  8
1
  6
Continuous
100
AcDbLine
 10
289.4377746859249
 20
146.6817818802064
 30
0.0
 11
289.4377746859249
 21
146.0570168802064
 31
0.0
  0
LINE
  5
1986
330
1C89
100
AcDbEntity
  8
1
  6
Continuous
100
AcDbLine
 10
287.8377746859249
 20
146.4680618802064
 30
0.0
 11
287.8377746859249
 21
145.8432968802062
 31
0.0
  0
LINE
  5
1987
330
1C89
100
AcDbEntity
  8
1
  6
Continuous
100
AcDbLine
 10
289.4377746859249
 20
144.6445818802063
 30
0.0
 11
289.4377746859249
 21
144.0198168802061
 31
0.0
  0
LINE
  5
1988
330
1C89
100
AcDbEntity
  8
1
  6
Continuous
100
AcDbLine
 10
289.4377746859249
 20
144.5609768802061
 30
0.0
 11
291.9304536859249
 21
144.3280168802061
 31
0.0
  0
LINE
  5
1989
330
1C89
100
AcDbEntity
  8
1
  6
Continuous
100
AcDbLine
 10
289.4377746859249
 20
146.5981768802062
 30
0.0
 11
291.9304536859249
 21
146.3652168802062
 31
0.0
  0
LINE
  5
198A
330
1C89
100
AcDbEntity
  8
1
  6
Continuous
100
AcDbLine
 10
287.8377746859249
 20
148.4085788802062
 30
0.0
 11
291.8377746859249
 21
148.4085788802062
 31
0.0
  0
LINE
  5
198B
330
1C89
100
AcDbEntity
  8
1
  6
Continuous
100
AcDbLine
 10
287.8377746859249
 20
142.3936618802062
 30
0.0
 11
287.8377746859249
 21
141.768896880206
 31
0.0
  0
LINE
  5
198D
330
1C89
100
AcDbEntity
  8
1
  6
Continuous
100
AcDbLine
 10
318.7450946859249
 20
142.2908168802061
 30
0.0
 11
310.7450946859249
 21
141.2222168802062
 31
0.0
  0
LINE
  5
198E
330
1C89
100
AcDbEntity
  8
1
  6
Continuous
100
AcDbLine
 10
310.7450946859249
 20
141.8717418802061
 30
0.0
 11
313.2377746859249
 21
141.638781880206
 31
0.0
  0
LINE
  5
198F
330
1C89
100
AcDbEntity
  8
1
  6
Continuous
100
AcDbLine
 10
313.2377746859249
 20
142.1799418802061
 30
0.0
 11
313.2377746859249
 21
141.5551768802061
 31
0.0
  0
ARC
  5
1990
330
1C89
100
AcDbEntity
  8
1
  6
Continuous
100
AcDbCircle
 10
318.8377746859249
 20
141.5969788802061
 30
0.0
 40
0.7
100
AcDbArc
 50
277.6082479999996
 51
97.60824799999967
  0
LINE
  5
1992
330
1C89
100
AcDbEntity
  8
1
  6
Continuous
100
AcDbLine
 10
310.7587058398132
 20
137.795658846293
 30
0.0
 11
313.1323648152763
 21
137.5258140293201
 31
0.0
  0
LINE
  5
1993
330
1C89
100
AcDbEntity
  8
1
  6
Continuous
100
AcDbLine
 10
318.8308610404713
 20
138.2870091827133
 30
0.0
 11
310.7450926859249
 21
137.2069263960076
 31
0.0
  0
LINE
  5
1994
330
1C89
100
AcDbEntity
  8
1
  6
Continuous
100
AcDbLine
 10
310.8377746859249
 20
135.8130893960076
 30
0.0
 11
313.2377746859249
 21
135.8130893960076
 31
0.0
  0
LINE
  5
1995
330
1C89
100
AcDbEntity
  8
1
  6
Continuous
100
AcDbLine
 10
318.9304556859249
 20
136.8878773960076
 30
0.0
 11
310.9304556859249
 21
135.8192523960076
 31
0.0
  0
LINE
  5
1996
330
1C89
100
AcDbEntity
  8
1
  6
Continuous
100
AcDbLine
 10
318.9304536859249
 20
138.865941880206
 30
0.0
 11
310.9304536859249
 21
137.7973418802062
 31
0.0
  0
LINE
  5
1997
330
1C89
100
AcDbEntity
  8
1
  6
Continuous
100
AcDbLine
 10
318.7450946859249
 20
140.2536168802062
 30
0.0
 11
310.7450946859249
 21
139.1850168802062
 31
0.0
  0
LINE
  5
1998
330
1C89
100
AcDbEntity
  8
1
  6
Continuous
100
AcDbLine
 10
318.9304536859249
 20
140.9031418802061
 30
0.0
 11
310.9304536859249
 21
139.834541880206
 31
0.0
  0
LINE
  5
1999
330
1C89
100
AcDbEntity
  8
1
  6
Continuous
100
AcDbLine
 10
310.7450946859249
 20
139.834541880206
 30
0.0
 11
313.2377746859249
 21
139.601581880206
 31
0.0
  0
LINE
  5
199A
330
1C89
100
AcDbEntity
  8
1
  6
Continuous
100
AcDbLine
 10
313.0507746859249
 20
133.3612925670707
 30
0.0
 11
310.6217746859249
 21
131.4092925670707
 31
0.0
  0
ARC
  5
199B
330
1C89
100
AcDbEntity
  8
1
  6
Continuous
100
AcDbCircle
 10
310.8377751032318
 20
138.4911792074352
 30
0.0
 40
0.7000002685059222
100
AcDbArc
 50
97.6083327583067
 51
277.6823471123944
  0
ARC
  5
199C
330
1C89
100
AcDbEntity
  8
1
  6
Continuous
100
AcDbCircle
 10
310.8377746859249
 20
136.5130893960075
 30
0.0
 40
0.7
100
AcDbArc
 50
97.60842700000008
 51
277.6084270000001
  0
ARC
  5
199D
330
1C89
100
AcDbEntity
  8
1
  6
Continuous
100
AcDbCircle
 10
310.8377746859249
 20
140.5283788802062
 30
0.0
 40
0.7
100
AcDbArc
 50
97.60824799999967
 51
277.6082479999996
  0
LINE
  5
19A1
330
1C89
100
AcDbEntity
  8
1
  6
Continuous
100
AcDbLine
 10
316.4377746859249
 20
133.3140766774787
 30
0.0
 11
314.8377746859249
 21
133.3140766774787
 31
0.0
  0
LINE
  5
19A2
330
1C89
100
AcDbEntity
  8
1
  6
Continuous
100
AcDbLine
 10
314.8377746859249
 20
136.3411847418045
 30
0.0
 11
314.8377746859249
 21
133.3140766774787
 31
0.0
  0
LINE
  5
19A3
330
1C89
100
AcDbEntity
  8
1
  6
Continuous
100
AcDbLine
 10
316.4377746859249
 20
136.5549097418045
 30
0.0
 11
316.4377746859249
 21
133.3140766774787
 31
0.0
  0
LINE
  5
19A4
330
1C89
100
AcDbEntity
  8
1
  6
Continuous
100
AcDbLine
 10
316.5432526661447
 20
138.547071503989
 30
0.0
 11
318.9168435320365
 21
138.2772344299206
 31
0.0
  0
ARC
  5
19A5
330
1C89
100
AcDbEntity
  8
1
  6
Continuous
100
AcDbCircle
 10
318.8377746859249
 20
137.5817143960075
 30
0.0
 40
0.7
100
AcDbArc
 50
277.5535361719131
 51
83.51428489563149
  0
LINE
  5
19A6
330
1C89
100
AcDbEntity
  8
1
  6
Continuous
100
AcDbLine
 10
316.4377746859249
 20
138.5329818802062
 30
0.0
 11
316.4377746859249
 21
137.9673448953741
 31
0.0
  0
LINE
  5
19A7
330
1C89
100
AcDbEntity
  8
1
  6
Continuous
100
AcDbLine
 10
314.8377746859249
 20
138.3192618802062
 30
0.0
 11
314.8377746859249
 21
137.7536196953741
 31
0.0
  0
LINE
  5
19A8
330
1C89
100
AcDbEntity
  8
1
  6
Continuous
100
AcDbLine
 10
313.2377746859249
 20
138.1055418802063
 30
0.0
 11
313.2377746859249
 21
137.5398944953741
 31
0.0
  0
LINE
  5
19A9
330
1C89
100
AcDbEntity
  8
1
  6
Continuous
100
AcDbLine
 10
313.2377746859249
 20
136.1274597418045
 30
0.0
 11
313.2377746859249
 21
133.7512925670707
 31
0.0
  0
LINE
  5
19AA
330
1C89
100
AcDbEntity
  8
1
  6
Continuous
100
AcDbLine
 10
317.2105966859249
 20
136.6581413960074
 30
0.0
 11
318.898791685925
 21
136.5104243960076
 31
0.0
  0
ARC
  5
19AB
330
1C89
100
AcDbEntity
  8
1
  6
Continuous
100
AcDbCircle
 10
318.8377746859249
 20
135.8130893960076
 30
0.0
 40
0.7
100
AcDbArc
 50
0.0
 51
84.99935499999985
  0
LINE
  5
19AC
330
1C89
100
AcDbEntity
  8
1
  6
Continuous
100
AcDbLine
 10
314.8377746859249
 20
135.8130893960076
 30
0.0
 11
319.537774685925
 21
135.8130893960076
 31
0.0
  0
LINE
  5
19AD
330
1C89
100
AcDbEntity
  8
1
  6
Continuous
100
AcDbLine
 10
316.4377746859249
 20
140.4865768802063
 30
0.0
 11
318.9304536859249
 21
140.2536168802062
 31
0.0
  0
LINE
  5
19AE
330
1C89
100
AcDbEntity
  8
1
  6
Continuous
100
AcDbLine
 10
314.8377746859249
 20
140.3564618802061
 30
0.0
 11
314.8377746859249
 21
139.7316968802063
 31
0.0
  0
LINE
  5
19AF
330
1C89
100
AcDbEntity
  8
1
  6
Continuous
100
AcDbLine
 10
316.4377746859249
 20
140.570181880206
 30
0.0
 11
316.4377746859249
 21
139.9454168802062
 31
0.0
  0
LINE
  5
19B0
330
1C89
100
AcDbEntity
  8
1
  6
Continuous
100
AcDbLine
 10
313.2377746859249
 20
140.1427418802061
 30
0.0
 11
313.2377746859249
 21
139.5179768802062
 31
0.0
  0
ARC
  5
19B1
330
1C89
100
AcDbEntity
  8
1
  6
Continuous
100
AcDbCircle
 10
318.8377746859249
 20
139.5597788802062
 30
0.0
 40
0.7
100
AcDbArc
 50
277.6082479999996
 51
97.60824799999967
  0
ARC
  5
19B2
330
1C89
100
AcDbEntity
  8
1
  6
Continuous
100
AcDbCircle
 10
312.7377746859249
 20
133.7512925670707
 30
0.0
 40
0.5
100
AcDbArc
 50
308.7969999999998
 51
0.000000000000007
  0
ARC
  5
19B3
330
1C89
100
AcDbEntity
  8
1
  6
Continuous
100
AcDbCircle
 10
312.7377746859249
 20
133.7512925670707
 30
0.0
 40
2.1
100
AcDbArc
 50
308.7969999999998
 51
0.000000000000007
  0
LINE
  5
19B4
330
1C89
100
AcDbEntity
  8
1
  6
Continuous
100
AcDbLine
 10
318.9304536859249
 20
142.9403418802063
 30
0.0
 11
310.9304536859249
 21
141.8717418802061
 31
0.0
  0
LINE
  5
19B5
330
1C89
100
AcDbEntity
  8
1
  6
Continuous
100
AcDbLine
 10
318.9304536859249
 20
144.9775418802063
 30
0.0
 11
310.9304536859249
 21
143.9089418802064
 31
0.0
  0
LINE
  5
19B6
330
1C89
100
AcDbEntity
  8
1
  6
Continuous
100
AcDbLine
 10
318.7450946859249
 20
146.3652168802062
 30
0.0
 11
310.7450946859249
 21
145.2966168802063
 31
0.0
  0
LINE
  5
19B7
330
1C89
100
AcDbEntity
  8
1
  6
Continuous
100
AcDbLine
 10
318.9304536859249
 20
147.0147418802062
 30
0.0
 11
310.9304536859249
 21
145.9461418802062
 31
0.0
  0
LINE
  5
19B8
330
1C89
100
AcDbEntity
  8
1
  6
Continuous
100
AcDbLine
 10
318.7450946859249
 20
148.4024168802063
 30
0.0
 11
310.7450946859249
 21
147.3338168802061
 31
0.0
  0
LINE
  5
19B9
330
1C89
100
AcDbEntity
  8
1
  6
Continuous
100
AcDbLine
 10
318.7450946859249
 20
144.3280168802061
 30
0.0
 11
310.7450946859249
 21
143.259416880206
 31
0.0
  0
LINE
  5
19BA
330
1C89
100
AcDbEntity
  8
1
  6
Continuous
100
AcDbLine
 10
310.7450946859249
 20
143.9089418802064
 30
0.0
 11
313.2377746859249
 21
143.6759818802062
 31
0.0
  0
LINE
  5
19BB
330
1C89
100
AcDbEntity
  8
1
  6
Continuous
100
AcDbLine
 10
310.7450946859249
 20
145.9461418802062
 30
0.0
 11
313.2377746859249
 21
145.7131818802061
 31
0.0
  0
LINE
  5
19BC
330
1C89
100
AcDbEntity
  8
1
  6
Continuous
100
AcDbLine
 10
310.1377746859248
 20
148.4085788802062
 30
0.0
 11
314.8377746859249
 21
148.4085788802062
 31
0.0
  0
ARC
  5
19BD
330
1C89
100
AcDbEntity
  8
1
  6
Continuous
100
AcDbCircle
 10
310.8377746859249
 20
144.6027788802061
 30
0.0
 40
0.7
100
AcDbArc
 50
97.60824799999967
 51
277.6082479999996
  0
LINE
  5
19BE
330
1C89
100
AcDbEntity
  8
1
  6
Continuous
100
AcDbLine
 10
310.7767576859249
 20
147.7112438802062
 30
0.0
 11
312.4648616859249
 21
147.5635348802063
 31
0.0
  0
ARC
  5
19BF
330
1C89
100
AcDbEntity
  8
1
  6
Continuous
100
AcDbCircle
 10
310.8377746859249
 20
148.4085788802062
 30
0.0
 40
0.7
100
AcDbArc
 50
180.0
 51
264.9993549999998
  0
ARC
  5
19C0
330
1C89
100
AcDbEntity
  8
1
  6
Continuous
100
AcDbCircle
 10
310.8377746859249
 20
146.6399788802061
 30
0.0
 40
0.7
100
AcDbArc
 50
97.60824799999967
 51
277.6082479999996
  0
ARC
  5
19C1
330
1C89
100
AcDbEntity
  8
1
  6
Continuous
100
AcDbCircle
 10
310.8377746859249
 20
142.565578880206
 30
0.0
 40
0.7
100
AcDbArc
 50
97.60824799999967
 51
277.6082479999996
  0
LINE
  5
19C3
330
1C89
100
AcDbEntity
  8
1
  6
Continuous
100
AcDbLine
 10
314.8377746859249
 20
151.1337898989076
 30
0.0
 11
313.2377746859249
 21
151.1337898989076
 31
0.0
  0
LINE
  5
19C4
330
1C89
100
AcDbEntity
  8
1
  6
Continuous
100
AcDbLine
 10
313.2377746859249
 20
151.1337898989076
 30
0.0
 11
313.2377746859248
 21
147.6667766112062
 31
0.0
  0
LINE
  5
19C5
330
1C89
100
AcDbEntity
  8
1
  6
Continuous
100
AcDbLine
 10
316.4377746859249
 20
148.4085788802062
 30
0.0
 11
318.8377746859249
 21
148.4085788802062
 31
0.0
  0
LINE
  5
19C6
330
1C89
100
AcDbEntity
  8
1
  6
Continuous
100
AcDbLine
 10
316.4377746859249
 20
142.5237768802063
 30
0.0
 11
318.9304536859249
 21
142.2908168802061
 31
0.0
  0
LINE
  5
19C7
330
1C89
100
AcDbEntity
  8
1
  6
Continuous
100
AcDbLine
 10
316.4377746859249
 20
146.5981768802062
 30
0.0
 11
318.9304536859249
 21
146.3652168802062
 31
0.0
  0
LINE
  5
19C8
330
1C89
100
AcDbEntity
  8
1
  6
Continuous
100
AcDbLine
 10
316.4377746859249
 20
144.5609768802061
 30
0.0
 11
318.9304536859249
 21
144.3280168802061
 31
0.0
  0
LINE
  5
19C9
330
1C89
100
AcDbEntity
  8
1
  6
Continuous
100
AcDbLine
 10
314.8377746859249
 20
144.4308618802063
 30
0.0
 11
314.8377746859249
 21
143.8060968802061
 31
0.0
  0
LINE
  5
19CA
330
1C89
100
AcDbEntity
  8
1
  6
Continuous
100
AcDbLine
 10
313.2377746859249
 20
144.2171418802063
 30
0.0
 11
313.2377746859249
 21
143.5923768802063
 31
0.0
  0
LINE
  5
19CB
330
1C89
100
AcDbEntity
  8
1
  6
Continuous
100
AcDbLine
 10
316.4377746859249
 20
142.6073818802061
 30
0.0
 11
316.4377746859249
 21
141.9826168802061
 31
0.0
  0
LINE
  5
19CC
330
1C89
100
AcDbEntity
  8
1
  6
Continuous
100
AcDbLine
 10
316.4377746859249
 20
144.6445818802063
 30
0.0
 11
316.4377746859249
 21
144.0198168802061
 31
0.0
  0
LINE
  5
19CD
330
1C89
100
AcDbEntity
  8
1
  6
Continuous
100
AcDbLine
 10
314.8377746859249
 20
146.4680618802064
 30
0.0
 11
314.8377746859249
 21
145.8432968802062
 31
0.0
  0
LINE
  5
19CE
330
1C89
100
AcDbEntity
  8
1
  6
Continuous
100
AcDbLine
 10
316.4377746859249
 20
146.6817818802064
 30
0.0
 11
316.4377746859249
 21
146.0570168802064
 31
0.0
  0
LINE
  5
19CF
330
1C89
100
AcDbEntity
  8
1
  6
Continuous
100
AcDbLine
 10
313.2377746859249
 20
146.2543418802064
 30
0.0
 11
313.2377746859249
 21
145.6295768802061
 31
0.0
  0
ARC
  5
19D0
330
1C89
100
AcDbEntity
  8
1
  6
Continuous
100
AcDbCircle
 10
318.8377746859249
 20
143.6341788802059
 30
0.0
 40
0.7
100
AcDbArc
 50
277.6082479999996
 51
97.60824799999967
  0
ARC
  5
19D1
330
1C89
100
AcDbEntity
  8
1
  6
Continuous
100
AcDbCircle
 10
318.8377746859249
 20
147.7085788802062
 30
0.0
 40
0.7
100
AcDbArc
 50
277.6082479999996
 51
97.60824799999967
  0
ARC
  5
19D2
330
1C89
100
AcDbEntity
  8
1
  6
Continuous
100
AcDbCircle
 10
318.8377746859249
 20
145.6713788802062
 30
0.0
 40
0.7
100
AcDbArc
 50
277.6082479999996
 51
97.60824799999967
  0
LINE
  5
19D3
330
1C89
100
AcDbEntity
  8
1
  6
Continuous
100
AcDbLine
 10
314.8377746859249
 20
142.3936618802062
 30
0.0
 11
314.8377746859249
 21
141.768896880206
 31
0.0
  0
LINE
  5
19D4
330
1C89
100
AcDbEntity
  8
1
  6
Continuous
100
AcDbLine
 10
309.8377746859249
 20
157.3813155670707
 30
0.0
 11
292.8377746859249
 21
157.3813155670707
 31
0.0
  0
LINE
  5
19D5
330
1C89
100
AcDbEntity
  8
1
  6
Continuous
100
AcDbLine
 10
309.8377746859249
 20
160.3813155670707
 30
0.0
 11
292.8377746859249
 21
160.3813155670707
 31
0.0
  0
LINE
  5
19D6
330
1C89
100
AcDbEntity
  8
4
  6
CENTER
100
AcDbLine
 10
314.3377746859249
 20
158.8813155670707
 30
0.0
 11
288.3377746859249
 21
158.8813155670707
 31
0.0
  0
LINE
  5
19D7
330
1C89
100
AcDbEntity
  8
1
  6
Continuous
100
AcDbLine
 10
291.2377746859249
 20
161.3813155670707
 30
0.0
 11
292.8377746859249
 21
161.3813155670707
 31
0.0
  0
LINE
  5
19D8
330
1C89
100
AcDbEntity
  8
1
  6
Continuous
100
AcDbLine
 10
292.5707446859249
 20
155.4685725670707
 30
0.0
 11
291.4037966859249
 21
155.4685725670707
 31
0.0
  0
LINE
  5
19D9
330
1C89
100
AcDbEntity
  8
1
  6
Continuous
100
AcDbLine
 10
291.2377746859249
 20
161.3813155670707
 30
0.0
 11
291.2377746859249
 21
155.9685725670707
 31
0.0
  0
LINE
  5
19DA
330
1C89
100
AcDbEntity
  8
1
  6
Continuous
100
AcDbLine
 10
292.8377746859249
 20
161.3813155670707
 30
0.0
 11
292.8377746859249
 21
155.9685725670707
 31
0.0
  0
LINE
  5
19DB
330
1C89
100
AcDbEntity
  8
1
  6
Continuous
100
AcDbLine
 10
290.3377746859249
 20
159.8813155670707
 30
0.0
 11
290.3377746859249
 21
157.8813155670706
 31
0.0
  0
ARC
  5
19DC
330
1C89
100
AcDbEntity
  8
1
  6
Continuous
100
AcDbCircle
 10
288.3377746859249
 20
153.3685725670707
 30
0.0
 40
0.5
100
AcDbArc
 50
90.0
 51
180.0
  0
LINE
  5
19DD
330
1C89
100
AcDbEntity
  8
1
  6
Continuous
100
AcDbLine
 10
288.3377746859249
 20
155.4685725670707
 30
0.0
 11
290.7377746859249
 21
155.4685725670707
 31
0.0
  0
LINE
  5
19DE
330
1C89
100
AcDbEntity
  8
1
  6
Continuous
100
AcDbLine
 10
288.3377746859249
 20
153.8685725670707
 30
0.0
 11
290.7377746859249
 21
153.8685725670707
 31
0.0
  0
ARC
  5
19DF
330
1C89
100
AcDbEntity
  8
1
  6
Continuous
100
AcDbCircle
 10
290.7377746859249
 20
155.9685725670707
 30
0.0
 40
0.5
100
AcDbArc
 50
270.0
 51
0.0
  0
ARC
  5
19E0
330
1C89
100
AcDbEntity
  8
1
  6
Continuous
100
AcDbCircle
 10
290.7377746859249
 20
155.9685725670707
 30
0.0
 40
2.1
100
AcDbArc
 50
270.0
 51
0.0
  0
LINE
  5
19E1
330
1C89
100
AcDbEntity
  8
1
  6
Continuous
100
AcDbLine
 10
291.2377746859249
 20
157.8813155670706
 30
0.0
 11
290.3377746859249
 21
157.8813155670706
 31
0.0
  0
LINE
  5
19E2
330
1C89
100
AcDbEntity
  8
1
  6
Continuous
100
AcDbLine
 10
291.2377746859249
 20
159.8813155670707
 30
0.0
 11
290.3377746859249
 21
159.8813155670707
 31
0.0
  0
LINE
  5
19E3
330
1C89
100
AcDbEntity
  8
1
  6
Continuous
100
AcDbLine
 10
314.3377746859249
 20
153.8685725670707
 30
0.0
 11
311.9377746859249
 21
153.8685725670707
 31
0.0
  0
LINE
  5
19E4
330
1C89
100
AcDbEntity
  8
1
  6
Continuous
100
AcDbLine
 10
314.3377746859249
 20
155.4685725670707
 30
0.0
 11
311.9377746859249
 21
155.4685725670707
 31
0.0
  0
LINE
  5
19E5
330
1C89
100
AcDbEntity
  8
1
  6
Continuous
100
AcDbLine
 10
312.3377746859249
 20
159.8813155670707
 30
0.0
 11
312.3377746859249
 21
157.8813155670706
 31
0.0
  0
LINE
  5
19E6
330
1C89
100
AcDbEntity
  8
1
  6
Continuous
100
AcDbLine
 10
311.4377746859249
 20
157.8813155670706
 30
0.0
 11
312.3377746859249
 21
157.8813155670706
 31
0.0
  0
LINE
  5
19E7
330
1C89
100
AcDbEntity
  8
1
  6
Continuous
100
AcDbLine
 10
311.4377746859249
 20
159.8813155670707
 30
0.0
 11
312.3377746859249
 21
159.8813155670707
 31
0.0
  0
LINE
  5
19E8
330
1C89
100
AcDbEntity
  8
1
  6
Continuous
100
AcDbLine
 10
311.4377746859249
 20
161.3813155670707
 30
0.0
 11
309.8377746859249
 21
161.3813155670707
 31
0.0
  0
ARC
  5
19E9
330
1C89
100
AcDbEntity
  8
1
  6
Continuous
100
AcDbCircle
 10
311.9377746859249
 20
155.9685725670707
 30
0.0
 40
0.5
100
AcDbArc
 50
180.0
 51
270.0
  0
ARC
  5
19EA
330
1C89
100
AcDbEntity
  8
1
  6
Continuous
100
AcDbCircle
 10
311.9377746859249
 20
155.9685725670707
 30
0.0
 40
2.1
100
AcDbArc
 50
180.0
 51
270.0
  0
LINE
  5
19EB
330
1C89
100
AcDbEntity
  8
1
  6
Continuous
100
AcDbLine
 10
310.1048036859249
 20
155.4685725670707
 30
0.0
 11
311.2717526859249
 21
155.4685725670707
 31
0.0
  0
LINE
  5
19EC
330
1C89
100
AcDbEntity
  8
1
  6
Continuous
100
AcDbLine
 10
309.8377746859249
 20
161.3813155670707
 30
0.0
 11
309.8377746859249
 21
155.9685725670707
 31
0.0
  0
LINE
  5
19ED
330
1C89
100
AcDbEntity
  8
1
  6
Continuous
100
AcDbLine
 10
311.4377746859249
 20
161.3813155670707
 30
0.0
 11
311.4377746859249
 21
155.9685725670707
 31
0.0
  0
ARC
  5
19EE
330
1C89
100
AcDbEntity
  8
1
  6
Continuous
100
AcDbCircle
 10
314.3377746859249
 20
153.3685725670707
 30
0.0
 40
0.5
100
AcDbArc
 50
0.0
 51
90.0
  0
ARC
  5
19EF
330
1C89
100
AcDbEntity
  8
1
  6
Continuous
100
AcDbCircle
 10
314.3377746859249
 20
153.3685725670707
 30
0.0
 40
2.1
100
AcDbArc
 50
0.0
 51
90.0
  0
LINE
  5
1A31
330
1C89
100
AcDbEntity
  8
1
  6
Continuous
100
AcDbLine
 10
313.2377746859249
 20
150.9079927630948
 30
0.0
 11
314.8377746859249
 21
150.9079927630949
 31
0.0
  0
LINE
  5
1A32
330
1C89
100
AcDbEntity
  8
1
  6
Continuous
100
AcDbLine
 10
287.8377746859248
 20
150.9079927630948
 30
0.0
 11
289.4377746859249
 21
150.9079927630949
 31
0.0
  0
LINE
  5
1AB4
330
1C89
100
AcDbEntity
  8
1
  6
Continuous
100
AcDbLine
 10
56.43767468592495
 20
223.9561675044057
 30
0.0
 11
54.83767468592493
 21
223.9561675044057
 31
0.0
  0
LINE
  5
1AB6
330
1C89
100
AcDbEntity
  8
1
  6
Continuous
100
AcDbLine
 10
56.43767468592495
 20
225.8678156651233
 30
0.0
 11
56.43767468592495
 21
231.640163540988
 31
0.0
  0
LINE
  5
1AB7
330
1C89
100
AcDbEntity
  8
1
  6
Continuous
100
AcDbLine
 10
54.83767468592493
 20
223.9561675044057
 30
0.0
 11
54.83767468592493
 21
224.0539896030556
 31
0.0
  0
ARC
  5
1AB9
330
1C89
100
AcDbEntity
  8
1
  6
Continuous
100
AcDbCircle
 10
54.83767468592493
 20
228.7539896030557
 30
0.0
 40
3.299999999999998
100
AcDbArc
 50
119.0025460266712
 51
125.3463620746045
  0
ARC
  5
1ABA
330
1C89
100
AcDbEntity
  8
1
  6
Continuous
100
AcDbCircle
 10
54.83767468592493
 20
228.7539896030557
 30
0.0
 40
3.299999999999998
100
AcDbArc
 50
270.0
 51
90.00000000000012
  0
ARC
  5
1ABC
330
1C89
100
AcDbEntity
  8
1
  6
Continuous
100
AcDbCircle
 10
35.33767468592492
 20
223.2313155670707
 30
0.0
 40
1.6
100
AcDbArc
 50
180.0
 51
270.0
  0
ARC
  5
1ABD
330
1C89
100
AcDbEntity
  8
1
  6
Continuous
100
AcDbCircle
 10
27.83767468592492
 20
228.7539896030557
 30
0.0
 40
4.7
100
AcDbArc
 50
77.06798676581366
 51
330.6074322610696
  0
ARC
  5
1ABE
330
1C89
100
AcDbEntity
  8
1
  6
Continuous
100
AcDbCircle
 10
27.83767468592492
 20
228.7539896030557
 30
0.0
 40
4.7
100
AcDbArc
 50
44.59795666147796
 51
70.09699999999916
  0
LINE
  5
1ABF
330
1C89
100
AcDbEntity
  8
1
  6
Continuous
100
AcDbLine
 10
33.33767468592493
 20
232.0313155670707
 30
0.0
 11
33.33767468592493
 21
233.6313155670706
 31
0.0
  0
LINE
  5
1AC0
330
1C89
100
AcDbEntity
  8
1
  6
Continuous
100
AcDbLine
 10
35.83767468592493
 20
232.0313155670707
 30
0.0
 11
35.83767468592493
 21
233.6313155670706
 31
0.0
  0
LINE
  5
1AC1
330
1C89
100
AcDbEntity
  8
1
  6
Continuous
100
AcDbLine
 10
29.43767468592494
 20
231.4456997364758
 30
0.0
 11
29.43767468592494
 21
233.3347802322843
 31
0.0
  0
LINE
  5
1AC2
330
1C89
100
AcDbEntity
  8
1
  6
Continuous
100
AcDbLine
 10
27.83767468592493
 20
231.4456997364758
 30
0.0
 11
27.83767468592492
 21
233.3347802322843
 31
0.0
  0
LINE
  5
1AC3
330
1C89
100
AcDbEntity
  8
1
  6
Continuous
100
AcDbLine
 10
32.83767468592492
 20
226.4472731350584
 30
0.0
 11
32.83767468592492
 21
233.0313155670707
 31
0.0
  0
LINE
  5
1AC4
330
1C89
100
AcDbEntity
  8
1
  6
Continuous
100
AcDbLine
 10
31.23767468592494
 20
226.4472731350584
 30
0.0
 11
31.23767468592495
 21
233.0313155670707
 31
0.0
  0
ARC
  5
1AC5
330
1C89
100
AcDbEntity
  8
1
  6
Continuous
100
AcDbCircle
 10
27.83767468592492
 20
228.7539896030557
 30
0.0
 40
3.299999999999998
100
AcDbArc
 50
299.0025460266712
 51
315.6527713538346
  0
ARC
  5
1AC6
330
1C89
100
AcDbEntity
  8
1
  6
Continuous
100
AcDbCircle
 10
27.83767468592492
 20
228.7539896030557
 30
0.0
 40
3.299999999999998
100
AcDbArc
 50
89.99999999999991
 51
270.0
  0
LINE
  5
1AC7
330
1C89
100
AcDbEntity
  8
1
  6
Continuous
100
AcDbLine
 10
30.33767468592492
 20
231.4456997364758
 30
0.0
 11
26.2376746859249
 21
231.4456997364758
 31
0.0
  0
LINE
  5
1AC8
330
1C89
100
AcDbEntity
  8
1
  6
Continuous
100
AcDbLine
 10
26.2376746859249
 20
226.4472731350584
 30
0.0
 11
32.83767468592491
 21
226.4472731350584
 31
0.0
  0
LINE
  5
1AC9
330
1C89
100
AcDbEntity
  8
1
  6
Continuous
100
AcDbLine
 10
35.83767468592493
 20
227.6313155670707
 30
0.0
 11
35.83767468592493
 21
229.0313155670708
 31
0.0
  0
LINE
  5
1ACA
330
1C89
100
AcDbEntity
  8
1
  6
Continuous
100
AcDbLine
 10
35.33767468592492
 20
227.6313155670707
 30
0.0
 11
35.33767468592492
 21
229.0313155670708
 31
0.0
  0
LINE
  5
1ACB
330
1C89
100
AcDbEntity
  8
1
  6
Continuous
100
AcDbLine
 10
33.7376746859249
 20
223.2313155670707
 30
0.0
 11
33.7376746859249
 21
229.0313155670708
 31
0.0
  0
LINE
  5
1ACC
330
1C89
100
AcDbEntity
  8
1
  6
Continuous
100
AcDbLine
 10
31.23767468592495
 20
231.5313155670707
 30
0.0
 11
30.33767468592492
 21
231.5313155670707
 31
0.0
  0
LINE
  5
1ACD
330
1C89
100
AcDbEntity
  8
1
  6
Continuous
100
AcDbLine
 10
31.23767468592495
 20
229.5313155670708
 30
0.0
 11
30.33767468592492
 21
229.5313155670708
 31
0.0
  0
LINE
  5
1ACE
330
1C89
100
AcDbEntity
  8
1
  6
Continuous
100
AcDbLine
 10
30.33767468592492
 20
229.5313155670708
 30
0.0
 11
30.33767468592492
 21
231.5313155670707
 31
0.0
  0
LINE
  5
1ACF
330
1C89
100
AcDbEntity
  8
1
  6
Continuous
100
AcDbLine
 10
33.7376746859249
 20
226.6313155670706
 30
0.0
 11
33.33767468592493
 21
226.6313155670706
 31
0.0
  0
LINE
  5
1AD0
330
1C89
100
AcDbEntity
  8
1
  6
Continuous
100
AcDbLine
 10
33.7376746859249
 20
224.6313155670706
 30
0.0
 11
33.33767468592493
 21
224.6313155670706
 31
0.0
  0
LINE
  5
1AD1
330
1C89
100
AcDbEntity
  8
1
  6
Continuous
100
AcDbLine
 10
33.33767468592493
 20
224.6313155670706
 30
0.0
 11
33.33767468592493
 21
226.6313155670706
 31
0.0
  0
LINE
  5
1AD2
330
1C89
100
AcDbEntity
  8
1
  6
Continuous
100
AcDbLine
 10
33.7376746859249
 20
226.7313155670708
 30
0.0
 11
32.83767468592492
 21
226.7313155670708
 31
0.0
  0
LINE
  5
1AD3
330
1C89
100
AcDbEntity
  8
1
  6
Continuous
100
AcDbLine
 10
26.2376746859249
 20
223.9561675044057
 30
0.0
 11
26.2376746859249
 21
224.3347136442588
 31
0.0
  0
LINE
  5
1AD4
330
1C89
100
AcDbEntity
  8
1
  6
Continuous
100
AcDbLine
 10
27.83767468592492
 20
223.9561675044057
 30
0.0
 11
27.83767468592492
 21
224.0539896030556
 31
0.0
  0
LINE
  5
1AD5
330
1C89
100
AcDbEntity
  8
1
  6
Continuous
100
AcDbLine
 10
26.2376746859249
 20
223.9561675044057
 30
0.0
 11
27.83767468592492
 21
223.9561675044057
 31
0.0
  0
ARC
  5
1AD6
330
1C89
100
AcDbEntity
  8
1
  6
Continuous
100
AcDbCircle
 10
27.83767468592492
 20
228.7539896030557
 30
0.0
 40
3.299999999999998
100
AcDbArc
 50
54.65363792539545
 51
60.99745397332874
  0
LINE
  5
1AD7
330
1C89
100
AcDbEntity
  8
1
  6
Continuous
100
AcDbLine
 10
26.2376746859249
 20
225.8678156651233
 30
0.0
 11
26.2376746859249
 21
231.640163540988
 31
0.0
  0
LINE
  5
1AD8
330
1C89
100
AcDbEntity
  8
1
  6
Continuous
100
AcDbLine
 10
27.83767468592492
 20
224.3347802322843
 30
0.0
 11
27.83767468592492
 21
226.4472731350584
 31
0.0
  0
LINE
  5
1AD9
330
1C89
100
AcDbEntity
  8
1
  6
Continuous
100
AcDbLine
 10
29.43767468592494
 20
224.3347802322843
 30
0.0
 11
29.43767468592495
 21
226.4472731350584
 31
0.0
  0
LINE
  5
1ADA
330
1C89
100
AcDbEntity
  8
1
  6
Continuous
100
AcDbLine
 10
29.43767468592494
 20
224.3347802322843
 30
0.0
 11
27.83767468592492
 21
224.3347802322843
 31
0.0
  0
LINE
  5
1ADB
330
1C89
100
AcDbEntity
  8
1
  6
Continuous
100
AcDbLine
 10
31.23767468592495
 20
233.0313155670707
 30
0.0
 11
32.83767468592492
 21
233.0313155670707
 31
0.0
  0
LINE
  5
1ADC
330
1C89
100
AcDbEntity
  8
1
  6
Continuous
100
AcDbLine
 10
29.43767468592494
 20
233.3347802322843
 30
0.0
 11
27.83767468592492
 21
233.3347802322843
 31
0.0
  0
LINE
  5
1BE0
330
1C89
100
AcDbEntity
  8
1
  6
Continuous
100
AcDbLine
 10
56.43767468592495
 20
43.37151816711547
 30
0.0
 11
54.83767468592493
 21
43.37151816711547
 31
0.0
  0
LINE
  5
1BE4
330
1C89
100
AcDbEntity
  8
1
  6
Continuous
100
AcDbLine
 10
54.83767468592493
 20
43.08852082022903
 30
0.0
 11
54.83767468592493
 21
42.99290543895627
 31
0.0
  0
LINE
  5
1BE6
330
1C89
100
AcDbEntity
  8
1
  6
Continuous
100
AcDbLine
 10
53.23767468592492
 20
49.9906985671754
 30
0.0
 11
53.23767468592492
 21
50.6746947581614
 31
0.0
  0
ARC
  5
1BF5
330
1C89
100
AcDbEntity
  8
1
  6
Continuous
100
AcDbCircle
 10
27.83767468592492
 20
47.78852082022903
 30
0.0
 40
4.7
100
AcDbArc
 50
109.9027000000004
 51
316.3362620638007
  0
ARC
  5
1BF6
330
1C89
100
AcDbEntity
  8
1
  6
Continuous
100
AcDbCircle
 10
27.83767468592492
 20
47.78852082022903
 30
0.0
 40
4.7
100
AcDbArc
 50
37.04418090993815
 51
102.9660889217066
  0
ARC
  5
1BF7
330
1C89
100
AcDbEntity
  8
1
  6
Continuous
100
AcDbCircle
 10
27.83767468592492
 20
47.78852082022903
 30
0.0
 40
3.299999999999998
100
AcDbArc
 50
41.86106354395813
 51
90.0
  0
LINE
  5
1BF8
330
1C89
100
AcDbEntity
  8
1
  6
Continuous
100
AcDbLine
 10
31.23767468592495
 20
49.99069856717539
 30
0.0
 11
27.83767468592492
 21
49.99069856717539
 31
0.0
  0
LINE
  5
1BF9
330
1C89
100
AcDbEntity
  8
1
  6
Continuous
100
AcDbLine
 10
32.83767468592492
 20
44.63081556707066
 30
0.0
 11
27.83767468592492
 21
44.63081556707066
 31
0.0
  0
LINE
  5
1BFA
330
1C89
100
AcDbEntity
  8
1
  6
Continuous
100
AcDbLine
 10
31.23767468592495
 20
44.63081556707066
 30
0.0
 11
31.23767468592495
 21
43.23081556707069
 31
0.0
  0
LINE
  5
1BFB
330
1C89
100
AcDbEntity
  8
1
  6
Continuous
100
AcDbLine
 10
31.23767468592495
 20
50.61994498749482
 30
0.0
 11
31.23767468592495
 21
44.63081556707066
 31
0.0
  0
LINE
  5
1BFC
330
1C89
100
AcDbEntity
  8
1
  6
Continuous
100
AcDbLine
 10
31.23767468592495
 20
50.61994498749482
 30
0.0
 11
32.83767468592493
 21
50.61994498749481
 31
0.0
  0
LINE
  5
1BFD
330
1C89
100
AcDbEntity
  8
1
  6
Continuous
100
AcDbLine
 10
32.83767468592493
 20
50.61994498749482
 30
0.0
 11
32.83767468592492
 21
43.23081556707069
 31
0.0
  0
LINE
  5
1BFE
330
1C89
100
AcDbEntity
  8
1
  6
Continuous
100
AcDbLine
 10
31.23767468592495
 20
43.23081556707069
 30
0.0
 11
32.83767468592492
 21
43.23081556707069
 31
0.0
  0
LINE
  5
1BFF
330
1C89
100
AcDbEntity
  8
1
  6
Continuous
100
AcDbLine
 10
31.23767468592495
 20
49.03081556707072
 30
0.0
 11
30.33767468592492
 21
49.03081556707072
 31
0.0
  0
LINE
  5
1C00
330
1C89
100
AcDbEntity
  8
1
  6
Continuous
100
AcDbLine
 10
31.23767468592495
 20
47.03081556707072
 30
0.0
 11
30.33767468592492
 21
47.03081556707072
 31
0.0
  0
LINE
  5
1C01
330
1C89
100
AcDbEntity
  8
1
  6
Continuous
100
AcDbLine
 10
30.33767468592492
 20
49.03081556707072
 30
0.0
 11
30.33767468592492
 21
47.03081556707072
 31
0.0
  0
LINE
  5
1C02
330
1C89
100
AcDbEntity
  8
1
  6
Continuous
100
AcDbLine
 10
27.83767468592492
 20
43.08852082022903
 30
0.0
 11
27.83767468592492
 21
42.99290543895627
 31
0.0
  0
LINE
  5
1C03
330
1C89
100
AcDbEntity
  8
1
  6
Continuous
100
AcDbLine
 10
26.2376746859249
 20
43.37151816711547
 30
0.0
 11
27.83767468592492
 21
43.37151816711547
 31
0.0
  0
LINE
  5
1C04
330
1C89
100
AcDbEntity
  8
1
  6
Continuous
100
AcDbLine
 10
29.43767468592492
 20
49.9906985671754
 30
0.0
 11
29.43767468592493
 21
50.6746947581614
 31
0.0
  0
ARC
  5
1C05
330
1C89
100
AcDbEntity
  8
1
  6
Continuous
100
AcDbCircle
 10
27.83767468592492
 20
47.78852082022903
 30
0.0
 40
3.299999999999998
100
AcDbArc
 50
270.0
 51
286.886829960829
  0
LINE
  5
1C06
330
1C89
100
AcDbEntity
  8
1
  6
Continuous
100
AcDbLine
 10
27.83767468592492
 20
52.36868507834405
 30
0.0
 11
27.83767468592492
 21
43.37151816711547
 31
0.0
  0
LINE
  5
1C07
330
1C89
100
AcDbEntity
  8
1
  6
Continuous
100
AcDbLine
 10
26.2376746859249
 20
52.36868507834405
 30
0.0
 11
26.2376746859249
 21
43.37151816711547
 31
0.0
  0
LINE
  5
1C08
330
1C89
100
AcDbEntity
  8
1
  6
Continuous
100
AcDbLine
 10
27.83767468592492
 20
52.36868507834405
 30
0.0
 11
26.2376746859249
 21
52.36868507834405
 31
0.0
  0
LINE
  5
1C09
330
1C89
100
AcDbEntity
  8
1
  6
Continuous
100
AcDbLine
 10
29.43767468592493
 20
43.36924486143217
 30
0.0
 11
29.43767468592494
 21
42.99290543895628
 31
0.0
  0
LINE
  5
1C0A
330
1C89
100
AcDbEntity
  8
1
  6
Continuous
100
AcDbLine
 10
29.43767468592494
 20
42.99290543895628
 30
0.0
 11
27.83767468592492
 21
42.99290543895627
 31
0.0
  0
ARC
  5
1C0B
330
1C89
100
AcDbEntity
  8
1
  6
Continuous
100
AcDbCircle
 10
27.83767468592492
 20
47.78852082022903
 30
0.0
 40
3.299999999999998
100
AcDbArc
 50
119.0023999999997
 51
240.9979999999988
  0
ENDSEC
  0
SECTION
  2
OBJECTS
  0
DICTIONARY
  5
1C26
330
0
100
AcDbDictionary
281
     1
  3
ACAD_CIP_PREVIOUS_PRODUCT_INFO
350
1CA2
  3
ACAD_COLOR
350
1C7C
  3
ACAD_DETAILVIEWSTYLE
350
1C83
  3
ACAD_GROUP
350
1C27
  3
ACAD_LAYOUT
350
1C7B
  3
ACAD_MATERIAL
350
1C2A
  3
ACAD_MLEADERSTYLE
350
1C7F
  3
ACAD_MLINESTYLE
350
1C78
  3
ACAD_PLOTSETTINGS
350
1C7A
  3
ACAD_PLOTSTYLENAME
350
1C28
  3
ACAD_SCALELIST
350
1C5C
  3
ACAD_SECTIONVIEWSTYLE
350
1C81
  3
ACAD_TABLESTYLE
350
1C7D
  3
ACAD_VISUALSTYLE
350
1C43
  3
ACDB_RECOMPOSE_DATA
350
1CC0
  3
AcDbVariableDictionary
350
1CB3
  3
DWGPROPS
350
1CC1
  0
DICTIONARY
  5
1CA3
330
1C6E
100
AcDbDictionary
280
     1
281
     1
  3
ADSK_XREC_LAYER_RECONCILED
360
1CA4
  0
DICTIONARY
  5
1CA5
330
1C91
100
AcDbDictionary
280
     1
281
     1
  3
ADSK_XREC_LAYER_RECONCILED
360
1CA6
  0
DICTIONARY
  5
1CA7
330
1C92
100
AcDbDictionary
280
     1
281
     1
  3
ADSK_XREC_LAYER_RECONCILED
360
1CA8
  0
DICTIONARY
  5
1CA9
330
1C93
100
AcDbDictionary
280
     1
281
     1
  3
ADSK_XREC_LAYER_RECONCILED
360
1CAA
  0
DICTIONARY
  5
1CAB
330
1C94
100
AcDbDictionary
280
     1
281
     1
  3
ADSK_XREC_LAYER_RECONCILED
360
1CAC
  0
DICTIONARY
  5
1CAD
330
1C95
100
AcDbDictionary
280
     1
281
     1
  3
ADSK_XREC_LAYER_RECONCILED
360
1CAE
  0
DICTIONARY
  5
1CAF
330
1C96
100
AcDbDictionary
280
     1
281
     1
  3
ADSK_XREC_LAYER_RECONCILED
360
1CB0
  0
DICTIONARY
  5
1CB1
330
1C97
100
AcDbDictionary
280
     1
281
     1
  3
ADSK_XREC_LAYER_RECONCILED
360
1CB2
  0
XRECORD
  5
1CA2
102
{ACAD_REACTORS
330
1C26
102
}
330
1C26
100
AcDbXrecord
280
     1
300
ACDLT
300
2014
300
ACDLT_F_S
  0
DICTIONARY
  5
1C7C
102
{ACAD_REACTORS
330
1C26
102
}
330
1C26
100
AcDbDictionary
281
     1
  0
DICTIONARY
  5
1C83
102
{ACAD_REACTORS
330
1C26
102
}
330
1C26
100
AcDbDictionary
281
     1
  3
Imperial24
350
1C84
  0
DICTIONARY
  5
1C27
102
{ACAD_REACTORS
330
1C26
102
}
330
1C26
100
AcDbDictionary
281
     1
  0
DICTIONARY
  5
1C7B
102
{ACAD_REACTORS
330
1C26
102
}
330
1C26
100
AcDbDictionary
281
     1
  3
Model
350
1C8C
  3
レイアウト1
350
1C88
  0
DICTIONARY
  5
1C2A
102
{ACAD_REACTORS
330
1C26
102
}
330
1C26
100
AcDbDictionary
281
     1
  3
ByBlock
350
1C33
  3
ByLayer
350
1C2B
  3
Global
350
1C3B
  0
DICTIONARY
  5
1C7F
102
{ACAD_REACTORS
330
1C26
102
}
330
1C26
100
AcDbDictionary
281
     1
  3
Standard
350
1C80
  0
DICTIONARY
  5
1C78
102
{ACAD_REACTORS
330
1C26
102
}
330
1C26
100
AcDbDictionary
281
     1
  3
Standard
350
1C79
  0
DICTIONARY
  5
1C7A
102
{ACAD_REACTORS
330
1C26
102
}
330
1C26
100
AcDbDictionary
281
     1
  0
ACDBDICTIONARYWDFLT
  5
1C28
102
{ACAD_REACTORS
330
1C26
102
}
330
1C26
100
AcDbDictionary
281
     1
  3
Normal
350
1C29
100
AcDbDictionaryWithDefault
340
1C29
  0
DICTIONARY
  5
1C5C
102
{ACAD_REACTORS
330
1C26
102
}
330
1C26
100
AcDbDictionary
281
     1
  3
A0
350
1C5D
  3
A1
350
1C5E
  3
A2
350
1C5F
  3
A3
350
1C60
  3
A4
350
1C61
  3
A5
350
1C62
  3
A6
350
1C63
  3
A7
350
1C64
  3
A8
350
1C65
  3
A9
350
1C66
  3
B0
350
1C67
  3
B1
350
1C68
  3
B2
350
1C69
  3
B3
350
1C6A
  3
B4
350
1C6B
  3
B5
350
1C6C
  3
B6
350
1C6D
  0
DICTIONARY
  5
1C81
102
{ACAD_REACTORS
330
1C26
102
}
330
1C26
100
AcDbDictionary
281
     1
  3
Imperial24
350
1C82
  0
DICTIONARY
  5
1C7D
102
{ACAD_REACTORS
330
1C26
102
}
330
1C26
100
AcDbDictionary
281
     1
  3
Standard
350
1C7E
  0
DICTIONARY
  5
1C43
102
{ACAD_REACTORS
330
1C26
102
}
330
1C26
100
AcDbDictionary
281
     1
  3
2dWireframe
350
1C49
  3
Basic
350
1C48
  3
Brighten
350
1C4F
  3
ColorChange
350
1C53
  3
Conceptual
350
1C4C
  3
Dim
350
1C4E
  3
EdgeColorOff
350
1C5B
  3
Facepattern
350
1C52
  3
Flat
350
1C44
  3
FlatWithEdges
350
1C45
  3
Gouraud
350
1C46
  3
GouraudWithEdges
350
1C47
  3
Hidden
350
1C4B
  3
JitterOff
350
1C59
  3
Linepattern
350
1C51
  3
OverhangOff
350
1C5A
  3
Realistic
350
1C4D
  3
Shaded
350
1C58
  3
Shaded with edges
350
1C57
  3
Shades of Gray
350
1C54
  3
Sketchy
350
1C55
  3
Thicken
350
1C50
  3
Wireframe
350
1C4A
  3
X-Ray
350
1C56
  0
XRECORD
  5
1CC0
102
{ACAD_REACTORS
330
1C26
102
}
330
1C26
100
AcDbXrecord
280
     1
 90
        1
330
1C7E
  0
DICTIONARY
  5
1CB3
102
{ACAD_REACTORS
330
1C26
102
}
330
1C26
100
AcDbDictionary
281
     1
  3
CANNOSCALE
350
1CB8
  3
CMLEADERSTYLE
350
1CB5
  3
CTABLESTYLE
350
1CB4
  3
CVIEWDETAILSTYLE
350
1CB6
  3
CVIEWSECTIONSTYLE
350
1CB7
  3
DIMASSOC
350
1CBB
  3
INDEXCTL
350
1CBA
  3
SORTENTS
350
1CB9
  3
XCLIPFRAME
350
1CBC
  0
XRECORD
  5
1CC1
102
{ACAD_REACTORS
330
1C26
102
}
330
1C26
100
AcDbXrecord
280
     1
  1
DWGPROPS COOKIE
  2

  3

  4

  6

  7

  8
Yoshitsune
  9

300
=
301
=
302
=
303
=
304
=
305
=
306
=
307
=
308
=
309
=
 40
0.2969505787037037
 41
2456276.593431018
 42
2457192.598639641
  1

 90
        0
  0
XRECORD
  5
1CA4
102
{ACAD_REACTORS
330
1CA3
102
}
330
1CA3
100
AcDbXrecord
280
     1
290
     1
  0
XRECORD
  5
1CA6
102
{ACAD_REACTORS
330
1CA5
102
}
330
1CA5
100
AcDbXrecord
280
     1
290
     1
  0
XRECORD
  5
1CA8
102
{ACAD_REACTORS
330
1CA7
102
}
330
1CA7
100
AcDbXrecord
280
     1
290
     1
  0
XRECORD
  5
1CAA
102
{ACAD_REACTORS
330
1CA9
102
}
330
1CA9
100
AcDbXrecord
280
     1
290
     1
  0
XRECORD
  5
1CAC
102
{ACAD_REACTORS
330
1CAB
102
}
330
1CAB
100
AcDbXrecord
280
     1
290
     1
  0
XRECORD
  5
1CAE
102
{ACAD_REACTORS
330
1CAD
102
}
330
1CAD
100
AcDbXrecord
280
     1
290
     1
  0
XRECORD
  5
1CB0
102
{ACAD_REACTORS
330
1CAF
102
}
330
1CAF
100
AcDbXrecord
280
     1
290
     1
  0
XRECORD
  5
1CB2
102
{ACAD_REACTORS
330
1CB1
102
}
330
1CB1
100
AcDbXrecord
280
     1
290
     1
  0
ACDBDETAILVIEWSTYLE
  5
1C84
102
{ACAD_XDICTIONARY
360
1CF9
102
}
102
{ACAD_REACTORS
330
1C83
102
}
330
1C83
100
AcDbModelDocViewStyle
 70
     0
  3
Imperial24
290
     0
100
AcDbDetailViewStyle
 70
     0
 71
     0
 90
        3
 71
     1
340
1C6F
 40
0.24
340
0
 40
0.24
300

 40
0.36
280
     3
 71
     2
340
1C76
 90
       25
 71
     3
340
1C6F
 40
0.24
 90
        1
 40
0.75
 90
        1
300
%<\AcVar ViewType \f "%tc1">% %<\AcVar ViewDetailId>%\PSCALE %<\AcVar ViewScale \f "%sn">%
 71
     4
340
1C76
 90
       25
340
1C76
 90
       25
280
     0
  0
LAYOUT
  5
1C8C
102
{ACAD_XDICTIONARY
360
1CFD
102
}
102
{ACAD_REACTORS
330
1C7B
102
}
330
1C7B
100
AcDbPlotSettings
  1

  2
Canon LBP9100C
  4

  6

 40
0.0
 41
0.0
 42
0.0
 43
0.0
 44
0.0
 45
0.0
 46
0.0
 47
0.0
 48
0.0
 49
0.0
140
0.0
141
0.0
142
1.0
143
1.0
 70
  1712
 72
     0
 73
     0
 74
     0
  7

 75
     0
147
1.0
148
0.0
149
0.0
100
AcDbLayout
  1
Model
 70
     1
 71
     0
 10
0.0
 20
0.0
 11
12.0
 21
9.0
 12
0.0
 22
0.0
 32
0.0
 14
0.0
 24
0.0
 34
0.0
 15
0.0
 25
0.0
 35
0.0
146
0.0
 13
0.0
 23
0.0
 33
0.0
 16
1.0
 26
0.0
 36
0.0
 17
0.0
 27
1.0
 37
0.0
 76
     0
330
1C89
331
1C8D
  0
LAYOUT
  5
1C88
102
{ACAD_XDICTIONARY
360
1CFB
102
}
102
{ACAD_REACTORS
330
1C7B
102
}
330
1C7B
100
AcDbPlotSettings
  1

  2
Canon LBP9100C
  4

  6

 40
0.0
 41
0.0
 42
0.0
 43
0.0
 44
0.0
 45
0.0
 46
0.0
 47
0.0
 48
0.0
 49
0.0
140
0.0
141
0.0
142
1.0
143
1.0
 70
   688
 72
     0
 73
     0
 74
     5
  7

 75
    16
147
1.0
148
0.0
149
0.0
100
AcDbLayout
  1
レイアウト1
 70
     1
 71
     1
 10
0.0
 20
0.0
 11
420.0
 21
297.0
 12
0.0
 22
0.0
 32
0.0
 14
1.000000000000000E+20
 24
1.000000000000000E+20
 34
1.000000000000000E+20
 15
-1.000000000000000E+20
 25
-1.000000000000000E+20
 35
-1.000000000000000E+20
146
0.0
 13
0.0
 23
0.0
 33
0.0
 16
1.0
 26
0.0
 36
0.0
 17
0.0
 27
1.0
 37
0.0
 76
     0
330
1C85
  0
MATERIAL
  5
1C33
102
{ACAD_XDICTIONARY
360
1C34
102
}
102
{ACAD_REACTORS
330
1C2A
102
}
330
1C2A
100
AcDbMaterial
  1
ByBlock
 72
     0
 43
0.0208333333333333
 43
0.0
 43
0.0
 43
0.0
 43
0.0
 43
0.0208333333333333
 43
0.0
 43
0.0
 43
0.0
 43
0.0
 43
1.0
 43
0.0
 43
0.0
 43
0.0
 43
0.0
 43
1.0
 77
     0
 47
0.0208333333333333
 47
0.0
 47
0.0
 47
0.0
 47
0.0
 47
0.0208333333333333
 47
0.0
 47
0.0
 47
0.0
 47
0.0
 47
1.0
 47
0.0
 47
0.0
 47
0.0
 47
0.0
 47
1.0
171
     0
 49
0.0208333333333333
 49
0.0
 49
0.0
 49
0.0
 49
0.0
 49
0.0208333333333333
 49
0.0
 49
0.0
 49
0.0
 49
0.0
 49
1.0
 49
0.0
 49
0.0
 49
0.0
 49
0.0
 49
1.0
175
     0
142
0.0208333333333333
142
0.0
142
0.0
142
0.0
142
0.0
142
0.0208333333333333
142
0.0
142
0.0
142
0.0
142
0.0
142
1.0
142
0.0
142
0.0
142
0.0
142
0.0
142
1.0
179
     0
144
0.0208333333333333
144
0.0
144
0.0
144
0.0
144
0.0
144
0.0208333333333333
144
0.0
144
0.0
144
0.0
144
0.0
144
1.0
144
0.0
144
0.0
144
0.0
144
0.0
144
1.0
147
0.0208333333333333
147
0.0
147
0.0
147
0.0
147
0.0
147
0.0208333333333333
147
0.0
147
0.0
147
0.0
147
0.0
147
1.0
147
0.0
147
0.0
147
0.0
147
0.0
147
1.0
  0
MATERIAL
  5
1C2B
102
{ACAD_XDICTIONARY
360
1C2C
102
}
102
{ACAD_REACTORS
330
1C2A
102
}
330
1C2A
100
AcDbMaterial
  1
ByLayer
 72
     0
 43
0.0208333333333333
 43
0.0
 43
0.0
 43
0.0
 43
0.0
 43
0.0208333333333333
 43
0.0
 43
0.0
 43
0.0
 43
0.0
 43
1.0
 43
0.0
 43
0.0
 43
0.0
 43
0.0
 43
1.0
 77
     0
 47
0.0208333333333333
 47
0.0
 47
0.0
 47
0.0
 47
0.0
 47
0.0208333333333333
 47
0.0
 47
0.0
 47
0.0
 47
0.0
 47
1.0
 47
0.0
 47
0.0
 47
0.0
 47
0.0
 47
1.0
171
     0
 49
0.0208333333333333
 49
0.0
 49
0.0
 49
0.0
 49
0.0
 49
0.0208333333333333
 49
0.0
 49
0.0
 49
0.0
 49
0.0
 49
1.0
 49
0.0
 49
0.0
 49
0.0
 49
0.0
 49
1.0
175
     0
142
0.0208333333333333
142
0.0
142
0.0
142
0.0
142
0.0
142
0.0208333333333333
142
0.0
142
0.0
142
0.0
142
0.0
142
1.0
142
0.0
142
0.0
142
0.0
142
0.0
142
1.0
179
     0
144
0.0208333333333333
144
0.0
144
0.0
144
0.0
144
0.0
144
0.0208333333333333
144
0.0
144
0.0
144
0.0
144
0.0
144
1.0
144
0.0
144
0.0
144
0.0
144
0.0
144
1.0
147
0.0208333333333333
147
0.0
147
0.0
147
0.0
147
0.0
147
0.0208333333333333
147
0.0
147
0.0
147
0.0
147
0.0
147
1.0
147
0.0
147
0.0
147
0.0
147
0.0
147
1.0
  0
MATERIAL
  5
1C3B
102
{ACAD_XDICTIONARY
360
1C3C
102
}
102
{ACAD_REACTORS
330
1C2A
102
}
330
1C2A
100
AcDbMaterial
  1
Global
 72
     0
 43
0.0208333333333333
 43
0.0
 43
0.0
 43
0.0
 43
0.0
 43
0.0208333333333333
 43
0.0
 43
0.0
 43
0.0
 43
0.0
 43
1.0
 43
0.0
 43
0.0
 43
0.0
 43
0.0
 43
1.0
 77
     0
 47
0.0208333333333333
 47
0.0
 47
0.0
 47
0.0
 47
0.0
 47
0.0208333333333333
 47
0.0
 47
0.0
 47
0.0
 47
0.0
 47
1.0
 47
0.0
 47
0.0
 47
0.0
 47
0.0
 47
1.0
171
     0
 49
0.0208333333333333
 49
0.0
 49
0.0
 49
0.0
 49
0.0
 49
0.0208333333333333
 49
0.0
 49
0.0
 49
0.0
 49
0.0
 49
1.0
 49
0.0
 49
0.0
 49
0.0
 49
0.0
 49
1.0
175
     0
142
0.0208333333333333
142
0.0
142
0.0
142
0.0
142
0.0
142
0.0208333333333333
142
0.0
142
0.0
142
0.0
142
0.0
142
1.0
142
0.0
142
0.0
142
0.0
142
0.0
142
1.0
179
     0
144
0.0208333333333333
144
0.0
144
0.0
144
0.0
144
0.0
144
0.0208333333333333
144
0.0
144
0.0
144
0.0
144
0.0
144
1.0
144
0.0
144
0.0
144
0.0
144
0.0
144
1.0
147
0.0208333333333333
147
0.0
147
0.0
147
0.0
147
0.0
147
0.0208333333333333
147
0.0
147
0.0
147
0.0
147
0.0
147
1.0
147
0.0
147
0.0
147
0.0
147
0.0
147
1.0
  0
MLEADERSTYLE
  5
1C80
102
{ACAD_REACTORS
330
1C7F
102
}
330
1C7F
100
AcDbMLeaderStyle
170
     2
171
     1
172
     0
 90
        2
 40
0.0
 41
0.0
173
     1
 91
-1056964608
340
1C74
 92
       -2
290
     1
 42
0.09
291
     1
 43
0.36
  3
Standard
 44
0.18
300

342
1C6F
174
     1
178
     6
175
     1
176
     0
 93
-1056964608
 45
0.18
292
     0
297
     0
 46
0.18
 94
-1056964608
 47
1.0
 49
1.0
140
1.0
293
     1
141
0.0
294
     1
177
     0
142
1.0
295
     0
296
     0
143
0.125
1001
ACAD_MLEADERVER
1070
     2
  0
MLINESTYLE
  5
1C79
102
{ACAD_REACTORS
330
1C78
102
}
330
1C78
100
AcDbMlineStyle
  2
STANDARD
 70
     0
  3

 62
   256
 51
90.0
 52
90.0
 71
     2
 49
0.5
 62
   256
  6
BYLAYER
 49
-0.5
 62
   256
  6
BYLAYER
  0
ACDBPLACEHOLDER
  5
1C29
102
{ACAD_REACTORS
330
1C28
102
}
330
1C28
  0
SCALE
  5
1C5D
102
{ACAD_REACTORS
330
1C5C
102
}
330
1C5C
100
AcDbScale
 70
     0
300
1:1
140
1.0
141
1.0
290
     1
  0
SCALE
  5
1C5E
102
{ACAD_REACTORS
330
1C5C
102
}
330
1C5C
100
AcDbScale
 70
     0
300
1/128" = 1'-0"
140
0.0078125
141
12.0
290
     0
  0
SCALE
  5
1C5F
102
{ACAD_REACTORS
330
1C5C
102
}
330
1C5C
100
AcDbScale
 70
     0
300
1/64" = 1'-0"
140
0.015625
141
12.0
290
     0
  0
SCALE
  5
1C60
102
{ACAD_REACTORS
330
1C5C
102
}
330
1C5C
100
AcDbScale
 70
     0
300
1/32" = 1'-0"
140
0.03125
141
12.0
290
     0
  0
SCALE
  5
1C61
102
{ACAD_REACTORS
330
1C5C
102
}
330
1C5C
100
AcDbScale
 70
     0
300
1/16" = 1'-0"
140
0.0625
141
12.0
290
     0
  0
SCALE
  5
1C62
102
{ACAD_REACTORS
330
1C5C
102
}
330
1C5C
100
AcDbScale
 70
     0
300
3/32" = 1'-0"
140
0.09375
141
12.0
290
     0
  0
SCALE
  5
1C63
102
{ACAD_REACTORS
330
1C5C
102
}
330
1C5C
100
AcDbScale
 70
     0
300
1/8" = 1'-0"
140
0.125
141
12.0
290
     0
  0
SCALE
  5
1C64
102
{ACAD_REACTORS
330
1C5C
102
}
330
1C5C
100
AcDbScale
 70
     0
300
3/16" = 1'-0"
140
0.1875
141
12.0
290
     0
  0
SCALE
  5
1C65
102
{ACAD_REACTORS
330
1C5C
102
}
330
1C5C
100
AcDbScale
 70
     0
300
1/4" = 1'-0"
140
0.25
141
12.0
290
     0
  0
SCALE
  5
1C66
102
{ACAD_REACTORS
330
1C5C
102
}
330
1C5C
100
AcDbScale
 70
     0
300
3/8" = 1'-0"
140
0.375
141
12.0
290
     0
  0
SCALE
  5
1C67
102
{ACAD_REACTORS
330
1C5C
102
}
330
1C5C
100
AcDbScale
 70
     0
300
1/2" = 1'-0"
140
0.5
141
12.0
290
     0
  0
SCALE
  5
1C68
102
{ACAD_REACTORS
330
1C5C
102
}
330
1C5C
100
AcDbScale
 70
     0
300
3/4" = 1'-0"
140
0.75
141
12.0
290
     0
  0
SCALE
  5
1C69
102
{ACAD_REACTORS
330
1C5C
102
}
330
1C5C
100
AcDbScale
 70
     0
300
1" = 1'-0"
140
1.0
141
12.0
290
     0
  0
SCALE
  5
1C6A
102
{ACAD_REACTORS
330
1C5C
102
}
330
1C5C
100
AcDbScale
 70
     0
300
1-1/2" = 1'-0"
140
1.5
141
12.0
290
     0
  0
SCALE
  5
1C6B
102
{ACAD_REACTORS
330
1C5C
102
}
330
1C5C
100
AcDbScale
 70
     0
300
3" = 1'-0"
140
3.0
141
12.0
290
     0
  0
SCALE
  5
1C6C
102
{ACAD_REACTORS
330
1C5C
102
}
330
1C5C
100
AcDbScale
 70
     0
300
6" = 1'-0"
140
6.0
141
12.0
290
     0
  0
SCALE
  5
1C6D
102
{ACAD_REACTORS
330
1C5C
102
}
330
1C5C
100
AcDbScale
 70
     0
300
1'-0" = 1'-0"
140
12.0
141
12.0
290
     0
  0
ACDBSECTIONVIEWSTYLE
  5
1C82
102
{ACAD_XDICTIONARY
360
1CF7
102
}
102
{ACAD_REACTORS
330
1C81
102
}
330
1C81
100
AcDbModelDocViewStyle
 70
     0
  3
Imperial24
290
     0
100
AcDbSectionViewStyle
 70
     0
 71
     0
 90
       78
 71
     1
340
1C6F
 40
0.24
340
0
340
0
 40
0.24
300
I, O, Q, S, X, Z
 40
0.48
 90
        3
 40
0.18
 90
        1
 71
     2
340
1C76
 90
       25
340
1C76
 90
       50
 40
0.24
 40
0.0
 40
0.24
 71
     3
340
1C6F
 40
0.24
 90
        1
 40
0.75
 90
        1
300
%<\AcVar ViewType \f "%tc1">% %<\AcVar ViewSectionStartId>%-%<\AcVar ViewSectionEndId>%\PSCALE %<\AcVar ViewScale \f "%sn">%
 71
     4
300
ANSI31
 40
1.0
 90
        0
290
     0
290
     0
 90
        6
 40
0.0
 40
1.570796326794896
 40
0.2617993877991494
 40
1.308996938995747
 40
-0.2617993877991494
 40
1.832595714594046
  0
TABLESTYLE
  5
1C7E
102
{ACAD_XDICTIONARY
360
1CBE
102
}
102
{ACAD_REACTORS
330
1C7D
102
}
330
1C7D
100
AcDbTableStyle
  3
Standard
 70
     0
 71
     0
 40
0.06
 41
0.06
280
     0
281
     0
  7
STANDARD
140
0.18
170
     2
 62
     0
 63
     7
283
     0
274
    -2
284
     1
 64
     0
275
    -2
285
     1
 65
     0
276
    -2
286
     1
 66
     0
277
    -2
287
     1
 67
     0
278
    -2
288
     1
 68
     0
279
    -2
289
     1
 69
     0
  7
STANDARD
140
0.25
170
     5
 62
     0
 63
     7
283
     0
274
    -2
284
     1
 64
     0
275
    -2
285
     1
 65
     0
276
    -2
286
     1
 66
     0
277
    -2
287
     1
 67
     0
278
    -2
288
     1
 68
     0
279
    -2
289
     1
 69
     0
  7
STANDARD
140
0.18
170
     5
 62
     0
 63
     7
283
     0
274
    -2
284
     1
 64
     0
275
    -2
285
     1
 65
     0
276
    -2
286
     1
 66
     0
277
    -2
287
     1
 67
     0
278
    -2
288
     1
 68
     0
279
    -2
289
     1
 69
     0
  0
VISUALSTYLE
  5
1C49
102
{ACAD_XDICTIONARY
360
1CCF
102
}
102
{ACAD_REACTORS
330
1C43
102
}
330
1C43
100
AcDbVisualStyle
  2
2dWireframe
 70
     4
 71
     0
 72
     2
 73
     0
 90
        0
 40
-0.6
 41
-30.0
 62
     5
 63
     7
 74
     1
 91
        4
 64
     7
 65
   257
 75
     1
175
     1
 42
1.0
 92
        0
 66
   257
 43
1.0
 76
     1
 77
     6
 78
     2
 67
     7
 79
     5
170
     0
171
     0
290
     0
174
     0
 93
        1
 44
0.0
173
     0
291
     0
 45
0.0
1001
ACAD
1000
AcDbSavedByObjectVersion
1070
     0
  0
VISUALSTYLE
  5
1C48
102
{ACAD_XDICTIONARY
360
1CCD
102
}
102
{ACAD_REACTORS
330
1C43
102
}
330
1C43
100
AcDbVisualStyle
  2
Basic
 70
     7
 71
     1
 72
     0
 73
     1
 90
        0
 40
-0.6
 41
-30.0
 62
     5
 63
     7
 74
     0
 91
        4
 64
     7
 65
   257
 75
     1
175
     1
 42
1.0
 92
        8
 66
     7
 43
1.0
 76
     1
 77
     6
 78
     2
 67
     7
 79
     5
170
     0
171
     0
290
     0
174
     0
 93
        1
 44
0.0
173
     0
291
     1
 45
0.0
1001
ACAD
1000
AcDbSavedByObjectVersion
1070
     0
  0
VISUALSTYLE
  5
1C4F
102
{ACAD_XDICTIONARY
360
1CDB
102
}
102
{ACAD_REACTORS
330
1C43
102
}
330
1C43
100
AcDbVisualStyle
  2
Brighten
 70
    12
 71
     2
 72
     2
 73
     0
 90
        0
 40
-0.6
 41
-30.0
 62
     5
 63
     7
 74
     1
 91
        4
 64
     7
 65
   257
 75
     1
175
     1
 42
1.0
 92
        8
 66
     7
 43
1.0
 76
     1
 77
     6
 78
     2
 67
     7
 79
     5
170
     0
171
     0
290
     0
174
     0
 93
        1
 44
50.0
173
     0
291
     1
 45
0.0
1001
ACAD
1000
AcDbSavedByObjectVersion
1070
     0
  0
VISUALSTYLE
  5
1C53
102
{ACAD_XDICTIONARY
360
1CE3
102
}
102
{ACAD_REACTORS
330
1C43
102
}
330
1C43
100
AcDbVisualStyle
  2
ColorChange
 70
    16
 71
     2
 72
     2
 73
     3
 90
        0
 40
-0.6
 41
-30.0
 62
     5
 63
     8
 74
     1
 91
        4
 64
     7
 65
   257
 75
     1
175
     1
 42
1.0
 92
        8
 66
     8
 43
1.0
 76
     1
 77
     6
 78
     2
 67
     7
 79
     5
170
     0
171
     0
290
     0
174
     0
 93
        1
 44
0.0
173
     0
291
     1
 45
0.0
1001
ACAD
1000
AcDbSavedByObjectVersion
1070
     0
  0
VISUALSTYLE
  5
1C4C
102
{ACAD_XDICTIONARY
360
1CD5
102
}
102
{ACAD_REACTORS
330
1C43
102
}
330
1C43
100
AcDbVisualStyle
  2
Conceptual
 70
     9
 71
     3
 72
     2
 73
     0
 90
        0
 40
-0.6
 41
-30.0
 62
     5
 63
     7
 74
     2
 91
        2
 64
     7
 65
   257
 75
     1
175
     1
 42
179.0
 92
        8
 66
     7
 43
1.0
 76
     1
 77
     6
 78
     2
 67
     7
 79
     3
170
     0
171
     0
290
     0
174
     0
 93
        1
 44
0.0
173
     0
291
     0
 45
0.0
1001
ACAD
1000
AcDbSavedByObjectVersion
1070
     0
  0
VISUALSTYLE
  5
1C4E
102
{ACAD_XDICTIONARY
360
1CD9
102
}
102
{ACAD_REACTORS
330
1C43
102
}
330
1C43
100
AcDbVisualStyle
  2
Dim
 70
    11
 71
     2
 72
     2
 73
     0
 90
        0
 40
-0.6
 41
-30.0
 62
     5
 63
     7
 74
     1
 91
        4
 64
     7
 65
   257
 75
     1
175
     1
 42
1.0
 92
        8
 66
     7
 43
1.0
 76
     1
 77
     6
 78
     2
 67
     7
 79
     5
170
     0
171
     0
290
     0
174
     0
 93
        1
 44
-50.0
173
     0
291
     1
 45
0.0
1001
ACAD
1000
AcDbSavedByObjectVersion
1070
     0
  0
VISUALSTYLE
  5
1C5B
102
{ACAD_XDICTIONARY
360
1CF3
102
}
102
{ACAD_REACTORS
330
1C43
102
}
330
1C43
100
AcDbVisualStyle
  2
EdgeColorOff
 70
    22
 71
     2
 72
     2
 73
     0
 90
        0
 40
-0.6
 41
-30.0
 62
     5
 63
     7
 74
     1
 91
        4
 64
     7
 65
   257
 75
     1
175
     1
 42
1.0
 92
        8
 66
     7
 43
1.0
 76
     1
 77
     6
 78
     2
 67
     7
 79
     5
170
     0
171
     0
290
     0
174
     0
 93
        1
 44
0.0
173
     0
291
     1
 45
0.0
1001
ACAD
1000
AcDbSavedByObjectVersion
1070
     0
  0
VISUALSTYLE
  5
1C52
102
{ACAD_XDICTIONARY
360
1CE1
102
}
102
{ACAD_REACTORS
330
1C43
102
}
330
1C43
100
AcDbVisualStyle
  2
Facepattern
 70
    15
 71
     2
 72
     2
 73
     0
 90
        0
 40
-0.6
 41
-30.0
 62
     5
 63
     7
 74
     1
 91
        4
 64
     7
 65
   257
 75
     1
175
     1
 42
1.0
 92
        8
 66
     7
 43
1.0
 76
     1
 77
     6
 78
     2
 67
     7
 79
     5
170
     0
171
     0
290
     0
174
     0
 93
        1
 44
0.0
173
     0
291
     1
 45
0.0
1001
ACAD
1000
AcDbSavedByObjectVersion
1070
     0
  0
VISUALSTYLE
  5
1C44
102
{ACAD_XDICTIONARY
360
1CC5
102
}
102
{ACAD_REACTORS
330
1C43
102
}
330
1C43
100
AcDbVisualStyle
  2
Flat
 70
     0
 71
     2
 72
     1
 73
     1
 90
        2
 40
-0.6
 41
30.0
 62
     5
 63
     7
 74
     0
 91
        0
 64
     7
 65
   257
 75
     1
175
     1
 42
1.0
 92
        8
 66
     7
 43
1.0
 76
     1
 77
     6
 78
     2
 67
     7
 79
     5
170
     0
171
     0
290
     0
174
     0
 93
       13
 44
0.0
173
     0
291
     1
 45
0.0
1001
ACAD
1000
AcDbSavedByObjectVersion
1070
     0
  0
VISUALSTYLE
  5
1C45
102
{ACAD_XDICTIONARY
360
1CC7
102
}
102
{ACAD_REACTORS
330
1C43
102
}
330
1C43
100
AcDbVisualStyle
  2
FlatWithEdges
 70
     1
 71
     2
 72
     1
 73
     1
 90
        2
 40
-0.6
 41
30.0
 62
     5
 63
     7
 74
     1
 91
        0
 64
     7
 65
   257
 75
     1
175
     1
 42
1.0
 92
        0
 66
   257
 43
1.0
 76
     1
 77
     6
 78
     2
 67
     7
 79
     5
170
     0
171
     0
290
     0
174
     0
 93
       13
 44
0.0
173
     0
291
     1
 45
0.0
1001
ACAD
1000
AcDbSavedByObjectVersion
1070
     0
  0
VISUALSTYLE
  5
1C46
102
{ACAD_XDICTIONARY
360
1CC9
102
}
102
{ACAD_REACTORS
330
1C43
102
}
330
1C43
100
AcDbVisualStyle
  2
Gouraud
 70
     2
 71
     2
 72
     2
 73
     1
 90
        2
 40
-0.6
 41
30.0
 62
     5
 63
     7
 74
     0
 91
        0
 64
     7
 65
   257
 75
     1
175
     1
 42
1.0
 92
        0
 66
     7
 43
1.0
 76
     1
 77
     6
 78
     2
 67
     7
 79
     5
170
     0
171
     0
290
     0
174
     0
 93
       13
 44
0.0
173
     0
291
     1
 45
0.0
1001
ACAD
1000
AcDbSavedByObjectVersion
1070
     0
  0
VISUALSTYLE
  5
1C47
102
{ACAD_XDICTIONARY
360
1CCB
102
}
102
{ACAD_REACTORS
330
1C43
102
}
330
1C43
100
AcDbVisualStyle
  2
GouraudWithEdges
 70
     3
 71
     2
 72
     2
 73
     1
 90
        2
 40
-0.6
 41
30.0
 62
     5
 63
     7
 74
     1
 91
        0
 64
     7
 65
   257
 75
     1
175
     1
 42
1.0
 92
        0
 66
   257
 43
1.0
 76
     1
 77
     6
 78
     2
 67
     7
 79
     5
170
     0
171
     0
290
     0
174
     0
 93
       13
 44
0.0
173
     0
291
     1
 45
0.0
1001
ACAD
1000
AcDbSavedByObjectVersion
1070
     0
  0
VISUALSTYLE
  5
1C4B
102
{ACAD_XDICTIONARY
360
1CD3
102
}
102
{ACAD_REACTORS
330
1C43
102
}
330
1C43
100
AcDbVisualStyle
  2
Hidden
 70
     6
 71
     1
 72
     2
 73
     2
 90
        0
 40
-0.6
 41
-30.0
 62
     5
 63
     7
 74
     2
 91
        2
 64
     7
 65
   257
 75
     2
175
     1
 42
40.0
 92
        0
 66
   257
 43
1.0
 76
     1
 77
     6
 78
     2
 67
     7
 79
     3
170
     0
171
     0
290
     0
174
     0
 93
        1
 44
0.0
173
     0
291
     0
 45
0.0
1001
ACAD
1000
AcDbSavedByObjectVersion
1070
     0
  0
VISUALSTYLE
  5
1C59
102
{ACAD_XDICTIONARY
360
1CEF
102
}
102
{ACAD_REACTORS
330
1C43
102
}
330
1C43
100
AcDbVisualStyle
  2
JitterOff
 70
    20
 71
     2
 72
     2
 73
     0
 90
        0
 40
-0.6
 41
-30.0
 62
     5
 63
     7
 74
     1
 91
        4
 64
     7
 65
   257
 75
     1
175
     1
 42
1.0
 92
       10
 66
     7
 43
1.0
 76
     1
 77
     6
 78
     2
 67
     7
 79
     5
170
     0
171
     0
290
     0
174
     0
 93
        1
 44
0.0
173
     0
291
     1
 45
0.0
1001
ACAD
1000
AcDbSavedByObjectVersion
1070
     0
  0
VISUALSTYLE
  5
1C51
102
{ACAD_XDICTIONARY
360
1CDF
102
}
102
{ACAD_REACTORS
330
1C43
102
}
330
1C43
100
AcDbVisualStyle
  2
Linepattern
 70
    14
 71
     2
 72
     2
 73
     0
 90
        0
 40
-0.6
 41
-30.0
 62
     5
 63
     7
 74
     1
 91
        4
 64
     7
 65
   257
 75
     7
175
     7
 42
1.0
 92
        8
 66
     7
 43
1.0
 76
     1
 77
     6
 78
     2
 67
     7
 79
     5
170
     0
171
     0
290
     0
174
     0
 93
        1
 44
0.0
173
     0
291
     1
 45
0.0
1001
ACAD
1000
AcDbSavedByObjectVersion
1070
     0
  0
VISUALSTYLE
  5
1C5A
102
{ACAD_XDICTIONARY
360
1CF1
102
}
102
{ACAD_REACTORS
330
1C43
102
}
330
1C43
100
AcDbVisualStyle
  2
OverhangOff
 70
    21
 71
     2
 72
     2
 73
     0
 90
        0
 40
-0.6
 41
-30.0
 62
     5
 63
     7
 74
     1
 91
        4
 64
     7
 65
   257
 75
     1
175
     1
 42
1.0
 92
        9
 66
     7
 43
1.0
 76
     1
 77
     6
 78
     2
 67
     7
 79
     5
170
     0
171
     0
290
     0
174
     0
 93
        1
 44
0.0
173
     0
291
     1
 45
0.0
1001
ACAD
1000
AcDbSavedByObjectVersion
1070
     0
  0
VISUALSTYLE
  5
1C4D
102
{ACAD_XDICTIONARY
360
1CD7
102
}
102
{ACAD_REACTORS
330
1C43
102
}
330
1C43
100
AcDbVisualStyle
  2
Realistic
 70
     8
 71
     2
 72
     3
 73
     0
 90
        2
 40
-0.6
 41
30.0
 62
     5
 63
     7
 74
     0
 91
        0
 64
     7
 65
   257
 75
     1
175
     1
 42
1.0
 92
        8
 66
   257
 43
1.0
 76
     1
 77
     6
 78
     2
 67
     7
 79
     3
170
     0
171
     0
290
     0
174
     0
 93
       13
 44
0.0
173
     0
291
     0
 45
0.0
1001
ACAD
1000
AcDbSavedByObjectVersion
1070
     0
  0
VISUALSTYLE
  5
1C58
102
{ACAD_XDICTIONARY
360
1CED
102
}
102
{ACAD_REACTORS
330
1C43
102
}
330
1C43
100
AcDbVisualStyle
  2
Shaded
 70
    27
 71
     2
 72
     2
 73
     1
 90
        2
 40
-0.6
 41
30.0
 62
     5
 63
     7
 74
     0
 91
        4
 64
     7
 65
   257
 75
     1
175
     1
 42
1.0
 92
        8
 66
   257
 43
1.0
 76
     1
 77
     6
 78
     2
 67
     8
 79
     3
170
     0
171
     0
290
     0
174
     0
 93
        5
 44
0.0
173
     0
291
     0
 45
0.0
1001
ACAD
1000
AcDbSavedByObjectVersion
1070
     0
  0
VISUALSTYLE
  5
1C57
102
{ACAD_XDICTIONARY
360
1CEB
102
}
102
{ACAD_REACTORS
330
1C43
102
}
330
1C43
100
AcDbVisualStyle
  2
Shaded with edges
 70
    26
 71
     2
 72
     2
 73
     1
 90
        2
 40
-0.6
 41
30.0
 62
     5
 63
     7
 74
     1
 91
       10
 64
     7
 65
   257
 75
     2
175
     1
 42
1.0
 92
        8
 66
   257
 43
1.0
 76
     1
 77
     6
 78
     2
 67
     7
 79
     3
170
     0
171
     0
290
     0
174
     0
 93
        5
 44
0.0
173
     0
291
     0
 45
0.0
1001
ACAD
1000
AcDbSavedByObjectVersion
1070
     0
  0
VISUALSTYLE
  5
1C54
102
{ACAD_XDICTIONARY
360
1CE5
102
}
102
{ACAD_REACTORS
330
1C43
102
}
330
1C43
100
AcDbVisualStyle
  2
Shades of Gray
 70
    23
 71
     2
 72
     2
 73
     3
 90
        0
 40
-0.6
 41
-30.0
 62
     5
 63
     7
 74
     2
 91
        2
 64
     7
 65
     7
 75
     1
175
     1
 42
40.0
 92
        8
 66
     7
 43
1.0
 76
     1
 77
     6
 78
     2
 67
     7
 79
     3
170
     0
171
     0
290
     0
174
     0
 93
        1
 44
0.0
173
     0
291
     0
 45
0.0
1001
ACAD
1000
AcDbSavedByObjectVersion
1070
     0
  0
VISUALSTYLE
  5
1C55
102
{ACAD_XDICTIONARY
360
1CE7
102
}
102
{ACAD_REACTORS
330
1C43
102
}
330
1C43
100
AcDbVisualStyle
  2
Sketchy
 70
    24
 71
     1
 72
     2
 73
     2
 90
        0
 40
-0.6
 41
-30.0
 62
     5
 63
     7
 74
     2
 91
        2
 64
     7
 65
     7
 75
     1
175
     1
 42
40.0
 92
       11
 66
     7
 43
1.0
 76
     1
 77
     6
 78
     2
 67
     7
 79
     6
170
     0
171
     0
290
     0
174
     0
 93
        1
 44
0.0
173
     0
291
     0
 45
0.0
1001
ACAD
1000
AcDbSavedByObjectVersion
1070
     0
  0
VISUALSTYLE
  5
1C50
102
{ACAD_XDICTIONARY
360
1CDD
102
}
102
{ACAD_REACTORS
330
1C43
102
}
330
1C43
100
AcDbVisualStyle
  2
Thicken
 70
    13
 71
     2
 72
     2
 73
     0
 90
        0
 40
-0.6
 41
-30.0
 62
     5
 63
     7
 74
     1
 91
        4
 64
     7
 65
   257
 75
     1
175
     1
 42
1.0
 92
       12
 66
     7
 43
1.0
 76
     1
 77
     6
 78
     2
 67
     7
 79
     5
170
     0
171
     0
290
     0
174
     0
 93
        1
 44
0.0
173
     0
291
     1
 45
0.0
1001
ACAD
1000
AcDbSavedByObjectVersion
1070
     0
  0
VISUALSTYLE
  5
1C4A
102
{ACAD_XDICTIONARY
360
1CD1
102
}
102
{ACAD_REACTORS
330
1C43
102
}
330
1C43
100
AcDbVisualStyle
  2
Wireframe
 70
     5
 71
     0
 72
     2
 73
     0
 90
        0
 40
-0.6
 41
-30.0
 62
     5
 63
     7
 74
     1
 91
        4
 64
     7
 65
   257
 75
     1
175
     1
 42
1.0
 92
        0
 66
   257
 43
1.0
 76
     1
 77
     6
 78
     2
 67
     7
 79
     3
170
     0
171
     0
290
     0
174
     0
 93
        1
 44
0.0
173
     0
291
     0
 45
0.0
1001
ACAD
1000
AcDbSavedByObjectVersion
1070
     0
  0
VISUALSTYLE
  5
1C56
102
{ACAD_XDICTIONARY
360
1CE9
102
}
102
{ACAD_REACTORS
330
1C43
102
}
330
1C43
100
AcDbVisualStyle
  2
X-Ray
 70
    25
 71
     2
 72
     2
 73
     1
 90
        1
 40
0.5
 41
-30.0
 62
     5
 63
     7
 74
     1
 91
        0
 64
     7
 65
   257
 75
     1
175
     1
 42
1.0
 92
        8
 66
     7
 43
1.0
 76
     1
 77
     6
 78
     2
 67
     7
 79
     3
170
     0
171
     0
290
     0
174
     0
 93
       13
 44
0.0
173
     0
291
     0
 45
0.0
1001
ACAD
1000
AcDbSavedByObjectVersion
1070
     0
  0
DICTIONARYVAR
  5
1CB8
102
{ACAD_REACTORS
330
1CB3
102
}
330
1CB3
100
DictionaryVariables
280
     0
  1
1:1
  0
DICTIONARYVAR
  5
1CB5
102
{ACAD_REACTORS
330
1CB3
102
}
330
1CB3
100
DictionaryVariables
280
     0
  1
STANDARD
  0
DICTIONARYVAR
  5
1CB4
102
{ACAD_REACTORS
330
1CB3
102
}
330
1CB3
100
DictionaryVariables
280
     0
  1
STANDARD
  0
DICTIONARYVAR
  5
1CB6
102
{ACAD_REACTORS
330
1CB3
102
}
330
1CB3
100
DictionaryVariables
280
     0
  1
Imperial24
  0
DICTIONARYVAR
  5
1CB7
102
{ACAD_REACTORS
330
1CB3
102
}
330
1CB3
100
DictionaryVariables
280
     0
  1
Imperial24
  0
DICTIONARYVAR
  5
1CBB
102
{ACAD_REACTORS
330
1CB3
102
}
330
1CB3
100
DictionaryVariables
280
     0
  1
1
  0
DICTIONARYVAR
  5
1CBA
102
{ACAD_REACTORS
330
1CB3
102
}
330
1CB3
100
DictionaryVariables
280
     0
  1
0
  0
DICTIONARYVAR
  5
1CB9
102
{ACAD_REACTORS
330
1CB3
102
}
330
1CB3
100
DictionaryVariables
280
     0
  1
127
  0
DICTIONARYVAR
  5
1CBC
102
{ACAD_REACTORS
330
1CB3
102
}
330
1CB3
100
DictionaryVariables
280
     0
  1
2
  0
DICTIONARY
  5
1CF9
330
1C84
100
AcDbDictionary
280
     1
281
     1
  3
ACAD_XREC_ROUNDTRIP
360
1CFA
  0
DICTIONARY
  5
1CFD
330
1C8C
100
AcDbDictionary
280
     1
281
     1
  3
ACAD_XREC_ROUNDTRIP
360
1CFE
  0
DICTIONARY
  5
1CFB
330
1C88
100
AcDbDictionary
280
     1
281
     1
  3
ACAD_XREC_ROUNDTRIP
360
1CFC
  0
DICTIONARY
  5
1C34
330
1C33
100
AcDbDictionary
280
     1
281
     1
  3
ACAD_XREC_ROUNDTRIP
360
1CC3
  3
BUMPTILE
360
1C36
  3
DIFFUSETILE
360
1C35
  3
OPACITYTILE
360
1C39
  3
REFLECTIONTILE
360
1C38
  3
REFRACTIONTILE
360
1C3A
  3
SPECULARTILE
360
1C37
  0
DICTIONARY
  5
1C2C
330
1C2B
100
AcDbDictionary
280
     1
281
     1
  3
ACAD_XREC_ROUNDTRIP
360
1CC2
  3
BUMPTILE
360
1C2E
  3
DIFFUSETILE
360
1C2D
  3
OPACITYTILE
360
1C31
  3
REFLECTIONTILE
360
1C30
  3
REFRACTIONTILE
360
1C32
  3
SPECULARTILE
360
1C2F
  0
DICTIONARY
  5
1C3C
330
1C3B
100
AcDbDictionary
280
     1
281
     1
  3
ACAD_XREC_ROUNDTRIP
360
1CC4
  3
BUMPTILE
360
1C3E
  3
DIFFUSETILE
360
1C3D
  3
OPACITYTILE
360
1C41
  3
REFLECTIONTILE
360
1C40
  3
REFRACTIONTILE
360
1C42
  3
SPECULARTILE
360
1C3F
  0
DICTIONARY
  5
1CF7
330
1C82
100
AcDbDictionary
280
     1
281
     1
  3
ACAD_XREC_ROUNDTRIP
360
1CF8
  0
DICTIONARY
  5
1CBE
330
1C7E
100
AcDbDictionary
280
     1
281
     1
  3
ACAD_ROUNDTRIP_2008_TABLESTYLE_CELLSTYLEMAP
360
1CBF
  3
ACAD_XREC_ROUNDTRIP
360
1CF5
  0
DICTIONARY
  5
1CCF
330
1C49
100
AcDbDictionary
280
     1
281
     1
  3
ACAD_XREC_ROUNDTRIP
360
1CD0
  0
DICTIONARY
  5
1CCD
330
1C48
100
AcDbDictionary
280
     1
281
     1
  3
ACAD_XREC_ROUNDTRIP
360
1CCE
  0
DICTIONARY
  5
1CDB
330
1C4F
100
AcDbDictionary
280
     1
281
     1
  3
ACAD_XREC_ROUNDTRIP
360
1CDC
  0
DICTIONARY
  5
1CE3
330
1C53
100
AcDbDictionary
280
     1
281
     1
  3
ACAD_XREC_ROUNDTRIP
360
1CE4
  0
DICTIONARY
  5
1CD5
330
1C4C
100
AcDbDictionary
280
     1
281
     1
  3
ACAD_XREC_ROUNDTRIP
360
1CD6
  0
DICTIONARY
  5
1CD9
330
1C4E
100
AcDbDictionary
280
     1
281
     1
  3
ACAD_XREC_ROUNDTRIP
360
1CDA
  0
DICTIONARY
  5
1CF3
330
1C5B
100
AcDbDictionary
280
     1
281
     1
  3
ACAD_XREC_ROUNDTRIP
360
1CF4
  0
DICTIONARY
  5
1CE1
330
1C52
100
AcDbDictionary
280
     1
281
     1
  3
ACAD_XREC_ROUNDTRIP
360
1CE2
  0
DICTIONARY
  5
1CC5
330
1C44
100
AcDbDictionary
280
     1
281
     1
  3
ACAD_XREC_ROUNDTRIP
360
1CC6
  0
DICTIONARY
  5
1CC7
330
1C45
100
AcDbDictionary
280
     1
281
     1
  3
ACAD_XREC_ROUNDTRIP
360
1CC8
  0
DICTIONARY
  5
1CC9
330
1C46
100
AcDbDictionary
280
     1
281
     1
  3
ACAD_XREC_ROUNDTRIP
360
1CCA
  0
DICTIONARY
  5
1CCB
330
1C47
100
AcDbDictionary
280
     1
281
     1
  3
ACAD_XREC_ROUNDTRIP
360
1CCC
  0
DICTIONARY
  5
1CD3
330
1C4B
100
AcDbDictionary
280
     1
281
     1
  3
ACAD_XREC_ROUNDTRIP
360
1CD4
  0
DICTIONARY
  5
1CEF
330
1C59
100
AcDbDictionary
280
     1
281
     1
  3
ACAD_XREC_ROUNDTRIP
360
1CF0
  0
DICTIONARY
  5
1CDF
330
1C51
100
AcDbDictionary
280
     1
281
     1
  3
ACAD_XREC_ROUNDTRIP
360
1CE0
  0
DICTIONARY
  5
1CF1
330
1C5A
100
AcDbDictionary
280
     1
281
     1
  3
ACAD_XREC_ROUNDTRIP
360
1CF2
  0
DICTIONARY
  5
1CD7
330
1C4D
100
AcDbDictionary
280
     1
281
     1
  3
ACAD_XREC_ROUNDTRIP
360
1CD8
  0
DICTIONARY
  5
1CED
330
1C58
100
AcDbDictionary
280
     1
281
     1
  3
ACAD_XREC_ROUNDTRIP
360
1CEE
  0
DICTIONARY
  5
1CEB
330
1C57
100
AcDbDictionary
280
     1
281
     1
  3
ACAD_XREC_ROUNDTRIP
360
1CEC
  0
DICTIONARY
  5
1CE5
330
1C54
100
AcDbDictionary
280
     1
281
     1
  3
ACAD_XREC_ROUNDTRIP
360
1CE6
  0
DICTIONARY
  5
1CE7
330
1C55
100
AcDbDictionary
280
     1
281
     1
  3
ACAD_XREC_ROUNDTRIP
360
1CE8
  0
DICTIONARY
  5
1CDD
330
1C50
100
AcDbDictionary
280
     1
281
     1
  3
ACAD_XREC_ROUNDTRIP
360
1CDE
  0
DICTIONARY
  5
1CD1
330
1C4A
100
AcDbDictionary
280
     1
281
     1
  3
ACAD_XREC_ROUNDTRIP
360
1CD2
  0
DICTIONARY
  5
1CE9
330
1C56
100
AcDbDictionary
280
     1
281
     1
  3
ACAD_XREC_ROUNDTRIP
360
1CEA
  0
XRECORD
  5
1CFA
102
{ACAD_REACTORS
330
1CF9
102
}
330
1CF9
100
AcDbXrecord
280
     1
102
DISPLAYNAME
  1
Imperial24
102
FLAGS
 90
        0
  0
XRECORD
  5
1CFE
102
{ACAD_REACTORS
330
1CFD
102
}
330
1CFD
100
AcDbXrecord
280
     1
102
SHADEPLOT
 70
     0
102
SHADEPLOTRESLEVEL
 70
     2
102
SHADEPLOTCUSTOMDPI
 70
   300
  0
XRECORD
  5
1CFC
102
{ACAD_REACTORS
330
1CFB
102
}
330
1CFB
100
AcDbXrecord
280
     1
102
SHADEPLOT
 70
     0
102
SHADEPLOTRESLEVEL
 70
     2
102
SHADEPLOTCUSTOMDPI
 70
   300
  0
XRECORD
  5
1CC3
102
{ACAD_REACTORS
330
1C34
102
}
330
1C34
100
AcDbXrecord
280
     1
102
MATERIAL
148
0.0
149
0.0
149
0.0
 93
        0
 94
      127
282
     0
 72
     0
 77
     0
171
     0
175
     0
179
     0
273
     0
  0
XRECORD
  5
1C36
102
{ACAD_REACTORS
330
1C34
102
}
330
1C34
100
AcDbXrecord
280
     1
270
     1
271
     1
  0
XRECORD
  5
1C35
102
{ACAD_REACTORS
330
1C34
102
}
330
1C34
100
AcDbXrecord
280
     1
270
     1
271
     1
  0
XRECORD
  5
1C39
102
{ACAD_REACTORS
330
1C34
102
}
330
1C34
100
AcDbXrecord
280
     1
270
     1
271
     1
  0
XRECORD
  5
1C38
102
{ACAD_REACTORS
330
1C34
102
}
330
1C34
100
AcDbXrecord
280
     1
270
     1
271
     1
  0
XRECORD
  5
1C3A
102
{ACAD_REACTORS
330
1C34
102
}
330
1C34
100
AcDbXrecord
280
     1
270
     1
271
     1
  0
XRECORD
  5
1C37
102
{ACAD_REACTORS
330
1C34
102
}
330
1C34
100
AcDbXrecord
280
     1
270
     1
271
     1
  0
XRECORD
  5
1CC2
102
{ACAD_REACTORS
330
1C2C
102
}
330
1C2C
100
AcDbXrecord
280
     1
102
MATERIAL
148
0.0
149
0.0
149
0.0
 93
        0
 94
      127
282
     0
 72
     0
 77
     0
171
     0
175
     0
179
     0
273
     0
  0
XRECORD
  5
1C2E
102
{ACAD_REACTORS
330
1C2C
102
}
330
1C2C
100
AcDbXrecord
280
     1
270
     1
271
     1
  0
XRECORD
  5
1C2D
102
{ACAD_REACTORS
330
1C2C
102
}
330
1C2C
100
AcDbXrecord
280
     1
270
     1
271
     1
  0
XRECORD
  5
1C31
102
{ACAD_REACTORS
330
1C2C
102
}
330
1C2C
100
AcDbXrecord
280
     1
270
     1
271
     1
  0
XRECORD
  5
1C30
102
{ACAD_REACTORS
330
1C2C
102
}
330
1C2C
100
AcDbXrecord
280
     1
270
     1
271
     1
  0
XRECORD
  5
1C32
102
{ACAD_REACTORS
330
1C2C
102
}
330
1C2C
100
AcDbXrecord
280
     1
270
     1
271
     1
  0
XRECORD
  5
1C2F
102
{ACAD_REACTORS
330
1C2C
102
}
330
1C2C
100
AcDbXrecord
280
     1
270
     1
271
     1
  0
XRECORD
  5
1CC4
102
{ACAD_REACTORS
330
1C3C
102
}
330
1C3C
100
AcDbXrecord
280
     1
102
MATERIAL
148
0.0
149
0.0
149
0.0
 93
        0
 94
      127
282
     0
 72
     0
 77
     0
171
     0
175
     0
179
     0
273
     0
  0
XRECORD
  5
1C3E
102
{ACAD_REACTORS
330
1C3C
102
}
330
1C3C
100
AcDbXrecord
280
     1
270
     1
271
     1
  0
XRECORD
  5
1C3D
102
{ACAD_REACTORS
330
1C3C
102
}
330
1C3C
100
AcDbXrecord
280
     1
270
     1
271
     1
  0
XRECORD
  5
1C41
102
{ACAD_REACTORS
330
1C3C
102
}
330
1C3C
100
AcDbXrecord
280
     1
270
     1
271
     1
  0
XRECORD
  5
1C40
102
{ACAD_REACTORS
330
1C3C
102
}
330
1C3C
100
AcDbXrecord
280
     1
270
     1
271
     1
  0
XRECORD
  5
1C42
102
{ACAD_REACTORS
330
1C3C
102
}
330
1C3C
100
AcDbXrecord
280
     1
270
     1
271
     1
  0
XRECORD
  5
1C3F
102
{ACAD_REACTORS
330
1C3C
102
}
330
1C3C
100
AcDbXrecord
280
     1
270
     1
271
     1
  0
XRECORD
  5
1CF8
102
{ACAD_REACTORS
330
1CF7
102
}
330
1CF7
100
AcDbXrecord
280
     1
102
DISPLAYNAME
  1
Imperial24
102
FLAGS
 90
        0
  0
CELLSTYLEMAP
  5
1CBF
102
{ACAD_REACTORS
330
1CBE
102
}
330
1CBE
100
AcDbCellStyleMap
 90
        3
300
CELLSTYLE
  1
TABLEFORMAT_BEGIN
 90
        5
170
     1
 91
        0
 92
    32768
 62
   257
 93
        1
300
CONTENTFORMAT
  1
CONTENTFORMAT_BEGIN
 90
        0
 91
        0
 92
      512
 93
        0
300

 40
0.0
140
1.0
 94
        5
 62
     0
340
1C6F
144
0.25
309
CONTENTFORMAT_END
171
     0
 94
        0
309
TABLEFORMAT_END
  1
CELLSTYLE_BEGIN
 90
        1
 91
        1
300
_TITLE
309
CELLSTYLE_END
300
CELLSTYLE
  1
TABLEFORMAT_BEGIN
 90
        5
170
     1
 91
        0
 92
        0
 62
   257
 93
        1
300
CONTENTFORMAT
  1
CONTENTFORMAT_BEGIN
 90
        0
 91
        0
 92
      512
 93
        0
300

 40
0.0
140
1.0
 94
        5
 62
     0
340
1C6F
144
0.18
309
CONTENTFORMAT_END
171
     0
 94
        0
309
TABLEFORMAT_END
  1
CELLSTYLE_BEGIN
 90
        2
 91
        1
300
_HEADER
309
CELLSTYLE_END
300
CELLSTYLE
  1
TABLEFORMAT_BEGIN
 90
        5
170
     1
 91
        0
 92
        0
 62
   257
 93
        1
300
CONTENTFORMAT
  1
CONTENTFORMAT_BEGIN
 90
        0
 91
        0
 92
      512
 93
        0
300

 40
0.0
140
1.0
 94
        2
 62
     0
340
1C6F
144
0.18
309
CONTENTFORMAT_END
171
     0
 94
        0
309
TABLEFORMAT_END
  1
CELLSTYLE_BEGIN
 90
        3
 91
        2
300
_DATA
309
CELLSTYLE_END
  0
XRECORD
  5
1CF5
102
{ACAD_REACTORS
330
1CBE
102
}
330
1CBE
100
AcDbXrecord
280
     1
102
ACAD_ROUNDTRIP_PRE2007_TABLESTYLE
 90
      512
 91
        0
  1

 92
      512
 93
        0
  2

 94
      512
 95
        0
  3

  0
XRECORD
  5
1CD0
102
{ACAD_REACTORS
330
1CCF
102
}
330
1CCF
100
AcDbXrecord
280
     1
102
RTVSPost2010Prop28
280
     1
102
RTVSPost2010PropOp28
 70
     1
102
RTVSPost2010Prop29
280
     1
102
RTVSPost2010PropOp29
 70
     1
102
RTVSPost2010Prop30
280
     0
102
RTVSPost2010PropOp30
 70
     1
102
RTVSPost2010Prop31
280
     0
102
RTVSPost2010PropOp31
 70
     1
102
RTVSPost2010Prop32
280
     0
102
RTVSPost2010PropOp32
 70
     1
102
RTVSPost2010Prop33
280
     0
102
RTVSPost2010PropOp33
 70
     1
102
RTVSPost2010Prop34
280
     0
102
RTVSPost2010PropOp34
 70
     1
102
RTVSPost2010Prop35
280
     0
102
RTVSPost2010PropOp35
 70
     1
102
RTVSPost2010Prop36
280
     0
102
RTVSPost2010PropOp36
 70
     1
102
RTVSPost2010Prop37
 90
       50
102
RTVSPost2010PropOp37
 70
     1
102
RTVSPost2010Prop38
140
0.0
102
RTVSPost2010PropOp38
 70
     1
102
RTVSPost2010Prop39
140
1.0
102
RTVSPost2010PropOp39
 70
     1
102
RTVSPost2010Prop40
 90
        0
102
RTVSPost2010PropOp40
 70
     1
102
RTVSPost2010Prop41ColorIndex
 90
       18
102
RTVSPost2010Prop41ColorRGB
 90
        0
102
RTVSPost2010PropOp41
 70
     1
102
RTVSPost2010Prop42
 90
       50
102
RTVSPost2010PropOp42
 70
     1
102
RTVSPost2010Prop43
 90
        3
102
RTVSPost2010PropOp43
 70
     1
102
RTVSPost2010Prop44ColorIndex
 90
        5
102
RTVSPost2010Prop44ColorRGB
 90
      255
102
RTVSPost2010PropOp44
 70
     1
102
RTVSPost2010Prop45
280
     0
102
RTVSPost2010PropOp45
 70
     1
102
RTVSPost2010Prop46
 90
       50
102
RTVSPost2010PropOp46
 70
     1
102
RTVSPost2010Prop47
 90
       50
102
RTVSPost2010PropOp47
 70
     1
102
RTVSPost2010Prop48
 90
       50
102
RTVSPost2010PropOp48
 70
     1
102
RTVSPost2010Prop49
280
     0
102
RTVSPost2010PropOp49
 70
     1
102
RTVSPost2010Prop50
 90
       50
102
RTVSPost2010PropOp50
 70
     1
102
RTVSPost2010Prop51ColorIndex
 90
      256
102
RTVSPost2010Prop51ColorRGB
 90
-16777216
102
RTVSPost2010PropOp51
 70
     0
102
RTVSPost2010Prop52
140
1.0
102
RTVSPost2010PropOp52
 70
     0
102
RTVSPost2010Prop53
 90
        2
102
RTVSPost2010PropOp53
 70
     1
102
RTVSPost2010Prop54
  1
strokes_ogs.tif
102
RTVSPost2010PropOp54
 70
     1
102
RTVSPost2010Prop55
280
     0
102
RTVSPost2010PropOp55
 70
     1
102
RTVSPost2010Prop56
140
1.0
102
RTVSPost2010PropOp56
 70
     1
102
RTVSPost2010Prop57
140
1.0
102
RTVSPost2010PropOp57
 70
     1
102
RTVSPropertyOp0
 70
     1
102
RTVSPropertyOp1
 70
     1
102
RTVSPropertyOp2
 70
     1
102
RTVSPropertyOp3
 70
     1
102
RTVSPropertyOp4
 70
     1
102
RTVSPropertyOp5
 70
     1
102
RTVSPropertyOp6
 70
     1
102
RTVSPropertyOp7
 70
     1
102
RTVSPropertyOp8
 70
     1
102
RTVSPropertyOp9
 70
     1
102
RTVSPropertyOp10
 70
     1
102
RTVSPropertyOp11
 70
     1
102
RTVSPropertyOp12
 70
     1
102
RTVSPropertyOp13
 70
     1
102
RTVSPropertyOp14
 70
     1
102
RTVSPropertyOp15
 70
     1
102
RTVSPropertyOp16
 70
     1
102
RTVSPropertyOp17
 70
     1
102
RTVSPropertyOp18
 70
     1
102
RTVSPropertyOp19
 70
     1
102
RTVSPropertyOp20
 70
     1
102
RTVSPropertyOp21
 70
     1
102
RTVSPropertyOp22
 70
     1
102
RTVSPropertyOp23
 70
     1
102
RTVSPropertyOp24
 70
     1
102
RTVSPropertyOp25
 70
     1
102
RTVSPropertyOp26
 70
     1
102
RTVSPropertyOp27
 70
     1
102
RTVSPropertyOp28
 70
     1
102
RTVSPropertyOp29
 70
     1
102
RTVSPropertyOp30
 70
     1
102
RTVSPropertyOp31
 70
     1
102
RTVSPropertyOp32
 70
     1
102
RTVSPropertyOp33
 70
     1
102
RTVSPropertyOp34
 70
     1
102
RTVSPropertyOp35
 70
     1
102
RTVSPropertyOp36
 70
     1
102
RTVSPropertyOp37
 70
     1
102
RTVSPropertyOp38
 70
     1
102
RTVSPropertyOp39
 70
     1
102
RTVSPropertyOp40
 70
     1
102
RTVSPropertyOp41
 70
     1
102
RTVSPropertyOp42
 70
     1
102
RTVSPropertyOp43
 70
     1
102
RTVSPropertyOp44
 70
     1
102
RTVSPropertyOp45
 70
     1
102
RTVSPropertyOp46
 70
     1
102
RTVSPropertyOp47
 70
     1
102
RTVSPropertyOp48
 70
     1
102
RTVSPropertyOp49
 70
     1
102
RTVSPropertyOp50
 70
     1
102
RTVSPropertyOp51
 70
     0
102
RTVSPropertyOp52
 70
     0
102
RTVSPropertyOp53
 70
     1
102
RTVSPropertyOp54
 70
     1
102
RTVSPropertyOp55
 70
     1
102
RTVSPropertyOp56
 70
     1
102
RTVSPropertyOp57
 70
     1
102
RTVSPropertyOp58
 70
     1
102
RTVSPropertyOp59
 70
     1
102
RTVSPropertyOp60
 70
     1
102
RTVSPropertyOp61
 70
     1
102
RTVSPropertyOp62
 70
     1
  0
XRECORD
  5
1CCE
102
{ACAD_REACTORS
330
1CCD
102
}
330
1CCD
100
AcDbXrecord
280
     1
102
RTVSPost2010Prop28
280
     0
102
RTVSPost2010PropOp28
 70
     1
102
RTVSPost2010Prop29
280
     1
102
RTVSPost2010PropOp29
 70
     1
102
RTVSPost2010Prop30
280
     1
102
RTVSPost2010PropOp30
 70
     1
102
RTVSPost2010Prop31
280
     0
102
RTVSPost2010PropOp31
 70
     1
102
RTVSPost2010Prop32
280
     0
102
RTVSPost2010PropOp32
 70
     1
102
RTVSPost2010Prop33
280
     0
102
RTVSPost2010PropOp33
 70
     1
102
RTVSPost2010Prop34
280
     0
102
RTVSPost2010PropOp34
 70
     1
102
RTVSPost2010Prop35
280
     0
102
RTVSPost2010PropOp35
 70
     1
102
RTVSPost2010Prop36
280
     0
102
RTVSPost2010PropOp36
 70
     1
102
RTVSPost2010Prop37
 90
       50
102
RTVSPost2010PropOp37
 70
     1
102
RTVSPost2010Prop38
140
0.0
102
RTVSPost2010PropOp38
 70
     1
102
RTVSPost2010Prop39
140
1.0
102
RTVSPost2010PropOp39
 70
     1
102
RTVSPost2010Prop40
 90
        0
102
RTVSPost2010PropOp40
 70
     1
102
RTVSPost2010Prop41ColorIndex
 90
       18
102
RTVSPost2010Prop41ColorRGB
 90
        0
102
RTVSPost2010PropOp41
 70
     1
102
RTVSPost2010Prop42
 90
       50
102
RTVSPost2010PropOp42
 70
     1
102
RTVSPost2010Prop43
 90
        3
102
RTVSPost2010PropOp43
 70
     1
102
RTVSPost2010Prop44ColorIndex
 90
        5
102
RTVSPost2010Prop44ColorRGB
 90
      255
102
RTVSPost2010PropOp44
 70
     1
102
RTVSPost2010Prop45
280
     0
102
RTVSPost2010PropOp45
 70
     1
102
RTVSPost2010Prop46
 90
       50
102
RTVSPost2010PropOp46
 70
     1
102
RTVSPost2010Prop47
 90
       50
102
RTVSPost2010PropOp47
 70
     1
102
RTVSPost2010Prop48
 90
       50
102
RTVSPost2010PropOp48
 70
     1
102
RTVSPost2010Prop49
280
     0
102
RTVSPost2010PropOp49
 70
     1
102
RTVSPost2010Prop50
 90
       50
102
RTVSPost2010PropOp50
 70
     1
102
RTVSPost2010Prop51ColorIndex
 90
      256
102
RTVSPost2010Prop51ColorRGB
 90
-16777216
102
RTVSPost2010PropOp51
 70
     0
102
RTVSPost2010Prop52
140
1.0
102
RTVSPost2010PropOp52
 70
     0
102
RTVSPost2010Prop53
 90
        2
102
RTVSPost2010PropOp53
 70
     1
102
RTVSPost2010Prop54
  1
strokes_ogs.tif
102
RTVSPost2010PropOp54
 70
     1
102
RTVSPost2010Prop55
280
     0
102
RTVSPost2010PropOp55
 70
     1
102
RTVSPost2010Prop56
140
1.0
102
RTVSPost2010PropOp56
 70
     1
102
RTVSPost2010Prop57
140
1.0
102
RTVSPost2010PropOp57
 70
     1
102
RTVSPropertyOp0
 70
     1
102
RTVSPropertyOp1
 70
     1
102
RTVSPropertyOp2
 70
     1
102
RTVSPropertyOp3
 70
     1
102
RTVSPropertyOp4
 70
     1
102
RTVSPropertyOp5
 70
     1
102
RTVSPropertyOp6
 70
     1
102
RTVSPropertyOp7
 70
     1
102
RTVSPropertyOp8
 70
     1
102
RTVSPropertyOp9
 70
     1
102
RTVSPropertyOp10
 70
     1
102
RTVSPropertyOp11
 70
     1
102
RTVSPropertyOp12
 70
     1
102
RTVSPropertyOp13
 70
     1
102
RTVSPropertyOp14
 70
     1
102
RTVSPropertyOp15
 70
     1
102
RTVSPropertyOp16
 70
     1
102
RTVSPropertyOp17
 70
     1
102
RTVSPropertyOp18
 70
     1
102
RTVSPropertyOp19
 70
     1
102
RTVSPropertyOp20
 70
     1
102
RTVSPropertyOp21
 70
     1
102
RTVSPropertyOp22
 70
     1
102
RTVSPropertyOp23
 70
     1
102
RTVSPropertyOp24
 70
     1
102
RTVSPropertyOp25
 70
     1
102
RTVSPropertyOp26
 70
     1
102
RTVSPropertyOp27
 70
     1
102
RTVSPropertyOp28
 70
     1
102
RTVSPropertyOp29
 70
     1
102
RTVSPropertyOp30
 70
     1
102
RTVSPropertyOp31
 70
     1
102
RTVSPropertyOp32
 70
     1
102
RTVSPropertyOp33
 70
     1
102
RTVSPropertyOp34
 70
     1
102
RTVSPropertyOp35
 70
     1
102
RTVSPropertyOp36
 70
     1
102
RTVSPropertyOp37
 70
     1
102
RTVSPropertyOp38
 70
     1
102
RTVSPropertyOp39
 70
     1
102
RTVSPropertyOp40
 70
     1
102
RTVSPropertyOp41
 70
     1
102
RTVSPropertyOp42
 70
     1
102
RTVSPropertyOp43
 70
     1
102
RTVSPropertyOp44
 70
     1
102
RTVSPropertyOp45
 70
     1
102
RTVSPropertyOp46
 70
     1
102
RTVSPropertyOp47
 70
     1
102
RTVSPropertyOp48
 70
     1
102
RTVSPropertyOp49
 70
     1
102
RTVSPropertyOp50
 70
     1
102
RTVSPropertyOp51
 70
     0
102
RTVSPropertyOp52
 70
     0
102
RTVSPropertyOp53
 70
     1
102
RTVSPropertyOp54
 70
     1
102
RTVSPropertyOp55
 70
     1
102
RTVSPropertyOp56
 70
     1
102
RTVSPropertyOp57
 70
     1
102
RTVSPropertyOp58
 70
     1
102
RTVSPropertyOp59
 70
     1
102
RTVSPropertyOp60
 70
     1
102
RTVSPropertyOp61
 70
     1
102
RTVSPropertyOp62
 70
     1
  0
XRECORD
  5
1CDC
102
{ACAD_REACTORS
330
1CDB
102
}
330
1CDB
100
AcDbXrecord
280
     1
102
RTVSPost2010Prop28
280
     0
102
RTVSPost2010PropOp28
 70
     1
102
RTVSPost2010Prop29
280
     1
102
RTVSPost2010PropOp29
 70
     1
102
RTVSPost2010Prop30
280
     1
102
RTVSPost2010PropOp30
 70
     1
102
RTVSPost2010Prop31
280
     0
102
RTVSPost2010PropOp31
 70
     1
102
RTVSPost2010Prop32
280
     0
102
RTVSPost2010PropOp32
 70
     1
102
RTVSPost2010Prop33
280
     0
102
RTVSPost2010PropOp33
 70
     1
102
RTVSPost2010Prop34
280
     0
102
RTVSPost2010PropOp34
 70
     1
102
RTVSPost2010Prop35
280
     0
102
RTVSPost2010PropOp35
 70
     1
102
RTVSPost2010Prop36
280
     0
102
RTVSPost2010PropOp36
 70
     1
102
RTVSPost2010Prop37
 90
       50
102
RTVSPost2010PropOp37
 70
     1
102
RTVSPost2010Prop38
140
0.0
102
RTVSPost2010PropOp38
 70
     1
102
RTVSPost2010Prop39
140
1.0
102
RTVSPost2010PropOp39
 70
     1
102
RTVSPost2010Prop40
 90
        0
102
RTVSPost2010PropOp40
 70
     1
102
RTVSPost2010Prop41ColorIndex
 90
       18
102
RTVSPost2010Prop41ColorRGB
 90
        0
102
RTVSPost2010PropOp41
 70
     1
102
RTVSPost2010Prop42
 90
       50
102
RTVSPost2010PropOp42
 70
     1
102
RTVSPost2010Prop43
 90
        3
102
RTVSPost2010PropOp43
 70
     1
102
RTVSPost2010Prop44ColorIndex
 90
        5
102
RTVSPost2010Prop44ColorRGB
 90
      255
102
RTVSPost2010PropOp44
 70
     1
102
RTVSPost2010Prop45
280
     0
102
RTVSPost2010PropOp45
 70
     1
102
RTVSPost2010Prop46
 90
       50
102
RTVSPost2010PropOp46
 70
     1
102
RTVSPost2010Prop47
 90
       50
102
RTVSPost2010PropOp47
 70
     1
102
RTVSPost2010Prop48
 90
       50
102
RTVSPost2010PropOp48
 70
     1
102
RTVSPost2010Prop49
280
     0
102
RTVSPost2010PropOp49
 70
     1
102
RTVSPost2010Prop50
 90
       50
102
RTVSPost2010PropOp50
 70
     1
102
RTVSPost2010Prop51ColorIndex
 90
      256
102
RTVSPost2010Prop51ColorRGB
 90
-16777216
102
RTVSPost2010PropOp51
 70
     0
102
RTVSPost2010Prop52
140
1.0
102
RTVSPost2010PropOp52
 70
     0
102
RTVSPost2010Prop53
 90
        2
102
RTVSPost2010PropOp53
 70
     1
102
RTVSPost2010Prop54
  1
strokes_ogs.tif
102
RTVSPost2010PropOp54
 70
     1
102
RTVSPost2010Prop55
280
     0
102
RTVSPost2010PropOp55
 70
     1
102
RTVSPost2010Prop56
140
1.0
102
RTVSPost2010PropOp56
 70
     1
102
RTVSPost2010Prop57
140
1.0
102
RTVSPost2010PropOp57
 70
     1
102
RTVSPropertyOp0
 70
     1
102
RTVSPropertyOp1
 70
     1
102
RTVSPropertyOp2
 70
     1
102
RTVSPropertyOp3
 70
     1
102
RTVSPropertyOp4
 70
     1
102
RTVSPropertyOp5
 70
     1
102
RTVSPropertyOp6
 70
     1
102
RTVSPropertyOp7
 70
     1
102
RTVSPropertyOp8
 70
     1
102
RTVSPropertyOp9
 70
     1
102
RTVSPropertyOp10
 70
     1
102
RTVSPropertyOp11
 70
     1
102
RTVSPropertyOp12
 70
     1
102
RTVSPropertyOp13
 70
     1
102
RTVSPropertyOp14
 70
     1
102
RTVSPropertyOp15
 70
     1
102
RTVSPropertyOp16
 70
     1
102
RTVSPropertyOp17
 70
     1
102
RTVSPropertyOp18
 70
     1
102
RTVSPropertyOp19
 70
     1
102
RTVSPropertyOp20
 70
     1
102
RTVSPropertyOp21
 70
     1
102
RTVSPropertyOp22
 70
     1
102
RTVSPropertyOp23
 70
     1
102
RTVSPropertyOp24
 70
     1
102
RTVSPropertyOp25
 70
     1
102
RTVSPropertyOp26
 70
     1
102
RTVSPropertyOp27
 70
     1
102
RTVSPropertyOp28
 70
     1
102
RTVSPropertyOp29
 70
     1
102
RTVSPropertyOp30
 70
     1
102
RTVSPropertyOp31
 70
     1
102
RTVSPropertyOp32
 70
     1
102
RTVSPropertyOp33
 70
     1
102
RTVSPropertyOp34
 70
     1
102
RTVSPropertyOp35
 70
     1
102
RTVSPropertyOp36
 70
     1
102
RTVSPropertyOp37
 70
     1
102
RTVSPropertyOp38
 70
     1
102
RTVSPropertyOp39
 70
     1
102
RTVSPropertyOp40
 70
     1
102
RTVSPropertyOp41
 70
     1
102
RTVSPropertyOp42
 70
     1
102
RTVSPropertyOp43
 70
     1
102
RTVSPropertyOp44
 70
     1
102
RTVSPropertyOp45
 70
     1
102
RTVSPropertyOp46
 70
     1
102
RTVSPropertyOp47
 70
     1
102
RTVSPropertyOp48
 70
     1
102
RTVSPropertyOp49
 70
     1
102
RTVSPropertyOp50
 70
     1
102
RTVSPropertyOp51
 70
     0
102
RTVSPropertyOp52
 70
     0
102
RTVSPropertyOp53
 70
     1
102
RTVSPropertyOp54
 70
     1
102
RTVSPropertyOp55
 70
     1
102
RTVSPropertyOp56
 70
     1
102
RTVSPropertyOp57
 70
     1
102
RTVSPropertyOp58
 70
     1
102
RTVSPropertyOp59
 70
     1
102
RTVSPropertyOp60
 70
     1
102
RTVSPropertyOp61
 70
     1
102
RTVSPropertyOp62
 70
     1
  0
XRECORD
  5
1CE4
102
{ACAD_REACTORS
330
1CE3
102
}
330
1CE3
100
AcDbXrecord
280
     1
102
RTVSPost2010Prop28
280
     0
102
RTVSPost2010PropOp28
 70
     1
102
RTVSPost2010Prop29
280
     1
102
RTVSPost2010PropOp29
 70
     1
102
RTVSPost2010Prop30
280
     1
102
RTVSPost2010PropOp30
 70
     1
102
RTVSPost2010Prop31
280
     0
102
RTVSPost2010PropOp31
 70
     1
102
RTVSPost2010Prop32
280
     0
102
RTVSPost2010PropOp32
 70
     1
102
RTVSPost2010Prop33
280
     0
102
RTVSPost2010PropOp33
 70
     1
102
RTVSPost2010Prop34
280
     0
102
RTVSPost2010PropOp34
 70
     1
102
RTVSPost2010Prop35
280
     0
102
RTVSPost2010PropOp35
 70
     1
102
RTVSPost2010Prop36
280
     0
102
RTVSPost2010PropOp36
 70
     1
102
RTVSPost2010Prop37
 90
       50
102
RTVSPost2010PropOp37
 70
     1
102
RTVSPost2010Prop38
140
0.0
102
RTVSPost2010PropOp38
 70
     1
102
RTVSPost2010Prop39
140
1.0
102
RTVSPost2010PropOp39
 70
     1
102
RTVSPost2010Prop40
 90
        0
102
RTVSPost2010PropOp40
 70
     1
102
RTVSPost2010Prop41ColorIndex
 90
       18
102
RTVSPost2010Prop41ColorRGB
 90
        0
102
RTVSPost2010PropOp41
 70
     1
102
RTVSPost2010Prop42
 90
       50
102
RTVSPost2010PropOp42
 70
     1
102
RTVSPost2010Prop43
 90
        3
102
RTVSPost2010PropOp43
 70
     1
102
RTVSPost2010Prop44ColorIndex
 90
        5
102
RTVSPost2010Prop44ColorRGB
 90
      255
102
RTVSPost2010PropOp44
 70
     1
102
RTVSPost2010Prop45
280
     0
102
RTVSPost2010PropOp45
 70
     1
102
RTVSPost2010Prop46
 90
       50
102
RTVSPost2010PropOp46
 70
     1
102
RTVSPost2010Prop47
 90
       50
102
RTVSPost2010PropOp47
 70
     1
102
RTVSPost2010Prop48
 90
       50
102
RTVSPost2010PropOp48
 70
     1
102
RTVSPost2010Prop49
280
     0
102
RTVSPost2010PropOp49
 70
     1
102
RTVSPost2010Prop50
 90
       50
102
RTVSPost2010PropOp50
 70
     1
102
RTVSPost2010Prop51ColorIndex
 90
      256
102
RTVSPost2010Prop51ColorRGB
 90
-16777216
102
RTVSPost2010PropOp51
 70
     0
102
RTVSPost2010Prop52
140
1.0
102
RTVSPost2010PropOp52
 70
     0
102
RTVSPost2010Prop53
 90
        2
102
RTVSPost2010PropOp53
 70
     1
102
RTVSPost2010Prop54
  1
strokes_ogs.tif
102
RTVSPost2010PropOp54
 70
     1
102
RTVSPost2010Prop55
280
     0
102
RTVSPost2010PropOp55
 70
     1
102
RTVSPost2010Prop56
140
1.0
102
RTVSPost2010PropOp56
 70
     1
102
RTVSPost2010Prop57
140
1.0
102
RTVSPost2010PropOp57
 70
     1
102
RTVSPropertyOp0
 70
     1
102
RTVSPropertyOp1
 70
     1
102
RTVSPropertyOp2
 70
     1
102
RTVSPropertyOp3
 70
     1
102
RTVSPropertyOp4
 70
     1
102
RTVSPropertyOp5
 70
     1
102
RTVSPropertyOp6
 70
     1
102
RTVSPropertyOp7
 70
     1
102
RTVSPropertyOp8
 70
     1
102
RTVSPropertyOp9
 70
     1
102
RTVSPropertyOp10
 70
     1
102
RTVSPropertyOp11
 70
     1
102
RTVSPropertyOp12
 70
     1
102
RTVSPropertyOp13
 70
     1
102
RTVSPropertyOp14
 70
     1
102
RTVSPropertyOp15
 70
     1
102
RTVSPropertyOp16
 70
     1
102
RTVSPropertyOp17
 70
     1
102
RTVSPropertyOp18
 70
     1
102
RTVSPropertyOp19
 70
     1
102
RTVSPropertyOp20
 70
     1
102
RTVSPropertyOp21
 70
     1
102
RTVSPropertyOp22
 70
     1
102
RTVSPropertyOp23
 70
     1
102
RTVSPropertyOp24
 70
     1
102
RTVSPropertyOp25
 70
     1
102
RTVSPropertyOp26
 70
     1
102
RTVSPropertyOp27
 70
     1
102
RTVSPropertyOp28
 70
     1
102
RTVSPropertyOp29
 70
     1
102
RTVSPropertyOp30
 70
     1
102
RTVSPropertyOp31
 70
     1
102
RTVSPropertyOp32
 70
     1
102
RTVSPropertyOp33
 70
     1
102
RTVSPropertyOp34
 70
     1
102
RTVSPropertyOp35
 70
     1
102
RTVSPropertyOp36
 70
     1
102
RTVSPropertyOp37
 70
     1
102
RTVSPropertyOp38
 70
     1
102
RTVSPropertyOp39
 70
     1
102
RTVSPropertyOp40
 70
     1
102
RTVSPropertyOp41
 70
     1
102
RTVSPropertyOp42
 70
     1
102
RTVSPropertyOp43
 70
     1
102
RTVSPropertyOp44
 70
     1
102
RTVSPropertyOp45
 70
     1
102
RTVSPropertyOp46
 70
     1
102
RTVSPropertyOp47
 70
     1
102
RTVSPropertyOp48
 70
     1
102
RTVSPropertyOp49
 70
     1
102
RTVSPropertyOp50
 70
     1
102
RTVSPropertyOp51
 70
     0
102
RTVSPropertyOp52
 70
     0
102
RTVSPropertyOp53
 70
     1
102
RTVSPropertyOp54
 70
     1
102
RTVSPropertyOp55
 70
     1
102
RTVSPropertyOp56
 70
     1
102
RTVSPropertyOp57
 70
     1
102
RTVSPropertyOp58
 70
     1
102
RTVSPropertyOp59
 70
     1
102
RTVSPropertyOp60
 70
     1
102
RTVSPropertyOp61
 70
     1
102
RTVSPropertyOp62
 70
     1
  0
XRECORD
  5
1CD6
102
{ACAD_REACTORS
330
1CD5
102
}
330
1CD5
100
AcDbXrecord
280
     1
102
RTVSPost2010Prop28
280
     0
102
RTVSPost2010PropOp28
 70
     1
102
RTVSPost2010Prop29
280
     1
102
RTVSPost2010PropOp29
 70
     1
102
RTVSPost2010Prop30
280
     1
102
RTVSPost2010PropOp30
 70
     1
102
RTVSPost2010Prop31
280
     0
102
RTVSPost2010PropOp31
 70
     1
102
RTVSPost2010Prop32
280
     0
102
RTVSPost2010PropOp32
 70
     1
102
RTVSPost2010Prop33
280
     0
102
RTVSPost2010PropOp33
 70
     1
102
RTVSPost2010Prop34
280
     0
102
RTVSPost2010PropOp34
 70
     1
102
RTVSPost2010Prop35
280
     0
102
RTVSPost2010PropOp35
 70
     1
102
RTVSPost2010Prop36
280
     0
102
RTVSPost2010PropOp36
 70
     1
102
RTVSPost2010Prop37
 90
       50
102
RTVSPost2010PropOp37
 70
     1
102
RTVSPost2010Prop38
140
0.0
102
RTVSPost2010PropOp38
 70
     1
102
RTVSPost2010Prop39
140
1.0
102
RTVSPost2010PropOp39
 70
     1
102
RTVSPost2010Prop40
 90
        0
102
RTVSPost2010PropOp40
 70
     1
102
RTVSPost2010Prop41ColorIndex
 90
       18
102
RTVSPost2010Prop41ColorRGB
 90
        0
102
RTVSPost2010PropOp41
 70
     1
102
RTVSPost2010Prop42
 90
       50
102
RTVSPost2010PropOp42
 70
     1
102
RTVSPost2010Prop43
 90
        3
102
RTVSPost2010PropOp43
 70
     1
102
RTVSPost2010Prop44ColorIndex
 90
        5
102
RTVSPost2010Prop44ColorRGB
 90
      255
102
RTVSPost2010PropOp44
 70
     1
102
RTVSPost2010Prop45
280
     0
102
RTVSPost2010PropOp45
 70
     1
102
RTVSPost2010Prop46
 90
       50
102
RTVSPost2010PropOp46
 70
     1
102
RTVSPost2010Prop47
 90
       50
102
RTVSPost2010PropOp47
 70
     1
102
RTVSPost2010Prop48
 90
       50
102
RTVSPost2010PropOp48
 70
     1
102
RTVSPost2010Prop49
280
     0
102
RTVSPost2010PropOp49
 70
     1
102
RTVSPost2010Prop50
 90
       50
102
RTVSPost2010PropOp50
 70
     1
102
RTVSPost2010Prop51ColorIndex
 90
      256
102
RTVSPost2010Prop51ColorRGB
 90
-16777216
102
RTVSPost2010PropOp51
 70
     0
102
RTVSPost2010Prop52
140
1.0
102
RTVSPost2010PropOp52
 70
     0
102
RTVSPost2010Prop53
 90
        2
102
RTVSPost2010PropOp53
 70
     1
102
RTVSPost2010Prop54
  1
strokes_ogs.tif
102
RTVSPost2010PropOp54
 70
     1
102
RTVSPost2010Prop55
280
     0
102
RTVSPost2010PropOp55
 70
     1
102
RTVSPost2010Prop56
140
1.0
102
RTVSPost2010PropOp56
 70
     1
102
RTVSPost2010Prop57
140
1.0
102
RTVSPost2010PropOp57
 70
     1
102
RTVSPropertyOp0
 70
     1
102
RTVSPropertyOp1
 70
     1
102
RTVSPropertyOp2
 70
     1
102
RTVSPropertyOp3
 70
     1
102
RTVSPropertyOp4
 70
     1
102
RTVSPropertyOp5
 70
     1
102
RTVSPropertyOp6
 70
     1
102
RTVSPropertyOp7
 70
     1
102
RTVSPropertyOp8
 70
     1
102
RTVSPropertyOp9
 70
     1
102
RTVSPropertyOp10
 70
     1
102
RTVSPropertyOp11
 70
     1
102
RTVSPropertyOp12
 70
     1
102
RTVSPropertyOp13
 70
     1
102
RTVSPropertyOp14
 70
     1
102
RTVSPropertyOp15
 70
     1
102
RTVSPropertyOp16
 70
     1
102
RTVSPropertyOp17
 70
     1
102
RTVSPropertyOp18
 70
     1
102
RTVSPropertyOp19
 70
     1
102
RTVSPropertyOp20
 70
     1
102
RTVSPropertyOp21
 70
     1
102
RTVSPropertyOp22
 70
     1
102
RTVSPropertyOp23
 70
     1
102
RTVSPropertyOp24
 70
     1
102
RTVSPropertyOp25
 70
     1
102
RTVSPropertyOp26
 70
     1
102
RTVSPropertyOp27
 70
     1
102
RTVSPropertyOp28
 70
     1
102
RTVSPropertyOp29
 70
     1
102
RTVSPropertyOp30
 70
     1
102
RTVSPropertyOp31
 70
     1
102
RTVSPropertyOp32
 70
     1
102
RTVSPropertyOp33
 70
     1
102
RTVSPropertyOp34
 70
     1
102
RTVSPropertyOp35
 70
     1
102
RTVSPropertyOp36
 70
     1
102
RTVSPropertyOp37
 70
     1
102
RTVSPropertyOp38
 70
     1
102
RTVSPropertyOp39
 70
     1
102
RTVSPropertyOp40
 70
     1
102
RTVSPropertyOp41
 70
     1
102
RTVSPropertyOp42
 70
     1
102
RTVSPropertyOp43
 70
     1
102
RTVSPropertyOp44
 70
     1
102
RTVSPropertyOp45
 70
     1
102
RTVSPropertyOp46
 70
     1
102
RTVSPropertyOp47
 70
     1
102
RTVSPropertyOp48
 70
     1
102
RTVSPropertyOp49
 70
     1
102
RTVSPropertyOp50
 70
     1
102
RTVSPropertyOp51
 70
     0
102
RTVSPropertyOp52
 70
     0
102
RTVSPropertyOp53
 70
     1
102
RTVSPropertyOp54
 70
     1
102
RTVSPropertyOp55
 70
     1
102
RTVSPropertyOp56
 70
     1
102
RTVSPropertyOp57
 70
     1
102
RTVSPropertyOp58
 70
     1
102
RTVSPropertyOp59
 70
     1
102
RTVSPropertyOp60
 70
     1
102
RTVSPropertyOp61
 70
     1
102
RTVSPropertyOp62
 70
     1
  0
XRECORD
  5
1CDA
102
{ACAD_REACTORS
330
1CD9
102
}
330
1CD9
100
AcDbXrecord
280
     1
102
RTVSPost2010Prop28
280
     0
102
RTVSPost2010PropOp28
 70
     1
102
RTVSPost2010Prop29
280
     1
102
RTVSPost2010PropOp29
 70
     1
102
RTVSPost2010Prop30
280
     1
102
RTVSPost2010PropOp30
 70
     1
102
RTVSPost2010Prop31
280
     0
102
RTVSPost2010PropOp31
 70
     1
102
RTVSPost2010Prop32
280
     0
102
RTVSPost2010PropOp32
 70
     1
102
RTVSPost2010Prop33
280
     0
102
RTVSPost2010PropOp33
 70
     1
102
RTVSPost2010Prop34
280
     0
102
RTVSPost2010PropOp34
 70
     1
102
RTVSPost2010Prop35
280
     0
102
RTVSPost2010PropOp35
 70
     1
102
RTVSPost2010Prop36
280
     0
102
RTVSPost2010PropOp36
 70
     1
102
RTVSPost2010Prop37
 90
       50
102
RTVSPost2010PropOp37
 70
     1
102
RTVSPost2010Prop38
140
0.0
102
RTVSPost2010PropOp38
 70
     1
102
RTVSPost2010Prop39
140
1.0
102
RTVSPost2010PropOp39
 70
     1
102
RTVSPost2010Prop40
 90
        0
102
RTVSPost2010PropOp40
 70
     1
102
RTVSPost2010Prop41ColorIndex
 90
       18
102
RTVSPost2010Prop41ColorRGB
 90
        0
102
RTVSPost2010PropOp41
 70
     1
102
RTVSPost2010Prop42
 90
       50
102
RTVSPost2010PropOp42
 70
     1
102
RTVSPost2010Prop43
 90
        3
102
RTVSPost2010PropOp43
 70
     1
102
RTVSPost2010Prop44ColorIndex
 90
        5
102
RTVSPost2010Prop44ColorRGB
 90
      255
102
RTVSPost2010PropOp44
 70
     1
102
RTVSPost2010Prop45
280
     0
102
RTVSPost2010PropOp45
 70
     1
102
RTVSPost2010Prop46
 90
       50
102
RTVSPost2010PropOp46
 70
     1
102
RTVSPost2010Prop47
 90
       50
102
RTVSPost2010PropOp47
 70
     1
102
RTVSPost2010Prop48
 90
       50
102
RTVSPost2010PropOp48
 70
     1
102
RTVSPost2010Prop49
280
     0
102
RTVSPost2010PropOp49
 70
     1
102
RTVSPost2010Prop50
 90
       50
102
RTVSPost2010PropOp50
 70
     1
102
RTVSPost2010Prop51ColorIndex
 90
      256
102
RTVSPost2010Prop51ColorRGB
 90
-16777216
102
RTVSPost2010PropOp51
 70
     0
102
RTVSPost2010Prop52
140
1.0
102
RTVSPost2010PropOp52
 70
     0
102
RTVSPost2010Prop53
 90
        2
102
RTVSPost2010PropOp53
 70
     1
102
RTVSPost2010Prop54
  1
strokes_ogs.tif
102
RTVSPost2010PropOp54
 70
     1
102
RTVSPost2010Prop55
280
     0
102
RTVSPost2010PropOp55
 70
     1
102
RTVSPost2010Prop56
140
1.0
102
RTVSPost2010PropOp56
 70
     1
102
RTVSPost2010Prop57
140
1.0
102
RTVSPost2010PropOp57
 70
     1
102
RTVSPropertyOp0
 70
     1
102
RTVSPropertyOp1
 70
     1
102
RTVSPropertyOp2
 70
     1
102
RTVSPropertyOp3
 70
     1
102
RTVSPropertyOp4
 70
     1
102
RTVSPropertyOp5
 70
     1
102
RTVSPropertyOp6
 70
     1
102
RTVSPropertyOp7
 70
     1
102
RTVSPropertyOp8
 70
     1
102
RTVSPropertyOp9
 70
     1
102
RTVSPropertyOp10
 70
     1
102
RTVSPropertyOp11
 70
     1
102
RTVSPropertyOp12
 70
     1
102
RTVSPropertyOp13
 70
     1
102
RTVSPropertyOp14
 70
     1
102
RTVSPropertyOp15
 70
     1
102
RTVSPropertyOp16
 70
     1
102
RTVSPropertyOp17
 70
     1
102
RTVSPropertyOp18
 70
     1
102
RTVSPropertyOp19
 70
     1
102
RTVSPropertyOp20
 70
     1
102
RTVSPropertyOp21
 70
     1
102
RTVSPropertyOp22
 70
     1
102
RTVSPropertyOp23
 70
     1
102
RTVSPropertyOp24
 70
     1
102
RTVSPropertyOp25
 70
     1
102
RTVSPropertyOp26
 70
     1
102
RTVSPropertyOp27
 70
     1
102
RTVSPropertyOp28
 70
     1
102
RTVSPropertyOp29
 70
     1
102
RTVSPropertyOp30
 70
     1
102
RTVSPropertyOp31
 70
     1
102
RTVSPropertyOp32
 70
     1
102
RTVSPropertyOp33
 70
     1
102
RTVSPropertyOp34
 70
     1
102
RTVSPropertyOp35
 70
     1
102
RTVSPropertyOp36
 70
     1
102
RTVSPropertyOp37
 70
     1
102
RTVSPropertyOp38
 70
     1
102
RTVSPropertyOp39
 70
     1
102
RTVSPropertyOp40
 70
     1
102
RTVSPropertyOp41
 70
     1
102
RTVSPropertyOp42
 70
     1
102
RTVSPropertyOp43
 70
     1
102
RTVSPropertyOp44
 70
     1
102
RTVSPropertyOp45
 70
     1
102
RTVSPropertyOp46
 70
     1
102
RTVSPropertyOp47
 70
     1
102
RTVSPropertyOp48
 70
     1
102
RTVSPropertyOp49
 70
     1
102
RTVSPropertyOp50
 70
     1
102
RTVSPropertyOp51
 70
     0
102
RTVSPropertyOp52
 70
     0
102
RTVSPropertyOp53
 70
     1
102
RTVSPropertyOp54
 70
     1
102
RTVSPropertyOp55
 70
     1
102
RTVSPropertyOp56
 70
     1
102
RTVSPropertyOp57
 70
     1
102
RTVSPropertyOp58
 70
     1
102
RTVSPropertyOp59
 70
     1
102
RTVSPropertyOp60
 70
     1
102
RTVSPropertyOp61
 70
     1
102
RTVSPropertyOp62
 70
     1
  0
XRECORD
  5
1CF4
102
{ACAD_REACTORS
330
1CF3
102
}
330
1CF3
100
AcDbXrecord
280
     1
102
RTVSPost2010Prop28
280
     0
102
RTVSPost2010PropOp28
 70
     1
102
RTVSPost2010Prop29
280
     1
102
RTVSPost2010PropOp29
 70
     1
102
RTVSPost2010Prop30
280
     1
102
RTVSPost2010PropOp30
 70
     1
102
RTVSPost2010Prop31
280
     0
102
RTVSPost2010PropOp31
 70
     1
102
RTVSPost2010Prop32
280
     0
102
RTVSPost2010PropOp32
 70
     1
102
RTVSPost2010Prop33
280
     0
102
RTVSPost2010PropOp33
 70
     1
102
RTVSPost2010Prop34
280
     0
102
RTVSPost2010PropOp34
 70
     1
102
RTVSPost2010Prop35
280
     0
102
RTVSPost2010PropOp35
 70
     1
102
RTVSPost2010Prop36
280
     0
102
RTVSPost2010PropOp36
 70
     1
102
RTVSPost2010Prop37
 90
       50
102
RTVSPost2010PropOp37
 70
     0
102
RTVSPost2010Prop38
140
0.0
102
RTVSPost2010PropOp38
 70
     0
102
RTVSPost2010Prop39
140
1.0
102
RTVSPost2010PropOp39
 70
     0
102
RTVSPost2010Prop40
 90
        0
102
RTVSPost2010PropOp40
 70
     0
102
RTVSPost2010Prop41ColorIndex
 90
       18
102
RTVSPost2010Prop41ColorRGB
 90
        0
102
RTVSPost2010PropOp41
 70
     0
102
RTVSPost2010Prop42
 90
       50
102
RTVSPost2010PropOp42
 70
     0
102
RTVSPost2010Prop43
 90
        3
102
RTVSPost2010PropOp43
 70
     0
102
RTVSPost2010Prop44ColorIndex
 90
        5
102
RTVSPost2010Prop44ColorRGB
 90
      255
102
RTVSPost2010PropOp44
 70
     0
102
RTVSPost2010Prop45
280
     0
102
RTVSPost2010PropOp45
 70
     1
102
RTVSPost2010Prop46
 90
       50
102
RTVSPost2010PropOp46
 70
     0
102
RTVSPost2010Prop47
 90
       50
102
RTVSPost2010PropOp47
 70
     0
102
RTVSPost2010Prop48
 90
       50
102
RTVSPost2010PropOp48
 70
     0
102
RTVSPost2010Prop49
280
     0
102
RTVSPost2010PropOp49
 70
     1
102
RTVSPost2010Prop50
 90
       50
102
RTVSPost2010PropOp50
 70
     0
102
RTVSPost2010Prop51ColorIndex
 90
      256
102
RTVSPost2010Prop51ColorRGB
 90
-16777216
102
RTVSPost2010PropOp51
 70
     0
102
RTVSPost2010Prop52
140
1.0
102
RTVSPost2010PropOp52
 70
     0
102
RTVSPost2010Prop53
 90
        2
102
RTVSPost2010PropOp53
 70
     0
102
RTVSPost2010Prop54
  1
strokes_ogs.tif
102
RTVSPost2010PropOp54
 70
     0
102
RTVSPost2010Prop55
280
     0
102
RTVSPost2010PropOp55
 70
     1
102
RTVSPost2010Prop56
140
1.0
102
RTVSPost2010PropOp56
 70
     0
102
RTVSPost2010Prop57
140
1.0
102
RTVSPost2010PropOp57
 70
     0
102
RTVSPropertyOp0
 70
     0
102
RTVSPropertyOp1
 70
     0
102
RTVSPropertyOp2
 70
     0
102
RTVSPropertyOp3
 70
     0
102
RTVSPropertyOp4
 70
     0
102
RTVSPropertyOp5
 70
     0
102
RTVSPropertyOp6
 70
     0
102
RTVSPropertyOp7
 70
     0
102
RTVSPropertyOp8
 70
     0
102
RTVSPropertyOp9
 70
     0
102
RTVSPropertyOp10
 70
     0
102
RTVSPropertyOp11
 70
     0
102
RTVSPropertyOp12
 70
     0
102
RTVSPropertyOp13
 70
     0
102
RTVSPropertyOp14
 70
     2
102
RTVSPropertyOp15
 70
     0
102
RTVSPropertyOp16
 70
     0
102
RTVSPropertyOp17
 70
     0
102
RTVSPropertyOp18
 70
     0
102
RTVSPropertyOp19
 70
     0
102
RTVSPropertyOp20
 70
     0
102
RTVSPropertyOp21
 70
     0
102
RTVSPropertyOp22
 70
     0
102
RTVSPropertyOp23
 70
     0
102
RTVSPropertyOp24
 70
     0
102
RTVSPropertyOp25
 70
     0
102
RTVSPropertyOp26
 70
     0
102
RTVSPropertyOp27
 70
     0
102
RTVSPropertyOp28
 70
     1
102
RTVSPropertyOp29
 70
     1
102
RTVSPropertyOp30
 70
     1
102
RTVSPropertyOp31
 70
     1
102
RTVSPropertyOp32
 70
     1
102
RTVSPropertyOp33
 70
     1
102
RTVSPropertyOp34
 70
     1
102
RTVSPropertyOp35
 70
     1
102
RTVSPropertyOp36
 70
     1
102
RTVSPropertyOp37
 70
     0
102
RTVSPropertyOp38
 70
     0
102
RTVSPropertyOp39
 70
     0
102
RTVSPropertyOp40
 70
     0
102
RTVSPropertyOp41
 70
     0
102
RTVSPropertyOp42
 70
     0
102
RTVSPropertyOp43
 70
     0
102
RTVSPropertyOp44
 70
     0
102
RTVSPropertyOp45
 70
     1
102
RTVSPropertyOp46
 70
     0
102
RTVSPropertyOp47
 70
     0
102
RTVSPropertyOp48
 70
     0
102
RTVSPropertyOp49
 70
     1
102
RTVSPropertyOp50
 70
     0
102
RTVSPropertyOp51
 70
     0
102
RTVSPropertyOp52
 70
     0
102
RTVSPropertyOp53
 70
     0
102
RTVSPropertyOp54
 70
     0
102
RTVSPropertyOp55
 70
     1
102
RTVSPropertyOp56
 70
     0
102
RTVSPropertyOp57
 70
     0
102
RTVSPropertyOp58
 70
     0
102
RTVSPropertyOp59
 70
     0
102
RTVSPropertyOp60
 70
     0
102
RTVSPropertyOp61
 70
     0
102
RTVSPropertyOp62
 70
     0
  0
XRECORD
  5
1CE2
102
{ACAD_REACTORS
330
1CE1
102
}
330
1CE1
100
AcDbXrecord
280
     1
102
RTVSPost2010Prop28
280
     0
102
RTVSPost2010PropOp28
 70
     1
102
RTVSPost2010Prop29
280
     1
102
RTVSPost2010PropOp29
 70
     1
102
RTVSPost2010Prop30
280
     1
102
RTVSPost2010PropOp30
 70
     1
102
RTVSPost2010Prop31
280
     0
102
RTVSPost2010PropOp31
 70
     1
102
RTVSPost2010Prop32
280
     0
102
RTVSPost2010PropOp32
 70
     1
102
RTVSPost2010Prop33
280
     0
102
RTVSPost2010PropOp33
 70
     1
102
RTVSPost2010Prop34
280
     0
102
RTVSPost2010PropOp34
 70
     1
102
RTVSPost2010Prop35
280
     0
102
RTVSPost2010PropOp35
 70
     1
102
RTVSPost2010Prop36
280
     0
102
RTVSPost2010PropOp36
 70
     1
102
RTVSPost2010Prop37
 90
       50
102
RTVSPost2010PropOp37
 70
     1
102
RTVSPost2010Prop38
140
0.0
102
RTVSPost2010PropOp38
 70
     1
102
RTVSPost2010Prop39
140
1.0
102
RTVSPost2010PropOp39
 70
     1
102
RTVSPost2010Prop40
 90
        0
102
RTVSPost2010PropOp40
 70
     1
102
RTVSPost2010Prop41ColorIndex
 90
       18
102
RTVSPost2010Prop41ColorRGB
 90
        0
102
RTVSPost2010PropOp41
 70
     1
102
RTVSPost2010Prop42
 90
       50
102
RTVSPost2010PropOp42
 70
     1
102
RTVSPost2010Prop43
 90
        3
102
RTVSPost2010PropOp43
 70
     1
102
RTVSPost2010Prop44ColorIndex
 90
        5
102
RTVSPost2010Prop44ColorRGB
 90
      255
102
RTVSPost2010PropOp44
 70
     1
102
RTVSPost2010Prop45
280
     0
102
RTVSPost2010PropOp45
 70
     1
102
RTVSPost2010Prop46
 90
       50
102
RTVSPost2010PropOp46
 70
     1
102
RTVSPost2010Prop47
 90
       50
102
RTVSPost2010PropOp47
 70
     1
102
RTVSPost2010Prop48
 90
       50
102
RTVSPost2010PropOp48
 70
     1
102
RTVSPost2010Prop49
280
     0
102
RTVSPost2010PropOp49
 70
     1
102
RTVSPost2010Prop50
 90
       50
102
RTVSPost2010PropOp50
 70
     1
102
RTVSPost2010Prop51ColorIndex
 90
      256
102
RTVSPost2010Prop51ColorRGB
 90
-16777216
102
RTVSPost2010PropOp51
 70
     0
102
RTVSPost2010Prop52
140
1.0
102
RTVSPost2010PropOp52
 70
     0
102
RTVSPost2010Prop53
 90
        2
102
RTVSPost2010PropOp53
 70
     1
102
RTVSPost2010Prop54
  1
strokes_ogs.tif
102
RTVSPost2010PropOp54
 70
     1
102
RTVSPost2010Prop55
280
     0
102
RTVSPost2010PropOp55
 70
     1
102
RTVSPost2010Prop56
140
1.0
102
RTVSPost2010PropOp56
 70
     1
102
RTVSPost2010Prop57
140
1.0
102
RTVSPost2010PropOp57
 70
     1
102
RTVSPropertyOp0
 70
     1
102
RTVSPropertyOp1
 70
     1
102
RTVSPropertyOp2
 70
     1
102
RTVSPropertyOp3
 70
     1
102
RTVSPropertyOp4
 70
     1
102
RTVSPropertyOp5
 70
     1
102
RTVSPropertyOp6
 70
     1
102
RTVSPropertyOp7
 70
     1
102
RTVSPropertyOp8
 70
     1
102
RTVSPropertyOp9
 70
     1
102
RTVSPropertyOp10
 70
     1
102
RTVSPropertyOp11
 70
     1
102
RTVSPropertyOp12
 70
     1
102
RTVSPropertyOp13
 70
     1
102
RTVSPropertyOp14
 70
     1
102
RTVSPropertyOp15
 70
     1
102
RTVSPropertyOp16
 70
     1
102
RTVSPropertyOp17
 70
     1
102
RTVSPropertyOp18
 70
     1
102
RTVSPropertyOp19
 70
     1
102
RTVSPropertyOp20
 70
     1
102
RTVSPropertyOp21
 70
     1
102
RTVSPropertyOp22
 70
     1
102
RTVSPropertyOp23
 70
     1
102
RTVSPropertyOp24
 70
     1
102
RTVSPropertyOp25
 70
     1
102
RTVSPropertyOp26
 70
     1
102
RTVSPropertyOp27
 70
     1
102
RTVSPropertyOp28
 70
     1
102
RTVSPropertyOp29
 70
     1
102
RTVSPropertyOp30
 70
     1
102
RTVSPropertyOp31
 70
     1
102
RTVSPropertyOp32
 70
     1
102
RTVSPropertyOp33
 70
     1
102
RTVSPropertyOp34
 70
     1
102
RTVSPropertyOp35
 70
     1
102
RTVSPropertyOp36
 70
     1
102
RTVSPropertyOp37
 70
     1
102
RTVSPropertyOp38
 70
     1
102
RTVSPropertyOp39
 70
     1
102
RTVSPropertyOp40
 70
     1
102
RTVSPropertyOp41
 70
     1
102
RTVSPropertyOp42
 70
     1
102
RTVSPropertyOp43
 70
     1
102
RTVSPropertyOp44
 70
     1
102
RTVSPropertyOp45
 70
     1
102
RTVSPropertyOp46
 70
     1
102
RTVSPropertyOp47
 70
     1
102
RTVSPropertyOp48
 70
     1
102
RTVSPropertyOp49
 70
     1
102
RTVSPropertyOp50
 70
     1
102
RTVSPropertyOp51
 70
     0
102
RTVSPropertyOp52
 70
     0
102
RTVSPropertyOp53
 70
     1
102
RTVSPropertyOp54
 70
     1
102
RTVSPropertyOp55
 70
     1
102
RTVSPropertyOp56
 70
     1
102
RTVSPropertyOp57
 70
     1
102
RTVSPropertyOp58
 70
     1
102
RTVSPropertyOp59
 70
     1
102
RTVSPropertyOp60
 70
     1
102
RTVSPropertyOp61
 70
     1
102
RTVSPropertyOp62
 70
     1
  0
XRECORD
  5
1CC6
102
{ACAD_REACTORS
330
1CC5
102
}
330
1CC5
100
AcDbXrecord
280
     1
102
RTVSPost2010Prop28
280
     0
102
RTVSPost2010PropOp28
 70
     1
102
RTVSPost2010Prop29
280
     1
102
RTVSPost2010PropOp29
 70
     1
102
RTVSPost2010Prop30
280
     1
102
RTVSPost2010PropOp30
 70
     1
102
RTVSPost2010Prop31
280
     0
102
RTVSPost2010PropOp31
 70
     1
102
RTVSPost2010Prop32
280
     0
102
RTVSPost2010PropOp32
 70
     1
102
RTVSPost2010Prop33
280
     0
102
RTVSPost2010PropOp33
 70
     1
102
RTVSPost2010Prop34
280
     0
102
RTVSPost2010PropOp34
 70
     1
102
RTVSPost2010Prop35
280
     0
102
RTVSPost2010PropOp35
 70
     1
102
RTVSPost2010Prop36
280
     0
102
RTVSPost2010PropOp36
 70
     1
102
RTVSPost2010Prop37
 90
       50
102
RTVSPost2010PropOp37
 70
     1
102
RTVSPost2010Prop38
140
0.0
102
RTVSPost2010PropOp38
 70
     1
102
RTVSPost2010Prop39
140
1.0
102
RTVSPost2010PropOp39
 70
     1
102
RTVSPost2010Prop40
 90
        0
102
RTVSPost2010PropOp40
 70
     1
102
RTVSPost2010Prop41ColorIndex
 90
       18
102
RTVSPost2010Prop41ColorRGB
 90
        0
102
RTVSPost2010PropOp41
 70
     1
102
RTVSPost2010Prop42
 90
       50
102
RTVSPost2010PropOp42
 70
     1
102
RTVSPost2010Prop43
 90
        3
102
RTVSPost2010PropOp43
 70
     1
102
RTVSPost2010Prop44ColorIndex
 90
        5
102
RTVSPost2010Prop44ColorRGB
 90
      255
102
RTVSPost2010PropOp44
 70
     1
102
RTVSPost2010Prop45
280
     0
102
RTVSPost2010PropOp45
 70
     1
102
RTVSPost2010Prop46
 90
       50
102
RTVSPost2010PropOp46
 70
     1
102
RTVSPost2010Prop47
 90
       50
102
RTVSPost2010PropOp47
 70
     1
102
RTVSPost2010Prop48
 90
       50
102
RTVSPost2010PropOp48
 70
     1
102
RTVSPost2010Prop49
280
     0
102
RTVSPost2010PropOp49
 70
     1
102
RTVSPost2010Prop50
 90
       50
102
RTVSPost2010PropOp50
 70
     1
102
RTVSPost2010Prop51ColorIndex
 90
      256
102
RTVSPost2010Prop51ColorRGB
 90
-16777216
102
RTVSPost2010PropOp51
 70
     0
102
RTVSPost2010Prop52
140
1.0
102
RTVSPost2010PropOp52
 70
     0
102
RTVSPost2010Prop53
 90
        2
102
RTVSPost2010PropOp53
 70
     1
102
RTVSPost2010Prop54
  1
strokes_ogs.tif
102
RTVSPost2010PropOp54
 70
     1
102
RTVSPost2010Prop55
280
     0
102
RTVSPost2010PropOp55
 70
     1
102
RTVSPost2010Prop56
140
1.0
102
RTVSPost2010PropOp56
 70
     1
102
RTVSPost2010Prop57
140
1.0
102
RTVSPost2010PropOp57
 70
     1
102
RTVSPropertyOp0
 70
     1
102
RTVSPropertyOp1
 70
     1
102
RTVSPropertyOp2
 70
     1
102
RTVSPropertyOp3
 70
     1
102
RTVSPropertyOp4
 70
     1
102
RTVSPropertyOp5
 70
     1
102
RTVSPropertyOp6
 70
     1
102
RTVSPropertyOp7
 70
     1
102
RTVSPropertyOp8
 70
     1
102
RTVSPropertyOp9
 70
     1
102
RTVSPropertyOp10
 70
     1
102
RTVSPropertyOp11
 70
     1
102
RTVSPropertyOp12
 70
     1
102
RTVSPropertyOp13
 70
     1
102
RTVSPropertyOp14
 70
     1
102
RTVSPropertyOp15
 70
     1
102
RTVSPropertyOp16
 70
     1
102
RTVSPropertyOp17
 70
     1
102
RTVSPropertyOp18
 70
     1
102
RTVSPropertyOp19
 70
     1
102
RTVSPropertyOp20
 70
     1
102
RTVSPropertyOp21
 70
     1
102
RTVSPropertyOp22
 70
     1
102
RTVSPropertyOp23
 70
     1
102
RTVSPropertyOp24
 70
     1
102
RTVSPropertyOp25
 70
     1
102
RTVSPropertyOp26
 70
     1
102
RTVSPropertyOp27
 70
     1
102
RTVSPropertyOp28
 70
     1
102
RTVSPropertyOp29
 70
     1
102
RTVSPropertyOp30
 70
     1
102
RTVSPropertyOp31
 70
     1
102
RTVSPropertyOp32
 70
     1
102
RTVSPropertyOp33
 70
     1
102
RTVSPropertyOp34
 70
     1
102
RTVSPropertyOp35
 70
     1
102
RTVSPropertyOp36
 70
     1
102
RTVSPropertyOp37
 70
     1
102
RTVSPropertyOp38
 70
     1
102
RTVSPropertyOp39
 70
     1
102
RTVSPropertyOp40
 70
     1
102
RTVSPropertyOp41
 70
     1
102
RTVSPropertyOp42
 70
     1
102
RTVSPropertyOp43
 70
     1
102
RTVSPropertyOp44
 70
     1
102
RTVSPropertyOp45
 70
     1
102
RTVSPropertyOp46
 70
     1
102
RTVSPropertyOp47
 70
     1
102
RTVSPropertyOp48
 70
     1
102
RTVSPropertyOp49
 70
     1
102
RTVSPropertyOp50
 70
     1
102
RTVSPropertyOp51
 70
     0
102
RTVSPropertyOp52
 70
     0
102
RTVSPropertyOp53
 70
     1
102
RTVSPropertyOp54
 70
     1
102
RTVSPropertyOp55
 70
     1
102
RTVSPropertyOp56
 70
     1
102
RTVSPropertyOp57
 70
     1
102
RTVSPropertyOp58
 70
     1
102
RTVSPropertyOp59
 70
     1
102
RTVSPropertyOp60
 70
     1
102
RTVSPropertyOp61
 70
     1
102
RTVSPropertyOp62
 70
     1
  0
XRECORD
  5
1CC8
102
{ACAD_REACTORS
330
1CC7
102
}
330
1CC7
100
AcDbXrecord
280
     1
102
RTVSPost2010Prop28
280
     0
102
RTVSPost2010PropOp28
 70
     1
102
RTVSPost2010Prop29
280
     1
102
RTVSPost2010PropOp29
 70
     1
102
RTVSPost2010Prop30
280
     1
102
RTVSPost2010PropOp30
 70
     1
102
RTVSPost2010Prop31
280
     0
102
RTVSPost2010PropOp31
 70
     1
102
RTVSPost2010Prop32
280
     0
102
RTVSPost2010PropOp32
 70
     1
102
RTVSPost2010Prop33
280
     0
102
RTVSPost2010PropOp33
 70
     1
102
RTVSPost2010Prop34
280
     0
102
RTVSPost2010PropOp34
 70
     1
102
RTVSPost2010Prop35
280
     0
102
RTVSPost2010PropOp35
 70
     1
102
RTVSPost2010Prop36
280
     0
102
RTVSPost2010PropOp36
 70
     1
102
RTVSPost2010Prop37
 90
       50
102
RTVSPost2010PropOp37
 70
     1
102
RTVSPost2010Prop38
140
0.0
102
RTVSPost2010PropOp38
 70
     1
102
RTVSPost2010Prop39
140
1.0
102
RTVSPost2010PropOp39
 70
     1
102
RTVSPost2010Prop40
 90
        0
102
RTVSPost2010PropOp40
 70
     1
102
RTVSPost2010Prop41ColorIndex
 90
       18
102
RTVSPost2010Prop41ColorRGB
 90
        0
102
RTVSPost2010PropOp41
 70
     1
102
RTVSPost2010Prop42
 90
       50
102
RTVSPost2010PropOp42
 70
     1
102
RTVSPost2010Prop43
 90
        3
102
RTVSPost2010PropOp43
 70
     1
102
RTVSPost2010Prop44ColorIndex
 90
        5
102
RTVSPost2010Prop44ColorRGB
 90
      255
102
RTVSPost2010PropOp44
 70
     1
102
RTVSPost2010Prop45
280
     0
102
RTVSPost2010PropOp45
 70
     1
102
RTVSPost2010Prop46
 90
       50
102
RTVSPost2010PropOp46
 70
     1
102
RTVSPost2010Prop47
 90
       50
102
RTVSPost2010PropOp47
 70
     1
102
RTVSPost2010Prop48
 90
       50
102
RTVSPost2010PropOp48
 70
     1
102
RTVSPost2010Prop49
280
     0
102
RTVSPost2010PropOp49
 70
     1
102
RTVSPost2010Prop50
 90
       50
102
RTVSPost2010PropOp50
 70
     1
102
RTVSPost2010Prop51ColorIndex
 90
      256
102
RTVSPost2010Prop51ColorRGB
 90
-16777216
102
RTVSPost2010PropOp51
 70
     0
102
RTVSPost2010Prop52
140
1.0
102
RTVSPost2010PropOp52
 70
     0
102
RTVSPost2010Prop53
 90
        2
102
RTVSPost2010PropOp53
 70
     1
102
RTVSPost2010Prop54
  1
strokes_ogs.tif
102
RTVSPost2010PropOp54
 70
     1
102
RTVSPost2010Prop55
280
     0
102
RTVSPost2010PropOp55
 70
     1
102
RTVSPost2010Prop56
140
1.0
102
RTVSPost2010PropOp56
 70
     1
102
RTVSPost2010Prop57
140
1.0
102
RTVSPost2010PropOp57
 70
     1
102
RTVSPropertyOp0
 70
     1
102
RTVSPropertyOp1
 70
     1
102
RTVSPropertyOp2
 70
     1
102
RTVSPropertyOp3
 70
     1
102
RTVSPropertyOp4
 70
     1
102
RTVSPropertyOp5
 70
     1
102
RTVSPropertyOp6
 70
     1
102
RTVSPropertyOp7
 70
     1
102
RTVSPropertyOp8
 70
     1
102
RTVSPropertyOp9
 70
     1
102
RTVSPropertyOp10
 70
     1
102
RTVSPropertyOp11
 70
     1
102
RTVSPropertyOp12
 70
     1
102
RTVSPropertyOp13
 70
     1
102
RTVSPropertyOp14
 70
     1
102
RTVSPropertyOp15
 70
     1
102
RTVSPropertyOp16
 70
     1
102
RTVSPropertyOp17
 70
     1
102
RTVSPropertyOp18
 70
     1
102
RTVSPropertyOp19
 70
     1
102
RTVSPropertyOp20
 70
     1
102
RTVSPropertyOp21
 70
     1
102
RTVSPropertyOp22
 70
     1
102
RTVSPropertyOp23
 70
     1
102
RTVSPropertyOp24
 70
     1
102
RTVSPropertyOp25
 70
     1
102
RTVSPropertyOp26
 70
     1
102
RTVSPropertyOp27
 70
     1
102
RTVSPropertyOp28
 70
     1
102
RTVSPropertyOp29
 70
     1
102
RTVSPropertyOp30
 70
     1
102
RTVSPropertyOp31
 70
     1
102
RTVSPropertyOp32
 70
     1
102
RTVSPropertyOp33
 70
     1
102
RTVSPropertyOp34
 70
     1
102
RTVSPropertyOp35
 70
     1
102
RTVSPropertyOp36
 70
     1
102
RTVSPropertyOp37
 70
     1
102
RTVSPropertyOp38
 70
     1
102
RTVSPropertyOp39
 70
     1
102
RTVSPropertyOp40
 70
     1
102
RTVSPropertyOp41
 70
     1
102
RTVSPropertyOp42
 70
     1
102
RTVSPropertyOp43
 70
     1
102
RTVSPropertyOp44
 70
     1
102
RTVSPropertyOp45
 70
     1
102
RTVSPropertyOp46
 70
     1
102
RTVSPropertyOp47
 70
     1
102
RTVSPropertyOp48
 70
     1
102
RTVSPropertyOp49
 70
     1
102
RTVSPropertyOp50
 70
     1
102
RTVSPropertyOp51
 70
     0
102
RTVSPropertyOp52
 70
     0
102
RTVSPropertyOp53
 70
     1
102
RTVSPropertyOp54
 70
     1
102
RTVSPropertyOp55
 70
     1
102
RTVSPropertyOp56
 70
     1
102
RTVSPropertyOp57
 70
     1
102
RTVSPropertyOp58
 70
     1
102
RTVSPropertyOp59
 70
     1
102
RTVSPropertyOp60
 70
     1
102
RTVSPropertyOp61
 70
     1
102
RTVSPropertyOp62
 70
     1
  0
XRECORD
  5
1CCA
102
{ACAD_REACTORS
330
1CC9
102
}
330
1CC9
100
AcDbXrecord
280
     1
102
RTVSPost2010Prop28
280
     0
102
RTVSPost2010PropOp28
 70
     1
102
RTVSPost2010Prop29
280
     1
102
RTVSPost2010PropOp29
 70
     1
102
RTVSPost2010Prop30
280
     1
102
RTVSPost2010PropOp30
 70
     1
102
RTVSPost2010Prop31
280
     0
102
RTVSPost2010PropOp31
 70
     1
102
RTVSPost2010Prop32
280
     0
102
RTVSPost2010PropOp32
 70
     1
102
RTVSPost2010Prop33
280
     0
102
RTVSPost2010PropOp33
 70
     1
102
RTVSPost2010Prop34
280
     0
102
RTVSPost2010PropOp34
 70
     1
102
RTVSPost2010Prop35
280
     0
102
RTVSPost2010PropOp35
 70
     1
102
RTVSPost2010Prop36
280
     0
102
RTVSPost2010PropOp36
 70
     1
102
RTVSPost2010Prop37
 90
       50
102
RTVSPost2010PropOp37
 70
     1
102
RTVSPost2010Prop38
140
0.0
102
RTVSPost2010PropOp38
 70
     1
102
RTVSPost2010Prop39
140
1.0
102
RTVSPost2010PropOp39
 70
     1
102
RTVSPost2010Prop40
 90
        0
102
RTVSPost2010PropOp40
 70
     1
102
RTVSPost2010Prop41ColorIndex
 90
       18
102
RTVSPost2010Prop41ColorRGB
 90
        0
102
RTVSPost2010PropOp41
 70
     1
102
RTVSPost2010Prop42
 90
       50
102
RTVSPost2010PropOp42
 70
     1
102
RTVSPost2010Prop43
 90
        3
102
RTVSPost2010PropOp43
 70
     1
102
RTVSPost2010Prop44ColorIndex
 90
        5
102
RTVSPost2010Prop44ColorRGB
 90
      255
102
RTVSPost2010PropOp44
 70
     1
102
RTVSPost2010Prop45
280
     0
102
RTVSPost2010PropOp45
 70
     1
102
RTVSPost2010Prop46
 90
       50
102
RTVSPost2010PropOp46
 70
     1
102
RTVSPost2010Prop47
 90
       50
102
RTVSPost2010PropOp47
 70
     1
102
RTVSPost2010Prop48
 90
       50
102
RTVSPost2010PropOp48
 70
     1
102
RTVSPost2010Prop49
280
     0
102
RTVSPost2010PropOp49
 70
     1
102
RTVSPost2010Prop50
 90
       50
102
RTVSPost2010PropOp50
 70
     1
102
RTVSPost2010Prop51ColorIndex
 90
      256
102
RTVSPost2010Prop51ColorRGB
 90
-16777216
102
RTVSPost2010PropOp51
 70
     0
102
RTVSPost2010Prop52
140
1.0
102
RTVSPost2010PropOp52
 70
     0
102
RTVSPost2010Prop53
 90
        2
102
RTVSPost2010PropOp53
 70
     1
102
RTVSPost2010Prop54
  1
strokes_ogs.tif
102
RTVSPost2010PropOp54
 70
     1
102
RTVSPost2010Prop55
280
     0
102
RTVSPost2010PropOp55
 70
     1
102
RTVSPost2010Prop56
140
1.0
102
RTVSPost2010PropOp56
 70
     1
102
RTVSPost2010Prop57
140
1.0
102
RTVSPost2010PropOp57
 70
     1
102
RTVSPropertyOp0
 70
     1
102
RTVSPropertyOp1
 70
     1
102
RTVSPropertyOp2
 70
     1
102
RTVSPropertyOp3
 70
     1
102
RTVSPropertyOp4
 70
     1
102
RTVSPropertyOp5
 70
     1
102
RTVSPropertyOp6
 70
     1
102
RTVSPropertyOp7
 70
     1
102
RTVSPropertyOp8
 70
     1
102
RTVSPropertyOp9
 70
     1
102
RTVSPropertyOp10
 70
     1
102
RTVSPropertyOp11
 70
     1
102
RTVSPropertyOp12
 70
     1
102
RTVSPropertyOp13
 70
     1
102
RTVSPropertyOp14
 70
     1
102
RTVSPropertyOp15
 70
     1
102
RTVSPropertyOp16
 70
     1
102
RTVSPropertyOp17
 70
     1
102
RTVSPropertyOp18
 70
     1
102
RTVSPropertyOp19
 70
     1
102
RTVSPropertyOp20
 70
     1
102
RTVSPropertyOp21
 70
     1
102
RTVSPropertyOp22
 70
     1
102
RTVSPropertyOp23
 70
     1
102
RTVSPropertyOp24
 70
     1
102
RTVSPropertyOp25
 70
     1
102
RTVSPropertyOp26
 70
     1
102
RTVSPropertyOp27
 70
     1
102
RTVSPropertyOp28
 70
     1
102
RTVSPropertyOp29
 70
     1
102
RTVSPropertyOp30
 70
     1
102
RTVSPropertyOp31
 70
     1
102
RTVSPropertyOp32
 70
     1
102
RTVSPropertyOp33
 70
     1
102
RTVSPropertyOp34
 70
     1
102
RTVSPropertyOp35
 70
     1
102
RTVSPropertyOp36
 70
     1
102
RTVSPropertyOp37
 70
     1
102
RTVSPropertyOp38
 70
     1
102
RTVSPropertyOp39
 70
     1
102
RTVSPropertyOp40
 70
     1
102
RTVSPropertyOp41
 70
     1
102
RTVSPropertyOp42
 70
     1
102
RTVSPropertyOp43
 70
     1
102
RTVSPropertyOp44
 70
     1
102
RTVSPropertyOp45
 70
     1
102
RTVSPropertyOp46
 70
     1
102
RTVSPropertyOp47
 70
     1
102
RTVSPropertyOp48
 70
     1
102
RTVSPropertyOp49
 70
     1
102
RTVSPropertyOp50
 70
     1
102
RTVSPropertyOp51
 70
     0
102
RTVSPropertyOp52
 70
     0
102
RTVSPropertyOp53
 70
     1
102
RTVSPropertyOp54
 70
     1
102
RTVSPropertyOp55
 70
     1
102
RTVSPropertyOp56
 70
     1
102
RTVSPropertyOp57
 70
     1
102
RTVSPropertyOp58
 70
     1
102
RTVSPropertyOp59
 70
     1
102
RTVSPropertyOp60
 70
     1
102
RTVSPropertyOp61
 70
     1
102
RTVSPropertyOp62
 70
     1
  0
XRECORD
  5
1CCC
102
{ACAD_REACTORS
330
1CCB
102
}
330
1CCB
100
AcDbXrecord
280
     1
102
RTVSPost2010Prop28
280
     0
102
RTVSPost2010PropOp28
 70
     1
102
RTVSPost2010Prop29
280
     1
102
RTVSPost2010PropOp29
 70
     1
102
RTVSPost2010Prop30
280
     1
102
RTVSPost2010PropOp30
 70
     1
102
RTVSPost2010Prop31
280
     0
102
RTVSPost2010PropOp31
 70
     1
102
RTVSPost2010Prop32
280
     0
102
RTVSPost2010PropOp32
 70
     1
102
RTVSPost2010Prop33
280
     0
102
RTVSPost2010PropOp33
 70
     1
102
RTVSPost2010Prop34
280
     0
102
RTVSPost2010PropOp34
 70
     1
102
RTVSPost2010Prop35
280
     0
102
RTVSPost2010PropOp35
 70
     1
102
RTVSPost2010Prop36
280
     0
102
RTVSPost2010PropOp36
 70
     1
102
RTVSPost2010Prop37
 90
       50
102
RTVSPost2010PropOp37
 70
     1
102
RTVSPost2010Prop38
140
0.0
102
RTVSPost2010PropOp38
 70
     1
102
RTVSPost2010Prop39
140
1.0
102
RTVSPost2010PropOp39
 70
     1
102
RTVSPost2010Prop40
 90
        0
102
RTVSPost2010PropOp40
 70
     1
102
RTVSPost2010Prop41ColorIndex
 90
       18
102
RTVSPost2010Prop41ColorRGB
 90
        0
102
RTVSPost2010PropOp41
 70
     1
102
RTVSPost2010Prop42
 90
       50
102
RTVSPost2010PropOp42
 70
     1
102
RTVSPost2010Prop43
 90
        3
102
RTVSPost2010PropOp43
 70
     1
102
RTVSPost2010Prop44ColorIndex
 90
        5
102
RTVSPost2010Prop44ColorRGB
 90
      255
102
RTVSPost2010PropOp44
 70
     1
102
RTVSPost2010Prop45
280
     0
102
RTVSPost2010PropOp45
 70
     1
102
RTVSPost2010Prop46
 90
       50
102
RTVSPost2010PropOp46
 70
     1
102
RTVSPost2010Prop47
 90
       50
102
RTVSPost2010PropOp47
 70
     1
102
RTVSPost2010Prop48
 90
       50
102
RTVSPost2010PropOp48
 70
     1
102
RTVSPost2010Prop49
280
     0
102
RTVSPost2010PropOp49
 70
     1
102
RTVSPost2010Prop50
 90
       50
102
RTVSPost2010PropOp50
 70
     1
102
RTVSPost2010Prop51ColorIndex
 90
      256
102
RTVSPost2010Prop51ColorRGB
 90
-16777216
102
RTVSPost2010PropOp51
 70
     0
102
RTVSPost2010Prop52
140
1.0
102
RTVSPost2010PropOp52
 70
     0
102
RTVSPost2010Prop53
 90
        2
102
RTVSPost2010PropOp53
 70
     1
102
RTVSPost2010Prop54
  1
strokes_ogs.tif
102
RTVSPost2010PropOp54
 70
     1
102
RTVSPost2010Prop55
280
     0
102
RTVSPost2010PropOp55
 70
     1
102
RTVSPost2010Prop56
140
1.0
102
RTVSPost2010PropOp56
 70
     1
102
RTVSPost2010Prop57
140
1.0
102
RTVSPost2010PropOp57
 70
     1
102
RTVSPropertyOp0
 70
     1
102
RTVSPropertyOp1
 70
     1
102
RTVSPropertyOp2
 70
     1
102
RTVSPropertyOp3
 70
     1
102
RTVSPropertyOp4
 70
     1
102
RTVSPropertyOp5
 70
     1
102
RTVSPropertyOp6
 70
     1
102
RTVSPropertyOp7
 70
     1
102
RTVSPropertyOp8
 70
     1
102
RTVSPropertyOp9
 70
     1
102
RTVSPropertyOp10
 70
     1
102
RTVSPropertyOp11
 70
     1
102
RTVSPropertyOp12
 70
     1
102
RTVSPropertyOp13
 70
     1
102
RTVSPropertyOp14
 70
     1
102
RTVSPropertyOp15
 70
     1
102
RTVSPropertyOp16
 70
     1
102
RTVSPropertyOp17
 70
     1
102
RTVSPropertyOp18
 70
     1
102
RTVSPropertyOp19
 70
     1
102
RTVSPropertyOp20
 70
     1
102
RTVSPropertyOp21
 70
     1
102
RTVSPropertyOp22
 70
     1
102
RTVSPropertyOp23
 70
     1
102
RTVSPropertyOp24
 70
     1
102
RTVSPropertyOp25
 70
     1
102
RTVSPropertyOp26
 70
     1
102
RTVSPropertyOp27
 70
     1
102
RTVSPropertyOp28
 70
     1
102
RTVSPropertyOp29
 70
     1
102
RTVSPropertyOp30
 70
     1
102
RTVSPropertyOp31
 70
     1
102
RTVSPropertyOp32
 70
     1
102
RTVSPropertyOp33
 70
     1
102
RTVSPropertyOp34
 70
     1
102
RTVSPropertyOp35
 70
     1
102
RTVSPropertyOp36
 70
     1
102
RTVSPropertyOp37
 70
     1
102
RTVSPropertyOp38
 70
     1
102
RTVSPropertyOp39
 70
     1
102
RTVSPropertyOp40
 70
     1
102
RTVSPropertyOp41
 70
     1
102
RTVSPropertyOp42
 70
     1
102
RTVSPropertyOp43
 70
     1
102
RTVSPropertyOp44
 70
     1
102
RTVSPropertyOp45
 70
     1
102
RTVSPropertyOp46
 70
     1
102
RTVSPropertyOp47
 70
     1
102
RTVSPropertyOp48
 70
     1
102
RTVSPropertyOp49
 70
     1
102
RTVSPropertyOp50
 70
     1
102
RTVSPropertyOp51
 70
     0
102
RTVSPropertyOp52
 70
     0
102
RTVSPropertyOp53
 70
     1
102
RTVSPropertyOp54
 70
     1
102
RTVSPropertyOp55
 70
     1
102
RTVSPropertyOp56
 70
     1
102
RTVSPropertyOp57
 70
     1
102
RTVSPropertyOp58
 70
     1
102
RTVSPropertyOp59
 70
     1
102
RTVSPropertyOp60
 70
     1
102
RTVSPropertyOp61
 70
     1
102
RTVSPropertyOp62
 70
     1
  0
XRECORD
  5
1CD4
102
{ACAD_REACTORS
330
1CD3
102
}
330
1CD3
100
AcDbXrecord
280
     1
102
RTVSPost2010Prop28
280
     0
102
RTVSPost2010PropOp28
 70
     1
102
RTVSPost2010Prop29
280
     1
102
RTVSPost2010PropOp29
 70
     1
102
RTVSPost2010Prop30
280
     1
102
RTVSPost2010PropOp30
 70
     1
102
RTVSPost2010Prop31
280
     0
102
RTVSPost2010PropOp31
 70
     1
102
RTVSPost2010Prop32
280
     0
102
RTVSPost2010PropOp32
 70
     1
102
RTVSPost2010Prop33
280
     0
102
RTVSPost2010PropOp33
 70
     1
102
RTVSPost2010Prop34
280
     0
102
RTVSPost2010PropOp34
 70
     1
102
RTVSPost2010Prop35
280
     0
102
RTVSPost2010PropOp35
 70
     1
102
RTVSPost2010Prop36
280
     0
102
RTVSPost2010PropOp36
 70
     1
102
RTVSPost2010Prop37
 90
       50
102
RTVSPost2010PropOp37
 70
     1
102
RTVSPost2010Prop38
140
0.0
102
RTVSPost2010PropOp38
 70
     1
102
RTVSPost2010Prop39
140
1.0
102
RTVSPost2010PropOp39
 70
     1
102
RTVSPost2010Prop40
 90
        0
102
RTVSPost2010PropOp40
 70
     1
102
RTVSPost2010Prop41ColorIndex
 90
       18
102
RTVSPost2010Prop41ColorRGB
 90
        0
102
RTVSPost2010PropOp41
 70
     1
102
RTVSPost2010Prop42
 90
       50
102
RTVSPost2010PropOp42
 70
     1
102
RTVSPost2010Prop43
 90
        3
102
RTVSPost2010PropOp43
 70
     1
102
RTVSPost2010Prop44ColorIndex
 90
        5
102
RTVSPost2010Prop44ColorRGB
 90
      255
102
RTVSPost2010PropOp44
 70
     1
102
RTVSPost2010Prop45
280
     0
102
RTVSPost2010PropOp45
 70
     1
102
RTVSPost2010Prop46
 90
       50
102
RTVSPost2010PropOp46
 70
     1
102
RTVSPost2010Prop47
 90
       50
102
RTVSPost2010PropOp47
 70
     1
102
RTVSPost2010Prop48
 90
       50
102
RTVSPost2010PropOp48
 70
     1
102
RTVSPost2010Prop49
280
     0
102
RTVSPost2010PropOp49
 70
     1
102
RTVSPost2010Prop50
 90
       50
102
RTVSPost2010PropOp50
 70
     1
102
RTVSPost2010Prop51ColorIndex
 90
      256
102
RTVSPost2010Prop51ColorRGB
 90
-16777216
102
RTVSPost2010PropOp51
 70
     0
102
RTVSPost2010Prop52
140
1.0
102
RTVSPost2010PropOp52
 70
     0
102
RTVSPost2010Prop53
 90
        2
102
RTVSPost2010PropOp53
 70
     1
102
RTVSPost2010Prop54
  1
strokes_ogs.tif
102
RTVSPost2010PropOp54
 70
     1
102
RTVSPost2010Prop55
280
     0
102
RTVSPost2010PropOp55
 70
     1
102
RTVSPost2010Prop56
140
1.0
102
RTVSPost2010PropOp56
 70
     1
102
RTVSPost2010Prop57
140
1.0
102
RTVSPost2010PropOp57
 70
     1
102
RTVSPropertyOp0
 70
     1
102
RTVSPropertyOp1
 70
     1
102
RTVSPropertyOp2
 70
     1
102
RTVSPropertyOp3
 70
     1
102
RTVSPropertyOp4
 70
     1
102
RTVSPropertyOp5
 70
     1
102
RTVSPropertyOp6
 70
     1
102
RTVSPropertyOp7
 70
     1
102
RTVSPropertyOp8
 70
     1
102
RTVSPropertyOp9
 70
     1
102
RTVSPropertyOp10
 70
     1
102
RTVSPropertyOp11
 70
     1
102
RTVSPropertyOp12
 70
     1
102
RTVSPropertyOp13
 70
     1
102
RTVSPropertyOp14
 70
     1
102
RTVSPropertyOp15
 70
     1
102
RTVSPropertyOp16
 70
     1
102
RTVSPropertyOp17
 70
     1
102
RTVSPropertyOp18
 70
     1
102
RTVSPropertyOp19
 70
     1
102
RTVSPropertyOp20
 70
     1
102
RTVSPropertyOp21
 70
     1
102
RTVSPropertyOp22
 70
     1
102
RTVSPropertyOp23
 70
     1
102
RTVSPropertyOp24
 70
     1
102
RTVSPropertyOp25
 70
     1
102
RTVSPropertyOp26
 70
     1
102
RTVSPropertyOp27
 70
     1
102
RTVSPropertyOp28
 70
     1
102
RTVSPropertyOp29
 70
     1
102
RTVSPropertyOp30
 70
     1
102
RTVSPropertyOp31
 70
     1
102
RTVSPropertyOp32
 70
     1
102
RTVSPropertyOp33
 70
     1
102
RTVSPropertyOp34
 70
     1
102
RTVSPropertyOp35
 70
     1
102
RTVSPropertyOp36
 70
     1
102
RTVSPropertyOp37
 70
     1
102
RTVSPropertyOp38
 70
     1
102
RTVSPropertyOp39
 70
     1
102
RTVSPropertyOp40
 70
     1
102
RTVSPropertyOp41
 70
     1
102
RTVSPropertyOp42
 70
     1
102
RTVSPropertyOp43
 70
     1
102
RTVSPropertyOp44
 70
     1
102
RTVSPropertyOp45
 70
     1
102
RTVSPropertyOp46
 70
     1
102
RTVSPropertyOp47
 70
     1
102
RTVSPropertyOp48
 70
     1
102
RTVSPropertyOp49
 70
     1
102
RTVSPropertyOp50
 70
     1
102
RTVSPropertyOp51
 70
     0
102
RTVSPropertyOp52
 70
     0
102
RTVSPropertyOp53
 70
     1
102
RTVSPropertyOp54
 70
     1
102
RTVSPropertyOp55
 70
     1
102
RTVSPropertyOp56
 70
     1
102
RTVSPropertyOp57
 70
     1
102
RTVSPropertyOp58
 70
     1
102
RTVSPropertyOp59
 70
     1
102
RTVSPropertyOp60
 70
     1
102
RTVSPropertyOp61
 70
     1
102
RTVSPropertyOp62
 70
     1
  0
XRECORD
  5
1CF0
102
{ACAD_REACTORS
330
1CEF
102
}
330
1CEF
100
AcDbXrecord
280
     1
102
RTVSPost2010Prop28
280
     0
102
RTVSPost2010PropOp28
 70
     1
102
RTVSPost2010Prop29
280
     1
102
RTVSPost2010PropOp29
 70
     1
102
RTVSPost2010Prop30
280
     1
102
RTVSPost2010PropOp30
 70
     1
102
RTVSPost2010Prop31
280
     0
102
RTVSPost2010PropOp31
 70
     1
102
RTVSPost2010Prop32
280
     0
102
RTVSPost2010PropOp32
 70
     1
102
RTVSPost2010Prop33
280
     0
102
RTVSPost2010PropOp33
 70
     1
102
RTVSPost2010Prop34
280
     0
102
RTVSPost2010PropOp34
 70
     1
102
RTVSPost2010Prop35
280
     0
102
RTVSPost2010PropOp35
 70
     1
102
RTVSPost2010Prop36
280
     0
102
RTVSPost2010PropOp36
 70
     1
102
RTVSPost2010Prop37
 90
       50
102
RTVSPost2010PropOp37
 70
     0
102
RTVSPost2010Prop38
140
0.0
102
RTVSPost2010PropOp38
 70
     0
102
RTVSPost2010Prop39
140
1.0
102
RTVSPost2010PropOp39
 70
     0
102
RTVSPost2010Prop40
 90
        0
102
RTVSPost2010PropOp40
 70
     0
102
RTVSPost2010Prop41ColorIndex
 90
       18
102
RTVSPost2010Prop41ColorRGB
 90
        0
102
RTVSPost2010PropOp41
 70
     0
102
RTVSPost2010Prop42
 90
       50
102
RTVSPost2010PropOp42
 70
     0
102
RTVSPost2010Prop43
 90
        3
102
RTVSPost2010PropOp43
 70
     0
102
RTVSPost2010Prop44ColorIndex
 90
        5
102
RTVSPost2010Prop44ColorRGB
 90
      255
102
RTVSPost2010PropOp44
 70
     0
102
RTVSPost2010Prop45
280
     0
102
RTVSPost2010PropOp45
 70
     1
102
RTVSPost2010Prop46
 90
       50
102
RTVSPost2010PropOp46
 70
     0
102
RTVSPost2010Prop47
 90
       50
102
RTVSPost2010PropOp47
 70
     0
102
RTVSPost2010Prop48
 90
       50
102
RTVSPost2010PropOp48
 70
     0
102
RTVSPost2010Prop49
280
     0
102
RTVSPost2010PropOp49
 70
     1
102
RTVSPost2010Prop50
 90
       50
102
RTVSPost2010PropOp50
 70
     0
102
RTVSPost2010Prop51ColorIndex
 90
      256
102
RTVSPost2010Prop51ColorRGB
 90
-16777216
102
RTVSPost2010PropOp51
 70
     0
102
RTVSPost2010Prop52
140
1.0
102
RTVSPost2010PropOp52
 70
     0
102
RTVSPost2010Prop53
 90
        2
102
RTVSPost2010PropOp53
 70
     0
102
RTVSPost2010Prop54
  1
strokes_ogs.tif
102
RTVSPost2010PropOp54
 70
     0
102
RTVSPost2010Prop55
280
     0
102
RTVSPost2010PropOp55
 70
     1
102
RTVSPost2010Prop56
140
1.0
102
RTVSPost2010PropOp56
 70
     0
102
RTVSPost2010Prop57
140
1.0
102
RTVSPost2010PropOp57
 70
     0
102
RTVSPropertyOp0
 70
     0
102
RTVSPropertyOp1
 70
     0
102
RTVSPropertyOp2
 70
     0
102
RTVSPropertyOp3
 70
     0
102
RTVSPropertyOp4
 70
     0
102
RTVSPropertyOp5
 70
     0
102
RTVSPropertyOp6
 70
     0
102
RTVSPropertyOp7
 70
     0
102
RTVSPropertyOp8
 70
     0
102
RTVSPropertyOp9
 70
     0
102
RTVSPropertyOp10
 70
     0
102
RTVSPropertyOp11
 70
     0
102
RTVSPropertyOp12
 70
     0
102
RTVSPropertyOp13
 70
     0
102
RTVSPropertyOp14
 70
     2
102
RTVSPropertyOp15
 70
     0
102
RTVSPropertyOp16
 70
     0
102
RTVSPropertyOp17
 70
     0
102
RTVSPropertyOp18
 70
     0
102
RTVSPropertyOp19
 70
     0
102
RTVSPropertyOp20
 70
     0
102
RTVSPropertyOp21
 70
     0
102
RTVSPropertyOp22
 70
     0
102
RTVSPropertyOp23
 70
     0
102
RTVSPropertyOp24
 70
     0
102
RTVSPropertyOp25
 70
     0
102
RTVSPropertyOp26
 70
     0
102
RTVSPropertyOp27
 70
     0
102
RTVSPropertyOp28
 70
     1
102
RTVSPropertyOp29
 70
     1
102
RTVSPropertyOp30
 70
     1
102
RTVSPropertyOp31
 70
     1
102
RTVSPropertyOp32
 70
     1
102
RTVSPropertyOp33
 70
     1
102
RTVSPropertyOp34
 70
     1
102
RTVSPropertyOp35
 70
     1
102
RTVSPropertyOp36
 70
     1
102
RTVSPropertyOp37
 70
     0
102
RTVSPropertyOp38
 70
     0
102
RTVSPropertyOp39
 70
     0
102
RTVSPropertyOp40
 70
     0
102
RTVSPropertyOp41
 70
     0
102
RTVSPropertyOp42
 70
     0
102
RTVSPropertyOp43
 70
     0
102
RTVSPropertyOp44
 70
     0
102
RTVSPropertyOp45
 70
     1
102
RTVSPropertyOp46
 70
     0
102
RTVSPropertyOp47
 70
     0
102
RTVSPropertyOp48
 70
     0
102
RTVSPropertyOp49
 70
     1
102
RTVSPropertyOp50
 70
     0
102
RTVSPropertyOp51
 70
     0
102
RTVSPropertyOp52
 70
     0
102
RTVSPropertyOp53
 70
     0
102
RTVSPropertyOp54
 70
     0
102
RTVSPropertyOp55
 70
     1
102
RTVSPropertyOp56
 70
     0
102
RTVSPropertyOp57
 70
     0
102
RTVSPropertyOp58
 70
     0
102
RTVSPropertyOp59
 70
     0
102
RTVSPropertyOp60
 70
     0
102
RTVSPropertyOp61
 70
     0
102
RTVSPropertyOp62
 70
     0
  0
XRECORD
  5
1CE0
102
{ACAD_REACTORS
330
1CDF
102
}
330
1CDF
100
AcDbXrecord
280
     1
102
RTVSPost2010Prop28
280
     0
102
RTVSPost2010PropOp28
 70
     1
102
RTVSPost2010Prop29
280
     1
102
RTVSPost2010PropOp29
 70
     1
102
RTVSPost2010Prop30
280
     1
102
RTVSPost2010PropOp30
 70
     1
102
RTVSPost2010Prop31
280
     0
102
RTVSPost2010PropOp31
 70
     1
102
RTVSPost2010Prop32
280
     0
102
RTVSPost2010PropOp32
 70
     1
102
RTVSPost2010Prop33
280
     0
102
RTVSPost2010PropOp33
 70
     1
102
RTVSPost2010Prop34
280
     0
102
RTVSPost2010PropOp34
 70
     1
102
RTVSPost2010Prop35
280
     0
102
RTVSPost2010PropOp35
 70
     1
102
RTVSPost2010Prop36
280
     0
102
RTVSPost2010PropOp36
 70
     1
102
RTVSPost2010Prop37
 90
       50
102
RTVSPost2010PropOp37
 70
     1
102
RTVSPost2010Prop38
140
0.0
102
RTVSPost2010PropOp38
 70
     1
102
RTVSPost2010Prop39
140
1.0
102
RTVSPost2010PropOp39
 70
     1
102
RTVSPost2010Prop40
 90
        0
102
RTVSPost2010PropOp40
 70
     1
102
RTVSPost2010Prop41ColorIndex
 90
       18
102
RTVSPost2010Prop41ColorRGB
 90
        0
102
RTVSPost2010PropOp41
 70
     1
102
RTVSPost2010Prop42
 90
       50
102
RTVSPost2010PropOp42
 70
     1
102
RTVSPost2010Prop43
 90
        3
102
RTVSPost2010PropOp43
 70
     1
102
RTVSPost2010Prop44ColorIndex
 90
        5
102
RTVSPost2010Prop44ColorRGB
 90
      255
102
RTVSPost2010PropOp44
 70
     1
102
RTVSPost2010Prop45
280
     0
102
RTVSPost2010PropOp45
 70
     1
102
RTVSPost2010Prop46
 90
       50
102
RTVSPost2010PropOp46
 70
     1
102
RTVSPost2010Prop47
 90
       50
102
RTVSPost2010PropOp47
 70
     1
102
RTVSPost2010Prop48
 90
       50
102
RTVSPost2010PropOp48
 70
     1
102
RTVSPost2010Prop49
280
     0
102
RTVSPost2010PropOp49
 70
     1
102
RTVSPost2010Prop50
 90
       50
102
RTVSPost2010PropOp50
 70
     1
102
RTVSPost2010Prop51ColorIndex
 90
      256
102
RTVSPost2010Prop51ColorRGB
 90
-16777216
102
RTVSPost2010PropOp51
 70
     0
102
RTVSPost2010Prop52
140
1.0
102
RTVSPost2010PropOp52
 70
     0
102
RTVSPost2010Prop53
 90
        2
102
RTVSPost2010PropOp53
 70
     1
102
RTVSPost2010Prop54
  1
strokes_ogs.tif
102
RTVSPost2010PropOp54
 70
     1
102
RTVSPost2010Prop55
280
     0
102
RTVSPost2010PropOp55
 70
     1
102
RTVSPost2010Prop56
140
1.0
102
RTVSPost2010PropOp56
 70
     1
102
RTVSPost2010Prop57
140
1.0
102
RTVSPost2010PropOp57
 70
     1
102
RTVSPropertyOp0
 70
     1
102
RTVSPropertyOp1
 70
     1
102
RTVSPropertyOp2
 70
     1
102
RTVSPropertyOp3
 70
     1
102
RTVSPropertyOp4
 70
     1
102
RTVSPropertyOp5
 70
     1
102
RTVSPropertyOp6
 70
     1
102
RTVSPropertyOp7
 70
     1
102
RTVSPropertyOp8
 70
     1
102
RTVSPropertyOp9
 70
     1
102
RTVSPropertyOp10
 70
     1
102
RTVSPropertyOp11
 70
     1
102
RTVSPropertyOp12
 70
     1
102
RTVSPropertyOp13
 70
     1
102
RTVSPropertyOp14
 70
     1
102
RTVSPropertyOp15
 70
     1
102
RTVSPropertyOp16
 70
     1
102
RTVSPropertyOp17
 70
     1
102
RTVSPropertyOp18
 70
     1
102
RTVSPropertyOp19
 70
     1
102
RTVSPropertyOp20
 70
     1
102
RTVSPropertyOp21
 70
     1
102
RTVSPropertyOp22
 70
     1
102
RTVSPropertyOp23
 70
     1
102
RTVSPropertyOp24
 70
     1
102
RTVSPropertyOp25
 70
     1
102
RTVSPropertyOp26
 70
     1
102
RTVSPropertyOp27
 70
     1
102
RTVSPropertyOp28
 70
     1
102
RTVSPropertyOp29
 70
     1
102
RTVSPropertyOp30
 70
     1
102
RTVSPropertyOp31
 70
     1
102
RTVSPropertyOp32
 70
     1
102
RTVSPropertyOp33
 70
     1
102
RTVSPropertyOp34
 70
     1
102
RTVSPropertyOp35
 70
     1
102
RTVSPropertyOp36
 70
     1
102
RTVSPropertyOp37
 70
     1
102
RTVSPropertyOp38
 70
     1
102
RTVSPropertyOp39
 70
     1
102
RTVSPropertyOp40
 70
     1
102
RTVSPropertyOp41
 70
     1
102
RTVSPropertyOp42
 70
     1
102
RTVSPropertyOp43
 70
     1
102
RTVSPropertyOp44
 70
     1
102
RTVSPropertyOp45
 70
     1
102
RTVSPropertyOp46
 70
     1
102
RTVSPropertyOp47
 70
     1
102
RTVSPropertyOp48
 70
     1
102
RTVSPropertyOp49
 70
     1
102
RTVSPropertyOp50
 70
     1
102
RTVSPropertyOp51
 70
     0
102
RTVSPropertyOp52
 70
     0
102
RTVSPropertyOp53
 70
     1
102
RTVSPropertyOp54
 70
     1
102
RTVSPropertyOp55
 70
     1
102
RTVSPropertyOp56
 70
     1
102
RTVSPropertyOp57
 70
     1
102
RTVSPropertyOp58
 70
     1
102
RTVSPropertyOp59
 70
     1
102
RTVSPropertyOp60
 70
     1
102
RTVSPropertyOp61
 70
     1
102
RTVSPropertyOp62
 70
     1
  0
XRECORD
  5
1CF2
102
{ACAD_REACTORS
330
1CF1
102
}
330
1CF1
100
AcDbXrecord
280
     1
102
RTVSPost2010Prop28
280
     0
102
RTVSPost2010PropOp28
 70
     1
102
RTVSPost2010Prop29
280
     1
102
RTVSPost2010PropOp29
 70
     1
102
RTVSPost2010Prop30
280
     1
102
RTVSPost2010PropOp30
 70
     1
102
RTVSPost2010Prop31
280
     0
102
RTVSPost2010PropOp31
 70
     1
102
RTVSPost2010Prop32
280
     0
102
RTVSPost2010PropOp32
 70
     1
102
RTVSPost2010Prop33
280
     0
102
RTVSPost2010PropOp33
 70
     1
102
RTVSPost2010Prop34
280
     0
102
RTVSPost2010PropOp34
 70
     1
102
RTVSPost2010Prop35
280
     0
102
RTVSPost2010PropOp35
 70
     1
102
RTVSPost2010Prop36
280
     0
102
RTVSPost2010PropOp36
 70
     1
102
RTVSPost2010Prop37
 90
       50
102
RTVSPost2010PropOp37
 70
     0
102
RTVSPost2010Prop38
140
0.0
102
RTVSPost2010PropOp38
 70
     0
102
RTVSPost2010Prop39
140
1.0
102
RTVSPost2010PropOp39
 70
     0
102
RTVSPost2010Prop40
 90
        0
102
RTVSPost2010PropOp40
 70
     0
102
RTVSPost2010Prop41ColorIndex
 90
       18
102
RTVSPost2010Prop41ColorRGB
 90
        0
102
RTVSPost2010PropOp41
 70
     0
102
RTVSPost2010Prop42
 90
       50
102
RTVSPost2010PropOp42
 70
     0
102
RTVSPost2010Prop43
 90
        3
102
RTVSPost2010PropOp43
 70
     0
102
RTVSPost2010Prop44ColorIndex
 90
        5
102
RTVSPost2010Prop44ColorRGB
 90
      255
102
RTVSPost2010PropOp44
 70
     0
102
RTVSPost2010Prop45
280
     0
102
RTVSPost2010PropOp45
 70
     1
102
RTVSPost2010Prop46
 90
       50
102
RTVSPost2010PropOp46
 70
     0
102
RTVSPost2010Prop47
 90
       50
102
RTVSPost2010PropOp47
 70
     0
102
RTVSPost2010Prop48
 90
       50
102
RTVSPost2010PropOp48
 70
     0
102
RTVSPost2010Prop49
280
     0
102
RTVSPost2010PropOp49
 70
     1
102
RTVSPost2010Prop50
 90
       50
102
RTVSPost2010PropOp50
 70
     0
102
RTVSPost2010Prop51ColorIndex
 90
      256
102
RTVSPost2010Prop51ColorRGB
 90
-16777216
102
RTVSPost2010PropOp51
 70
     0
102
RTVSPost2010Prop52
140
1.0
102
RTVSPost2010PropOp52
 70
     0
102
RTVSPost2010Prop53
 90
        2
102
RTVSPost2010PropOp53
 70
     0
102
RTVSPost2010Prop54
  1
strokes_ogs.tif
102
RTVSPost2010PropOp54
 70
     0
102
RTVSPost2010Prop55
280
     0
102
RTVSPost2010PropOp55
 70
     1
102
RTVSPost2010Prop56
140
1.0
102
RTVSPost2010PropOp56
 70
     0
102
RTVSPost2010Prop57
140
1.0
102
RTVSPost2010PropOp57
 70
     0
102
RTVSPropertyOp0
 70
     0
102
RTVSPropertyOp1
 70
     0
102
RTVSPropertyOp2
 70
     0
102
RTVSPropertyOp3
 70
     0
102
RTVSPropertyOp4
 70
     0
102
RTVSPropertyOp5
 70
     0
102
RTVSPropertyOp6
 70
     0
102
RTVSPropertyOp7
 70
     0
102
RTVSPropertyOp8
 70
     0
102
RTVSPropertyOp9
 70
     0
102
RTVSPropertyOp10
 70
     0
102
RTVSPropertyOp11
 70
     0
102
RTVSPropertyOp12
 70
     0
102
RTVSPropertyOp13
 70
     0
102
RTVSPropertyOp14
 70
     2
102
RTVSPropertyOp15
 70
     0
102
RTVSPropertyOp16
 70
     0
102
RTVSPropertyOp17
 70
     0
102
RTVSPropertyOp18
 70
     0
102
RTVSPropertyOp19
 70
     0
102
RTVSPropertyOp20
 70
     0
102
RTVSPropertyOp21
 70
     0
102
RTVSPropertyOp22
 70
     0
102
RTVSPropertyOp23
 70
     0
102
RTVSPropertyOp24
 70
     0
102
RTVSPropertyOp25
 70
     0
102
RTVSPropertyOp26
 70
     0
102
RTVSPropertyOp27
 70
     0
102
RTVSPropertyOp28
 70
     1
102
RTVSPropertyOp29
 70
     1
102
RTVSPropertyOp30
 70
     1
102
RTVSPropertyOp31
 70
     1
102
RTVSPropertyOp32
 70
     1
102
RTVSPropertyOp33
 70
     1
102
RTVSPropertyOp34
 70
     1
102
RTVSPropertyOp35
 70
     1
102
RTVSPropertyOp36
 70
     1
102
RTVSPropertyOp37
 70
     0
102
RTVSPropertyOp38
 70
     0
102
RTVSPropertyOp39
 70
     0
102
RTVSPropertyOp40
 70
     0
102
RTVSPropertyOp41
 70
     0
102
RTVSPropertyOp42
 70
     0
102
RTVSPropertyOp43
 70
     0
102
RTVSPropertyOp44
 70
     0
102
RTVSPropertyOp45
 70
     1
102
RTVSPropertyOp46
 70
     0
102
RTVSPropertyOp47
 70
     0
102
RTVSPropertyOp48
 70
     0
102
RTVSPropertyOp49
 70
     1
102
RTVSPropertyOp50
 70
     0
102
RTVSPropertyOp51
 70
     0
102
RTVSPropertyOp52
 70
     0
102
RTVSPropertyOp53
 70
     0
102
RTVSPropertyOp54
 70
     0
102
RTVSPropertyOp55
 70
     1
102
RTVSPropertyOp56
 70
     0
102
RTVSPropertyOp57
 70
     0
102
RTVSPropertyOp58
 70
     0
102
RTVSPropertyOp59
 70
     0
102
RTVSPropertyOp60
 70
     0
102
RTVSPropertyOp61
 70
     0
102
RTVSPropertyOp62
 70
     0
  0
XRECORD
  5
1CD8
102
{ACAD_REACTORS
330
1CD7
102
}
330
1CD7
100
AcDbXrecord
280
     1
102
RTVSPost2010Prop28
280
     0
102
RTVSPost2010PropOp28
 70
     1
102
RTVSPost2010Prop29
280
     1
102
RTVSPost2010PropOp29
 70
     1
102
RTVSPost2010Prop30
280
     1
102
RTVSPost2010PropOp30
 70
     1
102
RTVSPost2010Prop31
280
     0
102
RTVSPost2010PropOp31
 70
     1
102
RTVSPost2010Prop32
280
     0
102
RTVSPost2010PropOp32
 70
     1
102
RTVSPost2010Prop33
280
     0
102
RTVSPost2010PropOp33
 70
     1
102
RTVSPost2010Prop34
280
     0
102
RTVSPost2010PropOp34
 70
     1
102
RTVSPost2010Prop35
280
     0
102
RTVSPost2010PropOp35
 70
     1
102
RTVSPost2010Prop36
280
     0
102
RTVSPost2010PropOp36
 70
     1
102
RTVSPost2010Prop37
 90
       50
102
RTVSPost2010PropOp37
 70
     1
102
RTVSPost2010Prop38
140
0.0
102
RTVSPost2010PropOp38
 70
     1
102
RTVSPost2010Prop39
140
1.0
102
RTVSPost2010PropOp39
 70
     1
102
RTVSPost2010Prop40
 90
        0
102
RTVSPost2010PropOp40
 70
     1
102
RTVSPost2010Prop41ColorIndex
 90
       18
102
RTVSPost2010Prop41ColorRGB
 90
        0
102
RTVSPost2010PropOp41
 70
     1
102
RTVSPost2010Prop42
 90
       50
102
RTVSPost2010PropOp42
 70
     1
102
RTVSPost2010Prop43
 90
        3
102
RTVSPost2010PropOp43
 70
     1
102
RTVSPost2010Prop44ColorIndex
 90
        5
102
RTVSPost2010Prop44ColorRGB
 90
      255
102
RTVSPost2010PropOp44
 70
     1
102
RTVSPost2010Prop45
280
     0
102
RTVSPost2010PropOp45
 70
     1
102
RTVSPost2010Prop46
 90
       50
102
RTVSPost2010PropOp46
 70
     1
102
RTVSPost2010Prop47
 90
       50
102
RTVSPost2010PropOp47
 70
     1
102
RTVSPost2010Prop48
 90
       50
102
RTVSPost2010PropOp48
 70
     1
102
RTVSPost2010Prop49
280
     0
102
RTVSPost2010PropOp49
 70
     1
102
RTVSPost2010Prop50
 90
       50
102
RTVSPost2010PropOp50
 70
     1
102
RTVSPost2010Prop51ColorIndex
 90
      256
102
RTVSPost2010Prop51ColorRGB
 90
-16777216
102
RTVSPost2010PropOp51
 70
     0
102
RTVSPost2010Prop52
140
1.0
102
RTVSPost2010PropOp52
 70
     0
102
RTVSPost2010Prop53
 90
        2
102
RTVSPost2010PropOp53
 70
     1
102
RTVSPost2010Prop54
  1
strokes_ogs.tif
102
RTVSPost2010PropOp54
 70
     1
102
RTVSPost2010Prop55
280
     0
102
RTVSPost2010PropOp55
 70
     1
102
RTVSPost2010Prop56
140
1.0
102
RTVSPost2010PropOp56
 70
     1
102
RTVSPost2010Prop57
140
1.0
102
RTVSPost2010PropOp57
 70
     1
102
RTVSPropertyOp0
 70
     1
102
RTVSPropertyOp1
 70
     1
102
RTVSPropertyOp2
 70
     1
102
RTVSPropertyOp3
 70
     1
102
RTVSPropertyOp4
 70
     1
102
RTVSPropertyOp5
 70
     1
102
RTVSPropertyOp6
 70
     1
102
RTVSPropertyOp7
 70
     1
102
RTVSPropertyOp8
 70
     1
102
RTVSPropertyOp9
 70
     1
102
RTVSPropertyOp10
 70
     1
102
RTVSPropertyOp11
 70
     1
102
RTVSPropertyOp12
 70
     1
102
RTVSPropertyOp13
 70
     1
102
RTVSPropertyOp14
 70
     1
102
RTVSPropertyOp15
 70
     1
102
RTVSPropertyOp16
 70
     1
102
RTVSPropertyOp17
 70
     1
102
RTVSPropertyOp18
 70
     1
102
RTVSPropertyOp19
 70
     1
102
RTVSPropertyOp20
 70
     1
102
RTVSPropertyOp21
 70
     1
102
RTVSPropertyOp22
 70
     1
102
RTVSPropertyOp23
 70
     1
102
RTVSPropertyOp24
 70
     1
102
RTVSPropertyOp25
 70
     1
102
RTVSPropertyOp26
 70
     1
102
RTVSPropertyOp27
 70
     1
102
RTVSPropertyOp28
 70
     1
102
RTVSPropertyOp29
 70
     1
102
RTVSPropertyOp30
 70
     1
102
RTVSPropertyOp31
 70
     1
102
RTVSPropertyOp32
 70
     1
102
RTVSPropertyOp33
 70
     1
102
RTVSPropertyOp34
 70
     1
102
RTVSPropertyOp35
 70
     1
102
RTVSPropertyOp36
 70
     1
102
RTVSPropertyOp37
 70
     1
102
RTVSPropertyOp38
 70
     1
102
RTVSPropertyOp39
 70
     1
102
RTVSPropertyOp40
 70
     1
102
RTVSPropertyOp41
 70
     1
102
RTVSPropertyOp42
 70
     1
102
RTVSPropertyOp43
 70
     1
102
RTVSPropertyOp44
 70
     1
102
RTVSPropertyOp45
 70
     1
102
RTVSPropertyOp46
 70
     1
102
RTVSPropertyOp47
 70
     1
102
RTVSPropertyOp48
 70
     1
102
RTVSPropertyOp49
 70
     1
102
RTVSPropertyOp50
 70
     1
102
RTVSPropertyOp51
 70
     0
102
RTVSPropertyOp52
 70
     0
102
RTVSPropertyOp53
 70
     1
102
RTVSPropertyOp54
 70
     1
102
RTVSPropertyOp55
 70
     1
102
RTVSPropertyOp56
 70
     1
102
RTVSPropertyOp57
 70
     1
102
RTVSPropertyOp58
 70
     1
102
RTVSPropertyOp59
 70
     1
102
RTVSPropertyOp60
 70
     1
102
RTVSPropertyOp61
 70
     1
102
RTVSPropertyOp62
 70
     1
  0
XRECORD
  5
1CEE
102
{ACAD_REACTORS
330
1CED
102
}
330
1CED
100
AcDbXrecord
280
     1
102
RTVSPost2010Prop28
280
     0
102
RTVSPost2010PropOp28
 70
     1
102
RTVSPost2010Prop29
280
     1
102
RTVSPost2010PropOp29
 70
     1
102
RTVSPost2010Prop30
280
     1
102
RTVSPost2010PropOp30
 70
     1
102
RTVSPost2010Prop31
280
     0
102
RTVSPost2010PropOp31
 70
     1
102
RTVSPost2010Prop32
280
     0
102
RTVSPost2010PropOp32
 70
     1
102
RTVSPost2010Prop33
280
     0
102
RTVSPost2010PropOp33
 70
     1
102
RTVSPost2010Prop34
280
     0
102
RTVSPost2010PropOp34
 70
     1
102
RTVSPost2010Prop35
280
     0
102
RTVSPost2010PropOp35
 70
     1
102
RTVSPost2010Prop36
280
     0
102
RTVSPost2010PropOp36
 70
     1
102
RTVSPost2010Prop37
 90
       50
102
RTVSPost2010PropOp37
 70
     1
102
RTVSPost2010Prop38
140
0.0
102
RTVSPost2010PropOp38
 70
     1
102
RTVSPost2010Prop39
140
1.0
102
RTVSPost2010PropOp39
 70
     1
102
RTVSPost2010Prop40
 90
        0
102
RTVSPost2010PropOp40
 70
     1
102
RTVSPost2010Prop41ColorIndex
 90
       18
102
RTVSPost2010Prop41ColorRGB
 90
        0
102
RTVSPost2010PropOp41
 70
     1
102
RTVSPost2010Prop42
 90
       50
102
RTVSPost2010PropOp42
 70
     1
102
RTVSPost2010Prop43
 90
        3
102
RTVSPost2010PropOp43
 70
     1
102
RTVSPost2010Prop44ColorIndex
 90
        5
102
RTVSPost2010Prop44ColorRGB
 90
      255
102
RTVSPost2010PropOp44
 70
     1
102
RTVSPost2010Prop45
280
     0
102
RTVSPost2010PropOp45
 70
     1
102
RTVSPost2010Prop46
 90
       50
102
RTVSPost2010PropOp46
 70
     1
102
RTVSPost2010Prop47
 90
       50
102
RTVSPost2010PropOp47
 70
     1
102
RTVSPost2010Prop48
 90
       50
102
RTVSPost2010PropOp48
 70
     1
102
RTVSPost2010Prop49
280
     0
102
RTVSPost2010PropOp49
 70
     1
102
RTVSPost2010Prop50
 90
       50
102
RTVSPost2010PropOp50
 70
     1
102
RTVSPost2010Prop51ColorIndex
 90
      256
102
RTVSPost2010Prop51ColorRGB
 90
-16777216
102
RTVSPost2010PropOp51
 70
     0
102
RTVSPost2010Prop52
140
1.0
102
RTVSPost2010PropOp52
 70
     0
102
RTVSPost2010Prop53
 90
        2
102
RTVSPost2010PropOp53
 70
     1
102
RTVSPost2010Prop54
  1
strokes_ogs.tif
102
RTVSPost2010PropOp54
 70
     1
102
RTVSPost2010Prop55
280
     0
102
RTVSPost2010PropOp55
 70
     1
102
RTVSPost2010Prop56
140
1.0
102
RTVSPost2010PropOp56
 70
     1
102
RTVSPost2010Prop57
140
1.0
102
RTVSPost2010PropOp57
 70
     1
102
RTVSPropertyOp0
 70
     1
102
RTVSPropertyOp1
 70
     1
102
RTVSPropertyOp2
 70
     1
102
RTVSPropertyOp3
 70
     1
102
RTVSPropertyOp4
 70
     1
102
RTVSPropertyOp5
 70
     1
102
RTVSPropertyOp6
 70
     1
102
RTVSPropertyOp7
 70
     1
102
RTVSPropertyOp8
 70
     1
102
RTVSPropertyOp9
 70
     1
102
RTVSPropertyOp10
 70
     1
102
RTVSPropertyOp11
 70
     1
102
RTVSPropertyOp12
 70
     1
102
RTVSPropertyOp13
 70
     1
102
RTVSPropertyOp14
 70
     1
102
RTVSPropertyOp15
 70
     1
102
RTVSPropertyOp16
 70
     1
102
RTVSPropertyOp17
 70
     1
102
RTVSPropertyOp18
 70
     1
102
RTVSPropertyOp19
 70
     1
102
RTVSPropertyOp20
 70
     1
102
RTVSPropertyOp21
 70
     1
102
RTVSPropertyOp22
 70
     1
102
RTVSPropertyOp23
 70
     1
102
RTVSPropertyOp24
 70
     1
102
RTVSPropertyOp25
 70
     1
102
RTVSPropertyOp26
 70
     1
102
RTVSPropertyOp27
 70
     1
102
RTVSPropertyOp28
 70
     1
102
RTVSPropertyOp29
 70
     1
102
RTVSPropertyOp30
 70
     1
102
RTVSPropertyOp31
 70
     1
102
RTVSPropertyOp32
 70
     1
102
RTVSPropertyOp33
 70
     1
102
RTVSPropertyOp34
 70
     1
102
RTVSPropertyOp35
 70
     1
102
RTVSPropertyOp36
 70
     1
102
RTVSPropertyOp37
 70
     1
102
RTVSPropertyOp38
 70
     1
102
RTVSPropertyOp39
 70
     1
102
RTVSPropertyOp40
 70
     1
102
RTVSPropertyOp41
 70
     1
102
RTVSPropertyOp42
 70
     1
102
RTVSPropertyOp43
 70
     1
102
RTVSPropertyOp44
 70
     1
102
RTVSPropertyOp45
 70
     1
102
RTVSPropertyOp46
 70
     1
102
RTVSPropertyOp47
 70
     1
102
RTVSPropertyOp48
 70
     1
102
RTVSPropertyOp49
 70
     1
102
RTVSPropertyOp50
 70
     1
102
RTVSPropertyOp51
 70
     0
102
RTVSPropertyOp52
 70
     0
102
RTVSPropertyOp53
 70
     1
102
RTVSPropertyOp54
 70
     1
102
RTVSPropertyOp55
 70
     1
102
RTVSPropertyOp56
 70
     1
102
RTVSPropertyOp57
 70
     1
102
RTVSPropertyOp58
 70
     1
102
RTVSPropertyOp59
 70
     1
102
RTVSPropertyOp60
 70
     1
102
RTVSPropertyOp61
 70
     1
102
RTVSPropertyOp62
 70
     1
  0
XRECORD
  5
1CEC
102
{ACAD_REACTORS
330
1CEB
102
}
330
1CEB
100
AcDbXrecord
280
     1
102
RTVSPost2010Prop28
280
     0
102
RTVSPost2010PropOp28
 70
     1
102
RTVSPost2010Prop29
280
     1
102
RTVSPost2010PropOp29
 70
     1
102
RTVSPost2010Prop30
280
     1
102
RTVSPost2010PropOp30
 70
     1
102
RTVSPost2010Prop31
280
     0
102
RTVSPost2010PropOp31
 70
     1
102
RTVSPost2010Prop32
280
     0
102
RTVSPost2010PropOp32
 70
     1
102
RTVSPost2010Prop33
280
     0
102
RTVSPost2010PropOp33
 70
     1
102
RTVSPost2010Prop34
280
     0
102
RTVSPost2010PropOp34
 70
     1
102
RTVSPost2010Prop35
280
     0
102
RTVSPost2010PropOp35
 70
     1
102
RTVSPost2010Prop36
280
     0
102
RTVSPost2010PropOp36
 70
     1
102
RTVSPost2010Prop37
 90
       50
102
RTVSPost2010PropOp37
 70
     1
102
RTVSPost2010Prop38
140
0.0
102
RTVSPost2010PropOp38
 70
     1
102
RTVSPost2010Prop39
140
1.0
102
RTVSPost2010PropOp39
 70
     1
102
RTVSPost2010Prop40
 90
        0
102
RTVSPost2010PropOp40
 70
     1
102
RTVSPost2010Prop41ColorIndex
 90
       18
102
RTVSPost2010Prop41ColorRGB
 90
        0
102
RTVSPost2010PropOp41
 70
     1
102
RTVSPost2010Prop42
 90
       50
102
RTVSPost2010PropOp42
 70
     1
102
RTVSPost2010Prop43
 90
        3
102
RTVSPost2010PropOp43
 70
     1
102
RTVSPost2010Prop44ColorIndex
 90
        5
102
RTVSPost2010Prop44ColorRGB
 90
      255
102
RTVSPost2010PropOp44
 70
     1
102
RTVSPost2010Prop45
280
     0
102
RTVSPost2010PropOp45
 70
     1
102
RTVSPost2010Prop46
 90
       50
102
RTVSPost2010PropOp46
 70
     1
102
RTVSPost2010Prop47
 90
       50
102
RTVSPost2010PropOp47
 70
     1
102
RTVSPost2010Prop48
 90
       50
102
RTVSPost2010PropOp48
 70
     1
102
RTVSPost2010Prop49
280
     0
102
RTVSPost2010PropOp49
 70
     1
102
RTVSPost2010Prop50
 90
       50
102
RTVSPost2010PropOp50
 70
     1
102
RTVSPost2010Prop51ColorIndex
 90
      256
102
RTVSPost2010Prop51ColorRGB
 90
-16777216
102
RTVSPost2010PropOp51
 70
     0
102
RTVSPost2010Prop52
140
1.0
102
RTVSPost2010PropOp52
 70
     0
102
RTVSPost2010Prop53
 90
        2
102
RTVSPost2010PropOp53
 70
     1
102
RTVSPost2010Prop54
  1
strokes_ogs.tif
102
RTVSPost2010PropOp54
 70
     1
102
RTVSPost2010Prop55
280
     0
102
RTVSPost2010PropOp55
 70
     1
102
RTVSPost2010Prop56
140
1.0
102
RTVSPost2010PropOp56
 70
     1
102
RTVSPost2010Prop57
140
1.0
102
RTVSPost2010PropOp57
 70
     1
102
RTVSPropertyOp0
 70
     1
102
RTVSPropertyOp1
 70
     1
102
RTVSPropertyOp2
 70
     1
102
RTVSPropertyOp3
 70
     1
102
RTVSPropertyOp4
 70
     1
102
RTVSPropertyOp5
 70
     1
102
RTVSPropertyOp6
 70
     1
102
RTVSPropertyOp7
 70
     1
102
RTVSPropertyOp8
 70
     1
102
RTVSPropertyOp9
 70
     1
102
RTVSPropertyOp10
 70
     1
102
RTVSPropertyOp11
 70
     1
102
RTVSPropertyOp12
 70
     1
102
RTVSPropertyOp13
 70
     1
102
RTVSPropertyOp14
 70
     1
102
RTVSPropertyOp15
 70
     1
102
RTVSPropertyOp16
 70
     1
102
RTVSPropertyOp17
 70
     1
102
RTVSPropertyOp18
 70
     1
102
RTVSPropertyOp19
 70
     1
102
RTVSPropertyOp20
 70
     1
102
RTVSPropertyOp21
 70
     1
102
RTVSPropertyOp22
 70
     1
102
RTVSPropertyOp23
 70
     1
102
RTVSPropertyOp24
 70
     1
102
RTVSPropertyOp25
 70
     1
102
RTVSPropertyOp26
 70
     1
102
RTVSPropertyOp27
 70
     1
102
RTVSPropertyOp28
 70
     1
102
RTVSPropertyOp29
 70
     1
102
RTVSPropertyOp30
 70
     1
102
RTVSPropertyOp31
 70
     1
102
RTVSPropertyOp32
 70
     1
102
RTVSPropertyOp33
 70
     1
102
RTVSPropertyOp34
 70
     1
102
RTVSPropertyOp35
 70
     1
102
RTVSPropertyOp36
 70
     1
102
RTVSPropertyOp37
 70
     1
102
RTVSPropertyOp38
 70
     1
102
RTVSPropertyOp39
 70
     1
102
RTVSPropertyOp40
 70
     1
102
RTVSPropertyOp41
 70
     1
102
RTVSPropertyOp42
 70
     1
102
RTVSPropertyOp43
 70
     1
102
RTVSPropertyOp44
 70
     1
102
RTVSPropertyOp45
 70
     1
102
RTVSPropertyOp46
 70
     1
102
RTVSPropertyOp47
 70
     1
102
RTVSPropertyOp48
 70
     1
102
RTVSPropertyOp49
 70
     1
102
RTVSPropertyOp50
 70
     1
102
RTVSPropertyOp51
 70
     0
102
RTVSPropertyOp52
 70
     0
102
RTVSPropertyOp53
 70
     1
102
RTVSPropertyOp54
 70
     1
102
RTVSPropertyOp55
 70
     1
102
RTVSPropertyOp56
 70
     1
102
RTVSPropertyOp57
 70
     1
102
RTVSPropertyOp58
 70
     1
102
RTVSPropertyOp59
 70
     1
102
RTVSPropertyOp60
 70
     1
102
RTVSPropertyOp61
 70
     1
102
RTVSPropertyOp62
 70
     1
  0
XRECORD
  5
1CE6
102
{ACAD_REACTORS
330
1CE5
102
}
330
1CE5
100
AcDbXrecord
280
     1
102
RTVSPost2010Prop28
280
     0
102
RTVSPost2010PropOp28
 70
     1
102
RTVSPost2010Prop29
280
     1
102
RTVSPost2010PropOp29
 70
     1
102
RTVSPost2010Prop30
280
     1
102
RTVSPost2010PropOp30
 70
     1
102
RTVSPost2010Prop31
280
     0
102
RTVSPost2010PropOp31
 70
     1
102
RTVSPost2010Prop32
280
     0
102
RTVSPost2010PropOp32
 70
     1
102
RTVSPost2010Prop33
280
     0
102
RTVSPost2010PropOp33
 70
     1
102
RTVSPost2010Prop34
280
     0
102
RTVSPost2010PropOp34
 70
     1
102
RTVSPost2010Prop35
280
     0
102
RTVSPost2010PropOp35
 70
     1
102
RTVSPost2010Prop36
280
     0
102
RTVSPost2010PropOp36
 70
     1
102
RTVSPost2010Prop37
 90
       50
102
RTVSPost2010PropOp37
 70
     1
102
RTVSPost2010Prop38
140
0.0
102
RTVSPost2010PropOp38
 70
     1
102
RTVSPost2010Prop39
140
1.0
102
RTVSPost2010PropOp39
 70
     1
102
RTVSPost2010Prop40
 90
        0
102
RTVSPost2010PropOp40
 70
     1
102
RTVSPost2010Prop41ColorIndex
 90
       18
102
RTVSPost2010Prop41ColorRGB
 90
        0
102
RTVSPost2010PropOp41
 70
     1
102
RTVSPost2010Prop42
 90
       50
102
RTVSPost2010PropOp42
 70
     1
102
RTVSPost2010Prop43
 90
        3
102
RTVSPost2010PropOp43
 70
     1
102
RTVSPost2010Prop44ColorIndex
 90
        5
102
RTVSPost2010Prop44ColorRGB
 90
      255
102
RTVSPost2010PropOp44
 70
     1
102
RTVSPost2010Prop45
280
     0
102
RTVSPost2010PropOp45
 70
     1
102
RTVSPost2010Prop46
 90
       50
102
RTVSPost2010PropOp46
 70
     1
102
RTVSPost2010Prop47
 90
       50
102
RTVSPost2010PropOp47
 70
     1
102
RTVSPost2010Prop48
 90
       50
102
RTVSPost2010PropOp48
 70
     1
102
RTVSPost2010Prop49
280
     0
102
RTVSPost2010PropOp49
 70
     1
102
RTVSPost2010Prop50
 90
       50
102
RTVSPost2010PropOp50
 70
     1
102
RTVSPost2010Prop51ColorIndex
 90
      256
102
RTVSPost2010Prop51ColorRGB
 90
-16777216
102
RTVSPost2010PropOp51
 70
     0
102
RTVSPost2010Prop52
140
1.0
102
RTVSPost2010PropOp52
 70
     0
102
RTVSPost2010Prop53
 90
        2
102
RTVSPost2010PropOp53
 70
     1
102
RTVSPost2010Prop54
  1
strokes_ogs.tif
102
RTVSPost2010PropOp54
 70
     1
102
RTVSPost2010Prop55
280
     0
102
RTVSPost2010PropOp55
 70
     1
102
RTVSPost2010Prop56
140
1.0
102
RTVSPost2010PropOp56
 70
     1
102
RTVSPost2010Prop57
140
1.0
102
RTVSPost2010PropOp57
 70
     1
102
RTVSPropertyOp0
 70
     1
102
RTVSPropertyOp1
 70
     1
102
RTVSPropertyOp2
 70
     1
102
RTVSPropertyOp3
 70
     1
102
RTVSPropertyOp4
 70
     1
102
RTVSPropertyOp5
 70
     1
102
RTVSPropertyOp6
 70
     1
102
RTVSPropertyOp7
 70
     1
102
RTVSPropertyOp8
 70
     1
102
RTVSPropertyOp9
 70
     1
102
RTVSPropertyOp10
 70
     1
102
RTVSPropertyOp11
 70
     1
102
RTVSPropertyOp12
 70
     1
102
RTVSPropertyOp13
 70
     1
102
RTVSPropertyOp14
 70
     1
102
RTVSPropertyOp15
 70
     1
102
RTVSPropertyOp16
 70
     1
102
RTVSPropertyOp17
 70
     1
102
RTVSPropertyOp18
 70
     1
102
RTVSPropertyOp19
 70
     1
102
RTVSPropertyOp20
 70
     1
102
RTVSPropertyOp21
 70
     1
102
RTVSPropertyOp22
 70
     1
102
RTVSPropertyOp23
 70
     1
102
RTVSPropertyOp24
 70
     1
102
RTVSPropertyOp25
 70
     1
102
RTVSPropertyOp26
 70
     1
102
RTVSPropertyOp27
 70
     1
102
RTVSPropertyOp28
 70
     1
102
RTVSPropertyOp29
 70
     1
102
RTVSPropertyOp30
 70
     1
102
RTVSPropertyOp31
 70
     1
102
RTVSPropertyOp32
 70
     1
102
RTVSPropertyOp33
 70
     1
102
RTVSPropertyOp34
 70
     1
102
RTVSPropertyOp35
 70
     1
102
RTVSPropertyOp36
 70
     1
102
RTVSPropertyOp37
 70
     1
102
RTVSPropertyOp38
 70
     1
102
RTVSPropertyOp39
 70
     1
102
RTVSPropertyOp40
 70
     1
102
RTVSPropertyOp41
 70
     1
102
RTVSPropertyOp42
 70
     1
102
RTVSPropertyOp43
 70
     1
102
RTVSPropertyOp44
 70
     1
102
RTVSPropertyOp45
 70
     1
102
RTVSPropertyOp46
 70
     1
102
RTVSPropertyOp47
 70
     1
102
RTVSPropertyOp48
 70
     1
102
RTVSPropertyOp49
 70
     1
102
RTVSPropertyOp50
 70
     1
102
RTVSPropertyOp51
 70
     0
102
RTVSPropertyOp52
 70
     0
102
RTVSPropertyOp53
 70
     1
102
RTVSPropertyOp54
 70
     1
102
RTVSPropertyOp55
 70
     1
102
RTVSPropertyOp56
 70
     1
102
RTVSPropertyOp57
 70
     1
102
RTVSPropertyOp58
 70
     1
102
RTVSPropertyOp59
 70
     1
102
RTVSPropertyOp60
 70
     1
102
RTVSPropertyOp61
 70
     1
102
RTVSPropertyOp62
 70
     1
  0
XRECORD
  5
1CE8
102
{ACAD_REACTORS
330
1CE7
102
}
330
1CE7
100
AcDbXrecord
280
     1
102
RTVSPost2010Prop28
280
     0
102
RTVSPost2010PropOp28
 70
     1
102
RTVSPost2010Prop29
280
     1
102
RTVSPost2010PropOp29
 70
     1
102
RTVSPost2010Prop30
280
     1
102
RTVSPost2010PropOp30
 70
     1
102
RTVSPost2010Prop31
280
     0
102
RTVSPost2010PropOp31
 70
     1
102
RTVSPost2010Prop32
280
     0
102
RTVSPost2010PropOp32
 70
     1
102
RTVSPost2010Prop33
280
     0
102
RTVSPost2010PropOp33
 70
     1
102
RTVSPost2010Prop34
280
     0
102
RTVSPost2010PropOp34
 70
     1
102
RTVSPost2010Prop35
280
     0
102
RTVSPost2010PropOp35
 70
     1
102
RTVSPost2010Prop36
280
     0
102
RTVSPost2010PropOp36
 70
     1
102
RTVSPost2010Prop37
 90
       50
102
RTVSPost2010PropOp37
 70
     1
102
RTVSPost2010Prop38
140
0.0
102
RTVSPost2010PropOp38
 70
     1
102
RTVSPost2010Prop39
140
1.0
102
RTVSPost2010PropOp39
 70
     1
102
RTVSPost2010Prop40
 90
        0
102
RTVSPost2010PropOp40
 70
     1
102
RTVSPost2010Prop41ColorIndex
 90
       18
102
RTVSPost2010Prop41ColorRGB
 90
        0
102
RTVSPost2010PropOp41
 70
     1
102
RTVSPost2010Prop42
 90
       50
102
RTVSPost2010PropOp42
 70
     1
102
RTVSPost2010Prop43
 90
        3
102
RTVSPost2010PropOp43
 70
     1
102
RTVSPost2010Prop44ColorIndex
 90
        5
102
RTVSPost2010Prop44ColorRGB
 90
      255
102
RTVSPost2010PropOp44
 70
     1
102
RTVSPost2010Prop45
280
     0
102
RTVSPost2010PropOp45
 70
     1
102
RTVSPost2010Prop46
 90
       50
102
RTVSPost2010PropOp46
 70
     1
102
RTVSPost2010Prop47
 90
       50
102
RTVSPost2010PropOp47
 70
     1
102
RTVSPost2010Prop48
 90
       50
102
RTVSPost2010PropOp48
 70
     1
102
RTVSPost2010Prop49
280
     0
102
RTVSPost2010PropOp49
 70
     1
102
RTVSPost2010Prop50
 90
       50
102
RTVSPost2010PropOp50
 70
     1
102
RTVSPost2010Prop51ColorIndex
 90
      256
102
RTVSPost2010Prop51ColorRGB
 90
-16777216
102
RTVSPost2010PropOp51
 70
     0
102
RTVSPost2010Prop52
140
1.0
102
RTVSPost2010PropOp52
 70
     0
102
RTVSPost2010Prop53
 90
        2
102
RTVSPost2010PropOp53
 70
     1
102
RTVSPost2010Prop54
  1
strokes_ogs.tif
102
RTVSPost2010PropOp54
 70
     1
102
RTVSPost2010Prop55
280
     0
102
RTVSPost2010PropOp55
 70
     1
102
RTVSPost2010Prop56
140
1.0
102
RTVSPost2010PropOp56
 70
     1
102
RTVSPost2010Prop57
140
1.0
102
RTVSPost2010PropOp57
 70
     1
102
RTVSPropertyOp0
 70
     1
102
RTVSPropertyOp1
 70
     1
102
RTVSPropertyOp2
 70
     1
102
RTVSPropertyOp3
 70
     1
102
RTVSPropertyOp4
 70
     1
102
RTVSPropertyOp5
 70
     1
102
RTVSPropertyOp6
 70
     1
102
RTVSPropertyOp7
 70
     1
102
RTVSPropertyOp8
 70
     1
102
RTVSPropertyOp9
 70
     1
102
RTVSPropertyOp10
 70
     1
102
RTVSPropertyOp11
 70
     1
102
RTVSPropertyOp12
 70
     1
102
RTVSPropertyOp13
 70
     1
102
RTVSPropertyOp14
 70
     1
102
RTVSPropertyOp15
 70
     1
102
RTVSPropertyOp16
 70
     1
102
RTVSPropertyOp17
 70
     1
102
RTVSPropertyOp18
 70
     1
102
RTVSPropertyOp19
 70
     1
102
RTVSPropertyOp20
 70
     1
102
RTVSPropertyOp21
 70
     1
102
RTVSPropertyOp22
 70
     1
102
RTVSPropertyOp23
 70
     1
102
RTVSPropertyOp24
 70
     1
102
RTVSPropertyOp25
 70
     1
102
RTVSPropertyOp26
 70
     1
102
RTVSPropertyOp27
 70
     1
102
RTVSPropertyOp28
 70
     1
102
RTVSPropertyOp29
 70
     1
102
RTVSPropertyOp30
 70
     1
102
RTVSPropertyOp31
 70
     1
102
RTVSPropertyOp32
 70
     1
102
RTVSPropertyOp33
 70
     1
102
RTVSPropertyOp34
 70
     1
102
RTVSPropertyOp35
 70
     1
102
RTVSPropertyOp36
 70
     1
102
RTVSPropertyOp37
 70
     1
102
RTVSPropertyOp38
 70
     1
102
RTVSPropertyOp39
 70
     1
102
RTVSPropertyOp40
 70
     1
102
RTVSPropertyOp41
 70
     1
102
RTVSPropertyOp42
 70
     1
102
RTVSPropertyOp43
 70
     1
102
RTVSPropertyOp44
 70
     1
102
RTVSPropertyOp45
 70
     1
102
RTVSPropertyOp46
 70
     1
102
RTVSPropertyOp47
 70
     1
102
RTVSPropertyOp48
 70
     1
102
RTVSPropertyOp49
 70
     1
102
RTVSPropertyOp50
 70
     1
102
RTVSPropertyOp51
 70
     0
102
RTVSPropertyOp52
 70
     0
102
RTVSPropertyOp53
 70
     1
102
RTVSPropertyOp54
 70
     1
102
RTVSPropertyOp55
 70
     1
102
RTVSPropertyOp56
 70
     1
102
RTVSPropertyOp57
 70
     1
102
RTVSPropertyOp58
 70
     1
102
RTVSPropertyOp59
 70
     1
102
RTVSPropertyOp60
 70
     1
102
RTVSPropertyOp61
 70
     1
102
RTVSPropertyOp62
 70
     1
  0
XRECORD
  5
1CDE
102
{ACAD_REACTORS
330
1CDD
102
}
330
1CDD
100
AcDbXrecord
280
     1
102
RTVSPost2010Prop28
280
     0
102
RTVSPost2010PropOp28
 70
     1
102
RTVSPost2010Prop29
280
     1
102
RTVSPost2010PropOp29
 70
     1
102
RTVSPost2010Prop30
280
     1
102
RTVSPost2010PropOp30
 70
     1
102
RTVSPost2010Prop31
280
     0
102
RTVSPost2010PropOp31
 70
     1
102
RTVSPost2010Prop32
280
     0
102
RTVSPost2010PropOp32
 70
     1
102
RTVSPost2010Prop33
280
     0
102
RTVSPost2010PropOp33
 70
     1
102
RTVSPost2010Prop34
280
     0
102
RTVSPost2010PropOp34
 70
     1
102
RTVSPost2010Prop35
280
     0
102
RTVSPost2010PropOp35
 70
     1
102
RTVSPost2010Prop36
280
     0
102
RTVSPost2010PropOp36
 70
     1
102
RTVSPost2010Prop37
 90
       50
102
RTVSPost2010PropOp37
 70
     1
102
RTVSPost2010Prop38
140
0.0
102
RTVSPost2010PropOp38
 70
     1
102
RTVSPost2010Prop39
140
1.0
102
RTVSPost2010PropOp39
 70
     1
102
RTVSPost2010Prop40
 90
        0
102
RTVSPost2010PropOp40
 70
     1
102
RTVSPost2010Prop41ColorIndex
 90
       18
102
RTVSPost2010Prop41ColorRGB
 90
        0
102
RTVSPost2010PropOp41
 70
     1
102
RTVSPost2010Prop42
 90
       50
102
RTVSPost2010PropOp42
 70
     1
102
RTVSPost2010Prop43
 90
        3
102
RTVSPost2010PropOp43
 70
     1
102
RTVSPost2010Prop44ColorIndex
 90
        5
102
RTVSPost2010Prop44ColorRGB
 90
      255
102
RTVSPost2010PropOp44
 70
     1
102
RTVSPost2010Prop45
280
     0
102
RTVSPost2010PropOp45
 70
     1
102
RTVSPost2010Prop46
 90
       50
102
RTVSPost2010PropOp46
 70
     1
102
RTVSPost2010Prop47
 90
       50
102
RTVSPost2010PropOp47
 70
     1
102
RTVSPost2010Prop48
 90
       50
102
RTVSPost2010PropOp48
 70
     1
102
RTVSPost2010Prop49
280
     0
102
RTVSPost2010PropOp49
 70
     1
102
RTVSPost2010Prop50
 90
       50
102
RTVSPost2010PropOp50
 70
     1
102
RTVSPost2010Prop51ColorIndex
 90
      256
102
RTVSPost2010Prop51ColorRGB
 90
-16777216
102
RTVSPost2010PropOp51
 70
     0
102
RTVSPost2010Prop52
140
1.0
102
RTVSPost2010PropOp52
 70
     0
102
RTVSPost2010Prop53
 90
        2
102
RTVSPost2010PropOp53
 70
     1
102
RTVSPost2010Prop54
  1
strokes_ogs.tif
102
RTVSPost2010PropOp54
 70
     1
102
RTVSPost2010Prop55
280
     0
102
RTVSPost2010PropOp55
 70
     1
102
RTVSPost2010Prop56
140
1.0
102
RTVSPost2010PropOp56
 70
     1
102
RTVSPost2010Prop57
140
1.0
102
RTVSPost2010PropOp57
 70
     1
102
RTVSPropertyOp0
 70
     1
102
RTVSPropertyOp1
 70
     1
102
RTVSPropertyOp2
 70
     1
102
RTVSPropertyOp3
 70
     1
102
RTVSPropertyOp4
 70
     1
102
RTVSPropertyOp5
 70
     1
102
RTVSPropertyOp6
 70
     1
102
RTVSPropertyOp7
 70
     1
102
RTVSPropertyOp8
 70
     1
102
RTVSPropertyOp9
 70
     1
102
RTVSPropertyOp10
 70
     1
102
RTVSPropertyOp11
 70
     1
102
RTVSPropertyOp12
 70
     1
102
RTVSPropertyOp13
 70
     1
102
RTVSPropertyOp14
 70
     1
102
RTVSPropertyOp15
 70
     1
102
RTVSPropertyOp16
 70
     1
102
RTVSPropertyOp17
 70
     1
102
RTVSPropertyOp18
 70
     1
102
RTVSPropertyOp19
 70
     1
102
RTVSPropertyOp20
 70
     1
102
RTVSPropertyOp21
 70
     1
102
RTVSPropertyOp22
 70
     1
102
RTVSPropertyOp23
 70
     1
102
RTVSPropertyOp24
 70
     1
102
RTVSPropertyOp25
 70
     1
102
RTVSPropertyOp26
 70
     1
102
RTVSPropertyOp27
 70
     1
102
RTVSPropertyOp28
 70
     1
102
RTVSPropertyOp29
 70
     1
102
RTVSPropertyOp30
 70
     1
102
RTVSPropertyOp31
 70
     1
102
RTVSPropertyOp32
 70
     1
102
RTVSPropertyOp33
 70
     1
102
RTVSPropertyOp34
 70
     1
102
RTVSPropertyOp35
 70
     1
102
RTVSPropertyOp36
 70
     1
102
RTVSPropertyOp37
 70
     1
102
RTVSPropertyOp38
 70
     1
102
RTVSPropertyOp39
 70
     1
102
RTVSPropertyOp40
 70
     1
102
RTVSPropertyOp41
 70
     1
102
RTVSPropertyOp42
 70
     1
102
RTVSPropertyOp43
 70
     1
102
RTVSPropertyOp44
 70
     1
102
RTVSPropertyOp45
 70
     1
102
RTVSPropertyOp46
 70
     1
102
RTVSPropertyOp47
 70
     1
102
RTVSPropertyOp48
 70
     1
102
RTVSPropertyOp49
 70
     1
102
RTVSPropertyOp50
 70
     1
102
RTVSPropertyOp51
 70
     0
102
RTVSPropertyOp52
 70
     0
102
RTVSPropertyOp53
 70
     1
102
RTVSPropertyOp54
 70
     1
102
RTVSPropertyOp55
 70
     1
102
RTVSPropertyOp56
 70
     1
102
RTVSPropertyOp57
 70
     1
102
RTVSPropertyOp58
 70
     1
102
RTVSPropertyOp59
 70
     1
102
RTVSPropertyOp60
 70
     1
102
RTVSPropertyOp61
 70
     1
102
RTVSPropertyOp62
 70
     1
  0
XRECORD
  5
1CD2
102
{ACAD_REACTORS
330
1CD1
102
}
330
1CD1
100
AcDbXrecord
280
     1
102
RTVSPost2010Prop28
280
     0
102
RTVSPost2010PropOp28
 70
     1
102
RTVSPost2010Prop29
280
     1
102
RTVSPost2010PropOp29
 70
     1
102
RTVSPost2010Prop30
280
     1
102
RTVSPost2010PropOp30
 70
     1
102
RTVSPost2010Prop31
280
     0
102
RTVSPost2010PropOp31
 70
     1
102
RTVSPost2010Prop32
280
     0
102
RTVSPost2010PropOp32
 70
     1
102
RTVSPost2010Prop33
280
     0
102
RTVSPost2010PropOp33
 70
     1
102
RTVSPost2010Prop34
280
     0
102
RTVSPost2010PropOp34
 70
     1
102
RTVSPost2010Prop35
280
     0
102
RTVSPost2010PropOp35
 70
     1
102
RTVSPost2010Prop36
280
     0
102
RTVSPost2010PropOp36
 70
     1
102
RTVSPost2010Prop37
 90
       50
102
RTVSPost2010PropOp37
 70
     1
102
RTVSPost2010Prop38
140
0.0
102
RTVSPost2010PropOp38
 70
     1
102
RTVSPost2010Prop39
140
1.0
102
RTVSPost2010PropOp39
 70
     1
102
RTVSPost2010Prop40
 90
        0
102
RTVSPost2010PropOp40
 70
     1
102
RTVSPost2010Prop41ColorIndex
 90
       18
102
RTVSPost2010Prop41ColorRGB
 90
        0
102
RTVSPost2010PropOp41
 70
     1
102
RTVSPost2010Prop42
 90
       50
102
RTVSPost2010PropOp42
 70
     1
102
RTVSPost2010Prop43
 90
        3
102
RTVSPost2010PropOp43
 70
     1
102
RTVSPost2010Prop44ColorIndex
 90
        5
102
RTVSPost2010Prop44ColorRGB
 90
      255
102
RTVSPost2010PropOp44
 70
     1
102
RTVSPost2010Prop45
280
     0
102
RTVSPost2010PropOp45
 70
     1
102
RTVSPost2010Prop46
 90
       50
102
RTVSPost2010PropOp46
 70
     1
102
RTVSPost2010Prop47
 90
       50
102
RTVSPost2010PropOp47
 70
     1
102
RTVSPost2010Prop48
 90
       50
102
RTVSPost2010PropOp48
 70
     1
102
RTVSPost2010Prop49
280
     0
102
RTVSPost2010PropOp49
 70
     1
102
RTVSPost2010Prop50
 90
       50
102
RTVSPost2010PropOp50
 70
     1
102
RTVSPost2010Prop51ColorIndex
 90
      256
102
RTVSPost2010Prop51ColorRGB
 90
-16777216
102
RTVSPost2010PropOp51
 70
     0
102
RTVSPost2010Prop52
140
1.0
102
RTVSPost2010PropOp52
 70
     0
102
RTVSPost2010Prop53
 90
        2
102
RTVSPost2010PropOp53
 70
     1
102
RTVSPost2010Prop54
  1
strokes_ogs.tif
102
RTVSPost2010PropOp54
 70
     1
102
RTVSPost2010Prop55
280
     0
102
RTVSPost2010PropOp55
 70
     1
102
RTVSPost2010Prop56
140
1.0
102
RTVSPost2010PropOp56
 70
     1
102
RTVSPost2010Prop57
140
1.0
102
RTVSPost2010PropOp57
 70
     1
102
RTVSPropertyOp0
 70
     1
102
RTVSPropertyOp1
 70
     1
102
RTVSPropertyOp2
 70
     1
102
RTVSPropertyOp3
 70
     1
102
RTVSPropertyOp4
 70
     1
102
RTVSPropertyOp5
 70
     1
102
RTVSPropertyOp6
 70
     1
102
RTVSPropertyOp7
 70
     1
102
RTVSPropertyOp8
 70
     1
102
RTVSPropertyOp9
 70
     1
102
RTVSPropertyOp10
 70
     1
102
RTVSPropertyOp11
 70
     1
102
RTVSPropertyOp12
 70
     1
102
RTVSPropertyOp13
 70
     1
102
RTVSPropertyOp14
 70
     1
102
RTVSPropertyOp15
 70
     1
102
RTVSPropertyOp16
 70
     1
102
RTVSPropertyOp17
 70
     1
102
RTVSPropertyOp18
 70
     1
102
RTVSPropertyOp19
 70
     1
102
RTVSPropertyOp20
 70
     1
102
RTVSPropertyOp21
 70
     1
102
RTVSPropertyOp22
 70
     1
102
RTVSPropertyOp23
 70
     1
102
RTVSPropertyOp24
 70
     1
102
RTVSPropertyOp25
 70
     1
102
RTVSPropertyOp26
 70
     1
102
RTVSPropertyOp27
 70
     1
102
RTVSPropertyOp28
 70
     1
102
RTVSPropertyOp29
 70
     1
102
RTVSPropertyOp30
 70
     1
102
RTVSPropertyOp31
 70
     1
102
RTVSPropertyOp32
 70
     1
102
RTVSPropertyOp33
 70
     1
102
RTVSPropertyOp34
 70
     1
102
RTVSPropertyOp35
 70
     1
102
RTVSPropertyOp36
 70
     1
102
RTVSPropertyOp37
 70
     1
102
RTVSPropertyOp38
 70
     1
102
RTVSPropertyOp39
 70
     1
102
RTVSPropertyOp40
 70
     1
102
RTVSPropertyOp41
 70
     1
102
RTVSPropertyOp42
 70
     1
102
RTVSPropertyOp43
 70
     1
102
RTVSPropertyOp44
 70
     1
102
RTVSPropertyOp45
 70
     1
102
RTVSPropertyOp46
 70
     1
102
RTVSPropertyOp47
 70
     1
102
RTVSPropertyOp48
 70
     1
102
RTVSPropertyOp49
 70
     1
102
RTVSPropertyOp50
 70
     1
102
RTVSPropertyOp51
 70
     0
102
RTVSPropertyOp52
 70
     0
102
RTVSPropertyOp53
 70
     1
102
RTVSPropertyOp54
 70
     1
102
RTVSPropertyOp55
 70
     1
102
RTVSPropertyOp56
 70
     1
102
RTVSPropertyOp57
 70
     1
102
RTVSPropertyOp58
 70
     1
102
RTVSPropertyOp59
 70
     1
102
RTVSPropertyOp60
 70
     1
102
RTVSPropertyOp61
 70
     1
102
RTVSPropertyOp62
 70
     1
  0
XRECORD
  5
1CEA
102
{ACAD_REACTORS
330
1CE9
102
}
330
1CE9
100
AcDbXrecord
280
     1
102
RTVSPost2010Prop28
280
     0
102
RTVSPost2010PropOp28
 70
     1
102
RTVSPost2010Prop29
280
     1
102
RTVSPost2010PropOp29
 70
     1
102
RTVSPost2010Prop30
280
     1
102
RTVSPost2010PropOp30
 70
     1
102
RTVSPost2010Prop31
280
     0
102
RTVSPost2010PropOp31
 70
     1
102
RTVSPost2010Prop32
280
     0
102
RTVSPost2010PropOp32
 70
     1
102
RTVSPost2010Prop33
280
     0
102
RTVSPost2010PropOp33
 70
     1
102
RTVSPost2010Prop34
280
     0
102
RTVSPost2010PropOp34
 70
     1
102
RTVSPost2010Prop35
280
     0
102
RTVSPost2010PropOp35
 70
     1
102
RTVSPost2010Prop36
280
     0
102
RTVSPost2010PropOp36
 70
     1
102
RTVSPost2010Prop37
 90
       50
102
RTVSPost2010PropOp37
 70
     1
102
RTVSPost2010Prop38
140
0.0
102
RTVSPost2010PropOp38
 70
     1
102
RTVSPost2010Prop39
140
1.0
102
RTVSPost2010PropOp39
 70
     1
102
RTVSPost2010Prop40
 90
        0
102
RTVSPost2010PropOp40
 70
     1
102
RTVSPost2010Prop41ColorIndex
 90
       18
102
RTVSPost2010Prop41ColorRGB
 90
        0
102
RTVSPost2010PropOp41
 70
     1
102
RTVSPost2010Prop42
 90
       50
102
RTVSPost2010PropOp42
 70
     1
102
RTVSPost2010Prop43
 90
        3
102
RTVSPost2010PropOp43
 70
     1
102
RTVSPost2010Prop44ColorIndex
 90
        5
102
RTVSPost2010Prop44ColorRGB
 90
      255
102
RTVSPost2010PropOp44
 70
     1
102
RTVSPost2010Prop45
280
     0
102
RTVSPost2010PropOp45
 70
     1
102
RTVSPost2010Prop46
 90
       50
102
RTVSPost2010PropOp46
 70
     1
102
RTVSPost2010Prop47
 90
       50
102
RTVSPost2010PropOp47
 70
     1
102
RTVSPost2010Prop48
 90
       50
102
RTVSPost2010PropOp48
 70
     1
102
RTVSPost2010Prop49
280
     0
102
RTVSPost2010PropOp49
 70
     1
102
RTVSPost2010Prop50
 90
       50
102
RTVSPost2010PropOp50
 70
     1
102
RTVSPost2010Prop51ColorIndex
 90
      256
102
RTVSPost2010Prop51ColorRGB
 90
-16777216
102
RTVSPost2010PropOp51
 70
     0
102
RTVSPost2010Prop52
140
1.0
102
RTVSPost2010PropOp52
 70
     0
102
RTVSPost2010Prop53
 90
        2
102
RTVSPost2010PropOp53
 70
     1
102
RTVSPost2010Prop54
  1
strokes_ogs.tif
102
RTVSPost2010PropOp54
 70
     1
102
RTVSPost2010Prop55
280
     0
102
RTVSPost2010PropOp55
 70
     1
102
RTVSPost2010Prop56
140
1.0
102
RTVSPost2010PropOp56
 70
     1
102
RTVSPost2010Prop57
140
1.0
102
RTVSPost2010PropOp57
 70
     1
102
RTVSPropertyOp0
 70
     1
102
RTVSPropertyOp1
 70
     1
102
RTVSPropertyOp2
 70
     1
102
RTVSPropertyOp3
 70
     1
102
RTVSPropertyOp4
 70
     1
102
RTVSPropertyOp5
 70
     1
102
RTVSPropertyOp6
 70
     1
102
RTVSPropertyOp7
 70
     1
102
RTVSPropertyOp8
 70
     1
102
RTVSPropertyOp9
 70
     1
102
RTVSPropertyOp10
 70
     1
102
RTVSPropertyOp11
 70
     1
102
RTVSPropertyOp12
 70
     1
102
RTVSPropertyOp13
 70
     1
102
RTVSPropertyOp14
 70
     1
102
RTVSPropertyOp15
 70
     1
102
RTVSPropertyOp16
 70
     1
102
RTVSPropertyOp17
 70
     1
102
RTVSPropertyOp18
 70
     1
102
RTVSPropertyOp19
 70
     1
102
RTVSPropertyOp20
 70
     1
102
RTVSPropertyOp21
 70
     1
102
RTVSPropertyOp22
 70
     1
102
RTVSPropertyOp23
 70
     1
102
RTVSPropertyOp24
 70
     1
102
RTVSPropertyOp25
 70
     1
102
RTVSPropertyOp26
 70
     1
102
RTVSPropertyOp27
 70
     1
102
RTVSPropertyOp28
 70
     1
102
RTVSPropertyOp29
 70
     1
102
RTVSPropertyOp30
 70
     1
102
RTVSPropertyOp31
 70
     1
102
RTVSPropertyOp32
 70
     1
102
RTVSPropertyOp33
 70
     1
102
RTVSPropertyOp34
 70
     1
102
RTVSPropertyOp35
 70
     1
102
RTVSPropertyOp36
 70
     1
102
RTVSPropertyOp37
 70
     1
102
RTVSPropertyOp38
 70
     1
102
RTVSPropertyOp39
 70
     1
102
RTVSPropertyOp40
 70
     1
102
RTVSPropertyOp41
 70
     1
102
RTVSPropertyOp42
 70
     1
102
RTVSPropertyOp43
 70
     1
102
RTVSPropertyOp44
 70
     1
102
RTVSPropertyOp45
 70
     1
102
RTVSPropertyOp46
 70
     1
102
RTVSPropertyOp47
 70
     1
102
RTVSPropertyOp48
 70
     1
102
RTVSPropertyOp49
 70
     1
102
RTVSPropertyOp50
 70
     1
102
RTVSPropertyOp51
 70
     0
102
RTVSPropertyOp52
 70
     0
102
RTVSPropertyOp53
 70
     1
102
RTVSPropertyOp54
 70
     1
102
RTVSPropertyOp55
 70
     1
102
RTVSPropertyOp56
 70
     1
102
RTVSPropertyOp57
 70
     1
102
RTVSPropertyOp58
 70
     1
102
RTVSPropertyOp59
 70
     1
102
RTVSPropertyOp60
 70
     1
102
RTVSPropertyOp61
 70
     1
102
RTVSPropertyOp62
 70
     1
  0
ENDSEC
  0
EOF
