ISO-10303-21;
HEADER;
/****************************************************************
 * Generated by software with PDE/Lib inside                    *
 * PDElib Version 4.4.1-0003, patched  Thursday August 19 11:58 *
 * International Technegroup Inc. (www.iti-oh.com)              *
 ****************************************************************/
FILE_DESCRIPTION((''),'2;1');
FILE_NAME('','2005-07-15T14:04:38',(''),(''),'','CADfix','');
FILE_SCHEMA(('AUTOMOTIVE_DESIGN'));
ENDSEC;
DATA;
#5=APPLICATION_CONTEXT('automotive design');
#6=APPLICATION_PROTOCOL_DEFINITION('Draft International Standard','automotive_design',1998,#5);
#7=PRODUCT_CONTEXT('None',#5,'mechanical');
#8=PRODUCT('cam','','None',(#7));
#9=PRODUCT_RELATED_PRODUCT_CATEGORY('part','description',(#8));
#10=PRODUCT_DEFINITION_FORMATION('None','None',#8);
#11=PRODUCT_DEFINITION_CONTEXT('part definition',#5,'design');
#12=PRODUCT_DEFINITION('None','None',#10,#11);
#18=(NAMED_UNIT(*)PLANE_ANGLE_UNIT()SI_UNIT($,.RADIAN.));
#19=DIMENSIONAL_EXPONENTS(0.0,0.0,0.0,0.0,0.0,0.0,0.0);
#20=PLANE_ANGLE_MEASURE_WITH_UNIT(PLANE_ANGLE_MEASURE(0.017453292500000),#18);
#24=(CONVERSION_BASED_UNIT('DEGREE',#20)NAMED_UNIT(#19)PLANE_ANGLE_UNIT());
#28=(NAMED_UNIT(*)SI_UNIT($,.STERADIAN.)SOLID_ANGLE_UNIT());
#32=(LENGTH_UNIT()NAMED_UNIT(*)SI_UNIT(.MILLI.,.METRE.));
#34=UNCERTAINTY_MEASURE_WITH_UNIT(LENGTH_MEASURE(0.001000000000000),#32,'DISTANCE_ACCURACY_VALUE','');
#36=(GEOMETRIC_REPRESENTATION_CONTEXT(3)GLOBAL_UNCERTAINTY_ASSIGNED_CONTEXT((#34))GLOBAL_UNIT_ASSIGNED_CONTEXT((#24,#28,#32))REPRESENTATION_CONTEXT('None','None'));
#37=AXIS2_PLACEMENT_3D('',#38,#39,#40);
#38=CARTESIAN_POINT('',(0.0,0.0,0.0));
#39=DIRECTION('',(0.0,0.0,1.0));
#40=DIRECTION('',(1.0,0.0,0.0));
#41=ADVANCED_BREP_SHAPE_REPRESENTATION('',(#37,#363),#36);
#42=PRODUCT_DEFINITION_SHAPE('','',#12);
#43=SHAPE_DEFINITION_REPRESENTATION(#42,#41);
#44=CARTESIAN_POINT('',(12.840160167484850,-3.050000000000000,-0.145304954560449));
#45=CARTESIAN_POINT('',(12.840160167484850,-3.050000000000000,-6.854695154515854));
#46=CARTESIAN_POINT('',(16.359836689464249,-3.050000000000000,-0.145304954560449));
#47=CARTESIAN_POINT('',(16.359836689464249,-3.050000000000000,-6.854695154515854));
#48=B_SPLINE_SURFACE_WITH_KNOTS('',1,1,((#44,#46),(#45,#47)),.UNSPECIFIED.,.F.,.F.,.U.,(2,2),(2,2),(0.0,6.709390199955405),(0.0,3.519676521979401),.UNSPECIFIED.);
#49=CARTESIAN_POINT('',(13.0,-3.050000000000000,-6.549999999999900));
#50=VERTEX_POINT('',#49);
#51=CARTESIAN_POINT('',(13.0,-3.050000000000000,-0.449999999999900));
#52=VERTEX_POINT('',#51);
#53=CARTESIAN_POINT('',(13.0,-3.050000000000000,-6.549999999999900));
#54=CARTESIAN_POINT('',(13.0,-3.050000000000000,-0.449999999999900));
#55=QUASI_UNIFORM_CURVE('',1,(#53,#54),.UNSPECIFIED.,.F.,.U.);
#56=EDGE_CURVE('',#50,#52,#55,.T.);
#57=ORIENTED_EDGE('',*,*,#56,.T.);
#58=CARTESIAN_POINT('',(16.199997000000099,-3.050000000000000,-0.449999999999900));
#59=VERTEX_POINT('',#58);
#60=CARTESIAN_POINT('',(16.199997000000099,-3.050000000000000,-0.449999999999900));
#61=CARTESIAN_POINT('',(13.0,-3.050000000000000,-0.449999999999900));
#62=QUASI_UNIFORM_CURVE('',1,(#60,#61),.UNSPECIFIED.,.F.,.U.);
#63=EDGE_CURVE('',#59,#52,#62,.T.);
#64=ORIENTED_EDGE('',*,*,#63,.F.);
#65=CARTESIAN_POINT('',(16.199997000000099,-3.050000000000000,-6.549999999999900));
#66=VERTEX_POINT('',#65);
#67=CARTESIAN_POINT('',(16.199997000000099,-3.050000000000000,-6.549999999999900));
#68=CARTESIAN_POINT('',(16.199997000000099,-3.050000000000000,-0.449999999999900));
#69=QUASI_UNIFORM_CURVE('',1,(#67,#68),.UNSPECIFIED.,.F.,.U.);
#70=EDGE_CURVE('',#66,#59,#69,.T.);
#71=ORIENTED_EDGE('',*,*,#70,.F.);
#72=CARTESIAN_POINT('',(16.199997000000099,-3.050000000000000,-6.549999999999900));
#73=CARTESIAN_POINT('',(13.0,-3.050000000000000,-6.549999999999900));
#74=QUASI_UNIFORM_CURVE('',1,(#72,#73),.UNSPECIFIED.,.F.,.U.);
#75=EDGE_CURVE('',#66,#50,#74,.T.);
#76=ORIENTED_EDGE('',*,*,#75,.T.);
#77=EDGE_LOOP('',(#57,#64,#71,#76));
#78=FACE_OUTER_BOUND('',#77,.T.);
#79=ADVANCED_FACE('',(#78),#48,.F.);
#80=CARTESIAN_POINT('',(16.359836813908611,-3.354694930914581,-6.549999999999900));
#81=CARTESIAN_POINT('',(12.840160071650679,-3.354694930914581,-6.549999999999900));
#82=CARTESIAN_POINT('',(16.359836813908611,3.354695149067580,-6.549999999999900));
#83=CARTESIAN_POINT('',(12.840160071650679,3.354695149067581,-6.549999999999900));
#84=B_SPLINE_SURFACE_WITH_KNOTS('',1,1,((#80,#82),(#81,#83)),.UNSPECIFIED.,.F.,.F.,.U.,(2,2),(2,2),(0.0,3.519676742257932),(0.0,6.709390079982162),.UNSPECIFIED.);
#85=CARTESIAN_POINT('',(13.0,3.050000000000000,-6.549999999999900));
#86=VERTEX_POINT('',#85);
#87=CARTESIAN_POINT('',(13.0,3.050000000000000,-6.549999999999900));
#88=CARTESIAN_POINT('',(13.0,-3.050000000000000,-6.549999999999900));
#89=QUASI_UNIFORM_CURVE('',1,(#87,#88),.UNSPECIFIED.,.F.,.U.);
#90=EDGE_CURVE('',#86,#50,#89,.T.);
#91=ORIENTED_EDGE('',*,*,#90,.T.);
#92=ORIENTED_EDGE('',*,*,#75,.F.);
#93=CARTESIAN_POINT('',(16.199997000000099,3.050000000000000,-6.549999999999900));
#94=VERTEX_POINT('',#93);
#95=CARTESIAN_POINT('',(16.199997000000099,3.050000000000000,-6.549999999999900));
#96=CARTESIAN_POINT('',(16.199997000000099,-3.050000000000000,-6.549999999999900));
#97=QUASI_UNIFORM_CURVE('',1,(#95,#96),.UNSPECIFIED.,.F.,.U.);
#98=EDGE_CURVE('',#94,#66,#97,.T.);
#99=ORIENTED_EDGE('',*,*,#98,.F.);
#100=CARTESIAN_POINT('',(16.199997000000099,3.050000000000000,-6.549999999999900));
#101=CARTESIAN_POINT('',(13.0,3.050000000000000,-6.549999999999900));
#102=QUASI_UNIFORM_CURVE('',1,(#100,#101),.UNSPECIFIED.,.F.,.U.);
#103=EDGE_CURVE('',#94,#86,#102,.T.);
#104=ORIENTED_EDGE('',*,*,#103,.T.);
#105=EDGE_LOOP('',(#91,#92,#99,#104));
#106=FACE_OUTER_BOUND('',#105,.T.);
#107=ADVANCED_FACE('',(#106),#84,.F.);
#108=CARTESIAN_POINT('',(12.840160167484850,3.050000000000000,-6.854695217226660));
#109=CARTESIAN_POINT('',(12.840160167484850,3.050000000000000,-0.145304837311392));
#110=CARTESIAN_POINT('',(16.359836689464249,3.050000000000000,-6.854695217226660));
#111=CARTESIAN_POINT('',(16.359836689464249,3.050000000000000,-0.145304837311392));
#112=B_SPLINE_SURFACE_WITH_KNOTS('',1,1,((#108,#110),(#109,#111)),.UNSPECIFIED.,.F.,.F.,.U.,(2,2),(2,2),(0.0,6.709390379915268),(0.0,3.519676521979401),.UNSPECIFIED.);
#113=CARTESIAN_POINT('',(13.0,3.050000000000000,-0.449999999999900));
#114=VERTEX_POINT('',#113);
#115=CARTESIAN_POINT('',(13.0,3.050000000000000,-0.449999999999900));
#116=CARTESIAN_POINT('',(13.0,3.050000000000000,-6.549999999999900));
#117=QUASI_UNIFORM_CURVE('',1,(#115,#116),.UNSPECIFIED.,.F.,.U.);
#118=EDGE_CURVE('',#114,#86,#117,.T.);
#119=ORIENTED_EDGE('',*,*,#118,.T.);
#120=ORIENTED_EDGE('',*,*,#103,.F.);
#121=CARTESIAN_POINT('',(16.199997000000099,3.050000000000000,-0.449999999999900));
#122=VERTEX_POINT('',#121);
#123=CARTESIAN_POINT('',(16.199997000000099,3.050000000000000,-0.449999999999900));
#124=CARTESIAN_POINT('',(16.199997000000099,3.050000000000000,-6.549999999999900));
#125=QUASI_UNIFORM_CURVE('',1,(#123,#124),.UNSPECIFIED.,.F.,.U.);
#126=EDGE_CURVE('',#122,#94,#125,.T.);
#127=ORIENTED_EDGE('',*,*,#126,.F.);
#128=CARTESIAN_POINT('',(16.199997000000099,3.050000000000000,-0.449999999999900));
#129=CARTESIAN_POINT('',(13.0,3.050000000000000,-0.449999999999900));
#130=QUASI_UNIFORM_CURVE('',1,(#128,#129),.UNSPECIFIED.,.F.,.U.);
#131=EDGE_CURVE('',#122,#114,#130,.T.);
#132=ORIENTED_EDGE('',*,*,#131,.T.);
#133=EDGE_LOOP('',(#119,#120,#127,#132));
#134=FACE_OUTER_BOUND('',#133,.T.);
#135=ADVANCED_FACE('',(#134),#112,.F.);
#136=CARTESIAN_POINT('',(12.840160167484850,3.354694930914581,-0.449999999999900));
#137=CARTESIAN_POINT('',(12.840160167484850,-3.354695149067581,-0.449999999999900));
#138=CARTESIAN_POINT('',(16.359836689464249,3.354694930914581,-0.449999999999900));
#139=CARTESIAN_POINT('',(16.359836689464249,-3.354695149067581,-0.449999999999900));
#140=B_SPLINE_SURFACE_WITH_KNOTS('',1,1,((#136,#138),(#137,#139)),.UNSPECIFIED.,.F.,.F.,.U.,(2,2),(2,2),(0.0,6.709390079982162),(0.0,3.519676521979401),.UNSPECIFIED.);
#141=CARTESIAN_POINT('',(13.0,-3.050000000000000,-0.449999999999900));
#142=CARTESIAN_POINT('',(13.0,3.050000000000000,-0.449999999999900));
#143=QUASI_UNIFORM_CURVE('',1,(#141,#142),.UNSPECIFIED.,.F.,.U.);
#144=EDGE_CURVE('',#52,#114,#143,.T.);
#145=ORIENTED_EDGE('',*,*,#144,.T.);
#146=ORIENTED_EDGE('',*,*,#131,.F.);
#147=CARTESIAN_POINT('',(16.199997000000099,-3.050000000000000,-0.449999999999900));
#148=CARTESIAN_POINT('',(16.199997000000099,3.050000000000000,-0.449999999999900));
#149=QUASI_UNIFORM_CURVE('',1,(#147,#148),.UNSPECIFIED.,.F.,.U.);
#150=EDGE_CURVE('',#59,#122,#149,.T.);
#151=ORIENTED_EDGE('',*,*,#150,.F.);
#152=ORIENTED_EDGE('',*,*,#63,.T.);
#153=EDGE_LOOP('',(#145,#146,#151,#152));
#154=FACE_OUTER_BOUND('',#153,.T.);
#155=ADVANCED_FACE('',(#154),#140,.F.);
#156=CARTESIAN_POINT('',(13.0,-36.622874917626753,6.949049963174314));
#157=CARTESIAN_POINT('',(13.0,10.122876057565581,6.949049963174314));
#158=CARTESIAN_POINT('',(13.0,-36.622874917626753,-13.949050472794029));
#159=CARTESIAN_POINT('',(13.0,10.122876057565581,-13.949050472794029));
#160=B_SPLINE_SURFACE_WITH_KNOTS('',1,1,((#156,#158),(#157,#159)),.UNSPECIFIED.,.F.,.F.,.U.,(2,2),(2,2),(0.0,46.745750975192337),(0.0,20.898100435968342),.UNSPECIFIED.);
#161=CARTESIAN_POINT('',(13.0,2.980740698408010,6.0));
#162=VERTEX_POINT('',#161);
#163=CARTESIAN_POINT('',(13.0,-29.480740698407999,6.0));
#164=VERTEX_POINT('',#163);
#165=CARTESIAN_POINT('',(13.0,2.980740698408010,6.0));
#166=CARTESIAN_POINT('',(13.0,-29.480740698407999,6.0));
#167=QUASI_UNIFORM_CURVE('',1,(#165,#166),.UNSPECIFIED.,.F.,.U.);
#168=EDGE_CURVE('',#162,#164,#167,.T.);
#169=ORIENTED_EDGE('',*,*,#168,.F.);
#170=CARTESIAN_POINT('',(13.0,2.980740698407860,-13.0));
#171=VERTEX_POINT('',#170);
#172=CARTESIAN_POINT('',(13.0,2.980740698407860,-13.0));
#173=CARTESIAN_POINT('',(13.000000000000002,8.0,-9.575945470348314));
#174=CARTESIAN_POINT('',(13.0,8.0,-3.499999999999901));
#175=CARTESIAN_POINT('',(13.000000000000002,8.0,2.575945470348361));
#176=CARTESIAN_POINT('',(13.0,2.980740698408011,5.999999999999995));
#184=(BOUNDED_CURVE()B_SPLINE_CURVE(2,(#172,#173,#174,#175,#176),.UNSPECIFIED.,.F.,.U.)B_SPLINE_CURVE_WITH_KNOTS((3,2,3),(0.0,0.500000000000000,1.0),.UNSPECIFIED.)CURVE()GEOMETRIC_REPRESENTATION_ITEM()RATIONAL_B_SPLINE_CURVE((1.0,0.884178338749250,1.0,0.884178338749250,1.0))REPRESENTATION_ITEM(''));
#185=EDGE_CURVE('',#171,#162,#184,.T.);
#186=ORIENTED_EDGE('',*,*,#185,.F.);
#187=CARTESIAN_POINT('',(13.0,-29.480740698407850,-13.0));
#188=VERTEX_POINT('',#187);
#189=CARTESIAN_POINT('',(13.0,-29.480740698407850,-13.0));
#190=CARTESIAN_POINT('',(13.0,2.980740698407860,-13.0));
#191=QUASI_UNIFORM_CURVE('',1,(#189,#190),.UNSPECIFIED.,.F.,.U.);
#192=EDGE_CURVE('',#188,#171,#191,.T.);
#193=ORIENTED_EDGE('',*,*,#192,.F.);
#194=CARTESIAN_POINT('',(13.0,-29.480740698407999,6.000000000000004));
#195=CARTESIAN_POINT('',(13.000000000000005,-34.499999999999993,2.575945470348370));
#196=CARTESIAN_POINT('',(13.0,-34.500000000000000,-3.499999999999901));
#197=CARTESIAN_POINT('',(13.000000000000005,-34.499999999999993,-9.575945470348321));
#198=CARTESIAN_POINT('',(13.0,-29.480740698407811,-12.999999999999940));
#206=(BOUNDED_CURVE()B_SPLINE_CURVE(2,(#194,#195,#196,#197,#198),.UNSPECIFIED.,.F.,.U.)B_SPLINE_CURVE_WITH_KNOTS((3,2,3),(0.0,0.500000000000000,1.0),.UNSPECIFIED.)CURVE()GEOMETRIC_REPRESENTATION_ITEM()RATIONAL_B_SPLINE_CURVE((1.0,0.884178338749254,1.0,0.884178338749254,1.0))REPRESENTATION_ITEM(''));
#207=EDGE_CURVE('',#164,#188,#206,.T.);
#208=ORIENTED_EDGE('',*,*,#207,.F.);
#209=EDGE_LOOP('',(#169,#186,#193,#208));
#210=FACE_OUTER_BOUND('',#209,.T.);
#211=ORIENTED_EDGE('',*,*,#118,.F.);
#212=ORIENTED_EDGE('',*,*,#144,.F.);
#213=ORIENTED_EDGE('',*,*,#56,.F.);
#214=ORIENTED_EDGE('',*,*,#90,.F.);
#215=EDGE_LOOP('',(#211,#212,#213,#214));
#216=FACE_BOUND('',#215,.T.);
#217=ADVANCED_FACE('',(#210,#216),#160,.T.);
#218=CARTESIAN_POINT('',(16.199997000000099,-36.622874917626753,6.949049963174314));
#219=CARTESIAN_POINT('',(16.199997000000099,10.122876057565581,6.949049963174314));
#220=CARTESIAN_POINT('',(16.199997000000099,-36.622874917626753,-13.949050472794029));
#221=CARTESIAN_POINT('',(16.199997000000099,10.122876057565581,-13.949050472794029));
#222=B_SPLINE_SURFACE_WITH_KNOTS('',1,1,((#218,#220),(#219,#221)),.UNSPECIFIED.,.F.,.F.,.U.,(2,2),(2,2),(0.0,46.745750975192337),(0.0,20.898100435968342),.UNSPECIFIED.);
#223=CARTESIAN_POINT('',(16.199997000000099,2.980740698408010,6.0));
#224=VERTEX_POINT('',#223);
#225=CARTESIAN_POINT('',(16.199997000000099,-29.480740698407999,6.0));
#226=VERTEX_POINT('',#225);
#227=CARTESIAN_POINT('',(16.199997000000099,2.980740698408010,6.0));
#228=CARTESIAN_POINT('',(16.199997000000099,-29.480740698407999,6.0));
#229=QUASI_UNIFORM_CURVE('',1,(#227,#228),.UNSPECIFIED.,.F.,.U.);
#230=EDGE_CURVE('',#224,#226,#229,.T.);
#231=ORIENTED_EDGE('',*,*,#230,.T.);
#232=CARTESIAN_POINT('',(16.199997000000099,-29.480740698407850,-13.0));
#233=VERTEX_POINT('',#232);
#234=CARTESIAN_POINT('',(16.199997000000099,-29.480740698407999,6.000000000000004));
#235=CARTESIAN_POINT('',(16.199997000000099,-34.499999999999993,2.575945470348370));
#236=CARTESIAN_POINT('',(16.199997000000099,-34.500000000000000,-3.499999999999901));
#237=CARTESIAN_POINT('',(16.199997000000099,-34.499999999999993,-9.575945470348321));
#238=CARTESIAN_POINT('',(16.199997000000099,-29.480740698407811,-12.999999999999940));
#246=(BOUNDED_CURVE()B_SPLINE_CURVE(2,(#234,#235,#236,#237,#238),.UNSPECIFIED.,.F.,.U.)B_SPLINE_CURVE_WITH_KNOTS((3,2,3),(0.0,0.500000000000000,1.0),.UNSPECIFIED.)CURVE()GEOMETRIC_REPRESENTATION_ITEM()RATIONAL_B_SPLINE_CURVE((1.0,0.884178338749254,1.0,0.884178338749254,1.0))REPRESENTATION_ITEM(''));
#247=EDGE_CURVE('',#226,#233,#246,.T.);
#248=ORIENTED_EDGE('',*,*,#247,.T.);
#249=CARTESIAN_POINT('',(16.199997000000099,2.980740698407860,-13.0));
#250=VERTEX_POINT('',#249);
#251=CARTESIAN_POINT('',(16.199997000000099,-29.480740698407850,-13.0));
#252=CARTESIAN_POINT('',(16.199997000000099,2.980740698407860,-13.0));
#253=QUASI_UNIFORM_CURVE('',1,(#251,#252),.UNSPECIFIED.,.F.,.U.);
#254=EDGE_CURVE('',#233,#250,#253,.T.);
#255=ORIENTED_EDGE('',*,*,#254,.T.);
#256=CARTESIAN_POINT('',(16.199997000000099,2.980740698407860,-13.0));
#257=CARTESIAN_POINT('',(16.199997000000099,8.0,-9.575945470348314));
#258=CARTESIAN_POINT('',(16.199997000000099,8.0,-3.499999999999901));
#259=CARTESIAN_POINT('',(16.199997000000099,8.0,2.575945470348361));
#260=CARTESIAN_POINT('',(16.199997000000099,2.980740698408011,5.999999999999995));
#268=(BOUNDED_CURVE()B_SPLINE_CURVE(2,(#256,#257,#258,#259,#260),.UNSPECIFIED.,.F.,.U.)B_SPLINE_CURVE_WITH_KNOTS((3,2,3),(0.0,0.500000000000000,1.0),.UNSPECIFIED.)CURVE()GEOMETRIC_REPRESENTATION_ITEM()RATIONAL_B_SPLINE_CURVE((1.0,0.884178338749250,1.0,0.884178338749250,1.0))REPRESENTATION_ITEM(''));
#269=EDGE_CURVE('',#250,#224,#268,.T.);
#270=ORIENTED_EDGE('',*,*,#269,.T.);
#271=EDGE_LOOP('',(#231,#248,#255,#270));
#272=FACE_OUTER_BOUND('',#271,.T.);
#273=ORIENTED_EDGE('',*,*,#150,.T.);
#274=ORIENTED_EDGE('',*,*,#126,.T.);
#275=ORIENTED_EDGE('',*,*,#98,.T.);
#276=ORIENTED_EDGE('',*,*,#70,.T.);
#277=EDGE_LOOP('',(#273,#274,#275,#276));
#278=FACE_BOUND('',#277,.T.);
#279=ADVANCED_FACE('',(#272,#278),#222,.F.);
#280=CARTESIAN_POINT('',(16.279996925000109,2.627881387222438,-13.231344701742451));
#281=CARTESIAN_POINT('',(12.918000076875000,2.627881387222438,-13.231344701742451));
#282=CARTESIAN_POINT('',(16.279996925000109,18.823558710012975,-3.032837438710520));
#283=CARTESIAN_POINT('',(12.918000076874996,18.823558710012975,-3.032837438710520));
#284=CARTESIAN_POINT('',(16.279996925000109,2.215401328258168,6.479187725308442));
#285=CARTESIAN_POINT('',(12.918000076875000,2.215401328258168,6.479187725308442));
#293=(BOUNDED_SURFACE()B_SPLINE_SURFACE(1,2,((#280,#282,#284),(#281,#283,#285)),.UNSPECIFIED.,.F.,.F.,.U.)B_SPLINE_SURFACE_WITH_KNOTS((2,2),(3,3),(0.0,3.361996848125113),(0.0,26.025547796637419),.UNSPECIFIED.)GEOMETRIC_REPRESENTATION_ITEM()RATIONAL_B_SPLINE_SURFACE(((1.0,0.515038074910054,1.0),(1.0,0.515038074910054,1.0)))REPRESENTATION_ITEM('')SURFACE());
#294=ORIENTED_EDGE('',*,*,#185,.T.);
#295=CARTESIAN_POINT('',(16.199997000000099,2.980740698408010,6.0));
#296=CARTESIAN_POINT('',(13.0,2.980740698408010,6.0));
#297=QUASI_UNIFORM_CURVE('',1,(#295,#296),.UNSPECIFIED.,.F.,.U.);
#298=EDGE_CURVE('',#224,#162,#297,.T.);
#299=ORIENTED_EDGE('',*,*,#298,.F.);
#300=ORIENTED_EDGE('',*,*,#269,.F.);
#301=CARTESIAN_POINT('',(16.199997000000099,2.980740698407860,-13.0));
#302=CARTESIAN_POINT('',(13.0,2.980740698407860,-13.0));
#303=QUASI_UNIFORM_CURVE('',1,(#301,#302),.UNSPECIFIED.,.F.,.U.);
#304=EDGE_CURVE('',#250,#171,#303,.T.);
#305=ORIENTED_EDGE('',*,*,#304,.T.);
#306=EDGE_LOOP('',(#294,#299,#300,#305));
#307=FACE_OUTER_BOUND('',#306,.T.);
#308=ADVANCED_FACE('',(#307),#293,.T.);
#309=CARTESIAN_POINT('',(12.840160167484850,4.602191935987317,-13.0));
#310=CARTESIAN_POINT('',(12.840160167484850,-31.102192516443829,-13.0));
#311=CARTESIAN_POINT('',(16.359836689464249,4.602191935987317,-13.0));
#312=CARTESIAN_POINT('',(16.359836689464249,-31.102192516443829,-13.0));
#313=B_SPLINE_SURFACE_WITH_KNOTS('',1,1,((#309,#311),(#310,#312)),.UNSPECIFIED.,.F.,.F.,.U.,(2,2),(2,2),(0.0,35.704384452431142),(0.0,3.519676521979401),.UNSPECIFIED.);
#314=ORIENTED_EDGE('',*,*,#192,.T.);
#315=ORIENTED_EDGE('',*,*,#304,.F.);
#316=ORIENTED_EDGE('',*,*,#254,.F.);
#317=CARTESIAN_POINT('',(16.199997000000099,-29.480740698407850,-13.0));
#318=CARTESIAN_POINT('',(13.0,-29.480740698407850,-13.0));
#319=QUASI_UNIFORM_CURVE('',1,(#317,#318),.UNSPECIFIED.,.F.,.U.);
#320=EDGE_CURVE('',#233,#188,#319,.T.);
#321=ORIENTED_EDGE('',*,*,#320,.T.);
#322=EDGE_LOOP('',(#314,#315,#316,#321));
#323=FACE_OUTER_BOUND('',#322,.T.);
#324=ADVANCED_FACE('',(#323),#313,.F.);
#325=CARTESIAN_POINT('',(16.279996925000109,-29.397591844425762,6.056192682870035));
#326=CARTESIAN_POINT('',(12.918000076875000,-29.397591844425762,6.056192682870035));
#327=CARTESIAN_POINT('',(16.279996925000106,-44.397809670882395,-3.986014963609555));
#328=CARTESIAN_POINT('',(12.918000076874996,-44.397809670882395,-3.986014963609555));
#329=CARTESIAN_POINT('',(16.279996925000109,-28.957112698289990,-13.336808847378810));
#330=CARTESIAN_POINT('',(12.918000076875000,-28.957112698289990,-13.336808847378810));
#338=(BOUNDED_SURFACE()B_SPLINE_SURFACE(1,2,((#325,#327,#329),(#326,#328,#330)),.UNSPECIFIED.,.F.,.F.,.U.)B_SPLINE_SURFACE_WITH_KNOTS((2,2),(3,3),(0.0,3.361996848125110),(0.0,25.236464184826691),.UNSPECIFIED.)GEOMETRIC_REPRESENTATION_ITEM()RATIONAL_B_SPLINE_SURFACE(((1.0,0.537299608346824,1.0),(1.0,0.537299608346824,1.0)))REPRESENTATION_ITEM('')SURFACE());
#339=ORIENTED_EDGE('',*,*,#207,.T.);
#340=ORIENTED_EDGE('',*,*,#320,.F.);
#341=ORIENTED_EDGE('',*,*,#247,.F.);
#342=CARTESIAN_POINT('',(16.199997000000099,-29.480740698407999,6.0));
#343=CARTESIAN_POINT('',(13.0,-29.480740698407999,6.0));
#344=QUASI_UNIFORM_CURVE('',1,(#342,#343),.UNSPECIFIED.,.F.,.U.);
#345=EDGE_CURVE('',#226,#164,#344,.T.);
#346=ORIENTED_EDGE('',*,*,#345,.T.);
#347=EDGE_LOOP('',(#339,#340,#341,#346));
#348=FACE_OUTER_BOUND('',#347,.T.);
#349=ADVANCED_FACE('',(#348),#338,.T.);
#350=CARTESIAN_POINT('',(12.840160167484850,-31.102192545437799,6.0));
#351=CARTESIAN_POINT('',(12.840160167484850,4.602192545437804,6.0));
#352=CARTESIAN_POINT('',(16.359836689464249,-31.102192545437799,6.0));
#353=CARTESIAN_POINT('',(16.359836689464249,4.602192545437804,6.0));
#354=B_SPLINE_SURFACE_WITH_KNOTS('',1,1,((#350,#352),(#351,#353)),.UNSPECIFIED.,.F.,.F.,.U.,(2,2),(2,2),(0.0,35.704385090875597),(0.0,3.519676521979399),.UNSPECIFIED.);
#355=ORIENTED_EDGE('',*,*,#168,.T.);
#356=ORIENTED_EDGE('',*,*,#345,.F.);
#357=ORIENTED_EDGE('',*,*,#230,.F.);
#358=ORIENTED_EDGE('',*,*,#298,.T.);
#359=EDGE_LOOP('',(#355,#356,#357,#358));
#360=FACE_OUTER_BOUND('',#359,.T.);
#361=ADVANCED_FACE('',(#360),#354,.F.);
#362=CLOSED_SHELL('',(#79,#107,#135,#155,#217,#279,#308,#324,#349,#361));
#363=MANIFOLD_SOLID_BREP('cam',#362);
#369=(NAMED_UNIT(*)PLANE_ANGLE_UNIT()SI_UNIT($,.RADIAN.));
#370=DIMENSIONAL_EXPONENTS(0.0,0.0,0.0,0.0,0.0,0.0,0.0);
#371=PLANE_ANGLE_MEASURE_WITH_UNIT(PLANE_ANGLE_MEASURE(0.017453292500000),#369);
#375=(CONVERSION_BASED_UNIT('DEGREE',#371)NAMED_UNIT(#370)PLANE_ANGLE_UNIT());
#379=(NAMED_UNIT(*)SI_UNIT($,.STERADIAN.)SOLID_ANGLE_UNIT());
#383=(LENGTH_UNIT()NAMED_UNIT(*)SI_UNIT(.MILLI.,.METRE.));
#385=UNCERTAINTY_MEASURE_WITH_UNIT(LENGTH_MEASURE(0.001000000000000),#383,'DISTANCE_ACCURACY_VALUE','');
#387=(GEOMETRIC_REPRESENTATION_CONTEXT(3)GLOBAL_UNCERTAINTY_ASSIGNED_CONTEXT((#385))GLOBAL_UNIT_ASSIGNED_CONTEXT((#375,#379,#383))REPRESENTATION_CONTEXT('','3D'));
ENDSEC;
END-ISO-10303-21;
