  0
SECTION
  2
HEADER
  9
$ACADVER
  1
AC1015
  9
$ACADMAINTVER
 70
    20
  9
$DWGCODEPAGE
  3
ANSI_932
  9
$INSBASE
 10
0.0
 20
0.0
 30
0.0
  9
$EXTMIN
 10
9.695657999999999
 20
9.999999999999998
 30
0.0
  9
$EXTMAX
 10
364.9379609999999
 20
238.598118
 30
0.0
  9
$LIMMIN
 10
0.0
 20
0.0
  9
$LIMMAX
 10
396.0
 20
273.0
  9
$ORTHOMODE
 70
     1
  9
$REGENMODE
 70
     1
  9
$FILLMODE
 70
     1
  9
$QTEXTMODE
 70
     0
  9
$MIRRTEXT
 70
     1
  9
$LTSCALE
 40
20.0
  9
$ATTMODE
 70
     1
  9
$TEXTSIZE
 40
5.0
  9
$TRACEWID
 40
1.0
  9
$TEXTSTYLE
  7
STANDARD
  9
$CLAYER
  8
0
  9
$CELTYPE
  6
BYLAYER
  9
$CECOLOR
 62
   256
  9
$CELTSCALE
 40
1.0
  9
$DISPSILH
 70
     0
  9
$DIMSCALE
 40
1.0
  9
$DIMASZ
 40
3.0
  9
$DIMEXO
 40
1.0
  9
$DIMDLI
 40
10.0
  9
$DIMRND
 40
0.0
  9
$DIMDLE
 40
0.0
  9
$DIMEXE
 40
1.0
  9
$DIMTP
 40
0.0
  9
$DIMTM
 40
0.0
  9
$DIMTXT
 40
3.2
  9
$DIMCEN
 40
0.0
  9
$DIMTSZ
 40
0.0
  9
$DIMTOL
 70
     0
  9
$DIMLIM
 70
     0
  9
$DIMTIH
 70
     0
  9
$DIMTOH
 70
     0
  9
$DIMSE1
 70
     0
  9
$DIMSE2
 70
     0
  9
$DIMTAD
 70
     3
  9
$DIMZIN
 70
     8
  9
$DIMBLK
  1

  9
$DIMASO
 70
     1
  9
$DIMSHO
 70
     1
  9
$DIMPOST
  1

  9
$DIMAPOST
  1

  9
$DIMALT
 70
     0
  9
$DIMALTD
 70
     2
  9
$DIMALTF
 40
25.4
  9
$DIMLFAC
 40
1.0
  9
$DIMTOFL
 70
     1
  9
$DIMTVP
 40
0.0
  9
$DIMTIX
 70
     0
  9
$DIMSOXD
 70
     0
  9
$DIMSAH
 70
     1
  9
$DIMBLK1
  1

  9
$DIMBLK2
  1

  9
$DIMSTYLE
  2
STANDARD
  9
$DIMCLRD
 70
     0
  9
$DIMCLRE
 70
     0
  9
$DIMCLRT
 70
     0
  9
$DIMTFAC
 40
1.0
  9
$DIMGAP
 40
1.0
  9
$DIMJUST
 70
     0
  9
$DIMSD1
 70
     0
  9
$DIMSD2
 70
     0
  9
$DIMTOLJ
 70
     1
  9
$DIMTZIN
 70
     0
  9
$DIMALTZ
 70
     0
  9
$DIMALTTZ
 70
     0
  9
$DIMUPT
 70
     0
  9
$DIMDEC
 70
     4
  9
$DIMTDEC
 70
     4
  9
$DIMALTU
 70
     2
  9
$DIMALTTD
 70
     2
  9
$DIMTXSTY
  7
STANDARD
  9
$DIMAUNIT
 70
     0
  9
$DIMADEC
 70
     0
  9
$DIMALTRND
 40
0.0
  9
$DIMAZIN
 70
     0
  9
$DIMDSEP
 70
    46
  9
$DIMATFIT
 70
     3
  9
$DIMFRAC
 70
     0
  9
$DIMLDRBLK
  1

  9
$DIMLUNIT
 70
     2
  9
$DIMLWD
 70
    -2
  9
$DIMLWE
 70
    -2
  9
$DIMTMOVE
 70
     0
  9
$LUNITS
 70
     2
  9
$LUPREC
 70
     4
  9
$SKETCHINC
 40
1.0
  9
$FILLETRAD
 40
2.5
  9
$AUNITS
 70
     0
  9
$AUPREC
 70
     2
  9
$MENU
  1
.
  9
$ELEVATION
 40
0.0
  9
$PELEVATION
 40
0.0
  9
$THICKNESS
 40
0.0
  9
$LIMCHECK
 70
     0
  9
$CHAMFERA
 40
10.0
  9
$CHAMFERB
 40
10.0
  9
$CHAMFERC
 40
0.0
  9
$CHAMFERD
 40
0.0
  9
$SKPOLY
 70
     0
  9
$TDCREATE
 40
2450945.562183334
  9
$TDUCREATE
 40
2450945.187183334
  9
$TDUPDATE
 40
2457192.598945752
  9
$TDUUPDATE
 40
2457192.223945753
  9
$TDINDWG
 40
0.0000146296
  9
$TDUSRTIMER
 40
0.0000143171
  9
$USRTIMER
 70
     1
  9
$ANGBASE
 50
0.0
  9
$ANGDIR
 70
     0
  9
$PDMODE
 70
     0
  9
$PDSIZE
 40
0.0
  9
$PLINEWID
 40
0.0
  9
$SPLFRAME
 70
     0
  9
$SPLINETYPE
 70
     6
  9
$SPLINESEGS
 70
     8
  9
$HANDSEED
  5
9A61
  9
$SURFTAB1
 70
     6
  9
$SURFTAB2
 70
     6
  9
$SURFTYPE
 70
     6
  9
$SURFU
 70
     6
  9
$SURFV
 70
     6
  9
$UCSBASE
  2

  9
$UCSNAME
  2

  9
$UCSORG
 10
0.0
 20
0.0
 30
0.0
  9
$UCSXDIR
 10
1.0
 20
0.0
 30
0.0
  9
$UCSYDIR
 10
0.0
 20
1.0
 30
0.0
  9
$UCSORTHOREF
  2

  9
$UCSORTHOVIEW
 70
     0
  9
$UCSORGTOP
 10
0.0
 20
0.0
 30
0.0
  9
$UCSORGBOTTOM
 10
0.0
 20
0.0
 30
0.0
  9
$UCSORGLEFT
 10
0.0
 20
0.0
 30
0.0
  9
$UCSORGRIGHT
 10
0.0
 20
0.0
 30
0.0
  9
$UCSORGFRONT
 10
0.0
 20
0.0
 30
0.0
  9
$UCSORGBACK
 10
0.0
 20
0.0
 30
0.0
  9
$PUCSBASE
  2

  9
$PUCSNAME
  2

  9
$PUCSORG
 10
0.0
 20
0.0
 30
0.0
  9
$PUCSXDIR
 10
1.0
 20
0.0
 30
0.0
  9
$PUCSYDIR
 10
0.0
 20
1.0
 30
0.0
  9
$PUCSORTHOREF
  2

  9
$PUCSORTHOVIEW
 70
     0
  9
$PUCSORGTOP
 10
0.0
 20
0.0
 30
0.0
  9
$PUCSORGBOTTOM
 10
0.0
 20
0.0
 30
0.0
  9
$PUCSORGLEFT
 10
0.0
 20
0.0
 30
0.0
  9
$PUCSORGRIGHT
 10
0.0
 20
0.0
 30
0.0
  9
$PUCSORGFRONT
 10
0.0
 20
0.0
 30
0.0
  9
$PUCSORGBACK
 10
0.0
 20
0.0
 30
0.0
  9
$USERI1
 70
     0
  9
$USERI2
 70
     0
  9
$USERI3
 70
     0
  9
$USERI4
 70
     0
  9
$USERI5
 70
     0
  9
$USERR1
 40
0.0
  9
$USERR2
 40
0.0
  9
$USERR3
 40
0.0
  9
$USERR4
 40
0.0
  9
$USERR5
 40
0.0
  9
$WORLDVIEW
 70
     1
  9
$SHADEDGE
 70
     3
  9
$SHADEDIF
 70
    70
  9
$TILEMODE
 70
     1
  9
$MAXACTVP
 70
    16
  9
$PINSBASE
 10
0.0
 20
0.0
 30
0.0
  9
$PLIMCHECK
 70
     0
  9
$PEXTMIN
 10
1.000000000000000E+20
 20
1.000000000000000E+20
 30
1.000000000000000E+20
  9
$PEXTMAX
 10
-1.000000000000000E+20
 20
-1.000000000000000E+20
 30
-1.000000000000000E+20
  9
$PLIMMIN
 10
0.0
 20
0.0
  9
$PLIMMAX
 10
420.0
 20
297.0
  9
$UNITMODE
 70
     0
  9
$VISRETAIN
 70
     0
  9
$PLINEGEN
 70
     0
  9
$PSLTSCALE
 70
     0
  9
$TREEDEPTH
 70
  3020
  9
$CMLSTYLE
  2
STANDARD
  9
$CMLJUST
 70
     0
  9
$CMLSCALE
 40
1.0
  9
$PROXYGRAPHICS
 70
     1
  9
$MEASUREMENT
 70
     0
  9
$CELWEIGHT
370
    -1
  9
$ENDCAPS
280
     0
  9
$JOINSTYLE
280
     0
  9
$LWDISPLAY
290
     0
  9
$INSUNITS
 70
     0
  9
$HYPERLINKBASE
  1

  9
$STYLESHEET
  1

  9
$XEDIT
290
     1
  9
$CEPSNTYPE
380
     0
  9
$PSTYLEMODE
290
     1
  9
$FINGERPRINTGUID
  2
{EA83CB47-4A6D-4F87-B753-45AA96D5E811}
  9
$VERSIONGUID
  2
{AB049348-B1F1-4EA0-B65F-B3B8E363AAFD}
  9
$EXTNAMES
290
     1
  9
$PSVPSCALE
 40
0.0
  9
$OLESTARTUP
290
     0
  0
ENDSEC
  0
SECTION
  2
CLASSES
  0
CLASS
  1
ACDBDICTIONARYWDFLT
  2
AcDbDictionaryWithDefault
  3
ObjectDBX Classes
 90
        0
280
     0
281
     0
  0
CLASS
  1
ACDBPLACEHOLDER
  2
AcDbPlaceHolder
  3
ObjectDBX Classes
 90
        0
280
     0
281
     0
  0
CLASS
  1
LAYOUT
  2
AcDbLayout
  3
ObjectDBX Classes
 90
        0
280
     0
281
     0
  0
CLASS
  1
DICTIONARYVAR
  2
AcDbDictionaryVar
  3
ObjectDBX Classes
 90
        0
280
     0
281
     0
  0
CLASS
  1
MATERIAL
  2
AcDbMaterial
  3
ObjectDBX Classes
 90
     1153
280
     0
281
     0
  0
CLASS
  1
VISUALSTYLE
  2
AcDbVisualStyle
  3
ObjectDBX Classes
 90
     4095
280
     0
281
     0
  0
CLASS
  1
TABLESTYLE
  2
AcDbTableStyle
  3
ObjectDBX Classes
 90
     4095
280
     0
281
     0
  0
CLASS
  1
SCALE
  2
AcDbScale
  3
ObjectDBX Classes
 90
     1153
280
     0
281
     0
  0
CLASS
  1
MLEADERSTYLE
  2
AcDbMLeaderStyle
  3
ACDB_MLEADERSTYLE_CLASS
 90
     4095
280
     0
281
     0
  0
CLASS
  1
ACDBSECTIONVIEWSTYLE
  2
AcDbSectionViewStyle
  3
ObjectDBX Classes
 90
     1025
280
     0
281
     0
  0
CLASS
  1
ACDBDETAILVIEWSTYLE
  2
AcDbDetailViewStyle
  3
ObjectDBX Classes
 90
     1025
280
     0
281
     0
  0
CLASS
  1
CELLSTYLEMAP
  2
AcDbCellStyleMap
  3
ObjectDBX Classes
 90
     1152
280
     0
281
     0
  0
ENDSEC
  0
SECTION
  2
TABLES
  0
TABLE
  2
VPORT
  5
971B
330
0
100
AcDbSymbolTable
 70
     1
  0
VPORT
  5
99AA
330
971B
100
AcDbSymbolTableRecord
100
AcDbViewportTableRecord
  2
*ACTIVE
 70
     0
 10
0.0
 20
0.0
 11
1.0
 21
1.0
 12
256.5620149533979
 22
124.2946478382155
 13
0.0
 23
0.0
 14
10.0
 24
10.0
 15
10.0
 25
10.0
 16
0.0
 26
0.0
 36
1.0
 17
0.0
 27
0.0
 37
0.0
 40
231.1677189107069
 41
1.899603698811096
 42
50.0
 43
0.0
 44
0.0
 50
0.0
 51
0.0
 71
     0
 72
   100
 73
     1
 74
     0
 75
     0
 76
     0
 77
     0
 78
     0
281
     0
 65
     1
110
0.0
120
0.0
130
0.0
111
1.0
121
0.0
131
0.0
112
0.0
122
1.0
132
0.0
 79
     0
146
0.0
1001
ACAD_NAV_VCDISPLAY
1070
     3
  0
ENDTAB
  0
TABLE
  2
LTYPE
  5
9718
330
0
100
AcDbSymbolTable
 70
     4
  0
LTYPE
  5
9726
330
9718
100
AcDbSymbolTableRecord
100
AcDbLinetypeTableRecord
  2
BYBLOCK
 70
     0
  3

 72
    65
 73
     0
 40
0.0
  0
LTYPE
  5
9727
330
9718
100
AcDbSymbolTableRecord
100
AcDbLinetypeTableRecord
  2
BYLAYER
 70
     0
  3

 72
    65
 73
     0
 40
0.0
  0
LTYPE
  5
9728
330
9718
100
AcDbSymbolTableRecord
100
AcDbLinetypeTableRecord
  2
CONTINUOUS
 70
     0
  3
Solid line
 72
    65
 73
     0
 40
0.0
  0
LTYPE
  5
9736
330
9718
100
AcDbSymbolTableRecord
100
AcDbLinetypeTableRecord
  2
DASHED
 70
     0
  3
__ __ __ __ __ __ __ __ __ __ __ __ __ __ __ __
 72
    65
 73
     2
 40
0.75
 49
0.5
 74
     0
 49
-0.25
 74
     0
  0
LTYPE
  5
9737
330
9718
100
AcDbSymbolTableRecord
100
AcDbLinetypeTableRecord
  2
CENTER
 70
     0
  3
____ _ ____ _ ____ _ ____ _ ____ _ ____ _ ____ 
 72
    65
 73
     4
 40
2.0
 49
1.25
 74
     0
 49
-0.25
 74
     0
 49
0.25
 74
     0
 49
-0.25
 74
     0
  0
LTYPE
  5
9738
330
9718
100
AcDbSymbolTableRecord
100
AcDbLinetypeTableRecord
  2
PHANTOM
 70
     0
  3
______  __  __  ______  __  __  ______  __  __ 
 72
    65
 73
     6
 40
2.5
 49
1.25
 74
     0
 49
-0.25
 74
     0
 49
0.25
 74
     0
 49
-0.25
 74
     0
 49
0.25
 74
     0
 49
-0.25
 74
     0
  0
ENDTAB
  0
TABLE
  2
LAYER
  5
9715
330
0
100
AcDbSymbolTable
 70
     8
  0
LAYER
  5
9723
102
{ACAD_XDICTIONARY
360
9A05
102
}
330
9715
100
AcDbSymbolTableRecord
100
AcDbLayerTableRecord
  2
0
 70
     0
 62
     7
  6
CONTINUOUS
370
    -3
390
99B3
  0
LAYER
  5
9739
102
{ACAD_XDICTIONARY
360
9A07
102
}
330
9715
100
AcDbSymbolTableRecord
100
AcDbLayerTableRecord
  2
4
 70
     0
 62
     1
  6
CENTER
370
    -3
390
99B3
  0
LAYER
  5
973A
102
{ACAD_XDICTIONARY
360
9A09
102
}
330
9715
100
AcDbSymbolTableRecord
100
AcDbLayerTableRecord
  2
5
 70
     0
 62
     6
  6
PHANTOM
370
    -3
390
99B3
  0
LAYER
  5
973B
102
{ACAD_XDICTIONARY
360
9A0B
102
}
330
9715
100
AcDbSymbolTableRecord
100
AcDbLayerTableRecord
  2
1
 70
     0
 62
     7
  6
CONTINUOUS
370
    -3
390
99B3
  0
LAYER
  5
973C
102
{ACAD_XDICTIONARY
360
9A0D
102
}
330
9715
100
AcDbSymbolTableRecord
100
AcDbLayerTableRecord
  2
2
 70
     0
 62
     4
  6
CONTINUOUS
370
    -3
390
99B3
  0
LAYER
  5
973D
102
{ACAD_XDICTIONARY
360
9A0F
102
}
330
9715
100
AcDbSymbolTableRecord
100
AcDbLayerTableRecord
  2
3
 70
     0
 62
     2
  6
DASHED
370
    -3
390
99B3
  0
LAYER
  5
973E
102
{ACAD_XDICTIONARY
360
9A11
102
}
330
9715
100
AcDbSymbolTableRecord
100
AcDbLayerTableRecord
  2
6
 70
     0
 62
     5
  6
CONTINUOUS
370
    -3
390
99B3
  0
LAYER
  5
973F
102
{ACAD_XDICTIONARY
360
9A13
102
}
330
9715
100
AcDbSymbolTableRecord
100
AcDbLayerTableRecord
  2
7
 70
     0
 62
     3
  6
CONTINUOUS
370
    -3
390
99B3
  0
ENDTAB
  0
TABLE
  2
STYLE
  5
9716
330
0
100
AcDbSymbolTable
 70
     1
  0
STYLE
  5
9724
330
9716
100
AcDbSymbolTableRecord
100
AcDbTextStyleTableRecord
  2
STANDARD
 70
     0
 40
0.0
 41
1.0
 50
0.0
 71
     0
 42
5.0
  3
txt
  4

  0
ENDTAB
  0
TABLE
  2
VIEW
  5
9719
330
0
100
AcDbSymbolTable
 70
     0
  0
ENDTAB
  0
TABLE
  2
UCS
  5
971A
330
0
100
AcDbSymbolTable
 70
     0
  0
ENDTAB
  0
TABLE
  2
APPID
  5
971C
330
0
100
AcDbSymbolTable
 70
     3
  0
APPID
  5
9725
330
971C
100
AcDbSymbolTableRecord
100
AcDbRegAppTableRecord
  2
ACAD
 70
     0
  0
APPID
  5
9A1F
330
971C
100
AcDbSymbolTableRecord
100
AcDbRegAppTableRecord
  2
ACAD_NAV_VCDISPLAY
 70
     0
  0
APPID
  5
9A58
330
971C
100
AcDbSymbolTableRecord
100
AcDbRegAppTableRecord
  2
ACAD_MLEADERVER
 70
     0
  0
ENDTAB
  0
TABLE
  2
DIMSTYLE
  5
971D
330
0
100
AcDbSymbolTable
 70
     1
100
AcDbDimStyleTable
 71
     0
  0
DIMSTYLE
105
9741
330
971D
100
AcDbSymbolTableRecord
100
AcDbDimStyleTableRecord
  2
STANDARD
 70
     0
 41
3.0
 42
1.0
 43
10.0
 44
1.0
 73
     0
 74
     0
 77
     3
 78
     8
140
3.2
141
0.0
147
1.0
172
     1
173
     1
284
     8
285
     8
286
     8
340
9724
  0
ENDTAB
  0
TABLE
  2
BLOCK_RECORD
  5
9714
330
0
100
AcDbSymbolTable
 70
     0
  0
BLOCK_RECORD
  5
9731
102
{ACAD_XDICTIONARY
360
99AD
102
}
330
9714
100
AcDbSymbolTableRecord
100
AcDbBlockTableRecord
  2
*MODEL_SPACE
340
9A01
  0
BLOCK_RECORD
  5
972D
102
{ACAD_XDICTIONARY
360
99AB
102
}
330
9714
100
AcDbSymbolTableRecord
100
AcDbBlockTableRecord
  2
*PAPER_SPACE
340
9A02
  0
ENDTAB
  0
ENDSEC
  0
SECTION
  2
BLOCKS
  0
BLOCK
  5
9732
330
9731
100
AcDbEntity
  8
0
100
AcDbBlockBegin
  2
*MODEL_SPACE
 70
     0
 10
0.0
 20
0.0
 30
0.0
  3
*MODEL_SPACE
  1

  0
ENDBLK
  5
9733
330
9731
100
AcDbEntity
  8
0
100
AcDbBlockEnd
  0
BLOCK
  5
972E
330
972D
100
AcDbEntity
 67
     1
  8
0
100
AcDbBlockBegin
  2
*PAPER_SPACE
 70
     0
 10
0.0
 20
0.0
 30
0.0
  3
*PAPER_SPACE
  1

  0
ENDBLK
  5
972F
330
972D
100
AcDbEntity
 67
     1
  8
0
100
AcDbBlockEnd
  0
ENDSEC
  0
SECTION
  2
ENTITIES
  0
TEXT
  5
9749
330
9731
100
AcDbEntity
  8
7
  6
Continuous
100
AcDbText
 10
10.0
 20
18.0
 30
0.0
 40
3.0
  1
TYPE No.TL-142-1
100
AcDbText
  0
TEXT
  5
974A
330
9731
100
AcDbEntity
  8
7
  6
Continuous
100
AcDbText
 10
10.0
 20
26.0
 30
0.0
 40
3.0
  1
CODE No.1484
100
AcDbText
  0
TEXT
  5
974B
330
9731
100
AcDbEntity
  8
1
  6
Continuous
100
AcDbText
 10
10.0
 20
10.0
 30
0.0
 40
1.399999999999999
  1
LAYER
100
AcDbText
  0
TEXT
  5
974C
330
9731
100
AcDbEntity
  8
1
  6
Continuous
100
AcDbText
 10
17.97951099999998
 20
10.04873699999998
 30
0.0
 40
1.399999999999999
  1
1
100
AcDbText
  0
TEXT
  5
974D
330
9731
100
AcDbEntity
  8
7
  6
Continuous
100
AcDbText
 10
29.97951099999999
 20
10.04873699999998
 30
0.0
 40
1.399999999999999
  1
7
100
AcDbText
  0
TEXT
  5
974E
330
9731
100
AcDbEntity
  8
4
  6
CENTER
100
AcDbText
 10
23.97951099999999
 20
10.04873699999998
 30
0.0
 40
1.399999999999999
  1
4
100
AcDbText
  0
TEXT
  5
974F
330
9731
100
AcDbEntity
  8
3
  6
DASHED
100
AcDbText
 10
21.979511
 20
10.04873699999998
 30
0.0
 40
1.399999999999999
  1
3
100
AcDbText
  0
TEXT
  5
9750
330
9731
100
AcDbEntity
  8
2
  6
Continuous
100
AcDbText
 10
19.97951099999999
 20
10.04873699999998
 30
0.0
 40
1.399999999999999
  1
2
100
AcDbText
  0
TEXT
  5
9751
330
9731
100
AcDbEntity
  8
6
  6
Continuous
100
AcDbText
 10
27.979511
 20
10.04873699999998
 30
0.0
 40
1.399999999999999
  1
6
100
AcDbText
  0
TEXT
  5
9752
330
9731
100
AcDbEntity
  8
5
  6
PHANTOM
100
AcDbText
 10
25.97951099999999
 20
10.04873699999998
 30
0.0
 40
1.399999999999999
  1
5
100
AcDbText
  0
LINE
  5
9753
330
9731
100
AcDbEntity
  8
1
  6
Continuous
100
AcDbLine
 10
57.446476
 20
224.098118
 30
0.0
 11
35.946476
 21
224.098118
 31
0.0
  0
LINE
  5
9754
330
9731
100
AcDbEntity
  8
1
  6
Continuous
100
AcDbLine
 10
35.946476
 20
224.098118
 30
0.0
 11
35.946476
 21
228.598118
 31
0.0
  0
LINE
  5
9755
330
9731
100
AcDbEntity
  8
1
  6
Continuous
100
AcDbLine
 10
35.946476
 20
228.598118
 30
0.0
 11
40.446476
 21
228.598118
 31
0.0
  0
LINE
  5
9756
330
9731
100
AcDbEntity
  8
4
  6
CENTER
100
AcDbLine
 10
32.94647599999999
 20
111.1492499999999
 30
0.0
 11
32.94647599999999
 21
159.1152199999999
 31
0.0
  0
LINE
  5
9757
330
9731
100
AcDbEntity
  8
4
  6
CENTER
100
AcDbLine
 10
30.946476
 20
150.8629029999999
 30
0.0
 11
30.946476
 21
144.8963809999999
 31
0.0
  0
LINE
  5
9758
330
9731
100
AcDbEntity
  8
4
  6
CENTER
100
AcDbLine
 10
33.669651
 20
148.011753
 30
0.0
 11
28.132225
 21
148.011753
 31
0.0
  0
LINE
  5
9759
330
9731
100
AcDbEntity
  8
4
  6
CENTER
100
AcDbLine
 10
37.792301
 20
148.011753
 30
0.0
 11
43.190578
 21
148.011753
 31
0.0
  0
LINE
  5
975A
330
9731
100
AcDbEntity
  8
4
  6
CENTER
100
AcDbLine
 10
40.446476
 20
150.8629029999999
 30
0.0
 11
40.446476
 21
144.8963809999999
 31
0.0
  0
LINE
  5
975B
330
9731
100
AcDbEntity
  8
4
  6
CENTER
100
AcDbLine
 10
35.60878699999999
 20
127.5117529999999
 30
0.0
 11
30.221031
 21
127.5117529999999
 31
0.0
  0
LINE
  5
975C
330
9731
100
AcDbEntity
  8
4
  6
CENTER
100
AcDbLine
 10
15.54878399999999
 20
129.7117499999999
 30
0.0
 11
51.151462
 21
129.7117499999999
 31
0.0
  0
LINE
  5
975D
330
9731
100
AcDbEntity
  8
1
  6
Continuous
100
AcDbLine
 10
43.446476
 20
118.71175
 30
0.0
 11
39.874679
 21
118.71175
 31
0.0
  0
LINE
  5
975E
330
9731
100
AcDbEntity
  8
1
  6
Continuous
100
AcDbLine
 10
45.946476
 20
121.2117499999999
 30
0.0
 11
45.946476
 21
155.51175
 31
0.0
  0
LINE
  5
975F
330
9731
100
AcDbEntity
  8
1
  6
Continuous
100
AcDbLine
 10
45.946476
 20
155.51175
 30
0.0
 11
27.087181
 21
155.51175
 31
0.0
  0
LINE
  5
9760
330
9731
100
AcDbEntity
  8
1
  6
Continuous
100
AcDbLine
 10
26.946476
 20
155.51175
 30
0.0
 11
26.946476
 21
154.2117499999999
 31
0.0
  0
LINE
  5
9761
330
9731
100
AcDbEntity
  8
1
  6
Continuous
100
AcDbLine
 10
24.446476
 20
154.2117499999999
 30
0.0
 11
43.446476
 21
154.2117499999999
 31
0.0
  0
LINE
  5
9762
330
9731
100
AcDbEntity
  8
1
  6
Continuous
100
AcDbLine
 10
42.698143
 20
149.3117559999998
 30
0.0
 11
42.698143
 21
146.71175
 31
0.0
  0
LINE
  5
9763
330
9731
100
AcDbEntity
  8
1
  6
Continuous
100
AcDbLine
 10
42.698147
 20
146.71175
 30
0.0
 11
40.446476
 21
145.4117469999999
 31
0.0
  0
LINE
  5
9764
330
9731
100
AcDbEntity
  8
1
  6
Continuous
100
AcDbLine
 10
40.44648
 20
145.411762
 30
0.0
 11
38.19481599999999
 21
146.71175
 31
0.0
  0
LINE
  5
9765
330
9731
100
AcDbEntity
  8
1
  6
Continuous
100
AcDbLine
 10
38.19481300000001
 20
146.71175
 30
0.0
 11
38.19481300000001
 21
149.3117559999998
 31
0.0
  0
LINE
  5
9766
330
9731
100
AcDbEntity
  8
1
  6
Continuous
100
AcDbLine
 10
38.194809
 20
149.3117559999998
 30
0.0
 11
40.44648
 21
150.611759
 31
0.0
  0
LINE
  5
9767
330
9731
100
AcDbEntity
  8
1
  6
Continuous
100
AcDbLine
 10
40.44648
 20
150.611759
 30
0.0
 11
42.698143
 21
149.3117559999998
 31
0.0
  0
LINE
  5
9768
330
9731
100
AcDbEntity
  8
1
  6
Continuous
100
AcDbLine
 10
33.198143
 20
149.3117559999998
 30
0.0
 11
33.198143
 21
146.71175
 31
0.0
  0
LINE
  5
9769
330
9731
100
AcDbEntity
  8
1
  6
Continuous
100
AcDbLine
 10
33.198143
 20
146.71175
 30
0.0
 11
30.946476
 21
145.4117469999999
 31
0.0
  0
LINE
  5
976A
330
9731
100
AcDbEntity
  8
1
  6
Continuous
100
AcDbLine
 10
30.94647999999999
 20
145.411762
 30
0.0
 11
28.69481599999998
 21
146.71175
 31
0.0
  0
LINE
  5
976B
330
9731
100
AcDbEntity
  8
1
  6
Continuous
100
AcDbLine
 10
28.694813
 20
146.71175
 30
0.0
 11
28.694813
 21
149.3117559999998
 31
0.0
  0
LINE
  5
976C
330
9731
100
AcDbEntity
  8
1
  6
Continuous
100
AcDbLine
 10
28.69480900000001
 20
149.3117559999998
 30
0.0
 11
30.946476
 21
150.611759
 31
0.0
  0
LINE
  5
976D
330
9731
100
AcDbEntity
  8
1
  6
Continuous
100
AcDbLine
 10
30.94647999999999
 20
150.611759
 30
0.0
 11
33.198143
 21
149.3117559999998
 31
0.0
  0
LINE
  5
976E
330
9731
100
AcDbEntity
  8
1
  6
Continuous
100
AcDbLine
 10
33.546478
 20
132.7745549999999
 30
0.0
 11
33.546478
 21
128.274555
 31
0.0
  0
LINE
  5
976F
330
9731
100
AcDbEntity
  8
1
  6
Continuous
100
AcDbLine
 10
33.546478
 20
128.274555
 30
0.0
 11
33.94647599999999
 21
128.274555
 31
0.0
  0
LINE
  5
9770
330
9731
100
AcDbEntity
  8
1
  6
Continuous
100
AcDbLine
 10
33.94647599999999
 20
128.274555
 30
0.0
 11
33.94647599999999
 21
124.8127779999999
 31
0.0
  0
LINE
  5
9771
330
9731
100
AcDbEntity
  8
1
  6
Continuous
100
AcDbLine
 10
31.946476
 20
124.8127779999999
 30
0.0
 11
31.946476
 21
128.274555
 31
0.0
  0
LINE
  5
9772
330
9731
100
AcDbEntity
  8
1
  6
Continuous
100
AcDbLine
 10
31.946476
 20
128.274555
 30
0.0
 11
32.346477
 21
128.274555
 31
0.0
  0
LINE
  5
9773
330
9731
100
AcDbEntity
  8
1
  6
Continuous
100
AcDbLine
 10
32.346477
 20
128.274555
 30
0.0
 11
32.346477
 21
132.7745549999999
 31
0.0
  0
LINE
  5
9774
330
9731
100
AcDbEntity
  8
1
  6
Continuous
100
AcDbLine
 10
32.346477
 20
132.7745549999999
 30
0.0
 11
33.546478
 21
132.7745549999999
 31
0.0
  0
LINE
  5
9775
330
9731
100
AcDbEntity
  8
1
  6
Continuous
100
AcDbLine
 10
21.94647799999999
 20
137.217304
 30
0.0
 11
21.94647799999999
 21
151.7117499999999
 31
0.0
  0
LINE
  5
9776
330
9731
100
AcDbEntity
  8
1
  6
Continuous
100
AcDbLine
 10
15.94647799999999
 20
221.598118
 30
0.0
 11
17.446478
 21
221.598118
 31
0.0
  0
LINE
  5
9777
330
9731
100
AcDbEntity
  8
1
  6
Continuous
100
AcDbLine
 10
17.94647799999999
 20
222.098118
 30
0.0
 11
17.94647799999999
 21
229.098118
 31
0.0
  0
LINE
  5
9778
330
9731
100
AcDbEntity
  8
1
  6
Continuous
100
AcDbLine
 10
17.446478
 20
229.598118
 30
0.0
 11
15.94647799999999
 21
229.598118
 31
0.0
  0
LINE
  5
9779
330
9731
100
AcDbEntity
  8
1
  6
Continuous
100
AcDbLine
 10
15.44647799999999
 20
229.098118
 30
0.0
 11
15.44647799999999
 21
222.098118
 31
0.0
  0
LINE
  5
977A
330
9731
100
AcDbEntity
  8
1
  6
Continuous
100
AcDbLine
 10
18.51684399999999
 20
213.598118
 30
0.0
 11
22.779812
 21
213.598118
 31
0.0
  0
LINE
  5
977B
330
9731
100
AcDbEntity
  8
1
  6
Continuous
100
AcDbLine
 10
23.979816
 20
213.998127
 30
0.0
 11
33.44648
 21
221.098118
 31
0.0
  0
LINE
  5
977C
330
9731
100
AcDbEntity
  8
1
  6
Continuous
100
AcDbLine
 10
33.446476
 20
221.098118
 30
0.0
 11
54.653583
 21
221.098118
 31
0.0
  0
LINE
  5
977D
330
9731
100
AcDbEntity
  8
1
  6
Continuous
100
AcDbLine
 10
54.653591
 20
221.098118
 30
0.0
 11
57.30003
 21
223.7445559999999
 31
0.0
  0
LINE
  5
977E
330
9731
100
AcDbEntity
  8
1
  6
Continuous
100
AcDbLine
 10
57.30003700000001
 20
224.451664
 30
0.0
 11
54.60358000000001
 21
227.148121
 31
0.0
  0
LINE
  5
977F
330
9731
100
AcDbEntity
  8
1
  6
Continuous
100
AcDbLine
 10
41.94647599999998
 20
227.148121
 30
0.0
 11
41.94647599999998
 21
227.798115
 31
0.0
  0
LINE
  5
9780
330
9731
100
AcDbEntity
  8
1
  6
Continuous
100
AcDbLine
 10
41.44647599999998
 20
228.2981149999999
 30
0.0
 11
40.446476
 21
228.2981149999999
 31
0.0
  0
LINE
  5
9781
330
9731
100
AcDbEntity
  8
1
  6
Continuous
100
AcDbLine
 10
40.446476
 20
228.2981149999999
 30
0.0
 11
40.446476
 21
229.598118
 31
0.0
  0
LINE
  5
9782
330
9731
100
AcDbEntity
  8
1
  6
Continuous
100
AcDbLine
 10
39.946476
 20
230.098118
 30
0.0
 11
33.446476
 21
230.098118
 31
0.0
  0
LINE
  5
9783
330
9731
100
AcDbEntity
  8
1
  6
Continuous
100
AcDbLine
 10
33.446476
 20
230.098118
 30
0.0
 11
23.97980899999998
 21
237.198124
 31
0.0
  0
LINE
  5
9784
330
9731
100
AcDbEntity
  8
1
  6
Continuous
100
AcDbLine
 10
22.779812
 20
237.598118
 30
0.0
 11
18.51684399999999
 21
237.598118
 31
0.0
  0
LINE
  5
9785
330
9731
100
AcDbEntity
  8
1
  6
Continuous
100
AcDbLine
 10
16.852743
 20
236.707523
 30
0.0
 11
12.782371
 21
230.6019629999999
 31
0.0
  0
LINE
  5
9786
330
9731
100
AcDbEntity
  8
1
  6
Continuous
100
AcDbLine
 10
12.446478
 20
229.492573
 30
0.0
 11
12.446478
 21
221.7036629999999
 31
0.0
  0
LINE
  5
9787
330
9731
100
AcDbEntity
  8
1
  6
Continuous
100
AcDbLine
 10
12.782381
 20
220.5942569999999
 30
0.0
 11
16.852743
 21
214.4887119999999
 31
0.0
  0
LINE
  5
9788
330
9731
100
AcDbEntity
  8
1
  6
Continuous
100
AcDbLine
 10
128.9554019999999
 20
116.71175
 30
0.0
 11
128.9554019999999
 21
142.71175
 31
0.0
  0
LINE
  5
9789
330
9731
100
AcDbEntity
  8
2
  6
Continuous
100
AcDbLine
 10
129.9554019999999
 20
128.258793
 30
0.0
 11
137.955402
 21
134.0706519999999
 31
0.0
  0
LINE
  5
978A
330
9731
100
AcDbEntity
  8
2
  6
Continuous
100
AcDbLine
 10
137.955402
 20
125.3528479999999
 30
0.0
 11
129.9554019999999
 21
131.164707
 31
0.0
  0
LINE
  5
978B
330
9731
100
AcDbEntity
  8
4
  6
CENTER
100
AcDbLine
 10
98.61665700000001
 20
225.598118
 30
0.0
 11
110.2725029999999
 21
225.598118
 31
0.0
  0
LINE
  5
978C
330
9731
100
AcDbEntity
  8
4
  6
CENTER
100
AcDbLine
 10
160.929081
 20
148.011753
 30
0.0
 11
140.0523109999998
 21
148.011753
 31
0.0
  0
LINE
  5
978D
330
9731
100
AcDbEntity
  8
1
  6
Continuous
100
AcDbLine
 10
158.855411
 20
148.527027
 30
0.0
 11
158.855411
 21
147.496479
 31
0.0
  0
LINE
  5
978E
330
9731
100
AcDbEntity
  8
1
  6
Continuous
100
AcDbLine
 10
157.2685889999999
 20
146.0117529999999
 30
0.0
 11
156.855411
 21
146.0117529999999
 31
0.0
  0
LINE
  5
978F
330
9731
100
AcDbEntity
  8
1
  6
Continuous
100
AcDbLine
 10
156.855411
 20
145.71175
 30
0.0
 11
155.855411
 21
145.71175
 31
0.0
  0
LINE
  5
9790
330
9731
100
AcDbEntity
  8
1
  6
Continuous
100
AcDbLine
 10
156.355411
 20
147.557834
 30
0.0
 11
156.855411
 21
148.011753
 31
0.0
  0
LINE
  5
9791
330
9731
100
AcDbEntity
  8
1
  6
Continuous
100
AcDbLine
 10
156.8553959999999
 20
148.312427
 30
0.0
 11
156.3553959999999
 21
147.900837
 31
0.0
  0
LINE
  5
9792
330
9731
100
AcDbEntity
  8
1
  6
Continuous
100
AcDbLine
 10
156.855411
 20
150.0117529999999
 30
0.0
 11
157.2685889999999
 21
150.0117529999999
 31
0.0
  0
LINE
  5
9793
330
9731
100
AcDbEntity
  8
1
  6
Continuous
100
AcDbLine
 10
156.855411
 20
150.3117559999998
 30
0.0
 11
155.855411
 21
150.3117559999998
 31
0.0
  0
LINE
  5
9794
330
9731
100
AcDbEntity
  8
1
  6
Continuous
100
AcDbLine
 10
155.855411
 20
139.0117529999999
 30
0.0
 11
149.355411
 21
139.0117529999999
 31
0.0
  0
LINE
  5
9795
330
9731
100
AcDbEntity
  8
1
  6
Continuous
100
AcDbLine
 10
149.355411
 20
139.0117529999999
 30
0.0
 11
149.355411
 21
155.5117529999999
 31
0.0
  0
LINE
  5
9796
330
9731
100
AcDbEntity
  8
1
  6
Continuous
100
AcDbLine
 10
149.355411
 20
155.5117529999999
 30
0.0
 11
147.355411
 21
155.5117529999999
 31
0.0
  0
LINE
  5
9797
330
9731
100
AcDbEntity
  8
1
  6
Continuous
100
AcDbLine
 10
147.355411
 20
155.5117529999999
 30
0.0
 11
147.355411
 21
118.71175
 31
0.0
  0
LINE
  5
9798
330
9731
100
AcDbEntity
  8
1
  6
Continuous
100
AcDbLine
 10
147.355411
 20
118.71175
 30
0.0
 11
145.3554109999998
 21
118.71175
 31
0.0
  0
LINE
  5
9799
330
9731
100
AcDbEntity
  8
1
  6
Continuous
100
AcDbLine
 10
145.3554109999998
 20
118.71175
 30
0.0
 11
145.3554109999998
 21
154.2117499999999
 31
0.0
  0
LINE
  5
979A
330
9731
100
AcDbEntity
  8
1
  6
Continuous
100
AcDbLine
 10
145.3554109999998
 20
154.2117499999999
 30
0.0
 11
147.355411
 21
154.2117499999999
 31
0.0
  0
LINE
  5
979B
330
9731
100
AcDbEntity
  8
1
  6
Continuous
100
AcDbLine
 10
148.355411
 20
155.5117529999999
 30
0.0
 11
148.355411
 21
141.0117529999999
 31
0.0
  0
LINE
  5
979C
330
9731
100
AcDbEntity
  8
1
  6
Continuous
100
AcDbLine
 10
149.355411
 20
141.0117529999999
 30
0.0
 11
147.355411
 21
141.0117529999999
 31
0.0
  0
LINE
  5
979D
330
9731
100
AcDbEntity
  8
1
  6
Continuous
100
AcDbLine
 10
144.1553989999998
 20
139.71175
 30
0.0
 11
129.9554019999999
 21
139.71175
 31
0.0
  0
LINE
  5
979E
330
9731
100
AcDbEntity
  8
1
  6
Continuous
100
AcDbLine
 10
137.955402
 20
134.0706519999999
 30
0.0
 11
129.9554019999999
 21
134.0706519999999
 31
0.0
  0
LINE
  5
979F
330
9731
100
AcDbEntity
  8
1
  6
Continuous
100
AcDbLine
 10
102.4686619999999
 20
237.598118
 30
0.0
 11
102.4686619999999
 21
213.598118
 31
0.0
  0
LINE
  5
97A0
330
9731
100
AcDbEntity
  8
1
  6
Continuous
100
AcDbLine
 10
106.468662
 20
213.598118
 30
0.0
 11
106.468662
 21
237.598118
 31
0.0
  0
LINE
  5
97A1
330
9731
100
AcDbEntity
  8
1
  6
Continuous
100
AcDbLine
 10
129.9554019999999
 20
142.71175
 30
0.0
 11
129.9554019999999
 21
116.71175
 31
0.0
  0
LINE
  5
97A2
330
9731
100
AcDbEntity
  8
1
  6
Continuous
100
AcDbLine
 10
129.9554019999999
 20
116.71175
 30
0.0
 11
128.9554019999999
 21
116.71175
 31
0.0
  0
LINE
  5
97A3
330
9731
100
AcDbEntity
  8
1
  6
Continuous
100
AcDbLine
 10
128.9554019999999
 20
116.71175
 30
0.0
 11
124.955402
 21
118.71175
 31
0.0
  0
LINE
  5
97A4
330
9731
100
AcDbEntity
  8
1
  6
Continuous
100
AcDbLine
 10
124.955402
 20
118.71175
 30
0.0
 11
124.955402
 21
140.71175
 31
0.0
  0
LINE
  5
97A5
330
9731
100
AcDbEntity
  8
1
  6
Continuous
100
AcDbLine
 10
124.9554169999999
 20
140.71175
 30
0.0
 11
128.9554169999999
 21
142.71175
 31
0.0
  0
LINE
  5
97A6
330
9731
100
AcDbEntity
  8
1
  6
Continuous
100
AcDbLine
 10
128.9554019999999
 20
142.71175
 30
0.0
 11
129.9554019999999
 21
142.71175
 31
0.0
  0
LINE
  5
97A7
330
9731
100
AcDbEntity
  8
1
  6
Continuous
100
AcDbLine
 10
137.955402
 20
134.0706519999999
 30
0.0
 11
137.955402
 21
125.3528479999999
 31
0.0
  0
LINE
  5
97A8
330
9731
100
AcDbEntity
  8
1
  6
Continuous
100
AcDbLine
 10
137.955402
 20
125.3528479999999
 30
0.0
 11
129.9554019999999
 21
125.3528479999999
 31
0.0
  0
LINE
  5
97A9
330
9731
100
AcDbEntity
  8
1
  6
Continuous
100
AcDbLine
 10
129.9554019999999
 20
119.71175
 30
0.0
 11
144.1553989999998
 21
119.71175
 31
0.0
  0
LINE
  5
97AA
330
9731
100
AcDbEntity
  8
1
  6
Continuous
100
AcDbLine
 10
147.355411
 20
125.2617529999999
 30
0.0
 11
148.3813819999998
 21
125.2617529999999
 31
0.0
  0
LINE
  5
97AB
330
9731
100
AcDbEntity
  8
1
  6
Continuous
100
AcDbLine
 10
148.3813819999998
 20
125.2617529999999
 30
0.0
 11
148.3813819999998
 21
126.761753
 31
0.0
  0
LINE
  5
97AC
330
9731
100
AcDbEntity
  8
1
  6
Continuous
100
AcDbLine
 10
148.3813819999998
 20
126.761753
 30
0.0
 11
150.181385
 21
126.761753
 31
0.0
  0
LINE
  5
97AD
330
9731
100
AcDbEntity
  8
1
  6
Continuous
100
AcDbLine
 10
150.181385
 20
132.6617469999999
 30
0.0
 11
148.3813819999998
 21
132.6617469999999
 31
0.0
  0
LINE
  5
97AE
330
9731
100
AcDbEntity
  8
1
  6
Continuous
100
AcDbLine
 10
148.3813819999998
 20
132.6617469999999
 30
0.0
 11
148.3813819999998
 21
134.1617469999999
 31
0.0
  0
LINE
  5
97AF
330
9731
100
AcDbEntity
  8
1
  6
Continuous
100
AcDbLine
 10
148.3813819999998
 20
134.1617469999999
 30
0.0
 11
147.355411
 21
134.1617469999999
 31
0.0
  0
LINE
  5
97B0
330
9731
100
AcDbEntity
  8
1
  6
Continuous
100
AcDbLine
 10
148.3813819999998
 20
134.21175
 30
0.0
 11
154.881382
 21
134.21175
 31
0.0
  0
LINE
  5
97B1
330
9731
100
AcDbEntity
  8
1
  6
Continuous
100
AcDbLine
 10
154.881382
 20
125.2117499999999
 30
0.0
 11
148.3813819999998
 21
125.2117499999999
 31
0.0
  0
LINE
  5
97B2
330
9731
100
AcDbEntity
  8
1
  6
Continuous
100
AcDbLine
 10
148.855411
 20
128.7117499999999
 30
0.0
 11
148.855411
 21
130.7117499999999
 31
0.0
  0
LINE
  5
97B3
330
9731
100
AcDbEntity
  8
1
  6
Continuous
100
AcDbLine
 10
147.855411
 20
131.7117499999999
 30
0.0
 11
147.355411
 21
131.7117499999999
 31
0.0
  0
LINE
  5
97B4
330
9731
100
AcDbEntity
  8
1
  6
Continuous
100
AcDbLine
 10
147.355411
 20
127.7117499999999
 30
0.0
 11
147.855411
 21
127.7117499999999
 31
0.0
  0
LINE
  5
97B5
330
9731
100
AcDbEntity
  8
1
  6
Continuous
100
AcDbLine
 10
150.605411
 20
137.8117559999998
 30
0.0
 11
150.605411
 21
139.0117529999999
 31
0.0
  0
LINE
  5
97B6
330
9731
100
AcDbEntity
  8
1
  6
Continuous
100
AcDbLine
 10
150.605411
 20
137.8117559999998
 30
0.0
 11
154.605411
 21
137.8117559999998
 31
0.0
  0
LINE
  5
97B7
330
9731
100
AcDbEntity
  8
1
  6
Continuous
100
AcDbLine
 10
154.605411
 20
137.8117559999998
 30
0.0
 11
154.605411
 21
139.0117529999999
 31
0.0
  0
LINE
  5
97B8
330
9731
100
AcDbEntity
  8
1
  6
Continuous
100
AcDbLine
 10
155.855411
 20
139.0117529999999
 30
0.0
 11
155.855411
 21
151.4117469999999
 31
0.0
  0
LINE
  5
97B9
330
9731
100
AcDbEntity
  8
1
  6
Continuous
100
AcDbLine
 10
154.2054019999999
 20
154.1117589999998
 30
0.0
 11
154.2054019999999
 21
151.011753
 31
0.0
  0
LINE
  5
97BA
330
9731
100
AcDbEntity
  8
1
  6
Continuous
100
AcDbLine
 10
155.6482279999999
 20
151.011768
 30
0.0
 11
155.755405
 21
151.411762
 31
0.0
  0
LINE
  5
97BB
330
9731
100
AcDbEntity
  8
1
  6
Continuous
100
AcDbLine
 10
155.755405
 20
151.4117469999999
 30
0.0
 11
155.855411
 21
151.4117469999999
 31
0.0
  0
LINE
  5
97BC
330
9731
100
AcDbEntity
  8
1
  6
Continuous
100
AcDbLine
 10
155.855411
 20
151.011753
 30
0.0
 11
149.355411
 21
151.011753
 31
0.0
  0
LINE
  5
97BD
330
9731
100
AcDbEntity
  8
1
  6
Continuous
100
AcDbLine
 10
151.0054049999999
 20
151.011753
 30
0.0
 11
151.0054049999999
 21
154.1117589999998
 31
0.0
  0
LINE
  5
97BE
330
9731
100
AcDbEntity
  8
1
  6
Continuous
100
AcDbLine
 10
151.0054049999999
 20
154.1117439999998
 30
0.0
 11
151.305408
 21
154.411762
 31
0.0
  0
LINE
  5
97BF
330
9731
100
AcDbEntity
  8
1
  6
Continuous
100
AcDbLine
 10
151.305408
 20
154.4117469999999
 30
0.0
 11
153.905399
 21
154.4117469999999
 31
0.0
  0
LINE
  5
97C0
330
9731
100
AcDbEntity
  8
1
  6
Continuous
100
AcDbLine
 10
153.905399
 20
154.4117469999999
 30
0.0
 11
154.2054019999999
 21
154.1117439999998
 31
0.0
  0
LINE
  5
97C1
330
9731
100
AcDbEntity
  8
1
  6
Continuous
100
AcDbLine
 10
154.881382
 20
46.12538899999999
 30
0.0
 11
155.881382
 21
46.12538899999999
 31
0.0
  0
LINE
  5
97C2
330
9731
100
AcDbEntity
  8
1
  6
Continuous
100
AcDbLine
 10
155.881382
 20
45.82538999999999
 30
0.0
 11
156.294575
 21
45.82538999999999
 31
0.0
  0
LINE
  5
97C3
330
9731
100
AcDbEntity
  8
1
  6
Continuous
100
AcDbLine
 10
156.294575
 20
41.82539000000001
 30
0.0
 11
155.881382
 21
41.82539000000001
 31
0.0
  0
LINE
  5
97C4
330
9731
100
AcDbEntity
  8
1
  6
Continuous
100
AcDbLine
 10
155.881382
 20
41.52538999999999
 30
0.0
 11
154.881382
 21
41.52538999999999
 31
0.0
  0
LINE
  5
97C5
330
9731
100
AcDbEntity
  8
1
  6
Continuous
100
AcDbLine
 10
154.881382
 20
43.331936
 30
0.0
 11
155.881382
 21
43.82539
 31
0.0
  0
LINE
  5
97C6
330
9731
100
AcDbEntity
  8
1
  6
Continuous
100
AcDbLine
 10
155.881382
 20
44.09093799999999
 30
0.0
 11
154.881382
 21
43.603008
 31
0.0
  0
LINE
  5
97C7
330
9731
100
AcDbEntity
  8
1
  6
Continuous
100
AcDbLine
 10
145.3554109999998
 20
150.5117529999999
 30
0.0
 11
143.855411
 21
150.5117529999999
 31
0.0
  0
LINE
  5
97C8
330
9731
100
AcDbEntity
  8
1
  6
Continuous
100
AcDbLine
 10
143.855411
 20
150.5117529999999
 30
0.0
 11
143.855411
 21
145.511753
 31
0.0
  0
LINE
  5
97C9
330
9731
100
AcDbEntity
  8
1
  6
Continuous
100
AcDbLine
 10
143.855411
 20
145.511753
 30
0.0
 11
145.3554109999998
 21
145.511753
 31
0.0
  0
LINE
  5
97CA
330
9731
100
AcDbEntity
  8
1
  6
Continuous
100
AcDbLine
 10
145.3554109999998
 20
146.761753
 30
0.0
 11
143.855411
 21
146.761753
 31
0.0
  0
LINE
  5
97CB
330
9731
100
AcDbEntity
  8
1
  6
Continuous
100
AcDbLine
 10
143.855411
 20
146.861759
 30
0.0
 11
141.855411
 21
146.861759
 31
0.0
  0
LINE
  5
97CC
330
9731
100
AcDbEntity
  8
1
  6
Continuous
100
AcDbLine
 10
141.855411
 20
149.161747
 30
0.0
 11
143.855411
 21
149.161747
 31
0.0
  0
LINE
  5
97CD
330
9731
100
AcDbEntity
  8
1
  6
Continuous
100
AcDbLine
 10
143.855411
 20
149.2617529999999
 30
0.0
 11
145.3554109999998
 21
149.2617529999999
 31
0.0
  0
LINE
  5
97CE
330
9731
100
AcDbEntity
  8
1
  6
Continuous
100
AcDbLine
 10
156.355411
 20
150.3117559999998
 30
0.0
 11
156.355411
 21
145.71175
 31
0.0
  0
LINE
  5
97CF
330
9731
100
AcDbEntity
  8
1
  6
Continuous
100
AcDbLine
 10
156.855411
 20
145.71175
 30
0.0
 11
156.855411
 21
150.3117559999998
 31
0.0
  0
LINE
  5
97D0
330
9731
100
AcDbEntity
  8
1
  6
Continuous
100
AcDbLine
 10
155.881382
 20
46.12538899999999
 30
0.0
 11
155.881382
 21
41.52538999999999
 31
0.0
  0
LINE
  5
97D1
330
9731
100
AcDbEntity
  8
1
  6
Continuous
100
AcDbLine
 10
128.9554019999999
 20
212.598118
 30
0.0
 11
128.9554019999999
 21
238.598118
 31
0.0
  0
LINE
  5
97D2
330
9731
100
AcDbEntity
  8
4
  6
CENTER
100
AcDbLine
 10
140.71706
 20
218.098118
 30
0.0
 11
159.9775119999999
 21
218.098118
 31
0.0
  0
LINE
  5
97D3
330
9731
100
AcDbEntity
  8
4
  6
CENTER
100
AcDbLine
 10
162.600727
 20
225.598118
 30
0.0
 11
119.6473429999999
 21
225.598118
 31
0.0
  0
LINE
  5
97D4
330
9731
100
AcDbEntity
  8
4
  6
CENTER
100
AcDbLine
 10
140.71706
 20
227.598118
 30
0.0
 11
160.2894169999999
 21
227.598118
 31
0.0
  0
LINE
  5
97D5
330
9731
100
AcDbEntity
  8
1
  6
Continuous
100
AcDbLine
 10
129.9554019999999
 20
216.598118
 30
0.0
 11
137.955402
 21
216.598118
 31
0.0
  0
LINE
  5
97D6
330
9731
100
AcDbEntity
  8
1
  6
Continuous
100
AcDbLine
 10
137.955402
 20
216.598118
 30
0.0
 11
137.955402
 21
215.598118
 31
0.0
  0
LINE
  5
97D7
330
9731
100
AcDbEntity
  8
1
  6
Continuous
100
AcDbLine
 10
145.3554109999998
 20
212.598118
 30
0.0
 11
155.855411
 21
212.598118
 31
0.0
  0
LINE
  5
97D8
330
9731
100
AcDbEntity
  8
1
  6
Continuous
100
AcDbLine
 10
154.2054019999999
 20
214.598118
 30
0.0
 11
154.2054019999999
 21
215.098118
 31
0.0
  0
LINE
  5
97D9
330
9731
100
AcDbEntity
  8
1
  6
Continuous
100
AcDbLine
 10
154.2054019999999
 20
215.098118
 30
0.0
 11
151.0054049999999
 21
215.098118
 31
0.0
  0
LINE
  5
97DA
330
9731
100
AcDbEntity
  8
1
  6
Continuous
100
AcDbLine
 10
151.0054049999999
 20
215.098118
 30
0.0
 11
151.0054049999999
 21
214.598118
 31
0.0
  0
LINE
  5
97DB
330
9731
100
AcDbEntity
  8
1
  6
Continuous
100
AcDbLine
 10
151.0054049999999
 20
214.598118
 30
0.0
 11
154.2054019999999
 21
214.598118
 31
0.0
  0
LINE
  5
97DC
330
9731
100
AcDbEntity
  8
1
  6
Continuous
100
AcDbLine
 10
154.2054019999999
 20
223.298115
 30
0.0
 11
151.0054049999999
 21
223.298115
 31
0.0
  0
LINE
  5
97DD
330
9731
100
AcDbEntity
  8
1
  6
Continuous
100
AcDbLine
 10
151.0054049999999
 20
223.298115
 30
0.0
 11
151.0054049999999
 21
223.7981149999999
 31
0.0
  0
LINE
  5
97DE
330
9731
100
AcDbEntity
  8
1
  6
Continuous
100
AcDbLine
 10
151.0054049999999
 20
223.7981149999999
 30
0.0
 11
154.2054019999999
 21
223.7981149999999
 31
0.0
  0
LINE
  5
97DF
330
9731
100
AcDbEntity
  8
1
  6
Continuous
100
AcDbLine
 10
154.2054019999999
 20
223.7981149999999
 30
0.0
 11
154.2054019999999
 21
223.298115
 31
0.0
  0
LINE
  5
97E0
330
9731
100
AcDbEntity
  8
1
  6
Continuous
100
AcDbLine
 10
154.881382
 20
236.098118
 30
0.0
 11
148.7813759999999
 21
236.098118
 31
0.0
  0
LINE
  5
97E1
330
9731
100
AcDbEntity
  8
1
  6
Continuous
100
AcDbLine
 10
150.605411
 20
232.598118
 30
0.0
 11
150.605411
 21
235.03162
 31
0.0
  0
LINE
  5
97E2
330
9731
100
AcDbEntity
  8
1
  6
Continuous
100
AcDbLine
 10
154.605411
 20
235.03162
 30
0.0
 11
154.605411
 21
232.598118
 31
0.0
  0
LINE
  5
97E3
330
9731
100
AcDbEntity
  8
1
  6
Continuous
100
AcDbLine
 10
154.2054019999999
 20
230.4981109999999
 30
0.0
 11
151.0054049999999
 21
230.4981109999999
 31
0.0
  0
LINE
  5
97E4
330
9731
100
AcDbEntity
  8
1
  6
Continuous
100
AcDbLine
 10
151.0054049999999
 20
230.4981109999999
 30
0.0
 11
151.0054049999999
 21
229.998111
 31
0.0
  0
LINE
  5
97E5
330
9731
100
AcDbEntity
  8
1
  6
Continuous
100
AcDbLine
 10
151.0054049999999
 20
229.998111
 30
0.0
 11
154.2054019999999
 21
229.998111
 31
0.0
  0
LINE
  5
97E6
330
9731
100
AcDbEntity
  8
1
  6
Continuous
100
AcDbLine
 10
154.2054019999999
 20
229.998111
 30
0.0
 11
154.2054019999999
 21
230.4981109999999
 31
0.0
  0
LINE
  5
97E7
330
9731
100
AcDbEntity
  8
1
  6
Continuous
100
AcDbLine
 10
155.855411
 20
232.598118
 30
0.0
 11
149.355411
 21
232.598118
 31
0.0
  0
LINE
  5
97E8
330
9731
100
AcDbEntity
  8
1
  6
Continuous
100
AcDbLine
 10
149.355411
 20
231.598118
 30
0.0
 11
147.355411
 21
231.598118
 31
0.0
  0
LINE
  5
97E9
330
9731
100
AcDbEntity
  8
1
  6
Continuous
100
AcDbLine
 10
147.355411
 20
236.598118
 30
0.0
 11
145.3554109999998
 21
236.598118
 31
0.0
  0
LINE
  5
97EA
330
9731
100
AcDbEntity
  8
1
  6
Continuous
100
AcDbLine
 10
137.955402
 20
235.598118
 30
0.0
 11
137.955402
 21
234.598118
 31
0.0
  0
LINE
  5
97EB
330
9731
100
AcDbEntity
  8
1
  6
Continuous
100
AcDbLine
 10
137.955402
 20
234.598118
 30
0.0
 11
129.9554019999999
 21
234.598118
 31
0.0
  0
LINE
  5
97EC
330
9731
100
AcDbEntity
  8
1
  6
Continuous
100
AcDbLine
 10
124.955402
 20
214.598118
 30
0.0
 11
124.955402
 21
236.598118
 31
0.0
  0
LINE
  5
97ED
330
9731
100
AcDbEntity
  8
1
  6
Continuous
100
AcDbLine
 10
124.955402
 20
236.598118
 30
0.0
 11
128.9554019999999
 21
238.598118
 31
0.0
  0
LINE
  5
97EE
330
9731
100
AcDbEntity
  8
1
  6
Continuous
100
AcDbLine
 10
128.9554019999999
 20
238.598118
 30
0.0
 11
129.9554019999999
 21
238.598118
 31
0.0
  0
LINE
  5
97EF
330
9731
100
AcDbEntity
  8
1
  6
Continuous
100
AcDbLine
 10
129.9554019999999
 20
238.598118
 30
0.0
 11
129.9554019999999
 21
212.598118
 31
0.0
  0
LINE
  5
97F0
330
9731
100
AcDbEntity
  8
1
  6
Continuous
100
AcDbLine
 10
129.9554019999999
 20
212.598118
 30
0.0
 11
128.9554019999999
 21
212.598118
 31
0.0
  0
LINE
  5
97F1
330
9731
100
AcDbEntity
  8
1
  6
Continuous
100
AcDbLine
 10
128.9554019999999
 20
212.598102
 30
0.0
 11
124.955402
 21
214.598102
 31
0.0
  0
LINE
  5
97F2
330
9731
100
AcDbEntity
  8
1
  6
Continuous
100
AcDbLine
 10
137.955402
 20
215.598118
 30
0.0
 11
145.3554109999998
 21
215.598118
 31
0.0
  0
LINE
  5
97F3
330
9731
100
AcDbEntity
  8
1
  6
Continuous
100
AcDbLine
 10
145.3554109999998
 20
216.848118
 30
0.0
 11
143.855411
 21
216.848118
 31
0.0
  0
LINE
  5
97F4
330
9731
100
AcDbEntity
  8
1
  6
Continuous
100
AcDbLine
 10
143.855411
 20
216.948124
 30
0.0
 11
141.855411
 21
216.948124
 31
0.0
  0
LINE
  5
97F5
330
9731
100
AcDbEntity
  8
1
  6
Continuous
100
AcDbLine
 10
141.855411
 20
216.948124
 30
0.0
 11
141.855411
 21
219.248111
 31
0.0
  0
LINE
  5
97F6
330
9731
100
AcDbEntity
  8
1
  6
Continuous
100
AcDbLine
 10
141.855411
 20
219.248111
 30
0.0
 11
143.855411
 21
219.248111
 31
0.0
  0
LINE
  5
97F7
330
9731
100
AcDbEntity
  8
1
  6
Continuous
100
AcDbLine
 10
143.855411
 20
219.348118
 30
0.0
 11
145.3554109999998
 21
219.348118
 31
0.0
  0
LINE
  5
97F8
330
9731
100
AcDbEntity
  8
1
  6
Continuous
100
AcDbLine
 10
145.3554109999998
 20
220.598118
 30
0.0
 11
143.855411
 21
220.598118
 31
0.0
  0
LINE
  5
97F9
330
9731
100
AcDbEntity
  8
1
  6
Continuous
100
AcDbLine
 10
143.855411
 20
220.598118
 30
0.0
 11
143.855411
 21
215.598118
 31
0.0
  0
LINE
  5
97FA
330
9731
100
AcDbEntity
  8
1
  6
Continuous
100
AcDbLine
 10
145.3554109999998
 20
212.598118
 30
0.0
 11
145.3554109999998
 21
236.598118
 31
0.0
  0
LINE
  5
97FB
330
9731
100
AcDbEntity
  8
1
  6
Continuous
100
AcDbLine
 10
144.1553989999998
 20
235.598118
 30
0.0
 11
137.955402
 21
235.598118
 31
0.0
  0
LINE
  5
97FC
330
9731
100
AcDbEntity
  8
1
  6
Continuous
100
AcDbLine
 10
141.855411
 20
228.7481109999999
 30
0.0
 11
143.855411
 21
228.7481109999999
 31
0.0
  0
LINE
  5
97FD
330
9731
100
AcDbEntity
  8
1
  6
Continuous
100
AcDbLine
 10
143.855411
 20
228.848118
 30
0.0
 11
145.3554109999998
 21
228.848118
 31
0.0
  0
LINE
  5
97FE
330
9731
100
AcDbEntity
  8
1
  6
Continuous
100
AcDbLine
 10
145.3554109999998
 20
230.098118
 30
0.0
 11
143.855411
 21
230.098118
 31
0.0
  0
LINE
  5
97FF
330
9731
100
AcDbEntity
  8
1
  6
Continuous
100
AcDbLine
 10
143.855411
 20
230.098118
 30
0.0
 11
143.855411
 21
225.098118
 31
0.0
  0
LINE
  5
9800
330
9731
100
AcDbEntity
  8
1
  6
Continuous
100
AcDbLine
 10
143.855411
 20
225.098118
 30
0.0
 11
145.3554109999998
 21
225.098118
 31
0.0
  0
LINE
  5
9801
330
9731
100
AcDbEntity
  8
1
  6
Continuous
100
AcDbLine
 10
145.3554109999998
 20
226.348118
 30
0.0
 11
143.855411
 21
226.348118
 31
0.0
  0
LINE
  5
9802
330
9731
100
AcDbEntity
  8
1
  6
Continuous
100
AcDbLine
 10
143.855411
 20
226.448124
 30
0.0
 11
141.855411
 21
226.448124
 31
0.0
  0
LINE
  5
9803
330
9731
100
AcDbEntity
  8
1
  6
Continuous
100
AcDbLine
 10
141.855411
 20
226.448124
 30
0.0
 11
141.855411
 21
228.7481109999999
 31
0.0
  0
LINE
  5
9804
330
9731
100
AcDbEntity
  8
1
  6
Continuous
100
AcDbLine
 10
148.355411
 20
231.598118
 30
0.0
 11
148.355411
 21
212.598118
 31
0.0
  0
LINE
  5
9805
330
9731
100
AcDbEntity
  8
1
  6
Continuous
100
AcDbLine
 10
147.355411
 20
212.598118
 30
0.0
 11
147.355411
 21
236.598118
 31
0.0
  0
LINE
  5
9806
330
9731
100
AcDbEntity
  8
1
  6
Continuous
100
AcDbLine
 10
149.355411
 20
232.598118
 30
0.0
 11
149.355411
 21
212.598118
 31
0.0
  0
LINE
  5
9807
330
9731
100
AcDbEntity
  8
1
  6
Continuous
100
AcDbLine
 10
155.855411
 20
212.598118
 30
0.0
 11
155.855411
 21
232.598118
 31
0.0
  0
LINE
  5
9808
330
9731
100
AcDbEntity
  8
1
  6
Continuous
100
AcDbLine
 10
155.855411
 20
229.8981209999999
 30
0.0
 11
156.855411
 21
229.8981209999999
 31
0.0
  0
LINE
  5
9809
330
9731
100
AcDbEntity
  8
1
  6
Continuous
100
AcDbLine
 10
156.855411
 20
229.598118
 30
0.0
 11
157.2685889999999
 21
229.598118
 31
0.0
  0
LINE
  5
980A
330
9731
100
AcDbEntity
  8
1
  6
Continuous
100
AcDbLine
 10
158.855411
 20
228.113392
 30
0.0
 11
158.855411
 21
227.0828439999999
 31
0.0
  0
LINE
  5
980B
330
9731
100
AcDbEntity
  8
1
  6
Continuous
100
AcDbLine
 10
155.855411
 20
225.298115
 30
0.0
 11
156.855411
 21
225.298115
 31
0.0
  0
LINE
  5
980C
330
9731
100
AcDbEntity
  8
1
  6
Continuous
100
AcDbLine
 10
156.855411
 20
225.598118
 30
0.0
 11
157.2685889999999
 21
225.598118
 31
0.0
  0
LINE
  5
980D
330
9731
100
AcDbEntity
  8
1
  6
Continuous
100
AcDbLine
 10
156.855411
 20
227.598118
 30
0.0
 11
156.355411
 21
227.144199
 31
0.0
  0
LINE
  5
980E
330
9731
100
AcDbEntity
  8
1
  6
Continuous
100
AcDbLine
 10
156.855411
 20
220.398121
 30
0.0
 11
155.855411
 21
220.398121
 31
0.0
  0
LINE
  5
980F
330
9731
100
AcDbEntity
  8
1
  6
Continuous
100
AcDbLine
 10
156.855411
 20
220.098118
 30
0.0
 11
157.2685889999999
 21
220.098118
 31
0.0
  0
LINE
  5
9810
330
9731
100
AcDbEntity
  8
1
  6
Continuous
100
AcDbLine
 10
158.855411
 20
218.613392
 30
0.0
 11
158.855411
 21
217.582844
 31
0.0
  0
LINE
  5
9811
330
9731
100
AcDbEntity
  8
1
  6
Continuous
100
AcDbLine
 10
157.2685889999999
 20
216.098118
 30
0.0
 11
156.855411
 21
216.098118
 31
0.0
  0
LINE
  5
9812
330
9731
100
AcDbEntity
  8
1
  6
Continuous
100
AcDbLine
 10
156.855411
 20
215.7981149999999
 30
0.0
 11
155.855411
 21
215.7981149999999
 31
0.0
  0
LINE
  5
9813
330
9731
100
AcDbEntity
  8
1
  6
Continuous
100
AcDbLine
 10
156.3553959999999
 20
217.6441839999998
 30
0.0
 11
156.855411
 21
218.098118
 31
0.0
  0
LINE
  5
9814
330
9731
100
AcDbEntity
  8
1
  6
Continuous
100
AcDbLine
 10
156.855411
 20
218.3988069999998
 30
0.0
 11
156.3553959999999
 21
217.9871859999999
 31
0.0
  0
LINE
  5
9815
330
9731
100
AcDbEntity
  8
1
  6
Continuous
100
AcDbLine
 10
156.355411
 20
227.4872009999999
 30
0.0
 11
156.8553959999999
 21
227.898792
 31
0.0
  0
LINE
  5
9816
330
9731
100
AcDbEntity
  8
1
  6
Continuous
100
AcDbLine
 10
156.355411
 20
220.398121
 30
0.0
 11
156.355411
 21
215.7981149999999
 31
0.0
  0
LINE
  5
9817
330
9731
100
AcDbEntity
  8
1
  6
Continuous
100
AcDbLine
 10
156.855411
 20
215.7981149999999
 30
0.0
 11
156.855411
 21
220.398121
 31
0.0
  0
LINE
  5
9818
330
9731
100
AcDbEntity
  8
1
  6
Continuous
100
AcDbLine
 10
156.855411
 20
225.298115
 30
0.0
 11
156.855411
 21
229.8981209999999
 31
0.0
  0
LINE
  5
9819
330
9731
100
AcDbEntity
  8
1
  6
Continuous
100
AcDbLine
 10
156.355411
 20
229.8981209999999
 30
0.0
 11
156.355411
 21
225.298115
 31
0.0
  0
LINE
  5
981A
330
9731
100
AcDbEntity
  8
1
  6
Continuous
100
AcDbLine
 10
154.881382
 20
125.2117499999999
 30
0.0
 11
154.881382
 21
134.21175
 31
0.0
  0
LINE
  5
981B
330
9731
100
AcDbEntity
  8
1
  6
Continuous
100
AcDbLine
 10
141.855411
 20
146.861759
 30
0.0
 11
141.855411
 21
149.161747
 31
0.0
  0
LINE
  5
981C
330
9731
100
AcDbEntity
  8
1
  6
Continuous
100
AcDbLine
 10
144.1553989999998
 20
139.71175
 30
0.0
 11
145.3554109999998
 21
138.511753
 31
0.0
  0
LINE
  5
981D
330
9731
100
AcDbEntity
  8
1
  6
Continuous
100
AcDbLine
 10
144.1553989999998
 20
119.71175
 30
0.0
 11
145.3553959999998
 21
120.911747
 31
0.0
  0
LINE
  5
981E
330
9731
100
AcDbEntity
  8
1
  6
Continuous
100
AcDbLine
 10
144.1553989999998
 20
139.71175
 30
0.0
 11
144.1553989999998
 21
119.71175
 31
0.0
  0
LINE
  5
981F
330
9731
100
AcDbEntity
  8
1
  6
Continuous
100
AcDbLine
 10
154.881382
 20
236.098118
 30
0.0
 11
154.881382
 21
232.598118
 31
0.0
  0
LINE
  5
9820
330
9731
100
AcDbEntity
  8
1
  6
Continuous
100
AcDbLine
 10
157.881382
 20
225.7247959999999
 30
0.0
 11
157.881382
 21
225.0828439999999
 31
0.0
  0
LINE
  5
9821
330
9731
100
AcDbEntity
  8
1
  6
Continuous
100
AcDbLine
 10
156.294575
 20
223.598118
 30
0.0
 11
155.855411
 21
223.598118
 31
0.0
  0
LINE
  5
9822
330
9731
100
AcDbEntity
  8
1
  6
Continuous
100
AcDbLine
 10
144.1553989999998
 20
235.598118
 30
0.0
 11
145.3553959999998
 21
234.3981209999999
 31
0.0
  0
LINE
  5
9823
330
9731
100
AcDbEntity
  8
1
  6
Continuous
100
AcDbLine
 10
144.1553989999998
 20
235.598118
 30
0.0
 11
144.1553989999998
 21
230.098118
 31
0.0
  0
LINE
  5
9824
330
9731
100
AcDbEntity
  8
1
  6
Continuous
100
AcDbLine
 10
144.1553989999998
 20
225.098118
 30
0.0
 11
144.1553989999998
 21
220.598118
 31
0.0
  0
LINE
  5
9825
330
9731
100
AcDbEntity
  8
1
  6
Continuous
100
AcDbLine
 10
148.855411
 20
231.598118
 30
0.0
 11
148.855411
 21
233.598118
 31
0.0
  0
LINE
  5
9826
330
9731
100
AcDbEntity
  8
1
  6
Continuous
100
AcDbLine
 10
147.855411
 20
234.598118
 30
0.0
 11
147.355411
 21
234.598118
 31
0.0
  0
LINE
  5
9827
330
9731
100
AcDbEntity
  8
4
  6
CENTER
100
AcDbLine
 10
59.68939599999998
 20
225.598118
 30
0.0
 11
9.695657999999999
 21
225.598118
 31
0.0
  0
LINE
  5
9828
330
9731
100
AcDbEntity
  8
1
  6
Continuous
100
AcDbLine
 10
41.94647599999998
 20
227.148121
 30
0.0
 11
54.60358000000001
 21
227.148121
 31
0.0
  0
LINE
  5
9829
330
9731
100
AcDbEntity
  8
1
  6
Continuous
100
AcDbLine
 10
32.94647599999999
 20
143.568165
 30
0.0
 11
31.2766
 21
142.6040529999999
 31
0.0
  0
LINE
  5
982A
330
9731
100
AcDbEntity
  8
1
  6
Continuous
100
AcDbLine
 10
44.94647599999999
 20
122.783558
 30
0.0
 11
43.2766
 21
121.819446
 31
0.0
  0
LINE
  5
982B
330
9731
100
AcDbEntity
  8
1
  6
Continuous
100
AcDbLine
 10
20.946478
 20
122.783558
 30
0.0
 11
20.946478
 21
124.7117499999999
 31
0.0
  0
LINE
  5
982C
330
9731
100
AcDbEntity
  8
1
  6
Continuous
100
AcDbLine
 10
44.94647599999999
 20
122.783558
 30
0.0
 11
44.94647599999999
 21
124.7117499999999
 31
0.0
  0
LINE
  5
982D
330
9731
100
AcDbEntity
  8
1
  6
Continuous
100
AcDbLine
 10
32.94648
 20
115.85535
 30
0.0
 11
31.27660699999999
 21
116.819446
 31
0.0
  0
LINE
  5
982E
330
9731
100
AcDbEntity
  8
1
  6
Continuous
100
AcDbLine
 10
44.94648
 20
136.639957
 30
0.0
 11
43.276607
 21
137.604053
 31
0.0
  0
LINE
  5
982F
330
9731
100
AcDbEntity
  8
1
  6
Continuous
100
AcDbLine
 10
22.616352
 20
121.819446
 30
0.0
 11
20.94647999999998
 21
122.7835419999999
 31
0.0
  0
LINE
  5
9830
330
9731
100
AcDbEntity
  8
1
  6
Continuous
100
AcDbLine
 10
34.61634799999998
 20
116.819446
 30
0.0
 11
32.94647599999999
 21
115.85535
 31
0.0
  0
LINE
  5
9831
330
9731
100
AcDbEntity
  8
1
  6
Continuous
100
AcDbLine
 10
44.94647599999999
 20
134.7117499999999
 30
0.0
 11
44.94647599999999
 21
136.639957
 31
0.0
  0
LINE
  5
9832
330
9731
100
AcDbEntity
  8
1
  6
Continuous
100
AcDbLine
 10
34.61635199999999
 20
142.6040529999999
 30
0.0
 11
32.94648
 21
143.568165
 31
0.0
  0
LINE
  5
9833
330
9731
100
AcDbEntity
  8
1
  6
Continuous
100
AcDbLine
 10
22.61634799999999
 20
137.604053
 30
0.0
 11
20.946478
 21
136.639957
 31
0.0
  0
LINE
  5
9834
330
9731
100
AcDbEntity
  8
1
  6
Continuous
100
AcDbLine
 10
20.946478
 20
134.7117499999999
 30
0.0
 11
20.946478
 21
136.639957
 31
0.0
  0
LINE
  5
9835
330
9731
100
AcDbEntity
  8
4
  6
CENTER
100
AcDbLine
 10
121.071461
 20
129.7117499999999
 30
0.0
 11
160.009434
 21
129.7117499999999
 31
0.0
  0
LINE
  5
9836
330
9731
100
AcDbEntity
  8
4
  6
CENTER
100
AcDbLine
 10
98.59071700000001
 20
129.7117499999999
 30
0.0
 11
110.2725029999999
 21
129.7117499999999
 31
0.0
  0
LINE
  5
9837
330
9731
100
AcDbEntity
  8
1
  6
Continuous
100
AcDbLine
 10
102.4686619999999
 20
143.568165
 30
0.0
 11
102.4686619999999
 21
115.85535
 31
0.0
  0
LINE
  5
9838
330
9731
100
AcDbEntity
  8
1
  6
Continuous
100
AcDbLine
 10
106.468662
 20
115.85535
 30
0.0
 11
106.468662
 21
143.568165
 31
0.0
  0
LINE
  5
9839
330
9731
100
AcDbEntity
  8
1
  6
Continuous
100
AcDbLine
 10
102.4686619999999
 20
115.85535
 30
0.0
 11
106.468662
 21
115.85535
 31
0.0
  0
LINE
  5
983A
330
9731
100
AcDbEntity
  8
1
  6
Continuous
100
AcDbLine
 10
102.4686619999999
 20
143.568165
 30
0.0
 11
106.468662
 21
143.568165
 31
0.0
  0
LINE
  5
983B
330
9731
100
AcDbEntity
  8
1
  6
Continuous
100
AcDbLine
 10
102.4686619999999
 20
122.783558
 30
0.0
 11
106.468662
 21
122.783558
 31
0.0
  0
LINE
  5
983C
330
9731
100
AcDbEntity
  8
1
  6
Continuous
100
AcDbLine
 10
102.4686619999999
 20
136.639957
 30
0.0
 11
106.468662
 21
136.639957
 31
0.0
  0
LINE
  5
983D
330
9731
100
AcDbEntity
  8
1
  6
Continuous
100
AcDbLine
 10
102.4686619999999
 20
213.598118
 30
0.0
 11
106.468662
 21
213.598118
 31
0.0
  0
LINE
  5
983E
330
9731
100
AcDbEntity
  8
1
  6
Continuous
100
AcDbLine
 10
102.4686619999999
 20
237.598118
 30
0.0
 11
106.468662
 21
237.598118
 31
0.0
  0
LINE
  5
983F
330
9731
100
AcDbEntity
  8
1
  6
Continuous
100
AcDbLine
 10
102.4686619999999
 20
225.598118
 30
0.0
 11
106.468662
 21
225.598118
 31
0.0
  0
LINE
  5
9840
330
9731
100
AcDbEntity
  8
2
  6
Continuous
100
AcDbLine
 10
144.6969029999999
 20
235.056614
 30
0.0
 11
137.955402
 21
235.056614
 31
0.0
  0
LINE
  5
9841
330
9731
100
AcDbEntity
  8
2
  6
Continuous
100
AcDbLine
 10
143.855411
 20
216.1396209999999
 30
0.0
 11
137.955402
 21
216.1396209999999
 31
0.0
  0
LINE
  5
9842
330
9731
100
AcDbEntity
  8
2
  6
Continuous
100
AcDbLine
 10
141.855411
 20
228.53162
 30
0.0
 11
143.855411
 21
228.53162
 31
0.0
  0
LINE
  5
9843
330
9731
100
AcDbEntity
  8
2
  6
Continuous
100
AcDbLine
 10
141.855411
 20
226.664615
 30
0.0
 11
143.855411
 21
226.664615
 31
0.0
  0
LINE
  5
9844
330
9731
100
AcDbEntity
  8
2
  6
Continuous
100
AcDbLine
 10
141.855411
 20
217.1646149999999
 30
0.0
 11
143.855411
 21
217.1646149999999
 31
0.0
  0
LINE
  5
9845
330
9731
100
AcDbEntity
  8
2
  6
Continuous
100
AcDbLine
 10
141.855411
 20
219.03162
 30
0.0
 11
143.855411
 21
219.03162
 31
0.0
  0
LINE
  5
9846
330
9731
100
AcDbEntity
  8
2
  6
Continuous
100
AcDbLine
 10
143.855411
 20
147.078251
 30
0.0
 11
141.855411
 21
147.078251
 31
0.0
  0
LINE
  5
9847
330
9731
100
AcDbEntity
  8
2
  6
Continuous
100
AcDbLine
 10
143.855411
 20
148.945255
 30
0.0
 11
141.855411
 21
148.945255
 31
0.0
  0
LINE
  5
9848
330
9731
100
AcDbEntity
  8
2
  6
Continuous
100
AcDbLine
 10
129.9554019999999
 20
120.2532539999999
 30
0.0
 11
144.6969029999999
 21
120.2532539999999
 31
0.0
  0
LINE
  5
9849
330
9731
100
AcDbEntity
  8
2
  6
Continuous
100
AcDbLine
 10
129.9554019999999
 20
139.1702459999999
 30
0.0
 11
144.6969029999999
 21
139.1702459999999
 31
0.0
  0
LINE
  5
984A
330
9731
100
AcDbEntity
  8
4
  6
CENTER
100
AcDbLine
 10
231.764332
 20
111.1492499999999
 30
0.0
 11
231.764332
 21
159.8152199999999
 31
0.0
  0
LINE
  5
984B
330
9731
100
AcDbEntity
  8
4
  6
CENTER
100
AcDbLine
 10
233.764332
 20
150.8629029999999
 30
0.0
 11
233.764332
 21
144.8963809999999
 31
0.0
  0
LINE
  5
984C
330
9731
100
AcDbEntity
  8
4
  6
CENTER
100
AcDbLine
 10
231.0411569999998
 20
148.011753
 30
0.0
 11
236.5785859999999
 21
148.011753
 31
0.0
  0
LINE
  5
984D
330
9731
100
AcDbEntity
  8
4
  6
CENTER
100
AcDbLine
 10
226.918506
 20
148.011753
 30
0.0
 11
221.520237
 21
148.011753
 31
0.0
  0
LINE
  5
984E
330
9731
100
AcDbEntity
  8
4
  6
CENTER
100
AcDbLine
 10
224.2643319999999
 20
150.8629029999999
 30
0.0
 11
224.2643319999999
 21
144.8963809999999
 31
0.0
  0
LINE
  5
984F
330
9731
100
AcDbEntity
  8
4
  6
CENTER
100
AcDbLine
 10
249.162021
 20
129.7117499999999
 30
0.0
 11
213.559345
 21
129.7117499999999
 31
0.0
  0
LINE
  5
9850
330
9731
100
AcDbEntity
  8
1
  6
Continuous
100
AcDbLine
 10
221.264332
 20
118.71175
 30
0.0
 11
231.764332
 21
118.71175
 31
0.0
  0
LINE
  5
9851
330
9731
100
AcDbEntity
  8
1
  6
Continuous
100
AcDbLine
 10
218.7643319999998
 20
121.2117499999999
 30
0.0
 11
218.7643319999998
 21
155.51175
 31
0.0
  0
LINE
  5
9852
330
9731
100
AcDbEntity
  8
1
  6
Continuous
100
AcDbLine
 10
218.7643319999998
 20
155.51175
 30
0.0
 11
237.764332
 21
155.51175
 31
0.0
  0
LINE
  5
9853
330
9731
100
AcDbEntity
  8
1
  6
Continuous
100
AcDbLine
 10
237.764332
 20
155.51175
 30
0.0
 11
237.764332
 21
151.011753
 31
0.0
  0
LINE
  5
9854
330
9731
100
AcDbEntity
  8
1
  6
Continuous
100
AcDbLine
 10
240.264332
 20
154.2117499999999
 30
0.0
 11
237.764332
 21
154.2117499999999
 31
0.0
  0
LINE
  5
9855
330
9731
100
AcDbEntity
  8
1
  6
Continuous
100
AcDbLine
 10
242.764332
 20
129.7117499999999
 30
0.0
 11
242.764332
 21
151.7117499999999
 31
0.0
  0
LINE
  5
9856
330
9731
100
AcDbEntity
  8
1
  6
Continuous
100
AcDbLine
 10
243.7643319999998
 20
122.783558
 30
0.0
 11
243.7643319999998
 21
136.639957
 31
0.0
  0
LINE
  5
9857
330
9731
100
AcDbEntity
  8
1
  6
Continuous
100
AcDbLine
 10
231.7643469999999
 20
115.85535
 30
0.0
 11
243.7643469999999
 21
122.783558
 31
0.0
  0
LINE
  5
9858
330
9731
100
AcDbEntity
  8
1
  6
Continuous
100
AcDbLine
 10
226.816898
 20
118.71175
 30
0.0
 11
231.7643469999999
 21
115.85535
 31
0.0
  0
LINE
  5
9859
330
9731
100
AcDbEntity
  8
1
  6
Continuous
100
AcDbLine
 10
242.764332
 20
137.217319
 30
0.0
 11
243.7643469999999
 21
136.639957
 31
0.0
  0
LINE
  5
985A
330
9731
100
AcDbEntity
  8
1
  6
Continuous
100
AcDbLine
 10
232.8804509999999
 20
147.1278719999999
 30
0.0
 11
234.648228
 21
148.895633
 31
0.0
  0
LINE
  5
985B
330
9731
100
AcDbEntity
  8
1
  6
Continuous
100
AcDbLine
 10
232.8804509999999
 20
148.895633
 30
0.0
 11
234.648228
 21
147.1278719999999
 31
0.0
  0
LINE
  5
985C
330
9731
100
AcDbEntity
  8
1
  6
Continuous
100
AcDbLine
 10
223.3804359999998
 20
147.127857
 30
0.0
 11
225.1482119999999
 21
148.895633
 31
0.0
  0
LINE
  5
985D
330
9731
100
AcDbEntity
  8
1
  6
Continuous
100
AcDbLine
 10
223.3804359999998
 20
148.895633
 30
0.0
 11
225.1482119999999
 21
147.127857
 31
0.0
  0
LINE
  5
985E
330
9731
100
AcDbEntity
  8
1
  6
Continuous
100
AcDbLine
 10
218.7643319999998
 20
139.0117529999999
 30
0.0
 11
224.7643319999999
 21
139.0117529999999
 31
0.0
  0
LINE
  5
985F
330
9731
100
AcDbEntity
  8
1
  6
Continuous
100
AcDbLine
 10
218.7643319999998
 20
151.011753
 30
0.0
 11
238.764332
 21
151.011753
 31
0.0
  0
LINE
  5
9860
330
9731
100
AcDbEntity
  8
1
  6
Continuous
100
AcDbLine
 10
223.880451
 20
128.827869
 30
0.0
 11
225.648212
 21
130.59563
 31
0.0
  0
LINE
  5
9861
330
9731
100
AcDbEntity
  8
1
  6
Continuous
100
AcDbLine
 10
223.880451
 20
130.59563
 30
0.0
 11
225.648212
 21
128.827869
 31
0.0
  0
LINE
  5
9862
330
9731
100
AcDbEntity
  8
1
  6
Continuous
100
AcDbLine
 10
230.8804509999999
 20
130.59563
 30
0.0
 11
232.648212
 21
128.827869
 31
0.0
  0
LINE
  5
9863
330
9731
100
AcDbEntity
  8
1
  6
Continuous
100
AcDbLine
 10
230.8804359999999
 20
128.827869
 30
0.0
 11
232.648212
 21
130.59563
 31
0.0
  0
LINE
  5
9864
330
9731
100
AcDbEntity
  8
1
  6
Continuous
100
AcDbLine
 10
238.764332
 20
141.511753
 30
0.0
 11
238.764332
 21
151.011753
 31
0.0
  0
LINE
  5
9865
330
9731
100
AcDbEntity
  8
1
  6
Continuous
100
AcDbLine
 10
220.7643319999998
 20
154.4117469999999
 30
0.0
 11
221.264332
 21
154.4117469999999
 31
0.0
  0
LINE
  5
9866
330
9731
100
AcDbEntity
  8
1
  6
Continuous
100
AcDbLine
 10
220.7643319999998
 20
151.011753
 30
0.0
 11
220.7643319999998
 21
154.4117469999999
 31
0.0
  0
LINE
  5
9867
330
9731
100
AcDbEntity
  8
1
  6
Continuous
100
AcDbLine
 10
221.264332
 20
151.011753
 30
0.0
 11
221.264332
 21
154.4117469999999
 31
0.0
  0
LINE
  5
9868
330
9731
100
AcDbEntity
  8
1
  6
Continuous
100
AcDbLine
 10
229.4643289999999
 20
151.011753
 30
0.0
 11
229.4643289999999
 21
154.4117469999999
 31
0.0
  0
LINE
  5
9869
330
9731
100
AcDbEntity
  8
1
  6
Continuous
100
AcDbLine
 10
229.964329
 20
151.011753
 30
0.0
 11
229.964329
 21
154.4117469999999
 31
0.0
  0
LINE
  5
986A
330
9731
100
AcDbEntity
  8
1
  6
Continuous
100
AcDbLine
 10
236.164341
 20
151.011753
 30
0.0
 11
236.164341
 21
154.4117469999999
 31
0.0
  0
LINE
  5
986B
330
9731
100
AcDbEntity
  8
1
  6
Continuous
100
AcDbLine
 10
236.664341
 20
151.011753
 30
0.0
 11
236.664341
 21
154.4117469999999
 31
0.0
  0
LINE
  5
986C
330
9731
100
AcDbEntity
  8
1
  6
Continuous
100
AcDbLine
 10
229.4643289999999
 20
154.4117469999999
 30
0.0
 11
229.964329
 21
154.4117469999999
 31
0.0
  0
LINE
  5
986D
330
9731
100
AcDbEntity
  8
1
  6
Continuous
100
AcDbLine
 10
236.164341
 20
154.4117469999999
 30
0.0
 11
236.664341
 21
154.4117469999999
 31
0.0
  0
LINE
  5
986E
330
9731
100
AcDbEntity
  8
1
  6
Continuous
100
AcDbLine
 10
150.605411
 20
235.03162
 30
0.0
 11
154.605411
 21
235.03162
 31
0.0
  0
LINE
  5
986F
330
9731
100
AcDbEntity
  8
1
  6
Continuous
100
AcDbLine
 10
228.7643319999999
 20
141.511753
 30
0.0
 11
238.764332
 21
141.511753
 31
0.0
  0
LINE
  5
9870
330
9731
100
AcDbEntity
  8
1
  6
Continuous
100
AcDbLine
 10
228.7643319999999
 20
140.511753
 30
0.0
 11
228.7643319999999
 21
141.511753
 31
0.0
  0
LINE
  5
9871
330
9731
100
AcDbEntity
  8
1
  6
Continuous
100
AcDbLine
 10
228.7643319999999
 20
140.511753
 30
0.0
 11
224.7643319999999
 21
139.0117529999999
 31
0.0
  0
LINE
  5
9872
330
9731
100
AcDbEntity
  8
1
  6
Continuous
100
AcDbLine
 10
225.564335
 20
139.311756
 30
0.0
 11
241.197849
 21
138.111759
 31
0.0
  0
LINE
  5
9873
330
9731
100
AcDbEntity
  8
1
  6
Continuous
100
AcDbLine
 10
224.898319
 20
139.062
 30
0.0
 11
241.1748849999999
 21
137.8126409999999
 31
0.0
  0
LINE
  5
9874
330
9731
100
AcDbEntity
  8
1
  6
Continuous
100
AcDbLine
 10
241.197849
 20
138.111759
 30
0.0
 11
241.1748849999999
 21
137.8126409999999
 31
0.0
  0
LINE
  5
9875
330
9731
100
AcDbEntity
  8
1
  6
Continuous
100
AcDbLine
 10
240.264332
 20
131.7117499999999
 30
0.0
 11
235.7954599999999
 21
131.7117499999999
 31
0.0
  0
LINE
  5
9876
330
9731
100
AcDbEntity
  8
1
  6
Continuous
100
AcDbLine
 10
240.264332
 20
127.7117499999999
 30
0.0
 11
235.7954599999999
 21
127.7117499999999
 31
0.0
  0
LINE
  5
9877
330
9731
100
AcDbEntity
  8
4
  6
CENTER
100
AcDbLine
 10
98.61665700000001
 20
43.82539
 30
0.0
 11
110.2725029999999
 21
43.82539
 31
0.0
  0
LINE
  5
9878
330
9731
100
AcDbEntity
  8
1
  6
Continuous
100
AcDbLine
 10
102.4686619999999
 20
31.82539
 30
0.0
 11
102.4686619999999
 21
55.82539
 31
0.0
  0
LINE
  5
9879
330
9731
100
AcDbEntity
  8
1
  6
Continuous
100
AcDbLine
 10
106.468662
 20
55.82539
 30
0.0
 11
106.468662
 21
31.82539
 31
0.0
  0
LINE
  5
987A
330
9731
100
AcDbEntity
  8
1
  6
Continuous
100
AcDbLine
 10
128.9554019999999
 20
56.82539000000002
 30
0.0
 11
128.9554019999999
 21
30.82539000000001
 31
0.0
  0
LINE
  5
987B
330
9731
100
AcDbEntity
  8
4
  6
CENTER
100
AcDbLine
 10
154.1267579999999
 20
51.32539000000001
 30
0.0
 11
159.9775119999999
 21
51.32539000000001
 31
0.0
  0
LINE
  5
987C
330
9731
100
AcDbEntity
  8
4
  6
CENTER
100
AcDbLine
 10
162.600727
 20
43.82539
 30
0.0
 11
119.6473429999999
 21
43.82539
 31
0.0
  0
LINE
  5
987D
330
9731
100
AcDbEntity
  8
4
  6
CENTER
100
AcDbLine
 10
153.716816
 20
41.82539000000001
 30
0.0
 11
160.2894169999999
 21
41.82539000000001
 31
0.0
  0
LINE
  5
987E
330
9731
100
AcDbEntity
  8
1
  6
Continuous
100
AcDbLine
 10
129.9554019999999
 20
52.82538999999999
 30
0.0
 11
137.955402
 21
52.82538999999999
 31
0.0
  0
LINE
  5
987F
330
9731
100
AcDbEntity
  8
1
  6
Continuous
100
AcDbLine
 10
137.955402
 20
52.82538999999999
 30
0.0
 11
137.955402
 21
53.82539000000001
 31
0.0
  0
LINE
  5
9880
330
9731
100
AcDbEntity
  8
1
  6
Continuous
100
AcDbLine
 10
145.3554109999998
 20
56.82539000000002
 30
0.0
 11
155.855411
 21
56.82539000000002
 31
0.0
  0
LINE
  5
9881
330
9731
100
AcDbEntity
  8
1
  6
Continuous
100
AcDbLine
 10
154.881382
 20
33.32539000000001
 30
0.0
 11
148.7813759999999
 21
33.32539000000001
 31
0.0
  0
LINE
  5
9882
330
9731
100
AcDbEntity
  8
1
  6
Continuous
100
AcDbLine
 10
155.855411
 20
36.82539000000001
 30
0.0
 11
154.881382
 21
36.82539000000001
 31
0.0
  0
LINE
  5
9883
330
9731
100
AcDbEntity
  8
1
  6
Continuous
100
AcDbLine
 10
149.355411
 20
37.82538999999999
 30
0.0
 11
148.855411
 21
37.82538999999999
 31
0.0
  0
LINE
  5
9884
330
9731
100
AcDbEntity
  8
1
  6
Continuous
100
AcDbLine
 10
147.355411
 20
32.82538999999999
 30
0.0
 11
145.3554109999998
 21
32.82538999999999
 31
0.0
  0
LINE
  5
9885
330
9731
100
AcDbEntity
  8
1
  6
Continuous
100
AcDbLine
 10
137.955402
 20
33.82538999999999
 30
0.0
 11
137.955402
 21
34.82539000000001
 31
0.0
  0
LINE
  5
9886
330
9731
100
AcDbEntity
  8
1
  6
Continuous
100
AcDbLine
 10
137.955402
 20
34.82539000000001
 30
0.0
 11
129.9554019999999
 21
34.82539000000001
 31
0.0
  0
LINE
  5
9887
330
9731
100
AcDbEntity
  8
1
  6
Continuous
100
AcDbLine
 10
124.955402
 20
54.82539
 30
0.0
 11
124.955402
 21
32.82538999999999
 31
0.0
  0
LINE
  5
9888
330
9731
100
AcDbEntity
  8
1
  6
Continuous
100
AcDbLine
 10
124.955402
 20
32.825386
 30
0.0
 11
128.9554019999999
 21
30.82538599999999
 31
0.0
  0
LINE
  5
9889
330
9731
100
AcDbEntity
  8
1
  6
Continuous
100
AcDbLine
 10
128.9554019999999
 20
30.82539000000001
 30
0.0
 11
129.9554019999999
 21
30.82539000000001
 31
0.0
  0
LINE
  5
988A
330
9731
100
AcDbEntity
  8
1
  6
Continuous
100
AcDbLine
 10
129.9554019999999
 20
30.82539000000001
 30
0.0
 11
129.9554019999999
 21
56.82539000000002
 31
0.0
  0
LINE
  5
988B
330
9731
100
AcDbEntity
  8
1
  6
Continuous
100
AcDbLine
 10
129.9554019999999
 20
56.82539000000002
 30
0.0
 11
128.9554019999999
 21
56.82539000000002
 31
0.0
  0
LINE
  5
988C
330
9731
100
AcDbEntity
  8
1
  6
Continuous
100
AcDbLine
 10
128.9554169999999
 20
56.82539000000002
 30
0.0
 11
124.9554169999999
 21
54.82539
 31
0.0
  0
LINE
  5
988D
330
9731
100
AcDbEntity
  8
1
  6
Continuous
100
AcDbLine
 10
137.955402
 20
53.82539000000001
 30
0.0
 11
144.1553989999998
 21
53.82539000000001
 31
0.0
  0
LINE
  5
988E
330
9731
100
AcDbEntity
  8
1
  6
Continuous
100
AcDbLine
 10
145.3554109999998
 20
56.82539000000002
 30
0.0
 11
145.3554109999998
 21
32.82538999999999
 31
0.0
  0
LINE
  5
988F
330
9731
100
AcDbEntity
  8
1
  6
Continuous
100
AcDbLine
 10
144.1553989999998
 20
33.82538999999999
 30
0.0
 11
137.955402
 21
33.82538999999999
 31
0.0
  0
LINE
  5
9890
330
9731
100
AcDbEntity
  8
1
  6
Continuous
100
AcDbLine
 10
148.355411
 20
38.691414
 30
0.0
 11
148.355411
 21
39.37538899999999
 31
0.0
  0
LINE
  5
9891
330
9731
100
AcDbEntity
  8
1
  6
Continuous
100
AcDbLine
 10
147.355411
 20
56.82539000000002
 30
0.0
 11
147.355411
 21
32.82538999999999
 31
0.0
  0
LINE
  5
9892
330
9731
100
AcDbEntity
  8
1
  6
Continuous
100
AcDbLine
 10
149.355411
 20
36.82539000000001
 30
0.0
 11
149.355411
 21
39.37538899999999
 31
0.0
  0
LINE
  5
9893
330
9731
100
AcDbEntity
  8
1
  6
Continuous
100
AcDbLine
 10
155.855411
 20
56.82539000000002
 30
0.0
 11
155.855411
 21
46.12538899999999
 31
0.0
  0
LINE
  5
9894
330
9731
100
AcDbEntity
  8
1
  6
Continuous
100
AcDbLine
 10
155.855411
 20
39.52539
 30
0.0
 11
156.855411
 21
39.52539
 31
0.0
  0
LINE
  5
9895
330
9731
100
AcDbEntity
  8
1
  6
Continuous
100
AcDbLine
 10
156.855411
 20
39.82539000000001
 30
0.0
 11
157.2685889999999
 21
39.82539000000001
 31
0.0
  0
LINE
  5
9896
330
9731
100
AcDbEntity
  8
1
  6
Continuous
100
AcDbLine
 10
158.855411
 20
41.54669199999999
 30
0.0
 11
158.855411
 21
42.10408799999997
 31
0.0
  0
LINE
  5
9897
330
9731
100
AcDbEntity
  8
1
  6
Continuous
100
AcDbLine
 10
156.855411
 20
49.02539
 30
0.0
 11
155.855411
 21
49.02539
 31
0.0
  0
LINE
  5
9898
330
9731
100
AcDbEntity
  8
1
  6
Continuous
100
AcDbLine
 10
156.855411
 20
49.32539000000002
 30
0.0
 11
157.2685889999999
 21
49.32539000000002
 31
0.0
  0
LINE
  5
9899
330
9731
100
AcDbEntity
  8
1
  6
Continuous
100
AcDbLine
 10
158.855411
 20
50.810119
 30
0.0
 11
158.855411
 21
51.84066
 31
0.0
  0
LINE
  5
989A
330
9731
100
AcDbEntity
  8
1
  6
Continuous
100
AcDbLine
 10
157.2685889999999
 20
53.32539
 30
0.0
 11
156.855411
 21
53.32539
 31
0.0
  0
LINE
  5
989B
330
9731
100
AcDbEntity
  8
1
  6
Continuous
100
AcDbLine
 10
156.855411
 20
53.625393
 30
0.0
 11
155.855411
 21
53.625393
 31
0.0
  0
LINE
  5
989C
330
9731
100
AcDbEntity
  8
1
  6
Continuous
100
AcDbLine
 10
156.355411
 20
51.779308
 30
0.0
 11
156.8553959999999
 21
51.325386
 31
0.0
  0
LINE
  5
989D
330
9731
100
AcDbEntity
  8
1
  6
Continuous
100
AcDbLine
 10
156.8553959999999
 20
51.02471099999998
 30
0.0
 11
156.3553959999999
 21
51.436306
 31
0.0
  0
LINE
  5
989E
330
9731
100
AcDbEntity
  8
1
  6
Continuous
100
AcDbLine
 10
156.355411
 20
49.02539
 30
0.0
 11
156.355411
 21
53.625393
 31
0.0
  0
LINE
  5
989F
330
9731
100
AcDbEntity
  8
1
  6
Continuous
100
AcDbLine
 10
156.855411
 20
53.625393
 30
0.0
 11
156.855411
 21
49.02539
 31
0.0
  0
LINE
  5
98A0
330
9731
100
AcDbEntity
  8
1
  6
Continuous
100
AcDbLine
 10
156.855411
 20
41.93114099999998
 30
0.0
 11
156.855411
 21
39.52539
 31
0.0
  0
LINE
  5
98A1
330
9731
100
AcDbEntity
  8
1
  6
Continuous
100
AcDbLine
 10
156.355411
 20
39.52539
 30
0.0
 11
156.355411
 21
41.826996
 31
0.0
  0
LINE
  5
98A2
330
9731
100
AcDbEntity
  8
1
  6
Continuous
100
AcDbLine
 10
154.881382
 20
33.32539000000001
 30
0.0
 11
154.881382
 21
48.32539
 31
0.0
  0
LINE
  5
98A3
330
9731
100
AcDbEntity
  8
1
  6
Continuous
100
AcDbLine
 10
144.1554139999998
 20
33.82538999999999
 30
0.0
 11
145.3554109999998
 21
35.02538700000001
 31
0.0
  0
LINE
  5
98A4
330
9731
100
AcDbEntity
  8
1
  6
Continuous
100
AcDbLine
 10
144.1553989999998
 20
33.82538999999999
 30
0.0
 11
144.1553989999998
 21
53.82539000000001
 31
0.0
  0
LINE
  5
98A5
330
9731
100
AcDbEntity
  8
1
  6
Continuous
100
AcDbLine
 10
148.855411
 20
37.82538999999999
 30
0.0
 11
148.855411
 21
35.82539000000001
 31
0.0
  0
LINE
  5
98A6
330
9731
100
AcDbEntity
  8
1
  6
Continuous
100
AcDbLine
 10
147.855411
 20
34.82539000000001
 30
0.0
 11
147.355411
 21
34.82539000000001
 31
0.0
  0
LINE
  5
98A7
330
9731
100
AcDbEntity
  8
1
  6
Continuous
100
AcDbLine
 10
102.4686619999999
 20
55.82539
 30
0.0
 11
106.468662
 21
55.82539
 31
0.0
  0
LINE
  5
98A8
330
9731
100
AcDbEntity
  8
1
  6
Continuous
100
AcDbLine
 10
102.4686619999999
 20
31.82539
 30
0.0
 11
106.468662
 21
31.82539
 31
0.0
  0
LINE
  5
98A9
330
9731
100
AcDbEntity
  8
1
  6
Continuous
100
AcDbLine
 10
102.4686619999999
 20
43.82539
 30
0.0
 11
106.468662
 21
43.82539
 31
0.0
  0
LINE
  5
98AA
330
9731
100
AcDbEntity
  8
2
  6
Continuous
100
AcDbLine
 10
144.6969029999999
 20
34.36688999999999
 30
0.0
 11
137.955402
 21
34.36688999999999
 31
0.0
  0
LINE
  5
98AB
330
9731
100
AcDbEntity
  8
2
  6
Continuous
100
AcDbLine
 10
144.6969029999999
 20
53.283886
 30
0.0
 11
137.955402
 21
53.283886
 31
0.0
  0
LINE
  5
98AC
330
9731
100
AcDbEntity
  8
1
  6
Continuous
100
AcDbLine
 10
154.881382
 20
39.32539000000001
 30
0.0
 11
150.181385
 21
39.32539000000001
 31
0.0
  0
LINE
  5
98AD
330
9731
100
AcDbEntity
  8
1
  6
Continuous
100
AcDbLine
 10
154.881382
 20
48.32539
 30
0.0
 11
150.181385
 21
48.32539
 31
0.0
  0
LINE
  5
98AE
330
9731
100
AcDbEntity
  8
1
  6
Continuous
100
AcDbLine
 10
149.598057
 20
36.82539000000001
 30
0.0
 11
149.355411
 21
36.82539000000001
 31
0.0
  0
LINE
  5
98AF
330
9731
100
AcDbEntity
  8
1
  6
Continuous
100
AcDbLine
 10
157.8857459999998
 20
44.222374
 30
0.0
 11
157.8857459999998
 21
43.428406
 31
0.0
  0
LINE
  5
98B0
330
9731
100
AcDbEntity
  8
1
  6
Continuous
100
AcDbLine
 10
155.881382
 20
127.4117469999999
 30
0.0
 11
154.881382
 21
127.4117469999999
 31
0.0
  0
LINE
  5
98B1
330
9731
100
AcDbEntity
  8
1
  6
Continuous
100
AcDbLine
 10
155.881382
 20
132.011753
 30
0.0
 11
155.881382
 21
127.4117469999999
 31
0.0
  0
LINE
  5
98B2
330
9731
100
AcDbEntity
  8
1
  6
Continuous
100
AcDbLine
 10
156.294575
 20
127.7117499999999
 30
0.0
 11
155.881382
 21
127.7117499999999
 31
0.0
  0
LINE
  5
98B3
330
9731
100
AcDbEntity
  8
1
  6
Continuous
100
AcDbLine
 10
154.8813969999999
 20
129.218296
 30
0.0
 11
155.881382
 21
129.7117499999999
 31
0.0
  0
LINE
  5
98B4
330
9731
100
AcDbEntity
  8
1
  6
Continuous
100
AcDbLine
 10
155.881382
 20
129.9772979999999
 30
0.0
 11
154.881382
 21
129.4893679999999
 31
0.0
  0
LINE
  5
98B5
330
9731
100
AcDbEntity
  8
1
  6
Continuous
100
AcDbLine
 10
154.881382
 20
132.011753
 30
0.0
 11
155.881382
 21
132.011753
 31
0.0
  0
LINE
  5
98B6
330
9731
100
AcDbEntity
  8
1
  6
Continuous
100
AcDbLine
 10
155.881382
 20
131.7117499999999
 30
0.0
 11
156.294575
 21
131.7117499999999
 31
0.0
  0
LINE
  5
98B7
330
9731
100
AcDbEntity
  8
1
  6
Continuous
100
AcDbLine
 10
157.8857459999998
 20
130.108738
 30
0.0
 11
157.8857459999998
 21
129.314777
 31
0.0
  0
LINE
  5
98B8
330
9731
100
AcDbEntity
  8
1
  6
Continuous
100
AcDbLine
 10
155.855411
 20
41.52538999999999
 30
0.0
 11
155.855411
 21
36.82539000000001
 31
0.0
  0
LINE
  5
98B9
330
9731
100
AcDbEntity
  8
1
  6
Continuous
100
AcDbLine
 10
149.355411
 20
48.27539
 30
0.0
 11
149.355411
 21
56.82539000000002
 31
0.0
  0
LINE
  5
98BA
330
9731
100
AcDbEntity
  8
1
  6
Continuous
100
AcDbLine
 10
148.355411
 20
48.27539
 30
0.0
 11
148.355411
 21
48.95936599999998
 31
0.0
  0
LINE
  5
98BB
330
9731
100
AcDbEntity
  8
1
  6
Continuous
100
AcDbLine
 10
147.855411
 20
38.82538999999999
 30
0.0
 11
147.355411
 21
38.82538999999999
 31
0.0
  0
LINE
  5
98BC
330
9731
100
AcDbEntity
  8
1
  6
Continuous
100
AcDbLine
 10
147.855411
 20
48.82539000000001
 30
0.0
 11
147.355411
 21
48.82539000000001
 31
0.0
  0
LINE
  5
98BD
330
9731
100
AcDbEntity
  8
1
  6
Continuous
100
AcDbLine
 10
148.855411
 20
49.82539
 30
0.0
 11
148.855411
 21
51.82539000000002
 31
0.0
  0
LINE
  5
98BE
330
9731
100
AcDbEntity
  8
1
  6
Continuous
100
AcDbLine
 10
147.855411
 20
52.82538999999999
 30
0.0
 11
147.355411
 21
52.82538999999999
 31
0.0
  0
LINE
  5
98BF
330
9731
100
AcDbEntity
  8
1
  6
Continuous
100
AcDbLine
 10
148.355411
 20
52.691414
 30
0.0
 11
148.355411
 21
56.82539000000002
 31
0.0
  0
LINE
  5
98C0
330
9731
100
AcDbEntity
  8
1
  6
Continuous
100
AcDbLine
 10
148.3813819999998
 20
47.22355199999999
 30
0.0
 11
148.3813819999998
 21
40.427227
 31
0.0
  0
LINE
  5
98C1
330
9731
100
AcDbEntity
  8
1
  6
Continuous
100
AcDbLine
 10
150.181385
 20
39.37538899999999
 30
0.0
 11
147.355411
 21
39.37538899999999
 31
0.0
  0
LINE
  5
98C2
330
9731
100
AcDbEntity
  8
1
  6
Continuous
100
AcDbLine
 10
150.181385
 20
48.27539
 30
0.0
 11
147.355411
 21
48.27539
 31
0.0
  0
LINE
  5
98C3
330
9731
100
AcDbEntity
  8
1
  6
Continuous
100
AcDbLine
 10
148.3813819999998
 20
40.427227
 30
0.0
 11
150.181385
 21
40.427227
 31
0.0
  0
LINE
  5
98C4
330
9731
100
AcDbEntity
  8
1
  6
Continuous
100
AcDbLine
 10
148.3813819999998
 20
47.22355199999999
 30
0.0
 11
150.181385
 21
47.22355199999999
 31
0.0
  0
LINE
  5
98C5
330
9731
100
AcDbEntity
  8
1
  6
Continuous
100
AcDbLine
 10
144.1553989999998
 20
53.82539000000001
 30
0.0
 11
145.3554109999998
 21
52.625393
 31
0.0
  0
LINE
  5
98C6
330
9731
100
AcDbEntity
  8
1
  6
Continuous
100
AcDbLine
 10
334.5732759999999
 20
116.71175
 30
0.0
 11
334.5732759999999
 21
142.71175
 31
0.0
  0
LINE
  5
98C7
330
9731
100
AcDbEntity
  8
2
  6
Continuous
100
AcDbLine
 10
333.573246
 20
128.258777
 30
0.0
 11
325.5732759999999
 21
134.0706519999999
 31
0.0
  0
LINE
  5
98C8
330
9731
100
AcDbEntity
  8
2
  6
Continuous
100
AcDbLine
 10
325.5732759999999
 20
125.3528479999999
 30
0.0
 11
333.5732759999999
 21
131.1647219999999
 31
0.0
  0
LINE
  5
98C9
330
9731
100
AcDbEntity
  8
4
  6
CENTER
100
AcDbLine
 10
302.5995819999999
 20
148.011753
 30
0.0
 11
323.4763529999999
 21
148.011753
 31
0.0
  0
LINE
  5
98CA
330
9731
100
AcDbEntity
  8
1
  6
Continuous
100
AcDbLine
 10
304.6732519999999
 20
148.527027
 30
0.0
 11
304.6732519999999
 21
147.496479
 31
0.0
  0
LINE
  5
98CB
330
9731
100
AcDbEntity
  8
1
  6
Continuous
100
AcDbLine
 10
306.2600739999999
 20
146.0117529999999
 30
0.0
 11
306.6732519999998
 21
146.0117529999999
 31
0.0
  0
LINE
  5
98CC
330
9731
100
AcDbEntity
  8
1
  6
Continuous
100
AcDbLine
 10
306.6732519999998
 20
145.71175
 30
0.0
 11
307.673252
 21
145.71175
 31
0.0
  0
LINE
  5
98CD
330
9731
100
AcDbEntity
  8
1
  6
Continuous
100
AcDbLine
 10
307.1732819999998
 20
148.4656709999998
 30
0.0
 11
306.6732519999998
 21
148.011753
 31
0.0
  0
LINE
  5
98CE
330
9731
100
AcDbEntity
  8
1
  6
Continuous
100
AcDbLine
 10
306.6732519999998
 20
147.7110779999999
 30
0.0
 11
307.1732819999998
 21
148.122699
 31
0.0
  0
LINE
  5
98CF
330
9731
100
AcDbEntity
  8
1
  6
Continuous
100
AcDbLine
 10
306.6732519999998
 20
150.0117529999999
 30
0.0
 11
306.2600739999999
 21
150.0117529999999
 31
0.0
  0
LINE
  5
98D0
330
9731
100
AcDbEntity
  8
1
  6
Continuous
100
AcDbLine
 10
306.6732519999998
 20
150.3117559999998
 30
0.0
 11
307.673252
 21
150.3117559999998
 31
0.0
  0
LINE
  5
98D1
330
9731
100
AcDbEntity
  8
1
  6
Continuous
100
AcDbLine
 10
307.673252
 20
139.0117529999999
 30
0.0
 11
308.9232519999999
 21
139.0117529999999
 31
0.0
  0
LINE
  5
98D2
330
9731
100
AcDbEntity
  8
1
  6
Continuous
100
AcDbLine
 10
314.173252
 20
139.0117529999999
 30
0.0
 11
314.173252
 21
155.5117529999999
 31
0.0
  0
LINE
  5
98D3
330
9731
100
AcDbEntity
  8
1
  6
Continuous
100
AcDbLine
 10
314.173252
 20
155.5117529999999
 30
0.0
 11
316.173252
 21
155.5117529999999
 31
0.0
  0
LINE
  5
98D4
330
9731
100
AcDbEntity
  8
1
  6
Continuous
100
AcDbLine
 10
316.173252
 20
155.5117529999999
 30
0.0
 11
316.173252
 21
118.71175
 31
0.0
  0
LINE
  5
98D5
330
9731
100
AcDbEntity
  8
1
  6
Continuous
100
AcDbLine
 10
316.173252
 20
118.71175
 30
0.0
 11
318.173252
 21
118.71175
 31
0.0
  0
LINE
  5
98D6
330
9731
100
AcDbEntity
  8
1
  6
Continuous
100
AcDbLine
 10
318.173252
 20
118.71175
 30
0.0
 11
318.173252
 21
154.2117499999999
 31
0.0
  0
LINE
  5
98D7
330
9731
100
AcDbEntity
  8
1
  6
Continuous
100
AcDbLine
 10
318.173252
 20
154.2117499999999
 30
0.0
 11
316.173252
 21
154.2117499999999
 31
0.0
  0
LINE
  5
98D8
330
9731
100
AcDbEntity
  8
1
  6
Continuous
100
AcDbLine
 10
315.1732519999999
 20
155.5117529999999
 30
0.0
 11
315.1732519999999
 21
141.0117529999999
 31
0.0
  0
LINE
  5
98D9
330
9731
100
AcDbEntity
  8
1
  6
Continuous
100
AcDbLine
 10
314.173252
 20
141.0117529999999
 30
0.0
 11
316.173252
 21
141.0117529999999
 31
0.0
  0
LINE
  5
98DA
330
9731
100
AcDbEntity
  8
1
  6
Continuous
100
AcDbLine
 10
319.373264
 20
139.71175
 30
0.0
 11
333.5732759999999
 21
139.71175
 31
0.0
  0
LINE
  5
98DB
330
9731
100
AcDbEntity
  8
1
  6
Continuous
100
AcDbLine
 10
325.5732759999999
 20
134.0706519999999
 30
0.0
 11
333.5732759999999
 21
134.0706519999999
 31
0.0
  0
LINE
  5
98DC
330
9731
100
AcDbEntity
  8
1
  6
Continuous
100
AcDbLine
 10
333.5732759999999
 20
142.71175
 30
0.0
 11
333.5732759999999
 21
116.71175
 31
0.0
  0
LINE
  5
98DD
330
9731
100
AcDbEntity
  8
1
  6
Continuous
100
AcDbLine
 10
333.5732759999999
 20
116.71175
 30
0.0
 11
334.5732759999999
 21
116.71175
 31
0.0
  0
LINE
  5
98DE
330
9731
100
AcDbEntity
  8
1
  6
Continuous
100
AcDbLine
 10
334.5732459999999
 20
116.71175
 30
0.0
 11
338.5732459999999
 21
118.71175
 31
0.0
  0
LINE
  5
98DF
330
9731
100
AcDbEntity
  8
1
  6
Continuous
100
AcDbLine
 10
338.5732759999999
 20
118.71175
 30
0.0
 11
338.5732759999999
 21
140.71175
 31
0.0
  0
LINE
  5
98E0
330
9731
100
AcDbEntity
  8
1
  6
Continuous
100
AcDbLine
 10
338.5732459999999
 20
140.71175
 30
0.0
 11
334.5732459999999
 21
142.71175
 31
0.0
  0
LINE
  5
98E1
330
9731
100
AcDbEntity
  8
1
  6
Continuous
100
AcDbLine
 10
334.5732759999999
 20
142.71175
 30
0.0
 11
333.5732759999999
 21
142.71175
 31
0.0
  0
LINE
  5
98E2
330
9731
100
AcDbEntity
  8
1
  6
Continuous
100
AcDbLine
 10
325.5732759999999
 20
134.0706519999999
 30
0.0
 11
325.5732759999999
 21
125.3528479999999
 31
0.0
  0
LINE
  5
98E3
330
9731
100
AcDbEntity
  8
1
  6
Continuous
100
AcDbLine
 10
325.5732759999999
 20
125.3528479999999
 30
0.0
 11
333.5732759999999
 21
125.3528479999999
 31
0.0
  0
LINE
  5
98E4
330
9731
100
AcDbEntity
  8
1
  6
Continuous
100
AcDbLine
 10
333.5732759999999
 20
119.71175
 30
0.0
 11
319.373264
 21
119.71175
 31
0.0
  0
LINE
  5
98E5
330
9731
100
AcDbEntity
  8
1
  6
Continuous
100
AcDbLine
 10
316.173252
 20
125.2617529999999
 30
0.0
 11
315.147281
 21
125.2617529999999
 31
0.0
  0
LINE
  5
98E6
330
9731
100
AcDbEntity
  8
1
  6
Continuous
100
AcDbLine
 10
315.147281
 20
125.2617529999999
 30
0.0
 11
315.147281
 21
126.761753
 31
0.0
  0
LINE
  5
98E7
330
9731
100
AcDbEntity
  8
1
  6
Continuous
100
AcDbLine
 10
315.147281
 20
126.761753
 30
0.0
 11
313.3472939999998
 21
126.761753
 31
0.0
  0
LINE
  5
98E8
330
9731
100
AcDbEntity
  8
1
  6
Continuous
100
AcDbLine
 10
313.3472939999998
 20
132.6617469999999
 30
0.0
 11
315.147281
 21
132.6617469999999
 31
0.0
  0
LINE
  5
98E9
330
9731
100
AcDbEntity
  8
1
  6
Continuous
100
AcDbLine
 10
315.147281
 20
132.6617469999999
 30
0.0
 11
315.147281
 21
134.1617469999999
 31
0.0
  0
LINE
  5
98EA
330
9731
100
AcDbEntity
  8
1
  6
Continuous
100
AcDbLine
 10
315.147281
 20
134.1617469999999
 30
0.0
 11
316.173252
 21
134.1617469999999
 31
0.0
  0
LINE
  5
98EB
330
9731
100
AcDbEntity
  8
1
  6
Continuous
100
AcDbLine
 10
315.147281
 20
134.21175
 30
0.0
 11
308.647281
 21
134.21175
 31
0.0
  0
LINE
  5
98EC
330
9731
100
AcDbEntity
  8
1
  6
Continuous
100
AcDbLine
 10
308.647281
 20
125.2117499999999
 30
0.0
 11
315.147281
 21
125.2117499999999
 31
0.0
  0
LINE
  5
98ED
330
9731
100
AcDbEntity
  8
1
  6
Continuous
100
AcDbLine
 10
315.6732519999998
 20
131.7117499999999
 30
0.0
 11
316.173252
 21
131.7117499999999
 31
0.0
  0
LINE
  5
98EE
330
9731
100
AcDbEntity
  8
1
  6
Continuous
100
AcDbLine
 10
316.173252
 20
127.7117499999999
 30
0.0
 11
315.6732519999998
 21
127.7117499999999
 31
0.0
  0
LINE
  5
98EF
330
9731
100
AcDbEntity
  8
1
  6
Continuous
100
AcDbLine
 10
312.9232519999998
 20
137.8117559999998
 30
0.0
 11
312.9232519999998
 21
139.311756
 31
0.0
  0
LINE
  5
98F0
330
9731
100
AcDbEntity
  8
1
  6
Continuous
100
AcDbLine
 10
312.9232519999998
 20
137.8117559999998
 30
0.0
 11
308.9232519999999
 21
137.8117559999998
 31
0.0
  0
LINE
  5
98F1
330
9731
100
AcDbEntity
  8
1
  6
Continuous
100
AcDbLine
 10
308.9232519999999
 20
137.8117559999998
 30
0.0
 11
308.9232519999999
 21
139.311756
 31
0.0
  0
LINE
  5
98F2
330
9731
100
AcDbEntity
  8
1
  6
Continuous
100
AcDbLine
 10
307.673252
 20
139.0117529999999
 30
0.0
 11
307.673252
 21
151.4117469999999
 31
0.0
  0
LINE
  5
98F3
330
9731
100
AcDbEntity
  8
1
  6
Continuous
100
AcDbLine
 10
309.3232759999999
 20
154.1117589999998
 30
0.0
 11
309.3232759999999
 21
151.011753
 31
0.0
  0
LINE
  5
98F4
330
9731
100
AcDbEntity
  8
1
  6
Continuous
100
AcDbLine
 10
307.8804359999999
 20
151.011753
 30
0.0
 11
307.773258
 21
151.4117469999999
 31
0.0
  0
LINE
  5
98F5
330
9731
100
AcDbEntity
  8
1
  6
Continuous
100
AcDbLine
 10
307.773258
 20
151.4117469999999
 30
0.0
 11
307.673252
 21
151.4117469999999
 31
0.0
  0
LINE
  5
98F6
330
9731
100
AcDbEntity
  8
1
  6
Continuous
100
AcDbLine
 10
307.673252
 20
151.011753
 30
0.0
 11
314.173252
 21
151.011753
 31
0.0
  0
LINE
  5
98F7
330
9731
100
AcDbEntity
  8
1
  6
Continuous
100
AcDbLine
 10
312.523258
 20
151.011753
 30
0.0
 11
312.523258
 21
154.1117589999998
 31
0.0
  0
LINE
  5
98F8
330
9731
100
AcDbEntity
  8
1
  6
Continuous
100
AcDbLine
 10
312.523258
 20
154.1117589999998
 30
0.0
 11
312.22327
 21
154.411762
 31
0.0
  0
LINE
  5
98F9
330
9731
100
AcDbEntity
  8
1
  6
Continuous
100
AcDbLine
 10
312.22327
 20
154.4117469999999
 30
0.0
 11
309.623264
 21
154.4117469999999
 31
0.0
  0
LINE
  5
98FA
330
9731
100
AcDbEntity
  8
1
  6
Continuous
100
AcDbLine
 10
309.623264
 20
154.4117469999999
 30
0.0
 11
309.3232759999999
 21
154.1117439999998
 31
0.0
  0
LINE
  5
98FB
330
9731
100
AcDbEntity
  8
1
  6
Continuous
100
AcDbLine
 10
318.173252
 20
150.5117529999999
 30
0.0
 11
319.6732519999998
 21
150.5117529999999
 31
0.0
  0
LINE
  5
98FC
330
9731
100
AcDbEntity
  8
1
  6
Continuous
100
AcDbLine
 10
319.6732519999998
 20
150.5117529999999
 30
0.0
 11
319.6732519999998
 21
145.511753
 31
0.0
  0
LINE
  5
98FD
330
9731
100
AcDbEntity
  8
1
  6
Continuous
100
AcDbLine
 10
319.6732519999998
 20
145.511753
 30
0.0
 11
318.173252
 21
145.511753
 31
0.0
  0
LINE
  5
98FE
330
9731
100
AcDbEntity
  8
1
  6
Continuous
100
AcDbLine
 10
318.173252
 20
146.761753
 30
0.0
 11
319.6732519999998
 21
146.761753
 31
0.0
  0
LINE
  5
98FF
330
9731
100
AcDbEntity
  8
1
  6
Continuous
100
AcDbLine
 10
319.6732519999998
 20
146.861759
 30
0.0
 11
321.6732519999998
 21
146.861759
 31
0.0
  0
LINE
  5
9900
330
9731
100
AcDbEntity
  8
1
  6
Continuous
100
AcDbLine
 10
321.6732519999998
 20
149.161747
 30
0.0
 11
319.6732519999998
 21
149.161747
 31
0.0
  0
LINE
  5
9901
330
9731
100
AcDbEntity
  8
1
  6
Continuous
100
AcDbLine
 10
319.6732519999998
 20
149.2617529999999
 30
0.0
 11
318.173252
 21
149.2617529999999
 31
0.0
  0
LINE
  5
9902
330
9731
100
AcDbEntity
  8
1
  6
Continuous
100
AcDbLine
 10
307.1732519999998
 20
150.3117559999998
 30
0.0
 11
307.1732519999998
 21
145.71175
 31
0.0
  0
LINE
  5
9903
330
9731
100
AcDbEntity
  8
1
  6
Continuous
100
AcDbLine
 10
306.6732519999998
 20
145.71175
 30
0.0
 11
306.6732519999998
 21
150.3117559999998
 31
0.0
  0
LINE
  5
9904
330
9731
100
AcDbEntity
  8
1
  6
Continuous
100
AcDbLine
 10
308.647281
 20
125.2117499999999
 30
0.0
 11
308.647281
 21
134.21175
 31
0.0
  0
LINE
  5
9905
330
9731
100
AcDbEntity
  8
1
  6
Continuous
100
AcDbLine
 10
321.6732519999998
 20
146.861759
 30
0.0
 11
321.6732519999998
 21
149.161747
 31
0.0
  0
LINE
  5
9906
330
9731
100
AcDbEntity
  8
1
  6
Continuous
100
AcDbLine
 10
319.373264
 20
139.7117649999999
 30
0.0
 11
318.173252
 21
138.511753
 31
0.0
  0
LINE
  5
9907
330
9731
100
AcDbEntity
  8
1
  6
Continuous
100
AcDbLine
 10
319.373264
 20
119.71175
 30
0.0
 11
318.173252
 21
120.911747
 31
0.0
  0
LINE
  5
9908
330
9731
100
AcDbEntity
  8
1
  6
Continuous
100
AcDbLine
 10
319.373264
 20
139.71175
 30
0.0
 11
319.373264
 21
119.71175
 31
0.0
  0
LINE
  5
9909
330
9731
100
AcDbEntity
  8
4
  6
CENTER
100
AcDbLine
 10
342.457218
 20
129.7117499999999
 30
0.0
 11
303.5192299999998
 21
129.7117499999999
 31
0.0
  0
LINE
  5
990A
330
9731
100
AcDbEntity
  8
4
  6
CENTER
100
AcDbLine
 10
364.9379609999999
 20
129.7117499999999
 30
0.0
 11
353.256168
 21
129.7117499999999
 31
0.0
  0
LINE
  5
990B
330
9731
100
AcDbEntity
  8
1
  6
Continuous
100
AcDbLine
 10
361.060001
 20
143.568165
 30
0.0
 11
361.060001
 21
115.85535
 31
0.0
  0
LINE
  5
990C
330
9731
100
AcDbEntity
  8
1
  6
Continuous
100
AcDbLine
 10
357.060001
 20
115.85535
 30
0.0
 11
357.060001
 21
143.568165
 31
0.0
  0
LINE
  5
990D
330
9731
100
AcDbEntity
  8
1
  6
Continuous
100
AcDbLine
 10
361.060001
 20
115.85535
 30
0.0
 11
357.060001
 21
115.85535
 31
0.0
  0
LINE
  5
990E
330
9731
100
AcDbEntity
  8
1
  6
Continuous
100
AcDbLine
 10
361.060001
 20
143.568165
 30
0.0
 11
357.060001
 21
143.568165
 31
0.0
  0
LINE
  5
990F
330
9731
100
AcDbEntity
  8
1
  6
Continuous
100
AcDbLine
 10
361.060001
 20
122.783558
 30
0.0
 11
357.060001
 21
122.783558
 31
0.0
  0
LINE
  5
9910
330
9731
100
AcDbEntity
  8
1
  6
Continuous
100
AcDbLine
 10
361.060001
 20
136.639957
 30
0.0
 11
357.060001
 21
136.639957
 31
0.0
  0
LINE
  5
9911
330
9731
100
AcDbEntity
  8
2
  6
Continuous
100
AcDbLine
 10
319.6732519999998
 20
147.078251
 30
0.0
 11
321.6732519999998
 21
147.078251
 31
0.0
  0
LINE
  5
9912
330
9731
100
AcDbEntity
  8
2
  6
Continuous
100
AcDbLine
 10
319.6732519999998
 20
148.945255
 30
0.0
 11
321.6732519999998
 21
148.945255
 31
0.0
  0
LINE
  5
9913
330
9731
100
AcDbEntity
  8
2
  6
Continuous
100
AcDbLine
 10
333.5732759999999
 20
120.2532539999999
 30
0.0
 11
318.8317599999999
 21
120.2532539999999
 31
0.0
  0
LINE
  5
9914
330
9731
100
AcDbEntity
  8
2
  6
Continuous
100
AcDbLine
 10
333.5732759999999
 20
139.1702459999999
 30
0.0
 11
318.8317599999999
 21
139.1702459999999
 31
0.0
  0
LINE
  5
9915
330
9731
100
AcDbEntity
  8
1
  6
Continuous
100
AcDbLine
 10
307.647281
 20
127.4117469999999
 30
0.0
 11
308.647281
 21
127.4117469999999
 31
0.0
  0
LINE
  5
9916
330
9731
100
AcDbEntity
  8
1
  6
Continuous
100
AcDbLine
 10
307.647281
 20
132.011753
 30
0.0
 11
307.647281
 21
127.4117469999999
 31
0.0
  0
LINE
  5
9917
330
9731
100
AcDbEntity
  8
1
  6
Continuous
100
AcDbLine
 10
307.2341039999999
 20
127.7117499999999
 30
0.0
 11
307.647281
 21
127.7117499999999
 31
0.0
  0
LINE
  5
9918
330
9731
100
AcDbEntity
  8
1
  6
Continuous
100
AcDbLine
 10
308.647281
 20
130.2051889999999
 30
0.0
 11
307.647281
 21
129.7117499999999
 31
0.0
  0
LINE
  5
9919
330
9731
100
AcDbEntity
  8
1
  6
Continuous
100
AcDbLine
 10
307.647312
 20
129.4462009999998
 30
0.0
 11
308.647281
 21
129.934131
 31
0.0
  0
LINE
  5
991A
330
9731
100
AcDbEntity
  8
1
  6
Continuous
100
AcDbLine
 10
308.647281
 20
132.011753
 30
0.0
 11
307.647281
 21
132.011753
 31
0.0
  0
LINE
  5
991B
330
9731
100
AcDbEntity
  8
1
  6
Continuous
100
AcDbLine
 10
307.647281
 20
131.7117499999999
 30
0.0
 11
307.2341039999999
 21
131.7117499999999
 31
0.0
  0
LINE
  5
991C
330
9731
100
AcDbEntity
  8
1
  6
Continuous
100
AcDbLine
 10
305.642917
 20
130.108738
 30
0.0
 11
305.642917
 21
129.314777
 31
0.0
  0
LINE
  5
991D
330
9731
100
AcDbEntity
  8
1
  6
Continuous
100
AcDbLine
 10
307.673252
 20
141.511753
 30
0.0
 11
314.173252
 21
141.511753
 31
0.0
  0
LINE
  5
991E
330
9731
100
AcDbEntity
  8
1
  6
Continuous
100
AcDbLine
 10
308.9232519999999
 20
139.311756
 30
0.0
 11
312.9232519999998
 21
139.311756
 31
0.0
  0
LINE
  5
991F
330
9731
100
AcDbEntity
  8
1
  6
Continuous
100
AcDbLine
 10
312.9232519999998
 20
139.0117529999999
 30
0.0
 11
314.173252
 21
139.0117529999999
 31
0.0
  0
LINE
  5
9920
330
9731
100
AcDbEntity
  8
1
  6
Continuous
100
AcDbLine
 10
308.9232519999999
 20
138.111759
 30
0.0
 11
312.9232519999998
 21
138.111759
 31
0.0
  0
LINE
  5
9921
330
9731
100
AcDbEntity
  8
1
  6
Continuous
100
AcDbLine
 10
314.7472879999999
 20
127.7117499999999
 30
0.0
 11
308.647281
 21
127.7117499999999
 31
0.0
  0
LINE
  5
9922
330
9731
100
AcDbEntity
  8
1
  6
Continuous
100
AcDbLine
 10
314.7472879999999
 20
131.7117499999999
 30
0.0
 11
308.647281
 21
131.7117499999999
 31
0.0
  0
LINE
  5
9923
330
9731
100
AcDbEntity
  8
1
  6
Continuous
100
AcDbLine
 10
314.7472879999999
 20
127.7117499999999
 30
0.0
 11
314.7472879999999
 21
131.7117499999999
 31
0.0
  0
LINE
  5
9924
330
9731
100
AcDbEntity
  8
1
  6
Continuous
100
AcDbLine
 10
150.181385
 20
48.32539
 30
0.0
 11
150.181385
 21
47.22355199999999
 31
0.0
  0
LINE
  5
9925
330
9731
100
AcDbEntity
  8
1
  6
Continuous
100
AcDbLine
 10
150.181385
 20
40.427227
 30
0.0
 11
150.181385
 21
39.32539000000001
 31
0.0
  0
LINE
  5
9926
330
9731
100
AcDbEntity
  8
1
  6
Continuous
100
AcDbLine
 10
150.181385
 20
39.32538199999999
 30
0.0
 11
148.7813909999998
 21
33.32539000000001
 31
0.0
  0
LINE
  5
9927
330
9731
100
AcDbEntity
  8
1
  6
Continuous
100
AcDbLine
 10
150.181385
 20
126.761753
 30
0.0
 11
150.181385
 21
132.6617469999999
 31
0.0
  0
LINE
  5
9928
330
9731
100
AcDbEntity
  8
1
  6
Continuous
100
AcDbLine
 10
149.598057
 20
232.598118
 30
0.0
 11
148.7813909999998
 21
236.098118
 31
0.0
  0
LINE
  5
9929
330
9731
100
AcDbEntity
  8
1
  6
Continuous
100
AcDbLine
 10
313.3472939999998
 20
126.761753
 30
0.0
 11
313.3472939999998
 21
127.7117499999999
 31
0.0
  0
LINE
  5
992A
330
9731
100
AcDbEntity
  8
1
  6
Continuous
100
AcDbLine
 10
313.3472939999998
 20
131.7117499999999
 30
0.0
 11
313.3472939999998
 21
132.6617469999999
 31
0.0
  0
LINE
  5
992B
330
9731
100
AcDbEntity
  8
1
  6
Continuous
100
AcDbLine
 10
21.62078999999998
 20
225.2652009999999
 30
0.0
 11
26.27216699999999
 21
225.2652009999999
 31
0.0
  0
LINE
  5
992C
330
9731
100
AcDbEntity
  8
1
  6
Continuous
100
AcDbLine
 10
21.676271
 20
224.599369
 30
0.0
 11
26.216678
 21
224.599369
 31
0.0
  0
LINE
  5
992D
330
9731
100
AcDbEntity
  8
1
  6
Continuous
100
AcDbLine
 10
26.0191
 20
223.932178
 30
0.0
 11
24.74561700000001
 21
223.932178
 31
0.0
  0
LINE
  5
992E
330
9731
100
AcDbEntity
  8
1
  6
Continuous
100
AcDbLine
 10
22.21489899999999
 20
223.2649879999999
 30
0.0
 11
25.678058
 21
223.2649879999999
 31
0.0
  0
LINE
  5
992F
330
9731
100
AcDbEntity
  8
1
  6
Continuous
100
AcDbLine
 10
23.945804
 20
225.2652009999999
 30
0.0
 11
23.945804
 21
224.599369
 31
0.0
  0
LINE
  5
9930
330
9731
100
AcDbEntity
  8
1
  6
Continuous
100
AcDbLine
 10
23.14598399999999
 20
223.932178
 30
0.0
 11
21.873857
 21
223.932178
 31
0.0
  0
LINE
  5
9931
330
9731
100
AcDbEntity
  8
1
  6
Continuous
100
AcDbLine
 10
22.30151
 20
222.5991549999999
 30
0.0
 11
25.590092
 21
222.5991549999999
 31
0.0
  0
LINE
  5
9932
330
9731
100
AcDbEntity
  8
1
  6
Continuous
100
AcDbLine
 10
25.175976
 20
221.931965
 30
0.0
 11
22.716984
 21
221.931965
 31
0.0
  0
LINE
  5
9933
330
9731
100
AcDbEntity
  8
1
  6
Continuous
100
AcDbLine
 10
22.11745599999999
 20
221.266117
 30
0.0
 11
24.991924
 21
221.266117
 31
0.0
  0
LINE
  5
9934
330
9731
100
AcDbEntity
  8
1
  6
Continuous
100
AcDbLine
 10
21.75476199999998
 20
227.931247
 30
0.0
 11
25.928425
 21
227.931247
 31
0.0
  0
LINE
  5
9935
330
9731
100
AcDbEntity
  8
1
  6
Continuous
100
AcDbLine
 10
25.828281
 20
227.265415
 30
0.0
 11
23.945804
 21
227.265415
 31
0.0
  0
LINE
  5
9936
330
9731
100
AcDbEntity
  8
1
  6
Continuous
100
AcDbLine
 10
21.75206199999999
 20
226.598224
 30
0.0
 11
26.14089599999999
 21
226.598224
 31
0.0
  0
LINE
  5
9937
330
9731
100
AcDbEntity
  8
1
  6
Continuous
100
AcDbLine
 10
21.62078999999998
 20
225.9323919999999
 30
0.0
 11
26.27216699999999
 21
225.9323919999999
 31
0.0
  0
LINE
  5
9938
330
9731
100
AcDbEntity
  8
1
  6
Continuous
100
AcDbLine
 10
23.945804
 20
231.315922
 30
0.0
 11
23.945804
 21
229.938236
 31
0.0
  0
LINE
  5
9939
330
9731
100
AcDbEntity
  8
1
  6
Continuous
100
AcDbLine
 10
25.193565
 20
229.603962
 30
0.0
 11
22.384056
 21
230.357761
 31
0.0
  0
LINE
  5
993A
330
9731
100
AcDbEntity
  8
1
  6
Continuous
100
AcDbLine
 10
23.945804
 20
228.931354
 30
0.0
 11
25.54542899999999
 21
228.931354
 31
0.0
  0
LINE
  5
993B
330
9731
100
AcDbEntity
  8
1
  6
Continuous
100
AcDbLine
 10
23.61288099999999
 20
229.265629
 30
0.0
 11
22.18917999999999
 21
229.265629
 31
0.0
  0
LINE
  5
993C
330
9731
100
AcDbEntity
  8
1
  6
Continuous
100
AcDbLine
 10
22.06873499999999
 20
228.5984379999999
 30
0.0
 11
23.61288099999999
 21
228.5984379999999
 31
0.0
  0
LINE
  5
993D
330
9731
100
AcDbEntity
  8
1
  6
Continuous
100
AcDbLine
 10
23.945804
 20
227.265415
 30
0.0
 11
23.945804
 21
226.932499
 31
0.0
  0
LINE
  5
993E
330
9731
100
AcDbEntity
  8
1
  6
Continuous
100
AcDbLine
 10
23.14598399999999
 20
227.265415
 30
0.0
 11
22.06467599999999
 21
227.265415
 31
0.0
  0
CIRCLE
  5
993F
330
9731
100
AcDbEntity
  8
1
  6
Continuous
100
AcDbCircle
 10
30.946476
 20
148.011753
 30
0.0
 40
1.149999999999999
  0
CIRCLE
  5
9940
330
9731
100
AcDbEntity
  8
1
  6
Continuous
100
AcDbCircle
 10
40.446476
 20
148.011753
 30
0.0
 40
1.149999999999999
  0
ARC
  5
9941
330
9731
100
AcDbEntity
  8
1
  6
Continuous
100
AcDbCircle
 10
43.446476
 20
121.2117499999999
 30
0.0
 40
2.5
100
AcDbArc
 50
269.9999969999999
 51
0.0
  0
ARC
  5
9942
330
9731
100
AcDbEntity
  8
1
  6
Continuous
100
AcDbCircle
 10
43.446476
 20
151.7117499999999
 30
0.0
 40
2.5
100
AcDbArc
 50
0.0
 51
90.00000300000001
  0
CIRCLE
  5
9943
330
9731
100
AcDbEntity
  8
1
  6
Continuous
100
AcDbCircle
 10
32.94647599999999
 20
129.7117499999999
 30
0.0
 40
5.0
  0
ARC
  5
9944
330
9731
100
AcDbEntity
  8
1
  6
Continuous
100
AcDbCircle
 10
32.94647599999999
 20
127.5117529999999
 30
0.0
 40
2.25
100
AcDbArc
 50
296.3877979999999
 51
74.533989
  0
ARC
  5
9945
330
9731
100
AcDbEntity
  8
1
  6
Continuous
100
AcDbCircle
 10
32.94647599999999
 20
127.5117529999999
 30
0.0
 40
2.25
100
AcDbArc
 50
105.4660099999999
 51
243.612193
  0
CIRCLE
  5
9946
330
9731
100
AcDbEntity
  8
1
  6
Continuous
100
AcDbCircle
 10
32.94647599999999
 20
129.7117499999999
 30
0.0
 40
11.0
  0
CIRCLE
  5
9947
330
9731
100
AcDbEntity
  8
1
  6
Continuous
100
AcDbCircle
 10
32.94647599999999
 20
129.7117499999999
 30
0.0
 40
13.0
  0
ARC
  5
9948
330
9731
100
AcDbEntity
  8
1
  6
Continuous
100
AcDbCircle
 10
24.446476
 20
151.7117499999999
 30
0.0
 40
2.5
100
AcDbArc
 50
90.00000300000001
 51
180.000005
  0
ARC
  5
9949
330
9731
100
AcDbEntity
  8
1
  6
Continuous
100
AcDbCircle
 10
17.446478
 20
222.098118
 30
0.0
 40
0.5
100
AcDbArc
 50
269.9999969999999
 51
0.0
  0
ARC
  5
994A
330
9731
100
AcDbEntity
  8
1
  6
Continuous
100
AcDbCircle
 10
17.446478
 20
229.098118
 30
0.0
 40
0.5
100
AcDbArc
 50
0.0
 51
90.00000300000001
  0
ARC
  5
994B
330
9731
100
AcDbEntity
  8
1
  6
Continuous
100
AcDbCircle
 10
15.94647799999999
 20
229.098118
 30
0.0
 40
0.5
100
AcDbArc
 50
90.00000300000001
 51
180.000005
  0
ARC
  5
994C
330
9731
100
AcDbEntity
  8
1
  6
Continuous
100
AcDbCircle
 10
15.94647799999999
 20
222.098118
 30
0.0
 40
0.5
100
AcDbArc
 50
180.000005
 51
270.000001
  0
ARC
  5
994D
330
9731
100
AcDbEntity
  8
1
  6
Continuous
100
AcDbCircle
 10
14.446478
 20
221.7036629999999
 30
0.0
 40
2.0
100
AcDbArc
 50
180.000005
 51
213.6900629999999
  0
ARC
  5
994E
330
9731
100
AcDbEntity
  8
1
  6
Continuous
100
AcDbCircle
 10
22.779812
 20
215.598118
 30
0.0
 40
2.0
100
AcDbArc
 50
269.9999969999999
 51
306.8698979999999
  0
ARC
  5
994F
330
9731
100
AcDbEntity
  8
1
  6
Continuous
100
AcDbCircle
 10
56.94647599999999
 20
224.098118
 30
0.0
 40
0.5
100
AcDbArc
 50
314.9999989999999
 51
45.00000099999999
  0
ARC
  5
9950
330
9731
100
AcDbEntity
  8
1
  6
Continuous
100
AcDbCircle
 10
41.44647599999998
 20
227.798115
 30
0.0
 40
0.5
100
AcDbArc
 50
0.0
 51
90.00000300000001
  0
ARC
  5
9951
330
9731
100
AcDbEntity
  8
1
  6
Continuous
100
AcDbCircle
 10
39.946476
 20
229.598118
 30
0.0
 40
0.5
100
AcDbArc
 50
0.0
 51
90.00000300000001
  0
ARC
  5
9952
330
9731
100
AcDbEntity
  8
1
  6
Continuous
100
AcDbCircle
 10
22.779812
 20
235.598118
 30
0.0
 40
2.0
100
AcDbArc
 50
53.130102
 51
90.00000300000001
  0
ARC
  5
9953
330
9731
100
AcDbEntity
  8
1
  6
Continuous
100
AcDbCircle
 10
18.51684399999999
 20
235.598118
 30
0.0
 40
2.0
100
AcDbArc
 50
90.00000300000001
 51
146.309933
  0
ARC
  5
9954
330
9731
100
AcDbEntity
  8
1
  6
Continuous
100
AcDbCircle
 10
14.446478
 20
229.492573
 30
0.0
 40
2.0
100
AcDbArc
 50
146.309933
 51
180.000005
  0
ARC
  5
9955
330
9731
100
AcDbEntity
  8
1
  6
Continuous
100
AcDbCircle
 10
18.51684399999999
 20
215.598118
 30
0.0
 40
2.0
100
AcDbArc
 50
213.690067
 51
269.9999969999999
  0
ARC
  5
9956
330
9731
100
AcDbEntity
  8
1
  6
Continuous
100
AcDbCircle
 10
157.256718
 20
147.6147649999998
 30
0.0
 40
1.603061
100
AcDbArc
 50
270.4245279999998
 51
355.7684249999998
  0
ARC
  5
9957
330
9731
100
AcDbEntity
  8
1
  6
Continuous
100
AcDbCircle
 10
157.256718
 20
148.4087409999998
 30
0.0
 40
1.603061
100
AcDbArc
 50
355.768444
 51
89.57547199999996
  0
ARC
  5
9958
330
9731
100
AcDbEntity
  8
1
  6
Continuous
100
AcDbCircle
 10
147.855411
 20
128.7117499999999
 30
0.0
 40
1.0
100
AcDbArc
 50
269.9999969999999
 51
0.0
  0
ARC
  5
9959
330
9731
100
AcDbEntity
  8
1
  6
Continuous
100
AcDbCircle
 10
147.855411
 20
130.7117499999999
 30
0.0
 40
1.0
100
AcDbArc
 50
0.0
 51
90.00000300000001
  0
CIRCLE
  5
995A
330
9731
100
AcDbEntity
  8
1
  6
Continuous
100
AcDbCircle
 10
152.605411
 20
152.9117469999999
 30
0.0
 40
0.9
  0
ARC
  5
995B
330
9731
100
AcDbEntity
  8
1
  6
Continuous
100
AcDbCircle
 10
156.2826879999998
 20
44.222374
 30
0.0
 40
1.603061
100
AcDbArc
 50
0.0
 51
89.57547199999996
  0
ARC
  5
995C
330
9731
100
AcDbEntity
  8
1
  6
Continuous
100
AcDbCircle
 10
156.2826879999998
 20
43.428406
 30
0.0
 40
1.603061
100
AcDbArc
 50
270.4245279999998
 51
0.0
  0
ARC
  5
995D
330
9731
100
AcDbEntity
  8
1
  6
Continuous
100
AcDbCircle
 10
157.256718
 20
227.995106
 30
0.0
 40
1.603061
100
AcDbArc
 50
355.768444
 51
89.57547199999996
  0
ARC
  5
995E
330
9731
100
AcDbEntity
  8
1
  6
Continuous
100
AcDbCircle
 10
157.256718
 20
227.2011299999999
 30
0.0
 40
1.603061
100
AcDbArc
 50
270.4245279999998
 51
4.231555999999999
  0
ARC
  5
995F
330
9731
100
AcDbEntity
  8
1
  6
Continuous
100
AcDbCircle
 10
157.256718
 20
218.4951059999999
 30
0.0
 40
1.603061
100
AcDbArc
 50
355.768444
 51
89.57547199999996
  0
ARC
  5
9960
330
9731
100
AcDbEntity
  8
1
  6
Continuous
100
AcDbCircle
 10
157.256718
 20
217.7011299999998
 30
0.0
 40
1.603061
100
AcDbArc
 50
270.4245279999998
 51
4.231555999999999
  0
ARC
  5
9961
330
9731
100
AcDbEntity
  8
1
  6
Continuous
100
AcDbCircle
 10
142.4554019999999
 20
225.598118
 30
0.0
 40
1.75
100
AcDbArc
 50
110.051041
 51
343.3984429999999
  0
ARC
  5
9962
330
9731
100
AcDbEntity
  8
1
  6
Continuous
100
AcDbCircle
 10
156.2826879999998
 20
225.2011299999999
 30
0.0
 40
1.603061
100
AcDbArc
 50
270.4245279999998
 51
4.231555999999999
  0
ARC
  5
9963
330
9731
100
AcDbEntity
  8
1
  6
Continuous
100
AcDbCircle
 10
147.855411
 20
233.598118
 30
0.0
 40
1.0
100
AcDbArc
 50
0.0
 51
90.00000300000001
  0
CIRCLE
  5
9964
330
9731
100
AcDbEntity
  8
2
  6
Continuous
100
AcDbCircle
 10
30.946476
 20
148.011753
 30
0.0
 40
0.9335
  0
CIRCLE
  5
9965
330
9731
100
AcDbEntity
  8
2
  6
Continuous
100
AcDbCircle
 10
40.446476
 20
148.011753
 30
0.0
 40
0.9335
  0
ARC
  5
9966
330
9731
100
AcDbEntity
  8
1
  6
Continuous
100
AcDbCircle
 10
221.264332
 20
121.2117499999999
 30
0.0
 40
2.5
100
AcDbArc
 50
179.9999909999999
 51
270.000001
  0
ARC
  5
9967
330
9731
100
AcDbEntity
  8
1
  6
Continuous
100
AcDbCircle
 10
231.764332
 20
129.7117499999999
 30
0.0
 40
11.0
100
AcDbArc
 50
269.9999969999999
 51
0.0
  0
ARC
  5
9968
330
9731
100
AcDbEntity
  8
1
  6
Continuous
100
AcDbCircle
 10
231.764332
 20
129.7117499999999
 30
0.0
 40
13.0
100
AcDbArc
 50
237.795772
 51
262.619862
  0
ARC
  5
9969
330
9731
100
AcDbEntity
  8
1
  6
Continuous
100
AcDbCircle
 10
240.264332
 20
151.7117499999999
 30
0.0
 40
2.5
100
AcDbArc
 50
0.0
 51
90.00000300000001
  0
ARC
  5
996A
330
9731
100
AcDbEntity
  8
1
  6
Continuous
100
AcDbCircle
 10
231.764332
 20
129.7117499999999
 30
0.0
 40
13.0
100
AcDbArc
 50
277.3801329999999
 51
322.619864
  0
ARC
  5
996B
330
9731
100
AcDbEntity
  8
1
  6
Continuous
100
AcDbCircle
 10
231.764332
 20
129.7117499999999
 30
0.0
 40
13.0
100
AcDbArc
 50
337.3801349999999
 51
22.619865
  0
CIRCLE
  5
996C
330
9731
100
AcDbEntity
  8
1
  6
Continuous
100
AcDbCircle
 10
233.764332
 20
148.011753
 30
0.0
 40
2.0
  0
CIRCLE
  5
996D
330
9731
100
AcDbEntity
  8
1
  6
Continuous
100
AcDbCircle
 10
224.2643319999999
 20
148.011753
 30
0.0
 40
2.0
  0
CIRCLE
  5
996E
330
9731
100
AcDbEntity
  8
1
  6
Continuous
100
AcDbCircle
 10
224.2643319999999
 20
148.011753
 30
0.0
 40
2.299999999999998
  0
CIRCLE
  5
996F
330
9731
100
AcDbEntity
  8
1
  6
Continuous
100
AcDbCircle
 10
233.764332
 20
148.011753
 30
0.0
 40
2.299999999999998
  0
ARC
  5
9970
330
9731
100
AcDbEntity
  8
1
  6
Continuous
100
AcDbCircle
 10
231.764332
 20
129.7117499999999
 30
0.0
 40
4.5
100
AcDbArc
 50
26.387801
 51
333.612203
  0
CIRCLE
  5
9971
330
9731
100
AcDbEntity
  8
1
  6
Continuous
100
AcDbCircle
 10
231.764332
 20
129.7117499999999
 30
0.0
 40
2.299999999999998
  0
CIRCLE
  5
9972
330
9731
100
AcDbEntity
  8
1
  6
Continuous
100
AcDbCircle
 10
231.764332
 20
129.7117499999999
 30
0.0
 40
2.0
  0
CIRCLE
  5
9973
330
9731
100
AcDbEntity
  8
1
  6
Continuous
100
AcDbCircle
 10
224.7643319999999
 20
129.7117499999999
 30
0.0
 40
2.0
  0
ARC
  5
9974
330
9731
100
AcDbEntity
  8
1
  6
Continuous
100
AcDbCircle
 10
240.264332
 20
129.7117499999999
 30
0.0
 40
2.0
100
AcDbArc
 50
269.9999969999999
 51
90.00000300000001
  0
ARC
  5
9975
330
9731
100
AcDbEntity
  8
1
  6
Continuous
100
AcDbCircle
 10
157.256718
 20
41.428406
 30
0.0
 40
1.603061
100
AcDbArc
 50
270.4245279999998
 51
4.231575
  0
ARC
  5
9976
330
9731
100
AcDbEntity
  8
1
  6
Continuous
100
AcDbCircle
 10
157.256718
 20
42.222374
 30
0.0
 40
1.603061
100
AcDbArc
 50
355.7684249999998
 51
66.89624599999999
  0
ARC
  5
9977
330
9731
100
AcDbEntity
  8
1
  6
Continuous
100
AcDbCircle
 10
157.256718
 20
50.928406
 30
0.0
 40
1.603061
100
AcDbArc
 50
270.4245279999998
 51
4.231555999999999
  0
ARC
  5
9978
330
9731
100
AcDbEntity
  8
1
  6
Continuous
100
AcDbCircle
 10
157.256718
 20
51.722374
 30
0.0
 40
1.603061
100
AcDbArc
 50
355.768444
 51
89.57547199999996
  0
ARC
  5
9979
330
9731
100
AcDbEntity
  8
1
  6
Continuous
100
AcDbCircle
 10
147.855411
 20
35.82539000000001
 30
0.0
 40
1.0
100
AcDbArc
 50
269.9999969999999
 51
0.0
  0
ARC
  5
997A
330
9731
100
AcDbEntity
  8
1
  6
Continuous
100
AcDbCircle
 10
156.2826879999998
 20
129.314777
 30
0.0
 40
1.603061
100
AcDbArc
 50
270.4245279999998
 51
0.0
  0
ARC
  5
997B
330
9731
100
AcDbEntity
  8
1
  6
Continuous
100
AcDbCircle
 10
156.2826879999998
 20
130.108738
 30
0.0
 40
1.603061
100
AcDbArc
 50
0.0
 51
89.57547199999996
  0
ARC
  5
997C
330
9731
100
AcDbEntity
  8
1
  6
Continuous
100
AcDbCircle
 10
147.855411
 20
37.82538999999999
 30
0.0
 40
1.0
100
AcDbArc
 50
0.0
 51
90.00000300000001
  0
ARC
  5
997D
330
9731
100
AcDbEntity
  8
1
  6
Continuous
100
AcDbCircle
 10
147.855411
 20
49.82539
 30
0.0
 40
1.0
100
AcDbArc
 50
269.9999969999999
 51
0.0
  0
ARC
  5
997E
330
9731
100
AcDbEntity
  8
1
  6
Continuous
100
AcDbCircle
 10
147.855411
 20
51.82539000000002
 30
0.0
 40
1.0
100
AcDbArc
 50
0.0
 51
90.00000300000001
  0
ARC
  5
997F
330
9731
100
AcDbEntity
  8
1
  6
Continuous
100
AcDbCircle
 10
306.271946
 20
147.6147649999998
 30
0.0
 40
1.603061
100
AcDbArc
 50
184.23157
 51
269.5754669999999
  0
ARC
  5
9980
330
9731
100
AcDbEntity
  8
1
  6
Continuous
100
AcDbCircle
 10
306.271946
 20
148.4087409999998
 30
0.0
 40
1.603061
100
AcDbArc
 50
90.424533
 51
184.231553
  0
ARC
  5
9981
330
9731
100
AcDbEntity
  8
1
  6
Continuous
100
AcDbCircle
 10
315.6732519999998
 20
128.7117499999999
 30
0.0
 40
1.0
100
AcDbArc
 50
202.184012
 51
269.9999969999999
  0
ARC
  5
9982
330
9731
100
AcDbEntity
  8
1
  6
Continuous
100
AcDbCircle
 10
315.6732519999998
 20
130.7117499999999
 30
0.0
 40
1.0
100
AcDbArc
 50
90.00000300000001
 51
157.8159879999998
  0
CIRCLE
  5
9983
330
9731
100
AcDbEntity
  8
1
  6
Continuous
100
AcDbCircle
 10
310.9232519999999
 20
152.9117469999999
 30
0.0
 40
0.9
  0
ARC
  5
9984
330
9731
100
AcDbEntity
  8
1
  6
Continuous
100
AcDbCircle
 10
307.245975
 20
129.314777
 30
0.0
 40
1.603061
100
AcDbArc
 50
179.9999909999999
 51
269.575463
  0
ARC
  5
9985
330
9731
100
AcDbEntity
  8
1
  6
Continuous
100
AcDbCircle
 10
307.245975
 20
130.108738
 30
0.0
 40
1.603061
100
AcDbArc
 50
90.424533
 51
180.000005
  0
ARC
  5
9986
330
9731
100
AcDbEntity
  8
1
  6
Continuous
100
AcDbCircle
 10
18.347093
 20
225.598118
 30
0.0
 40
7.932788
100
AcDbArc
 50
333.9859999999998
 51
337.0559999999999
  0
ARC
  5
9987
330
9731
100
AcDbEntity
  8
1
  6
Continuous
100
AcDbCircle
 10
25.590092
 20
222.5328399999999
 30
0.0
 40
0.066678
100
AcDbArc
 50
337.0559999999999
 51
90.00000300000001
  0
ARC
  5
9988
330
9731
100
AcDbEntity
  8
1
  6
Continuous
100
AcDbCircle
 10
26.0191
 20
223.865864
 30
0.0
 40
0.066678
100
AcDbArc
 50
347.270997
 51
90.00000300000001
  0
ARC
  5
9989
330
9731
100
AcDbEntity
  8
1
  6
Continuous
100
AcDbCircle
 10
18.347093
 20
225.598118
 30
0.0
 40
7.932788
100
AcDbArc
 50
344.794003
 51
347.270997
  0
ARC
  5
998A
330
9731
100
AcDbEntity
  8
1
  6
Continuous
100
AcDbCircle
 10
18.347093
 20
225.598118
 30
0.0
 40
7.932788
100
AcDbArc
 50
344.741998
 51
344.794003
  0
ARC
  5
998B
330
9731
100
AcDbEntity
  8
1
  6
Continuous
100
AcDbCircle
 10
25.678058
 20
223.599262
 30
0.0
 40
0.333392
100
AcDbArc
 50
270.0000039999998
 51
344.741986
  0
ARC
  5
998C
330
9731
100
AcDbEntity
  8
1
  6
Continuous
100
AcDbCircle
 10
22.21489899999999
 20
223.599262
 30
0.0
 40
0.333392
100
AcDbArc
 50
195.2575039999999
 51
270.0000039999998
  0
ARC
  5
998D
330
9731
100
AcDbEntity
  8
1
  6
Continuous
100
AcDbCircle
 10
29.545864
 20
225.598118
 30
0.0
 40
7.932788
100
AcDbArc
 50
193.268102
 51
195.2575039999999
  0
ARC
  5
998E
330
9731
100
AcDbEntity
  8
1
  6
Continuous
100
AcDbCircle
 10
29.545864
 20
225.598118
 30
0.0
 40
7.932788
100
AcDbArc
 50
192.728899
 51
193.268102
  0
ARC
  5
998F
330
9731
100
AcDbEntity
  8
1
  6
Continuous
100
AcDbCircle
 10
21.873857
 20
223.865864
 30
0.0
 40
0.066678
100
AcDbArc
 50
90.00000300000001
 51
192.728896
  0
ARC
  5
9990
330
9731
100
AcDbEntity
  8
1
  6
Continuous
100
AcDbCircle
 10
25.175976
 20
222.266224
 30
0.0
 40
0.333392
100
AcDbArc
 50
270.0000039999998
 51
333.985995
  0
ARC
  5
9991
330
9731
100
AcDbEntity
  8
1
  6
Continuous
100
AcDbCircle
 10
22.30151
 20
222.5328399999999
 30
0.0
 40
0.066678
100
AcDbArc
 50
90.00000300000001
 51
202.9440039999998
  0
ARC
  5
9992
330
9731
100
AcDbEntity
  8
1
  6
Continuous
100
AcDbCircle
 10
29.545864
 20
225.598118
 30
0.0
 40
7.932788
100
AcDbArc
 50
202.944007
 51
206.014396
  0
ARC
  5
9993
330
9731
100
AcDbEntity
  8
1
  6
Continuous
100
AcDbCircle
 10
22.716984
 20
222.266224
 30
0.0
 40
0.333392
100
AcDbArc
 50
206.014396
 51
270.0000039999998
  0
ARC
  5
9994
330
9731
100
AcDbEntity
  8
1
  6
Continuous
100
AcDbCircle
 10
23.945804
 20
221.5990329999999
 30
0.0
 40
1.717978999999998
100
AcDbArc
 50
270.0000039999998
 51
324.4620069999998
  0
ARC
  5
9995
330
9731
100
AcDbEntity
  8
1
  6
Continuous
100
AcDbCircle
 10
23.945804
 20
221.5990329999999
 30
0.0
 40
1.717978999999998
100
AcDbArc
 50
215.5377009999999
 51
256.5374009999998
  0
ARC
  5
9996
330
9731
100
AcDbEntity
  8
1
  6
Continuous
100
AcDbCircle
 10
18.347093
 20
225.598118
 30
0.0
 40
7.932788
100
AcDbArc
 50
7.792996999999997
 51
10.103999
  0
ARC
  5
9997
330
9731
100
AcDbEntity
  8
1
  6
Continuous
100
AcDbCircle
 10
26.14089599999999
 20
226.665897
 30
0.0
 40
0.066678
100
AcDbArc
 50
270.0000039999998
 51
7.793000999999998
  0
ARC
  5
9998
330
9731
100
AcDbEntity
  8
1
  6
Continuous
100
AcDbCircle
 10
25.828281
 20
226.932499
 30
0.0
 40
0.333392
100
AcDbArc
 50
10.103999
 51
90.00000300000001
  0
ARC
  5
9999
330
9731
100
AcDbEntity
  8
1
  6
Continuous
100
AcDbCircle
 10
21.75206199999999
 20
226.665897
 30
0.0
 40
0.066678
100
AcDbArc
 50
172.207005
 51
270.000001
  0
ARC
  5
999A
330
9731
100
AcDbEntity
  8
1
  6
Continuous
100
AcDbCircle
 10
29.545864
 20
225.598118
 30
0.0
 40
7.932788
100
AcDbArc
 50
169.8959969999999
 51
172.207005
  0
ARC
  5
999B
330
9731
100
AcDbEntity
  8
1
  6
Continuous
100
AcDbCircle
 10
22.06467599999999
 20
226.932499
 30
0.0
 40
0.333392
100
AcDbArc
 50
90.00000300000001
 51
169.8959969999999
  0
ARC
  5
999C
330
9731
100
AcDbEntity
  8
1
  6
Continuous
100
AcDbCircle
 10
23.945804
 20
229.598545
 30
0.0
 40
1.717978999999998
100
AcDbArc
 50
35.53799999999999
 51
45.698999
  0
ARC
  5
999D
330
9731
100
AcDbEntity
  8
1
  6
Continuous
100
AcDbCircle
 10
23.945804
 20
229.598545
 30
0.0
 40
1.717978999999998
100
AcDbArc
 50
62.25000299999999
 51
144.461998
  0
ARC
  5
999E
330
9731
100
AcDbEntity
  8
1
  6
Continuous
100
AcDbCircle
 10
23.61288099999999
 20
228.931354
 30
0.0
 40
0.333392
100
AcDbArc
 50
270.0000039999998
 51
90.00000300000001
  0
ARC
  5
999F
330
9731
100
AcDbEntity
  8
1
  6
Continuous
100
AcDbCircle
 10
29.545864
 20
225.598118
 30
0.0
 40
8.599396
100
AcDbArc
 50
144.461998
 51
215.5376979999999
  0
ARC
  5
99A0
330
9731
100
AcDbEntity
  8
1
  6
Continuous
100
AcDbCircle
 10
18.347093
 20
225.598118
 30
0.0
 40
8.599396
100
AcDbArc
 50
324.461996
 51
35.53799999999999
  0
ENDSEC
  0
SECTION
  2
OBJECTS
  0
DICTIONARY
  5
971F
330
0
100
AcDbDictionary
281
     1
  3
ACAD_CIP_PREVIOUS_PRODUCT_INFO
350
9A04
  3
ACAD_COLOR
350
99E6
  3
ACAD_DETAILVIEWSTYLE
350
99FF
  3
ACAD_GROUP
350
9720
  3
ACAD_LAYOUT
350
972C
  3
ACAD_MATERIAL
350
99B4
  3
ACAD_MLEADERSTYLE
350
99FB
  3
ACAD_MLINESTYLE
350
9729
  3
ACAD_PLOTSETTINGS
350
972B
  3
ACAD_PLOTSTYLENAME
350
99B2
  3
ACAD_SCALELIST
350
99E9
  3
ACAD_SECTIONVIEWSTYLE
350
99FD
  3
ACAD_TABLESTYLE
350
99E7
  3
ACAD_VISUALSTYLE
350
99CD
  3
ACDB_RECOMPOSE_DATA
350
9A22
  3
AcDbVariableDictionary
350
9A15
  3
DWGPROPS
350
9A23
  0
DICTIONARY
  5
9A05
330
9723
100
AcDbDictionary
280
     1
281
     1
  3
ADSK_XREC_LAYER_RECONCILED
360
9A06
  0
DICTIONARY
  5
9A07
330
9739
100
AcDbDictionary
280
     1
281
     1
  3
ADSK_XREC_LAYER_RECONCILED
360
9A08
  0
DICTIONARY
  5
9A09
330
973A
100
AcDbDictionary
280
     1
281
     1
  3
ADSK_XREC_LAYER_RECONCILED
360
9A0A
  0
DICTIONARY
  5
9A0B
330
973B
100
AcDbDictionary
280
     1
281
     1
  3
ADSK_XREC_LAYER_RECONCILED
360
9A0C
  0
DICTIONARY
  5
9A0D
330
973C
100
AcDbDictionary
280
     1
281
     1
  3
ADSK_XREC_LAYER_RECONCILED
360
9A0E
  0
DICTIONARY
  5
9A0F
330
973D
100
AcDbDictionary
280
     1
281
     1
  3
ADSK_XREC_LAYER_RECONCILED
360
9A10
  0
DICTIONARY
  5
9A11
330
973E
100
AcDbDictionary
280
     1
281
     1
  3
ADSK_XREC_LAYER_RECONCILED
360
9A12
  0
DICTIONARY
  5
9A13
330
973F
100
AcDbDictionary
280
     1
281
     1
  3
ADSK_XREC_LAYER_RECONCILED
360
9A14
  0
DICTIONARY
  5
99AD
330
9731
100
AcDbDictionary
281
     1
  3
ACAD_LAYOUTSELFREF
350
99AE
  0
DICTIONARY
  5
99AB
330
972D
100
AcDbDictionary
281
     1
  3
ACAD_LAYOUTSELFREF
350
99AC
  0
XRECORD
  5
9A04
102
{ACAD_REACTORS
330
971F
102
}
330
971F
100
AcDbXrecord
280
     1
300
ACDLT
300
2014
300
ACDLT_F_S
  0
DICTIONARY
  5
99E6
102
{ACAD_REACTORS
330
971F
102
}
330
971F
100
AcDbDictionary
281
     1
  0
DICTIONARY
  5
99FF
102
{ACAD_REACTORS
330
971F
102
}
330
971F
100
AcDbDictionary
281
     1
  3
Imperial24
350
9A00
  0
DICTIONARY
  5
9720
102
{ACAD_REACTORS
330
971F
102
}
330
971F
100
AcDbDictionary
281
     1
  0
DICTIONARY
  5
972C
102
{ACAD_REACTORS
330
971F
102
}
330
971F
100
AcDbDictionary
281
     1
  3
Model
350
9A01
  3
レイアウト1
350
9A02
  0
DICTIONARY
  5
99B4
102
{ACAD_REACTORS
330
971F
102
}
330
971F
100
AcDbDictionary
281
     1
  3
ByBlock
350
99BD
  3
ByLayer
350
99B5
  3
Global
350
99C5
  0
DICTIONARY
  5
99FB
102
{ACAD_REACTORS
330
971F
102
}
330
971F
100
AcDbDictionary
281
     1
  3
Standard
350
99FC
  0
DICTIONARY
  5
9729
102
{ACAD_REACTORS
330
971F
102
}
330
971F
100
AcDbDictionary
281
     1
  3
STANDARD
350
972A
  0
DICTIONARY
  5
972B
102
{ACAD_REACTORS
330
971F
102
}
330
971F
100
AcDbDictionary
281
     1
  0
ACDBDICTIONARYWDFLT
  5
99B2
102
{ACAD_REACTORS
330
971F
102
}
330
971F
100
AcDbDictionary
281
     1
  3
Normal
350
99B3
100
AcDbDictionaryWithDefault
340
99B3
  0
DICTIONARY
  5
99E9
102
{ACAD_REACTORS
330
971F
102
}
330
971F
100
AcDbDictionary
281
     1
  3
A0
350
99EA
  3
A1
350
99EB
  3
A2
350
99EC
  3
A3
350
99ED
  3
A4
350
99EE
  3
A5
350
99EF
  3
A6
350
99F0
  3
A7
350
99F1
  3
A8
350
99F2
  3
A9
350
99F3
  3
B0
350
99F4
  3
B1
350
99F5
  3
B2
350
99F6
  3
B3
350
99F7
  3
B4
350
99F8
  3
B5
350
99F9
  3
B6
350
99FA
  0
DICTIONARY
  5
99FD
102
{ACAD_REACTORS
330
971F
102
}
330
971F
100
AcDbDictionary
281
     1
  3
Imperial24
350
99FE
  0
DICTIONARY
  5
99E7
102
{ACAD_REACTORS
330
971F
102
}
330
971F
100
AcDbDictionary
281
     1
  3
Standard
350
99E8
  0
DICTIONARY
  5
99CD
102
{ACAD_REACTORS
330
971F
102
}
330
971F
100
AcDbDictionary
281
     1
  3
2dWireframe
350
99D3
  3
Basic
350
99D2
  3
Brighten
350
99D9
  3
ColorChange
350
99DD
  3
Conceptual
350
99D6
  3
Dim
350
99D8
  3
EdgeColorOff
350
99E5
  3
Facepattern
350
99DC
  3
Flat
350
99CE
  3
FlatWithEdges
350
99CF
  3
Gouraud
350
99D0
  3
GouraudWithEdges
350
99D1
  3
Hidden
350
99D5
  3
JitterOff
350
99E3
  3
Linepattern
350
99DB
  3
OverhangOff
350
99E4
  3
Realistic
350
99D7
  3
Shaded
350
99E2
  3
Shaded with edges
350
99E1
  3
Shades of Gray
350
99DE
  3
Sketchy
350
99DF
  3
Thicken
350
99DA
  3
Wireframe
350
99D4
  3
X-Ray
350
99E0
  0
XRECORD
  5
9A22
102
{ACAD_REACTORS
330
971F
102
}
330
971F
100
AcDbXrecord
280
     1
 90
        1
330
99E8
  0
DICTIONARY
  5
9A15
102
{ACAD_REACTORS
330
971F
102
}
330
971F
100
AcDbDictionary
281
     1
  3
CANNOSCALE
350
9A1A
  3
CMLEADERSTYLE
350
9A17
  3
CTABLESTYLE
350
9A16
  3
CVIEWDETAILSTYLE
350
9A18
  3
CVIEWSECTIONSTYLE
350
9A19
  3
DIMASSOC
350
9A1D
  3
INDEXCTL
350
9A1C
  3
SORTENTS
350
9A1B
  3
XCLIPFRAME
350
9A1E
  0
XRECORD
  5
9A23
102
{ACAD_REACTORS
330
971F
102
}
330
971F
100
AcDbXrecord
280
     1
  1
DWGPROPS COOKIE
  2

  3

  4

  6

  7

  8
Yoshitsune
  9

300
=
301
=
302
=
303
=
304
=
305
=
306
=
307
=
308
=
309
=
 40
0.0000139467592593
 41
2450945.562183334
 42
2457192.598945752
  1

 90
        0
  0
XRECORD
  5
9A06
102
{ACAD_REACTORS
330
9A05
102
}
330
9A05
100
AcDbXrecord
280
     1
290
     1
  0
XRECORD
  5
9A08
102
{ACAD_REACTORS
330
9A07
102
}
330
9A07
100
AcDbXrecord
280
     1
290
     1
  0
XRECORD
  5
9A0A
102
{ACAD_REACTORS
330
9A09
102
}
330
9A09
100
AcDbXrecord
280
     1
290
     1
  0
XRECORD
  5
9A0C
102
{ACAD_REACTORS
330
9A0B
102
}
330
9A0B
100
AcDbXrecord
280
     1
290
     1
  0
XRECORD
  5
9A0E
102
{ACAD_REACTORS
330
9A0D
102
}
330
9A0D
100
AcDbXrecord
280
     1
290
     1
  0
XRECORD
  5
9A10
102
{ACAD_REACTORS
330
9A0F
102
}
330
9A0F
100
AcDbXrecord
280
     1
290
     1
  0
XRECORD
  5
9A12
102
{ACAD_REACTORS
330
9A11
102
}
330
9A11
100
AcDbXrecord
280
     1
290
     1
  0
XRECORD
  5
9A14
102
{ACAD_REACTORS
330
9A13
102
}
330
9A13
100
AcDbXrecord
280
     1
290
     1
  0
XRECORD
  5
99AE
102
{ACAD_REACTORS
330
99AD
102
}
330
99AD
100
AcDbXrecord
280
     1
340
9731
  0
XRECORD
  5
99AC
102
{ACAD_REACTORS
330
99AB
102
}
330
99AB
100
AcDbXrecord
280
     1
340
972D
  0
ACDBDETAILVIEWSTYLE
  5
9A00
102
{ACAD_XDICTIONARY
360
9A5B
102
}
102
{ACAD_REACTORS
330
99FF
102
}
330
99FF
100
AcDbModelDocViewStyle
 70
     0
  3
Imperial24
290
     0
100
AcDbDetailViewStyle
 70
     0
 71
     0
 90
        3
 71
     1
340
9724
 40
0.24
340
0
 40
0.24
300

 40
0.36
280
     3
 71
     2
340
9728
 90
       25
 71
     3
340
9724
 40
0.24
 90
        1
 40
0.75
 90
        1
300
%<\AcVar ViewType \f "%tc1">% %<\AcVar ViewDetailId>%\PSCALE %<\AcVar ViewScale \f "%sn">%
 71
     4
340
9728
 90
       25
340
9728
 90
       25
280
     0
  0
LAYOUT
  5
9A01
102
{ACAD_XDICTIONARY
360
9A5D
102
}
102
{ACAD_REACTORS
330
972C
102
}
330
972C
100
AcDbPlotSettings
  1

  2
Canon LBP9100C
  4

  6

 40
0.0
 41
0.0
 42
0.0
 43
0.0
 44
0.0
 45
0.0
 46
0.0
 47
0.0
 48
0.0
 49
0.0
140
0.0
141
0.0
142
1.0
143
1.0
 70
  1712
 72
     0
 73
     0
 74
     0
  7

 75
     0
147
1.0
148
0.0
149
0.0
100
AcDbLayout
  1
Model
 70
     1
 71
     0
 10
0.0
 20
0.0
 11
12.0
 21
9.0
 12
0.0
 22
0.0
 32
0.0
 14
0.0
 24
0.0
 34
0.0
 15
0.0
 25
0.0
 35
0.0
146
0.0
 13
0.0
 23
0.0
 33
0.0
 16
1.0
 26
0.0
 36
0.0
 17
0.0
 27
1.0
 37
0.0
 76
     0
330
9731
331
99AA
  0
LAYOUT
  5
9A02
102
{ACAD_XDICTIONARY
360
9A5F
102
}
102
{ACAD_REACTORS
330
972C
102
}
330
972C
100
AcDbPlotSettings
  1

  2
Canon LBP9100C
  4

  6

 40
0.0
 41
0.0
 42
0.0
 43
0.0
 44
0.0
 45
0.0
 46
0.0
 47
0.0
 48
0.0
 49
0.0
140
0.0
141
0.0
142
1.0
143
1.0
 70
   688
 72
     0
 73
     0
 74
     5
  7

 75
    16
147
1.0
148
0.0
149
0.0
100
AcDbLayout
  1
レイアウト1
 70
     0
 71
     1
 10
0.0
 20
0.0
 11
420.0
 21
297.0
 12
0.0
 22
0.0
 32
0.0
 14
1.000000000000000E+20
 24
1.000000000000000E+20
 34
1.000000000000000E+20
 15
-1.000000000000000E+20
 25
-1.000000000000000E+20
 35
-1.000000000000000E+20
146
0.0
 13
0.0
 23
0.0
 33
0.0
 16
1.0
 26
0.0
 36
0.0
 17
0.0
 27
1.0
 37
0.0
 76
     0
330
972D
  0
MATERIAL
  5
99BD
102
{ACAD_XDICTIONARY
360
99BE
102
}
102
{ACAD_REACTORS
330
99B4
102
}
330
99B4
100
AcDbMaterial
  1
ByBlock
 72
     0
 43
0.0208333333333333
 43
0.0
 43
0.0
 43
0.0
 43
0.0
 43
0.0208333333333333
 43
0.0
 43
0.0
 43
0.0
 43
0.0
 43
1.0
 43
0.0
 43
0.0
 43
0.0
 43
0.0
 43
1.0
 77
     0
 47
0.0208333333333333
 47
0.0
 47
0.0
 47
0.0
 47
0.0
 47
0.0208333333333333
 47
0.0
 47
0.0
 47
0.0
 47
0.0
 47
1.0
 47
0.0
 47
0.0
 47
0.0
 47
0.0
 47
1.0
171
     0
 49
0.0208333333333333
 49
0.0
 49
0.0
 49
0.0
 49
0.0
 49
0.0208333333333333
 49
0.0
 49
0.0
 49
0.0
 49
0.0
 49
1.0
 49
0.0
 49
0.0
 49
0.0
 49
0.0
 49
1.0
175
     0
142
0.0208333333333333
142
0.0
142
0.0
142
0.0
142
0.0
142
0.0208333333333333
142
0.0
142
0.0
142
0.0
142
0.0
142
1.0
142
0.0
142
0.0
142
0.0
142
0.0
142
1.0
179
     0
144
0.0208333333333333
144
0.0
144
0.0
144
0.0
144
0.0
144
0.0208333333333333
144
0.0
144
0.0
144
0.0
144
0.0
144
1.0
144
0.0
144
0.0
144
0.0
144
0.0
144
1.0
147
0.0208333333333333
147
0.0
147
0.0
147
0.0
147
0.0
147
0.0208333333333333
147
0.0
147
0.0
147
0.0
147
0.0
147
1.0
147
0.0
147
0.0
147
0.0
147
0.0
147
1.0
  0
MATERIAL
  5
99B5
102
{ACAD_XDICTIONARY
360
99B6
102
}
102
{ACAD_REACTORS
330
99B4
102
}
330
99B4
100
AcDbMaterial
  1
ByLayer
 72
     0
 43
0.0208333333333333
 43
0.0
 43
0.0
 43
0.0
 43
0.0
 43
0.0208333333333333
 43
0.0
 43
0.0
 43
0.0
 43
0.0
 43
1.0
 43
0.0
 43
0.0
 43
0.0
 43
0.0
 43
1.0
 77
     0
 47
0.0208333333333333
 47
0.0
 47
0.0
 47
0.0
 47
0.0
 47
0.0208333333333333
 47
0.0
 47
0.0
 47
0.0
 47
0.0
 47
1.0
 47
0.0
 47
0.0
 47
0.0
 47
0.0
 47
1.0
171
     0
 49
0.0208333333333333
 49
0.0
 49
0.0
 49
0.0
 49
0.0
 49
0.0208333333333333
 49
0.0
 49
0.0
 49
0.0
 49
0.0
 49
1.0
 49
0.0
 49
0.0
 49
0.0
 49
0.0
 49
1.0
175
     0
142
0.0208333333333333
142
0.0
142
0.0
142
0.0
142
0.0
142
0.0208333333333333
142
0.0
142
0.0
142
0.0
142
0.0
142
1.0
142
0.0
142
0.0
142
0.0
142
0.0
142
1.0
179
     0
144
0.0208333333333333
144
0.0
144
0.0
144
0.0
144
0.0
144
0.0208333333333333
144
0.0
144
0.0
144
0.0
144
0.0
144
1.0
144
0.0
144
0.0
144
0.0
144
0.0
144
1.0
147
0.0208333333333333
147
0.0
147
0.0
147
0.0
147
0.0
147
0.0208333333333333
147
0.0
147
0.0
147
0.0
147
0.0
147
1.0
147
0.0
147
0.0
147
0.0
147
0.0
147
1.0
  0
MATERIAL
  5
99C5
102
{ACAD_XDICTIONARY
360
99C6
102
}
102
{ACAD_REACTORS
330
99B4
102
}
330
99B4
100
AcDbMaterial
  1
Global
 72
     0
 43
0.0208333333333333
 43
0.0
 43
0.0
 43
0.0
 43
0.0
 43
0.0208333333333333
 43
0.0
 43
0.0
 43
0.0
 43
0.0
 43
1.0
 43
0.0
 43
0.0
 43
0.0
 43
0.0
 43
1.0
 77
     0
 47
0.0208333333333333
 47
0.0
 47
0.0
 47
0.0
 47
0.0
 47
0.0208333333333333
 47
0.0
 47
0.0
 47
0.0
 47
0.0
 47
1.0
 47
0.0
 47
0.0
 47
0.0
 47
0.0
 47
1.0
171
     0
 49
0.0208333333333333
 49
0.0
 49
0.0
 49
0.0
 49
0.0
 49
0.0208333333333333
 49
0.0
 49
0.0
 49
0.0
 49
0.0
 49
1.0
 49
0.0
 49
0.0
 49
0.0
 49
0.0
 49
1.0
175
     0
142
0.0208333333333333
142
0.0
142
0.0
142
0.0
142
0.0
142
0.0208333333333333
142
0.0
142
0.0
142
0.0
142
0.0
142
1.0
142
0.0
142
0.0
142
0.0
142
0.0
142
1.0
179
     0
144
0.0208333333333333
144
0.0
144
0.0
144
0.0
144
0.0
144
0.0208333333333333
144
0.0
144
0.0
144
0.0
144
0.0
144
1.0
144
0.0
144
0.0
144
0.0
144
0.0
144
1.0
147
0.0208333333333333
147
0.0
147
0.0
147
0.0
147
0.0
147
0.0208333333333333
147
0.0
147
0.0
147
0.0
147
0.0
147
1.0
147
0.0
147
0.0
147
0.0
147
0.0
147
1.0
  0
MLEADERSTYLE
  5
99FC
102
{ACAD_REACTORS
330
99FB
102
}
330
99FB
100
AcDbMLeaderStyle
170
     2
171
     1
172
     0
 90
        2
 40
0.0
 41
0.0
173
     1
 91
-1056964608
340
9726
 92
       -2
290
     1
 42
0.09
291
     1
 43
0.36
  3
Standard
 44
0.18
300

342
9724
174
     1
178
     6
175
     1
176
     0
 93
-1056964608
 45
0.18
292
     0
297
     0
 46
0.18
 94
-1056964608
 47
1.0
 49
1.0
140
1.0
293
     1
141
0.0
294
     1
177
     0
142
1.0
295
     0
296
     0
143
0.125
1001
ACAD_MLEADERVER
1070
     2
  0
MLINESTYLE
  5
972A
102
{ACAD_REACTORS
330
9729
102
}
330
9729
100
AcDbMlineStyle
  2
STANDARD
 70
     0
  3

 62
   256
 51
90.0
 52
90.0
 71
     2
 49
0.5
 62
   256
  6
BYLAYER
 49
-0.5
 62
   256
  6
BYLAYER
  0
ACDBPLACEHOLDER
  5
99B3
102
{ACAD_REACTORS
330
99B2
102
}
330
99B2
  0
SCALE
  5
99EA
102
{ACAD_REACTORS
330
99E9
102
}
330
99E9
100
AcDbScale
 70
     0
300
1:1
140
1.0
141
1.0
290
     1
  0
SCALE
  5
99EB
102
{ACAD_REACTORS
330
99E9
102
}
330
99E9
100
AcDbScale
 70
     0
300
1/128" = 1'-0"
140
0.0078125
141
12.0
290
     0
  0
SCALE
  5
99EC
102
{ACAD_REACTORS
330
99E9
102
}
330
99E9
100
AcDbScale
 70
     0
300
1/64" = 1'-0"
140
0.015625
141
12.0
290
     0
  0
SCALE
  5
99ED
102
{ACAD_REACTORS
330
99E9
102
}
330
99E9
100
AcDbScale
 70
     0
300
1/32" = 1'-0"
140
0.03125
141
12.0
290
     0
  0
SCALE
  5
99EE
102
{ACAD_REACTORS
330
99E9
102
}
330
99E9
100
AcDbScale
 70
     0
300
1/16" = 1'-0"
140
0.0625
141
12.0
290
     0
  0
SCALE
  5
99EF
102
{ACAD_REACTORS
330
99E9
102
}
330
99E9
100
AcDbScale
 70
     0
300
3/32" = 1'-0"
140
0.09375
141
12.0
290
     0
  0
SCALE
  5
99F0
102
{ACAD_REACTORS
330
99E9
102
}
330
99E9
100
AcDbScale
 70
     0
300
1/8" = 1'-0"
140
0.125
141
12.0
290
     0
  0
SCALE
  5
99F1
102
{ACAD_REACTORS
330
99E9
102
}
330
99E9
100
AcDbScale
 70
     0
300
3/16" = 1'-0"
140
0.1875
141
12.0
290
     0
  0
SCALE
  5
99F2
102
{ACAD_REACTORS
330
99E9
102
}
330
99E9
100
AcDbScale
 70
     0
300
1/4" = 1'-0"
140
0.25
141
12.0
290
     0
  0
SCALE
  5
99F3
102
{ACAD_REACTORS
330
99E9
102
}
330
99E9
100
AcDbScale
 70
     0
300
3/8" = 1'-0"
140
0.375
141
12.0
290
     0
  0
SCALE
  5
99F4
102
{ACAD_REACTORS
330
99E9
102
}
330
99E9
100
AcDbScale
 70
     0
300
1/2" = 1'-0"
140
0.5
141
12.0
290
     0
  0
SCALE
  5
99F5
102
{ACAD_REACTORS
330
99E9
102
}
330
99E9
100
AcDbScale
 70
     0
300
3/4" = 1'-0"
140
0.75
141
12.0
290
     0
  0
SCALE
  5
99F6
102
{ACAD_REACTORS
330
99E9
102
}
330
99E9
100
AcDbScale
 70
     0
300
1" = 1'-0"
140
1.0
141
12.0
290
     0
  0
SCALE
  5
99F7
102
{ACAD_REACTORS
330
99E9
102
}
330
99E9
100
AcDbScale
 70
     0
300
1-1/2" = 1'-0"
140
1.5
141
12.0
290
     0
  0
SCALE
  5
99F8
102
{ACAD_REACTORS
330
99E9
102
}
330
99E9
100
AcDbScale
 70
     0
300
3" = 1'-0"
140
3.0
141
12.0
290
     0
  0
SCALE
  5
99F9
102
{ACAD_REACTORS
330
99E9
102
}
330
99E9
100
AcDbScale
 70
     0
300
6" = 1'-0"
140
6.0
141
12.0
290
     0
  0
SCALE
  5
99FA
102
{ACAD_REACTORS
330
99E9
102
}
330
99E9
100
AcDbScale
 70
     0
300
1'-0" = 1'-0"
140
12.0
141
12.0
290
     0
  0
ACDBSECTIONVIEWSTYLE
  5
99FE
102
{ACAD_XDICTIONARY
360
9A59
102
}
102
{ACAD_REACTORS
330
99FD
102
}
330
99FD
100
AcDbModelDocViewStyle
 70
     0
  3
Imperial24
290
     0
100
AcDbSectionViewStyle
 70
     0
 71
     0
 90
       78
 71
     1
340
9724
 40
0.24
340
0
340
0
 40
0.24
300
I, O, Q, S, X, Z
 40
0.48
 90
        3
 40
0.18
 90
        1
 71
     2
340
9728
 90
       25
340
9728
 90
       50
 40
0.24
 40
0.0
 40
0.24
 71
     3
340
9724
 40
0.24
 90
        1
 40
0.75
 90
        1
300
%<\AcVar ViewType \f "%tc1">% %<\AcVar ViewSectionStartId>%-%<\AcVar ViewSectionEndId>%\PSCALE %<\AcVar ViewScale \f "%sn">%
 71
     4
300
ANSI31
 40
1.0
 90
        0
290
     0
290
     0
 90
        6
 40
0.0
 40
1.570796326794896
 40
0.2617993877991494
 40
1.308996938995747
 40
-0.2617993877991494
 40
1.832595714594046
  0
TABLESTYLE
  5
99E8
102
{ACAD_XDICTIONARY
360
9A20
102
}
102
{ACAD_REACTORS
330
99E7
102
}
330
99E7
100
AcDbTableStyle
  3
Standard
 70
     0
 71
     0
 40
0.06
 41
0.06
280
     0
281
     0
  7
STANDARD
140
0.18
170
     2
 62
     0
 63
     7
283
     0
274
    -2
284
     1
 64
     0
275
    -2
285
     1
 65
     0
276
    -2
286
     1
 66
     0
277
    -2
287
     1
 67
     0
278
    -2
288
     1
 68
     0
279
    -2
289
     1
 69
     0
  7
STANDARD
140
0.25
170
     5
 62
     0
 63
     7
283
     0
274
    -2
284
     1
 64
     0
275
    -2
285
     1
 65
     0
276
    -2
286
     1
 66
     0
277
    -2
287
     1
 67
     0
278
    -2
288
     1
 68
     0
279
    -2
289
     1
 69
     0
  7
STANDARD
140
0.18
170
     5
 62
     0
 63
     7
283
     0
274
    -2
284
     1
 64
     0
275
    -2
285
     1
 65
     0
276
    -2
286
     1
 66
     0
277
    -2
287
     1
 67
     0
278
    -2
288
     1
 68
     0
279
    -2
289
     1
 69
     0
  0
VISUALSTYLE
  5
99D3
102
{ACAD_XDICTIONARY
360
9A31
102
}
102
{ACAD_REACTORS
330
99CD
102
}
330
99CD
100
AcDbVisualStyle
  2
2dWireframe
 70
     4
 71
     0
 72
     2
 73
     0
 90
        0
 40
-0.6
 41
-30.0
 62
     5
 63
     7
 74
     1
 91
        4
 64
     7
 65
   257
 75
     1
175
     1
 42
1.0
 92
        0
 66
   257
 43
1.0
 76
     1
 77
     6
 78
     2
 67
     7
 79
     5
170
     0
171
     0
290
     0
174
     0
 93
        1
 44
0.0
173
     0
291
     0
 45
0.0
1001
ACAD
1000
AcDbSavedByObjectVersion
1070
     0
  0
VISUALSTYLE
  5
99D2
102
{ACAD_XDICTIONARY
360
9A2F
102
}
102
{ACAD_REACTORS
330
99CD
102
}
330
99CD
100
AcDbVisualStyle
  2
Basic
 70
     7
 71
     1
 72
     0
 73
     1
 90
        0
 40
-0.6
 41
-30.0
 62
     5
 63
     7
 74
     0
 91
        4
 64
     7
 65
   257
 75
     1
175
     1
 42
1.0
 92
        8
 66
     7
 43
1.0
 76
     1
 77
     6
 78
     2
 67
     7
 79
     5
170
     0
171
     0
290
     0
174
     0
 93
        1
 44
0.0
173
     0
291
     1
 45
0.0
1001
ACAD
1000
AcDbSavedByObjectVersion
1070
     0
  0
VISUALSTYLE
  5
99D9
102
{ACAD_XDICTIONARY
360
9A3D
102
}
102
{ACAD_REACTORS
330
99CD
102
}
330
99CD
100
AcDbVisualStyle
  2
Brighten
 70
    12
 71
     2
 72
     2
 73
     0
 90
        0
 40
-0.6
 41
-30.0
 62
     5
 63
     7
 74
     1
 91
        4
 64
     7
 65
   257
 75
     1
175
     1
 42
1.0
 92
        8
 66
     7
 43
1.0
 76
     1
 77
     6
 78
     2
 67
     7
 79
     5
170
     0
171
     0
290
     0
174
     0
 93
        1
 44
50.0
173
     0
291
     1
 45
0.0
1001
ACAD
1000
AcDbSavedByObjectVersion
1070
     0
  0
VISUALSTYLE
  5
99DD
102
{ACAD_XDICTIONARY
360
9A45
102
}
102
{ACAD_REACTORS
330
99CD
102
}
330
99CD
100
AcDbVisualStyle
  2
ColorChange
 70
    16
 71
     2
 72
     2
 73
     3
 90
        0
 40
-0.6
 41
-30.0
 62
     5
 63
     8
 74
     1
 91
        4
 64
     7
 65
   257
 75
     1
175
     1
 42
1.0
 92
        8
 66
     8
 43
1.0
 76
     1
 77
     6
 78
     2
 67
     7
 79
     5
170
     0
171
     0
290
     0
174
     0
 93
        1
 44
0.0
173
     0
291
     1
 45
0.0
1001
ACAD
1000
AcDbSavedByObjectVersion
1070
     0
  0
VISUALSTYLE
  5
99D6
102
{ACAD_XDICTIONARY
360
9A37
102
}
102
{ACAD_REACTORS
330
99CD
102
}
330
99CD
100
AcDbVisualStyle
  2
Conceptual
 70
     9
 71
     3
 72
     2
 73
     0
 90
        0
 40
-0.6
 41
-30.0
 62
     5
 63
     7
 74
     2
 91
        2
 64
     7
 65
   257
 75
     1
175
     1
 42
179.0
 92
        8
 66
     7
 43
1.0
 76
     1
 77
     6
 78
     2
 67
     7
 79
     3
170
     0
171
     0
290
     0
174
     0
 93
        1
 44
0.0
173
     0
291
     0
 45
0.0
1001
ACAD
1000
AcDbSavedByObjectVersion
1070
     0
  0
VISUALSTYLE
  5
99D8
102
{ACAD_XDICTIONARY
360
9A3B
102
}
102
{ACAD_REACTORS
330
99CD
102
}
330
99CD
100
AcDbVisualStyle
  2
Dim
 70
    11
 71
     2
 72
     2
 73
     0
 90
        0
 40
-0.6
 41
-30.0
 62
     5
 63
     7
 74
     1
 91
        4
 64
     7
 65
   257
 75
     1
175
     1
 42
1.0
 92
        8
 66
     7
 43
1.0
 76
     1
 77
     6
 78
     2
 67
     7
 79
     5
170
     0
171
     0
290
     0
174
     0
 93
        1
 44
-50.0
173
     0
291
     1
 45
0.0
1001
ACAD
1000
AcDbSavedByObjectVersion
1070
     0
  0
VISUALSTYLE
  5
99E5
102
{ACAD_XDICTIONARY
360
9A55
102
}
102
{ACAD_REACTORS
330
99CD
102
}
330
99CD
100
AcDbVisualStyle
  2
EdgeColorOff
 70
    22
 71
     2
 72
     2
 73
     0
 90
        0
 40
-0.6
 41
-30.0
 62
     5
 63
     7
 74
     1
 91
        4
 64
     7
 65
   257
 75
     1
175
     1
 42
1.0
 92
        8
 66
     7
 43
1.0
 76
     1
 77
     6
 78
     2
 67
     7
 79
     5
170
     0
171
     0
290
     0
174
     0
 93
        1
 44
0.0
173
     0
291
     1
 45
0.0
1001
ACAD
1000
AcDbSavedByObjectVersion
1070
     0
  0
VISUALSTYLE
  5
99DC
102
{ACAD_XDICTIONARY
360
9A43
102
}
102
{ACAD_REACTORS
330
99CD
102
}
330
99CD
100
AcDbVisualStyle
  2
Facepattern
 70
    15
 71
     2
 72
     2
 73
     0
 90
        0
 40
-0.6
 41
-30.0
 62
     5
 63
     7
 74
     1
 91
        4
 64
     7
 65
   257
 75
     1
175
     1
 42
1.0
 92
        8
 66
     7
 43
1.0
 76
     1
 77
     6
 78
     2
 67
     7
 79
     5
170
     0
171
     0
290
     0
174
     0
 93
        1
 44
0.0
173
     0
291
     1
 45
0.0
1001
ACAD
1000
AcDbSavedByObjectVersion
1070
     0
  0
VISUALSTYLE
  5
99CE
102
{ACAD_XDICTIONARY
360
9A27
102
}
102
{ACAD_REACTORS
330
99CD
102
}
330
99CD
100
AcDbVisualStyle
  2
Flat
 70
     0
 71
     2
 72
     1
 73
     1
 90
        2
 40
-0.6
 41
30.0
 62
     5
 63
     7
 74
     0
 91
        0
 64
     7
 65
   257
 75
     1
175
     1
 42
1.0
 92
        8
 66
     7
 43
1.0
 76
     1
 77
     6
 78
     2
 67
     7
 79
     5
170
     0
171
     0
290
     0
174
     0
 93
       13
 44
0.0
173
     0
291
     1
 45
0.0
1001
ACAD
1000
AcDbSavedByObjectVersion
1070
     0
  0
VISUALSTYLE
  5
99CF
102
{ACAD_XDICTIONARY
360
9A29
102
}
102
{ACAD_REACTORS
330
99CD
102
}
330
99CD
100
AcDbVisualStyle
  2
FlatWithEdges
 70
     1
 71
     2
 72
     1
 73
     1
 90
        2
 40
-0.6
 41
30.0
 62
     5
 63
     7
 74
     1
 91
        0
 64
     7
 65
   257
 75
     1
175
     1
 42
1.0
 92
        0
 66
   257
 43
1.0
 76
     1
 77
     6
 78
     2
 67
     7
 79
     5
170
     0
171
     0
290
     0
174
     0
 93
       13
 44
0.0
173
     0
291
     1
 45
0.0
1001
ACAD
1000
AcDbSavedByObjectVersion
1070
     0
  0
VISUALSTYLE
  5
99D0
102
{ACAD_XDICTIONARY
360
9A2B
102
}
102
{ACAD_REACTORS
330
99CD
102
}
330
99CD
100
AcDbVisualStyle
  2
Gouraud
 70
     2
 71
     2
 72
     2
 73
     1
 90
        2
 40
-0.6
 41
30.0
 62
     5
 63
     7
 74
     0
 91
        0
 64
     7
 65
   257
 75
     1
175
     1
 42
1.0
 92
        0
 66
     7
 43
1.0
 76
     1
 77
     6
 78
     2
 67
     7
 79
     5
170
     0
171
     0
290
     0
174
     0
 93
       13
 44
0.0
173
     0
291
     1
 45
0.0
1001
ACAD
1000
AcDbSavedByObjectVersion
1070
     0
  0
VISUALSTYLE
  5
99D1
102
{ACAD_XDICTIONARY
360
9A2D
102
}
102
{ACAD_REACTORS
330
99CD
102
}
330
99CD
100
AcDbVisualStyle
  2
GouraudWithEdges
 70
     3
 71
     2
 72
     2
 73
     1
 90
        2
 40
-0.6
 41
30.0
 62
     5
 63
     7
 74
     1
 91
        0
 64
     7
 65
   257
 75
     1
175
     1
 42
1.0
 92
        0
 66
   257
 43
1.0
 76
     1
 77
     6
 78
     2
 67
     7
 79
     5
170
     0
171
     0
290
     0
174
     0
 93
       13
 44
0.0
173
     0
291
     1
 45
0.0
1001
ACAD
1000
AcDbSavedByObjectVersion
1070
     0
  0
VISUALSTYLE
  5
99D5
102
{ACAD_XDICTIONARY
360
9A35
102
}
102
{ACAD_REACTORS
330
99CD
102
}
330
99CD
100
AcDbVisualStyle
  2
Hidden
 70
     6
 71
     1
 72
     2
 73
     2
 90
        0
 40
-0.6
 41
-30.0
 62
     5
 63
     7
 74
     2
 91
        2
 64
     7
 65
   257
 75
     2
175
     1
 42
40.0
 92
        0
 66
   257
 43
1.0
 76
     1
 77
     6
 78
     2
 67
     7
 79
     3
170
     0
171
     0
290
     0
174
     0
 93
        1
 44
0.0
173
     0
291
     0
 45
0.0
1001
ACAD
1000
AcDbSavedByObjectVersion
1070
     0
  0
VISUALSTYLE
  5
99E3
102
{ACAD_XDICTIONARY
360
9A51
102
}
102
{ACAD_REACTORS
330
99CD
102
}
330
99CD
100
AcDbVisualStyle
  2
JitterOff
 70
    20
 71
     2
 72
     2
 73
     0
 90
        0
 40
-0.6
 41
-30.0
 62
     5
 63
     7
 74
     1
 91
        4
 64
     7
 65
   257
 75
     1
175
     1
 42
1.0
 92
       10
 66
     7
 43
1.0
 76
     1
 77
     6
 78
     2
 67
     7
 79
     5
170
     0
171
     0
290
     0
174
     0
 93
        1
 44
0.0
173
     0
291
     1
 45
0.0
1001
ACAD
1000
AcDbSavedByObjectVersion
1070
     0
  0
VISUALSTYLE
  5
99DB
102
{ACAD_XDICTIONARY
360
9A41
102
}
102
{ACAD_REACTORS
330
99CD
102
}
330
99CD
100
AcDbVisualStyle
  2
Linepattern
 70
    14
 71
     2
 72
     2
 73
     0
 90
        0
 40
-0.6
 41
-30.0
 62
     5
 63
     7
 74
     1
 91
        4
 64
     7
 65
   257
 75
     7
175
     7
 42
1.0
 92
        8
 66
     7
 43
1.0
 76
     1
 77
     6
 78
     2
 67
     7
 79
     5
170
     0
171
     0
290
     0
174
     0
 93
        1
 44
0.0
173
     0
291
     1
 45
0.0
1001
ACAD
1000
AcDbSavedByObjectVersion
1070
     0
  0
VISUALSTYLE
  5
99E4
102
{ACAD_XDICTIONARY
360
9A53
102
}
102
{ACAD_REACTORS
330
99CD
102
}
330
99CD
100
AcDbVisualStyle
  2
OverhangOff
 70
    21
 71
     2
 72
     2
 73
     0
 90
        0
 40
-0.6
 41
-30.0
 62
     5
 63
     7
 74
     1
 91
        4
 64
     7
 65
   257
 75
     1
175
     1
 42
1.0
 92
        9
 66
     7
 43
1.0
 76
     1
 77
     6
 78
     2
 67
     7
 79
     5
170
     0
171
     0
290
     0
174
     0
 93
        1
 44
0.0
173
     0
291
     1
 45
0.0
1001
ACAD
1000
AcDbSavedByObjectVersion
1070
     0
  0
VISUALSTYLE
  5
99D7
102
{ACAD_XDICTIONARY
360
9A39
102
}
102
{ACAD_REACTORS
330
99CD
102
}
330
99CD
100
AcDbVisualStyle
  2
Realistic
 70
     8
 71
     2
 72
     3
 73
     0
 90
        2
 40
-0.6
 41
30.0
 62
     5
 63
     7
 74
     0
 91
        0
 64
     7
 65
   257
 75
     1
175
     1
 42
1.0
 92
        8
 66
   257
 43
1.0
 76
     1
 77
     6
 78
     2
 67
     7
 79
     3
170
     0
171
     0
290
     0
174
     0
 93
       13
 44
0.0
173
     0
291
     0
 45
0.0
1001
ACAD
1000
AcDbSavedByObjectVersion
1070
     0
  0
VISUALSTYLE
  5
99E2
102
{ACAD_XDICTIONARY
360
9A4F
102
}
102
{ACAD_REACTORS
330
99CD
102
}
330
99CD
100
AcDbVisualStyle
  2
Shaded
 70
    27
 71
     2
 72
     2
 73
     1
 90
        2
 40
-0.6
 41
30.0
 62
     5
 63
     7
 74
     0
 91
        4
 64
     7
 65
   257
 75
     1
175
     1
 42
1.0
 92
        8
 66
   257
 43
1.0
 76
     1
 77
     6
 78
     2
 67
     8
 79
     3
170
     0
171
     0
290
     0
174
     0
 93
        5
 44
0.0
173
     0
291
     0
 45
0.0
1001
ACAD
1000
AcDbSavedByObjectVersion
1070
     0
  0
VISUALSTYLE
  5
99E1
102
{ACAD_XDICTIONARY
360
9A4D
102
}
102
{ACAD_REACTORS
330
99CD
102
}
330
99CD
100
AcDbVisualStyle
  2
Shaded with edges
 70
    26
 71
     2
 72
     2
 73
     1
 90
        2
 40
-0.6
 41
30.0
 62
     5
 63
     7
 74
     1
 91
       10
 64
     7
 65
   257
 75
     2
175
     1
 42
1.0
 92
        8
 66
   257
 43
1.0
 76
     1
 77
     6
 78
     2
 67
     7
 79
     3
170
     0
171
     0
290
     0
174
     0
 93
        5
 44
0.0
173
     0
291
     0
 45
0.0
1001
ACAD
1000
AcDbSavedByObjectVersion
1070
     0
  0
VISUALSTYLE
  5
99DE
102
{ACAD_XDICTIONARY
360
9A47
102
}
102
{ACAD_REACTORS
330
99CD
102
}
330
99CD
100
AcDbVisualStyle
  2
Shades of Gray
 70
    23
 71
     2
 72
     2
 73
     3
 90
        0
 40
-0.6
 41
-30.0
 62
     5
 63
     7
 74
     2
 91
        2
 64
     7
 65
     7
 75
     1
175
     1
 42
40.0
 92
        8
 66
     7
 43
1.0
 76
     1
 77
     6
 78
     2
 67
     7
 79
     3
170
     0
171
     0
290
     0
174
     0
 93
        1
 44
0.0
173
     0
291
     0
 45
0.0
1001
ACAD
1000
AcDbSavedByObjectVersion
1070
     0
  0
VISUALSTYLE
  5
99DF
102
{ACAD_XDICTIONARY
360
9A49
102
}
102
{ACAD_REACTORS
330
99CD
102
}
330
99CD
100
AcDbVisualStyle
  2
Sketchy
 70
    24
 71
     1
 72
     2
 73
     2
 90
        0
 40
-0.6
 41
-30.0
 62
     5
 63
     7
 74
     2
 91
        2
 64
     7
 65
     7
 75
     1
175
     1
 42
40.0
 92
       11
 66
     7
 43
1.0
 76
     1
 77
     6
 78
     2
 67
     7
 79
     6
170
     0
171
     0
290
     0
174
     0
 93
        1
 44
0.0
173
     0
291
     0
 45
0.0
1001
ACAD
1000
AcDbSavedByObjectVersion
1070
     0
  0
VISUALSTYLE
  5
99DA
102
{ACAD_XDICTIONARY
360
9A3F
102
}
102
{ACAD_REACTORS
330
99CD
102
}
330
99CD
100
AcDbVisualStyle
  2
Thicken
 70
    13
 71
     2
 72
     2
 73
     0
 90
        0
 40
-0.6
 41
-30.0
 62
     5
 63
     7
 74
     1
 91
        4
 64
     7
 65
   257
 75
     1
175
     1
 42
1.0
 92
       12
 66
     7
 43
1.0
 76
     1
 77
     6
 78
     2
 67
     7
 79
     5
170
     0
171
     0
290
     0
174
     0
 93
        1
 44
0.0
173
     0
291
     1
 45
0.0
1001
ACAD
1000
AcDbSavedByObjectVersion
1070
     0
  0
VISUALSTYLE
  5
99D4
102
{ACAD_XDICTIONARY
360
9A33
102
}
102
{ACAD_REACTORS
330
99CD
102
}
330
99CD
100
AcDbVisualStyle
  2
Wireframe
 70
     5
 71
     0
 72
     2
 73
     0
 90
        0
 40
-0.6
 41
-30.0
 62
     5
 63
     7
 74
     1
 91
        4
 64
     7
 65
   257
 75
     1
175
     1
 42
1.0
 92
        0
 66
   257
 43
1.0
 76
     1
 77
     6
 78
     2
 67
     7
 79
     3
170
     0
171
     0
290
     0
174
     0
 93
        1
 44
0.0
173
     0
291
     0
 45
0.0
1001
ACAD
1000
AcDbSavedByObjectVersion
1070
     0
  0
VISUALSTYLE
  5
99E0
102
{ACAD_XDICTIONARY
360
9A4B
102
}
102
{ACAD_REACTORS
330
99CD
102
}
330
99CD
100
AcDbVisualStyle
  2
X-Ray
 70
    25
 71
     2
 72
     2
 73
     1
 90
        1
 40
0.5
 41
-30.0
 62
     5
 63
     7
 74
     1
 91
        0
 64
     7
 65
   257
 75
     1
175
     1
 42
1.0
 92
        8
 66
     7
 43
1.0
 76
     1
 77
     6
 78
     2
 67
     7
 79
     3
170
     0
171
     0
290
     0
174
     0
 93
       13
 44
0.0
173
     0
291
     0
 45
0.0
1001
ACAD
1000
AcDbSavedByObjectVersion
1070
     0
  0
DICTIONARYVAR
  5
9A1A
102
{ACAD_REACTORS
330
9A15
102
}
330
9A15
100
DictionaryVariables
280
     0
  1
1:1
  0
DICTIONARYVAR
  5
9A17
102
{ACAD_REACTORS
330
9A15
102
}
330
9A15
100
DictionaryVariables
280
     0
  1
STANDARD
  0
DICTIONARYVAR
  5
9A16
102
{ACAD_REACTORS
330
9A15
102
}
330
9A15
100
DictionaryVariables
280
     0
  1
STANDARD
  0
DICTIONARYVAR
  5
9A18
102
{ACAD_REACTORS
330
9A15
102
}
330
9A15
100
DictionaryVariables
280
     0
  1
Imperial24
  0
DICTIONARYVAR
  5
9A19
102
{ACAD_REACTORS
330
9A15
102
}
330
9A15
100
DictionaryVariables
280
     0
  1
Imperial24
  0
DICTIONARYVAR
  5
9A1D
102
{ACAD_REACTORS
330
9A15
102
}
330
9A15
100
DictionaryVariables
280
     0
  1
1
  0
DICTIONARYVAR
  5
9A1C
102
{ACAD_REACTORS
330
9A15
102
}
330
9A15
100
DictionaryVariables
280
     0
  1
0
  0
DICTIONARYVAR
  5
9A1B
102
{ACAD_REACTORS
330
9A15
102
}
330
9A15
100
DictionaryVariables
280
     0
  1
127
  0
DICTIONARYVAR
  5
9A1E
102
{ACAD_REACTORS
330
9A15
102
}
330
9A15
100
DictionaryVariables
280
     0
  1
2
  0
DICTIONARY
  5
9A5B
330
9A00
100
AcDbDictionary
280
     1
281
     1
  3
ACAD_XREC_ROUNDTRIP
360
9A5C
  0
DICTIONARY
  5
9A5D
330
9A01
100
AcDbDictionary
280
     1
281
     1
  3
ACAD_XREC_ROUNDTRIP
360
9A5E
  0
DICTIONARY
  5
9A5F
330
9A02
100
AcDbDictionary
280
     1
281
     1
  3
ACAD_XREC_ROUNDTRIP
360
9A60
  0
DICTIONARY
  5
99BE
330
99BD
100
AcDbDictionary
280
     1
281
     1
  3
ACAD_XREC_ROUNDTRIP
360
9A25
  3
BUMPTILE
360
99C0
  3
DIFFUSETILE
360
99BF
  3
OPACITYTILE
360
99C3
  3
REFLECTIONTILE
360
99C2
  3
REFRACTIONTILE
360
99C4
  3
SPECULARTILE
360
99C1
  0
DICTIONARY
  5
99B6
330
99B5
100
AcDbDictionary
280
     1
281
     1
  3
ACAD_XREC_ROUNDTRIP
360
9A24
  3
BUMPTILE
360
99B8
  3
DIFFUSETILE
360
99B7
  3
OPACITYTILE
360
99BB
  3
REFLECTIONTILE
360
99BA
  3
REFRACTIONTILE
360
99BC
  3
SPECULARTILE
360
99B9
  0
DICTIONARY
  5
99C6
330
99C5
100
AcDbDictionary
280
     1
281
     1
  3
ACAD_XREC_ROUNDTRIP
360
9A26
  3
BUMPTILE
360
99C8
  3
DIFFUSETILE
360
99C7
  3
OPACITYTILE
360
99CB
  3
REFLECTIONTILE
360
99CA
  3
REFRACTIONTILE
360
99CC
  3
SPECULARTILE
360
99C9
  0
DICTIONARY
  5
9A59
330
99FE
100
AcDbDictionary
280
     1
281
     1
  3
ACAD_XREC_ROUNDTRIP
360
9A5A
  0
DICTIONARY
  5
9A20
330
99E8
100
AcDbDictionary
280
     1
281
     1
  3
ACAD_ROUNDTRIP_2008_TABLESTYLE_CELLSTYLEMAP
360
9A21
  3
ACAD_XREC_ROUNDTRIP
360
9A57
  0
DICTIONARY
  5
9A31
330
99D3
100
AcDbDictionary
280
     1
281
     1
  3
ACAD_XREC_ROUNDTRIP
360
9A32
  0
DICTIONARY
  5
9A2F
330
99D2
100
AcDbDictionary
280
     1
281
     1
  3
ACAD_XREC_ROUNDTRIP
360
9A30
  0
DICTIONARY
  5
9A3D
330
99D9
100
AcDbDictionary
280
     1
281
     1
  3
ACAD_XREC_ROUNDTRIP
360
9A3E
  0
DICTIONARY
  5
9A45
330
99DD
100
AcDbDictionary
280
     1
281
     1
  3
ACAD_XREC_ROUNDTRIP
360
9A46
  0
DICTIONARY
  5
9A37
330
99D6
100
AcDbDictionary
280
     1
281
     1
  3
ACAD_XREC_ROUNDTRIP
360
9A38
  0
DICTIONARY
  5
9A3B
330
99D8
100
AcDbDictionary
280
     1
281
     1
  3
ACAD_XREC_ROUNDTRIP
360
9A3C
  0
DICTIONARY
  5
9A55
330
99E5
100
AcDbDictionary
280
     1
281
     1
  3
ACAD_XREC_ROUNDTRIP
360
9A56
  0
DICTIONARY
  5
9A43
330
99DC
100
AcDbDictionary
280
     1
281
     1
  3
ACAD_XREC_ROUNDTRIP
360
9A44
  0
DICTIONARY
  5
9A27
330
99CE
100
AcDbDictionary
280
     1
281
     1
  3
ACAD_XREC_ROUNDTRIP
360
9A28
  0
DICTIONARY
  5
9A29
330
99CF
100
AcDbDictionary
280
     1
281
     1
  3
ACAD_XREC_ROUNDTRIP
360
9A2A
  0
DICTIONARY
  5
9A2B
330
99D0
100
AcDbDictionary
280
     1
281
     1
  3
ACAD_XREC_ROUNDTRIP
360
9A2C
  0
DICTIONARY
  5
9A2D
330
99D1
100
AcDbDictionary
280
     1
281
     1
  3
ACAD_XREC_ROUNDTRIP
360
9A2E
  0
DICTIONARY
  5
9A35
330
99D5
100
AcDbDictionary
280
     1
281
     1
  3
ACAD_XREC_ROUNDTRIP
360
9A36
  0
DICTIONARY
  5
9A51
330
99E3
100
AcDbDictionary
280
     1
281
     1
  3
ACAD_XREC_ROUNDTRIP
360
9A52
  0
DICTIONARY
  5
9A41
330
99DB
100
AcDbDictionary
280
     1
281
     1
  3
ACAD_XREC_ROUNDTRIP
360
9A42
  0
DICTIONARY
  5
9A53
330
99E4
100
AcDbDictionary
280
     1
281
     1
  3
ACAD_XREC_ROUNDTRIP
360
9A54
  0
DICTIONARY
  5
9A39
330
99D7
100
AcDbDictionary
280
     1
281
     1
  3
ACAD_XREC_ROUNDTRIP
360
9A3A
  0
DICTIONARY
  5
9A4F
330
99E2
100
AcDbDictionary
280
     1
281
     1
  3
ACAD_XREC_ROUNDTRIP
360
9A50
  0
DICTIONARY
  5
9A4D
330
99E1
100
AcDbDictionary
280
     1
281
     1
  3
ACAD_XREC_ROUNDTRIP
360
9A4E
  0
DICTIONARY
  5
9A47
330
99DE
100
AcDbDictionary
280
     1
281
     1
  3
ACAD_XREC_ROUNDTRIP
360
9A48
  0
DICTIONARY
  5
9A49
330
99DF
100
AcDbDictionary
280
     1
281
     1
  3
ACAD_XREC_ROUNDTRIP
360
9A4A
  0
DICTIONARY
  5
9A3F
330
99DA
100
AcDbDictionary
280
     1
281
     1
  3
ACAD_XREC_ROUNDTRIP
360
9A40
  0
DICTIONARY
  5
9A33
330
99D4
100
AcDbDictionary
280
     1
281
     1
  3
ACAD_XREC_ROUNDTRIP
360
9A34
  0
DICTIONARY
  5
9A4B
330
99E0
100
AcDbDictionary
280
     1
281
     1
  3
ACAD_XREC_ROUNDTRIP
360
9A4C
  0
XRECORD
  5
9A5C
102
{ACAD_REACTORS
330
9A5B
102
}
330
9A5B
100
AcDbXrecord
280
     1
102
DISPLAYNAME
  1
Imperial24
102
FLAGS
 90
        0
  0
XRECORD
  5
9A5E
102
{ACAD_REACTORS
330
9A5D
102
}
330
9A5D
100
AcDbXrecord
280
     1
102
SHADEPLOT
 70
     0
102
SHADEPLOTRESLEVEL
 70
     2
102
SHADEPLOTCUSTOMDPI
 70
   300
  0
XRECORD
  5
9A60
102
{ACAD_REACTORS
330
9A5F
102
}
330
9A5F
100
AcDbXrecord
280
     1
102
SHADEPLOT
 70
     0
102
SHADEPLOTRESLEVEL
 70
     2
102
SHADEPLOTCUSTOMDPI
 70
   300
  0
XRECORD
  5
9A25
102
{ACAD_REACTORS
330
99BE
102
}
330
99BE
100
AcDbXrecord
280
     1
102
MATERIAL
148
0.0
149
0.0
149
0.0
 93
        0
 94
      127
282
     0
 72
     0
 77
     0
171
     0
175
     0
179
     0
273
     0
  0
XRECORD
  5
99C0
102
{ACAD_REACTORS
330
99BE
102
}
330
99BE
100
AcDbXrecord
280
     1
270
     1
271
     1
  0
XRECORD
  5
99BF
102
{ACAD_REACTORS
330
99BE
102
}
330
99BE
100
AcDbXrecord
280
     1
270
     1
271
     1
  0
XRECORD
  5
99C3
102
{ACAD_REACTORS
330
99BE
102
}
330
99BE
100
AcDbXrecord
280
     1
270
     1
271
     1
  0
XRECORD
  5
99C2
102
{ACAD_REACTORS
330
99BE
102
}
330
99BE
100
AcDbXrecord
280
     1
270
     1
271
     1
  0
XRECORD
  5
99C4
102
{ACAD_REACTORS
330
99BE
102
}
330
99BE
100
AcDbXrecord
280
     1
270
     1
271
     1
  0
XRECORD
  5
99C1
102
{ACAD_REACTORS
330
99BE
102
}
330
99BE
100
AcDbXrecord
280
     1
270
     1
271
     1
  0
XRECORD
  5
9A24
102
{ACAD_REACTORS
330
99B6
102
}
330
99B6
100
AcDbXrecord
280
     1
102
MATERIAL
148
0.0
149
0.0
149
0.0
 93
        0
 94
      127
282
     0
 72
     0
 77
     0
171
     0
175
     0
179
     0
273
     0
  0
XRECORD
  5
99B8
102
{ACAD_REACTORS
330
99B6
102
}
330
99B6
100
AcDbXrecord
280
     1
270
     1
271
     1
  0
XRECORD
  5
99B7
102
{ACAD_REACTORS
330
99B6
102
}
330
99B6
100
AcDbXrecord
280
     1
270
     1
271
     1
  0
XRECORD
  5
99BB
102
{ACAD_REACTORS
330
99B6
102
}
330
99B6
100
AcDbXrecord
280
     1
270
     1
271
     1
  0
XRECORD
  5
99BA
102
{ACAD_REACTORS
330
99B6
102
}
330
99B6
100
AcDbXrecord
280
     1
270
     1
271
     1
  0
XRECORD
  5
99BC
102
{ACAD_REACTORS
330
99B6
102
}
330
99B6
100
AcDbXrecord
280
     1
270
     1
271
     1
  0
XRECORD
  5
99B9
102
{ACAD_REACTORS
330
99B6
102
}
330
99B6
100
AcDbXrecord
280
     1
270
     1
271
     1
  0
XRECORD
  5
9A26
102
{ACAD_REACTORS
330
99C6
102
}
330
99C6
100
AcDbXrecord
280
     1
102
MATERIAL
148
0.0
149
0.0
149
0.0
 93
        0
 94
      127
282
     0
 72
     0
 77
     0
171
     0
175
     0
179
     0
273
     0
  0
XRECORD
  5
99C8
102
{ACAD_REACTORS
330
99C6
102
}
330
99C6
100
AcDbXrecord
280
     1
270
     1
271
     1
  0
XRECORD
  5
99C7
102
{ACAD_REACTORS
330
99C6
102
}
330
99C6
100
AcDbXrecord
280
     1
270
     1
271
     1
  0
XRECORD
  5
99CB
102
{ACAD_REACTORS
330
99C6
102
}
330
99C6
100
AcDbXrecord
280
     1
270
     1
271
     1
  0
XRECORD
  5
99CA
102
{ACAD_REACTORS
330
99C6
102
}
330
99C6
100
AcDbXrecord
280
     1
270
     1
271
     1
  0
XRECORD
  5
99CC
102
{ACAD_REACTORS
330
99C6
102
}
330
99C6
100
AcDbXrecord
280
     1
270
     1
271
     1
  0
XRECORD
  5
99C9
102
{ACAD_REACTORS
330
99C6
102
}
330
99C6
100
AcDbXrecord
280
     1
270
     1
271
     1
  0
XRECORD
  5
9A5A
102
{ACAD_REACTORS
330
9A59
102
}
330
9A59
100
AcDbXrecord
280
     1
102
DISPLAYNAME
  1
Imperial24
102
FLAGS
 90
        0
  0
CELLSTYLEMAP
  5
9A21
102
{ACAD_REACTORS
330
9A20
102
}
330
9A20
100
AcDbCellStyleMap
 90
        3
300
CELLSTYLE
  1
TABLEFORMAT_BEGIN
 90
        5
170
     1
 91
        0
 92
    32768
 62
   257
 93
        1
300
CONTENTFORMAT
  1
CONTENTFORMAT_BEGIN
 90
        0
 91
        0
 92
      512
 93
        0
300

 40
0.0
140
1.0
 94
        5
 62
     0
340
9724
144
0.25
309
CONTENTFORMAT_END
171
     0
 94
        0
309
TABLEFORMAT_END
  1
CELLSTYLE_BEGIN
 90
        1
 91
        1
300
_TITLE
309
CELLSTYLE_END
300
CELLSTYLE
  1
TABLEFORMAT_BEGIN
 90
        5
170
     1
 91
        0
 92
        0
 62
   257
 93
        1
300
CONTENTFORMAT
  1
CONTENTFORMAT_BEGIN
 90
        0
 91
        0
 92
      512
 93
        0
300

 40
0.0
140
1.0
 94
        5
 62
     0
340
9724
144
0.18
309
CONTENTFORMAT_END
171
     0
 94
        0
309
TABLEFORMAT_END
  1
CELLSTYLE_BEGIN
 90
        2
 91
        1
300
_HEADER
309
CELLSTYLE_END
300
CELLSTYLE
  1
TABLEFORMAT_BEGIN
 90
        5
170
     1
 91
        0
 92
        0
 62
   257
 93
        1
300
CONTENTFORMAT
  1
CONTENTFORMAT_BEGIN
 90
        0
 91
        0
 92
      512
 93
        0
300

 40
0.0
140
1.0
 94
        2
 62
     0
340
9724
144
0.18
309
CONTENTFORMAT_END
171
     0
 94
        0
309
TABLEFORMAT_END
  1
CELLSTYLE_BEGIN
 90
        3
 91
        2
300
_DATA
309
CELLSTYLE_END
  0
XRECORD
  5
9A57
102
{ACAD_REACTORS
330
9A20
102
}
330
9A20
100
AcDbXrecord
280
     1
102
ACAD_ROUNDTRIP_PRE2007_TABLESTYLE
 90
      512
 91
        0
  1

 92
      512
 93
        0
  2

 94
      512
 95
        0
  3

  0
XRECORD
  5
9A32
102
{ACAD_REACTORS
330
9A31
102
}
330
9A31
100
AcDbXrecord
280
     1
102
RTVSPost2010Prop28
280
     1
102
RTVSPost2010PropOp28
 70
     1
102
RTVSPost2010Prop29
280
     1
102
RTVSPost2010PropOp29
 70
     1
102
RTVSPost2010Prop30
280
     0
102
RTVSPost2010PropOp30
 70
     1
102
RTVSPost2010Prop31
280
     0
102
RTVSPost2010PropOp31
 70
     1
102
RTVSPost2010Prop32
280
     0
102
RTVSPost2010PropOp32
 70
     1
102
RTVSPost2010Prop33
280
     0
102
RTVSPost2010PropOp33
 70
     1
102
RTVSPost2010Prop34
280
     0
102
RTVSPost2010PropOp34
 70
     1
102
RTVSPost2010Prop35
280
     0
102
RTVSPost2010PropOp35
 70
     1
102
RTVSPost2010Prop36
280
     0
102
RTVSPost2010PropOp36
 70
     1
102
RTVSPost2010Prop37
 90
       50
102
RTVSPost2010PropOp37
 70
     1
102
RTVSPost2010Prop38
140
0.0
102
RTVSPost2010PropOp38
 70
     1
102
RTVSPost2010Prop39
140
1.0
102
RTVSPost2010PropOp39
 70
     1
102
RTVSPost2010Prop40
 90
        0
102
RTVSPost2010PropOp40
 70
     1
102
RTVSPost2010Prop41ColorIndex
 90
       18
102
RTVSPost2010Prop41ColorRGB
 90
        0
102
RTVSPost2010PropOp41
 70
     1
102
RTVSPost2010Prop42
 90
       50
102
RTVSPost2010PropOp42
 70
     1
102
RTVSPost2010Prop43
 90
        3
102
RTVSPost2010PropOp43
 70
     1
102
RTVSPost2010Prop44ColorIndex
 90
        5
102
RTVSPost2010Prop44ColorRGB
 90
      255
102
RTVSPost2010PropOp44
 70
     1
102
RTVSPost2010Prop45
280
     0
102
RTVSPost2010PropOp45
 70
     1
102
RTVSPost2010Prop46
 90
       50
102
RTVSPost2010PropOp46
 70
     1
102
RTVSPost2010Prop47
 90
       50
102
RTVSPost2010PropOp47
 70
     1
102
RTVSPost2010Prop48
 90
       50
102
RTVSPost2010PropOp48
 70
     1
102
RTVSPost2010Prop49
280
     0
102
RTVSPost2010PropOp49
 70
     1
102
RTVSPost2010Prop50
 90
       50
102
RTVSPost2010PropOp50
 70
     1
102
RTVSPost2010Prop51ColorIndex
 90
      256
102
RTVSPost2010Prop51ColorRGB
 90
-16777216
102
RTVSPost2010PropOp51
 70
     0
102
RTVSPost2010Prop52
140
1.0
102
RTVSPost2010PropOp52
 70
     0
102
RTVSPost2010Prop53
 90
        2
102
RTVSPost2010PropOp53
 70
     1
102
RTVSPost2010Prop54
  1
strokes_ogs.tif
102
RTVSPost2010PropOp54
 70
     1
102
RTVSPost2010Prop55
280
     0
102
RTVSPost2010PropOp55
 70
     1
102
RTVSPost2010Prop56
140
1.0
102
RTVSPost2010PropOp56
 70
     1
102
RTVSPost2010Prop57
140
1.0
102
RTVSPost2010PropOp57
 70
     1
102
RTVSPropertyOp0
 70
     1
102
RTVSPropertyOp1
 70
     1
102
RTVSPropertyOp2
 70
     1
102
RTVSPropertyOp3
 70
     1
102
RTVSPropertyOp4
 70
     1
102
RTVSPropertyOp5
 70
     1
102
RTVSPropertyOp6
 70
     1
102
RTVSPropertyOp7
 70
     1
102
RTVSPropertyOp8
 70
     1
102
RTVSPropertyOp9
 70
     1
102
RTVSPropertyOp10
 70
     1
102
RTVSPropertyOp11
 70
     1
102
RTVSPropertyOp12
 70
     1
102
RTVSPropertyOp13
 70
     1
102
RTVSPropertyOp14
 70
     1
102
RTVSPropertyOp15
 70
     1
102
RTVSPropertyOp16
 70
     1
102
RTVSPropertyOp17
 70
     1
102
RTVSPropertyOp18
 70
     1
102
RTVSPropertyOp19
 70
     1
102
RTVSPropertyOp20
 70
     1
102
RTVSPropertyOp21
 70
     1
102
RTVSPropertyOp22
 70
     1
102
RTVSPropertyOp23
 70
     1
102
RTVSPropertyOp24
 70
     1
102
RTVSPropertyOp25
 70
     1
102
RTVSPropertyOp26
 70
     1
102
RTVSPropertyOp27
 70
     1
102
RTVSPropertyOp28
 70
     1
102
RTVSPropertyOp29
 70
     1
102
RTVSPropertyOp30
 70
     1
102
RTVSPropertyOp31
 70
     1
102
RTVSPropertyOp32
 70
     1
102
RTVSPropertyOp33
 70
     1
102
RTVSPropertyOp34
 70
     1
102
RTVSPropertyOp35
 70
     1
102
RTVSPropertyOp36
 70
     1
102
RTVSPropertyOp37
 70
     1
102
RTVSPropertyOp38
 70
     1
102
RTVSPropertyOp39
 70
     1
102
RTVSPropertyOp40
 70
     1
102
RTVSPropertyOp41
 70
     1
102
RTVSPropertyOp42
 70
     1
102
RTVSPropertyOp43
 70
     1
102
RTVSPropertyOp44
 70
     1
102
RTVSPropertyOp45
 70
     1
102
RTVSPropertyOp46
 70
     1
102
RTVSPropertyOp47
 70
     1
102
RTVSPropertyOp48
 70
     1
102
RTVSPropertyOp49
 70
     1
102
RTVSPropertyOp50
 70
     1
102
RTVSPropertyOp51
 70
     0
102
RTVSPropertyOp52
 70
     0
102
RTVSPropertyOp53
 70
     1
102
RTVSPropertyOp54
 70
     1
102
RTVSPropertyOp55
 70
     1
102
RTVSPropertyOp56
 70
     1
102
RTVSPropertyOp57
 70
     1
102
RTVSPropertyOp58
 70
     1
102
RTVSPropertyOp59
 70
     1
102
RTVSPropertyOp60
 70
     1
102
RTVSPropertyOp61
 70
     1
102
RTVSPropertyOp62
 70
     1
  0
XRECORD
  5
9A30
102
{ACAD_REACTORS
330
9A2F
102
}
330
9A2F
100
AcDbXrecord
280
     1
102
RTVSPost2010Prop28
280
     0
102
RTVSPost2010PropOp28
 70
     1
102
RTVSPost2010Prop29
280
     1
102
RTVSPost2010PropOp29
 70
     1
102
RTVSPost2010Prop30
280
     1
102
RTVSPost2010PropOp30
 70
     1
102
RTVSPost2010Prop31
280
     0
102
RTVSPost2010PropOp31
 70
     1
102
RTVSPost2010Prop32
280
     0
102
RTVSPost2010PropOp32
 70
     1
102
RTVSPost2010Prop33
280
     0
102
RTVSPost2010PropOp33
 70
     1
102
RTVSPost2010Prop34
280
     0
102
RTVSPost2010PropOp34
 70
     1
102
RTVSPost2010Prop35
280
     0
102
RTVSPost2010PropOp35
 70
     1
102
RTVSPost2010Prop36
280
     0
102
RTVSPost2010PropOp36
 70
     1
102
RTVSPost2010Prop37
 90
       50
102
RTVSPost2010PropOp37
 70
     1
102
RTVSPost2010Prop38
140
0.0
102
RTVSPost2010PropOp38
 70
     1
102
RTVSPost2010Prop39
140
1.0
102
RTVSPost2010PropOp39
 70
     1
102
RTVSPost2010Prop40
 90
        0
102
RTVSPost2010PropOp40
 70
     1
102
RTVSPost2010Prop41ColorIndex
 90
       18
102
RTVSPost2010Prop41ColorRGB
 90
        0
102
RTVSPost2010PropOp41
 70
     1
102
RTVSPost2010Prop42
 90
       50
102
RTVSPost2010PropOp42
 70
     1
102
RTVSPost2010Prop43
 90
        3
102
RTVSPost2010PropOp43
 70
     1
102
RTVSPost2010Prop44ColorIndex
 90
        5
102
RTVSPost2010Prop44ColorRGB
 90
      255
102
RTVSPost2010PropOp44
 70
     1
102
RTVSPost2010Prop45
280
     0
102
RTVSPost2010PropOp45
 70
     1
102
RTVSPost2010Prop46
 90
       50
102
RTVSPost2010PropOp46
 70
     1
102
RTVSPost2010Prop47
 90
       50
102
RTVSPost2010PropOp47
 70
     1
102
RTVSPost2010Prop48
 90
       50
102
RTVSPost2010PropOp48
 70
     1
102
RTVSPost2010Prop49
280
     0
102
RTVSPost2010PropOp49
 70
     1
102
RTVSPost2010Prop50
 90
       50
102
RTVSPost2010PropOp50
 70
     1
102
RTVSPost2010Prop51ColorIndex
 90
      256
102
RTVSPost2010Prop51ColorRGB
 90
-16777216
102
RTVSPost2010PropOp51
 70
     0
102
RTVSPost2010Prop52
140
1.0
102
RTVSPost2010PropOp52
 70
     0
102
RTVSPost2010Prop53
 90
        2
102
RTVSPost2010PropOp53
 70
     1
102
RTVSPost2010Prop54
  1
strokes_ogs.tif
102
RTVSPost2010PropOp54
 70
     1
102
RTVSPost2010Prop55
280
     0
102
RTVSPost2010PropOp55
 70
     1
102
RTVSPost2010Prop56
140
1.0
102
RTVSPost2010PropOp56
 70
     1
102
RTVSPost2010Prop57
140
1.0
102
RTVSPost2010PropOp57
 70
     1
102
RTVSPropertyOp0
 70
     1
102
RTVSPropertyOp1
 70
     1
102
RTVSPropertyOp2
 70
     1
102
RTVSPropertyOp3
 70
     1
102
RTVSPropertyOp4
 70
     1
102
RTVSPropertyOp5
 70
     1
102
RTVSPropertyOp6
 70
     1
102
RTVSPropertyOp7
 70
     1
102
RTVSPropertyOp8
 70
     1
102
RTVSPropertyOp9
 70
     1
102
RTVSPropertyOp10
 70
     1
102
RTVSPropertyOp11
 70
     1
102
RTVSPropertyOp12
 70
     1
102
RTVSPropertyOp13
 70
     1
102
RTVSPropertyOp14
 70
     1
102
RTVSPropertyOp15
 70
     1
102
RTVSPropertyOp16
 70
     1
102
RTVSPropertyOp17
 70
     1
102
RTVSPropertyOp18
 70
     1
102
RTVSPropertyOp19
 70
     1
102
RTVSPropertyOp20
 70
     1
102
RTVSPropertyOp21
 70
     1
102
RTVSPropertyOp22
 70
     1
102
RTVSPropertyOp23
 70
     1
102
RTVSPropertyOp24
 70
     1
102
RTVSPropertyOp25
 70
     1
102
RTVSPropertyOp26
 70
     1
102
RTVSPropertyOp27
 70
     1
102
RTVSPropertyOp28
 70
     1
102
RTVSPropertyOp29
 70
     1
102
RTVSPropertyOp30
 70
     1
102
RTVSPropertyOp31
 70
     1
102
RTVSPropertyOp32
 70
     1
102
RTVSPropertyOp33
 70
     1
102
RTVSPropertyOp34
 70
     1
102
RTVSPropertyOp35
 70
     1
102
RTVSPropertyOp36
 70
     1
102
RTVSPropertyOp37
 70
     1
102
RTVSPropertyOp38
 70
     1
102
RTVSPropertyOp39
 70
     1
102
RTVSPropertyOp40
 70
     1
102
RTVSPropertyOp41
 70
     1
102
RTVSPropertyOp42
 70
     1
102
RTVSPropertyOp43
 70
     1
102
RTVSPropertyOp44
 70
     1
102
RTVSPropertyOp45
 70
     1
102
RTVSPropertyOp46
 70
     1
102
RTVSPropertyOp47
 70
     1
102
RTVSPropertyOp48
 70
     1
102
RTVSPropertyOp49
 70
     1
102
RTVSPropertyOp50
 70
     1
102
RTVSPropertyOp51
 70
     0
102
RTVSPropertyOp52
 70
     0
102
RTVSPropertyOp53
 70
     1
102
RTVSPropertyOp54
 70
     1
102
RTVSPropertyOp55
 70
     1
102
RTVSPropertyOp56
 70
     1
102
RTVSPropertyOp57
 70
     1
102
RTVSPropertyOp58
 70
     1
102
RTVSPropertyOp59
 70
     1
102
RTVSPropertyOp60
 70
     1
102
RTVSPropertyOp61
 70
     1
102
RTVSPropertyOp62
 70
     1
  0
XRECORD
  5
9A3E
102
{ACAD_REACTORS
330
9A3D
102
}
330
9A3D
100
AcDbXrecord
280
     1
102
RTVSPost2010Prop28
280
     0
102
RTVSPost2010PropOp28
 70
     1
102
RTVSPost2010Prop29
280
     1
102
RTVSPost2010PropOp29
 70
     1
102
RTVSPost2010Prop30
280
     1
102
RTVSPost2010PropOp30
 70
     1
102
RTVSPost2010Prop31
280
     0
102
RTVSPost2010PropOp31
 70
     1
102
RTVSPost2010Prop32
280
     0
102
RTVSPost2010PropOp32
 70
     1
102
RTVSPost2010Prop33
280
     0
102
RTVSPost2010PropOp33
 70
     1
102
RTVSPost2010Prop34
280
     0
102
RTVSPost2010PropOp34
 70
     1
102
RTVSPost2010Prop35
280
     0
102
RTVSPost2010PropOp35
 70
     1
102
RTVSPost2010Prop36
280
     0
102
RTVSPost2010PropOp36
 70
     1
102
RTVSPost2010Prop37
 90
       50
102
RTVSPost2010PropOp37
 70
     1
102
RTVSPost2010Prop38
140
0.0
102
RTVSPost2010PropOp38
 70
     1
102
RTVSPost2010Prop39
140
1.0
102
RTVSPost2010PropOp39
 70
     1
102
RTVSPost2010Prop40
 90
        0
102
RTVSPost2010PropOp40
 70
     1
102
RTVSPost2010Prop41ColorIndex
 90
       18
102
RTVSPost2010Prop41ColorRGB
 90
        0
102
RTVSPost2010PropOp41
 70
     1
102
RTVSPost2010Prop42
 90
       50
102
RTVSPost2010PropOp42
 70
     1
102
RTVSPost2010Prop43
 90
        3
102
RTVSPost2010PropOp43
 70
     1
102
RTVSPost2010Prop44ColorIndex
 90
        5
102
RTVSPost2010Prop44ColorRGB
 90
      255
102
RTVSPost2010PropOp44
 70
     1
102
RTVSPost2010Prop45
280
     0
102
RTVSPost2010PropOp45
 70
     1
102
RTVSPost2010Prop46
 90
       50
102
RTVSPost2010PropOp46
 70
     1
102
RTVSPost2010Prop47
 90
       50
102
RTVSPost2010PropOp47
 70
     1
102
RTVSPost2010Prop48
 90
       50
102
RTVSPost2010PropOp48
 70
     1
102
RTVSPost2010Prop49
280
     0
102
RTVSPost2010PropOp49
 70
     1
102
RTVSPost2010Prop50
 90
       50
102
RTVSPost2010PropOp50
 70
     1
102
RTVSPost2010Prop51ColorIndex
 90
      256
102
RTVSPost2010Prop51ColorRGB
 90
-16777216
102
RTVSPost2010PropOp51
 70
     0
102
RTVSPost2010Prop52
140
1.0
102
RTVSPost2010PropOp52
 70
     0
102
RTVSPost2010Prop53
 90
        2
102
RTVSPost2010PropOp53
 70
     1
102
RTVSPost2010Prop54
  1
strokes_ogs.tif
102
RTVSPost2010PropOp54
 70
     1
102
RTVSPost2010Prop55
280
     0
102
RTVSPost2010PropOp55
 70
     1
102
RTVSPost2010Prop56
140
1.0
102
RTVSPost2010PropOp56
 70
     1
102
RTVSPost2010Prop57
140
1.0
102
RTVSPost2010PropOp57
 70
     1
102
RTVSPropertyOp0
 70
     1
102
RTVSPropertyOp1
 70
     1
102
RTVSPropertyOp2
 70
     1
102
RTVSPropertyOp3
 70
     1
102
RTVSPropertyOp4
 70
     1
102
RTVSPropertyOp5
 70
     1
102
RTVSPropertyOp6
 70
     1
102
RTVSPropertyOp7
 70
     1
102
RTVSPropertyOp8
 70
     1
102
RTVSPropertyOp9
 70
     1
102
RTVSPropertyOp10
 70
     1
102
RTVSPropertyOp11
 70
     1
102
RTVSPropertyOp12
 70
     1
102
RTVSPropertyOp13
 70
     1
102
RTVSPropertyOp14
 70
     1
102
RTVSPropertyOp15
 70
     1
102
RTVSPropertyOp16
 70
     1
102
RTVSPropertyOp17
 70
     1
102
RTVSPropertyOp18
 70
     1
102
RTVSPropertyOp19
 70
     1
102
RTVSPropertyOp20
 70
     1
102
RTVSPropertyOp21
 70
     1
102
RTVSPropertyOp22
 70
     1
102
RTVSPropertyOp23
 70
     1
102
RTVSPropertyOp24
 70
     1
102
RTVSPropertyOp25
 70
     1
102
RTVSPropertyOp26
 70
     1
102
RTVSPropertyOp27
 70
     1
102
RTVSPropertyOp28
 70
     1
102
RTVSPropertyOp29
 70
     1
102
RTVSPropertyOp30
 70
     1
102
RTVSPropertyOp31
 70
     1
102
RTVSPropertyOp32
 70
     1
102
RTVSPropertyOp33
 70
     1
102
RTVSPropertyOp34
 70
     1
102
RTVSPropertyOp35
 70
     1
102
RTVSPropertyOp36
 70
     1
102
RTVSPropertyOp37
 70
     1
102
RTVSPropertyOp38
 70
     1
102
RTVSPropertyOp39
 70
     1
102
RTVSPropertyOp40
 70
     1
102
RTVSPropertyOp41
 70
     1
102
RTVSPropertyOp42
 70
     1
102
RTVSPropertyOp43
 70
     1
102
RTVSPropertyOp44
 70
     1
102
RTVSPropertyOp45
 70
     1
102
RTVSPropertyOp46
 70
     1
102
RTVSPropertyOp47
 70
     1
102
RTVSPropertyOp48
 70
     1
102
RTVSPropertyOp49
 70
     1
102
RTVSPropertyOp50
 70
     1
102
RTVSPropertyOp51
 70
     0
102
RTVSPropertyOp52
 70
     0
102
RTVSPropertyOp53
 70
     1
102
RTVSPropertyOp54
 70
     1
102
RTVSPropertyOp55
 70
     1
102
RTVSPropertyOp56
 70
     1
102
RTVSPropertyOp57
 70
     1
102
RTVSPropertyOp58
 70
     1
102
RTVSPropertyOp59
 70
     1
102
RTVSPropertyOp60
 70
     1
102
RTVSPropertyOp61
 70
     1
102
RTVSPropertyOp62
 70
     1
  0
XRECORD
  5
9A46
102
{ACAD_REACTORS
330
9A45
102
}
330
9A45
100
AcDbXrecord
280
     1
102
RTVSPost2010Prop28
280
     0
102
RTVSPost2010PropOp28
 70
     1
102
RTVSPost2010Prop29
280
     1
102
RTVSPost2010PropOp29
 70
     1
102
RTVSPost2010Prop30
280
     1
102
RTVSPost2010PropOp30
 70
     1
102
RTVSPost2010Prop31
280
     0
102
RTVSPost2010PropOp31
 70
     1
102
RTVSPost2010Prop32
280
     0
102
RTVSPost2010PropOp32
 70
     1
102
RTVSPost2010Prop33
280
     0
102
RTVSPost2010PropOp33
 70
     1
102
RTVSPost2010Prop34
280
     0
102
RTVSPost2010PropOp34
 70
     1
102
RTVSPost2010Prop35
280
     0
102
RTVSPost2010PropOp35
 70
     1
102
RTVSPost2010Prop36
280
     0
102
RTVSPost2010PropOp36
 70
     1
102
RTVSPost2010Prop37
 90
       50
102
RTVSPost2010PropOp37
 70
     1
102
RTVSPost2010Prop38
140
0.0
102
RTVSPost2010PropOp38
 70
     1
102
RTVSPost2010Prop39
140
1.0
102
RTVSPost2010PropOp39
 70
     1
102
RTVSPost2010Prop40
 90
        0
102
RTVSPost2010PropOp40
 70
     1
102
RTVSPost2010Prop41ColorIndex
 90
       18
102
RTVSPost2010Prop41ColorRGB
 90
        0
102
RTVSPost2010PropOp41
 70
     1
102
RTVSPost2010Prop42
 90
       50
102
RTVSPost2010PropOp42
 70
     1
102
RTVSPost2010Prop43
 90
        3
102
RTVSPost2010PropOp43
 70
     1
102
RTVSPost2010Prop44ColorIndex
 90
        5
102
RTVSPost2010Prop44ColorRGB
 90
      255
102
RTVSPost2010PropOp44
 70
     1
102
RTVSPost2010Prop45
280
     0
102
RTVSPost2010PropOp45
 70
     1
102
RTVSPost2010Prop46
 90
       50
102
RTVSPost2010PropOp46
 70
     1
102
RTVSPost2010Prop47
 90
       50
102
RTVSPost2010PropOp47
 70
     1
102
RTVSPost2010Prop48
 90
       50
102
RTVSPost2010PropOp48
 70
     1
102
RTVSPost2010Prop49
280
     0
102
RTVSPost2010PropOp49
 70
     1
102
RTVSPost2010Prop50
 90
       50
102
RTVSPost2010PropOp50
 70
     1
102
RTVSPost2010Prop51ColorIndex
 90
      256
102
RTVSPost2010Prop51ColorRGB
 90
-16777216
102
RTVSPost2010PropOp51
 70
     0
102
RTVSPost2010Prop52
140
1.0
102
RTVSPost2010PropOp52
 70
     0
102
RTVSPost2010Prop53
 90
        2
102
RTVSPost2010PropOp53
 70
     1
102
RTVSPost2010Prop54
  1
strokes_ogs.tif
102
RTVSPost2010PropOp54
 70
     1
102
RTVSPost2010Prop55
280
     0
102
RTVSPost2010PropOp55
 70
     1
102
RTVSPost2010Prop56
140
1.0
102
RTVSPost2010PropOp56
 70
     1
102
RTVSPost2010Prop57
140
1.0
102
RTVSPost2010PropOp57
 70
     1
102
RTVSPropertyOp0
 70
     1
102
RTVSPropertyOp1
 70
     1
102
RTVSPropertyOp2
 70
     1
102
RTVSPropertyOp3
 70
     1
102
RTVSPropertyOp4
 70
     1
102
RTVSPropertyOp5
 70
     1
102
RTVSPropertyOp6
 70
     1
102
RTVSPropertyOp7
 70
     1
102
RTVSPropertyOp8
 70
     1
102
RTVSPropertyOp9
 70
     1
102
RTVSPropertyOp10
 70
     1
102
RTVSPropertyOp11
 70
     1
102
RTVSPropertyOp12
 70
     1
102
RTVSPropertyOp13
 70
     1
102
RTVSPropertyOp14
 70
     1
102
RTVSPropertyOp15
 70
     1
102
RTVSPropertyOp16
 70
     1
102
RTVSPropertyOp17
 70
     1
102
RTVSPropertyOp18
 70
     1
102
RTVSPropertyOp19
 70
     1
102
RTVSPropertyOp20
 70
     1
102
RTVSPropertyOp21
 70
     1
102
RTVSPropertyOp22
 70
     1
102
RTVSPropertyOp23
 70
     1
102
RTVSPropertyOp24
 70
     1
102
RTVSPropertyOp25
 70
     1
102
RTVSPropertyOp26
 70
     1
102
RTVSPropertyOp27
 70
     1
102
RTVSPropertyOp28
 70
     1
102
RTVSPropertyOp29
 70
     1
102
RTVSPropertyOp30
 70
     1
102
RTVSPropertyOp31
 70
     1
102
RTVSPropertyOp32
 70
     1
102
RTVSPropertyOp33
 70
     1
102
RTVSPropertyOp34
 70
     1
102
RTVSPropertyOp35
 70
     1
102
RTVSPropertyOp36
 70
     1
102
RTVSPropertyOp37
 70
     1
102
RTVSPropertyOp38
 70
     1
102
RTVSPropertyOp39
 70
     1
102
RTVSPropertyOp40
 70
     1
102
RTVSPropertyOp41
 70
     1
102
RTVSPropertyOp42
 70
     1
102
RTVSPropertyOp43
 70
     1
102
RTVSPropertyOp44
 70
     1
102
RTVSPropertyOp45
 70
     1
102
RTVSPropertyOp46
 70
     1
102
RTVSPropertyOp47
 70
     1
102
RTVSPropertyOp48
 70
     1
102
RTVSPropertyOp49
 70
     1
102
RTVSPropertyOp50
 70
     1
102
RTVSPropertyOp51
 70
     0
102
RTVSPropertyOp52
 70
     0
102
RTVSPropertyOp53
 70
     1
102
RTVSPropertyOp54
 70
     1
102
RTVSPropertyOp55
 70
     1
102
RTVSPropertyOp56
 70
     1
102
RTVSPropertyOp57
 70
     1
102
RTVSPropertyOp58
 70
     1
102
RTVSPropertyOp59
 70
     1
102
RTVSPropertyOp60
 70
     1
102
RTVSPropertyOp61
 70
     1
102
RTVSPropertyOp62
 70
     1
  0
XRECORD
  5
9A38
102
{ACAD_REACTORS
330
9A37
102
}
330
9A37
100
AcDbXrecord
280
     1
102
RTVSPost2010Prop28
280
     0
102
RTVSPost2010PropOp28
 70
     1
102
RTVSPost2010Prop29
280
     1
102
RTVSPost2010PropOp29
 70
     1
102
RTVSPost2010Prop30
280
     1
102
RTVSPost2010PropOp30
 70
     1
102
RTVSPost2010Prop31
280
     0
102
RTVSPost2010PropOp31
 70
     1
102
RTVSPost2010Prop32
280
     0
102
RTVSPost2010PropOp32
 70
     1
102
RTVSPost2010Prop33
280
     0
102
RTVSPost2010PropOp33
 70
     1
102
RTVSPost2010Prop34
280
     0
102
RTVSPost2010PropOp34
 70
     1
102
RTVSPost2010Prop35
280
     0
102
RTVSPost2010PropOp35
 70
     1
102
RTVSPost2010Prop36
280
     0
102
RTVSPost2010PropOp36
 70
     1
102
RTVSPost2010Prop37
 90
       50
102
RTVSPost2010PropOp37
 70
     1
102
RTVSPost2010Prop38
140
0.0
102
RTVSPost2010PropOp38
 70
     1
102
RTVSPost2010Prop39
140
1.0
102
RTVSPost2010PropOp39
 70
     1
102
RTVSPost2010Prop40
 90
        0
102
RTVSPost2010PropOp40
 70
     1
102
RTVSPost2010Prop41ColorIndex
 90
       18
102
RTVSPost2010Prop41ColorRGB
 90
        0
102
RTVSPost2010PropOp41
 70
     1
102
RTVSPost2010Prop42
 90
       50
102
RTVSPost2010PropOp42
 70
     1
102
RTVSPost2010Prop43
 90
        3
102
RTVSPost2010PropOp43
 70
     1
102
RTVSPost2010Prop44ColorIndex
 90
        5
102
RTVSPost2010Prop44ColorRGB
 90
      255
102
RTVSPost2010PropOp44
 70
     1
102
RTVSPost2010Prop45
280
     0
102
RTVSPost2010PropOp45
 70
     1
102
RTVSPost2010Prop46
 90
       50
102
RTVSPost2010PropOp46
 70
     1
102
RTVSPost2010Prop47
 90
       50
102
RTVSPost2010PropOp47
 70
     1
102
RTVSPost2010Prop48
 90
       50
102
RTVSPost2010PropOp48
 70
     1
102
RTVSPost2010Prop49
280
     0
102
RTVSPost2010PropOp49
 70
     1
102
RTVSPost2010Prop50
 90
       50
102
RTVSPost2010PropOp50
 70
     1
102
RTVSPost2010Prop51ColorIndex
 90
      256
102
RTVSPost2010Prop51ColorRGB
 90
-16777216
102
RTVSPost2010PropOp51
 70
     0
102
RTVSPost2010Prop52
140
1.0
102
RTVSPost2010PropOp52
 70
     0
102
RTVSPost2010Prop53
 90
        2
102
RTVSPost2010PropOp53
 70
     1
102
RTVSPost2010Prop54
  1
strokes_ogs.tif
102
RTVSPost2010PropOp54
 70
     1
102
RTVSPost2010Prop55
280
     0
102
RTVSPost2010PropOp55
 70
     1
102
RTVSPost2010Prop56
140
1.0
102
RTVSPost2010PropOp56
 70
     1
102
RTVSPost2010Prop57
140
1.0
102
RTVSPost2010PropOp57
 70
     1
102
RTVSPropertyOp0
 70
     1
102
RTVSPropertyOp1
 70
     1
102
RTVSPropertyOp2
 70
     1
102
RTVSPropertyOp3
 70
     1
102
RTVSPropertyOp4
 70
     1
102
RTVSPropertyOp5
 70
     1
102
RTVSPropertyOp6
 70
     1
102
RTVSPropertyOp7
 70
     1
102
RTVSPropertyOp8
 70
     1
102
RTVSPropertyOp9
 70
     1
102
RTVSPropertyOp10
 70
     1
102
RTVSPropertyOp11
 70
     1
102
RTVSPropertyOp12
 70
     1
102
RTVSPropertyOp13
 70
     1
102
RTVSPropertyOp14
 70
     1
102
RTVSPropertyOp15
 70
     1
102
RTVSPropertyOp16
 70
     1
102
RTVSPropertyOp17
 70
     1
102
RTVSPropertyOp18
 70
     1
102
RTVSPropertyOp19
 70
     1
102
RTVSPropertyOp20
 70
     1
102
RTVSPropertyOp21
 70
     1
102
RTVSPropertyOp22
 70
     1
102
RTVSPropertyOp23
 70
     1
102
RTVSPropertyOp24
 70
     1
102
RTVSPropertyOp25
 70
     1
102
RTVSPropertyOp26
 70
     1
102
RTVSPropertyOp27
 70
     1
102
RTVSPropertyOp28
 70
     1
102
RTVSPropertyOp29
 70
     1
102
RTVSPropertyOp30
 70
     1
102
RTVSPropertyOp31
 70
     1
102
RTVSPropertyOp32
 70
     1
102
RTVSPropertyOp33
 70
     1
102
RTVSPropertyOp34
 70
     1
102
RTVSPropertyOp35
 70
     1
102
RTVSPropertyOp36
 70
     1
102
RTVSPropertyOp37
 70
     1
102
RTVSPropertyOp38
 70
     1
102
RTVSPropertyOp39
 70
     1
102
RTVSPropertyOp40
 70
     1
102
RTVSPropertyOp41
 70
     1
102
RTVSPropertyOp42
 70
     1
102
RTVSPropertyOp43
 70
     1
102
RTVSPropertyOp44
 70
     1
102
RTVSPropertyOp45
 70
     1
102
RTVSPropertyOp46
 70
     1
102
RTVSPropertyOp47
 70
     1
102
RTVSPropertyOp48
 70
     1
102
RTVSPropertyOp49
 70
     1
102
RTVSPropertyOp50
 70
     1
102
RTVSPropertyOp51
 70
     0
102
RTVSPropertyOp52
 70
     0
102
RTVSPropertyOp53
 70
     1
102
RTVSPropertyOp54
 70
     1
102
RTVSPropertyOp55
 70
     1
102
RTVSPropertyOp56
 70
     1
102
RTVSPropertyOp57
 70
     1
102
RTVSPropertyOp58
 70
     1
102
RTVSPropertyOp59
 70
     1
102
RTVSPropertyOp60
 70
     1
102
RTVSPropertyOp61
 70
     1
102
RTVSPropertyOp62
 70
     1
  0
XRECORD
  5
9A3C
102
{ACAD_REACTORS
330
9A3B
102
}
330
9A3B
100
AcDbXrecord
280
     1
102
RTVSPost2010Prop28
280
     0
102
RTVSPost2010PropOp28
 70
     1
102
RTVSPost2010Prop29
280
     1
102
RTVSPost2010PropOp29
 70
     1
102
RTVSPost2010Prop30
280
     1
102
RTVSPost2010PropOp30
 70
     1
102
RTVSPost2010Prop31
280
     0
102
RTVSPost2010PropOp31
 70
     1
102
RTVSPost2010Prop32
280
     0
102
RTVSPost2010PropOp32
 70
     1
102
RTVSPost2010Prop33
280
     0
102
RTVSPost2010PropOp33
 70
     1
102
RTVSPost2010Prop34
280
     0
102
RTVSPost2010PropOp34
 70
     1
102
RTVSPost2010Prop35
280
     0
102
RTVSPost2010PropOp35
 70
     1
102
RTVSPost2010Prop36
280
     0
102
RTVSPost2010PropOp36
 70
     1
102
RTVSPost2010Prop37
 90
       50
102
RTVSPost2010PropOp37
 70
     1
102
RTVSPost2010Prop38
140
0.0
102
RTVSPost2010PropOp38
 70
     1
102
RTVSPost2010Prop39
140
1.0
102
RTVSPost2010PropOp39
 70
     1
102
RTVSPost2010Prop40
 90
        0
102
RTVSPost2010PropOp40
 70
     1
102
RTVSPost2010Prop41ColorIndex
 90
       18
102
RTVSPost2010Prop41ColorRGB
 90
        0
102
RTVSPost2010PropOp41
 70
     1
102
RTVSPost2010Prop42
 90
       50
102
RTVSPost2010PropOp42
 70
     1
102
RTVSPost2010Prop43
 90
        3
102
RTVSPost2010PropOp43
 70
     1
102
RTVSPost2010Prop44ColorIndex
 90
        5
102
RTVSPost2010Prop44ColorRGB
 90
      255
102
RTVSPost2010PropOp44
 70
     1
102
RTVSPost2010Prop45
280
     0
102
RTVSPost2010PropOp45
 70
     1
102
RTVSPost2010Prop46
 90
       50
102
RTVSPost2010PropOp46
 70
     1
102
RTVSPost2010Prop47
 90
       50
102
RTVSPost2010PropOp47
 70
     1
102
RTVSPost2010Prop48
 90
       50
102
RTVSPost2010PropOp48
 70
     1
102
RTVSPost2010Prop49
280
     0
102
RTVSPost2010PropOp49
 70
     1
102
RTVSPost2010Prop50
 90
       50
102
RTVSPost2010PropOp50
 70
     1
102
RTVSPost2010Prop51ColorIndex
 90
      256
102
RTVSPost2010Prop51ColorRGB
 90
-16777216
102
RTVSPost2010PropOp51
 70
     0
102
RTVSPost2010Prop52
140
1.0
102
RTVSPost2010PropOp52
 70
     0
102
RTVSPost2010Prop53
 90
        2
102
RTVSPost2010PropOp53
 70
     1
102
RTVSPost2010Prop54
  1
strokes_ogs.tif
102
RTVSPost2010PropOp54
 70
     1
102
RTVSPost2010Prop55
280
     0
102
RTVSPost2010PropOp55
 70
     1
102
RTVSPost2010Prop56
140
1.0
102
RTVSPost2010PropOp56
 70
     1
102
RTVSPost2010Prop57
140
1.0
102
RTVSPost2010PropOp57
 70
     1
102
RTVSPropertyOp0
 70
     1
102
RTVSPropertyOp1
 70
     1
102
RTVSPropertyOp2
 70
     1
102
RTVSPropertyOp3
 70
     1
102
RTVSPropertyOp4
 70
     1
102
RTVSPropertyOp5
 70
     1
102
RTVSPropertyOp6
 70
     1
102
RTVSPropertyOp7
 70
     1
102
RTVSPropertyOp8
 70
     1
102
RTVSPropertyOp9
 70
     1
102
RTVSPropertyOp10
 70
     1
102
RTVSPropertyOp11
 70
     1
102
RTVSPropertyOp12
 70
     1
102
RTVSPropertyOp13
 70
     1
102
RTVSPropertyOp14
 70
     1
102
RTVSPropertyOp15
 70
     1
102
RTVSPropertyOp16
 70
     1
102
RTVSPropertyOp17
 70
     1
102
RTVSPropertyOp18
 70
     1
102
RTVSPropertyOp19
 70
     1
102
RTVSPropertyOp20
 70
     1
102
RTVSPropertyOp21
 70
     1
102
RTVSPropertyOp22
 70
     1
102
RTVSPropertyOp23
 70
     1
102
RTVSPropertyOp24
 70
     1
102
RTVSPropertyOp25
 70
     1
102
RTVSPropertyOp26
 70
     1
102
RTVSPropertyOp27
 70
     1
102
RTVSPropertyOp28
 70
     1
102
RTVSPropertyOp29
 70
     1
102
RTVSPropertyOp30
 70
     1
102
RTVSPropertyOp31
 70
     1
102
RTVSPropertyOp32
 70
     1
102
RTVSPropertyOp33
 70
     1
102
RTVSPropertyOp34
 70
     1
102
RTVSPropertyOp35
 70
     1
102
RTVSPropertyOp36
 70
     1
102
RTVSPropertyOp37
 70
     1
102
RTVSPropertyOp38
 70
     1
102
RTVSPropertyOp39
 70
     1
102
RTVSPropertyOp40
 70
     1
102
RTVSPropertyOp41
 70
     1
102
RTVSPropertyOp42
 70
     1
102
RTVSPropertyOp43
 70
     1
102
RTVSPropertyOp44
 70
     1
102
RTVSPropertyOp45
 70
     1
102
RTVSPropertyOp46
 70
     1
102
RTVSPropertyOp47
 70
     1
102
RTVSPropertyOp48
 70
     1
102
RTVSPropertyOp49
 70
     1
102
RTVSPropertyOp50
 70
     1
102
RTVSPropertyOp51
 70
     0
102
RTVSPropertyOp52
 70
     0
102
RTVSPropertyOp53
 70
     1
102
RTVSPropertyOp54
 70
     1
102
RTVSPropertyOp55
 70
     1
102
RTVSPropertyOp56
 70
     1
102
RTVSPropertyOp57
 70
     1
102
RTVSPropertyOp58
 70
     1
102
RTVSPropertyOp59
 70
     1
102
RTVSPropertyOp60
 70
     1
102
RTVSPropertyOp61
 70
     1
102
RTVSPropertyOp62
 70
     1
  0
XRECORD
  5
9A56
102
{ACAD_REACTORS
330
9A55
102
}
330
9A55
100
AcDbXrecord
280
     1
102
RTVSPost2010Prop28
280
     0
102
RTVSPost2010PropOp28
 70
     1
102
RTVSPost2010Prop29
280
     1
102
RTVSPost2010PropOp29
 70
     1
102
RTVSPost2010Prop30
280
     1
102
RTVSPost2010PropOp30
 70
     1
102
RTVSPost2010Prop31
280
     0
102
RTVSPost2010PropOp31
 70
     1
102
RTVSPost2010Prop32
280
     0
102
RTVSPost2010PropOp32
 70
     1
102
RTVSPost2010Prop33
280
     0
102
RTVSPost2010PropOp33
 70
     1
102
RTVSPost2010Prop34
280
     0
102
RTVSPost2010PropOp34
 70
     1
102
RTVSPost2010Prop35
280
     0
102
RTVSPost2010PropOp35
 70
     1
102
RTVSPost2010Prop36
280
     0
102
RTVSPost2010PropOp36
 70
     1
102
RTVSPost2010Prop37
 90
       50
102
RTVSPost2010PropOp37
 70
     0
102
RTVSPost2010Prop38
140
0.0
102
RTVSPost2010PropOp38
 70
     0
102
RTVSPost2010Prop39
140
1.0
102
RTVSPost2010PropOp39
 70
     0
102
RTVSPost2010Prop40
 90
        0
102
RTVSPost2010PropOp40
 70
     0
102
RTVSPost2010Prop41ColorIndex
 90
       18
102
RTVSPost2010Prop41ColorRGB
 90
        0
102
RTVSPost2010PropOp41
 70
     0
102
RTVSPost2010Prop42
 90
       50
102
RTVSPost2010PropOp42
 70
     0
102
RTVSPost2010Prop43
 90
        3
102
RTVSPost2010PropOp43
 70
     0
102
RTVSPost2010Prop44ColorIndex
 90
        5
102
RTVSPost2010Prop44ColorRGB
 90
      255
102
RTVSPost2010PropOp44
 70
     0
102
RTVSPost2010Prop45
280
     0
102
RTVSPost2010PropOp45
 70
     1
102
RTVSPost2010Prop46
 90
       50
102
RTVSPost2010PropOp46
 70
     0
102
RTVSPost2010Prop47
 90
       50
102
RTVSPost2010PropOp47
 70
     0
102
RTVSPost2010Prop48
 90
       50
102
RTVSPost2010PropOp48
 70
     0
102
RTVSPost2010Prop49
280
     0
102
RTVSPost2010PropOp49
 70
     1
102
RTVSPost2010Prop50
 90
       50
102
RTVSPost2010PropOp50
 70
     0
102
RTVSPost2010Prop51ColorIndex
 90
      256
102
RTVSPost2010Prop51ColorRGB
 90
-16777216
102
RTVSPost2010PropOp51
 70
     0
102
RTVSPost2010Prop52
140
1.0
102
RTVSPost2010PropOp52
 70
     0
102
RTVSPost2010Prop53
 90
        2
102
RTVSPost2010PropOp53
 70
     0
102
RTVSPost2010Prop54
  1
strokes_ogs.tif
102
RTVSPost2010PropOp54
 70
     0
102
RTVSPost2010Prop55
280
     0
102
RTVSPost2010PropOp55
 70
     1
102
RTVSPost2010Prop56
140
1.0
102
RTVSPost2010PropOp56
 70
     0
102
RTVSPost2010Prop57
140
1.0
102
RTVSPost2010PropOp57
 70
     0
102
RTVSPropertyOp0
 70
     0
102
RTVSPropertyOp1
 70
     0
102
RTVSPropertyOp2
 70
     0
102
RTVSPropertyOp3
 70
     0
102
RTVSPropertyOp4
 70
     0
102
RTVSPropertyOp5
 70
     0
102
RTVSPropertyOp6
 70
     0
102
RTVSPropertyOp7
 70
     0
102
RTVSPropertyOp8
 70
     0
102
RTVSPropertyOp9
 70
     0
102
RTVSPropertyOp10
 70
     0
102
RTVSPropertyOp11
 70
     0
102
RTVSPropertyOp12
 70
     0
102
RTVSPropertyOp13
 70
     0
102
RTVSPropertyOp14
 70
     2
102
RTVSPropertyOp15
 70
     0
102
RTVSPropertyOp16
 70
     0
102
RTVSPropertyOp17
 70
     0
102
RTVSPropertyOp18
 70
     0
102
RTVSPropertyOp19
 70
     0
102
RTVSPropertyOp20
 70
     0
102
RTVSPropertyOp21
 70
     0
102
RTVSPropertyOp22
 70
     0
102
RTVSPropertyOp23
 70
     0
102
RTVSPropertyOp24
 70
     0
102
RTVSPropertyOp25
 70
     0
102
RTVSPropertyOp26
 70
     0
102
RTVSPropertyOp27
 70
     0
102
RTVSPropertyOp28
 70
     1
102
RTVSPropertyOp29
 70
     1
102
RTVSPropertyOp30
 70
     1
102
RTVSPropertyOp31
 70
     1
102
RTVSPropertyOp32
 70
     1
102
RTVSPropertyOp33
 70
     1
102
RTVSPropertyOp34
 70
     1
102
RTVSPropertyOp35
 70
     1
102
RTVSPropertyOp36
 70
     1
102
RTVSPropertyOp37
 70
     0
102
RTVSPropertyOp38
 70
     0
102
RTVSPropertyOp39
 70
     0
102
RTVSPropertyOp40
 70
     0
102
RTVSPropertyOp41
 70
     0
102
RTVSPropertyOp42
 70
     0
102
RTVSPropertyOp43
 70
     0
102
RTVSPropertyOp44
 70
     0
102
RTVSPropertyOp45
 70
     1
102
RTVSPropertyOp46
 70
     0
102
RTVSPropertyOp47
 70
     0
102
RTVSPropertyOp48
 70
     0
102
RTVSPropertyOp49
 70
     1
102
RTVSPropertyOp50
 70
     0
102
RTVSPropertyOp51
 70
     0
102
RTVSPropertyOp52
 70
     0
102
RTVSPropertyOp53
 70
     0
102
RTVSPropertyOp54
 70
     0
102
RTVSPropertyOp55
 70
     1
102
RTVSPropertyOp56
 70
     0
102
RTVSPropertyOp57
 70
     0
102
RTVSPropertyOp58
 70
     0
102
RTVSPropertyOp59
 70
     0
102
RTVSPropertyOp60
 70
     0
102
RTVSPropertyOp61
 70
     0
102
RTVSPropertyOp62
 70
     0
  0
XRECORD
  5
9A44
102
{ACAD_REACTORS
330
9A43
102
}
330
9A43
100
AcDbXrecord
280
     1
102
RTVSPost2010Prop28
280
     0
102
RTVSPost2010PropOp28
 70
     1
102
RTVSPost2010Prop29
280
     1
102
RTVSPost2010PropOp29
 70
     1
102
RTVSPost2010Prop30
280
     1
102
RTVSPost2010PropOp30
 70
     1
102
RTVSPost2010Prop31
280
     0
102
RTVSPost2010PropOp31
 70
     1
102
RTVSPost2010Prop32
280
     0
102
RTVSPost2010PropOp32
 70
     1
102
RTVSPost2010Prop33
280
     0
102
RTVSPost2010PropOp33
 70
     1
102
RTVSPost2010Prop34
280
     0
102
RTVSPost2010PropOp34
 70
     1
102
RTVSPost2010Prop35
280
     0
102
RTVSPost2010PropOp35
 70
     1
102
RTVSPost2010Prop36
280
     0
102
RTVSPost2010PropOp36
 70
     1
102
RTVSPost2010Prop37
 90
       50
102
RTVSPost2010PropOp37
 70
     1
102
RTVSPost2010Prop38
140
0.0
102
RTVSPost2010PropOp38
 70
     1
102
RTVSPost2010Prop39
140
1.0
102
RTVSPost2010PropOp39
 70
     1
102
RTVSPost2010Prop40
 90
        0
102
RTVSPost2010PropOp40
 70
     1
102
RTVSPost2010Prop41ColorIndex
 90
       18
102
RTVSPost2010Prop41ColorRGB
 90
        0
102
RTVSPost2010PropOp41
 70
     1
102
RTVSPost2010Prop42
 90
       50
102
RTVSPost2010PropOp42
 70
     1
102
RTVSPost2010Prop43
 90
        3
102
RTVSPost2010PropOp43
 70
     1
102
RTVSPost2010Prop44ColorIndex
 90
        5
102
RTVSPost2010Prop44ColorRGB
 90
      255
102
RTVSPost2010PropOp44
 70
     1
102
RTVSPost2010Prop45
280
     0
102
RTVSPost2010PropOp45
 70
     1
102
RTVSPost2010Prop46
 90
       50
102
RTVSPost2010PropOp46
 70
     1
102
RTVSPost2010Prop47
 90
       50
102
RTVSPost2010PropOp47
 70
     1
102
RTVSPost2010Prop48
 90
       50
102
RTVSPost2010PropOp48
 70
     1
102
RTVSPost2010Prop49
280
     0
102
RTVSPost2010PropOp49
 70
     1
102
RTVSPost2010Prop50
 90
       50
102
RTVSPost2010PropOp50
 70
     1
102
RTVSPost2010Prop51ColorIndex
 90
      256
102
RTVSPost2010Prop51ColorRGB
 90
-16777216
102
RTVSPost2010PropOp51
 70
     0
102
RTVSPost2010Prop52
140
1.0
102
RTVSPost2010PropOp52
 70
     0
102
RTVSPost2010Prop53
 90
        2
102
RTVSPost2010PropOp53
 70
     1
102
RTVSPost2010Prop54
  1
strokes_ogs.tif
102
RTVSPost2010PropOp54
 70
     1
102
RTVSPost2010Prop55
280
     0
102
RTVSPost2010PropOp55
 70
     1
102
RTVSPost2010Prop56
140
1.0
102
RTVSPost2010PropOp56
 70
     1
102
RTVSPost2010Prop57
140
1.0
102
RTVSPost2010PropOp57
 70
     1
102
RTVSPropertyOp0
 70
     1
102
RTVSPropertyOp1
 70
     1
102
RTVSPropertyOp2
 70
     1
102
RTVSPropertyOp3
 70
     1
102
RTVSPropertyOp4
 70
     1
102
RTVSPropertyOp5
 70
     1
102
RTVSPropertyOp6
 70
     1
102
RTVSPropertyOp7
 70
     1
102
RTVSPropertyOp8
 70
     1
102
RTVSPropertyOp9
 70
     1
102
RTVSPropertyOp10
 70
     1
102
RTVSPropertyOp11
 70
     1
102
RTVSPropertyOp12
 70
     1
102
RTVSPropertyOp13
 70
     1
102
RTVSPropertyOp14
 70
     1
102
RTVSPropertyOp15
 70
     1
102
RTVSPropertyOp16
 70
     1
102
RTVSPropertyOp17
 70
     1
102
RTVSPropertyOp18
 70
     1
102
RTVSPropertyOp19
 70
     1
102
RTVSPropertyOp20
 70
     1
102
RTVSPropertyOp21
 70
     1
102
RTVSPropertyOp22
 70
     1
102
RTVSPropertyOp23
 70
     1
102
RTVSPropertyOp24
 70
     1
102
RTVSPropertyOp25
 70
     1
102
RTVSPropertyOp26
 70
     1
102
RTVSPropertyOp27
 70
     1
102
RTVSPropertyOp28
 70
     1
102
RTVSPropertyOp29
 70
     1
102
RTVSPropertyOp30
 70
     1
102
RTVSPropertyOp31
 70
     1
102
RTVSPropertyOp32
 70
     1
102
RTVSPropertyOp33
 70
     1
102
RTVSPropertyOp34
 70
     1
102
RTVSPropertyOp35
 70
     1
102
RTVSPropertyOp36
 70
     1
102
RTVSPropertyOp37
 70
     1
102
RTVSPropertyOp38
 70
     1
102
RTVSPropertyOp39
 70
     1
102
RTVSPropertyOp40
 70
     1
102
RTVSPropertyOp41
 70
     1
102
RTVSPropertyOp42
 70
     1
102
RTVSPropertyOp43
 70
     1
102
RTVSPropertyOp44
 70
     1
102
RTVSPropertyOp45
 70
     1
102
RTVSPropertyOp46
 70
     1
102
RTVSPropertyOp47
 70
     1
102
RTVSPropertyOp48
 70
     1
102
RTVSPropertyOp49
 70
     1
102
RTVSPropertyOp50
 70
     1
102
RTVSPropertyOp51
 70
     0
102
RTVSPropertyOp52
 70
     0
102
RTVSPropertyOp53
 70
     1
102
RTVSPropertyOp54
 70
     1
102
RTVSPropertyOp55
 70
     1
102
RTVSPropertyOp56
 70
     1
102
RTVSPropertyOp57
 70
     1
102
RTVSPropertyOp58
 70
     1
102
RTVSPropertyOp59
 70
     1
102
RTVSPropertyOp60
 70
     1
102
RTVSPropertyOp61
 70
     1
102
RTVSPropertyOp62
 70
     1
  0
XRECORD
  5
9A28
102
{ACAD_REACTORS
330
9A27
102
}
330
9A27
100
AcDbXrecord
280
     1
102
RTVSPost2010Prop28
280
     0
102
RTVSPost2010PropOp28
 70
     1
102
RTVSPost2010Prop29
280
     1
102
RTVSPost2010PropOp29
 70
     1
102
RTVSPost2010Prop30
280
     1
102
RTVSPost2010PropOp30
 70
     1
102
RTVSPost2010Prop31
280
     0
102
RTVSPost2010PropOp31
 70
     1
102
RTVSPost2010Prop32
280
     0
102
RTVSPost2010PropOp32
 70
     1
102
RTVSPost2010Prop33
280
     0
102
RTVSPost2010PropOp33
 70
     1
102
RTVSPost2010Prop34
280
     0
102
RTVSPost2010PropOp34
 70
     1
102
RTVSPost2010Prop35
280
     0
102
RTVSPost2010PropOp35
 70
     1
102
RTVSPost2010Prop36
280
     0
102
RTVSPost2010PropOp36
 70
     1
102
RTVSPost2010Prop37
 90
       50
102
RTVSPost2010PropOp37
 70
     1
102
RTVSPost2010Prop38
140
0.0
102
RTVSPost2010PropOp38
 70
     1
102
RTVSPost2010Prop39
140
1.0
102
RTVSPost2010PropOp39
 70
     1
102
RTVSPost2010Prop40
 90
        0
102
RTVSPost2010PropOp40
 70
     1
102
RTVSPost2010Prop41ColorIndex
 90
       18
102
RTVSPost2010Prop41ColorRGB
 90
        0
102
RTVSPost2010PropOp41
 70
     1
102
RTVSPost2010Prop42
 90
       50
102
RTVSPost2010PropOp42
 70
     1
102
RTVSPost2010Prop43
 90
        3
102
RTVSPost2010PropOp43
 70
     1
102
RTVSPost2010Prop44ColorIndex
 90
        5
102
RTVSPost2010Prop44ColorRGB
 90
      255
102
RTVSPost2010PropOp44
 70
     1
102
RTVSPost2010Prop45
280
     0
102
RTVSPost2010PropOp45
 70
     1
102
RTVSPost2010Prop46
 90
       50
102
RTVSPost2010PropOp46
 70
     1
102
RTVSPost2010Prop47
 90
       50
102
RTVSPost2010PropOp47
 70
     1
102
RTVSPost2010Prop48
 90
       50
102
RTVSPost2010PropOp48
 70
     1
102
RTVSPost2010Prop49
280
     0
102
RTVSPost2010PropOp49
 70
     1
102
RTVSPost2010Prop50
 90
       50
102
RTVSPost2010PropOp50
 70
     1
102
RTVSPost2010Prop51ColorIndex
 90
      256
102
RTVSPost2010Prop51ColorRGB
 90
-16777216
102
RTVSPost2010PropOp51
 70
     0
102
RTVSPost2010Prop52
140
1.0
102
RTVSPost2010PropOp52
 70
     0
102
RTVSPost2010Prop53
 90
        2
102
RTVSPost2010PropOp53
 70
     1
102
RTVSPost2010Prop54
  1
strokes_ogs.tif
102
RTVSPost2010PropOp54
 70
     1
102
RTVSPost2010Prop55
280
     0
102
RTVSPost2010PropOp55
 70
     1
102
RTVSPost2010Prop56
140
1.0
102
RTVSPost2010PropOp56
 70
     1
102
RTVSPost2010Prop57
140
1.0
102
RTVSPost2010PropOp57
 70
     1
102
RTVSPropertyOp0
 70
     1
102
RTVSPropertyOp1
 70
     1
102
RTVSPropertyOp2
 70
     1
102
RTVSPropertyOp3
 70
     1
102
RTVSPropertyOp4
 70
     1
102
RTVSPropertyOp5
 70
     1
102
RTVSPropertyOp6
 70
     1
102
RTVSPropertyOp7
 70
     1
102
RTVSPropertyOp8
 70
     1
102
RTVSPropertyOp9
 70
     1
102
RTVSPropertyOp10
 70
     1
102
RTVSPropertyOp11
 70
     1
102
RTVSPropertyOp12
 70
     1
102
RTVSPropertyOp13
 70
     1
102
RTVSPropertyOp14
 70
     1
102
RTVSPropertyOp15
 70
     1
102
RTVSPropertyOp16
 70
     1
102
RTVSPropertyOp17
 70
     1
102
RTVSPropertyOp18
 70
     1
102
RTVSPropertyOp19
 70
     1
102
RTVSPropertyOp20
 70
     1
102
RTVSPropertyOp21
 70
     1
102
RTVSPropertyOp22
 70
     1
102
RTVSPropertyOp23
 70
     1
102
RTVSPropertyOp24
 70
     1
102
RTVSPropertyOp25
 70
     1
102
RTVSPropertyOp26
 70
     1
102
RTVSPropertyOp27
 70
     1
102
RTVSPropertyOp28
 70
     1
102
RTVSPropertyOp29
 70
     1
102
RTVSPropertyOp30
 70
     1
102
RTVSPropertyOp31
 70
     1
102
RTVSPropertyOp32
 70
     1
102
RTVSPropertyOp33
 70
     1
102
RTVSPropertyOp34
 70
     1
102
RTVSPropertyOp35
 70
     1
102
RTVSPropertyOp36
 70
     1
102
RTVSPropertyOp37
 70
     1
102
RTVSPropertyOp38
 70
     1
102
RTVSPropertyOp39
 70
     1
102
RTVSPropertyOp40
 70
     1
102
RTVSPropertyOp41
 70
     1
102
RTVSPropertyOp42
 70
     1
102
RTVSPropertyOp43
 70
     1
102
RTVSPropertyOp44
 70
     1
102
RTVSPropertyOp45
 70
     1
102
RTVSPropertyOp46
 70
     1
102
RTVSPropertyOp47
 70
     1
102
RTVSPropertyOp48
 70
     1
102
RTVSPropertyOp49
 70
     1
102
RTVSPropertyOp50
 70
     1
102
RTVSPropertyOp51
 70
     0
102
RTVSPropertyOp52
 70
     0
102
RTVSPropertyOp53
 70
     1
102
RTVSPropertyOp54
 70
     1
102
RTVSPropertyOp55
 70
     1
102
RTVSPropertyOp56
 70
     1
102
RTVSPropertyOp57
 70
     1
102
RTVSPropertyOp58
 70
     1
102
RTVSPropertyOp59
 70
     1
102
RTVSPropertyOp60
 70
     1
102
RTVSPropertyOp61
 70
     1
102
RTVSPropertyOp62
 70
     1
  0
XRECORD
  5
9A2A
102
{ACAD_REACTORS
330
9A29
102
}
330
9A29
100
AcDbXrecord
280
     1
102
RTVSPost2010Prop28
280
     0
102
RTVSPost2010PropOp28
 70
     1
102
RTVSPost2010Prop29
280
     1
102
RTVSPost2010PropOp29
 70
     1
102
RTVSPost2010Prop30
280
     1
102
RTVSPost2010PropOp30
 70
     1
102
RTVSPost2010Prop31
280
     0
102
RTVSPost2010PropOp31
 70
     1
102
RTVSPost2010Prop32
280
     0
102
RTVSPost2010PropOp32
 70
     1
102
RTVSPost2010Prop33
280
     0
102
RTVSPost2010PropOp33
 70
     1
102
RTVSPost2010Prop34
280
     0
102
RTVSPost2010PropOp34
 70
     1
102
RTVSPost2010Prop35
280
     0
102
RTVSPost2010PropOp35
 70
     1
102
RTVSPost2010Prop36
280
     0
102
RTVSPost2010PropOp36
 70
     1
102
RTVSPost2010Prop37
 90
       50
102
RTVSPost2010PropOp37
 70
     1
102
RTVSPost2010Prop38
140
0.0
102
RTVSPost2010PropOp38
 70
     1
102
RTVSPost2010Prop39
140
1.0
102
RTVSPost2010PropOp39
 70
     1
102
RTVSPost2010Prop40
 90
        0
102
RTVSPost2010PropOp40
 70
     1
102
RTVSPost2010Prop41ColorIndex
 90
       18
102
RTVSPost2010Prop41ColorRGB
 90
        0
102
RTVSPost2010PropOp41
 70
     1
102
RTVSPost2010Prop42
 90
       50
102
RTVSPost2010PropOp42
 70
     1
102
RTVSPost2010Prop43
 90
        3
102
RTVSPost2010PropOp43
 70
     1
102
RTVSPost2010Prop44ColorIndex
 90
        5
102
RTVSPost2010Prop44ColorRGB
 90
      255
102
RTVSPost2010PropOp44
 70
     1
102
RTVSPost2010Prop45
280
     0
102
RTVSPost2010PropOp45
 70
     1
102
RTVSPost2010Prop46
 90
       50
102
RTVSPost2010PropOp46
 70
     1
102
RTVSPost2010Prop47
 90
       50
102
RTVSPost2010PropOp47
 70
     1
102
RTVSPost2010Prop48
 90
       50
102
RTVSPost2010PropOp48
 70
     1
102
RTVSPost2010Prop49
280
     0
102
RTVSPost2010PropOp49
 70
     1
102
RTVSPost2010Prop50
 90
       50
102
RTVSPost2010PropOp50
 70
     1
102
RTVSPost2010Prop51ColorIndex
 90
      256
102
RTVSPost2010Prop51ColorRGB
 90
-16777216
102
RTVSPost2010PropOp51
 70
     0
102
RTVSPost2010Prop52
140
1.0
102
RTVSPost2010PropOp52
 70
     0
102
RTVSPost2010Prop53
 90
        2
102
RTVSPost2010PropOp53
 70
     1
102
RTVSPost2010Prop54
  1
strokes_ogs.tif
102
RTVSPost2010PropOp54
 70
     1
102
RTVSPost2010Prop55
280
     0
102
RTVSPost2010PropOp55
 70
     1
102
RTVSPost2010Prop56
140
1.0
102
RTVSPost2010PropOp56
 70
     1
102
RTVSPost2010Prop57
140
1.0
102
RTVSPost2010PropOp57
 70
     1
102
RTVSPropertyOp0
 70
     1
102
RTVSPropertyOp1
 70
     1
102
RTVSPropertyOp2
 70
     1
102
RTVSPropertyOp3
 70
     1
102
RTVSPropertyOp4
 70
     1
102
RTVSPropertyOp5
 70
     1
102
RTVSPropertyOp6
 70
     1
102
RTVSPropertyOp7
 70
     1
102
RTVSPropertyOp8
 70
     1
102
RTVSPropertyOp9
 70
     1
102
RTVSPropertyOp10
 70
     1
102
RTVSPropertyOp11
 70
     1
102
RTVSPropertyOp12
 70
     1
102
RTVSPropertyOp13
 70
     1
102
RTVSPropertyOp14
 70
     1
102
RTVSPropertyOp15
 70
     1
102
RTVSPropertyOp16
 70
     1
102
RTVSPropertyOp17
 70
     1
102
RTVSPropertyOp18
 70
     1
102
RTVSPropertyOp19
 70
     1
102
RTVSPropertyOp20
 70
     1
102
RTVSPropertyOp21
 70
     1
102
RTVSPropertyOp22
 70
     1
102
RTVSPropertyOp23
 70
     1
102
RTVSPropertyOp24
 70
     1
102
RTVSPropertyOp25
 70
     1
102
RTVSPropertyOp26
 70
     1
102
RTVSPropertyOp27
 70
     1
102
RTVSPropertyOp28
 70
     1
102
RTVSPropertyOp29
 70
     1
102
RTVSPropertyOp30
 70
     1
102
RTVSPropertyOp31
 70
     1
102
RTVSPropertyOp32
 70
     1
102
RTVSPropertyOp33
 70
     1
102
RTVSPropertyOp34
 70
     1
102
RTVSPropertyOp35
 70
     1
102
RTVSPropertyOp36
 70
     1
102
RTVSPropertyOp37
 70
     1
102
RTVSPropertyOp38
 70
     1
102
RTVSPropertyOp39
 70
     1
102
RTVSPropertyOp40
 70
     1
102
RTVSPropertyOp41
 70
     1
102
RTVSPropertyOp42
 70
     1
102
RTVSPropertyOp43
 70
     1
102
RTVSPropertyOp44
 70
     1
102
RTVSPropertyOp45
 70
     1
102
RTVSPropertyOp46
 70
     1
102
RTVSPropertyOp47
 70
     1
102
RTVSPropertyOp48
 70
     1
102
RTVSPropertyOp49
 70
     1
102
RTVSPropertyOp50
 70
     1
102
RTVSPropertyOp51
 70
     0
102
RTVSPropertyOp52
 70
     0
102
RTVSPropertyOp53
 70
     1
102
RTVSPropertyOp54
 70
     1
102
RTVSPropertyOp55
 70
     1
102
RTVSPropertyOp56
 70
     1
102
RTVSPropertyOp57
 70
     1
102
RTVSPropertyOp58
 70
     1
102
RTVSPropertyOp59
 70
     1
102
RTVSPropertyOp60
 70
     1
102
RTVSPropertyOp61
 70
     1
102
RTVSPropertyOp62
 70
     1
  0
XRECORD
  5
9A2C
102
{ACAD_REACTORS
330
9A2B
102
}
330
9A2B
100
AcDbXrecord
280
     1
102
RTVSPost2010Prop28
280
     0
102
RTVSPost2010PropOp28
 70
     1
102
RTVSPost2010Prop29
280
     1
102
RTVSPost2010PropOp29
 70
     1
102
RTVSPost2010Prop30
280
     1
102
RTVSPost2010PropOp30
 70
     1
102
RTVSPost2010Prop31
280
     0
102
RTVSPost2010PropOp31
 70
     1
102
RTVSPost2010Prop32
280
     0
102
RTVSPost2010PropOp32
 70
     1
102
RTVSPost2010Prop33
280
     0
102
RTVSPost2010PropOp33
 70
     1
102
RTVSPost2010Prop34
280
     0
102
RTVSPost2010PropOp34
 70
     1
102
RTVSPost2010Prop35
280
     0
102
RTVSPost2010PropOp35
 70
     1
102
RTVSPost2010Prop36
280
     0
102
RTVSPost2010PropOp36
 70
     1
102
RTVSPost2010Prop37
 90
       50
102
RTVSPost2010PropOp37
 70
     1
102
RTVSPost2010Prop38
140
0.0
102
RTVSPost2010PropOp38
 70
     1
102
RTVSPost2010Prop39
140
1.0
102
RTVSPost2010PropOp39
 70
     1
102
RTVSPost2010Prop40
 90
        0
102
RTVSPost2010PropOp40
 70
     1
102
RTVSPost2010Prop41ColorIndex
 90
       18
102
RTVSPost2010Prop41ColorRGB
 90
        0
102
RTVSPost2010PropOp41
 70
     1
102
RTVSPost2010Prop42
 90
       50
102
RTVSPost2010PropOp42
 70
     1
102
RTVSPost2010Prop43
 90
        3
102
RTVSPost2010PropOp43
 70
     1
102
RTVSPost2010Prop44ColorIndex
 90
        5
102
RTVSPost2010Prop44ColorRGB
 90
      255
102
RTVSPost2010PropOp44
 70
     1
102
RTVSPost2010Prop45
280
     0
102
RTVSPost2010PropOp45
 70
     1
102
RTVSPost2010Prop46
 90
       50
102
RTVSPost2010PropOp46
 70
     1
102
RTVSPost2010Prop47
 90
       50
102
RTVSPost2010PropOp47
 70
     1
102
RTVSPost2010Prop48
 90
       50
102
RTVSPost2010PropOp48
 70
     1
102
RTVSPost2010Prop49
280
     0
102
RTVSPost2010PropOp49
 70
     1
102
RTVSPost2010Prop50
 90
       50
102
RTVSPost2010PropOp50
 70
     1
102
RTVSPost2010Prop51ColorIndex
 90
      256
102
RTVSPost2010Prop51ColorRGB
 90
-16777216
102
RTVSPost2010PropOp51
 70
     0
102
RTVSPost2010Prop52
140
1.0
102
RTVSPost2010PropOp52
 70
     0
102
RTVSPost2010Prop53
 90
        2
102
RTVSPost2010PropOp53
 70
     1
102
RTVSPost2010Prop54
  1
strokes_ogs.tif
102
RTVSPost2010PropOp54
 70
     1
102
RTVSPost2010Prop55
280
     0
102
RTVSPost2010PropOp55
 70
     1
102
RTVSPost2010Prop56
140
1.0
102
RTVSPost2010PropOp56
 70
     1
102
RTVSPost2010Prop57
140
1.0
102
RTVSPost2010PropOp57
 70
     1
102
RTVSPropertyOp0
 70
     1
102
RTVSPropertyOp1
 70
     1
102
RTVSPropertyOp2
 70
     1
102
RTVSPropertyOp3
 70
     1
102
RTVSPropertyOp4
 70
     1
102
RTVSPropertyOp5
 70
     1
102
RTVSPropertyOp6
 70
     1
102
RTVSPropertyOp7
 70
     1
102
RTVSPropertyOp8
 70
     1
102
RTVSPropertyOp9
 70
     1
102
RTVSPropertyOp10
 70
     1
102
RTVSPropertyOp11
 70
     1
102
RTVSPropertyOp12
 70
     1
102
RTVSPropertyOp13
 70
     1
102
RTVSPropertyOp14
 70
     1
102
RTVSPropertyOp15
 70
     1
102
RTVSPropertyOp16
 70
     1
102
RTVSPropertyOp17
 70
     1
102
RTVSPropertyOp18
 70
     1
102
RTVSPropertyOp19
 70
     1
102
RTVSPropertyOp20
 70
     1
102
RTVSPropertyOp21
 70
     1
102
RTVSPropertyOp22
 70
     1
102
RTVSPropertyOp23
 70
     1
102
RTVSPropertyOp24
 70
     1
102
RTVSPropertyOp25
 70
     1
102
RTVSPropertyOp26
 70
     1
102
RTVSPropertyOp27
 70
     1
102
RTVSPropertyOp28
 70
     1
102
RTVSPropertyOp29
 70
     1
102
RTVSPropertyOp30
 70
     1
102
RTVSPropertyOp31
 70
     1
102
RTVSPropertyOp32
 70
     1
102
RTVSPropertyOp33
 70
     1
102
RTVSPropertyOp34
 70
     1
102
RTVSPropertyOp35
 70
     1
102
RTVSPropertyOp36
 70
     1
102
RTVSPropertyOp37
 70
     1
102
RTVSPropertyOp38
 70
     1
102
RTVSPropertyOp39
 70
     1
102
RTVSPropertyOp40
 70
     1
102
RTVSPropertyOp41
 70
     1
102
RTVSPropertyOp42
 70
     1
102
RTVSPropertyOp43
 70
     1
102
RTVSPropertyOp44
 70
     1
102
RTVSPropertyOp45
 70
     1
102
RTVSPropertyOp46
 70
     1
102
RTVSPropertyOp47
 70
     1
102
RTVSPropertyOp48
 70
     1
102
RTVSPropertyOp49
 70
     1
102
RTVSPropertyOp50
 70
     1
102
RTVSPropertyOp51
 70
     0
102
RTVSPropertyOp52
 70
     0
102
RTVSPropertyOp53
 70
     1
102
RTVSPropertyOp54
 70
     1
102
RTVSPropertyOp55
 70
     1
102
RTVSPropertyOp56
 70
     1
102
RTVSPropertyOp57
 70
     1
102
RTVSPropertyOp58
 70
     1
102
RTVSPropertyOp59
 70
     1
102
RTVSPropertyOp60
 70
     1
102
RTVSPropertyOp61
 70
     1
102
RTVSPropertyOp62
 70
     1
  0
XRECORD
  5
9A2E
102
{ACAD_REACTORS
330
9A2D
102
}
330
9A2D
100
AcDbXrecord
280
     1
102
RTVSPost2010Prop28
280
     0
102
RTVSPost2010PropOp28
 70
     1
102
RTVSPost2010Prop29
280
     1
102
RTVSPost2010PropOp29
 70
     1
102
RTVSPost2010Prop30
280
     1
102
RTVSPost2010PropOp30
 70
     1
102
RTVSPost2010Prop31
280
     0
102
RTVSPost2010PropOp31
 70
     1
102
RTVSPost2010Prop32
280
     0
102
RTVSPost2010PropOp32
 70
     1
102
RTVSPost2010Prop33
280
     0
102
RTVSPost2010PropOp33
 70
     1
102
RTVSPost2010Prop34
280
     0
102
RTVSPost2010PropOp34
 70
     1
102
RTVSPost2010Prop35
280
     0
102
RTVSPost2010PropOp35
 70
     1
102
RTVSPost2010Prop36
280
     0
102
RTVSPost2010PropOp36
 70
     1
102
RTVSPost2010Prop37
 90
       50
102
RTVSPost2010PropOp37
 70
     1
102
RTVSPost2010Prop38
140
0.0
102
RTVSPost2010PropOp38
 70
     1
102
RTVSPost2010Prop39
140
1.0
102
RTVSPost2010PropOp39
 70
     1
102
RTVSPost2010Prop40
 90
        0
102
RTVSPost2010PropOp40
 70
     1
102
RTVSPost2010Prop41ColorIndex
 90
       18
102
RTVSPost2010Prop41ColorRGB
 90
        0
102
RTVSPost2010PropOp41
 70
     1
102
RTVSPost2010Prop42
 90
       50
102
RTVSPost2010PropOp42
 70
     1
102
RTVSPost2010Prop43
 90
        3
102
RTVSPost2010PropOp43
 70
     1
102
RTVSPost2010Prop44ColorIndex
 90
        5
102
RTVSPost2010Prop44ColorRGB
 90
      255
102
RTVSPost2010PropOp44
 70
     1
102
RTVSPost2010Prop45
280
     0
102
RTVSPost2010PropOp45
 70
     1
102
RTVSPost2010Prop46
 90
       50
102
RTVSPost2010PropOp46
 70
     1
102
RTVSPost2010Prop47
 90
       50
102
RTVSPost2010PropOp47
 70
     1
102
RTVSPost2010Prop48
 90
       50
102
RTVSPost2010PropOp48
 70
     1
102
RTVSPost2010Prop49
280
     0
102
RTVSPost2010PropOp49
 70
     1
102
RTVSPost2010Prop50
 90
       50
102
RTVSPost2010PropOp50
 70
     1
102
RTVSPost2010Prop51ColorIndex
 90
      256
102
RTVSPost2010Prop51ColorRGB
 90
-16777216
102
RTVSPost2010PropOp51
 70
     0
102
RTVSPost2010Prop52
140
1.0
102
RTVSPost2010PropOp52
 70
     0
102
RTVSPost2010Prop53
 90
        2
102
RTVSPost2010PropOp53
 70
     1
102
RTVSPost2010Prop54
  1
strokes_ogs.tif
102
RTVSPost2010PropOp54
 70
     1
102
RTVSPost2010Prop55
280
     0
102
RTVSPost2010PropOp55
 70
     1
102
RTVSPost2010Prop56
140
1.0
102
RTVSPost2010PropOp56
 70
     1
102
RTVSPost2010Prop57
140
1.0
102
RTVSPost2010PropOp57
 70
     1
102
RTVSPropertyOp0
 70
     1
102
RTVSPropertyOp1
 70
     1
102
RTVSPropertyOp2
 70
     1
102
RTVSPropertyOp3
 70
     1
102
RTVSPropertyOp4
 70
     1
102
RTVSPropertyOp5
 70
     1
102
RTVSPropertyOp6
 70
     1
102
RTVSPropertyOp7
 70
     1
102
RTVSPropertyOp8
 70
     1
102
RTVSPropertyOp9
 70
     1
102
RTVSPropertyOp10
 70
     1
102
RTVSPropertyOp11
 70
     1
102
RTVSPropertyOp12
 70
     1
102
RTVSPropertyOp13
 70
     1
102
RTVSPropertyOp14
 70
     1
102
RTVSPropertyOp15
 70
     1
102
RTVSPropertyOp16
 70
     1
102
RTVSPropertyOp17
 70
     1
102
RTVSPropertyOp18
 70
     1
102
RTVSPropertyOp19
 70
     1
102
RTVSPropertyOp20
 70
     1
102
RTVSPropertyOp21
 70
     1
102
RTVSPropertyOp22
 70
     1
102
RTVSPropertyOp23
 70
     1
102
RTVSPropertyOp24
 70
     1
102
RTVSPropertyOp25
 70
     1
102
RTVSPropertyOp26
 70
     1
102
RTVSPropertyOp27
 70
     1
102
RTVSPropertyOp28
 70
     1
102
RTVSPropertyOp29
 70
     1
102
RTVSPropertyOp30
 70
     1
102
RTVSPropertyOp31
 70
     1
102
RTVSPropertyOp32
 70
     1
102
RTVSPropertyOp33
 70
     1
102
RTVSPropertyOp34
 70
     1
102
RTVSPropertyOp35
 70
     1
102
RTVSPropertyOp36
 70
     1
102
RTVSPropertyOp37
 70
     1
102
RTVSPropertyOp38
 70
     1
102
RTVSPropertyOp39
 70
     1
102
RTVSPropertyOp40
 70
     1
102
RTVSPropertyOp41
 70
     1
102
RTVSPropertyOp42
 70
     1
102
RTVSPropertyOp43
 70
     1
102
RTVSPropertyOp44
 70
     1
102
RTVSPropertyOp45
 70
     1
102
RTVSPropertyOp46
 70
     1
102
RTVSPropertyOp47
 70
     1
102
RTVSPropertyOp48
 70
     1
102
RTVSPropertyOp49
 70
     1
102
RTVSPropertyOp50
 70
     1
102
RTVSPropertyOp51
 70
     0
102
RTVSPropertyOp52
 70
     0
102
RTVSPropertyOp53
 70
     1
102
RTVSPropertyOp54
 70
     1
102
RTVSPropertyOp55
 70
     1
102
RTVSPropertyOp56
 70
     1
102
RTVSPropertyOp57
 70
     1
102
RTVSPropertyOp58
 70
     1
102
RTVSPropertyOp59
 70
     1
102
RTVSPropertyOp60
 70
     1
102
RTVSPropertyOp61
 70
     1
102
RTVSPropertyOp62
 70
     1
  0
XRECORD
  5
9A36
102
{ACAD_REACTORS
330
9A35
102
}
330
9A35
100
AcDbXrecord
280
     1
102
RTVSPost2010Prop28
280
     0
102
RTVSPost2010PropOp28
 70
     1
102
RTVSPost2010Prop29
280
     1
102
RTVSPost2010PropOp29
 70
     1
102
RTVSPost2010Prop30
280
     1
102
RTVSPost2010PropOp30
 70
     1
102
RTVSPost2010Prop31
280
     0
102
RTVSPost2010PropOp31
 70
     1
102
RTVSPost2010Prop32
280
     0
102
RTVSPost2010PropOp32
 70
     1
102
RTVSPost2010Prop33
280
     0
102
RTVSPost2010PropOp33
 70
     1
102
RTVSPost2010Prop34
280
     0
102
RTVSPost2010PropOp34
 70
     1
102
RTVSPost2010Prop35
280
     0
102
RTVSPost2010PropOp35
 70
     1
102
RTVSPost2010Prop36
280
     0
102
RTVSPost2010PropOp36
 70
     1
102
RTVSPost2010Prop37
 90
       50
102
RTVSPost2010PropOp37
 70
     1
102
RTVSPost2010Prop38
140
0.0
102
RTVSPost2010PropOp38
 70
     1
102
RTVSPost2010Prop39
140
1.0
102
RTVSPost2010PropOp39
 70
     1
102
RTVSPost2010Prop40
 90
        0
102
RTVSPost2010PropOp40
 70
     1
102
RTVSPost2010Prop41ColorIndex
 90
       18
102
RTVSPost2010Prop41ColorRGB
 90
        0
102
RTVSPost2010PropOp41
 70
     1
102
RTVSPost2010Prop42
 90
       50
102
RTVSPost2010PropOp42
 70
     1
102
RTVSPost2010Prop43
 90
        3
102
RTVSPost2010PropOp43
 70
     1
102
RTVSPost2010Prop44ColorIndex
 90
        5
102
RTVSPost2010Prop44ColorRGB
 90
      255
102
RTVSPost2010PropOp44
 70
     1
102
RTVSPost2010Prop45
280
     0
102
RTVSPost2010PropOp45
 70
     1
102
RTVSPost2010Prop46
 90
       50
102
RTVSPost2010PropOp46
 70
     1
102
RTVSPost2010Prop47
 90
       50
102
RTVSPost2010PropOp47
 70
     1
102
RTVSPost2010Prop48
 90
       50
102
RTVSPost2010PropOp48
 70
     1
102
RTVSPost2010Prop49
280
     0
102
RTVSPost2010PropOp49
 70
     1
102
RTVSPost2010Prop50
 90
       50
102
RTVSPost2010PropOp50
 70
     1
102
RTVSPost2010Prop51ColorIndex
 90
      256
102
RTVSPost2010Prop51ColorRGB
 90
-16777216
102
RTVSPost2010PropOp51
 70
     0
102
RTVSPost2010Prop52
140
1.0
102
RTVSPost2010PropOp52
 70
     0
102
RTVSPost2010Prop53
 90
        2
102
RTVSPost2010PropOp53
 70
     1
102
RTVSPost2010Prop54
  1
strokes_ogs.tif
102
RTVSPost2010PropOp54
 70
     1
102
RTVSPost2010Prop55
280
     0
102
RTVSPost2010PropOp55
 70
     1
102
RTVSPost2010Prop56
140
1.0
102
RTVSPost2010PropOp56
 70
     1
102
RTVSPost2010Prop57
140
1.0
102
RTVSPost2010PropOp57
 70
     1
102
RTVSPropertyOp0
 70
     1
102
RTVSPropertyOp1
 70
     1
102
RTVSPropertyOp2
 70
     1
102
RTVSPropertyOp3
 70
     1
102
RTVSPropertyOp4
 70
     1
102
RTVSPropertyOp5
 70
     1
102
RTVSPropertyOp6
 70
     1
102
RTVSPropertyOp7
 70
     1
102
RTVSPropertyOp8
 70
     1
102
RTVSPropertyOp9
 70
     1
102
RTVSPropertyOp10
 70
     1
102
RTVSPropertyOp11
 70
     1
102
RTVSPropertyOp12
 70
     1
102
RTVSPropertyOp13
 70
     1
102
RTVSPropertyOp14
 70
     1
102
RTVSPropertyOp15
 70
     1
102
RTVSPropertyOp16
 70
     1
102
RTVSPropertyOp17
 70
     1
102
RTVSPropertyOp18
 70
     1
102
RTVSPropertyOp19
 70
     1
102
RTVSPropertyOp20
 70
     1
102
RTVSPropertyOp21
 70
     1
102
RTVSPropertyOp22
 70
     1
102
RTVSPropertyOp23
 70
     1
102
RTVSPropertyOp24
 70
     1
102
RTVSPropertyOp25
 70
     1
102
RTVSPropertyOp26
 70
     1
102
RTVSPropertyOp27
 70
     1
102
RTVSPropertyOp28
 70
     1
102
RTVSPropertyOp29
 70
     1
102
RTVSPropertyOp30
 70
     1
102
RTVSPropertyOp31
 70
     1
102
RTVSPropertyOp32
 70
     1
102
RTVSPropertyOp33
 70
     1
102
RTVSPropertyOp34
 70
     1
102
RTVSPropertyOp35
 70
     1
102
RTVSPropertyOp36
 70
     1
102
RTVSPropertyOp37
 70
     1
102
RTVSPropertyOp38
 70
     1
102
RTVSPropertyOp39
 70
     1
102
RTVSPropertyOp40
 70
     1
102
RTVSPropertyOp41
 70
     1
102
RTVSPropertyOp42
 70
     1
102
RTVSPropertyOp43
 70
     1
102
RTVSPropertyOp44
 70
     1
102
RTVSPropertyOp45
 70
     1
102
RTVSPropertyOp46
 70
     1
102
RTVSPropertyOp47
 70
     1
102
RTVSPropertyOp48
 70
     1
102
RTVSPropertyOp49
 70
     1
102
RTVSPropertyOp50
 70
     1
102
RTVSPropertyOp51
 70
     0
102
RTVSPropertyOp52
 70
     0
102
RTVSPropertyOp53
 70
     1
102
RTVSPropertyOp54
 70
     1
102
RTVSPropertyOp55
 70
     1
102
RTVSPropertyOp56
 70
     1
102
RTVSPropertyOp57
 70
     1
102
RTVSPropertyOp58
 70
     1
102
RTVSPropertyOp59
 70
     1
102
RTVSPropertyOp60
 70
     1
102
RTVSPropertyOp61
 70
     1
102
RTVSPropertyOp62
 70
     1
  0
XRECORD
  5
9A52
102
{ACAD_REACTORS
330
9A51
102
}
330
9A51
100
AcDbXrecord
280
     1
102
RTVSPost2010Prop28
280
     0
102
RTVSPost2010PropOp28
 70
     1
102
RTVSPost2010Prop29
280
     1
102
RTVSPost2010PropOp29
 70
     1
102
RTVSPost2010Prop30
280
     1
102
RTVSPost2010PropOp30
 70
     1
102
RTVSPost2010Prop31
280
     0
102
RTVSPost2010PropOp31
 70
     1
102
RTVSPost2010Prop32
280
     0
102
RTVSPost2010PropOp32
 70
     1
102
RTVSPost2010Prop33
280
     0
102
RTVSPost2010PropOp33
 70
     1
102
RTVSPost2010Prop34
280
     0
102
RTVSPost2010PropOp34
 70
     1
102
RTVSPost2010Prop35
280
     0
102
RTVSPost2010PropOp35
 70
     1
102
RTVSPost2010Prop36
280
     0
102
RTVSPost2010PropOp36
 70
     1
102
RTVSPost2010Prop37
 90
       50
102
RTVSPost2010PropOp37
 70
     0
102
RTVSPost2010Prop38
140
0.0
102
RTVSPost2010PropOp38
 70
     0
102
RTVSPost2010Prop39
140
1.0
102
RTVSPost2010PropOp39
 70
     0
102
RTVSPost2010Prop40
 90
        0
102
RTVSPost2010PropOp40
 70
     0
102
RTVSPost2010Prop41ColorIndex
 90
       18
102
RTVSPost2010Prop41ColorRGB
 90
        0
102
RTVSPost2010PropOp41
 70
     0
102
RTVSPost2010Prop42
 90
       50
102
RTVSPost2010PropOp42
 70
     0
102
RTVSPost2010Prop43
 90
        3
102
RTVSPost2010PropOp43
 70
     0
102
RTVSPost2010Prop44ColorIndex
 90
        5
102
RTVSPost2010Prop44ColorRGB
 90
      255
102
RTVSPost2010PropOp44
 70
     0
102
RTVSPost2010Prop45
280
     0
102
RTVSPost2010PropOp45
 70
     1
102
RTVSPost2010Prop46
 90
       50
102
RTVSPost2010PropOp46
 70
     0
102
RTVSPost2010Prop47
 90
       50
102
RTVSPost2010PropOp47
 70
     0
102
RTVSPost2010Prop48
 90
       50
102
RTVSPost2010PropOp48
 70
     0
102
RTVSPost2010Prop49
280
     0
102
RTVSPost2010PropOp49
 70
     1
102
RTVSPost2010Prop50
 90
       50
102
RTVSPost2010PropOp50
 70
     0
102
RTVSPost2010Prop51ColorIndex
 90
      256
102
RTVSPost2010Prop51ColorRGB
 90
-16777216
102
RTVSPost2010PropOp51
 70
     0
102
RTVSPost2010Prop52
140
1.0
102
RTVSPost2010PropOp52
 70
     0
102
RTVSPost2010Prop53
 90
        2
102
RTVSPost2010PropOp53
 70
     0
102
RTVSPost2010Prop54
  1
strokes_ogs.tif
102
RTVSPost2010PropOp54
 70
     0
102
RTVSPost2010Prop55
280
     0
102
RTVSPost2010PropOp55
 70
     1
102
RTVSPost2010Prop56
140
1.0
102
RTVSPost2010PropOp56
 70
     0
102
RTVSPost2010Prop57
140
1.0
102
RTVSPost2010PropOp57
 70
     0
102
RTVSPropertyOp0
 70
     0
102
RTVSPropertyOp1
 70
     0
102
RTVSPropertyOp2
 70
     0
102
RTVSPropertyOp3
 70
     0
102
RTVSPropertyOp4
 70
     0
102
RTVSPropertyOp5
 70
     0
102
RTVSPropertyOp6
 70
     0
102
RTVSPropertyOp7
 70
     0
102
RTVSPropertyOp8
 70
     0
102
RTVSPropertyOp9
 70
     0
102
RTVSPropertyOp10
 70
     0
102
RTVSPropertyOp11
 70
     0
102
RTVSPropertyOp12
 70
     0
102
RTVSPropertyOp13
 70
     0
102
RTVSPropertyOp14
 70
     2
102
RTVSPropertyOp15
 70
     0
102
RTVSPropertyOp16
 70
     0
102
RTVSPropertyOp17
 70
     0
102
RTVSPropertyOp18
 70
     0
102
RTVSPropertyOp19
 70
     0
102
RTVSPropertyOp20
 70
     0
102
RTVSPropertyOp21
 70
     0
102
RTVSPropertyOp22
 70
     0
102
RTVSPropertyOp23
 70
     0
102
RTVSPropertyOp24
 70
     0
102
RTVSPropertyOp25
 70
     0
102
RTVSPropertyOp26
 70
     0
102
RTVSPropertyOp27
 70
     0
102
RTVSPropertyOp28
 70
     1
102
RTVSPropertyOp29
 70
     1
102
RTVSPropertyOp30
 70
     1
102
RTVSPropertyOp31
 70
     1
102
RTVSPropertyOp32
 70
     1
102
RTVSPropertyOp33
 70
     1
102
RTVSPropertyOp34
 70
     1
102
RTVSPropertyOp35
 70
     1
102
RTVSPropertyOp36
 70
     1
102
RTVSPropertyOp37
 70
     0
102
RTVSPropertyOp38
 70
     0
102
RTVSPropertyOp39
 70
     0
102
RTVSPropertyOp40
 70
     0
102
RTVSPropertyOp41
 70
     0
102
RTVSPropertyOp42
 70
     0
102
RTVSPropertyOp43
 70
     0
102
RTVSPropertyOp44
 70
     0
102
RTVSPropertyOp45
 70
     1
102
RTVSPropertyOp46
 70
     0
102
RTVSPropertyOp47
 70
     0
102
RTVSPropertyOp48
 70
     0
102
RTVSPropertyOp49
 70
     1
102
RTVSPropertyOp50
 70
     0
102
RTVSPropertyOp51
 70
     0
102
RTVSPropertyOp52
 70
     0
102
RTVSPropertyOp53
 70
     0
102
RTVSPropertyOp54
 70
     0
102
RTVSPropertyOp55
 70
     1
102
RTVSPropertyOp56
 70
     0
102
RTVSPropertyOp57
 70
     0
102
RTVSPropertyOp58
 70
     0
102
RTVSPropertyOp59
 70
     0
102
RTVSPropertyOp60
 70
     0
102
RTVSPropertyOp61
 70
     0
102
RTVSPropertyOp62
 70
     0
  0
XRECORD
  5
9A42
102
{ACAD_REACTORS
330
9A41
102
}
330
9A41
100
AcDbXrecord
280
     1
102
RTVSPost2010Prop28
280
     0
102
RTVSPost2010PropOp28
 70
     1
102
RTVSPost2010Prop29
280
     1
102
RTVSPost2010PropOp29
 70
     1
102
RTVSPost2010Prop30
280
     1
102
RTVSPost2010PropOp30
 70
     1
102
RTVSPost2010Prop31
280
     0
102
RTVSPost2010PropOp31
 70
     1
102
RTVSPost2010Prop32
280
     0
102
RTVSPost2010PropOp32
 70
     1
102
RTVSPost2010Prop33
280
     0
102
RTVSPost2010PropOp33
 70
     1
102
RTVSPost2010Prop34
280
     0
102
RTVSPost2010PropOp34
 70
     1
102
RTVSPost2010Prop35
280
     0
102
RTVSPost2010PropOp35
 70
     1
102
RTVSPost2010Prop36
280
     0
102
RTVSPost2010PropOp36
 70
     1
102
RTVSPost2010Prop37
 90
       50
102
RTVSPost2010PropOp37
 70
     1
102
RTVSPost2010Prop38
140
0.0
102
RTVSPost2010PropOp38
 70
     1
102
RTVSPost2010Prop39
140
1.0
102
RTVSPost2010PropOp39
 70
     1
102
RTVSPost2010Prop40
 90
        0
102
RTVSPost2010PropOp40
 70
     1
102
RTVSPost2010Prop41ColorIndex
 90
       18
102
RTVSPost2010Prop41ColorRGB
 90
        0
102
RTVSPost2010PropOp41
 70
     1
102
RTVSPost2010Prop42
 90
       50
102
RTVSPost2010PropOp42
 70
     1
102
RTVSPost2010Prop43
 90
        3
102
RTVSPost2010PropOp43
 70
     1
102
RTVSPost2010Prop44ColorIndex
 90
        5
102
RTVSPost2010Prop44ColorRGB
 90
      255
102
RTVSPost2010PropOp44
 70
     1
102
RTVSPost2010Prop45
280
     0
102
RTVSPost2010PropOp45
 70
     1
102
RTVSPost2010Prop46
 90
       50
102
RTVSPost2010PropOp46
 70
     1
102
RTVSPost2010Prop47
 90
       50
102
RTVSPost2010PropOp47
 70
     1
102
RTVSPost2010Prop48
 90
       50
102
RTVSPost2010PropOp48
 70
     1
102
RTVSPost2010Prop49
280
     0
102
RTVSPost2010PropOp49
 70
     1
102
RTVSPost2010Prop50
 90
       50
102
RTVSPost2010PropOp50
 70
     1
102
RTVSPost2010Prop51ColorIndex
 90
      256
102
RTVSPost2010Prop51ColorRGB
 90
-16777216
102
RTVSPost2010PropOp51
 70
     0
102
RTVSPost2010Prop52
140
1.0
102
RTVSPost2010PropOp52
 70
     0
102
RTVSPost2010Prop53
 90
        2
102
RTVSPost2010PropOp53
 70
     1
102
RTVSPost2010Prop54
  1
strokes_ogs.tif
102
RTVSPost2010PropOp54
 70
     1
102
RTVSPost2010Prop55
280
     0
102
RTVSPost2010PropOp55
 70
     1
102
RTVSPost2010Prop56
140
1.0
102
RTVSPost2010PropOp56
 70
     1
102
RTVSPost2010Prop57
140
1.0
102
RTVSPost2010PropOp57
 70
     1
102
RTVSPropertyOp0
 70
     1
102
RTVSPropertyOp1
 70
     1
102
RTVSPropertyOp2
 70
     1
102
RTVSPropertyOp3
 70
     1
102
RTVSPropertyOp4
 70
     1
102
RTVSPropertyOp5
 70
     1
102
RTVSPropertyOp6
 70
     1
102
RTVSPropertyOp7
 70
     1
102
RTVSPropertyOp8
 70
     1
102
RTVSPropertyOp9
 70
     1
102
RTVSPropertyOp10
 70
     1
102
RTVSPropertyOp11
 70
     1
102
RTVSPropertyOp12
 70
     1
102
RTVSPropertyOp13
 70
     1
102
RTVSPropertyOp14
 70
     1
102
RTVSPropertyOp15
 70
     1
102
RTVSPropertyOp16
 70
     1
102
RTVSPropertyOp17
 70
     1
102
RTVSPropertyOp18
 70
     1
102
RTVSPropertyOp19
 70
     1
102
RTVSPropertyOp20
 70
     1
102
RTVSPropertyOp21
 70
     1
102
RTVSPropertyOp22
 70
     1
102
RTVSPropertyOp23
 70
     1
102
RTVSPropertyOp24
 70
     1
102
RTVSPropertyOp25
 70
     1
102
RTVSPropertyOp26
 70
     1
102
RTVSPropertyOp27
 70
     1
102
RTVSPropertyOp28
 70
     1
102
RTVSPropertyOp29
 70
     1
102
RTVSPropertyOp30
 70
     1
102
RTVSPropertyOp31
 70
     1
102
RTVSPropertyOp32
 70
     1
102
RTVSPropertyOp33
 70
     1
102
RTVSPropertyOp34
 70
     1
102
RTVSPropertyOp35
 70
     1
102
RTVSPropertyOp36
 70
     1
102
RTVSPropertyOp37
 70
     1
102
RTVSPropertyOp38
 70
     1
102
RTVSPropertyOp39
 70
     1
102
RTVSPropertyOp40
 70
     1
102
RTVSPropertyOp41
 70
     1
102
RTVSPropertyOp42
 70
     1
102
RTVSPropertyOp43
 70
     1
102
RTVSPropertyOp44
 70
     1
102
RTVSPropertyOp45
 70
     1
102
RTVSPropertyOp46
 70
     1
102
RTVSPropertyOp47
 70
     1
102
RTVSPropertyOp48
 70
     1
102
RTVSPropertyOp49
 70
     1
102
RTVSPropertyOp50
 70
     1
102
RTVSPropertyOp51
 70
     0
102
RTVSPropertyOp52
 70
     0
102
RTVSPropertyOp53
 70
     1
102
RTVSPropertyOp54
 70
     1
102
RTVSPropertyOp55
 70
     1
102
RTVSPropertyOp56
 70
     1
102
RTVSPropertyOp57
 70
     1
102
RTVSPropertyOp58
 70
     1
102
RTVSPropertyOp59
 70
     1
102
RTVSPropertyOp60
 70
     1
102
RTVSPropertyOp61
 70
     1
102
RTVSPropertyOp62
 70
     1
  0
XRECORD
  5
9A54
102
{ACAD_REACTORS
330
9A53
102
}
330
9A53
100
AcDbXrecord
280
     1
102
RTVSPost2010Prop28
280
     0
102
RTVSPost2010PropOp28
 70
     1
102
RTVSPost2010Prop29
280
     1
102
RTVSPost2010PropOp29
 70
     1
102
RTVSPost2010Prop30
280
     1
102
RTVSPost2010PropOp30
 70
     1
102
RTVSPost2010Prop31
280
     0
102
RTVSPost2010PropOp31
 70
     1
102
RTVSPost2010Prop32
280
     0
102
RTVSPost2010PropOp32
 70
     1
102
RTVSPost2010Prop33
280
     0
102
RTVSPost2010PropOp33
 70
     1
102
RTVSPost2010Prop34
280
     0
102
RTVSPost2010PropOp34
 70
     1
102
RTVSPost2010Prop35
280
     0
102
RTVSPost2010PropOp35
 70
     1
102
RTVSPost2010Prop36
280
     0
102
RTVSPost2010PropOp36
 70
     1
102
RTVSPost2010Prop37
 90
       50
102
RTVSPost2010PropOp37
 70
     0
102
RTVSPost2010Prop38
140
0.0
102
RTVSPost2010PropOp38
 70
     0
102
RTVSPost2010Prop39
140
1.0
102
RTVSPost2010PropOp39
 70
     0
102
RTVSPost2010Prop40
 90
        0
102
RTVSPost2010PropOp40
 70
     0
102
RTVSPost2010Prop41ColorIndex
 90
       18
102
RTVSPost2010Prop41ColorRGB
 90
        0
102
RTVSPost2010PropOp41
 70
     0
102
RTVSPost2010Prop42
 90
       50
102
RTVSPost2010PropOp42
 70
     0
102
RTVSPost2010Prop43
 90
        3
102
RTVSPost2010PropOp43
 70
     0
102
RTVSPost2010Prop44ColorIndex
 90
        5
102
RTVSPost2010Prop44ColorRGB
 90
      255
102
RTVSPost2010PropOp44
 70
     0
102
RTVSPost2010Prop45
280
     0
102
RTVSPost2010PropOp45
 70
     1
102
RTVSPost2010Prop46
 90
       50
102
RTVSPost2010PropOp46
 70
     0
102
RTVSPost2010Prop47
 90
       50
102
RTVSPost2010PropOp47
 70
     0
102
RTVSPost2010Prop48
 90
       50
102
RTVSPost2010PropOp48
 70
     0
102
RTVSPost2010Prop49
280
     0
102
RTVSPost2010PropOp49
 70
     1
102
RTVSPost2010Prop50
 90
       50
102
RTVSPost2010PropOp50
 70
     0
102
RTVSPost2010Prop51ColorIndex
 90
      256
102
RTVSPost2010Prop51ColorRGB
 90
-16777216
102
RTVSPost2010PropOp51
 70
     0
102
RTVSPost2010Prop52
140
1.0
102
RTVSPost2010PropOp52
 70
     0
102
RTVSPost2010Prop53
 90
        2
102
RTVSPost2010PropOp53
 70
     0
102
RTVSPost2010Prop54
  1
strokes_ogs.tif
102
RTVSPost2010PropOp54
 70
     0
102
RTVSPost2010Prop55
280
     0
102
RTVSPost2010PropOp55
 70
     1
102
RTVSPost2010Prop56
140
1.0
102
RTVSPost2010PropOp56
 70
     0
102
RTVSPost2010Prop57
140
1.0
102
RTVSPost2010PropOp57
 70
     0
102
RTVSPropertyOp0
 70
     0
102
RTVSPropertyOp1
 70
     0
102
RTVSPropertyOp2
 70
     0
102
RTVSPropertyOp3
 70
     0
102
RTVSPropertyOp4
 70
     0
102
RTVSPropertyOp5
 70
     0
102
RTVSPropertyOp6
 70
     0
102
RTVSPropertyOp7
 70
     0
102
RTVSPropertyOp8
 70
     0
102
RTVSPropertyOp9
 70
     0
102
RTVSPropertyOp10
 70
     0
102
RTVSPropertyOp11
 70
     0
102
RTVSPropertyOp12
 70
     0
102
RTVSPropertyOp13
 70
     0
102
RTVSPropertyOp14
 70
     2
102
RTVSPropertyOp15
 70
     0
102
RTVSPropertyOp16
 70
     0
102
RTVSPropertyOp17
 70
     0
102
RTVSPropertyOp18
 70
     0
102
RTVSPropertyOp19
 70
     0
102
RTVSPropertyOp20
 70
     0
102
RTVSPropertyOp21
 70
     0
102
RTVSPropertyOp22
 70
     0
102
RTVSPropertyOp23
 70
     0
102
RTVSPropertyOp24
 70
     0
102
RTVSPropertyOp25
 70
     0
102
RTVSPropertyOp26
 70
     0
102
RTVSPropertyOp27
 70
     0
102
RTVSPropertyOp28
 70
     1
102
RTVSPropertyOp29
 70
     1
102
RTVSPropertyOp30
 70
     1
102
RTVSPropertyOp31
 70
     1
102
RTVSPropertyOp32
 70
     1
102
RTVSPropertyOp33
 70
     1
102
RTVSPropertyOp34
 70
     1
102
RTVSPropertyOp35
 70
     1
102
RTVSPropertyOp36
 70
     1
102
RTVSPropertyOp37
 70
     0
102
RTVSPropertyOp38
 70
     0
102
RTVSPropertyOp39
 70
     0
102
RTVSPropertyOp40
 70
     0
102
RTVSPropertyOp41
 70
     0
102
RTVSPropertyOp42
 70
     0
102
RTVSPropertyOp43
 70
     0
102
RTVSPropertyOp44
 70
     0
102
RTVSPropertyOp45
 70
     1
102
RTVSPropertyOp46
 70
     0
102
RTVSPropertyOp47
 70
     0
102
RTVSPropertyOp48
 70
     0
102
RTVSPropertyOp49
 70
     1
102
RTVSPropertyOp50
 70
     0
102
RTVSPropertyOp51
 70
     0
102
RTVSPropertyOp52
 70
     0
102
RTVSPropertyOp53
 70
     0
102
RTVSPropertyOp54
 70
     0
102
RTVSPropertyOp55
 70
     1
102
RTVSPropertyOp56
 70
     0
102
RTVSPropertyOp57
 70
     0
102
RTVSPropertyOp58
 70
     0
102
RTVSPropertyOp59
 70
     0
102
RTVSPropertyOp60
 70
     0
102
RTVSPropertyOp61
 70
     0
102
RTVSPropertyOp62
 70
     0
  0
XRECORD
  5
9A3A
102
{ACAD_REACTORS
330
9A39
102
}
330
9A39
100
AcDbXrecord
280
     1
102
RTVSPost2010Prop28
280
     0
102
RTVSPost2010PropOp28
 70
     1
102
RTVSPost2010Prop29
280
     1
102
RTVSPost2010PropOp29
 70
     1
102
RTVSPost2010Prop30
280
     1
102
RTVSPost2010PropOp30
 70
     1
102
RTVSPost2010Prop31
280
     0
102
RTVSPost2010PropOp31
 70
     1
102
RTVSPost2010Prop32
280
     0
102
RTVSPost2010PropOp32
 70
     1
102
RTVSPost2010Prop33
280
     0
102
RTVSPost2010PropOp33
 70
     1
102
RTVSPost2010Prop34
280
     0
102
RTVSPost2010PropOp34
 70
     1
102
RTVSPost2010Prop35
280
     0
102
RTVSPost2010PropOp35
 70
     1
102
RTVSPost2010Prop36
280
     0
102
RTVSPost2010PropOp36
 70
     1
102
RTVSPost2010Prop37
 90
       50
102
RTVSPost2010PropOp37
 70
     1
102
RTVSPost2010Prop38
140
0.0
102
RTVSPost2010PropOp38
 70
     1
102
RTVSPost2010Prop39
140
1.0
102
RTVSPost2010PropOp39
 70
     1
102
RTVSPost2010Prop40
 90
        0
102
RTVSPost2010PropOp40
 70
     1
102
RTVSPost2010Prop41ColorIndex
 90
       18
102
RTVSPost2010Prop41ColorRGB
 90
        0
102
RTVSPost2010PropOp41
 70
     1
102
RTVSPost2010Prop42
 90
       50
102
RTVSPost2010PropOp42
 70
     1
102
RTVSPost2010Prop43
 90
        3
102
RTVSPost2010PropOp43
 70
     1
102
RTVSPost2010Prop44ColorIndex
 90
        5
102
RTVSPost2010Prop44ColorRGB
 90
      255
102
RTVSPost2010PropOp44
 70
     1
102
RTVSPost2010Prop45
280
     0
102
RTVSPost2010PropOp45
 70
     1
102
RTVSPost2010Prop46
 90
       50
102
RTVSPost2010PropOp46
 70
     1
102
RTVSPost2010Prop47
 90
       50
102
RTVSPost2010PropOp47
 70
     1
102
RTVSPost2010Prop48
 90
       50
102
RTVSPost2010PropOp48
 70
     1
102
RTVSPost2010Prop49
280
     0
102
RTVSPost2010PropOp49
 70
     1
102
RTVSPost2010Prop50
 90
       50
102
RTVSPost2010PropOp50
 70
     1
102
RTVSPost2010Prop51ColorIndex
 90
      256
102
RTVSPost2010Prop51ColorRGB
 90
-16777216
102
RTVSPost2010PropOp51
 70
     0
102
RTVSPost2010Prop52
140
1.0
102
RTVSPost2010PropOp52
 70
     0
102
RTVSPost2010Prop53
 90
        2
102
RTVSPost2010PropOp53
 70
     1
102
RTVSPost2010Prop54
  1
strokes_ogs.tif
102
RTVSPost2010PropOp54
 70
     1
102
RTVSPost2010Prop55
280
     0
102
RTVSPost2010PropOp55
 70
     1
102
RTVSPost2010Prop56
140
1.0
102
RTVSPost2010PropOp56
 70
     1
102
RTVSPost2010Prop57
140
1.0
102
RTVSPost2010PropOp57
 70
     1
102
RTVSPropertyOp0
 70
     1
102
RTVSPropertyOp1
 70
     1
102
RTVSPropertyOp2
 70
     1
102
RTVSPropertyOp3
 70
     1
102
RTVSPropertyOp4
 70
     1
102
RTVSPropertyOp5
 70
     1
102
RTVSPropertyOp6
 70
     1
102
RTVSPropertyOp7
 70
     1
102
RTVSPropertyOp8
 70
     1
102
RTVSPropertyOp9
 70
     1
102
RTVSPropertyOp10
 70
     1
102
RTVSPropertyOp11
 70
     1
102
RTVSPropertyOp12
 70
     1
102
RTVSPropertyOp13
 70
     1
102
RTVSPropertyOp14
 70
     1
102
RTVSPropertyOp15
 70
     1
102
RTVSPropertyOp16
 70
     1
102
RTVSPropertyOp17
 70
     1
102
RTVSPropertyOp18
 70
     1
102
RTVSPropertyOp19
 70
     1
102
RTVSPropertyOp20
 70
     1
102
RTVSPropertyOp21
 70
     1
102
RTVSPropertyOp22
 70
     1
102
RTVSPropertyOp23
 70
     1
102
RTVSPropertyOp24
 70
     1
102
RTVSPropertyOp25
 70
     1
102
RTVSPropertyOp26
 70
     1
102
RTVSPropertyOp27
 70
     1
102
RTVSPropertyOp28
 70
     1
102
RTVSPropertyOp29
 70
     1
102
RTVSPropertyOp30
 70
     1
102
RTVSPropertyOp31
 70
     1
102
RTVSPropertyOp32
 70
     1
102
RTVSPropertyOp33
 70
     1
102
RTVSPropertyOp34
 70
     1
102
RTVSPropertyOp35
 70
     1
102
RTVSPropertyOp36
 70
     1
102
RTVSPropertyOp37
 70
     1
102
RTVSPropertyOp38
 70
     1
102
RTVSPropertyOp39
 70
     1
102
RTVSPropertyOp40
 70
     1
102
RTVSPropertyOp41
 70
     1
102
RTVSPropertyOp42
 70
     1
102
RTVSPropertyOp43
 70
     1
102
RTVSPropertyOp44
 70
     1
102
RTVSPropertyOp45
 70
     1
102
RTVSPropertyOp46
 70
     1
102
RTVSPropertyOp47
 70
     1
102
RTVSPropertyOp48
 70
     1
102
RTVSPropertyOp49
 70
     1
102
RTVSPropertyOp50
 70
     1
102
RTVSPropertyOp51
 70
     0
102
RTVSPropertyOp52
 70
     0
102
RTVSPropertyOp53
 70
     1
102
RTVSPropertyOp54
 70
     1
102
RTVSPropertyOp55
 70
     1
102
RTVSPropertyOp56
 70
     1
102
RTVSPropertyOp57
 70
     1
102
RTVSPropertyOp58
 70
     1
102
RTVSPropertyOp59
 70
     1
102
RTVSPropertyOp60
 70
     1
102
RTVSPropertyOp61
 70
     1
102
RTVSPropertyOp62
 70
     1
  0
XRECORD
  5
9A50
102
{ACAD_REACTORS
330
9A4F
102
}
330
9A4F
100
AcDbXrecord
280
     1
102
RTVSPost2010Prop28
280
     0
102
RTVSPost2010PropOp28
 70
     1
102
RTVSPost2010Prop29
280
     1
102
RTVSPost2010PropOp29
 70
     1
102
RTVSPost2010Prop30
280
     1
102
RTVSPost2010PropOp30
 70
     1
102
RTVSPost2010Prop31
280
     0
102
RTVSPost2010PropOp31
 70
     1
102
RTVSPost2010Prop32
280
     0
102
RTVSPost2010PropOp32
 70
     1
102
RTVSPost2010Prop33
280
     0
102
RTVSPost2010PropOp33
 70
     1
102
RTVSPost2010Prop34
280
     0
102
RTVSPost2010PropOp34
 70
     1
102
RTVSPost2010Prop35
280
     0
102
RTVSPost2010PropOp35
 70
     1
102
RTVSPost2010Prop36
280
     0
102
RTVSPost2010PropOp36
 70
     1
102
RTVSPost2010Prop37
 90
       50
102
RTVSPost2010PropOp37
 70
     1
102
RTVSPost2010Prop38
140
0.0
102
RTVSPost2010PropOp38
 70
     1
102
RTVSPost2010Prop39
140
1.0
102
RTVSPost2010PropOp39
 70
     1
102
RTVSPost2010Prop40
 90
        0
102
RTVSPost2010PropOp40
 70
     1
102
RTVSPost2010Prop41ColorIndex
 90
       18
102
RTVSPost2010Prop41ColorRGB
 90
        0
102
RTVSPost2010PropOp41
 70
     1
102
RTVSPost2010Prop42
 90
       50
102
RTVSPost2010PropOp42
 70
     1
102
RTVSPost2010Prop43
 90
        3
102
RTVSPost2010PropOp43
 70
     1
102
RTVSPost2010Prop44ColorIndex
 90
        5
102
RTVSPost2010Prop44ColorRGB
 90
      255
102
RTVSPost2010PropOp44
 70
     1
102
RTVSPost2010Prop45
280
     0
102
RTVSPost2010PropOp45
 70
     1
102
RTVSPost2010Prop46
 90
       50
102
RTVSPost2010PropOp46
 70
     1
102
RTVSPost2010Prop47
 90
       50
102
RTVSPost2010PropOp47
 70
     1
102
RTVSPost2010Prop48
 90
       50
102
RTVSPost2010PropOp48
 70
     1
102
RTVSPost2010Prop49
280
     0
102
RTVSPost2010PropOp49
 70
     1
102
RTVSPost2010Prop50
 90
       50
102
RTVSPost2010PropOp50
 70
     1
102
RTVSPost2010Prop51ColorIndex
 90
      256
102
RTVSPost2010Prop51ColorRGB
 90
-16777216
102
RTVSPost2010PropOp51
 70
     0
102
RTVSPost2010Prop52
140
1.0
102
RTVSPost2010PropOp52
 70
     0
102
RTVSPost2010Prop53
 90
        2
102
RTVSPost2010PropOp53
 70
     1
102
RTVSPost2010Prop54
  1
strokes_ogs.tif
102
RTVSPost2010PropOp54
 70
     1
102
RTVSPost2010Prop55
280
     0
102
RTVSPost2010PropOp55
 70
     1
102
RTVSPost2010Prop56
140
1.0
102
RTVSPost2010PropOp56
 70
     1
102
RTVSPost2010Prop57
140
1.0
102
RTVSPost2010PropOp57
 70
     1
102
RTVSPropertyOp0
 70
     1
102
RTVSPropertyOp1
 70
     1
102
RTVSPropertyOp2
 70
     1
102
RTVSPropertyOp3
 70
     1
102
RTVSPropertyOp4
 70
     1
102
RTVSPropertyOp5
 70
     1
102
RTVSPropertyOp6
 70
     1
102
RTVSPropertyOp7
 70
     1
102
RTVSPropertyOp8
 70
     1
102
RTVSPropertyOp9
 70
     1
102
RTVSPropertyOp10
 70
     1
102
RTVSPropertyOp11
 70
     1
102
RTVSPropertyOp12
 70
     1
102
RTVSPropertyOp13
 70
     1
102
RTVSPropertyOp14
 70
     1
102
RTVSPropertyOp15
 70
     1
102
RTVSPropertyOp16
 70
     1
102
RTVSPropertyOp17
 70
     1
102
RTVSPropertyOp18
 70
     1
102
RTVSPropertyOp19
 70
     1
102
RTVSPropertyOp20
 70
     1
102
RTVSPropertyOp21
 70
     1
102
RTVSPropertyOp22
 70
     1
102
RTVSPropertyOp23
 70
     1
102
RTVSPropertyOp24
 70
     1
102
RTVSPropertyOp25
 70
     1
102
RTVSPropertyOp26
 70
     1
102
RTVSPropertyOp27
 70
     1
102
RTVSPropertyOp28
 70
     1
102
RTVSPropertyOp29
 70
     1
102
RTVSPropertyOp30
 70
     1
102
RTVSPropertyOp31
 70
     1
102
RTVSPropertyOp32
 70
     1
102
RTVSPropertyOp33
 70
     1
102
RTVSPropertyOp34
 70
     1
102
RTVSPropertyOp35
 70
     1
102
RTVSPropertyOp36
 70
     1
102
RTVSPropertyOp37
 70
     1
102
RTVSPropertyOp38
 70
     1
102
RTVSPropertyOp39
 70
     1
102
RTVSPropertyOp40
 70
     1
102
RTVSPropertyOp41
 70
     1
102
RTVSPropertyOp42
 70
     1
102
RTVSPropertyOp43
 70
     1
102
RTVSPropertyOp44
 70
     1
102
RTVSPropertyOp45
 70
     1
102
RTVSPropertyOp46
 70
     1
102
RTVSPropertyOp47
 70
     1
102
RTVSPropertyOp48
 70
     1
102
RTVSPropertyOp49
 70
     1
102
RTVSPropertyOp50
 70
     1
102
RTVSPropertyOp51
 70
     0
102
RTVSPropertyOp52
 70
     0
102
RTVSPropertyOp53
 70
     1
102
RTVSPropertyOp54
 70
     1
102
RTVSPropertyOp55
 70
     1
102
RTVSPropertyOp56
 70
     1
102
RTVSPropertyOp57
 70
     1
102
RTVSPropertyOp58
 70
     1
102
RTVSPropertyOp59
 70
     1
102
RTVSPropertyOp60
 70
     1
102
RTVSPropertyOp61
 70
     1
102
RTVSPropertyOp62
 70
     1
  0
XRECORD
  5
9A4E
102
{ACAD_REACTORS
330
9A4D
102
}
330
9A4D
100
AcDbXrecord
280
     1
102
RTVSPost2010Prop28
280
     0
102
RTVSPost2010PropOp28
 70
     1
102
RTVSPost2010Prop29
280
     1
102
RTVSPost2010PropOp29
 70
     1
102
RTVSPost2010Prop30
280
     1
102
RTVSPost2010PropOp30
 70
     1
102
RTVSPost2010Prop31
280
     0
102
RTVSPost2010PropOp31
 70
     1
102
RTVSPost2010Prop32
280
     0
102
RTVSPost2010PropOp32
 70
     1
102
RTVSPost2010Prop33
280
     0
102
RTVSPost2010PropOp33
 70
     1
102
RTVSPost2010Prop34
280
     0
102
RTVSPost2010PropOp34
 70
     1
102
RTVSPost2010Prop35
280
     0
102
RTVSPost2010PropOp35
 70
     1
102
RTVSPost2010Prop36
280
     0
102
RTVSPost2010PropOp36
 70
     1
102
RTVSPost2010Prop37
 90
       50
102
RTVSPost2010PropOp37
 70
     1
102
RTVSPost2010Prop38
140
0.0
102
RTVSPost2010PropOp38
 70
     1
102
RTVSPost2010Prop39
140
1.0
102
RTVSPost2010PropOp39
 70
     1
102
RTVSPost2010Prop40
 90
        0
102
RTVSPost2010PropOp40
 70
     1
102
RTVSPost2010Prop41ColorIndex
 90
       18
102
RTVSPost2010Prop41ColorRGB
 90
        0
102
RTVSPost2010PropOp41
 70
     1
102
RTVSPost2010Prop42
 90
       50
102
RTVSPost2010PropOp42
 70
     1
102
RTVSPost2010Prop43
 90
        3
102
RTVSPost2010PropOp43
 70
     1
102
RTVSPost2010Prop44ColorIndex
 90
        5
102
RTVSPost2010Prop44ColorRGB
 90
      255
102
RTVSPost2010PropOp44
 70
     1
102
RTVSPost2010Prop45
280
     0
102
RTVSPost2010PropOp45
 70
     1
102
RTVSPost2010Prop46
 90
       50
102
RTVSPost2010PropOp46
 70
     1
102
RTVSPost2010Prop47
 90
       50
102
RTVSPost2010PropOp47
 70
     1
102
RTVSPost2010Prop48
 90
       50
102
RTVSPost2010PropOp48
 70
     1
102
RTVSPost2010Prop49
280
     0
102
RTVSPost2010PropOp49
 70
     1
102
RTVSPost2010Prop50
 90
       50
102
RTVSPost2010PropOp50
 70
     1
102
RTVSPost2010Prop51ColorIndex
 90
      256
102
RTVSPost2010Prop51ColorRGB
 90
-16777216
102
RTVSPost2010PropOp51
 70
     0
102
RTVSPost2010Prop52
140
1.0
102
RTVSPost2010PropOp52
 70
     0
102
RTVSPost2010Prop53
 90
        2
102
RTVSPost2010PropOp53
 70
     1
102
RTVSPost2010Prop54
  1
strokes_ogs.tif
102
RTVSPost2010PropOp54
 70
     1
102
RTVSPost2010Prop55
280
     0
102
RTVSPost2010PropOp55
 70
     1
102
RTVSPost2010Prop56
140
1.0
102
RTVSPost2010PropOp56
 70
     1
102
RTVSPost2010Prop57
140
1.0
102
RTVSPost2010PropOp57
 70
     1
102
RTVSPropertyOp0
 70
     1
102
RTVSPropertyOp1
 70
     1
102
RTVSPropertyOp2
 70
     1
102
RTVSPropertyOp3
 70
     1
102
RTVSPropertyOp4
 70
     1
102
RTVSPropertyOp5
 70
     1
102
RTVSPropertyOp6
 70
     1
102
RTVSPropertyOp7
 70
     1
102
RTVSPropertyOp8
 70
     1
102
RTVSPropertyOp9
 70
     1
102
RTVSPropertyOp10
 70
     1
102
RTVSPropertyOp11
 70
     1
102
RTVSPropertyOp12
 70
     1
102
RTVSPropertyOp13
 70
     1
102
RTVSPropertyOp14
 70
     1
102
RTVSPropertyOp15
 70
     1
102
RTVSPropertyOp16
 70
     1
102
RTVSPropertyOp17
 70
     1
102
RTVSPropertyOp18
 70
     1
102
RTVSPropertyOp19
 70
     1
102
RTVSPropertyOp20
 70
     1
102
RTVSPropertyOp21
 70
     1
102
RTVSPropertyOp22
 70
     1
102
RTVSPropertyOp23
 70
     1
102
RTVSPropertyOp24
 70
     1
102
RTVSPropertyOp25
 70
     1
102
RTVSPropertyOp26
 70
     1
102
RTVSPropertyOp27
 70
     1
102
RTVSPropertyOp28
 70
     1
102
RTVSPropertyOp29
 70
     1
102
RTVSPropertyOp30
 70
     1
102
RTVSPropertyOp31
 70
     1
102
RTVSPropertyOp32
 70
     1
102
RTVSPropertyOp33
 70
     1
102
RTVSPropertyOp34
 70
     1
102
RTVSPropertyOp35
 70
     1
102
RTVSPropertyOp36
 70
     1
102
RTVSPropertyOp37
 70
     1
102
RTVSPropertyOp38
 70
     1
102
RTVSPropertyOp39
 70
     1
102
RTVSPropertyOp40
 70
     1
102
RTVSPropertyOp41
 70
     1
102
RTVSPropertyOp42
 70
     1
102
RTVSPropertyOp43
 70
     1
102
RTVSPropertyOp44
 70
     1
102
RTVSPropertyOp45
 70
     1
102
RTVSPropertyOp46
 70
     1
102
RTVSPropertyOp47
 70
     1
102
RTVSPropertyOp48
 70
     1
102
RTVSPropertyOp49
 70
     1
102
RTVSPropertyOp50
 70
     1
102
RTVSPropertyOp51
 70
     0
102
RTVSPropertyOp52
 70
     0
102
RTVSPropertyOp53
 70
     1
102
RTVSPropertyOp54
 70
     1
102
RTVSPropertyOp55
 70
     1
102
RTVSPropertyOp56
 70
     1
102
RTVSPropertyOp57
 70
     1
102
RTVSPropertyOp58
 70
     1
102
RTVSPropertyOp59
 70
     1
102
RTVSPropertyOp60
 70
     1
102
RTVSPropertyOp61
 70
     1
102
RTVSPropertyOp62
 70
     1
  0
XRECORD
  5
9A48
102
{ACAD_REACTORS
330
9A47
102
}
330
9A47
100
AcDbXrecord
280
     1
102
RTVSPost2010Prop28
280
     0
102
RTVSPost2010PropOp28
 70
     1
102
RTVSPost2010Prop29
280
     1
102
RTVSPost2010PropOp29
 70
     1
102
RTVSPost2010Prop30
280
     1
102
RTVSPost2010PropOp30
 70
     1
102
RTVSPost2010Prop31
280
     0
102
RTVSPost2010PropOp31
 70
     1
102
RTVSPost2010Prop32
280
     0
102
RTVSPost2010PropOp32
 70
     1
102
RTVSPost2010Prop33
280
     0
102
RTVSPost2010PropOp33
 70
     1
102
RTVSPost2010Prop34
280
     0
102
RTVSPost2010PropOp34
 70
     1
102
RTVSPost2010Prop35
280
     0
102
RTVSPost2010PropOp35
 70
     1
102
RTVSPost2010Prop36
280
     0
102
RTVSPost2010PropOp36
 70
     1
102
RTVSPost2010Prop37
 90
       50
102
RTVSPost2010PropOp37
 70
     1
102
RTVSPost2010Prop38
140
0.0
102
RTVSPost2010PropOp38
 70
     1
102
RTVSPost2010Prop39
140
1.0
102
RTVSPost2010PropOp39
 70
     1
102
RTVSPost2010Prop40
 90
        0
102
RTVSPost2010PropOp40
 70
     1
102
RTVSPost2010Prop41ColorIndex
 90
       18
102
RTVSPost2010Prop41ColorRGB
 90
        0
102
RTVSPost2010PropOp41
 70
     1
102
RTVSPost2010Prop42
 90
       50
102
RTVSPost2010PropOp42
 70
     1
102
RTVSPost2010Prop43
 90
        3
102
RTVSPost2010PropOp43
 70
     1
102
RTVSPost2010Prop44ColorIndex
 90
        5
102
RTVSPost2010Prop44ColorRGB
 90
      255
102
RTVSPost2010PropOp44
 70
     1
102
RTVSPost2010Prop45
280
     0
102
RTVSPost2010PropOp45
 70
     1
102
RTVSPost2010Prop46
 90
       50
102
RTVSPost2010PropOp46
 70
     1
102
RTVSPost2010Prop47
 90
       50
102
RTVSPost2010PropOp47
 70
     1
102
RTVSPost2010Prop48
 90
       50
102
RTVSPost2010PropOp48
 70
     1
102
RTVSPost2010Prop49
280
     0
102
RTVSPost2010PropOp49
 70
     1
102
RTVSPost2010Prop50
 90
       50
102
RTVSPost2010PropOp50
 70
     1
102
RTVSPost2010Prop51ColorIndex
 90
      256
102
RTVSPost2010Prop51ColorRGB
 90
-16777216
102
RTVSPost2010PropOp51
 70
     0
102
RTVSPost2010Prop52
140
1.0
102
RTVSPost2010PropOp52
 70
     0
102
RTVSPost2010Prop53
 90
        2
102
RTVSPost2010PropOp53
 70
     1
102
RTVSPost2010Prop54
  1
strokes_ogs.tif
102
RTVSPost2010PropOp54
 70
     1
102
RTVSPost2010Prop55
280
     0
102
RTVSPost2010PropOp55
 70
     1
102
RTVSPost2010Prop56
140
1.0
102
RTVSPost2010PropOp56
 70
     1
102
RTVSPost2010Prop57
140
1.0
102
RTVSPost2010PropOp57
 70
     1
102
RTVSPropertyOp0
 70
     1
102
RTVSPropertyOp1
 70
     1
102
RTVSPropertyOp2
 70
     1
102
RTVSPropertyOp3
 70
     1
102
RTVSPropertyOp4
 70
     1
102
RTVSPropertyOp5
 70
     1
102
RTVSPropertyOp6
 70
     1
102
RTVSPropertyOp7
 70
     1
102
RTVSPropertyOp8
 70
     1
102
RTVSPropertyOp9
 70
     1
102
RTVSPropertyOp10
 70
     1
102
RTVSPropertyOp11
 70
     1
102
RTVSPropertyOp12
 70
     1
102
RTVSPropertyOp13
 70
     1
102
RTVSPropertyOp14
 70
     1
102
RTVSPropertyOp15
 70
     1
102
RTVSPropertyOp16
 70
     1
102
RTVSPropertyOp17
 70
     1
102
RTVSPropertyOp18
 70
     1
102
RTVSPropertyOp19
 70
     1
102
RTVSPropertyOp20
 70
     1
102
RTVSPropertyOp21
 70
     1
102
RTVSPropertyOp22
 70
     1
102
RTVSPropertyOp23
 70
     1
102
RTVSPropertyOp24
 70
     1
102
RTVSPropertyOp25
 70
     1
102
RTVSPropertyOp26
 70
     1
102
RTVSPropertyOp27
 70
     1
102
RTVSPropertyOp28
 70
     1
102
RTVSPropertyOp29
 70
     1
102
RTVSPropertyOp30
 70
     1
102
RTVSPropertyOp31
 70
     1
102
RTVSPropertyOp32
 70
     1
102
RTVSPropertyOp33
 70
     1
102
RTVSPropertyOp34
 70
     1
102
RTVSPropertyOp35
 70
     1
102
RTVSPropertyOp36
 70
     1
102
RTVSPropertyOp37
 70
     1
102
RTVSPropertyOp38
 70
     1
102
RTVSPropertyOp39
 70
     1
102
RTVSPropertyOp40
 70
     1
102
RTVSPropertyOp41
 70
     1
102
RTVSPropertyOp42
 70
     1
102
RTVSPropertyOp43
 70
     1
102
RTVSPropertyOp44
 70
     1
102
RTVSPropertyOp45
 70
     1
102
RTVSPropertyOp46
 70
     1
102
RTVSPropertyOp47
 70
     1
102
RTVSPropertyOp48
 70
     1
102
RTVSPropertyOp49
 70
     1
102
RTVSPropertyOp50
 70
     1
102
RTVSPropertyOp51
 70
     0
102
RTVSPropertyOp52
 70
     0
102
RTVSPropertyOp53
 70
     1
102
RTVSPropertyOp54
 70
     1
102
RTVSPropertyOp55
 70
     1
102
RTVSPropertyOp56
 70
     1
102
RTVSPropertyOp57
 70
     1
102
RTVSPropertyOp58
 70
     1
102
RTVSPropertyOp59
 70
     1
102
RTVSPropertyOp60
 70
     1
102
RTVSPropertyOp61
 70
     1
102
RTVSPropertyOp62
 70
     1
  0
XRECORD
  5
9A4A
102
{ACAD_REACTORS
330
9A49
102
}
330
9A49
100
AcDbXrecord
280
     1
102
RTVSPost2010Prop28
280
     0
102
RTVSPost2010PropOp28
 70
     1
102
RTVSPost2010Prop29
280
     1
102
RTVSPost2010PropOp29
 70
     1
102
RTVSPost2010Prop30
280
     1
102
RTVSPost2010PropOp30
 70
     1
102
RTVSPost2010Prop31
280
     0
102
RTVSPost2010PropOp31
 70
     1
102
RTVSPost2010Prop32
280
     0
102
RTVSPost2010PropOp32
 70
     1
102
RTVSPost2010Prop33
280
     0
102
RTVSPost2010PropOp33
 70
     1
102
RTVSPost2010Prop34
280
     0
102
RTVSPost2010PropOp34
 70
     1
102
RTVSPost2010Prop35
280
     0
102
RTVSPost2010PropOp35
 70
     1
102
RTVSPost2010Prop36
280
     0
102
RTVSPost2010PropOp36
 70
     1
102
RTVSPost2010Prop37
 90
       50
102
RTVSPost2010PropOp37
 70
     1
102
RTVSPost2010Prop38
140
0.0
102
RTVSPost2010PropOp38
 70
     1
102
RTVSPost2010Prop39
140
1.0
102
RTVSPost2010PropOp39
 70
     1
102
RTVSPost2010Prop40
 90
        0
102
RTVSPost2010PropOp40
 70
     1
102
RTVSPost2010Prop41ColorIndex
 90
       18
102
RTVSPost2010Prop41ColorRGB
 90
        0
102
RTVSPost2010PropOp41
 70
     1
102
RTVSPost2010Prop42
 90
       50
102
RTVSPost2010PropOp42
 70
     1
102
RTVSPost2010Prop43
 90
        3
102
RTVSPost2010PropOp43
 70
     1
102
RTVSPost2010Prop44ColorIndex
 90
        5
102
RTVSPost2010Prop44ColorRGB
 90
      255
102
RTVSPost2010PropOp44
 70
     1
102
RTVSPost2010Prop45
280
     0
102
RTVSPost2010PropOp45
 70
     1
102
RTVSPost2010Prop46
 90
       50
102
RTVSPost2010PropOp46
 70
     1
102
RTVSPost2010Prop47
 90
       50
102
RTVSPost2010PropOp47
 70
     1
102
RTVSPost2010Prop48
 90
       50
102
RTVSPost2010PropOp48
 70
     1
102
RTVSPost2010Prop49
280
     0
102
RTVSPost2010PropOp49
 70
     1
102
RTVSPost2010Prop50
 90
       50
102
RTVSPost2010PropOp50
 70
     1
102
RTVSPost2010Prop51ColorIndex
 90
      256
102
RTVSPost2010Prop51ColorRGB
 90
-16777216
102
RTVSPost2010PropOp51
 70
     0
102
RTVSPost2010Prop52
140
1.0
102
RTVSPost2010PropOp52
 70
     0
102
RTVSPost2010Prop53
 90
        2
102
RTVSPost2010PropOp53
 70
     1
102
RTVSPost2010Prop54
  1
strokes_ogs.tif
102
RTVSPost2010PropOp54
 70
     1
102
RTVSPost2010Prop55
280
     0
102
RTVSPost2010PropOp55
 70
     1
102
RTVSPost2010Prop56
140
1.0
102
RTVSPost2010PropOp56
 70
     1
102
RTVSPost2010Prop57
140
1.0
102
RTVSPost2010PropOp57
 70
     1
102
RTVSPropertyOp0
 70
     1
102
RTVSPropertyOp1
 70
     1
102
RTVSPropertyOp2
 70
     1
102
RTVSPropertyOp3
 70
     1
102
RTVSPropertyOp4
 70
     1
102
RTVSPropertyOp5
 70
     1
102
RTVSPropertyOp6
 70
     1
102
RTVSPropertyOp7
 70
     1
102
RTVSPropertyOp8
 70
     1
102
RTVSPropertyOp9
 70
     1
102
RTVSPropertyOp10
 70
     1
102
RTVSPropertyOp11
 70
     1
102
RTVSPropertyOp12
 70
     1
102
RTVSPropertyOp13
 70
     1
102
RTVSPropertyOp14
 70
     1
102
RTVSPropertyOp15
 70
     1
102
RTVSPropertyOp16
 70
     1
102
RTVSPropertyOp17
 70
     1
102
RTVSPropertyOp18
 70
     1
102
RTVSPropertyOp19
 70
     1
102
RTVSPropertyOp20
 70
     1
102
RTVSPropertyOp21
 70
     1
102
RTVSPropertyOp22
 70
     1
102
RTVSPropertyOp23
 70
     1
102
RTVSPropertyOp24
 70
     1
102
RTVSPropertyOp25
 70
     1
102
RTVSPropertyOp26
 70
     1
102
RTVSPropertyOp27
 70
     1
102
RTVSPropertyOp28
 70
     1
102
RTVSPropertyOp29
 70
     1
102
RTVSPropertyOp30
 70
     1
102
RTVSPropertyOp31
 70
     1
102
RTVSPropertyOp32
 70
     1
102
RTVSPropertyOp33
 70
     1
102
RTVSPropertyOp34
 70
     1
102
RTVSPropertyOp35
 70
     1
102
RTVSPropertyOp36
 70
     1
102
RTVSPropertyOp37
 70
     1
102
RTVSPropertyOp38
 70
     1
102
RTVSPropertyOp39
 70
     1
102
RTVSPropertyOp40
 70
     1
102
RTVSPropertyOp41
 70
     1
102
RTVSPropertyOp42
 70
     1
102
RTVSPropertyOp43
 70
     1
102
RTVSPropertyOp44
 70
     1
102
RTVSPropertyOp45
 70
     1
102
RTVSPropertyOp46
 70
     1
102
RTVSPropertyOp47
 70
     1
102
RTVSPropertyOp48
 70
     1
102
RTVSPropertyOp49
 70
     1
102
RTVSPropertyOp50
 70
     1
102
RTVSPropertyOp51
 70
     0
102
RTVSPropertyOp52
 70
     0
102
RTVSPropertyOp53
 70
     1
102
RTVSPropertyOp54
 70
     1
102
RTVSPropertyOp55
 70
     1
102
RTVSPropertyOp56
 70
     1
102
RTVSPropertyOp57
 70
     1
102
RTVSPropertyOp58
 70
     1
102
RTVSPropertyOp59
 70
     1
102
RTVSPropertyOp60
 70
     1
102
RTVSPropertyOp61
 70
     1
102
RTVSPropertyOp62
 70
     1
  0
XRECORD
  5
9A40
102
{ACAD_REACTORS
330
9A3F
102
}
330
9A3F
100
AcDbXrecord
280
     1
102
RTVSPost2010Prop28
280
     0
102
RTVSPost2010PropOp28
 70
     1
102
RTVSPost2010Prop29
280
     1
102
RTVSPost2010PropOp29
 70
     1
102
RTVSPost2010Prop30
280
     1
102
RTVSPost2010PropOp30
 70
     1
102
RTVSPost2010Prop31
280
     0
102
RTVSPost2010PropOp31
 70
     1
102
RTVSPost2010Prop32
280
     0
102
RTVSPost2010PropOp32
 70
     1
102
RTVSPost2010Prop33
280
     0
102
RTVSPost2010PropOp33
 70
     1
102
RTVSPost2010Prop34
280
     0
102
RTVSPost2010PropOp34
 70
     1
102
RTVSPost2010Prop35
280
     0
102
RTVSPost2010PropOp35
 70
     1
102
RTVSPost2010Prop36
280
     0
102
RTVSPost2010PropOp36
 70
     1
102
RTVSPost2010Prop37
 90
       50
102
RTVSPost2010PropOp37
 70
     1
102
RTVSPost2010Prop38
140
0.0
102
RTVSPost2010PropOp38
 70
     1
102
RTVSPost2010Prop39
140
1.0
102
RTVSPost2010PropOp39
 70
     1
102
RTVSPost2010Prop40
 90
        0
102
RTVSPost2010PropOp40
 70
     1
102
RTVSPost2010Prop41ColorIndex
 90
       18
102
RTVSPost2010Prop41ColorRGB
 90
        0
102
RTVSPost2010PropOp41
 70
     1
102
RTVSPost2010Prop42
 90
       50
102
RTVSPost2010PropOp42
 70
     1
102
RTVSPost2010Prop43
 90
        3
102
RTVSPost2010PropOp43
 70
     1
102
RTVSPost2010Prop44ColorIndex
 90
        5
102
RTVSPost2010Prop44ColorRGB
 90
      255
102
RTVSPost2010PropOp44
 70
     1
102
RTVSPost2010Prop45
280
     0
102
RTVSPost2010PropOp45
 70
     1
102
RTVSPost2010Prop46
 90
       50
102
RTVSPost2010PropOp46
 70
     1
102
RTVSPost2010Prop47
 90
       50
102
RTVSPost2010PropOp47
 70
     1
102
RTVSPost2010Prop48
 90
       50
102
RTVSPost2010PropOp48
 70
     1
102
RTVSPost2010Prop49
280
     0
102
RTVSPost2010PropOp49
 70
     1
102
RTVSPost2010Prop50
 90
       50
102
RTVSPost2010PropOp50
 70
     1
102
RTVSPost2010Prop51ColorIndex
 90
      256
102
RTVSPost2010Prop51ColorRGB
 90
-16777216
102
RTVSPost2010PropOp51
 70
     0
102
RTVSPost2010Prop52
140
1.0
102
RTVSPost2010PropOp52
 70
     0
102
RTVSPost2010Prop53
 90
        2
102
RTVSPost2010PropOp53
 70
     1
102
RTVSPost2010Prop54
  1
strokes_ogs.tif
102
RTVSPost2010PropOp54
 70
     1
102
RTVSPost2010Prop55
280
     0
102
RTVSPost2010PropOp55
 70
     1
102
RTVSPost2010Prop56
140
1.0
102
RTVSPost2010PropOp56
 70
     1
102
RTVSPost2010Prop57
140
1.0
102
RTVSPost2010PropOp57
 70
     1
102
RTVSPropertyOp0
 70
     1
102
RTVSPropertyOp1
 70
     1
102
RTVSPropertyOp2
 70
     1
102
RTVSPropertyOp3
 70
     1
102
RTVSPropertyOp4
 70
     1
102
RTVSPropertyOp5
 70
     1
102
RTVSPropertyOp6
 70
     1
102
RTVSPropertyOp7
 70
     1
102
RTVSPropertyOp8
 70
     1
102
RTVSPropertyOp9
 70
     1
102
RTVSPropertyOp10
 70
     1
102
RTVSPropertyOp11
 70
     1
102
RTVSPropertyOp12
 70
     1
102
RTVSPropertyOp13
 70
     1
102
RTVSPropertyOp14
 70
     1
102
RTVSPropertyOp15
 70
     1
102
RTVSPropertyOp16
 70
     1
102
RTVSPropertyOp17
 70
     1
102
RTVSPropertyOp18
 70
     1
102
RTVSPropertyOp19
 70
     1
102
RTVSPropertyOp20
 70
     1
102
RTVSPropertyOp21
 70
     1
102
RTVSPropertyOp22
 70
     1
102
RTVSPropertyOp23
 70
     1
102
RTVSPropertyOp24
 70
     1
102
RTVSPropertyOp25
 70
     1
102
RTVSPropertyOp26
 70
     1
102
RTVSPropertyOp27
 70
     1
102
RTVSPropertyOp28
 70
     1
102
RTVSPropertyOp29
 70
     1
102
RTVSPropertyOp30
 70
     1
102
RTVSPropertyOp31
 70
     1
102
RTVSPropertyOp32
 70
     1
102
RTVSPropertyOp33
 70
     1
102
RTVSPropertyOp34
 70
     1
102
RTVSPropertyOp35
 70
     1
102
RTVSPropertyOp36
 70
     1
102
RTVSPropertyOp37
 70
     1
102
RTVSPropertyOp38
 70
     1
102
RTVSPropertyOp39
 70
     1
102
RTVSPropertyOp40
 70
     1
102
RTVSPropertyOp41
 70
     1
102
RTVSPropertyOp42
 70
     1
102
RTVSPropertyOp43
 70
     1
102
RTVSPropertyOp44
 70
     1
102
RTVSPropertyOp45
 70
     1
102
RTVSPropertyOp46
 70
     1
102
RTVSPropertyOp47
 70
     1
102
RTVSPropertyOp48
 70
     1
102
RTVSPropertyOp49
 70
     1
102
RTVSPropertyOp50
 70
     1
102
RTVSPropertyOp51
 70
     0
102
RTVSPropertyOp52
 70
     0
102
RTVSPropertyOp53
 70
     1
102
RTVSPropertyOp54
 70
     1
102
RTVSPropertyOp55
 70
     1
102
RTVSPropertyOp56
 70
     1
102
RTVSPropertyOp57
 70
     1
102
RTVSPropertyOp58
 70
     1
102
RTVSPropertyOp59
 70
     1
102
RTVSPropertyOp60
 70
     1
102
RTVSPropertyOp61
 70
     1
102
RTVSPropertyOp62
 70
     1
  0
XRECORD
  5
9A34
102
{ACAD_REACTORS
330
9A33
102
}
330
9A33
100
AcDbXrecord
280
     1
102
RTVSPost2010Prop28
280
     0
102
RTVSPost2010PropOp28
 70
     1
102
RTVSPost2010Prop29
280
     1
102
RTVSPost2010PropOp29
 70
     1
102
RTVSPost2010Prop30
280
     1
102
RTVSPost2010PropOp30
 70
     1
102
RTVSPost2010Prop31
280
     0
102
RTVSPost2010PropOp31
 70
     1
102
RTVSPost2010Prop32
280
     0
102
RTVSPost2010PropOp32
 70
     1
102
RTVSPost2010Prop33
280
     0
102
RTVSPost2010PropOp33
 70
     1
102
RTVSPost2010Prop34
280
     0
102
RTVSPost2010PropOp34
 70
     1
102
RTVSPost2010Prop35
280
     0
102
RTVSPost2010PropOp35
 70
     1
102
RTVSPost2010Prop36
280
     0
102
RTVSPost2010PropOp36
 70
     1
102
RTVSPost2010Prop37
 90
       50
102
RTVSPost2010PropOp37
 70
     1
102
RTVSPost2010Prop38
140
0.0
102
RTVSPost2010PropOp38
 70
     1
102
RTVSPost2010Prop39
140
1.0
102
RTVSPost2010PropOp39
 70
     1
102
RTVSPost2010Prop40
 90
        0
102
RTVSPost2010PropOp40
 70
     1
102
RTVSPost2010Prop41ColorIndex
 90
       18
102
RTVSPost2010Prop41ColorRGB
 90
        0
102
RTVSPost2010PropOp41
 70
     1
102
RTVSPost2010Prop42
 90
       50
102
RTVSPost2010PropOp42
 70
     1
102
RTVSPost2010Prop43
 90
        3
102
RTVSPost2010PropOp43
 70
     1
102
RTVSPost2010Prop44ColorIndex
 90
        5
102
RTVSPost2010Prop44ColorRGB
 90
      255
102
RTVSPost2010PropOp44
 70
     1
102
RTVSPost2010Prop45
280
     0
102
RTVSPost2010PropOp45
 70
     1
102
RTVSPost2010Prop46
 90
       50
102
RTVSPost2010PropOp46
 70
     1
102
RTVSPost2010Prop47
 90
       50
102
RTVSPost2010PropOp47
 70
     1
102
RTVSPost2010Prop48
 90
       50
102
RTVSPost2010PropOp48
 70
     1
102
RTVSPost2010Prop49
280
     0
102
RTVSPost2010PropOp49
 70
     1
102
RTVSPost2010Prop50
 90
       50
102
RTVSPost2010PropOp50
 70
     1
102
RTVSPost2010Prop51ColorIndex
 90
      256
102
RTVSPost2010Prop51ColorRGB
 90
-16777216
102
RTVSPost2010PropOp51
 70
     0
102
RTVSPost2010Prop52
140
1.0
102
RTVSPost2010PropOp52
 70
     0
102
RTVSPost2010Prop53
 90
        2
102
RTVSPost2010PropOp53
 70
     1
102
RTVSPost2010Prop54
  1
strokes_ogs.tif
102
RTVSPost2010PropOp54
 70
     1
102
RTVSPost2010Prop55
280
     0
102
RTVSPost2010PropOp55
 70
     1
102
RTVSPost2010Prop56
140
1.0
102
RTVSPost2010PropOp56
 70
     1
102
RTVSPost2010Prop57
140
1.0
102
RTVSPost2010PropOp57
 70
     1
102
RTVSPropertyOp0
 70
     1
102
RTVSPropertyOp1
 70
     1
102
RTVSPropertyOp2
 70
     1
102
RTVSPropertyOp3
 70
     1
102
RTVSPropertyOp4
 70
     1
102
RTVSPropertyOp5
 70
     1
102
RTVSPropertyOp6
 70
     1
102
RTVSPropertyOp7
 70
     1
102
RTVSPropertyOp8
 70
     1
102
RTVSPropertyOp9
 70
     1
102
RTVSPropertyOp10
 70
     1
102
RTVSPropertyOp11
 70
     1
102
RTVSPropertyOp12
 70
     1
102
RTVSPropertyOp13
 70
     1
102
RTVSPropertyOp14
 70
     1
102
RTVSPropertyOp15
 70
     1
102
RTVSPropertyOp16
 70
     1
102
RTVSPropertyOp17
 70
     1
102
RTVSPropertyOp18
 70
     1
102
RTVSPropertyOp19
 70
     1
102
RTVSPropertyOp20
 70
     1
102
RTVSPropertyOp21
 70
     1
102
RTVSPropertyOp22
 70
     1
102
RTVSPropertyOp23
 70
     1
102
RTVSPropertyOp24
 70
     1
102
RTVSPropertyOp25
 70
     1
102
RTVSPropertyOp26
 70
     1
102
RTVSPropertyOp27
 70
     1
102
RTVSPropertyOp28
 70
     1
102
RTVSPropertyOp29
 70
     1
102
RTVSPropertyOp30
 70
     1
102
RTVSPropertyOp31
 70
     1
102
RTVSPropertyOp32
 70
     1
102
RTVSPropertyOp33
 70
     1
102
RTVSPropertyOp34
 70
     1
102
RTVSPropertyOp35
 70
     1
102
RTVSPropertyOp36
 70
     1
102
RTVSPropertyOp37
 70
     1
102
RTVSPropertyOp38
 70
     1
102
RTVSPropertyOp39
 70
     1
102
RTVSPropertyOp40
 70
     1
102
RTVSPropertyOp41
 70
     1
102
RTVSPropertyOp42
 70
     1
102
RTVSPropertyOp43
 70
     1
102
RTVSPropertyOp44
 70
     1
102
RTVSPropertyOp45
 70
     1
102
RTVSPropertyOp46
 70
     1
102
RTVSPropertyOp47
 70
     1
102
RTVSPropertyOp48
 70
     1
102
RTVSPropertyOp49
 70
     1
102
RTVSPropertyOp50
 70
     1
102
RTVSPropertyOp51
 70
     0
102
RTVSPropertyOp52
 70
     0
102
RTVSPropertyOp53
 70
     1
102
RTVSPropertyOp54
 70
     1
102
RTVSPropertyOp55
 70
     1
102
RTVSPropertyOp56
 70
     1
102
RTVSPropertyOp57
 70
     1
102
RTVSPropertyOp58
 70
     1
102
RTVSPropertyOp59
 70
     1
102
RTVSPropertyOp60
 70
     1
102
RTVSPropertyOp61
 70
     1
102
RTVSPropertyOp62
 70
     1
  0
XRECORD
  5
9A4C
102
{ACAD_REACTORS
330
9A4B
102
}
330
9A4B
100
AcDbXrecord
280
     1
102
RTVSPost2010Prop28
280
     0
102
RTVSPost2010PropOp28
 70
     1
102
RTVSPost2010Prop29
280
     1
102
RTVSPost2010PropOp29
 70
     1
102
RTVSPost2010Prop30
280
     1
102
RTVSPost2010PropOp30
 70
     1
102
RTVSPost2010Prop31
280
     0
102
RTVSPost2010PropOp31
 70
     1
102
RTVSPost2010Prop32
280
     0
102
RTVSPost2010PropOp32
 70
     1
102
RTVSPost2010Prop33
280
     0
102
RTVSPost2010PropOp33
 70
     1
102
RTVSPost2010Prop34
280
     0
102
RTVSPost2010PropOp34
 70
     1
102
RTVSPost2010Prop35
280
     0
102
RTVSPost2010PropOp35
 70
     1
102
RTVSPost2010Prop36
280
     0
102
RTVSPost2010PropOp36
 70
     1
102
RTVSPost2010Prop37
 90
       50
102
RTVSPost2010PropOp37
 70
     1
102
RTVSPost2010Prop38
140
0.0
102
RTVSPost2010PropOp38
 70
     1
102
RTVSPost2010Prop39
140
1.0
102
RTVSPost2010PropOp39
 70
     1
102
RTVSPost2010Prop40
 90
        0
102
RTVSPost2010PropOp40
 70
     1
102
RTVSPost2010Prop41ColorIndex
 90
       18
102
RTVSPost2010Prop41ColorRGB
 90
        0
102
RTVSPost2010PropOp41
 70
     1
102
RTVSPost2010Prop42
 90
       50
102
RTVSPost2010PropOp42
 70
     1
102
RTVSPost2010Prop43
 90
        3
102
RTVSPost2010PropOp43
 70
     1
102
RTVSPost2010Prop44ColorIndex
 90
        5
102
RTVSPost2010Prop44ColorRGB
 90
      255
102
RTVSPost2010PropOp44
 70
     1
102
RTVSPost2010Prop45
280
     0
102
RTVSPost2010PropOp45
 70
     1
102
RTVSPost2010Prop46
 90
       50
102
RTVSPost2010PropOp46
 70
     1
102
RTVSPost2010Prop47
 90
       50
102
RTVSPost2010PropOp47
 70
     1
102
RTVSPost2010Prop48
 90
       50
102
RTVSPost2010PropOp48
 70
     1
102
RTVSPost2010Prop49
280
     0
102
RTVSPost2010PropOp49
 70
     1
102
RTVSPost2010Prop50
 90
       50
102
RTVSPost2010PropOp50
 70
     1
102
RTVSPost2010Prop51ColorIndex
 90
      256
102
RTVSPost2010Prop51ColorRGB
 90
-16777216
102
RTVSPost2010PropOp51
 70
     0
102
RTVSPost2010Prop52
140
1.0
102
RTVSPost2010PropOp52
 70
     0
102
RTVSPost2010Prop53
 90
        2
102
RTVSPost2010PropOp53
 70
     1
102
RTVSPost2010Prop54
  1
strokes_ogs.tif
102
RTVSPost2010PropOp54
 70
     1
102
RTVSPost2010Prop55
280
     0
102
RTVSPost2010PropOp55
 70
     1
102
RTVSPost2010Prop56
140
1.0
102
RTVSPost2010PropOp56
 70
     1
102
RTVSPost2010Prop57
140
1.0
102
RTVSPost2010PropOp57
 70
     1
102
RTVSPropertyOp0
 70
     1
102
RTVSPropertyOp1
 70
     1
102
RTVSPropertyOp2
 70
     1
102
RTVSPropertyOp3
 70
     1
102
RTVSPropertyOp4
 70
     1
102
RTVSPropertyOp5
 70
     1
102
RTVSPropertyOp6
 70
     1
102
RTVSPropertyOp7
 70
     1
102
RTVSPropertyOp8
 70
     1
102
RTVSPropertyOp9
 70
     1
102
RTVSPropertyOp10
 70
     1
102
RTVSPropertyOp11
 70
     1
102
RTVSPropertyOp12
 70
     1
102
RTVSPropertyOp13
 70
     1
102
RTVSPropertyOp14
 70
     1
102
RTVSPropertyOp15
 70
     1
102
RTVSPropertyOp16
 70
     1
102
RTVSPropertyOp17
 70
     1
102
RTVSPropertyOp18
 70
     1
102
RTVSPropertyOp19
 70
     1
102
RTVSPropertyOp20
 70
     1
102
RTVSPropertyOp21
 70
     1
102
RTVSPropertyOp22
 70
     1
102
RTVSPropertyOp23
 70
     1
102
RTVSPropertyOp24
 70
     1
102
RTVSPropertyOp25
 70
     1
102
RTVSPropertyOp26
 70
     1
102
RTVSPropertyOp27
 70
     1
102
RTVSPropertyOp28
 70
     1
102
RTVSPropertyOp29
 70
     1
102
RTVSPropertyOp30
 70
     1
102
RTVSPropertyOp31
 70
     1
102
RTVSPropertyOp32
 70
     1
102
RTVSPropertyOp33
 70
     1
102
RTVSPropertyOp34
 70
     1
102
RTVSPropertyOp35
 70
     1
102
RTVSPropertyOp36
 70
     1
102
RTVSPropertyOp37
 70
     1
102
RTVSPropertyOp38
 70
     1
102
RTVSPropertyOp39
 70
     1
102
RTVSPropertyOp40
 70
     1
102
RTVSPropertyOp41
 70
     1
102
RTVSPropertyOp42
 70
     1
102
RTVSPropertyOp43
 70
     1
102
RTVSPropertyOp44
 70
     1
102
RTVSPropertyOp45
 70
     1
102
RTVSPropertyOp46
 70
     1
102
RTVSPropertyOp47
 70
     1
102
RTVSPropertyOp48
 70
     1
102
RTVSPropertyOp49
 70
     1
102
RTVSPropertyOp50
 70
     1
102
RTVSPropertyOp51
 70
     0
102
RTVSPropertyOp52
 70
     0
102
RTVSPropertyOp53
 70
     1
102
RTVSPropertyOp54
 70
     1
102
RTVSPropertyOp55
 70
     1
102
RTVSPropertyOp56
 70
     1
102
RTVSPropertyOp57
 70
     1
102
RTVSPropertyOp58
 70
     1
102
RTVSPropertyOp59
 70
     1
102
RTVSPropertyOp60
 70
     1
102
RTVSPropertyOp61
 70
     1
102
RTVSPropertyOp62
 70
     1
  0
ENDSEC
  0
EOF
