  0
SECTION
  2
HEADER
  9
$ACADVER
  1
AC1015
  9
$ACADMAINTVER
 70
    20
  9
$DWGCODEPAGE
  3
ANSI_932
  9
$INSBASE
 10
0.0
 20
0.0
 30
0.0
  9
$EXTMIN
 10
10.0
 20
9.999999999999998
 30
0.0
  9
$EXTMAX
 10
366.0045479999998
 20
237.5886369999999
 30
0.0
  9
$LIMMIN
 10
0.0
 20
0.0
  9
$LIMMAX
 10
396.0
 20
273.0
  9
$ORTHOMODE
 70
     1
  9
$REGENMODE
 70
     1
  9
$FILLMODE
 70
     1
  9
$QTEXTMODE
 70
     0
  9
$MIRRTEXT
 70
     1
  9
$LTSCALE
 40
20.0
  9
$ATTMODE
 70
     1
  9
$TEXTSIZE
 40
5.0
  9
$TRACEWID
 40
1.0
  9
$TEXTSTYLE
  7
STANDARD
  9
$CLAYER
  8
0
  9
$CELTYPE
  6
BYLAYER
  9
$CECOLOR
 62
   256
  9
$CELTSCALE
 40
1.0
  9
$DISPSILH
 70
     0
  9
$DIMSCALE
 40
1.0
  9
$DIMASZ
 40
3.0
  9
$DIMEXO
 40
1.0
  9
$DIMDLI
 40
10.0
  9
$DIMRND
 40
0.0
  9
$DIMDLE
 40
0.0
  9
$DIMEXE
 40
1.0
  9
$DIMTP
 40
0.0
  9
$DIMTM
 40
0.0
  9
$DIMTXT
 40
3.2
  9
$DIMCEN
 40
0.0
  9
$DIMTSZ
 40
0.0
  9
$DIMTOL
 70
     0
  9
$DIMLIM
 70
     0
  9
$DIMTIH
 70
     0
  9
$DIMTOH
 70
     0
  9
$DIMSE1
 70
     0
  9
$DIMSE2
 70
     0
  9
$DIMTAD
 70
     3
  9
$DIMZIN
 70
     8
  9
$DIMBLK
  1

  9
$DIMASO
 70
     1
  9
$DIMSHO
 70
     1
  9
$DIMPOST
  1

  9
$DIMAPOST
  1

  9
$DIMALT
 70
     0
  9
$DIMALTD
 70
     2
  9
$DIMALTF
 40
25.4
  9
$DIMLFAC
 40
1.0
  9
$DIMTOFL
 70
     1
  9
$DIMTVP
 40
0.0
  9
$DIMTIX
 70
     0
  9
$DIMSOXD
 70
     0
  9
$DIMSAH
 70
     1
  9
$DIMBLK1
  1

  9
$DIMBLK2
  1

  9
$DIMSTYLE
  2
STANDARD
  9
$DIMCLRD
 70
     0
  9
$DIMCLRE
 70
     0
  9
$DIMCLRT
 70
     0
  9
$DIMTFAC
 40
1.0
  9
$DIMGAP
 40
1.0
  9
$DIMJUST
 70
     0
  9
$DIMSD1
 70
     0
  9
$DIMSD2
 70
     0
  9
$DIMTOLJ
 70
     1
  9
$DIMTZIN
 70
     0
  9
$DIMALTZ
 70
     0
  9
$DIMALTTZ
 70
     0
  9
$DIMUPT
 70
     0
  9
$DIMDEC
 70
     4
  9
$DIMTDEC
 70
     4
  9
$DIMALTU
 70
     2
  9
$DIMALTTD
 70
     2
  9
$DIMTXSTY
  7
STANDARD
  9
$DIMAUNIT
 70
     0
  9
$DIMADEC
 70
     0
  9
$DIMALTRND
 40
0.0
  9
$DIMAZIN
 70
     0
  9
$DIMDSEP
 70
    46
  9
$DIMATFIT
 70
     3
  9
$DIMFRAC
 70
     0
  9
$DIMLDRBLK
  1

  9
$DIMLUNIT
 70
     2
  9
$DIMLWD
 70
    -2
  9
$DIMLWE
 70
    -2
  9
$DIMTMOVE
 70
     0
  9
$LUNITS
 70
     2
  9
$LUPREC
 70
     4
  9
$SKETCHINC
 40
1.0
  9
$FILLETRAD
 40
2.5
  9
$AUNITS
 70
     0
  9
$AUPREC
 70
     2
  9
$MENU
  1
.
  9
$ELEVATION
 40
0.0
  9
$PELEVATION
 40
0.0
  9
$THICKNESS
 40
0.0
  9
$LIMCHECK
 70
     0
  9
$CHAMFERA
 40
10.0
  9
$CHAMFERB
 40
10.0
  9
$CHAMFERC
 40
0.0
  9
$CHAMFERD
 40
0.0
  9
$SKPOLY
 70
     0
  9
$TDCREATE
 40
2450945.562597801
  9
$TDUCREATE
 40
2450945.187597801
  9
$TDUPDATE
 40
2457192.598954630
  9
$TDUUPDATE
 40
2457192.223954629
  9
$TDINDWG
 40
0.0000143866
  9
$TDUSRTIMER
 40
0.0000139005
  9
$USRTIMER
 70
     1
  9
$ANGBASE
 50
0.0
  9
$ANGDIR
 70
     0
  9
$PDMODE
 70
     0
  9
$PDSIZE
 40
0.0
  9
$PLINEWID
 40
0.0
  9
$SPLFRAME
 70
     0
  9
$SPLINETYPE
 70
     6
  9
$SPLINESEGS
 70
     8
  9
$HANDSEED
  5
9AE0
  9
$SURFTAB1
 70
     6
  9
$SURFTAB2
 70
     6
  9
$SURFTYPE
 70
     6
  9
$SURFU
 70
     6
  9
$SURFV
 70
     6
  9
$UCSBASE
  2

  9
$UCSNAME
  2

  9
$UCSORG
 10
0.0
 20
0.0
 30
0.0
  9
$UCSXDIR
 10
1.0
 20
0.0
 30
0.0
  9
$UCSYDIR
 10
0.0
 20
1.0
 30
0.0
  9
$UCSORTHOREF
  2

  9
$UCSORTHOVIEW
 70
     0
  9
$UCSORGTOP
 10
0.0
 20
0.0
 30
0.0
  9
$UCSORGBOTTOM
 10
0.0
 20
0.0
 30
0.0
  9
$UCSORGLEFT
 10
0.0
 20
0.0
 30
0.0
  9
$UCSORGRIGHT
 10
0.0
 20
0.0
 30
0.0
  9
$UCSORGFRONT
 10
0.0
 20
0.0
 30
0.0
  9
$UCSORGBACK
 10
0.0
 20
0.0
 30
0.0
  9
$PUCSBASE
  2

  9
$PUCSNAME
  2

  9
$PUCSORG
 10
0.0
 20
0.0
 30
0.0
  9
$PUCSXDIR
 10
1.0
 20
0.0
 30
0.0
  9
$PUCSYDIR
 10
0.0
 20
1.0
 30
0.0
  9
$PUCSORTHOREF
  2

  9
$PUCSORTHOVIEW
 70
     0
  9
$PUCSORGTOP
 10
0.0
 20
0.0
 30
0.0
  9
$PUCSORGBOTTOM
 10
0.0
 20
0.0
 30
0.0
  9
$PUCSORGLEFT
 10
0.0
 20
0.0
 30
0.0
  9
$PUCSORGRIGHT
 10
0.0
 20
0.0
 30
0.0
  9
$PUCSORGFRONT
 10
0.0
 20
0.0
 30
0.0
  9
$PUCSORGBACK
 10
0.0
 20
0.0
 30
0.0
  9
$USERI1
 70
     0
  9
$USERI2
 70
     0
  9
$USERI3
 70
     0
  9
$USERI4
 70
     0
  9
$USERI5
 70
     0
  9
$USERR1
 40
0.0
  9
$USERR2
 40
0.0
  9
$USERR3
 40
0.0
  9
$USERR4
 40
0.0
  9
$USERR5
 40
0.0
  9
$WORLDVIEW
 70
     1
  9
$SHADEDGE
 70
     3
  9
$SHADEDIF
 70
    70
  9
$TILEMODE
 70
     1
  9
$MAXACTVP
 70
    16
  9
$PINSBASE
 10
0.0
 20
0.0
 30
0.0
  9
$PLIMCHECK
 70
     0
  9
$PEXTMIN
 10
1.000000000000000E+20
 20
1.000000000000000E+20
 30
1.000000000000000E+20
  9
$PEXTMAX
 10
-1.000000000000000E+20
 20
-1.000000000000000E+20
 30
-1.000000000000000E+20
  9
$PLIMMIN
 10
0.0
 20
0.0
  9
$PLIMMAX
 10
420.0
 20
297.0
  9
$UNITMODE
 70
     0
  9
$VISRETAIN
 70
     0
  9
$PLINEGEN
 70
     0
  9
$PSLTSCALE
 70
     0
  9
$TREEDEPTH
 70
  3020
  9
$CMLSTYLE
  2
STANDARD
  9
$CMLJUST
 70
     0
  9
$CMLSCALE
 40
1.0
  9
$PROXYGRAPHICS
 70
     1
  9
$MEASUREMENT
 70
     0
  9
$CELWEIGHT
370
    -1
  9
$ENDCAPS
280
     0
  9
$JOINSTYLE
280
     0
  9
$LWDISPLAY
290
     0
  9
$INSUNITS
 70
     0
  9
$HYPERLINKBASE
  1

  9
$STYLESHEET
  1

  9
$XEDIT
290
     1
  9
$CEPSNTYPE
380
     0
  9
$PSTYLEMODE
290
     1
  9
$FINGERPRINTGUID
  2
{A4D3F5B4-DD7E-45B5-9EB0-7A860C1D240A}
  9
$VERSIONGUID
  2
{F1199202-5D39-4478-A6DC-97866B7157BB}
  9
$EXTNAMES
290
     1
  9
$PSVPSCALE
 40
0.0
  9
$OLESTARTUP
290
     0
  0
ENDSEC
  0
SECTION
  2
CLASSES
  0
CLASS
  1
ACDBDICTIONARYWDFLT
  2
AcDbDictionaryWithDefault
  3
ObjectDBX Classes
 90
        0
280
     0
281
     0
  0
CLASS
  1
ACDBPLACEHOLDER
  2
AcDbPlaceHolder
  3
ObjectDBX Classes
 90
        0
280
     0
281
     0
  0
CLASS
  1
LAYOUT
  2
AcDbLayout
  3
ObjectDBX Classes
 90
        0
280
     0
281
     0
  0
CLASS
  1
DICTIONARYVAR
  2
AcDbDictionaryVar
  3
ObjectDBX Classes
 90
        0
280
     0
281
     0
  0
CLASS
  1
MATERIAL
  2
AcDbMaterial
  3
ObjectDBX Classes
 90
     1153
280
     0
281
     0
  0
CLASS
  1
VISUALSTYLE
  2
AcDbVisualStyle
  3
ObjectDBX Classes
 90
     4095
280
     0
281
     0
  0
CLASS
  1
TABLESTYLE
  2
AcDbTableStyle
  3
ObjectDBX Classes
 90
     4095
280
     0
281
     0
  0
CLASS
  1
SCALE
  2
AcDbScale
  3
ObjectDBX Classes
 90
     1153
280
     0
281
     0
  0
CLASS
  1
MLEADERSTYLE
  2
AcDbMLeaderStyle
  3
ACDB_MLEADERSTYLE_CLASS
 90
     4095
280
     0
281
     0
  0
CLASS
  1
ACDBSECTIONVIEWSTYLE
  2
AcDbSectionViewStyle
  3
ObjectDBX Classes
 90
     1025
280
     0
281
     0
  0
CLASS
  1
ACDBDETAILVIEWSTYLE
  2
AcDbDetailViewStyle
  3
ObjectDBX Classes
 90
     1025
280
     0
281
     0
  0
CLASS
  1
CELLSTYLEMAP
  2
AcDbCellStyleMap
  3
ObjectDBX Classes
 90
     1152
280
     0
281
     0
  0
ENDSEC
  0
SECTION
  2
TABLES
  0
TABLE
  2
VPORT
  5
976C
330
0
100
AcDbSymbolTable
 70
     1
  0
VPORT
  5
9A29
330
976C
100
AcDbSymbolTableRecord
100
AcDbViewportTableRecord
  2
*ACTIVE
 70
     0
 10
0.0
 20
0.0
 11
1.0
 21
1.0
 12
256.9389859965657
 22
123.7947699079461
 13
0.0
 23
0.0
 14
10.0
 24
10.0
 15
10.0
 25
10.0
 16
0.0
 26
0.0
 36
1.0
 17
0.0
 27
0.0
 37
0.0
 40
230.1567813630449
 41
1.899603698811096
 42
50.0
 43
0.0
 44
0.0
 50
0.0
 51
0.0
 71
     0
 72
   100
 73
     1
 74
     0
 75
     0
 76
     0
 77
     0
 78
     0
281
     0
 65
     1
110
0.0
120
0.0
130
0.0
111
1.0
121
0.0
131
0.0
112
0.0
122
1.0
132
0.0
 79
     0
146
0.0
1001
ACAD_NAV_VCDISPLAY
1070
     3
  0
ENDTAB
  0
TABLE
  2
LTYPE
  5
9769
330
0
100
AcDbSymbolTable
 70
     4
  0
LTYPE
  5
9777
330
9769
100
AcDbSymbolTableRecord
100
AcDbLinetypeTableRecord
  2
BYBLOCK
 70
     0
  3

 72
    65
 73
     0
 40
0.0
  0
LTYPE
  5
9778
330
9769
100
AcDbSymbolTableRecord
100
AcDbLinetypeTableRecord
  2
BYLAYER
 70
     0
  3

 72
    65
 73
     0
 40
0.0
  0
LTYPE
  5
9779
330
9769
100
AcDbSymbolTableRecord
100
AcDbLinetypeTableRecord
  2
CONTINUOUS
 70
     0
  3
Solid line
 72
    65
 73
     0
 40
0.0
  0
LTYPE
  5
9787
330
9769
100
AcDbSymbolTableRecord
100
AcDbLinetypeTableRecord
  2
DASHED
 70
     0
  3
__ __ __ __ __ __ __ __ __ __ __ __ __ __ __ __
 72
    65
 73
     2
 40
0.75
 49
0.5
 74
     0
 49
-0.25
 74
     0
  0
LTYPE
  5
9788
330
9769
100
AcDbSymbolTableRecord
100
AcDbLinetypeTableRecord
  2
CENTER
 70
     0
  3
____ _ ____ _ ____ _ ____ _ ____ _ ____ _ ____ 
 72
    65
 73
     4
 40
2.0
 49
1.25
 74
     0
 49
-0.25
 74
     0
 49
0.25
 74
     0
 49
-0.25
 74
     0
  0
LTYPE
  5
9789
330
9769
100
AcDbSymbolTableRecord
100
AcDbLinetypeTableRecord
  2
PHANTOM
 70
     0
  3
______  __  __  ______  __  __  ______  __  __ 
 72
    65
 73
     6
 40
2.5
 49
1.25
 74
     0
 49
-0.25
 74
     0
 49
0.25
 74
     0
 49
-0.25
 74
     0
 49
0.25
 74
     0
 49
-0.25
 74
     0
  0
ENDTAB
  0
TABLE
  2
LAYER
  5
9766
330
0
100
AcDbSymbolTable
 70
     8
  0
LAYER
  5
9774
102
{ACAD_XDICTIONARY
360
9A84
102
}
330
9766
100
AcDbSymbolTableRecord
100
AcDbLayerTableRecord
  2
0
 70
     0
 62
     7
  6
CONTINUOUS
370
    -3
390
9A32
  0
LAYER
  5
978A
102
{ACAD_XDICTIONARY
360
9A86
102
}
330
9766
100
AcDbSymbolTableRecord
100
AcDbLayerTableRecord
  2
4
 70
     0
 62
     1
  6
CENTER
370
    -3
390
9A32
  0
LAYER
  5
978B
102
{ACAD_XDICTIONARY
360
9A88
102
}
330
9766
100
AcDbSymbolTableRecord
100
AcDbLayerTableRecord
  2
5
 70
     0
 62
     6
  6
PHANTOM
370
    -3
390
9A32
  0
LAYER
  5
978C
102
{ACAD_XDICTIONARY
360
9A8A
102
}
330
9766
100
AcDbSymbolTableRecord
100
AcDbLayerTableRecord
  2
1
 70
     0
 62
     7
  6
CONTINUOUS
370
    -3
390
9A32
  0
LAYER
  5
978D
102
{ACAD_XDICTIONARY
360
9A8C
102
}
330
9766
100
AcDbSymbolTableRecord
100
AcDbLayerTableRecord
  2
2
 70
     0
 62
     4
  6
CONTINUOUS
370
    -3
390
9A32
  0
LAYER
  5
978E
102
{ACAD_XDICTIONARY
360
9A8E
102
}
330
9766
100
AcDbSymbolTableRecord
100
AcDbLayerTableRecord
  2
3
 70
     0
 62
     2
  6
DASHED
370
    -3
390
9A32
  0
LAYER
  5
978F
102
{ACAD_XDICTIONARY
360
9A90
102
}
330
9766
100
AcDbSymbolTableRecord
100
AcDbLayerTableRecord
  2
6
 70
     0
 62
     5
  6
CONTINUOUS
370
    -3
390
9A32
  0
LAYER
  5
9790
102
{ACAD_XDICTIONARY
360
9A92
102
}
330
9766
100
AcDbSymbolTableRecord
100
AcDbLayerTableRecord
  2
7
 70
     0
 62
     3
  6
CONTINUOUS
370
    -3
390
9A32
  0
ENDTAB
  0
TABLE
  2
STYLE
  5
9767
330
0
100
AcDbSymbolTable
 70
     1
  0
STYLE
  5
9775
330
9767
100
AcDbSymbolTableRecord
100
AcDbTextStyleTableRecord
  2
STANDARD
 70
     0
 40
0.0
 41
1.0
 50
0.0
 71
     0
 42
5.0
  3
txt
  4

  0
ENDTAB
  0
TABLE
  2
VIEW
  5
976A
330
0
100
AcDbSymbolTable
 70
     0
  0
ENDTAB
  0
TABLE
  2
UCS
  5
976B
330
0
100
AcDbSymbolTable
 70
     0
  0
ENDTAB
  0
TABLE
  2
APPID
  5
976D
330
0
100
AcDbSymbolTable
 70
     3
  0
APPID
  5
9776
330
976D
100
AcDbSymbolTableRecord
100
AcDbRegAppTableRecord
  2
ACAD
 70
     0
  0
APPID
  5
9A9E
330
976D
100
AcDbSymbolTableRecord
100
AcDbRegAppTableRecord
  2
ACAD_NAV_VCDISPLAY
 70
     0
  0
APPID
  5
9AD7
330
976D
100
AcDbSymbolTableRecord
100
AcDbRegAppTableRecord
  2
ACAD_MLEADERVER
 70
     0
  0
ENDTAB
  0
TABLE
  2
DIMSTYLE
  5
976E
330
0
100
AcDbSymbolTable
 70
     1
100
AcDbDimStyleTable
 71
     0
  0
DIMSTYLE
105
9792
330
976E
100
AcDbSymbolTableRecord
100
AcDbDimStyleTableRecord
  2
STANDARD
 70
     0
 41
3.0
 42
1.0
 43
10.0
 44
1.0
 73
     0
 74
     0
 77
     3
 78
     8
140
3.2
141
0.0
147
1.0
172
     1
173
     1
284
     8
285
     8
286
     8
340
9775
  0
ENDTAB
  0
TABLE
  2
BLOCK_RECORD
  5
9765
330
0
100
AcDbSymbolTable
 70
     0
  0
BLOCK_RECORD
  5
9782
102
{ACAD_XDICTIONARY
360
9A2C
102
}
330
9765
100
AcDbSymbolTableRecord
100
AcDbBlockTableRecord
  2
*MODEL_SPACE
340
9A80
  0
BLOCK_RECORD
  5
977E
102
{ACAD_XDICTIONARY
360
9A2A
102
}
330
9765
100
AcDbSymbolTableRecord
100
AcDbBlockTableRecord
  2
*PAPER_SPACE
340
9A81
  0
ENDTAB
  0
ENDSEC
  0
SECTION
  2
BLOCKS
  0
BLOCK
  5
9783
330
9782
100
AcDbEntity
  8
0
100
AcDbBlockBegin
  2
*MODEL_SPACE
 70
     0
 10
0.0
 20
0.0
 30
0.0
  3
*MODEL_SPACE
  1

  0
ENDBLK
  5
9784
330
9782
100
AcDbEntity
  8
0
100
AcDbBlockEnd
  0
BLOCK
  5
977F
330
977E
100
AcDbEntity
 67
     1
  8
0
100
AcDbBlockBegin
  2
*PAPER_SPACE
 70
     0
 10
0.0
 20
0.0
 30
0.0
  3
*PAPER_SPACE
  1

  0
ENDBLK
  5
9780
330
977E
100
AcDbEntity
 67
     1
  8
0
100
AcDbBlockEnd
  0
ENDSEC
  0
SECTION
  2
ENTITIES
  0
TEXT
  5
979A
330
9782
100
AcDbEntity
  8
7
  6
Continuous
100
AcDbText
 10
10.0
 20
18.0
 30
0.0
 40
3.0
  1
TYPE No.TL-142-2
100
AcDbText
  0
TEXT
  5
979B
330
9782
100
AcDbEntity
  8
7
  6
Continuous
100
AcDbText
 10
10.0
 20
26.0
 30
0.0
 40
3.0
  1
CODE No.1485
100
AcDbText
  0
TEXT
  5
979C
330
9782
100
AcDbEntity
  8
1
  6
Continuous
100
AcDbText
 10
10.0
 20
10.0
 30
0.0
 40
1.399999999999999
  1
LAYER
100
AcDbText
  0
TEXT
  5
979D
330
9782
100
AcDbEntity
  8
1
  6
Continuous
100
AcDbText
 10
17.97951099999998
 20
10.04873699999998
 30
0.0
 40
1.399999999999999
  1
1
100
AcDbText
  0
TEXT
  5
979E
330
9782
100
AcDbEntity
  8
7
  6
Continuous
100
AcDbText
 10
29.97951099999999
 20
10.04873699999998
 30
0.0
 40
1.399999999999999
  1
7
100
AcDbText
  0
TEXT
  5
979F
330
9782
100
AcDbEntity
  8
4
  6
CENTER
100
AcDbText
 10
23.97951099999999
 20
10.04873699999998
 30
0.0
 40
1.399999999999999
  1
4
100
AcDbText
  0
TEXT
  5
97A0
330
9782
100
AcDbEntity
  8
3
  6
DASHED
100
AcDbText
 10
21.979511
 20
10.04873699999998
 30
0.0
 40
1.399999999999999
  1
3
100
AcDbText
  0
TEXT
  5
97A1
330
9782
100
AcDbEntity
  8
2
  6
Continuous
100
AcDbText
 10
19.97951099999999
 20
10.04873699999998
 30
0.0
 40
1.399999999999999
  1
2
100
AcDbText
  0
TEXT
  5
97A2
330
9782
100
AcDbEntity
  8
6
  6
Continuous
100
AcDbText
 10
27.979511
 20
10.04873699999998
 30
0.0
 40
1.399999999999999
  1
6
100
AcDbText
  0
TEXT
  5
97A3
330
9782
100
AcDbEntity
  8
5
  6
PHANTOM
100
AcDbText
 10
25.97951099999999
 20
10.04873699999998
 30
0.0
 40
1.399999999999999
  1
5
100
AcDbText
  0
LINE
  5
97A4
330
9782
100
AcDbEntity
  8
1
  6
Continuous
100
AcDbLine
 10
58.51306199999999
 20
223.0886369999999
 30
0.0
 11
37.01306199999999
 21
223.0886369999999
 31
0.0
  0
LINE
  5
97A5
330
9782
100
AcDbEntity
  8
1
  6
Continuous
100
AcDbLine
 10
37.01306199999999
 20
223.0886369999999
 30
0.0
 11
37.01306199999999
 21
227.588637
 31
0.0
  0
LINE
  5
97A6
330
9782
100
AcDbEntity
  8
1
  6
Continuous
100
AcDbLine
 10
37.01306199999999
 20
227.588637
 30
0.0
 11
41.51306199999999
 21
227.588637
 31
0.0
  0
LINE
  5
97A7
330
9782
100
AcDbEntity
  8
4
  6
CENTER
100
AcDbLine
 10
34.013062
 20
110.1397689999999
 30
0.0
 11
34.013062
 21
158.8057389999999
 31
0.0
  0
LINE
  5
97A8
330
9782
100
AcDbEntity
  8
4
  6
CENTER
100
AcDbLine
 10
32.01306199999999
 20
149.8534229999999
 30
0.0
 11
32.01306199999999
 21
143.8868999999999
 31
0.0
  0
LINE
  5
97A9
330
9782
100
AcDbEntity
  8
4
  6
CENTER
100
AcDbLine
 10
34.736237
 20
147.002272
 30
0.0
 11
29.19881099999999
 21
147.002272
 31
0.0
  0
LINE
  5
97AA
330
9782
100
AcDbEntity
  8
4
  6
CENTER
100
AcDbLine
 10
38.858887
 20
147.002272
 30
0.0
 11
44.257165
 21
147.002272
 31
0.0
  0
LINE
  5
97AB
330
9782
100
AcDbEntity
  8
4
  6
CENTER
100
AcDbLine
 10
41.51306199999999
 20
149.8534229999999
 30
0.0
 11
41.51306199999999
 21
143.8868999999999
 31
0.0
  0
LINE
  5
97AC
330
9782
100
AcDbEntity
  8
4
  6
CENTER
100
AcDbLine
 10
36.675374
 20
126.5022719999999
 30
0.0
 11
31.287617
 21
126.5022719999999
 31
0.0
  0
LINE
  5
97AD
330
9782
100
AcDbEntity
  8
4
  6
CENTER
100
AcDbLine
 10
16.615371
 20
128.702269
 30
0.0
 11
52.218049
 21
128.702269
 31
0.0
  0
LINE
  5
97AE
330
9782
100
AcDbEntity
  8
1
  6
Continuous
100
AcDbLine
 10
44.513062
 20
117.702269
 30
0.0
 11
40.941266
 21
117.702269
 31
0.0
  0
LINE
  5
97AF
330
9782
100
AcDbEntity
  8
1
  6
Continuous
100
AcDbLine
 10
47.013062
 20
120.2022689999999
 30
0.0
 11
47.013062
 21
154.5022689999998
 31
0.0
  0
LINE
  5
97B0
330
9782
100
AcDbEntity
  8
1
  6
Continuous
100
AcDbLine
 10
47.013062
 20
154.5022689999998
 30
0.0
 11
28.15376699999999
 21
154.5022689999998
 31
0.0
  0
LINE
  5
97B1
330
9782
100
AcDbEntity
  8
1
  6
Continuous
100
AcDbLine
 10
28.01306199999999
 20
154.5022689999998
 30
0.0
 11
28.01306199999999
 21
153.2022689999998
 31
0.0
  0
LINE
  5
97B2
330
9782
100
AcDbEntity
  8
1
  6
Continuous
100
AcDbLine
 10
25.51306199999999
 20
153.2022689999998
 30
0.0
 11
44.513062
 21
153.2022689999998
 31
0.0
  0
LINE
  5
97B3
330
9782
100
AcDbEntity
  8
1
  6
Continuous
100
AcDbLine
 10
43.76472899999998
 20
148.302275
 30
0.0
 11
43.76472899999998
 21
145.702269
 31
0.0
  0
LINE
  5
97B4
330
9782
100
AcDbEntity
  8
1
  6
Continuous
100
AcDbLine
 10
43.76473299999999
 20
145.702269
 30
0.0
 11
41.51306199999999
 21
144.4022659999999
 31
0.0
  0
LINE
  5
97B5
330
9782
100
AcDbEntity
  8
1
  6
Continuous
100
AcDbLine
 10
41.51306599999997
 20
144.4022809999999
 30
0.0
 11
39.261403
 21
145.702269
 31
0.0
  0
LINE
  5
97B6
330
9782
100
AcDbEntity
  8
1
  6
Continuous
100
AcDbLine
 10
39.26139899999999
 20
145.702269
 30
0.0
 11
39.26139899999999
 21
148.302275
 31
0.0
  0
LINE
  5
97B7
330
9782
100
AcDbEntity
  8
1
  6
Continuous
100
AcDbLine
 10
39.261395
 20
148.302275
 30
0.0
 11
41.51306599999997
 21
149.602278
 31
0.0
  0
LINE
  5
97B8
330
9782
100
AcDbEntity
  8
1
  6
Continuous
100
AcDbLine
 10
41.51306599999997
 20
149.602278
 30
0.0
 11
43.76472899999998
 21
148.302275
 31
0.0
  0
LINE
  5
97B9
330
9782
100
AcDbEntity
  8
1
  6
Continuous
100
AcDbLine
 10
34.26472899999998
 20
148.302275
 30
0.0
 11
34.26472899999998
 21
145.702269
 31
0.0
  0
LINE
  5
97BA
330
9782
100
AcDbEntity
  8
1
  6
Continuous
100
AcDbLine
 10
34.26472899999998
 20
145.702269
 30
0.0
 11
32.01306199999999
 21
144.4022659999999
 31
0.0
  0
LINE
  5
97BB
330
9782
100
AcDbEntity
  8
1
  6
Continuous
100
AcDbLine
 10
32.01306599999998
 20
144.4022809999999
 30
0.0
 11
29.761403
 21
145.702269
 31
0.0
  0
LINE
  5
97BC
330
9782
100
AcDbEntity
  8
1
  6
Continuous
100
AcDbLine
 10
29.761399
 20
145.702269
 30
0.0
 11
29.761399
 21
148.302275
 31
0.0
  0
LINE
  5
97BD
330
9782
100
AcDbEntity
  8
1
  6
Continuous
100
AcDbLine
 10
29.761395
 20
148.302275
 30
0.0
 11
32.01306199999999
 21
149.602278
 31
0.0
  0
LINE
  5
97BE
330
9782
100
AcDbEntity
  8
1
  6
Continuous
100
AcDbLine
 10
32.01306599999998
 20
149.602278
 30
0.0
 11
34.26472899999998
 21
148.302275
 31
0.0
  0
LINE
  5
97BF
330
9782
100
AcDbEntity
  8
1
  6
Continuous
100
AcDbLine
 10
34.613065
 20
131.7650739999999
 30
0.0
 11
34.613065
 21
127.265074
 31
0.0
  0
LINE
  5
97C0
330
9782
100
AcDbEntity
  8
1
  6
Continuous
100
AcDbLine
 10
34.613065
 20
127.265074
 30
0.0
 11
35.013062
 21
127.265074
 31
0.0
  0
LINE
  5
97C1
330
9782
100
AcDbEntity
  8
1
  6
Continuous
100
AcDbLine
 10
35.013062
 20
127.265074
 30
0.0
 11
35.013062
 21
123.803297
 31
0.0
  0
LINE
  5
97C2
330
9782
100
AcDbEntity
  8
1
  6
Continuous
100
AcDbLine
 10
33.01306199999999
 20
123.803297
 30
0.0
 11
33.01306199999999
 21
127.265074
 31
0.0
  0
LINE
  5
97C3
330
9782
100
AcDbEntity
  8
1
  6
Continuous
100
AcDbLine
 10
33.01306199999999
 20
127.265074
 30
0.0
 11
33.413064
 21
127.265074
 31
0.0
  0
LINE
  5
97C4
330
9782
100
AcDbEntity
  8
1
  6
Continuous
100
AcDbLine
 10
33.413064
 20
127.265074
 30
0.0
 11
33.413064
 21
131.7650739999999
 31
0.0
  0
LINE
  5
97C5
330
9782
100
AcDbEntity
  8
1
  6
Continuous
100
AcDbLine
 10
33.413064
 20
131.7650739999999
 30
0.0
 11
34.613065
 21
131.7650739999999
 31
0.0
  0
LINE
  5
97C6
330
9782
100
AcDbEntity
  8
1
  6
Continuous
100
AcDbLine
 10
23.013064
 20
136.2078229999999
 30
0.0
 11
23.013064
 21
150.702269
 31
0.0
  0
LINE
  5
97C7
330
9782
100
AcDbEntity
  8
1
  6
Continuous
100
AcDbLine
 10
17.01306399999999
 20
220.5886369999999
 30
0.0
 11
18.513064
 21
220.5886369999999
 31
0.0
  0
LINE
  5
97C8
330
9782
100
AcDbEntity
  8
1
  6
Continuous
100
AcDbLine
 10
19.013064
 20
221.088637
 30
0.0
 11
19.013064
 21
228.088637
 31
0.0
  0
LINE
  5
97C9
330
9782
100
AcDbEntity
  8
1
  6
Continuous
100
AcDbLine
 10
18.513064
 20
228.588637
 30
0.0
 11
17.01306399999999
 21
228.588637
 31
0.0
  0
LINE
  5
97CA
330
9782
100
AcDbEntity
  8
1
  6
Continuous
100
AcDbLine
 10
16.513064
 20
228.088637
 30
0.0
 11
16.513064
 21
221.088637
 31
0.0
  0
LINE
  5
97CB
330
9782
100
AcDbEntity
  8
1
  6
Continuous
100
AcDbLine
 10
19.58343
 20
212.5886369999999
 30
0.0
 11
23.84639799999999
 21
212.5886369999999
 31
0.0
  0
LINE
  5
97CC
330
9782
100
AcDbEntity
  8
1
  6
Continuous
100
AcDbLine
 10
25.046403
 20
212.9886459999999
 30
0.0
 11
34.51306599999998
 21
220.088637
 31
0.0
  0
LINE
  5
97CD
330
9782
100
AcDbEntity
  8
1
  6
Continuous
100
AcDbLine
 10
34.51306199999999
 20
220.088637
 30
0.0
 11
55.72016999999998
 21
220.088637
 31
0.0
  0
LINE
  5
97CE
330
9782
100
AcDbEntity
  8
1
  6
Continuous
100
AcDbLine
 10
55.72017699999999
 20
220.088637
 30
0.0
 11
58.366616
 21
222.7350749999998
 31
0.0
  0
LINE
  5
97CF
330
9782
100
AcDbEntity
  8
1
  6
Continuous
100
AcDbLine
 10
58.366624
 20
223.442183
 30
0.0
 11
55.67016699999999
 21
226.1386399999999
 31
0.0
  0
LINE
  5
97D0
330
9782
100
AcDbEntity
  8
1
  6
Continuous
100
AcDbLine
 10
43.01306199999999
 20
226.1386399999999
 30
0.0
 11
43.01306199999999
 21
226.788634
 31
0.0
  0
LINE
  5
97D1
330
9782
100
AcDbEntity
  8
1
  6
Continuous
100
AcDbLine
 10
42.513062
 20
227.2886339999999
 30
0.0
 11
41.51306199999999
 21
227.2886339999999
 31
0.0
  0
LINE
  5
97D2
330
9782
100
AcDbEntity
  8
1
  6
Continuous
100
AcDbLine
 10
41.51306199999999
 20
227.2886339999999
 30
0.0
 11
41.51306199999999
 21
228.588637
 31
0.0
  0
LINE
  5
97D3
330
9782
100
AcDbEntity
  8
1
  6
Continuous
100
AcDbLine
 10
41.01306199999998
 20
229.0886369999999
 30
0.0
 11
34.51306199999999
 21
229.0886369999999
 31
0.0
  0
LINE
  5
97D4
330
9782
100
AcDbEntity
  8
1
  6
Continuous
100
AcDbLine
 10
34.51306199999999
 20
229.0886369999999
 30
0.0
 11
25.046395
 21
236.188643
 31
0.0
  0
LINE
  5
97D5
330
9782
100
AcDbEntity
  8
1
  6
Continuous
100
AcDbLine
 10
23.84639799999999
 20
236.588637
 30
0.0
 11
19.58343
 21
236.588637
 31
0.0
  0
LINE
  5
97D6
330
9782
100
AcDbEntity
  8
1
  6
Continuous
100
AcDbLine
 10
17.919329
 20
235.6980419999999
 30
0.0
 11
13.84895799999999
 21
229.5924819999999
 31
0.0
  0
LINE
  5
97D7
330
9782
100
AcDbEntity
  8
1
  6
Continuous
100
AcDbLine
 10
13.513064
 20
228.483092
 30
0.0
 11
13.513064
 21
220.6941819999999
 31
0.0
  0
LINE
  5
97D8
330
9782
100
AcDbEntity
  8
1
  6
Continuous
100
AcDbLine
 10
13.848967
 20
219.5847759999999
 30
0.0
 11
17.919329
 21
213.4792309999999
 31
0.0
  0
LINE
  5
97D9
330
9782
100
AcDbEntity
  8
1
  6
Continuous
100
AcDbLine
 10
130.0219889999999
 20
115.702269
 30
0.0
 11
130.0219889999999
 21
141.702269
 31
0.0
  0
LINE
  5
97DA
330
9782
100
AcDbEntity
  8
2
  6
Continuous
100
AcDbLine
 10
131.0219889999999
 20
127.249312
 30
0.0
 11
139.021989
 21
133.061171
 31
0.0
  0
LINE
  5
97DB
330
9782
100
AcDbEntity
  8
2
  6
Continuous
100
AcDbLine
 10
139.021989
 20
124.3433669999999
 30
0.0
 11
131.0219889999999
 21
130.155226
 31
0.0
  0
LINE
  5
97DC
330
9782
100
AcDbEntity
  8
4
  6
CENTER
100
AcDbLine
 10
99.683244
 20
224.588637
 30
0.0
 11
111.3390889999999
 21
224.588637
 31
0.0
  0
LINE
  5
97DD
330
9782
100
AcDbEntity
  8
1
  6
Continuous
100
AcDbLine
 10
145.2219859999999
 20
138.702269
 30
0.0
 11
131.0219889999999
 21
138.702269
 31
0.0
  0
LINE
  5
97DE
330
9782
100
AcDbEntity
  8
1
  6
Continuous
100
AcDbLine
 10
139.021989
 20
133.061171
 30
0.0
 11
131.0219889999999
 21
133.061171
 31
0.0
  0
LINE
  5
97DF
330
9782
100
AcDbEntity
  8
1
  6
Continuous
100
AcDbLine
 10
103.5352489999998
 20
236.588637
 30
0.0
 11
103.5352489999998
 21
212.5886369999999
 31
0.0
  0
LINE
  5
97E0
330
9782
100
AcDbEntity
  8
1
  6
Continuous
100
AcDbLine
 10
107.5352489999998
 20
212.5886369999999
 30
0.0
 11
107.5352489999998
 21
236.588637
 31
0.0
  0
LINE
  5
97E1
330
9782
100
AcDbEntity
  8
1
  6
Continuous
100
AcDbLine
 10
131.0219889999999
 20
141.702269
 30
0.0
 11
131.0219889999999
 21
115.702269
 31
0.0
  0
LINE
  5
97E2
330
9782
100
AcDbEntity
  8
1
  6
Continuous
100
AcDbLine
 10
131.0219889999999
 20
115.702269
 30
0.0
 11
130.0219889999999
 21
115.702269
 31
0.0
  0
LINE
  5
97E3
330
9782
100
AcDbEntity
  8
1
  6
Continuous
100
AcDbLine
 10
130.0219889999999
 20
115.702269
 30
0.0
 11
126.0219889999999
 21
117.702269
 31
0.0
  0
LINE
  5
97E4
330
9782
100
AcDbEntity
  8
1
  6
Continuous
100
AcDbLine
 10
126.0219889999999
 20
117.702269
 30
0.0
 11
126.0219889999999
 21
139.702269
 31
0.0
  0
LINE
  5
97E5
330
9782
100
AcDbEntity
  8
1
  6
Continuous
100
AcDbLine
 10
126.022004
 20
139.702269
 30
0.0
 11
130.022004
 21
141.702269
 31
0.0
  0
LINE
  5
97E6
330
9782
100
AcDbEntity
  8
1
  6
Continuous
100
AcDbLine
 10
130.0219889999999
 20
141.702269
 30
0.0
 11
131.0219889999999
 21
141.702269
 31
0.0
  0
LINE
  5
97E7
330
9782
100
AcDbEntity
  8
1
  6
Continuous
100
AcDbLine
 10
139.021989
 20
133.061171
 30
0.0
 11
139.021989
 21
124.3433669999999
 31
0.0
  0
LINE
  5
97E8
330
9782
100
AcDbEntity
  8
1
  6
Continuous
100
AcDbLine
 10
139.021989
 20
124.3433669999999
 30
0.0
 11
131.0219889999999
 21
124.3433669999999
 31
0.0
  0
LINE
  5
97E9
330
9782
100
AcDbEntity
  8
1
  6
Continuous
100
AcDbLine
 10
131.0219889999999
 20
118.702269
 30
0.0
 11
145.2219859999999
 21
118.702269
 31
0.0
  0
LINE
  5
97EA
330
9782
100
AcDbEntity
  8
1
  6
Continuous
100
AcDbLine
 10
162.447968
 20
45.1159
 30
0.0
 11
163.447968
 21
45.1159
 31
0.0
  0
LINE
  5
97EB
330
9782
100
AcDbEntity
  8
1
  6
Continuous
100
AcDbLine
 10
163.447968
 20
40.51590199999998
 30
0.0
 11
162.447968
 21
40.51590199999998
 31
0.0
  0
LINE
  5
97EC
330
9782
100
AcDbEntity
  8
1
  6
Continuous
100
AcDbLine
 10
162.447968
 20
42.32244699999998
 30
0.0
 11
163.447968
 21
42.81590099999998
 31
0.0
  0
LINE
  5
97ED
330
9782
100
AcDbEntity
  8
1
  6
Continuous
100
AcDbLine
 10
163.447968
 20
43.08144999999998
 30
0.0
 11
162.447968
 21
42.59351999999998
 31
0.0
  0
LINE
  5
97EE
330
9782
100
AcDbEntity
  8
1
  6
Continuous
100
AcDbLine
 10
148.4219979999998
 20
117.702269
 30
0.0
 11
148.4219979999998
 21
154.502272
 31
0.0
  0
LINE
  5
97EF
330
9782
100
AcDbEntity
  8
1
  6
Continuous
100
AcDbLine
 10
163.447968
 20
45.1159
 30
0.0
 11
163.447968
 21
40.51590199999998
 31
0.0
  0
LINE
  5
97F0
330
9782
100
AcDbEntity
  8
1
  6
Continuous
100
AcDbLine
 10
130.0219889999999
 20
211.588637
 30
0.0
 11
130.0219889999999
 21
237.5886369999999
 31
0.0
  0
LINE
  5
97F1
330
9782
100
AcDbEntity
  8
4
  6
CENTER
100
AcDbLine
 10
163.6673129999998
 20
224.588637
 30
0.0
 11
120.7139289999999
 21
224.588637
 31
0.0
  0
LINE
  5
97F2
330
9782
100
AcDbEntity
  8
1
  6
Continuous
100
AcDbLine
 10
131.0219889999999
 20
215.588637
 30
0.0
 11
139.021989
 21
215.588637
 31
0.0
  0
LINE
  5
97F3
330
9782
100
AcDbEntity
  8
1
  6
Continuous
100
AcDbLine
 10
139.021989
 20
215.588637
 30
0.0
 11
139.021989
 21
214.5886369999999
 31
0.0
  0
LINE
  5
97F4
330
9782
100
AcDbEntity
  8
1
  6
Continuous
100
AcDbLine
 10
139.021989
 20
234.588637
 30
0.0
 11
139.021989
 21
233.588637
 31
0.0
  0
LINE
  5
97F5
330
9782
100
AcDbEntity
  8
1
  6
Continuous
100
AcDbLine
 10
139.021989
 20
233.588637
 30
0.0
 11
131.0219889999999
 21
233.588637
 31
0.0
  0
LINE
  5
97F6
330
9782
100
AcDbEntity
  8
1
  6
Continuous
100
AcDbLine
 10
126.0219889999999
 20
213.588637
 30
0.0
 11
126.0219889999999
 21
235.5886369999999
 31
0.0
  0
LINE
  5
97F7
330
9782
100
AcDbEntity
  8
1
  6
Continuous
100
AcDbLine
 10
126.0219889999999
 20
235.5886369999999
 30
0.0
 11
130.0219889999999
 21
237.5886369999999
 31
0.0
  0
LINE
  5
97F8
330
9782
100
AcDbEntity
  8
1
  6
Continuous
100
AcDbLine
 10
130.0219889999999
 20
237.5886369999999
 30
0.0
 11
131.0219889999999
 21
237.5886369999999
 31
0.0
  0
LINE
  5
97F9
330
9782
100
AcDbEntity
  8
1
  6
Continuous
100
AcDbLine
 10
131.0219889999999
 20
237.5886369999999
 30
0.0
 11
131.0219889999999
 21
211.588637
 31
0.0
  0
LINE
  5
97FA
330
9782
100
AcDbEntity
  8
1
  6
Continuous
100
AcDbLine
 10
131.0219889999999
 20
211.588637
 30
0.0
 11
130.0219889999999
 21
211.588637
 31
0.0
  0
LINE
  5
97FB
330
9782
100
AcDbEntity
  8
1
  6
Continuous
100
AcDbLine
 10
130.0219889999999
 20
211.5886219999999
 30
0.0
 11
126.0219889999999
 21
213.5886219999999
 31
0.0
  0
LINE
  5
97FC
330
9782
100
AcDbEntity
  8
1
  6
Continuous
100
AcDbLine
 10
139.021989
 20
214.5886369999999
 30
0.0
 11
146.421998
 21
214.5886369999999
 31
0.0
  0
LINE
  5
97FD
330
9782
100
AcDbEntity
  8
1
  6
Continuous
100
AcDbLine
 10
145.2219859999999
 20
234.588637
 30
0.0
 11
139.021989
 21
234.588637
 31
0.0
  0
LINE
  5
97FE
330
9782
100
AcDbEntity
  8
1
  6
Continuous
100
AcDbLine
 10
145.2219859999999
 20
138.702269
 30
0.0
 11
146.421998
 21
137.502272
 31
0.0
  0
LINE
  5
97FF
330
9782
100
AcDbEntity
  8
1
  6
Continuous
100
AcDbLine
 10
145.2219859999999
 20
118.702269
 30
0.0
 11
146.421983
 21
119.902266
 31
0.0
  0
LINE
  5
9800
330
9782
100
AcDbEntity
  8
1
  6
Continuous
100
AcDbLine
 10
145.2219859999999
 20
138.702269
 30
0.0
 11
145.2219859999999
 21
118.702269
 31
0.0
  0
LINE
  5
9801
330
9782
100
AcDbEntity
  8
1
  6
Continuous
100
AcDbLine
 10
145.2219859999999
 20
234.588637
 30
0.0
 11
146.421983
 21
233.3886399999999
 31
0.0
  0
LINE
  5
9802
330
9782
100
AcDbEntity
  8
1
  6
Continuous
100
AcDbLine
 10
145.2219859999999
 20
234.588637
 30
0.0
 11
145.2219859999999
 21
229.0886369999999
 31
0.0
  0
LINE
  5
9803
330
9782
100
AcDbEntity
  8
1
  6
Continuous
100
AcDbLine
 10
145.2219859999999
 20
224.088637
 30
0.0
 11
145.2219859999999
 21
219.588637
 31
0.0
  0
LINE
  5
9804
330
9782
100
AcDbEntity
  8
4
  6
CENTER
100
AcDbLine
 10
60.75598199999999
 20
224.588637
 30
0.0
 11
10.762244
 21
224.588637
 31
0.0
  0
LINE
  5
9805
330
9782
100
AcDbEntity
  8
1
  6
Continuous
100
AcDbLine
 10
43.01306199999999
 20
226.1386399999999
 30
0.0
 11
55.67016699999999
 21
226.1386399999999
 31
0.0
  0
LINE
  5
9806
330
9782
100
AcDbEntity
  8
1
  6
Continuous
100
AcDbLine
 10
34.013062
 20
142.558684
 30
0.0
 11
32.34318599999999
 21
141.594572
 31
0.0
  0
LINE
  5
9807
330
9782
100
AcDbEntity
  8
1
  6
Continuous
100
AcDbLine
 10
46.01306199999998
 20
121.774077
 30
0.0
 11
44.343186
 21
120.809966
 31
0.0
  0
LINE
  5
9808
330
9782
100
AcDbEntity
  8
1
  6
Continuous
100
AcDbLine
 10
22.01306399999999
 20
121.774077
 30
0.0
 11
22.01306399999999
 21
123.702269
 31
0.0
  0
LINE
  5
9809
330
9782
100
AcDbEntity
  8
1
  6
Continuous
100
AcDbLine
 10
46.01306199999998
 20
121.774077
 30
0.0
 11
46.01306199999998
 21
123.702269
 31
0.0
  0
LINE
  5
980A
330
9782
100
AcDbEntity
  8
1
  6
Continuous
100
AcDbLine
 10
34.01306599999998
 20
114.845869
 30
0.0
 11
32.34319399999999
 21
115.8099659999999
 31
0.0
  0
LINE
  5
980B
330
9782
100
AcDbEntity
  8
1
  6
Continuous
100
AcDbLine
 10
46.013066
 20
135.6304759999999
 30
0.0
 11
44.34319399999998
 21
136.594572
 31
0.0
  0
LINE
  5
980C
330
9782
100
AcDbEntity
  8
1
  6
Continuous
100
AcDbLine
 10
23.682938
 20
120.809966
 30
0.0
 11
22.013066
 21
121.774062
 31
0.0
  0
LINE
  5
980D
330
9782
100
AcDbEntity
  8
1
  6
Continuous
100
AcDbLine
 10
35.682935
 20
115.8099659999999
 30
0.0
 11
34.013062
 21
114.845869
 31
0.0
  0
LINE
  5
980E
330
9782
100
AcDbEntity
  8
1
  6
Continuous
100
AcDbLine
 10
46.01306199999998
 20
133.7022689999998
 30
0.0
 11
46.01306199999998
 21
135.6304759999999
 31
0.0
  0
LINE
  5
980F
330
9782
100
AcDbEntity
  8
1
  6
Continuous
100
AcDbLine
 10
35.682938
 20
141.594572
 30
0.0
 11
34.01306599999998
 21
142.558684
 31
0.0
  0
LINE
  5
9810
330
9782
100
AcDbEntity
  8
1
  6
Continuous
100
AcDbLine
 10
23.682935
 20
136.594572
 30
0.0
 11
22.01306399999999
 21
135.6304759999999
 31
0.0
  0
LINE
  5
9811
330
9782
100
AcDbEntity
  8
1
  6
Continuous
100
AcDbLine
 10
22.01306399999999
 20
133.7022689999998
 30
0.0
 11
22.01306399999999
 21
135.6304759999999
 31
0.0
  0
LINE
  5
9812
330
9782
100
AcDbEntity
  8
4
  6
CENTER
100
AcDbLine
 10
122.1380469999999
 20
128.702269
 30
0.0
 11
168.137986
 21
128.702269
 31
0.0
  0
LINE
  5
9813
330
9782
100
AcDbEntity
  8
4
  6
CENTER
100
AcDbLine
 10
99.65730399999999
 20
128.702269
 30
0.0
 11
111.3390889999999
 21
128.702269
 31
0.0
  0
LINE
  5
9814
330
9782
100
AcDbEntity
  8
1
  6
Continuous
100
AcDbLine
 10
103.5352489999998
 20
142.558684
 30
0.0
 11
103.5352489999998
 21
114.845869
 31
0.0
  0
LINE
  5
9815
330
9782
100
AcDbEntity
  8
1
  6
Continuous
100
AcDbLine
 10
107.5352489999998
 20
114.845869
 30
0.0
 11
107.5352489999998
 21
142.558684
 31
0.0
  0
LINE
  5
9816
330
9782
100
AcDbEntity
  8
1
  6
Continuous
100
AcDbLine
 10
103.5352489999998
 20
114.845869
 30
0.0
 11
107.5352489999998
 21
114.845869
 31
0.0
  0
LINE
  5
9817
330
9782
100
AcDbEntity
  8
1
  6
Continuous
100
AcDbLine
 10
103.5352489999998
 20
142.558684
 30
0.0
 11
107.5352489999998
 21
142.558684
 31
0.0
  0
LINE
  5
9818
330
9782
100
AcDbEntity
  8
1
  6
Continuous
100
AcDbLine
 10
103.5352489999998
 20
121.774077
 30
0.0
 11
107.5352489999998
 21
121.774077
 31
0.0
  0
LINE
  5
9819
330
9782
100
AcDbEntity
  8
1
  6
Continuous
100
AcDbLine
 10
103.5352489999998
 20
135.6304759999999
 30
0.0
 11
107.5352489999998
 21
135.6304759999999
 31
0.0
  0
LINE
  5
981A
330
9782
100
AcDbEntity
  8
1
  6
Continuous
100
AcDbLine
 10
103.5352489999998
 20
212.5886369999999
 30
0.0
 11
107.5352489999998
 21
212.5886369999999
 31
0.0
  0
LINE
  5
981B
330
9782
100
AcDbEntity
  8
1
  6
Continuous
100
AcDbLine
 10
103.5352489999998
 20
236.588637
 30
0.0
 11
107.5352489999998
 21
236.588637
 31
0.0
  0
LINE
  5
981C
330
9782
100
AcDbEntity
  8
1
  6
Continuous
100
AcDbLine
 10
103.5352489999998
 20
224.588637
 30
0.0
 11
107.5352489999998
 21
224.588637
 31
0.0
  0
LINE
  5
981D
330
9782
100
AcDbEntity
  8
2
  6
Continuous
100
AcDbLine
 10
145.7634899999999
 20
234.047133
 30
0.0
 11
139.021989
 21
234.047133
 31
0.0
  0
LINE
  5
981E
330
9782
100
AcDbEntity
  8
2
  6
Continuous
100
AcDbLine
 10
144.921998
 20
215.130141
 30
0.0
 11
139.021989
 21
215.130141
 31
0.0
  0
LINE
  5
981F
330
9782
100
AcDbEntity
  8
2
  6
Continuous
100
AcDbLine
 10
139.421998
 20
147.935774
 30
0.0
 11
144.921998
 21
147.935774
 31
0.0
  0
LINE
  5
9820
330
9782
100
AcDbEntity
  8
2
  6
Continuous
100
AcDbLine
 10
139.421998
 20
146.06877
 30
0.0
 11
144.921998
 21
146.06877
 31
0.0
  0
LINE
  5
9821
330
9782
100
AcDbEntity
  8
2
  6
Continuous
100
AcDbLine
 10
139.421983
 20
216.1551349999998
 30
0.0
 11
144.921998
 21
216.1551349999998
 31
0.0
  0
LINE
  5
9822
330
9782
100
AcDbEntity
  8
2
  6
Continuous
100
AcDbLine
 10
139.421983
 20
218.022139
 30
0.0
 11
144.921998
 21
218.022139
 31
0.0
  0
LINE
  5
9823
330
9782
100
AcDbEntity
  8
2
  6
Continuous
100
AcDbLine
 10
131.0219889999999
 20
119.2437729999999
 30
0.0
 11
145.7634899999999
 21
119.2437729999999
 31
0.0
  0
LINE
  5
9824
330
9782
100
AcDbEntity
  8
2
  6
Continuous
100
AcDbLine
 10
131.0219889999999
 20
138.160765
 30
0.0
 11
145.7634899999999
 21
138.160765
 31
0.0
  0
LINE
  5
9825
330
9782
100
AcDbEntity
  8
4
  6
CENTER
100
AcDbLine
 10
232.830918
 20
110.1397689999999
 30
0.0
 11
232.830918
 21
158.8057389999999
 31
0.0
  0
LINE
  5
9826
330
9782
100
AcDbEntity
  8
4
  6
CENTER
100
AcDbLine
 10
234.830918
 20
149.8534229999999
 30
0.0
 11
234.830918
 21
143.8868999999999
 31
0.0
  0
LINE
  5
9827
330
9782
100
AcDbEntity
  8
4
  6
CENTER
100
AcDbLine
 10
232.107743
 20
147.002272
 30
0.0
 11
237.6451729999998
 21
147.002272
 31
0.0
  0
LINE
  5
9828
330
9782
100
AcDbEntity
  8
4
  6
CENTER
100
AcDbLine
 10
227.985093
 20
147.002272
 30
0.0
 11
222.586823
 21
147.002272
 31
0.0
  0
LINE
  5
9829
330
9782
100
AcDbEntity
  8
4
  6
CENTER
100
AcDbLine
 10
225.330918
 20
149.8534229999999
 30
0.0
 11
225.330918
 21
143.8868999999999
 31
0.0
  0
LINE
  5
982A
330
9782
100
AcDbEntity
  8
4
  6
CENTER
100
AcDbLine
 10
250.228608
 20
128.702269
 30
0.0
 11
214.6259319999999
 21
128.702269
 31
0.0
  0
LINE
  5
982B
330
9782
100
AcDbEntity
  8
1
  6
Continuous
100
AcDbLine
 10
222.330918
 20
117.702269
 30
0.0
 11
232.830918
 21
117.702269
 31
0.0
  0
LINE
  5
982C
330
9782
100
AcDbEntity
  8
1
  6
Continuous
100
AcDbLine
 10
219.830918
 20
120.2022689999999
 30
0.0
 11
219.830918
 21
154.5022689999998
 31
0.0
  0
LINE
  5
982D
330
9782
100
AcDbEntity
  8
1
  6
Continuous
100
AcDbLine
 10
219.830918
 20
154.5022689999998
 30
0.0
 11
238.830918
 21
154.5022689999998
 31
0.0
  0
LINE
  5
982E
330
9782
100
AcDbEntity
  8
1
  6
Continuous
100
AcDbLine
 10
238.830918
 20
154.5022689999998
 30
0.0
 11
238.830918
 21
150.002272
 31
0.0
  0
LINE
  5
982F
330
9782
100
AcDbEntity
  8
1
  6
Continuous
100
AcDbLine
 10
241.330918
 20
153.2022689999998
 30
0.0
 11
238.830918
 21
153.2022689999998
 31
0.0
  0
LINE
  5
9830
330
9782
100
AcDbEntity
  8
1
  6
Continuous
100
AcDbLine
 10
243.830918
 20
128.702269
 30
0.0
 11
243.830918
 21
150.702269
 31
0.0
  0
LINE
  5
9831
330
9782
100
AcDbEntity
  8
1
  6
Continuous
100
AcDbLine
 10
244.830918
 20
121.774077
 30
0.0
 11
244.830918
 21
135.6304759999999
 31
0.0
  0
LINE
  5
9832
330
9782
100
AcDbEntity
  8
1
  6
Continuous
100
AcDbLine
 10
232.8309329999999
 20
114.845869
 30
0.0
 11
244.8309329999999
 21
121.774077
 31
0.0
  0
LINE
  5
9833
330
9782
100
AcDbEntity
  8
1
  6
Continuous
100
AcDbLine
 10
227.8834849999999
 20
117.702269
 30
0.0
 11
232.8309329999999
 21
114.845869
 31
0.0
  0
LINE
  5
9834
330
9782
100
AcDbEntity
  8
1
  6
Continuous
100
AcDbLine
 10
243.830918
 20
136.2078379999998
 30
0.0
 11
244.8309329999999
 21
135.6304759999999
 31
0.0
  0
LINE
  5
9835
330
9782
100
AcDbEntity
  8
1
  6
Continuous
100
AcDbLine
 10
233.9470369999999
 20
146.118391
 30
0.0
 11
235.714814
 21
147.886153
 31
0.0
  0
LINE
  5
9836
330
9782
100
AcDbEntity
  8
1
  6
Continuous
100
AcDbLine
 10
233.9470369999999
 20
147.886153
 30
0.0
 11
235.714814
 21
146.118391
 31
0.0
  0
LINE
  5
9837
330
9782
100
AcDbEntity
  8
1
  6
Continuous
100
AcDbLine
 10
224.447022
 20
146.118376
 30
0.0
 11
226.214799
 21
147.886153
 31
0.0
  0
LINE
  5
9838
330
9782
100
AcDbEntity
  8
1
  6
Continuous
100
AcDbLine
 10
224.447022
 20
147.886153
 30
0.0
 11
226.214799
 21
146.118376
 31
0.0
  0
LINE
  5
9839
330
9782
100
AcDbEntity
  8
1
  6
Continuous
100
AcDbLine
 10
219.830918
 20
138.002272
 30
0.0
 11
225.830918
 21
138.002272
 31
0.0
  0
LINE
  5
983A
330
9782
100
AcDbEntity
  8
1
  6
Continuous
100
AcDbLine
 10
219.830918
 20
150.002272
 30
0.0
 11
239.830918
 21
150.002272
 31
0.0
  0
LINE
  5
983B
330
9782
100
AcDbEntity
  8
1
  6
Continuous
100
AcDbLine
 10
224.947037
 20
127.8183879999998
 30
0.0
 11
226.714799
 21
129.5861499999998
 31
0.0
  0
LINE
  5
983C
330
9782
100
AcDbEntity
  8
1
  6
Continuous
100
AcDbLine
 10
224.947037
 20
129.5861499999998
 30
0.0
 11
226.714799
 21
127.8183879999998
 31
0.0
  0
LINE
  5
983D
330
9782
100
AcDbEntity
  8
1
  6
Continuous
100
AcDbLine
 10
231.9470369999999
 20
129.5861499999998
 30
0.0
 11
233.714799
 21
127.8183879999998
 31
0.0
  0
LINE
  5
983E
330
9782
100
AcDbEntity
  8
1
  6
Continuous
100
AcDbLine
 10
231.947022
 20
127.8183879999998
 30
0.0
 11
233.714799
 21
129.5861499999998
 31
0.0
  0
LINE
  5
983F
330
9782
100
AcDbEntity
  8
1
  6
Continuous
100
AcDbLine
 10
239.830918
 20
140.502272
 30
0.0
 11
239.830918
 21
150.002272
 31
0.0
  0
LINE
  5
9840
330
9782
100
AcDbEntity
  8
1
  6
Continuous
100
AcDbLine
 10
221.830918
 20
153.4022659999999
 30
0.0
 11
222.330918
 21
153.4022659999999
 31
0.0
  0
LINE
  5
9841
330
9782
100
AcDbEntity
  8
1
  6
Continuous
100
AcDbLine
 10
221.830918
 20
150.002272
 30
0.0
 11
221.830918
 21
153.4022659999999
 31
0.0
  0
LINE
  5
9842
330
9782
100
AcDbEntity
  8
1
  6
Continuous
100
AcDbLine
 10
222.330918
 20
150.002272
 30
0.0
 11
222.330918
 21
153.4022659999999
 31
0.0
  0
LINE
  5
9843
330
9782
100
AcDbEntity
  8
1
  6
Continuous
100
AcDbLine
 10
230.5309149999999
 20
150.002272
 30
0.0
 11
230.5309149999999
 21
153.4022659999999
 31
0.0
  0
LINE
  5
9844
330
9782
100
AcDbEntity
  8
1
  6
Continuous
100
AcDbLine
 10
231.030915
 20
150.002272
 30
0.0
 11
231.030915
 21
153.4022659999999
 31
0.0
  0
LINE
  5
9845
330
9782
100
AcDbEntity
  8
1
  6
Continuous
100
AcDbLine
 10
237.230927
 20
150.002272
 30
0.0
 11
237.230927
 21
153.4022659999999
 31
0.0
  0
LINE
  5
9846
330
9782
100
AcDbEntity
  8
1
  6
Continuous
100
AcDbLine
 10
237.730927
 20
150.002272
 30
0.0
 11
237.730927
 21
153.4022659999999
 31
0.0
  0
LINE
  5
9847
330
9782
100
AcDbEntity
  8
1
  6
Continuous
100
AcDbLine
 10
230.5309149999999
 20
153.4022659999999
 30
0.0
 11
231.030915
 21
153.4022659999999
 31
0.0
  0
LINE
  5
9848
330
9782
100
AcDbEntity
  8
1
  6
Continuous
100
AcDbLine
 10
237.230927
 20
153.4022659999999
 30
0.0
 11
237.730927
 21
153.4022659999999
 31
0.0
  0
LINE
  5
9849
330
9782
100
AcDbEntity
  8
1
  6
Continuous
100
AcDbLine
 10
229.830918
 20
140.502272
 30
0.0
 11
239.830918
 21
140.502272
 31
0.0
  0
LINE
  5
984A
330
9782
100
AcDbEntity
  8
1
  6
Continuous
100
AcDbLine
 10
229.830918
 20
139.502272
 30
0.0
 11
229.830918
 21
140.502272
 31
0.0
  0
LINE
  5
984B
330
9782
100
AcDbEntity
  8
1
  6
Continuous
100
AcDbLine
 10
229.830918
 20
139.502272
 30
0.0
 11
225.830918
 21
138.002272
 31
0.0
  0
LINE
  5
984C
330
9782
100
AcDbEntity
  8
1
  6
Continuous
100
AcDbLine
 10
226.630921
 20
138.302275
 30
0.0
 11
242.264436
 21
137.102278
 31
0.0
  0
LINE
  5
984D
330
9782
100
AcDbEntity
  8
1
  6
Continuous
100
AcDbLine
 10
225.964906
 20
138.0525189999999
 30
0.0
 11
242.2414709999999
 21
136.8031599999999
 31
0.0
  0
LINE
  5
984E
330
9782
100
AcDbEntity
  8
1
  6
Continuous
100
AcDbLine
 10
242.264436
 20
137.102278
 30
0.0
 11
242.2414709999999
 21
136.8031599999999
 31
0.0
  0
LINE
  5
984F
330
9782
100
AcDbEntity
  8
1
  6
Continuous
100
AcDbLine
 10
241.330918
 20
130.7022689999998
 30
0.0
 11
236.8620459999999
 21
130.7022689999998
 31
0.0
  0
LINE
  5
9850
330
9782
100
AcDbEntity
  8
1
  6
Continuous
100
AcDbLine
 10
241.330918
 20
126.702269
 30
0.0
 11
236.8620459999999
 21
126.702269
 31
0.0
  0
LINE
  5
9851
330
9782
100
AcDbEntity
  8
4
  6
CENTER
100
AcDbLine
 10
99.683244
 20
42.815909
 30
0.0
 11
111.3390889999999
 21
42.815909
 31
0.0
  0
LINE
  5
9852
330
9782
100
AcDbEntity
  8
1
  6
Continuous
100
AcDbLine
 10
103.5352489999998
 20
30.815909
 30
0.0
 11
103.5352489999998
 21
54.815909
 31
0.0
  0
LINE
  5
9853
330
9782
100
AcDbEntity
  8
1
  6
Continuous
100
AcDbLine
 10
107.5352489999998
 20
54.815909
 30
0.0
 11
107.5352489999998
 21
30.815909
 31
0.0
  0
LINE
  5
9854
330
9782
100
AcDbEntity
  8
1
  6
Continuous
100
AcDbLine
 10
103.5352489999998
 20
54.815909
 30
0.0
 11
107.5352489999998
 21
54.815909
 31
0.0
  0
LINE
  5
9855
330
9782
100
AcDbEntity
  8
1
  6
Continuous
100
AcDbLine
 10
103.5352489999998
 20
30.815909
 30
0.0
 11
107.5352489999998
 21
30.815909
 31
0.0
  0
LINE
  5
9856
330
9782
100
AcDbEntity
  8
1
  6
Continuous
100
AcDbLine
 10
103.5352489999998
 20
42.815909
 30
0.0
 11
107.5352489999998
 21
42.815909
 31
0.0
  0
LINE
  5
9857
330
9782
100
AcDbEntity
  8
1
  6
Continuous
100
AcDbLine
 10
335.639863
 20
115.702269
 30
0.0
 11
335.639863
 21
141.702269
 31
0.0
  0
LINE
  5
9858
330
9782
100
AcDbEntity
  8
2
  6
Continuous
100
AcDbLine
 10
334.6398319999999
 20
127.249297
 30
0.0
 11
326.6398629999998
 21
133.061171
 31
0.0
  0
LINE
  5
9859
330
9782
100
AcDbEntity
  8
2
  6
Continuous
100
AcDbLine
 10
326.6398629999998
 20
124.3433669999999
 30
0.0
 11
334.6398629999999
 21
130.1552409999999
 31
0.0
  0
LINE
  5
985A
330
9782
100
AcDbEntity
  8
1
  6
Continuous
100
AcDbLine
 10
320.4398509999998
 20
138.702269
 30
0.0
 11
334.6398629999999
 21
138.702269
 31
0.0
  0
LINE
  5
985B
330
9782
100
AcDbEntity
  8
1
  6
Continuous
100
AcDbLine
 10
326.6398629999998
 20
133.061171
 30
0.0
 11
334.6398629999999
 21
133.061171
 31
0.0
  0
LINE
  5
985C
330
9782
100
AcDbEntity
  8
1
  6
Continuous
100
AcDbLine
 10
334.6398629999999
 20
141.702269
 30
0.0
 11
334.6398629999999
 21
115.702269
 31
0.0
  0
LINE
  5
985D
330
9782
100
AcDbEntity
  8
1
  6
Continuous
100
AcDbLine
 10
334.6398629999999
 20
115.702269
 30
0.0
 11
335.639863
 21
115.702269
 31
0.0
  0
LINE
  5
985E
330
9782
100
AcDbEntity
  8
1
  6
Continuous
100
AcDbLine
 10
335.6398319999998
 20
115.702269
 30
0.0
 11
339.6398319999998
 21
117.702269
 31
0.0
  0
LINE
  5
985F
330
9782
100
AcDbEntity
  8
1
  6
Continuous
100
AcDbLine
 10
339.639863
 20
117.702269
 30
0.0
 11
339.639863
 21
139.702269
 31
0.0
  0
LINE
  5
9860
330
9782
100
AcDbEntity
  8
1
  6
Continuous
100
AcDbLine
 10
339.6398319999998
 20
139.702269
 30
0.0
 11
335.6398319999998
 21
141.702269
 31
0.0
  0
LINE
  5
9861
330
9782
100
AcDbEntity
  8
1
  6
Continuous
100
AcDbLine
 10
335.639863
 20
141.702269
 30
0.0
 11
334.6398629999999
 21
141.702269
 31
0.0
  0
LINE
  5
9862
330
9782
100
AcDbEntity
  8
1
  6
Continuous
100
AcDbLine
 10
326.6398629999998
 20
133.061171
 30
0.0
 11
326.6398629999998
 21
124.3433669999999
 31
0.0
  0
LINE
  5
9863
330
9782
100
AcDbEntity
  8
1
  6
Continuous
100
AcDbLine
 10
326.6398629999998
 20
124.3433669999999
 30
0.0
 11
334.6398629999999
 21
124.3433669999999
 31
0.0
  0
LINE
  5
9864
330
9782
100
AcDbEntity
  8
1
  6
Continuous
100
AcDbLine
 10
334.6398629999999
 20
118.702269
 30
0.0
 11
320.4398509999998
 21
118.702269
 31
0.0
  0
LINE
  5
9865
330
9782
100
AcDbEntity
  8
1
  6
Continuous
100
AcDbLine
 10
320.4398509999998
 20
138.7022839999999
 30
0.0
 11
319.2398379999999
 21
137.502272
 31
0.0
  0
LINE
  5
9866
330
9782
100
AcDbEntity
  8
1
  6
Continuous
100
AcDbLine
 10
320.4398509999998
 20
118.702269
 30
0.0
 11
319.2398379999999
 21
119.902266
 31
0.0
  0
LINE
  5
9867
330
9782
100
AcDbEntity
  8
1
  6
Continuous
100
AcDbLine
 10
320.4398509999998
 20
138.702269
 30
0.0
 11
320.4398509999998
 21
118.702269
 31
0.0
  0
LINE
  5
9868
330
9782
100
AcDbEntity
  8
4
  6
CENTER
100
AcDbLine
 10
343.5238039999999
 20
128.702269
 30
0.0
 11
297.0442209999998
 21
128.702269
 31
0.0
  0
LINE
  5
9869
330
9782
100
AcDbEntity
  8
4
  6
CENTER
100
AcDbLine
 10
366.0045479999998
 20
128.702269
 30
0.0
 11
354.3227549999999
 21
128.702269
 31
0.0
  0
LINE
  5
986A
330
9782
100
AcDbEntity
  8
1
  6
Continuous
100
AcDbLine
 10
362.1265879999999
 20
142.558684
 30
0.0
 11
362.1265879999999
 21
114.845869
 31
0.0
  0
LINE
  5
986B
330
9782
100
AcDbEntity
  8
1
  6
Continuous
100
AcDbLine
 10
358.1265879999999
 20
114.845869
 30
0.0
 11
358.1265879999999
 21
142.558684
 31
0.0
  0
LINE
  5
986C
330
9782
100
AcDbEntity
  8
1
  6
Continuous
100
AcDbLine
 10
362.1265879999999
 20
114.845869
 30
0.0
 11
358.1265879999999
 21
114.845869
 31
0.0
  0
LINE
  5
986D
330
9782
100
AcDbEntity
  8
1
  6
Continuous
100
AcDbLine
 10
362.1265879999999
 20
142.558684
 30
0.0
 11
358.1265879999999
 21
142.558684
 31
0.0
  0
LINE
  5
986E
330
9782
100
AcDbEntity
  8
1
  6
Continuous
100
AcDbLine
 10
362.1265879999999
 20
121.774077
 30
0.0
 11
358.1265879999999
 21
121.774077
 31
0.0
  0
LINE
  5
986F
330
9782
100
AcDbEntity
  8
1
  6
Continuous
100
AcDbLine
 10
362.1265879999999
 20
135.6304759999999
 30
0.0
 11
358.1265879999999
 21
135.6304759999999
 31
0.0
  0
LINE
  5
9870
330
9782
100
AcDbEntity
  8
2
  6
Continuous
100
AcDbLine
 10
334.6398629999999
 20
119.2437729999999
 30
0.0
 11
319.8983469999999
 21
119.2437729999999
 31
0.0
  0
LINE
  5
9871
330
9782
100
AcDbEntity
  8
2
  6
Continuous
100
AcDbLine
 10
334.6398629999999
 20
138.160765
 30
0.0
 11
319.8983469999999
 21
138.160765
 31
0.0
  0
LINE
  5
9872
330
9782
100
AcDbEntity
  8
4
  6
CENTER
100
AcDbLine
 10
168.0653389999999
 20
147.002272
 30
0.0
 11
137.6920939999999
 21
147.002272
 31
0.0
  0
LINE
  5
9873
330
9782
100
AcDbEntity
  8
1
  6
Continuous
100
AcDbLine
 10
166.421998
 20
147.280898
 30
0.0
 11
166.421998
 21
146.723631
 31
0.0
  0
LINE
  5
9874
330
9782
100
AcDbEntity
  8
1
  6
Continuous
100
AcDbLine
 10
164.8351749999999
 20
145.0022719999998
 30
0.0
 11
164.421998
 21
145.0022719999998
 31
0.0
  0
LINE
  5
9875
330
9782
100
AcDbEntity
  8
1
  6
Continuous
100
AcDbLine
 10
164.421998
 20
144.702269
 30
0.0
 11
163.421998
 21
144.702269
 31
0.0
  0
LINE
  5
9876
330
9782
100
AcDbEntity
  8
1
  6
Continuous
100
AcDbLine
 10
163.9220129999999
 20
146.5483539999999
 30
0.0
 11
164.421998
 21
147.002272
 31
0.0
  0
LINE
  5
9877
330
9782
100
AcDbEntity
  8
1
  6
Continuous
100
AcDbLine
 10
164.421998
 20
147.302931
 30
0.0
 11
163.921998
 21
146.8913409999998
 31
0.0
  0
LINE
  5
9878
330
9782
100
AcDbEntity
  8
1
  6
Continuous
100
AcDbLine
 10
164.421998
 20
149.0022719999998
 30
0.0
 11
164.8351749999999
 21
149.0022719999998
 31
0.0
  0
LINE
  5
9879
330
9782
100
AcDbEntity
  8
1
  6
Continuous
100
AcDbLine
 10
164.421998
 20
149.302275
 30
0.0
 11
163.421998
 21
149.302275
 31
0.0
  0
LINE
  5
987A
330
9782
100
AcDbEntity
  8
1
  6
Continuous
100
AcDbLine
 10
163.421998
 20
138.002272
 30
0.0
 11
150.421998
 21
138.002272
 31
0.0
  0
LINE
  5
987B
330
9782
100
AcDbEntity
  8
1
  6
Continuous
100
AcDbLine
 10
150.421998
 20
138.002272
 30
0.0
 11
150.421998
 21
154.502272
 31
0.0
  0
LINE
  5
987C
330
9782
100
AcDbEntity
  8
1
  6
Continuous
100
AcDbLine
 10
150.421998
 20
154.502272
 30
0.0
 11
148.4219979999998
 21
154.502272
 31
0.0
  0
LINE
  5
987D
330
9782
100
AcDbEntity
  8
1
  6
Continuous
100
AcDbLine
 10
146.421998
 20
117.702269
 30
0.0
 11
146.421998
 21
153.2022689999998
 31
0.0
  0
LINE
  5
987E
330
9782
100
AcDbEntity
  8
1
  6
Continuous
100
AcDbLine
 10
146.421998
 20
153.2022689999998
 30
0.0
 11
148.4219979999998
 21
153.2022689999998
 31
0.0
  0
LINE
  5
987F
330
9782
100
AcDbEntity
  8
1
  6
Continuous
100
AcDbLine
 10
149.421998
 20
154.502272
 30
0.0
 11
149.421998
 21
140.002272
 31
0.0
  0
LINE
  5
9880
330
9782
100
AcDbEntity
  8
1
  6
Continuous
100
AcDbLine
 10
150.421998
 20
140.002272
 30
0.0
 11
148.4219979999998
 21
140.002272
 31
0.0
  0
LINE
  5
9881
330
9782
100
AcDbEntity
  8
1
  6
Continuous
100
AcDbLine
 10
148.4219979999998
 20
124.2522719999999
 30
0.0
 11
149.4479679999998
 21
124.2522719999999
 31
0.0
  0
LINE
  5
9882
330
9782
100
AcDbEntity
  8
1
  6
Continuous
100
AcDbLine
 10
149.4479679999998
 20
124.2522719999999
 30
0.0
 11
149.4479679999998
 21
125.7522719999999
 31
0.0
  0
LINE
  5
9883
330
9782
100
AcDbEntity
  8
1
  6
Continuous
100
AcDbLine
 10
149.4479679999998
 20
125.7522719999999
 30
0.0
 11
151.247971
 21
125.7522719999999
 31
0.0
  0
LINE
  5
9884
330
9782
100
AcDbEntity
  8
1
  6
Continuous
100
AcDbLine
 10
151.247971
 20
125.7522719999999
 30
0.0
 11
151.247971
 21
131.6522659999999
 31
0.0
  0
LINE
  5
9885
330
9782
100
AcDbEntity
  8
1
  6
Continuous
100
AcDbLine
 10
151.247971
 20
131.6522659999999
 30
0.0
 11
149.4479679999998
 21
131.6522659999999
 31
0.0
  0
LINE
  5
9886
330
9782
100
AcDbEntity
  8
1
  6
Continuous
100
AcDbLine
 10
149.4479679999998
 20
131.6522659999999
 30
0.0
 11
149.4479679999998
 21
133.152266
 31
0.0
  0
LINE
  5
9887
330
9782
100
AcDbEntity
  8
1
  6
Continuous
100
AcDbLine
 10
149.4479679999998
 20
133.152266
 30
0.0
 11
148.4219979999998
 21
133.152266
 31
0.0
  0
LINE
  5
9888
330
9782
100
AcDbEntity
  8
1
  6
Continuous
100
AcDbLine
 10
149.4479679999998
 20
133.202269
 30
0.0
 11
162.447968
 21
133.202269
 31
0.0
  0
LINE
  5
9889
330
9782
100
AcDbEntity
  8
1
  6
Continuous
100
AcDbLine
 10
162.447968
 20
124.2022689999999
 30
0.0
 11
149.4479679999998
 21
124.2022689999999
 31
0.0
  0
LINE
  5
988A
330
9782
100
AcDbEntity
  8
1
  6
Continuous
100
AcDbLine
 10
149.921998
 20
127.702269
 30
0.0
 11
149.921998
 21
129.702269
 31
0.0
  0
LINE
  5
988B
330
9782
100
AcDbEntity
  8
1
  6
Continuous
100
AcDbLine
 10
148.921998
 20
130.7022689999998
 30
0.0
 11
148.4219979999998
 21
130.7022689999998
 31
0.0
  0
LINE
  5
988C
330
9782
100
AcDbEntity
  8
1
  6
Continuous
100
AcDbLine
 10
148.4219979999998
 20
126.702269
 30
0.0
 11
148.921998
 21
126.702269
 31
0.0
  0
LINE
  5
988D
330
9782
100
AcDbEntity
  8
1
  6
Continuous
100
AcDbLine
 10
151.6719979999998
 20
136.802275
 30
0.0
 11
151.6719979999998
 21
138.002272
 31
0.0
  0
LINE
  5
988E
330
9782
100
AcDbEntity
  8
1
  6
Continuous
100
AcDbLine
 10
151.6719979999998
 20
136.802275
 30
0.0
 11
155.671998
 21
136.802275
 31
0.0
  0
LINE
  5
988F
330
9782
100
AcDbEntity
  8
1
  6
Continuous
100
AcDbLine
 10
155.671998
 20
136.802275
 30
0.0
 11
155.671998
 21
138.002272
 31
0.0
  0
LINE
  5
9890
330
9782
100
AcDbEntity
  8
1
  6
Continuous
100
AcDbLine
 10
156.9219979999998
 20
138.002272
 30
0.0
 11
156.9219979999998
 21
153.5463389999998
 31
0.0
  0
LINE
  5
9891
330
9782
100
AcDbEntity
  8
1
  6
Continuous
100
AcDbLine
 10
155.272004
 20
153.102263
 30
0.0
 11
155.272004
 21
150.002272
 31
0.0
  0
LINE
  5
9892
330
9782
100
AcDbEntity
  8
1
  6
Continuous
100
AcDbLine
 10
156.714814
 20
150.0022569999999
 30
0.0
 11
156.822007
 21
150.4022809999999
 31
0.0
  0
LINE
  5
9893
330
9782
100
AcDbEntity
  8
1
  6
Continuous
100
AcDbLine
 10
156.8219919999999
 20
150.4022659999999
 30
0.0
 11
157.022004
 21
150.4022659999999
 31
0.0
  0
LINE
  5
9894
330
9782
100
AcDbEntity
  8
1
  6
Continuous
100
AcDbLine
 10
157.0219889999999
 20
150.4022659999999
 30
0.0
 11
157.1291659999999
 21
150.002272
 31
0.0
  0
LINE
  5
9895
330
9782
100
AcDbEntity
  8
1
  6
Continuous
100
AcDbLine
 10
158.571992
 20
150.002272
 30
0.0
 11
158.571992
 21
153.102263
 31
0.0
  0
LINE
  5
9896
330
9782
100
AcDbEntity
  8
1
  6
Continuous
100
AcDbLine
 10
158.572007
 20
153.102278
 30
0.0
 11
158.8719949999999
 21
153.4022659999999
 31
0.0
  0
LINE
  5
9897
330
9782
100
AcDbEntity
  8
1
  6
Continuous
100
AcDbLine
 10
158.8720099999999
 20
153.4022659999999
 30
0.0
 11
161.472001
 21
153.4022659999999
 31
0.0
  0
LINE
  5
9898
330
9782
100
AcDbEntity
  8
1
  6
Continuous
100
AcDbLine
 10
161.472001
 20
153.4022659999999
 30
0.0
 11
161.772004
 21
153.102278
 31
0.0
  0
LINE
  5
9899
330
9782
100
AcDbEntity
  8
1
  6
Continuous
100
AcDbLine
 10
161.772004
 20
153.102263
 30
0.0
 11
161.772004
 21
150.002272
 31
0.0
  0
LINE
  5
989A
330
9782
100
AcDbEntity
  8
1
  6
Continuous
100
AcDbLine
 10
163.2148139999999
 20
150.002272
 30
0.0
 11
163.3219919999999
 21
150.4022809999999
 31
0.0
  0
LINE
  5
989B
330
9782
100
AcDbEntity
  8
1
  6
Continuous
100
AcDbLine
 10
163.3219919999999
 20
150.4022659999999
 30
0.0
 11
163.421998
 21
150.4022659999999
 31
0.0
  0
LINE
  5
989C
330
9782
100
AcDbEntity
  8
1
  6
Continuous
100
AcDbLine
 10
163.421998
 20
150.002272
 30
0.0
 11
150.421998
 21
150.002272
 31
0.0
  0
LINE
  5
989D
330
9782
100
AcDbEntity
  8
1
  6
Continuous
100
AcDbLine
 10
152.0719919999999
 20
150.002272
 30
0.0
 11
152.0719919999999
 21
153.102263
 31
0.0
  0
LINE
  5
989E
330
9782
100
AcDbEntity
  8
1
  6
Continuous
100
AcDbLine
 10
152.0719919999999
 20
153.102263
 30
0.0
 11
152.371995
 21
153.4022659999999
 31
0.0
  0
LINE
  5
989F
330
9782
100
AcDbEntity
  8
1
  6
Continuous
100
AcDbLine
 10
152.37201
 20
153.4022659999999
 30
0.0
 11
154.972001
 21
153.4022659999999
 31
0.0
  0
LINE
  5
98A0
330
9782
100
AcDbEntity
  8
1
  6
Continuous
100
AcDbLine
 10
154.972001
 20
153.4022659999999
 30
0.0
 11
155.2719889999998
 21
153.102263
 31
0.0
  0
LINE
  5
98A1
330
9782
100
AcDbEntity
  8
1
  6
Continuous
100
AcDbLine
 10
163.421998
 20
150.4022659999999
 30
0.0
 11
163.421998
 21
138.002272
 31
0.0
  0
LINE
  5
98A2
330
9782
100
AcDbEntity
  8
1
  6
Continuous
100
AcDbLine
 10
162.1719979999998
 20
138.002272
 30
0.0
 11
162.1719979999998
 21
136.802275
 31
0.0
  0
LINE
  5
98A3
330
9782
100
AcDbEntity
  8
1
  6
Continuous
100
AcDbLine
 10
162.1719979999998
 20
136.802275
 30
0.0
 11
158.171998
 21
136.802275
 31
0.0
  0
LINE
  5
98A4
330
9782
100
AcDbEntity
  8
1
  6
Continuous
100
AcDbLine
 10
158.171998
 20
136.802275
 30
0.0
 11
158.171998
 21
138.002272
 31
0.0
  0
LINE
  5
98A5
330
9782
100
AcDbEntity
  8
1
  6
Continuous
100
AcDbLine
 10
162.447968
 20
131.002272
 30
0.0
 11
163.447968
 21
131.002272
 31
0.0
  0
LINE
  5
98A6
330
9782
100
AcDbEntity
  8
1
  6
Continuous
100
AcDbLine
 10
163.447968
 20
130.7022689999998
 30
0.0
 11
163.861161
 21
130.7022689999998
 31
0.0
  0
LINE
  5
98A7
330
9782
100
AcDbEntity
  8
1
  6
Continuous
100
AcDbLine
 10
165.447968
 20
128.9810009999999
 30
0.0
 11
165.447968
 21
128.187041
 31
0.0
  0
LINE
  5
98A8
330
9782
100
AcDbEntity
  8
1
  6
Continuous
100
AcDbLine
 10
163.861161
 20
126.702269
 30
0.0
 11
163.447968
 21
126.702269
 31
0.0
  0
LINE
  5
98A9
330
9782
100
AcDbEntity
  8
1
  6
Continuous
100
AcDbLine
 10
163.447968
 20
126.4022659999999
 30
0.0
 11
162.447968
 21
126.4022659999999
 31
0.0
  0
LINE
  5
98AA
330
9782
100
AcDbEntity
  8
1
  6
Continuous
100
AcDbLine
 10
162.447968
 20
128.2088149999998
 30
0.0
 11
163.447968
 21
128.702269
 31
0.0
  0
LINE
  5
98AB
330
9782
100
AcDbEntity
  8
1
  6
Continuous
100
AcDbLine
 10
163.447968
 20
128.9678179999999
 30
0.0
 11
162.447968
 21
128.4798869999999
 31
0.0
  0
LINE
  5
98AC
330
9782
100
AcDbEntity
  8
1
  6
Continuous
100
AcDbLine
 10
146.421998
 20
149.502272
 30
0.0
 11
144.921998
 21
149.502272
 31
0.0
  0
LINE
  5
98AD
330
9782
100
AcDbEntity
  8
1
  6
Continuous
100
AcDbLine
 10
144.921998
 20
149.502272
 30
0.0
 11
144.921998
 21
144.502272
 31
0.0
  0
LINE
  5
98AE
330
9782
100
AcDbEntity
  8
1
  6
Continuous
100
AcDbLine
 10
144.921998
 20
144.502272
 30
0.0
 11
146.421998
 21
144.502272
 31
0.0
  0
LINE
  5
98AF
330
9782
100
AcDbEntity
  8
1
  6
Continuous
100
AcDbLine
 10
146.421998
 20
145.752272
 30
0.0
 11
144.921998
 21
145.752272
 31
0.0
  0
LINE
  5
98B0
330
9782
100
AcDbEntity
  8
1
  6
Continuous
100
AcDbLine
 10
144.921998
 20
145.852263
 30
0.0
 11
139.421998
 21
145.852263
 31
0.0
  0
LINE
  5
98B1
330
9782
100
AcDbEntity
  8
1
  6
Continuous
100
AcDbLine
 10
139.421998
 20
148.1522659999999
 30
0.0
 11
144.921998
 21
148.1522659999999
 31
0.0
  0
LINE
  5
98B2
330
9782
100
AcDbEntity
  8
1
  6
Continuous
100
AcDbLine
 10
144.921998
 20
148.252272
 30
0.0
 11
146.421998
 21
148.252272
 31
0.0
  0
LINE
  5
98B3
330
9782
100
AcDbEntity
  8
1
  6
Continuous
100
AcDbLine
 10
163.921998
 20
149.302275
 30
0.0
 11
163.921998
 21
144.702269
 31
0.0
  0
LINE
  5
98B4
330
9782
100
AcDbEntity
  8
1
  6
Continuous
100
AcDbLine
 10
164.421998
 20
144.702269
 30
0.0
 11
164.421998
 21
149.302275
 31
0.0
  0
LINE
  5
98B5
330
9782
100
AcDbEntity
  8
1
  6
Continuous
100
AcDbLine
 10
163.447968
 20
131.002272
 30
0.0
 11
163.447968
 21
126.4022659999999
 31
0.0
  0
LINE
  5
98B6
330
9782
100
AcDbEntity
  8
1
  6
Continuous
100
AcDbLine
 10
162.447968
 20
124.2022689999999
 30
0.0
 11
162.447968
 21
133.202269
 31
0.0
  0
LINE
  5
98B7
330
9782
100
AcDbEntity
  8
1
  6
Continuous
100
AcDbLine
 10
139.421998
 20
145.852263
 30
0.0
 11
139.421998
 21
148.1522659999999
 31
0.0
  0
LINE
  5
98B8
330
9782
100
AcDbEntity
  8
1
  6
Continuous
100
AcDbLine
 10
148.4219979999998
 20
117.702269
 30
0.0
 11
146.421998
 21
117.702269
 31
0.0
  0
LINE
  5
98B9
330
9782
100
AcDbEntity
  8
2
  6
Continuous
100
AcDbLine
 10
139.421983
 20
227.522139
 30
0.0
 11
144.921998
 21
227.522139
 31
0.0
  0
LINE
  5
98BA
330
9782
100
AcDbEntity
  8
2
  6
Continuous
100
AcDbLine
 10
139.421983
 20
225.655135
 30
0.0
 11
144.921998
 21
225.655135
 31
0.0
  0
LINE
  5
98BB
330
9782
100
AcDbEntity
  8
1
  6
Continuous
100
AcDbLine
 10
317.2398379999999
 20
117.702269
 30
0.0
 11
317.2398379999999
 21
154.502272
 31
0.0
  0
LINE
  5
98BC
330
9782
100
AcDbEntity
  8
2
  6
Continuous
100
AcDbLine
 10
326.2398379999999
 20
147.935774
 30
0.0
 11
320.7398379999998
 21
147.935774
 31
0.0
  0
LINE
  5
98BD
330
9782
100
AcDbEntity
  8
2
  6
Continuous
100
AcDbLine
 10
326.2398379999999
 20
146.06877
 30
0.0
 11
320.7398379999998
 21
146.06877
 31
0.0
  0
LINE
  5
98BE
330
9782
100
AcDbEntity
  8
4
  6
CENTER
100
AcDbLine
 10
297.596497
 20
147.002272
 30
0.0
 11
327.969758
 21
147.002272
 31
0.0
  0
LINE
  5
98BF
330
9782
100
AcDbEntity
  8
1
  6
Continuous
100
AcDbLine
 10
299.2398379999999
 20
147.280898
 30
0.0
 11
299.2398379999999
 21
146.723631
 31
0.0
  0
LINE
  5
98C0
330
9782
100
AcDbEntity
  8
1
  6
Continuous
100
AcDbLine
 10
300.826661
 20
145.0022719999998
 30
0.0
 11
301.2398379999999
 21
145.0022719999998
 31
0.0
  0
LINE
  5
98C1
330
9782
100
AcDbEntity
  8
1
  6
Continuous
100
AcDbLine
 10
301.2398379999999
 20
144.702269
 30
0.0
 11
302.2398379999998
 21
144.702269
 31
0.0
  0
LINE
  5
98C2
330
9782
100
AcDbEntity
  8
1
  6
Continuous
100
AcDbLine
 10
301.7398079999999
 20
147.456206
 30
0.0
 11
301.2398379999999
 21
147.002287
 31
0.0
  0
LINE
  5
98C3
330
9782
100
AcDbEntity
  8
1
  6
Continuous
100
AcDbLine
 10
301.2398379999999
 20
146.701582
 30
0.0
 11
301.7398379999999
 21
147.1132029999999
 31
0.0
  0
LINE
  5
98C4
330
9782
100
AcDbEntity
  8
1
  6
Continuous
100
AcDbLine
 10
301.2398379999999
 20
149.0022719999998
 30
0.0
 11
300.826661
 21
149.0022719999998
 31
0.0
  0
LINE
  5
98C5
330
9782
100
AcDbEntity
  8
1
  6
Continuous
100
AcDbLine
 10
301.2398379999999
 20
149.302275
 30
0.0
 11
302.2398379999998
 21
149.302275
 31
0.0
  0
LINE
  5
98C6
330
9782
100
AcDbEntity
  8
1
  6
Continuous
100
AcDbLine
 10
315.2398379999999
 20
138.002272
 30
0.0
 11
315.2398379999999
 21
154.502272
 31
0.0
  0
LINE
  5
98C7
330
9782
100
AcDbEntity
  8
1
  6
Continuous
100
AcDbLine
 10
315.2398379999999
 20
154.502272
 30
0.0
 11
317.2398379999999
 21
154.502272
 31
0.0
  0
LINE
  5
98C8
330
9782
100
AcDbEntity
  8
1
  6
Continuous
100
AcDbLine
 10
319.2398379999999
 20
117.702269
 30
0.0
 11
319.2398379999999
 21
153.2022689999998
 31
0.0
  0
LINE
  5
98C9
330
9782
100
AcDbEntity
  8
1
  6
Continuous
100
AcDbLine
 10
319.2398379999999
 20
153.2022689999998
 30
0.0
 11
317.2398379999999
 21
153.2022689999998
 31
0.0
  0
LINE
  5
98CA
330
9782
100
AcDbEntity
  8
1
  6
Continuous
100
AcDbLine
 10
316.2398379999999
 20
154.502272
 30
0.0
 11
316.2398379999999
 21
140.002272
 31
0.0
  0
LINE
  5
98CB
330
9782
100
AcDbEntity
  8
1
  6
Continuous
100
AcDbLine
 10
308.7398379999999
 20
138.002272
 30
0.0
 11
308.7398379999999
 21
153.5463389999998
 31
0.0
  0
LINE
  5
98CC
330
9782
100
AcDbEntity
  8
1
  6
Continuous
100
AcDbLine
 10
310.3898319999998
 20
153.102263
 30
0.0
 11
310.3898319999998
 21
150.002272
 31
0.0
  0
LINE
  5
98CD
330
9782
100
AcDbEntity
  8
1
  6
Continuous
100
AcDbLine
 10
308.9469919999999
 20
150.002272
 30
0.0
 11
308.8398139999998
 21
150.4022659999999
 31
0.0
  0
LINE
  5
98CE
330
9782
100
AcDbEntity
  8
1
  6
Continuous
100
AcDbLine
 10
308.8398439999999
 20
150.4022659999999
 30
0.0
 11
308.6398319999998
 21
150.4022659999999
 31
0.0
  0
LINE
  5
98CF
330
9782
100
AcDbEntity
  8
1
  6
Continuous
100
AcDbLine
 10
308.6398319999998
 20
150.4022809999999
 30
0.0
 11
308.532655
 21
150.002272
 31
0.0
  0
LINE
  5
98D0
330
9782
100
AcDbEntity
  8
1
  6
Continuous
100
AcDbLine
 10
307.0898439999999
 20
150.002272
 30
0.0
 11
307.0898439999999
 21
153.102263
 31
0.0
  0
LINE
  5
98D1
330
9782
100
AcDbEntity
  8
1
  6
Continuous
100
AcDbLine
 10
307.0898439999999
 20
153.102263
 30
0.0
 11
306.789826
 21
153.4022659999999
 31
0.0
  0
LINE
  5
98D2
330
9782
100
AcDbEntity
  8
1
  6
Continuous
100
AcDbLine
 10
306.789826
 20
153.4022659999999
 30
0.0
 11
304.1898509999999
 21
153.4022659999999
 31
0.0
  0
LINE
  5
98D3
330
9782
100
AcDbEntity
  8
1
  6
Continuous
100
AcDbLine
 10
304.1898509999999
 20
153.4022809999999
 30
0.0
 11
303.8898319999999
 21
153.102278
 31
0.0
  0
LINE
  5
98D4
330
9782
100
AcDbEntity
  8
1
  6
Continuous
100
AcDbLine
 10
303.8898319999999
 20
153.102263
 30
0.0
 11
303.8898319999999
 21
150.002272
 31
0.0
  0
LINE
  5
98D5
330
9782
100
AcDbEntity
  8
1
  6
Continuous
100
AcDbLine
 10
302.4470219999999
 20
150.002272
 30
0.0
 11
302.3398439999998
 21
150.4022659999999
 31
0.0
  0
LINE
  5
98D6
330
9782
100
AcDbEntity
  8
1
  6
Continuous
100
AcDbLine
 10
302.3398439999998
 20
150.4022659999999
 30
0.0
 11
302.2398379999998
 21
150.4022659999999
 31
0.0
  0
LINE
  5
98D7
330
9782
100
AcDbEntity
  8
1
  6
Continuous
100
AcDbLine
 10
302.2398379999998
 20
150.002272
 30
0.0
 11
315.2398379999999
 21
150.002272
 31
0.0
  0
LINE
  5
98D8
330
9782
100
AcDbEntity
  8
1
  6
Continuous
100
AcDbLine
 10
313.5898439999999
 20
150.002272
 30
0.0
 11
313.5898439999999
 21
153.102263
 31
0.0
  0
LINE
  5
98D9
330
9782
100
AcDbEntity
  8
1
  6
Continuous
100
AcDbLine
 10
313.5898439999999
 20
153.102263
 30
0.0
 11
313.289826
 21
153.4022659999999
 31
0.0
  0
LINE
  5
98DA
330
9782
100
AcDbEntity
  8
1
  6
Continuous
100
AcDbLine
 10
313.289826
 20
153.4022659999999
 30
0.0
 11
310.6898509999999
 21
153.4022659999999
 31
0.0
  0
LINE
  5
98DB
330
9782
100
AcDbEntity
  8
1
  6
Continuous
100
AcDbLine
 10
310.6898509999999
 20
153.4022659999999
 30
0.0
 11
310.3898319999998
 21
153.102278
 31
0.0
  0
LINE
  5
98DC
330
9782
100
AcDbEntity
  8
1
  6
Continuous
100
AcDbLine
 10
302.2398379999998
 20
150.4022659999999
 30
0.0
 11
302.2398379999998
 21
138.002272
 31
0.0
  0
LINE
  5
98DD
330
9782
100
AcDbEntity
  8
1
  6
Continuous
100
AcDbLine
 10
319.2398379999999
 20
149.502272
 30
0.0
 11
320.7398379999998
 21
149.502272
 31
0.0
  0
LINE
  5
98DE
330
9782
100
AcDbEntity
  8
1
  6
Continuous
100
AcDbLine
 10
320.7398379999998
 20
149.502272
 30
0.0
 11
320.7398379999998
 21
144.502272
 31
0.0
  0
LINE
  5
98DF
330
9782
100
AcDbEntity
  8
1
  6
Continuous
100
AcDbLine
 10
320.7398379999998
 20
144.502272
 30
0.0
 11
319.2398379999999
 21
144.502272
 31
0.0
  0
LINE
  5
98E0
330
9782
100
AcDbEntity
  8
1
  6
Continuous
100
AcDbLine
 10
319.2398379999999
 20
145.752272
 30
0.0
 11
320.7398379999998
 21
145.752272
 31
0.0
  0
LINE
  5
98E1
330
9782
100
AcDbEntity
  8
1
  6
Continuous
100
AcDbLine
 10
320.7398379999998
 20
145.852263
 30
0.0
 11
326.2398379999999
 21
145.852263
 31
0.0
  0
LINE
  5
98E2
330
9782
100
AcDbEntity
  8
1
  6
Continuous
100
AcDbLine
 10
326.2398379999999
 20
148.1522659999999
 30
0.0
 11
320.7398379999998
 21
148.1522659999999
 31
0.0
  0
LINE
  5
98E3
330
9782
100
AcDbEntity
  8
1
  6
Continuous
100
AcDbLine
 10
320.7398379999998
 20
148.252272
 30
0.0
 11
319.2398379999999
 21
148.252272
 31
0.0
  0
LINE
  5
98E4
330
9782
100
AcDbEntity
  8
1
  6
Continuous
100
AcDbLine
 10
301.7398379999999
 20
149.302275
 30
0.0
 11
301.7398379999999
 21
144.702269
 31
0.0
  0
LINE
  5
98E5
330
9782
100
AcDbEntity
  8
1
  6
Continuous
100
AcDbLine
 10
301.2398379999999
 20
144.702269
 30
0.0
 11
301.2398379999999
 21
149.302275
 31
0.0
  0
LINE
  5
98E6
330
9782
100
AcDbEntity
  8
1
  6
Continuous
100
AcDbLine
 10
326.2398379999999
 20
145.852263
 30
0.0
 11
326.2398379999999
 21
148.1522659999999
 31
0.0
  0
LINE
  5
98E7
330
9782
100
AcDbEntity
  8
1
  6
Continuous
100
AcDbLine
 10
317.2398379999999
 20
117.702269
 30
0.0
 11
319.2398379999999
 21
117.702269
 31
0.0
  0
LINE
  5
98E8
330
9782
100
AcDbEntity
  8
1
  6
Continuous
100
AcDbLine
 10
302.2398379999998
 20
138.002272
 30
0.0
 11
303.4898379999999
 21
138.002272
 31
0.0
  0
LINE
  5
98E9
330
9782
100
AcDbEntity
  8
1
  6
Continuous
100
AcDbLine
 10
315.2398379999999
 20
140.002272
 30
0.0
 11
317.2398379999999
 21
140.002272
 31
0.0
  0
LINE
  5
98EA
330
9782
100
AcDbEntity
  8
1
  6
Continuous
100
AcDbLine
 10
317.2398379999999
 20
124.2522719999999
 30
0.0
 11
316.2138679999998
 21
124.2522719999999
 31
0.0
  0
LINE
  5
98EB
330
9782
100
AcDbEntity
  8
1
  6
Continuous
100
AcDbLine
 10
316.2138679999998
 20
124.2522719999999
 30
0.0
 11
316.2138679999998
 21
125.7522719999999
 31
0.0
  0
LINE
  5
98EC
330
9782
100
AcDbEntity
  8
1
  6
Continuous
100
AcDbLine
 10
316.2138679999998
 20
125.7522719999999
 30
0.0
 11
314.41385
 21
125.7522719999999
 31
0.0
  0
LINE
  5
98ED
330
9782
100
AcDbEntity
  8
1
  6
Continuous
100
AcDbLine
 10
314.41385
 20
125.7522719999999
 30
0.0
 11
314.41385
 21
126.702269
 31
0.0
  0
LINE
  5
98EE
330
9782
100
AcDbEntity
  8
1
  6
Continuous
100
AcDbLine
 10
314.41385
 20
131.6522659999999
 30
0.0
 11
316.2138679999998
 21
131.6522659999999
 31
0.0
  0
LINE
  5
98EF
330
9782
100
AcDbEntity
  8
1
  6
Continuous
100
AcDbLine
 10
316.2138679999998
 20
131.6522659999999
 30
0.0
 11
316.2138679999998
 21
133.152266
 31
0.0
  0
LINE
  5
98F0
330
9782
100
AcDbEntity
  8
1
  6
Continuous
100
AcDbLine
 10
316.2138679999998
 20
133.152266
 30
0.0
 11
317.2398379999999
 21
133.152266
 31
0.0
  0
LINE
  5
98F1
330
9782
100
AcDbEntity
  8
1
  6
Continuous
100
AcDbLine
 10
316.2138679999998
 20
133.202269
 30
0.0
 11
303.213868
 21
133.202269
 31
0.0
  0
LINE
  5
98F2
330
9782
100
AcDbEntity
  8
1
  6
Continuous
100
AcDbLine
 10
303.213868
 20
124.2022689999999
 30
0.0
 11
316.2138679999998
 21
124.2022689999999
 31
0.0
  0
LINE
  5
98F3
330
9782
100
AcDbEntity
  8
1
  6
Continuous
100
AcDbLine
 10
316.7398379999998
 20
130.7022689999998
 30
0.0
 11
317.2398379999999
 21
130.7022689999998
 31
0.0
  0
LINE
  5
98F4
330
9782
100
AcDbEntity
  8
1
  6
Continuous
100
AcDbLine
 10
317.2398379999999
 20
126.702269
 30
0.0
 11
316.7398379999998
 21
126.702269
 31
0.0
  0
LINE
  5
98F5
330
9782
100
AcDbEntity
  8
1
  6
Continuous
100
AcDbLine
 10
313.9898379999999
 20
136.802275
 30
0.0
 11
313.9898379999999
 21
138.302275
 31
0.0
  0
LINE
  5
98F6
330
9782
100
AcDbEntity
  8
1
  6
Continuous
100
AcDbLine
 10
313.9898379999999
 20
136.802275
 30
0.0
 11
309.9898379999999
 21
136.802275
 31
0.0
  0
LINE
  5
98F7
330
9782
100
AcDbEntity
  8
1
  6
Continuous
100
AcDbLine
 10
309.9898379999999
 20
136.802275
 30
0.0
 11
309.9898379999999
 21
138.302275
 31
0.0
  0
LINE
  5
98F8
330
9782
100
AcDbEntity
  8
1
  6
Continuous
100
AcDbLine
 10
303.4898379999999
 20
138.302275
 30
0.0
 11
303.4898379999999
 21
136.802275
 31
0.0
  0
LINE
  5
98F9
330
9782
100
AcDbEntity
  8
1
  6
Continuous
100
AcDbLine
 10
303.4898379999999
 20
136.802275
 30
0.0
 11
307.4898379999999
 21
136.802275
 31
0.0
  0
LINE
  5
98FA
330
9782
100
AcDbEntity
  8
1
  6
Continuous
100
AcDbLine
 10
307.4898379999999
 20
136.802275
 30
0.0
 11
307.4898379999999
 21
138.302275
 31
0.0
  0
LINE
  5
98FB
330
9782
100
AcDbEntity
  8
1
  6
Continuous
100
AcDbLine
 10
303.213868
 20
131.002272
 30
0.0
 11
302.2138679999998
 21
131.002272
 31
0.0
  0
LINE
  5
98FC
330
9782
100
AcDbEntity
  8
1
  6
Continuous
100
AcDbLine
 10
302.2138679999998
 20
130.7022689999998
 30
0.0
 11
301.8006899999999
 21
130.7022689999998
 31
0.0
  0
LINE
  5
98FD
330
9782
100
AcDbEntity
  8
1
  6
Continuous
100
AcDbLine
 10
300.2138679999998
 20
128.9810009999999
 30
0.0
 11
300.2138679999998
 21
128.187041
 31
0.0
  0
LINE
  5
98FE
330
9782
100
AcDbEntity
  8
1
  6
Continuous
100
AcDbLine
 10
301.8006899999999
 20
126.702269
 30
0.0
 11
302.2138679999998
 21
126.702269
 31
0.0
  0
LINE
  5
98FF
330
9782
100
AcDbEntity
  8
1
  6
Continuous
100
AcDbLine
 10
302.2138679999998
 20
126.4022659999999
 30
0.0
 11
303.213868
 21
126.4022659999999
 31
0.0
  0
LINE
  5
9900
330
9782
100
AcDbEntity
  8
1
  6
Continuous
100
AcDbLine
 10
303.213868
 20
129.1957379999997
 30
0.0
 11
302.2138679999998
 21
128.702269
 31
0.0
  0
LINE
  5
9901
330
9782
100
AcDbEntity
  8
1
  6
Continuous
100
AcDbLine
 10
302.2138679999998
 20
128.43672
 30
0.0
 11
303.213837
 21
128.9246349999999
 31
0.0
  0
LINE
  5
9902
330
9782
100
AcDbEntity
  8
1
  6
Continuous
100
AcDbLine
 10
302.2138679999998
 20
131.002272
 30
0.0
 11
302.2138679999998
 21
126.4022659999999
 31
0.0
  0
LINE
  5
9903
330
9782
100
AcDbEntity
  8
1
  6
Continuous
100
AcDbLine
 10
303.213868
 20
124.2022689999999
 30
0.0
 11
303.213868
 21
133.202269
 31
0.0
  0
LINE
  5
9904
330
9782
100
AcDbEntity
  8
4
  6
CENTER
100
AcDbLine
 10
138.828156
 20
217.088637
 30
0.0
 11
167.6578069999999
 21
217.088637
 31
0.0
  0
LINE
  5
9905
330
9782
100
AcDbEntity
  8
4
  6
CENTER
100
AcDbLine
 10
138.828156
 20
226.588637
 30
0.0
 11
167.6578069999999
 21
226.588637
 31
0.0
  0
LINE
  5
9906
330
9782
100
AcDbEntity
  8
1
  6
Continuous
100
AcDbLine
 10
146.421983
 20
211.588637
 30
0.0
 11
163.421983
 21
211.588637
 31
0.0
  0
LINE
  5
9907
330
9782
100
AcDbEntity
  8
1
  6
Continuous
100
AcDbLine
 10
161.771989
 20
213.588637
 30
0.0
 11
158.571992
 21
213.588637
 31
0.0
  0
LINE
  5
9908
330
9782
100
AcDbEntity
  8
1
  6
Continuous
100
AcDbLine
 10
158.571992
 20
213.588637
 30
0.0
 11
158.571992
 21
214.088637
 31
0.0
  0
LINE
  5
9909
330
9782
100
AcDbEntity
  8
1
  6
Continuous
100
AcDbLine
 10
158.571992
 20
214.088637
 30
0.0
 11
161.771989
 21
214.088637
 31
0.0
  0
LINE
  5
990A
330
9782
100
AcDbEntity
  8
1
  6
Continuous
100
AcDbLine
 10
161.771989
 20
214.088637
 30
0.0
 11
161.771989
 21
213.588637
 31
0.0
  0
LINE
  5
990B
330
9782
100
AcDbEntity
  8
1
  6
Continuous
100
AcDbLine
 10
155.2719889999998
 20
213.588637
 30
0.0
 11
155.2719889999998
 21
214.088637
 31
0.0
  0
LINE
  5
990C
330
9782
100
AcDbEntity
  8
1
  6
Continuous
100
AcDbLine
 10
155.2719889999998
 20
214.088637
 30
0.0
 11
152.0719919999999
 21
214.088637
 31
0.0
  0
LINE
  5
990D
330
9782
100
AcDbEntity
  8
1
  6
Continuous
100
AcDbLine
 10
152.0719919999999
 20
214.088637
 30
0.0
 11
152.0719919999999
 21
213.588637
 31
0.0
  0
LINE
  5
990E
330
9782
100
AcDbEntity
  8
1
  6
Continuous
100
AcDbLine
 10
152.0719919999999
 20
213.588637
 30
0.0
 11
155.2719889999998
 21
213.588637
 31
0.0
  0
LINE
  5
990F
330
9782
100
AcDbEntity
  8
1
  6
Continuous
100
AcDbLine
 10
155.2719889999998
 20
222.2886339999998
 30
0.0
 11
152.0719919999999
 21
222.2886339999998
 31
0.0
  0
LINE
  5
9910
330
9782
100
AcDbEntity
  8
1
  6
Continuous
100
AcDbLine
 10
152.0719919999999
 20
222.2886339999998
 30
0.0
 11
152.0719919999999
 21
222.7886339999999
 31
0.0
  0
LINE
  5
9911
330
9782
100
AcDbEntity
  8
1
  6
Continuous
100
AcDbLine
 10
152.0719919999999
 20
222.7886339999999
 30
0.0
 11
155.2719889999998
 21
222.7886339999999
 31
0.0
  0
LINE
  5
9912
330
9782
100
AcDbEntity
  8
1
  6
Continuous
100
AcDbLine
 10
155.2719889999998
 20
222.7886339999999
 30
0.0
 11
155.2719889999998
 21
222.2886339999998
 31
0.0
  0
LINE
  5
9913
330
9782
100
AcDbEntity
  8
1
  6
Continuous
100
AcDbLine
 10
158.571992
 20
222.2886339999998
 30
0.0
 11
161.771989
 21
222.2886339999998
 31
0.0
  0
LINE
  5
9914
330
9782
100
AcDbEntity
  8
1
  6
Continuous
100
AcDbLine
 10
161.771989
 20
222.2886339999998
 30
0.0
 11
161.771989
 21
222.7886339999999
 31
0.0
  0
LINE
  5
9915
330
9782
100
AcDbEntity
  8
1
  6
Continuous
100
AcDbLine
 10
161.771989
 20
222.7886339999999
 30
0.0
 11
158.571992
 21
222.7886339999999
 31
0.0
  0
LINE
  5
9916
330
9782
100
AcDbEntity
  8
1
  6
Continuous
100
AcDbLine
 10
158.571992
 20
222.7886339999999
 30
0.0
 11
158.571992
 21
222.2886339999998
 31
0.0
  0
LINE
  5
9917
330
9782
100
AcDbEntity
  8
1
  6
Continuous
100
AcDbLine
 10
151.671983
 20
231.588637
 30
0.0
 11
151.671983
 21
234.0221389999999
 31
0.0
  0
LINE
  5
9918
330
9782
100
AcDbEntity
  8
1
  6
Continuous
100
AcDbLine
 10
151.671983
 20
234.0221389999999
 30
0.0
 11
155.671983
 21
234.0221389999999
 31
0.0
  0
LINE
  5
9919
330
9782
100
AcDbEntity
  8
1
  6
Continuous
100
AcDbLine
 10
155.671983
 20
234.0221389999999
 30
0.0
 11
155.671983
 21
231.588637
 31
0.0
  0
LINE
  5
991A
330
9782
100
AcDbEntity
  8
1
  6
Continuous
100
AcDbLine
 10
155.2719889999998
 20
229.4886309999998
 30
0.0
 11
152.0719919999999
 21
229.4886309999998
 31
0.0
  0
LINE
  5
991B
330
9782
100
AcDbEntity
  8
1
  6
Continuous
100
AcDbLine
 10
152.0719919999999
 20
229.4886309999998
 30
0.0
 11
152.0719919999999
 21
228.9886309999999
 31
0.0
  0
LINE
  5
991C
330
9782
100
AcDbEntity
  8
1
  6
Continuous
100
AcDbLine
 10
152.0719919999999
 20
228.9886309999999
 30
0.0
 11
155.2719889999998
 21
228.9886309999999
 31
0.0
  0
LINE
  5
991D
330
9782
100
AcDbEntity
  8
1
  6
Continuous
100
AcDbLine
 10
155.2719889999998
 20
228.9886309999999
 30
0.0
 11
155.2719889999998
 21
229.4886309999998
 31
0.0
  0
LINE
  5
991E
330
9782
100
AcDbEntity
  8
1
  6
Continuous
100
AcDbLine
 10
158.571992
 20
229.4886309999998
 30
0.0
 11
161.771989
 21
229.4886309999998
 31
0.0
  0
LINE
  5
991F
330
9782
100
AcDbEntity
  8
1
  6
Continuous
100
AcDbLine
 10
161.771989
 20
229.4886309999998
 30
0.0
 11
161.771989
 21
228.9886309999999
 31
0.0
  0
LINE
  5
9920
330
9782
100
AcDbEntity
  8
1
  6
Continuous
100
AcDbLine
 10
161.771989
 20
228.9886309999999
 30
0.0
 11
158.571992
 21
228.9886309999999
 31
0.0
  0
LINE
  5
9921
330
9782
100
AcDbEntity
  8
1
  6
Continuous
100
AcDbLine
 10
158.571992
 20
228.9886309999999
 30
0.0
 11
158.571992
 21
229.4886309999998
 31
0.0
  0
LINE
  5
9922
330
9782
100
AcDbEntity
  8
1
  6
Continuous
100
AcDbLine
 10
158.171983
 20
231.588637
 30
0.0
 11
158.171983
 21
234.0221389999999
 31
0.0
  0
LINE
  5
9923
330
9782
100
AcDbEntity
  8
1
  6
Continuous
100
AcDbLine
 10
158.171983
 20
234.0221389999999
 30
0.0
 11
162.171983
 21
234.0221389999999
 31
0.0
  0
LINE
  5
9924
330
9782
100
AcDbEntity
  8
1
  6
Continuous
100
AcDbLine
 10
162.171983
 20
234.0221389999999
 30
0.0
 11
162.171983
 21
231.588637
 31
0.0
  0
LINE
  5
9925
330
9782
100
AcDbEntity
  8
1
  6
Continuous
100
AcDbLine
 10
163.421983
 20
231.588637
 30
0.0
 11
150.421983
 21
231.588637
 31
0.0
  0
LINE
  5
9926
330
9782
100
AcDbEntity
  8
1
  6
Continuous
100
AcDbLine
 10
150.421983
 20
230.588637
 30
0.0
 11
148.421983
 21
230.588637
 31
0.0
  0
LINE
  5
9927
330
9782
100
AcDbEntity
  8
1
  6
Continuous
100
AcDbLine
 10
148.421983
 20
235.5886369999999
 30
0.0
 11
146.421983
 21
235.5886369999999
 31
0.0
  0
LINE
  5
9928
330
9782
100
AcDbEntity
  8
1
  6
Continuous
100
AcDbLine
 10
144.921983
 20
215.938643
 30
0.0
 11
139.421983
 21
215.938643
 31
0.0
  0
LINE
  5
9929
330
9782
100
AcDbEntity
  8
1
  6
Continuous
100
AcDbLine
 10
139.421983
 20
215.938643
 30
0.0
 11
139.421983
 21
218.238631
 31
0.0
  0
LINE
  5
992A
330
9782
100
AcDbEntity
  8
1
  6
Continuous
100
AcDbLine
 10
139.421983
 20
218.238631
 30
0.0
 11
144.921983
 21
218.238631
 31
0.0
  0
LINE
  5
992B
330
9782
100
AcDbEntity
  8
1
  6
Continuous
100
AcDbLine
 10
146.421983
 20
211.588637
 30
0.0
 11
146.421983
 21
235.5886369999999
 31
0.0
  0
LINE
  5
992C
330
9782
100
AcDbEntity
  8
1
  6
Continuous
100
AcDbLine
 10
139.421983
 20
227.738631
 30
0.0
 11
144.921983
 21
227.738631
 31
0.0
  0
LINE
  5
992D
330
9782
100
AcDbEntity
  8
1
  6
Continuous
100
AcDbLine
 10
144.921983
 20
225.438643
 30
0.0
 11
139.421983
 21
225.438643
 31
0.0
  0
LINE
  5
992E
330
9782
100
AcDbEntity
  8
1
  6
Continuous
100
AcDbLine
 10
139.421983
 20
225.438643
 30
0.0
 11
139.421983
 21
227.738631
 31
0.0
  0
LINE
  5
992F
330
9782
100
AcDbEntity
  8
1
  6
Continuous
100
AcDbLine
 10
149.421983
 20
230.588637
 30
0.0
 11
149.421983
 21
211.588637
 31
0.0
  0
LINE
  5
9930
330
9782
100
AcDbEntity
  8
1
  6
Continuous
100
AcDbLine
 10
148.421983
 20
211.588637
 30
0.0
 11
148.421983
 21
235.5886369999999
 31
0.0
  0
LINE
  5
9931
330
9782
100
AcDbEntity
  8
1
  6
Continuous
100
AcDbLine
 10
150.421983
 20
231.588637
 30
0.0
 11
150.421983
 21
211.588637
 31
0.0
  0
LINE
  5
9932
330
9782
100
AcDbEntity
  8
1
  6
Continuous
100
AcDbLine
 10
156.921983
 20
211.588637
 30
0.0
 11
156.921983
 21
231.588637
 31
0.0
  0
LINE
  5
9933
330
9782
100
AcDbEntity
  8
1
  6
Continuous
100
AcDbLine
 10
163.421983
 20
231.588637
 30
0.0
 11
163.421983
 21
211.588637
 31
0.0
  0
LINE
  5
9934
330
9782
100
AcDbEntity
  8
1
  6
Continuous
100
AcDbLine
 10
163.421983
 20
228.8886399999999
 30
0.0
 11
164.421983
 21
228.8886399999999
 31
0.0
  0
LINE
  5
9935
330
9782
100
AcDbEntity
  8
1
  6
Continuous
100
AcDbLine
 10
164.421983
 20
228.588637
 30
0.0
 11
164.8351749999999
 21
228.588637
 31
0.0
  0
LINE
  5
9936
330
9782
100
AcDbEntity
  8
1
  6
Continuous
100
AcDbLine
 10
166.421983
 20
227.1039109999999
 30
0.0
 11
166.421983
 21
226.073363
 31
0.0
  0
LINE
  5
9937
330
9782
100
AcDbEntity
  8
1
  6
Continuous
100
AcDbLine
 10
163.421983
 20
224.2886339999998
 30
0.0
 11
164.421983
 21
224.2886339999998
 31
0.0
  0
LINE
  5
9938
330
9782
100
AcDbEntity
  8
1
  6
Continuous
100
AcDbLine
 10
164.421983
 20
224.588637
 30
0.0
 11
164.8351749999999
 21
224.588637
 31
0.0
  0
LINE
  5
9939
330
9782
100
AcDbEntity
  8
1
  6
Continuous
100
AcDbLine
 10
164.421983
 20
226.588637
 30
0.0
 11
163.921983
 21
226.134718
 31
0.0
  0
LINE
  5
993A
330
9782
100
AcDbEntity
  8
1
  6
Continuous
100
AcDbLine
 10
164.421983
 20
219.3886399999999
 30
0.0
 11
163.421983
 21
219.3886399999999
 31
0.0
  0
LINE
  5
993B
330
9782
100
AcDbEntity
  8
1
  6
Continuous
100
AcDbLine
 10
164.421983
 20
219.088637
 30
0.0
 11
164.8351749999999
 21
219.088637
 31
0.0
  0
LINE
  5
993C
330
9782
100
AcDbEntity
  8
1
  6
Continuous
100
AcDbLine
 10
166.421983
 20
217.603911
 30
0.0
 11
166.421983
 21
216.573363
 31
0.0
  0
LINE
  5
993D
330
9782
100
AcDbEntity
  8
1
  6
Continuous
100
AcDbLine
 10
164.8351749999999
 20
215.088637
 30
0.0
 11
164.421983
 21
215.088637
 31
0.0
  0
LINE
  5
993E
330
9782
100
AcDbEntity
  8
1
  6
Continuous
100
AcDbLine
 10
164.421983
 20
214.7886339999999
 30
0.0
 11
163.421983
 21
214.7886339999999
 31
0.0
  0
LINE
  5
993F
330
9782
100
AcDbEntity
  8
1
  6
Continuous
100
AcDbLine
 10
163.921998
 20
216.6347179999999
 30
0.0
 11
164.421983
 21
217.088637
 31
0.0
  0
LINE
  5
9940
330
9782
100
AcDbEntity
  8
1
  6
Continuous
100
AcDbLine
 10
164.421998
 20
217.3893109999999
 30
0.0
 11
163.921998
 21
216.9777209999999
 31
0.0
  0
LINE
  5
9941
330
9782
100
AcDbEntity
  8
1
  6
Continuous
100
AcDbLine
 10
163.921983
 20
226.477721
 30
0.0
 11
164.421983
 21
226.889311
 31
0.0
  0
LINE
  5
9942
330
9782
100
AcDbEntity
  8
1
  6
Continuous
100
AcDbLine
 10
163.921983
 20
219.3886399999999
 30
0.0
 11
163.921983
 21
214.7886339999999
 31
0.0
  0
LINE
  5
9943
330
9782
100
AcDbEntity
  8
1
  6
Continuous
100
AcDbLine
 10
164.421983
 20
214.7886339999999
 30
0.0
 11
164.421983
 21
219.3886399999999
 31
0.0
  0
LINE
  5
9944
330
9782
100
AcDbEntity
  8
1
  6
Continuous
100
AcDbLine
 10
164.421983
 20
224.2886339999998
 30
0.0
 11
164.421983
 21
228.8886399999999
 31
0.0
  0
LINE
  5
9945
330
9782
100
AcDbEntity
  8
1
  6
Continuous
100
AcDbLine
 10
163.921983
 20
228.8886399999999
 30
0.0
 11
163.921983
 21
224.2886339999998
 31
0.0
  0
LINE
  5
9946
330
9782
100
AcDbEntity
  8
1
  6
Continuous
100
AcDbLine
 10
149.847962
 20
235.088637
 30
0.0
 11
162.447968
 21
235.088637
 31
0.0
  0
LINE
  5
9947
330
9782
100
AcDbEntity
  8
1
  6
Continuous
100
AcDbLine
 10
162.447968
 20
235.088637
 30
0.0
 11
162.447968
 21
231.588637
 31
0.0
  0
LINE
  5
9948
330
9782
100
AcDbEntity
  8
1
  6
Continuous
100
AcDbLine
 10
149.921983
 20
230.588637
 30
0.0
 11
149.921983
 21
232.588637
 31
0.0
  0
LINE
  5
9949
330
9782
100
AcDbEntity
  8
1
  6
Continuous
100
AcDbLine
 10
148.921983
 20
233.588637
 30
0.0
 11
148.421983
 21
233.588637
 31
0.0
  0
LINE
  5
994A
330
9782
100
AcDbEntity
  8
1
  6
Continuous
100
AcDbLine
 10
165.447968
 20
224.7153149999999
 30
0.0
 11
165.447968
 21
224.073363
 31
0.0
  0
LINE
  5
994B
330
9782
100
AcDbEntity
  8
1
  6
Continuous
100
AcDbLine
 10
163.8611459999999
 20
222.588637
 30
0.0
 11
163.421983
 21
222.588637
 31
0.0
  0
LINE
  5
994C
330
9782
100
AcDbEntity
  8
1
  6
Continuous
100
AcDbLine
 10
146.421983
 20
229.0886369999999
 30
0.0
 11
144.921983
 21
229.0886369999999
 31
0.0
  0
LINE
  5
994D
330
9782
100
AcDbEntity
  8
1
  6
Continuous
100
AcDbLine
 10
144.921983
 20
227.838637
 30
0.0
 11
146.421983
 21
227.838637
 31
0.0
  0
LINE
  5
994E
330
9782
100
AcDbEntity
  8
1
  6
Continuous
100
AcDbLine
 10
144.921983
 20
229.0886369999999
 30
0.0
 11
144.921983
 21
224.088637
 31
0.0
  0
LINE
  5
994F
330
9782
100
AcDbEntity
  8
1
  6
Continuous
100
AcDbLine
 10
146.421983
 20
225.338637
 30
0.0
 11
144.921983
 21
225.338637
 31
0.0
  0
LINE
  5
9950
330
9782
100
AcDbEntity
  8
1
  6
Continuous
100
AcDbLine
 10
144.921983
 20
224.088637
 30
0.0
 11
146.421983
 21
224.088637
 31
0.0
  0
LINE
  5
9951
330
9782
100
AcDbEntity
  8
1
  6
Continuous
100
AcDbLine
 10
146.421983
 20
219.588637
 30
0.0
 11
144.921983
 21
219.588637
 31
0.0
  0
LINE
  5
9952
330
9782
100
AcDbEntity
  8
1
  6
Continuous
100
AcDbLine
 10
144.921983
 20
218.338637
 30
0.0
 11
146.421983
 21
218.338637
 31
0.0
  0
LINE
  5
9953
330
9782
100
AcDbEntity
  8
1
  6
Continuous
100
AcDbLine
 10
144.921983
 20
219.588637
 30
0.0
 11
144.921983
 21
214.5886369999999
 31
0.0
  0
LINE
  5
9954
330
9782
100
AcDbEntity
  8
1
  6
Continuous
100
AcDbLine
 10
146.421983
 20
215.838637
 30
0.0
 11
144.921983
 21
215.838637
 31
0.0
  0
LINE
  5
9955
330
9782
100
AcDbEntity
  8
1
  6
Continuous
100
AcDbLine
 10
130.0219889999999
 20
55.81590099999999
 30
0.0
 11
130.0219889999999
 21
29.815901
 31
0.0
  0
LINE
  5
9956
330
9782
100
AcDbEntity
  8
4
  6
CENTER
100
AcDbLine
 10
166.843034
 20
42.81590099999998
 30
0.0
 11
120.7139289999999
 21
42.81590099999998
 31
0.0
  0
LINE
  5
9957
330
9782
100
AcDbEntity
  8
1
  6
Continuous
100
AcDbLine
 10
131.0219889999999
 20
51.81590100000001
 30
0.0
 11
139.021989
 21
51.81590100000001
 31
0.0
  0
LINE
  5
9958
330
9782
100
AcDbEntity
  8
1
  6
Continuous
100
AcDbLine
 10
139.021989
 20
51.81590100000001
 30
0.0
 11
139.021989
 21
52.81590099999998
 31
0.0
  0
LINE
  5
9959
330
9782
100
AcDbEntity
  8
1
  6
Continuous
100
AcDbLine
 10
139.021989
 20
32.81590099999999
 30
0.0
 11
139.021989
 21
33.81590099999999
 31
0.0
  0
LINE
  5
995A
330
9782
100
AcDbEntity
  8
1
  6
Continuous
100
AcDbLine
 10
139.021989
 20
33.81590099999999
 30
0.0
 11
131.0219889999999
 21
33.81590099999999
 31
0.0
  0
LINE
  5
995B
330
9782
100
AcDbEntity
  8
1
  6
Continuous
100
AcDbLine
 10
126.0219889999999
 20
53.815901
 30
0.0
 11
126.0219889999999
 21
31.815901
 31
0.0
  0
LINE
  5
995C
330
9782
100
AcDbEntity
  8
1
  6
Continuous
100
AcDbLine
 10
126.0219889999999
 20
31.815901
 30
0.0
 11
130.0219889999999
 21
29.81589699999998
 31
0.0
  0
LINE
  5
995D
330
9782
100
AcDbEntity
  8
1
  6
Continuous
100
AcDbLine
 10
130.0219889999999
 20
29.815901
 30
0.0
 11
131.0219889999999
 21
29.815901
 31
0.0
  0
LINE
  5
995E
330
9782
100
AcDbEntity
  8
1
  6
Continuous
100
AcDbLine
 10
131.0219889999999
 20
29.815901
 30
0.0
 11
131.0219889999999
 21
55.81590099999999
 31
0.0
  0
LINE
  5
995F
330
9782
100
AcDbEntity
  8
1
  6
Continuous
100
AcDbLine
 10
131.0219889999999
 20
55.81590099999999
 30
0.0
 11
130.0219889999999
 21
55.81590099999999
 31
0.0
  0
LINE
  5
9960
330
9782
100
AcDbEntity
  8
1
  6
Continuous
100
AcDbLine
 10
130.0219889999999
 20
55.815909
 30
0.0
 11
126.0219889999999
 21
53.81590899999999
 31
0.0
  0
LINE
  5
9961
330
9782
100
AcDbEntity
  8
1
  6
Continuous
100
AcDbLine
 10
139.021989
 20
52.81590099999998
 30
0.0
 11
145.2219859999999
 21
52.81590099999998
 31
0.0
  0
LINE
  5
9962
330
9782
100
AcDbEntity
  8
1
  6
Continuous
100
AcDbLine
 10
145.2219859999999
 20
32.81590099999999
 30
0.0
 11
139.021989
 21
32.81590099999999
 31
0.0
  0
LINE
  5
9963
330
9782
100
AcDbEntity
  8
1
  6
Continuous
100
AcDbLine
 10
145.222001
 20
32.81590899999999
 30
0.0
 11
146.421998
 21
34.015906
 31
0.0
  0
LINE
  5
9964
330
9782
100
AcDbEntity
  8
1
  6
Continuous
100
AcDbLine
 10
145.2219859999999
 20
32.81590099999999
 30
0.0
 11
145.2219859999999
 21
52.81590099999998
 31
0.0
  0
LINE
  5
9965
330
9782
100
AcDbEntity
  8
2
  6
Continuous
100
AcDbLine
 10
145.7634899999999
 20
33.35740499999999
 30
0.0
 11
139.021989
 21
33.35740499999999
 31
0.0
  0
LINE
  5
9966
330
9782
100
AcDbEntity
  8
2
  6
Continuous
100
AcDbLine
 10
145.7634899999999
 20
52.274397
 30
0.0
 11
139.021989
 21
52.274397
 31
0.0
  0
LINE
  5
9967
330
9782
100
AcDbEntity
  8
4
  6
CENTER
100
AcDbLine
 10
161.7499239999999
 20
50.31590099999998
 30
0.0
 11
167.6578069999999
 21
50.31590099999998
 31
0.0
  0
LINE
  5
9968
330
9782
100
AcDbEntity
  8
4
  6
CENTER
100
AcDbLine
 10
161.488633
 20
40.81590099999998
 30
0.0
 11
167.901078
 21
40.81590099999998
 31
0.0
  0
LINE
  5
9969
330
9782
100
AcDbEntity
  8
1
  6
Continuous
100
AcDbLine
 10
146.421983
 20
55.81590099999999
 30
0.0
 11
163.421983
 21
55.81590099999999
 31
0.0
  0
LINE
  5
996A
330
9782
100
AcDbEntity
  8
1
  6
Continuous
100
AcDbLine
 10
163.421983
 20
35.81590099999999
 30
0.0
 11
162.447968
 21
35.81590099999999
 31
0.0
  0
LINE
  5
996B
330
9782
100
AcDbEntity
  8
1
  6
Continuous
100
AcDbLine
 10
150.421983
 20
36.81590099999999
 30
0.0
 11
149.921983
 21
36.81590099999999
 31
0.0
  0
LINE
  5
996C
330
9782
100
AcDbEntity
  8
1
  6
Continuous
100
AcDbLine
 10
148.421983
 20
31.815901
 30
0.0
 11
146.421983
 21
31.815901
 31
0.0
  0
LINE
  5
996D
330
9782
100
AcDbEntity
  8
1
  6
Continuous
100
AcDbLine
 10
146.421983
 20
55.81590099999999
 30
0.0
 11
146.421983
 21
31.815901
 31
0.0
  0
LINE
  5
996E
330
9782
100
AcDbEntity
  8
1
  6
Continuous
100
AcDbLine
 10
149.421983
 20
37.681925
 30
0.0
 11
149.421983
 21
38.31590099999999
 31
0.0
  0
LINE
  5
996F
330
9782
100
AcDbEntity
  8
1
  6
Continuous
100
AcDbLine
 10
148.421983
 20
55.81590099999999
 30
0.0
 11
148.421983
 21
31.815901
 31
0.0
  0
LINE
  5
9970
330
9782
100
AcDbEntity
  8
1
  6
Continuous
100
AcDbLine
 10
150.421983
 20
35.81590099999999
 30
0.0
 11
150.421983
 21
38.31590099999999
 31
0.0
  0
LINE
  5
9971
330
9782
100
AcDbEntity
  8
1
  6
Continuous
100
AcDbLine
 10
156.921983
 20
55.81590099999999
 30
0.0
 11
156.921983
 21
47.315901
 31
0.0
  0
LINE
  5
9972
330
9782
100
AcDbEntity
  8
1
  6
Continuous
100
AcDbLine
 10
163.421983
 20
35.81590099999999
 30
0.0
 11
163.421983
 21
40.51590199999998
 31
0.0
  0
LINE
  5
9973
330
9782
100
AcDbEntity
  8
1
  6
Continuous
100
AcDbLine
 10
163.421983
 20
38.515898
 30
0.0
 11
164.421983
 21
38.515898
 31
0.0
  0
LINE
  5
9974
330
9782
100
AcDbEntity
  8
1
  6
Continuous
100
AcDbLine
 10
164.421983
 20
38.815901
 30
0.0
 11
164.8351749999999
 21
38.815901
 31
0.0
  0
LINE
  5
9975
330
9782
100
AcDbEntity
  8
1
  6
Continuous
100
AcDbLine
 10
166.421983
 20
40.53736699999999
 30
0.0
 11
166.421983
 21
41.094435
 31
0.0
  0
LINE
  5
9976
330
9782
100
AcDbEntity
  8
1
  6
Continuous
100
AcDbLine
 10
164.421983
 20
48.015898
 30
0.0
 11
163.421983
 21
48.015898
 31
0.0
  0
LINE
  5
9977
330
9782
100
AcDbEntity
  8
1
  6
Continuous
100
AcDbLine
 10
164.421983
 20
48.31590099999999
 30
0.0
 11
164.8351749999999
 21
48.31590099999999
 31
0.0
  0
LINE
  5
9978
330
9782
100
AcDbEntity
  8
1
  6
Continuous
100
AcDbLine
 10
166.421983
 20
50.03736700000001
 30
0.0
 11
166.421983
 21
50.594435
 31
0.0
  0
LINE
  5
9979
330
9782
100
AcDbEntity
  8
1
  6
Continuous
100
AcDbLine
 10
164.8351749999999
 20
52.315901
 30
0.0
 11
164.421983
 21
52.315901
 31
0.0
  0
LINE
  5
997A
330
9782
100
AcDbEntity
  8
1
  6
Continuous
100
AcDbLine
 10
164.421983
 20
52.615904
 30
0.0
 11
163.421983
 21
52.615904
 31
0.0
  0
LINE
  5
997B
330
9782
100
AcDbEntity
  8
1
  6
Continuous
100
AcDbLine
 10
163.921998
 20
50.76981599999999
 30
0.0
 11
164.421983
 21
50.315905
 31
0.0
  0
LINE
  5
997C
330
9782
100
AcDbEntity
  8
1
  6
Continuous
100
AcDbLine
 10
164.421998
 20
50.01523099999999
 30
0.0
 11
163.921998
 21
50.426825
 31
0.0
  0
LINE
  5
997D
330
9782
100
AcDbEntity
  8
1
  6
Continuous
100
AcDbLine
 10
163.921983
 20
48.015898
 30
0.0
 11
163.921983
 21
52.615904
 31
0.0
  0
LINE
  5
997E
330
9782
100
AcDbEntity
  8
1
  6
Continuous
100
AcDbLine
 10
164.421983
 20
52.615904
 30
0.0
 11
164.421983
 21
48.015898
 31
0.0
  0
LINE
  5
997F
330
9782
100
AcDbEntity
  8
1
  6
Continuous
100
AcDbLine
 10
164.421983
 20
40.92164499999999
 30
0.0
 11
164.421983
 21
38.515898
 31
0.0
  0
LINE
  5
9980
330
9782
100
AcDbEntity
  8
1
  6
Continuous
100
AcDbLine
 10
163.921983
 20
38.515898
 30
0.0
 11
163.921983
 21
40.817503
 31
0.0
  0
LINE
  5
9981
330
9782
100
AcDbEntity
  8
1
  6
Continuous
100
AcDbLine
 10
149.847962
 20
32.315901
 30
0.0
 11
162.447968
 21
32.315901
 31
0.0
  0
LINE
  5
9982
330
9782
100
AcDbEntity
  8
1
  6
Continuous
100
AcDbLine
 10
162.447968
 20
32.315901
 30
0.0
 11
162.447968
 21
47.315901
 31
0.0
  0
LINE
  5
9983
330
9782
100
AcDbEntity
  8
1
  6
Continuous
100
AcDbLine
 10
149.921983
 20
36.81590099999999
 30
0.0
 11
149.921983
 21
34.815901
 31
0.0
  0
LINE
  5
9984
330
9782
100
AcDbEntity
  8
1
  6
Continuous
100
AcDbLine
 10
148.921983
 20
33.81590099999999
 30
0.0
 11
148.421983
 21
33.81590099999999
 31
0.0
  0
LINE
  5
9985
330
9782
100
AcDbEntity
  8
1
  6
Continuous
100
AcDbLine
 10
165.447968
 20
42.537161
 30
0.0
 11
165.447968
 21
43.09464099999998
 31
0.0
  0
LINE
  5
9986
330
9782
100
AcDbEntity
  8
1
  6
Continuous
100
AcDbLine
 10
163.8611459999999
 20
44.815901
 30
0.0
 11
163.447968
 21
44.815901
 31
0.0
  0
LINE
  5
9987
330
9782
100
AcDbEntity
  8
1
  6
Continuous
100
AcDbLine
 10
145.2219859999999
 20
52.81589399999999
 30
0.0
 11
146.421983
 21
51.615893
 31
0.0
  0
LINE
  5
9988
330
9782
100
AcDbEntity
  8
1
  6
Continuous
100
AcDbLine
 10
163.8611459999999
 20
40.81590099999998
 30
0.0
 11
163.447968
 21
40.81590099999998
 31
0.0
  0
LINE
  5
9989
330
9782
100
AcDbEntity
  8
1
  6
Continuous
100
AcDbLine
 10
162.447968
 20
47.315901
 30
0.0
 11
151.247971
 21
47.315901
 31
0.0
  0
LINE
  5
998A
330
9782
100
AcDbEntity
  8
1
  6
Continuous
100
AcDbLine
 10
162.447968
 20
38.31590099999999
 30
0.0
 11
151.247971
 21
38.31590099999999
 31
0.0
  0
LINE
  5
998B
330
9782
100
AcDbEntity
  8
1
  6
Continuous
100
AcDbLine
 10
150.664628
 20
35.81590099999999
 30
0.0
 11
150.421983
 21
35.81590099999999
 31
0.0
  0
LINE
  5
998C
330
9782
100
AcDbEntity
  8
1
  6
Continuous
100
AcDbLine
 10
148.921983
 20
37.81590099999999
 30
0.0
 11
148.421983
 21
37.81590099999999
 31
0.0
  0
LINE
  5
998D
330
9782
100
AcDbEntity
  8
1
  6
Continuous
100
AcDbLine
 10
148.921983
 20
47.81590099999998
 30
0.0
 11
148.421983
 21
47.81590099999998
 31
0.0
  0
LINE
  5
998E
330
9782
100
AcDbEntity
  8
1
  6
Continuous
100
AcDbLine
 10
149.921983
 20
48.815901
 30
0.0
 11
149.921983
 21
50.81590099999999
 31
0.0
  0
LINE
  5
998F
330
9782
100
AcDbEntity
  8
1
  6
Continuous
100
AcDbLine
 10
148.921983
 20
51.81590100000001
 30
0.0
 11
148.421983
 21
51.81590100000001
 31
0.0
  0
LINE
  5
9990
330
9782
100
AcDbEntity
  8
1
  6
Continuous
100
AcDbLine
 10
149.421983
 20
51.68192499999999
 30
0.0
 11
149.421983
 21
55.81590099999999
 31
0.0
  0
LINE
  5
9991
330
9782
100
AcDbEntity
  8
1
  6
Continuous
100
AcDbLine
 10
149.421983
 20
47.315901
 30
0.0
 11
149.421983
 21
47.949877
 31
0.0
  0
LINE
  5
9992
330
9782
100
AcDbEntity
  8
1
  6
Continuous
100
AcDbLine
 10
150.421983
 20
47.315901
 30
0.0
 11
150.421983
 21
55.81590099999999
 31
0.0
  0
LINE
  5
9993
330
9782
100
AcDbEntity
  8
1
  6
Continuous
100
AcDbLine
 10
149.4479679999998
 20
46.214064
 30
0.0
 11
149.4479679999998
 21
39.41773799999999
 31
0.0
  0
LINE
  5
9994
330
9782
100
AcDbEntity
  8
1
  6
Continuous
100
AcDbLine
 10
151.247971
 20
47.315901
 30
0.0
 11
151.247971
 21
46.214064
 31
0.0
  0
LINE
  5
9995
330
9782
100
AcDbEntity
  8
1
  6
Continuous
100
AcDbLine
 10
151.247971
 20
47.26590199999999
 30
0.0
 11
148.421983
 21
47.26590199999999
 31
0.0
  0
LINE
  5
9996
330
9782
100
AcDbEntity
  8
1
  6
Continuous
100
AcDbLine
 10
151.247971
 20
38.36590000000001
 30
0.0
 11
148.421983
 21
38.36590000000001
 31
0.0
  0
LINE
  5
9997
330
9782
100
AcDbEntity
  8
1
  6
Continuous
100
AcDbLine
 10
151.247971
 20
38.315905
 30
0.0
 11
149.847962
 21
32.315905
 31
0.0
  0
LINE
  5
9998
330
9782
100
AcDbEntity
  8
1
  6
Continuous
100
AcDbLine
 10
151.247971
 20
46.214064
 30
0.0
 11
149.4479679999998
 21
46.214064
 31
0.0
  0
LINE
  5
9999
330
9782
100
AcDbEntity
  8
1
  6
Continuous
100
AcDbLine
 10
151.247971
 20
38.31590099999999
 30
0.0
 11
151.247971
 21
39.41773799999999
 31
0.0
  0
LINE
  5
999A
330
9782
100
AcDbEntity
  8
1
  6
Continuous
100
AcDbLine
 10
151.247971
 20
39.41773799999999
 30
0.0
 11
149.4479679999998
 21
39.41773799999999
 31
0.0
  0
LINE
  5
999B
330
9782
100
AcDbEntity
  8
1
  6
Continuous
100
AcDbLine
 10
163.421983
 20
45.1159
 30
0.0
 11
163.421983
 21
55.81590099999999
 31
0.0
  0
LINE
  5
999C
330
9782
100
AcDbEntity
  8
1
  6
Continuous
100
AcDbLine
 10
315.813874
 20
130.7022689999998
 30
0.0
 11
303.213868
 21
130.7022689999998
 31
0.0
  0
LINE
  5
999D
330
9782
100
AcDbEntity
  8
1
  6
Continuous
100
AcDbLine
 10
315.813874
 20
126.702269
 30
0.0
 11
303.213868
 21
126.702269
 31
0.0
  0
LINE
  5
999E
330
9782
100
AcDbEntity
  8
1
  6
Continuous
100
AcDbLine
 10
315.813874
 20
126.702269
 30
0.0
 11
315.813874
 21
130.7022689999998
 31
0.0
  0
LINE
  5
999F
330
9782
100
AcDbEntity
  8
1
  6
Continuous
100
AcDbLine
 10
314.41385
 20
130.7022689999998
 30
0.0
 11
314.41385
 21
131.6522659999999
 31
0.0
  0
LINE
  5
99A0
330
9782
100
AcDbEntity
  8
1
  6
Continuous
100
AcDbLine
 10
302.2398379999998
 20
140.502272
 30
0.0
 11
315.2398379999999
 21
140.502272
 31
0.0
  0
LINE
  5
99A1
330
9782
100
AcDbEntity
  8
1
  6
Continuous
100
AcDbLine
 10
303.4898379999999
 20
138.302275
 30
0.0
 11
307.4898379999999
 21
138.302275
 31
0.0
  0
LINE
  5
99A2
330
9782
100
AcDbEntity
  8
1
  6
Continuous
100
AcDbLine
 10
303.4898379999999
 20
137.102278
 30
0.0
 11
307.4898379999999
 21
137.102278
 31
0.0
  0
LINE
  5
99A3
330
9782
100
AcDbEntity
  8
1
  6
Continuous
100
AcDbLine
 10
309.9898379999999
 20
137.102278
 30
0.0
 11
313.9898379999999
 21
137.102278
 31
0.0
  0
LINE
  5
99A4
330
9782
100
AcDbEntity
  8
1
  6
Continuous
100
AcDbLine
 10
309.9898379999999
 20
138.302275
 30
0.0
 11
313.9898379999999
 21
138.302275
 31
0.0
  0
LINE
  5
99A5
330
9782
100
AcDbEntity
  8
1
  6
Continuous
100
AcDbLine
 10
307.4898379999999
 20
138.002272
 30
0.0
 11
309.9898379999999
 21
138.002272
 31
0.0
  0
LINE
  5
99A6
330
9782
100
AcDbEntity
  8
1
  6
Continuous
100
AcDbLine
 10
313.9898379999999
 20
138.002272
 30
0.0
 11
315.2398379999999
 21
138.002272
 31
0.0
  0
LINE
  5
99A7
330
9782
100
AcDbEntity
  8
1
  6
Continuous
100
AcDbLine
 10
22.68737699999999
 20
224.255721
 30
0.0
 11
27.33875300000001
 21
224.255721
 31
0.0
  0
LINE
  5
99A8
330
9782
100
AcDbEntity
  8
1
  6
Continuous
100
AcDbLine
 10
22.74285799999999
 20
223.589888
 30
0.0
 11
27.283265
 21
223.589888
 31
0.0
  0
LINE
  5
99A9
330
9782
100
AcDbEntity
  8
1
  6
Continuous
100
AcDbLine
 10
27.08568599999999
 20
222.922697
 30
0.0
 11
25.812203
 21
222.922697
 31
0.0
  0
LINE
  5
99AA
330
9782
100
AcDbEntity
  8
1
  6
Continuous
100
AcDbLine
 10
23.281485
 20
222.2555069999999
 30
0.0
 11
26.744645
 21
222.2555069999999
 31
0.0
  0
LINE
  5
99AB
330
9782
100
AcDbEntity
  8
1
  6
Continuous
100
AcDbLine
 10
25.012391
 20
224.255721
 30
0.0
 11
25.012391
 21
223.589888
 31
0.0
  0
LINE
  5
99AC
330
9782
100
AcDbEntity
  8
1
  6
Continuous
100
AcDbLine
 10
24.212571
 20
222.922697
 30
0.0
 11
22.940444
 21
222.922697
 31
0.0
  0
LINE
  5
99AD
330
9782
100
AcDbEntity
  8
1
  6
Continuous
100
AcDbLine
 10
23.368096
 20
221.589674
 30
0.0
 11
26.656678
 21
221.589674
 31
0.0
  0
LINE
  5
99AE
330
9782
100
AcDbEntity
  8
1
  6
Continuous
100
AcDbLine
 10
26.242562
 20
220.922484
 30
0.0
 11
23.78357
 21
220.922484
 31
0.0
  0
LINE
  5
99AF
330
9782
100
AcDbEntity
  8
1
  6
Continuous
100
AcDbLine
 10
23.184043
 20
220.256636
 30
0.0
 11
26.058511
 21
220.256636
 31
0.0
  0
LINE
  5
99B0
330
9782
100
AcDbEntity
  8
1
  6
Continuous
100
AcDbLine
 10
22.82134899999999
 20
226.9217669999999
 30
0.0
 11
26.99501099999999
 21
226.9217669999999
 31
0.0
  0
LINE
  5
99B1
330
9782
100
AcDbEntity
  8
1
  6
Continuous
100
AcDbLine
 10
26.894868
 20
226.255934
 30
0.0
 11
25.012391
 21
226.255934
 31
0.0
  0
LINE
  5
99B2
330
9782
100
AcDbEntity
  8
1
  6
Continuous
100
AcDbLine
 10
22.818648
 20
225.5887439999999
 30
0.0
 11
27.207482
 21
225.5887439999999
 31
0.0
  0
LINE
  5
99B3
330
9782
100
AcDbEntity
  8
1
  6
Continuous
100
AcDbLine
 10
22.68737699999999
 20
224.9229109999999
 30
0.0
 11
27.33875300000001
 21
224.9229109999999
 31
0.0
  0
LINE
  5
99B4
330
9782
100
AcDbEntity
  8
1
  6
Continuous
100
AcDbLine
 10
25.012391
 20
230.306441
 30
0.0
 11
25.012391
 21
228.928755
 31
0.0
  0
LINE
  5
99B5
330
9782
100
AcDbEntity
  8
1
  6
Continuous
100
AcDbLine
 10
26.260152
 20
228.594481
 30
0.0
 11
23.45064199999999
 21
229.34828
 31
0.0
  0
LINE
  5
99B6
330
9782
100
AcDbEntity
  8
1
  6
Continuous
100
AcDbLine
 10
25.012391
 20
227.9218740000001
 30
0.0
 11
26.612016
 21
227.9218740000001
 31
0.0
  0
LINE
  5
99B7
330
9782
100
AcDbEntity
  8
1
  6
Continuous
100
AcDbLine
 10
24.67946700000001
 20
228.256148
 30
0.0
 11
23.255767
 21
228.256148
 31
0.0
  0
LINE
  5
99B8
330
9782
100
AcDbEntity
  8
1
  6
Continuous
100
AcDbLine
 10
23.13532099999999
 20
227.5889569999999
 30
0.0
 11
24.67946700000001
 21
227.5889569999999
 31
0.0
  0
LINE
  5
99B9
330
9782
100
AcDbEntity
  8
1
  6
Continuous
100
AcDbLine
 10
25.012391
 20
226.255934
 30
0.0
 11
25.012391
 21
225.923018
 31
0.0
  0
LINE
  5
99BA
330
9782
100
AcDbEntity
  8
1
  6
Continuous
100
AcDbLine
 10
24.212571
 20
226.255934
 30
0.0
 11
23.13126299999999
 21
226.255934
 31
0.0
  0
CIRCLE
  5
99BB
330
9782
100
AcDbEntity
  8
1
  6
Continuous
100
AcDbCircle
 10
32.01306199999999
 20
147.002272
 30
0.0
 40
1.149999999999999
  0
CIRCLE
  5
99BC
330
9782
100
AcDbEntity
  8
1
  6
Continuous
100
AcDbCircle
 10
41.51306199999999
 20
147.002272
 30
0.0
 40
1.149999999999999
  0
ARC
  5
99BD
330
9782
100
AcDbEntity
  8
1
  6
Continuous
100
AcDbCircle
 10
44.513062
 20
120.2022689999999
 30
0.0
 40
2.5
100
AcDbArc
 50
269.9999969999999
 51
0.0
  0
ARC
  5
99BE
330
9782
100
AcDbEntity
  8
1
  6
Continuous
100
AcDbCircle
 10
44.513062
 20
150.702269
 30
0.0
 40
2.5
100
AcDbArc
 50
0.0
 51
90.00000300000001
  0
CIRCLE
  5
99BF
330
9782
100
AcDbEntity
  8
1
  6
Continuous
100
AcDbCircle
 10
34.013062
 20
128.702269
 30
0.0
 40
5.0
  0
ARC
  5
99C0
330
9782
100
AcDbEntity
  8
1
  6
Continuous
100
AcDbCircle
 10
34.013062
 20
126.5022719999999
 30
0.0
 40
2.25
100
AcDbArc
 50
296.3877979999999
 51
74.533989
  0
ARC
  5
99C1
330
9782
100
AcDbEntity
  8
1
  6
Continuous
100
AcDbCircle
 10
34.013062
 20
126.5022719999999
 30
0.0
 40
2.25
100
AcDbArc
 50
105.4660099999999
 51
243.612193
  0
CIRCLE
  5
99C2
330
9782
100
AcDbEntity
  8
1
  6
Continuous
100
AcDbCircle
 10
34.013062
 20
128.702269
 30
0.0
 40
11.0
  0
CIRCLE
  5
99C3
330
9782
100
AcDbEntity
  8
1
  6
Continuous
100
AcDbCircle
 10
34.013062
 20
128.702269
 30
0.0
 40
13.0
  0
ARC
  5
99C4
330
9782
100
AcDbEntity
  8
1
  6
Continuous
100
AcDbCircle
 10
25.51306199999999
 20
150.702269
 30
0.0
 40
2.5
100
AcDbArc
 50
90.00000300000001
 51
180.000005
  0
ARC
  5
99C5
330
9782
100
AcDbEntity
  8
1
  6
Continuous
100
AcDbCircle
 10
18.513064
 20
221.088637
 30
0.0
 40
0.5
100
AcDbArc
 50
269.9999969999999
 51
0.0
  0
ARC
  5
99C6
330
9782
100
AcDbEntity
  8
1
  6
Continuous
100
AcDbCircle
 10
18.513064
 20
228.088637
 30
0.0
 40
0.5
100
AcDbArc
 50
0.0
 51
90.00000300000001
  0
ARC
  5
99C7
330
9782
100
AcDbEntity
  8
1
  6
Continuous
100
AcDbCircle
 10
17.01306399999999
 20
228.088637
 30
0.0
 40
0.5
100
AcDbArc
 50
90.00000300000001
 51
180.000005
  0
ARC
  5
99C8
330
9782
100
AcDbEntity
  8
1
  6
Continuous
100
AcDbCircle
 10
17.01306399999999
 20
221.088637
 30
0.0
 40
0.5
100
AcDbArc
 50
180.000005
 51
270.000001
  0
ARC
  5
99C9
330
9782
100
AcDbEntity
  8
1
  6
Continuous
100
AcDbCircle
 10
15.513064
 20
220.6941819999999
 30
0.0
 40
2.0
100
AcDbArc
 50
180.000005
 51
213.6900629999999
  0
ARC
  5
99CA
330
9782
100
AcDbEntity
  8
1
  6
Continuous
100
AcDbCircle
 10
23.84639799999999
 20
214.5886369999999
 30
0.0
 40
2.0
100
AcDbArc
 50
269.9999969999999
 51
306.8698979999999
  0
ARC
  5
99CB
330
9782
100
AcDbEntity
  8
1
  6
Continuous
100
AcDbCircle
 10
58.01306199999999
 20
223.0886369999999
 30
0.0
 40
0.5
100
AcDbArc
 50
314.9999989999999
 51
45.00000099999999
  0
ARC
  5
99CC
330
9782
100
AcDbEntity
  8
1
  6
Continuous
100
AcDbCircle
 10
42.513062
 20
226.788634
 30
0.0
 40
0.5
100
AcDbArc
 50
0.0
 51
90.00000300000001
  0
ARC
  5
99CD
330
9782
100
AcDbEntity
  8
1
  6
Continuous
100
AcDbCircle
 10
41.01306199999998
 20
228.588637
 30
0.0
 40
0.5
100
AcDbArc
 50
0.0
 51
90.00000300000001
  0
ARC
  5
99CE
330
9782
100
AcDbEntity
  8
1
  6
Continuous
100
AcDbCircle
 10
23.84639799999999
 20
234.588637
 30
0.0
 40
2.0
100
AcDbArc
 50
53.130102
 51
90.00000300000001
  0
ARC
  5
99CF
330
9782
100
AcDbEntity
  8
1
  6
Continuous
100
AcDbCircle
 10
19.58343
 20
234.588637
 30
0.0
 40
2.0
100
AcDbArc
 50
90.00000300000001
 51
146.309933
  0
ARC
  5
99D0
330
9782
100
AcDbEntity
  8
1
  6
Continuous
100
AcDbCircle
 10
15.513064
 20
228.483092
 30
0.0
 40
2.0
100
AcDbArc
 50
146.309933
 51
180.000005
  0
ARC
  5
99D1
330
9782
100
AcDbEntity
  8
1
  6
Continuous
100
AcDbCircle
 10
19.58343
 20
214.5886369999999
 30
0.0
 40
2.0
100
AcDbArc
 50
213.690067
 51
269.9999969999999
  0
ARC
  5
99D2
330
9782
100
AcDbEntity
  8
1
  6
Continuous
100
AcDbCircle
 10
143.5219889999999
 20
224.588637
 30
0.0
 40
1.75
100
AcDbArc
 50
150.940774
 51
343.3984429999999
  0
CIRCLE
  5
99D3
330
9782
100
AcDbEntity
  8
2
  6
Continuous
100
AcDbCircle
 10
32.01306199999999
 20
147.002272
 30
0.0
 40
0.9335
  0
CIRCLE
  5
99D4
330
9782
100
AcDbEntity
  8
2
  6
Continuous
100
AcDbCircle
 10
41.51306199999999
 20
147.002272
 30
0.0
 40
0.9335
  0
ARC
  5
99D5
330
9782
100
AcDbEntity
  8
1
  6
Continuous
100
AcDbCircle
 10
222.330918
 20
120.2022689999999
 30
0.0
 40
2.5
100
AcDbArc
 50
179.9999909999999
 51
270.000001
  0
ARC
  5
99D6
330
9782
100
AcDbEntity
  8
1
  6
Continuous
100
AcDbCircle
 10
232.830918
 20
128.702269
 30
0.0
 40
11.0
100
AcDbArc
 50
269.9999969999999
 51
0.0
  0
ARC
  5
99D7
330
9782
100
AcDbEntity
  8
1
  6
Continuous
100
AcDbCircle
 10
232.830918
 20
128.702269
 30
0.0
 40
13.0
100
AcDbArc
 50
237.795772
 51
262.619862
  0
ARC
  5
99D8
330
9782
100
AcDbEntity
  8
1
  6
Continuous
100
AcDbCircle
 10
241.330918
 20
150.702269
 30
0.0
 40
2.5
100
AcDbArc
 50
0.0
 51
90.00000300000001
  0
ARC
  5
99D9
330
9782
100
AcDbEntity
  8
1
  6
Continuous
100
AcDbCircle
 10
232.830918
 20
128.702269
 30
0.0
 40
13.0
100
AcDbArc
 50
277.3801329999999
 51
322.619864
  0
ARC
  5
99DA
330
9782
100
AcDbEntity
  8
1
  6
Continuous
100
AcDbCircle
 10
232.830918
 20
128.702269
 30
0.0
 40
13.0
100
AcDbArc
 50
337.3801349999999
 51
22.619865
  0
CIRCLE
  5
99DB
330
9782
100
AcDbEntity
  8
1
  6
Continuous
100
AcDbCircle
 10
234.830918
 20
147.002272
 30
0.0
 40
2.0
  0
CIRCLE
  5
99DC
330
9782
100
AcDbEntity
  8
1
  6
Continuous
100
AcDbCircle
 10
225.330918
 20
147.002272
 30
0.0
 40
2.0
  0
CIRCLE
  5
99DD
330
9782
100
AcDbEntity
  8
1
  6
Continuous
100
AcDbCircle
 10
225.330918
 20
147.002272
 30
0.0
 40
2.299999999999998
  0
CIRCLE
  5
99DE
330
9782
100
AcDbEntity
  8
1
  6
Continuous
100
AcDbCircle
 10
234.830918
 20
147.002272
 30
0.0
 40
2.299999999999998
  0
ARC
  5
99DF
330
9782
100
AcDbEntity
  8
1
  6
Continuous
100
AcDbCircle
 10
232.830918
 20
128.702269
 30
0.0
 40
4.5
100
AcDbArc
 50
26.387801
 51
333.612203
  0
CIRCLE
  5
99E0
330
9782
100
AcDbEntity
  8
1
  6
Continuous
100
AcDbCircle
 10
232.830918
 20
128.702269
 30
0.0
 40
2.299999999999998
  0
CIRCLE
  5
99E1
330
9782
100
AcDbEntity
  8
1
  6
Continuous
100
AcDbCircle
 10
232.830918
 20
128.702269
 30
0.0
 40
2.0
  0
CIRCLE
  5
99E2
330
9782
100
AcDbEntity
  8
1
  6
Continuous
100
AcDbCircle
 10
225.830918
 20
128.702269
 30
0.0
 40
2.0
  0
ARC
  5
99E3
330
9782
100
AcDbEntity
  8
1
  6
Continuous
100
AcDbCircle
 10
241.330918
 20
128.702269
 30
0.0
 40
2.0
100
AcDbArc
 50
269.9999969999999
 51
90.00000300000001
  0
ARC
  5
99E4
330
9782
100
AcDbEntity
  8
1
  6
Continuous
100
AcDbCircle
 10
164.823304
 20
146.605284
 30
0.0
 40
1.603061
100
AcDbArc
 50
270.4245279999998
 51
4.233871999999998
  0
ARC
  5
99E5
330
9782
100
AcDbEntity
  8
1
  6
Continuous
100
AcDbCircle
 10
164.823304
 20
147.399245
 30
0.0
 40
1.603061
100
AcDbArc
 50
355.766128
 51
89.57547199999996
  0
ARC
  5
99E6
330
9782
100
AcDbEntity
  8
1
  6
Continuous
100
AcDbCircle
 10
148.921998
 20
127.702269
 30
0.0
 40
1.0
100
AcDbArc
 50
269.9999969999999
 51
0.0
  0
ARC
  5
99E7
330
9782
100
AcDbEntity
  8
1
  6
Continuous
100
AcDbCircle
 10
148.921998
 20
129.702269
 30
0.0
 40
1.0
100
AcDbArc
 50
0.0
 51
90.00000300000001
  0
CIRCLE
  5
99E8
330
9782
100
AcDbEntity
  8
1
  6
Continuous
100
AcDbCircle
 10
153.6719979999998
 20
151.902266
 30
0.0
 40
0.9
  0
CIRCLE
  5
99E9
330
9782
100
AcDbEntity
  8
1
  6
Continuous
100
AcDbCircle
 10
160.171998
 20
151.902266
 30
0.0
 40
0.9
  0
ARC
  5
99EA
330
9782
100
AcDbEntity
  8
1
  6
Continuous
100
AcDbCircle
 10
163.849274
 20
129.099257
 30
0.0
 40
1.603061
100
AcDbArc
 50
355.7698240000001
 51
89.57547199999996
  0
ARC
  5
99EB
330
9782
100
AcDbEntity
  8
1
  6
Continuous
100
AcDbCircle
 10
163.849274
 20
128.305281
 30
0.0
 40
1.603061
100
AcDbArc
 50
270.4245279999998
 51
355.7698240000001
  0
ARC
  5
99EC
330
9782
100
AcDbEntity
  8
1
  6
Continuous
100
AcDbCircle
 10
300.8385319999998
 20
146.605284
 30
0.0
 40
1.603061
100
AcDbArc
 50
175.766135
 51
269.575463
  0
ARC
  5
99ED
330
9782
100
AcDbEntity
  8
1
  6
Continuous
100
AcDbCircle
 10
300.8385319999998
 20
147.399245
 30
0.0
 40
1.603061
100
AcDbArc
 50
90.42452600000002
 51
184.233875
  0
CIRCLE
  5
99EE
330
9782
100
AcDbEntity
  8
1
  6
Continuous
100
AcDbCircle
 10
311.9898379999999
 20
151.902266
 30
0.0
 40
0.9
  0
CIRCLE
  5
99EF
330
9782
100
AcDbEntity
  8
1
  6
Continuous
100
AcDbCircle
 10
305.4898379999999
 20
151.902266
 30
0.0
 40
0.9
  0
ARC
  5
99F0
330
9782
100
AcDbEntity
  8
1
  6
Continuous
100
AcDbCircle
 10
316.7398379999998
 20
127.702269
 30
0.0
 40
1.0
100
AcDbArc
 50
202.1848459999999
 51
270.0000039999998
  0
ARC
  5
99F1
330
9782
100
AcDbEntity
  8
1
  6
Continuous
100
AcDbCircle
 10
316.7398379999998
 20
129.702269
 30
0.0
 40
1.0
100
AcDbArc
 50
89.99999599999998
 51
157.815154
  0
ARC
  5
99F2
330
9782
100
AcDbEntity
  8
1
  6
Continuous
100
AcDbCircle
 10
301.812562
 20
129.099257
 30
0.0
 40
1.603061
100
AcDbArc
 50
90.42452600000002
 51
184.230173
  0
ARC
  5
99F3
330
9782
100
AcDbEntity
  8
1
  6
Continuous
100
AcDbCircle
 10
301.812562
 20
128.305281
 30
0.0
 40
1.603061
100
AcDbArc
 50
184.2301769999999
 51
269.5754739999999
  0
ARC
  5
99F4
330
9782
100
AcDbEntity
  8
1
  6
Continuous
100
AcDbCircle
 10
164.823304
 20
226.985625
 30
0.0
 40
1.603061
100
AcDbArc
 50
355.768444
 51
89.57547199999996
  0
ARC
  5
99F5
330
9782
100
AcDbEntity
  8
1
  6
Continuous
100
AcDbCircle
 10
164.823304
 20
226.191649
 30
0.0
 40
1.603061
100
AcDbArc
 50
270.4245279999998
 51
4.231555999999999
  0
ARC
  5
99F6
330
9782
100
AcDbEntity
  8
1
  6
Continuous
100
AcDbCircle
 10
164.823304
 20
217.4856249999999
 30
0.0
 40
1.603061
100
AcDbArc
 50
355.768444
 51
89.57547199999996
  0
ARC
  5
99F7
330
9782
100
AcDbEntity
  8
1
  6
Continuous
100
AcDbCircle
 10
164.823304
 20
216.691649
 30
0.0
 40
1.603061
100
AcDbArc
 50
270.4245279999998
 51
4.231555999999999
  0
ARC
  5
99F8
330
9782
100
AcDbEntity
  8
1
  6
Continuous
100
AcDbCircle
 10
113.847962
 20
224.588637
 30
0.0
 40
37.5
100
AcDbArc
 50
10.758318
 51
16.260204
  0
ARC
  5
99F9
330
9782
100
AcDbEntity
  8
1
  6
Continuous
100
AcDbCircle
 10
148.921983
 20
232.588637
 30
0.0
 40
1.0
100
AcDbArc
 50
0.0
 51
90.00000300000001
  0
ARC
  5
99FA
330
9782
100
AcDbEntity
  8
1
  6
Continuous
100
AcDbCircle
 10
163.849274
 20
224.191649
 30
0.0
 40
1.603061
100
AcDbArc
 50
270.4245279999998
 51
4.231555999999999
  0
ARC
  5
99FB
330
9782
100
AcDbEntity
  8
1
  6
Continuous
100
AcDbCircle
 10
164.823304
 20
40.418913
 30
0.0
 40
1.603061
100
AcDbArc
 50
270.4245279999998
 51
4.237562999999997
  0
ARC
  5
99FC
330
9782
100
AcDbEntity
  8
1
  6
Continuous
100
AcDbCircle
 10
164.823304
 20
41.21288899999998
 30
0.0
 40
1.603061
100
AcDbArc
 50
355.7624369999999
 51
67.066051
  0
ARC
  5
99FD
330
9782
100
AcDbEntity
  8
1
  6
Continuous
100
AcDbCircle
 10
164.823304
 20
49.918913
 30
0.0
 40
1.603061
100
AcDbArc
 50
270.4245279999998
 51
4.237562999999997
  0
ARC
  5
99FE
330
9782
100
AcDbEntity
  8
1
  6
Continuous
100
AcDbCircle
 10
164.823304
 20
50.71288899999998
 30
0.0
 40
1.603061
100
AcDbArc
 50
355.7624369999999
 51
89.57547199999996
  0
ARC
  5
99FF
330
9782
100
AcDbEntity
  8
1
  6
Continuous
100
AcDbCircle
 10
148.921983
 20
34.815901
 30
0.0
 40
1.0
100
AcDbArc
 50
269.9999969999999
 51
0.0
  0
ARC
  5
9A00
330
9782
100
AcDbEntity
  8
1
  6
Continuous
100
AcDbCircle
 10
163.849274
 20
43.21288899999998
 30
0.0
 40
1.603061
100
AcDbArc
 50
355.7698240000001
 51
89.57547199999996
  0
ARC
  5
9A01
330
9782
100
AcDbEntity
  8
1
  6
Continuous
100
AcDbCircle
 10
163.849274
 20
42.418913
 30
0.0
 40
1.603061
100
AcDbArc
 50
270.4245279999998
 51
4.230176
  0
ARC
  5
9A02
330
9782
100
AcDbEntity
  8
1
  6
Continuous
100
AcDbCircle
 10
148.921983
 20
36.81590099999999
 30
0.0
 40
1.0
100
AcDbArc
 50
0.0
 51
90.00000300000001
  0
ARC
  5
9A03
330
9782
100
AcDbEntity
  8
1
  6
Continuous
100
AcDbCircle
 10
148.921983
 20
48.815901
 30
0.0
 40
1.0
100
AcDbArc
 50
269.9999969999999
 51
0.0
  0
ARC
  5
9A04
330
9782
100
AcDbEntity
  8
1
  6
Continuous
100
AcDbCircle
 10
148.921983
 20
50.81590099999999
 30
0.0
 40
1.0
100
AcDbArc
 50
0.0
 51
90.00000300000001
  0
ARC
  5
9A05
330
9782
100
AcDbEntity
  8
1
  6
Continuous
100
AcDbCircle
 10
19.41367999999998
 20
224.588637
 30
0.0
 40
7.932788
100
AcDbArc
 50
333.9859999999998
 51
337.0559999999999
  0
ARC
  5
9A06
330
9782
100
AcDbEntity
  8
1
  6
Continuous
100
AcDbCircle
 10
26.656678
 20
221.5233599999999
 30
0.0
 40
0.066678
100
AcDbArc
 50
337.0559999999999
 51
90.00000300000001
  0
ARC
  5
9A07
330
9782
100
AcDbEntity
  8
1
  6
Continuous
100
AcDbCircle
 10
27.08568599999999
 20
222.856383
 30
0.0
 40
0.066678
100
AcDbArc
 50
347.270997
 51
90.00000300000001
  0
ARC
  5
9A08
330
9782
100
AcDbEntity
  8
1
  6
Continuous
100
AcDbCircle
 10
19.41367999999998
 20
224.588637
 30
0.0
 40
7.932788
100
AcDbArc
 50
344.794003
 51
347.270997
  0
ARC
  5
9A09
330
9782
100
AcDbEntity
  8
1
  6
Continuous
100
AcDbCircle
 10
19.41367999999998
 20
224.588637
 30
0.0
 40
7.932788
100
AcDbArc
 50
344.741998
 51
344.794003
  0
ARC
  5
9A0A
330
9782
100
AcDbEntity
  8
1
  6
Continuous
100
AcDbCircle
 10
26.744645
 20
222.5897809999999
 30
0.0
 40
0.333392
100
AcDbArc
 50
270.0000039999998
 51
344.741986
  0
ARC
  5
9A0B
330
9782
100
AcDbEntity
  8
1
  6
Continuous
100
AcDbCircle
 10
23.281485
 20
222.5897809999999
 30
0.0
 40
0.333392
100
AcDbArc
 50
195.2575039999999
 51
270.0000039999998
  0
ARC
  5
9A0C
330
9782
100
AcDbEntity
  8
1
  6
Continuous
100
AcDbCircle
 10
30.61244999999999
 20
224.588637
 30
0.0
 40
7.932788
100
AcDbArc
 50
193.268102
 51
195.2575039999999
  0
ARC
  5
9A0D
330
9782
100
AcDbEntity
  8
1
  6
Continuous
100
AcDbCircle
 10
30.61244999999999
 20
224.588637
 30
0.0
 40
7.932788
100
AcDbArc
 50
192.728899
 51
193.268102
  0
ARC
  5
9A0E
330
9782
100
AcDbEntity
  8
1
  6
Continuous
100
AcDbCircle
 10
22.940444
 20
222.856383
 30
0.0
 40
0.066678
100
AcDbArc
 50
90.00000300000001
 51
192.728896
  0
ARC
  5
9A0F
330
9782
100
AcDbEntity
  8
1
  6
Continuous
100
AcDbCircle
 10
26.242562
 20
221.256743
 30
0.0
 40
0.333392
100
AcDbArc
 50
270.0000039999998
 51
333.985995
  0
ARC
  5
9A10
330
9782
100
AcDbEntity
  8
1
  6
Continuous
100
AcDbCircle
 10
23.368096
 20
221.5233599999999
 30
0.0
 40
0.066678
100
AcDbArc
 50
90.00000300000001
 51
202.9440039999998
  0
ARC
  5
9A11
330
9782
100
AcDbEntity
  8
1
  6
Continuous
100
AcDbCircle
 10
30.61244999999999
 20
224.588637
 30
0.0
 40
7.932788
100
AcDbArc
 50
202.944007
 51
206.014396
  0
ARC
  5
9A12
330
9782
100
AcDbEntity
  8
1
  6
Continuous
100
AcDbCircle
 10
23.78357
 20
221.256743
 30
0.0
 40
0.333392
100
AcDbArc
 50
206.014396
 51
270.0000039999998
  0
ARC
  5
9A13
330
9782
100
AcDbEntity
  8
1
  6
Continuous
100
AcDbCircle
 10
25.012391
 20
220.5895519999998
 30
0.0
 40
1.717978999999998
100
AcDbArc
 50
270.0000039999998
 51
324.4620069999998
  0
ARC
  5
9A14
330
9782
100
AcDbEntity
  8
1
  6
Continuous
100
AcDbCircle
 10
25.012391
 20
220.5895519999998
 30
0.0
 40
1.717978999999998
100
AcDbArc
 50
215.5377009999999
 51
256.5374009999998
  0
ARC
  5
9A15
330
9782
100
AcDbEntity
  8
1
  6
Continuous
100
AcDbCircle
 10
19.41367999999998
 20
224.588637
 30
0.0
 40
7.932788
100
AcDbArc
 50
7.792996999999997
 51
10.103999
  0
ARC
  5
9A16
330
9782
100
AcDbEntity
  8
1
  6
Continuous
100
AcDbCircle
 10
27.207482
 20
225.6564159999999
 30
0.0
 40
0.066678
100
AcDbArc
 50
270.0000039999998
 51
7.793000999999998
  0
ARC
  5
9A17
330
9782
100
AcDbEntity
  8
1
  6
Continuous
100
AcDbCircle
 10
26.894868
 20
225.923018
 30
0.0
 40
0.333392
100
AcDbArc
 50
10.103999
 51
90.00000300000001
  0
ARC
  5
9A18
330
9782
100
AcDbEntity
  8
1
  6
Continuous
100
AcDbCircle
 10
22.818648
 20
225.6564159999999
 30
0.0
 40
0.066678
100
AcDbArc
 50
172.207005
 51
270.000001
  0
ARC
  5
9A19
330
9782
100
AcDbEntity
  8
1
  6
Continuous
100
AcDbCircle
 10
30.61244999999999
 20
224.588637
 30
0.0
 40
7.932788
100
AcDbArc
 50
169.8959969999999
 51
172.207005
  0
ARC
  5
9A1A
330
9782
100
AcDbEntity
  8
1
  6
Continuous
100
AcDbCircle
 10
23.13126299999999
 20
225.923018
 30
0.0
 40
0.333392
100
AcDbArc
 50
90.00000300000001
 51
169.8959969999999
  0
ARC
  5
9A1B
330
9782
100
AcDbEntity
  8
1
  6
Continuous
100
AcDbCircle
 10
25.012391
 20
228.589064
 30
0.0
 40
1.717978999999998
100
AcDbArc
 50
35.53799999999999
 51
45.698999
  0
ARC
  5
9A1C
330
9782
100
AcDbEntity
  8
1
  6
Continuous
100
AcDbCircle
 10
25.012391
 20
228.589064
 30
0.0
 40
1.717978999999998
100
AcDbArc
 50
62.25000299999999
 51
144.461998
  0
ARC
  5
9A1D
330
9782
100
AcDbEntity
  8
1
  6
Continuous
100
AcDbCircle
 10
24.67946700000001
 20
227.9218740000001
 30
0.0
 40
0.333392
100
AcDbArc
 50
270.0000039999998
 51
90.00000300000001
  0
ARC
  5
9A1E
330
9782
100
AcDbEntity
  8
1
  6
Continuous
100
AcDbCircle
 10
30.61244999999999
 20
224.588637
 30
0.0
 40
8.599396
100
AcDbArc
 50
144.461998
 51
215.5376979999999
  0
ARC
  5
9A1F
330
9782
100
AcDbEntity
  8
1
  6
Continuous
100
AcDbCircle
 10
19.41367999999998
 20
224.588637
 30
0.0
 40
8.599396
100
AcDbArc
 50
324.461996
 51
35.53799999999999
  0
ENDSEC
  0
SECTION
  2
OBJECTS
  0
DICTIONARY
  5
9770
330
0
100
AcDbDictionary
281
     1
  3
ACAD_CIP_PREVIOUS_PRODUCT_INFO
350
9A83
  3
ACAD_COLOR
350
9A65
  3
ACAD_DETAILVIEWSTYLE
350
9A7E
  3
ACAD_GROUP
350
9771
  3
ACAD_LAYOUT
350
977D
  3
ACAD_MATERIAL
350
9A33
  3
ACAD_MLEADERSTYLE
350
9A7A
  3
ACAD_MLINESTYLE
350
977A
  3
ACAD_PLOTSETTINGS
350
977C
  3
ACAD_PLOTSTYLENAME
350
9A31
  3
ACAD_SCALELIST
350
9A68
  3
ACAD_SECTIONVIEWSTYLE
350
9A7C
  3
ACAD_TABLESTYLE
350
9A66
  3
ACAD_VISUALSTYLE
350
9A4C
  3
ACDB_RECOMPOSE_DATA
350
9AA1
  3
AcDbVariableDictionary
350
9A94
  3
DWGPROPS
350
9AA2
  0
DICTIONARY
  5
9A84
330
9774
100
AcDbDictionary
280
     1
281
     1
  3
ADSK_XREC_LAYER_RECONCILED
360
9A85
  0
DICTIONARY
  5
9A86
330
978A
100
AcDbDictionary
280
     1
281
     1
  3
ADSK_XREC_LAYER_RECONCILED
360
9A87
  0
DICTIONARY
  5
9A88
330
978B
100
AcDbDictionary
280
     1
281
     1
  3
ADSK_XREC_LAYER_RECONCILED
360
9A89
  0
DICTIONARY
  5
9A8A
330
978C
100
AcDbDictionary
280
     1
281
     1
  3
ADSK_XREC_LAYER_RECONCILED
360
9A8B
  0
DICTIONARY
  5
9A8C
330
978D
100
AcDbDictionary
280
     1
281
     1
  3
ADSK_XREC_LAYER_RECONCILED
360
9A8D
  0
DICTIONARY
  5
9A8E
330
978E
100
AcDbDictionary
280
     1
281
     1
  3
ADSK_XREC_LAYER_RECONCILED
360
9A8F
  0
DICTIONARY
  5
9A90
330
978F
100
AcDbDictionary
280
     1
281
     1
  3
ADSK_XREC_LAYER_RECONCILED
360
9A91
  0
DICTIONARY
  5
9A92
330
9790
100
AcDbDictionary
280
     1
281
     1
  3
ADSK_XREC_LAYER_RECONCILED
360
9A93
  0
DICTIONARY
  5
9A2C
330
9782
100
AcDbDictionary
281
     1
  3
ACAD_LAYOUTSELFREF
350
9A2D
  0
DICTIONARY
  5
9A2A
330
977E
100
AcDbDictionary
281
     1
  3
ACAD_LAYOUTSELFREF
350
9A2B
  0
XRECORD
  5
9A83
102
{ACAD_REACTORS
330
9770
102
}
330
9770
100
AcDbXrecord
280
     1
300
ACDLT
300
2014
300
ACDLT_F_S
  0
DICTIONARY
  5
9A65
102
{ACAD_REACTORS
330
9770
102
}
330
9770
100
AcDbDictionary
281
     1
  0
DICTIONARY
  5
9A7E
102
{ACAD_REACTORS
330
9770
102
}
330
9770
100
AcDbDictionary
281
     1
  3
Imperial24
350
9A7F
  0
DICTIONARY
  5
9771
102
{ACAD_REACTORS
330
9770
102
}
330
9770
100
AcDbDictionary
281
     1
  0
DICTIONARY
  5
977D
102
{ACAD_REACTORS
330
9770
102
}
330
9770
100
AcDbDictionary
281
     1
  3
Model
350
9A80
  3
レイアウト1
350
9A81
  0
DICTIONARY
  5
9A33
102
{ACAD_REACTORS
330
9770
102
}
330
9770
100
AcDbDictionary
281
     1
  3
ByBlock
350
9A3C
  3
ByLayer
350
9A34
  3
Global
350
9A44
  0
DICTIONARY
  5
9A7A
102
{ACAD_REACTORS
330
9770
102
}
330
9770
100
AcDbDictionary
281
     1
  3
Standard
350
9A7B
  0
DICTIONARY
  5
977A
102
{ACAD_REACTORS
330
9770
102
}
330
9770
100
AcDbDictionary
281
     1
  3
STANDARD
350
977B
  0
DICTIONARY
  5
977C
102
{ACAD_REACTORS
330
9770
102
}
330
9770
100
AcDbDictionary
281
     1
  0
ACDBDICTIONARYWDFLT
  5
9A31
102
{ACAD_REACTORS
330
9770
102
}
330
9770
100
AcDbDictionary
281
     1
  3
Normal
350
9A32
100
AcDbDictionaryWithDefault
340
9A32
  0
DICTIONARY
  5
9A68
102
{ACAD_REACTORS
330
9770
102
}
330
9770
100
AcDbDictionary
281
     1
  3
A0
350
9A69
  3
A1
350
9A6A
  3
A2
350
9A6B
  3
A3
350
9A6C
  3
A4
350
9A6D
  3
A5
350
9A6E
  3
A6
350
9A6F
  3
A7
350
9A70
  3
A8
350
9A71
  3
A9
350
9A72
  3
B0
350
9A73
  3
B1
350
9A74
  3
B2
350
9A75
  3
B3
350
9A76
  3
B4
350
9A77
  3
B5
350
9A78
  3
B6
350
9A79
  0
DICTIONARY
  5
9A7C
102
{ACAD_REACTORS
330
9770
102
}
330
9770
100
AcDbDictionary
281
     1
  3
Imperial24
350
9A7D
  0
DICTIONARY
  5
9A66
102
{ACAD_REACTORS
330
9770
102
}
330
9770
100
AcDbDictionary
281
     1
  3
Standard
350
9A67
  0
DICTIONARY
  5
9A4C
102
{ACAD_REACTORS
330
9770
102
}
330
9770
100
AcDbDictionary
281
     1
  3
2dWireframe
350
9A52
  3
Basic
350
9A51
  3
Brighten
350
9A58
  3
ColorChange
350
9A5C
  3
Conceptual
350
9A55
  3
Dim
350
9A57
  3
EdgeColorOff
350
9A64
  3
Facepattern
350
9A5B
  3
Flat
350
9A4D
  3
FlatWithEdges
350
9A4E
  3
Gouraud
350
9A4F
  3
GouraudWithEdges
350
9A50
  3
Hidden
350
9A54
  3
JitterOff
350
9A62
  3
Linepattern
350
9A5A
  3
OverhangOff
350
9A63
  3
Realistic
350
9A56
  3
Shaded
350
9A61
  3
Shaded with edges
350
9A60
  3
Shades of Gray
350
9A5D
  3
Sketchy
350
9A5E
  3
Thicken
350
9A59
  3
Wireframe
350
9A53
  3
X-Ray
350
9A5F
  0
XRECORD
  5
9AA1
102
{ACAD_REACTORS
330
9770
102
}
330
9770
100
AcDbXrecord
280
     1
 90
        1
330
9A67
  0
DICTIONARY
  5
9A94
102
{ACAD_REACTORS
330
9770
102
}
330
9770
100
AcDbDictionary
281
     1
  3
CANNOSCALE
350
9A99
  3
CMLEADERSTYLE
350
9A96
  3
CTABLESTYLE
350
9A95
  3
CVIEWDETAILSTYLE
350
9A97
  3
CVIEWSECTIONSTYLE
350
9A98
  3
DIMASSOC
350
9A9C
  3
INDEXCTL
350
9A9B
  3
SORTENTS
350
9A9A
  3
XCLIPFRAME
350
9A9D
  0
XRECORD
  5
9AA2
102
{ACAD_REACTORS
330
9770
102
}
330
9770
100
AcDbXrecord
280
     1
  1
DWGPROPS COOKIE
  2

  3

  4

  6

  7

  8
Yoshitsune
  9

300
=
301
=
302
=
303
=
304
=
305
=
306
=
307
=
308
=
309
=
 40
0.0000137152777778
 41
2450945.562597801
 42
2457192.59895463
  1

 90
        0
  0
XRECORD
  5
9A85
102
{ACAD_REACTORS
330
9A84
102
}
330
9A84
100
AcDbXrecord
280
     1
290
     1
  0
XRECORD
  5
9A87
102
{ACAD_REACTORS
330
9A86
102
}
330
9A86
100
AcDbXrecord
280
     1
290
     1
  0
XRECORD
  5
9A89
102
{ACAD_REACTORS
330
9A88
102
}
330
9A88
100
AcDbXrecord
280
     1
290
     1
  0
XRECORD
  5
9A8B
102
{ACAD_REACTORS
330
9A8A
102
}
330
9A8A
100
AcDbXrecord
280
     1
290
     1
  0
XRECORD
  5
9A8D
102
{ACAD_REACTORS
330
9A8C
102
}
330
9A8C
100
AcDbXrecord
280
     1
290
     1
  0
XRECORD
  5
9A8F
102
{ACAD_REACTORS
330
9A8E
102
}
330
9A8E
100
AcDbXrecord
280
     1
290
     1
  0
XRECORD
  5
9A91
102
{ACAD_REACTORS
330
9A90
102
}
330
9A90
100
AcDbXrecord
280
     1
290
     1
  0
XRECORD
  5
9A93
102
{ACAD_REACTORS
330
9A92
102
}
330
9A92
100
AcDbXrecord
280
     1
290
     1
  0
XRECORD
  5
9A2D
102
{ACAD_REACTORS
330
9A2C
102
}
330
9A2C
100
AcDbXrecord
280
     1
340
9782
  0
XRECORD
  5
9A2B
102
{ACAD_REACTORS
330
9A2A
102
}
330
9A2A
100
AcDbXrecord
280
     1
340
977E
  0
ACDBDETAILVIEWSTYLE
  5
9A7F
102
{ACAD_XDICTIONARY
360
9ADA
102
}
102
{ACAD_REACTORS
330
9A7E
102
}
330
9A7E
100
AcDbModelDocViewStyle
 70
     0
  3
Imperial24
290
     0
100
AcDbDetailViewStyle
 70
     0
 71
     0
 90
        3
 71
     1
340
9775
 40
0.24
340
0
 40
0.24
300

 40
0.36
280
     3
 71
     2
340
9779
 90
       25
 71
     3
340
9775
 40
0.24
 90
        1
 40
0.75
 90
        1
300
%<\AcVar ViewType \f "%tc1">% %<\AcVar ViewDetailId>%\PSCALE %<\AcVar ViewScale \f "%sn">%
 71
     4
340
9779
 90
       25
340
9779
 90
       25
280
     0
  0
LAYOUT
  5
9A80
102
{ACAD_XDICTIONARY
360
9ADC
102
}
102
{ACAD_REACTORS
330
977D
102
}
330
977D
100
AcDbPlotSettings
  1

  2
Canon LBP9100C
  4

  6

 40
0.0
 41
0.0
 42
0.0
 43
0.0
 44
0.0
 45
0.0
 46
0.0
 47
0.0
 48
0.0
 49
0.0
140
0.0
141
0.0
142
1.0
143
1.0
 70
  1712
 72
     0
 73
     0
 74
     0
  7

 75
     0
147
1.0
148
0.0
149
0.0
100
AcDbLayout
  1
Model
 70
     1
 71
     0
 10
0.0
 20
0.0
 11
12.0
 21
9.0
 12
0.0
 22
0.0
 32
0.0
 14
0.0
 24
0.0
 34
0.0
 15
0.0
 25
0.0
 35
0.0
146
0.0
 13
0.0
 23
0.0
 33
0.0
 16
1.0
 26
0.0
 36
0.0
 17
0.0
 27
1.0
 37
0.0
 76
     0
330
9782
331
9A29
  0
LAYOUT
  5
9A81
102
{ACAD_XDICTIONARY
360
9ADE
102
}
102
{ACAD_REACTORS
330
977D
102
}
330
977D
100
AcDbPlotSettings
  1

  2
Canon LBP9100C
  4

  6

 40
0.0
 41
0.0
 42
0.0
 43
0.0
 44
0.0
 45
0.0
 46
0.0
 47
0.0
 48
0.0
 49
0.0
140
0.0
141
0.0
142
1.0
143
1.0
 70
   688
 72
     0
 73
     0
 74
     5
  7

 75
    16
147
1.0
148
0.0
149
0.0
100
AcDbLayout
  1
レイアウト1
 70
     0
 71
     1
 10
0.0
 20
0.0
 11
420.0
 21
297.0
 12
0.0
 22
0.0
 32
0.0
 14
1.000000000000000E+20
 24
1.000000000000000E+20
 34
1.000000000000000E+20
 15
-1.000000000000000E+20
 25
-1.000000000000000E+20
 35
-1.000000000000000E+20
146
0.0
 13
0.0
 23
0.0
 33
0.0
 16
1.0
 26
0.0
 36
0.0
 17
0.0
 27
1.0
 37
0.0
 76
     0
330
977E
  0
MATERIAL
  5
9A3C
102
{ACAD_XDICTIONARY
360
9A3D
102
}
102
{ACAD_REACTORS
330
9A33
102
}
330
9A33
100
AcDbMaterial
  1
ByBlock
 72
     0
 43
0.0208333333333333
 43
0.0
 43
0.0
 43
0.0
 43
0.0
 43
0.0208333333333333
 43
0.0
 43
0.0
 43
0.0
 43
0.0
 43
1.0
 43
0.0
 43
0.0
 43
0.0
 43
0.0
 43
1.0
 77
     0
 47
0.0208333333333333
 47
0.0
 47
0.0
 47
0.0
 47
0.0
 47
0.0208333333333333
 47
0.0
 47
0.0
 47
0.0
 47
0.0
 47
1.0
 47
0.0
 47
0.0
 47
0.0
 47
0.0
 47
1.0
171
     0
 49
0.0208333333333333
 49
0.0
 49
0.0
 49
0.0
 49
0.0
 49
0.0208333333333333
 49
0.0
 49
0.0
 49
0.0
 49
0.0
 49
1.0
 49
0.0
 49
0.0
 49
0.0
 49
0.0
 49
1.0
175
     0
142
0.0208333333333333
142
0.0
142
0.0
142
0.0
142
0.0
142
0.0208333333333333
142
0.0
142
0.0
142
0.0
142
0.0
142
1.0
142
0.0
142
0.0
142
0.0
142
0.0
142
1.0
179
     0
144
0.0208333333333333
144
0.0
144
0.0
144
0.0
144
0.0
144
0.0208333333333333
144
0.0
144
0.0
144
0.0
144
0.0
144
1.0
144
0.0
144
0.0
144
0.0
144
0.0
144
1.0
147
0.0208333333333333
147
0.0
147
0.0
147
0.0
147
0.0
147
0.0208333333333333
147
0.0
147
0.0
147
0.0
147
0.0
147
1.0
147
0.0
147
0.0
147
0.0
147
0.0
147
1.0
  0
MATERIAL
  5
9A34
102
{ACAD_XDICTIONARY
360
9A35
102
}
102
{ACAD_REACTORS
330
9A33
102
}
330
9A33
100
AcDbMaterial
  1
ByLayer
 72
     0
 43
0.0208333333333333
 43
0.0
 43
0.0
 43
0.0
 43
0.0
 43
0.0208333333333333
 43
0.0
 43
0.0
 43
0.0
 43
0.0
 43
1.0
 43
0.0
 43
0.0
 43
0.0
 43
0.0
 43
1.0
 77
     0
 47
0.0208333333333333
 47
0.0
 47
0.0
 47
0.0
 47
0.0
 47
0.0208333333333333
 47
0.0
 47
0.0
 47
0.0
 47
0.0
 47
1.0
 47
0.0
 47
0.0
 47
0.0
 47
0.0
 47
1.0
171
     0
 49
0.0208333333333333
 49
0.0
 49
0.0
 49
0.0
 49
0.0
 49
0.0208333333333333
 49
0.0
 49
0.0
 49
0.0
 49
0.0
 49
1.0
 49
0.0
 49
0.0
 49
0.0
 49
0.0
 49
1.0
175
     0
142
0.0208333333333333
142
0.0
142
0.0
142
0.0
142
0.0
142
0.0208333333333333
142
0.0
142
0.0
142
0.0
142
0.0
142
1.0
142
0.0
142
0.0
142
0.0
142
0.0
142
1.0
179
     0
144
0.0208333333333333
144
0.0
144
0.0
144
0.0
144
0.0
144
0.0208333333333333
144
0.0
144
0.0
144
0.0
144
0.0
144
1.0
144
0.0
144
0.0
144
0.0
144
0.0
144
1.0
147
0.0208333333333333
147
0.0
147
0.0
147
0.0
147
0.0
147
0.0208333333333333
147
0.0
147
0.0
147
0.0
147
0.0
147
1.0
147
0.0
147
0.0
147
0.0
147
0.0
147
1.0
  0
MATERIAL
  5
9A44
102
{ACAD_XDICTIONARY
360
9A45
102
}
102
{ACAD_REACTORS
330
9A33
102
}
330
9A33
100
AcDbMaterial
  1
Global
 72
     0
 43
0.0208333333333333
 43
0.0
 43
0.0
 43
0.0
 43
0.0
 43
0.0208333333333333
 43
0.0
 43
0.0
 43
0.0
 43
0.0
 43
1.0
 43
0.0
 43
0.0
 43
0.0
 43
0.0
 43
1.0
 77
     0
 47
0.0208333333333333
 47
0.0
 47
0.0
 47
0.0
 47
0.0
 47
0.0208333333333333
 47
0.0
 47
0.0
 47
0.0
 47
0.0
 47
1.0
 47
0.0
 47
0.0
 47
0.0
 47
0.0
 47
1.0
171
     0
 49
0.0208333333333333
 49
0.0
 49
0.0
 49
0.0
 49
0.0
 49
0.0208333333333333
 49
0.0
 49
0.0
 49
0.0
 49
0.0
 49
1.0
 49
0.0
 49
0.0
 49
0.0
 49
0.0
 49
1.0
175
     0
142
0.0208333333333333
142
0.0
142
0.0
142
0.0
142
0.0
142
0.0208333333333333
142
0.0
142
0.0
142
0.0
142
0.0
142
1.0
142
0.0
142
0.0
142
0.0
142
0.0
142
1.0
179
     0
144
0.0208333333333333
144
0.0
144
0.0
144
0.0
144
0.0
144
0.0208333333333333
144
0.0
144
0.0
144
0.0
144
0.0
144
1.0
144
0.0
144
0.0
144
0.0
144
0.0
144
1.0
147
0.0208333333333333
147
0.0
147
0.0
147
0.0
147
0.0
147
0.0208333333333333
147
0.0
147
0.0
147
0.0
147
0.0
147
1.0
147
0.0
147
0.0
147
0.0
147
0.0
147
1.0
  0
MLEADERSTYLE
  5
9A7B
102
{ACAD_REACTORS
330
9A7A
102
}
330
9A7A
100
AcDbMLeaderStyle
170
     2
171
     1
172
     0
 90
        2
 40
0.0
 41
0.0
173
     1
 91
-1056964608
340
9777
 92
       -2
290
     1
 42
0.09
291
     1
 43
0.36
  3
Standard
 44
0.18
300

342
9775
174
     1
178
     6
175
     1
176
     0
 93
-1056964608
 45
0.18
292
     0
297
     0
 46
0.18
 94
-1056964608
 47
1.0
 49
1.0
140
1.0
293
     1
141
0.0
294
     1
177
     0
142
1.0
295
     0
296
     0
143
0.125
1001
ACAD_MLEADERVER
1070
     2
  0
MLINESTYLE
  5
977B
102
{ACAD_REACTORS
330
977A
102
}
330
977A
100
AcDbMlineStyle
  2
STANDARD
 70
     0
  3

 62
   256
 51
90.0
 52
90.0
 71
     2
 49
0.5
 62
   256
  6
BYLAYER
 49
-0.5
 62
   256
  6
BYLAYER
  0
ACDBPLACEHOLDER
  5
9A32
102
{ACAD_REACTORS
330
9A31
102
}
330
9A31
  0
SCALE
  5
9A69
102
{ACAD_REACTORS
330
9A68
102
}
330
9A68
100
AcDbScale
 70
     0
300
1:1
140
1.0
141
1.0
290
     1
  0
SCALE
  5
9A6A
102
{ACAD_REACTORS
330
9A68
102
}
330
9A68
100
AcDbScale
 70
     0
300
1/128" = 1'-0"
140
0.0078125
141
12.0
290
     0
  0
SCALE
  5
9A6B
102
{ACAD_REACTORS
330
9A68
102
}
330
9A68
100
AcDbScale
 70
     0
300
1/64" = 1'-0"
140
0.015625
141
12.0
290
     0
  0
SCALE
  5
9A6C
102
{ACAD_REACTORS
330
9A68
102
}
330
9A68
100
AcDbScale
 70
     0
300
1/32" = 1'-0"
140
0.03125
141
12.0
290
     0
  0
SCALE
  5
9A6D
102
{ACAD_REACTORS
330
9A68
102
}
330
9A68
100
AcDbScale
 70
     0
300
1/16" = 1'-0"
140
0.0625
141
12.0
290
     0
  0
SCALE
  5
9A6E
102
{ACAD_REACTORS
330
9A68
102
}
330
9A68
100
AcDbScale
 70
     0
300
3/32" = 1'-0"
140
0.09375
141
12.0
290
     0
  0
SCALE
  5
9A6F
102
{ACAD_REACTORS
330
9A68
102
}
330
9A68
100
AcDbScale
 70
     0
300
1/8" = 1'-0"
140
0.125
141
12.0
290
     0
  0
SCALE
  5
9A70
102
{ACAD_REACTORS
330
9A68
102
}
330
9A68
100
AcDbScale
 70
     0
300
3/16" = 1'-0"
140
0.1875
141
12.0
290
     0
  0
SCALE
  5
9A71
102
{ACAD_REACTORS
330
9A68
102
}
330
9A68
100
AcDbScale
 70
     0
300
1/4" = 1'-0"
140
0.25
141
12.0
290
     0
  0
SCALE
  5
9A72
102
{ACAD_REACTORS
330
9A68
102
}
330
9A68
100
AcDbScale
 70
     0
300
3/8" = 1'-0"
140
0.375
141
12.0
290
     0
  0
SCALE
  5
9A73
102
{ACAD_REACTORS
330
9A68
102
}
330
9A68
100
AcDbScale
 70
     0
300
1/2" = 1'-0"
140
0.5
141
12.0
290
     0
  0
SCALE
  5
9A74
102
{ACAD_REACTORS
330
9A68
102
}
330
9A68
100
AcDbScale
 70
     0
300
3/4" = 1'-0"
140
0.75
141
12.0
290
     0
  0
SCALE
  5
9A75
102
{ACAD_REACTORS
330
9A68
102
}
330
9A68
100
AcDbScale
 70
     0
300
1" = 1'-0"
140
1.0
141
12.0
290
     0
  0
SCALE
  5
9A76
102
{ACAD_REACTORS
330
9A68
102
}
330
9A68
100
AcDbScale
 70
     0
300
1-1/2" = 1'-0"
140
1.5
141
12.0
290
     0
  0
SCALE
  5
9A77
102
{ACAD_REACTORS
330
9A68
102
}
330
9A68
100
AcDbScale
 70
     0
300
3" = 1'-0"
140
3.0
141
12.0
290
     0
  0
SCALE
  5
9A78
102
{ACAD_REACTORS
330
9A68
102
}
330
9A68
100
AcDbScale
 70
     0
300
6" = 1'-0"
140
6.0
141
12.0
290
     0
  0
SCALE
  5
9A79
102
{ACAD_REACTORS
330
9A68
102
}
330
9A68
100
AcDbScale
 70
     0
300
1'-0" = 1'-0"
140
12.0
141
12.0
290
     0
  0
ACDBSECTIONVIEWSTYLE
  5
9A7D
102
{ACAD_XDICTIONARY
360
9AD8
102
}
102
{ACAD_REACTORS
330
9A7C
102
}
330
9A7C
100
AcDbModelDocViewStyle
 70
     0
  3
Imperial24
290
     0
100
AcDbSectionViewStyle
 70
     0
 71
     0
 90
       78
 71
     1
340
9775
 40
0.24
340
0
340
0
 40
0.24
300
I, O, Q, S, X, Z
 40
0.48
 90
        3
 40
0.18
 90
        1
 71
     2
340
9779
 90
       25
340
9779
 90
       50
 40
0.24
 40
0.0
 40
0.24
 71
     3
340
9775
 40
0.24
 90
        1
 40
0.75
 90
        1
300
%<\AcVar ViewType \f "%tc1">% %<\AcVar ViewSectionStartId>%-%<\AcVar ViewSectionEndId>%\PSCALE %<\AcVar ViewScale \f "%sn">%
 71
     4
300
ANSI31
 40
1.0
 90
        0
290
     0
290
     0
 90
        6
 40
0.0
 40
1.570796326794896
 40
0.2617993877991494
 40
1.308996938995747
 40
-0.2617993877991494
 40
1.832595714594046
  0
TABLESTYLE
  5
9A67
102
{ACAD_XDICTIONARY
360
9A9F
102
}
102
{ACAD_REACTORS
330
9A66
102
}
330
9A66
100
AcDbTableStyle
  3
Standard
 70
     0
 71
     0
 40
0.06
 41
0.06
280
     0
281
     0
  7
STANDARD
140
0.18
170
     2
 62
     0
 63
     7
283
     0
274
    -2
284
     1
 64
     0
275
    -2
285
     1
 65
     0
276
    -2
286
     1
 66
     0
277
    -2
287
     1
 67
     0
278
    -2
288
     1
 68
     0
279
    -2
289
     1
 69
     0
  7
STANDARD
140
0.25
170
     5
 62
     0
 63
     7
283
     0
274
    -2
284
     1
 64
     0
275
    -2
285
     1
 65
     0
276
    -2
286
     1
 66
     0
277
    -2
287
     1
 67
     0
278
    -2
288
     1
 68
     0
279
    -2
289
     1
 69
     0
  7
STANDARD
140
0.18
170
     5
 62
     0
 63
     7
283
     0
274
    -2
284
     1
 64
     0
275
    -2
285
     1
 65
     0
276
    -2
286
     1
 66
     0
277
    -2
287
     1
 67
     0
278
    -2
288
     1
 68
     0
279
    -2
289
     1
 69
     0
  0
VISUALSTYLE
  5
9A52
102
{ACAD_XDICTIONARY
360
9AB0
102
}
102
{ACAD_REACTORS
330
9A4C
102
}
330
9A4C
100
AcDbVisualStyle
  2
2dWireframe
 70
     4
 71
     0
 72
     2
 73
     0
 90
        0
 40
-0.6
 41
-30.0
 62
     5
 63
     7
 74
     1
 91
        4
 64
     7
 65
   257
 75
     1
175
     1
 42
1.0
 92
        0
 66
   257
 43
1.0
 76
     1
 77
     6
 78
     2
 67
     7
 79
     5
170
     0
171
     0
290
     0
174
     0
 93
        1
 44
0.0
173
     0
291
     0
 45
0.0
1001
ACAD
1000
AcDbSavedByObjectVersion
1070
     0
  0
VISUALSTYLE
  5
9A51
102
{ACAD_XDICTIONARY
360
9AAE
102
}
102
{ACAD_REACTORS
330
9A4C
102
}
330
9A4C
100
AcDbVisualStyle
  2
Basic
 70
     7
 71
     1
 72
     0
 73
     1
 90
        0
 40
-0.6
 41
-30.0
 62
     5
 63
     7
 74
     0
 91
        4
 64
     7
 65
   257
 75
     1
175
     1
 42
1.0
 92
        8
 66
     7
 43
1.0
 76
     1
 77
     6
 78
     2
 67
     7
 79
     5
170
     0
171
     0
290
     0
174
     0
 93
        1
 44
0.0
173
     0
291
     1
 45
0.0
1001
ACAD
1000
AcDbSavedByObjectVersion
1070
     0
  0
VISUALSTYLE
  5
9A58
102
{ACAD_XDICTIONARY
360
9ABC
102
}
102
{ACAD_REACTORS
330
9A4C
102
}
330
9A4C
100
AcDbVisualStyle
  2
Brighten
 70
    12
 71
     2
 72
     2
 73
     0
 90
        0
 40
-0.6
 41
-30.0
 62
     5
 63
     7
 74
     1
 91
        4
 64
     7
 65
   257
 75
     1
175
     1
 42
1.0
 92
        8
 66
     7
 43
1.0
 76
     1
 77
     6
 78
     2
 67
     7
 79
     5
170
     0
171
     0
290
     0
174
     0
 93
        1
 44
50.0
173
     0
291
     1
 45
0.0
1001
ACAD
1000
AcDbSavedByObjectVersion
1070
     0
  0
VISUALSTYLE
  5
9A5C
102
{ACAD_XDICTIONARY
360
9AC4
102
}
102
{ACAD_REACTORS
330
9A4C
102
}
330
9A4C
100
AcDbVisualStyle
  2
ColorChange
 70
    16
 71
     2
 72
     2
 73
     3
 90
        0
 40
-0.6
 41
-30.0
 62
     5
 63
     8
 74
     1
 91
        4
 64
     7
 65
   257
 75
     1
175
     1
 42
1.0
 92
        8
 66
     8
 43
1.0
 76
     1
 77
     6
 78
     2
 67
     7
 79
     5
170
     0
171
     0
290
     0
174
     0
 93
        1
 44
0.0
173
     0
291
     1
 45
0.0
1001
ACAD
1000
AcDbSavedByObjectVersion
1070
     0
  0
VISUALSTYLE
  5
9A55
102
{ACAD_XDICTIONARY
360
9AB6
102
}
102
{ACAD_REACTORS
330
9A4C
102
}
330
9A4C
100
AcDbVisualStyle
  2
Conceptual
 70
     9
 71
     3
 72
     2
 73
     0
 90
        0
 40
-0.6
 41
-30.0
 62
     5
 63
     7
 74
     2
 91
        2
 64
     7
 65
   257
 75
     1
175
     1
 42
179.0
 92
        8
 66
     7
 43
1.0
 76
     1
 77
     6
 78
     2
 67
     7
 79
     3
170
     0
171
     0
290
     0
174
     0
 93
        1
 44
0.0
173
     0
291
     0
 45
0.0
1001
ACAD
1000
AcDbSavedByObjectVersion
1070
     0
  0
VISUALSTYLE
  5
9A57
102
{ACAD_XDICTIONARY
360
9ABA
102
}
102
{ACAD_REACTORS
330
9A4C
102
}
330
9A4C
100
AcDbVisualStyle
  2
Dim
 70
    11
 71
     2
 72
     2
 73
     0
 90
        0
 40
-0.6
 41
-30.0
 62
     5
 63
     7
 74
     1
 91
        4
 64
     7
 65
   257
 75
     1
175
     1
 42
1.0
 92
        8
 66
     7
 43
1.0
 76
     1
 77
     6
 78
     2
 67
     7
 79
     5
170
     0
171
     0
290
     0
174
     0
 93
        1
 44
-50.0
173
     0
291
     1
 45
0.0
1001
ACAD
1000
AcDbSavedByObjectVersion
1070
     0
  0
VISUALSTYLE
  5
9A64
102
{ACAD_XDICTIONARY
360
9AD4
102
}
102
{ACAD_REACTORS
330
9A4C
102
}
330
9A4C
100
AcDbVisualStyle
  2
EdgeColorOff
 70
    22
 71
     2
 72
     2
 73
     0
 90
        0
 40
-0.6
 41
-30.0
 62
     5
 63
     7
 74
     1
 91
        4
 64
     7
 65
   257
 75
     1
175
     1
 42
1.0
 92
        8
 66
     7
 43
1.0
 76
     1
 77
     6
 78
     2
 67
     7
 79
     5
170
     0
171
     0
290
     0
174
     0
 93
        1
 44
0.0
173
     0
291
     1
 45
0.0
1001
ACAD
1000
AcDbSavedByObjectVersion
1070
     0
  0
VISUALSTYLE
  5
9A5B
102
{ACAD_XDICTIONARY
360
9AC2
102
}
102
{ACAD_REACTORS
330
9A4C
102
}
330
9A4C
100
AcDbVisualStyle
  2
Facepattern
 70
    15
 71
     2
 72
     2
 73
     0
 90
        0
 40
-0.6
 41
-30.0
 62
     5
 63
     7
 74
     1
 91
        4
 64
     7
 65
   257
 75
     1
175
     1
 42
1.0
 92
        8
 66
     7
 43
1.0
 76
     1
 77
     6
 78
     2
 67
     7
 79
     5
170
     0
171
     0
290
     0
174
     0
 93
        1
 44
0.0
173
     0
291
     1
 45
0.0
1001
ACAD
1000
AcDbSavedByObjectVersion
1070
     0
  0
VISUALSTYLE
  5
9A4D
102
{ACAD_XDICTIONARY
360
9AA6
102
}
102
{ACAD_REACTORS
330
9A4C
102
}
330
9A4C
100
AcDbVisualStyle
  2
Flat
 70
     0
 71
     2
 72
     1
 73
     1
 90
        2
 40
-0.6
 41
30.0
 62
     5
 63
     7
 74
     0
 91
        0
 64
     7
 65
   257
 75
     1
175
     1
 42
1.0
 92
        8
 66
     7
 43
1.0
 76
     1
 77
     6
 78
     2
 67
     7
 79
     5
170
     0
171
     0
290
     0
174
     0
 93
       13
 44
0.0
173
     0
291
     1
 45
0.0
1001
ACAD
1000
AcDbSavedByObjectVersion
1070
     0
  0
VISUALSTYLE
  5
9A4E
102
{ACAD_XDICTIONARY
360
9AA8
102
}
102
{ACAD_REACTORS
330
9A4C
102
}
330
9A4C
100
AcDbVisualStyle
  2
FlatWithEdges
 70
     1
 71
     2
 72
     1
 73
     1
 90
        2
 40
-0.6
 41
30.0
 62
     5
 63
     7
 74
     1
 91
        0
 64
     7
 65
   257
 75
     1
175
     1
 42
1.0
 92
        0
 66
   257
 43
1.0
 76
     1
 77
     6
 78
     2
 67
     7
 79
     5
170
     0
171
     0
290
     0
174
     0
 93
       13
 44
0.0
173
     0
291
     1
 45
0.0
1001
ACAD
1000
AcDbSavedByObjectVersion
1070
     0
  0
VISUALSTYLE
  5
9A4F
102
{ACAD_XDICTIONARY
360
9AAA
102
}
102
{ACAD_REACTORS
330
9A4C
102
}
330
9A4C
100
AcDbVisualStyle
  2
Gouraud
 70
     2
 71
     2
 72
     2
 73
     1
 90
        2
 40
-0.6
 41
30.0
 62
     5
 63
     7
 74
     0
 91
        0
 64
     7
 65
   257
 75
     1
175
     1
 42
1.0
 92
        0
 66
     7
 43
1.0
 76
     1
 77
     6
 78
     2
 67
     7
 79
     5
170
     0
171
     0
290
     0
174
     0
 93
       13
 44
0.0
173
     0
291
     1
 45
0.0
1001
ACAD
1000
AcDbSavedByObjectVersion
1070
     0
  0
VISUALSTYLE
  5
9A50
102
{ACAD_XDICTIONARY
360
9AAC
102
}
102
{ACAD_REACTORS
330
9A4C
102
}
330
9A4C
100
AcDbVisualStyle
  2
GouraudWithEdges
 70
     3
 71
     2
 72
     2
 73
     1
 90
        2
 40
-0.6
 41
30.0
 62
     5
 63
     7
 74
     1
 91
        0
 64
     7
 65
   257
 75
     1
175
     1
 42
1.0
 92
        0
 66
   257
 43
1.0
 76
     1
 77
     6
 78
     2
 67
     7
 79
     5
170
     0
171
     0
290
     0
174
     0
 93
       13
 44
0.0
173
     0
291
     1
 45
0.0
1001
ACAD
1000
AcDbSavedByObjectVersion
1070
     0
  0
VISUALSTYLE
  5
9A54
102
{ACAD_XDICTIONARY
360
9AB4
102
}
102
{ACAD_REACTORS
330
9A4C
102
}
330
9A4C
100
AcDbVisualStyle
  2
Hidden
 70
     6
 71
     1
 72
     2
 73
     2
 90
        0
 40
-0.6
 41
-30.0
 62
     5
 63
     7
 74
     2
 91
        2
 64
     7
 65
   257
 75
     2
175
     1
 42
40.0
 92
        0
 66
   257
 43
1.0
 76
     1
 77
     6
 78
     2
 67
     7
 79
     3
170
     0
171
     0
290
     0
174
     0
 93
        1
 44
0.0
173
     0
291
     0
 45
0.0
1001
ACAD
1000
AcDbSavedByObjectVersion
1070
     0
  0
VISUALSTYLE
  5
9A62
102
{ACAD_XDICTIONARY
360
9AD0
102
}
102
{ACAD_REACTORS
330
9A4C
102
}
330
9A4C
100
AcDbVisualStyle
  2
JitterOff
 70
    20
 71
     2
 72
     2
 73
     0
 90
        0
 40
-0.6
 41
-30.0
 62
     5
 63
     7
 74
     1
 91
        4
 64
     7
 65
   257
 75
     1
175
     1
 42
1.0
 92
       10
 66
     7
 43
1.0
 76
     1
 77
     6
 78
     2
 67
     7
 79
     5
170
     0
171
     0
290
     0
174
     0
 93
        1
 44
0.0
173
     0
291
     1
 45
0.0
1001
ACAD
1000
AcDbSavedByObjectVersion
1070
     0
  0
VISUALSTYLE
  5
9A5A
102
{ACAD_XDICTIONARY
360
9AC0
102
}
102
{ACAD_REACTORS
330
9A4C
102
}
330
9A4C
100
AcDbVisualStyle
  2
Linepattern
 70
    14
 71
     2
 72
     2
 73
     0
 90
        0
 40
-0.6
 41
-30.0
 62
     5
 63
     7
 74
     1
 91
        4
 64
     7
 65
   257
 75
     7
175
     7
 42
1.0
 92
        8
 66
     7
 43
1.0
 76
     1
 77
     6
 78
     2
 67
     7
 79
     5
170
     0
171
     0
290
     0
174
     0
 93
        1
 44
0.0
173
     0
291
     1
 45
0.0
1001
ACAD
1000
AcDbSavedByObjectVersion
1070
     0
  0
VISUALSTYLE
  5
9A63
102
{ACAD_XDICTIONARY
360
9AD2
102
}
102
{ACAD_REACTORS
330
9A4C
102
}
330
9A4C
100
AcDbVisualStyle
  2
OverhangOff
 70
    21
 71
     2
 72
     2
 73
     0
 90
        0
 40
-0.6
 41
-30.0
 62
     5
 63
     7
 74
     1
 91
        4
 64
     7
 65
   257
 75
     1
175
     1
 42
1.0
 92
        9
 66
     7
 43
1.0
 76
     1
 77
     6
 78
     2
 67
     7
 79
     5
170
     0
171
     0
290
     0
174
     0
 93
        1
 44
0.0
173
     0
291
     1
 45
0.0
1001
ACAD
1000
AcDbSavedByObjectVersion
1070
     0
  0
VISUALSTYLE
  5
9A56
102
{ACAD_XDICTIONARY
360
9AB8
102
}
102
{ACAD_REACTORS
330
9A4C
102
}
330
9A4C
100
AcDbVisualStyle
  2
Realistic
 70
     8
 71
     2
 72
     3
 73
     0
 90
        2
 40
-0.6
 41
30.0
 62
     5
 63
     7
 74
     0
 91
        0
 64
     7
 65
   257
 75
     1
175
     1
 42
1.0
 92
        8
 66
   257
 43
1.0
 76
     1
 77
     6
 78
     2
 67
     7
 79
     3
170
     0
171
     0
290
     0
174
     0
 93
       13
 44
0.0
173
     0
291
     0
 45
0.0
1001
ACAD
1000
AcDbSavedByObjectVersion
1070
     0
  0
VISUALSTYLE
  5
9A61
102
{ACAD_XDICTIONARY
360
9ACE
102
}
102
{ACAD_REACTORS
330
9A4C
102
}
330
9A4C
100
AcDbVisualStyle
  2
Shaded
 70
    27
 71
     2
 72
     2
 73
     1
 90
        2
 40
-0.6
 41
30.0
 62
     5
 63
     7
 74
     0
 91
        4
 64
     7
 65
   257
 75
     1
175
     1
 42
1.0
 92
        8
 66
   257
 43
1.0
 76
     1
 77
     6
 78
     2
 67
     8
 79
     3
170
     0
171
     0
290
     0
174
     0
 93
        5
 44
0.0
173
     0
291
     0
 45
0.0
1001
ACAD
1000
AcDbSavedByObjectVersion
1070
     0
  0
VISUALSTYLE
  5
9A60
102
{ACAD_XDICTIONARY
360
9ACC
102
}
102
{ACAD_REACTORS
330
9A4C
102
}
330
9A4C
100
AcDbVisualStyle
  2
Shaded with edges
 70
    26
 71
     2
 72
     2
 73
     1
 90
        2
 40
-0.6
 41
30.0
 62
     5
 63
     7
 74
     1
 91
       10
 64
     7
 65
   257
 75
     2
175
     1
 42
1.0
 92
        8
 66
   257
 43
1.0
 76
     1
 77
     6
 78
     2
 67
     7
 79
     3
170
     0
171
     0
290
     0
174
     0
 93
        5
 44
0.0
173
     0
291
     0
 45
0.0
1001
ACAD
1000
AcDbSavedByObjectVersion
1070
     0
  0
VISUALSTYLE
  5
9A5D
102
{ACAD_XDICTIONARY
360
9AC6
102
}
102
{ACAD_REACTORS
330
9A4C
102
}
330
9A4C
100
AcDbVisualStyle
  2
Shades of Gray
 70
    23
 71
     2
 72
     2
 73
     3
 90
        0
 40
-0.6
 41
-30.0
 62
     5
 63
     7
 74
     2
 91
        2
 64
     7
 65
     7
 75
     1
175
     1
 42
40.0
 92
        8
 66
     7
 43
1.0
 76
     1
 77
     6
 78
     2
 67
     7
 79
     3
170
     0
171
     0
290
     0
174
     0
 93
        1
 44
0.0
173
     0
291
     0
 45
0.0
1001
ACAD
1000
AcDbSavedByObjectVersion
1070
     0
  0
VISUALSTYLE
  5
9A5E
102
{ACAD_XDICTIONARY
360
9AC8
102
}
102
{ACAD_REACTORS
330
9A4C
102
}
330
9A4C
100
AcDbVisualStyle
  2
Sketchy
 70
    24
 71
     1
 72
     2
 73
     2
 90
        0
 40
-0.6
 41
-30.0
 62
     5
 63
     7
 74
     2
 91
        2
 64
     7
 65
     7
 75
     1
175
     1
 42
40.0
 92
       11
 66
     7
 43
1.0
 76
     1
 77
     6
 78
     2
 67
     7
 79
     6
170
     0
171
     0
290
     0
174
     0
 93
        1
 44
0.0
173
     0
291
     0
 45
0.0
1001
ACAD
1000
AcDbSavedByObjectVersion
1070
     0
  0
VISUALSTYLE
  5
9A59
102
{ACAD_XDICTIONARY
360
9ABE
102
}
102
{ACAD_REACTORS
330
9A4C
102
}
330
9A4C
100
AcDbVisualStyle
  2
Thicken
 70
    13
 71
     2
 72
     2
 73
     0
 90
        0
 40
-0.6
 41
-30.0
 62
     5
 63
     7
 74
     1
 91
        4
 64
     7
 65
   257
 75
     1
175
     1
 42
1.0
 92
       12
 66
     7
 43
1.0
 76
     1
 77
     6
 78
     2
 67
     7
 79
     5
170
     0
171
     0
290
     0
174
     0
 93
        1
 44
0.0
173
     0
291
     1
 45
0.0
1001
ACAD
1000
AcDbSavedByObjectVersion
1070
     0
  0
VISUALSTYLE
  5
9A53
102
{ACAD_XDICTIONARY
360
9AB2
102
}
102
{ACAD_REACTORS
330
9A4C
102
}
330
9A4C
100
AcDbVisualStyle
  2
Wireframe
 70
     5
 71
     0
 72
     2
 73
     0
 90
        0
 40
-0.6
 41
-30.0
 62
     5
 63
     7
 74
     1
 91
        4
 64
     7
 65
   257
 75
     1
175
     1
 42
1.0
 92
        0
 66
   257
 43
1.0
 76
     1
 77
     6
 78
     2
 67
     7
 79
     3
170
     0
171
     0
290
     0
174
     0
 93
        1
 44
0.0
173
     0
291
     0
 45
0.0
1001
ACAD
1000
AcDbSavedByObjectVersion
1070
     0
  0
VISUALSTYLE
  5
9A5F
102
{ACAD_XDICTIONARY
360
9ACA
102
}
102
{ACAD_REACTORS
330
9A4C
102
}
330
9A4C
100
AcDbVisualStyle
  2
X-Ray
 70
    25
 71
     2
 72
     2
 73
     1
 90
        1
 40
0.5
 41
-30.0
 62
     5
 63
     7
 74
     1
 91
        0
 64
     7
 65
   257
 75
     1
175
     1
 42
1.0
 92
        8
 66
     7
 43
1.0
 76
     1
 77
     6
 78
     2
 67
     7
 79
     3
170
     0
171
     0
290
     0
174
     0
 93
       13
 44
0.0
173
     0
291
     0
 45
0.0
1001
ACAD
1000
AcDbSavedByObjectVersion
1070
     0
  0
DICTIONARYVAR
  5
9A99
102
{ACAD_REACTORS
330
9A94
102
}
330
9A94
100
DictionaryVariables
280
     0
  1
1:1
  0
DICTIONARYVAR
  5
9A96
102
{ACAD_REACTORS
330
9A94
102
}
330
9A94
100
DictionaryVariables
280
     0
  1
STANDARD
  0
DICTIONARYVAR
  5
9A95
102
{ACAD_REACTORS
330
9A94
102
}
330
9A94
100
DictionaryVariables
280
     0
  1
STANDARD
  0
DICTIONARYVAR
  5
9A97
102
{ACAD_REACTORS
330
9A94
102
}
330
9A94
100
DictionaryVariables
280
     0
  1
Imperial24
  0
DICTIONARYVAR
  5
9A98
102
{ACAD_REACTORS
330
9A94
102
}
330
9A94
100
DictionaryVariables
280
     0
  1
Imperial24
  0
DICTIONARYVAR
  5
9A9C
102
{ACAD_REACTORS
330
9A94
102
}
330
9A94
100
DictionaryVariables
280
     0
  1
1
  0
DICTIONARYVAR
  5
9A9B
102
{ACAD_REACTORS
330
9A94
102
}
330
9A94
100
DictionaryVariables
280
     0
  1
0
  0
DICTIONARYVAR
  5
9A9A
102
{ACAD_REACTORS
330
9A94
102
}
330
9A94
100
DictionaryVariables
280
     0
  1
127
  0
DICTIONARYVAR
  5
9A9D
102
{ACAD_REACTORS
330
9A94
102
}
330
9A94
100
DictionaryVariables
280
     0
  1
2
  0
DICTIONARY
  5
9ADA
330
9A7F
100
AcDbDictionary
280
     1
281
     1
  3
ACAD_XREC_ROUNDTRIP
360
9ADB
  0
DICTIONARY
  5
9ADC
330
9A80
100
AcDbDictionary
280
     1
281
     1
  3
ACAD_XREC_ROUNDTRIP
360
9ADD
  0
DICTIONARY
  5
9ADE
330
9A81
100
AcDbDictionary
280
     1
281
     1
  3
ACAD_XREC_ROUNDTRIP
360
9ADF
  0
DICTIONARY
  5
9A3D
330
9A3C
100
AcDbDictionary
280
     1
281
     1
  3
ACAD_XREC_ROUNDTRIP
360
9AA4
  3
BUMPTILE
360
9A3F
  3
DIFFUSETILE
360
9A3E
  3
OPACITYTILE
360
9A42
  3
REFLECTIONTILE
360
9A41
  3
REFRACTIONTILE
360
9A43
  3
SPECULARTILE
360
9A40
  0
DICTIONARY
  5
9A35
330
9A34
100
AcDbDictionary
280
     1
281
     1
  3
ACAD_XREC_ROUNDTRIP
360
9AA3
  3
BUMPTILE
360
9A37
  3
DIFFUSETILE
360
9A36
  3
OPACITYTILE
360
9A3A
  3
REFLECTIONTILE
360
9A39
  3
REFRACTIONTILE
360
9A3B
  3
SPECULARTILE
360
9A38
  0
DICTIONARY
  5
9A45
330
9A44
100
AcDbDictionary
280
     1
281
     1
  3
ACAD_XREC_ROUNDTRIP
360
9AA5
  3
BUMPTILE
360
9A47
  3
DIFFUSETILE
360
9A46
  3
OPACITYTILE
360
9A4A
  3
REFLECTIONTILE
360
9A49
  3
REFRACTIONTILE
360
9A4B
  3
SPECULARTILE
360
9A48
  0
DICTIONARY
  5
9AD8
330
9A7D
100
AcDbDictionary
280
     1
281
     1
  3
ACAD_XREC_ROUNDTRIP
360
9AD9
  0
DICTIONARY
  5
9A9F
330
9A67
100
AcDbDictionary
280
     1
281
     1
  3
ACAD_ROUNDTRIP_2008_TABLESTYLE_CELLSTYLEMAP
360
9AA0
  3
ACAD_XREC_ROUNDTRIP
360
9AD6
  0
DICTIONARY
  5
9AB0
330
9A52
100
AcDbDictionary
280
     1
281
     1
  3
ACAD_XREC_ROUNDTRIP
360
9AB1
  0
DICTIONARY
  5
9AAE
330
9A51
100
AcDbDictionary
280
     1
281
     1
  3
ACAD_XREC_ROUNDTRIP
360
9AAF
  0
DICTIONARY
  5
9ABC
330
9A58
100
AcDbDictionary
280
     1
281
     1
  3
ACAD_XREC_ROUNDTRIP
360
9ABD
  0
DICTIONARY
  5
9AC4
330
9A5C
100
AcDbDictionary
280
     1
281
     1
  3
ACAD_XREC_ROUNDTRIP
360
9AC5
  0
DICTIONARY
  5
9AB6
330
9A55
100
AcDbDictionary
280
     1
281
     1
  3
ACAD_XREC_ROUNDTRIP
360
9AB7
  0
DICTIONARY
  5
9ABA
330
9A57
100
AcDbDictionary
280
     1
281
     1
  3
ACAD_XREC_ROUNDTRIP
360
9ABB
  0
DICTIONARY
  5
9AD4
330
9A64
100
AcDbDictionary
280
     1
281
     1
  3
ACAD_XREC_ROUNDTRIP
360
9AD5
  0
DICTIONARY
  5
9AC2
330
9A5B
100
AcDbDictionary
280
     1
281
     1
  3
ACAD_XREC_ROUNDTRIP
360
9AC3
  0
DICTIONARY
  5
9AA6
330
9A4D
100
AcDbDictionary
280
     1
281
     1
  3
ACAD_XREC_ROUNDTRIP
360
9AA7
  0
DICTIONARY
  5
9AA8
330
9A4E
100
AcDbDictionary
280
     1
281
     1
  3
ACAD_XREC_ROUNDTRIP
360
9AA9
  0
DICTIONARY
  5
9AAA
330
9A4F
100
AcDbDictionary
280
     1
281
     1
  3
ACAD_XREC_ROUNDTRIP
360
9AAB
  0
DICTIONARY
  5
9AAC
330
9A50
100
AcDbDictionary
280
     1
281
     1
  3
ACAD_XREC_ROUNDTRIP
360
9AAD
  0
DICTIONARY
  5
9AB4
330
9A54
100
AcDbDictionary
280
     1
281
     1
  3
ACAD_XREC_ROUNDTRIP
360
9AB5
  0
DICTIONARY
  5
9AD0
330
9A62
100
AcDbDictionary
280
     1
281
     1
  3
ACAD_XREC_ROUNDTRIP
360
9AD1
  0
DICTIONARY
  5
9AC0
330
9A5A
100
AcDbDictionary
280
     1
281
     1
  3
ACAD_XREC_ROUNDTRIP
360
9AC1
  0
DICTIONARY
  5
9AD2
330
9A63
100
AcDbDictionary
280
     1
281
     1
  3
ACAD_XREC_ROUNDTRIP
360
9AD3
  0
DICTIONARY
  5
9AB8
330
9A56
100
AcDbDictionary
280
     1
281
     1
  3
ACAD_XREC_ROUNDTRIP
360
9AB9
  0
DICTIONARY
  5
9ACE
330
9A61
100
AcDbDictionary
280
     1
281
     1
  3
ACAD_XREC_ROUNDTRIP
360
9ACF
  0
DICTIONARY
  5
9ACC
330
9A60
100
AcDbDictionary
280
     1
281
     1
  3
ACAD_XREC_ROUNDTRIP
360
9ACD
  0
DICTIONARY
  5
9AC6
330
9A5D
100
AcDbDictionary
280
     1
281
     1
  3
ACAD_XREC_ROUNDTRIP
360
9AC7
  0
DICTIONARY
  5
9AC8
330
9A5E
100
AcDbDictionary
280
     1
281
     1
  3
ACAD_XREC_ROUNDTRIP
360
9AC9
  0
DICTIONARY
  5
9ABE
330
9A59
100
AcDbDictionary
280
     1
281
     1
  3
ACAD_XREC_ROUNDTRIP
360
9ABF
  0
DICTIONARY
  5
9AB2
330
9A53
100
AcDbDictionary
280
     1
281
     1
  3
ACAD_XREC_ROUNDTRIP
360
9AB3
  0
DICTIONARY
  5
9ACA
330
9A5F
100
AcDbDictionary
280
     1
281
     1
  3
ACAD_XREC_ROUNDTRIP
360
9ACB
  0
XRECORD
  5
9ADB
102
{ACAD_REACTORS
330
9ADA
102
}
330
9ADA
100
AcDbXrecord
280
     1
102
DISPLAYNAME
  1
Imperial24
102
FLAGS
 90
        0
  0
XRECORD
  5
9ADD
102
{ACAD_REACTORS
330
9ADC
102
}
330
9ADC
100
AcDbXrecord
280
     1
102
SHADEPLOT
 70
     0
102
SHADEPLOTRESLEVEL
 70
     2
102
SHADEPLOTCUSTOMDPI
 70
   300
  0
XRECORD
  5
9ADF
102
{ACAD_REACTORS
330
9ADE
102
}
330
9ADE
100
AcDbXrecord
280
     1
102
SHADEPLOT
 70
     0
102
SHADEPLOTRESLEVEL
 70
     2
102
SHADEPLOTCUSTOMDPI
 70
   300
  0
XRECORD
  5
9AA4
102
{ACAD_REACTORS
330
9A3D
102
}
330
9A3D
100
AcDbXrecord
280
     1
102
MATERIAL
148
0.0
149
0.0
149
0.0
 93
        0
 94
      127
282
     0
 72
     0
 77
     0
171
     0
175
     0
179
     0
273
     0
  0
XRECORD
  5
9A3F
102
{ACAD_REACTORS
330
9A3D
102
}
330
9A3D
100
AcDbXrecord
280
     1
270
     1
271
     1
  0
XRECORD
  5
9A3E
102
{ACAD_REACTORS
330
9A3D
102
}
330
9A3D
100
AcDbXrecord
280
     1
270
     1
271
     1
  0
XRECORD
  5
9A42
102
{ACAD_REACTORS
330
9A3D
102
}
330
9A3D
100
AcDbXrecord
280
     1
270
     1
271
     1
  0
XRECORD
  5
9A41
102
{ACAD_REACTORS
330
9A3D
102
}
330
9A3D
100
AcDbXrecord
280
     1
270
     1
271
     1
  0
XRECORD
  5
9A43
102
{ACAD_REACTORS
330
9A3D
102
}
330
9A3D
100
AcDbXrecord
280
     1
270
     1
271
     1
  0
XRECORD
  5
9A40
102
{ACAD_REACTORS
330
9A3D
102
}
330
9A3D
100
AcDbXrecord
280
     1
270
     1
271
     1
  0
XRECORD
  5
9AA3
102
{ACAD_REACTORS
330
9A35
102
}
330
9A35
100
AcDbXrecord
280
     1
102
MATERIAL
148
0.0
149
0.0
149
0.0
 93
        0
 94
      127
282
     0
 72
     0
 77
     0
171
     0
175
     0
179
     0
273
     0
  0
XRECORD
  5
9A37
102
{ACAD_REACTORS
330
9A35
102
}
330
9A35
100
AcDbXrecord
280
     1
270
     1
271
     1
  0
XRECORD
  5
9A36
102
{ACAD_REACTORS
330
9A35
102
}
330
9A35
100
AcDbXrecord
280
     1
270
     1
271
     1
  0
XRECORD
  5
9A3A
102
{ACAD_REACTORS
330
9A35
102
}
330
9A35
100
AcDbXrecord
280
     1
270
     1
271
     1
  0
XRECORD
  5
9A39
102
{ACAD_REACTORS
330
9A35
102
}
330
9A35
100
AcDbXrecord
280
     1
270
     1
271
     1
  0
XRECORD
  5
9A3B
102
{ACAD_REACTORS
330
9A35
102
}
330
9A35
100
AcDbXrecord
280
     1
270
     1
271
     1
  0
XRECORD
  5
9A38
102
{ACAD_REACTORS
330
9A35
102
}
330
9A35
100
AcDbXrecord
280
     1
270
     1
271
     1
  0
XRECORD
  5
9AA5
102
{ACAD_REACTORS
330
9A45
102
}
330
9A45
100
AcDbXrecord
280
     1
102
MATERIAL
148
0.0
149
0.0
149
0.0
 93
        0
 94
      127
282
     0
 72
     0
 77
     0
171
     0
175
     0
179
     0
273
     0
  0
XRECORD
  5
9A47
102
{ACAD_REACTORS
330
9A45
102
}
330
9A45
100
AcDbXrecord
280
     1
270
     1
271
     1
  0
XRECORD
  5
9A46
102
{ACAD_REACTORS
330
9A45
102
}
330
9A45
100
AcDbXrecord
280
     1
270
     1
271
     1
  0
XRECORD
  5
9A4A
102
{ACAD_REACTORS
330
9A45
102
}
330
9A45
100
AcDbXrecord
280
     1
270
     1
271
     1
  0
XRECORD
  5
9A49
102
{ACAD_REACTORS
330
9A45
102
}
330
9A45
100
AcDbXrecord
280
     1
270
     1
271
     1
  0
XRECORD
  5
9A4B
102
{ACAD_REACTORS
330
9A45
102
}
330
9A45
100
AcDbXrecord
280
     1
270
     1
271
     1
  0
XRECORD
  5
9A48
102
{ACAD_REACTORS
330
9A45
102
}
330
9A45
100
AcDbXrecord
280
     1
270
     1
271
     1
  0
XRECORD
  5
9AD9
102
{ACAD_REACTORS
330
9AD8
102
}
330
9AD8
100
AcDbXrecord
280
     1
102
DISPLAYNAME
  1
Imperial24
102
FLAGS
 90
        0
  0
CELLSTYLEMAP
  5
9AA0
102
{ACAD_REACTORS
330
9A9F
102
}
330
9A9F
100
AcDbCellStyleMap
 90
        3
300
CELLSTYLE
  1
TABLEFORMAT_BEGIN
 90
        5
170
     1
 91
        0
 92
    32768
 62
   257
 93
        1
300
CONTENTFORMAT
  1
CONTENTFORMAT_BEGIN
 90
        0
 91
        0
 92
      512
 93
        0
300

 40
0.0
140
1.0
 94
        5
 62
     0
340
9775
144
0.25
309
CONTENTFORMAT_END
171
     0
 94
        0
309
TABLEFORMAT_END
  1
CELLSTYLE_BEGIN
 90
        1
 91
        1
300
_TITLE
309
CELLSTYLE_END
300
CELLSTYLE
  1
TABLEFORMAT_BEGIN
 90
        5
170
     1
 91
        0
 92
        0
 62
   257
 93
        1
300
CONTENTFORMAT
  1
CONTENTFORMAT_BEGIN
 90
        0
 91
        0
 92
      512
 93
        0
300

 40
0.0
140
1.0
 94
        5
 62
     0
340
9775
144
0.18
309
CONTENTFORMAT_END
171
     0
 94
        0
309
TABLEFORMAT_END
  1
CELLSTYLE_BEGIN
 90
        2
 91
        1
300
_HEADER
309
CELLSTYLE_END
300
CELLSTYLE
  1
TABLEFORMAT_BEGIN
 90
        5
170
     1
 91
        0
 92
        0
 62
   257
 93
        1
300
CONTENTFORMAT
  1
CONTENTFORMAT_BEGIN
 90
        0
 91
        0
 92
      512
 93
        0
300

 40
0.0
140
1.0
 94
        2
 62
     0
340
9775
144
0.18
309
CONTENTFORMAT_END
171
     0
 94
        0
309
TABLEFORMAT_END
  1
CELLSTYLE_BEGIN
 90
        3
 91
        2
300
_DATA
309
CELLSTYLE_END
  0
XRECORD
  5
9AD6
102
{ACAD_REACTORS
330
9A9F
102
}
330
9A9F
100
AcDbXrecord
280
     1
102
ACAD_ROUNDTRIP_PRE2007_TABLESTYLE
 90
      512
 91
        0
  1

 92
      512
 93
        0
  2

 94
      512
 95
        0
  3

  0
XRECORD
  5
9AB1
102
{ACAD_REACTORS
330
9AB0
102
}
330
9AB0
100
AcDbXrecord
280
     1
102
RTVSPost2010Prop28
280
     1
102
RTVSPost2010PropOp28
 70
     1
102
RTVSPost2010Prop29
280
     1
102
RTVSPost2010PropOp29
 70
     1
102
RTVSPost2010Prop30
280
     0
102
RTVSPost2010PropOp30
 70
     1
102
RTVSPost2010Prop31
280
     0
102
RTVSPost2010PropOp31
 70
     1
102
RTVSPost2010Prop32
280
     0
102
RTVSPost2010PropOp32
 70
     1
102
RTVSPost2010Prop33
280
     0
102
RTVSPost2010PropOp33
 70
     1
102
RTVSPost2010Prop34
280
     0
102
RTVSPost2010PropOp34
 70
     1
102
RTVSPost2010Prop35
280
     0
102
RTVSPost2010PropOp35
 70
     1
102
RTVSPost2010Prop36
280
     0
102
RTVSPost2010PropOp36
 70
     1
102
RTVSPost2010Prop37
 90
       50
102
RTVSPost2010PropOp37
 70
     1
102
RTVSPost2010Prop38
140
0.0
102
RTVSPost2010PropOp38
 70
     1
102
RTVSPost2010Prop39
140
1.0
102
RTVSPost2010PropOp39
 70
     1
102
RTVSPost2010Prop40
 90
        0
102
RTVSPost2010PropOp40
 70
     1
102
RTVSPost2010Prop41ColorIndex
 90
       18
102
RTVSPost2010Prop41ColorRGB
 90
        0
102
RTVSPost2010PropOp41
 70
     1
102
RTVSPost2010Prop42
 90
       50
102
RTVSPost2010PropOp42
 70
     1
102
RTVSPost2010Prop43
 90
        3
102
RTVSPost2010PropOp43
 70
     1
102
RTVSPost2010Prop44ColorIndex
 90
        5
102
RTVSPost2010Prop44ColorRGB
 90
      255
102
RTVSPost2010PropOp44
 70
     1
102
RTVSPost2010Prop45
280
     0
102
RTVSPost2010PropOp45
 70
     1
102
RTVSPost2010Prop46
 90
       50
102
RTVSPost2010PropOp46
 70
     1
102
RTVSPost2010Prop47
 90
       50
102
RTVSPost2010PropOp47
 70
     1
102
RTVSPost2010Prop48
 90
       50
102
RTVSPost2010PropOp48
 70
     1
102
RTVSPost2010Prop49
280
     0
102
RTVSPost2010PropOp49
 70
     1
102
RTVSPost2010Prop50
 90
       50
102
RTVSPost2010PropOp50
 70
     1
102
RTVSPost2010Prop51ColorIndex
 90
      256
102
RTVSPost2010Prop51ColorRGB
 90
-16777216
102
RTVSPost2010PropOp51
 70
     0
102
RTVSPost2010Prop52
140
1.0
102
RTVSPost2010PropOp52
 70
     0
102
RTVSPost2010Prop53
 90
        2
102
RTVSPost2010PropOp53
 70
     1
102
RTVSPost2010Prop54
  1
strokes_ogs.tif
102
RTVSPost2010PropOp54
 70
     1
102
RTVSPost2010Prop55
280
     0
102
RTVSPost2010PropOp55
 70
     1
102
RTVSPost2010Prop56
140
1.0
102
RTVSPost2010PropOp56
 70
     1
102
RTVSPost2010Prop57
140
1.0
102
RTVSPost2010PropOp57
 70
     1
102
RTVSPropertyOp0
 70
     1
102
RTVSPropertyOp1
 70
     1
102
RTVSPropertyOp2
 70
     1
102
RTVSPropertyOp3
 70
     1
102
RTVSPropertyOp4
 70
     1
102
RTVSPropertyOp5
 70
     1
102
RTVSPropertyOp6
 70
     1
102
RTVSPropertyOp7
 70
     1
102
RTVSPropertyOp8
 70
     1
102
RTVSPropertyOp9
 70
     1
102
RTVSPropertyOp10
 70
     1
102
RTVSPropertyOp11
 70
     1
102
RTVSPropertyOp12
 70
     1
102
RTVSPropertyOp13
 70
     1
102
RTVSPropertyOp14
 70
     1
102
RTVSPropertyOp15
 70
     1
102
RTVSPropertyOp16
 70
     1
102
RTVSPropertyOp17
 70
     1
102
RTVSPropertyOp18
 70
     1
102
RTVSPropertyOp19
 70
     1
102
RTVSPropertyOp20
 70
     1
102
RTVSPropertyOp21
 70
     1
102
RTVSPropertyOp22
 70
     1
102
RTVSPropertyOp23
 70
     1
102
RTVSPropertyOp24
 70
     1
102
RTVSPropertyOp25
 70
     1
102
RTVSPropertyOp26
 70
     1
102
RTVSPropertyOp27
 70
     1
102
RTVSPropertyOp28
 70
     1
102
RTVSPropertyOp29
 70
     1
102
RTVSPropertyOp30
 70
     1
102
RTVSPropertyOp31
 70
     1
102
RTVSPropertyOp32
 70
     1
102
RTVSPropertyOp33
 70
     1
102
RTVSPropertyOp34
 70
     1
102
RTVSPropertyOp35
 70
     1
102
RTVSPropertyOp36
 70
     1
102
RTVSPropertyOp37
 70
     1
102
RTVSPropertyOp38
 70
     1
102
RTVSPropertyOp39
 70
     1
102
RTVSPropertyOp40
 70
     1
102
RTVSPropertyOp41
 70
     1
102
RTVSPropertyOp42
 70
     1
102
RTVSPropertyOp43
 70
     1
102
RTVSPropertyOp44
 70
     1
102
RTVSPropertyOp45
 70
     1
102
RTVSPropertyOp46
 70
     1
102
RTVSPropertyOp47
 70
     1
102
RTVSPropertyOp48
 70
     1
102
RTVSPropertyOp49
 70
     1
102
RTVSPropertyOp50
 70
     1
102
RTVSPropertyOp51
 70
     0
102
RTVSPropertyOp52
 70
     0
102
RTVSPropertyOp53
 70
     1
102
RTVSPropertyOp54
 70
     1
102
RTVSPropertyOp55
 70
     1
102
RTVSPropertyOp56
 70
     1
102
RTVSPropertyOp57
 70
     1
102
RTVSPropertyOp58
 70
     1
102
RTVSPropertyOp59
 70
     1
102
RTVSPropertyOp60
 70
     1
102
RTVSPropertyOp61
 70
     1
102
RTVSPropertyOp62
 70
     1
  0
XRECORD
  5
9AAF
102
{ACAD_REACTORS
330
9AAE
102
}
330
9AAE
100
AcDbXrecord
280
     1
102
RTVSPost2010Prop28
280
     0
102
RTVSPost2010PropOp28
 70
     1
102
RTVSPost2010Prop29
280
     1
102
RTVSPost2010PropOp29
 70
     1
102
RTVSPost2010Prop30
280
     1
102
RTVSPost2010PropOp30
 70
     1
102
RTVSPost2010Prop31
280
     0
102
RTVSPost2010PropOp31
 70
     1
102
RTVSPost2010Prop32
280
     0
102
RTVSPost2010PropOp32
 70
     1
102
RTVSPost2010Prop33
280
     0
102
RTVSPost2010PropOp33
 70
     1
102
RTVSPost2010Prop34
280
     0
102
RTVSPost2010PropOp34
 70
     1
102
RTVSPost2010Prop35
280
     0
102
RTVSPost2010PropOp35
 70
     1
102
RTVSPost2010Prop36
280
     0
102
RTVSPost2010PropOp36
 70
     1
102
RTVSPost2010Prop37
 90
       50
102
RTVSPost2010PropOp37
 70
     1
102
RTVSPost2010Prop38
140
0.0
102
RTVSPost2010PropOp38
 70
     1
102
RTVSPost2010Prop39
140
1.0
102
RTVSPost2010PropOp39
 70
     1
102
RTVSPost2010Prop40
 90
        0
102
RTVSPost2010PropOp40
 70
     1
102
RTVSPost2010Prop41ColorIndex
 90
       18
102
RTVSPost2010Prop41ColorRGB
 90
        0
102
RTVSPost2010PropOp41
 70
     1
102
RTVSPost2010Prop42
 90
       50
102
RTVSPost2010PropOp42
 70
     1
102
RTVSPost2010Prop43
 90
        3
102
RTVSPost2010PropOp43
 70
     1
102
RTVSPost2010Prop44ColorIndex
 90
        5
102
RTVSPost2010Prop44ColorRGB
 90
      255
102
RTVSPost2010PropOp44
 70
     1
102
RTVSPost2010Prop45
280
     0
102
RTVSPost2010PropOp45
 70
     1
102
RTVSPost2010Prop46
 90
       50
102
RTVSPost2010PropOp46
 70
     1
102
RTVSPost2010Prop47
 90
       50
102
RTVSPost2010PropOp47
 70
     1
102
RTVSPost2010Prop48
 90
       50
102
RTVSPost2010PropOp48
 70
     1
102
RTVSPost2010Prop49
280
     0
102
RTVSPost2010PropOp49
 70
     1
102
RTVSPost2010Prop50
 90
       50
102
RTVSPost2010PropOp50
 70
     1
102
RTVSPost2010Prop51ColorIndex
 90
      256
102
RTVSPost2010Prop51ColorRGB
 90
-16777216
102
RTVSPost2010PropOp51
 70
     0
102
RTVSPost2010Prop52
140
1.0
102
RTVSPost2010PropOp52
 70
     0
102
RTVSPost2010Prop53
 90
        2
102
RTVSPost2010PropOp53
 70
     1
102
RTVSPost2010Prop54
  1
strokes_ogs.tif
102
RTVSPost2010PropOp54
 70
     1
102
RTVSPost2010Prop55
280
     0
102
RTVSPost2010PropOp55
 70
     1
102
RTVSPost2010Prop56
140
1.0
102
RTVSPost2010PropOp56
 70
     1
102
RTVSPost2010Prop57
140
1.0
102
RTVSPost2010PropOp57
 70
     1
102
RTVSPropertyOp0
 70
     1
102
RTVSPropertyOp1
 70
     1
102
RTVSPropertyOp2
 70
     1
102
RTVSPropertyOp3
 70
     1
102
RTVSPropertyOp4
 70
     1
102
RTVSPropertyOp5
 70
     1
102
RTVSPropertyOp6
 70
     1
102
RTVSPropertyOp7
 70
     1
102
RTVSPropertyOp8
 70
     1
102
RTVSPropertyOp9
 70
     1
102
RTVSPropertyOp10
 70
     1
102
RTVSPropertyOp11
 70
     1
102
RTVSPropertyOp12
 70
     1
102
RTVSPropertyOp13
 70
     1
102
RTVSPropertyOp14
 70
     1
102
RTVSPropertyOp15
 70
     1
102
RTVSPropertyOp16
 70
     1
102
RTVSPropertyOp17
 70
     1
102
RTVSPropertyOp18
 70
     1
102
RTVSPropertyOp19
 70
     1
102
RTVSPropertyOp20
 70
     1
102
RTVSPropertyOp21
 70
     1
102
RTVSPropertyOp22
 70
     1
102
RTVSPropertyOp23
 70
     1
102
RTVSPropertyOp24
 70
     1
102
RTVSPropertyOp25
 70
     1
102
RTVSPropertyOp26
 70
     1
102
RTVSPropertyOp27
 70
     1
102
RTVSPropertyOp28
 70
     1
102
RTVSPropertyOp29
 70
     1
102
RTVSPropertyOp30
 70
     1
102
RTVSPropertyOp31
 70
     1
102
RTVSPropertyOp32
 70
     1
102
RTVSPropertyOp33
 70
     1
102
RTVSPropertyOp34
 70
     1
102
RTVSPropertyOp35
 70
     1
102
RTVSPropertyOp36
 70
     1
102
RTVSPropertyOp37
 70
     1
102
RTVSPropertyOp38
 70
     1
102
RTVSPropertyOp39
 70
     1
102
RTVSPropertyOp40
 70
     1
102
RTVSPropertyOp41
 70
     1
102
RTVSPropertyOp42
 70
     1
102
RTVSPropertyOp43
 70
     1
102
RTVSPropertyOp44
 70
     1
102
RTVSPropertyOp45
 70
     1
102
RTVSPropertyOp46
 70
     1
102
RTVSPropertyOp47
 70
     1
102
RTVSPropertyOp48
 70
     1
102
RTVSPropertyOp49
 70
     1
102
RTVSPropertyOp50
 70
     1
102
RTVSPropertyOp51
 70
     0
102
RTVSPropertyOp52
 70
     0
102
RTVSPropertyOp53
 70
     1
102
RTVSPropertyOp54
 70
     1
102
RTVSPropertyOp55
 70
     1
102
RTVSPropertyOp56
 70
     1
102
RTVSPropertyOp57
 70
     1
102
RTVSPropertyOp58
 70
     1
102
RTVSPropertyOp59
 70
     1
102
RTVSPropertyOp60
 70
     1
102
RTVSPropertyOp61
 70
     1
102
RTVSPropertyOp62
 70
     1
  0
XRECORD
  5
9ABD
102
{ACAD_REACTORS
330
9ABC
102
}
330
9ABC
100
AcDbXrecord
280
     1
102
RTVSPost2010Prop28
280
     0
102
RTVSPost2010PropOp28
 70
     1
102
RTVSPost2010Prop29
280
     1
102
RTVSPost2010PropOp29
 70
     1
102
RTVSPost2010Prop30
280
     1
102
RTVSPost2010PropOp30
 70
     1
102
RTVSPost2010Prop31
280
     0
102
RTVSPost2010PropOp31
 70
     1
102
RTVSPost2010Prop32
280
     0
102
RTVSPost2010PropOp32
 70
     1
102
RTVSPost2010Prop33
280
     0
102
RTVSPost2010PropOp33
 70
     1
102
RTVSPost2010Prop34
280
     0
102
RTVSPost2010PropOp34
 70
     1
102
RTVSPost2010Prop35
280
     0
102
RTVSPost2010PropOp35
 70
     1
102
RTVSPost2010Prop36
280
     0
102
RTVSPost2010PropOp36
 70
     1
102
RTVSPost2010Prop37
 90
       50
102
RTVSPost2010PropOp37
 70
     1
102
RTVSPost2010Prop38
140
0.0
102
RTVSPost2010PropOp38
 70
     1
102
RTVSPost2010Prop39
140
1.0
102
RTVSPost2010PropOp39
 70
     1
102
RTVSPost2010Prop40
 90
        0
102
RTVSPost2010PropOp40
 70
     1
102
RTVSPost2010Prop41ColorIndex
 90
       18
102
RTVSPost2010Prop41ColorRGB
 90
        0
102
RTVSPost2010PropOp41
 70
     1
102
RTVSPost2010Prop42
 90
       50
102
RTVSPost2010PropOp42
 70
     1
102
RTVSPost2010Prop43
 90
        3
102
RTVSPost2010PropOp43
 70
     1
102
RTVSPost2010Prop44ColorIndex
 90
        5
102
RTVSPost2010Prop44ColorRGB
 90
      255
102
RTVSPost2010PropOp44
 70
     1
102
RTVSPost2010Prop45
280
     0
102
RTVSPost2010PropOp45
 70
     1
102
RTVSPost2010Prop46
 90
       50
102
RTVSPost2010PropOp46
 70
     1
102
RTVSPost2010Prop47
 90
       50
102
RTVSPost2010PropOp47
 70
     1
102
RTVSPost2010Prop48
 90
       50
102
RTVSPost2010PropOp48
 70
     1
102
RTVSPost2010Prop49
280
     0
102
RTVSPost2010PropOp49
 70
     1
102
RTVSPost2010Prop50
 90
       50
102
RTVSPost2010PropOp50
 70
     1
102
RTVSPost2010Prop51ColorIndex
 90
      256
102
RTVSPost2010Prop51ColorRGB
 90
-16777216
102
RTVSPost2010PropOp51
 70
     0
102
RTVSPost2010Prop52
140
1.0
102
RTVSPost2010PropOp52
 70
     0
102
RTVSPost2010Prop53
 90
        2
102
RTVSPost2010PropOp53
 70
     1
102
RTVSPost2010Prop54
  1
strokes_ogs.tif
102
RTVSPost2010PropOp54
 70
     1
102
RTVSPost2010Prop55
280
     0
102
RTVSPost2010PropOp55
 70
     1
102
RTVSPost2010Prop56
140
1.0
102
RTVSPost2010PropOp56
 70
     1
102
RTVSPost2010Prop57
140
1.0
102
RTVSPost2010PropOp57
 70
     1
102
RTVSPropertyOp0
 70
     1
102
RTVSPropertyOp1
 70
     1
102
RTVSPropertyOp2
 70
     1
102
RTVSPropertyOp3
 70
     1
102
RTVSPropertyOp4
 70
     1
102
RTVSPropertyOp5
 70
     1
102
RTVSPropertyOp6
 70
     1
102
RTVSPropertyOp7
 70
     1
102
RTVSPropertyOp8
 70
     1
102
RTVSPropertyOp9
 70
     1
102
RTVSPropertyOp10
 70
     1
102
RTVSPropertyOp11
 70
     1
102
RTVSPropertyOp12
 70
     1
102
RTVSPropertyOp13
 70
     1
102
RTVSPropertyOp14
 70
     1
102
RTVSPropertyOp15
 70
     1
102
RTVSPropertyOp16
 70
     1
102
RTVSPropertyOp17
 70
     1
102
RTVSPropertyOp18
 70
     1
102
RTVSPropertyOp19
 70
     1
102
RTVSPropertyOp20
 70
     1
102
RTVSPropertyOp21
 70
     1
102
RTVSPropertyOp22
 70
     1
102
RTVSPropertyOp23
 70
     1
102
RTVSPropertyOp24
 70
     1
102
RTVSPropertyOp25
 70
     1
102
RTVSPropertyOp26
 70
     1
102
RTVSPropertyOp27
 70
     1
102
RTVSPropertyOp28
 70
     1
102
RTVSPropertyOp29
 70
     1
102
RTVSPropertyOp30
 70
     1
102
RTVSPropertyOp31
 70
     1
102
RTVSPropertyOp32
 70
     1
102
RTVSPropertyOp33
 70
     1
102
RTVSPropertyOp34
 70
     1
102
RTVSPropertyOp35
 70
     1
102
RTVSPropertyOp36
 70
     1
102
RTVSPropertyOp37
 70
     1
102
RTVSPropertyOp38
 70
     1
102
RTVSPropertyOp39
 70
     1
102
RTVSPropertyOp40
 70
     1
102
RTVSPropertyOp41
 70
     1
102
RTVSPropertyOp42
 70
     1
102
RTVSPropertyOp43
 70
     1
102
RTVSPropertyOp44
 70
     1
102
RTVSPropertyOp45
 70
     1
102
RTVSPropertyOp46
 70
     1
102
RTVSPropertyOp47
 70
     1
102
RTVSPropertyOp48
 70
     1
102
RTVSPropertyOp49
 70
     1
102
RTVSPropertyOp50
 70
     1
102
RTVSPropertyOp51
 70
     0
102
RTVSPropertyOp52
 70
     0
102
RTVSPropertyOp53
 70
     1
102
RTVSPropertyOp54
 70
     1
102
RTVSPropertyOp55
 70
     1
102
RTVSPropertyOp56
 70
     1
102
RTVSPropertyOp57
 70
     1
102
RTVSPropertyOp58
 70
     1
102
RTVSPropertyOp59
 70
     1
102
RTVSPropertyOp60
 70
     1
102
RTVSPropertyOp61
 70
     1
102
RTVSPropertyOp62
 70
     1
  0
XRECORD
  5
9AC5
102
{ACAD_REACTORS
330
9AC4
102
}
330
9AC4
100
AcDbXrecord
280
     1
102
RTVSPost2010Prop28
280
     0
102
RTVSPost2010PropOp28
 70
     1
102
RTVSPost2010Prop29
280
     1
102
RTVSPost2010PropOp29
 70
     1
102
RTVSPost2010Prop30
280
     1
102
RTVSPost2010PropOp30
 70
     1
102
RTVSPost2010Prop31
280
     0
102
RTVSPost2010PropOp31
 70
     1
102
RTVSPost2010Prop32
280
     0
102
RTVSPost2010PropOp32
 70
     1
102
RTVSPost2010Prop33
280
     0
102
RTVSPost2010PropOp33
 70
     1
102
RTVSPost2010Prop34
280
     0
102
RTVSPost2010PropOp34
 70
     1
102
RTVSPost2010Prop35
280
     0
102
RTVSPost2010PropOp35
 70
     1
102
RTVSPost2010Prop36
280
     0
102
RTVSPost2010PropOp36
 70
     1
102
RTVSPost2010Prop37
 90
       50
102
RTVSPost2010PropOp37
 70
     1
102
RTVSPost2010Prop38
140
0.0
102
RTVSPost2010PropOp38
 70
     1
102
RTVSPost2010Prop39
140
1.0
102
RTVSPost2010PropOp39
 70
     1
102
RTVSPost2010Prop40
 90
        0
102
RTVSPost2010PropOp40
 70
     1
102
RTVSPost2010Prop41ColorIndex
 90
       18
102
RTVSPost2010Prop41ColorRGB
 90
        0
102
RTVSPost2010PropOp41
 70
     1
102
RTVSPost2010Prop42
 90
       50
102
RTVSPost2010PropOp42
 70
     1
102
RTVSPost2010Prop43
 90
        3
102
RTVSPost2010PropOp43
 70
     1
102
RTVSPost2010Prop44ColorIndex
 90
        5
102
RTVSPost2010Prop44ColorRGB
 90
      255
102
RTVSPost2010PropOp44
 70
     1
102
RTVSPost2010Prop45
280
     0
102
RTVSPost2010PropOp45
 70
     1
102
RTVSPost2010Prop46
 90
       50
102
RTVSPost2010PropOp46
 70
     1
102
RTVSPost2010Prop47
 90
       50
102
RTVSPost2010PropOp47
 70
     1
102
RTVSPost2010Prop48
 90
       50
102
RTVSPost2010PropOp48
 70
     1
102
RTVSPost2010Prop49
280
     0
102
RTVSPost2010PropOp49
 70
     1
102
RTVSPost2010Prop50
 90
       50
102
RTVSPost2010PropOp50
 70
     1
102
RTVSPost2010Prop51ColorIndex
 90
      256
102
RTVSPost2010Prop51ColorRGB
 90
-16777216
102
RTVSPost2010PropOp51
 70
     0
102
RTVSPost2010Prop52
140
1.0
102
RTVSPost2010PropOp52
 70
     0
102
RTVSPost2010Prop53
 90
        2
102
RTVSPost2010PropOp53
 70
     1
102
RTVSPost2010Prop54
  1
strokes_ogs.tif
102
RTVSPost2010PropOp54
 70
     1
102
RTVSPost2010Prop55
280
     0
102
RTVSPost2010PropOp55
 70
     1
102
RTVSPost2010Prop56
140
1.0
102
RTVSPost2010PropOp56
 70
     1
102
RTVSPost2010Prop57
140
1.0
102
RTVSPost2010PropOp57
 70
     1
102
RTVSPropertyOp0
 70
     1
102
RTVSPropertyOp1
 70
     1
102
RTVSPropertyOp2
 70
     1
102
RTVSPropertyOp3
 70
     1
102
RTVSPropertyOp4
 70
     1
102
RTVSPropertyOp5
 70
     1
102
RTVSPropertyOp6
 70
     1
102
RTVSPropertyOp7
 70
     1
102
RTVSPropertyOp8
 70
     1
102
RTVSPropertyOp9
 70
     1
102
RTVSPropertyOp10
 70
     1
102
RTVSPropertyOp11
 70
     1
102
RTVSPropertyOp12
 70
     1
102
RTVSPropertyOp13
 70
     1
102
RTVSPropertyOp14
 70
     1
102
RTVSPropertyOp15
 70
     1
102
RTVSPropertyOp16
 70
     1
102
RTVSPropertyOp17
 70
     1
102
RTVSPropertyOp18
 70
     1
102
RTVSPropertyOp19
 70
     1
102
RTVSPropertyOp20
 70
     1
102
RTVSPropertyOp21
 70
     1
102
RTVSPropertyOp22
 70
     1
102
RTVSPropertyOp23
 70
     1
102
RTVSPropertyOp24
 70
     1
102
RTVSPropertyOp25
 70
     1
102
RTVSPropertyOp26
 70
     1
102
RTVSPropertyOp27
 70
     1
102
RTVSPropertyOp28
 70
     1
102
RTVSPropertyOp29
 70
     1
102
RTVSPropertyOp30
 70
     1
102
RTVSPropertyOp31
 70
     1
102
RTVSPropertyOp32
 70
     1
102
RTVSPropertyOp33
 70
     1
102
RTVSPropertyOp34
 70
     1
102
RTVSPropertyOp35
 70
     1
102
RTVSPropertyOp36
 70
     1
102
RTVSPropertyOp37
 70
     1
102
RTVSPropertyOp38
 70
     1
102
RTVSPropertyOp39
 70
     1
102
RTVSPropertyOp40
 70
     1
102
RTVSPropertyOp41
 70
     1
102
RTVSPropertyOp42
 70
     1
102
RTVSPropertyOp43
 70
     1
102
RTVSPropertyOp44
 70
     1
102
RTVSPropertyOp45
 70
     1
102
RTVSPropertyOp46
 70
     1
102
RTVSPropertyOp47
 70
     1
102
RTVSPropertyOp48
 70
     1
102
RTVSPropertyOp49
 70
     1
102
RTVSPropertyOp50
 70
     1
102
RTVSPropertyOp51
 70
     0
102
RTVSPropertyOp52
 70
     0
102
RTVSPropertyOp53
 70
     1
102
RTVSPropertyOp54
 70
     1
102
RTVSPropertyOp55
 70
     1
102
RTVSPropertyOp56
 70
     1
102
RTVSPropertyOp57
 70
     1
102
RTVSPropertyOp58
 70
     1
102
RTVSPropertyOp59
 70
     1
102
RTVSPropertyOp60
 70
     1
102
RTVSPropertyOp61
 70
     1
102
RTVSPropertyOp62
 70
     1
  0
XRECORD
  5
9AB7
102
{ACAD_REACTORS
330
9AB6
102
}
330
9AB6
100
AcDbXrecord
280
     1
102
RTVSPost2010Prop28
280
     0
102
RTVSPost2010PropOp28
 70
     1
102
RTVSPost2010Prop29
280
     1
102
RTVSPost2010PropOp29
 70
     1
102
RTVSPost2010Prop30
280
     1
102
RTVSPost2010PropOp30
 70
     1
102
RTVSPost2010Prop31
280
     0
102
RTVSPost2010PropOp31
 70
     1
102
RTVSPost2010Prop32
280
     0
102
RTVSPost2010PropOp32
 70
     1
102
RTVSPost2010Prop33
280
     0
102
RTVSPost2010PropOp33
 70
     1
102
RTVSPost2010Prop34
280
     0
102
RTVSPost2010PropOp34
 70
     1
102
RTVSPost2010Prop35
280
     0
102
RTVSPost2010PropOp35
 70
     1
102
RTVSPost2010Prop36
280
     0
102
RTVSPost2010PropOp36
 70
     1
102
RTVSPost2010Prop37
 90
       50
102
RTVSPost2010PropOp37
 70
     1
102
RTVSPost2010Prop38
140
0.0
102
RTVSPost2010PropOp38
 70
     1
102
RTVSPost2010Prop39
140
1.0
102
RTVSPost2010PropOp39
 70
     1
102
RTVSPost2010Prop40
 90
        0
102
RTVSPost2010PropOp40
 70
     1
102
RTVSPost2010Prop41ColorIndex
 90
       18
102
RTVSPost2010Prop41ColorRGB
 90
        0
102
RTVSPost2010PropOp41
 70
     1
102
RTVSPost2010Prop42
 90
       50
102
RTVSPost2010PropOp42
 70
     1
102
RTVSPost2010Prop43
 90
        3
102
RTVSPost2010PropOp43
 70
     1
102
RTVSPost2010Prop44ColorIndex
 90
        5
102
RTVSPost2010Prop44ColorRGB
 90
      255
102
RTVSPost2010PropOp44
 70
     1
102
RTVSPost2010Prop45
280
     0
102
RTVSPost2010PropOp45
 70
     1
102
RTVSPost2010Prop46
 90
       50
102
RTVSPost2010PropOp46
 70
     1
102
RTVSPost2010Prop47
 90
       50
102
RTVSPost2010PropOp47
 70
     1
102
RTVSPost2010Prop48
 90
       50
102
RTVSPost2010PropOp48
 70
     1
102
RTVSPost2010Prop49
280
     0
102
RTVSPost2010PropOp49
 70
     1
102
RTVSPost2010Prop50
 90
       50
102
RTVSPost2010PropOp50
 70
     1
102
RTVSPost2010Prop51ColorIndex
 90
      256
102
RTVSPost2010Prop51ColorRGB
 90
-16777216
102
RTVSPost2010PropOp51
 70
     0
102
RTVSPost2010Prop52
140
1.0
102
RTVSPost2010PropOp52
 70
     0
102
RTVSPost2010Prop53
 90
        2
102
RTVSPost2010PropOp53
 70
     1
102
RTVSPost2010Prop54
  1
strokes_ogs.tif
102
RTVSPost2010PropOp54
 70
     1
102
RTVSPost2010Prop55
280
     0
102
RTVSPost2010PropOp55
 70
     1
102
RTVSPost2010Prop56
140
1.0
102
RTVSPost2010PropOp56
 70
     1
102
RTVSPost2010Prop57
140
1.0
102
RTVSPost2010PropOp57
 70
     1
102
RTVSPropertyOp0
 70
     1
102
RTVSPropertyOp1
 70
     1
102
RTVSPropertyOp2
 70
     1
102
RTVSPropertyOp3
 70
     1
102
RTVSPropertyOp4
 70
     1
102
RTVSPropertyOp5
 70
     1
102
RTVSPropertyOp6
 70
     1
102
RTVSPropertyOp7
 70
     1
102
RTVSPropertyOp8
 70
     1
102
RTVSPropertyOp9
 70
     1
102
RTVSPropertyOp10
 70
     1
102
RTVSPropertyOp11
 70
     1
102
RTVSPropertyOp12
 70
     1
102
RTVSPropertyOp13
 70
     1
102
RTVSPropertyOp14
 70
     1
102
RTVSPropertyOp15
 70
     1
102
RTVSPropertyOp16
 70
     1
102
RTVSPropertyOp17
 70
     1
102
RTVSPropertyOp18
 70
     1
102
RTVSPropertyOp19
 70
     1
102
RTVSPropertyOp20
 70
     1
102
RTVSPropertyOp21
 70
     1
102
RTVSPropertyOp22
 70
     1
102
RTVSPropertyOp23
 70
     1
102
RTVSPropertyOp24
 70
     1
102
RTVSPropertyOp25
 70
     1
102
RTVSPropertyOp26
 70
     1
102
RTVSPropertyOp27
 70
     1
102
RTVSPropertyOp28
 70
     1
102
RTVSPropertyOp29
 70
     1
102
RTVSPropertyOp30
 70
     1
102
RTVSPropertyOp31
 70
     1
102
RTVSPropertyOp32
 70
     1
102
RTVSPropertyOp33
 70
     1
102
RTVSPropertyOp34
 70
     1
102
RTVSPropertyOp35
 70
     1
102
RTVSPropertyOp36
 70
     1
102
RTVSPropertyOp37
 70
     1
102
RTVSPropertyOp38
 70
     1
102
RTVSPropertyOp39
 70
     1
102
RTVSPropertyOp40
 70
     1
102
RTVSPropertyOp41
 70
     1
102
RTVSPropertyOp42
 70
     1
102
RTVSPropertyOp43
 70
     1
102
RTVSPropertyOp44
 70
     1
102
RTVSPropertyOp45
 70
     1
102
RTVSPropertyOp46
 70
     1
102
RTVSPropertyOp47
 70
     1
102
RTVSPropertyOp48
 70
     1
102
RTVSPropertyOp49
 70
     1
102
RTVSPropertyOp50
 70
     1
102
RTVSPropertyOp51
 70
     0
102
RTVSPropertyOp52
 70
     0
102
RTVSPropertyOp53
 70
     1
102
RTVSPropertyOp54
 70
     1
102
RTVSPropertyOp55
 70
     1
102
RTVSPropertyOp56
 70
     1
102
RTVSPropertyOp57
 70
     1
102
RTVSPropertyOp58
 70
     1
102
RTVSPropertyOp59
 70
     1
102
RTVSPropertyOp60
 70
     1
102
RTVSPropertyOp61
 70
     1
102
RTVSPropertyOp62
 70
     1
  0
XRECORD
  5
9ABB
102
{ACAD_REACTORS
330
9ABA
102
}
330
9ABA
100
AcDbXrecord
280
     1
102
RTVSPost2010Prop28
280
     0
102
RTVSPost2010PropOp28
 70
     1
102
RTVSPost2010Prop29
280
     1
102
RTVSPost2010PropOp29
 70
     1
102
RTVSPost2010Prop30
280
     1
102
RTVSPost2010PropOp30
 70
     1
102
RTVSPost2010Prop31
280
     0
102
RTVSPost2010PropOp31
 70
     1
102
RTVSPost2010Prop32
280
     0
102
RTVSPost2010PropOp32
 70
     1
102
RTVSPost2010Prop33
280
     0
102
RTVSPost2010PropOp33
 70
     1
102
RTVSPost2010Prop34
280
     0
102
RTVSPost2010PropOp34
 70
     1
102
RTVSPost2010Prop35
280
     0
102
RTVSPost2010PropOp35
 70
     1
102
RTVSPost2010Prop36
280
     0
102
RTVSPost2010PropOp36
 70
     1
102
RTVSPost2010Prop37
 90
       50
102
RTVSPost2010PropOp37
 70
     1
102
RTVSPost2010Prop38
140
0.0
102
RTVSPost2010PropOp38
 70
     1
102
RTVSPost2010Prop39
140
1.0
102
RTVSPost2010PropOp39
 70
     1
102
RTVSPost2010Prop40
 90
        0
102
RTVSPost2010PropOp40
 70
     1
102
RTVSPost2010Prop41ColorIndex
 90
       18
102
RTVSPost2010Prop41ColorRGB
 90
        0
102
RTVSPost2010PropOp41
 70
     1
102
RTVSPost2010Prop42
 90
       50
102
RTVSPost2010PropOp42
 70
     1
102
RTVSPost2010Prop43
 90
        3
102
RTVSPost2010PropOp43
 70
     1
102
RTVSPost2010Prop44ColorIndex
 90
        5
102
RTVSPost2010Prop44ColorRGB
 90
      255
102
RTVSPost2010PropOp44
 70
     1
102
RTVSPost2010Prop45
280
     0
102
RTVSPost2010PropOp45
 70
     1
102
RTVSPost2010Prop46
 90
       50
102
RTVSPost2010PropOp46
 70
     1
102
RTVSPost2010Prop47
 90
       50
102
RTVSPost2010PropOp47
 70
     1
102
RTVSPost2010Prop48
 90
       50
102
RTVSPost2010PropOp48
 70
     1
102
RTVSPost2010Prop49
280
     0
102
RTVSPost2010PropOp49
 70
     1
102
RTVSPost2010Prop50
 90
       50
102
RTVSPost2010PropOp50
 70
     1
102
RTVSPost2010Prop51ColorIndex
 90
      256
102
RTVSPost2010Prop51ColorRGB
 90
-16777216
102
RTVSPost2010PropOp51
 70
     0
102
RTVSPost2010Prop52
140
1.0
102
RTVSPost2010PropOp52
 70
     0
102
RTVSPost2010Prop53
 90
        2
102
RTVSPost2010PropOp53
 70
     1
102
RTVSPost2010Prop54
  1
strokes_ogs.tif
102
RTVSPost2010PropOp54
 70
     1
102
RTVSPost2010Prop55
280
     0
102
RTVSPost2010PropOp55
 70
     1
102
RTVSPost2010Prop56
140
1.0
102
RTVSPost2010PropOp56
 70
     1
102
RTVSPost2010Prop57
140
1.0
102
RTVSPost2010PropOp57
 70
     1
102
RTVSPropertyOp0
 70
     1
102
RTVSPropertyOp1
 70
     1
102
RTVSPropertyOp2
 70
     1
102
RTVSPropertyOp3
 70
     1
102
RTVSPropertyOp4
 70
     1
102
RTVSPropertyOp5
 70
     1
102
RTVSPropertyOp6
 70
     1
102
RTVSPropertyOp7
 70
     1
102
RTVSPropertyOp8
 70
     1
102
RTVSPropertyOp9
 70
     1
102
RTVSPropertyOp10
 70
     1
102
RTVSPropertyOp11
 70
     1
102
RTVSPropertyOp12
 70
     1
102
RTVSPropertyOp13
 70
     1
102
RTVSPropertyOp14
 70
     1
102
RTVSPropertyOp15
 70
     1
102
RTVSPropertyOp16
 70
     1
102
RTVSPropertyOp17
 70
     1
102
RTVSPropertyOp18
 70
     1
102
RTVSPropertyOp19
 70
     1
102
RTVSPropertyOp20
 70
     1
102
RTVSPropertyOp21
 70
     1
102
RTVSPropertyOp22
 70
     1
102
RTVSPropertyOp23
 70
     1
102
RTVSPropertyOp24
 70
     1
102
RTVSPropertyOp25
 70
     1
102
RTVSPropertyOp26
 70
     1
102
RTVSPropertyOp27
 70
     1
102
RTVSPropertyOp28
 70
     1
102
RTVSPropertyOp29
 70
     1
102
RTVSPropertyOp30
 70
     1
102
RTVSPropertyOp31
 70
     1
102
RTVSPropertyOp32
 70
     1
102
RTVSPropertyOp33
 70
     1
102
RTVSPropertyOp34
 70
     1
102
RTVSPropertyOp35
 70
     1
102
RTVSPropertyOp36
 70
     1
102
RTVSPropertyOp37
 70
     1
102
RTVSPropertyOp38
 70
     1
102
RTVSPropertyOp39
 70
     1
102
RTVSPropertyOp40
 70
     1
102
RTVSPropertyOp41
 70
     1
102
RTVSPropertyOp42
 70
     1
102
RTVSPropertyOp43
 70
     1
102
RTVSPropertyOp44
 70
     1
102
RTVSPropertyOp45
 70
     1
102
RTVSPropertyOp46
 70
     1
102
RTVSPropertyOp47
 70
     1
102
RTVSPropertyOp48
 70
     1
102
RTVSPropertyOp49
 70
     1
102
RTVSPropertyOp50
 70
     1
102
RTVSPropertyOp51
 70
     0
102
RTVSPropertyOp52
 70
     0
102
RTVSPropertyOp53
 70
     1
102
RTVSPropertyOp54
 70
     1
102
RTVSPropertyOp55
 70
     1
102
RTVSPropertyOp56
 70
     1
102
RTVSPropertyOp57
 70
     1
102
RTVSPropertyOp58
 70
     1
102
RTVSPropertyOp59
 70
     1
102
RTVSPropertyOp60
 70
     1
102
RTVSPropertyOp61
 70
     1
102
RTVSPropertyOp62
 70
     1
  0
XRECORD
  5
9AD5
102
{ACAD_REACTORS
330
9AD4
102
}
330
9AD4
100
AcDbXrecord
280
     1
102
RTVSPost2010Prop28
280
     0
102
RTVSPost2010PropOp28
 70
     1
102
RTVSPost2010Prop29
280
     1
102
RTVSPost2010PropOp29
 70
     1
102
RTVSPost2010Prop30
280
     1
102
RTVSPost2010PropOp30
 70
     1
102
RTVSPost2010Prop31
280
     0
102
RTVSPost2010PropOp31
 70
     1
102
RTVSPost2010Prop32
280
     0
102
RTVSPost2010PropOp32
 70
     1
102
RTVSPost2010Prop33
280
     0
102
RTVSPost2010PropOp33
 70
     1
102
RTVSPost2010Prop34
280
     0
102
RTVSPost2010PropOp34
 70
     1
102
RTVSPost2010Prop35
280
     0
102
RTVSPost2010PropOp35
 70
     1
102
RTVSPost2010Prop36
280
     0
102
RTVSPost2010PropOp36
 70
     1
102
RTVSPost2010Prop37
 90
       50
102
RTVSPost2010PropOp37
 70
     0
102
RTVSPost2010Prop38
140
0.0
102
RTVSPost2010PropOp38
 70
     0
102
RTVSPost2010Prop39
140
1.0
102
RTVSPost2010PropOp39
 70
     0
102
RTVSPost2010Prop40
 90
        0
102
RTVSPost2010PropOp40
 70
     0
102
RTVSPost2010Prop41ColorIndex
 90
       18
102
RTVSPost2010Prop41ColorRGB
 90
        0
102
RTVSPost2010PropOp41
 70
     0
102
RTVSPost2010Prop42
 90
       50
102
RTVSPost2010PropOp42
 70
     0
102
RTVSPost2010Prop43
 90
        3
102
RTVSPost2010PropOp43
 70
     0
102
RTVSPost2010Prop44ColorIndex
 90
        5
102
RTVSPost2010Prop44ColorRGB
 90
      255
102
RTVSPost2010PropOp44
 70
     0
102
RTVSPost2010Prop45
280
     0
102
RTVSPost2010PropOp45
 70
     1
102
RTVSPost2010Prop46
 90
       50
102
RTVSPost2010PropOp46
 70
     0
102
RTVSPost2010Prop47
 90
       50
102
RTVSPost2010PropOp47
 70
     0
102
RTVSPost2010Prop48
 90
       50
102
RTVSPost2010PropOp48
 70
     0
102
RTVSPost2010Prop49
280
     0
102
RTVSPost2010PropOp49
 70
     1
102
RTVSPost2010Prop50
 90
       50
102
RTVSPost2010PropOp50
 70
     0
102
RTVSPost2010Prop51ColorIndex
 90
      256
102
RTVSPost2010Prop51ColorRGB
 90
-16777216
102
RTVSPost2010PropOp51
 70
     0
102
RTVSPost2010Prop52
140
1.0
102
RTVSPost2010PropOp52
 70
     0
102
RTVSPost2010Prop53
 90
        2
102
RTVSPost2010PropOp53
 70
     0
102
RTVSPost2010Prop54
  1
strokes_ogs.tif
102
RTVSPost2010PropOp54
 70
     0
102
RTVSPost2010Prop55
280
     0
102
RTVSPost2010PropOp55
 70
     1
102
RTVSPost2010Prop56
140
1.0
102
RTVSPost2010PropOp56
 70
     0
102
RTVSPost2010Prop57
140
1.0
102
RTVSPost2010PropOp57
 70
     0
102
RTVSPropertyOp0
 70
     0
102
RTVSPropertyOp1
 70
     0
102
RTVSPropertyOp2
 70
     0
102
RTVSPropertyOp3
 70
     0
102
RTVSPropertyOp4
 70
     0
102
RTVSPropertyOp5
 70
     0
102
RTVSPropertyOp6
 70
     0
102
RTVSPropertyOp7
 70
     0
102
RTVSPropertyOp8
 70
     0
102
RTVSPropertyOp9
 70
     0
102
RTVSPropertyOp10
 70
     0
102
RTVSPropertyOp11
 70
     0
102
RTVSPropertyOp12
 70
     0
102
RTVSPropertyOp13
 70
     0
102
RTVSPropertyOp14
 70
     2
102
RTVSPropertyOp15
 70
     0
102
RTVSPropertyOp16
 70
     0
102
RTVSPropertyOp17
 70
     0
102
RTVSPropertyOp18
 70
     0
102
RTVSPropertyOp19
 70
     0
102
RTVSPropertyOp20
 70
     0
102
RTVSPropertyOp21
 70
     0
102
RTVSPropertyOp22
 70
     0
102
RTVSPropertyOp23
 70
     0
102
RTVSPropertyOp24
 70
     0
102
RTVSPropertyOp25
 70
     0
102
RTVSPropertyOp26
 70
     0
102
RTVSPropertyOp27
 70
     0
102
RTVSPropertyOp28
 70
     1
102
RTVSPropertyOp29
 70
     1
102
RTVSPropertyOp30
 70
     1
102
RTVSPropertyOp31
 70
     1
102
RTVSPropertyOp32
 70
     1
102
RTVSPropertyOp33
 70
     1
102
RTVSPropertyOp34
 70
     1
102
RTVSPropertyOp35
 70
     1
102
RTVSPropertyOp36
 70
     1
102
RTVSPropertyOp37
 70
     0
102
RTVSPropertyOp38
 70
     0
102
RTVSPropertyOp39
 70
     0
102
RTVSPropertyOp40
 70
     0
102
RTVSPropertyOp41
 70
     0
102
RTVSPropertyOp42
 70
     0
102
RTVSPropertyOp43
 70
     0
102
RTVSPropertyOp44
 70
     0
102
RTVSPropertyOp45
 70
     1
102
RTVSPropertyOp46
 70
     0
102
RTVSPropertyOp47
 70
     0
102
RTVSPropertyOp48
 70
     0
102
RTVSPropertyOp49
 70
     1
102
RTVSPropertyOp50
 70
     0
102
RTVSPropertyOp51
 70
     0
102
RTVSPropertyOp52
 70
     0
102
RTVSPropertyOp53
 70
     0
102
RTVSPropertyOp54
 70
     0
102
RTVSPropertyOp55
 70
     1
102
RTVSPropertyOp56
 70
     0
102
RTVSPropertyOp57
 70
     0
102
RTVSPropertyOp58
 70
     0
102
RTVSPropertyOp59
 70
     0
102
RTVSPropertyOp60
 70
     0
102
RTVSPropertyOp61
 70
     0
102
RTVSPropertyOp62
 70
     0
  0
XRECORD
  5
9AC3
102
{ACAD_REACTORS
330
9AC2
102
}
330
9AC2
100
AcDbXrecord
280
     1
102
RTVSPost2010Prop28
280
     0
102
RTVSPost2010PropOp28
 70
     1
102
RTVSPost2010Prop29
280
     1
102
RTVSPost2010PropOp29
 70
     1
102
RTVSPost2010Prop30
280
     1
102
RTVSPost2010PropOp30
 70
     1
102
RTVSPost2010Prop31
280
     0
102
RTVSPost2010PropOp31
 70
     1
102
RTVSPost2010Prop32
280
     0
102
RTVSPost2010PropOp32
 70
     1
102
RTVSPost2010Prop33
280
     0
102
RTVSPost2010PropOp33
 70
     1
102
RTVSPost2010Prop34
280
     0
102
RTVSPost2010PropOp34
 70
     1
102
RTVSPost2010Prop35
280
     0
102
RTVSPost2010PropOp35
 70
     1
102
RTVSPost2010Prop36
280
     0
102
RTVSPost2010PropOp36
 70
     1
102
RTVSPost2010Prop37
 90
       50
102
RTVSPost2010PropOp37
 70
     1
102
RTVSPost2010Prop38
140
0.0
102
RTVSPost2010PropOp38
 70
     1
102
RTVSPost2010Prop39
140
1.0
102
RTVSPost2010PropOp39
 70
     1
102
RTVSPost2010Prop40
 90
        0
102
RTVSPost2010PropOp40
 70
     1
102
RTVSPost2010Prop41ColorIndex
 90
       18
102
RTVSPost2010Prop41ColorRGB
 90
        0
102
RTVSPost2010PropOp41
 70
     1
102
RTVSPost2010Prop42
 90
       50
102
RTVSPost2010PropOp42
 70
     1
102
RTVSPost2010Prop43
 90
        3
102
RTVSPost2010PropOp43
 70
     1
102
RTVSPost2010Prop44ColorIndex
 90
        5
102
RTVSPost2010Prop44ColorRGB
 90
      255
102
RTVSPost2010PropOp44
 70
     1
102
RTVSPost2010Prop45
280
     0
102
RTVSPost2010PropOp45
 70
     1
102
RTVSPost2010Prop46
 90
       50
102
RTVSPost2010PropOp46
 70
     1
102
RTVSPost2010Prop47
 90
       50
102
RTVSPost2010PropOp47
 70
     1
102
RTVSPost2010Prop48
 90
       50
102
RTVSPost2010PropOp48
 70
     1
102
RTVSPost2010Prop49
280
     0
102
RTVSPost2010PropOp49
 70
     1
102
RTVSPost2010Prop50
 90
       50
102
RTVSPost2010PropOp50
 70
     1
102
RTVSPost2010Prop51ColorIndex
 90
      256
102
RTVSPost2010Prop51ColorRGB
 90
-16777216
102
RTVSPost2010PropOp51
 70
     0
102
RTVSPost2010Prop52
140
1.0
102
RTVSPost2010PropOp52
 70
     0
102
RTVSPost2010Prop53
 90
        2
102
RTVSPost2010PropOp53
 70
     1
102
RTVSPost2010Prop54
  1
strokes_ogs.tif
102
RTVSPost2010PropOp54
 70
     1
102
RTVSPost2010Prop55
280
     0
102
RTVSPost2010PropOp55
 70
     1
102
RTVSPost2010Prop56
140
1.0
102
RTVSPost2010PropOp56
 70
     1
102
RTVSPost2010Prop57
140
1.0
102
RTVSPost2010PropOp57
 70
     1
102
RTVSPropertyOp0
 70
     1
102
RTVSPropertyOp1
 70
     1
102
RTVSPropertyOp2
 70
     1
102
RTVSPropertyOp3
 70
     1
102
RTVSPropertyOp4
 70
     1
102
RTVSPropertyOp5
 70
     1
102
RTVSPropertyOp6
 70
     1
102
RTVSPropertyOp7
 70
     1
102
RTVSPropertyOp8
 70
     1
102
RTVSPropertyOp9
 70
     1
102
RTVSPropertyOp10
 70
     1
102
RTVSPropertyOp11
 70
     1
102
RTVSPropertyOp12
 70
     1
102
RTVSPropertyOp13
 70
     1
102
RTVSPropertyOp14
 70
     1
102
RTVSPropertyOp15
 70
     1
102
RTVSPropertyOp16
 70
     1
102
RTVSPropertyOp17
 70
     1
102
RTVSPropertyOp18
 70
     1
102
RTVSPropertyOp19
 70
     1
102
RTVSPropertyOp20
 70
     1
102
RTVSPropertyOp21
 70
     1
102
RTVSPropertyOp22
 70
     1
102
RTVSPropertyOp23
 70
     1
102
RTVSPropertyOp24
 70
     1
102
RTVSPropertyOp25
 70
     1
102
RTVSPropertyOp26
 70
     1
102
RTVSPropertyOp27
 70
     1
102
RTVSPropertyOp28
 70
     1
102
RTVSPropertyOp29
 70
     1
102
RTVSPropertyOp30
 70
     1
102
RTVSPropertyOp31
 70
     1
102
RTVSPropertyOp32
 70
     1
102
RTVSPropertyOp33
 70
     1
102
RTVSPropertyOp34
 70
     1
102
RTVSPropertyOp35
 70
     1
102
RTVSPropertyOp36
 70
     1
102
RTVSPropertyOp37
 70
     1
102
RTVSPropertyOp38
 70
     1
102
RTVSPropertyOp39
 70
     1
102
RTVSPropertyOp40
 70
     1
102
RTVSPropertyOp41
 70
     1
102
RTVSPropertyOp42
 70
     1
102
RTVSPropertyOp43
 70
     1
102
RTVSPropertyOp44
 70
     1
102
RTVSPropertyOp45
 70
     1
102
RTVSPropertyOp46
 70
     1
102
RTVSPropertyOp47
 70
     1
102
RTVSPropertyOp48
 70
     1
102
RTVSPropertyOp49
 70
     1
102
RTVSPropertyOp50
 70
     1
102
RTVSPropertyOp51
 70
     0
102
RTVSPropertyOp52
 70
     0
102
RTVSPropertyOp53
 70
     1
102
RTVSPropertyOp54
 70
     1
102
RTVSPropertyOp55
 70
     1
102
RTVSPropertyOp56
 70
     1
102
RTVSPropertyOp57
 70
     1
102
RTVSPropertyOp58
 70
     1
102
RTVSPropertyOp59
 70
     1
102
RTVSPropertyOp60
 70
     1
102
RTVSPropertyOp61
 70
     1
102
RTVSPropertyOp62
 70
     1
  0
XRECORD
  5
9AA7
102
{ACAD_REACTORS
330
9AA6
102
}
330
9AA6
100
AcDbXrecord
280
     1
102
RTVSPost2010Prop28
280
     0
102
RTVSPost2010PropOp28
 70
     1
102
RTVSPost2010Prop29
280
     1
102
RTVSPost2010PropOp29
 70
     1
102
RTVSPost2010Prop30
280
     1
102
RTVSPost2010PropOp30
 70
     1
102
RTVSPost2010Prop31
280
     0
102
RTVSPost2010PropOp31
 70
     1
102
RTVSPost2010Prop32
280
     0
102
RTVSPost2010PropOp32
 70
     1
102
RTVSPost2010Prop33
280
     0
102
RTVSPost2010PropOp33
 70
     1
102
RTVSPost2010Prop34
280
     0
102
RTVSPost2010PropOp34
 70
     1
102
RTVSPost2010Prop35
280
     0
102
RTVSPost2010PropOp35
 70
     1
102
RTVSPost2010Prop36
280
     0
102
RTVSPost2010PropOp36
 70
     1
102
RTVSPost2010Prop37
 90
       50
102
RTVSPost2010PropOp37
 70
     1
102
RTVSPost2010Prop38
140
0.0
102
RTVSPost2010PropOp38
 70
     1
102
RTVSPost2010Prop39
140
1.0
102
RTVSPost2010PropOp39
 70
     1
102
RTVSPost2010Prop40
 90
        0
102
RTVSPost2010PropOp40
 70
     1
102
RTVSPost2010Prop41ColorIndex
 90
       18
102
RTVSPost2010Prop41ColorRGB
 90
        0
102
RTVSPost2010PropOp41
 70
     1
102
RTVSPost2010Prop42
 90
       50
102
RTVSPost2010PropOp42
 70
     1
102
RTVSPost2010Prop43
 90
        3
102
RTVSPost2010PropOp43
 70
     1
102
RTVSPost2010Prop44ColorIndex
 90
        5
102
RTVSPost2010Prop44ColorRGB
 90
      255
102
RTVSPost2010PropOp44
 70
     1
102
RTVSPost2010Prop45
280
     0
102
RTVSPost2010PropOp45
 70
     1
102
RTVSPost2010Prop46
 90
       50
102
RTVSPost2010PropOp46
 70
     1
102
RTVSPost2010Prop47
 90
       50
102
RTVSPost2010PropOp47
 70
     1
102
RTVSPost2010Prop48
 90
       50
102
RTVSPost2010PropOp48
 70
     1
102
RTVSPost2010Prop49
280
     0
102
RTVSPost2010PropOp49
 70
     1
102
RTVSPost2010Prop50
 90
       50
102
RTVSPost2010PropOp50
 70
     1
102
RTVSPost2010Prop51ColorIndex
 90
      256
102
RTVSPost2010Prop51ColorRGB
 90
-16777216
102
RTVSPost2010PropOp51
 70
     0
102
RTVSPost2010Prop52
140
1.0
102
RTVSPost2010PropOp52
 70
     0
102
RTVSPost2010Prop53
 90
        2
102
RTVSPost2010PropOp53
 70
     1
102
RTVSPost2010Prop54
  1
strokes_ogs.tif
102
RTVSPost2010PropOp54
 70
     1
102
RTVSPost2010Prop55
280
     0
102
RTVSPost2010PropOp55
 70
     1
102
RTVSPost2010Prop56
140
1.0
102
RTVSPost2010PropOp56
 70
     1
102
RTVSPost2010Prop57
140
1.0
102
RTVSPost2010PropOp57
 70
     1
102
RTVSPropertyOp0
 70
     1
102
RTVSPropertyOp1
 70
     1
102
RTVSPropertyOp2
 70
     1
102
RTVSPropertyOp3
 70
     1
102
RTVSPropertyOp4
 70
     1
102
RTVSPropertyOp5
 70
     1
102
RTVSPropertyOp6
 70
     1
102
RTVSPropertyOp7
 70
     1
102
RTVSPropertyOp8
 70
     1
102
RTVSPropertyOp9
 70
     1
102
RTVSPropertyOp10
 70
     1
102
RTVSPropertyOp11
 70
     1
102
RTVSPropertyOp12
 70
     1
102
RTVSPropertyOp13
 70
     1
102
RTVSPropertyOp14
 70
     1
102
RTVSPropertyOp15
 70
     1
102
RTVSPropertyOp16
 70
     1
102
RTVSPropertyOp17
 70
     1
102
RTVSPropertyOp18
 70
     1
102
RTVSPropertyOp19
 70
     1
102
RTVSPropertyOp20
 70
     1
102
RTVSPropertyOp21
 70
     1
102
RTVSPropertyOp22
 70
     1
102
RTVSPropertyOp23
 70
     1
102
RTVSPropertyOp24
 70
     1
102
RTVSPropertyOp25
 70
     1
102
RTVSPropertyOp26
 70
     1
102
RTVSPropertyOp27
 70
     1
102
RTVSPropertyOp28
 70
     1
102
RTVSPropertyOp29
 70
     1
102
RTVSPropertyOp30
 70
     1
102
RTVSPropertyOp31
 70
     1
102
RTVSPropertyOp32
 70
     1
102
RTVSPropertyOp33
 70
     1
102
RTVSPropertyOp34
 70
     1
102
RTVSPropertyOp35
 70
     1
102
RTVSPropertyOp36
 70
     1
102
RTVSPropertyOp37
 70
     1
102
RTVSPropertyOp38
 70
     1
102
RTVSPropertyOp39
 70
     1
102
RTVSPropertyOp40
 70
     1
102
RTVSPropertyOp41
 70
     1
102
RTVSPropertyOp42
 70
     1
102
RTVSPropertyOp43
 70
     1
102
RTVSPropertyOp44
 70
     1
102
RTVSPropertyOp45
 70
     1
102
RTVSPropertyOp46
 70
     1
102
RTVSPropertyOp47
 70
     1
102
RTVSPropertyOp48
 70
     1
102
RTVSPropertyOp49
 70
     1
102
RTVSPropertyOp50
 70
     1
102
RTVSPropertyOp51
 70
     0
102
RTVSPropertyOp52
 70
     0
102
RTVSPropertyOp53
 70
     1
102
RTVSPropertyOp54
 70
     1
102
RTVSPropertyOp55
 70
     1
102
RTVSPropertyOp56
 70
     1
102
RTVSPropertyOp57
 70
     1
102
RTVSPropertyOp58
 70
     1
102
RTVSPropertyOp59
 70
     1
102
RTVSPropertyOp60
 70
     1
102
RTVSPropertyOp61
 70
     1
102
RTVSPropertyOp62
 70
     1
  0
XRECORD
  5
9AA9
102
{ACAD_REACTORS
330
9AA8
102
}
330
9AA8
100
AcDbXrecord
280
     1
102
RTVSPost2010Prop28
280
     0
102
RTVSPost2010PropOp28
 70
     1
102
RTVSPost2010Prop29
280
     1
102
RTVSPost2010PropOp29
 70
     1
102
RTVSPost2010Prop30
280
     1
102
RTVSPost2010PropOp30
 70
     1
102
RTVSPost2010Prop31
280
     0
102
RTVSPost2010PropOp31
 70
     1
102
RTVSPost2010Prop32
280
     0
102
RTVSPost2010PropOp32
 70
     1
102
RTVSPost2010Prop33
280
     0
102
RTVSPost2010PropOp33
 70
     1
102
RTVSPost2010Prop34
280
     0
102
RTVSPost2010PropOp34
 70
     1
102
RTVSPost2010Prop35
280
     0
102
RTVSPost2010PropOp35
 70
     1
102
RTVSPost2010Prop36
280
     0
102
RTVSPost2010PropOp36
 70
     1
102
RTVSPost2010Prop37
 90
       50
102
RTVSPost2010PropOp37
 70
     1
102
RTVSPost2010Prop38
140
0.0
102
RTVSPost2010PropOp38
 70
     1
102
RTVSPost2010Prop39
140
1.0
102
RTVSPost2010PropOp39
 70
     1
102
RTVSPost2010Prop40
 90
        0
102
RTVSPost2010PropOp40
 70
     1
102
RTVSPost2010Prop41ColorIndex
 90
       18
102
RTVSPost2010Prop41ColorRGB
 90
        0
102
RTVSPost2010PropOp41
 70
     1
102
RTVSPost2010Prop42
 90
       50
102
RTVSPost2010PropOp42
 70
     1
102
RTVSPost2010Prop43
 90
        3
102
RTVSPost2010PropOp43
 70
     1
102
RTVSPost2010Prop44ColorIndex
 90
        5
102
RTVSPost2010Prop44ColorRGB
 90
      255
102
RTVSPost2010PropOp44
 70
     1
102
RTVSPost2010Prop45
280
     0
102
RTVSPost2010PropOp45
 70
     1
102
RTVSPost2010Prop46
 90
       50
102
RTVSPost2010PropOp46
 70
     1
102
RTVSPost2010Prop47
 90
       50
102
RTVSPost2010PropOp47
 70
     1
102
RTVSPost2010Prop48
 90
       50
102
RTVSPost2010PropOp48
 70
     1
102
RTVSPost2010Prop49
280
     0
102
RTVSPost2010PropOp49
 70
     1
102
RTVSPost2010Prop50
 90
       50
102
RTVSPost2010PropOp50
 70
     1
102
RTVSPost2010Prop51ColorIndex
 90
      256
102
RTVSPost2010Prop51ColorRGB
 90
-16777216
102
RTVSPost2010PropOp51
 70
     0
102
RTVSPost2010Prop52
140
1.0
102
RTVSPost2010PropOp52
 70
     0
102
RTVSPost2010Prop53
 90
        2
102
RTVSPost2010PropOp53
 70
     1
102
RTVSPost2010Prop54
  1
strokes_ogs.tif
102
RTVSPost2010PropOp54
 70
     1
102
RTVSPost2010Prop55
280
     0
102
RTVSPost2010PropOp55
 70
     1
102
RTVSPost2010Prop56
140
1.0
102
RTVSPost2010PropOp56
 70
     1
102
RTVSPost2010Prop57
140
1.0
102
RTVSPost2010PropOp57
 70
     1
102
RTVSPropertyOp0
 70
     1
102
RTVSPropertyOp1
 70
     1
102
RTVSPropertyOp2
 70
     1
102
RTVSPropertyOp3
 70
     1
102
RTVSPropertyOp4
 70
     1
102
RTVSPropertyOp5
 70
     1
102
RTVSPropertyOp6
 70
     1
102
RTVSPropertyOp7
 70
     1
102
RTVSPropertyOp8
 70
     1
102
RTVSPropertyOp9
 70
     1
102
RTVSPropertyOp10
 70
     1
102
RTVSPropertyOp11
 70
     1
102
RTVSPropertyOp12
 70
     1
102
RTVSPropertyOp13
 70
     1
102
RTVSPropertyOp14
 70
     1
102
RTVSPropertyOp15
 70
     1
102
RTVSPropertyOp16
 70
     1
102
RTVSPropertyOp17
 70
     1
102
RTVSPropertyOp18
 70
     1
102
RTVSPropertyOp19
 70
     1
102
RTVSPropertyOp20
 70
     1
102
RTVSPropertyOp21
 70
     1
102
RTVSPropertyOp22
 70
     1
102
RTVSPropertyOp23
 70
     1
102
RTVSPropertyOp24
 70
     1
102
RTVSPropertyOp25
 70
     1
102
RTVSPropertyOp26
 70
     1
102
RTVSPropertyOp27
 70
     1
102
RTVSPropertyOp28
 70
     1
102
RTVSPropertyOp29
 70
     1
102
RTVSPropertyOp30
 70
     1
102
RTVSPropertyOp31
 70
     1
102
RTVSPropertyOp32
 70
     1
102
RTVSPropertyOp33
 70
     1
102
RTVSPropertyOp34
 70
     1
102
RTVSPropertyOp35
 70
     1
102
RTVSPropertyOp36
 70
     1
102
RTVSPropertyOp37
 70
     1
102
RTVSPropertyOp38
 70
     1
102
RTVSPropertyOp39
 70
     1
102
RTVSPropertyOp40
 70
     1
102
RTVSPropertyOp41
 70
     1
102
RTVSPropertyOp42
 70
     1
102
RTVSPropertyOp43
 70
     1
102
RTVSPropertyOp44
 70
     1
102
RTVSPropertyOp45
 70
     1
102
RTVSPropertyOp46
 70
     1
102
RTVSPropertyOp47
 70
     1
102
RTVSPropertyOp48
 70
     1
102
RTVSPropertyOp49
 70
     1
102
RTVSPropertyOp50
 70
     1
102
RTVSPropertyOp51
 70
     0
102
RTVSPropertyOp52
 70
     0
102
RTVSPropertyOp53
 70
     1
102
RTVSPropertyOp54
 70
     1
102
RTVSPropertyOp55
 70
     1
102
RTVSPropertyOp56
 70
     1
102
RTVSPropertyOp57
 70
     1
102
RTVSPropertyOp58
 70
     1
102
RTVSPropertyOp59
 70
     1
102
RTVSPropertyOp60
 70
     1
102
RTVSPropertyOp61
 70
     1
102
RTVSPropertyOp62
 70
     1
  0
XRECORD
  5
9AAB
102
{ACAD_REACTORS
330
9AAA
102
}
330
9AAA
100
AcDbXrecord
280
     1
102
RTVSPost2010Prop28
280
     0
102
RTVSPost2010PropOp28
 70
     1
102
RTVSPost2010Prop29
280
     1
102
RTVSPost2010PropOp29
 70
     1
102
RTVSPost2010Prop30
280
     1
102
RTVSPost2010PropOp30
 70
     1
102
RTVSPost2010Prop31
280
     0
102
RTVSPost2010PropOp31
 70
     1
102
RTVSPost2010Prop32
280
     0
102
RTVSPost2010PropOp32
 70
     1
102
RTVSPost2010Prop33
280
     0
102
RTVSPost2010PropOp33
 70
     1
102
RTVSPost2010Prop34
280
     0
102
RTVSPost2010PropOp34
 70
     1
102
RTVSPost2010Prop35
280
     0
102
RTVSPost2010PropOp35
 70
     1
102
RTVSPost2010Prop36
280
     0
102
RTVSPost2010PropOp36
 70
     1
102
RTVSPost2010Prop37
 90
       50
102
RTVSPost2010PropOp37
 70
     1
102
RTVSPost2010Prop38
140
0.0
102
RTVSPost2010PropOp38
 70
     1
102
RTVSPost2010Prop39
140
1.0
102
RTVSPost2010PropOp39
 70
     1
102
RTVSPost2010Prop40
 90
        0
102
RTVSPost2010PropOp40
 70
     1
102
RTVSPost2010Prop41ColorIndex
 90
       18
102
RTVSPost2010Prop41ColorRGB
 90
        0
102
RTVSPost2010PropOp41
 70
     1
102
RTVSPost2010Prop42
 90
       50
102
RTVSPost2010PropOp42
 70
     1
102
RTVSPost2010Prop43
 90
        3
102
RTVSPost2010PropOp43
 70
     1
102
RTVSPost2010Prop44ColorIndex
 90
        5
102
RTVSPost2010Prop44ColorRGB
 90
      255
102
RTVSPost2010PropOp44
 70
     1
102
RTVSPost2010Prop45
280
     0
102
RTVSPost2010PropOp45
 70
     1
102
RTVSPost2010Prop46
 90
       50
102
RTVSPost2010PropOp46
 70
     1
102
RTVSPost2010Prop47
 90
       50
102
RTVSPost2010PropOp47
 70
     1
102
RTVSPost2010Prop48
 90
       50
102
RTVSPost2010PropOp48
 70
     1
102
RTVSPost2010Prop49
280
     0
102
RTVSPost2010PropOp49
 70
     1
102
RTVSPost2010Prop50
 90
       50
102
RTVSPost2010PropOp50
 70
     1
102
RTVSPost2010Prop51ColorIndex
 90
      256
102
RTVSPost2010Prop51ColorRGB
 90
-16777216
102
RTVSPost2010PropOp51
 70
     0
102
RTVSPost2010Prop52
140
1.0
102
RTVSPost2010PropOp52
 70
     0
102
RTVSPost2010Prop53
 90
        2
102
RTVSPost2010PropOp53
 70
     1
102
RTVSPost2010Prop54
  1
strokes_ogs.tif
102
RTVSPost2010PropOp54
 70
     1
102
RTVSPost2010Prop55
280
     0
102
RTVSPost2010PropOp55
 70
     1
102
RTVSPost2010Prop56
140
1.0
102
RTVSPost2010PropOp56
 70
     1
102
RTVSPost2010Prop57
140
1.0
102
RTVSPost2010PropOp57
 70
     1
102
RTVSPropertyOp0
 70
     1
102
RTVSPropertyOp1
 70
     1
102
RTVSPropertyOp2
 70
     1
102
RTVSPropertyOp3
 70
     1
102
RTVSPropertyOp4
 70
     1
102
RTVSPropertyOp5
 70
     1
102
RTVSPropertyOp6
 70
     1
102
RTVSPropertyOp7
 70
     1
102
RTVSPropertyOp8
 70
     1
102
RTVSPropertyOp9
 70
     1
102
RTVSPropertyOp10
 70
     1
102
RTVSPropertyOp11
 70
     1
102
RTVSPropertyOp12
 70
     1
102
RTVSPropertyOp13
 70
     1
102
RTVSPropertyOp14
 70
     1
102
RTVSPropertyOp15
 70
     1
102
RTVSPropertyOp16
 70
     1
102
RTVSPropertyOp17
 70
     1
102
RTVSPropertyOp18
 70
     1
102
RTVSPropertyOp19
 70
     1
102
RTVSPropertyOp20
 70
     1
102
RTVSPropertyOp21
 70
     1
102
RTVSPropertyOp22
 70
     1
102
RTVSPropertyOp23
 70
     1
102
RTVSPropertyOp24
 70
     1
102
RTVSPropertyOp25
 70
     1
102
RTVSPropertyOp26
 70
     1
102
RTVSPropertyOp27
 70
     1
102
RTVSPropertyOp28
 70
     1
102
RTVSPropertyOp29
 70
     1
102
RTVSPropertyOp30
 70
     1
102
RTVSPropertyOp31
 70
     1
102
RTVSPropertyOp32
 70
     1
102
RTVSPropertyOp33
 70
     1
102
RTVSPropertyOp34
 70
     1
102
RTVSPropertyOp35
 70
     1
102
RTVSPropertyOp36
 70
     1
102
RTVSPropertyOp37
 70
     1
102
RTVSPropertyOp38
 70
     1
102
RTVSPropertyOp39
 70
     1
102
RTVSPropertyOp40
 70
     1
102
RTVSPropertyOp41
 70
     1
102
RTVSPropertyOp42
 70
     1
102
RTVSPropertyOp43
 70
     1
102
RTVSPropertyOp44
 70
     1
102
RTVSPropertyOp45
 70
     1
102
RTVSPropertyOp46
 70
     1
102
RTVSPropertyOp47
 70
     1
102
RTVSPropertyOp48
 70
     1
102
RTVSPropertyOp49
 70
     1
102
RTVSPropertyOp50
 70
     1
102
RTVSPropertyOp51
 70
     0
102
RTVSPropertyOp52
 70
     0
102
RTVSPropertyOp53
 70
     1
102
RTVSPropertyOp54
 70
     1
102
RTVSPropertyOp55
 70
     1
102
RTVSPropertyOp56
 70
     1
102
RTVSPropertyOp57
 70
     1
102
RTVSPropertyOp58
 70
     1
102
RTVSPropertyOp59
 70
     1
102
RTVSPropertyOp60
 70
     1
102
RTVSPropertyOp61
 70
     1
102
RTVSPropertyOp62
 70
     1
  0
XRECORD
  5
9AAD
102
{ACAD_REACTORS
330
9AAC
102
}
330
9AAC
100
AcDbXrecord
280
     1
102
RTVSPost2010Prop28
280
     0
102
RTVSPost2010PropOp28
 70
     1
102
RTVSPost2010Prop29
280
     1
102
RTVSPost2010PropOp29
 70
     1
102
RTVSPost2010Prop30
280
     1
102
RTVSPost2010PropOp30
 70
     1
102
RTVSPost2010Prop31
280
     0
102
RTVSPost2010PropOp31
 70
     1
102
RTVSPost2010Prop32
280
     0
102
RTVSPost2010PropOp32
 70
     1
102
RTVSPost2010Prop33
280
     0
102
RTVSPost2010PropOp33
 70
     1
102
RTVSPost2010Prop34
280
     0
102
RTVSPost2010PropOp34
 70
     1
102
RTVSPost2010Prop35
280
     0
102
RTVSPost2010PropOp35
 70
     1
102
RTVSPost2010Prop36
280
     0
102
RTVSPost2010PropOp36
 70
     1
102
RTVSPost2010Prop37
 90
       50
102
RTVSPost2010PropOp37
 70
     1
102
RTVSPost2010Prop38
140
0.0
102
RTVSPost2010PropOp38
 70
     1
102
RTVSPost2010Prop39
140
1.0
102
RTVSPost2010PropOp39
 70
     1
102
RTVSPost2010Prop40
 90
        0
102
RTVSPost2010PropOp40
 70
     1
102
RTVSPost2010Prop41ColorIndex
 90
       18
102
RTVSPost2010Prop41ColorRGB
 90
        0
102
RTVSPost2010PropOp41
 70
     1
102
RTVSPost2010Prop42
 90
       50
102
RTVSPost2010PropOp42
 70
     1
102
RTVSPost2010Prop43
 90
        3
102
RTVSPost2010PropOp43
 70
     1
102
RTVSPost2010Prop44ColorIndex
 90
        5
102
RTVSPost2010Prop44ColorRGB
 90
      255
102
RTVSPost2010PropOp44
 70
     1
102
RTVSPost2010Prop45
280
     0
102
RTVSPost2010PropOp45
 70
     1
102
RTVSPost2010Prop46
 90
       50
102
RTVSPost2010PropOp46
 70
     1
102
RTVSPost2010Prop47
 90
       50
102
RTVSPost2010PropOp47
 70
     1
102
RTVSPost2010Prop48
 90
       50
102
RTVSPost2010PropOp48
 70
     1
102
RTVSPost2010Prop49
280
     0
102
RTVSPost2010PropOp49
 70
     1
102
RTVSPost2010Prop50
 90
       50
102
RTVSPost2010PropOp50
 70
     1
102
RTVSPost2010Prop51ColorIndex
 90
      256
102
RTVSPost2010Prop51ColorRGB
 90
-16777216
102
RTVSPost2010PropOp51
 70
     0
102
RTVSPost2010Prop52
140
1.0
102
RTVSPost2010PropOp52
 70
     0
102
RTVSPost2010Prop53
 90
        2
102
RTVSPost2010PropOp53
 70
     1
102
RTVSPost2010Prop54
  1
strokes_ogs.tif
102
RTVSPost2010PropOp54
 70
     1
102
RTVSPost2010Prop55
280
     0
102
RTVSPost2010PropOp55
 70
     1
102
RTVSPost2010Prop56
140
1.0
102
RTVSPost2010PropOp56
 70
     1
102
RTVSPost2010Prop57
140
1.0
102
RTVSPost2010PropOp57
 70
     1
102
RTVSPropertyOp0
 70
     1
102
RTVSPropertyOp1
 70
     1
102
RTVSPropertyOp2
 70
     1
102
RTVSPropertyOp3
 70
     1
102
RTVSPropertyOp4
 70
     1
102
RTVSPropertyOp5
 70
     1
102
RTVSPropertyOp6
 70
     1
102
RTVSPropertyOp7
 70
     1
102
RTVSPropertyOp8
 70
     1
102
RTVSPropertyOp9
 70
     1
102
RTVSPropertyOp10
 70
     1
102
RTVSPropertyOp11
 70
     1
102
RTVSPropertyOp12
 70
     1
102
RTVSPropertyOp13
 70
     1
102
RTVSPropertyOp14
 70
     1
102
RTVSPropertyOp15
 70
     1
102
RTVSPropertyOp16
 70
     1
102
RTVSPropertyOp17
 70
     1
102
RTVSPropertyOp18
 70
     1
102
RTVSPropertyOp19
 70
     1
102
RTVSPropertyOp20
 70
     1
102
RTVSPropertyOp21
 70
     1
102
RTVSPropertyOp22
 70
     1
102
RTVSPropertyOp23
 70
     1
102
RTVSPropertyOp24
 70
     1
102
RTVSPropertyOp25
 70
     1
102
RTVSPropertyOp26
 70
     1
102
RTVSPropertyOp27
 70
     1
102
RTVSPropertyOp28
 70
     1
102
RTVSPropertyOp29
 70
     1
102
RTVSPropertyOp30
 70
     1
102
RTVSPropertyOp31
 70
     1
102
RTVSPropertyOp32
 70
     1
102
RTVSPropertyOp33
 70
     1
102
RTVSPropertyOp34
 70
     1
102
RTVSPropertyOp35
 70
     1
102
RTVSPropertyOp36
 70
     1
102
RTVSPropertyOp37
 70
     1
102
RTVSPropertyOp38
 70
     1
102
RTVSPropertyOp39
 70
     1
102
RTVSPropertyOp40
 70
     1
102
RTVSPropertyOp41
 70
     1
102
RTVSPropertyOp42
 70
     1
102
RTVSPropertyOp43
 70
     1
102
RTVSPropertyOp44
 70
     1
102
RTVSPropertyOp45
 70
     1
102
RTVSPropertyOp46
 70
     1
102
RTVSPropertyOp47
 70
     1
102
RTVSPropertyOp48
 70
     1
102
RTVSPropertyOp49
 70
     1
102
RTVSPropertyOp50
 70
     1
102
RTVSPropertyOp51
 70
     0
102
RTVSPropertyOp52
 70
     0
102
RTVSPropertyOp53
 70
     1
102
RTVSPropertyOp54
 70
     1
102
RTVSPropertyOp55
 70
     1
102
RTVSPropertyOp56
 70
     1
102
RTVSPropertyOp57
 70
     1
102
RTVSPropertyOp58
 70
     1
102
RTVSPropertyOp59
 70
     1
102
RTVSPropertyOp60
 70
     1
102
RTVSPropertyOp61
 70
     1
102
RTVSPropertyOp62
 70
     1
  0
XRECORD
  5
9AB5
102
{ACAD_REACTORS
330
9AB4
102
}
330
9AB4
100
AcDbXrecord
280
     1
102
RTVSPost2010Prop28
280
     0
102
RTVSPost2010PropOp28
 70
     1
102
RTVSPost2010Prop29
280
     1
102
RTVSPost2010PropOp29
 70
     1
102
RTVSPost2010Prop30
280
     1
102
RTVSPost2010PropOp30
 70
     1
102
RTVSPost2010Prop31
280
     0
102
RTVSPost2010PropOp31
 70
     1
102
RTVSPost2010Prop32
280
     0
102
RTVSPost2010PropOp32
 70
     1
102
RTVSPost2010Prop33
280
     0
102
RTVSPost2010PropOp33
 70
     1
102
RTVSPost2010Prop34
280
     0
102
RTVSPost2010PropOp34
 70
     1
102
RTVSPost2010Prop35
280
     0
102
RTVSPost2010PropOp35
 70
     1
102
RTVSPost2010Prop36
280
     0
102
RTVSPost2010PropOp36
 70
     1
102
RTVSPost2010Prop37
 90
       50
102
RTVSPost2010PropOp37
 70
     1
102
RTVSPost2010Prop38
140
0.0
102
RTVSPost2010PropOp38
 70
     1
102
RTVSPost2010Prop39
140
1.0
102
RTVSPost2010PropOp39
 70
     1
102
RTVSPost2010Prop40
 90
        0
102
RTVSPost2010PropOp40
 70
     1
102
RTVSPost2010Prop41ColorIndex
 90
       18
102
RTVSPost2010Prop41ColorRGB
 90
        0
102
RTVSPost2010PropOp41
 70
     1
102
RTVSPost2010Prop42
 90
       50
102
RTVSPost2010PropOp42
 70
     1
102
RTVSPost2010Prop43
 90
        3
102
RTVSPost2010PropOp43
 70
     1
102
RTVSPost2010Prop44ColorIndex
 90
        5
102
RTVSPost2010Prop44ColorRGB
 90
      255
102
RTVSPost2010PropOp44
 70
     1
102
RTVSPost2010Prop45
280
     0
102
RTVSPost2010PropOp45
 70
     1
102
RTVSPost2010Prop46
 90
       50
102
RTVSPost2010PropOp46
 70
     1
102
RTVSPost2010Prop47
 90
       50
102
RTVSPost2010PropOp47
 70
     1
102
RTVSPost2010Prop48
 90
       50
102
RTVSPost2010PropOp48
 70
     1
102
RTVSPost2010Prop49
280
     0
102
RTVSPost2010PropOp49
 70
     1
102
RTVSPost2010Prop50
 90
       50
102
RTVSPost2010PropOp50
 70
     1
102
RTVSPost2010Prop51ColorIndex
 90
      256
102
RTVSPost2010Prop51ColorRGB
 90
-16777216
102
RTVSPost2010PropOp51
 70
     0
102
RTVSPost2010Prop52
140
1.0
102
RTVSPost2010PropOp52
 70
     0
102
RTVSPost2010Prop53
 90
        2
102
RTVSPost2010PropOp53
 70
     1
102
RTVSPost2010Prop54
  1
strokes_ogs.tif
102
RTVSPost2010PropOp54
 70
     1
102
RTVSPost2010Prop55
280
     0
102
RTVSPost2010PropOp55
 70
     1
102
RTVSPost2010Prop56
140
1.0
102
RTVSPost2010PropOp56
 70
     1
102
RTVSPost2010Prop57
140
1.0
102
RTVSPost2010PropOp57
 70
     1
102
RTVSPropertyOp0
 70
     1
102
RTVSPropertyOp1
 70
     1
102
RTVSPropertyOp2
 70
     1
102
RTVSPropertyOp3
 70
     1
102
RTVSPropertyOp4
 70
     1
102
RTVSPropertyOp5
 70
     1
102
RTVSPropertyOp6
 70
     1
102
RTVSPropertyOp7
 70
     1
102
RTVSPropertyOp8
 70
     1
102
RTVSPropertyOp9
 70
     1
102
RTVSPropertyOp10
 70
     1
102
RTVSPropertyOp11
 70
     1
102
RTVSPropertyOp12
 70
     1
102
RTVSPropertyOp13
 70
     1
102
RTVSPropertyOp14
 70
     1
102
RTVSPropertyOp15
 70
     1
102
RTVSPropertyOp16
 70
     1
102
RTVSPropertyOp17
 70
     1
102
RTVSPropertyOp18
 70
     1
102
RTVSPropertyOp19
 70
     1
102
RTVSPropertyOp20
 70
     1
102
RTVSPropertyOp21
 70
     1
102
RTVSPropertyOp22
 70
     1
102
RTVSPropertyOp23
 70
     1
102
RTVSPropertyOp24
 70
     1
102
RTVSPropertyOp25
 70
     1
102
RTVSPropertyOp26
 70
     1
102
RTVSPropertyOp27
 70
     1
102
RTVSPropertyOp28
 70
     1
102
RTVSPropertyOp29
 70
     1
102
RTVSPropertyOp30
 70
     1
102
RTVSPropertyOp31
 70
     1
102
RTVSPropertyOp32
 70
     1
102
RTVSPropertyOp33
 70
     1
102
RTVSPropertyOp34
 70
     1
102
RTVSPropertyOp35
 70
     1
102
RTVSPropertyOp36
 70
     1
102
RTVSPropertyOp37
 70
     1
102
RTVSPropertyOp38
 70
     1
102
RTVSPropertyOp39
 70
     1
102
RTVSPropertyOp40
 70
     1
102
RTVSPropertyOp41
 70
     1
102
RTVSPropertyOp42
 70
     1
102
RTVSPropertyOp43
 70
     1
102
RTVSPropertyOp44
 70
     1
102
RTVSPropertyOp45
 70
     1
102
RTVSPropertyOp46
 70
     1
102
RTVSPropertyOp47
 70
     1
102
RTVSPropertyOp48
 70
     1
102
RTVSPropertyOp49
 70
     1
102
RTVSPropertyOp50
 70
     1
102
RTVSPropertyOp51
 70
     0
102
RTVSPropertyOp52
 70
     0
102
RTVSPropertyOp53
 70
     1
102
RTVSPropertyOp54
 70
     1
102
RTVSPropertyOp55
 70
     1
102
RTVSPropertyOp56
 70
     1
102
RTVSPropertyOp57
 70
     1
102
RTVSPropertyOp58
 70
     1
102
RTVSPropertyOp59
 70
     1
102
RTVSPropertyOp60
 70
     1
102
RTVSPropertyOp61
 70
     1
102
RTVSPropertyOp62
 70
     1
  0
XRECORD
  5
9AD1
102
{ACAD_REACTORS
330
9AD0
102
}
330
9AD0
100
AcDbXrecord
280
     1
102
RTVSPost2010Prop28
280
     0
102
RTVSPost2010PropOp28
 70
     1
102
RTVSPost2010Prop29
280
     1
102
RTVSPost2010PropOp29
 70
     1
102
RTVSPost2010Prop30
280
     1
102
RTVSPost2010PropOp30
 70
     1
102
RTVSPost2010Prop31
280
     0
102
RTVSPost2010PropOp31
 70
     1
102
RTVSPost2010Prop32
280
     0
102
RTVSPost2010PropOp32
 70
     1
102
RTVSPost2010Prop33
280
     0
102
RTVSPost2010PropOp33
 70
     1
102
RTVSPost2010Prop34
280
     0
102
RTVSPost2010PropOp34
 70
     1
102
RTVSPost2010Prop35
280
     0
102
RTVSPost2010PropOp35
 70
     1
102
RTVSPost2010Prop36
280
     0
102
RTVSPost2010PropOp36
 70
     1
102
RTVSPost2010Prop37
 90
       50
102
RTVSPost2010PropOp37
 70
     0
102
RTVSPost2010Prop38
140
0.0
102
RTVSPost2010PropOp38
 70
     0
102
RTVSPost2010Prop39
140
1.0
102
RTVSPost2010PropOp39
 70
     0
102
RTVSPost2010Prop40
 90
        0
102
RTVSPost2010PropOp40
 70
     0
102
RTVSPost2010Prop41ColorIndex
 90
       18
102
RTVSPost2010Prop41ColorRGB
 90
        0
102
RTVSPost2010PropOp41
 70
     0
102
RTVSPost2010Prop42
 90
       50
102
RTVSPost2010PropOp42
 70
     0
102
RTVSPost2010Prop43
 90
        3
102
RTVSPost2010PropOp43
 70
     0
102
RTVSPost2010Prop44ColorIndex
 90
        5
102
RTVSPost2010Prop44ColorRGB
 90
      255
102
RTVSPost2010PropOp44
 70
     0
102
RTVSPost2010Prop45
280
     0
102
RTVSPost2010PropOp45
 70
     1
102
RTVSPost2010Prop46
 90
       50
102
RTVSPost2010PropOp46
 70
     0
102
RTVSPost2010Prop47
 90
       50
102
RTVSPost2010PropOp47
 70
     0
102
RTVSPost2010Prop48
 90
       50
102
RTVSPost2010PropOp48
 70
     0
102
RTVSPost2010Prop49
280
     0
102
RTVSPost2010PropOp49
 70
     1
102
RTVSPost2010Prop50
 90
       50
102
RTVSPost2010PropOp50
 70
     0
102
RTVSPost2010Prop51ColorIndex
 90
      256
102
RTVSPost2010Prop51ColorRGB
 90
-16777216
102
RTVSPost2010PropOp51
 70
     0
102
RTVSPost2010Prop52
140
1.0
102
RTVSPost2010PropOp52
 70
     0
102
RTVSPost2010Prop53
 90
        2
102
RTVSPost2010PropOp53
 70
     0
102
RTVSPost2010Prop54
  1
strokes_ogs.tif
102
RTVSPost2010PropOp54
 70
     0
102
RTVSPost2010Prop55
280
     0
102
RTVSPost2010PropOp55
 70
     1
102
RTVSPost2010Prop56
140
1.0
102
RTVSPost2010PropOp56
 70
     0
102
RTVSPost2010Prop57
140
1.0
102
RTVSPost2010PropOp57
 70
     0
102
RTVSPropertyOp0
 70
     0
102
RTVSPropertyOp1
 70
     0
102
RTVSPropertyOp2
 70
     0
102
RTVSPropertyOp3
 70
     0
102
RTVSPropertyOp4
 70
     0
102
RTVSPropertyOp5
 70
     0
102
RTVSPropertyOp6
 70
     0
102
RTVSPropertyOp7
 70
     0
102
RTVSPropertyOp8
 70
     0
102
RTVSPropertyOp9
 70
     0
102
RTVSPropertyOp10
 70
     0
102
RTVSPropertyOp11
 70
     0
102
RTVSPropertyOp12
 70
     0
102
RTVSPropertyOp13
 70
     0
102
RTVSPropertyOp14
 70
     2
102
RTVSPropertyOp15
 70
     0
102
RTVSPropertyOp16
 70
     0
102
RTVSPropertyOp17
 70
     0
102
RTVSPropertyOp18
 70
     0
102
RTVSPropertyOp19
 70
     0
102
RTVSPropertyOp20
 70
     0
102
RTVSPropertyOp21
 70
     0
102
RTVSPropertyOp22
 70
     0
102
RTVSPropertyOp23
 70
     0
102
RTVSPropertyOp24
 70
     0
102
RTVSPropertyOp25
 70
     0
102
RTVSPropertyOp26
 70
     0
102
RTVSPropertyOp27
 70
     0
102
RTVSPropertyOp28
 70
     1
102
RTVSPropertyOp29
 70
     1
102
RTVSPropertyOp30
 70
     1
102
RTVSPropertyOp31
 70
     1
102
RTVSPropertyOp32
 70
     1
102
RTVSPropertyOp33
 70
     1
102
RTVSPropertyOp34
 70
     1
102
RTVSPropertyOp35
 70
     1
102
RTVSPropertyOp36
 70
     1
102
RTVSPropertyOp37
 70
     0
102
RTVSPropertyOp38
 70
     0
102
RTVSPropertyOp39
 70
     0
102
RTVSPropertyOp40
 70
     0
102
RTVSPropertyOp41
 70
     0
102
RTVSPropertyOp42
 70
     0
102
RTVSPropertyOp43
 70
     0
102
RTVSPropertyOp44
 70
     0
102
RTVSPropertyOp45
 70
     1
102
RTVSPropertyOp46
 70
     0
102
RTVSPropertyOp47
 70
     0
102
RTVSPropertyOp48
 70
     0
102
RTVSPropertyOp49
 70
     1
102
RTVSPropertyOp50
 70
     0
102
RTVSPropertyOp51
 70
     0
102
RTVSPropertyOp52
 70
     0
102
RTVSPropertyOp53
 70
     0
102
RTVSPropertyOp54
 70
     0
102
RTVSPropertyOp55
 70
     1
102
RTVSPropertyOp56
 70
     0
102
RTVSPropertyOp57
 70
     0
102
RTVSPropertyOp58
 70
     0
102
RTVSPropertyOp59
 70
     0
102
RTVSPropertyOp60
 70
     0
102
RTVSPropertyOp61
 70
     0
102
RTVSPropertyOp62
 70
     0
  0
XRECORD
  5
9AC1
102
{ACAD_REACTORS
330
9AC0
102
}
330
9AC0
100
AcDbXrecord
280
     1
102
RTVSPost2010Prop28
280
     0
102
RTVSPost2010PropOp28
 70
     1
102
RTVSPost2010Prop29
280
     1
102
RTVSPost2010PropOp29
 70
     1
102
RTVSPost2010Prop30
280
     1
102
RTVSPost2010PropOp30
 70
     1
102
RTVSPost2010Prop31
280
     0
102
RTVSPost2010PropOp31
 70
     1
102
RTVSPost2010Prop32
280
     0
102
RTVSPost2010PropOp32
 70
     1
102
RTVSPost2010Prop33
280
     0
102
RTVSPost2010PropOp33
 70
     1
102
RTVSPost2010Prop34
280
     0
102
RTVSPost2010PropOp34
 70
     1
102
RTVSPost2010Prop35
280
     0
102
RTVSPost2010PropOp35
 70
     1
102
RTVSPost2010Prop36
280
     0
102
RTVSPost2010PropOp36
 70
     1
102
RTVSPost2010Prop37
 90
       50
102
RTVSPost2010PropOp37
 70
     1
102
RTVSPost2010Prop38
140
0.0
102
RTVSPost2010PropOp38
 70
     1
102
RTVSPost2010Prop39
140
1.0
102
RTVSPost2010PropOp39
 70
     1
102
RTVSPost2010Prop40
 90
        0
102
RTVSPost2010PropOp40
 70
     1
102
RTVSPost2010Prop41ColorIndex
 90
       18
102
RTVSPost2010Prop41ColorRGB
 90
        0
102
RTVSPost2010PropOp41
 70
     1
102
RTVSPost2010Prop42
 90
       50
102
RTVSPost2010PropOp42
 70
     1
102
RTVSPost2010Prop43
 90
        3
102
RTVSPost2010PropOp43
 70
     1
102
RTVSPost2010Prop44ColorIndex
 90
        5
102
RTVSPost2010Prop44ColorRGB
 90
      255
102
RTVSPost2010PropOp44
 70
     1
102
RTVSPost2010Prop45
280
     0
102
RTVSPost2010PropOp45
 70
     1
102
RTVSPost2010Prop46
 90
       50
102
RTVSPost2010PropOp46
 70
     1
102
RTVSPost2010Prop47
 90
       50
102
RTVSPost2010PropOp47
 70
     1
102
RTVSPost2010Prop48
 90
       50
102
RTVSPost2010PropOp48
 70
     1
102
RTVSPost2010Prop49
280
     0
102
RTVSPost2010PropOp49
 70
     1
102
RTVSPost2010Prop50
 90
       50
102
RTVSPost2010PropOp50
 70
     1
102
RTVSPost2010Prop51ColorIndex
 90
      256
102
RTVSPost2010Prop51ColorRGB
 90
-16777216
102
RTVSPost2010PropOp51
 70
     0
102
RTVSPost2010Prop52
140
1.0
102
RTVSPost2010PropOp52
 70
     0
102
RTVSPost2010Prop53
 90
        2
102
RTVSPost2010PropOp53
 70
     1
102
RTVSPost2010Prop54
  1
strokes_ogs.tif
102
RTVSPost2010PropOp54
 70
     1
102
RTVSPost2010Prop55
280
     0
102
RTVSPost2010PropOp55
 70
     1
102
RTVSPost2010Prop56
140
1.0
102
RTVSPost2010PropOp56
 70
     1
102
RTVSPost2010Prop57
140
1.0
102
RTVSPost2010PropOp57
 70
     1
102
RTVSPropertyOp0
 70
     1
102
RTVSPropertyOp1
 70
     1
102
RTVSPropertyOp2
 70
     1
102
RTVSPropertyOp3
 70
     1
102
RTVSPropertyOp4
 70
     1
102
RTVSPropertyOp5
 70
     1
102
RTVSPropertyOp6
 70
     1
102
RTVSPropertyOp7
 70
     1
102
RTVSPropertyOp8
 70
     1
102
RTVSPropertyOp9
 70
     1
102
RTVSPropertyOp10
 70
     1
102
RTVSPropertyOp11
 70
     1
102
RTVSPropertyOp12
 70
     1
102
RTVSPropertyOp13
 70
     1
102
RTVSPropertyOp14
 70
     1
102
RTVSPropertyOp15
 70
     1
102
RTVSPropertyOp16
 70
     1
102
RTVSPropertyOp17
 70
     1
102
RTVSPropertyOp18
 70
     1
102
RTVSPropertyOp19
 70
     1
102
RTVSPropertyOp20
 70
     1
102
RTVSPropertyOp21
 70
     1
102
RTVSPropertyOp22
 70
     1
102
RTVSPropertyOp23
 70
     1
102
RTVSPropertyOp24
 70
     1
102
RTVSPropertyOp25
 70
     1
102
RTVSPropertyOp26
 70
     1
102
RTVSPropertyOp27
 70
     1
102
RTVSPropertyOp28
 70
     1
102
RTVSPropertyOp29
 70
     1
102
RTVSPropertyOp30
 70
     1
102
RTVSPropertyOp31
 70
     1
102
RTVSPropertyOp32
 70
     1
102
RTVSPropertyOp33
 70
     1
102
RTVSPropertyOp34
 70
     1
102
RTVSPropertyOp35
 70
     1
102
RTVSPropertyOp36
 70
     1
102
RTVSPropertyOp37
 70
     1
102
RTVSPropertyOp38
 70
     1
102
RTVSPropertyOp39
 70
     1
102
RTVSPropertyOp40
 70
     1
102
RTVSPropertyOp41
 70
     1
102
RTVSPropertyOp42
 70
     1
102
RTVSPropertyOp43
 70
     1
102
RTVSPropertyOp44
 70
     1
102
RTVSPropertyOp45
 70
     1
102
RTVSPropertyOp46
 70
     1
102
RTVSPropertyOp47
 70
     1
102
RTVSPropertyOp48
 70
     1
102
RTVSPropertyOp49
 70
     1
102
RTVSPropertyOp50
 70
     1
102
RTVSPropertyOp51
 70
     0
102
RTVSPropertyOp52
 70
     0
102
RTVSPropertyOp53
 70
     1
102
RTVSPropertyOp54
 70
     1
102
RTVSPropertyOp55
 70
     1
102
RTVSPropertyOp56
 70
     1
102
RTVSPropertyOp57
 70
     1
102
RTVSPropertyOp58
 70
     1
102
RTVSPropertyOp59
 70
     1
102
RTVSPropertyOp60
 70
     1
102
RTVSPropertyOp61
 70
     1
102
RTVSPropertyOp62
 70
     1
  0
XRECORD
  5
9AD3
102
{ACAD_REACTORS
330
9AD2
102
}
330
9AD2
100
AcDbXrecord
280
     1
102
RTVSPost2010Prop28
280
     0
102
RTVSPost2010PropOp28
 70
     1
102
RTVSPost2010Prop29
280
     1
102
RTVSPost2010PropOp29
 70
     1
102
RTVSPost2010Prop30
280
     1
102
RTVSPost2010PropOp30
 70
     1
102
RTVSPost2010Prop31
280
     0
102
RTVSPost2010PropOp31
 70
     1
102
RTVSPost2010Prop32
280
     0
102
RTVSPost2010PropOp32
 70
     1
102
RTVSPost2010Prop33
280
     0
102
RTVSPost2010PropOp33
 70
     1
102
RTVSPost2010Prop34
280
     0
102
RTVSPost2010PropOp34
 70
     1
102
RTVSPost2010Prop35
280
     0
102
RTVSPost2010PropOp35
 70
     1
102
RTVSPost2010Prop36
280
     0
102
RTVSPost2010PropOp36
 70
     1
102
RTVSPost2010Prop37
 90
       50
102
RTVSPost2010PropOp37
 70
     0
102
RTVSPost2010Prop38
140
0.0
102
RTVSPost2010PropOp38
 70
     0
102
RTVSPost2010Prop39
140
1.0
102
RTVSPost2010PropOp39
 70
     0
102
RTVSPost2010Prop40
 90
        0
102
RTVSPost2010PropOp40
 70
     0
102
RTVSPost2010Prop41ColorIndex
 90
       18
102
RTVSPost2010Prop41ColorRGB
 90
        0
102
RTVSPost2010PropOp41
 70
     0
102
RTVSPost2010Prop42
 90
       50
102
RTVSPost2010PropOp42
 70
     0
102
RTVSPost2010Prop43
 90
        3
102
RTVSPost2010PropOp43
 70
     0
102
RTVSPost2010Prop44ColorIndex
 90
        5
102
RTVSPost2010Prop44ColorRGB
 90
      255
102
RTVSPost2010PropOp44
 70
     0
102
RTVSPost2010Prop45
280
     0
102
RTVSPost2010PropOp45
 70
     1
102
RTVSPost2010Prop46
 90
       50
102
RTVSPost2010PropOp46
 70
     0
102
RTVSPost2010Prop47
 90
       50
102
RTVSPost2010PropOp47
 70
     0
102
RTVSPost2010Prop48
 90
       50
102
RTVSPost2010PropOp48
 70
     0
102
RTVSPost2010Prop49
280
     0
102
RTVSPost2010PropOp49
 70
     1
102
RTVSPost2010Prop50
 90
       50
102
RTVSPost2010PropOp50
 70
     0
102
RTVSPost2010Prop51ColorIndex
 90
      256
102
RTVSPost2010Prop51ColorRGB
 90
-16777216
102
RTVSPost2010PropOp51
 70
     0
102
RTVSPost2010Prop52
140
1.0
102
RTVSPost2010PropOp52
 70
     0
102
RTVSPost2010Prop53
 90
        2
102
RTVSPost2010PropOp53
 70
     0
102
RTVSPost2010Prop54
  1
strokes_ogs.tif
102
RTVSPost2010PropOp54
 70
     0
102
RTVSPost2010Prop55
280
     0
102
RTVSPost2010PropOp55
 70
     1
102
RTVSPost2010Prop56
140
1.0
102
RTVSPost2010PropOp56
 70
     0
102
RTVSPost2010Prop57
140
1.0
102
RTVSPost2010PropOp57
 70
     0
102
RTVSPropertyOp0
 70
     0
102
RTVSPropertyOp1
 70
     0
102
RTVSPropertyOp2
 70
     0
102
RTVSPropertyOp3
 70
     0
102
RTVSPropertyOp4
 70
     0
102
RTVSPropertyOp5
 70
     0
102
RTVSPropertyOp6
 70
     0
102
RTVSPropertyOp7
 70
     0
102
RTVSPropertyOp8
 70
     0
102
RTVSPropertyOp9
 70
     0
102
RTVSPropertyOp10
 70
     0
102
RTVSPropertyOp11
 70
     0
102
RTVSPropertyOp12
 70
     0
102
RTVSPropertyOp13
 70
     0
102
RTVSPropertyOp14
 70
     2
102
RTVSPropertyOp15
 70
     0
102
RTVSPropertyOp16
 70
     0
102
RTVSPropertyOp17
 70
     0
102
RTVSPropertyOp18
 70
     0
102
RTVSPropertyOp19
 70
     0
102
RTVSPropertyOp20
 70
     0
102
RTVSPropertyOp21
 70
     0
102
RTVSPropertyOp22
 70
     0
102
RTVSPropertyOp23
 70
     0
102
RTVSPropertyOp24
 70
     0
102
RTVSPropertyOp25
 70
     0
102
RTVSPropertyOp26
 70
     0
102
RTVSPropertyOp27
 70
     0
102
RTVSPropertyOp28
 70
     1
102
RTVSPropertyOp29
 70
     1
102
RTVSPropertyOp30
 70
     1
102
RTVSPropertyOp31
 70
     1
102
RTVSPropertyOp32
 70
     1
102
RTVSPropertyOp33
 70
     1
102
RTVSPropertyOp34
 70
     1
102
RTVSPropertyOp35
 70
     1
102
RTVSPropertyOp36
 70
     1
102
RTVSPropertyOp37
 70
     0
102
RTVSPropertyOp38
 70
     0
102
RTVSPropertyOp39
 70
     0
102
RTVSPropertyOp40
 70
     0
102
RTVSPropertyOp41
 70
     0
102
RTVSPropertyOp42
 70
     0
102
RTVSPropertyOp43
 70
     0
102
RTVSPropertyOp44
 70
     0
102
RTVSPropertyOp45
 70
     1
102
RTVSPropertyOp46
 70
     0
102
RTVSPropertyOp47
 70
     0
102
RTVSPropertyOp48
 70
     0
102
RTVSPropertyOp49
 70
     1
102
RTVSPropertyOp50
 70
     0
102
RTVSPropertyOp51
 70
     0
102
RTVSPropertyOp52
 70
     0
102
RTVSPropertyOp53
 70
     0
102
RTVSPropertyOp54
 70
     0
102
RTVSPropertyOp55
 70
     1
102
RTVSPropertyOp56
 70
     0
102
RTVSPropertyOp57
 70
     0
102
RTVSPropertyOp58
 70
     0
102
RTVSPropertyOp59
 70
     0
102
RTVSPropertyOp60
 70
     0
102
RTVSPropertyOp61
 70
     0
102
RTVSPropertyOp62
 70
     0
  0
XRECORD
  5
9AB9
102
{ACAD_REACTORS
330
9AB8
102
}
330
9AB8
100
AcDbXrecord
280
     1
102
RTVSPost2010Prop28
280
     0
102
RTVSPost2010PropOp28
 70
     1
102
RTVSPost2010Prop29
280
     1
102
RTVSPost2010PropOp29
 70
     1
102
RTVSPost2010Prop30
280
     1
102
RTVSPost2010PropOp30
 70
     1
102
RTVSPost2010Prop31
280
     0
102
RTVSPost2010PropOp31
 70
     1
102
RTVSPost2010Prop32
280
     0
102
RTVSPost2010PropOp32
 70
     1
102
RTVSPost2010Prop33
280
     0
102
RTVSPost2010PropOp33
 70
     1
102
RTVSPost2010Prop34
280
     0
102
RTVSPost2010PropOp34
 70
     1
102
RTVSPost2010Prop35
280
     0
102
RTVSPost2010PropOp35
 70
     1
102
RTVSPost2010Prop36
280
     0
102
RTVSPost2010PropOp36
 70
     1
102
RTVSPost2010Prop37
 90
       50
102
RTVSPost2010PropOp37
 70
     1
102
RTVSPost2010Prop38
140
0.0
102
RTVSPost2010PropOp38
 70
     1
102
RTVSPost2010Prop39
140
1.0
102
RTVSPost2010PropOp39
 70
     1
102
RTVSPost2010Prop40
 90
        0
102
RTVSPost2010PropOp40
 70
     1
102
RTVSPost2010Prop41ColorIndex
 90
       18
102
RTVSPost2010Prop41ColorRGB
 90
        0
102
RTVSPost2010PropOp41
 70
     1
102
RTVSPost2010Prop42
 90
       50
102
RTVSPost2010PropOp42
 70
     1
102
RTVSPost2010Prop43
 90
        3
102
RTVSPost2010PropOp43
 70
     1
102
RTVSPost2010Prop44ColorIndex
 90
        5
102
RTVSPost2010Prop44ColorRGB
 90
      255
102
RTVSPost2010PropOp44
 70
     1
102
RTVSPost2010Prop45
280
     0
102
RTVSPost2010PropOp45
 70
     1
102
RTVSPost2010Prop46
 90
       50
102
RTVSPost2010PropOp46
 70
     1
102
RTVSPost2010Prop47
 90
       50
102
RTVSPost2010PropOp47
 70
     1
102
RTVSPost2010Prop48
 90
       50
102
RTVSPost2010PropOp48
 70
     1
102
RTVSPost2010Prop49
280
     0
102
RTVSPost2010PropOp49
 70
     1
102
RTVSPost2010Prop50
 90
       50
102
RTVSPost2010PropOp50
 70
     1
102
RTVSPost2010Prop51ColorIndex
 90
      256
102
RTVSPost2010Prop51ColorRGB
 90
-16777216
102
RTVSPost2010PropOp51
 70
     0
102
RTVSPost2010Prop52
140
1.0
102
RTVSPost2010PropOp52
 70
     0
102
RTVSPost2010Prop53
 90
        2
102
RTVSPost2010PropOp53
 70
     1
102
RTVSPost2010Prop54
  1
strokes_ogs.tif
102
RTVSPost2010PropOp54
 70
     1
102
RTVSPost2010Prop55
280
     0
102
RTVSPost2010PropOp55
 70
     1
102
RTVSPost2010Prop56
140
1.0
102
RTVSPost2010PropOp56
 70
     1
102
RTVSPost2010Prop57
140
1.0
102
RTVSPost2010PropOp57
 70
     1
102
RTVSPropertyOp0
 70
     1
102
RTVSPropertyOp1
 70
     1
102
RTVSPropertyOp2
 70
     1
102
RTVSPropertyOp3
 70
     1
102
RTVSPropertyOp4
 70
     1
102
RTVSPropertyOp5
 70
     1
102
RTVSPropertyOp6
 70
     1
102
RTVSPropertyOp7
 70
     1
102
RTVSPropertyOp8
 70
     1
102
RTVSPropertyOp9
 70
     1
102
RTVSPropertyOp10
 70
     1
102
RTVSPropertyOp11
 70
     1
102
RTVSPropertyOp12
 70
     1
102
RTVSPropertyOp13
 70
     1
102
RTVSPropertyOp14
 70
     1
102
RTVSPropertyOp15
 70
     1
102
RTVSPropertyOp16
 70
     1
102
RTVSPropertyOp17
 70
     1
102
RTVSPropertyOp18
 70
     1
102
RTVSPropertyOp19
 70
     1
102
RTVSPropertyOp20
 70
     1
102
RTVSPropertyOp21
 70
     1
102
RTVSPropertyOp22
 70
     1
102
RTVSPropertyOp23
 70
     1
102
RTVSPropertyOp24
 70
     1
102
RTVSPropertyOp25
 70
     1
102
RTVSPropertyOp26
 70
     1
102
RTVSPropertyOp27
 70
     1
102
RTVSPropertyOp28
 70
     1
102
RTVSPropertyOp29
 70
     1
102
RTVSPropertyOp30
 70
     1
102
RTVSPropertyOp31
 70
     1
102
RTVSPropertyOp32
 70
     1
102
RTVSPropertyOp33
 70
     1
102
RTVSPropertyOp34
 70
     1
102
RTVSPropertyOp35
 70
     1
102
RTVSPropertyOp36
 70
     1
102
RTVSPropertyOp37
 70
     1
102
RTVSPropertyOp38
 70
     1
102
RTVSPropertyOp39
 70
     1
102
RTVSPropertyOp40
 70
     1
102
RTVSPropertyOp41
 70
     1
102
RTVSPropertyOp42
 70
     1
102
RTVSPropertyOp43
 70
     1
102
RTVSPropertyOp44
 70
     1
102
RTVSPropertyOp45
 70
     1
102
RTVSPropertyOp46
 70
     1
102
RTVSPropertyOp47
 70
     1
102
RTVSPropertyOp48
 70
     1
102
RTVSPropertyOp49
 70
     1
102
RTVSPropertyOp50
 70
     1
102
RTVSPropertyOp51
 70
     0
102
RTVSPropertyOp52
 70
     0
102
RTVSPropertyOp53
 70
     1
102
RTVSPropertyOp54
 70
     1
102
RTVSPropertyOp55
 70
     1
102
RTVSPropertyOp56
 70
     1
102
RTVSPropertyOp57
 70
     1
102
RTVSPropertyOp58
 70
     1
102
RTVSPropertyOp59
 70
     1
102
RTVSPropertyOp60
 70
     1
102
RTVSPropertyOp61
 70
     1
102
RTVSPropertyOp62
 70
     1
  0
XRECORD
  5
9ACF
102
{ACAD_REACTORS
330
9ACE
102
}
330
9ACE
100
AcDbXrecord
280
     1
102
RTVSPost2010Prop28
280
     0
102
RTVSPost2010PropOp28
 70
     1
102
RTVSPost2010Prop29
280
     1
102
RTVSPost2010PropOp29
 70
     1
102
RTVSPost2010Prop30
280
     1
102
RTVSPost2010PropOp30
 70
     1
102
RTVSPost2010Prop31
280
     0
102
RTVSPost2010PropOp31
 70
     1
102
RTVSPost2010Prop32
280
     0
102
RTVSPost2010PropOp32
 70
     1
102
RTVSPost2010Prop33
280
     0
102
RTVSPost2010PropOp33
 70
     1
102
RTVSPost2010Prop34
280
     0
102
RTVSPost2010PropOp34
 70
     1
102
RTVSPost2010Prop35
280
     0
102
RTVSPost2010PropOp35
 70
     1
102
RTVSPost2010Prop36
280
     0
102
RTVSPost2010PropOp36
 70
     1
102
RTVSPost2010Prop37
 90
       50
102
RTVSPost2010PropOp37
 70
     1
102
RTVSPost2010Prop38
140
0.0
102
RTVSPost2010PropOp38
 70
     1
102
RTVSPost2010Prop39
140
1.0
102
RTVSPost2010PropOp39
 70
     1
102
RTVSPost2010Prop40
 90
        0
102
RTVSPost2010PropOp40
 70
     1
102
RTVSPost2010Prop41ColorIndex
 90
       18
102
RTVSPost2010Prop41ColorRGB
 90
        0
102
RTVSPost2010PropOp41
 70
     1
102
RTVSPost2010Prop42
 90
       50
102
RTVSPost2010PropOp42
 70
     1
102
RTVSPost2010Prop43
 90
        3
102
RTVSPost2010PropOp43
 70
     1
102
RTVSPost2010Prop44ColorIndex
 90
        5
102
RTVSPost2010Prop44ColorRGB
 90
      255
102
RTVSPost2010PropOp44
 70
     1
102
RTVSPost2010Prop45
280
     0
102
RTVSPost2010PropOp45
 70
     1
102
RTVSPost2010Prop46
 90
       50
102
RTVSPost2010PropOp46
 70
     1
102
RTVSPost2010Prop47
 90
       50
102
RTVSPost2010PropOp47
 70
     1
102
RTVSPost2010Prop48
 90
       50
102
RTVSPost2010PropOp48
 70
     1
102
RTVSPost2010Prop49
280
     0
102
RTVSPost2010PropOp49
 70
     1
102
RTVSPost2010Prop50
 90
       50
102
RTVSPost2010PropOp50
 70
     1
102
RTVSPost2010Prop51ColorIndex
 90
      256
102
RTVSPost2010Prop51ColorRGB
 90
-16777216
102
RTVSPost2010PropOp51
 70
     0
102
RTVSPost2010Prop52
140
1.0
102
RTVSPost2010PropOp52
 70
     0
102
RTVSPost2010Prop53
 90
        2
102
RTVSPost2010PropOp53
 70
     1
102
RTVSPost2010Prop54
  1
strokes_ogs.tif
102
RTVSPost2010PropOp54
 70
     1
102
RTVSPost2010Prop55
280
     0
102
RTVSPost2010PropOp55
 70
     1
102
RTVSPost2010Prop56
140
1.0
102
RTVSPost2010PropOp56
 70
     1
102
RTVSPost2010Prop57
140
1.0
102
RTVSPost2010PropOp57
 70
     1
102
RTVSPropertyOp0
 70
     1
102
RTVSPropertyOp1
 70
     1
102
RTVSPropertyOp2
 70
     1
102
RTVSPropertyOp3
 70
     1
102
RTVSPropertyOp4
 70
     1
102
RTVSPropertyOp5
 70
     1
102
RTVSPropertyOp6
 70
     1
102
RTVSPropertyOp7
 70
     1
102
RTVSPropertyOp8
 70
     1
102
RTVSPropertyOp9
 70
     1
102
RTVSPropertyOp10
 70
     1
102
RTVSPropertyOp11
 70
     1
102
RTVSPropertyOp12
 70
     1
102
RTVSPropertyOp13
 70
     1
102
RTVSPropertyOp14
 70
     1
102
RTVSPropertyOp15
 70
     1
102
RTVSPropertyOp16
 70
     1
102
RTVSPropertyOp17
 70
     1
102
RTVSPropertyOp18
 70
     1
102
RTVSPropertyOp19
 70
     1
102
RTVSPropertyOp20
 70
     1
102
RTVSPropertyOp21
 70
     1
102
RTVSPropertyOp22
 70
     1
102
RTVSPropertyOp23
 70
     1
102
RTVSPropertyOp24
 70
     1
102
RTVSPropertyOp25
 70
     1
102
RTVSPropertyOp26
 70
     1
102
RTVSPropertyOp27
 70
     1
102
RTVSPropertyOp28
 70
     1
102
RTVSPropertyOp29
 70
     1
102
RTVSPropertyOp30
 70
     1
102
RTVSPropertyOp31
 70
     1
102
RTVSPropertyOp32
 70
     1
102
RTVSPropertyOp33
 70
     1
102
RTVSPropertyOp34
 70
     1
102
RTVSPropertyOp35
 70
     1
102
RTVSPropertyOp36
 70
     1
102
RTVSPropertyOp37
 70
     1
102
RTVSPropertyOp38
 70
     1
102
RTVSPropertyOp39
 70
     1
102
RTVSPropertyOp40
 70
     1
102
RTVSPropertyOp41
 70
     1
102
RTVSPropertyOp42
 70
     1
102
RTVSPropertyOp43
 70
     1
102
RTVSPropertyOp44
 70
     1
102
RTVSPropertyOp45
 70
     1
102
RTVSPropertyOp46
 70
     1
102
RTVSPropertyOp47
 70
     1
102
RTVSPropertyOp48
 70
     1
102
RTVSPropertyOp49
 70
     1
102
RTVSPropertyOp50
 70
     1
102
RTVSPropertyOp51
 70
     0
102
RTVSPropertyOp52
 70
     0
102
RTVSPropertyOp53
 70
     1
102
RTVSPropertyOp54
 70
     1
102
RTVSPropertyOp55
 70
     1
102
RTVSPropertyOp56
 70
     1
102
RTVSPropertyOp57
 70
     1
102
RTVSPropertyOp58
 70
     1
102
RTVSPropertyOp59
 70
     1
102
RTVSPropertyOp60
 70
     1
102
RTVSPropertyOp61
 70
     1
102
RTVSPropertyOp62
 70
     1
  0
XRECORD
  5
9ACD
102
{ACAD_REACTORS
330
9ACC
102
}
330
9ACC
100
AcDbXrecord
280
     1
102
RTVSPost2010Prop28
280
     0
102
RTVSPost2010PropOp28
 70
     1
102
RTVSPost2010Prop29
280
     1
102
RTVSPost2010PropOp29
 70
     1
102
RTVSPost2010Prop30
280
     1
102
RTVSPost2010PropOp30
 70
     1
102
RTVSPost2010Prop31
280
     0
102
RTVSPost2010PropOp31
 70
     1
102
RTVSPost2010Prop32
280
     0
102
RTVSPost2010PropOp32
 70
     1
102
RTVSPost2010Prop33
280
     0
102
RTVSPost2010PropOp33
 70
     1
102
RTVSPost2010Prop34
280
     0
102
RTVSPost2010PropOp34
 70
     1
102
RTVSPost2010Prop35
280
     0
102
RTVSPost2010PropOp35
 70
     1
102
RTVSPost2010Prop36
280
     0
102
RTVSPost2010PropOp36
 70
     1
102
RTVSPost2010Prop37
 90
       50
102
RTVSPost2010PropOp37
 70
     1
102
RTVSPost2010Prop38
140
0.0
102
RTVSPost2010PropOp38
 70
     1
102
RTVSPost2010Prop39
140
1.0
102
RTVSPost2010PropOp39
 70
     1
102
RTVSPost2010Prop40
 90
        0
102
RTVSPost2010PropOp40
 70
     1
102
RTVSPost2010Prop41ColorIndex
 90
       18
102
RTVSPost2010Prop41ColorRGB
 90
        0
102
RTVSPost2010PropOp41
 70
     1
102
RTVSPost2010Prop42
 90
       50
102
RTVSPost2010PropOp42
 70
     1
102
RTVSPost2010Prop43
 90
        3
102
RTVSPost2010PropOp43
 70
     1
102
RTVSPost2010Prop44ColorIndex
 90
        5
102
RTVSPost2010Prop44ColorRGB
 90
      255
102
RTVSPost2010PropOp44
 70
     1
102
RTVSPost2010Prop45
280
     0
102
RTVSPost2010PropOp45
 70
     1
102
RTVSPost2010Prop46
 90
       50
102
RTVSPost2010PropOp46
 70
     1
102
RTVSPost2010Prop47
 90
       50
102
RTVSPost2010PropOp47
 70
     1
102
RTVSPost2010Prop48
 90
       50
102
RTVSPost2010PropOp48
 70
     1
102
RTVSPost2010Prop49
280
     0
102
RTVSPost2010PropOp49
 70
     1
102
RTVSPost2010Prop50
 90
       50
102
RTVSPost2010PropOp50
 70
     1
102
RTVSPost2010Prop51ColorIndex
 90
      256
102
RTVSPost2010Prop51ColorRGB
 90
-16777216
102
RTVSPost2010PropOp51
 70
     0
102
RTVSPost2010Prop52
140
1.0
102
RTVSPost2010PropOp52
 70
     0
102
RTVSPost2010Prop53
 90
        2
102
RTVSPost2010PropOp53
 70
     1
102
RTVSPost2010Prop54
  1
strokes_ogs.tif
102
RTVSPost2010PropOp54
 70
     1
102
RTVSPost2010Prop55
280
     0
102
RTVSPost2010PropOp55
 70
     1
102
RTVSPost2010Prop56
140
1.0
102
RTVSPost2010PropOp56
 70
     1
102
RTVSPost2010Prop57
140
1.0
102
RTVSPost2010PropOp57
 70
     1
102
RTVSPropertyOp0
 70
     1
102
RTVSPropertyOp1
 70
     1
102
RTVSPropertyOp2
 70
     1
102
RTVSPropertyOp3
 70
     1
102
RTVSPropertyOp4
 70
     1
102
RTVSPropertyOp5
 70
     1
102
RTVSPropertyOp6
 70
     1
102
RTVSPropertyOp7
 70
     1
102
RTVSPropertyOp8
 70
     1
102
RTVSPropertyOp9
 70
     1
102
RTVSPropertyOp10
 70
     1
102
RTVSPropertyOp11
 70
     1
102
RTVSPropertyOp12
 70
     1
102
RTVSPropertyOp13
 70
     1
102
RTVSPropertyOp14
 70
     1
102
RTVSPropertyOp15
 70
     1
102
RTVSPropertyOp16
 70
     1
102
RTVSPropertyOp17
 70
     1
102
RTVSPropertyOp18
 70
     1
102
RTVSPropertyOp19
 70
     1
102
RTVSPropertyOp20
 70
     1
102
RTVSPropertyOp21
 70
     1
102
RTVSPropertyOp22
 70
     1
102
RTVSPropertyOp23
 70
     1
102
RTVSPropertyOp24
 70
     1
102
RTVSPropertyOp25
 70
     1
102
RTVSPropertyOp26
 70
     1
102
RTVSPropertyOp27
 70
     1
102
RTVSPropertyOp28
 70
     1
102
RTVSPropertyOp29
 70
     1
102
RTVSPropertyOp30
 70
     1
102
RTVSPropertyOp31
 70
     1
102
RTVSPropertyOp32
 70
     1
102
RTVSPropertyOp33
 70
     1
102
RTVSPropertyOp34
 70
     1
102
RTVSPropertyOp35
 70
     1
102
RTVSPropertyOp36
 70
     1
102
RTVSPropertyOp37
 70
     1
102
RTVSPropertyOp38
 70
     1
102
RTVSPropertyOp39
 70
     1
102
RTVSPropertyOp40
 70
     1
102
RTVSPropertyOp41
 70
     1
102
RTVSPropertyOp42
 70
     1
102
RTVSPropertyOp43
 70
     1
102
RTVSPropertyOp44
 70
     1
102
RTVSPropertyOp45
 70
     1
102
RTVSPropertyOp46
 70
     1
102
RTVSPropertyOp47
 70
     1
102
RTVSPropertyOp48
 70
     1
102
RTVSPropertyOp49
 70
     1
102
RTVSPropertyOp50
 70
     1
102
RTVSPropertyOp51
 70
     0
102
RTVSPropertyOp52
 70
     0
102
RTVSPropertyOp53
 70
     1
102
RTVSPropertyOp54
 70
     1
102
RTVSPropertyOp55
 70
     1
102
RTVSPropertyOp56
 70
     1
102
RTVSPropertyOp57
 70
     1
102
RTVSPropertyOp58
 70
     1
102
RTVSPropertyOp59
 70
     1
102
RTVSPropertyOp60
 70
     1
102
RTVSPropertyOp61
 70
     1
102
RTVSPropertyOp62
 70
     1
  0
XRECORD
  5
9AC7
102
{ACAD_REACTORS
330
9AC6
102
}
330
9AC6
100
AcDbXrecord
280
     1
102
RTVSPost2010Prop28
280
     0
102
RTVSPost2010PropOp28
 70
     1
102
RTVSPost2010Prop29
280
     1
102
RTVSPost2010PropOp29
 70
     1
102
RTVSPost2010Prop30
280
     1
102
RTVSPost2010PropOp30
 70
     1
102
RTVSPost2010Prop31
280
     0
102
RTVSPost2010PropOp31
 70
     1
102
RTVSPost2010Prop32
280
     0
102
RTVSPost2010PropOp32
 70
     1
102
RTVSPost2010Prop33
280
     0
102
RTVSPost2010PropOp33
 70
     1
102
RTVSPost2010Prop34
280
     0
102
RTVSPost2010PropOp34
 70
     1
102
RTVSPost2010Prop35
280
     0
102
RTVSPost2010PropOp35
 70
     1
102
RTVSPost2010Prop36
280
     0
102
RTVSPost2010PropOp36
 70
     1
102
RTVSPost2010Prop37
 90
       50
102
RTVSPost2010PropOp37
 70
     1
102
RTVSPost2010Prop38
140
0.0
102
RTVSPost2010PropOp38
 70
     1
102
RTVSPost2010Prop39
140
1.0
102
RTVSPost2010PropOp39
 70
     1
102
RTVSPost2010Prop40
 90
        0
102
RTVSPost2010PropOp40
 70
     1
102
RTVSPost2010Prop41ColorIndex
 90
       18
102
RTVSPost2010Prop41ColorRGB
 90
        0
102
RTVSPost2010PropOp41
 70
     1
102
RTVSPost2010Prop42
 90
       50
102
RTVSPost2010PropOp42
 70
     1
102
RTVSPost2010Prop43
 90
        3
102
RTVSPost2010PropOp43
 70
     1
102
RTVSPost2010Prop44ColorIndex
 90
        5
102
RTVSPost2010Prop44ColorRGB
 90
      255
102
RTVSPost2010PropOp44
 70
     1
102
RTVSPost2010Prop45
280
     0
102
RTVSPost2010PropOp45
 70
     1
102
RTVSPost2010Prop46
 90
       50
102
RTVSPost2010PropOp46
 70
     1
102
RTVSPost2010Prop47
 90
       50
102
RTVSPost2010PropOp47
 70
     1
102
RTVSPost2010Prop48
 90
       50
102
RTVSPost2010PropOp48
 70
     1
102
RTVSPost2010Prop49
280
     0
102
RTVSPost2010PropOp49
 70
     1
102
RTVSPost2010Prop50
 90
       50
102
RTVSPost2010PropOp50
 70
     1
102
RTVSPost2010Prop51ColorIndex
 90
      256
102
RTVSPost2010Prop51ColorRGB
 90
-16777216
102
RTVSPost2010PropOp51
 70
     0
102
RTVSPost2010Prop52
140
1.0
102
RTVSPost2010PropOp52
 70
     0
102
RTVSPost2010Prop53
 90
        2
102
RTVSPost2010PropOp53
 70
     1
102
RTVSPost2010Prop54
  1
strokes_ogs.tif
102
RTVSPost2010PropOp54
 70
     1
102
RTVSPost2010Prop55
280
     0
102
RTVSPost2010PropOp55
 70
     1
102
RTVSPost2010Prop56
140
1.0
102
RTVSPost2010PropOp56
 70
     1
102
RTVSPost2010Prop57
140
1.0
102
RTVSPost2010PropOp57
 70
     1
102
RTVSPropertyOp0
 70
     1
102
RTVSPropertyOp1
 70
     1
102
RTVSPropertyOp2
 70
     1
102
RTVSPropertyOp3
 70
     1
102
RTVSPropertyOp4
 70
     1
102
RTVSPropertyOp5
 70
     1
102
RTVSPropertyOp6
 70
     1
102
RTVSPropertyOp7
 70
     1
102
RTVSPropertyOp8
 70
     1
102
RTVSPropertyOp9
 70
     1
102
RTVSPropertyOp10
 70
     1
102
RTVSPropertyOp11
 70
     1
102
RTVSPropertyOp12
 70
     1
102
RTVSPropertyOp13
 70
     1
102
RTVSPropertyOp14
 70
     1
102
RTVSPropertyOp15
 70
     1
102
RTVSPropertyOp16
 70
     1
102
RTVSPropertyOp17
 70
     1
102
RTVSPropertyOp18
 70
     1
102
RTVSPropertyOp19
 70
     1
102
RTVSPropertyOp20
 70
     1
102
RTVSPropertyOp21
 70
     1
102
RTVSPropertyOp22
 70
     1
102
RTVSPropertyOp23
 70
     1
102
RTVSPropertyOp24
 70
     1
102
RTVSPropertyOp25
 70
     1
102
RTVSPropertyOp26
 70
     1
102
RTVSPropertyOp27
 70
     1
102
RTVSPropertyOp28
 70
     1
102
RTVSPropertyOp29
 70
     1
102
RTVSPropertyOp30
 70
     1
102
RTVSPropertyOp31
 70
     1
102
RTVSPropertyOp32
 70
     1
102
RTVSPropertyOp33
 70
     1
102
RTVSPropertyOp34
 70
     1
102
RTVSPropertyOp35
 70
     1
102
RTVSPropertyOp36
 70
     1
102
RTVSPropertyOp37
 70
     1
102
RTVSPropertyOp38
 70
     1
102
RTVSPropertyOp39
 70
     1
102
RTVSPropertyOp40
 70
     1
102
RTVSPropertyOp41
 70
     1
102
RTVSPropertyOp42
 70
     1
102
RTVSPropertyOp43
 70
     1
102
RTVSPropertyOp44
 70
     1
102
RTVSPropertyOp45
 70
     1
102
RTVSPropertyOp46
 70
     1
102
RTVSPropertyOp47
 70
     1
102
RTVSPropertyOp48
 70
     1
102
RTVSPropertyOp49
 70
     1
102
RTVSPropertyOp50
 70
     1
102
RTVSPropertyOp51
 70
     0
102
RTVSPropertyOp52
 70
     0
102
RTVSPropertyOp53
 70
     1
102
RTVSPropertyOp54
 70
     1
102
RTVSPropertyOp55
 70
     1
102
RTVSPropertyOp56
 70
     1
102
RTVSPropertyOp57
 70
     1
102
RTVSPropertyOp58
 70
     1
102
RTVSPropertyOp59
 70
     1
102
RTVSPropertyOp60
 70
     1
102
RTVSPropertyOp61
 70
     1
102
RTVSPropertyOp62
 70
     1
  0
XRECORD
  5
9AC9
102
{ACAD_REACTORS
330
9AC8
102
}
330
9AC8
100
AcDbXrecord
280
     1
102
RTVSPost2010Prop28
280
     0
102
RTVSPost2010PropOp28
 70
     1
102
RTVSPost2010Prop29
280
     1
102
RTVSPost2010PropOp29
 70
     1
102
RTVSPost2010Prop30
280
     1
102
RTVSPost2010PropOp30
 70
     1
102
RTVSPost2010Prop31
280
     0
102
RTVSPost2010PropOp31
 70
     1
102
RTVSPost2010Prop32
280
     0
102
RTVSPost2010PropOp32
 70
     1
102
RTVSPost2010Prop33
280
     0
102
RTVSPost2010PropOp33
 70
     1
102
RTVSPost2010Prop34
280
     0
102
RTVSPost2010PropOp34
 70
     1
102
RTVSPost2010Prop35
280
     0
102
RTVSPost2010PropOp35
 70
     1
102
RTVSPost2010Prop36
280
     0
102
RTVSPost2010PropOp36
 70
     1
102
RTVSPost2010Prop37
 90
       50
102
RTVSPost2010PropOp37
 70
     1
102
RTVSPost2010Prop38
140
0.0
102
RTVSPost2010PropOp38
 70
     1
102
RTVSPost2010Prop39
140
1.0
102
RTVSPost2010PropOp39
 70
     1
102
RTVSPost2010Prop40
 90
        0
102
RTVSPost2010PropOp40
 70
     1
102
RTVSPost2010Prop41ColorIndex
 90
       18
102
RTVSPost2010Prop41ColorRGB
 90
        0
102
RTVSPost2010PropOp41
 70
     1
102
RTVSPost2010Prop42
 90
       50
102
RTVSPost2010PropOp42
 70
     1
102
RTVSPost2010Prop43
 90
        3
102
RTVSPost2010PropOp43
 70
     1
102
RTVSPost2010Prop44ColorIndex
 90
        5
102
RTVSPost2010Prop44ColorRGB
 90
      255
102
RTVSPost2010PropOp44
 70
     1
102
RTVSPost2010Prop45
280
     0
102
RTVSPost2010PropOp45
 70
     1
102
RTVSPost2010Prop46
 90
       50
102
RTVSPost2010PropOp46
 70
     1
102
RTVSPost2010Prop47
 90
       50
102
RTVSPost2010PropOp47
 70
     1
102
RTVSPost2010Prop48
 90
       50
102
RTVSPost2010PropOp48
 70
     1
102
RTVSPost2010Prop49
280
     0
102
RTVSPost2010PropOp49
 70
     1
102
RTVSPost2010Prop50
 90
       50
102
RTVSPost2010PropOp50
 70
     1
102
RTVSPost2010Prop51ColorIndex
 90
      256
102
RTVSPost2010Prop51ColorRGB
 90
-16777216
102
RTVSPost2010PropOp51
 70
     0
102
RTVSPost2010Prop52
140
1.0
102
RTVSPost2010PropOp52
 70
     0
102
RTVSPost2010Prop53
 90
        2
102
RTVSPost2010PropOp53
 70
     1
102
RTVSPost2010Prop54
  1
strokes_ogs.tif
102
RTVSPost2010PropOp54
 70
     1
102
RTVSPost2010Prop55
280
     0
102
RTVSPost2010PropOp55
 70
     1
102
RTVSPost2010Prop56
140
1.0
102
RTVSPost2010PropOp56
 70
     1
102
RTVSPost2010Prop57
140
1.0
102
RTVSPost2010PropOp57
 70
     1
102
RTVSPropertyOp0
 70
     1
102
RTVSPropertyOp1
 70
     1
102
RTVSPropertyOp2
 70
     1
102
RTVSPropertyOp3
 70
     1
102
RTVSPropertyOp4
 70
     1
102
RTVSPropertyOp5
 70
     1
102
RTVSPropertyOp6
 70
     1
102
RTVSPropertyOp7
 70
     1
102
RTVSPropertyOp8
 70
     1
102
RTVSPropertyOp9
 70
     1
102
RTVSPropertyOp10
 70
     1
102
RTVSPropertyOp11
 70
     1
102
RTVSPropertyOp12
 70
     1
102
RTVSPropertyOp13
 70
     1
102
RTVSPropertyOp14
 70
     1
102
RTVSPropertyOp15
 70
     1
102
RTVSPropertyOp16
 70
     1
102
RTVSPropertyOp17
 70
     1
102
RTVSPropertyOp18
 70
     1
102
RTVSPropertyOp19
 70
     1
102
RTVSPropertyOp20
 70
     1
102
RTVSPropertyOp21
 70
     1
102
RTVSPropertyOp22
 70
     1
102
RTVSPropertyOp23
 70
     1
102
RTVSPropertyOp24
 70
     1
102
RTVSPropertyOp25
 70
     1
102
RTVSPropertyOp26
 70
     1
102
RTVSPropertyOp27
 70
     1
102
RTVSPropertyOp28
 70
     1
102
RTVSPropertyOp29
 70
     1
102
RTVSPropertyOp30
 70
     1
102
RTVSPropertyOp31
 70
     1
102
RTVSPropertyOp32
 70
     1
102
RTVSPropertyOp33
 70
     1
102
RTVSPropertyOp34
 70
     1
102
RTVSPropertyOp35
 70
     1
102
RTVSPropertyOp36
 70
     1
102
RTVSPropertyOp37
 70
     1
102
RTVSPropertyOp38
 70
     1
102
RTVSPropertyOp39
 70
     1
102
RTVSPropertyOp40
 70
     1
102
RTVSPropertyOp41
 70
     1
102
RTVSPropertyOp42
 70
     1
102
RTVSPropertyOp43
 70
     1
102
RTVSPropertyOp44
 70
     1
102
RTVSPropertyOp45
 70
     1
102
RTVSPropertyOp46
 70
     1
102
RTVSPropertyOp47
 70
     1
102
RTVSPropertyOp48
 70
     1
102
RTVSPropertyOp49
 70
     1
102
RTVSPropertyOp50
 70
     1
102
RTVSPropertyOp51
 70
     0
102
RTVSPropertyOp52
 70
     0
102
RTVSPropertyOp53
 70
     1
102
RTVSPropertyOp54
 70
     1
102
RTVSPropertyOp55
 70
     1
102
RTVSPropertyOp56
 70
     1
102
RTVSPropertyOp57
 70
     1
102
RTVSPropertyOp58
 70
     1
102
RTVSPropertyOp59
 70
     1
102
RTVSPropertyOp60
 70
     1
102
RTVSPropertyOp61
 70
     1
102
RTVSPropertyOp62
 70
     1
  0
XRECORD
  5
9ABF
102
{ACAD_REACTORS
330
9ABE
102
}
330
9ABE
100
AcDbXrecord
280
     1
102
RTVSPost2010Prop28
280
     0
102
RTVSPost2010PropOp28
 70
     1
102
RTVSPost2010Prop29
280
     1
102
RTVSPost2010PropOp29
 70
     1
102
RTVSPost2010Prop30
280
     1
102
RTVSPost2010PropOp30
 70
     1
102
RTVSPost2010Prop31
280
     0
102
RTVSPost2010PropOp31
 70
     1
102
RTVSPost2010Prop32
280
     0
102
RTVSPost2010PropOp32
 70
     1
102
RTVSPost2010Prop33
280
     0
102
RTVSPost2010PropOp33
 70
     1
102
RTVSPost2010Prop34
280
     0
102
RTVSPost2010PropOp34
 70
     1
102
RTVSPost2010Prop35
280
     0
102
RTVSPost2010PropOp35
 70
     1
102
RTVSPost2010Prop36
280
     0
102
RTVSPost2010PropOp36
 70
     1
102
RTVSPost2010Prop37
 90
       50
102
RTVSPost2010PropOp37
 70
     1
102
RTVSPost2010Prop38
140
0.0
102
RTVSPost2010PropOp38
 70
     1
102
RTVSPost2010Prop39
140
1.0
102
RTVSPost2010PropOp39
 70
     1
102
RTVSPost2010Prop40
 90
        0
102
RTVSPost2010PropOp40
 70
     1
102
RTVSPost2010Prop41ColorIndex
 90
       18
102
RTVSPost2010Prop41ColorRGB
 90
        0
102
RTVSPost2010PropOp41
 70
     1
102
RTVSPost2010Prop42
 90
       50
102
RTVSPost2010PropOp42
 70
     1
102
RTVSPost2010Prop43
 90
        3
102
RTVSPost2010PropOp43
 70
     1
102
RTVSPost2010Prop44ColorIndex
 90
        5
102
RTVSPost2010Prop44ColorRGB
 90
      255
102
RTVSPost2010PropOp44
 70
     1
102
RTVSPost2010Prop45
280
     0
102
RTVSPost2010PropOp45
 70
     1
102
RTVSPost2010Prop46
 90
       50
102
RTVSPost2010PropOp46
 70
     1
102
RTVSPost2010Prop47
 90
       50
102
RTVSPost2010PropOp47
 70
     1
102
RTVSPost2010Prop48
 90
       50
102
RTVSPost2010PropOp48
 70
     1
102
RTVSPost2010Prop49
280
     0
102
RTVSPost2010PropOp49
 70
     1
102
RTVSPost2010Prop50
 90
       50
102
RTVSPost2010PropOp50
 70
     1
102
RTVSPost2010Prop51ColorIndex
 90
      256
102
RTVSPost2010Prop51ColorRGB
 90
-16777216
102
RTVSPost2010PropOp51
 70
     0
102
RTVSPost2010Prop52
140
1.0
102
RTVSPost2010PropOp52
 70
     0
102
RTVSPost2010Prop53
 90
        2
102
RTVSPost2010PropOp53
 70
     1
102
RTVSPost2010Prop54
  1
strokes_ogs.tif
102
RTVSPost2010PropOp54
 70
     1
102
RTVSPost2010Prop55
280
     0
102
RTVSPost2010PropOp55
 70
     1
102
RTVSPost2010Prop56
140
1.0
102
RTVSPost2010PropOp56
 70
     1
102
RTVSPost2010Prop57
140
1.0
102
RTVSPost2010PropOp57
 70
     1
102
RTVSPropertyOp0
 70
     1
102
RTVSPropertyOp1
 70
     1
102
RTVSPropertyOp2
 70
     1
102
RTVSPropertyOp3
 70
     1
102
RTVSPropertyOp4
 70
     1
102
RTVSPropertyOp5
 70
     1
102
RTVSPropertyOp6
 70
     1
102
RTVSPropertyOp7
 70
     1
102
RTVSPropertyOp8
 70
     1
102
RTVSPropertyOp9
 70
     1
102
RTVSPropertyOp10
 70
     1
102
RTVSPropertyOp11
 70
     1
102
RTVSPropertyOp12
 70
     1
102
RTVSPropertyOp13
 70
     1
102
RTVSPropertyOp14
 70
     1
102
RTVSPropertyOp15
 70
     1
102
RTVSPropertyOp16
 70
     1
102
RTVSPropertyOp17
 70
     1
102
RTVSPropertyOp18
 70
     1
102
RTVSPropertyOp19
 70
     1
102
RTVSPropertyOp20
 70
     1
102
RTVSPropertyOp21
 70
     1
102
RTVSPropertyOp22
 70
     1
102
RTVSPropertyOp23
 70
     1
102
RTVSPropertyOp24
 70
     1
102
RTVSPropertyOp25
 70
     1
102
RTVSPropertyOp26
 70
     1
102
RTVSPropertyOp27
 70
     1
102
RTVSPropertyOp28
 70
     1
102
RTVSPropertyOp29
 70
     1
102
RTVSPropertyOp30
 70
     1
102
RTVSPropertyOp31
 70
     1
102
RTVSPropertyOp32
 70
     1
102
RTVSPropertyOp33
 70
     1
102
RTVSPropertyOp34
 70
     1
102
RTVSPropertyOp35
 70
     1
102
RTVSPropertyOp36
 70
     1
102
RTVSPropertyOp37
 70
     1
102
RTVSPropertyOp38
 70
     1
102
RTVSPropertyOp39
 70
     1
102
RTVSPropertyOp40
 70
     1
102
RTVSPropertyOp41
 70
     1
102
RTVSPropertyOp42
 70
     1
102
RTVSPropertyOp43
 70
     1
102
RTVSPropertyOp44
 70
     1
102
RTVSPropertyOp45
 70
     1
102
RTVSPropertyOp46
 70
     1
102
RTVSPropertyOp47
 70
     1
102
RTVSPropertyOp48
 70
     1
102
RTVSPropertyOp49
 70
     1
102
RTVSPropertyOp50
 70
     1
102
RTVSPropertyOp51
 70
     0
102
RTVSPropertyOp52
 70
     0
102
RTVSPropertyOp53
 70
     1
102
RTVSPropertyOp54
 70
     1
102
RTVSPropertyOp55
 70
     1
102
RTVSPropertyOp56
 70
     1
102
RTVSPropertyOp57
 70
     1
102
RTVSPropertyOp58
 70
     1
102
RTVSPropertyOp59
 70
     1
102
RTVSPropertyOp60
 70
     1
102
RTVSPropertyOp61
 70
     1
102
RTVSPropertyOp62
 70
     1
  0
XRECORD
  5
9AB3
102
{ACAD_REACTORS
330
9AB2
102
}
330
9AB2
100
AcDbXrecord
280
     1
102
RTVSPost2010Prop28
280
     0
102
RTVSPost2010PropOp28
 70
     1
102
RTVSPost2010Prop29
280
     1
102
RTVSPost2010PropOp29
 70
     1
102
RTVSPost2010Prop30
280
     1
102
RTVSPost2010PropOp30
 70
     1
102
RTVSPost2010Prop31
280
     0
102
RTVSPost2010PropOp31
 70
     1
102
RTVSPost2010Prop32
280
     0
102
RTVSPost2010PropOp32
 70
     1
102
RTVSPost2010Prop33
280
     0
102
RTVSPost2010PropOp33
 70
     1
102
RTVSPost2010Prop34
280
     0
102
RTVSPost2010PropOp34
 70
     1
102
RTVSPost2010Prop35
280
     0
102
RTVSPost2010PropOp35
 70
     1
102
RTVSPost2010Prop36
280
     0
102
RTVSPost2010PropOp36
 70
     1
102
RTVSPost2010Prop37
 90
       50
102
RTVSPost2010PropOp37
 70
     1
102
RTVSPost2010Prop38
140
0.0
102
RTVSPost2010PropOp38
 70
     1
102
RTVSPost2010Prop39
140
1.0
102
RTVSPost2010PropOp39
 70
     1
102
RTVSPost2010Prop40
 90
        0
102
RTVSPost2010PropOp40
 70
     1
102
RTVSPost2010Prop41ColorIndex
 90
       18
102
RTVSPost2010Prop41ColorRGB
 90
        0
102
RTVSPost2010PropOp41
 70
     1
102
RTVSPost2010Prop42
 90
       50
102
RTVSPost2010PropOp42
 70
     1
102
RTVSPost2010Prop43
 90
        3
102
RTVSPost2010PropOp43
 70
     1
102
RTVSPost2010Prop44ColorIndex
 90
        5
102
RTVSPost2010Prop44ColorRGB
 90
      255
102
RTVSPost2010PropOp44
 70
     1
102
RTVSPost2010Prop45
280
     0
102
RTVSPost2010PropOp45
 70
     1
102
RTVSPost2010Prop46
 90
       50
102
RTVSPost2010PropOp46
 70
     1
102
RTVSPost2010Prop47
 90
       50
102
RTVSPost2010PropOp47
 70
     1
102
RTVSPost2010Prop48
 90
       50
102
RTVSPost2010PropOp48
 70
     1
102
RTVSPost2010Prop49
280
     0
102
RTVSPost2010PropOp49
 70
     1
102
RTVSPost2010Prop50
 90
       50
102
RTVSPost2010PropOp50
 70
     1
102
RTVSPost2010Prop51ColorIndex
 90
      256
102
RTVSPost2010Prop51ColorRGB
 90
-16777216
102
RTVSPost2010PropOp51
 70
     0
102
RTVSPost2010Prop52
140
1.0
102
RTVSPost2010PropOp52
 70
     0
102
RTVSPost2010Prop53
 90
        2
102
RTVSPost2010PropOp53
 70
     1
102
RTVSPost2010Prop54
  1
strokes_ogs.tif
102
RTVSPost2010PropOp54
 70
     1
102
RTVSPost2010Prop55
280
     0
102
RTVSPost2010PropOp55
 70
     1
102
RTVSPost2010Prop56
140
1.0
102
RTVSPost2010PropOp56
 70
     1
102
RTVSPost2010Prop57
140
1.0
102
RTVSPost2010PropOp57
 70
     1
102
RTVSPropertyOp0
 70
     1
102
RTVSPropertyOp1
 70
     1
102
RTVSPropertyOp2
 70
     1
102
RTVSPropertyOp3
 70
     1
102
RTVSPropertyOp4
 70
     1
102
RTVSPropertyOp5
 70
     1
102
RTVSPropertyOp6
 70
     1
102
RTVSPropertyOp7
 70
     1
102
RTVSPropertyOp8
 70
     1
102
RTVSPropertyOp9
 70
     1
102
RTVSPropertyOp10
 70
     1
102
RTVSPropertyOp11
 70
     1
102
RTVSPropertyOp12
 70
     1
102
RTVSPropertyOp13
 70
     1
102
RTVSPropertyOp14
 70
     1
102
RTVSPropertyOp15
 70
     1
102
RTVSPropertyOp16
 70
     1
102
RTVSPropertyOp17
 70
     1
102
RTVSPropertyOp18
 70
     1
102
RTVSPropertyOp19
 70
     1
102
RTVSPropertyOp20
 70
     1
102
RTVSPropertyOp21
 70
     1
102
RTVSPropertyOp22
 70
     1
102
RTVSPropertyOp23
 70
     1
102
RTVSPropertyOp24
 70
     1
102
RTVSPropertyOp25
 70
     1
102
RTVSPropertyOp26
 70
     1
102
RTVSPropertyOp27
 70
     1
102
RTVSPropertyOp28
 70
     1
102
RTVSPropertyOp29
 70
     1
102
RTVSPropertyOp30
 70
     1
102
RTVSPropertyOp31
 70
     1
102
RTVSPropertyOp32
 70
     1
102
RTVSPropertyOp33
 70
     1
102
RTVSPropertyOp34
 70
     1
102
RTVSPropertyOp35
 70
     1
102
RTVSPropertyOp36
 70
     1
102
RTVSPropertyOp37
 70
     1
102
RTVSPropertyOp38
 70
     1
102
RTVSPropertyOp39
 70
     1
102
RTVSPropertyOp40
 70
     1
102
RTVSPropertyOp41
 70
     1
102
RTVSPropertyOp42
 70
     1
102
RTVSPropertyOp43
 70
     1
102
RTVSPropertyOp44
 70
     1
102
RTVSPropertyOp45
 70
     1
102
RTVSPropertyOp46
 70
     1
102
RTVSPropertyOp47
 70
     1
102
RTVSPropertyOp48
 70
     1
102
RTVSPropertyOp49
 70
     1
102
RTVSPropertyOp50
 70
     1
102
RTVSPropertyOp51
 70
     0
102
RTVSPropertyOp52
 70
     0
102
RTVSPropertyOp53
 70
     1
102
RTVSPropertyOp54
 70
     1
102
RTVSPropertyOp55
 70
     1
102
RTVSPropertyOp56
 70
     1
102
RTVSPropertyOp57
 70
     1
102
RTVSPropertyOp58
 70
     1
102
RTVSPropertyOp59
 70
     1
102
RTVSPropertyOp60
 70
     1
102
RTVSPropertyOp61
 70
     1
102
RTVSPropertyOp62
 70
     1
  0
XRECORD
  5
9ACB
102
{ACAD_REACTORS
330
9ACA
102
}
330
9ACA
100
AcDbXrecord
280
     1
102
RTVSPost2010Prop28
280
     0
102
RTVSPost2010PropOp28
 70
     1
102
RTVSPost2010Prop29
280
     1
102
RTVSPost2010PropOp29
 70
     1
102
RTVSPost2010Prop30
280
     1
102
RTVSPost2010PropOp30
 70
     1
102
RTVSPost2010Prop31
280
     0
102
RTVSPost2010PropOp31
 70
     1
102
RTVSPost2010Prop32
280
     0
102
RTVSPost2010PropOp32
 70
     1
102
RTVSPost2010Prop33
280
     0
102
RTVSPost2010PropOp33
 70
     1
102
RTVSPost2010Prop34
280
     0
102
RTVSPost2010PropOp34
 70
     1
102
RTVSPost2010Prop35
280
     0
102
RTVSPost2010PropOp35
 70
     1
102
RTVSPost2010Prop36
280
     0
102
RTVSPost2010PropOp36
 70
     1
102
RTVSPost2010Prop37
 90
       50
102
RTVSPost2010PropOp37
 70
     1
102
RTVSPost2010Prop38
140
0.0
102
RTVSPost2010PropOp38
 70
     1
102
RTVSPost2010Prop39
140
1.0
102
RTVSPost2010PropOp39
 70
     1
102
RTVSPost2010Prop40
 90
        0
102
RTVSPost2010PropOp40
 70
     1
102
RTVSPost2010Prop41ColorIndex
 90
       18
102
RTVSPost2010Prop41ColorRGB
 90
        0
102
RTVSPost2010PropOp41
 70
     1
102
RTVSPost2010Prop42
 90
       50
102
RTVSPost2010PropOp42
 70
     1
102
RTVSPost2010Prop43
 90
        3
102
RTVSPost2010PropOp43
 70
     1
102
RTVSPost2010Prop44ColorIndex
 90
        5
102
RTVSPost2010Prop44ColorRGB
 90
      255
102
RTVSPost2010PropOp44
 70
     1
102
RTVSPost2010Prop45
280
     0
102
RTVSPost2010PropOp45
 70
     1
102
RTVSPost2010Prop46
 90
       50
102
RTVSPost2010PropOp46
 70
     1
102
RTVSPost2010Prop47
 90
       50
102
RTVSPost2010PropOp47
 70
     1
102
RTVSPost2010Prop48
 90
       50
102
RTVSPost2010PropOp48
 70
     1
102
RTVSPost2010Prop49
280
     0
102
RTVSPost2010PropOp49
 70
     1
102
RTVSPost2010Prop50
 90
       50
102
RTVSPost2010PropOp50
 70
     1
102
RTVSPost2010Prop51ColorIndex
 90
      256
102
RTVSPost2010Prop51ColorRGB
 90
-16777216
102
RTVSPost2010PropOp51
 70
     0
102
RTVSPost2010Prop52
140
1.0
102
RTVSPost2010PropOp52
 70
     0
102
RTVSPost2010Prop53
 90
        2
102
RTVSPost2010PropOp53
 70
     1
102
RTVSPost2010Prop54
  1
strokes_ogs.tif
102
RTVSPost2010PropOp54
 70
     1
102
RTVSPost2010Prop55
280
     0
102
RTVSPost2010PropOp55
 70
     1
102
RTVSPost2010Prop56
140
1.0
102
RTVSPost2010PropOp56
 70
     1
102
RTVSPost2010Prop57
140
1.0
102
RTVSPost2010PropOp57
 70
     1
102
RTVSPropertyOp0
 70
     1
102
RTVSPropertyOp1
 70
     1
102
RTVSPropertyOp2
 70
     1
102
RTVSPropertyOp3
 70
     1
102
RTVSPropertyOp4
 70
     1
102
RTVSPropertyOp5
 70
     1
102
RTVSPropertyOp6
 70
     1
102
RTVSPropertyOp7
 70
     1
102
RTVSPropertyOp8
 70
     1
102
RTVSPropertyOp9
 70
     1
102
RTVSPropertyOp10
 70
     1
102
RTVSPropertyOp11
 70
     1
102
RTVSPropertyOp12
 70
     1
102
RTVSPropertyOp13
 70
     1
102
RTVSPropertyOp14
 70
     1
102
RTVSPropertyOp15
 70
     1
102
RTVSPropertyOp16
 70
     1
102
RTVSPropertyOp17
 70
     1
102
RTVSPropertyOp18
 70
     1
102
RTVSPropertyOp19
 70
     1
102
RTVSPropertyOp20
 70
     1
102
RTVSPropertyOp21
 70
     1
102
RTVSPropertyOp22
 70
     1
102
RTVSPropertyOp23
 70
     1
102
RTVSPropertyOp24
 70
     1
102
RTVSPropertyOp25
 70
     1
102
RTVSPropertyOp26
 70
     1
102
RTVSPropertyOp27
 70
     1
102
RTVSPropertyOp28
 70
     1
102
RTVSPropertyOp29
 70
     1
102
RTVSPropertyOp30
 70
     1
102
RTVSPropertyOp31
 70
     1
102
RTVSPropertyOp32
 70
     1
102
RTVSPropertyOp33
 70
     1
102
RTVSPropertyOp34
 70
     1
102
RTVSPropertyOp35
 70
     1
102
RTVSPropertyOp36
 70
     1
102
RTVSPropertyOp37
 70
     1
102
RTVSPropertyOp38
 70
     1
102
RTVSPropertyOp39
 70
     1
102
RTVSPropertyOp40
 70
     1
102
RTVSPropertyOp41
 70
     1
102
RTVSPropertyOp42
 70
     1
102
RTVSPropertyOp43
 70
     1
102
RTVSPropertyOp44
 70
     1
102
RTVSPropertyOp45
 70
     1
102
RTVSPropertyOp46
 70
     1
102
RTVSPropertyOp47
 70
     1
102
RTVSPropertyOp48
 70
     1
102
RTVSPropertyOp49
 70
     1
102
RTVSPropertyOp50
 70
     1
102
RTVSPropertyOp51
 70
     0
102
RTVSPropertyOp52
 70
     0
102
RTVSPropertyOp53
 70
     1
102
RTVSPropertyOp54
 70
     1
102
RTVSPropertyOp55
 70
     1
102
RTVSPropertyOp56
 70
     1
102
RTVSPropertyOp57
 70
     1
102
RTVSPropertyOp58
 70
     1
102
RTVSPropertyOp59
 70
     1
102
RTVSPropertyOp60
 70
     1
102
RTVSPropertyOp61
 70
     1
102
RTVSPropertyOp62
 70
     1
  0
ENDSEC
  0
EOF
