  0
SECTION
  2
HEADER
  9
$ACADVER
  1
AC1015
  9
$ACADMAINTVER
 70
    20
  9
$DWGCODEPAGE
  3
ANSI_932
  9
$INSBASE
 10
0.0
 20
0.0
 30
0.0
  9
$EXTMIN
 10
10.0
 20
9.999999999999998
 30
0.0
  9
$EXTMAX
 10
392.257645
 20
264.5254519999999
 30
0.0
  9
$LIMMIN
 10
0.0
 20
0.0
  9
$LIMMAX
 10
396.0
 20
273.0
  9
$ORTHOMODE
 70
     1
  9
$REGENMODE
 70
     1
  9
$FILLMODE
 70
     1
  9
$QTEXTMODE
 70
     0
  9
$MIRRTEXT
 70
     1
  9
$LTSCALE
 40
20.0
  9
$ATTMODE
 70
     1
  9
$TEXTSIZE
 40
5.0
  9
$TRACEWID
 40
1.0
  9
$TEXTSTYLE
  7
STANDARD
  9
$CLAYER
  8
0
  9
$CELTYPE
  6
BYLAYER
  9
$CECOLOR
 62
   256
  9
$CELTSCALE
 40
1.0
  9
$DISPSILH
 70
     0
  9
$DIMSCALE
 40
1.0
  9
$DIMASZ
 40
3.0
  9
$DIMEXO
 40
1.0
  9
$DIMDLI
 40
10.0
  9
$DIMRND
 40
0.0
  9
$DIMDLE
 40
0.0
  9
$DIMEXE
 40
1.0
  9
$DIMTP
 40
0.0
  9
$DIMTM
 40
0.0
  9
$DIMTXT
 40
3.2
  9
$DIMCEN
 40
0.0
  9
$DIMTSZ
 40
0.0
  9
$DIMTOL
 70
     0
  9
$DIMLIM
 70
     0
  9
$DIMTIH
 70
     0
  9
$DIMTOH
 70
     0
  9
$DIMSE1
 70
     0
  9
$DIMSE2
 70
     0
  9
$DIMTAD
 70
     3
  9
$DIMZIN
 70
     8
  9
$DIMBLK
  1

  9
$DIMASO
 70
     1
  9
$DIMSHO
 70
     1
  9
$DIMPOST
  1

  9
$DIMAPOST
  1

  9
$DIMALT
 70
     0
  9
$DIMALTD
 70
     2
  9
$DIMALTF
 40
25.4
  9
$DIMLFAC
 40
1.0
  9
$DIMTOFL
 70
     1
  9
$DIMTVP
 40
0.0
  9
$DIMTIX
 70
     0
  9
$DIMSOXD
 70
     0
  9
$DIMSAH
 70
     1
  9
$DIMBLK1
  1

  9
$DIMBLK2
  1

  9
$DIMSTYLE
  2
STANDARD
  9
$DIMCLRD
 70
     0
  9
$DIMCLRE
 70
     0
  9
$DIMCLRT
 70
     0
  9
$DIMTFAC
 40
1.0
  9
$DIMGAP
 40
1.0
  9
$DIMJUST
 70
     0
  9
$DIMSD1
 70
     0
  9
$DIMSD2
 70
     0
  9
$DIMTOLJ
 70
     1
  9
$DIMTZIN
 70
     0
  9
$DIMALTZ
 70
     0
  9
$DIMALTTZ
 70
     0
  9
$DIMUPT
 70
     0
  9
$DIMDEC
 70
     4
  9
$DIMTDEC
 70
     4
  9
$DIMALTU
 70
     2
  9
$DIMALTTD
 70
     2
  9
$DIMTXSTY
  7
STANDARD
  9
$DIMAUNIT
 70
     0
  9
$DIMADEC
 70
     0
  9
$DIMALTRND
 40
0.0
  9
$DIMAZIN
 70
     0
  9
$DIMDSEP
 70
    46
  9
$DIMATFIT
 70
     3
  9
$DIMFRAC
 70
     0
  9
$DIMLDRBLK
  1

  9
$DIMLUNIT
 70
     2
  9
$DIMLWD
 70
    -2
  9
$DIMLWE
 70
    -2
  9
$DIMTMOVE
 70
     0
  9
$LUNITS
 70
     2
  9
$LUPREC
 70
     4
  9
$SKETCHINC
 40
1.0
  9
$FILLETRAD
 40
0.0
  9
$AUNITS
 70
     0
  9
$AUPREC
 70
     2
  9
$MENU
  1
.
  9
$ELEVATION
 40
0.0
  9
$PELEVATION
 40
0.0
  9
$THICKNESS
 40
0.0
  9
$LIMCHECK
 70
     0
  9
$CHAMFERA
 40
10.0
  9
$CHAMFERB
 40
10.0
  9
$CHAMFERC
 40
0.0
  9
$CHAMFERD
 40
0.0
  9
$SKPOLY
 70
     0
  9
$TDCREATE
 40
2451073.679584722
  9
$TDUCREATE
 40
2451073.304584722
  9
$TDUPDATE
 40
2457192.599075348
  9
$TDUUPDATE
 40
2457192.224075348
  9
$TDINDWG
 40
0.0000172106
  9
$TDUSRTIMER
 40
0.0000168981
  9
$USRTIMER
 70
     1
  9
$ANGBASE
 50
0.0
  9
$ANGDIR
 70
     0
  9
$PDMODE
 70
     0
  9
$PDSIZE
 40
0.0
  9
$PLINEWID
 40
0.0
  9
$SPLFRAME
 70
     0
  9
$SPLINETYPE
 70
     6
  9
$SPLINESEGS
 70
     8
  9
$HANDSEED
  5
9F29
  9
$SURFTAB1
 70
     6
  9
$SURFTAB2
 70
     6
  9
$SURFTYPE
 70
     6
  9
$SURFU
 70
     6
  9
$SURFV
 70
     6
  9
$UCSBASE
  2

  9
$UCSNAME
  2

  9
$UCSORG
 10
0.0
 20
0.0
 30
0.0
  9
$UCSXDIR
 10
1.0
 20
0.0
 30
0.0
  9
$UCSYDIR
 10
0.0
 20
1.0
 30
0.0
  9
$UCSORTHOREF
  2

  9
$UCSORTHOVIEW
 70
     0
  9
$UCSORGTOP
 10
0.0
 20
0.0
 30
0.0
  9
$UCSORGBOTTOM
 10
0.0
 20
0.0
 30
0.0
  9
$UCSORGLEFT
 10
0.0
 20
0.0
 30
0.0
  9
$UCSORGRIGHT
 10
0.0
 20
0.0
 30
0.0
  9
$UCSORGFRONT
 10
0.0
 20
0.0
 30
0.0
  9
$UCSORGBACK
 10
0.0
 20
0.0
 30
0.0
  9
$PUCSBASE
  2

  9
$PUCSNAME
  2

  9
$PUCSORG
 10
0.0
 20
0.0
 30
0.0
  9
$PUCSXDIR
 10
1.0
 20
0.0
 30
0.0
  9
$PUCSYDIR
 10
0.0
 20
1.0
 30
0.0
  9
$PUCSORTHOREF
  2

  9
$PUCSORTHOVIEW
 70
     0
  9
$PUCSORGTOP
 10
0.0
 20
0.0
 30
0.0
  9
$PUCSORGBOTTOM
 10
0.0
 20
0.0
 30
0.0
  9
$PUCSORGLEFT
 10
0.0
 20
0.0
 30
0.0
  9
$PUCSORGRIGHT
 10
0.0
 20
0.0
 30
0.0
  9
$PUCSORGFRONT
 10
0.0
 20
0.0
 30
0.0
  9
$PUCSORGBACK
 10
0.0
 20
0.0
 30
0.0
  9
$USERI1
 70
     0
  9
$USERI2
 70
     0
  9
$USERI3
 70
     0
  9
$USERI4
 70
     0
  9
$USERI5
 70
     0
  9
$USERR1
 40
0.0
  9
$USERR2
 40
0.0
  9
$USERR3
 40
0.0
  9
$USERR4
 40
0.0
  9
$USERR5
 40
0.0
  9
$WORLDVIEW
 70
     1
  9
$SHADEDGE
 70
     3
  9
$SHADEDIF
 70
    70
  9
$TILEMODE
 70
     1
  9
$MAXACTVP
 70
    16
  9
$PINSBASE
 10
0.0
 20
0.0
 30
0.0
  9
$PLIMCHECK
 70
     0
  9
$PEXTMIN
 10
1.000000000000000E+20
 20
1.000000000000000E+20
 30
1.000000000000000E+20
  9
$PEXTMAX
 10
-1.000000000000000E+20
 20
-1.000000000000000E+20
 30
-1.000000000000000E+20
  9
$PLIMMIN
 10
0.0
 20
0.0
  9
$PLIMMAX
 10
420.0
 20
297.0
  9
$UNITMODE
 70
     0
  9
$VISRETAIN
 70
     0
  9
$PLINEGEN
 70
     0
  9
$PSLTSCALE
 70
     0
  9
$TREEDEPTH
 70
  3020
  9
$CMLSTYLE
  2
STANDARD
  9
$CMLJUST
 70
     0
  9
$CMLSCALE
 40
1.0
  9
$PROXYGRAPHICS
 70
     1
  9
$MEASUREMENT
 70
     0
  9
$CELWEIGHT
370
    -1
  9
$ENDCAPS
280
     0
  9
$JOINSTYLE
280
     0
  9
$LWDISPLAY
290
     0
  9
$INSUNITS
 70
     0
  9
$HYPERLINKBASE
  1

  9
$STYLESHEET
  1

  9
$XEDIT
290
     1
  9
$CEPSNTYPE
380
     0
  9
$PSTYLEMODE
290
     1
  9
$FINGERPRINTGUID
  2
{F16C07D2-733A-4707-BC3B-28CE41CB2C9C}
  9
$VERSIONGUID
  2
{BDB2A5FC-32D3-49A7-B4A8-2B352C8F21A9}
  9
$EXTNAMES
290
     1
  9
$PSVPSCALE
 40
0.0
  9
$OLESTARTUP
290
     0
  0
ENDSEC
  0
SECTION
  2
CLASSES
  0
CLASS
  1
ACDBDICTIONARYWDFLT
  2
AcDbDictionaryWithDefault
  3
ObjectDBX Classes
 90
        0
280
     0
281
     0
  0
CLASS
  1
ACDBPLACEHOLDER
  2
AcDbPlaceHolder
  3
ObjectDBX Classes
 90
        0
280
     0
281
     0
  0
CLASS
  1
LAYOUT
  2
AcDbLayout
  3
ObjectDBX Classes
 90
        0
280
     0
281
     0
  0
CLASS
  1
DICTIONARYVAR
  2
AcDbDictionaryVar
  3
ObjectDBX Classes
 90
        0
280
     0
281
     0
  0
CLASS
  1
MATERIAL
  2
AcDbMaterial
  3
ObjectDBX Classes
 90
     1153
280
     0
281
     0
  0
CLASS
  1
VISUALSTYLE
  2
AcDbVisualStyle
  3
ObjectDBX Classes
 90
     4095
280
     0
281
     0
  0
CLASS
  1
TABLESTYLE
  2
AcDbTableStyle
  3
ObjectDBX Classes
 90
     4095
280
     0
281
     0
  0
CLASS
  1
SCALE
  2
AcDbScale
  3
ObjectDBX Classes
 90
     1153
280
     0
281
     0
  0
CLASS
  1
MLEADERSTYLE
  2
AcDbMLeaderStyle
  3
ACDB_MLEADERSTYLE_CLASS
 90
     4095
280
     0
281
     0
  0
CLASS
  1
ACDBSECTIONVIEWSTYLE
  2
AcDbSectionViewStyle
  3
ObjectDBX Classes
 90
     1025
280
     0
281
     0
  0
CLASS
  1
ACDBDETAILVIEWSTYLE
  2
AcDbDetailViewStyle
  3
ObjectDBX Classes
 90
     1025
280
     0
281
     0
  0
CLASS
  1
CELLSTYLEMAP
  2
AcDbCellStyleMap
  3
ObjectDBX Classes
 90
     1152
280
     0
281
     0
  0
ENDSEC
  0
SECTION
  2
TABLES
  0
TABLE
  2
VPORT
  5
9A75
330
0
100
AcDbSymbolTable
 70
     1
  0
VPORT
  5
9E72
330
9A75
100
AcDbSymbolTableRecord
100
AcDbViewportTableRecord
  2
*ACTIVE
 70
     0
 10
0.0
 20
0.0
 11
1.0
 21
1.0
 12
278.2231656092337
 22
137.260231654579
 13
0.0
 23
0.0
 14
10.0
 24
10.0
 15
10.0
 25
10.0
 16
0.0
 26
0.0
 36
1.0
 17
0.0
 27
0.0
 37
0.0
 40
257.3889115531937
 41
1.899603698811096
 42
50.0
 43
0.0
 44
0.0
 50
0.0
 51
0.0
 71
     0
 72
   100
 73
     1
 74
     0
 75
     0
 76
     0
 77
     0
 78
     0
281
     0
 65
     1
110
0.0
120
0.0
130
0.0
111
1.0
121
0.0
131
0.0
112
0.0
122
1.0
132
0.0
 79
     0
146
0.0
1001
ACAD_NAV_VCDISPLAY
1070
     3
  0
ENDTAB
  0
TABLE
  2
LTYPE
  5
9A72
330
0
100
AcDbSymbolTable
 70
     4
  0
LTYPE
  5
9A80
330
9A72
100
AcDbSymbolTableRecord
100
AcDbLinetypeTableRecord
  2
BYBLOCK
 70
     0
  3

 72
    65
 73
     0
 40
0.0
  0
LTYPE
  5
9A81
330
9A72
100
AcDbSymbolTableRecord
100
AcDbLinetypeTableRecord
  2
BYLAYER
 70
     0
  3

 72
    65
 73
     0
 40
0.0
  0
LTYPE
  5
9A82
330
9A72
100
AcDbSymbolTableRecord
100
AcDbLinetypeTableRecord
  2
CONTINUOUS
 70
     0
  3
Solid line
 72
    65
 73
     0
 40
0.0
  0
LTYPE
  5
9A90
330
9A72
100
AcDbSymbolTableRecord
100
AcDbLinetypeTableRecord
  2
DASHED
 70
     0
  3
__ __ __ __ __ __ __ __ __ __ __ __ __ __ __ __
 72
    65
 73
     2
 40
0.75
 49
0.5
 74
     0
 49
-0.25
 74
     0
  0
LTYPE
  5
9A91
330
9A72
100
AcDbSymbolTableRecord
100
AcDbLinetypeTableRecord
  2
CENTER
 70
     0
  3
____ _ ____ _ ____ _ ____ _ ____ _ ____ _ ____ 
 72
    65
 73
     4
 40
2.0
 49
1.25
 74
     0
 49
-0.25
 74
     0
 49
0.25
 74
     0
 49
-0.25
 74
     0
  0
LTYPE
  5
9A92
330
9A72
100
AcDbSymbolTableRecord
100
AcDbLinetypeTableRecord
  2
PHANTOM
 70
     0
  3
______  __  __  ______  __  __  ______  __  __ 
 72
    65
 73
     6
 40
2.5
 49
1.25
 74
     0
 49
-0.25
 74
     0
 49
0.25
 74
     0
 49
-0.25
 74
     0
 49
0.25
 74
     0
 49
-0.25
 74
     0
  0
ENDTAB
  0
TABLE
  2
LAYER
  5
9A6F
330
0
100
AcDbSymbolTable
 70
     8
  0
LAYER
  5
9A7D
102
{ACAD_XDICTIONARY
360
9ECD
102
}
330
9A6F
100
AcDbSymbolTableRecord
100
AcDbLayerTableRecord
  2
0
 70
     0
 62
     7
  6
CONTINUOUS
370
    -3
390
9E7B
  0
LAYER
  5
9A93
102
{ACAD_XDICTIONARY
360
9ECF
102
}
330
9A6F
100
AcDbSymbolTableRecord
100
AcDbLayerTableRecord
  2
4
 70
     0
 62
     1
  6
CENTER
370
    -3
390
9E7B
  0
LAYER
  5
9A94
102
{ACAD_XDICTIONARY
360
9ED1
102
}
330
9A6F
100
AcDbSymbolTableRecord
100
AcDbLayerTableRecord
  2
5
 70
     0
 62
     6
  6
PHANTOM
370
    -3
390
9E7B
  0
LAYER
  5
9A95
102
{ACAD_XDICTIONARY
360
9ED3
102
}
330
9A6F
100
AcDbSymbolTableRecord
100
AcDbLayerTableRecord
  2
1
 70
     0
 62
     7
  6
CONTINUOUS
370
    -3
390
9E7B
  0
LAYER
  5
9A96
102
{ACAD_XDICTIONARY
360
9ED5
102
}
330
9A6F
100
AcDbSymbolTableRecord
100
AcDbLayerTableRecord
  2
2
 70
     0
 62
     4
  6
CONTINUOUS
370
    -3
390
9E7B
  0
LAYER
  5
9A97
102
{ACAD_XDICTIONARY
360
9ED7
102
}
330
9A6F
100
AcDbSymbolTableRecord
100
AcDbLayerTableRecord
  2
3
 70
     0
 62
     2
  6
DASHED
370
    -3
390
9E7B
  0
LAYER
  5
9A98
102
{ACAD_XDICTIONARY
360
9ED9
102
}
330
9A6F
100
AcDbSymbolTableRecord
100
AcDbLayerTableRecord
  2
6
 70
     0
 62
     5
  6
CONTINUOUS
370
    -3
390
9E7B
  0
LAYER
  5
9A99
102
{ACAD_XDICTIONARY
360
9EDB
102
}
330
9A6F
100
AcDbSymbolTableRecord
100
AcDbLayerTableRecord
  2
7
 70
     0
 62
     3
  6
CONTINUOUS
370
    -3
390
9E7B
  0
ENDTAB
  0
TABLE
  2
STYLE
  5
9A70
330
0
100
AcDbSymbolTable
 70
     1
  0
STYLE
  5
9A7E
330
9A70
100
AcDbSymbolTableRecord
100
AcDbTextStyleTableRecord
  2
STANDARD
 70
     0
 40
0.0
 41
1.0
 50
0.0
 71
     0
 42
5.0
  3
txt
  4

  0
ENDTAB
  0
TABLE
  2
VIEW
  5
9A73
330
0
100
AcDbSymbolTable
 70
     0
  0
ENDTAB
  0
TABLE
  2
UCS
  5
9A74
330
0
100
AcDbSymbolTable
 70
     0
  0
ENDTAB
  0
TABLE
  2
APPID
  5
9A76
330
0
100
AcDbSymbolTable
 70
     3
  0
APPID
  5
9A7F
330
9A76
100
AcDbSymbolTableRecord
100
AcDbRegAppTableRecord
  2
ACAD
 70
     0
  0
APPID
  5
9EE7
330
9A76
100
AcDbSymbolTableRecord
100
AcDbRegAppTableRecord
  2
ACAD_NAV_VCDISPLAY
 70
     0
  0
APPID
  5
9F20
330
9A76
100
AcDbSymbolTableRecord
100
AcDbRegAppTableRecord
  2
ACAD_MLEADERVER
 70
     0
  0
ENDTAB
  0
TABLE
  2
DIMSTYLE
  5
9A77
330
0
100
AcDbSymbolTable
 70
     1
100
AcDbDimStyleTable
 71
     0
  0
DIMSTYLE
105
9A9B
330
9A77
100
AcDbSymbolTableRecord
100
AcDbDimStyleTableRecord
  2
STANDARD
 70
     0
 41
3.0
 42
1.0
 43
10.0
 44
1.0
 73
     0
 74
     0
 77
     3
 78
     8
140
3.2
141
0.0
147
1.0
172
     1
173
     1
284
     8
285
     8
286
     8
340
9A7E
  0
ENDTAB
  0
TABLE
  2
BLOCK_RECORD
  5
9A6E
330
0
100
AcDbSymbolTable
 70
     0
  0
BLOCK_RECORD
  5
9A8B
102
{ACAD_XDICTIONARY
360
9E75
102
}
330
9A6E
100
AcDbSymbolTableRecord
100
AcDbBlockTableRecord
  2
*MODEL_SPACE
340
9EC9
  0
BLOCK_RECORD
  5
9A87
102
{ACAD_XDICTIONARY
360
9E73
102
}
330
9A6E
100
AcDbSymbolTableRecord
100
AcDbBlockTableRecord
  2
*PAPER_SPACE
340
9ECA
  0
ENDTAB
  0
ENDSEC
  0
SECTION
  2
BLOCKS
  0
BLOCK
  5
9A8C
330
9A8B
100
AcDbEntity
  8
0
100
AcDbBlockBegin
  2
*MODEL_SPACE
 70
     0
 10
0.0
 20
0.0
 30
0.0
  3
*MODEL_SPACE
  1

  0
ENDBLK
  5
9A8D
330
9A8B
100
AcDbEntity
  8
0
100
AcDbBlockEnd
  0
BLOCK
  5
9A88
330
9A87
100
AcDbEntity
 67
     1
  8
0
100
AcDbBlockBegin
  2
*PAPER_SPACE
 70
     0
 10
0.0
 20
0.0
 30
0.0
  3
*PAPER_SPACE
  1

  0
ENDBLK
  5
9A89
330
9A87
100
AcDbEntity
 67
     1
  8
0
100
AcDbBlockEnd
  0
ENDSEC
  0
SECTION
  2
ENTITIES
  0
TEXT
  5
9AA3
330
9A8B
100
AcDbEntity
  8
7
  6
Continuous
100
AcDbText
 10
10.0
 20
18.0
 30
0.0
 40
3.0
  1
TYPE No.TL-155
100
AcDbText
  0
TEXT
  5
9AA4
330
9A8B
100
AcDbEntity
  8
7
  6
Continuous
100
AcDbText
 10
10.0
 20
26.0
 30
0.0
 40
3.0
  1
CODE No.1525
100
AcDbText
  0
TEXT
  5
9AA5
330
9A8B
100
AcDbEntity
  8
1
  6
Continuous
100
AcDbText
 10
10.0
 20
10.0
 30
0.0
 40
1.399999999999999
  1
LAYER
100
AcDbText
  0
TEXT
  5
9AA6
330
9A8B
100
AcDbEntity
  8
1
  6
Continuous
100
AcDbText
 10
17.97951099999998
 20
10.04873699999998
 30
0.0
 40
1.399999999999999
  1
1
100
AcDbText
  0
TEXT
  5
9AA7
330
9A8B
100
AcDbEntity
  8
7
  6
Continuous
100
AcDbText
 10
29.97951099999999
 20
10.04873699999998
 30
0.0
 40
1.399999999999999
  1
7
100
AcDbText
  0
TEXT
  5
9AA8
330
9A8B
100
AcDbEntity
  8
4
  6
CENTER
100
AcDbText
 10
23.97951099999999
 20
10.04873699999998
 30
0.0
 40
1.399999999999999
  1
4
100
AcDbText
  0
TEXT
  5
9AA9
330
9A8B
100
AcDbEntity
  8
3
  6
DASHED
100
AcDbText
 10
21.979511
 20
10.04873699999998
 30
0.0
 40
1.399999999999999
  1
3
100
AcDbText
  0
TEXT
  5
9AAA
330
9A8B
100
AcDbEntity
  8
2
  6
Continuous
100
AcDbText
 10
19.97951099999999
 20
10.04873699999998
 30
0.0
 40
1.399999999999999
  1
2
100
AcDbText
  0
TEXT
  5
9AAB
330
9A8B
100
AcDbEntity
  8
6
  6
Continuous
100
AcDbText
 10
27.979511
 20
10.04873699999998
 30
0.0
 40
1.399999999999999
  1
6
100
AcDbText
  0
TEXT
  5
9AAC
330
9A8B
100
AcDbEntity
  8
5
  6
PHANTOM
100
AcDbText
 10
25.97951099999999
 20
10.04873699999998
 30
0.0
 40
1.399999999999999
  1
5
100
AcDbText
  0
LINE
  5
9AAD
330
9A8B
100
AcDbEntity
  8
4
  6
CENTER
100
AcDbLine
 10
11.74659799999999
 20
242.5218509999999
 30
0.0
 11
53.389901
 21
242.5218509999999
 31
0.0
  0
LINE
  5
9AAE
330
9A8B
100
AcDbEntity
  8
1
  6
Continuous
100
AcDbLine
 10
14.154198
 20
245.5218509999999
 30
0.0
 11
14.154198
 21
239.5218509999998
 31
0.0
  0
LINE
  5
9AAF
330
9A8B
100
AcDbEntity
  8
1
  6
Continuous
100
AcDbLine
 10
20.654198
 20
233.0218509999999
 30
0.0
 11
29.65419799999999
 21
233.0218509999999
 31
0.0
  0
LINE
  5
9AB0
330
9A8B
100
AcDbEntity
  8
1
  6
Continuous
100
AcDbLine
 10
33.654198
 20
252.0218509999998
 30
0.0
 11
20.654198
 21
252.0218509999998
 31
0.0
  0
LINE
  5
9AB1
330
9A8B
100
AcDbEntity
  8
1
  6
Continuous
100
AcDbLine
 10
36.154198
 20
246.4218439999999
 30
0.0
 11
36.154198
 21
247.321838
 31
0.0
  0
LINE
  5
9AB2
330
9A8B
100
AcDbEntity
  8
1
  6
Continuous
100
AcDbLine
 10
33.65419399999999
 20
252.0218199999999
 30
0.0
 11
42.82410099999998
 21
249.904816
 31
0.0
  0
LINE
  5
9AB3
330
9A8B
100
AcDbEntity
  8
1
  6
Continuous
100
AcDbLine
 10
36.154198
 20
247.321838
 30
0.0
 11
50.154198
 21
247.321838
 31
0.0
  0
LINE
  5
9AB4
330
9A8B
100
AcDbEntity
  8
1
  6
Continuous
100
AcDbLine
 10
47.25419699999998
 20
248.2218319999998
 30
0.0
 11
47.25419699999998
 21
247.321838
 31
0.0
  0
LINE
  5
9AB5
330
9A8B
100
AcDbEntity
  8
1
  6
Continuous
100
AcDbLine
 10
47.25419699999998
 20
248.2218319999998
 30
0.0
 11
49.154198
 21
248.2218319999998
 31
0.0
  0
LINE
  5
9AB6
330
9A8B
100
AcDbEntity
  8
1
  6
Continuous
100
AcDbLine
 10
48.754212
 20
247.321838
 30
0.0
 11
49.154213
 21
247.429047
 31
0.0
  0
LINE
  5
9AB7
330
9A8B
100
AcDbEntity
  8
1
  6
Continuous
100
AcDbLine
 10
49.154198
 20
247.429047
 30
0.0
 11
49.154198
 21
248.2218319999998
 31
0.0
  0
LINE
  5
9AB8
330
9A8B
100
AcDbEntity
  8
1
  6
Continuous
100
AcDbLine
 10
16.754197
 20
245.0218509999999
 30
0.0
 11
16.754197
 21
240.0218509999999
 31
0.0
  0
LINE
  5
9AB9
330
9A8B
100
AcDbEntity
  8
1
  6
Continuous
100
AcDbLine
 10
20.5542
 20
240.0218509999999
 30
0.0
 11
20.5542
 21
245.0218509999999
 31
0.0
  0
LINE
  5
9ABA
330
9A8B
100
AcDbEntity
  8
1
  6
Continuous
100
AcDbLine
 10
19.5542
 20
246.0218509999999
 30
0.0
 11
17.754197
 21
246.0218509999999
 31
0.0
  0
LINE
  5
9ABB
330
9A8B
100
AcDbEntity
  8
1
  6
Continuous
100
AcDbLine
 10
43.754197
 20
248.735535
 30
0.0
 11
43.754197
 21
247.321838
 31
0.0
  0
LINE
  5
9ABC
330
9A8B
100
AcDbEntity
  8
1
  6
Continuous
100
AcDbLine
 10
50.154198
 20
237.7218479999999
 30
0.0
 11
37.35419499999999
 21
237.7218479999999
 31
0.0
  0
LINE
  5
9ABD
330
9A8B
100
AcDbEntity
  8
1
  6
Continuous
100
AcDbLine
 10
30.354195
 20
240.8014529999999
 30
0.0
 11
30.354195
 21
244.24234
 31
0.0
  0
LINE
  5
9ABE
330
9A8B
100
AcDbEntity
  8
1
  6
Continuous
100
AcDbLine
 10
50.35419499999999
 20
247.1218259999999
 30
0.0
 11
50.35419499999999
 21
237.9218439999999
 31
0.0
  0
LINE
  5
9ABF
330
9A8B
100
AcDbEntity
  8
1
  6
Continuous
100
AcDbLine
 10
37.154198
 20
246.4218439999999
 30
0.0
 11
37.154198
 21
238.621841
 31
0.0
  0
LINE
  5
9AC0
330
9A8B
100
AcDbEntity
  8
1
  6
Continuous
100
AcDbLine
 10
33.85419499999999
 20
246.4218439999999
 30
0.0
 11
37.154198
 21
246.4218439999999
 31
0.0
  0
LINE
  5
9AC1
330
9A8B
100
AcDbEntity
  8
1
  6
Continuous
100
AcDbLine
 10
33.85419499999999
 20
238.621841
 30
0.0
 11
37.154198
 21
238.621841
 31
0.0
  0
LINE
  5
9AC2
330
9A8B
100
AcDbEntity
  8
1
  6
Continuous
100
AcDbLine
 10
50.154198
 20
237.7218479999999
 30
0.0
 11
50.35420999999999
 21
237.92186
 31
0.0
  0
LINE
  5
9AC3
330
9A8B
100
AcDbEntity
  8
1
  6
Continuous
100
AcDbLine
 10
50.154221
 20
247.321838
 30
0.0
 11
50.35420999999999
 21
247.121857
 31
0.0
  0
LINE
  5
9AC4
330
9A8B
100
AcDbEntity
  8
1
  6
Continuous
100
AcDbLine
 10
37.154202
 20
237.9218439999999
 30
0.0
 11
37.35420999999997
 21
237.7218479999999
 31
0.0
  0
LINE
  5
9AC5
330
9A8B
100
AcDbEntity
  8
1
  6
Continuous
100
AcDbLine
 10
37.154202
 20
247.121857
 30
0.0
 11
37.354199
 21
247.321838
 31
0.0
  0
LINE
  5
9AC6
330
9A8B
100
AcDbEntity
  8
1
  6
Continuous
100
AcDbLine
 10
37.154198
 20
237.9218439999999
 30
0.0
 11
37.154198
 21
238.621841
 31
0.0
  0
LINE
  5
9AC7
330
9A8B
100
AcDbEntity
  8
1
  6
Continuous
100
AcDbLine
 10
37.154198
 20
247.1218259999999
 30
0.0
 11
37.154198
 21
246.4218439999999
 31
0.0
  0
LINE
  5
9AC8
330
9A8B
100
AcDbEntity
  8
1
  6
Continuous
100
AcDbLine
 10
17.754197
 20
239.0218509999999
 30
0.0
 11
19.5542
 21
239.0218509999999
 31
0.0
  0
LINE
  5
9AC9
330
9A8B
100
AcDbEntity
  8
1
  6
Continuous
100
AcDbLine
 10
21.616135
 20
242.244415
 30
0.0
 11
25.49227899999999
 21
242.244415
 31
0.0
  0
LINE
  5
9ACA
330
9A8B
100
AcDbEntity
  8
1
  6
Continuous
100
AcDbLine
 10
21.662369
 20
241.68956
 30
0.0
 11
25.446045
 21
241.68956
 31
0.0
  0
LINE
  5
9ACB
330
9A8B
100
AcDbEntity
  8
1
  6
Continuous
100
AcDbLine
 10
25.281388
 20
241.13356
 30
0.0
 11
24.220154
 21
241.13356
 31
0.0
  0
LINE
  5
9ACC
330
9A8B
100
AcDbEntity
  8
1
  6
Continuous
100
AcDbLine
 10
22.111222
 20
240.577576
 30
0.0
 11
24.997193
 21
240.577576
 31
0.0
  0
LINE
  5
9ACD
330
9A8B
100
AcDbEntity
  8
1
  6
Continuous
100
AcDbLine
 10
23.553635
 20
242.244415
 30
0.0
 11
23.553635
 21
241.68956
 31
0.0
  0
LINE
  5
9ACE
330
9A8B
100
AcDbEntity
  8
1
  6
Continuous
100
AcDbLine
 10
22.887131
 20
241.13356
 30
0.0
 11
21.82702699999999
 21
241.13356
 31
0.0
  0
LINE
  5
9ACF
330
9A8B
100
AcDbEntity
  8
1
  6
Continuous
100
AcDbLine
 10
22.18339599999999
 20
240.0227049999998
 30
0.0
 11
24.923874
 21
240.0227049999998
 31
0.0
  0
LINE
  5
9AD0
330
9A8B
100
AcDbEntity
  8
1
  6
Continuous
100
AcDbLine
 10
24.578782
 20
239.466721
 30
0.0
 11
22.529618
 21
239.466721
 31
0.0
  0
LINE
  5
9AD1
330
9A8B
100
AcDbEntity
  8
1
  6
Continuous
100
AcDbLine
 10
22.030014
 20
238.9118499999999
 30
0.0
 11
24.4254
 21
238.9118499999999
 31
0.0
  0
LINE
  5
9AD2
330
9A8B
100
AcDbEntity
  8
1
  6
Continuous
100
AcDbLine
 10
21.72778399999998
 20
244.466125
 30
0.0
 11
25.205826
 21
244.466125
 31
0.0
  0
LINE
  5
9AD3
330
9A8B
100
AcDbEntity
  8
1
  6
Continuous
100
AcDbLine
 10
25.12237600000001
 20
243.91127
 30
0.0
 11
23.553635
 21
243.91127
 31
0.0
  0
LINE
  5
9AD4
330
9A8B
100
AcDbEntity
  8
1
  6
Continuous
100
AcDbLine
 10
21.725525
 20
243.3552699999999
 30
0.0
 11
25.38288899999999
 21
243.3552699999999
 31
0.0
  0
LINE
  5
9AD5
330
9A8B
100
AcDbEntity
  8
1
  6
Continuous
100
AcDbLine
 10
21.616135
 20
242.800415
 30
0.0
 11
25.49227899999999
 21
242.800415
 31
0.0
  0
LINE
  5
9AD6
330
9A8B
100
AcDbEntity
  8
1
  6
Continuous
100
AcDbLine
 10
23.553635
 20
247.2866819999999
 30
0.0
 11
23.553635
 21
246.1386109999998
 31
0.0
  0
LINE
  5
9AD7
330
9A8B
100
AcDbEntity
  8
1
  6
Continuous
100
AcDbLine
 10
24.593453
 20
245.8600619999999
 30
0.0
 11
22.252202
 21
246.48822
 31
0.0
  0
LINE
  5
9AD8
330
9A8B
100
AcDbEntity
  8
1
  6
Continuous
100
AcDbLine
 10
23.553635
 20
245.2995449999999
 30
0.0
 11
24.88665799999999
 21
245.2995449999999
 31
0.0
  0
LINE
  5
9AD9
330
9A8B
100
AcDbEntity
  8
1
  6
Continuous
100
AcDbLine
 10
23.2762
 20
245.57811
 30
0.0
 11
22.08979799999999
 21
245.57811
 31
0.0
  0
LINE
  5
9ADA
330
9A8B
100
AcDbEntity
  8
1
  6
Continuous
100
AcDbLine
 10
21.989426
 20
245.0221249999999
 30
0.0
 11
23.2762
 21
245.0221249999999
 31
0.0
  0
LINE
  5
9ADB
330
9A8B
100
AcDbEntity
  8
1
  6
Continuous
100
AcDbLine
 10
23.553635
 20
243.91127
 30
0.0
 11
23.553635
 21
243.633835
 31
0.0
  0
LINE
  5
9ADC
330
9A8B
100
AcDbEntity
  8
1
  6
Continuous
100
AcDbLine
 10
22.887131
 20
243.91127
 30
0.0
 11
21.986039
 21
243.91127
 31
0.0
  0
LINE
  5
9ADD
330
9A8B
100
AcDbEntity
  8
4
  6
CENTER
100
AcDbLine
 10
50.0542
 20
142.2718509999999
 30
0.0
 11
17.0542
 21
142.2718509999999
 31
0.0
  0
LINE
  5
9ADE
330
9A8B
100
AcDbEntity
  8
4
  6
CENTER
100
AcDbLine
 10
33.5542
 20
155.271851
 30
0.0
 11
33.5542
 21
125.7718509999999
 31
0.0
  0
LINE
  5
9ADF
330
9A8B
100
AcDbEntity
  8
1
  6
Continuous
100
AcDbLine
 10
32.654198
 20
148.4468379999998
 30
0.0
 11
32.654198
 21
146.986725
 31
0.0
  0
LINE
  5
9AE0
330
9A8B
100
AcDbEntity
  8
1
  6
Continuous
100
AcDbLine
 10
34.454197
 20
148.4468379999998
 30
0.0
 11
34.454197
 21
146.986725
 31
0.0
  0
LINE
  5
9AE1
330
9A8B
100
AcDbEntity
  8
1
  6
Continuous
100
AcDbLine
 10
32.654198
 20
148.4468379999998
 30
0.0
 11
34.454197
 21
148.4468379999998
 31
0.0
  0
LINE
  5
9AE2
330
9A8B
100
AcDbEntity
  8
1
  6
Continuous
100
AcDbLine
 10
32.654198
 20
144.646851
 30
0.0
 11
34.454197
 21
144.646851
 31
0.0
  0
LINE
  5
9AE3
330
9A8B
100
AcDbEntity
  8
1
  6
Continuous
100
AcDbLine
 10
32.654198
 20
145.912247
 30
0.0
 11
32.654198
 21
144.646851
 31
0.0
  0
LINE
  5
9AE4
330
9A8B
100
AcDbEntity
  8
1
  6
Continuous
100
AcDbLine
 10
34.454197
 20
145.912247
 30
0.0
 11
34.454197
 21
144.646851
 31
0.0
  0
LINE
  5
9AE5
330
9A8B
100
AcDbEntity
  8
1
  6
Continuous
100
AcDbLine
 10
90.55419999999999
 20
154.9735409999998
 30
0.0
 11
92.571717
 21
154.9735409999998
 31
0.0
  0
LINE
  5
9AE6
330
9A8B
100
AcDbEntity
  8
1
  6
Continuous
100
AcDbLine
 10
90.55419999999999
 20
154.9735409999998
 30
0.0
 11
90.55419999999999
 21
129.570129
 31
0.0
  0
LINE
  5
9AE7
330
9A8B
100
AcDbEntity
  8
1
  6
Continuous
100
AcDbLine
 10
93.5542
 20
153.271851
 30
0.0
 11
93.5542
 21
131.271851
 31
0.0
  0
LINE
  5
9AE8
330
9A8B
100
AcDbEntity
  8
1
  6
Continuous
100
AcDbLine
 10
90.55419999999999
 20
148.6226959999999
 30
0.0
 11
92.571717
 21
148.6226959999999
 31
0.0
  0
LINE
  5
9AE9
330
9A8B
100
AcDbEntity
  8
1
  6
Continuous
100
AcDbLine
 10
90.55419999999999
 20
135.9209899999999
 30
0.0
 11
92.571717
 21
135.9209899999999
 31
0.0
  0
LINE
  5
9AEA
330
9A8B
100
AcDbEntity
  8
1
  6
Continuous
100
AcDbLine
 10
90.55419999999999
 20
129.570129
 30
0.0
 11
92.571717
 21
129.570129
 31
0.0
  0
LINE
  5
9AEB
330
9A8B
100
AcDbEntity
  8
1
  6
Continuous
100
AcDbLine
 10
92.571717
 20
129.570129
 30
0.0
 11
93.5542
 21
131.271851
 31
0.0
  0
LINE
  5
9AEC
330
9A8B
100
AcDbEntity
  8
1
  6
Continuous
100
AcDbLine
 10
92.571709
 20
154.9735409999998
 30
0.0
 11
93.55418400000001
 21
153.271835
 31
0.0
  0
LINE
  5
9AED
330
9A8B
100
AcDbEntity
  8
4
  6
CENTER
100
AcDbLine
 10
86.850739
 20
142.2718509999999
 30
0.0
 11
97.01590000000001
 21
142.2718509999999
 31
0.0
  0
LINE
  5
9AEE
330
9A8B
100
AcDbEntity
  8
1
  6
Continuous
100
AcDbLine
 10
128.854203
 20
229.5218509999999
 30
0.0
 11
129.854203
 21
229.5218509999999
 31
0.0
  0
LINE
  5
9AEF
330
9A8B
100
AcDbEntity
  8
1
  6
Continuous
100
AcDbLine
 10
128.854203
 20
255.5218509999999
 30
0.0
 11
129.854203
 21
255.5218509999999
 31
0.0
  0
LINE
  5
9AF0
330
9A8B
100
AcDbEntity
  8
1
  6
Continuous
100
AcDbLine
 10
123.5541999999998
 20
253.5218509999999
 30
0.0
 11
123.5541999999998
 21
231.5218509999999
 31
0.0
  0
LINE
  5
9AF1
330
9A8B
100
AcDbEntity
  8
1
  6
Continuous
100
AcDbLine
 10
129.854203
 20
255.5218509999999
 30
0.0
 11
129.854203
 21
229.5218509999999
 31
0.0
  0
LINE
  5
9AF2
330
9A8B
100
AcDbEntity
  8
1
  6
Continuous
100
AcDbLine
 10
128.854203
 20
255.5218509999999
 30
0.0
 11
128.854203
 21
229.5218509999999
 31
0.0
  0
LINE
  5
9AF3
330
9A8B
100
AcDbEntity
  8
1
  6
Continuous
100
AcDbLine
 10
128.854203
 20
255.5218509999999
 30
0.0
 11
123.5541999999998
 21
253.5218509999999
 31
0.0
  0
LINE
  5
9AF4
330
9A8B
100
AcDbEntity
  8
1
  6
Continuous
100
AcDbLine
 10
123.5541999999998
 20
231.521835
 30
0.0
 11
128.854203
 21
229.521835
 31
0.0
  0
LINE
  5
9AF5
330
9A8B
100
AcDbEntity
  8
4
  6
CENTER
100
AcDbLine
 10
118.5739749999999
 20
242.5218509999999
 30
0.0
 11
162.590561
 21
242.5218509999999
 31
0.0
  0
LINE
  5
9AF6
330
9A8B
100
AcDbEntity
  8
1
  6
Continuous
100
AcDbLine
 10
157.5542
 20
245.2218479999999
 30
0.0
 11
157.5542
 21
239.821854
 31
0.0
  0
LINE
  5
9AF7
330
9A8B
100
AcDbEntity
  8
1
  6
Continuous
100
AcDbLine
 10
129.854203
 20
250.4218509999998
 30
0.0
 11
137.254197
 21
250.4218509999998
 31
0.0
  0
LINE
  5
9AF8
330
9A8B
100
AcDbEntity
  8
1
  6
Continuous
100
AcDbLine
 10
129.854203
 20
234.6218509999999
 30
0.0
 11
137.254197
 21
234.6218509999999
 31
0.0
  0
LINE
  5
9AF9
330
9A8B
100
AcDbEntity
  8
1
  6
Continuous
100
AcDbLine
 10
137.254197
 20
157.7718509999999
 30
0.0
 11
137.254197
 21
129.271851
 31
0.0
  0
LINE
  5
9AFA
330
9A8B
100
AcDbEntity
  8
1
  6
Continuous
100
AcDbLine
 10
33.3042
 20
172.2718509999999
 30
0.0
 11
14.30419999999998
 21
172.2718509999999
 31
0.0
  0
LINE
  5
9AFB
330
9A8B
100
AcDbEntity
  8
1
  6
Continuous
100
AcDbLine
 10
33.5542
 20
169.771851
 30
0.0
 11
33.5542
 21
155.271851
 31
0.0
  0
LINE
  5
9AFC
330
9A8B
100
AcDbEntity
  8
1
  6
Continuous
100
AcDbLine
 10
13.5542
 20
169.771851
 30
0.0
 11
13.5542
 21
157.7718509999999
 31
0.0
  0
LINE
  5
9AFD
330
9A8B
100
AcDbEntity
  8
1
  6
Continuous
100
AcDbLine
 10
33.5542
 20
169.771851
 30
0.0
 11
13.5542
 21
169.771851
 31
0.0
  0
LINE
  5
9AFE
330
9A8B
100
AcDbEntity
  8
4
  6
CENTER
100
AcDbLine
 10
30.5542
 20
164.7718509999999
 30
0.0
 11
26.5542
 21
164.7718509999999
 31
0.0
  0
LINE
  5
9AFF
330
9A8B
100
AcDbEntity
  8
4
  6
CENTER
100
AcDbLine
 10
28.5542
 20
166.771851
 30
0.0
 11
28.5542
 21
162.771851
 31
0.0
  0
LINE
  5
9B00
330
9A8B
100
AcDbEntity
  8
4
  6
CENTER
100
AcDbLine
 10
21.0542
 20
164.7718509999999
 30
0.0
 11
17.0542
 21
164.7718509999999
 31
0.0
  0
LINE
  5
9B01
330
9A8B
100
AcDbEntity
  8
4
  6
CENTER
100
AcDbLine
 10
19.0542
 20
166.771851
 30
0.0
 11
19.0542
 21
162.771851
 31
0.0
  0
LINE
  5
9B02
330
9A8B
100
AcDbEntity
  8
1
  6
Continuous
100
AcDbLine
 10
33.3042
 20
172.2718509999999
 30
0.0
 11
33.3042
 21
169.771851
 31
0.0
  0
LINE
  5
9B03
330
9A8B
100
AcDbEntity
  8
1
  6
Continuous
100
AcDbLine
 10
14.30419999999998
 20
172.2718509999999
 30
0.0
 11
14.30419999999998
 21
169.771851
 31
0.0
  0
LINE
  5
9B04
330
9A8B
100
AcDbEntity
  8
4
  6
CENTER
100
AcDbLine
 10
220.0541999999999
 20
142.2718509999999
 30
0.0
 11
253.054184
 21
142.2718509999999
 31
0.0
  0
LINE
  5
9B05
330
9A8B
100
AcDbEntity
  8
1
  6
Continuous
100
AcDbLine
 10
240.220841
 20
135.1615909999999
 30
0.0
 11
249.699997
 21
140.049881
 31
0.0
  0
LINE
  5
9B06
330
9A8B
100
AcDbEntity
  8
1
  6
Continuous
100
AcDbLine
 10
143.254197
 20
169.771851
 30
0.0
 11
145.254197
 21
169.771851
 31
0.0
  0
LINE
  5
9B07
330
9A8B
100
AcDbEntity
  8
1
  6
Continuous
100
AcDbLine
 10
145.254197
 20
172.2718509999999
 30
0.0
 11
145.5041939999999
 21
172.2718509999999
 31
0.0
  0
LINE
  5
9B08
330
9A8B
100
AcDbEntity
  8
4
  6
CENTER
100
AcDbLine
 10
141.016129
 20
164.7718509999999
 30
0.0
 11
156.8668519999999
 21
164.7718509999999
 31
0.0
  0
LINE
  5
9B09
330
9A8B
100
AcDbEntity
  8
1
  6
Continuous
100
AcDbLine
 10
139.254197
 20
157.7718509999999
 30
0.0
 11
139.254197
 21
129.271851
 31
0.0
  0
LINE
  5
9B0A
330
9A8B
100
AcDbEntity
  8
1
  6
Continuous
100
AcDbLine
 10
145.254197
 20
172.2718509999999
 30
0.0
 11
145.254197
 21
157.7718509999999
 31
0.0
  0
LINE
  5
9B0B
330
9A8B
100
AcDbEntity
  8
1
  6
Continuous
100
AcDbLine
 10
143.254197
 20
169.771851
 30
0.0
 11
143.254197
 21
159.7718509999999
 31
0.0
  0
LINE
  5
9B0C
330
9A8B
100
AcDbEntity
  8
1
  6
Continuous
100
AcDbLine
 10
137.254197
 20
129.271851
 30
0.0
 11
139.254197
 21
129.271851
 31
0.0
  0
LINE
  5
9B0D
330
9A8B
100
AcDbEntity
  8
1
  6
Continuous
100
AcDbLine
 10
139.254197
 20
157.7718509999999
 30
0.0
 11
143.254197
 21
157.7718509999999
 31
0.0
  0
LINE
  5
9B0E
330
9A8B
100
AcDbEntity
  8
1
  6
Continuous
100
AcDbLine
 10
139.254197
 20
159.7718509999999
 30
0.0
 11
143.254197
 21
159.7718509999999
 31
0.0
  0
LINE
  5
9B0F
330
9A8B
100
AcDbEntity
  8
1
  6
Continuous
100
AcDbLine
 10
33.5542
 20
159.7718509999999
 30
0.0
 11
13.5542
 21
159.7718509999999
 31
0.0
  0
LINE
  5
9B10
330
9A8B
100
AcDbEntity
  8
1
  6
Continuous
100
AcDbLine
 10
13.554196
 20
157.7718509999999
 30
0.0
 11
21.44295899999999
 21
137.547653
 31
0.0
  0
LINE
  5
9B11
330
9A8B
100
AcDbEntity
  8
1
  6
Continuous
100
AcDbLine
 10
145.5041939999999
 20
172.2718509999999
 30
0.0
 11
145.5041939999999
 21
156.1218409999999
 31
0.0
  0
LINE
  5
9B12
330
9A8B
100
AcDbEntity
  8
1
  6
Continuous
100
AcDbLine
 10
145.254197
 20
157.7718509999999
 30
0.0
 11
145.5041939999999
 21
157.7718509999999
 31
0.0
  0
LINE
  5
9B13
330
9A8B
100
AcDbEntity
  8
1
  6
Continuous
100
AcDbLine
 10
142.754197
 20
153.271851
 30
0.0
 11
142.754197
 21
131.271851
 31
0.0
  0
LINE
  5
9B14
330
9A8B
100
AcDbEntity
  8
1
  6
Continuous
100
AcDbLine
 10
139.254197
 20
129.570129
 30
0.0
 11
141.771714
 21
129.570129
 31
0.0
  0
LINE
  5
9B15
330
9A8B
100
AcDbEntity
  8
1
  6
Continuous
100
AcDbLine
 10
139.254197
 20
135.9209899999999
 30
0.0
 11
141.771714
 21
135.9209899999999
 31
0.0
  0
LINE
  5
9B16
330
9A8B
100
AcDbEntity
  8
1
  6
Continuous
100
AcDbLine
 10
139.254197
 20
148.6226959999999
 30
0.0
 11
141.771714
 21
148.6226959999999
 31
0.0
  0
LINE
  5
9B17
330
9A8B
100
AcDbEntity
  8
1
  6
Continuous
100
AcDbLine
 10
139.254197
 20
154.9735409999998
 30
0.0
 11
141.771714
 21
154.9735409999998
 31
0.0
  0
LINE
  5
9B18
330
9A8B
100
AcDbEntity
  8
1
  6
Continuous
100
AcDbLine
 10
141.771714
 20
129.570129
 30
0.0
 11
142.754197
 21
131.271835
 31
0.0
  0
LINE
  5
9B19
330
9A8B
100
AcDbEntity
  8
1
  6
Continuous
100
AcDbLine
 10
141.771714
 20
154.9735569999998
 30
0.0
 11
142.754197
 21
153.271851
 31
0.0
  0
LINE
  5
9B1A
330
9A8B
100
AcDbEntity
  8
1
  6
Continuous
100
AcDbLine
 10
145.7541939999998
 20
168.171844
 30
0.0
 11
151.7541939999999
 21
168.171844
 31
0.0
  0
LINE
  5
9B1B
330
9A8B
100
AcDbEntity
  8
1
  6
Continuous
100
AcDbLine
 10
147.1542029999999
 20
171.671844
 30
0.0
 11
150.3541999999999
 21
171.671844
 31
0.0
  0
LINE
  5
9B1C
330
9A8B
100
AcDbEntity
  8
1
  6
Continuous
100
AcDbLine
 10
152.0041939999998
 20
167.971848
 30
0.0
 11
152.0041939999998
 21
162.521851
 31
0.0
  0
LINE
  5
9B1D
330
9A8B
100
AcDbEntity
  8
4
  6
CENTER
100
AcDbLine
 10
148.7541939999998
 20
173.6636349999999
 30
0.0
 11
148.7541939999998
 21
152.30098
 31
0.0
  0
LINE
  5
9B1E
330
9A8B
100
AcDbEntity
  8
1
  6
Continuous
100
AcDbLine
 10
145.7541939999998
 20
168.6718439999999
 30
0.0
 11
145.7541939999998
 21
155.3718409999999
 31
0.0
  0
LINE
  5
9B1F
330
9A8B
100
AcDbEntity
  8
1
  6
Continuous
100
AcDbLine
 10
151.7541939999999
 20
168.6718439999999
 30
0.0
 11
151.7541939999999
 21
155.3718409999999
 31
0.0
  0
LINE
  5
9B20
330
9A8B
100
AcDbEntity
  8
1
  6
Continuous
100
AcDbLine
 10
145.7541939999998
 20
155.3718409999999
 30
0.0
 11
146.6041999999999
 21
155.3718409999999
 31
0.0
  0
LINE
  5
9B21
330
9A8B
100
AcDbEntity
  8
1
  6
Continuous
100
AcDbLine
 10
145.5041939999999
 20
167.971848
 30
0.0
 11
145.7541939999998
 21
167.971848
 31
0.0
  0
LINE
  5
9B22
330
9A8B
100
AcDbEntity
  8
1
  6
Continuous
100
AcDbLine
 10
151.7541939999999
 20
167.971848
 30
0.0
 11
152.0041939999998
 21
167.971848
 31
0.0
  0
LINE
  5
9B23
330
9A8B
100
AcDbEntity
  8
1
  6
Continuous
100
AcDbLine
 10
145.5041939999999
 20
158.6218409999998
 30
0.0
 11
145.7541939999998
 21
158.6218409999998
 31
0.0
  0
LINE
  5
9B24
330
9A8B
100
AcDbEntity
  8
1
  6
Continuous
100
AcDbLine
 10
145.5041939999999
 20
156.1218409999999
 30
0.0
 11
145.7541939999998
 21
156.1218409999999
 31
0.0
  0
LINE
  5
9B25
330
9A8B
100
AcDbEntity
  8
1
  6
Continuous
100
AcDbLine
 10
152.0041939999998
 20
158.6218409999998
 30
0.0
 11
152.0041939999998
 21
156.1218409999999
 31
0.0
  0
LINE
  5
9B26
330
9A8B
100
AcDbEntity
  8
1
  6
Continuous
100
AcDbLine
 10
151.7541939999999
 20
158.6218409999998
 30
0.0
 11
152.0041939999998
 21
158.6218409999998
 31
0.0
  0
LINE
  5
9B27
330
9A8B
100
AcDbEntity
  8
1
  6
Continuous
100
AcDbLine
 10
151.7541939999999
 20
156.1218409999999
 30
0.0
 11
152.0041939999998
 21
156.1218409999999
 31
0.0
  0
LINE
  5
9B28
330
9A8B
100
AcDbEntity
  8
1
  6
Continuous
100
AcDbLine
 10
146.6041999999999
 20
153.1718439999998
 30
0.0
 11
150.9042029999999
 21
153.1718439999998
 31
0.0
  0
LINE
  5
9B29
330
9A8B
100
AcDbEntity
  8
1
  6
Continuous
100
AcDbLine
 10
150.9042029999999
 20
157.3718409999998
 30
0.0
 11
150.9042029999999
 21
153.1718439999998
 31
0.0
  0
LINE
  5
9B2A
330
9A8B
100
AcDbEntity
  8
1
  6
Continuous
100
AcDbLine
 10
146.6041999999999
 20
157.3718409999998
 30
0.0
 11
146.6041999999999
 21
153.1718439999998
 31
0.0
  0
LINE
  5
9B2B
330
9A8B
100
AcDbEntity
  8
1
  6
Continuous
100
AcDbLine
 10
150.9042029999999
 20
155.3718409999999
 30
0.0
 11
151.7541939999999
 21
155.3718409999999
 31
0.0
  0
LINE
  5
9B2C
330
9A8B
100
AcDbEntity
  8
1
  6
Continuous
100
AcDbLine
 10
145.7541939999998
 20
158.3718409999999
 30
0.0
 11
151.7541939999999
 21
158.3718409999999
 31
0.0
  0
LINE
  5
9B2D
330
9A8B
100
AcDbEntity
  8
1
  6
Continuous
100
AcDbLine
 10
145.7541939999998
 20
157.3718409999998
 30
0.0
 11
151.7541939999999
 21
157.3718409999998
 31
0.0
  0
LINE
  5
9B2E
330
9A8B
100
AcDbEntity
  8
1
  6
Continuous
100
AcDbLine
 10
150.3541999999999
 20
171.671844
 30
0.0
 11
150.3541999999999
 21
168.171844
 31
0.0
  0
LINE
  5
9B2F
330
9A8B
100
AcDbEntity
  8
1
  6
Continuous
100
AcDbLine
 10
147.1542029999999
 20
171.671844
 30
0.0
 11
147.1542029999999
 21
168.171844
 31
0.0
  0
LINE
  5
9B30
330
9A8B
100
AcDbEntity
  8
4
  6
CENTER
100
AcDbLine
 10
147.3085
 20
170.171844
 30
0.0
 11
150.121137
 21
170.171844
 31
0.0
  0
LINE
  5
9B31
330
9A8B
100
AcDbEntity
  8
1
  6
Continuous
100
AcDbLine
 10
150.654203
 20
168.6718439999999
 30
0.0
 11
150.654203
 21
168.171844
 31
0.0
  0
LINE
  5
9B32
330
9A8B
100
AcDbEntity
  8
1
  6
Continuous
100
AcDbLine
 10
146.8542
 20
168.6718439999999
 30
0.0
 11
146.8542
 21
168.171844
 31
0.0
  0
LINE
  5
9B33
330
9A8B
100
AcDbEntity
  8
1
  6
Continuous
100
AcDbLine
 10
145.7541939999998
 20
168.6718439999999
 30
0.0
 11
146.8542
 21
168.6718439999999
 31
0.0
  0
LINE
  5
9B34
330
9A8B
100
AcDbEntity
  8
1
  6
Continuous
100
AcDbLine
 10
150.654203
 20
168.6718439999999
 30
0.0
 11
151.7541939999999
 21
168.6718439999999
 31
0.0
  0
LINE
  5
9B35
330
9A8B
100
AcDbEntity
  8
4
  6
CENTER
100
AcDbLine
 10
144.5728729999999
 20
247.5218509999999
 30
0.0
 11
156.214933
 21
247.5218509999999
 31
0.0
  0
LINE
  5
9B36
330
9A8B
100
AcDbEntity
  8
1
  6
Continuous
100
AcDbLine
 10
146.6041999999999
 20
156.5175319999999
 30
0.0
 11
150.9042029999999
 21
156.5175319999999
 31
0.0
  0
LINE
  5
9B37
330
9A8B
100
AcDbEntity
  8
1
  6
Continuous
100
AcDbLine
 10
146.6041999999999
 20
153.564758
 30
0.0
 11
150.9042029999999
 21
153.564758
 31
0.0
  0
LINE
  5
9B38
330
9A8B
100
AcDbEntity
  8
1
  6
Continuous
100
AcDbLine
 10
145.5041939999999
 20
162.6218409999999
 30
0.0
 11
145.7541939999998
 21
162.6218409999999
 31
0.0
  0
LINE
  5
9B39
330
9A8B
100
AcDbEntity
  8
1
  6
Continuous
100
AcDbLine
 10
151.7541939999999
 20
162.6218409999999
 30
0.0
 11
152.0041939999998
 21
162.6218409999999
 31
0.0
  0
LINE
  5
9B3A
330
9A8B
100
AcDbEntity
  8
1
  6
Continuous
100
AcDbLine
 10
152.0041939999998
 20
249.7718509999999
 30
0.0
 11
153.0041939999998
 21
249.7718509999999
 31
0.0
  0
LINE
  5
9B3B
330
9A8B
100
AcDbEntity
  8
1
  6
Continuous
100
AcDbLine
 10
153.0041939999998
 20
249.421844
 30
0.0
 11
153.853833
 21
249.421844
 31
0.0
  0
LINE
  5
9B3C
330
9A8B
100
AcDbEntity
  8
1
  6
Continuous
100
AcDbLine
 10
153.0041939999998
 20
245.2718509999999
 30
0.0
 11
153.0041939999998
 21
249.7718509999999
 31
0.0
  0
LINE
  5
9B3D
330
9A8B
100
AcDbEntity
  8
1
  6
Continuous
100
AcDbLine
 10
153.0041939999998
 20
247.8510439999999
 30
0.0
 11
152.5041939999999
 21
247.5623169999999
 31
0.0
  0
LINE
  5
9B3E
330
9A8B
100
AcDbEntity
  8
1
  6
Continuous
100
AcDbLine
 10
153.004209
 20
247.517639
 30
0.0
 11
152.5041939999999
 21
247.2290339999999
 31
0.0
  0
LINE
  5
9B3F
330
9A8B
100
AcDbEntity
  8
1
  6
Continuous
100
AcDbLine
 10
152.0041939999998
 20
245.2718509999999
 30
0.0
 11
153.0041939999998
 21
245.2718509999999
 31
0.0
  0
LINE
  5
9B40
330
9A8B
100
AcDbEntity
  8
1
  6
Continuous
100
AcDbLine
 10
152.5041939999999
 20
245.2718509999999
 30
0.0
 11
152.5041939999999
 21
249.7718509999999
 31
0.0
  0
LINE
  5
9B41
330
9A8B
100
AcDbEntity
  8
1
  6
Continuous
100
AcDbLine
 10
153.0041939999998
 20
245.6218409999999
 30
0.0
 11
153.853833
 21
245.6218409999999
 31
0.0
  0
LINE
  5
9B42
330
9A8B
100
AcDbEntity
  8
1
  6
Continuous
100
AcDbLine
 10
155.0041939999998
 20
246.848633
 30
0.0
 11
155.0041939999998
 21
248.194946
 31
0.0
  0
LINE
  5
9B43
330
9A8B
100
AcDbEntity
  8
1
  6
Continuous
100
AcDbLine
 10
13.80421499999999
 20
157.13089
 30
0.0
 11
13.80421499999999
 21
155.3718409999999
 31
0.0
  0
LINE
  5
9B44
330
9A8B
100
AcDbEntity
  8
1
  6
Continuous
100
AcDbLine
 10
14.490357
 20
155.3718409999999
 30
0.0
 11
13.80421499999999
 21
155.3718409999999
 31
0.0
  0
LINE
  5
9B45
330
9A8B
100
AcDbEntity
  8
1
  6
Continuous
100
AcDbLine
 10
33.804215
 20
168.171844
 30
0.0
 11
33.804215
 21
158.3718409999999
 31
0.0
  0
LINE
  5
9B46
330
9A8B
100
AcDbEntity
  8
1
  6
Continuous
100
AcDbLine
 10
33.804215
 20
168.171844
 30
0.0
 11
33.5542
 21
168.171844
 31
0.0
  0
LINE
  5
9B47
330
9A8B
100
AcDbEntity
  8
1
  6
Continuous
100
AcDbLine
 10
33.804215
 20
158.3718409999999
 30
0.0
 11
33.5542
 21
158.3718409999999
 31
0.0
  0
LINE
  5
9B48
330
9A8B
100
AcDbEntity
  8
1
  6
Continuous
100
AcDbLine
 10
236.554184
 20
129.5701449999999
 30
0.0
 11
247.5541839999999
 21
135.9209899999999
 31
0.0
  0
LINE
  5
9B49
330
9A8B
100
AcDbEntity
  8
1
  6
Continuous
100
AcDbLine
 10
247.5541839999999
 20
148.6226959999999
 30
0.0
 11
247.5541839999999
 21
145.600372
 31
0.0
  0
LINE
  5
9B4A
330
9A8B
100
AcDbEntity
  8
1
  6
Continuous
100
AcDbLine
 10
225.5541839999999
 20
148.6226959999999
 30
0.0
 11
225.5541839999999
 21
135.9209899999999
 31
0.0
  0
LINE
  5
9B4B
330
9A8B
100
AcDbEntity
  8
1
  6
Continuous
100
AcDbLine
 10
225.5541839999999
 20
135.9209749999999
 30
0.0
 11
236.554184
 21
129.570129
 31
0.0
  0
LINE
  5
9B4C
330
9A8B
100
AcDbEntity
  8
4
  6
CENTER
100
AcDbLine
 10
236.554184
 20
158.771851
 30
0.0
 11
236.554184
 21
125.7718509999999
 31
0.0
  0
LINE
  5
9B4D
330
9A8B
100
AcDbEntity
  8
1
  6
Continuous
100
AcDbLine
 10
236.804184
 20
172.2718509999999
 30
0.0
 11
255.804184
 21
172.2718509999999
 31
0.0
  0
LINE
  5
9B4E
330
9A8B
100
AcDbEntity
  8
1
  6
Continuous
100
AcDbLine
 10
236.554184
 20
169.771851
 30
0.0
 11
236.554184
 21
168.171844
 31
0.0
  0
LINE
  5
9B4F
330
9A8B
100
AcDbEntity
  8
1
  6
Continuous
100
AcDbLine
 10
256.5541839999998
 20
169.771851
 30
0.0
 11
256.5541839999998
 21
160.271851
 31
0.0
  0
LINE
  5
9B50
330
9A8B
100
AcDbEntity
  8
1
  6
Continuous
100
AcDbLine
 10
256.5541839999998
 20
160.271835
 30
0.0
 11
256.3041839999999
 21
159.5507199999999
 31
0.0
  0
LINE
  5
9B51
330
9A8B
100
AcDbEntity
  8
1
  6
Continuous
100
AcDbLine
 10
236.554184
 20
169.771851
 30
0.0
 11
236.804184
 21
169.771851
 31
0.0
  0
LINE
  5
9B52
330
9A8B
100
AcDbEntity
  8
1
  6
Continuous
100
AcDbLine
 10
236.804184
 20
172.2718509999999
 30
0.0
 11
236.804184
 21
168.171844
 31
0.0
  0
LINE
  5
9B53
330
9A8B
100
AcDbEntity
  8
1
  6
Continuous
100
AcDbLine
 10
255.804184
 20
172.2718509999999
 30
0.0
 11
255.804184
 21
168.171844
 31
0.0
  0
LINE
  5
9B54
330
9A8B
100
AcDbEntity
  8
1
  6
Continuous
100
AcDbLine
 10
249.699997
 20
144.493805
 30
0.0
 11
240.220841
 21
149.3820949999999
 31
0.0
  0
LINE
  5
9B55
330
9A8B
100
AcDbEntity
  8
1
  6
Continuous
100
AcDbLine
 10
250.3041839999999
 20
155.3718409999999
 30
0.0
 11
256.3041839999999
 21
155.3718409999999
 31
0.0
  0
LINE
  5
9B56
330
9A8B
100
AcDbEntity
  8
1
  6
Continuous
100
AcDbLine
 10
247.304184
 20
157.3718409999998
 30
0.0
 11
248.3041839999999
 21
157.3718409999998
 31
0.0
  0
LINE
  5
9B57
330
9A8B
100
AcDbEntity
  8
1
  6
Continuous
100
AcDbLine
 10
236.304184
 20
158.3718409999999
 30
0.0
 11
246.804184
 21
158.3718409999999
 31
0.0
  0
LINE
  5
9B58
330
9A8B
100
AcDbEntity
  8
1
  6
Continuous
100
AcDbLine
 10
242.004166
 20
168.6718439999999
 30
0.0
 11
242.804184
 21
168.6718439999999
 31
0.0
  0
LINE
  5
9B59
330
9A8B
100
AcDbEntity
  8
1
  6
Continuous
100
AcDbLine
 10
236.304184
 20
168.171844
 30
0.0
 11
242.004166
 21
168.171844
 31
0.0
  0
LINE
  5
9B5A
330
9A8B
100
AcDbEntity
  8
1
  6
Continuous
100
AcDbLine
 10
238.304184
 20
171.671844
 30
0.0
 11
238.804184
 21
171.671844
 31
0.0
  0
LINE
  5
9B5B
330
9A8B
100
AcDbEntity
  8
1
  6
Continuous
100
AcDbLine
 10
236.304184
 20
168.171844
 30
0.0
 11
236.304184
 21
158.3718409999999
 31
0.0
  0
LINE
  5
9B5C
330
9A8B
100
AcDbEntity
  8
1
  6
Continuous
100
AcDbLine
 10
256.3041839999999
 20
168.171844
 30
0.0
 11
256.3041839999999
 21
155.3718409999999
 31
0.0
  0
LINE
  5
9B5D
330
9A8B
100
AcDbEntity
  8
1
  6
Continuous
100
AcDbLine
 10
246.804184
 20
158.3718409999999
 30
0.0
 11
247.304184
 21
157.3718409999998
 31
0.0
  0
LINE
  5
9B5E
330
9A8B
100
AcDbEntity
  8
1
  6
Continuous
100
AcDbLine
 10
248.3041839999999
 20
157.371857
 30
0.0
 11
250.304215
 21
155.371857
 31
0.0
  0
LINE
  5
9B5F
330
9A8B
100
AcDbEntity
  8
4
  6
CENTER
100
AcDbLine
 10
246.3041839999999
 20
169.475555
 30
0.0
 11
246.3041839999999
 21
156.6829529999999
 31
0.0
  0
LINE
  5
9B60
330
9A8B
100
AcDbEntity
  8
4
  6
CENTER
100
AcDbLine
 10
251.054184
 20
169.2832949999998
 30
0.0
 11
251.054184
 21
161.9740139999999
 31
0.0
  0
LINE
  5
9B61
330
9A8B
100
AcDbEntity
  8
4
  6
CENTER
100
AcDbLine
 10
241.5541839999999
 20
169.195801
 30
0.0
 11
241.5541839999999
 21
162.1499629999999
 31
0.0
  0
LINE
  5
9B62
330
9A8B
100
AcDbEntity
  8
4
  6
CENTER
100
AcDbLine
 10
239.0163729999999
 20
164.7718509999999
 30
0.0
 11
244.1728669999999
 21
164.7718509999999
 31
0.0
  0
LINE
  5
9B63
330
9A8B
100
AcDbEntity
  8
4
  6
CENTER
100
AcDbLine
 10
248.5927279999999
 20
164.7718509999999
 30
0.0
 11
253.6153109999999
 21
164.7718509999999
 31
0.0
  0
LINE
  5
9B64
330
9A8B
100
AcDbEntity
  8
1
  6
Continuous
100
AcDbLine
 10
243.7041779999999
 20
167.971848
 30
0.0
 11
239.4041899999999
 21
167.971848
 31
0.0
  0
LINE
  5
9B65
330
9A8B
100
AcDbEntity
  8
4
  6
CENTER
100
AcDbLine
 10
256.3041839999999
 20
157.3718409999998
 30
0.0
 11
252.3041839999999
 21
157.3718409999998
 31
0.0
  0
LINE
  5
9B66
330
9A8B
100
AcDbEntity
  8
4
  6
CENTER
100
AcDbLine
 10
254.3041839999999
 20
159.3718409999999
 30
0.0
 11
254.3041839999999
 21
155.3718409999999
 31
0.0
  0
LINE
  5
9B67
330
9A8B
100
AcDbEntity
  8
1
  6
Continuous
100
AcDbLine
 10
234.8793799999999
 20
153.1718439999998
 30
0.0
 11
249.497208
 21
156.1788329999999
 31
0.0
  0
LINE
  5
9B68
330
9A8B
100
AcDbEntity
  8
1
  6
Continuous
100
AcDbLine
 10
234.804184
 20
153.564758
 30
0.0
 11
249.158493
 21
156.5175319999999
 31
0.0
  0
LINE
  5
9B69
330
9A8B
100
AcDbEntity
  8
1
  6
Continuous
100
AcDbLine
 10
234.804184
 20
153.564758
 30
0.0
 11
234.8793799999999
 21
153.1718439999998
 31
0.0
  0
LINE
  5
9B6A
330
9A8B
100
AcDbEntity
  8
1
  6
Continuous
100
AcDbLine
 10
248.3041839999999
 20
156.5175319999999
 30
0.0
 11
249.158524
 21
156.5175319999999
 31
0.0
  0
LINE
  5
9B6B
330
9A8B
100
AcDbEntity
  8
1
  6
Continuous
100
AcDbLine
 10
248.3041839999999
 20
157.3718409999998
 30
0.0
 11
248.3041839999999
 21
156.5175319999999
 31
0.0
  0
LINE
  5
9B6C
330
9A8B
100
AcDbEntity
  8
1
  6
Continuous
100
AcDbLine
 10
249.8041839999999
 20
168.6718439999999
 30
0.0
 11
249.8041839999999
 21
168.171844
 31
0.0
  0
LINE
  5
9B6D
330
9A8B
100
AcDbEntity
  8
1
  6
Continuous
100
AcDbLine
 10
242.804184
 20
168.6718439999999
 30
0.0
 11
242.804184
 21
168.171844
 31
0.0
  0
LINE
  5
9B6E
330
9A8B
100
AcDbEntity
  8
1
  6
Continuous
100
AcDbLine
 10
242.004166
 20
168.6718439999999
 30
0.0
 11
242.004166
 21
168.171844
 31
0.0
  0
LINE
  5
9B6F
330
9A8B
100
AcDbEntity
  8
1
  6
Continuous
100
AcDbLine
 10
250.6042029999999
 20
168.6718439999999
 30
0.0
 11
250.6042029999999
 21
168.171844
 31
0.0
  0
LINE
  5
9B70
330
9A8B
100
AcDbEntity
  8
1
  6
Continuous
100
AcDbLine
 10
249.8041839999999
 20
168.6718439999999
 30
0.0
 11
250.6042029999999
 21
168.6718439999999
 31
0.0
  0
LINE
  5
9B71
330
9A8B
100
AcDbEntity
  8
1
  6
Continuous
100
AcDbLine
 10
242.804184
 20
168.171844
 30
0.0
 11
249.8041839999999
 21
168.171844
 31
0.0
  0
LINE
  5
9B72
330
9A8B
100
AcDbEntity
  8
1
  6
Continuous
100
AcDbLine
 10
250.6042029999999
 20
168.171844
 30
0.0
 11
256.3041839999999
 21
168.171844
 31
0.0
  0
LINE
  5
9B73
330
9A8B
100
AcDbEntity
  8
1
  6
Continuous
100
AcDbLine
 10
238.804184
 20
171.671844
 30
0.0
 11
238.804184
 21
168.171844
 31
0.0
  0
LINE
  5
9B74
330
9A8B
100
AcDbEntity
  8
1
  6
Continuous
100
AcDbLine
 10
238.304184
 20
171.671844
 30
0.0
 11
238.304184
 21
168.171844
 31
0.0
  0
LINE
  5
9B75
330
9A8B
100
AcDbEntity
  8
1
  6
Continuous
100
AcDbLine
 10
244.804184
 20
171.671844
 30
0.0
 11
244.804184
 21
168.171844
 31
0.0
  0
LINE
  5
9B76
330
9A8B
100
AcDbEntity
  8
1
  6
Continuous
100
AcDbLine
 10
253.304184
 20
171.671844
 30
0.0
 11
253.304184
 21
168.171844
 31
0.0
  0
LINE
  5
9B77
330
9A8B
100
AcDbEntity
  8
1
  6
Continuous
100
AcDbLine
 10
245.304184
 20
171.671844
 30
0.0
 11
245.304184
 21
168.171844
 31
0.0
  0
LINE
  5
9B78
330
9A8B
100
AcDbEntity
  8
1
  6
Continuous
100
AcDbLine
 10
253.8041839999999
 20
171.671844
 30
0.0
 11
253.8041839999999
 21
168.171844
 31
0.0
  0
LINE
  5
9B79
330
9A8B
100
AcDbEntity
  8
1
  6
Continuous
100
AcDbLine
 10
253.304184
 20
171.671844
 30
0.0
 11
253.8041839999999
 21
171.671844
 31
0.0
  0
LINE
  5
9B7A
330
9A8B
100
AcDbEntity
  8
1
  6
Continuous
100
AcDbLine
 10
244.804184
 20
171.671844
 30
0.0
 11
245.304184
 21
171.671844
 31
0.0
  0
LINE
  5
9B7B
330
9A8B
100
AcDbEntity
  8
4
  6
CENTER
100
AcDbLine
 10
243.950089
 20
170.171844
 30
0.0
 11
246.0501559999999
 21
170.171844
 31
0.0
  0
LINE
  5
9B7C
330
9A8B
100
AcDbEntity
  8
4
  6
CENTER
100
AcDbLine
 10
252.525345
 20
170.171844
 30
0.0
 11
254.625382
 21
170.171844
 31
0.0
  0
LINE
  5
9B7D
330
9A8B
100
AcDbEntity
  8
4
  6
CENTER
100
AcDbLine
 10
237.431168
 20
170.171844
 30
0.0
 11
239.5749669999999
 21
170.171844
 31
0.0
  0
LINE
  5
9B7E
330
9A8B
100
AcDbEntity
  8
1
  6
Continuous
100
AcDbLine
 10
239.4041899999999
 20
167.971848
 30
0.0
 11
239.4041899999999
 21
165.4351199999998
 31
0.0
  0
LINE
  5
9B7F
330
9A8B
100
AcDbEntity
  8
1
  6
Continuous
100
AcDbLine
 10
243.7041779999999
 20
167.971848
 30
0.0
 11
243.7041779999999
 21
165.4351199999998
 31
0.0
  0
LINE
  5
9B80
330
9A8B
100
AcDbEntity
  8
1
  6
Continuous
100
AcDbLine
 10
248.90419
 20
167.971848
 30
0.0
 11
248.90419
 21
165.4351199999998
 31
0.0
  0
LINE
  5
9B81
330
9A8B
100
AcDbEntity
  8
1
  6
Continuous
100
AcDbLine
 10
248.90419
 20
167.971848
 30
0.0
 11
253.2041779999999
 21
167.971848
 31
0.0
  0
LINE
  5
9B82
330
9A8B
100
AcDbEntity
  8
1
  6
Continuous
100
AcDbLine
 10
253.2041779999999
 20
167.971848
 30
0.0
 11
253.2041779999999
 21
165.4351199999998
 31
0.0
  0
LINE
  5
9B83
330
9A8B
100
AcDbEntity
  8
1
  6
Continuous
100
AcDbLine
 10
254.8553009999999
 20
155.3718409999999
 30
0.0
 11
250.736344
 21
143.4917299999999
 31
0.0
  0
LINE
  5
9B84
330
9A8B
100
AcDbEntity
  8
1
  6
Continuous
100
AcDbLine
 10
236.554184
 20
158.3718409999999
 30
0.0
 11
236.554184
 21
155.271851
 31
0.0
  0
LINE
  5
9B85
330
9A8B
100
AcDbEntity
  8
1
  6
Continuous
100
AcDbLine
 10
255.804184
 20
169.771851
 30
0.0
 11
256.5541839999998
 21
169.771851
 31
0.0
  0
LINE
  5
9B86
330
9A8B
100
AcDbEntity
  8
1
  6
Continuous
100
AcDbLine
 10
256.3041839999999
 20
160.271851
 30
0.0
 11
256.5541839999998
 21
160.271851
 31
0.0
  0
LINE
  5
9B87
330
9A8B
100
AcDbEntity
  8
1
  6
Continuous
100
AcDbLine
 10
225.5542
 20
148.6226959999999
 30
0.0
 11
236.554184
 21
154.9735409999998
 31
0.0
  0
LINE
  5
9B88
330
9A8B
100
AcDbEntity
  8
1
  6
Continuous
100
AcDbLine
 10
236.554184
 20
154.9735569999998
 30
0.0
 11
237.8935699999999
 21
154.2002719999999
 31
0.0
  0
LINE
  5
9B89
330
9A8B
100
AcDbEntity
  8
1
  6
Continuous
100
AcDbLine
 10
238.415085
 20
153.8991699999999
 30
0.0
 11
247.5541839999999
 21
148.6226959999999
 31
0.0
  0
LINE
  5
9B8A
330
9A8B
100
AcDbEntity
  8
1
  6
Continuous
100
AcDbLine
 10
150.3541999999999
 20
259.7718509999999
 30
0.0
 11
150.3541999999999
 21
259.2718509999999
 31
0.0
  0
LINE
  5
9B8B
330
9A8B
100
AcDbEntity
  8
1
  6
Continuous
100
AcDbLine
 10
147.104203
 20
259.7718509999999
 30
0.0
 11
147.104203
 21
259.2718509999999
 31
0.0
  0
LINE
  5
9B8C
330
9A8B
100
AcDbEntity
  8
1
  6
Continuous
100
AcDbLine
 10
145.7541939999998
 20
262.2718509999999
 30
0.0
 11
145.7541939999998
 21
242.2718509999999
 31
0.0
  0
LINE
  5
9B8D
330
9A8B
100
AcDbEntity
  8
1
  6
Continuous
100
AcDbLine
 10
151.7541939999999
 20
262.2718509999999
 30
0.0
 11
151.7541939999999
 21
242.2718509999999
 31
0.0
  0
LINE
  5
9B8E
330
9A8B
100
AcDbEntity
  8
1
  6
Continuous
100
AcDbLine
 10
150.654203
 20
248.7718509999999
 30
0.0
 11
150.654203
 21
247.9718319999999
 31
0.0
  0
LINE
  5
9B8F
330
9A8B
100
AcDbEntity
  8
1
  6
Continuous
100
AcDbLine
 10
146.8542
 20
248.7718509999999
 30
0.0
 11
146.8542
 21
247.9718319999999
 31
0.0
  0
LINE
  5
9B90
330
9A8B
100
AcDbEntity
  8
1
  6
Continuous
100
AcDbLine
 10
145.7541939999998
 20
262.2718509999999
 30
0.0
 11
151.7541939999999
 21
262.2718509999999
 31
0.0
  0
LINE
  5
9B91
330
9A8B
100
AcDbEntity
  8
1
  6
Continuous
100
AcDbLine
 10
145.7541939999998
 20
242.2718509999999
 30
0.0
 11
151.7541939999999
 21
242.2718509999999
 31
0.0
  0
LINE
  5
9B92
330
9A8B
100
AcDbEntity
  8
1
  6
Continuous
100
AcDbLine
 10
147.1542029999999
 20
259.7718509999999
 30
0.0
 11
150.3541999999999
 21
259.7718509999999
 31
0.0
  0
LINE
  5
9B93
330
9A8B
100
AcDbEntity
  8
1
  6
Continuous
100
AcDbLine
 10
147.1542029999999
 20
259.2718509999999
 30
0.0
 11
150.3541999999999
 21
259.2718509999999
 31
0.0
  0
LINE
  5
9B94
330
9A8B
100
AcDbEntity
  8
1
  6
Continuous
100
AcDbLine
 10
147.104203
 20
251.2718509999999
 30
0.0
 11
150.3042
 21
251.2718509999999
 31
0.0
  0
LINE
  5
9B95
330
9A8B
100
AcDbEntity
  8
1
  6
Continuous
100
AcDbLine
 10
147.104203
 20
250.7718509999999
 30
0.0
 11
150.3042
 21
250.7718509999999
 31
0.0
  0
LINE
  5
9B96
330
9A8B
100
AcDbEntity
  8
1
  6
Continuous
100
AcDbLine
 10
147.1542029999999
 20
244.7718509999999
 30
0.0
 11
150.3541999999999
 21
244.7718509999999
 31
0.0
  0
LINE
  5
9B97
330
9A8B
100
AcDbEntity
  8
1
  6
Continuous
100
AcDbLine
 10
147.1542029999999
 20
244.2718509999999
 30
0.0
 11
150.3541999999999
 21
244.2718509999999
 31
0.0
  0
LINE
  5
9B98
330
9A8B
100
AcDbEntity
  8
1
  6
Continuous
100
AcDbLine
 10
147.1542029999999
 20
244.7718509999999
 30
0.0
 11
147.1542029999999
 21
244.2718509999999
 31
0.0
  0
LINE
  5
9B99
330
9A8B
100
AcDbEntity
  8
1
  6
Continuous
100
AcDbLine
 10
150.3541999999999
 20
244.7718509999999
 30
0.0
 11
150.3541999999999
 21
244.2718509999999
 31
0.0
  0
LINE
  5
9B9A
330
9A8B
100
AcDbEntity
  8
1
  6
Continuous
100
AcDbLine
 10
150.3042
 20
251.2718509999999
 30
0.0
 11
150.3042
 21
250.7718509999999
 31
0.0
  0
LINE
  5
9B9B
330
9A8B
100
AcDbEntity
  8
1
  6
Continuous
100
AcDbLine
 10
147.104203
 20
251.2718509999999
 30
0.0
 11
147.104203
 21
250.7718509999999
 31
0.0
  0
LINE
  5
9B9C
330
9A8B
100
AcDbEntity
  8
4
  6
CENTER
100
AcDbLine
 10
148.7541939999998
 20
264.5254519999999
 30
0.0
 11
148.7541939999998
 21
239.6085509999998
 31
0.0
  0
LINE
  5
9B9D
330
9A8B
100
AcDbEntity
  8
1
  6
Continuous
100
AcDbLine
 10
145.7541939999998
 20
256.571838
 30
0.0
 11
146.8542
 21
256.571838
 31
0.0
  0
LINE
  5
9B9E
330
9A8B
100
AcDbEntity
  8
1
  6
Continuous
100
AcDbLine
 10
145.7541939999998
 20
255.7718509999999
 30
0.0
 11
146.8542
 21
255.7718509999999
 31
0.0
  0
LINE
  5
9B9F
330
9A8B
100
AcDbEntity
  8
1
  6
Continuous
100
AcDbLine
 10
145.7541939999998
 20
248.7718509999999
 30
0.0
 11
146.8542
 21
248.7718509999999
 31
0.0
  0
LINE
  5
9BA0
330
9A8B
100
AcDbEntity
  8
1
  6
Continuous
100
AcDbLine
 10
145.7541939999998
 20
247.9718319999999
 30
0.0
 11
146.8542
 21
247.9718319999999
 31
0.0
  0
LINE
  5
9BA1
330
9A8B
100
AcDbEntity
  8
1
  6
Continuous
100
AcDbLine
 10
151.254194
 20
261.7718509999999
 30
0.0
 11
151.254194
 21
256.571838
 31
0.0
  0
LINE
  5
9BA2
330
9A8B
100
AcDbEntity
  8
1
  6
Continuous
100
AcDbLine
 10
146.2541939999999
 20
261.7718509999999
 30
0.0
 11
146.2541939999999
 21
256.571838
 31
0.0
  0
LINE
  5
9BA3
330
9A8B
100
AcDbEntity
  8
1
  6
Continuous
100
AcDbLine
 10
146.2541939999999
 20
242.7718509999999
 30
0.0
 11
151.254194
 21
242.7718509999999
 31
0.0
  0
LINE
  5
9BA4
330
9A8B
100
AcDbEntity
  8
1
  6
Continuous
100
AcDbLine
 10
146.2541939999999
 20
261.7718509999999
 30
0.0
 11
151.254194
 21
261.7718509999999
 31
0.0
  0
LINE
  5
9BA5
330
9A8B
100
AcDbEntity
  8
1
  6
Continuous
100
AcDbLine
 10
150.654203
 20
247.9718319999999
 30
0.0
 11
151.7541939999999
 21
247.9718319999999
 31
0.0
  0
LINE
  5
9BA6
330
9A8B
100
AcDbEntity
  8
1
  6
Continuous
100
AcDbLine
 10
150.654203
 20
248.7718509999999
 30
0.0
 11
151.7541939999999
 21
248.7718509999999
 31
0.0
  0
LINE
  5
9BA7
330
9A8B
100
AcDbEntity
  8
1
  6
Continuous
100
AcDbLine
 10
150.654203
 20
255.7718509999999
 30
0.0
 11
151.7541939999999
 21
255.7718509999999
 31
0.0
  0
LINE
  5
9BA8
330
9A8B
100
AcDbEntity
  8
1
  6
Continuous
100
AcDbLine
 10
150.654203
 20
256.571838
 30
0.0
 11
151.7541939999999
 21
256.571838
 31
0.0
  0
LINE
  5
9BA9
330
9A8B
100
AcDbEntity
  8
1
  6
Continuous
100
AcDbLine
 10
151.254194
 20
247.9718319999999
 30
0.0
 11
151.254194
 21
242.7718509999999
 31
0.0
  0
LINE
  5
9BAA
330
9A8B
100
AcDbEntity
  8
1
  6
Continuous
100
AcDbLine
 10
151.254194
 20
255.7718509999999
 30
0.0
 11
151.254194
 21
248.7718509999999
 31
0.0
  0
LINE
  5
9BAB
330
9A8B
100
AcDbEntity
  8
1
  6
Continuous
100
AcDbLine
 10
146.2541939999999
 20
255.7718509999999
 30
0.0
 11
146.2541939999999
 21
248.7718509999999
 31
0.0
  0
LINE
  5
9BAC
330
9A8B
100
AcDbEntity
  8
1
  6
Continuous
100
AcDbLine
 10
146.2541939999999
 20
247.9718319999999
 30
0.0
 11
146.2541939999999
 21
242.7718509999999
 31
0.0
  0
LINE
  5
9BAD
330
9A8B
100
AcDbEntity
  8
1
  6
Continuous
100
AcDbLine
 10
146.8542
 20
256.571838
 30
0.0
 11
146.8542
 21
255.7718509999999
 31
0.0
  0
LINE
  5
9BAE
330
9A8B
100
AcDbEntity
  8
1
  6
Continuous
100
AcDbLine
 10
150.654203
 20
256.571838
 30
0.0
 11
150.654203
 21
255.7718509999999
 31
0.0
  0
LINE
  5
9BAF
330
9A8B
100
AcDbEntity
  8
1
  6
Continuous
100
AcDbLine
 10
151.7541939999999
 20
245.371841
 30
0.0
 11
152.0041939999998
 21
245.371841
 31
0.0
  0
LINE
  5
9BB0
330
9A8B
100
AcDbEntity
  8
1
  6
Continuous
100
AcDbLine
 10
151.7541939999999
 20
249.6718439999999
 30
0.0
 11
152.0041939999998
 21
249.6718439999999
 31
0.0
  0
LINE
  5
9BB1
330
9A8B
100
AcDbEntity
  8
1
  6
Continuous
100
AcDbLine
 10
151.7541939999999
 20
254.8718259999999
 30
0.0
 11
152.0041939999998
 21
254.8718259999999
 31
0.0
  0
LINE
  5
9BB2
330
9A8B
100
AcDbEntity
  8
1
  6
Continuous
100
AcDbLine
 10
151.7541939999999
 20
259.171844
 30
0.0
 11
152.0041939999998
 21
259.171844
 31
0.0
  0
LINE
  5
9BB3
330
9A8B
100
AcDbEntity
  8
1
  6
Continuous
100
AcDbLine
 10
152.0041939999998
 20
261.5218509999999
 30
0.0
 11
152.0041939999998
 21
254.7718509999999
 31
0.0
  0
LINE
  5
9BB4
330
9A8B
100
AcDbEntity
  8
1
  6
Continuous
100
AcDbLine
 10
152.0041939999998
 20
249.7718509999999
 30
0.0
 11
152.0041939999998
 21
245.2718509999999
 31
0.0
  0
LINE
  5
9BB5
330
9A8B
100
AcDbEntity
  8
1
  6
Continuous
100
AcDbLine
 10
151.704194
 20
261.5218509999999
 30
0.0
 11
151.954194
 21
261.5218509999999
 31
0.0
  0
LINE
  5
9BB6
330
9A8B
100
AcDbEntity
  8
1
  6
Continuous
100
AcDbLine
 10
145.7541939999998
 20
245.371841
 30
0.0
 11
145.5041939999999
 21
245.371841
 31
0.0
  0
LINE
  5
9BB7
330
9A8B
100
AcDbEntity
  8
1
  6
Continuous
100
AcDbLine
 10
145.7541939999998
 20
249.6718439999999
 30
0.0
 11
145.5041939999999
 21
249.6718439999999
 31
0.0
  0
LINE
  5
9BB8
330
9A8B
100
AcDbEntity
  8
1
  6
Continuous
100
AcDbLine
 10
145.7541939999998
 20
254.8718259999999
 30
0.0
 11
145.5041939999999
 21
254.8718259999999
 31
0.0
  0
LINE
  5
9BB9
330
9A8B
100
AcDbEntity
  8
1
  6
Continuous
100
AcDbLine
 10
145.7541939999998
 20
261.5218509999999
 30
0.0
 11
145.5041939999999
 21
261.5218509999999
 31
0.0
  0
LINE
  5
9BBA
330
9A8B
100
AcDbEntity
  8
1
  6
Continuous
100
AcDbLine
 10
145.7541939999998
 20
259.171844
 30
0.0
 11
145.5041939999999
 21
259.171844
 31
0.0
  0
LINE
  5
9BBB
330
9A8B
100
AcDbEntity
  8
1
  6
Continuous
100
AcDbLine
 10
152.0041939999998
 20
167.0218509999999
 30
0.0
 11
153.0041939999998
 21
167.0218509999999
 31
0.0
  0
LINE
  5
9BBC
330
9A8B
100
AcDbEntity
  8
1
  6
Continuous
100
AcDbLine
 10
153.0041939999998
 20
166.6718439999999
 30
0.0
 11
153.853833
 21
166.6718439999999
 31
0.0
  0
LINE
  5
9BBD
330
9A8B
100
AcDbEntity
  8
1
  6
Continuous
100
AcDbLine
 10
153.0041939999998
 20
162.521851
 30
0.0
 11
153.0041939999998
 21
167.0218509999999
 31
0.0
  0
LINE
  5
9BBE
330
9A8B
100
AcDbEntity
  8
1
  6
Continuous
100
AcDbLine
 10
153.0041939999998
 20
165.101028
 30
0.0
 11
152.5041939999999
 21
164.812332
 31
0.0
  0
LINE
  5
9BBF
330
9A8B
100
AcDbEntity
  8
1
  6
Continuous
100
AcDbLine
 10
153.004209
 20
164.7676389999998
 30
0.0
 11
152.504209
 21
164.47905
 31
0.0
  0
LINE
  5
9BC0
330
9A8B
100
AcDbEntity
  8
1
  6
Continuous
100
AcDbLine
 10
152.0041939999998
 20
162.521851
 30
0.0
 11
153.0041939999998
 21
162.521851
 31
0.0
  0
LINE
  5
9BC1
330
9A8B
100
AcDbEntity
  8
1
  6
Continuous
100
AcDbLine
 10
152.5041939999999
 20
162.521851
 30
0.0
 11
152.5041939999999
 21
167.0218509999999
 31
0.0
  0
LINE
  5
9BC2
330
9A8B
100
AcDbEntity
  8
1
  6
Continuous
100
AcDbLine
 10
153.0041939999998
 20
162.8718409999999
 30
0.0
 11
153.853833
 21
162.8718409999999
 31
0.0
  0
LINE
  5
9BC3
330
9A8B
100
AcDbEntity
  8
1
  6
Continuous
100
AcDbLine
 10
155.0041939999998
 20
164.098633
 30
0.0
 11
155.0041939999998
 21
165.4449459999999
 31
0.0
  0
LINE
  5
9BC4
330
9A8B
100
AcDbEntity
  8
4
  6
CENTER
100
AcDbLine
 10
144.5728729999999
 20
257.0218509999999
 30
0.0
 11
156.214933
 21
257.0218509999999
 31
0.0
  0
LINE
  5
9BC5
330
9A8B
100
AcDbEntity
  8
1
  6
Continuous
100
AcDbLine
 10
152.0041939999998
 20
259.2718509999999
 30
0.0
 11
153.0041939999998
 21
259.2718509999999
 31
0.0
  0
LINE
  5
9BC6
330
9A8B
100
AcDbEntity
  8
1
  6
Continuous
100
AcDbLine
 10
153.0041939999998
 20
258.921844
 30
0.0
 11
153.853833
 21
258.921844
 31
0.0
  0
LINE
  5
9BC7
330
9A8B
100
AcDbEntity
  8
1
  6
Continuous
100
AcDbLine
 10
153.0041939999998
 20
254.7718509999999
 30
0.0
 11
153.0041939999998
 21
259.2718509999999
 31
0.0
  0
LINE
  5
9BC8
330
9A8B
100
AcDbEntity
  8
1
  6
Continuous
100
AcDbLine
 10
153.0041779999999
 20
257.351044
 30
0.0
 11
152.504178
 21
257.062317
 31
0.0
  0
LINE
  5
9BC9
330
9A8B
100
AcDbEntity
  8
1
  6
Continuous
100
AcDbLine
 10
153.004209
 20
257.0176389999999
 30
0.0
 11
152.5041939999999
 21
256.729034
 31
0.0
  0
LINE
  5
9BCA
330
9A8B
100
AcDbEntity
  8
1
  6
Continuous
100
AcDbLine
 10
152.0041939999998
 20
254.7718509999999
 30
0.0
 11
153.0041939999998
 21
254.7718509999999
 31
0.0
  0
LINE
  5
9BCB
330
9A8B
100
AcDbEntity
  8
1
  6
Continuous
100
AcDbLine
 10
152.5041939999999
 20
254.7718509999999
 30
0.0
 11
152.5041939999999
 21
259.2718509999999
 31
0.0
  0
LINE
  5
9BCC
330
9A8B
100
AcDbEntity
  8
1
  6
Continuous
100
AcDbLine
 10
153.0041939999998
 20
255.1218259999999
 30
0.0
 11
153.853833
 21
255.1218259999999
 31
0.0
  0
LINE
  5
9BCD
330
9A8B
100
AcDbEntity
  8
1
  6
Continuous
100
AcDbLine
 10
155.0041939999998
 20
256.3486329999999
 30
0.0
 11
155.0041939999998
 21
257.694946
 31
0.0
  0
LINE
  5
9BCE
330
9A8B
100
AcDbEntity
  8
1
  6
Continuous
100
AcDbLine
 10
145.5041939999999
 20
261.7718509999999
 30
0.0
 11
145.5041939999999
 21
242.7718509999999
 31
0.0
  0
LINE
  5
9BCF
330
9A8B
100
AcDbEntity
  8
1
  6
Continuous
100
AcDbLine
 10
145.254197
 20
262.5218509999999
 30
0.0
 11
145.254197
 21
242.5218509999999
 31
0.0
  0
LINE
  5
9BD0
330
9A8B
100
AcDbEntity
  8
4
  6
CENTER
100
AcDbLine
 10
135.295121
 20
252.5218509999999
 30
0.0
 11
146.5744939999999
 21
252.5218509999999
 31
0.0
  0
LINE
  5
9BD1
330
9A8B
100
AcDbEntity
  8
4
  6
CENTER
100
AcDbLine
 10
144.5733919999999
 20
252.2718509999999
 30
0.0
 11
154.377652
 21
252.2718509999999
 31
0.0
  0
LINE
  5
9BD2
330
9A8B
100
AcDbEntity
  8
1
  6
Continuous
100
AcDbLine
 10
143.254197
 20
262.5218509999999
 30
0.0
 11
143.254197
 21
242.5218509999999
 31
0.0
  0
LINE
  5
9BD3
330
9A8B
100
AcDbEntity
  8
1
  6
Continuous
100
AcDbLine
 10
137.254197
 20
262.5218509999999
 30
0.0
 11
145.254197
 21
262.5218509999999
 31
0.0
  0
LINE
  5
9BD4
330
9A8B
100
AcDbEntity
  8
1
  6
Continuous
100
AcDbLine
 10
137.254197
 20
242.5218509999999
 30
0.0
 11
145.254197
 21
242.5218509999999
 31
0.0
  0
LINE
  5
9BD5
330
9A8B
100
AcDbEntity
  8
1
  6
Continuous
100
AcDbLine
 10
137.254197
 20
262.5218509999999
 30
0.0
 11
137.254197
 21
229.5218509999999
 31
0.0
  0
LINE
  5
9BD6
330
9A8B
100
AcDbEntity
  8
1
  6
Continuous
100
AcDbLine
 10
137.254197
 20
229.5218509999999
 30
0.0
 11
139.254197
 21
229.5218509999999
 31
0.0
  0
LINE
  5
9BD7
330
9A8B
100
AcDbEntity
  8
1
  6
Continuous
100
AcDbLine
 10
128.854203
 20
129.271851
 30
0.0
 11
129.854203
 21
129.271851
 31
0.0
  0
LINE
  5
9BD8
330
9A8B
100
AcDbEntity
  8
1
  6
Continuous
100
AcDbLine
 10
128.854203
 20
155.271851
 30
0.0
 11
129.854203
 21
155.271851
 31
0.0
  0
LINE
  5
9BD9
330
9A8B
100
AcDbEntity
  8
1
  6
Continuous
100
AcDbLine
 10
123.5541999999998
 20
153.271851
 30
0.0
 11
123.5541999999998
 21
131.271851
 31
0.0
  0
LINE
  5
9BDA
330
9A8B
100
AcDbEntity
  8
1
  6
Continuous
100
AcDbLine
 10
129.854203
 20
155.271851
 30
0.0
 11
129.854203
 21
129.271851
 31
0.0
  0
LINE
  5
9BDB
330
9A8B
100
AcDbEntity
  8
1
  6
Continuous
100
AcDbLine
 10
128.854203
 20
155.271851
 30
0.0
 11
128.854203
 21
129.271851
 31
0.0
  0
LINE
  5
9BDC
330
9A8B
100
AcDbEntity
  8
1
  6
Continuous
100
AcDbLine
 10
128.854203
 20
155.271851
 30
0.0
 11
123.5541999999998
 21
153.271851
 31
0.0
  0
LINE
  5
9BDD
330
9A8B
100
AcDbEntity
  8
1
  6
Continuous
100
AcDbLine
 10
123.5541999999998
 20
131.271835
 30
0.0
 11
128.854187
 21
129.271835
 31
0.0
  0
LINE
  5
9BDE
330
9A8B
100
AcDbEntity
  8
4
  6
CENTER
100
AcDbLine
 10
118.5739749999999
 20
142.2718509999999
 30
0.0
 11
160.6976169999998
 21
142.2718509999999
 31
0.0
  0
LINE
  5
9BDF
330
9A8B
100
AcDbEntity
  8
1
  6
Continuous
100
AcDbLine
 10
129.854203
 20
151.7718509999999
 30
0.0
 11
137.254197
 21
151.7718509999999
 31
0.0
  0
LINE
  5
9BE0
330
9A8B
100
AcDbEntity
  8
1
  6
Continuous
100
AcDbLine
 10
129.854203
 20
132.7718509999999
 30
0.0
 11
137.254197
 21
132.7718509999999
 31
0.0
  0
LINE
  5
9BE1
330
9A8B
100
AcDbEntity
  8
2
  6
Continuous
100
AcDbLine
 10
129.854203
 20
151.2303469999999
 30
0.0
 11
137.254197
 21
151.2303469999999
 31
0.0
  0
LINE
  5
9BE2
330
9A8B
100
AcDbEntity
  8
2
  6
Continuous
100
AcDbLine
 10
129.854203
 20
133.313354
 30
0.0
 11
137.254197
 21
133.313354
 31
0.0
  0
LINE
  5
9BE3
330
9A8B
100
AcDbEntity
  8
1
  6
Continuous
100
AcDbLine
 10
139.254197
 20
242.5218509999999
 30
0.0
 11
139.254197
 21
229.5218509999999
 31
0.0
  0
LINE
  5
9BE4
330
9A8B
100
AcDbEntity
  8
1
  6
Continuous
100
AcDbLine
 10
142.754197
 20
242.5218509999999
 30
0.0
 11
142.754197
 21
231.5218509999999
 31
0.0
  0
LINE
  5
9BE5
330
9A8B
100
AcDbEntity
  8
1
  6
Continuous
100
AcDbLine
 10
139.254197
 20
231.5218509999999
 30
0.0
 11
142.754197
 21
231.5218509999999
 31
0.0
  0
LINE
  5
9BE6
330
9A8B
100
AcDbEntity
  8
1
  6
Continuous
100
AcDbLine
 10
247.5541839999999
 20
138.9433139999999
 30
0.0
 11
247.5541839999999
 21
135.9209899999999
 31
0.0
  0
LINE
  5
9BE7
330
9A8B
100
AcDbEntity
  8
1
  6
Continuous
100
AcDbLine
 10
249.512864
 20
139.9629669999999
 30
0.0
 11
248.836899
 21
138.013275
 31
0.0
  0
LINE
  5
9BE8
330
9A8B
100
AcDbEntity
  8
1
  6
Continuous
100
AcDbLine
 10
145.6542059999999
 20
149.971832
 30
0.0
 11
147.2541969999998
 21
149.971832
 31
0.0
  0
LINE
  5
9BE9
330
9A8B
100
AcDbEntity
  8
1
  6
Continuous
100
AcDbLine
 10
152.2541969999998
 20
145.5685579999999
 30
0.0
 11
152.2541969999998
 21
145.18335
 31
0.0
  0
LINE
  5
9BEA
330
9A8B
100
AcDbEntity
  8
1
  6
Continuous
100
AcDbLine
 10
150.854203
 20
148.771851
 30
0.0
 11
150.854203
 21
135.7718509999999
 31
0.0
  0
LINE
  5
9BEB
330
9A8B
100
AcDbEntity
  8
1
  6
Continuous
100
AcDbLine
 10
151.6541899999998
 20
148.771851
 30
0.0
 11
151.6541899999998
 21
135.7718509999999
 31
0.0
  0
LINE
  5
9BEC
330
9A8B
100
AcDbEntity
  8
1
  6
Continuous
100
AcDbLine
 10
150.854203
 20
148.771851
 30
0.0
 11
151.6541899999998
 21
148.771851
 31
0.0
  0
LINE
  5
9BED
330
9A8B
100
AcDbEntity
  8
1
  6
Continuous
100
AcDbLine
 10
150.854203
 20
236.0218509999999
 30
0.0
 11
151.6541899999998
 21
236.0218509999999
 31
0.0
  0
LINE
  5
9BEE
330
9A8B
100
AcDbEntity
  8
1
  6
Continuous
100
AcDbLine
 10
150.254197
 20
145.9262239999999
 30
0.0
 11
150.854218
 21
145.818924
 31
0.0
  0
LINE
  5
9BEF
330
9A8B
100
AcDbEntity
  8
1
  6
Continuous
100
AcDbLine
 10
150.653107
 20
144.7890929999998
 30
0.0
 11
150.854203
 21
144.6949459999999
 31
0.0
  0
LINE
  5
9BF0
330
9A8B
100
AcDbEntity
  8
1
  6
Continuous
100
AcDbLine
 10
150.732911
 20
142.9705659999999
 30
0.0
 11
150.854203
 21
142.90036
 31
0.0
  0
LINE
  5
9BF1
330
9A8B
100
AcDbEntity
  8
1
  6
Continuous
100
AcDbLine
 10
150.254197
 20
140.592026
 30
0.0
 11
150.854187
 21
140.3111269999999
 31
0.0
  0
LINE
  5
9BF2
330
9A8B
100
AcDbEntity
  8
1
  6
Continuous
100
AcDbLine
 10
150.254212
 20
138.975128
 30
0.0
 11
150.854203
 21
138.867737
 31
0.0
  0
LINE
  5
9BF3
330
9A8B
100
AcDbEntity
  8
1
  6
Continuous
100
AcDbLine
 10
150.254212
 20
145.5410309999998
 30
0.0
 11
150.854218
 21
145.4337309999999
 31
0.0
  0
LINE
  5
9BF4
330
9A8B
100
AcDbEntity
  8
1
  6
Continuous
100
AcDbLine
 10
150.2570959999999
 20
144.343918
 30
0.0
 11
150.854203
 21
144.064331
 31
0.0
  0
LINE
  5
9BF5
330
9A8B
100
AcDbEntity
  8
1
  6
Continuous
100
AcDbLine
 10
150.333497
 20
142.277344
 30
0.0
 11
150.854203
 21
141.975952
 31
0.0
  0
LINE
  5
9BF6
330
9A8B
100
AcDbEntity
  8
1
  6
Continuous
100
AcDbLine
 10
150.254197
 20
140.1307219999999
 30
0.0
 11
150.854203
 21
139.8498229999999
 31
0.0
  0
LINE
  5
9BF7
330
9A8B
100
AcDbEntity
  8
1
  6
Continuous
100
AcDbLine
 10
150.254212
 20
138.597046
 30
0.0
 11
150.854218
 21
138.4897459999999
 31
0.0
  0
LINE
  5
9BF8
330
9A8B
100
AcDbEntity
  8
1
  6
Continuous
100
AcDbLine
 10
150.2571419999999
 20
144.343918
 30
0.0
 11
150.65329
 21
144.789291
 31
0.0
  0
LINE
  5
9BF9
330
9A8B
100
AcDbEntity
  8
1
  6
Continuous
100
AcDbLine
 10
151.8583229999999
 20
143.594254
 30
0.0
 11
152.2542269999999
 21
144.0393679999999
 31
0.0
  0
LINE
  5
9BFA
330
9A8B
100
AcDbEntity
  8
1
  6
Continuous
100
AcDbLine
 10
150.333512
 20
142.277374
 30
0.0
 11
150.732911
 21
142.9705659999999
 31
0.0
  0
LINE
  5
9BFB
330
9A8B
100
AcDbEntity
  8
1
  6
Continuous
100
AcDbLine
 10
152.333481
 20
142.044037
 30
0.0
 11
152.029084
 21
141.2959439999999
 31
0.0
  0
LINE
  5
9BFC
330
9A8B
100
AcDbEntity
  8
1
  6
Continuous
100
AcDbLine
 10
151.654221
 20
145.6758269999999
 30
0.0
 11
152.254212
 21
145.5685269999999
 31
0.0
  0
LINE
  5
9BFD
330
9A8B
100
AcDbEntity
  8
1
  6
Continuous
100
AcDbLine
 10
151.654221
 20
145.290634
 30
0.0
 11
152.254212
 21
145.183334
 31
0.0
  0
LINE
  5
9BFE
330
9A8B
100
AcDbEntity
  8
1
  6
Continuous
100
AcDbLine
 10
151.6542059999999
 20
144.320358
 30
0.0
 11
152.2541969999998
 21
144.0393679999999
 31
0.0
  0
LINE
  5
9BFF
330
9A8B
100
AcDbEntity
  8
1
  6
Continuous
100
AcDbLine
 10
151.6542059999999
 20
143.6897279999998
 30
0.0
 11
151.858307
 21
143.594223
 31
0.0
  0
LINE
  5
9C00
330
9A8B
100
AcDbEntity
  8
1
  6
Continuous
100
AcDbLine
 10
151.6542059999999
 20
142.4372559999999
 30
0.0
 11
152.333512
 21
142.0440669999998
 31
0.0
  0
LINE
  5
9C01
330
9A8B
100
AcDbEntity
  8
1
  6
Continuous
100
AcDbLine
 10
151.6542059999999
 20
141.5129389999998
 30
0.0
 11
152.0291139999999
 21
141.2959439999999
 31
0.0
  0
LINE
  5
9C02
330
9A8B
100
AcDbEntity
  8
1
  6
Continuous
100
AcDbLine
 10
151.6541899999998
 20
139.9364319999999
 30
0.0
 11
152.2541969999998
 21
139.655518
 31
0.0
  0
LINE
  5
9C03
330
9A8B
100
AcDbEntity
  8
1
  6
Continuous
100
AcDbLine
 10
151.6541899999998
 20
139.47522
 30
0.0
 11
151.8673859999998
 21
139.3753199999999
 31
0.0
  0
LINE
  5
9C04
330
9A8B
100
AcDbEntity
  8
1
  6
Continuous
100
AcDbLine
 10
151.654221
 20
138.7246089999999
 30
0.0
 11
152.254212
 21
138.61731
 31
0.0
  0
LINE
  5
9C05
330
9A8B
100
AcDbEntity
  8
1
  6
Continuous
100
AcDbLine
 10
151.654175
 20
138.346634
 30
0.0
 11
151.8449709999998
 21
138.312531
 31
0.0
  0
LINE
  5
9C06
330
9A8B
100
AcDbEntity
  8
1
  6
Continuous
100
AcDbLine
 10
152.333481
 20
147.771851
 30
0.0
 11
152.333481
 21
136.7718509999999
 31
0.0
  0
LINE
  5
9C07
330
9A8B
100
AcDbEntity
  8
1
  6
Continuous
100
AcDbLine
 10
152.2540899999999
 20
239.2251429999999
 30
0.0
 11
152.2540899999999
 21
239.610336
 31
0.0
  0
LINE
  5
9C08
330
9A8B
100
AcDbEntity
  8
1
  6
Continuous
100
AcDbLine
 10
150.8540959999999
 20
236.0218509999999
 30
0.0
 11
150.8540959999999
 21
241.0218659999999
 31
0.0
  0
LINE
  5
9C09
330
9A8B
100
AcDbEntity
  8
1
  6
Continuous
100
AcDbLine
 10
151.654084
 20
236.0218509999999
 30
0.0
 11
151.654084
 21
242.2718509999999
 31
0.0
  0
LINE
  5
9C0A
330
9A8B
100
AcDbEntity
  8
1
  6
Continuous
100
AcDbLine
 10
150.254075
 20
238.867447
 30
0.0
 11
150.854081
 21
238.974747
 31
0.0
  0
LINE
  5
9C0B
330
9A8B
100
AcDbEntity
  8
1
  6
Continuous
100
AcDbLine
 10
150.6529849999998
 20
240.004547
 30
0.0
 11
150.854065
 21
240.0987399999999
 31
0.0
  0
LINE
  5
9C0C
330
9A8B
100
AcDbEntity
  8
1
  6
Continuous
100
AcDbLine
 10
150.254075
 20
239.2526399999999
 30
0.0
 11
150.854081
 21
239.3599399999999
 31
0.0
  0
LINE
  5
9C0D
330
9A8B
100
AcDbEntity
  8
1
  6
Continuous
100
AcDbLine
 10
150.2570649999999
 20
240.449738
 30
0.0
 11
150.854081
 21
240.7293399999999
 31
0.0
  0
LINE
  5
9C0E
330
9A8B
100
AcDbEntity
  8
1
  6
Continuous
100
AcDbLine
 10
150.2687689999999
 20
240.436539
 30
0.0
 11
150.6646579999998
 21
239.9914399999999
 31
0.0
  0
LINE
  5
9C0F
330
9A8B
100
AcDbEntity
  8
1
  6
Continuous
100
AcDbLine
 10
151.8581849999999
 20
241.199448
 30
0.0
 11
152.254075
 21
240.754349
 31
0.0
  0
LINE
  5
9C10
330
9A8B
100
AcDbEntity
  8
1
  6
Continuous
100
AcDbLine
 10
151.654068
 20
239.117844
 30
0.0
 11
152.254075
 21
239.2251429999999
 31
0.0
  0
LINE
  5
9C11
330
9A8B
100
AcDbEntity
  8
1
  6
Continuous
100
AcDbLine
 10
151.654068
 20
239.5030359999999
 30
0.0
 11
152.254075
 21
239.610336
 31
0.0
  0
LINE
  5
9C12
330
9A8B
100
AcDbEntity
  8
1
  6
Continuous
100
AcDbLine
 10
151.654099
 20
240.4733579999999
 30
0.0
 11
152.254105
 21
240.754349
 31
0.0
  0
LINE
  5
9C13
330
9A8B
100
AcDbEntity
  8
1
  6
Continuous
100
AcDbLine
 10
151.654053
 20
241.1039279999999
 30
0.0
 11
151.858155
 21
241.1994319999998
 31
0.0
  0
LINE
  5
9C14
330
9A8B
100
AcDbEntity
  8
1
  6
Continuous
100
AcDbLine
 10
152.824723
 20
148.6226959999999
 30
0.0
 11
156.0422519999999
 21
148.6226959999999
 31
0.0
  0
LINE
  5
9C15
330
9A8B
100
AcDbEntity
  8
1
  6
Continuous
100
AcDbLine
 10
152.824723
 20
145.447281
 30
0.0
 11
156.0422519999999
 21
145.447281
 31
0.0
  0
LINE
  5
9C16
330
9A8B
100
AcDbEntity
  8
1
  6
Continuous
100
AcDbLine
 10
152.824723
 20
139.0964199999999
 30
0.0
 11
156.0422519999999
 21
139.0964199999999
 31
0.0
  0
LINE
  5
9C17
330
9A8B
100
AcDbEntity
  8
1
  6
Continuous
100
AcDbLine
 10
156.0422519999999
 20
148.622711
 30
0.0
 11
156.5334929999998
 21
147.771851
 31
0.0
  0
LINE
  5
9C18
330
9A8B
100
AcDbEntity
  8
1
  6
Continuous
100
AcDbLine
 10
152.333497
 20
147.771835
 30
0.0
 11
152.8247529999999
 21
148.6227259999998
 31
0.0
  0
LINE
  5
9C19
330
9A8B
100
AcDbEntity
  8
1
  6
Continuous
100
AcDbLine
 10
152.333481
 20
136.771835
 30
0.0
 11
152.824723
 21
135.9209899999999
 31
0.0
  0
LINE
  5
9C1A
330
9A8B
100
AcDbEntity
  8
1
  6
Continuous
100
AcDbLine
 10
156.0422519999999
 20
135.9209899999999
 30
0.0
 11
156.5334929999998
 21
136.7718509999999
 31
0.0
  0
LINE
  5
9C1B
330
9A8B
100
AcDbEntity
  8
1
  6
Continuous
100
AcDbLine
 10
152.333481
 20
237.0218509999999
 30
0.0
 11
152.333481
 21
245.2718509999999
 31
0.0
  0
LINE
  5
9C1C
330
9A8B
100
AcDbEntity
  8
1
  6
Continuous
100
AcDbLine
 10
156.5334929999998
 20
237.0218509999999
 30
0.0
 11
156.5334929999998
 21
248.0218509999999
 31
0.0
  0
LINE
  5
9C1D
330
9A8B
100
AcDbEntity
  8
1
  6
Continuous
100
AcDbLine
 10
152.333481
 20
237.0218509999999
 30
0.0
 11
156.5334929999998
 21
237.0218509999999
 31
0.0
  0
LINE
  5
9C1E
330
9A8B
100
AcDbEntity
  8
1
  6
Continuous
100
AcDbLine
 10
156.0422519999999
 20
242.5218509999999
 30
0.0
 11
152.8247379999999
 21
242.5218509999999
 31
0.0
  0
LINE
  5
9C1F
330
9A8B
100
AcDbEntity
  8
1
  6
Continuous
100
AcDbLine
 10
231.0541839999999
 20
145.4472659999999
 30
0.0
 11
236.554154
 21
148.6226809999998
 31
0.0
  0
LINE
  5
9C20
330
9A8B
100
AcDbEntity
  8
1
  6
Continuous
100
AcDbLine
 10
242.0541839999999
 20
145.4472659999999
 30
0.0
 11
242.0541839999999
 21
139.0964199999999
 31
0.0
  0
LINE
  5
9C21
330
9A8B
100
AcDbEntity
  8
1
  6
Continuous
100
AcDbLine
 10
231.0541839999999
 20
145.4472659999999
 30
0.0
 11
231.0541839999999
 21
139.0964199999999
 31
0.0
  0
LINE
  5
9C22
330
9A8B
100
AcDbEntity
  8
1
  6
Continuous
100
AcDbLine
 10
236.554184
 20
148.622711
 30
0.0
 11
242.0541839999999
 21
145.447281
 31
0.0
  0
LINE
  5
9C23
330
9A8B
100
AcDbEntity
  8
1
  6
Continuous
100
AcDbLine
 10
236.554184
 20
135.9209899999999
 30
0.0
 11
242.054154
 21
139.096405
 31
0.0
  0
LINE
  5
9C24
330
9A8B
100
AcDbEntity
  8
1
  6
Continuous
100
AcDbLine
 10
231.0541839999999
 20
139.0964199999999
 30
0.0
 11
236.554184
 21
135.9209899999999
 31
0.0
  0
LINE
  5
9C25
330
9A8B
100
AcDbEntity
  8
1
  6
Continuous
100
AcDbLine
 10
229.032441
 20
146.4412079999999
 30
0.0
 11
229.5572359999999
 21
146.1503299999999
 31
0.0
  0
LINE
  5
9C26
330
9A8B
100
AcDbEntity
  8
1
  6
Continuous
100
AcDbLine
 10
232.7240759999999
 20
149.971832
 30
0.0
 11
234.383927
 21
149.971832
 31
0.0
  0
LINE
  5
9C27
330
9A8B
100
AcDbEntity
  8
1
  6
Continuous
100
AcDbLine
 10
240.723587
 20
134.750137
 30
0.0
 11
240.434433
 21
135.2717439999999
 31
0.0
  0
LINE
  5
9C28
330
9A8B
100
AcDbEntity
  8
1
  6
Continuous
100
AcDbLine
 10
239.254166
 20
144.4989789999999
 30
0.0
 11
239.254166
 21
140.044722
 31
0.0
  0
LINE
  5
9C29
330
9A8B
100
AcDbEntity
  8
1
  6
Continuous
100
AcDbLine
 10
233.854172
 20
144.4989419999998
 30
0.0
 11
233.854172
 21
140.0447589999999
 31
0.0
  0
LINE
  5
9C2A
330
9A8B
100
AcDbEntity
  8
1
  6
Continuous
100
AcDbLine
 10
238.724442
 20
149.971832
 30
0.0
 11
240.384385
 21
149.971832
 31
0.0
  0
LINE
  5
9C2B
330
9A8B
100
AcDbEntity
  8
1
  6
Continuous
100
AcDbLine
 10
228.65419
 20
147.548203
 30
0.0
 11
228.65419
 21
143.5327909999998
 31
0.0
  0
LINE
  5
9C2C
330
9A8B
100
AcDbEntity
  8
1
  6
Continuous
100
AcDbLine
 10
244.4541779999999
 20
147.548203
 30
0.0
 11
244.4541779999999
 21
147.199005
 31
0.0
  0
LINE
  5
9C2D
330
9A8B
100
AcDbEntity
  8
1
  6
Continuous
100
AcDbLine
 10
231.277817
 20
134.3718409999999
 30
0.0
 11
235.293229
 21
134.3718409999999
 31
0.0
  0
LINE
  5
9C2E
330
9A8B
100
AcDbEntity
  8
1
  6
Continuous
100
AcDbLine
 10
231.277817
 20
150.1718439999999
 30
0.0
 11
235.293229
 21
150.1718439999999
 31
0.0
  0
LINE
  5
9C2F
330
9A8B
100
AcDbEntity
  8
1
  6
Continuous
100
AcDbLine
 10
228.65419
 20
141.010895
 30
0.0
 11
228.65419
 21
136.995483
 31
0.0
  0
LINE
  5
9C30
330
9A8B
100
AcDbEntity
  8
1
  6
Continuous
100
AcDbLine
 10
237.8151399999999
 20
150.1718439999999
 30
0.0
 11
241.830552
 21
150.1718439999999
 31
0.0
  0
LINE
  5
9C31
330
9A8B
100
AcDbEntity
  8
1
  6
Continuous
100
AcDbLine
 10
237.8151399999999
 20
134.3718409999999
 30
0.0
 11
241.830552
 21
134.3718409999999
 31
0.0
  0
LINE
  5
9C32
330
9A8B
100
AcDbEntity
  8
1
  6
Continuous
100
AcDbLine
 10
244.4541779999999
 20
137.344681
 30
0.0
 11
244.4541779999999
 21
136.995483
 31
0.0
  0
LINE
  5
9C33
330
9A8B
100
AcDbEntity
  8
1
  6
Continuous
100
AcDbLine
 10
145.6542059999999
 20
149.971832
 30
0.0
 11
145.6542059999999
 21
136.3718409999999
 31
0.0
  0
LINE
  5
9C34
330
9A8B
100
AcDbEntity
  8
1
  6
Continuous
100
AcDbLine
 10
145.454194
 20
238.621857
 30
0.0
 11
145.454194
 21
234.621841
 31
0.0
  0
LINE
  5
9C35
330
9A8B
100
AcDbEntity
  8
1
  6
Continuous
100
AcDbLine
 10
142.754197
 20
234.621841
 30
0.0
 11
145.454194
 21
234.621841
 31
0.0
  0
LINE
  5
9C36
330
9A8B
100
AcDbEntity
  8
1
  6
Continuous
100
AcDbLine
 10
142.754197
 20
150.1718439999999
 30
0.0
 11
145.454194
 21
150.1718439999999
 31
0.0
  0
LINE
  5
9C37
330
9A8B
100
AcDbEntity
  8
1
  6
Continuous
100
AcDbLine
 10
142.754197
 20
147.548203
 30
0.0
 11
145.454194
 21
147.548203
 31
0.0
  0
LINE
  5
9C38
330
9A8B
100
AcDbEntity
  8
1
  6
Continuous
100
AcDbLine
 10
142.754197
 20
237.245483
 30
0.0
 11
145.454194
 21
237.245483
 31
0.0
  0
LINE
  5
9C39
330
9A8B
100
AcDbEntity
  8
1
  6
Continuous
100
AcDbLine
 10
240.0955049999998
 20
135.0983579999999
 30
0.0
 11
240.4541779999999
 21
134.3718409999999
 31
0.0
  0
LINE
  5
9C3A
330
9A8B
100
AcDbEntity
  8
1
  6
Continuous
100
AcDbLine
 10
233.0128329999999
 20
135.0983579999999
 30
0.0
 11
232.65419
 21
134.3718409999999
 31
0.0
  0
LINE
  5
9C3B
330
9A8B
100
AcDbEntity
  8
1
  6
Continuous
100
AcDbLine
 10
145.454194
 20
136.3718409999999
 30
0.0
 11
147.2541969999998
 21
136.3718409999999
 31
0.0
  0
LINE
  5
9C3C
330
9A8B
100
AcDbEntity
  8
1
  6
Continuous
100
AcDbLine
 10
145.6542059999999
 20
146.4411929999999
 30
0.0
 11
147.2541969999998
 21
146.4411929999999
 31
0.0
  0
LINE
  5
9C3D
330
9A8B
100
AcDbEntity
  8
1
  6
Continuous
100
AcDbLine
 10
145.454194
 20
145.6718439999999
 30
0.0
 11
145.6542059999999
 21
145.6718439999999
 31
0.0
  0
LINE
  5
9C3E
330
9A8B
100
AcDbEntity
  8
1
  6
Continuous
100
AcDbLine
 10
145.454194
 20
138.8718409999998
 30
0.0
 11
145.6542059999999
 21
138.8718409999998
 31
0.0
  0
LINE
  5
9C3F
330
9A8B
100
AcDbEntity
  8
1
  6
Continuous
100
AcDbLine
 10
156.5542
 20
144.3382419999998
 30
0.0
 11
157.5542
 21
143.3382419999998
 31
0.0
  0
LINE
  5
9C40
330
9A8B
100
AcDbEntity
  8
1
  6
Continuous
100
AcDbLine
 10
156.5542
 20
145.6718439999999
 30
0.0
 11
157.5542
 21
144.6718439999999
 31
0.0
  0
LINE
  5
9C41
330
9A8B
100
AcDbEntity
  8
2
  6
Continuous
100
AcDbLine
 10
152.2541969999998
 20
145.365845
 30
0.0
 11
152.333481
 21
145.365845
 31
0.0
  0
LINE
  5
9C42
330
9A8B
100
AcDbEntity
  8
1
  6
Continuous
100
AcDbLine
 10
142.754197
 20
134.3718409999999
 30
0.0
 11
147.2541969999998
 21
134.3718409999999
 31
0.0
  0
LINE
  5
9C43
330
9A8B
100
AcDbEntity
  8
1
  6
Continuous
100
AcDbLine
 10
145.454194
 20
150.1718439999999
 30
0.0
 11
145.454194
 21
134.3718409999999
 31
0.0
  0
LINE
  5
9C44
330
9A8B
100
AcDbEntity
  8
1
  6
Continuous
100
AcDbLine
 10
142.754197
 20
136.995483
 30
0.0
 11
145.454194
 21
136.995483
 31
0.0
  0
LINE
  5
9C45
330
9A8B
100
AcDbEntity
  8
1
  6
Continuous
100
AcDbLine
 10
147.2541969999998
 20
150.271851
 30
0.0
 11
147.2541969999998
 21
134.271851
 31
0.0
  0
LINE
  5
9C46
330
9A8B
100
AcDbEntity
  8
2
  6
Continuous
100
AcDbLine
 10
129.854203
 20
147.5482129999998
 30
0.0
 11
137.254197
 21
142.542425
 31
0.0
  0
LINE
  5
9C47
330
9A8B
100
AcDbEntity
  8
1
  6
Continuous
100
AcDbLine
 10
150.854203
 20
135.7718509999999
 30
0.0
 11
151.6541899999998
 21
135.7718509999999
 31
0.0
  0
LINE
  5
9C48
330
9A8B
100
AcDbEntity
  8
1
  6
Continuous
100
AcDbLine
 10
152.824723
 20
135.9209899999999
 30
0.0
 11
156.0422519999999
 21
135.9209899999999
 31
0.0
  0
LINE
  5
9C49
330
9A8B
100
AcDbEntity
  8
1
  6
Continuous
100
AcDbLine
 10
157.5542
 20
144.6718439999999
 30
0.0
 11
157.5542
 21
139.8718409999998
 31
0.0
  0
LINE
  5
9C4A
330
9A8B
100
AcDbEntity
  8
1
  6
Continuous
100
AcDbLine
 10
157.5542
 20
141.2054599999999
 30
0.0
 11
156.5542
 21
140.2054599999999
 31
0.0
  0
LINE
  5
9C4B
330
9A8B
100
AcDbEntity
  8
1
  6
Continuous
100
AcDbLine
 10
157.5542
 20
139.8718409999998
 30
0.0
 11
156.5542
 21
138.8718409999998
 31
0.0
  0
LINE
  5
9C4C
330
9A8B
100
AcDbEntity
  8
1
  6
Continuous
100
AcDbLine
 10
156.5334929999998
 20
138.8718409999998
 30
0.0
 11
156.5542
 21
138.8718409999998
 31
0.0
  0
LINE
  5
9C4D
330
9A8B
100
AcDbEntity
  8
2
  6
Continuous
100
AcDbLine
 10
151.7424629999998
 20
139.177841
 30
0.0
 11
152.333481
 21
139.177841
 31
0.0
  0
LINE
  5
9C4E
330
9A8B
100
AcDbEntity
  8
1
  6
Continuous
100
AcDbLine
 10
156.5334929999998
 20
140.2054599999999
 30
0.0
 11
156.5542
 21
140.2054599999999
 31
0.0
  0
LINE
  5
9C4F
330
9A8B
100
AcDbEntity
  8
1
  6
Continuous
100
AcDbLine
 10
156.5334929999998
 20
245.2218479999999
 30
0.0
 11
157.5542
 21
245.2218479999999
 31
0.0
  0
LINE
  5
9C50
330
9A8B
100
AcDbEntity
  8
1
  6
Continuous
100
AcDbLine
 10
156.5334929999998
 20
239.821854
 30
0.0
 11
157.5542
 21
239.821854
 31
0.0
  0
LINE
  5
9C51
330
9A8B
100
AcDbEntity
  8
1
  6
Continuous
100
AcDbLine
 10
145.454194
 20
238.621857
 30
0.0
 11
147.2541969999998
 21
238.621857
 31
0.0
  0
LINE
  5
9C52
330
9A8B
100
AcDbEntity
  8
2
  6
Continuous
100
AcDbLine
 10
143.004151
 20
242.521866
 30
0.0
 11
147.2541969999998
 21
238.621857
 31
0.0
  0
LINE
  5
9C53
330
9A8B
100
AcDbEntity
  8
1
  6
Continuous
100
AcDbLine
 10
145.454194
 20
235.000122
 30
0.0
 11
147.2541969999998
 21
235.000122
 31
0.0
  0
LINE
  5
9C54
330
9A8B
100
AcDbEntity
  8
1
  6
Continuous
100
AcDbLine
 10
155.0041939999998
 20
248.0218509999999
 30
0.0
 11
156.5334929999998
 21
248.0218509999999
 31
0.0
  0
LINE
  5
9C55
330
9A8B
100
AcDbEntity
  8
1
  6
Continuous
100
AcDbLine
 10
152.3334659999999
 20
242.749649
 30
0.0
 11
152.0289769999999
 21
243.497742
 31
0.0
  0
LINE
  5
9C56
330
9A8B
100
AcDbEntity
  8
1
  6
Continuous
100
AcDbLine
 10
151.7541939999999
 20
243.338688
 30
0.0
 11
152.0289919999999
 21
243.497757
 31
0.0
  0
LINE
  5
9C57
330
9A8B
100
AcDbEntity
  8
1
  6
Continuous
100
AcDbLine
 10
151.7541939999999
 20
242.4143819999999
 30
0.0
 11
152.3334659999999
 21
242.749649
 31
0.0
  0
LINE
  5
9C58
330
9A8B
100
AcDbEntity
  8
1
  6
Continuous
100
AcDbLine
 10
147.2541969999998
 20
241.0218659999999
 30
0.0
 11
147.2541969999998
 21
234.5218509999999
 31
0.0
  0
LINE
  5
9C59
330
9A8B
100
AcDbEntity
  8
1
  6
Continuous
100
AcDbLine
 10
150.254197
 20
241.0218659999999
 30
0.0
 11
150.254197
 21
234.5218509999999
 31
0.0
  0
LINE
  5
9C5A
330
9A8B
100
AcDbEntity
  8
1
  6
Continuous
100
AcDbLine
 10
147.2541969999998
 20
234.5218509999999
 30
0.0
 11
150.254197
 21
234.5218509999999
 31
0.0
  0
LINE
  5
9C5B
330
9A8B
100
AcDbEntity
  8
1
  6
Continuous
100
AcDbLine
 10
156.533509
 20
136.7718509999999
 30
0.0
 11
156.533509
 21
147.771851
 31
0.0
  0
LINE
  5
9C5C
330
9A8B
100
AcDbEntity
  8
1
  6
Continuous
100
AcDbLine
 10
150.254197
 20
150.271851
 30
0.0
 11
150.254197
 21
134.271851
 31
0.0
  0
LINE
  5
9C5D
330
9A8B
100
AcDbEntity
  8
1
  6
Continuous
100
AcDbLine
 10
147.2541969999998
 20
150.271851
 30
0.0
 11
150.254197
 21
150.271851
 31
0.0
  0
LINE
  5
9C5E
330
9A8B
100
AcDbEntity
  8
1
  6
Continuous
100
AcDbLine
 10
147.2541969999998
 20
134.271851
 30
0.0
 11
150.254197
 21
134.271851
 31
0.0
  0
LINE
  5
9C5F
330
9A8B
100
AcDbEntity
  8
1
  6
Continuous
100
AcDbLine
 10
151.8015489999999
 20
145.7718439999998
 30
0.0
 11
152.333481
 21
145.7718439999998
 31
0.0
  0
LINE
  5
9C60
330
9A8B
100
AcDbEntity
  8
1
  6
Continuous
100
AcDbLine
 10
151.6527089999999
 20
138.7718409999999
 30
0.0
 11
152.333481
 21
138.7718409999999
 31
0.0
  0
LINE
  5
9C61
330
9A8B
100
AcDbEntity
  8
2
  6
Continuous
100
AcDbLine
 10
156.5334929999998
 20
145.365845
 30
0.0
 11
156.8601989999999
 21
145.365845
 31
0.0
  0
LINE
  5
9C62
330
9A8B
100
AcDbEntity
  8
2
  6
Continuous
100
AcDbLine
 10
156.5334929999998
 20
139.177841
 30
0.0
 11
156.8601989999999
 21
139.177841
 31
0.0
  0
LINE
  5
9C63
330
9A8B
100
AcDbEntity
  8
1
  6
Continuous
100
AcDbLine
 10
151.6541899999998
 20
140.2054599999999
 30
0.0
 11
152.333481
 21
140.2054599999999
 31
0.0
  0
LINE
  5
9C64
330
9A8B
100
AcDbEntity
  8
1
  6
Continuous
100
AcDbLine
 10
151.6541899999998
 20
144.3382259999999
 30
0.0
 11
152.333481
 21
144.3382259999999
 31
0.0
  0
LINE
  5
9C65
330
9A8B
100
AcDbEntity
  8
2
  6
Continuous
100
AcDbLine
 10
150.254197
 20
143.005081
 30
0.0
 11
150.6511539999999
 21
142.828674
 31
0.0
  0
LINE
  5
9C66
330
9A8B
100
AcDbEntity
  8
2
  6
Continuous
100
AcDbLine
 10
152.333497
 20
142.462601
 30
0.0
 11
151.9244389999998
 21
142.280838
 31
0.0
  0
LINE
  5
9C67
330
9A8B
100
AcDbEntity
  8
2
  6
Continuous
100
AcDbLine
 10
150.854203
 20
141.805237
 30
0.0
 11
150.254212
 21
141.5386049999999
 31
0.0
  0
LINE
  5
9C68
330
9A8B
100
AcDbEntity
  8
1
  6
Continuous
100
AcDbLine
 10
90.55419999999999
 20
253.5218509999999
 30
0.0
 11
90.55419999999999
 21
231.5218509999999
 31
0.0
  0
LINE
  5
9C69
330
9A8B
100
AcDbEntity
  8
1
  6
Continuous
100
AcDbLine
 10
93.5542
 20
253.5218509999999
 30
0.0
 11
93.5542
 21
231.5218509999999
 31
0.0
  0
LINE
  5
9C6A
330
9A8B
100
AcDbEntity
  8
4
  6
CENTER
100
AcDbLine
 10
86.70526200000002
 20
242.5218509999999
 30
0.0
 11
97.64924700000001
 21
242.5218509999999
 31
0.0
  0
LINE
  5
9C6B
330
9A8B
100
AcDbEntity
  8
1
  6
Continuous
100
AcDbLine
 10
90.55419999999999
 20
253.5218509999999
 30
0.0
 11
93.5542
 21
253.5218509999999
 31
0.0
  0
LINE
  5
9C6C
330
9A8B
100
AcDbEntity
  8
1
  6
Continuous
100
AcDbLine
 10
90.55419999999999
 20
231.5218509999999
 30
0.0
 11
93.5542
 21
231.5218509999999
 31
0.0
  0
LINE
  5
9C6D
330
9A8B
100
AcDbEntity
  8
1
  6
Continuous
100
AcDbLine
 10
90.55419999999999
 20
242.5218509999999
 30
0.0
 11
92.571717
 21
242.5218509999999
 31
0.0
  0
LINE
  5
9C6E
330
9A8B
100
AcDbEntity
  8
1
  6
Continuous
100
AcDbLine
 10
388.5541539999999
 20
154.9735409999998
 30
0.0
 11
386.5366369999999
 21
154.9735409999998
 31
0.0
  0
LINE
  5
9C6F
330
9A8B
100
AcDbEntity
  8
1
  6
Continuous
100
AcDbLine
 10
388.5541539999999
 20
154.9735409999998
 30
0.0
 11
388.5541539999999
 21
129.570129
 31
0.0
  0
LINE
  5
9C70
330
9A8B
100
AcDbEntity
  8
1
  6
Continuous
100
AcDbLine
 10
385.5541539999999
 20
153.271851
 30
0.0
 11
385.5541539999999
 21
131.271851
 31
0.0
  0
LINE
  5
9C71
330
9A8B
100
AcDbEntity
  8
1
  6
Continuous
100
AcDbLine
 10
388.5541539999999
 20
148.6226959999999
 30
0.0
 11
386.5366369999999
 21
148.6226959999999
 31
0.0
  0
LINE
  5
9C72
330
9A8B
100
AcDbEntity
  8
1
  6
Continuous
100
AcDbLine
 10
388.5541539999999
 20
135.9209899999999
 30
0.0
 11
386.5366369999999
 21
135.9209899999999
 31
0.0
  0
LINE
  5
9C73
330
9A8B
100
AcDbEntity
  8
1
  6
Continuous
100
AcDbLine
 10
388.5541539999999
 20
129.570129
 30
0.0
 11
386.5366369999999
 21
129.570129
 31
0.0
  0
LINE
  5
9C74
330
9A8B
100
AcDbEntity
  8
1
  6
Continuous
100
AcDbLine
 10
386.5366669999998
 20
129.570129
 30
0.0
 11
385.5541839999998
 21
131.271851
 31
0.0
  0
LINE
  5
9C75
330
9A8B
100
AcDbEntity
  8
1
  6
Continuous
100
AcDbLine
 10
386.5366669999998
 20
154.9735569999998
 30
0.0
 11
385.5541839999998
 21
153.271851
 31
0.0
  0
LINE
  5
9C76
330
9A8B
100
AcDbEntity
  8
4
  6
CENTER
100
AcDbLine
 10
392.257645
 20
142.2718509999999
 30
0.0
 11
382.0924839999999
 21
142.2718509999999
 31
0.0
  0
LINE
  5
9C77
330
9A8B
100
AcDbEntity
  8
1
  6
Continuous
100
AcDbLine
 10
341.854172
 20
157.7718509999999
 30
0.0
 11
341.854172
 21
129.271851
 31
0.0
  0
LINE
  5
9C78
330
9A8B
100
AcDbEntity
  8
1
  6
Continuous
100
AcDbLine
 10
335.854172
 20
169.771851
 30
0.0
 11
333.854172
 21
169.771851
 31
0.0
  0
LINE
  5
9C79
330
9A8B
100
AcDbEntity
  8
1
  6
Continuous
100
AcDbLine
 10
333.854172
 20
172.2718509999999
 30
0.0
 11
333.60419
 21
172.2718509999999
 31
0.0
  0
LINE
  5
9C7A
330
9A8B
100
AcDbEntity
  8
4
  6
CENTER
100
AcDbLine
 10
338.09224
 20
164.7718509999999
 30
0.0
 11
322.241532
 21
164.7718509999999
 31
0.0
  0
LINE
  5
9C7B
330
9A8B
100
AcDbEntity
  8
1
  6
Continuous
100
AcDbLine
 10
339.854172
 20
157.7718509999999
 30
0.0
 11
339.854172
 21
129.271851
 31
0.0
  0
LINE
  5
9C7C
330
9A8B
100
AcDbEntity
  8
1
  6
Continuous
100
AcDbLine
 10
333.854172
 20
172.2718509999999
 30
0.0
 11
333.854172
 21
157.7718509999999
 31
0.0
  0
LINE
  5
9C7D
330
9A8B
100
AcDbEntity
  8
1
  6
Continuous
100
AcDbLine
 10
335.854172
 20
169.771851
 30
0.0
 11
335.854172
 21
159.7718509999999
 31
0.0
  0
LINE
  5
9C7E
330
9A8B
100
AcDbEntity
  8
1
  6
Continuous
100
AcDbLine
 10
341.854172
 20
129.271851
 30
0.0
 11
339.854172
 21
129.271851
 31
0.0
  0
LINE
  5
9C7F
330
9A8B
100
AcDbEntity
  8
1
  6
Continuous
100
AcDbLine
 10
339.854172
 20
157.7718509999999
 30
0.0
 11
335.854172
 21
157.7718509999999
 31
0.0
  0
LINE
  5
9C80
330
9A8B
100
AcDbEntity
  8
1
  6
Continuous
100
AcDbLine
 10
339.854172
 20
159.7718509999999
 30
0.0
 11
335.854172
 21
159.7718509999999
 31
0.0
  0
LINE
  5
9C81
330
9A8B
100
AcDbEntity
  8
1
  6
Continuous
100
AcDbLine
 10
333.60419
 20
172.2718509999999
 30
0.0
 11
333.60419
 21
156.1218409999999
 31
0.0
  0
LINE
  5
9C82
330
9A8B
100
AcDbEntity
  8
1
  6
Continuous
100
AcDbLine
 10
333.854172
 20
157.7718509999999
 30
0.0
 11
333.60419
 21
157.7718509999999
 31
0.0
  0
LINE
  5
9C83
330
9A8B
100
AcDbEntity
  8
1
  6
Continuous
100
AcDbLine
 10
336.354172
 20
153.271851
 30
0.0
 11
336.354172
 21
131.271851
 31
0.0
  0
LINE
  5
9C84
330
9A8B
100
AcDbEntity
  8
1
  6
Continuous
100
AcDbLine
 10
339.854172
 20
129.570129
 30
0.0
 11
337.336655
 21
129.570129
 31
0.0
  0
LINE
  5
9C85
330
9A8B
100
AcDbEntity
  8
1
  6
Continuous
100
AcDbLine
 10
339.854172
 20
135.9209899999999
 30
0.0
 11
337.336655
 21
135.9209899999999
 31
0.0
  0
LINE
  5
9C86
330
9A8B
100
AcDbEntity
  8
1
  6
Continuous
100
AcDbLine
 10
339.854172
 20
148.6226959999999
 30
0.0
 11
337.336655
 21
148.6226959999999
 31
0.0
  0
LINE
  5
9C87
330
9A8B
100
AcDbEntity
  8
1
  6
Continuous
100
AcDbLine
 10
339.854172
 20
154.9735409999998
 30
0.0
 11
337.336655
 21
154.9735409999998
 31
0.0
  0
LINE
  5
9C88
330
9A8B
100
AcDbEntity
  8
1
  6
Continuous
100
AcDbLine
 10
337.336655
 20
129.570129
 30
0.0
 11
336.354172
 21
131.271835
 31
0.0
  0
LINE
  5
9C89
330
9A8B
100
AcDbEntity
  8
1
  6
Continuous
100
AcDbLine
 10
337.336655
 20
154.9735569999998
 30
0.0
 11
336.354172
 21
153.271851
 31
0.0
  0
LINE
  5
9C8A
330
9A8B
100
AcDbEntity
  8
1
  6
Continuous
100
AcDbLine
 10
333.35419
 20
168.171844
 30
0.0
 11
327.35419
 21
168.171844
 31
0.0
  0
LINE
  5
9C8B
330
9A8B
100
AcDbEntity
  8
1
  6
Continuous
100
AcDbLine
 10
331.954166
 20
171.671844
 30
0.0
 11
328.754154
 21
171.671844
 31
0.0
  0
LINE
  5
9C8C
330
9A8B
100
AcDbEntity
  8
1
  6
Continuous
100
AcDbLine
 10
327.10419
 20
167.971848
 30
0.0
 11
327.10419
 21
162.521851
 31
0.0
  0
LINE
  5
9C8D
330
9A8B
100
AcDbEntity
  8
4
  6
CENTER
100
AcDbLine
 10
330.35419
 20
173.6636349999999
 30
0.0
 11
330.35419
 21
152.30098
 31
0.0
  0
LINE
  5
9C8E
330
9A8B
100
AcDbEntity
  8
1
  6
Continuous
100
AcDbLine
 10
333.35419
 20
168.6718439999999
 30
0.0
 11
333.35419
 21
155.3718409999999
 31
0.0
  0
LINE
  5
9C8F
330
9A8B
100
AcDbEntity
  8
1
  6
Continuous
100
AcDbLine
 10
327.35419
 20
168.6718439999999
 30
0.0
 11
327.35419
 21
155.3718409999999
 31
0.0
  0
LINE
  5
9C90
330
9A8B
100
AcDbEntity
  8
1
  6
Continuous
100
AcDbLine
 10
333.35419
 20
155.3718409999999
 30
0.0
 11
327.35419
 21
155.3718409999999
 31
0.0
  0
LINE
  5
9C91
330
9A8B
100
AcDbEntity
  8
1
  6
Continuous
100
AcDbLine
 10
333.60419
 20
167.971848
 30
0.0
 11
333.35419
 21
167.971848
 31
0.0
  0
LINE
  5
9C92
330
9A8B
100
AcDbEntity
  8
1
  6
Continuous
100
AcDbLine
 10
327.35419
 20
167.971848
 30
0.0
 11
327.10419
 21
167.971848
 31
0.0
  0
LINE
  5
9C93
330
9A8B
100
AcDbEntity
  8
1
  6
Continuous
100
AcDbLine
 10
333.60419
 20
158.6218409999998
 30
0.0
 11
333.35419
 21
158.6218409999998
 31
0.0
  0
LINE
  5
9C94
330
9A8B
100
AcDbEntity
  8
1
  6
Continuous
100
AcDbLine
 10
333.60419
 20
156.1218409999999
 30
0.0
 11
333.35419
 21
156.1218409999999
 31
0.0
  0
LINE
  5
9C95
330
9A8B
100
AcDbEntity
  8
1
  6
Continuous
100
AcDbLine
 10
327.10419
 20
158.6218409999998
 30
0.0
 11
327.10419
 21
156.1218409999999
 31
0.0
  0
LINE
  5
9C96
330
9A8B
100
AcDbEntity
  8
1
  6
Continuous
100
AcDbLine
 10
327.35419
 20
158.6218409999998
 30
0.0
 11
327.10419
 21
158.6218409999998
 31
0.0
  0
LINE
  5
9C97
330
9A8B
100
AcDbEntity
  8
1
  6
Continuous
100
AcDbLine
 10
327.35419
 20
156.1218409999999
 30
0.0
 11
327.10419
 21
156.1218409999999
 31
0.0
  0
LINE
  5
9C98
330
9A8B
100
AcDbEntity
  8
1
  6
Continuous
100
AcDbLine
 10
332.504154
 20
153.1718439999998
 30
0.0
 11
328.2041659999998
 21
153.1718439999998
 31
0.0
  0
LINE
  5
9C99
330
9A8B
100
AcDbEntity
  8
1
  6
Continuous
100
AcDbLine
 10
328.2041659999998
 20
155.3718409999999
 30
0.0
 11
328.2041659999998
 21
153.1718439999998
 31
0.0
  0
LINE
  5
9C9A
330
9A8B
100
AcDbEntity
  8
1
  6
Continuous
100
AcDbLine
 10
332.504154
 20
155.3718409999999
 30
0.0
 11
332.504154
 21
153.1718439999998
 31
0.0
  0
LINE
  5
9C9B
330
9A8B
100
AcDbEntity
  8
1
  6
Continuous
100
AcDbLine
 10
328.754154
 20
171.671844
 30
0.0
 11
328.754154
 21
168.171844
 31
0.0
  0
LINE
  5
9C9C
330
9A8B
100
AcDbEntity
  8
1
  6
Continuous
100
AcDbLine
 10
331.954166
 20
171.671844
 30
0.0
 11
331.954166
 21
168.171844
 31
0.0
  0
LINE
  5
9C9D
330
9A8B
100
AcDbEntity
  8
4
  6
CENTER
100
AcDbLine
 10
331.799869
 20
170.171844
 30
0.0
 11
328.987247
 21
170.171844
 31
0.0
  0
LINE
  5
9C9E
330
9A8B
100
AcDbEntity
  8
1
  6
Continuous
100
AcDbLine
 10
328.4541659999998
 20
168.6718439999999
 30
0.0
 11
328.4541659999998
 21
168.171844
 31
0.0
  0
LINE
  5
9C9F
330
9A8B
100
AcDbEntity
  8
1
  6
Continuous
100
AcDbLine
 10
332.254154
 20
168.6718439999999
 30
0.0
 11
332.254154
 21
168.171844
 31
0.0
  0
LINE
  5
9CA0
330
9A8B
100
AcDbEntity
  8
1
  6
Continuous
100
AcDbLine
 10
333.35419
 20
168.6718439999999
 30
0.0
 11
332.254154
 21
168.6718439999999
 31
0.0
  0
LINE
  5
9CA1
330
9A8B
100
AcDbEntity
  8
1
  6
Continuous
100
AcDbLine
 10
328.4541659999998
 20
168.6718439999999
 30
0.0
 11
327.35419
 21
168.6718439999999
 31
0.0
  0
LINE
  5
9CA2
330
9A8B
100
AcDbEntity
  8
1
  6
Continuous
100
AcDbLine
 10
333.60419
 20
162.6218409999999
 30
0.0
 11
333.35419
 21
162.6218409999999
 31
0.0
  0
LINE
  5
9CA3
330
9A8B
100
AcDbEntity
  8
1
  6
Continuous
100
AcDbLine
 10
327.35419
 20
162.6218409999999
 30
0.0
 11
327.10419
 21
162.6218409999999
 31
0.0
  0
LINE
  5
9CA4
330
9A8B
100
AcDbEntity
  8
1
  6
Continuous
100
AcDbLine
 10
327.10419
 20
167.0218509999999
 30
0.0
 11
326.10419
 21
167.0218509999999
 31
0.0
  0
LINE
  5
9CA5
330
9A8B
100
AcDbEntity
  8
1
  6
Continuous
100
AcDbLine
 10
326.10419
 20
166.6718439999999
 30
0.0
 11
325.25452
 21
166.6718439999999
 31
0.0
  0
LINE
  5
9CA6
330
9A8B
100
AcDbEntity
  8
1
  6
Continuous
100
AcDbLine
 10
326.10419
 20
162.521851
 30
0.0
 11
326.10419
 21
167.0218509999999
 31
0.0
  0
LINE
  5
9CA7
330
9A8B
100
AcDbEntity
  8
1
  6
Continuous
100
AcDbLine
 10
326.1041599999999
 20
164.442642
 30
0.0
 11
326.6041599999998
 21
164.731354
 31
0.0
  0
LINE
  5
9CA8
330
9A8B
100
AcDbEntity
  8
1
  6
Continuous
100
AcDbLine
 10
326.1041599999999
 20
164.7760309999999
 30
0.0
 11
326.6041599999998
 21
165.064651
 31
0.0
  0
LINE
  5
9CA9
330
9A8B
100
AcDbEntity
  8
1
  6
Continuous
100
AcDbLine
 10
327.10419
 20
162.521851
 30
0.0
 11
326.10419
 21
162.521851
 31
0.0
  0
LINE
  5
9CAA
330
9A8B
100
AcDbEntity
  8
1
  6
Continuous
100
AcDbLine
 10
326.60419
 20
162.521851
 30
0.0
 11
326.60419
 21
167.0218509999999
 31
0.0
  0
LINE
  5
9CAB
330
9A8B
100
AcDbEntity
  8
1
  6
Continuous
100
AcDbLine
 10
326.10419
 20
162.8718409999999
 30
0.0
 11
325.25452
 21
162.8718409999999
 31
0.0
  0
LINE
  5
9CAC
330
9A8B
100
AcDbEntity
  8
1
  6
Continuous
100
AcDbLine
 10
324.10419
 20
164.098633
 30
0.0
 11
324.10419
 21
165.4449459999999
 31
0.0
  0
LINE
  5
9CAD
330
9A8B
100
AcDbEntity
  8
1
  6
Continuous
100
AcDbLine
 10
350.2541659999999
 20
129.271851
 30
0.0
 11
349.254166
 21
129.271851
 31
0.0
  0
LINE
  5
9CAE
330
9A8B
100
AcDbEntity
  8
1
  6
Continuous
100
AcDbLine
 10
350.2541659999999
 20
155.271851
 30
0.0
 11
349.254166
 21
155.271851
 31
0.0
  0
LINE
  5
9CAF
330
9A8B
100
AcDbEntity
  8
1
  6
Continuous
100
AcDbLine
 10
355.554154
 20
153.271851
 30
0.0
 11
355.554154
 21
131.271851
 31
0.0
  0
LINE
  5
9CB0
330
9A8B
100
AcDbEntity
  8
1
  6
Continuous
100
AcDbLine
 10
349.254166
 20
155.271851
 30
0.0
 11
349.254166
 21
129.271851
 31
0.0
  0
LINE
  5
9CB1
330
9A8B
100
AcDbEntity
  8
1
  6
Continuous
100
AcDbLine
 10
350.2541659999999
 20
155.271851
 30
0.0
 11
350.2541659999999
 21
129.271851
 31
0.0
  0
LINE
  5
9CB2
330
9A8B
100
AcDbEntity
  8
1
  6
Continuous
100
AcDbLine
 10
350.2541659999999
 20
155.271866
 30
0.0
 11
355.5541839999999
 21
153.271851
 31
0.0
  0
LINE
  5
9CB3
330
9A8B
100
AcDbEntity
  8
1
  6
Continuous
100
AcDbLine
 10
355.5541839999999
 20
131.271851
 30
0.0
 11
350.2541969999999
 21
129.271851
 31
0.0
  0
LINE
  5
9CB4
330
9A8B
100
AcDbEntity
  8
4
  6
CENTER
100
AcDbLine
 10
360.534378
 20
142.2718509999999
 30
0.0
 11
318.4107519999999
 21
142.2718509999999
 31
0.0
  0
LINE
  5
9CB5
330
9A8B
100
AcDbEntity
  8
1
  6
Continuous
100
AcDbLine
 10
349.254166
 20
151.7718509999999
 30
0.0
 11
341.854172
 21
151.7718509999999
 31
0.0
  0
LINE
  5
9CB6
330
9A8B
100
AcDbEntity
  8
1
  6
Continuous
100
AcDbLine
 10
349.254166
 20
132.7718509999999
 30
0.0
 11
341.854172
 21
132.7718509999999
 31
0.0
  0
LINE
  5
9CB7
330
9A8B
100
AcDbEntity
  8
2
  6
Continuous
100
AcDbLine
 10
349.254166
 20
151.2303469999999
 30
0.0
 11
341.854172
 21
151.2303469999999
 31
0.0
  0
LINE
  5
9CB8
330
9A8B
100
AcDbEntity
  8
2
  6
Continuous
100
AcDbLine
 10
349.254166
 20
133.313354
 30
0.0
 11
341.854172
 21
133.313354
 31
0.0
  0
LINE
  5
9CB9
330
9A8B
100
AcDbEntity
  8
1
  6
Continuous
100
AcDbLine
 10
333.4541779999999
 20
149.971832
 30
0.0
 11
331.854172
 21
149.971832
 31
0.0
  0
LINE
  5
9CBA
330
9A8B
100
AcDbEntity
  8
1
  6
Continuous
100
AcDbLine
 10
326.8541719999999
 20
145.5685579999999
 30
0.0
 11
326.8541719999999
 21
145.18335
 31
0.0
  0
LINE
  5
9CBB
330
9A8B
100
AcDbEntity
  8
1
  6
Continuous
100
AcDbLine
 10
328.254166
 20
148.771851
 30
0.0
 11
328.254166
 21
135.7718509999999
 31
0.0
  0
LINE
  5
9CBC
330
9A8B
100
AcDbEntity
  8
1
  6
Continuous
100
AcDbLine
 10
327.4541779999998
 20
148.771851
 30
0.0
 11
327.4541779999998
 21
135.7718509999999
 31
0.0
  0
LINE
  5
9CBD
330
9A8B
100
AcDbEntity
  8
1
  6
Continuous
100
AcDbLine
 10
328.254166
 20
148.771851
 30
0.0
 11
327.4541779999998
 21
148.771851
 31
0.0
  0
LINE
  5
9CBE
330
9A8B
100
AcDbEntity
  8
1
  6
Continuous
100
AcDbLine
 10
328.854172
 20
145.9262389999999
 30
0.0
 11
328.254166
 21
145.818924
 31
0.0
  0
LINE
  5
9CBF
330
9A8B
100
AcDbEntity
  8
1
  6
Continuous
100
AcDbLine
 10
328.455277
 20
144.7890929999998
 30
0.0
 11
328.254166
 21
144.6949459999999
 31
0.0
  0
LINE
  5
9CC0
330
9A8B
100
AcDbEntity
  8
1
  6
Continuous
100
AcDbLine
 10
328.375473
 20
142.9705509999998
 30
0.0
 11
328.254166
 21
142.90036
 31
0.0
  0
LINE
  5
9CC1
330
9A8B
100
AcDbEntity
  8
1
  6
Continuous
100
AcDbLine
 10
328.854172
 20
140.5920099999999
 30
0.0
 11
328.254166
 21
140.3111269999999
 31
0.0
  0
LINE
  5
9CC2
330
9A8B
100
AcDbEntity
  8
1
  6
Continuous
100
AcDbLine
 10
328.8541419999999
 20
138.975143
 30
0.0
 11
328.254166
 21
138.867737
 31
0.0
  0
LINE
  5
9CC3
330
9A8B
100
AcDbEntity
  8
1
  6
Continuous
100
AcDbLine
 10
328.854172
 20
145.5410309999998
 30
0.0
 11
328.254166
 21
145.4337309999999
 31
0.0
  0
LINE
  5
9CC4
330
9A8B
100
AcDbEntity
  8
1
  6
Continuous
100
AcDbLine
 10
328.8512729999998
 20
144.343918
 30
0.0
 11
328.254166
 21
144.064331
 31
0.0
  0
LINE
  5
9CC5
330
9A8B
100
AcDbEntity
  8
1
  6
Continuous
100
AcDbLine
 10
328.774857
 20
142.277344
 30
0.0
 11
328.254166
 21
141.975952
 31
0.0
  0
LINE
  5
9CC6
330
9A8B
100
AcDbEntity
  8
1
  6
Continuous
100
AcDbLine
 10
328.854172
 20
140.130707
 30
0.0
 11
328.254166
 21
139.8498079999999
 31
0.0
  0
LINE
  5
9CC7
330
9A8B
100
AcDbEntity
  8
1
  6
Continuous
100
AcDbLine
 10
328.854172
 20
138.597046
 30
0.0
 11
328.254166
 21
138.4897459999999
 31
0.0
  0
LINE
  5
9CC8
330
9A8B
100
AcDbEntity
  8
1
  6
Continuous
100
AcDbLine
 10
328.8512419999999
 20
144.343903
 30
0.0
 11
328.4550939999999
 21
144.789291
 31
0.0
  0
LINE
  5
9CC9
330
9A8B
100
AcDbEntity
  8
1
  6
Continuous
100
AcDbLine
 10
327.2500459999998
 20
143.594254
 30
0.0
 11
326.8541419999999
 21
144.0393679999999
 31
0.0
  0
LINE
  5
9CCA
330
9A8B
100
AcDbEntity
  8
1
  6
Continuous
100
AcDbLine
 10
328.774857
 20
142.277359
 30
0.0
 11
328.375443
 21
142.9705509999998
 31
0.0
  0
LINE
  5
9CCB
330
9A8B
100
AcDbEntity
  8
1
  6
Continuous
100
AcDbLine
 10
326.7748879999999
 20
142.044037
 30
0.0
 11
327.0792999999998
 21
141.2959439999999
 31
0.0
  0
LINE
  5
9CCC
330
9A8B
100
AcDbEntity
  8
1
  6
Continuous
100
AcDbLine
 10
327.4541779999998
 20
145.6758419999998
 30
0.0
 11
326.8541719999999
 21
145.5685269999999
 31
0.0
  0
LINE
  5
9CCD
330
9A8B
100
AcDbEntity
  8
1
  6
Continuous
100
AcDbLine
 10
327.4541779999998
 20
145.290634
 30
0.0
 11
326.8541719999999
 21
145.183334
 31
0.0
  0
LINE
  5
9CCE
330
9A8B
100
AcDbEntity
  8
1
  6
Continuous
100
AcDbLine
 10
327.4541779999998
 20
144.320358
 30
0.0
 11
326.8541719999999
 21
144.0393679999999
 31
0.0
  0
LINE
  5
9CCF
330
9A8B
100
AcDbEntity
  8
1
  6
Continuous
100
AcDbLine
 10
327.4541479999999
 20
143.6897279999998
 30
0.0
 11
327.2500459999998
 21
143.594223
 31
0.0
  0
LINE
  5
9CD0
330
9A8B
100
AcDbEntity
  8
1
  6
Continuous
100
AcDbLine
 10
327.4541479999999
 20
142.4372559999999
 30
0.0
 11
326.774857
 21
142.0440669999998
 31
0.0
  0
LINE
  5
9CD1
330
9A8B
100
AcDbEntity
  8
1
  6
Continuous
100
AcDbLine
 10
327.4541779999998
 20
141.512955
 30
0.0
 11
327.07927
 21
141.2959439999999
 31
0.0
  0
LINE
  5
9CD2
330
9A8B
100
AcDbEntity
  8
1
  6
Continuous
100
AcDbLine
 10
327.4541479999999
 20
139.936417
 30
0.0
 11
326.8541419999999
 21
139.655518
 31
0.0
  0
LINE
  5
9CD3
330
9A8B
100
AcDbEntity
  8
1
  6
Continuous
100
AcDbLine
 10
327.454209
 20
139.47522
 30
0.0
 11
327.240982
 21
139.3753199999999
 31
0.0
  0
LINE
  5
9CD4
330
9A8B
100
AcDbEntity
  8
1
  6
Continuous
100
AcDbLine
 10
327.4541779999998
 20
138.724625
 30
0.0
 11
326.8541719999999
 21
138.6173249999999
 31
0.0
  0
LINE
  5
9CD5
330
9A8B
100
AcDbEntity
  8
1
  6
Continuous
100
AcDbLine
 10
327.454209
 20
138.346634
 30
0.0
 11
327.263413
 21
138.312531
 31
0.0
  0
LINE
  5
9CD6
330
9A8B
100
AcDbEntity
  8
1
  6
Continuous
100
AcDbLine
 10
326.7748879999999
 20
147.771851
 30
0.0
 11
326.7748879999999
 21
136.7718509999999
 31
0.0
  0
LINE
  5
9CD7
330
9A8B
100
AcDbEntity
  8
1
  6
Continuous
100
AcDbLine
 10
326.2836459999999
 20
148.6226959999999
 30
0.0
 11
323.066117
 21
148.6226959999999
 31
0.0
  0
LINE
  5
9CD8
330
9A8B
100
AcDbEntity
  8
1
  6
Continuous
100
AcDbLine
 10
326.2836459999999
 20
145.447281
 30
0.0
 11
323.066117
 21
145.447281
 31
0.0
  0
LINE
  5
9CD9
330
9A8B
100
AcDbEntity
  8
1
  6
Continuous
100
AcDbLine
 10
326.2836459999999
 20
139.0964199999999
 30
0.0
 11
323.066117
 21
139.0964199999999
 31
0.0
  0
LINE
  5
9CDA
330
9A8B
100
AcDbEntity
  8
1
  6
Continuous
100
AcDbLine
 10
323.066117
 20
148.622711
 30
0.0
 11
322.574875
 21
147.7718659999998
 31
0.0
  0
LINE
  5
9CDB
330
9A8B
100
AcDbEntity
  8
1
  6
Continuous
100
AcDbLine
 10
326.7748879999999
 20
147.771835
 30
0.0
 11
326.2836159999999
 21
148.6227259999998
 31
0.0
  0
LINE
  5
9CDC
330
9A8B
100
AcDbEntity
  8
1
  6
Continuous
100
AcDbLine
 10
326.7748879999999
 20
136.771835
 30
0.0
 11
326.2836459999999
 21
135.9209749999999
 31
0.0
  0
LINE
  5
9CDD
330
9A8B
100
AcDbEntity
  8
1
  6
Continuous
100
AcDbLine
 10
323.066117
 20
135.921005
 30
0.0
 11
322.574875
 21
136.7718509999999
 31
0.0
  0
LINE
  5
9CDE
330
9A8B
100
AcDbEntity
  8
1
  6
Continuous
100
AcDbLine
 10
333.4541779999999
 20
149.971832
 30
0.0
 11
333.4541779999999
 21
134.750122
 31
0.0
  0
LINE
  5
9CDF
330
9A8B
100
AcDbEntity
  8
1
  6
Continuous
100
AcDbLine
 10
336.354172
 20
150.1718439999999
 30
0.0
 11
333.6541599999998
 21
150.1718439999999
 31
0.0
  0
LINE
  5
9CE0
330
9A8B
100
AcDbEntity
  8
1
  6
Continuous
100
AcDbLine
 10
336.354172
 20
147.548203
 30
0.0
 11
333.6541599999998
 21
147.548203
 31
0.0
  0
LINE
  5
9CE1
330
9A8B
100
AcDbEntity
  8
1
  6
Continuous
100
AcDbLine
 10
333.6541599999998
 20
145.6718439999999
 30
0.0
 11
333.4541779999999
 21
145.6718439999999
 31
0.0
  0
LINE
  5
9CE2
330
9A8B
100
AcDbEntity
  8
1
  6
Continuous
100
AcDbLine
 10
333.6541599999998
 20
138.8718409999998
 30
0.0
 11
333.4541779999999
 21
138.8718409999998
 31
0.0
  0
LINE
  5
9CE3
330
9A8B
100
AcDbEntity
  8
1
  6
Continuous
100
AcDbLine
 10
322.554154
 20
144.3382259999999
 30
0.0
 11
321.5541839999999
 21
143.3382419999998
 31
0.0
  0
LINE
  5
9CE4
330
9A8B
100
AcDbEntity
  8
1
  6
Continuous
100
AcDbLine
 10
322.5541839999999
 20
145.6718439999999
 30
0.0
 11
321.5541839999999
 21
144.6718439999999
 31
0.0
  0
LINE
  5
9CE5
330
9A8B
100
AcDbEntity
  8
2
  6
Continuous
100
AcDbLine
 10
326.8541719999999
 20
145.365845
 30
0.0
 11
326.7748879999999
 21
145.365845
 31
0.0
  0
LINE
  5
9CE6
330
9A8B
100
AcDbEntity
  8
1
  6
Continuous
100
AcDbLine
 10
336.354172
 20
134.3718409999999
 30
0.0
 11
331.854172
 21
134.3718409999999
 31
0.0
  0
LINE
  5
9CE7
330
9A8B
100
AcDbEntity
  8
1
  6
Continuous
100
AcDbLine
 10
333.6541599999998
 20
150.1718439999999
 30
0.0
 11
333.6541599999998
 21
134.3718409999999
 31
0.0
  0
LINE
  5
9CE8
330
9A8B
100
AcDbEntity
  8
1
  6
Continuous
100
AcDbLine
 10
336.354172
 20
136.995483
 30
0.0
 11
333.6541599999998
 21
136.995483
 31
0.0
  0
LINE
  5
9CE9
330
9A8B
100
AcDbEntity
  8
1
  6
Continuous
100
AcDbLine
 10
331.854172
 20
150.271851
 30
0.0
 11
331.854172
 21
134.271851
 31
0.0
  0
LINE
  5
9CEA
330
9A8B
100
AcDbEntity
  8
1
  6
Continuous
100
AcDbLine
 10
328.254166
 20
135.7718509999999
 30
0.0
 11
327.4541779999998
 21
135.7718509999999
 31
0.0
  0
LINE
  5
9CEB
330
9A8B
100
AcDbEntity
  8
1
  6
Continuous
100
AcDbLine
 10
326.2836459999999
 20
135.9209899999999
 30
0.0
 11
323.066117
 21
135.9209899999999
 31
0.0
  0
LINE
  5
9CEC
330
9A8B
100
AcDbEntity
  8
1
  6
Continuous
100
AcDbLine
 10
321.5541539999999
 20
144.6718439999999
 30
0.0
 11
321.5541539999999
 21
139.8718409999998
 31
0.0
  0
LINE
  5
9CED
330
9A8B
100
AcDbEntity
  8
1
  6
Continuous
100
AcDbLine
 10
321.5541839999999
 20
141.205444
 30
0.0
 11
322.554154
 21
140.2054599999999
 31
0.0
  0
LINE
  5
9CEE
330
9A8B
100
AcDbEntity
  8
1
  6
Continuous
100
AcDbLine
 10
321.5541839999999
 20
139.8718569999997
 30
0.0
 11
322.5541839999999
 21
138.8718569999997
 31
0.0
  0
LINE
  5
9CEF
330
9A8B
100
AcDbEntity
  8
1
  6
Continuous
100
AcDbLine
 10
322.574875
 20
138.8718409999998
 30
0.0
 11
322.5541839999999
 21
138.8718409999998
 31
0.0
  0
LINE
  5
9CF0
330
9A8B
100
AcDbEntity
  8
2
  6
Continuous
100
AcDbLine
 10
327.3658909999999
 20
139.177841
 30
0.0
 11
326.7748879999999
 21
139.177841
 31
0.0
  0
LINE
  5
9CF1
330
9A8B
100
AcDbEntity
  8
1
  6
Continuous
100
AcDbLine
 10
322.574875
 20
140.2054599999999
 30
0.0
 11
322.5541839999999
 21
140.2054599999999
 31
0.0
  0
LINE
  5
9CF2
330
9A8B
100
AcDbEntity
  8
1
  6
Continuous
100
AcDbLine
 10
322.5748449999999
 20
136.7718509999999
 30
0.0
 11
322.5748449999999
 21
147.771851
 31
0.0
  0
LINE
  5
9CF3
330
9A8B
100
AcDbEntity
  8
1
  6
Continuous
100
AcDbLine
 10
328.854172
 20
150.271851
 30
0.0
 11
328.854172
 21
134.271851
 31
0.0
  0
LINE
  5
9CF4
330
9A8B
100
AcDbEntity
  8
1
  6
Continuous
100
AcDbLine
 10
331.854172
 20
150.271851
 30
0.0
 11
328.854172
 21
150.271851
 31
0.0
  0
LINE
  5
9CF5
330
9A8B
100
AcDbEntity
  8
1
  6
Continuous
100
AcDbLine
 10
331.854172
 20
134.271851
 30
0.0
 11
328.854172
 21
134.271851
 31
0.0
  0
LINE
  5
9CF6
330
9A8B
100
AcDbEntity
  8
1
  6
Continuous
100
AcDbLine
 10
327.30682
 20
145.7718439999998
 30
0.0
 11
326.7748879999999
 21
145.7718439999998
 31
0.0
  0
LINE
  5
9CF7
330
9A8B
100
AcDbEntity
  8
1
  6
Continuous
100
AcDbLine
 10
327.45566
 20
138.7718409999999
 30
0.0
 11
326.7748879999999
 21
138.7718409999999
 31
0.0
  0
LINE
  5
9CF8
330
9A8B
100
AcDbEntity
  8
2
  6
Continuous
100
AcDbLine
 10
322.574875
 20
145.365845
 30
0.0
 11
322.2481539999999
 21
145.365845
 31
0.0
  0
LINE
  5
9CF9
330
9A8B
100
AcDbEntity
  8
2
  6
Continuous
100
AcDbLine
 10
322.574875
 20
139.177841
 30
0.0
 11
322.2481539999999
 21
139.177841
 31
0.0
  0
LINE
  5
9CFA
330
9A8B
100
AcDbEntity
  8
1
  6
Continuous
100
AcDbLine
 10
327.4541779999998
 20
140.2054599999999
 30
0.0
 11
326.7748879999999
 21
140.2054599999999
 31
0.0
  0
LINE
  5
9CFB
330
9A8B
100
AcDbEntity
  8
1
  6
Continuous
100
AcDbLine
 10
327.4541779999998
 20
144.3382259999999
 30
0.0
 11
326.7748879999999
 21
144.3382259999999
 31
0.0
  0
LINE
  5
9CFC
330
9A8B
100
AcDbEntity
  8
2
  6
Continuous
100
AcDbLine
 10
328.854172
 20
143.005081
 30
0.0
 11
328.4572299999999
 21
142.828674
 31
0.0
  0
LINE
  5
9CFD
330
9A8B
100
AcDbEntity
  8
2
  6
Continuous
100
AcDbLine
 10
326.7748879999999
 20
142.462616
 30
0.0
 11
327.183915
 21
142.280838
 31
0.0
  0
LINE
  5
9CFE
330
9A8B
100
AcDbEntity
  8
2
  6
Continuous
100
AcDbLine
 10
328.254166
 20
141.805237
 30
0.0
 11
328.854172
 21
141.5386049999999
 31
0.0
  0
LINE
  5
9CFF
330
9A8B
100
AcDbEntity
  8
1
  6
Continuous
100
AcDbLine
 10
331.854172
 20
134.750122
 30
0.0
 11
333.4541779999999
 21
134.750122
 31
0.0
  0
LINE
  5
9D00
330
9A8B
100
AcDbEntity
  8
1
  6
Continuous
100
AcDbLine
 10
333.6541599999998
 20
136.3718409999999
 30
0.0
 11
333.4541779999999
 21
136.3718409999999
 31
0.0
  0
LINE
  5
9D01
330
9A8B
100
AcDbEntity
  8
1
  6
Continuous
100
AcDbLine
 10
331.854172
 20
146.101929
 30
0.0
 11
333.4541779999999
 21
146.101929
 31
0.0
  0
LINE
  5
9D02
330
9A8B
100
AcDbEntity
  8
1
  6
Continuous
100
AcDbLine
 10
331.854172
 20
138.44165
 30
0.0
 11
333.4541779999999
 21
138.44165
 31
0.0
  0
LINE
  5
9D03
330
9A8B
100
AcDbEntity
  8
1
  6
Continuous
100
AcDbLine
 10
128.854203
 20
65.021835
 30
0.0
 11
129.854203
 21
65.021835
 31
0.0
  0
LINE
  5
9D04
330
9A8B
100
AcDbEntity
  8
1
  6
Continuous
100
AcDbLine
 10
128.854203
 20
39.02183499999999
 30
0.0
 11
129.854203
 21
39.02183499999999
 31
0.0
  0
LINE
  5
9D05
330
9A8B
100
AcDbEntity
  8
1
  6
Continuous
100
AcDbLine
 10
123.5541999999998
 20
41.02183499999997
 30
0.0
 11
123.5541999999998
 21
63.02183499999999
 31
0.0
  0
LINE
  5
9D06
330
9A8B
100
AcDbEntity
  8
1
  6
Continuous
100
AcDbLine
 10
129.854203
 20
39.02183499999999
 30
0.0
 11
129.854203
 21
65.021835
 31
0.0
  0
LINE
  5
9D07
330
9A8B
100
AcDbEntity
  8
1
  6
Continuous
100
AcDbLine
 10
128.854203
 20
39.02183499999999
 30
0.0
 11
128.854203
 21
65.021835
 31
0.0
  0
LINE
  5
9D08
330
9A8B
100
AcDbEntity
  8
1
  6
Continuous
100
AcDbLine
 10
128.854203
 20
39.02183499999999
 30
0.0
 11
123.554184
 21
41.02183899999999
 31
0.0
  0
LINE
  5
9D09
330
9A8B
100
AcDbEntity
  8
1
  6
Continuous
100
AcDbLine
 10
123.5541999999998
 20
63.021839
 30
0.0
 11
128.854203
 21
65.021843
 31
0.0
  0
LINE
  5
9D0A
330
9A8B
100
AcDbEntity
  8
4
  6
CENTER
100
AcDbLine
 10
118.5739749999999
 20
52.021835
 30
0.0
 11
162.590561
 21
52.021835
 31
0.0
  0
LINE
  5
9D0B
330
9A8B
100
AcDbEntity
  8
1
  6
Continuous
100
AcDbLine
 10
157.5542
 20
49.321835
 30
0.0
 11
157.5542
 21
54.72183600000001
 31
0.0
  0
LINE
  5
9D0C
330
9A8B
100
AcDbEntity
  8
1
  6
Continuous
100
AcDbLine
 10
129.854203
 20
44.121835
 30
0.0
 11
137.254197
 21
44.121835
 31
0.0
  0
LINE
  5
9D0D
330
9A8B
100
AcDbEntity
  8
1
  6
Continuous
100
AcDbLine
 10
129.854203
 20
59.92183499999999
 30
0.0
 11
137.254197
 21
59.92183499999999
 31
0.0
  0
LINE
  5
9D0E
330
9A8B
100
AcDbEntity
  8
4
  6
CENTER
100
AcDbLine
 10
144.5728729999999
 20
47.02183499999999
 30
0.0
 11
156.214933
 21
47.02183499999999
 31
0.0
  0
LINE
  5
9D0F
330
9A8B
100
AcDbEntity
  8
1
  6
Continuous
100
AcDbLine
 10
152.0041939999998
 20
44.77183499999997
 30
0.0
 11
153.0041939999998
 21
44.77183499999997
 31
0.0
  0
LINE
  5
9D10
330
9A8B
100
AcDbEntity
  8
1
  6
Continuous
100
AcDbLine
 10
153.0041939999998
 20
45.12184099999998
 30
0.0
 11
153.853833
 21
45.12184099999998
 31
0.0
  0
LINE
  5
9D11
330
9A8B
100
AcDbEntity
  8
1
  6
Continuous
100
AcDbLine
 10
153.0041939999998
 20
46.52183499999998
 30
0.0
 11
153.0041939999998
 21
44.77183499999997
 31
0.0
  0
LINE
  5
9D12
330
9A8B
100
AcDbEntity
  8
1
  6
Continuous
100
AcDbLine
 10
152.0041939999998
 20
49.27183499999999
 30
0.0
 11
152.333481
 21
49.27183499999999
 31
0.0
  0
LINE
  5
9D13
330
9A8B
100
AcDbEntity
  8
1
  6
Continuous
100
AcDbLine
 10
152.5041939999999
 20
46.52183499999998
 30
0.0
 11
152.5041939999999
 21
44.77183499999997
 31
0.0
  0
LINE
  5
9D14
330
9A8B
100
AcDbEntity
  8
1
  6
Continuous
100
AcDbLine
 10
154.954194
 20
46.52183499999998
 30
0.0
 11
154.954194
 21
46.34873999999999
 31
0.0
  0
LINE
  5
9D15
330
9A8B
100
AcDbEntity
  8
1
  6
Continuous
100
AcDbLine
 10
145.7541939999998
 20
32.27183499999998
 30
0.0
 11
145.7541939999998
 21
44.500099
 31
0.0
  0
LINE
  5
9D16
330
9A8B
100
AcDbEntity
  8
1
  6
Continuous
100
AcDbLine
 10
151.7541939999999
 20
32.27183499999998
 30
0.0
 11
151.7541939999999
 21
48.48219199999999
 31
0.0
  0
LINE
  5
9D17
330
9A8B
100
AcDbEntity
  8
1
  6
Continuous
100
AcDbLine
 10
145.7541939999998
 20
32.27183499999998
 30
0.0
 11
151.7541939999999
 21
32.27183499999998
 31
0.0
  0
LINE
  5
9D18
330
9A8B
100
AcDbEntity
  8
4
  6
CENTER
100
AcDbLine
 10
148.7541939999998
 20
30.01825
 30
0.0
 11
148.7541939999998
 21
54.93513499999998
 31
0.0
  0
LINE
  5
9D19
330
9A8B
100
AcDbEntity
  8
1
  6
Continuous
100
AcDbLine
 10
151.704194
 20
49.171844
 30
0.0
 11
152.0041939999998
 21
49.171844
 31
0.0
  0
LINE
  5
9D1A
330
9A8B
100
AcDbEntity
  8
1
  6
Continuous
100
AcDbLine
 10
151.7541939999999
 20
44.87184099999999
 30
0.0
 11
152.0041939999998
 21
44.87184099999999
 31
0.0
  0
LINE
  5
9D1B
330
9A8B
100
AcDbEntity
  8
1
  6
Continuous
100
AcDbLine
 10
151.7541939999999
 20
39.671844
 30
0.0
 11
152.0041939999998
 21
39.671844
 31
0.0
  0
LINE
  5
9D1C
330
9A8B
100
AcDbEntity
  8
1
  6
Continuous
100
AcDbLine
 10
152.0041939999998
 20
33.02183499999999
 30
0.0
 11
152.0041939999998
 21
39.77183499999997
 31
0.0
  0
LINE
  5
9D1D
330
9A8B
100
AcDbEntity
  8
1
  6
Continuous
100
AcDbLine
 10
152.0041939999998
 20
44.77183499999997
 30
0.0
 11
152.0041939999998
 21
48.646434
 31
0.0
  0
LINE
  5
9D1E
330
9A8B
100
AcDbEntity
  8
1
  6
Continuous
100
AcDbLine
 10
151.7541939999999
 20
33.02183499999999
 30
0.0
 11
152.0041939999998
 21
33.02183499999999
 31
0.0
  0
LINE
  5
9D1F
330
9A8B
100
AcDbEntity
  8
1
  6
Continuous
100
AcDbLine
 10
145.7541939999998
 20
39.671844
 30
0.0
 11
145.5041939999999
 21
39.671844
 31
0.0
  0
LINE
  5
9D20
330
9A8B
100
AcDbEntity
  8
1
  6
Continuous
100
AcDbLine
 10
145.7541939999998
 20
33.02183499999999
 30
0.0
 11
145.5041939999999
 21
33.02183499999999
 31
0.0
  0
LINE
  5
9D21
330
9A8B
100
AcDbEntity
  8
4
  6
CENTER
100
AcDbLine
 10
144.5728729999999
 20
37.52183499999999
 30
0.0
 11
156.214933
 21
37.52183499999999
 31
0.0
  0
LINE
  5
9D22
330
9A8B
100
AcDbEntity
  8
1
  6
Continuous
100
AcDbLine
 10
152.0041939999998
 20
35.27183499999999
 30
0.0
 11
153.0041939999998
 21
35.27183499999999
 31
0.0
  0
LINE
  5
9D23
330
9A8B
100
AcDbEntity
  8
1
  6
Continuous
100
AcDbLine
 10
153.0041939999998
 20
35.62184099999999
 30
0.0
 11
153.853833
 21
35.62184099999999
 31
0.0
  0
LINE
  5
9D24
330
9A8B
100
AcDbEntity
  8
1
  6
Continuous
100
AcDbLine
 10
153.0041939999998
 20
39.77183499999997
 30
0.0
 11
153.0041939999998
 21
35.27183499999999
 31
0.0
  0
LINE
  5
9D25
330
9A8B
100
AcDbEntity
  8
1
  6
Continuous
100
AcDbLine
 10
153.0041939999998
 20
37.851013
 30
0.0
 11
152.5041939999999
 21
37.562313
 31
0.0
  0
LINE
  5
9D26
330
9A8B
100
AcDbEntity
  8
1
  6
Continuous
100
AcDbLine
 10
153.004224
 20
37.517632
 30
0.0
 11
152.504209
 21
37.22902700000001
 31
0.0
  0
LINE
  5
9D27
330
9A8B
100
AcDbEntity
  8
1
  6
Continuous
100
AcDbLine
 10
152.0041939999998
 20
39.77183499999997
 30
0.0
 11
153.0041939999998
 21
39.77183499999997
 31
0.0
  0
LINE
  5
9D28
330
9A8B
100
AcDbEntity
  8
1
  6
Continuous
100
AcDbLine
 10
152.5041939999999
 20
39.77183499999997
 30
0.0
 11
152.5041939999999
 21
35.27183499999999
 31
0.0
  0
LINE
  5
9D29
330
9A8B
100
AcDbEntity
  8
1
  6
Continuous
100
AcDbLine
 10
153.0041939999998
 20
39.421844
 30
0.0
 11
153.853833
 21
39.421844
 31
0.0
  0
LINE
  5
9D2A
330
9A8B
100
AcDbEntity
  8
1
  6
Continuous
100
AcDbLine
 10
155.0041939999998
 20
38.19503799999999
 30
0.0
 11
155.0041939999998
 21
36.84874
 31
0.0
  0
LINE
  5
9D2B
330
9A8B
100
AcDbEntity
  8
1
  6
Continuous
100
AcDbLine
 10
145.454194
 20
44.121826
 30
0.0
 11
145.454194
 21
48.121834
 31
0.0
  0
LINE
  5
9D2C
330
9A8B
100
AcDbEntity
  8
1
  6
Continuous
100
AcDbLine
 10
145.254197
 20
32.02183499999998
 30
0.0
 11
145.254197
 21
44.121826
 31
0.0
  0
LINE
  5
9D2D
330
9A8B
100
AcDbEntity
  8
4
  6
CENTER
100
AcDbLine
 10
135.295121
 20
42.02183499999999
 30
0.0
 11
146.5744939999999
 21
42.02183499999999
 31
0.0
  0
LINE
  5
9D2E
330
9A8B
100
AcDbEntity
  8
4
  6
CENTER
100
AcDbLine
 10
144.5733919999999
 20
42.27183499999997
 30
0.0
 11
154.377652
 21
42.27183499999997
 31
0.0
  0
LINE
  5
9D2F
330
9A8B
100
AcDbEntity
  8
1
  6
Continuous
100
AcDbLine
 10
137.254197
 20
32.02183499999998
 30
0.0
 11
145.254197
 21
32.02183499999998
 31
0.0
  0
LINE
  5
9D30
330
9A8B
100
AcDbEntity
  8
1
  6
Continuous
100
AcDbLine
 10
137.254197
 20
32.02183499999998
 30
0.0
 11
137.254197
 21
65.021835
 31
0.0
  0
LINE
  5
9D31
330
9A8B
100
AcDbEntity
  8
1
  6
Continuous
100
AcDbLine
 10
137.254197
 20
65.021835
 30
0.0
 11
139.254197
 21
65.021835
 31
0.0
  0
LINE
  5
9D32
330
9A8B
100
AcDbEntity
  8
1
  6
Continuous
100
AcDbLine
 10
139.254197
 20
32.02183499999998
 30
0.0
 11
139.254197
 21
65.021835
 31
0.0
  0
LINE
  5
9D33
330
9A8B
100
AcDbEntity
  8
1
  6
Continuous
100
AcDbLine
 10
142.754197
 20
41.02183499999997
 30
0.0
 11
142.754197
 21
63.02183499999999
 31
0.0
  0
LINE
  5
9D34
330
9A8B
100
AcDbEntity
  8
1
  6
Continuous
100
AcDbLine
 10
139.254197
 20
63.02183499999999
 30
0.0
 11
142.754197
 21
63.02183499999999
 31
0.0
  0
LINE
  5
9D35
330
9A8B
100
AcDbEntity
  8
1
  6
Continuous
100
AcDbLine
 10
152.333481
 20
57.52183500000001
 30
0.0
 11
152.333481
 21
46.52183499999998
 31
0.0
  0
LINE
  5
9D36
330
9A8B
100
AcDbEntity
  8
1
  6
Continuous
100
AcDbLine
 10
156.5334929999998
 20
57.52183500000001
 30
0.0
 11
156.5334929999998
 21
46.52183499999998
 31
0.0
  0
LINE
  5
9D37
330
9A8B
100
AcDbEntity
  8
1
  6
Continuous
100
AcDbLine
 10
152.333481
 20
57.52183500000001
 30
0.0
 11
156.5334929999998
 21
57.52183500000001
 31
0.0
  0
LINE
  5
9D38
330
9A8B
100
AcDbEntity
  8
1
  6
Continuous
100
AcDbLine
 10
156.0422519999999
 20
52.021835
 30
0.0
 11
152.8247379999999
 21
52.021835
 31
0.0
  0
LINE
  5
9D39
330
9A8B
100
AcDbEntity
  8
1
  6
Continuous
100
AcDbLine
 10
145.454194
 20
55.92183699999999
 30
0.0
 11
145.454194
 21
59.92184399999999
 31
0.0
  0
LINE
  5
9D3A
330
9A8B
100
AcDbEntity
  8
1
  6
Continuous
100
AcDbLine
 10
142.754197
 20
59.92184399999999
 30
0.0
 11
145.454194
 21
59.92184399999999
 31
0.0
  0
LINE
  5
9D3B
330
9A8B
100
AcDbEntity
  8
1
  6
Continuous
100
AcDbLine
 10
142.754197
 20
57.298206
 30
0.0
 11
145.454194
 21
57.298206
 31
0.0
  0
LINE
  5
9D3C
330
9A8B
100
AcDbEntity
  8
1
  6
Continuous
100
AcDbLine
 10
156.5334929999998
 20
49.321835
 30
0.0
 11
157.5542
 21
49.321835
 31
0.0
  0
LINE
  5
9D3D
330
9A8B
100
AcDbEntity
  8
1
  6
Continuous
100
AcDbLine
 10
156.5334929999998
 20
54.72183600000001
 30
0.0
 11
157.5542
 21
54.72183600000001
 31
0.0
  0
LINE
  5
9D3E
330
9A8B
100
AcDbEntity
  8
1
  6
Continuous
100
AcDbLine
 10
145.454194
 20
55.92183699999999
 30
0.0
 11
147.2541969999998
 21
55.92183699999999
 31
0.0
  0
LINE
  5
9D3F
330
9A8B
100
AcDbEntity
  8
2
  6
Continuous
100
AcDbLine
 10
143.004151
 20
52.021835
 30
0.0
 11
147.2541969999998
 21
55.921829
 31
0.0
  0
LINE
  5
9D40
330
9A8B
100
AcDbEntity
  8
1
  6
Continuous
100
AcDbLine
 10
145.454194
 20
59.54357099999999
 30
0.0
 11
147.2541969999998
 21
59.54357099999999
 31
0.0
  0
LINE
  5
9D41
330
9A8B
100
AcDbEntity
  8
1
  6
Continuous
100
AcDbLine
 10
152.333481
 20
46.52183499999998
 30
0.0
 11
156.5334929999998
 21
46.52183499999998
 31
0.0
  0
LINE
  5
9D42
330
9A8B
100
AcDbEntity
  8
1
  6
Continuous
100
AcDbLine
 10
147.2541969999998
 20
37.52183499999999
 30
0.0
 11
147.2541969999998
 21
60.02183500000001
 31
0.0
  0
LINE
  5
9D43
330
9A8B
100
AcDbEntity
  8
1
  6
Continuous
100
AcDbLine
 10
150.254197
 20
37.52183499999999
 30
0.0
 11
150.254197
 21
60.02183500000001
 31
0.0
  0
LINE
  5
9D44
330
9A8B
100
AcDbEntity
  8
1
  6
Continuous
100
AcDbLine
 10
147.2541969999998
 20
60.02183500000001
 30
0.0
 11
150.254197
 21
60.02183500000001
 31
0.0
  0
LINE
  5
9D45
330
9A8B
100
AcDbEntity
  8
1
  6
Continuous
100
AcDbLine
 10
90.55419999999999
 20
41.02183499999997
 30
0.0
 11
90.55419999999999
 21
63.02183499999999
 31
0.0
  0
LINE
  5
9D46
330
9A8B
100
AcDbEntity
  8
1
  6
Continuous
100
AcDbLine
 10
93.5542
 20
41.02183499999997
 30
0.0
 11
93.5542
 21
63.02183499999999
 31
0.0
  0
LINE
  5
9D47
330
9A8B
100
AcDbEntity
  8
4
  6
CENTER
100
AcDbLine
 10
86.70526200000002
 20
52.021835
 30
0.0
 11
97.64924700000001
 21
52.021835
 31
0.0
  0
LINE
  5
9D48
330
9A8B
100
AcDbEntity
  8
1
  6
Continuous
100
AcDbLine
 10
90.55419999999999
 20
41.02183499999997
 30
0.0
 11
93.5542
 21
41.02183499999997
 31
0.0
  0
LINE
  5
9D49
330
9A8B
100
AcDbEntity
  8
1
  6
Continuous
100
AcDbLine
 10
90.55419999999999
 20
63.02183499999999
 30
0.0
 11
93.5542
 21
63.02183499999999
 31
0.0
  0
LINE
  5
9D4A
330
9A8B
100
AcDbEntity
  8
1
  6
Continuous
100
AcDbLine
 10
90.55419999999999
 20
52.021835
 30
0.0
 11
92.571717
 21
52.021835
 31
0.0
  0
LINE
  5
9D4B
330
9A8B
100
AcDbEntity
  8
1
  6
Continuous
100
AcDbLine
 10
139.254197
 20
41.02183499999997
 30
0.0
 11
142.754197
 21
41.02183499999997
 31
0.0
  0
LINE
  5
9D4C
330
9A8B
100
AcDbEntity
  8
1
  6
Continuous
100
AcDbLine
 10
139.254197
 20
52.021835
 30
0.0
 11
141.771714
 21
52.021835
 31
0.0
  0
LINE
  5
9D4D
330
9A8B
100
AcDbEntity
  8
2
  6
Continuous
100
AcDbLine
 10
143.004151
 20
52.021835
 30
0.0
 11
147.2541969999998
 21
48.121834
 31
0.0
  0
LINE
  5
9D4E
330
9A8B
100
AcDbEntity
  8
1
  6
Continuous
100
AcDbLine
 10
145.454194
 20
48.121834
 30
0.0
 11
147.2541969999998
 21
48.121834
 31
0.0
  0
LINE
  5
9D4F
330
9A8B
100
AcDbEntity
  8
1
  6
Continuous
100
AcDbLine
 10
142.754197
 20
46.74546399999999
 30
0.0
 11
145.454194
 21
46.74546399999999
 31
0.0
  0
LINE
  5
9D50
330
9A8B
100
AcDbEntity
  8
1
  6
Continuous
100
AcDbLine
 10
142.754197
 20
44.121826
 30
0.0
 11
145.454194
 21
44.121826
 31
0.0
  0
LINE
  5
9D51
330
9A8B
100
AcDbEntity
  8
1
  6
Continuous
100
AcDbLine
 10
145.454194
 20
44.500099
 30
0.0
 11
147.2541969999998
 21
44.500099
 31
0.0
  0
LINE
  5
9D52
330
9A8B
100
AcDbEntity
  8
1
  6
Continuous
100
AcDbLine
 10
145.7541939999998
 20
35.52183499999999
 30
0.0
 11
145.5041939999999
 21
35.52183499999999
 31
0.0
  0
LINE
  5
9D53
330
9A8B
100
AcDbEntity
  8
1
  6
Continuous
100
AcDbLine
 10
151.7541939999999
 20
35.52183499999999
 30
0.0
 11
152.0041939999998
 21
35.52183499999999
 31
0.0
  0
LINE
  5
9D54
330
9A8B
100
AcDbEntity
  8
1
  6
Continuous
100
AcDbLine
 10
147.2541969999998
 20
37.52183499999999
 30
0.0
 11
150.254197
 21
37.52183499999999
 31
0.0
  0
LINE
  5
9D55
330
9A8B
100
AcDbEntity
  8
1
  6
Continuous
100
AcDbLine
 10
152.2540899999999
 20
48.725136
 30
0.0
 11
152.2540899999999
 21
49.11033599999999
 31
0.0
  0
LINE
  5
9D56
330
9A8B
100
AcDbEntity
  8
1
  6
Continuous
100
AcDbLine
 10
150.8540959999999
 20
45.52183499999999
 30
0.0
 11
150.8540959999999
 21
58.52183499999998
 31
0.0
  0
LINE
  5
9D57
330
9A8B
100
AcDbEntity
  8
1
  6
Continuous
100
AcDbLine
 10
151.654099
 20
45.52183499999999
 30
0.0
 11
151.654099
 21
58.52183499999998
 31
0.0
  0
LINE
  5
9D58
330
9A8B
100
AcDbEntity
  8
1
  6
Continuous
100
AcDbLine
 10
150.8540959999999
 20
45.52183499999999
 30
0.0
 11
151.654099
 21
45.52183499999999
 31
0.0
  0
LINE
  5
9D59
330
9A8B
100
AcDbEntity
  8
1
  6
Continuous
100
AcDbLine
 10
150.8540959999999
 20
58.52183499999998
 30
0.0
 11
151.654099
 21
58.52183499999998
 31
0.0
  0
LINE
  5
9D5A
330
9A8B
100
AcDbEntity
  8
1
  6
Continuous
100
AcDbLine
 10
150.2540899999999
 20
48.367432
 30
0.0
 11
150.854081
 21
48.474731
 31
0.0
  0
LINE
  5
9D5B
330
9A8B
100
AcDbEntity
  8
1
  6
Continuous
100
AcDbLine
 10
150.6529849999998
 20
49.504536
 30
0.0
 11
150.854081
 21
49.598732
 31
0.0
  0
LINE
  5
9D5C
330
9A8B
100
AcDbEntity
  8
1
  6
Continuous
100
AcDbLine
 10
150.7328039999999
 20
51.323132
 30
0.0
 11
150.8540959999999
 21
51.393326
 31
0.0
  0
LINE
  5
9D5D
330
9A8B
100
AcDbEntity
  8
1
  6
Continuous
100
AcDbLine
 10
150.2540899999999
 20
53.70163299999999
 30
0.0
 11
150.8540959999999
 21
53.98263199999998
 31
0.0
  0
LINE
  5
9D5E
330
9A8B
100
AcDbEntity
  8
1
  6
Continuous
100
AcDbLine
 10
150.2540899999999
 20
55.31863399999998
 30
0.0
 11
150.854081
 21
55.425934
 31
0.0
  0
LINE
  5
9D5F
330
9A8B
100
AcDbEntity
  8
1
  6
Continuous
100
AcDbLine
 10
150.2540899999999
 20
48.752636
 30
0.0
 11
150.854081
 21
48.85993599999999
 31
0.0
  0
LINE
  5
9D60
330
9A8B
100
AcDbEntity
  8
1
  6
Continuous
100
AcDbLine
 10
150.2570959999999
 20
49.949734
 30
0.0
 11
150.8541109999999
 21
50.22934
 31
0.0
  0
LINE
  5
9D61
330
9A8B
100
AcDbEntity
  8
1
  6
Continuous
100
AcDbLine
 10
150.333481
 20
52.016331
 30
0.0
 11
150.854081
 21
52.317726
 31
0.0
  0
LINE
  5
9D62
330
9A8B
100
AcDbEntity
  8
1
  6
Continuous
100
AcDbLine
 10
150.2540899999999
 20
54.16293
 30
0.0
 11
150.8540959999999
 21
54.44383199999999
 31
0.0
  0
LINE
  5
9D63
330
9A8B
100
AcDbEntity
  8
1
  6
Continuous
100
AcDbLine
 10
150.2540899999999
 20
55.696636
 30
0.0
 11
150.854081
 21
55.803936
 31
0.0
  0
LINE
  5
9D64
330
9A8B
100
AcDbEntity
  8
1
  6
Continuous
100
AcDbLine
 10
150.268784
 20
49.936535
 30
0.0
 11
150.6646889999998
 21
49.491432
 31
0.0
  0
LINE
  5
9D65
330
9A8B
100
AcDbEntity
  8
1
  6
Continuous
100
AcDbLine
 10
151.858201
 20
50.69944
 30
0.0
 11
152.2540899999999
 21
50.254337
 31
0.0
  0
LINE
  5
9D66
330
9A8B
100
AcDbEntity
  8
1
  6
Continuous
100
AcDbLine
 10
150.333481
 20
52.01633499999999
 30
0.0
 11
150.732789
 21
51.323132
 31
0.0
  0
LINE
  5
9D67
330
9A8B
100
AcDbEntity
  8
1
  6
Continuous
100
AcDbLine
 10
152.333497
 20
52.249638
 30
0.0
 11
152.0289919999999
 21
52.997742
 31
0.0
  0
LINE
  5
9D68
330
9A8B
100
AcDbEntity
  8
1
  6
Continuous
100
AcDbLine
 10
151.654084
 20
48.61783599999998
 30
0.0
 11
152.2540899999999
 21
48.72514
 31
0.0
  0
LINE
  5
9D69
330
9A8B
100
AcDbEntity
  8
1
  6
Continuous
100
AcDbLine
 10
151.654084
 20
49.003033
 30
0.0
 11
152.2540899999999
 21
49.11033599999999
 31
0.0
  0
LINE
  5
9D6A
330
9A8B
100
AcDbEntity
  8
1
  6
Continuous
100
AcDbLine
 10
151.654099
 20
49.973339
 30
0.0
 11
152.2540899999999
 21
50.254337
 31
0.0
  0
LINE
  5
9D6B
330
9A8B
100
AcDbEntity
  8
1
  6
Continuous
100
AcDbLine
 10
151.654084
 20
50.60393499999999
 30
0.0
 11
151.8581849999999
 21
50.699436
 31
0.0
  0
LINE
  5
9D6C
330
9A8B
100
AcDbEntity
  8
1
  6
Continuous
100
AcDbLine
 10
151.654099
 20
51.85642999999998
 30
0.0
 11
152.333481
 21
52.249626
 31
0.0
  0
LINE
  5
9D6D
330
9A8B
100
AcDbEntity
  8
1
  6
Continuous
100
AcDbLine
 10
151.654084
 20
52.780735
 30
0.0
 11
152.0289919999999
 21
52.997742
 31
0.0
  0
LINE
  5
9D6E
330
9A8B
100
AcDbEntity
  8
1
  6
Continuous
100
AcDbLine
 10
151.654084
 20
54.357227
 30
0.0
 11
152.2540899999999
 21
54.63813
 31
0.0
  0
LINE
  5
9D6F
330
9A8B
100
AcDbEntity
  8
1
  6
Continuous
100
AcDbLine
 10
151.654084
 20
54.818436
 30
0.0
 11
151.8673859999998
 21
54.918335
 31
0.0
  0
LINE
  5
9D70
330
9A8B
100
AcDbEntity
  8
1
  6
Continuous
100
AcDbLine
 10
151.654084
 20
55.569031
 30
0.0
 11
152.2540899999999
 21
55.67633100000001
 31
0.0
  0
LINE
  5
9D71
330
9A8B
100
AcDbEntity
  8
1
  6
Continuous
100
AcDbLine
 10
151.654084
 20
55.947029
 30
0.0
 11
151.844986
 21
55.981129
 31
0.0
  0
LINE
  5
9D72
330
9A8B
100
AcDbEntity
  8
1
  6
Continuous
100
AcDbLine
 10
150.254197
 20
52.27183499999998
 30
0.0
 11
150.774811
 21
52.27183499999998
 31
0.0
  0
LINE
  5
9D73
330
9A8B
100
AcDbEntity
  8
1
  6
Continuous
100
AcDbLine
 10
151.704194
 20
49.011993
 30
0.0
 11
151.704194
 21
49.996803
 31
0.0
  0
LINE
  5
9D74
330
9A8B
100
AcDbEntity
  8
1
  6
Continuous
100
AcDbLine
 10
152.0041939999998
 20
49.065645
 30
0.0
 11
152.0041939999998
 21
49.27183499999999
 31
0.0
  0
LINE
  5
9D75
330
9A8B
100
AcDbEntity
  8
1
  6
Continuous
100
AcDbLine
 10
151.704194
 20
50.627384
 30
0.0
 11
151.704194
 21
51.885426
 31
0.0
  0
LINE
  5
9D76
330
9A8B
100
AcDbEntity
  8
1
  6
Continuous
100
AcDbLine
 10
146.6041999999999
 20
241.0218659999999
 30
0.0
 11
150.904096
 21
241.0218659999999
 31
0.0
  0
LINE
  5
9D77
330
9A8B
100
AcDbEntity
  8
1
  6
Continuous
100
AcDbLine
 10
146.6041999999999
 20
242.2718509999999
 30
0.0
 11
146.6041999999999
 21
241.0218659999999
 31
0.0
  0
LINE
  5
9D78
330
9A8B
100
AcDbEntity
  8
1
  6
Continuous
100
AcDbLine
 10
145.254197
 20
242.7718509999999
 30
0.0
 11
145.5041939999999
 21
242.7718509999999
 31
0.0
  0
LINE
  5
9D79
330
9A8B
100
AcDbEntity
  8
1
  6
Continuous
100
AcDbLine
 10
145.254197
 20
261.7718509999999
 30
0.0
 11
145.5041939999999
 21
261.7718509999999
 31
0.0
  0
LINE
  5
9D7A
330
9A8B
100
AcDbEntity
  8
1
  6
Continuous
100
AcDbLine
 10
145.254197
 20
32.77183499999999
 30
0.0
 11
145.5041939999999
 21
32.77183499999999
 31
0.0
  0
ARC
  5
9D7B
330
9A8B
100
AcDbEntity
  8
1
  6
Continuous
100
AcDbCircle
 10
20.654198
 20
239.5218509999998
 30
0.0
 40
6.5
100
AcDbArc
 50
179.999978
 51
270.000001
  0
ARC
  5
9D7C
330
9A8B
100
AcDbEntity
  8
1
  6
Continuous
100
AcDbCircle
 10
20.654198
 20
245.5218509999999
 30
0.0
 40
6.5
100
AcDbArc
 50
89.99998900000001
 51
179.999978
  0
ARC
  5
9D7D
330
9A8B
100
AcDbEntity
  8
1
  6
Continuous
100
AcDbCircle
 10
29.65419799999999
 20
239.5218509999998
 30
0.0
 40
6.5
100
AcDbArc
 50
269.99997
 51
352.04116
  0
ARC
  5
9D7E
330
9A8B
100
AcDbEntity
  8
1
  6
Continuous
100
AcDbCircle
 10
17.754197
 20
245.0218509999999
 30
0.0
 40
1.0
100
AcDbArc
 50
89.99998900000001
 51
179.999978
  0
ARC
  5
9D7F
330
9A8B
100
AcDbEntity
  8
1
  6
Continuous
100
AcDbCircle
 10
17.754197
 20
240.0218509999999
 30
0.0
 40
1.0
100
AcDbArc
 50
179.999978
 51
269.999973
  0
ARC
  5
9D80
330
9A8B
100
AcDbEntity
  8
1
  6
Continuous
100
AcDbCircle
 10
19.5542
 20
240.0218509999999
 30
0.0
 40
1.0
100
AcDbArc
 50
269.99997
 51
0.0
  0
ARC
  5
9D81
330
9A8B
100
AcDbEntity
  8
1
  6
Continuous
100
AcDbCircle
 10
19.5542
 20
245.0218509999999
 30
0.0
 40
1.0
100
AcDbArc
 50
0.0
 51
89.99998900000001
  0
ARC
  5
9D82
330
9A8B
100
AcDbEntity
  8
1
  6
Continuous
100
AcDbCircle
 10
42.55419999999999
 20
248.735535
 30
0.0
 40
1.199999999999999
100
AcDbArc
 50
0.0
 51
76.99999400000002
  0
ARC
  5
9D83
330
9A8B
100
AcDbEntity
  8
1
  6
Continuous
100
AcDbCircle
 10
33.85419499999999
 20
242.5218509999999
 30
0.0
 40
3.9
100
AcDbArc
 50
206.176982
 51
269.99997
  0
ARC
  5
9D84
330
9A8B
100
AcDbEntity
  8
1
  6
Continuous
100
AcDbCircle
 10
33.85419499999999
 20
242.5218509999999
 30
0.0
 40
3.9
100
AcDbArc
 50
89.99998900000001
 51
153.822977
  0
ARC
  5
9D85
330
9A8B
100
AcDbEntity
  8
1
  6
Continuous
100
AcDbCircle
 10
18.888047
 20
242.5218509999999
 30
0.0
 40
7.166163
100
AcDbArc
 50
324.461996
 51
35.53799999999999
  0
ARC
  5
9D86
330
9A8B
100
AcDbEntity
  8
1
  6
Continuous
100
AcDbCircle
 10
18.888047
 20
242.5218509999999
 30
0.0
 40
6.610656999999998
100
AcDbArc
 50
333.9859999999998
 51
337.0559999999999
  0
ARC
  5
9D87
330
9A8B
100
AcDbEntity
  8
1
  6
Continuous
100
AcDbCircle
 10
24.923874
 20
239.9674529999999
 30
0.0
 40
0.055565
100
AcDbArc
 50
337.0559999999999
 51
90.00000300000001
  0
ARC
  5
9D88
330
9A8B
100
AcDbEntity
  8
1
  6
Continuous
100
AcDbCircle
 10
25.281388
 20
241.0783079999999
 30
0.0
 40
0.055565
100
AcDbArc
 50
347.270997
 51
90.00000300000001
  0
ARC
  5
9D89
330
9A8B
100
AcDbEntity
  8
1
  6
Continuous
100
AcDbCircle
 10
18.888047
 20
242.5218509999999
 30
0.0
 40
6.610656999999998
100
AcDbArc
 50
344.794003
 51
347.270997
  0
ARC
  5
9D8A
330
9A8B
100
AcDbEntity
  8
1
  6
Continuous
100
AcDbCircle
 10
18.888047
 20
242.5218509999999
 30
0.0
 40
6.610656999999998
100
AcDbArc
 50
344.741998
 51
344.794003
  0
ARC
  5
9D8B
330
9A8B
100
AcDbEntity
  8
1
  6
Continuous
100
AcDbCircle
 10
24.997193
 20
240.8561399999999
 30
0.0
 40
0.277826
100
AcDbArc
 50
270.0000109999999
 51
344.741984
  0
ARC
  5
9D8C
330
9A8B
100
AcDbEntity
  8
1
  6
Continuous
100
AcDbCircle
 10
22.111222
 20
240.8561399999999
 30
0.0
 40
0.277826
100
AcDbArc
 50
195.2575039999999
 51
270.0000039999998
  0
ARC
  5
9D8D
330
9A8B
100
AcDbEntity
  8
1
  6
Continuous
100
AcDbCircle
 10
28.22035299999999
 20
242.5218509999999
 30
0.0
 40
6.610656999999998
100
AcDbArc
 50
193.268102
 51
195.2575039999999
  0
ARC
  5
9D8E
330
9A8B
100
AcDbEntity
  8
1
  6
Continuous
100
AcDbCircle
 10
28.22035299999999
 20
242.5218509999999
 30
0.0
 40
6.610656999999998
100
AcDbArc
 50
192.728899
 51
193.268102
  0
ARC
  5
9D8F
330
9A8B
100
AcDbEntity
  8
1
  6
Continuous
100
AcDbCircle
 10
21.82702699999999
 20
241.0783079999999
 30
0.0
 40
0.055565
100
AcDbArc
 50
90.00000300000001
 51
192.728896
  0
ARC
  5
9D90
330
9A8B
100
AcDbEntity
  8
1
  6
Continuous
100
AcDbCircle
 10
24.578782
 20
239.74527
 30
0.0
 40
0.277826
100
AcDbArc
 50
270.0000109999999
 51
333.9859999999998
  0
ARC
  5
9D91
330
9A8B
100
AcDbEntity
  8
1
  6
Continuous
100
AcDbCircle
 10
22.18339599999999
 20
239.9674529999999
 30
0.0
 40
0.055565
100
AcDbArc
 50
90.00000300000001
 51
202.9440039999998
  0
ARC
  5
9D92
330
9A8B
100
AcDbEntity
  8
1
  6
Continuous
100
AcDbCircle
 10
28.22035299999999
 20
242.5218509999999
 30
0.0
 40
6.610656999999998
100
AcDbArc
 50
202.944007
 51
206.014396
  0
ARC
  5
9D93
330
9A8B
100
AcDbEntity
  8
1
  6
Continuous
100
AcDbCircle
 10
22.529618
 20
239.74527
 30
0.0
 40
0.277826
100
AcDbArc
 50
206.014396
 51
270.0000039999998
  0
ARC
  5
9D94
330
9A8B
100
AcDbEntity
  8
1
  6
Continuous
100
AcDbCircle
 10
23.553635
 20
239.189285
 30
0.0
 40
1.431648999999999
100
AcDbArc
 50
270.0000109999999
 51
324.46201
  0
ARC
  5
9D95
330
9A8B
100
AcDbEntity
  8
1
  6
Continuous
100
AcDbCircle
 10
23.553635
 20
239.189285
 30
0.0
 40
1.431648999999999
100
AcDbArc
 50
215.5377009999999
 51
256.5374009999998
  0
ARC
  5
9D96
330
9A8B
100
AcDbEntity
  8
1
  6
Continuous
100
AcDbCircle
 10
18.888047
 20
242.5218509999999
 30
0.0
 40
6.610656999999998
100
AcDbArc
 50
7.792996999999997
 51
10.103999
  0
ARC
  5
9D97
330
9A8B
100
AcDbEntity
  8
1
  6
Continuous
100
AcDbCircle
 10
25.38288899999999
 20
243.4116669999999
 30
0.0
 40
0.055565
100
AcDbArc
 50
270.0000109999999
 51
7.792996999999997
  0
ARC
  5
9D98
330
9A8B
100
AcDbEntity
  8
1
  6
Continuous
100
AcDbCircle
 10
25.12237600000001
 20
243.633835
 30
0.0
 40
0.277826
100
AcDbArc
 50
10.103999
 51
90.00000300000001
  0
ARC
  5
9D99
330
9A8B
100
AcDbEntity
  8
1
  6
Continuous
100
AcDbCircle
 10
21.725525
 20
243.4116669999999
 30
0.0
 40
0.055565
100
AcDbArc
 50
172.207005
 51
270.000001
  0
ARC
  5
9D9A
330
9A8B
100
AcDbEntity
  8
1
  6
Continuous
100
AcDbCircle
 10
28.22035299999999
 20
242.5218509999999
 30
0.0
 40
6.610656999999998
100
AcDbArc
 50
169.8959969999999
 51
172.207005
  0
ARC
  5
9D9B
330
9A8B
100
AcDbEntity
  8
1
  6
Continuous
100
AcDbCircle
 10
21.986039
 20
243.633835
 30
0.0
 40
0.277826
100
AcDbArc
 50
90.00000300000001
 51
169.8959969999999
  0
ARC
  5
9D9C
330
9A8B
100
AcDbEntity
  8
1
  6
Continuous
100
AcDbCircle
 10
23.553635
 20
245.8555449999999
 30
0.0
 40
1.431648999999999
100
AcDbArc
 50
35.53799999999999
 51
45.698999
  0
ARC
  5
9D9D
330
9A8B
100
AcDbEntity
  8
1
  6
Continuous
100
AcDbCircle
 10
23.553635
 20
245.8555449999999
 30
0.0
 40
1.431648999999999
100
AcDbArc
 50
62.25000299999999
 51
144.461998
  0
ARC
  5
9D9E
330
9A8B
100
AcDbEntity
  8
1
  6
Continuous
100
AcDbCircle
 10
23.2762
 20
245.2995449999999
 30
0.0
 40
0.277826
100
AcDbArc
 50
270.0000109999999
 51
90.00000300000001
  0
ARC
  5
9D9F
330
9A8B
100
AcDbEntity
  8
1
  6
Continuous
100
AcDbCircle
 10
28.22035299999999
 20
242.5218509999999
 30
0.0
 40
7.166163
100
AcDbArc
 50
144.461998
 51
215.5376979999999
  0
ARC
  5
9DA0
330
9A8B
100
AcDbEntity
  8
1
  6
Continuous
100
AcDbCircle
 10
33.5542
 20
142.2718509999999
 30
0.0
 40
4.799999999999998
100
AcDbArc
 50
100.806926
 51
79.19307499999998
  0
ARC
  5
9DA1
330
9A8B
100
AcDbEntity
  8
1
  6
Continuous
100
AcDbCircle
 10
33.5542
 20
142.2718509999999
 30
0.0
 40
3.75
100
AcDbArc
 50
103.886542
 51
76.11345199999998
  0
CIRCLE
  5
9DA2
330
9A8B
100
AcDbEntity
  8
1
  6
Continuous
100
AcDbCircle
 10
33.5542
 20
142.2718509999999
 30
0.0
 40
13.0
  0
CIRCLE
  5
9DA3
330
9A8B
100
AcDbEntity
  8
1
  6
Continuous
100
AcDbCircle
 10
33.5542
 20
142.2718509999999
 30
0.0
 40
7.0
  0
CIRCLE
  5
9DA4
330
9A8B
100
AcDbEntity
  8
1
  6
Continuous
100
AcDbCircle
 10
33.5542
 20
142.2718509999999
 30
0.0
 40
11.0
  0
ARC
  5
9DA5
330
9A8B
100
AcDbEntity
  8
1
  6
Continuous
100
AcDbCircle
 10
87.93138899999998
 20
132.745575
 30
0.0
 40
5.622809999999999
100
AcDbArc
 50
334.384248
 51
34.38424799999999
  0
ARC
  5
9DA6
330
9A8B
100
AcDbEntity
  8
1
  6
Continuous
100
AcDbCircle
 10
72.53668299999998
 20
142.2718509999999
 30
0.0
 40
21.017519
100
AcDbArc
 50
342.4120459999999
 51
17.587954
  0
ARC
  5
9DA7
330
9A8B
100
AcDbEntity
  8
1
  6
Continuous
100
AcDbCircle
 10
87.93138899999998
 20
151.7981259999999
 30
0.0
 40
5.622809999999999
100
AcDbArc
 50
325.6157519999998
 51
25.615752
  0
CIRCLE
  5
9DA8
330
9A8B
100
AcDbEntity
  8
2
  6
Continuous
100
AcDbCircle
 10
19.0542
 20
164.7718509999999
 30
0.0
 40
1.149999999999999
  0
CIRCLE
  5
9DA9
330
9A8B
100
AcDbEntity
  8
2
  6
Continuous
100
AcDbCircle
 10
28.5542
 20
164.7718509999999
 30
0.0
 40
1.149999999999999
  0
CIRCLE
  5
9DAA
330
9A8B
100
AcDbEntity
  8
1
  6
Continuous
100
AcDbCircle
 10
28.5542
 20
164.7718509999999
 30
0.0
 40
0.9335
  0
CIRCLE
  5
9DAB
330
9A8B
100
AcDbEntity
  8
1
  6
Continuous
100
AcDbCircle
 10
19.0542
 20
164.7718509999999
 30
0.0
 40
0.9335
  0
ARC
  5
9DAC
330
9A8B
100
AcDbEntity
  8
1
  6
Continuous
100
AcDbCircle
 10
21.5542
 20
142.2718509999999
 30
0.0
 40
2.5
100
AcDbArc
 50
158.0412199999998
 51
244.576889
  0
ARC
  5
9DAD
330
9A8B
100
AcDbEntity
  8
1
  6
Continuous
100
AcDbCircle
 10
248.554154
 20
142.2718509999999
 30
0.0
 40
2.5
100
AcDbArc
 50
297.279609
 51
62.72039100000002
  0
ARC
  5
9DAE
330
9A8B
100
AcDbEntity
  8
1
  6
Continuous
100
AcDbCircle
 10
143.254197
 20
159.7718509999999
 30
0.0
 40
2.0
100
AcDbArc
 50
269.9999969999999
 51
0.0
  0
ARC
  5
9DAF
330
9A8B
100
AcDbEntity
  8
1
  6
Continuous
100
AcDbCircle
 10
139.254197
 20
157.7718509999999
 30
0.0
 40
2.0
100
AcDbArc
 50
90.00000300000001
 51
180.000005
  0
ARC
  5
9DB0
330
9A8B
100
AcDbEntity
  8
1
  6
Continuous
100
AcDbCircle
 10
137.131394
 20
132.745575
 30
0.0
 40
5.622809999999999
100
AcDbArc
 50
334.384248
 51
34.38424799999999
  0
ARC
  5
9DB1
330
9A8B
100
AcDbEntity
  8
1
  6
Continuous
100
AcDbCircle
 10
121.73668
 20
142.2718509999999
 30
0.0
 40
21.017519
100
AcDbArc
 50
342.4120459999999
 51
17.587954
  0
ARC
  5
9DB2
330
9A8B
100
AcDbEntity
  8
1
  6
Continuous
100
AcDbCircle
 10
137.131394
 20
151.7981259999999
 30
0.0
 40
5.622809999999999
100
AcDbArc
 50
325.6157519999998
 51
25.615752
  0
CIRCLE
  5
9DB3
330
9A8B
100
AcDbEntity
  8
1
  6
Continuous
100
AcDbCircle
 10
148.7541939999998
 20
170.171844
 30
0.0
 40
0.75
  0
ARC
  5
9DB4
330
9A8B
100
AcDbEntity
  8
1
  6
Continuous
100
AcDbCircle
 10
153.7647979999999
 20
246.858032
 30
0.0
 40
1.2394
100
AcDbArc
 50
274.119168
 51
0.4333810000000002
  0
ARC
  5
9DB5
330
9A8B
100
AcDbEntity
  8
1
  6
Continuous
100
AcDbCircle
 10
153.7647979999999
 20
248.1856689999999
 30
0.0
 40
1.2394
100
AcDbArc
 50
359.566575
 51
85.88083199999998
  0
ARC
  5
9DB6
330
9A8B
100
AcDbEntity
  8
1
  6
Continuous
100
AcDbCircle
 10
236.554184
 20
142.2718509999999
 30
0.0
 40
13.0
100
AcDbArc
 50
90.00000300000001
 51
340.877967
  0
ARC
  5
9DB7
330
9A8B
100
AcDbEntity
  8
1
  6
Continuous
100
AcDbCircle
 10
236.554184
 20
142.2718509999999
 30
0.0
 40
11.0
100
AcDbArc
 50
19.37855799999999
 51
340.62137
  0
ARC
  5
9DB8
330
9A8B
100
AcDbEntity
  8
1
  6
Continuous
100
AcDbCircle
 10
236.554184
 20
142.2718509999999
 30
0.0
 40
8.0
100
AcDbArc
 50
62.72039100000002
 51
297.2796119999998
  0
CIRCLE
  5
9DB9
330
9A8B
100
AcDbEntity
  8
1
  6
Continuous
100
AcDbCircle
 10
254.3041839999999
 20
157.3718409999998
 30
0.0
 40
1.25
  0
CIRCLE
  5
9DBA
330
9A8B
100
AcDbEntity
  8
1
  6
Continuous
100
AcDbCircle
 10
251.054184
 20
164.7717899999999
 30
0.0
 40
2.25
  0
CIRCLE
  5
9DBB
330
9A8B
100
AcDbEntity
  8
1
  6
Continuous
100
AcDbCircle
 10
251.054184
 20
164.7717899999999
 30
0.0
 40
1.9
  0
CIRCLE
  5
9DBC
330
9A8B
100
AcDbEntity
  8
1
  6
Continuous
100
AcDbCircle
 10
241.5541839999999
 20
164.7717899999999
 30
0.0
 40
2.25
  0
CIRCLE
  5
9DBD
330
9A8B
100
AcDbEntity
  8
1
  6
Continuous
100
AcDbCircle
 10
241.5541839999999
 20
164.7717899999999
 30
0.0
 40
1.9
  0
ARC
  5
9DBE
330
9A8B
100
AcDbEntity
  8
1
  6
Continuous
100
AcDbCircle
 10
153.7647979999999
 20
164.108032
 30
0.0
 40
1.2394
100
AcDbArc
 50
274.119168
 51
0.4333810000000002
  0
ARC
  5
9DBF
330
9A8B
100
AcDbEntity
  8
1
  6
Continuous
100
AcDbCircle
 10
153.7647979999999
 20
165.4356379999998
 30
0.0
 40
1.2394
100
AcDbArc
 50
359.566575
 51
85.88083199999998
  0
ARC
  5
9DC0
330
9A8B
100
AcDbEntity
  8
1
  6
Continuous
100
AcDbCircle
 10
153.7647979999999
 20
256.3580319999999
 30
0.0
 40
1.2394
100
AcDbArc
 50
274.119168
 51
0.4333810000000002
  0
ARC
  5
9DC1
330
9A8B
100
AcDbEntity
  8
1
  6
Continuous
100
AcDbCircle
 10
153.7647979999999
 20
257.685669
 30
0.0
 40
1.2394
100
AcDbArc
 50
359.566575
 51
85.88083199999998
  0
ARC
  5
9DC2
330
9A8B
100
AcDbEntity
  8
1
  6
Continuous
100
AcDbCircle
 10
126.868287
 20
237.0218509999999
 30
0.0
 40
15.88591099999998
100
AcDbArc
 50
339.7437899999999
 51
20.25621
  0
ARC
  5
9DC3
330
9A8B
100
AcDbEntity
  8
1
  6
Continuous
100
AcDbCircle
 10
149.8173069999998
 20
147.7106479999999
 30
0.0
 40
1.837099999999999
100
AcDbArc
 50
283.756367
 51
304.360767
  0
ARC
  5
9DC4
330
9A8B
100
AcDbEntity
  8
1
  6
Continuous
100
AcDbCircle
 10
152.4333039999999
 20
146.5726469999999
 30
0.0
 40
1.02
100
AcDbArc
 50
220.1979809999999
 51
259.8874719999999
  0
ARC
  5
9DC5
330
9A8B
100
AcDbEntity
  8
1
  6
Continuous
100
AcDbCircle
 10
149.788407
 20
147.764847
 30
0.0
 40
3.0987
100
AcDbArc
 50
286.2014659999999
 51
290.116366
  0
ARC
  5
9DC6
330
9A8B
100
AcDbEntity
  8
1
  6
Continuous
100
AcDbCircle
 10
146.814896
 20
146.932358
 30
0.0
 40
4.3083
100
AcDbArc
 50
323.284625
 51
339.645761
  0
ARC
  5
9DC7
330
9A8B
100
AcDbEntity
  8
1
  6
Continuous
100
AcDbCircle
 10
150.7211159999999
 20
143.55925
 30
0.0
 40
0.9421000000000001
100
AcDbArc
 50
352.03316
 51
7.966799
  0
ARC
  5
9DC8
330
9A8B
100
AcDbEntity
  8
1
  6
Continuous
100
AcDbCircle
 10
146.567002
 20
144.114243
 30
0.0
 40
4.287499999999997
100
AcDbArc
 50
342.65496
 51
359.3338589999998
  0
ARC
  5
9DC9
330
9A8B
100
AcDbEntity
  8
1
  6
Continuous
100
AcDbCircle
 10
149.632798
 20
139.0615539999998
 30
0.0
 40
1.236599999999999
100
AcDbArc
 50
350.98286
 51
59.83789399999999
  0
ARC
  5
9DCA
330
9A8B
100
AcDbEntity
  8
1
  6
Continuous
100
AcDbCircle
 10
152.596299
 20
138.7761539999999
 30
0.0
 40
0.9435999999999999
100
AcDbArc
 50
111.260886
 51
183.128778
  0
ARC
  5
9DCB
330
9A8B
100
AcDbEntity
  8
1
  6
Continuous
100
AcDbCircle
 10
152.585892
 20
137.7451479999998
 30
0.0
 40
0.9332
100
AcDbArc
 50
110.826185
 51
183.1239829999999
  0
ARC
  5
9DCC
330
9A8B
100
AcDbEntity
  8
1
  6
Continuous
100
AcDbCircle
 10
152.922501
 20
136.5249479999999
 30
0.0
 40
2.0872
100
AcDbArc
 50
121.08099
 51
127.4232849999998
  0
ARC
  5
9DCD
330
9A8B
100
AcDbEntity
  8
1
  6
Continuous
100
AcDbCircle
 10
148.4466099999999
 20
136.9953459999998
 30
0.0
 40
2.415099999999998
100
AcDbArc
 50
355.467259
 51
41.54479600000001
  0
ARC
  5
9DCE
330
9A8B
100
AcDbEntity
  8
1
  6
Continuous
100
AcDbCircle
 10
151.8874969999999
 20
140.271545
 30
0.0
 40
1.0341
100
AcDbArc
 50
82.131392
 51
103.040487
  0
ARC
  5
9DCF
330
9A8B
100
AcDbEntity
  8
1
  6
Continuous
100
AcDbCircle
 10
149.8172919999998
 20
237.083038
 30
0.0
 40
1.837099999999999
100
AcDbArc
 50
55.639203
 51
76.243599
  0
ARC
  5
9DD0
330
9A8B
100
AcDbEntity
  8
1
  6
Continuous
100
AcDbCircle
 10
152.433197
 20
238.221039
 30
0.0
 40
1.02
100
AcDbArc
 50
100.1125419999999
 51
139.802033
  0
ARC
  5
9DD1
330
9A8B
100
AcDbEntity
  8
1
  6
Continuous
100
AcDbCircle
 10
149.7883919999999
 20
237.028839
 30
0.0
 40
3.0987
100
AcDbArc
 50
69.8836
 51
73.79850000000002
  0
ARC
  5
9DD2
330
9A8B
100
AcDbEntity
  8
1
  6
Continuous
100
AcDbCircle
 10
146.814789
 20
237.861343
 30
0.0
 40
4.3083
100
AcDbArc
 50
20.354208
 51
36.706905
  0
ARC
  5
9DD3
330
9A8B
100
AcDbEntity
  8
1
  6
Continuous
100
AcDbCircle
 10
150.7210699999999
 20
241.234451
 30
0.0
 40
0.9421000000000001
100
AcDbArc
 50
352.03321
 51
7.966812
  0
ARC
  5
9DD4
330
9A8B
100
AcDbEntity
  8
1
  6
Continuous
100
AcDbCircle
 10
146.5668949999999
 20
240.679443
 30
0.0
 40
4.287499999999997
100
AcDbArc
 50
0.6661120000000002
 51
4.580743
  0
ARC
  5
9DD5
330
9A8B
100
AcDbEntity
  8
1
  6
Continuous
100
AcDbCircle
 10
146.024765
 20
142.2718509999999
 30
0.0
 40
10.50871499999999
100
AcDbArc
 50
342.411937
 51
17.58806299999999
  0
ARC
  5
9DD6
330
9A8B
100
AcDbEntity
  8
1
  6
Continuous
100
AcDbCircle
 10
153.722092
 20
137.508698
 30
0.0
 40
2.811392999999998
100
AcDbArc
 50
334.3844680000001
 51
34.384467
  0
ARC
  5
9DD7
330
9A8B
100
AcDbEntity
  8
1
  6
Continuous
100
AcDbCircle
 10
153.722092
 20
147.034988
 30
0.0
 40
2.811392999999998
100
AcDbArc
 50
325.615533
 51
25.615532
  0
ARC
  5
9DD8
330
9A8B
100
AcDbEntity
  8
1
  6
Continuous
100
AcDbCircle
 10
155.144883
 20
137.508698
 30
0.0
 40
2.811392999999998
100
AcDbArc
 50
145.6155349999999
 51
205.615537
  0
ARC
  5
9DD9
330
9A8B
100
AcDbEntity
  8
1
  6
Continuous
100
AcDbCircle
 10
155.144883
 20
147.034988
 30
0.0
 40
2.811392999999998
100
AcDbArc
 50
154.3844729999999
 51
214.3844749999999
  0
ARC
  5
9DDA
330
9A8B
100
AcDbEntity
  8
1
  6
Continuous
100
AcDbCircle
 10
162.8422089999999
 20
142.2718509999999
 30
0.0
 40
10.50871499999999
100
AcDbArc
 50
162.4119399999998
 51
197.5880699999999
  0
ARC
  5
9DDB
330
9A8B
100
AcDbEntity
  8
1
  6
Continuous
100
AcDbCircle
 10
148.590561
 20
239.7718509999999
 30
0.0
 40
7.942914999999997
100
AcDbArc
 50
339.7436819999999
 51
20.256318
  0
ARC
  5
9DDC
330
9A8B
100
AcDbEntity
  8
1
  6
Continuous
100
AcDbCircle
 10
148.590561
 20
245.2718509999999
 30
0.0
 40
7.942914999999997
100
AcDbArc
 50
339.7436819999999
 51
20.256318
  0
ARC
  5
9DDD
330
9A8B
100
AcDbEntity
  8
1
  6
Continuous
100
AcDbCircle
 10
160.2764129999999
 20
239.7718509999999
 30
0.0
 40
7.942914999999997
100
AcDbArc
 50
159.743686
 51
200.256311
  0
ARC
  5
9DDE
330
9A8B
100
AcDbEntity
  8
1
  6
Continuous
100
AcDbCircle
 10
236.554184
 20
142.2718509999999
 30
0.0
 40
3.093999999999998
100
AcDbArc
 50
330.7685629999999
 51
29.23143700000001
  0
ARC
  5
9DDF
330
9A8B
100
AcDbEntity
  8
1
  6
Continuous
100
AcDbCircle
 10
236.554184
 20
142.2718509999999
 30
0.0
 40
3.093999999999998
100
AcDbArc
 50
150.769145
 51
209.230865
  0
ARC
  5
9DE0
330
9A8B
100
AcDbEntity
  8
2
  6
Continuous
100
AcDbCircle
 10
236.554184
 20
142.2718509999999
 30
0.0
 40
3.093999999999998
100
AcDbArc
 50
209.230855
 51
330.7685629999999
  0
ARC
  5
9DE1
330
9A8B
100
AcDbEntity
  8
2
  6
Continuous
100
AcDbCircle
 10
236.554184
 20
142.2718509999999
 30
0.0
 40
3.093999999999998
100
AcDbArc
 50
29.23143700000001
 51
150.769145
  0
CIRCLE
  5
9DE2
330
9A8B
100
AcDbEntity
  8
1
  6
Continuous
100
AcDbCircle
 10
236.554184
 20
142.2718509999999
 30
0.0
 40
5.5
  0
CIRCLE
  5
9DE3
330
9A8B
100
AcDbEntity
  8
1
  6
Continuous
100
AcDbCircle
 10
236.554184
 20
142.2718509999999
 30
0.0
 40
6.5
  0
ARC
  5
9DE4
330
9A8B
100
AcDbEntity
  8
1
  6
Continuous
100
AcDbCircle
 10
236.554184
 20
142.2718509999999
 30
0.0
 40
8.599999999999997
100
AcDbArc
 50
116.446693
 51
151.000074
  0
ARC
  5
9DE5
330
9A8B
100
AcDbEntity
  8
1
  6
Continuous
100
AcDbCircle
 10
236.554184
 20
142.2718509999999
 30
0.0
 40
8.599999999999997
100
AcDbArc
 50
41.19136799999997
 51
63.553291
  0
ARC
  5
9DE6
330
9A8B
100
AcDbEntity
  8
1
  6
Continuous
100
AcDbCircle
 10
236.554184
 20
142.2718509999999
 30
0.0
 40
8.599999999999997
100
AcDbArc
 50
299.0001819999998
 51
318.808522
  0
ARC
  5
9DE7
330
9A8B
100
AcDbEntity
  8
2
  6
Continuous
100
AcDbCircle
 10
236.554184
 20
142.2718509999999
 30
0.0
 40
9.5
100
AcDbArc
 50
326.261277
 51
329.91651
  0
ARC
  5
9DE8
330
9A8B
100
AcDbEntity
  8
2
  6
Continuous
100
AcDbCircle
 10
236.554184
 20
142.2718509999999
 30
0.0
 40
9.5
100
AcDbArc
 50
236.261274
 51
303.7387240000001
  0
ARC
  5
9DE9
330
9A8B
100
AcDbEntity
  8
1
  6
Continuous
100
AcDbCircle
 10
236.554184
 20
142.2718509999999
 30
0.0
 40
9.5
100
AcDbArc
 50
303.7387240000001
 51
326.261277
  0
ARC
  5
9DEA
330
9A8B
100
AcDbEntity
  8
2
  6
Continuous
100
AcDbCircle
 10
236.554184
 20
142.2718509999999
 30
0.0
 40
8.958503999999997
100
AcDbArc
 50
298.1344279999999
 51
324.026135
  0
ARC
  5
9DEB
330
9A8B
100
AcDbEntity
  8
1
  6
Continuous
100
AcDbCircle
 10
236.554184
 20
142.2718509999999
 30
0.0
 40
8.958503999999997
100
AcDbArc
 50
241.865567
 51
298.1344279999999
  0
ARC
  5
9DEC
330
9A8B
100
AcDbEntity
  8
2
  6
Continuous
100
AcDbCircle
 10
236.554184
 20
142.2718509999999
 30
0.0
 40
8.958503999999997
100
AcDbArc
 50
35.97377999999999
 51
61.86557200000001
  0
ARC
  5
9DED
330
9A8B
100
AcDbEntity
  8
1
  6
Continuous
100
AcDbCircle
 10
236.554184
 20
142.2718509999999
 30
0.0
 40
9.5
100
AcDbArc
 50
33.738723
 51
56.26127600000002
  0
ARC
  5
9DEE
330
9A8B
100
AcDbEntity
  8
2
  6
Continuous
100
AcDbCircle
 10
236.554184
 20
142.2718509999999
 30
0.0
 40
9.5
100
AcDbArc
 50
56.26127600000002
 51
123.738726
  0
ARC
  5
9DEF
330
9A8B
100
AcDbEntity
  8
1
  6
Continuous
100
AcDbCircle
 10
236.554184
 20
142.2718509999999
 30
0.0
 40
8.958503999999997
100
AcDbArc
 50
61.86557200000001
 51
118.1344329999999
  0
ARC
  5
9DF0
330
9A8B
100
AcDbEntity
  8
2
  6
Continuous
100
AcDbCircle
 10
236.554184
 20
142.2718509999999
 30
0.0
 40
8.958503999999997
100
AcDbArc
 50
118.1344329999999
 51
151.8655679999999
  0
ARC
  5
9DF1
330
9A8B
100
AcDbEntity
  8
1
  6
Continuous
100
AcDbCircle
 10
236.554184
 20
142.2718509999999
 30
0.0
 40
9.5
100
AcDbArc
 50
123.738726
 51
146.261275
  0
ARC
  5
9DF2
330
9A8B
100
AcDbEntity
  8
1
  6
Continuous
100
AcDbCircle
 10
236.554184
 20
142.2718509999999
 30
0.0
 40
8.958503999999997
100
AcDbArc
 50
151.8655679999999
 51
208.134428
  0
ARC
  5
9DF3
330
9A8B
100
AcDbEntity
  8
2
  6
Continuous
100
AcDbCircle
 10
236.554184
 20
142.2718509999999
 30
0.0
 40
9.5
100
AcDbArc
 50
146.261275
 51
213.738722
  0
ARC
  5
9DF4
330
9A8B
100
AcDbEntity
  8
2
  6
Continuous
100
AcDbCircle
 10
236.554184
 20
142.2718509999999
 30
0.0
 40
8.958503999999997
100
AcDbArc
 50
208.1344319999999
 51
241.865567
  0
ARC
  5
9DF5
330
9A8B
100
AcDbEntity
  8
1
  6
Continuous
100
AcDbCircle
 10
236.554184
 20
142.2718509999999
 30
0.0
 40
9.5
100
AcDbArc
 50
213.7387249999999
 51
236.261274
  0
ARC
  5
9DF6
330
9A8B
100
AcDbEntity
  8
2
  6
Continuous
100
AcDbCircle
 10
236.554184
 20
142.2718509999999
 30
0.0
 40
9.5
100
AcDbArc
 50
30.083421
 51
33.738723
  0
ARC
  5
9DF7
330
9A8B
100
AcDbEntity
  8
1
  6
Continuous
100
AcDbCircle
 10
160.2764129999999
 20
245.2718509999999
 30
0.0
 40
7.942914999999997
100
AcDbArc
 50
179.9999909999999
 51
200.256311
  0
ARC
  5
9DF8
330
9A8B
100
AcDbEntity
  8
1
  6
Continuous
100
AcDbCircle
 10
151.887482
 20
244.5221559999999
 30
0.0
 40
1.0341
100
AcDbArc
 50
262.594355
 51
277.868621
  0
ARC
  5
9DF9
330
9A8B
100
AcDbEntity
  8
1
  6
Continuous
100
AcDbCircle
 10
77.66829
 20
248.0218509999999
 30
0.0
 40
15.88591099999998
100
AcDbArc
 50
339.7437899999999
 51
20.25621
  0
ARC
  5
9DFA
330
9A8B
100
AcDbEntity
  8
1
  6
Continuous
100
AcDbCircle
 10
77.66829
 20
237.0218509999999
 30
0.0
 40
15.88591099999998
100
AcDbArc
 50
339.7437899999999
 51
20.25621
  0
ARC
  5
9DFB
330
9A8B
100
AcDbEntity
  8
1
  6
Continuous
100
AcDbCircle
 10
391.176987
 20
132.745575
 30
0.0
 40
5.622809999999999
100
AcDbArc
 50
145.615754
 51
205.615755
  0
ARC
  5
9DFC
330
9A8B
100
AcDbEntity
  8
1
  6
Continuous
100
AcDbCircle
 10
406.571671
 20
142.2718509999999
 30
0.0
 40
21.017519
100
AcDbArc
 50
162.4120489999999
 51
197.5879609999998
  0
ARC
  5
9DFD
330
9A8B
100
AcDbEntity
  8
1
  6
Continuous
100
AcDbCircle
 10
391.176987
 20
151.7981259999999
 30
0.0
 40
5.622809999999999
100
AcDbArc
 50
154.3842549999999
 51
214.384243
  0
ARC
  5
9DFE
330
9A8B
100
AcDbEntity
  8
1
  6
Continuous
100
AcDbCircle
 10
335.854172
 20
159.7718509999999
 30
0.0
 40
2.0
100
AcDbArc
 50
180.000005
 51
270.000001
  0
ARC
  5
9DFF
330
9A8B
100
AcDbEntity
  8
1
  6
Continuous
100
AcDbCircle
 10
339.854172
 20
157.7718509999999
 30
0.0
 40
2.0
100
AcDbArc
 50
359.999995
 51
89.99999599999998
  0
ARC
  5
9E00
330
9A8B
100
AcDbEntity
  8
1
  6
Continuous
100
AcDbCircle
 10
341.9769749999999
 20
132.745575
 30
0.0
 40
5.622809999999999
100
AcDbArc
 50
145.615754
 51
205.615755
  0
ARC
  5
9E01
330
9A8B
100
AcDbEntity
  8
1
  6
Continuous
100
AcDbCircle
 10
357.371689
 20
142.2718509999999
 30
0.0
 40
21.017519
100
AcDbArc
 50
162.4120489999999
 51
197.5879609999998
  0
ARC
  5
9E02
330
9A8B
100
AcDbEntity
  8
1
  6
Continuous
100
AcDbCircle
 10
341.9769749999999
 20
151.7981259999999
 30
0.0
 40
5.622809999999999
100
AcDbArc
 50
154.3842549999999
 51
214.384243
  0
CIRCLE
  5
9E03
330
9A8B
100
AcDbEntity
  8
1
  6
Continuous
100
AcDbCircle
 10
330.35419
 20
170.171844
 30
0.0
 40
0.75
  0
ARC
  5
9E04
330
9A8B
100
AcDbEntity
  8
1
  6
Continuous
100
AcDbCircle
 10
325.34357
 20
164.108032
 30
0.0
 40
1.2394
100
AcDbArc
 50
179.5666159999999
 51
265.880823
  0
ARC
  5
9E05
330
9A8B
100
AcDbEntity
  8
1
  6
Continuous
100
AcDbCircle
 10
325.34357
 20
165.4356379999998
 30
0.0
 40
1.2394
100
AcDbArc
 50
94.11916700000004
 51
180.433421
  0
ARC
  5
9E06
330
9A8B
100
AcDbEntity
  8
1
  6
Continuous
100
AcDbCircle
 10
329.291062
 20
147.7106479999999
 30
0.0
 40
1.837099999999999
100
AcDbArc
 50
235.639235
 51
256.243635
  0
ARC
  5
9E07
330
9A8B
100
AcDbEntity
  8
1
  6
Continuous
100
AcDbCircle
 10
326.675065
 20
146.5726469999999
 30
0.0
 40
1.02
100
AcDbArc
 50
280.1125299999999
 51
319.8020179999998
  0
ARC
  5
9E08
330
9A8B
100
AcDbEntity
  8
1
  6
Continuous
100
AcDbCircle
 10
329.3199619999999
 20
147.764847
 30
0.0
 40
3.0987
100
AcDbArc
 50
249.8836359999998
 51
253.7985359999999
  0
ARC
  5
9E09
330
9A8B
100
AcDbEntity
  8
1
  6
Continuous
100
AcDbCircle
 10
332.293473
 20
146.932358
 30
0.0
 40
4.3083
100
AcDbArc
 50
200.3542319999999
 51
216.7153759999999
  0
ARC
  5
9E0A
330
9A8B
100
AcDbEntity
  8
1
  6
Continuous
100
AcDbCircle
 10
328.387253
 20
143.55925
 30
0.0
 40
0.9421000000000001
100
AcDbArc
 50
172.033204
 51
187.966847
  0
ARC
  5
9E0B
330
9A8B
100
AcDbEntity
  8
1
  6
Continuous
100
AcDbCircle
 10
332.5413669999999
 20
144.114243
 30
0.0
 40
4.287499999999997
100
AcDbArc
 50
180.666143
 51
197.3450419999999
  0
ARC
  5
9E0C
330
9A8B
100
AcDbEntity
  8
1
  6
Continuous
100
AcDbCircle
 10
329.475571
 20
139.0615539999998
 30
0.0
 40
1.236599999999999
100
AcDbArc
 50
120.162111
 51
189.0171389999999
  0
ARC
  5
9E0D
330
9A8B
100
AcDbEntity
  8
1
  6
Continuous
100
AcDbCircle
 10
326.51207
 20
138.7761539999999
 30
0.0
 40
0.9435999999999999
100
AcDbArc
 50
356.871222
 51
68.739113
  0
ARC
  5
9E0E
330
9A8B
100
AcDbEntity
  8
1
  6
Continuous
100
AcDbCircle
 10
326.5224769999999
 20
137.7451479999998
 30
0.0
 40
0.9332
100
AcDbArc
 50
356.876017
 51
69.17381299999999
  0
ARC
  5
9E0F
330
9A8B
100
AcDbEntity
  8
1
  6
Continuous
100
AcDbCircle
 10
326.185868
 20
136.5249479999999
 30
0.0
 40
2.0872
100
AcDbArc
 50
52.576716
 51
58.919008
  0
ARC
  5
9E10
330
9A8B
100
AcDbEntity
  8
1
  6
Continuous
100
AcDbCircle
 10
330.6617589999999
 20
136.9953459999998
 30
0.0
 40
2.415099999999998
100
AcDbArc
 50
138.455202
 51
184.532737
  0
ARC
  5
9E11
330
9A8B
100
AcDbEntity
  8
1
  6
Continuous
100
AcDbCircle
 10
327.220871
 20
140.271545
 30
0.0
 40
1.0341
100
AcDbArc
 50
76.959512
 51
97.868606
  0
ARC
  5
9E12
330
9A8B
100
AcDbEntity
  8
1
  6
Continuous
100
AcDbCircle
 10
333.0836029999999
 20
142.2718509999999
 30
0.0
 40
10.50871499999999
100
AcDbArc
 50
162.4119399999998
 51
197.5880699999999
  0
ARC
  5
9E13
330
9A8B
100
AcDbEntity
  8
1
  6
Continuous
100
AcDbCircle
 10
325.386277
 20
137.508698
 30
0.0
 40
2.811392999999998
100
AcDbArc
 50
145.6155349999999
 51
205.615537
  0
ARC
  5
9E14
330
9A8B
100
AcDbEntity
  8
1
  6
Continuous
100
AcDbCircle
 10
325.386277
 20
147.034988
 30
0.0
 40
2.811392999999998
100
AcDbArc
 50
154.3844729999999
 51
214.384461
  0
ARC
  5
9E15
330
9A8B
100
AcDbEntity
  8
1
  6
Continuous
100
AcDbCircle
 10
323.9634859999998
 20
137.508698
 30
0.0
 40
2.811392999999998
100
AcDbArc
 50
334.3844629999999
 51
34.384467
  0
ARC
  5
9E16
330
9A8B
100
AcDbEntity
  8
1
  6
Continuous
100
AcDbCircle
 10
323.9634859999998
 20
147.034988
 30
0.0
 40
2.811392999999998
100
AcDbArc
 50
325.6155269999998
 51
25.615527
  0
ARC
  5
9E17
330
9A8B
100
AcDbEntity
  8
1
  6
Continuous
100
AcDbCircle
 10
316.2661589999999
 20
142.2718509999999
 30
0.0
 40
10.50871499999999
100
AcDbArc
 50
342.41193
 51
17.58805999999999
  0
ARC
  5
9E18
330
9A8B
100
AcDbEntity
  8
1
  6
Continuous
100
AcDbCircle
 10
153.7647979999999
 20
46.358032
 30
0.0
 40
1.2394
100
AcDbArc
 50
274.119168
 51
0.433425
  0
ARC
  5
9E19
330
9A8B
100
AcDbEntity
  8
1
  6
Continuous
100
AcDbCircle
 10
153.7647979999999
 20
38.18563799999999
 30
0.0
 40
1.2394
100
AcDbArc
 50
359.566619
 51
85.88083199999998
  0
ARC
  5
9E1A
330
9A8B
100
AcDbEntity
  8
1
  6
Continuous
100
AcDbCircle
 10
153.7647979999999
 20
36.858032
 30
0.0
 40
1.2394
100
AcDbArc
 50
274.119168
 51
0.433425
  0
ARC
  5
9E1B
330
9A8B
100
AcDbEntity
  8
1
  6
Continuous
100
AcDbCircle
 10
126.868287
 20
57.52183500000001
 30
0.0
 40
15.88591099999998
100
AcDbArc
 50
339.7437899999999
 51
20.25621
  0
ARC
  5
9E1C
330
9A8B
100
AcDbEntity
  8
1
  6
Continuous
100
AcDbCircle
 10
148.590561
 20
54.77183499999998
 30
0.0
 40
7.942914999999997
100
AcDbArc
 50
339.7436819999999
 51
20.256318
  0
ARC
  5
9E1D
330
9A8B
100
AcDbEntity
  8
1
  6
Continuous
100
AcDbCircle
 10
148.590561
 20
49.27183499999999
 30
0.0
 40
7.942914999999997
100
AcDbArc
 50
339.7436819999999
 51
20.256318
  0
ARC
  5
9E1E
330
9A8B
100
AcDbEntity
  8
1
  6
Continuous
100
AcDbCircle
 10
160.2764129999999
 20
54.77183499999998
 30
0.0
 40
7.942914999999997
100
AcDbArc
 50
159.743686
 51
200.256311
  0
ARC
  5
9E1F
330
9A8B
100
AcDbEntity
  8
1
  6
Continuous
100
AcDbCircle
 10
160.2764129999999
 20
49.27183499999999
 30
0.0
 40
7.942914999999997
100
AcDbArc
 50
159.743686
 51
200.256311
  0
ARC
  5
9E20
330
9A8B
100
AcDbEntity
  8
1
  6
Continuous
100
AcDbCircle
 10
77.66829
 20
46.52183499999998
 30
0.0
 40
15.88591099999998
100
AcDbArc
 50
339.7437899999999
 51
20.25621
  0
ARC
  5
9E21
330
9A8B
100
AcDbEntity
  8
1
  6
Continuous
100
AcDbCircle
 10
77.66829
 20
57.52183500000001
 30
0.0
 40
15.88591099999998
100
AcDbArc
 50
339.7437899999999
 51
20.25621
  0
ARC
  5
9E22
330
9A8B
100
AcDbEntity
  8
1
  6
Continuous
100
AcDbCircle
 10
126.868287
 20
46.52183499999998
 30
0.0
 40
15.88591099999998
100
AcDbArc
 50
339.7437899999999
 51
20.25621
  0
ARC
  5
9E23
330
9A8B
100
AcDbEntity
  8
1
  6
Continuous
100
AcDbCircle
 10
149.8172919999998
 20
46.583038
 30
0.0
 40
1.837099999999999
100
AcDbArc
 50
55.639203
 51
76.243599
  0
ARC
  5
9E24
330
9A8B
100
AcDbEntity
  8
1
  6
Continuous
100
AcDbCircle
 10
152.433197
 20
47.721039
 30
0.0
 40
1.02
100
AcDbArc
 50
100.1125419999999
 51
139.802033
  0
ARC
  5
9E25
330
9A8B
100
AcDbEntity
  8
1
  6
Continuous
100
AcDbCircle
 10
149.7883919999999
 20
46.52883899999999
 30
0.0
 40
3.0987
100
AcDbArc
 50
69.8836
 51
73.79850000000002
  0
ARC
  5
9E26
330
9A8B
100
AcDbEntity
  8
1
  6
Continuous
100
AcDbCircle
 10
146.814789
 20
47.361336
 30
0.0
 40
4.3083
100
AcDbArc
 50
20.354208
 51
36.706905
  0
ARC
  5
9E27
330
9A8B
100
AcDbEntity
  8
1
  6
Continuous
100
AcDbCircle
 10
150.7210849999999
 20
50.734436
 30
0.0
 40
0.9421000000000001
100
AcDbArc
 50
352.03321
 51
7.966812
  0
ARC
  5
9E28
330
9A8B
100
AcDbEntity
  8
1
  6
Continuous
100
AcDbCircle
 10
146.5668949999999
 20
50.17943599999998
 30
0.0
 40
4.287499999999997
100
AcDbArc
 50
0.6661120000000002
 51
17.345011
  0
ARC
  5
9E29
330
9A8B
100
AcDbEntity
  8
1
  6
Continuous
100
AcDbCircle
 10
149.632798
 20
55.23213199999999
 30
0.0
 40
1.236599999999999
100
AcDbArc
 50
300.1621129999999
 51
9.017110999999999
  0
ARC
  5
9E2A
330
9A8B
100
AcDbEntity
  8
1
  6
Continuous
100
AcDbCircle
 10
152.596299
 20
55.517532
 30
0.0
 40
0.9435999999999999
100
AcDbArc
 50
176.8712319999999
 51
248.739124
  0
ARC
  5
9E2B
330
9A8B
100
AcDbEntity
  8
1
  6
Continuous
100
AcDbCircle
 10
152.585892
 20
56.548538
 30
0.0
 40
0.9332
100
AcDbArc
 50
176.876027
 51
249.173825
  0
ARC
  5
9E2C
330
9A8B
100
AcDbEntity
  8
1
  6
Continuous
100
AcDbCircle
 10
152.922486
 20
57.768738
 30
0.0
 40
2.0872
100
AcDbArc
 50
232.5767289999999
 51
238.9190240000001
  0
ARC
  5
9E2D
330
9A8B
100
AcDbEntity
  8
1
  6
Continuous
100
AcDbCircle
 10
148.446595
 20
57.29834
 30
0.0
 40
2.415099999999998
100
AcDbArc
 50
318.455214
 51
4.532708999999997
  0
ARC
  5
9E2E
330
9A8B
100
AcDbEntity
  8
1
  6
Continuous
100
AcDbCircle
 10
151.8874969999999
 20
54.02213299999999
 30
0.0
 40
1.0341
100
AcDbArc
 50
256.9595269999999
 51
277.868621
  0
LINE
  5
9E2F
330
9A8B
100
AcDbEntity
  8
1
  6
Continuous
100
AcDbLine
 10
240.3794819999998
 20
164.948522
 30
0.0
 11
240.9307819999999
 21
164.958144
 31
0.0
  0
ARC
  5
9E30
330
9A8B
100
AcDbEntity
  8
1
  6
Continuous
100
AcDbCircle
 10
241.5657809999999
 20
164.767684
 30
0.0
 40
1.199999999999999
100
AcDbArc
 50
171.332659
 51
188.6673509999999
  0
ARC
  5
9E31
330
9A8B
100
AcDbEntity
  8
1
  6
Continuous
100
AcDbCircle
 10
241.5657809999999
 20
164.767684
 30
0.0
 40
1.199999999999999
100
AcDbArc
 50
81.33265599999999
 51
98.66734200000001
  0
LINE
  5
9E32
330
9A8B
100
AcDbEntity
  8
1
  6
Continuous
100
AcDbLine
 10
241.38494
 20
165.9539839999999
 30
0.0
 11
241.375318
 21
165.4026919999998
 31
0.0
  0
LINE
  5
9E33
330
9A8B
100
AcDbEntity
  8
1
  6
Continuous
100
AcDbLine
 10
241.3753279999999
 20
165.4026879999999
 30
0.0
 11
241.252018
 21
165.081456
 31
0.0
  0
LINE
  5
9E34
330
9A8B
100
AcDbEntity
  8
1
  6
Continuous
100
AcDbLine
 10
240.9307799999999
 20
164.9581419999998
 30
0.0
 11
241.2520119999999
 21
165.081452
 31
0.0
  0
LINE
  5
9E35
330
9A8B
100
AcDbEntity
  8
1
  6
Continuous
100
AcDbLine
 10
241.756239
 20
165.4026879999999
 30
0.0
 11
241.8795479999999
 21
165.081456
 31
0.0
  0
LINE
  5
9E36
330
9A8B
100
AcDbEntity
  8
1
  6
Continuous
100
AcDbLine
 10
241.746618
 20
165.953978
 30
0.0
 11
241.7562409999999
 21
165.4026859999999
 31
0.0
  0
ARC
  5
9E37
330
9A8B
100
AcDbEntity
  8
1
  6
Continuous
100
AcDbCircle
 10
241.5657809999999
 20
164.767684
 30
0.0
 40
1.199999999999999
100
AcDbArc
 50
351.332655
 51
8.667344999999999
  0
LINE
  5
9E38
330
9A8B
100
AcDbEntity
  8
1
  6
Continuous
100
AcDbLine
 10
242.2007779999999
 20
164.9581539999998
 30
0.0
 11
241.879547
 21
165.081462
 31
0.0
  0
LINE
  5
9E39
330
9A8B
100
AcDbEntity
  8
1
  6
Continuous
100
AcDbLine
 10
242.752077
 20
164.9485249999998
 30
0.0
 11
242.200777
 21
164.9581479999999
 31
0.0
  0
LINE
  5
9E3A
330
9A8B
100
AcDbEntity
  8
1
  6
Continuous
100
AcDbLine
 10
242.7520759999999
 20
164.586858
 30
0.0
 11
242.200776
 21
164.577235
 31
0.0
  0
LINE
  5
9E3B
330
9A8B
100
AcDbEntity
  8
1
  6
Continuous
100
AcDbLine
 10
241.756245
 20
164.132686
 30
0.0
 11
241.879554
 21
164.4539169999999
 31
0.0
  0
ARC
  5
9E3C
330
9A8B
100
AcDbEntity
  8
1
  6
Continuous
100
AcDbCircle
 10
241.5657809999999
 20
164.767684
 30
0.0
 40
1.199999999999999
100
AcDbArc
 50
261.3326579999999
 51
278.667344
  0
LINE
  5
9E3D
330
9A8B
100
AcDbEntity
  8
1
  6
Continuous
100
AcDbLine
 10
241.746618
 20
163.581389
 30
0.0
 11
241.7562409999999
 21
164.1326819999999
 31
0.0
  0
LINE
  5
9E3E
330
9A8B
100
AcDbEntity
  8
1
  6
Continuous
100
AcDbLine
 10
242.200779
 20
164.577224
 30
0.0
 11
241.879547
 21
164.453914
 31
0.0
  0
LINE
  5
9E3F
330
9A8B
100
AcDbEntity
  8
1
  6
Continuous
100
AcDbLine
 10
241.3753189999999
 20
164.1326929999999
 30
0.0
 11
241.252009
 21
164.453925
 31
0.0
  0
LINE
  5
9E40
330
9A8B
100
AcDbEntity
  8
1
  6
Continuous
100
AcDbLine
 10
241.38494
 20
163.581399
 30
0.0
 11
241.375317
 21
164.132691
 31
0.0
  0
LINE
  5
9E41
330
9A8B
100
AcDbEntity
  8
1
  6
Continuous
100
AcDbLine
 10
240.3794819999998
 20
164.586848
 30
0.0
 11
240.9307819999999
 21
164.577226
 31
0.0
  0
LINE
  5
9E42
330
9A8B
100
AcDbEntity
  8
1
  6
Continuous
100
AcDbLine
 10
240.9307829999999
 20
164.5772329999998
 30
0.0
 11
241.252014
 21
164.453923
 31
0.0
  0
LINE
  5
9E43
330
9A8B
100
AcDbEntity
  8
1
  6
Continuous
100
AcDbLine
 10
249.879482
 20
164.948522
 30
0.0
 11
250.430782
 21
164.958144
 31
0.0
  0
ARC
  5
9E44
330
9A8B
100
AcDbEntity
  8
1
  6
Continuous
100
AcDbCircle
 10
251.065781
 20
164.767684
 30
0.0
 40
1.199999999999999
100
AcDbArc
 50
171.332659
 51
188.6673509999999
  0
ARC
  5
9E45
330
9A8B
100
AcDbEntity
  8
1
  6
Continuous
100
AcDbCircle
 10
251.065781
 20
164.767684
 30
0.0
 40
1.199999999999999
100
AcDbArc
 50
81.33265599999999
 51
98.66734200000001
  0
LINE
  5
9E46
330
9A8B
100
AcDbEntity
  8
1
  6
Continuous
100
AcDbLine
 10
250.8849399999999
 20
165.9539839999999
 30
0.0
 11
250.8753179999999
 21
165.4026919999998
 31
0.0
  0
LINE
  5
9E47
330
9A8B
100
AcDbEntity
  8
1
  6
Continuous
100
AcDbLine
 10
250.8753279999999
 20
165.4026879999999
 30
0.0
 11
250.7520179999999
 21
165.081456
 31
0.0
  0
LINE
  5
9E48
330
9A8B
100
AcDbEntity
  8
1
  6
Continuous
100
AcDbLine
 10
250.4307799999998
 20
164.9581419999998
 30
0.0
 11
250.752012
 21
165.081452
 31
0.0
  0
LINE
  5
9E49
330
9A8B
100
AcDbEntity
  8
1
  6
Continuous
100
AcDbLine
 10
251.2562389999999
 20
165.4026879999999
 30
0.0
 11
251.379548
 21
165.081456
 31
0.0
  0
LINE
  5
9E4A
330
9A8B
100
AcDbEntity
  8
1
  6
Continuous
100
AcDbLine
 10
251.246618
 20
165.953978
 30
0.0
 11
251.256241
 21
165.4026859999999
 31
0.0
  0
ARC
  5
9E4B
330
9A8B
100
AcDbEntity
  8
1
  6
Continuous
100
AcDbCircle
 10
251.065781
 20
164.767684
 30
0.0
 40
1.199999999999999
100
AcDbArc
 50
351.332655
 51
8.667344999999999
  0
LINE
  5
9E4C
330
9A8B
100
AcDbEntity
  8
1
  6
Continuous
100
AcDbLine
 10
251.7007779999999
 20
164.9581539999998
 30
0.0
 11
251.379547
 21
165.081462
 31
0.0
  0
LINE
  5
9E4D
330
9A8B
100
AcDbEntity
  8
1
  6
Continuous
100
AcDbLine
 10
252.252077
 20
164.9485249999998
 30
0.0
 11
251.7007769999999
 21
164.9581479999999
 31
0.0
  0
LINE
  5
9E4E
330
9A8B
100
AcDbEntity
  8
1
  6
Continuous
100
AcDbLine
 10
252.2520759999999
 20
164.586858
 30
0.0
 11
251.7007759999999
 21
164.577235
 31
0.0
  0
LINE
  5
9E4F
330
9A8B
100
AcDbEntity
  8
1
  6
Continuous
100
AcDbLine
 10
251.256245
 20
164.132686
 30
0.0
 11
251.379554
 21
164.4539169999999
 31
0.0
  0
ARC
  5
9E50
330
9A8B
100
AcDbEntity
  8
1
  6
Continuous
100
AcDbCircle
 10
251.065781
 20
164.767684
 30
0.0
 40
1.199999999999999
100
AcDbArc
 50
261.3326579999999
 51
278.667344
  0
LINE
  5
9E51
330
9A8B
100
AcDbEntity
  8
1
  6
Continuous
100
AcDbLine
 10
251.246618
 20
163.581389
 30
0.0
 11
251.256241
 21
164.1326819999999
 31
0.0
  0
LINE
  5
9E52
330
9A8B
100
AcDbEntity
  8
1
  6
Continuous
100
AcDbLine
 10
251.700779
 20
164.577224
 30
0.0
 11
251.379547
 21
164.453914
 31
0.0
  0
LINE
  5
9E53
330
9A8B
100
AcDbEntity
  8
1
  6
Continuous
100
AcDbLine
 10
250.8753189999999
 20
164.1326929999999
 30
0.0
 11
250.7520089999999
 21
164.453925
 31
0.0
  0
LINE
  5
9E54
330
9A8B
100
AcDbEntity
  8
1
  6
Continuous
100
AcDbLine
 10
250.8849399999999
 20
163.581399
 30
0.0
 11
250.8753169999998
 21
164.132691
 31
0.0
  0
LINE
  5
9E55
330
9A8B
100
AcDbEntity
  8
1
  6
Continuous
100
AcDbLine
 10
249.879482
 20
164.586848
 30
0.0
 11
250.430782
 21
164.577226
 31
0.0
  0
LINE
  5
9E56
330
9A8B
100
AcDbEntity
  8
1
  6
Continuous
100
AcDbLine
 10
250.430783
 20
164.5772329999998
 30
0.0
 11
250.752014
 21
164.453923
 31
0.0
  0
LINE
  5
9E57
330
9A8B
100
AcDbEntity
  8
1
  6
Continuous
100
AcDbLine
 10
139.254197
 20
155.271851
 30
0.0
 11
137.254197
 21
155.271851
 31
0.0
  0
LINE
  5
9E58
330
9A8B
100
AcDbEntity
  8
1
  6
Continuous
100
AcDbLine
 10
150.904187
 20
242.2718509999999
 30
0.0
 11
150.904187
 21
241.0218659999999
 31
0.0
  0
LINE
  5
9E59
330
9A8B
100
AcDbEntity
  8
1
  6
Continuous
100
AcDbLine
 10
145.5041939999999
 20
32.77183499999999
 30
0.0
 11
145.5041939999999
 21
44.500099
 31
0.0
  0
LINE
  5
9E5A
330
9A8B
100
AcDbEntity
  8
1
  6
Continuous
100
AcDbLine
 10
129.854203
 20
147.5482129999998
 30
0.0
 11
137.254197
 21
147.5482129999998
 31
0.0
  0
LINE
  5
9E5B
330
9A8B
100
AcDbEntity
  8
1
  6
Continuous
100
AcDbLine
 10
129.854203
 20
136.9954879999999
 30
0.0
 11
137.254197
 21
136.9954879999999
 31
0.0
  0
LINE
  5
9E5C
330
9A8B
100
AcDbEntity
  8
2
  6
Continuous
100
AcDbLine
 10
145.454194
 20
147.548203
 30
0.0
 11
142.754197
 21
145.7217719999998
 31
0.0
  0
LINE
  5
9E5D
330
9A8B
100
AcDbEntity
  8
2
  6
Continuous
100
AcDbLine
 10
142.754197
 20
138.8219039999999
 30
0.0
 11
145.454194
 21
136.9954679999999
 31
0.0
  0
LINE
  5
9E5E
330
9A8B
100
AcDbEntity
  8
2
  6
Continuous
100
AcDbLine
 10
137.254197
 20
142.001262
 30
0.0
 11
129.854203
 21
136.9954879999999
 31
0.0
  0
LINE
  5
9E5F
330
9A8B
100
AcDbEntity
  8
1
  6
Continuous
100
AcDbLine
 10
349.2541509999999
 20
136.9954879999999
 30
0.0
 11
341.8541569999998
 21
136.9954879999999
 31
0.0
  0
LINE
  5
9E60
330
9A8B
100
AcDbEntity
  8
2
  6
Continuous
100
AcDbLine
 10
341.8541569999998
 20
142.001262
 30
0.0
 11
349.2541509999999
 21
136.9954879999999
 31
0.0
  0
LINE
  5
9E61
330
9A8B
100
AcDbEntity
  8
2
  6
Continuous
100
AcDbLine
 10
349.2541509999999
 20
147.5482129999998
 30
0.0
 11
341.8541569999998
 21
142.542425
 31
0.0
  0
LINE
  5
9E62
330
9A8B
100
AcDbEntity
  8
1
  6
Continuous
100
AcDbLine
 10
349.2541509999999
 20
147.5482129999998
 30
0.0
 11
341.8541569999998
 21
147.5482129999998
 31
0.0
  0
LINE
  5
9E63
330
9A8B
100
AcDbEntity
  8
2
  6
Continuous
100
AcDbLine
 10
336.3541569999998
 20
138.8219039999999
 30
0.0
 11
333.6541599999998
 21
136.9954679999999
 31
0.0
  0
LINE
  5
9E64
330
9A8B
100
AcDbEntity
  8
2
  6
Continuous
100
AcDbLine
 10
333.6541599999998
 20
147.548203
 30
0.0
 11
336.3541569999998
 21
145.7217719999998
 31
0.0
  0
ARC
  5
9E65
330
9A8B
100
AcDbEntity
  8
1
  6
Continuous
100
AcDbCircle
 10
236.554184
 20
142.2718509999999
 30
0.0
 40
3.5
100
AcDbArc
 50
39.518126
 51
140.482659
  0
ARC
  5
9E66
330
9A8B
100
AcDbEntity
  8
2
  6
Continuous
100
AcDbCircle
 10
236.554184
 20
142.2718509999999
 30
0.0
 40
3.5
100
AcDbArc
 50
320.481874
 51
39.518126
  0
ARC
  5
9E67
330
9A8B
100
AcDbEntity
  8
1
  6
Continuous
100
AcDbCircle
 10
236.554184
 20
142.2718509999999
 30
0.0
 40
3.5
100
AcDbArc
 50
219.517341
 51
320.481874
  0
ARC
  5
9E68
330
9A8B
100
AcDbEntity
  8
2
  6
Continuous
100
AcDbCircle
 10
236.554184
 20
142.2718509999999
 30
0.0
 40
3.5
100
AcDbArc
 50
140.482659
 51
219.517341
  0
ENDSEC
  0
SECTION
  2
OBJECTS
  0
DICTIONARY
  5
9A79
330
0
100
AcDbDictionary
281
     1
  3
ACAD_CIP_PREVIOUS_PRODUCT_INFO
350
9ECC
  3
ACAD_COLOR
350
9EAE
  3
ACAD_DETAILVIEWSTYLE
350
9EC7
  3
ACAD_GROUP
350
9A7A
  3
ACAD_LAYOUT
350
9A86
  3
ACAD_MATERIAL
350
9E7C
  3
ACAD_MLEADERSTYLE
350
9EC3
  3
ACAD_MLINESTYLE
350
9A83
  3
ACAD_PLOTSETTINGS
350
9A85
  3
ACAD_PLOTSTYLENAME
350
9E7A
  3
ACAD_SCALELIST
350
9EB1
  3
ACAD_SECTIONVIEWSTYLE
350
9EC5
  3
ACAD_TABLESTYLE
350
9EAF
  3
ACAD_VISUALSTYLE
350
9E95
  3
ACDB_RECOMPOSE_DATA
350
9EEA
  3
AcDbVariableDictionary
350
9EDD
  3
DWGPROPS
350
9EEB
  0
DICTIONARY
  5
9ECD
330
9A7D
100
AcDbDictionary
280
     1
281
     1
  3
ADSK_XREC_LAYER_RECONCILED
360
9ECE
  0
DICTIONARY
  5
9ECF
330
9A93
100
AcDbDictionary
280
     1
281
     1
  3
ADSK_XREC_LAYER_RECONCILED
360
9ED0
  0
DICTIONARY
  5
9ED1
330
9A94
100
AcDbDictionary
280
     1
281
     1
  3
ADSK_XREC_LAYER_RECONCILED
360
9ED2
  0
DICTIONARY
  5
9ED3
330
9A95
100
AcDbDictionary
280
     1
281
     1
  3
ADSK_XREC_LAYER_RECONCILED
360
9ED4
  0
DICTIONARY
  5
9ED5
330
9A96
100
AcDbDictionary
280
     1
281
     1
  3
ADSK_XREC_LAYER_RECONCILED
360
9ED6
  0
DICTIONARY
  5
9ED7
330
9A97
100
AcDbDictionary
280
     1
281
     1
  3
ADSK_XREC_LAYER_RECONCILED
360
9ED8
  0
DICTIONARY
  5
9ED9
330
9A98
100
AcDbDictionary
280
     1
281
     1
  3
ADSK_XREC_LAYER_RECONCILED
360
9EDA
  0
DICTIONARY
  5
9EDB
330
9A99
100
AcDbDictionary
280
     1
281
     1
  3
ADSK_XREC_LAYER_RECONCILED
360
9EDC
  0
DICTIONARY
  5
9E75
330
9A8B
100
AcDbDictionary
281
     1
  3
ACAD_LAYOUTSELFREF
350
9E76
  0
DICTIONARY
  5
9E73
330
9A87
100
AcDbDictionary
281
     1
  3
ACAD_LAYOUTSELFREF
350
9E74
  0
XRECORD
  5
9ECC
102
{ACAD_REACTORS
330
9A79
102
}
330
9A79
100
AcDbXrecord
280
     1
300
ACDLT
300
2014
300
ACDLT_F_S
  0
DICTIONARY
  5
9EAE
102
{ACAD_REACTORS
330
9A79
102
}
330
9A79
100
AcDbDictionary
281
     1
  0
DICTIONARY
  5
9EC7
102
{ACAD_REACTORS
330
9A79
102
}
330
9A79
100
AcDbDictionary
281
     1
  3
Imperial24
350
9EC8
  0
DICTIONARY
  5
9A7A
102
{ACAD_REACTORS
330
9A79
102
}
330
9A79
100
AcDbDictionary
281
     1
  0
DICTIONARY
  5
9A86
102
{ACAD_REACTORS
330
9A79
102
}
330
9A79
100
AcDbDictionary
281
     1
  3
Model
350
9EC9
  3
レイアウト1
350
9ECA
  0
DICTIONARY
  5
9E7C
102
{ACAD_REACTORS
330
9A79
102
}
330
9A79
100
AcDbDictionary
281
     1
  3
ByBlock
350
9E85
  3
ByLayer
350
9E7D
  3
Global
350
9E8D
  0
DICTIONARY
  5
9EC3
102
{ACAD_REACTORS
330
9A79
102
}
330
9A79
100
AcDbDictionary
281
     1
  3
Standard
350
9EC4
  0
DICTIONARY
  5
9A83
102
{ACAD_REACTORS
330
9A79
102
}
330
9A79
100
AcDbDictionary
281
     1
  3
STANDARD
350
9A84
  0
DICTIONARY
  5
9A85
102
{ACAD_REACTORS
330
9A79
102
}
330
9A79
100
AcDbDictionary
281
     1
  0
ACDBDICTIONARYWDFLT
  5
9E7A
102
{ACAD_REACTORS
330
9A79
102
}
330
9A79
100
AcDbDictionary
281
     1
  3
Normal
350
9E7B
100
AcDbDictionaryWithDefault
340
9E7B
  0
DICTIONARY
  5
9EB1
102
{ACAD_REACTORS
330
9A79
102
}
330
9A79
100
AcDbDictionary
281
     1
  3
A0
350
9EB2
  3
A1
350
9EB3
  3
A2
350
9EB4
  3
A3
350
9EB5
  3
A4
350
9EB6
  3
A5
350
9EB7
  3
A6
350
9EB8
  3
A7
350
9EB9
  3
A8
350
9EBA
  3
A9
350
9EBB
  3
B0
350
9EBC
  3
B1
350
9EBD
  3
B2
350
9EBE
  3
B3
350
9EBF
  3
B4
350
9EC0
  3
B5
350
9EC1
  3
B6
350
9EC2
  0
DICTIONARY
  5
9EC5
102
{ACAD_REACTORS
330
9A79
102
}
330
9A79
100
AcDbDictionary
281
     1
  3
Imperial24
350
9EC6
  0
DICTIONARY
  5
9EAF
102
{ACAD_REACTORS
330
9A79
102
}
330
9A79
100
AcDbDictionary
281
     1
  3
Standard
350
9EB0
  0
DICTIONARY
  5
9E95
102
{ACAD_REACTORS
330
9A79
102
}
330
9A79
100
AcDbDictionary
281
     1
  3
2dWireframe
350
9E9B
  3
Basic
350
9E9A
  3
Brighten
350
9EA1
  3
ColorChange
350
9EA5
  3
Conceptual
350
9E9E
  3
Dim
350
9EA0
  3
EdgeColorOff
350
9EAD
  3
Facepattern
350
9EA4
  3
Flat
350
9E96
  3
FlatWithEdges
350
9E97
  3
Gouraud
350
9E98
  3
GouraudWithEdges
350
9E99
  3
Hidden
350
9E9D
  3
JitterOff
350
9EAB
  3
Linepattern
350
9EA3
  3
OverhangOff
350
9EAC
  3
Realistic
350
9E9F
  3
Shaded
350
9EAA
  3
Shaded with edges
350
9EA9
  3
Shades of Gray
350
9EA6
  3
Sketchy
350
9EA7
  3
Thicken
350
9EA2
  3
Wireframe
350
9E9C
  3
X-Ray
350
9EA8
  0
XRECORD
  5
9EEA
102
{ACAD_REACTORS
330
9A79
102
}
330
9A79
100
AcDbXrecord
280
     1
 90
        1
330
9EB0
  0
DICTIONARY
  5
9EDD
102
{ACAD_REACTORS
330
9A79
102
}
330
9A79
100
AcDbDictionary
281
     1
  3
CANNOSCALE
350
9EE2
  3
CMLEADERSTYLE
350
9EDF
  3
CTABLESTYLE
350
9EDE
  3
CVIEWDETAILSTYLE
350
9EE0
  3
CVIEWSECTIONSTYLE
350
9EE1
  3
DIMASSOC
350
9EE5
  3
INDEXCTL
350
9EE4
  3
SORTENTS
350
9EE3
  3
XCLIPFRAME
350
9EE6
  0
XRECORD
  5
9EEB
102
{ACAD_REACTORS
330
9A79
102
}
330
9A79
100
AcDbXrecord
280
     1
  1
DWGPROPS COOKIE
  2

  3

  4

  6

  7

  8
Yoshitsune
  9

300
=
301
=
302
=
303
=
304
=
305
=
306
=
307
=
308
=
309
=
 40
0.0000165509259259
 41
2451073.679584722
 42
2457192.599075348
  1

 90
        0
  0
XRECORD
  5
9ECE
102
{ACAD_REACTORS
330
9ECD
102
}
330
9ECD
100
AcDbXrecord
280
     1
290
     1
  0
XRECORD
  5
9ED0
102
{ACAD_REACTORS
330
9ECF
102
}
330
9ECF
100
AcDbXrecord
280
     1
290
     1
  0
XRECORD
  5
9ED2
102
{ACAD_REACTORS
330
9ED1
102
}
330
9ED1
100
AcDbXrecord
280
     1
290
     1
  0
XRECORD
  5
9ED4
102
{ACAD_REACTORS
330
9ED3
102
}
330
9ED3
100
AcDbXrecord
280
     1
290
     1
  0
XRECORD
  5
9ED6
102
{ACAD_REACTORS
330
9ED5
102
}
330
9ED5
100
AcDbXrecord
280
     1
290
     1
  0
XRECORD
  5
9ED8
102
{ACAD_REACTORS
330
9ED7
102
}
330
9ED7
100
AcDbXrecord
280
     1
290
     1
  0
XRECORD
  5
9EDA
102
{ACAD_REACTORS
330
9ED9
102
}
330
9ED9
100
AcDbXrecord
280
     1
290
     1
  0
XRECORD
  5
9EDC
102
{ACAD_REACTORS
330
9EDB
102
}
330
9EDB
100
AcDbXrecord
280
     1
290
     1
  0
XRECORD
  5
9E76
102
{ACAD_REACTORS
330
9E75
102
}
330
9E75
100
AcDbXrecord
280
     1
340
9A8B
  0
XRECORD
  5
9E74
102
{ACAD_REACTORS
330
9E73
102
}
330
9E73
100
AcDbXrecord
280
     1
340
9A87
  0
ACDBDETAILVIEWSTYLE
  5
9EC8
102
{ACAD_XDICTIONARY
360
9F23
102
}
102
{ACAD_REACTORS
330
9EC7
102
}
330
9EC7
100
AcDbModelDocViewStyle
 70
     0
  3
Imperial24
290
     0
100
AcDbDetailViewStyle
 70
     0
 71
     0
 90
        3
 71
     1
340
9A7E
 40
0.24
340
0
 40
0.24
300

 40
0.36
280
     3
 71
     2
340
9A82
 90
       25
 71
     3
340
9A7E
 40
0.24
 90
        1
 40
0.75
 90
        1
300
%<\AcVar ViewType \f "%tc1">% %<\AcVar ViewDetailId>%\PSCALE %<\AcVar ViewScale \f "%sn">%
 71
     4
340
9A82
 90
       25
340
9A82
 90
       25
280
     0
  0
LAYOUT
  5
9EC9
102
{ACAD_XDICTIONARY
360
9F25
102
}
102
{ACAD_REACTORS
330
9A86
102
}
330
9A86
100
AcDbPlotSettings
  1

  2
Canon LBP9100C
  4

  6

 40
0.0
 41
0.0
 42
0.0
 43
0.0
 44
0.0
 45
0.0
 46
0.0
 47
0.0
 48
0.0
 49
0.0
140
0.0
141
0.0
142
1.0
143
1.0
 70
  1712
 72
     0
 73
     0
 74
     0
  7

 75
     0
147
1.0
148
0.0
149
0.0
100
AcDbLayout
  1
Model
 70
     1
 71
     0
 10
0.0
 20
0.0
 11
12.0
 21
9.0
 12
0.0
 22
0.0
 32
0.0
 14
0.0
 24
0.0
 34
0.0
 15
0.0
 25
0.0
 35
0.0
146
0.0
 13
0.0
 23
0.0
 33
0.0
 16
1.0
 26
0.0
 36
0.0
 17
0.0
 27
1.0
 37
0.0
 76
     0
330
9A8B
331
9E72
  0
LAYOUT
  5
9ECA
102
{ACAD_XDICTIONARY
360
9F27
102
}
102
{ACAD_REACTORS
330
9A86
102
}
330
9A86
100
AcDbPlotSettings
  1

  2
Canon LBP9100C
  4

  6

 40
0.0
 41
0.0
 42
0.0
 43
0.0
 44
0.0
 45
0.0
 46
0.0
 47
0.0
 48
0.0
 49
0.0
140
0.0
141
0.0
142
1.0
143
1.0
 70
   688
 72
     0
 73
     0
 74
     5
  7

 75
    16
147
1.0
148
0.0
149
0.0
100
AcDbLayout
  1
レイアウト1
 70
     0
 71
     1
 10
0.0
 20
0.0
 11
420.0
 21
297.0
 12
0.0
 22
0.0
 32
0.0
 14
1.000000000000000E+20
 24
1.000000000000000E+20
 34
1.000000000000000E+20
 15
-1.000000000000000E+20
 25
-1.000000000000000E+20
 35
-1.000000000000000E+20
146
0.0
 13
0.0
 23
0.0
 33
0.0
 16
1.0
 26
0.0
 36
0.0
 17
0.0
 27
1.0
 37
0.0
 76
     0
330
9A87
  0
MATERIAL
  5
9E85
102
{ACAD_XDICTIONARY
360
9E86
102
}
102
{ACAD_REACTORS
330
9E7C
102
}
330
9E7C
100
AcDbMaterial
  1
ByBlock
 72
     0
 43
0.0208333333333333
 43
0.0
 43
0.0
 43
0.0
 43
0.0
 43
0.0208333333333333
 43
0.0
 43
0.0
 43
0.0
 43
0.0
 43
1.0
 43
0.0
 43
0.0
 43
0.0
 43
0.0
 43
1.0
 77
     0
 47
0.0208333333333333
 47
0.0
 47
0.0
 47
0.0
 47
0.0
 47
0.0208333333333333
 47
0.0
 47
0.0
 47
0.0
 47
0.0
 47
1.0
 47
0.0
 47
0.0
 47
0.0
 47
0.0
 47
1.0
171
     0
 49
0.0208333333333333
 49
0.0
 49
0.0
 49
0.0
 49
0.0
 49
0.0208333333333333
 49
0.0
 49
0.0
 49
0.0
 49
0.0
 49
1.0
 49
0.0
 49
0.0
 49
0.0
 49
0.0
 49
1.0
175
     0
142
0.0208333333333333
142
0.0
142
0.0
142
0.0
142
0.0
142
0.0208333333333333
142
0.0
142
0.0
142
0.0
142
0.0
142
1.0
142
0.0
142
0.0
142
0.0
142
0.0
142
1.0
179
     0
144
0.0208333333333333
144
0.0
144
0.0
144
0.0
144
0.0
144
0.0208333333333333
144
0.0
144
0.0
144
0.0
144
0.0
144
1.0
144
0.0
144
0.0
144
0.0
144
0.0
144
1.0
147
0.0208333333333333
147
0.0
147
0.0
147
0.0
147
0.0
147
0.0208333333333333
147
0.0
147
0.0
147
0.0
147
0.0
147
1.0
147
0.0
147
0.0
147
0.0
147
0.0
147
1.0
  0
MATERIAL
  5
9E7D
102
{ACAD_XDICTIONARY
360
9E7E
102
}
102
{ACAD_REACTORS
330
9E7C
102
}
330
9E7C
100
AcDbMaterial
  1
ByLayer
 72
     0
 43
0.0208333333333333
 43
0.0
 43
0.0
 43
0.0
 43
0.0
 43
0.0208333333333333
 43
0.0
 43
0.0
 43
0.0
 43
0.0
 43
1.0
 43
0.0
 43
0.0
 43
0.0
 43
0.0
 43
1.0
 77
     0
 47
0.0208333333333333
 47
0.0
 47
0.0
 47
0.0
 47
0.0
 47
0.0208333333333333
 47
0.0
 47
0.0
 47
0.0
 47
0.0
 47
1.0
 47
0.0
 47
0.0
 47
0.0
 47
0.0
 47
1.0
171
     0
 49
0.0208333333333333
 49
0.0
 49
0.0
 49
0.0
 49
0.0
 49
0.0208333333333333
 49
0.0
 49
0.0
 49
0.0
 49
0.0
 49
1.0
 49
0.0
 49
0.0
 49
0.0
 49
0.0
 49
1.0
175
     0
142
0.0208333333333333
142
0.0
142
0.0
142
0.0
142
0.0
142
0.0208333333333333
142
0.0
142
0.0
142
0.0
142
0.0
142
1.0
142
0.0
142
0.0
142
0.0
142
0.0
142
1.0
179
     0
144
0.0208333333333333
144
0.0
144
0.0
144
0.0
144
0.0
144
0.0208333333333333
144
0.0
144
0.0
144
0.0
144
0.0
144
1.0
144
0.0
144
0.0
144
0.0
144
0.0
144
1.0
147
0.0208333333333333
147
0.0
147
0.0
147
0.0
147
0.0
147
0.0208333333333333
147
0.0
147
0.0
147
0.0
147
0.0
147
1.0
147
0.0
147
0.0
147
0.0
147
0.0
147
1.0
  0
MATERIAL
  5
9E8D
102
{ACAD_XDICTIONARY
360
9E8E
102
}
102
{ACAD_REACTORS
330
9E7C
102
}
330
9E7C
100
AcDbMaterial
  1
Global
 72
     0
 43
0.0208333333333333
 43
0.0
 43
0.0
 43
0.0
 43
0.0
 43
0.0208333333333333
 43
0.0
 43
0.0
 43
0.0
 43
0.0
 43
1.0
 43
0.0
 43
0.0
 43
0.0
 43
0.0
 43
1.0
 77
     0
 47
0.0208333333333333
 47
0.0
 47
0.0
 47
0.0
 47
0.0
 47
0.0208333333333333
 47
0.0
 47
0.0
 47
0.0
 47
0.0
 47
1.0
 47
0.0
 47
0.0
 47
0.0
 47
0.0
 47
1.0
171
     0
 49
0.0208333333333333
 49
0.0
 49
0.0
 49
0.0
 49
0.0
 49
0.0208333333333333
 49
0.0
 49
0.0
 49
0.0
 49
0.0
 49
1.0
 49
0.0
 49
0.0
 49
0.0
 49
0.0
 49
1.0
175
     0
142
0.0208333333333333
142
0.0
142
0.0
142
0.0
142
0.0
142
0.0208333333333333
142
0.0
142
0.0
142
0.0
142
0.0
142
1.0
142
0.0
142
0.0
142
0.0
142
0.0
142
1.0
179
     0
144
0.0208333333333333
144
0.0
144
0.0
144
0.0
144
0.0
144
0.0208333333333333
144
0.0
144
0.0
144
0.0
144
0.0
144
1.0
144
0.0
144
0.0
144
0.0
144
0.0
144
1.0
147
0.0208333333333333
147
0.0
147
0.0
147
0.0
147
0.0
147
0.0208333333333333
147
0.0
147
0.0
147
0.0
147
0.0
147
1.0
147
0.0
147
0.0
147
0.0
147
0.0
147
1.0
  0
MLEADERSTYLE
  5
9EC4
102
{ACAD_REACTORS
330
9EC3
102
}
330
9EC3
100
AcDbMLeaderStyle
170
     2
171
     1
172
     0
 90
        2
 40
0.0
 41
0.0
173
     1
 91
-1056964608
340
9A80
 92
       -2
290
     1
 42
0.09
291
     1
 43
0.36
  3
Standard
 44
0.18
300

342
9A7E
174
     1
178
     6
175
     1
176
     0
 93
-1056964608
 45
0.18
292
     0
297
     0
 46
0.18
 94
-1056964608
 47
1.0
 49
1.0
140
1.0
293
     1
141
0.0
294
     1
177
     0
142
1.0
295
     0
296
     0
143
0.125
1001
ACAD_MLEADERVER
1070
     2
  0
MLINESTYLE
  5
9A84
102
{ACAD_REACTORS
330
9A83
102
}
330
9A83
100
AcDbMlineStyle
  2
STANDARD
 70
     0
  3

 62
   256
 51
90.0
 52
90.0
 71
     2
 49
0.5
 62
   256
  6
BYLAYER
 49
-0.5
 62
   256
  6
BYLAYER
  0
ACDBPLACEHOLDER
  5
9E7B
102
{ACAD_REACTORS
330
9E7A
102
}
330
9E7A
  0
SCALE
  5
9EB2
102
{ACAD_REACTORS
330
9EB1
102
}
330
9EB1
100
AcDbScale
 70
     0
300
1:1
140
1.0
141
1.0
290
     1
  0
SCALE
  5
9EB3
102
{ACAD_REACTORS
330
9EB1
102
}
330
9EB1
100
AcDbScale
 70
     0
300
1/128" = 1'-0"
140
0.0078125
141
12.0
290
     0
  0
SCALE
  5
9EB4
102
{ACAD_REACTORS
330
9EB1
102
}
330
9EB1
100
AcDbScale
 70
     0
300
1/64" = 1'-0"
140
0.015625
141
12.0
290
     0
  0
SCALE
  5
9EB5
102
{ACAD_REACTORS
330
9EB1
102
}
330
9EB1
100
AcDbScale
 70
     0
300
1/32" = 1'-0"
140
0.03125
141
12.0
290
     0
  0
SCALE
  5
9EB6
102
{ACAD_REACTORS
330
9EB1
102
}
330
9EB1
100
AcDbScale
 70
     0
300
1/16" = 1'-0"
140
0.0625
141
12.0
290
     0
  0
SCALE
  5
9EB7
102
{ACAD_REACTORS
330
9EB1
102
}
330
9EB1
100
AcDbScale
 70
     0
300
3/32" = 1'-0"
140
0.09375
141
12.0
290
     0
  0
SCALE
  5
9EB8
102
{ACAD_REACTORS
330
9EB1
102
}
330
9EB1
100
AcDbScale
 70
     0
300
1/8" = 1'-0"
140
0.125
141
12.0
290
     0
  0
SCALE
  5
9EB9
102
{ACAD_REACTORS
330
9EB1
102
}
330
9EB1
100
AcDbScale
 70
     0
300
3/16" = 1'-0"
140
0.1875
141
12.0
290
     0
  0
SCALE
  5
9EBA
102
{ACAD_REACTORS
330
9EB1
102
}
330
9EB1
100
AcDbScale
 70
     0
300
1/4" = 1'-0"
140
0.25
141
12.0
290
     0
  0
SCALE
  5
9EBB
102
{ACAD_REACTORS
330
9EB1
102
}
330
9EB1
100
AcDbScale
 70
     0
300
3/8" = 1'-0"
140
0.375
141
12.0
290
     0
  0
SCALE
  5
9EBC
102
{ACAD_REACTORS
330
9EB1
102
}
330
9EB1
100
AcDbScale
 70
     0
300
1/2" = 1'-0"
140
0.5
141
12.0
290
     0
  0
SCALE
  5
9EBD
102
{ACAD_REACTORS
330
9EB1
102
}
330
9EB1
100
AcDbScale
 70
     0
300
3/4" = 1'-0"
140
0.75
141
12.0
290
     0
  0
SCALE
  5
9EBE
102
{ACAD_REACTORS
330
9EB1
102
}
330
9EB1
100
AcDbScale
 70
     0
300
1" = 1'-0"
140
1.0
141
12.0
290
     0
  0
SCALE
  5
9EBF
102
{ACAD_REACTORS
330
9EB1
102
}
330
9EB1
100
AcDbScale
 70
     0
300
1-1/2" = 1'-0"
140
1.5
141
12.0
290
     0
  0
SCALE
  5
9EC0
102
{ACAD_REACTORS
330
9EB1
102
}
330
9EB1
100
AcDbScale
 70
     0
300
3" = 1'-0"
140
3.0
141
12.0
290
     0
  0
SCALE
  5
9EC1
102
{ACAD_REACTORS
330
9EB1
102
}
330
9EB1
100
AcDbScale
 70
     0
300
6" = 1'-0"
140
6.0
141
12.0
290
     0
  0
SCALE
  5
9EC2
102
{ACAD_REACTORS
330
9EB1
102
}
330
9EB1
100
AcDbScale
 70
     0
300
1'-0" = 1'-0"
140
12.0
141
12.0
290
     0
  0
ACDBSECTIONVIEWSTYLE
  5
9EC6
102
{ACAD_XDICTIONARY
360
9F21
102
}
102
{ACAD_REACTORS
330
9EC5
102
}
330
9EC5
100
AcDbModelDocViewStyle
 70
     0
  3
Imperial24
290
     0
100
AcDbSectionViewStyle
 70
     0
 71
     0
 90
       78
 71
     1
340
9A7E
 40
0.24
340
0
340
0
 40
0.24
300
I, O, Q, S, X, Z
 40
0.48
 90
        3
 40
0.18
 90
        1
 71
     2
340
9A82
 90
       25
340
9A82
 90
       50
 40
0.24
 40
0.0
 40
0.24
 71
     3
340
9A7E
 40
0.24
 90
        1
 40
0.75
 90
        1
300
%<\AcVar ViewType \f "%tc1">% %<\AcVar ViewSectionStartId>%-%<\AcVar ViewSectionEndId>%\PSCALE %<\AcVar ViewScale \f "%sn">%
 71
     4
300
ANSI31
 40
1.0
 90
        0
290
     0
290
     0
 90
        6
 40
0.0
 40
1.570796326794896
 40
0.2617993877991494
 40
1.308996938995747
 40
-0.2617993877991494
 40
1.832595714594046
  0
TABLESTYLE
  5
9EB0
102
{ACAD_XDICTIONARY
360
9EE8
102
}
102
{ACAD_REACTORS
330
9EAF
102
}
330
9EAF
100
AcDbTableStyle
  3
Standard
 70
     0
 71
     0
 40
0.06
 41
0.06
280
     0
281
     0
  7
STANDARD
140
0.18
170
     2
 62
     0
 63
     7
283
     0
274
    -2
284
     1
 64
     0
275
    -2
285
     1
 65
     0
276
    -2
286
     1
 66
     0
277
    -2
287
     1
 67
     0
278
    -2
288
     1
 68
     0
279
    -2
289
     1
 69
     0
  7
STANDARD
140
0.25
170
     5
 62
     0
 63
     7
283
     0
274
    -2
284
     1
 64
     0
275
    -2
285
     1
 65
     0
276
    -2
286
     1
 66
     0
277
    -2
287
     1
 67
     0
278
    -2
288
     1
 68
     0
279
    -2
289
     1
 69
     0
  7
STANDARD
140
0.18
170
     5
 62
     0
 63
     7
283
     0
274
    -2
284
     1
 64
     0
275
    -2
285
     1
 65
     0
276
    -2
286
     1
 66
     0
277
    -2
287
     1
 67
     0
278
    -2
288
     1
 68
     0
279
    -2
289
     1
 69
     0
  0
VISUALSTYLE
  5
9E9B
102
{ACAD_XDICTIONARY
360
9EF9
102
}
102
{ACAD_REACTORS
330
9E95
102
}
330
9E95
100
AcDbVisualStyle
  2
2dWireframe
 70
     4
 71
     0
 72
     2
 73
     0
 90
        0
 40
-0.6
 41
-30.0
 62
     5
 63
     7
 74
     1
 91
        4
 64
     7
 65
   257
 75
     1
175
     1
 42
1.0
 92
        0
 66
   257
 43
1.0
 76
     1
 77
     6
 78
     2
 67
     7
 79
     5
170
     0
171
     0
290
     0
174
     0
 93
        1
 44
0.0
173
     0
291
     0
 45
0.0
1001
ACAD
1000
AcDbSavedByObjectVersion
1070
     0
  0
VISUALSTYLE
  5
9E9A
102
{ACAD_XDICTIONARY
360
9EF7
102
}
102
{ACAD_REACTORS
330
9E95
102
}
330
9E95
100
AcDbVisualStyle
  2
Basic
 70
     7
 71
     1
 72
     0
 73
     1
 90
        0
 40
-0.6
 41
-30.0
 62
     5
 63
     7
 74
     0
 91
        4
 64
     7
 65
   257
 75
     1
175
     1
 42
1.0
 92
        8
 66
     7
 43
1.0
 76
     1
 77
     6
 78
     2
 67
     7
 79
     5
170
     0
171
     0
290
     0
174
     0
 93
        1
 44
0.0
173
     0
291
     1
 45
0.0
1001
ACAD
1000
AcDbSavedByObjectVersion
1070
     0
  0
VISUALSTYLE
  5
9EA1
102
{ACAD_XDICTIONARY
360
9F05
102
}
102
{ACAD_REACTORS
330
9E95
102
}
330
9E95
100
AcDbVisualStyle
  2
Brighten
 70
    12
 71
     2
 72
     2
 73
     0
 90
        0
 40
-0.6
 41
-30.0
 62
     5
 63
     7
 74
     1
 91
        4
 64
     7
 65
   257
 75
     1
175
     1
 42
1.0
 92
        8
 66
     7
 43
1.0
 76
     1
 77
     6
 78
     2
 67
     7
 79
     5
170
     0
171
     0
290
     0
174
     0
 93
        1
 44
50.0
173
     0
291
     1
 45
0.0
1001
ACAD
1000
AcDbSavedByObjectVersion
1070
     0
  0
VISUALSTYLE
  5
9EA5
102
{ACAD_XDICTIONARY
360
9F0D
102
}
102
{ACAD_REACTORS
330
9E95
102
}
330
9E95
100
AcDbVisualStyle
  2
ColorChange
 70
    16
 71
     2
 72
     2
 73
     3
 90
        0
 40
-0.6
 41
-30.0
 62
     5
 63
     8
 74
     1
 91
        4
 64
     7
 65
   257
 75
     1
175
     1
 42
1.0
 92
        8
 66
     8
 43
1.0
 76
     1
 77
     6
 78
     2
 67
     7
 79
     5
170
     0
171
     0
290
     0
174
     0
 93
        1
 44
0.0
173
     0
291
     1
 45
0.0
1001
ACAD
1000
AcDbSavedByObjectVersion
1070
     0
  0
VISUALSTYLE
  5
9E9E
102
{ACAD_XDICTIONARY
360
9EFF
102
}
102
{ACAD_REACTORS
330
9E95
102
}
330
9E95
100
AcDbVisualStyle
  2
Conceptual
 70
     9
 71
     3
 72
     2
 73
     0
 90
        0
 40
-0.6
 41
-30.0
 62
     5
 63
     7
 74
     2
 91
        2
 64
     7
 65
   257
 75
     1
175
     1
 42
179.0
 92
        8
 66
     7
 43
1.0
 76
     1
 77
     6
 78
     2
 67
     7
 79
     3
170
     0
171
     0
290
     0
174
     0
 93
        1
 44
0.0
173
     0
291
     0
 45
0.0
1001
ACAD
1000
AcDbSavedByObjectVersion
1070
     0
  0
VISUALSTYLE
  5
9EA0
102
{ACAD_XDICTIONARY
360
9F03
102
}
102
{ACAD_REACTORS
330
9E95
102
}
330
9E95
100
AcDbVisualStyle
  2
Dim
 70
    11
 71
     2
 72
     2
 73
     0
 90
        0
 40
-0.6
 41
-30.0
 62
     5
 63
     7
 74
     1
 91
        4
 64
     7
 65
   257
 75
     1
175
     1
 42
1.0
 92
        8
 66
     7
 43
1.0
 76
     1
 77
     6
 78
     2
 67
     7
 79
     5
170
     0
171
     0
290
     0
174
     0
 93
        1
 44
-50.0
173
     0
291
     1
 45
0.0
1001
ACAD
1000
AcDbSavedByObjectVersion
1070
     0
  0
VISUALSTYLE
  5
9EAD
102
{ACAD_XDICTIONARY
360
9F1D
102
}
102
{ACAD_REACTORS
330
9E95
102
}
330
9E95
100
AcDbVisualStyle
  2
EdgeColorOff
 70
    22
 71
     2
 72
     2
 73
     0
 90
        0
 40
-0.6
 41
-30.0
 62
     5
 63
     7
 74
     1
 91
        4
 64
     7
 65
   257
 75
     1
175
     1
 42
1.0
 92
        8
 66
     7
 43
1.0
 76
     1
 77
     6
 78
     2
 67
     7
 79
     5
170
     0
171
     0
290
     0
174
     0
 93
        1
 44
0.0
173
     0
291
     1
 45
0.0
1001
ACAD
1000
AcDbSavedByObjectVersion
1070
     0
  0
VISUALSTYLE
  5
9EA4
102
{ACAD_XDICTIONARY
360
9F0B
102
}
102
{ACAD_REACTORS
330
9E95
102
}
330
9E95
100
AcDbVisualStyle
  2
Facepattern
 70
    15
 71
     2
 72
     2
 73
     0
 90
        0
 40
-0.6
 41
-30.0
 62
     5
 63
     7
 74
     1
 91
        4
 64
     7
 65
   257
 75
     1
175
     1
 42
1.0
 92
        8
 66
     7
 43
1.0
 76
     1
 77
     6
 78
     2
 67
     7
 79
     5
170
     0
171
     0
290
     0
174
     0
 93
        1
 44
0.0
173
     0
291
     1
 45
0.0
1001
ACAD
1000
AcDbSavedByObjectVersion
1070
     0
  0
VISUALSTYLE
  5
9E96
102
{ACAD_XDICTIONARY
360
9EEF
102
}
102
{ACAD_REACTORS
330
9E95
102
}
330
9E95
100
AcDbVisualStyle
  2
Flat
 70
     0
 71
     2
 72
     1
 73
     1
 90
        2
 40
-0.6
 41
30.0
 62
     5
 63
     7
 74
     0
 91
        0
 64
     7
 65
   257
 75
     1
175
     1
 42
1.0
 92
        8
 66
     7
 43
1.0
 76
     1
 77
     6
 78
     2
 67
     7
 79
     5
170
     0
171
     0
290
     0
174
     0
 93
       13
 44
0.0
173
     0
291
     1
 45
0.0
1001
ACAD
1000
AcDbSavedByObjectVersion
1070
     0
  0
VISUALSTYLE
  5
9E97
102
{ACAD_XDICTIONARY
360
9EF1
102
}
102
{ACAD_REACTORS
330
9E95
102
}
330
9E95
100
AcDbVisualStyle
  2
FlatWithEdges
 70
     1
 71
     2
 72
     1
 73
     1
 90
        2
 40
-0.6
 41
30.0
 62
     5
 63
     7
 74
     1
 91
        0
 64
     7
 65
   257
 75
     1
175
     1
 42
1.0
 92
        0
 66
   257
 43
1.0
 76
     1
 77
     6
 78
     2
 67
     7
 79
     5
170
     0
171
     0
290
     0
174
     0
 93
       13
 44
0.0
173
     0
291
     1
 45
0.0
1001
ACAD
1000
AcDbSavedByObjectVersion
1070
     0
  0
VISUALSTYLE
  5
9E98
102
{ACAD_XDICTIONARY
360
9EF3
102
}
102
{ACAD_REACTORS
330
9E95
102
}
330
9E95
100
AcDbVisualStyle
  2
Gouraud
 70
     2
 71
     2
 72
     2
 73
     1
 90
        2
 40
-0.6
 41
30.0
 62
     5
 63
     7
 74
     0
 91
        0
 64
     7
 65
   257
 75
     1
175
     1
 42
1.0
 92
        0
 66
     7
 43
1.0
 76
     1
 77
     6
 78
     2
 67
     7
 79
     5
170
     0
171
     0
290
     0
174
     0
 93
       13
 44
0.0
173
     0
291
     1
 45
0.0
1001
ACAD
1000
AcDbSavedByObjectVersion
1070
     0
  0
VISUALSTYLE
  5
9E99
102
{ACAD_XDICTIONARY
360
9EF5
102
}
102
{ACAD_REACTORS
330
9E95
102
}
330
9E95
100
AcDbVisualStyle
  2
GouraudWithEdges
 70
     3
 71
     2
 72
     2
 73
     1
 90
        2
 40
-0.6
 41
30.0
 62
     5
 63
     7
 74
     1
 91
        0
 64
     7
 65
   257
 75
     1
175
     1
 42
1.0
 92
        0
 66
   257
 43
1.0
 76
     1
 77
     6
 78
     2
 67
     7
 79
     5
170
     0
171
     0
290
     0
174
     0
 93
       13
 44
0.0
173
     0
291
     1
 45
0.0
1001
ACAD
1000
AcDbSavedByObjectVersion
1070
     0
  0
VISUALSTYLE
  5
9E9D
102
{ACAD_XDICTIONARY
360
9EFD
102
}
102
{ACAD_REACTORS
330
9E95
102
}
330
9E95
100
AcDbVisualStyle
  2
Hidden
 70
     6
 71
     1
 72
     2
 73
     2
 90
        0
 40
-0.6
 41
-30.0
 62
     5
 63
     7
 74
     2
 91
        2
 64
     7
 65
   257
 75
     2
175
     1
 42
40.0
 92
        0
 66
   257
 43
1.0
 76
     1
 77
     6
 78
     2
 67
     7
 79
     3
170
     0
171
     0
290
     0
174
     0
 93
        1
 44
0.0
173
     0
291
     0
 45
0.0
1001
ACAD
1000
AcDbSavedByObjectVersion
1070
     0
  0
VISUALSTYLE
  5
9EAB
102
{ACAD_XDICTIONARY
360
9F19
102
}
102
{ACAD_REACTORS
330
9E95
102
}
330
9E95
100
AcDbVisualStyle
  2
JitterOff
 70
    20
 71
     2
 72
     2
 73
     0
 90
        0
 40
-0.6
 41
-30.0
 62
     5
 63
     7
 74
     1
 91
        4
 64
     7
 65
   257
 75
     1
175
     1
 42
1.0
 92
       10
 66
     7
 43
1.0
 76
     1
 77
     6
 78
     2
 67
     7
 79
     5
170
     0
171
     0
290
     0
174
     0
 93
        1
 44
0.0
173
     0
291
     1
 45
0.0
1001
ACAD
1000
AcDbSavedByObjectVersion
1070
     0
  0
VISUALSTYLE
  5
9EA3
102
{ACAD_XDICTIONARY
360
9F09
102
}
102
{ACAD_REACTORS
330
9E95
102
}
330
9E95
100
AcDbVisualStyle
  2
Linepattern
 70
    14
 71
     2
 72
     2
 73
     0
 90
        0
 40
-0.6
 41
-30.0
 62
     5
 63
     7
 74
     1
 91
        4
 64
     7
 65
   257
 75
     7
175
     7
 42
1.0
 92
        8
 66
     7
 43
1.0
 76
     1
 77
     6
 78
     2
 67
     7
 79
     5
170
     0
171
     0
290
     0
174
     0
 93
        1
 44
0.0
173
     0
291
     1
 45
0.0
1001
ACAD
1000
AcDbSavedByObjectVersion
1070
     0
  0
VISUALSTYLE
  5
9EAC
102
{ACAD_XDICTIONARY
360
9F1B
102
}
102
{ACAD_REACTORS
330
9E95
102
}
330
9E95
100
AcDbVisualStyle
  2
OverhangOff
 70
    21
 71
     2
 72
     2
 73
     0
 90
        0
 40
-0.6
 41
-30.0
 62
     5
 63
     7
 74
     1
 91
        4
 64
     7
 65
   257
 75
     1
175
     1
 42
1.0
 92
        9
 66
     7
 43
1.0
 76
     1
 77
     6
 78
     2
 67
     7
 79
     5
170
     0
171
     0
290
     0
174
     0
 93
        1
 44
0.0
173
     0
291
     1
 45
0.0
1001
ACAD
1000
AcDbSavedByObjectVersion
1070
     0
  0
VISUALSTYLE
  5
9E9F
102
{ACAD_XDICTIONARY
360
9F01
102
}
102
{ACAD_REACTORS
330
9E95
102
}
330
9E95
100
AcDbVisualStyle
  2
Realistic
 70
     8
 71
     2
 72
     3
 73
     0
 90
        2
 40
-0.6
 41
30.0
 62
     5
 63
     7
 74
     0
 91
        0
 64
     7
 65
   257
 75
     1
175
     1
 42
1.0
 92
        8
 66
   257
 43
1.0
 76
     1
 77
     6
 78
     2
 67
     7
 79
     3
170
     0
171
     0
290
     0
174
     0
 93
       13
 44
0.0
173
     0
291
     0
 45
0.0
1001
ACAD
1000
AcDbSavedByObjectVersion
1070
     0
  0
VISUALSTYLE
  5
9EAA
102
{ACAD_XDICTIONARY
360
9F17
102
}
102
{ACAD_REACTORS
330
9E95
102
}
330
9E95
100
AcDbVisualStyle
  2
Shaded
 70
    27
 71
     2
 72
     2
 73
     1
 90
        2
 40
-0.6
 41
30.0
 62
     5
 63
     7
 74
     0
 91
        4
 64
     7
 65
   257
 75
     1
175
     1
 42
1.0
 92
        8
 66
   257
 43
1.0
 76
     1
 77
     6
 78
     2
 67
     8
 79
     3
170
     0
171
     0
290
     0
174
     0
 93
        5
 44
0.0
173
     0
291
     0
 45
0.0
1001
ACAD
1000
AcDbSavedByObjectVersion
1070
     0
  0
VISUALSTYLE
  5
9EA9
102
{ACAD_XDICTIONARY
360
9F15
102
}
102
{ACAD_REACTORS
330
9E95
102
}
330
9E95
100
AcDbVisualStyle
  2
Shaded with edges
 70
    26
 71
     2
 72
     2
 73
     1
 90
        2
 40
-0.6
 41
30.0
 62
     5
 63
     7
 74
     1
 91
       10
 64
     7
 65
   257
 75
     2
175
     1
 42
1.0
 92
        8
 66
   257
 43
1.0
 76
     1
 77
     6
 78
     2
 67
     7
 79
     3
170
     0
171
     0
290
     0
174
     0
 93
        5
 44
0.0
173
     0
291
     0
 45
0.0
1001
ACAD
1000
AcDbSavedByObjectVersion
1070
     0
  0
VISUALSTYLE
  5
9EA6
102
{ACAD_XDICTIONARY
360
9F0F
102
}
102
{ACAD_REACTORS
330
9E95
102
}
330
9E95
100
AcDbVisualStyle
  2
Shades of Gray
 70
    23
 71
     2
 72
     2
 73
     3
 90
        0
 40
-0.6
 41
-30.0
 62
     5
 63
     7
 74
     2
 91
        2
 64
     7
 65
     7
 75
     1
175
     1
 42
40.0
 92
        8
 66
     7
 43
1.0
 76
     1
 77
     6
 78
     2
 67
     7
 79
     3
170
     0
171
     0
290
     0
174
     0
 93
        1
 44
0.0
173
     0
291
     0
 45
0.0
1001
ACAD
1000
AcDbSavedByObjectVersion
1070
     0
  0
VISUALSTYLE
  5
9EA7
102
{ACAD_XDICTIONARY
360
9F11
102
}
102
{ACAD_REACTORS
330
9E95
102
}
330
9E95
100
AcDbVisualStyle
  2
Sketchy
 70
    24
 71
     1
 72
     2
 73
     2
 90
        0
 40
-0.6
 41
-30.0
 62
     5
 63
     7
 74
     2
 91
        2
 64
     7
 65
     7
 75
     1
175
     1
 42
40.0
 92
       11
 66
     7
 43
1.0
 76
     1
 77
     6
 78
     2
 67
     7
 79
     6
170
     0
171
     0
290
     0
174
     0
 93
        1
 44
0.0
173
     0
291
     0
 45
0.0
1001
ACAD
1000
AcDbSavedByObjectVersion
1070
     0
  0
VISUALSTYLE
  5
9EA2
102
{ACAD_XDICTIONARY
360
9F07
102
}
102
{ACAD_REACTORS
330
9E95
102
}
330
9E95
100
AcDbVisualStyle
  2
Thicken
 70
    13
 71
     2
 72
     2
 73
     0
 90
        0
 40
-0.6
 41
-30.0
 62
     5
 63
     7
 74
     1
 91
        4
 64
     7
 65
   257
 75
     1
175
     1
 42
1.0
 92
       12
 66
     7
 43
1.0
 76
     1
 77
     6
 78
     2
 67
     7
 79
     5
170
     0
171
     0
290
     0
174
     0
 93
        1
 44
0.0
173
     0
291
     1
 45
0.0
1001
ACAD
1000
AcDbSavedByObjectVersion
1070
     0
  0
VISUALSTYLE
  5
9E9C
102
{ACAD_XDICTIONARY
360
9EFB
102
}
102
{ACAD_REACTORS
330
9E95
102
}
330
9E95
100
AcDbVisualStyle
  2
Wireframe
 70
     5
 71
     0
 72
     2
 73
     0
 90
        0
 40
-0.6
 41
-30.0
 62
     5
 63
     7
 74
     1
 91
        4
 64
     7
 65
   257
 75
     1
175
     1
 42
1.0
 92
        0
 66
   257
 43
1.0
 76
     1
 77
     6
 78
     2
 67
     7
 79
     3
170
     0
171
     0
290
     0
174
     0
 93
        1
 44
0.0
173
     0
291
     0
 45
0.0
1001
ACAD
1000
AcDbSavedByObjectVersion
1070
     0
  0
VISUALSTYLE
  5
9EA8
102
{ACAD_XDICTIONARY
360
9F13
102
}
102
{ACAD_REACTORS
330
9E95
102
}
330
9E95
100
AcDbVisualStyle
  2
X-Ray
 70
    25
 71
     2
 72
     2
 73
     1
 90
        1
 40
0.5
 41
-30.0
 62
     5
 63
     7
 74
     1
 91
        0
 64
     7
 65
   257
 75
     1
175
     1
 42
1.0
 92
        8
 66
     7
 43
1.0
 76
     1
 77
     6
 78
     2
 67
     7
 79
     3
170
     0
171
     0
290
     0
174
     0
 93
       13
 44
0.0
173
     0
291
     0
 45
0.0
1001
ACAD
1000
AcDbSavedByObjectVersion
1070
     0
  0
DICTIONARYVAR
  5
9EE2
102
{ACAD_REACTORS
330
9EDD
102
}
330
9EDD
100
DictionaryVariables
280
     0
  1
1:1
  0
DICTIONARYVAR
  5
9EDF
102
{ACAD_REACTORS
330
9EDD
102
}
330
9EDD
100
DictionaryVariables
280
     0
  1
STANDARD
  0
DICTIONARYVAR
  5
9EDE
102
{ACAD_REACTORS
330
9EDD
102
}
330
9EDD
100
DictionaryVariables
280
     0
  1
STANDARD
  0
DICTIONARYVAR
  5
9EE0
102
{ACAD_REACTORS
330
9EDD
102
}
330
9EDD
100
DictionaryVariables
280
     0
  1
Imperial24
  0
DICTIONARYVAR
  5
9EE1
102
{ACAD_REACTORS
330
9EDD
102
}
330
9EDD
100
DictionaryVariables
280
     0
  1
Imperial24
  0
DICTIONARYVAR
  5
9EE5
102
{ACAD_REACTORS
330
9EDD
102
}
330
9EDD
100
DictionaryVariables
280
     0
  1
1
  0
DICTIONARYVAR
  5
9EE4
102
{ACAD_REACTORS
330
9EDD
102
}
330
9EDD
100
DictionaryVariables
280
     0
  1
0
  0
DICTIONARYVAR
  5
9EE3
102
{ACAD_REACTORS
330
9EDD
102
}
330
9EDD
100
DictionaryVariables
280
     0
  1
127
  0
DICTIONARYVAR
  5
9EE6
102
{ACAD_REACTORS
330
9EDD
102
}
330
9EDD
100
DictionaryVariables
280
     0
  1
2
  0
DICTIONARY
  5
9F23
330
9EC8
100
AcDbDictionary
280
     1
281
     1
  3
ACAD_XREC_ROUNDTRIP
360
9F24
  0
DICTIONARY
  5
9F25
330
9EC9
100
AcDbDictionary
280
     1
281
     1
  3
ACAD_XREC_ROUNDTRIP
360
9F26
  0
DICTIONARY
  5
9F27
330
9ECA
100
AcDbDictionary
280
     1
281
     1
  3
ACAD_XREC_ROUNDTRIP
360
9F28
  0
DICTIONARY
  5
9E86
330
9E85
100
AcDbDictionary
280
     1
281
     1
  3
ACAD_XREC_ROUNDTRIP
360
9EED
  3
BUMPTILE
360
9E88
  3
DIFFUSETILE
360
9E87
  3
OPACITYTILE
360
9E8B
  3
REFLECTIONTILE
360
9E8A
  3
REFRACTIONTILE
360
9E8C
  3
SPECULARTILE
360
9E89
  0
DICTIONARY
  5
9E7E
330
9E7D
100
AcDbDictionary
280
     1
281
     1
  3
ACAD_XREC_ROUNDTRIP
360
9EEC
  3
BUMPTILE
360
9E80
  3
DIFFUSETILE
360
9E7F
  3
OPACITYTILE
360
9E83
  3
REFLECTIONTILE
360
9E82
  3
REFRACTIONTILE
360
9E84
  3
SPECULARTILE
360
9E81
  0
DICTIONARY
  5
9E8E
330
9E8D
100
AcDbDictionary
280
     1
281
     1
  3
ACAD_XREC_ROUNDTRIP
360
9EEE
  3
BUMPTILE
360
9E90
  3
DIFFUSETILE
360
9E8F
  3
OPACITYTILE
360
9E93
  3
REFLECTIONTILE
360
9E92
  3
REFRACTIONTILE
360
9E94
  3
SPECULARTILE
360
9E91
  0
DICTIONARY
  5
9F21
330
9EC6
100
AcDbDictionary
280
     1
281
     1
  3
ACAD_XREC_ROUNDTRIP
360
9F22
  0
DICTIONARY
  5
9EE8
330
9EB0
100
AcDbDictionary
280
     1
281
     1
  3
ACAD_ROUNDTRIP_2008_TABLESTYLE_CELLSTYLEMAP
360
9EE9
  3
ACAD_XREC_ROUNDTRIP
360
9F1F
  0
DICTIONARY
  5
9EF9
330
9E9B
100
AcDbDictionary
280
     1
281
     1
  3
ACAD_XREC_ROUNDTRIP
360
9EFA
  0
DICTIONARY
  5
9EF7
330
9E9A
100
AcDbDictionary
280
     1
281
     1
  3
ACAD_XREC_ROUNDTRIP
360
9EF8
  0
DICTIONARY
  5
9F05
330
9EA1
100
AcDbDictionary
280
     1
281
     1
  3
ACAD_XREC_ROUNDTRIP
360
9F06
  0
DICTIONARY
  5
9F0D
330
9EA5
100
AcDbDictionary
280
     1
281
     1
  3
ACAD_XREC_ROUNDTRIP
360
9F0E
  0
DICTIONARY
  5
9EFF
330
9E9E
100
AcDbDictionary
280
     1
281
     1
  3
ACAD_XREC_ROUNDTRIP
360
9F00
  0
DICTIONARY
  5
9F03
330
9EA0
100
AcDbDictionary
280
     1
281
     1
  3
ACAD_XREC_ROUNDTRIP
360
9F04
  0
DICTIONARY
  5
9F1D
330
9EAD
100
AcDbDictionary
280
     1
281
     1
  3
ACAD_XREC_ROUNDTRIP
360
9F1E
  0
DICTIONARY
  5
9F0B
330
9EA4
100
AcDbDictionary
280
     1
281
     1
  3
ACAD_XREC_ROUNDTRIP
360
9F0C
  0
DICTIONARY
  5
9EEF
330
9E96
100
AcDbDictionary
280
     1
281
     1
  3
ACAD_XREC_ROUNDTRIP
360
9EF0
  0
DICTIONARY
  5
9EF1
330
9E97
100
AcDbDictionary
280
     1
281
     1
  3
ACAD_XREC_ROUNDTRIP
360
9EF2
  0
DICTIONARY
  5
9EF3
330
9E98
100
AcDbDictionary
280
     1
281
     1
  3
ACAD_XREC_ROUNDTRIP
360
9EF4
  0
DICTIONARY
  5
9EF5
330
9E99
100
AcDbDictionary
280
     1
281
     1
  3
ACAD_XREC_ROUNDTRIP
360
9EF6
  0
DICTIONARY
  5
9EFD
330
9E9D
100
AcDbDictionary
280
     1
281
     1
  3
ACAD_XREC_ROUNDTRIP
360
9EFE
  0
DICTIONARY
  5
9F19
330
9EAB
100
AcDbDictionary
280
     1
281
     1
  3
ACAD_XREC_ROUNDTRIP
360
9F1A
  0
DICTIONARY
  5
9F09
330
9EA3
100
AcDbDictionary
280
     1
281
     1
  3
ACAD_XREC_ROUNDTRIP
360
9F0A
  0
DICTIONARY
  5
9F1B
330
9EAC
100
AcDbDictionary
280
     1
281
     1
  3
ACAD_XREC_ROUNDTRIP
360
9F1C
  0
DICTIONARY
  5
9F01
330
9E9F
100
AcDbDictionary
280
     1
281
     1
  3
ACAD_XREC_ROUNDTRIP
360
9F02
  0
DICTIONARY
  5
9F17
330
9EAA
100
AcDbDictionary
280
     1
281
     1
  3
ACAD_XREC_ROUNDTRIP
360
9F18
  0
DICTIONARY
  5
9F15
330
9EA9
100
AcDbDictionary
280
     1
281
     1
  3
ACAD_XREC_ROUNDTRIP
360
9F16
  0
DICTIONARY
  5
9F0F
330
9EA6
100
AcDbDictionary
280
     1
281
     1
  3
ACAD_XREC_ROUNDTRIP
360
9F10
  0
DICTIONARY
  5
9F11
330
9EA7
100
AcDbDictionary
280
     1
281
     1
  3
ACAD_XREC_ROUNDTRIP
360
9F12
  0
DICTIONARY
  5
9F07
330
9EA2
100
AcDbDictionary
280
     1
281
     1
  3
ACAD_XREC_ROUNDTRIP
360
9F08
  0
DICTIONARY
  5
9EFB
330
9E9C
100
AcDbDictionary
280
     1
281
     1
  3
ACAD_XREC_ROUNDTRIP
360
9EFC
  0
DICTIONARY
  5
9F13
330
9EA8
100
AcDbDictionary
280
     1
281
     1
  3
ACAD_XREC_ROUNDTRIP
360
9F14
  0
XRECORD
  5
9F24
102
{ACAD_REACTORS
330
9F23
102
}
330
9F23
100
AcDbXrecord
280
     1
102
DISPLAYNAME
  1
Imperial24
102
FLAGS
 90
        0
  0
XRECORD
  5
9F26
102
{ACAD_REACTORS
330
9F25
102
}
330
9F25
100
AcDbXrecord
280
     1
102
SHADEPLOT
 70
     0
102
SHADEPLOTRESLEVEL
 70
     2
102
SHADEPLOTCUSTOMDPI
 70
   300
  0
XRECORD
  5
9F28
102
{ACAD_REACTORS
330
9F27
102
}
330
9F27
100
AcDbXrecord
280
     1
102
SHADEPLOT
 70
     0
102
SHADEPLOTRESLEVEL
 70
     2
102
SHADEPLOTCUSTOMDPI
 70
   300
  0
XRECORD
  5
9EED
102
{ACAD_REACTORS
330
9E86
102
}
330
9E86
100
AcDbXrecord
280
     1
102
MATERIAL
148
0.0
149
0.0
149
0.0
 93
        0
 94
      127
282
     0
 72
     0
 77
     0
171
     0
175
     0
179
     0
273
     0
  0
XRECORD
  5
9E88
102
{ACAD_REACTORS
330
9E86
102
}
330
9E86
100
AcDbXrecord
280
     1
270
     1
271
     1
  0
XRECORD
  5
9E87
102
{ACAD_REACTORS
330
9E86
102
}
330
9E86
100
AcDbXrecord
280
     1
270
     1
271
     1
  0
XRECORD
  5
9E8B
102
{ACAD_REACTORS
330
9E86
102
}
330
9E86
100
AcDbXrecord
280
     1
270
     1
271
     1
  0
XRECORD
  5
9E8A
102
{ACAD_REACTORS
330
9E86
102
}
330
9E86
100
AcDbXrecord
280
     1
270
     1
271
     1
  0
XRECORD
  5
9E8C
102
{ACAD_REACTORS
330
9E86
102
}
330
9E86
100
AcDbXrecord
280
     1
270
     1
271
     1
  0
XRECORD
  5
9E89
102
{ACAD_REACTORS
330
9E86
102
}
330
9E86
100
AcDbXrecord
280
     1
270
     1
271
     1
  0
XRECORD
  5
9EEC
102
{ACAD_REACTORS
330
9E7E
102
}
330
9E7E
100
AcDbXrecord
280
     1
102
MATERIAL
148
0.0
149
0.0
149
0.0
 93
        0
 94
      127
282
     0
 72
     0
 77
     0
171
     0
175
     0
179
     0
273
     0
  0
XRECORD
  5
9E80
102
{ACAD_REACTORS
330
9E7E
102
}
330
9E7E
100
AcDbXrecord
280
     1
270
     1
271
     1
  0
XRECORD
  5
9E7F
102
{ACAD_REACTORS
330
9E7E
102
}
330
9E7E
100
AcDbXrecord
280
     1
270
     1
271
     1
  0
XRECORD
  5
9E83
102
{ACAD_REACTORS
330
9E7E
102
}
330
9E7E
100
AcDbXrecord
280
     1
270
     1
271
     1
  0
XRECORD
  5
9E82
102
{ACAD_REACTORS
330
9E7E
102
}
330
9E7E
100
AcDbXrecord
280
     1
270
     1
271
     1
  0
XRECORD
  5
9E84
102
{ACAD_REACTORS
330
9E7E
102
}
330
9E7E
100
AcDbXrecord
280
     1
270
     1
271
     1
  0
XRECORD
  5
9E81
102
{ACAD_REACTORS
330
9E7E
102
}
330
9E7E
100
AcDbXrecord
280
     1
270
     1
271
     1
  0
XRECORD
  5
9EEE
102
{ACAD_REACTORS
330
9E8E
102
}
330
9E8E
100
AcDbXrecord
280
     1
102
MATERIAL
148
0.0
149
0.0
149
0.0
 93
        0
 94
      127
282
     0
 72
     0
 77
     0
171
     0
175
     0
179
     0
273
     0
  0
XRECORD
  5
9E90
102
{ACAD_REACTORS
330
9E8E
102
}
330
9E8E
100
AcDbXrecord
280
     1
270
     1
271
     1
  0
XRECORD
  5
9E8F
102
{ACAD_REACTORS
330
9E8E
102
}
330
9E8E
100
AcDbXrecord
280
     1
270
     1
271
     1
  0
XRECORD
  5
9E93
102
{ACAD_REACTORS
330
9E8E
102
}
330
9E8E
100
AcDbXrecord
280
     1
270
     1
271
     1
  0
XRECORD
  5
9E92
102
{ACAD_REACTORS
330
9E8E
102
}
330
9E8E
100
AcDbXrecord
280
     1
270
     1
271
     1
  0
XRECORD
  5
9E94
102
{ACAD_REACTORS
330
9E8E
102
}
330
9E8E
100
AcDbXrecord
280
     1
270
     1
271
     1
  0
XRECORD
  5
9E91
102
{ACAD_REACTORS
330
9E8E
102
}
330
9E8E
100
AcDbXrecord
280
     1
270
     1
271
     1
  0
XRECORD
  5
9F22
102
{ACAD_REACTORS
330
9F21
102
}
330
9F21
100
AcDbXrecord
280
     1
102
DISPLAYNAME
  1
Imperial24
102
FLAGS
 90
        0
  0
CELLSTYLEMAP
  5
9EE9
102
{ACAD_REACTORS
330
9EE8
102
}
330
9EE8
100
AcDbCellStyleMap
 90
        3
300
CELLSTYLE
  1
TABLEFORMAT_BEGIN
 90
        5
170
     1
 91
        0
 92
    32768
 62
   257
 93
        1
300
CONTENTFORMAT
  1
CONTENTFORMAT_BEGIN
 90
        0
 91
        0
 92
      512
 93
        0
300

 40
0.0
140
1.0
 94
        5
 62
     0
340
9A7E
144
0.25
309
CONTENTFORMAT_END
171
     0
 94
        0
309
TABLEFORMAT_END
  1
CELLSTYLE_BEGIN
 90
        1
 91
        1
300
_TITLE
309
CELLSTYLE_END
300
CELLSTYLE
  1
TABLEFORMAT_BEGIN
 90
        5
170
     1
 91
        0
 92
        0
 62
   257
 93
        1
300
CONTENTFORMAT
  1
CONTENTFORMAT_BEGIN
 90
        0
 91
        0
 92
      512
 93
        0
300

 40
0.0
140
1.0
 94
        5
 62
     0
340
9A7E
144
0.18
309
CONTENTFORMAT_END
171
     0
 94
        0
309
TABLEFORMAT_END
  1
CELLSTYLE_BEGIN
 90
        2
 91
        1
300
_HEADER
309
CELLSTYLE_END
300
CELLSTYLE
  1
TABLEFORMAT_BEGIN
 90
        5
170
     1
 91
        0
 92
        0
 62
   257
 93
        1
300
CONTENTFORMAT
  1
CONTENTFORMAT_BEGIN
 90
        0
 91
        0
 92
      512
 93
        0
300

 40
0.0
140
1.0
 94
        2
 62
     0
340
9A7E
144
0.18
309
CONTENTFORMAT_END
171
     0
 94
        0
309
TABLEFORMAT_END
  1
CELLSTYLE_BEGIN
 90
        3
 91
        2
300
_DATA
309
CELLSTYLE_END
  0
XRECORD
  5
9F1F
102
{ACAD_REACTORS
330
9EE8
102
}
330
9EE8
100
AcDbXrecord
280
     1
102
ACAD_ROUNDTRIP_PRE2007_TABLESTYLE
 90
      512
 91
        0
  1

 92
      512
 93
        0
  2

 94
      512
 95
        0
  3

  0
XRECORD
  5
9EFA
102
{ACAD_REACTORS
330
9EF9
102
}
330
9EF9
100
AcDbXrecord
280
     1
102
RTVSPost2010Prop28
280
     1
102
RTVSPost2010PropOp28
 70
     1
102
RTVSPost2010Prop29
280
     1
102
RTVSPost2010PropOp29
 70
     1
102
RTVSPost2010Prop30
280
     0
102
RTVSPost2010PropOp30
 70
     1
102
RTVSPost2010Prop31
280
     0
102
RTVSPost2010PropOp31
 70
     1
102
RTVSPost2010Prop32
280
     0
102
RTVSPost2010PropOp32
 70
     1
102
RTVSPost2010Prop33
280
     0
102
RTVSPost2010PropOp33
 70
     1
102
RTVSPost2010Prop34
280
     0
102
RTVSPost2010PropOp34
 70
     1
102
RTVSPost2010Prop35
280
     0
102
RTVSPost2010PropOp35
 70
     1
102
RTVSPost2010Prop36
280
     0
102
RTVSPost2010PropOp36
 70
     1
102
RTVSPost2010Prop37
 90
       50
102
RTVSPost2010PropOp37
 70
     1
102
RTVSPost2010Prop38
140
0.0
102
RTVSPost2010PropOp38
 70
     1
102
RTVSPost2010Prop39
140
1.0
102
RTVSPost2010PropOp39
 70
     1
102
RTVSPost2010Prop40
 90
        0
102
RTVSPost2010PropOp40
 70
     1
102
RTVSPost2010Prop41ColorIndex
 90
       18
102
RTVSPost2010Prop41ColorRGB
 90
        0
102
RTVSPost2010PropOp41
 70
     1
102
RTVSPost2010Prop42
 90
       50
102
RTVSPost2010PropOp42
 70
     1
102
RTVSPost2010Prop43
 90
        3
102
RTVSPost2010PropOp43
 70
     1
102
RTVSPost2010Prop44ColorIndex
 90
        5
102
RTVSPost2010Prop44ColorRGB
 90
      255
102
RTVSPost2010PropOp44
 70
     1
102
RTVSPost2010Prop45
280
     0
102
RTVSPost2010PropOp45
 70
     1
102
RTVSPost2010Prop46
 90
       50
102
RTVSPost2010PropOp46
 70
     1
102
RTVSPost2010Prop47
 90
       50
102
RTVSPost2010PropOp47
 70
     1
102
RTVSPost2010Prop48
 90
       50
102
RTVSPost2010PropOp48
 70
     1
102
RTVSPost2010Prop49
280
     0
102
RTVSPost2010PropOp49
 70
     1
102
RTVSPost2010Prop50
 90
       50
102
RTVSPost2010PropOp50
 70
     1
102
RTVSPost2010Prop51ColorIndex
 90
      256
102
RTVSPost2010Prop51ColorRGB
 90
-16777216
102
RTVSPost2010PropOp51
 70
     0
102
RTVSPost2010Prop52
140
1.0
102
RTVSPost2010PropOp52
 70
     0
102
RTVSPost2010Prop53
 90
        2
102
RTVSPost2010PropOp53
 70
     1
102
RTVSPost2010Prop54
  1
strokes_ogs.tif
102
RTVSPost2010PropOp54
 70
     1
102
RTVSPost2010Prop55
280
     0
102
RTVSPost2010PropOp55
 70
     1
102
RTVSPost2010Prop56
140
1.0
102
RTVSPost2010PropOp56
 70
     1
102
RTVSPost2010Prop57
140
1.0
102
RTVSPost2010PropOp57
 70
     1
102
RTVSPropertyOp0
 70
     1
102
RTVSPropertyOp1
 70
     1
102
RTVSPropertyOp2
 70
     1
102
RTVSPropertyOp3
 70
     1
102
RTVSPropertyOp4
 70
     1
102
RTVSPropertyOp5
 70
     1
102
RTVSPropertyOp6
 70
     1
102
RTVSPropertyOp7
 70
     1
102
RTVSPropertyOp8
 70
     1
102
RTVSPropertyOp9
 70
     1
102
RTVSPropertyOp10
 70
     1
102
RTVSPropertyOp11
 70
     1
102
RTVSPropertyOp12
 70
     1
102
RTVSPropertyOp13
 70
     1
102
RTVSPropertyOp14
 70
     1
102
RTVSPropertyOp15
 70
     1
102
RTVSPropertyOp16
 70
     1
102
RTVSPropertyOp17
 70
     1
102
RTVSPropertyOp18
 70
     1
102
RTVSPropertyOp19
 70
     1
102
RTVSPropertyOp20
 70
     1
102
RTVSPropertyOp21
 70
     1
102
RTVSPropertyOp22
 70
     1
102
RTVSPropertyOp23
 70
     1
102
RTVSPropertyOp24
 70
     1
102
RTVSPropertyOp25
 70
     1
102
RTVSPropertyOp26
 70
     1
102
RTVSPropertyOp27
 70
     1
102
RTVSPropertyOp28
 70
     1
102
RTVSPropertyOp29
 70
     1
102
RTVSPropertyOp30
 70
     1
102
RTVSPropertyOp31
 70
     1
102
RTVSPropertyOp32
 70
     1
102
RTVSPropertyOp33
 70
     1
102
RTVSPropertyOp34
 70
     1
102
RTVSPropertyOp35
 70
     1
102
RTVSPropertyOp36
 70
     1
102
RTVSPropertyOp37
 70
     1
102
RTVSPropertyOp38
 70
     1
102
RTVSPropertyOp39
 70
     1
102
RTVSPropertyOp40
 70
     1
102
RTVSPropertyOp41
 70
     1
102
RTVSPropertyOp42
 70
     1
102
RTVSPropertyOp43
 70
     1
102
RTVSPropertyOp44
 70
     1
102
RTVSPropertyOp45
 70
     1
102
RTVSPropertyOp46
 70
     1
102
RTVSPropertyOp47
 70
     1
102
RTVSPropertyOp48
 70
     1
102
RTVSPropertyOp49
 70
     1
102
RTVSPropertyOp50
 70
     1
102
RTVSPropertyOp51
 70
     0
102
RTVSPropertyOp52
 70
     0
102
RTVSPropertyOp53
 70
     1
102
RTVSPropertyOp54
 70
     1
102
RTVSPropertyOp55
 70
     1
102
RTVSPropertyOp56
 70
     1
102
RTVSPropertyOp57
 70
     1
102
RTVSPropertyOp58
 70
     1
102
RTVSPropertyOp59
 70
     1
102
RTVSPropertyOp60
 70
     1
102
RTVSPropertyOp61
 70
     1
102
RTVSPropertyOp62
 70
     1
  0
XRECORD
  5
9EF8
102
{ACAD_REACTORS
330
9EF7
102
}
330
9EF7
100
AcDbXrecord
280
     1
102
RTVSPost2010Prop28
280
     0
102
RTVSPost2010PropOp28
 70
     1
102
RTVSPost2010Prop29
280
     1
102
RTVSPost2010PropOp29
 70
     1
102
RTVSPost2010Prop30
280
     1
102
RTVSPost2010PropOp30
 70
     1
102
RTVSPost2010Prop31
280
     0
102
RTVSPost2010PropOp31
 70
     1
102
RTVSPost2010Prop32
280
     0
102
RTVSPost2010PropOp32
 70
     1
102
RTVSPost2010Prop33
280
     0
102
RTVSPost2010PropOp33
 70
     1
102
RTVSPost2010Prop34
280
     0
102
RTVSPost2010PropOp34
 70
     1
102
RTVSPost2010Prop35
280
     0
102
RTVSPost2010PropOp35
 70
     1
102
RTVSPost2010Prop36
280
     0
102
RTVSPost2010PropOp36
 70
     1
102
RTVSPost2010Prop37
 90
       50
102
RTVSPost2010PropOp37
 70
     1
102
RTVSPost2010Prop38
140
0.0
102
RTVSPost2010PropOp38
 70
     1
102
RTVSPost2010Prop39
140
1.0
102
RTVSPost2010PropOp39
 70
     1
102
RTVSPost2010Prop40
 90
        0
102
RTVSPost2010PropOp40
 70
     1
102
RTVSPost2010Prop41ColorIndex
 90
       18
102
RTVSPost2010Prop41ColorRGB
 90
        0
102
RTVSPost2010PropOp41
 70
     1
102
RTVSPost2010Prop42
 90
       50
102
RTVSPost2010PropOp42
 70
     1
102
RTVSPost2010Prop43
 90
        3
102
RTVSPost2010PropOp43
 70
     1
102
RTVSPost2010Prop44ColorIndex
 90
        5
102
RTVSPost2010Prop44ColorRGB
 90
      255
102
RTVSPost2010PropOp44
 70
     1
102
RTVSPost2010Prop45
280
     0
102
RTVSPost2010PropOp45
 70
     1
102
RTVSPost2010Prop46
 90
       50
102
RTVSPost2010PropOp46
 70
     1
102
RTVSPost2010Prop47
 90
       50
102
RTVSPost2010PropOp47
 70
     1
102
RTVSPost2010Prop48
 90
       50
102
RTVSPost2010PropOp48
 70
     1
102
RTVSPost2010Prop49
280
     0
102
RTVSPost2010PropOp49
 70
     1
102
RTVSPost2010Prop50
 90
       50
102
RTVSPost2010PropOp50
 70
     1
102
RTVSPost2010Prop51ColorIndex
 90
      256
102
RTVSPost2010Prop51ColorRGB
 90
-16777216
102
RTVSPost2010PropOp51
 70
     0
102
RTVSPost2010Prop52
140
1.0
102
RTVSPost2010PropOp52
 70
     0
102
RTVSPost2010Prop53
 90
        2
102
RTVSPost2010PropOp53
 70
     1
102
RTVSPost2010Prop54
  1
strokes_ogs.tif
102
RTVSPost2010PropOp54
 70
     1
102
RTVSPost2010Prop55
280
     0
102
RTVSPost2010PropOp55
 70
     1
102
RTVSPost2010Prop56
140
1.0
102
RTVSPost2010PropOp56
 70
     1
102
RTVSPost2010Prop57
140
1.0
102
RTVSPost2010PropOp57
 70
     1
102
RTVSPropertyOp0
 70
     1
102
RTVSPropertyOp1
 70
     1
102
RTVSPropertyOp2
 70
     1
102
RTVSPropertyOp3
 70
     1
102
RTVSPropertyOp4
 70
     1
102
RTVSPropertyOp5
 70
     1
102
RTVSPropertyOp6
 70
     1
102
RTVSPropertyOp7
 70
     1
102
RTVSPropertyOp8
 70
     1
102
RTVSPropertyOp9
 70
     1
102
RTVSPropertyOp10
 70
     1
102
RTVSPropertyOp11
 70
     1
102
RTVSPropertyOp12
 70
     1
102
RTVSPropertyOp13
 70
     1
102
RTVSPropertyOp14
 70
     1
102
RTVSPropertyOp15
 70
     1
102
RTVSPropertyOp16
 70
     1
102
RTVSPropertyOp17
 70
     1
102
RTVSPropertyOp18
 70
     1
102
RTVSPropertyOp19
 70
     1
102
RTVSPropertyOp20
 70
     1
102
RTVSPropertyOp21
 70
     1
102
RTVSPropertyOp22
 70
     1
102
RTVSPropertyOp23
 70
     1
102
RTVSPropertyOp24
 70
     1
102
RTVSPropertyOp25
 70
     1
102
RTVSPropertyOp26
 70
     1
102
RTVSPropertyOp27
 70
     1
102
RTVSPropertyOp28
 70
     1
102
RTVSPropertyOp29
 70
     1
102
RTVSPropertyOp30
 70
     1
102
RTVSPropertyOp31
 70
     1
102
RTVSPropertyOp32
 70
     1
102
RTVSPropertyOp33
 70
     1
102
RTVSPropertyOp34
 70
     1
102
RTVSPropertyOp35
 70
     1
102
RTVSPropertyOp36
 70
     1
102
RTVSPropertyOp37
 70
     1
102
RTVSPropertyOp38
 70
     1
102
RTVSPropertyOp39
 70
     1
102
RTVSPropertyOp40
 70
     1
102
RTVSPropertyOp41
 70
     1
102
RTVSPropertyOp42
 70
     1
102
RTVSPropertyOp43
 70
     1
102
RTVSPropertyOp44
 70
     1
102
RTVSPropertyOp45
 70
     1
102
RTVSPropertyOp46
 70
     1
102
RTVSPropertyOp47
 70
     1
102
RTVSPropertyOp48
 70
     1
102
RTVSPropertyOp49
 70
     1
102
RTVSPropertyOp50
 70
     1
102
RTVSPropertyOp51
 70
     0
102
RTVSPropertyOp52
 70
     0
102
RTVSPropertyOp53
 70
     1
102
RTVSPropertyOp54
 70
     1
102
RTVSPropertyOp55
 70
     1
102
RTVSPropertyOp56
 70
     1
102
RTVSPropertyOp57
 70
     1
102
RTVSPropertyOp58
 70
     1
102
RTVSPropertyOp59
 70
     1
102
RTVSPropertyOp60
 70
     1
102
RTVSPropertyOp61
 70
     1
102
RTVSPropertyOp62
 70
     1
  0
XRECORD
  5
9F06
102
{ACAD_REACTORS
330
9F05
102
}
330
9F05
100
AcDbXrecord
280
     1
102
RTVSPost2010Prop28
280
     0
102
RTVSPost2010PropOp28
 70
     1
102
RTVSPost2010Prop29
280
     1
102
RTVSPost2010PropOp29
 70
     1
102
RTVSPost2010Prop30
280
     1
102
RTVSPost2010PropOp30
 70
     1
102
RTVSPost2010Prop31
280
     0
102
RTVSPost2010PropOp31
 70
     1
102
RTVSPost2010Prop32
280
     0
102
RTVSPost2010PropOp32
 70
     1
102
RTVSPost2010Prop33
280
     0
102
RTVSPost2010PropOp33
 70
     1
102
RTVSPost2010Prop34
280
     0
102
RTVSPost2010PropOp34
 70
     1
102
RTVSPost2010Prop35
280
     0
102
RTVSPost2010PropOp35
 70
     1
102
RTVSPost2010Prop36
280
     0
102
RTVSPost2010PropOp36
 70
     1
102
RTVSPost2010Prop37
 90
       50
102
RTVSPost2010PropOp37
 70
     1
102
RTVSPost2010Prop38
140
0.0
102
RTVSPost2010PropOp38
 70
     1
102
RTVSPost2010Prop39
140
1.0
102
RTVSPost2010PropOp39
 70
     1
102
RTVSPost2010Prop40
 90
        0
102
RTVSPost2010PropOp40
 70
     1
102
RTVSPost2010Prop41ColorIndex
 90
       18
102
RTVSPost2010Prop41ColorRGB
 90
        0
102
RTVSPost2010PropOp41
 70
     1
102
RTVSPost2010Prop42
 90
       50
102
RTVSPost2010PropOp42
 70
     1
102
RTVSPost2010Prop43
 90
        3
102
RTVSPost2010PropOp43
 70
     1
102
RTVSPost2010Prop44ColorIndex
 90
        5
102
RTVSPost2010Prop44ColorRGB
 90
      255
102
RTVSPost2010PropOp44
 70
     1
102
RTVSPost2010Prop45
280
     0
102
RTVSPost2010PropOp45
 70
     1
102
RTVSPost2010Prop46
 90
       50
102
RTVSPost2010PropOp46
 70
     1
102
RTVSPost2010Prop47
 90
       50
102
RTVSPost2010PropOp47
 70
     1
102
RTVSPost2010Prop48
 90
       50
102
RTVSPost2010PropOp48
 70
     1
102
RTVSPost2010Prop49
280
     0
102
RTVSPost2010PropOp49
 70
     1
102
RTVSPost2010Prop50
 90
       50
102
RTVSPost2010PropOp50
 70
     1
102
RTVSPost2010Prop51ColorIndex
 90
      256
102
RTVSPost2010Prop51ColorRGB
 90
-16777216
102
RTVSPost2010PropOp51
 70
     0
102
RTVSPost2010Prop52
140
1.0
102
RTVSPost2010PropOp52
 70
     0
102
RTVSPost2010Prop53
 90
        2
102
RTVSPost2010PropOp53
 70
     1
102
RTVSPost2010Prop54
  1
strokes_ogs.tif
102
RTVSPost2010PropOp54
 70
     1
102
RTVSPost2010Prop55
280
     0
102
RTVSPost2010PropOp55
 70
     1
102
RTVSPost2010Prop56
140
1.0
102
RTVSPost2010PropOp56
 70
     1
102
RTVSPost2010Prop57
140
1.0
102
RTVSPost2010PropOp57
 70
     1
102
RTVSPropertyOp0
 70
     1
102
RTVSPropertyOp1
 70
     1
102
RTVSPropertyOp2
 70
     1
102
RTVSPropertyOp3
 70
     1
102
RTVSPropertyOp4
 70
     1
102
RTVSPropertyOp5
 70
     1
102
RTVSPropertyOp6
 70
     1
102
RTVSPropertyOp7
 70
     1
102
RTVSPropertyOp8
 70
     1
102
RTVSPropertyOp9
 70
     1
102
RTVSPropertyOp10
 70
     1
102
RTVSPropertyOp11
 70
     1
102
RTVSPropertyOp12
 70
     1
102
RTVSPropertyOp13
 70
     1
102
RTVSPropertyOp14
 70
     1
102
RTVSPropertyOp15
 70
     1
102
RTVSPropertyOp16
 70
     1
102
RTVSPropertyOp17
 70
     1
102
RTVSPropertyOp18
 70
     1
102
RTVSPropertyOp19
 70
     1
102
RTVSPropertyOp20
 70
     1
102
RTVSPropertyOp21
 70
     1
102
RTVSPropertyOp22
 70
     1
102
RTVSPropertyOp23
 70
     1
102
RTVSPropertyOp24
 70
     1
102
RTVSPropertyOp25
 70
     1
102
RTVSPropertyOp26
 70
     1
102
RTVSPropertyOp27
 70
     1
102
RTVSPropertyOp28
 70
     1
102
RTVSPropertyOp29
 70
     1
102
RTVSPropertyOp30
 70
     1
102
RTVSPropertyOp31
 70
     1
102
RTVSPropertyOp32
 70
     1
102
RTVSPropertyOp33
 70
     1
102
RTVSPropertyOp34
 70
     1
102
RTVSPropertyOp35
 70
     1
102
RTVSPropertyOp36
 70
     1
102
RTVSPropertyOp37
 70
     1
102
RTVSPropertyOp38
 70
     1
102
RTVSPropertyOp39
 70
     1
102
RTVSPropertyOp40
 70
     1
102
RTVSPropertyOp41
 70
     1
102
RTVSPropertyOp42
 70
     1
102
RTVSPropertyOp43
 70
     1
102
RTVSPropertyOp44
 70
     1
102
RTVSPropertyOp45
 70
     1
102
RTVSPropertyOp46
 70
     1
102
RTVSPropertyOp47
 70
     1
102
RTVSPropertyOp48
 70
     1
102
RTVSPropertyOp49
 70
     1
102
RTVSPropertyOp50
 70
     1
102
RTVSPropertyOp51
 70
     0
102
RTVSPropertyOp52
 70
     0
102
RTVSPropertyOp53
 70
     1
102
RTVSPropertyOp54
 70
     1
102
RTVSPropertyOp55
 70
     1
102
RTVSPropertyOp56
 70
     1
102
RTVSPropertyOp57
 70
     1
102
RTVSPropertyOp58
 70
     1
102
RTVSPropertyOp59
 70
     1
102
RTVSPropertyOp60
 70
     1
102
RTVSPropertyOp61
 70
     1
102
RTVSPropertyOp62
 70
     1
  0
XRECORD
  5
9F0E
102
{ACAD_REACTORS
330
9F0D
102
}
330
9F0D
100
AcDbXrecord
280
     1
102
RTVSPost2010Prop28
280
     0
102
RTVSPost2010PropOp28
 70
     1
102
RTVSPost2010Prop29
280
     1
102
RTVSPost2010PropOp29
 70
     1
102
RTVSPost2010Prop30
280
     1
102
RTVSPost2010PropOp30
 70
     1
102
RTVSPost2010Prop31
280
     0
102
RTVSPost2010PropOp31
 70
     1
102
RTVSPost2010Prop32
280
     0
102
RTVSPost2010PropOp32
 70
     1
102
RTVSPost2010Prop33
280
     0
102
RTVSPost2010PropOp33
 70
     1
102
RTVSPost2010Prop34
280
     0
102
RTVSPost2010PropOp34
 70
     1
102
RTVSPost2010Prop35
280
     0
102
RTVSPost2010PropOp35
 70
     1
102
RTVSPost2010Prop36
280
     0
102
RTVSPost2010PropOp36
 70
     1
102
RTVSPost2010Prop37
 90
       50
102
RTVSPost2010PropOp37
 70
     1
102
RTVSPost2010Prop38
140
0.0
102
RTVSPost2010PropOp38
 70
     1
102
RTVSPost2010Prop39
140
1.0
102
RTVSPost2010PropOp39
 70
     1
102
RTVSPost2010Prop40
 90
        0
102
RTVSPost2010PropOp40
 70
     1
102
RTVSPost2010Prop41ColorIndex
 90
       18
102
RTVSPost2010Prop41ColorRGB
 90
        0
102
RTVSPost2010PropOp41
 70
     1
102
RTVSPost2010Prop42
 90
       50
102
RTVSPost2010PropOp42
 70
     1
102
RTVSPost2010Prop43
 90
        3
102
RTVSPost2010PropOp43
 70
     1
102
RTVSPost2010Prop44ColorIndex
 90
        5
102
RTVSPost2010Prop44ColorRGB
 90
      255
102
RTVSPost2010PropOp44
 70
     1
102
RTVSPost2010Prop45
280
     0
102
RTVSPost2010PropOp45
 70
     1
102
RTVSPost2010Prop46
 90
       50
102
RTVSPost2010PropOp46
 70
     1
102
RTVSPost2010Prop47
 90
       50
102
RTVSPost2010PropOp47
 70
     1
102
RTVSPost2010Prop48
 90
       50
102
RTVSPost2010PropOp48
 70
     1
102
RTVSPost2010Prop49
280
     0
102
RTVSPost2010PropOp49
 70
     1
102
RTVSPost2010Prop50
 90
       50
102
RTVSPost2010PropOp50
 70
     1
102
RTVSPost2010Prop51ColorIndex
 90
      256
102
RTVSPost2010Prop51ColorRGB
 90
-16777216
102
RTVSPost2010PropOp51
 70
     0
102
RTVSPost2010Prop52
140
1.0
102
RTVSPost2010PropOp52
 70
     0
102
RTVSPost2010Prop53
 90
        2
102
RTVSPost2010PropOp53
 70
     1
102
RTVSPost2010Prop54
  1
strokes_ogs.tif
102
RTVSPost2010PropOp54
 70
     1
102
RTVSPost2010Prop55
280
     0
102
RTVSPost2010PropOp55
 70
     1
102
RTVSPost2010Prop56
140
1.0
102
RTVSPost2010PropOp56
 70
     1
102
RTVSPost2010Prop57
140
1.0
102
RTVSPost2010PropOp57
 70
     1
102
RTVSPropertyOp0
 70
     1
102
RTVSPropertyOp1
 70
     1
102
RTVSPropertyOp2
 70
     1
102
RTVSPropertyOp3
 70
     1
102
RTVSPropertyOp4
 70
     1
102
RTVSPropertyOp5
 70
     1
102
RTVSPropertyOp6
 70
     1
102
RTVSPropertyOp7
 70
     1
102
RTVSPropertyOp8
 70
     1
102
RTVSPropertyOp9
 70
     1
102
RTVSPropertyOp10
 70
     1
102
RTVSPropertyOp11
 70
     1
102
RTVSPropertyOp12
 70
     1
102
RTVSPropertyOp13
 70
     1
102
RTVSPropertyOp14
 70
     1
102
RTVSPropertyOp15
 70
     1
102
RTVSPropertyOp16
 70
     1
102
RTVSPropertyOp17
 70
     1
102
RTVSPropertyOp18
 70
     1
102
RTVSPropertyOp19
 70
     1
102
RTVSPropertyOp20
 70
     1
102
RTVSPropertyOp21
 70
     1
102
RTVSPropertyOp22
 70
     1
102
RTVSPropertyOp23
 70
     1
102
RTVSPropertyOp24
 70
     1
102
RTVSPropertyOp25
 70
     1
102
RTVSPropertyOp26
 70
     1
102
RTVSPropertyOp27
 70
     1
102
RTVSPropertyOp28
 70
     1
102
RTVSPropertyOp29
 70
     1
102
RTVSPropertyOp30
 70
     1
102
RTVSPropertyOp31
 70
     1
102
RTVSPropertyOp32
 70
     1
102
RTVSPropertyOp33
 70
     1
102
RTVSPropertyOp34
 70
     1
102
RTVSPropertyOp35
 70
     1
102
RTVSPropertyOp36
 70
     1
102
RTVSPropertyOp37
 70
     1
102
RTVSPropertyOp38
 70
     1
102
RTVSPropertyOp39
 70
     1
102
RTVSPropertyOp40
 70
     1
102
RTVSPropertyOp41
 70
     1
102
RTVSPropertyOp42
 70
     1
102
RTVSPropertyOp43
 70
     1
102
RTVSPropertyOp44
 70
     1
102
RTVSPropertyOp45
 70
     1
102
RTVSPropertyOp46
 70
     1
102
RTVSPropertyOp47
 70
     1
102
RTVSPropertyOp48
 70
     1
102
RTVSPropertyOp49
 70
     1
102
RTVSPropertyOp50
 70
     1
102
RTVSPropertyOp51
 70
     0
102
RTVSPropertyOp52
 70
     0
102
RTVSPropertyOp53
 70
     1
102
RTVSPropertyOp54
 70
     1
102
RTVSPropertyOp55
 70
     1
102
RTVSPropertyOp56
 70
     1
102
RTVSPropertyOp57
 70
     1
102
RTVSPropertyOp58
 70
     1
102
RTVSPropertyOp59
 70
     1
102
RTVSPropertyOp60
 70
     1
102
RTVSPropertyOp61
 70
     1
102
RTVSPropertyOp62
 70
     1
  0
XRECORD
  5
9F00
102
{ACAD_REACTORS
330
9EFF
102
}
330
9EFF
100
AcDbXrecord
280
     1
102
RTVSPost2010Prop28
280
     0
102
RTVSPost2010PropOp28
 70
     1
102
RTVSPost2010Prop29
280
     1
102
RTVSPost2010PropOp29
 70
     1
102
RTVSPost2010Prop30
280
     1
102
RTVSPost2010PropOp30
 70
     1
102
RTVSPost2010Prop31
280
     0
102
RTVSPost2010PropOp31
 70
     1
102
RTVSPost2010Prop32
280
     0
102
RTVSPost2010PropOp32
 70
     1
102
RTVSPost2010Prop33
280
     0
102
RTVSPost2010PropOp33
 70
     1
102
RTVSPost2010Prop34
280
     0
102
RTVSPost2010PropOp34
 70
     1
102
RTVSPost2010Prop35
280
     0
102
RTVSPost2010PropOp35
 70
     1
102
RTVSPost2010Prop36
280
     0
102
RTVSPost2010PropOp36
 70
     1
102
RTVSPost2010Prop37
 90
       50
102
RTVSPost2010PropOp37
 70
     1
102
RTVSPost2010Prop38
140
0.0
102
RTVSPost2010PropOp38
 70
     1
102
RTVSPost2010Prop39
140
1.0
102
RTVSPost2010PropOp39
 70
     1
102
RTVSPost2010Prop40
 90
        0
102
RTVSPost2010PropOp40
 70
     1
102
RTVSPost2010Prop41ColorIndex
 90
       18
102
RTVSPost2010Prop41ColorRGB
 90
        0
102
RTVSPost2010PropOp41
 70
     1
102
RTVSPost2010Prop42
 90
       50
102
RTVSPost2010PropOp42
 70
     1
102
RTVSPost2010Prop43
 90
        3
102
RTVSPost2010PropOp43
 70
     1
102
RTVSPost2010Prop44ColorIndex
 90
        5
102
RTVSPost2010Prop44ColorRGB
 90
      255
102
RTVSPost2010PropOp44
 70
     1
102
RTVSPost2010Prop45
280
     0
102
RTVSPost2010PropOp45
 70
     1
102
RTVSPost2010Prop46
 90
       50
102
RTVSPost2010PropOp46
 70
     1
102
RTVSPost2010Prop47
 90
       50
102
RTVSPost2010PropOp47
 70
     1
102
RTVSPost2010Prop48
 90
       50
102
RTVSPost2010PropOp48
 70
     1
102
RTVSPost2010Prop49
280
     0
102
RTVSPost2010PropOp49
 70
     1
102
RTVSPost2010Prop50
 90
       50
102
RTVSPost2010PropOp50
 70
     1
102
RTVSPost2010Prop51ColorIndex
 90
      256
102
RTVSPost2010Prop51ColorRGB
 90
-16777216
102
RTVSPost2010PropOp51
 70
     0
102
RTVSPost2010Prop52
140
1.0
102
RTVSPost2010PropOp52
 70
     0
102
RTVSPost2010Prop53
 90
        2
102
RTVSPost2010PropOp53
 70
     1
102
RTVSPost2010Prop54
  1
strokes_ogs.tif
102
RTVSPost2010PropOp54
 70
     1
102
RTVSPost2010Prop55
280
     0
102
RTVSPost2010PropOp55
 70
     1
102
RTVSPost2010Prop56
140
1.0
102
RTVSPost2010PropOp56
 70
     1
102
RTVSPost2010Prop57
140
1.0
102
RTVSPost2010PropOp57
 70
     1
102
RTVSPropertyOp0
 70
     1
102
RTVSPropertyOp1
 70
     1
102
RTVSPropertyOp2
 70
     1
102
RTVSPropertyOp3
 70
     1
102
RTVSPropertyOp4
 70
     1
102
RTVSPropertyOp5
 70
     1
102
RTVSPropertyOp6
 70
     1
102
RTVSPropertyOp7
 70
     1
102
RTVSPropertyOp8
 70
     1
102
RTVSPropertyOp9
 70
     1
102
RTVSPropertyOp10
 70
     1
102
RTVSPropertyOp11
 70
     1
102
RTVSPropertyOp12
 70
     1
102
RTVSPropertyOp13
 70
     1
102
RTVSPropertyOp14
 70
     1
102
RTVSPropertyOp15
 70
     1
102
RTVSPropertyOp16
 70
     1
102
RTVSPropertyOp17
 70
     1
102
RTVSPropertyOp18
 70
     1
102
RTVSPropertyOp19
 70
     1
102
RTVSPropertyOp20
 70
     1
102
RTVSPropertyOp21
 70
     1
102
RTVSPropertyOp22
 70
     1
102
RTVSPropertyOp23
 70
     1
102
RTVSPropertyOp24
 70
     1
102
RTVSPropertyOp25
 70
     1
102
RTVSPropertyOp26
 70
     1
102
RTVSPropertyOp27
 70
     1
102
RTVSPropertyOp28
 70
     1
102
RTVSPropertyOp29
 70
     1
102
RTVSPropertyOp30
 70
     1
102
RTVSPropertyOp31
 70
     1
102
RTVSPropertyOp32
 70
     1
102
RTVSPropertyOp33
 70
     1
102
RTVSPropertyOp34
 70
     1
102
RTVSPropertyOp35
 70
     1
102
RTVSPropertyOp36
 70
     1
102
RTVSPropertyOp37
 70
     1
102
RTVSPropertyOp38
 70
     1
102
RTVSPropertyOp39
 70
     1
102
RTVSPropertyOp40
 70
     1
102
RTVSPropertyOp41
 70
     1
102
RTVSPropertyOp42
 70
     1
102
RTVSPropertyOp43
 70
     1
102
RTVSPropertyOp44
 70
     1
102
RTVSPropertyOp45
 70
     1
102
RTVSPropertyOp46
 70
     1
102
RTVSPropertyOp47
 70
     1
102
RTVSPropertyOp48
 70
     1
102
RTVSPropertyOp49
 70
     1
102
RTVSPropertyOp50
 70
     1
102
RTVSPropertyOp51
 70
     0
102
RTVSPropertyOp52
 70
     0
102
RTVSPropertyOp53
 70
     1
102
RTVSPropertyOp54
 70
     1
102
RTVSPropertyOp55
 70
     1
102
RTVSPropertyOp56
 70
     1
102
RTVSPropertyOp57
 70
     1
102
RTVSPropertyOp58
 70
     1
102
RTVSPropertyOp59
 70
     1
102
RTVSPropertyOp60
 70
     1
102
RTVSPropertyOp61
 70
     1
102
RTVSPropertyOp62
 70
     1
  0
XRECORD
  5
9F04
102
{ACAD_REACTORS
330
9F03
102
}
330
9F03
100
AcDbXrecord
280
     1
102
RTVSPost2010Prop28
280
     0
102
RTVSPost2010PropOp28
 70
     1
102
RTVSPost2010Prop29
280
     1
102
RTVSPost2010PropOp29
 70
     1
102
RTVSPost2010Prop30
280
     1
102
RTVSPost2010PropOp30
 70
     1
102
RTVSPost2010Prop31
280
     0
102
RTVSPost2010PropOp31
 70
     1
102
RTVSPost2010Prop32
280
     0
102
RTVSPost2010PropOp32
 70
     1
102
RTVSPost2010Prop33
280
     0
102
RTVSPost2010PropOp33
 70
     1
102
RTVSPost2010Prop34
280
     0
102
RTVSPost2010PropOp34
 70
     1
102
RTVSPost2010Prop35
280
     0
102
RTVSPost2010PropOp35
 70
     1
102
RTVSPost2010Prop36
280
     0
102
RTVSPost2010PropOp36
 70
     1
102
RTVSPost2010Prop37
 90
       50
102
RTVSPost2010PropOp37
 70
     1
102
RTVSPost2010Prop38
140
0.0
102
RTVSPost2010PropOp38
 70
     1
102
RTVSPost2010Prop39
140
1.0
102
RTVSPost2010PropOp39
 70
     1
102
RTVSPost2010Prop40
 90
        0
102
RTVSPost2010PropOp40
 70
     1
102
RTVSPost2010Prop41ColorIndex
 90
       18
102
RTVSPost2010Prop41ColorRGB
 90
        0
102
RTVSPost2010PropOp41
 70
     1
102
RTVSPost2010Prop42
 90
       50
102
RTVSPost2010PropOp42
 70
     1
102
RTVSPost2010Prop43
 90
        3
102
RTVSPost2010PropOp43
 70
     1
102
RTVSPost2010Prop44ColorIndex
 90
        5
102
RTVSPost2010Prop44ColorRGB
 90
      255
102
RTVSPost2010PropOp44
 70
     1
102
RTVSPost2010Prop45
280
     0
102
RTVSPost2010PropOp45
 70
     1
102
RTVSPost2010Prop46
 90
       50
102
RTVSPost2010PropOp46
 70
     1
102
RTVSPost2010Prop47
 90
       50
102
RTVSPost2010PropOp47
 70
     1
102
RTVSPost2010Prop48
 90
       50
102
RTVSPost2010PropOp48
 70
     1
102
RTVSPost2010Prop49
280
     0
102
RTVSPost2010PropOp49
 70
     1
102
RTVSPost2010Prop50
 90
       50
102
RTVSPost2010PropOp50
 70
     1
102
RTVSPost2010Prop51ColorIndex
 90
      256
102
RTVSPost2010Prop51ColorRGB
 90
-16777216
102
RTVSPost2010PropOp51
 70
     0
102
RTVSPost2010Prop52
140
1.0
102
RTVSPost2010PropOp52
 70
     0
102
RTVSPost2010Prop53
 90
        2
102
RTVSPost2010PropOp53
 70
     1
102
RTVSPost2010Prop54
  1
strokes_ogs.tif
102
RTVSPost2010PropOp54
 70
     1
102
RTVSPost2010Prop55
280
     0
102
RTVSPost2010PropOp55
 70
     1
102
RTVSPost2010Prop56
140
1.0
102
RTVSPost2010PropOp56
 70
     1
102
RTVSPost2010Prop57
140
1.0
102
RTVSPost2010PropOp57
 70
     1
102
RTVSPropertyOp0
 70
     1
102
RTVSPropertyOp1
 70
     1
102
RTVSPropertyOp2
 70
     1
102
RTVSPropertyOp3
 70
     1
102
RTVSPropertyOp4
 70
     1
102
RTVSPropertyOp5
 70
     1
102
RTVSPropertyOp6
 70
     1
102
RTVSPropertyOp7
 70
     1
102
RTVSPropertyOp8
 70
     1
102
RTVSPropertyOp9
 70
     1
102
RTVSPropertyOp10
 70
     1
102
RTVSPropertyOp11
 70
     1
102
RTVSPropertyOp12
 70
     1
102
RTVSPropertyOp13
 70
     1
102
RTVSPropertyOp14
 70
     1
102
RTVSPropertyOp15
 70
     1
102
RTVSPropertyOp16
 70
     1
102
RTVSPropertyOp17
 70
     1
102
RTVSPropertyOp18
 70
     1
102
RTVSPropertyOp19
 70
     1
102
RTVSPropertyOp20
 70
     1
102
RTVSPropertyOp21
 70
     1
102
RTVSPropertyOp22
 70
     1
102
RTVSPropertyOp23
 70
     1
102
RTVSPropertyOp24
 70
     1
102
RTVSPropertyOp25
 70
     1
102
RTVSPropertyOp26
 70
     1
102
RTVSPropertyOp27
 70
     1
102
RTVSPropertyOp28
 70
     1
102
RTVSPropertyOp29
 70
     1
102
RTVSPropertyOp30
 70
     1
102
RTVSPropertyOp31
 70
     1
102
RTVSPropertyOp32
 70
     1
102
RTVSPropertyOp33
 70
     1
102
RTVSPropertyOp34
 70
     1
102
RTVSPropertyOp35
 70
     1
102
RTVSPropertyOp36
 70
     1
102
RTVSPropertyOp37
 70
     1
102
RTVSPropertyOp38
 70
     1
102
RTVSPropertyOp39
 70
     1
102
RTVSPropertyOp40
 70
     1
102
RTVSPropertyOp41
 70
     1
102
RTVSPropertyOp42
 70
     1
102
RTVSPropertyOp43
 70
     1
102
RTVSPropertyOp44
 70
     1
102
RTVSPropertyOp45
 70
     1
102
RTVSPropertyOp46
 70
     1
102
RTVSPropertyOp47
 70
     1
102
RTVSPropertyOp48
 70
     1
102
RTVSPropertyOp49
 70
     1
102
RTVSPropertyOp50
 70
     1
102
RTVSPropertyOp51
 70
     0
102
RTVSPropertyOp52
 70
     0
102
RTVSPropertyOp53
 70
     1
102
RTVSPropertyOp54
 70
     1
102
RTVSPropertyOp55
 70
     1
102
RTVSPropertyOp56
 70
     1
102
RTVSPropertyOp57
 70
     1
102
RTVSPropertyOp58
 70
     1
102
RTVSPropertyOp59
 70
     1
102
RTVSPropertyOp60
 70
     1
102
RTVSPropertyOp61
 70
     1
102
RTVSPropertyOp62
 70
     1
  0
XRECORD
  5
9F1E
102
{ACAD_REACTORS
330
9F1D
102
}
330
9F1D
100
AcDbXrecord
280
     1
102
RTVSPost2010Prop28
280
     0
102
RTVSPost2010PropOp28
 70
     1
102
RTVSPost2010Prop29
280
     1
102
RTVSPost2010PropOp29
 70
     1
102
RTVSPost2010Prop30
280
     1
102
RTVSPost2010PropOp30
 70
     1
102
RTVSPost2010Prop31
280
     0
102
RTVSPost2010PropOp31
 70
     1
102
RTVSPost2010Prop32
280
     0
102
RTVSPost2010PropOp32
 70
     1
102
RTVSPost2010Prop33
280
     0
102
RTVSPost2010PropOp33
 70
     1
102
RTVSPost2010Prop34
280
     0
102
RTVSPost2010PropOp34
 70
     1
102
RTVSPost2010Prop35
280
     0
102
RTVSPost2010PropOp35
 70
     1
102
RTVSPost2010Prop36
280
     0
102
RTVSPost2010PropOp36
 70
     1
102
RTVSPost2010Prop37
 90
       50
102
RTVSPost2010PropOp37
 70
     0
102
RTVSPost2010Prop38
140
0.0
102
RTVSPost2010PropOp38
 70
     0
102
RTVSPost2010Prop39
140
1.0
102
RTVSPost2010PropOp39
 70
     0
102
RTVSPost2010Prop40
 90
        0
102
RTVSPost2010PropOp40
 70
     0
102
RTVSPost2010Prop41ColorIndex
 90
       18
102
RTVSPost2010Prop41ColorRGB
 90
        0
102
RTVSPost2010PropOp41
 70
     0
102
RTVSPost2010Prop42
 90
       50
102
RTVSPost2010PropOp42
 70
     0
102
RTVSPost2010Prop43
 90
        3
102
RTVSPost2010PropOp43
 70
     0
102
RTVSPost2010Prop44ColorIndex
 90
        5
102
RTVSPost2010Prop44ColorRGB
 90
      255
102
RTVSPost2010PropOp44
 70
     0
102
RTVSPost2010Prop45
280
     0
102
RTVSPost2010PropOp45
 70
     1
102
RTVSPost2010Prop46
 90
       50
102
RTVSPost2010PropOp46
 70
     0
102
RTVSPost2010Prop47
 90
       50
102
RTVSPost2010PropOp47
 70
     0
102
RTVSPost2010Prop48
 90
       50
102
RTVSPost2010PropOp48
 70
     0
102
RTVSPost2010Prop49
280
     0
102
RTVSPost2010PropOp49
 70
     1
102
RTVSPost2010Prop50
 90
       50
102
RTVSPost2010PropOp50
 70
     0
102
RTVSPost2010Prop51ColorIndex
 90
      256
102
RTVSPost2010Prop51ColorRGB
 90
-16777216
102
RTVSPost2010PropOp51
 70
     0
102
RTVSPost2010Prop52
140
1.0
102
RTVSPost2010PropOp52
 70
     0
102
RTVSPost2010Prop53
 90
        2
102
RTVSPost2010PropOp53
 70
     0
102
RTVSPost2010Prop54
  1
strokes_ogs.tif
102
RTVSPost2010PropOp54
 70
     0
102
RTVSPost2010Prop55
280
     0
102
RTVSPost2010PropOp55
 70
     1
102
RTVSPost2010Prop56
140
1.0
102
RTVSPost2010PropOp56
 70
     0
102
RTVSPost2010Prop57
140
1.0
102
RTVSPost2010PropOp57
 70
     0
102
RTVSPropertyOp0
 70
     0
102
RTVSPropertyOp1
 70
     0
102
RTVSPropertyOp2
 70
     0
102
RTVSPropertyOp3
 70
     0
102
RTVSPropertyOp4
 70
     0
102
RTVSPropertyOp5
 70
     0
102
RTVSPropertyOp6
 70
     0
102
RTVSPropertyOp7
 70
     0
102
RTVSPropertyOp8
 70
     0
102
RTVSPropertyOp9
 70
     0
102
RTVSPropertyOp10
 70
     0
102
RTVSPropertyOp11
 70
     0
102
RTVSPropertyOp12
 70
     0
102
RTVSPropertyOp13
 70
     0
102
RTVSPropertyOp14
 70
     2
102
RTVSPropertyOp15
 70
     0
102
RTVSPropertyOp16
 70
     0
102
RTVSPropertyOp17
 70
     0
102
RTVSPropertyOp18
 70
     0
102
RTVSPropertyOp19
 70
     0
102
RTVSPropertyOp20
 70
     0
102
RTVSPropertyOp21
 70
     0
102
RTVSPropertyOp22
 70
     0
102
RTVSPropertyOp23
 70
     0
102
RTVSPropertyOp24
 70
     0
102
RTVSPropertyOp25
 70
     0
102
RTVSPropertyOp26
 70
     0
102
RTVSPropertyOp27
 70
     0
102
RTVSPropertyOp28
 70
     1
102
RTVSPropertyOp29
 70
     1
102
RTVSPropertyOp30
 70
     1
102
RTVSPropertyOp31
 70
     1
102
RTVSPropertyOp32
 70
     1
102
RTVSPropertyOp33
 70
     1
102
RTVSPropertyOp34
 70
     1
102
RTVSPropertyOp35
 70
     1
102
RTVSPropertyOp36
 70
     1
102
RTVSPropertyOp37
 70
     0
102
RTVSPropertyOp38
 70
     0
102
RTVSPropertyOp39
 70
     0
102
RTVSPropertyOp40
 70
     0
102
RTVSPropertyOp41
 70
     0
102
RTVSPropertyOp42
 70
     0
102
RTVSPropertyOp43
 70
     0
102
RTVSPropertyOp44
 70
     0
102
RTVSPropertyOp45
 70
     1
102
RTVSPropertyOp46
 70
     0
102
RTVSPropertyOp47
 70
     0
102
RTVSPropertyOp48
 70
     0
102
RTVSPropertyOp49
 70
     1
102
RTVSPropertyOp50
 70
     0
102
RTVSPropertyOp51
 70
     0
102
RTVSPropertyOp52
 70
     0
102
RTVSPropertyOp53
 70
     0
102
RTVSPropertyOp54
 70
     0
102
RTVSPropertyOp55
 70
     1
102
RTVSPropertyOp56
 70
     0
102
RTVSPropertyOp57
 70
     0
102
RTVSPropertyOp58
 70
     0
102
RTVSPropertyOp59
 70
     0
102
RTVSPropertyOp60
 70
     0
102
RTVSPropertyOp61
 70
     0
102
RTVSPropertyOp62
 70
     0
  0
XRECORD
  5
9F0C
102
{ACAD_REACTORS
330
9F0B
102
}
330
9F0B
100
AcDbXrecord
280
     1
102
RTVSPost2010Prop28
280
     0
102
RTVSPost2010PropOp28
 70
     1
102
RTVSPost2010Prop29
280
     1
102
RTVSPost2010PropOp29
 70
     1
102
RTVSPost2010Prop30
280
     1
102
RTVSPost2010PropOp30
 70
     1
102
RTVSPost2010Prop31
280
     0
102
RTVSPost2010PropOp31
 70
     1
102
RTVSPost2010Prop32
280
     0
102
RTVSPost2010PropOp32
 70
     1
102
RTVSPost2010Prop33
280
     0
102
RTVSPost2010PropOp33
 70
     1
102
RTVSPost2010Prop34
280
     0
102
RTVSPost2010PropOp34
 70
     1
102
RTVSPost2010Prop35
280
     0
102
RTVSPost2010PropOp35
 70
     1
102
RTVSPost2010Prop36
280
     0
102
RTVSPost2010PropOp36
 70
     1
102
RTVSPost2010Prop37
 90
       50
102
RTVSPost2010PropOp37
 70
     1
102
RTVSPost2010Prop38
140
0.0
102
RTVSPost2010PropOp38
 70
     1
102
RTVSPost2010Prop39
140
1.0
102
RTVSPost2010PropOp39
 70
     1
102
RTVSPost2010Prop40
 90
        0
102
RTVSPost2010PropOp40
 70
     1
102
RTVSPost2010Prop41ColorIndex
 90
       18
102
RTVSPost2010Prop41ColorRGB
 90
        0
102
RTVSPost2010PropOp41
 70
     1
102
RTVSPost2010Prop42
 90
       50
102
RTVSPost2010PropOp42
 70
     1
102
RTVSPost2010Prop43
 90
        3
102
RTVSPost2010PropOp43
 70
     1
102
RTVSPost2010Prop44ColorIndex
 90
        5
102
RTVSPost2010Prop44ColorRGB
 90
      255
102
RTVSPost2010PropOp44
 70
     1
102
RTVSPost2010Prop45
280
     0
102
RTVSPost2010PropOp45
 70
     1
102
RTVSPost2010Prop46
 90
       50
102
RTVSPost2010PropOp46
 70
     1
102
RTVSPost2010Prop47
 90
       50
102
RTVSPost2010PropOp47
 70
     1
102
RTVSPost2010Prop48
 90
       50
102
RTVSPost2010PropOp48
 70
     1
102
RTVSPost2010Prop49
280
     0
102
RTVSPost2010PropOp49
 70
     1
102
RTVSPost2010Prop50
 90
       50
102
RTVSPost2010PropOp50
 70
     1
102
RTVSPost2010Prop51ColorIndex
 90
      256
102
RTVSPost2010Prop51ColorRGB
 90
-16777216
102
RTVSPost2010PropOp51
 70
     0
102
RTVSPost2010Prop52
140
1.0
102
RTVSPost2010PropOp52
 70
     0
102
RTVSPost2010Prop53
 90
        2
102
RTVSPost2010PropOp53
 70
     1
102
RTVSPost2010Prop54
  1
strokes_ogs.tif
102
RTVSPost2010PropOp54
 70
     1
102
RTVSPost2010Prop55
280
     0
102
RTVSPost2010PropOp55
 70
     1
102
RTVSPost2010Prop56
140
1.0
102
RTVSPost2010PropOp56
 70
     1
102
RTVSPost2010Prop57
140
1.0
102
RTVSPost2010PropOp57
 70
     1
102
RTVSPropertyOp0
 70
     1
102
RTVSPropertyOp1
 70
     1
102
RTVSPropertyOp2
 70
     1
102
RTVSPropertyOp3
 70
     1
102
RTVSPropertyOp4
 70
     1
102
RTVSPropertyOp5
 70
     1
102
RTVSPropertyOp6
 70
     1
102
RTVSPropertyOp7
 70
     1
102
RTVSPropertyOp8
 70
     1
102
RTVSPropertyOp9
 70
     1
102
RTVSPropertyOp10
 70
     1
102
RTVSPropertyOp11
 70
     1
102
RTVSPropertyOp12
 70
     1
102
RTVSPropertyOp13
 70
     1
102
RTVSPropertyOp14
 70
     1
102
RTVSPropertyOp15
 70
     1
102
RTVSPropertyOp16
 70
     1
102
RTVSPropertyOp17
 70
     1
102
RTVSPropertyOp18
 70
     1
102
RTVSPropertyOp19
 70
     1
102
RTVSPropertyOp20
 70
     1
102
RTVSPropertyOp21
 70
     1
102
RTVSPropertyOp22
 70
     1
102
RTVSPropertyOp23
 70
     1
102
RTVSPropertyOp24
 70
     1
102
RTVSPropertyOp25
 70
     1
102
RTVSPropertyOp26
 70
     1
102
RTVSPropertyOp27
 70
     1
102
RTVSPropertyOp28
 70
     1
102
RTVSPropertyOp29
 70
     1
102
RTVSPropertyOp30
 70
     1
102
RTVSPropertyOp31
 70
     1
102
RTVSPropertyOp32
 70
     1
102
RTVSPropertyOp33
 70
     1
102
RTVSPropertyOp34
 70
     1
102
RTVSPropertyOp35
 70
     1
102
RTVSPropertyOp36
 70
     1
102
RTVSPropertyOp37
 70
     1
102
RTVSPropertyOp38
 70
     1
102
RTVSPropertyOp39
 70
     1
102
RTVSPropertyOp40
 70
     1
102
RTVSPropertyOp41
 70
     1
102
RTVSPropertyOp42
 70
     1
102
RTVSPropertyOp43
 70
     1
102
RTVSPropertyOp44
 70
     1
102
RTVSPropertyOp45
 70
     1
102
RTVSPropertyOp46
 70
     1
102
RTVSPropertyOp47
 70
     1
102
RTVSPropertyOp48
 70
     1
102
RTVSPropertyOp49
 70
     1
102
RTVSPropertyOp50
 70
     1
102
RTVSPropertyOp51
 70
     0
102
RTVSPropertyOp52
 70
     0
102
RTVSPropertyOp53
 70
     1
102
RTVSPropertyOp54
 70
     1
102
RTVSPropertyOp55
 70
     1
102
RTVSPropertyOp56
 70
     1
102
RTVSPropertyOp57
 70
     1
102
RTVSPropertyOp58
 70
     1
102
RTVSPropertyOp59
 70
     1
102
RTVSPropertyOp60
 70
     1
102
RTVSPropertyOp61
 70
     1
102
RTVSPropertyOp62
 70
     1
  0
XRECORD
  5
9EF0
102
{ACAD_REACTORS
330
9EEF
102
}
330
9EEF
100
AcDbXrecord
280
     1
102
RTVSPost2010Prop28
280
     0
102
RTVSPost2010PropOp28
 70
     1
102
RTVSPost2010Prop29
280
     1
102
RTVSPost2010PropOp29
 70
     1
102
RTVSPost2010Prop30
280
     1
102
RTVSPost2010PropOp30
 70
     1
102
RTVSPost2010Prop31
280
     0
102
RTVSPost2010PropOp31
 70
     1
102
RTVSPost2010Prop32
280
     0
102
RTVSPost2010PropOp32
 70
     1
102
RTVSPost2010Prop33
280
     0
102
RTVSPost2010PropOp33
 70
     1
102
RTVSPost2010Prop34
280
     0
102
RTVSPost2010PropOp34
 70
     1
102
RTVSPost2010Prop35
280
     0
102
RTVSPost2010PropOp35
 70
     1
102
RTVSPost2010Prop36
280
     0
102
RTVSPost2010PropOp36
 70
     1
102
RTVSPost2010Prop37
 90
       50
102
RTVSPost2010PropOp37
 70
     1
102
RTVSPost2010Prop38
140
0.0
102
RTVSPost2010PropOp38
 70
     1
102
RTVSPost2010Prop39
140
1.0
102
RTVSPost2010PropOp39
 70
     1
102
RTVSPost2010Prop40
 90
        0
102
RTVSPost2010PropOp40
 70
     1
102
RTVSPost2010Prop41ColorIndex
 90
       18
102
RTVSPost2010Prop41ColorRGB
 90
        0
102
RTVSPost2010PropOp41
 70
     1
102
RTVSPost2010Prop42
 90
       50
102
RTVSPost2010PropOp42
 70
     1
102
RTVSPost2010Prop43
 90
        3
102
RTVSPost2010PropOp43
 70
     1
102
RTVSPost2010Prop44ColorIndex
 90
        5
102
RTVSPost2010Prop44ColorRGB
 90
      255
102
RTVSPost2010PropOp44
 70
     1
102
RTVSPost2010Prop45
280
     0
102
RTVSPost2010PropOp45
 70
     1
102
RTVSPost2010Prop46
 90
       50
102
RTVSPost2010PropOp46
 70
     1
102
RTVSPost2010Prop47
 90
       50
102
RTVSPost2010PropOp47
 70
     1
102
RTVSPost2010Prop48
 90
       50
102
RTVSPost2010PropOp48
 70
     1
102
RTVSPost2010Prop49
280
     0
102
RTVSPost2010PropOp49
 70
     1
102
RTVSPost2010Prop50
 90
       50
102
RTVSPost2010PropOp50
 70
     1
102
RTVSPost2010Prop51ColorIndex
 90
      256
102
RTVSPost2010Prop51ColorRGB
 90
-16777216
102
RTVSPost2010PropOp51
 70
     0
102
RTVSPost2010Prop52
140
1.0
102
RTVSPost2010PropOp52
 70
     0
102
RTVSPost2010Prop53
 90
        2
102
RTVSPost2010PropOp53
 70
     1
102
RTVSPost2010Prop54
  1
strokes_ogs.tif
102
RTVSPost2010PropOp54
 70
     1
102
RTVSPost2010Prop55
280
     0
102
RTVSPost2010PropOp55
 70
     1
102
RTVSPost2010Prop56
140
1.0
102
RTVSPost2010PropOp56
 70
     1
102
RTVSPost2010Prop57
140
1.0
102
RTVSPost2010PropOp57
 70
     1
102
RTVSPropertyOp0
 70
     1
102
RTVSPropertyOp1
 70
     1
102
RTVSPropertyOp2
 70
     1
102
RTVSPropertyOp3
 70
     1
102
RTVSPropertyOp4
 70
     1
102
RTVSPropertyOp5
 70
     1
102
RTVSPropertyOp6
 70
     1
102
RTVSPropertyOp7
 70
     1
102
RTVSPropertyOp8
 70
     1
102
RTVSPropertyOp9
 70
     1
102
RTVSPropertyOp10
 70
     1
102
RTVSPropertyOp11
 70
     1
102
RTVSPropertyOp12
 70
     1
102
RTVSPropertyOp13
 70
     1
102
RTVSPropertyOp14
 70
     1
102
RTVSPropertyOp15
 70
     1
102
RTVSPropertyOp16
 70
     1
102
RTVSPropertyOp17
 70
     1
102
RTVSPropertyOp18
 70
     1
102
RTVSPropertyOp19
 70
     1
102
RTVSPropertyOp20
 70
     1
102
RTVSPropertyOp21
 70
     1
102
RTVSPropertyOp22
 70
     1
102
RTVSPropertyOp23
 70
     1
102
RTVSPropertyOp24
 70
     1
102
RTVSPropertyOp25
 70
     1
102
RTVSPropertyOp26
 70
     1
102
RTVSPropertyOp27
 70
     1
102
RTVSPropertyOp28
 70
     1
102
RTVSPropertyOp29
 70
     1
102
RTVSPropertyOp30
 70
     1
102
RTVSPropertyOp31
 70
     1
102
RTVSPropertyOp32
 70
     1
102
RTVSPropertyOp33
 70
     1
102
RTVSPropertyOp34
 70
     1
102
RTVSPropertyOp35
 70
     1
102
RTVSPropertyOp36
 70
     1
102
RTVSPropertyOp37
 70
     1
102
RTVSPropertyOp38
 70
     1
102
RTVSPropertyOp39
 70
     1
102
RTVSPropertyOp40
 70
     1
102
RTVSPropertyOp41
 70
     1
102
RTVSPropertyOp42
 70
     1
102
RTVSPropertyOp43
 70
     1
102
RTVSPropertyOp44
 70
     1
102
RTVSPropertyOp45
 70
     1
102
RTVSPropertyOp46
 70
     1
102
RTVSPropertyOp47
 70
     1
102
RTVSPropertyOp48
 70
     1
102
RTVSPropertyOp49
 70
     1
102
RTVSPropertyOp50
 70
     1
102
RTVSPropertyOp51
 70
     0
102
RTVSPropertyOp52
 70
     0
102
RTVSPropertyOp53
 70
     1
102
RTVSPropertyOp54
 70
     1
102
RTVSPropertyOp55
 70
     1
102
RTVSPropertyOp56
 70
     1
102
RTVSPropertyOp57
 70
     1
102
RTVSPropertyOp58
 70
     1
102
RTVSPropertyOp59
 70
     1
102
RTVSPropertyOp60
 70
     1
102
RTVSPropertyOp61
 70
     1
102
RTVSPropertyOp62
 70
     1
  0
XRECORD
  5
9EF2
102
{ACAD_REACTORS
330
9EF1
102
}
330
9EF1
100
AcDbXrecord
280
     1
102
RTVSPost2010Prop28
280
     0
102
RTVSPost2010PropOp28
 70
     1
102
RTVSPost2010Prop29
280
     1
102
RTVSPost2010PropOp29
 70
     1
102
RTVSPost2010Prop30
280
     1
102
RTVSPost2010PropOp30
 70
     1
102
RTVSPost2010Prop31
280
     0
102
RTVSPost2010PropOp31
 70
     1
102
RTVSPost2010Prop32
280
     0
102
RTVSPost2010PropOp32
 70
     1
102
RTVSPost2010Prop33
280
     0
102
RTVSPost2010PropOp33
 70
     1
102
RTVSPost2010Prop34
280
     0
102
RTVSPost2010PropOp34
 70
     1
102
RTVSPost2010Prop35
280
     0
102
RTVSPost2010PropOp35
 70
     1
102
RTVSPost2010Prop36
280
     0
102
RTVSPost2010PropOp36
 70
     1
102
RTVSPost2010Prop37
 90
       50
102
RTVSPost2010PropOp37
 70
     1
102
RTVSPost2010Prop38
140
0.0
102
RTVSPost2010PropOp38
 70
     1
102
RTVSPost2010Prop39
140
1.0
102
RTVSPost2010PropOp39
 70
     1
102
RTVSPost2010Prop40
 90
        0
102
RTVSPost2010PropOp40
 70
     1
102
RTVSPost2010Prop41ColorIndex
 90
       18
102
RTVSPost2010Prop41ColorRGB
 90
        0
102
RTVSPost2010PropOp41
 70
     1
102
RTVSPost2010Prop42
 90
       50
102
RTVSPost2010PropOp42
 70
     1
102
RTVSPost2010Prop43
 90
        3
102
RTVSPost2010PropOp43
 70
     1
102
RTVSPost2010Prop44ColorIndex
 90
        5
102
RTVSPost2010Prop44ColorRGB
 90
      255
102
RTVSPost2010PropOp44
 70
     1
102
RTVSPost2010Prop45
280
     0
102
RTVSPost2010PropOp45
 70
     1
102
RTVSPost2010Prop46
 90
       50
102
RTVSPost2010PropOp46
 70
     1
102
RTVSPost2010Prop47
 90
       50
102
RTVSPost2010PropOp47
 70
     1
102
RTVSPost2010Prop48
 90
       50
102
RTVSPost2010PropOp48
 70
     1
102
RTVSPost2010Prop49
280
     0
102
RTVSPost2010PropOp49
 70
     1
102
RTVSPost2010Prop50
 90
       50
102
RTVSPost2010PropOp50
 70
     1
102
RTVSPost2010Prop51ColorIndex
 90
      256
102
RTVSPost2010Prop51ColorRGB
 90
-16777216
102
RTVSPost2010PropOp51
 70
     0
102
RTVSPost2010Prop52
140
1.0
102
RTVSPost2010PropOp52
 70
     0
102
RTVSPost2010Prop53
 90
        2
102
RTVSPost2010PropOp53
 70
     1
102
RTVSPost2010Prop54
  1
strokes_ogs.tif
102
RTVSPost2010PropOp54
 70
     1
102
RTVSPost2010Prop55
280
     0
102
RTVSPost2010PropOp55
 70
     1
102
RTVSPost2010Prop56
140
1.0
102
RTVSPost2010PropOp56
 70
     1
102
RTVSPost2010Prop57
140
1.0
102
RTVSPost2010PropOp57
 70
     1
102
RTVSPropertyOp0
 70
     1
102
RTVSPropertyOp1
 70
     1
102
RTVSPropertyOp2
 70
     1
102
RTVSPropertyOp3
 70
     1
102
RTVSPropertyOp4
 70
     1
102
RTVSPropertyOp5
 70
     1
102
RTVSPropertyOp6
 70
     1
102
RTVSPropertyOp7
 70
     1
102
RTVSPropertyOp8
 70
     1
102
RTVSPropertyOp9
 70
     1
102
RTVSPropertyOp10
 70
     1
102
RTVSPropertyOp11
 70
     1
102
RTVSPropertyOp12
 70
     1
102
RTVSPropertyOp13
 70
     1
102
RTVSPropertyOp14
 70
     1
102
RTVSPropertyOp15
 70
     1
102
RTVSPropertyOp16
 70
     1
102
RTVSPropertyOp17
 70
     1
102
RTVSPropertyOp18
 70
     1
102
RTVSPropertyOp19
 70
     1
102
RTVSPropertyOp20
 70
     1
102
RTVSPropertyOp21
 70
     1
102
RTVSPropertyOp22
 70
     1
102
RTVSPropertyOp23
 70
     1
102
RTVSPropertyOp24
 70
     1
102
RTVSPropertyOp25
 70
     1
102
RTVSPropertyOp26
 70
     1
102
RTVSPropertyOp27
 70
     1
102
RTVSPropertyOp28
 70
     1
102
RTVSPropertyOp29
 70
     1
102
RTVSPropertyOp30
 70
     1
102
RTVSPropertyOp31
 70
     1
102
RTVSPropertyOp32
 70
     1
102
RTVSPropertyOp33
 70
     1
102
RTVSPropertyOp34
 70
     1
102
RTVSPropertyOp35
 70
     1
102
RTVSPropertyOp36
 70
     1
102
RTVSPropertyOp37
 70
     1
102
RTVSPropertyOp38
 70
     1
102
RTVSPropertyOp39
 70
     1
102
RTVSPropertyOp40
 70
     1
102
RTVSPropertyOp41
 70
     1
102
RTVSPropertyOp42
 70
     1
102
RTVSPropertyOp43
 70
     1
102
RTVSPropertyOp44
 70
     1
102
RTVSPropertyOp45
 70
     1
102
RTVSPropertyOp46
 70
     1
102
RTVSPropertyOp47
 70
     1
102
RTVSPropertyOp48
 70
     1
102
RTVSPropertyOp49
 70
     1
102
RTVSPropertyOp50
 70
     1
102
RTVSPropertyOp51
 70
     0
102
RTVSPropertyOp52
 70
     0
102
RTVSPropertyOp53
 70
     1
102
RTVSPropertyOp54
 70
     1
102
RTVSPropertyOp55
 70
     1
102
RTVSPropertyOp56
 70
     1
102
RTVSPropertyOp57
 70
     1
102
RTVSPropertyOp58
 70
     1
102
RTVSPropertyOp59
 70
     1
102
RTVSPropertyOp60
 70
     1
102
RTVSPropertyOp61
 70
     1
102
RTVSPropertyOp62
 70
     1
  0
XRECORD
  5
9EF4
102
{ACAD_REACTORS
330
9EF3
102
}
330
9EF3
100
AcDbXrecord
280
     1
102
RTVSPost2010Prop28
280
     0
102
RTVSPost2010PropOp28
 70
     1
102
RTVSPost2010Prop29
280
     1
102
RTVSPost2010PropOp29
 70
     1
102
RTVSPost2010Prop30
280
     1
102
RTVSPost2010PropOp30
 70
     1
102
RTVSPost2010Prop31
280
     0
102
RTVSPost2010PropOp31
 70
     1
102
RTVSPost2010Prop32
280
     0
102
RTVSPost2010PropOp32
 70
     1
102
RTVSPost2010Prop33
280
     0
102
RTVSPost2010PropOp33
 70
     1
102
RTVSPost2010Prop34
280
     0
102
RTVSPost2010PropOp34
 70
     1
102
RTVSPost2010Prop35
280
     0
102
RTVSPost2010PropOp35
 70
     1
102
RTVSPost2010Prop36
280
     0
102
RTVSPost2010PropOp36
 70
     1
102
RTVSPost2010Prop37
 90
       50
102
RTVSPost2010PropOp37
 70
     1
102
RTVSPost2010Prop38
140
0.0
102
RTVSPost2010PropOp38
 70
     1
102
RTVSPost2010Prop39
140
1.0
102
RTVSPost2010PropOp39
 70
     1
102
RTVSPost2010Prop40
 90
        0
102
RTVSPost2010PropOp40
 70
     1
102
RTVSPost2010Prop41ColorIndex
 90
       18
102
RTVSPost2010Prop41ColorRGB
 90
        0
102
RTVSPost2010PropOp41
 70
     1
102
RTVSPost2010Prop42
 90
       50
102
RTVSPost2010PropOp42
 70
     1
102
RTVSPost2010Prop43
 90
        3
102
RTVSPost2010PropOp43
 70
     1
102
RTVSPost2010Prop44ColorIndex
 90
        5
102
RTVSPost2010Prop44ColorRGB
 90
      255
102
RTVSPost2010PropOp44
 70
     1
102
RTVSPost2010Prop45
280
     0
102
RTVSPost2010PropOp45
 70
     1
102
RTVSPost2010Prop46
 90
       50
102
RTVSPost2010PropOp46
 70
     1
102
RTVSPost2010Prop47
 90
       50
102
RTVSPost2010PropOp47
 70
     1
102
RTVSPost2010Prop48
 90
       50
102
RTVSPost2010PropOp48
 70
     1
102
RTVSPost2010Prop49
280
     0
102
RTVSPost2010PropOp49
 70
     1
102
RTVSPost2010Prop50
 90
       50
102
RTVSPost2010PropOp50
 70
     1
102
RTVSPost2010Prop51ColorIndex
 90
      256
102
RTVSPost2010Prop51ColorRGB
 90
-16777216
102
RTVSPost2010PropOp51
 70
     0
102
RTVSPost2010Prop52
140
1.0
102
RTVSPost2010PropOp52
 70
     0
102
RTVSPost2010Prop53
 90
        2
102
RTVSPost2010PropOp53
 70
     1
102
RTVSPost2010Prop54
  1
strokes_ogs.tif
102
RTVSPost2010PropOp54
 70
     1
102
RTVSPost2010Prop55
280
     0
102
RTVSPost2010PropOp55
 70
     1
102
RTVSPost2010Prop56
140
1.0
102
RTVSPost2010PropOp56
 70
     1
102
RTVSPost2010Prop57
140
1.0
102
RTVSPost2010PropOp57
 70
     1
102
RTVSPropertyOp0
 70
     1
102
RTVSPropertyOp1
 70
     1
102
RTVSPropertyOp2
 70
     1
102
RTVSPropertyOp3
 70
     1
102
RTVSPropertyOp4
 70
     1
102
RTVSPropertyOp5
 70
     1
102
RTVSPropertyOp6
 70
     1
102
RTVSPropertyOp7
 70
     1
102
RTVSPropertyOp8
 70
     1
102
RTVSPropertyOp9
 70
     1
102
RTVSPropertyOp10
 70
     1
102
RTVSPropertyOp11
 70
     1
102
RTVSPropertyOp12
 70
     1
102
RTVSPropertyOp13
 70
     1
102
RTVSPropertyOp14
 70
     1
102
RTVSPropertyOp15
 70
     1
102
RTVSPropertyOp16
 70
     1
102
RTVSPropertyOp17
 70
     1
102
RTVSPropertyOp18
 70
     1
102
RTVSPropertyOp19
 70
     1
102
RTVSPropertyOp20
 70
     1
102
RTVSPropertyOp21
 70
     1
102
RTVSPropertyOp22
 70
     1
102
RTVSPropertyOp23
 70
     1
102
RTVSPropertyOp24
 70
     1
102
RTVSPropertyOp25
 70
     1
102
RTVSPropertyOp26
 70
     1
102
RTVSPropertyOp27
 70
     1
102
RTVSPropertyOp28
 70
     1
102
RTVSPropertyOp29
 70
     1
102
RTVSPropertyOp30
 70
     1
102
RTVSPropertyOp31
 70
     1
102
RTVSPropertyOp32
 70
     1
102
RTVSPropertyOp33
 70
     1
102
RTVSPropertyOp34
 70
     1
102
RTVSPropertyOp35
 70
     1
102
RTVSPropertyOp36
 70
     1
102
RTVSPropertyOp37
 70
     1
102
RTVSPropertyOp38
 70
     1
102
RTVSPropertyOp39
 70
     1
102
RTVSPropertyOp40
 70
     1
102
RTVSPropertyOp41
 70
     1
102
RTVSPropertyOp42
 70
     1
102
RTVSPropertyOp43
 70
     1
102
RTVSPropertyOp44
 70
     1
102
RTVSPropertyOp45
 70
     1
102
RTVSPropertyOp46
 70
     1
102
RTVSPropertyOp47
 70
     1
102
RTVSPropertyOp48
 70
     1
102
RTVSPropertyOp49
 70
     1
102
RTVSPropertyOp50
 70
     1
102
RTVSPropertyOp51
 70
     0
102
RTVSPropertyOp52
 70
     0
102
RTVSPropertyOp53
 70
     1
102
RTVSPropertyOp54
 70
     1
102
RTVSPropertyOp55
 70
     1
102
RTVSPropertyOp56
 70
     1
102
RTVSPropertyOp57
 70
     1
102
RTVSPropertyOp58
 70
     1
102
RTVSPropertyOp59
 70
     1
102
RTVSPropertyOp60
 70
     1
102
RTVSPropertyOp61
 70
     1
102
RTVSPropertyOp62
 70
     1
  0
XRECORD
  5
9EF6
102
{ACAD_REACTORS
330
9EF5
102
}
330
9EF5
100
AcDbXrecord
280
     1
102
RTVSPost2010Prop28
280
     0
102
RTVSPost2010PropOp28
 70
     1
102
RTVSPost2010Prop29
280
     1
102
RTVSPost2010PropOp29
 70
     1
102
RTVSPost2010Prop30
280
     1
102
RTVSPost2010PropOp30
 70
     1
102
RTVSPost2010Prop31
280
     0
102
RTVSPost2010PropOp31
 70
     1
102
RTVSPost2010Prop32
280
     0
102
RTVSPost2010PropOp32
 70
     1
102
RTVSPost2010Prop33
280
     0
102
RTVSPost2010PropOp33
 70
     1
102
RTVSPost2010Prop34
280
     0
102
RTVSPost2010PropOp34
 70
     1
102
RTVSPost2010Prop35
280
     0
102
RTVSPost2010PropOp35
 70
     1
102
RTVSPost2010Prop36
280
     0
102
RTVSPost2010PropOp36
 70
     1
102
RTVSPost2010Prop37
 90
       50
102
RTVSPost2010PropOp37
 70
     1
102
RTVSPost2010Prop38
140
0.0
102
RTVSPost2010PropOp38
 70
     1
102
RTVSPost2010Prop39
140
1.0
102
RTVSPost2010PropOp39
 70
     1
102
RTVSPost2010Prop40
 90
        0
102
RTVSPost2010PropOp40
 70
     1
102
RTVSPost2010Prop41ColorIndex
 90
       18
102
RTVSPost2010Prop41ColorRGB
 90
        0
102
RTVSPost2010PropOp41
 70
     1
102
RTVSPost2010Prop42
 90
       50
102
RTVSPost2010PropOp42
 70
     1
102
RTVSPost2010Prop43
 90
        3
102
RTVSPost2010PropOp43
 70
     1
102
RTVSPost2010Prop44ColorIndex
 90
        5
102
RTVSPost2010Prop44ColorRGB
 90
      255
102
RTVSPost2010PropOp44
 70
     1
102
RTVSPost2010Prop45
280
     0
102
RTVSPost2010PropOp45
 70
     1
102
RTVSPost2010Prop46
 90
       50
102
RTVSPost2010PropOp46
 70
     1
102
RTVSPost2010Prop47
 90
       50
102
RTVSPost2010PropOp47
 70
     1
102
RTVSPost2010Prop48
 90
       50
102
RTVSPost2010PropOp48
 70
     1
102
RTVSPost2010Prop49
280
     0
102
RTVSPost2010PropOp49
 70
     1
102
RTVSPost2010Prop50
 90
       50
102
RTVSPost2010PropOp50
 70
     1
102
RTVSPost2010Prop51ColorIndex
 90
      256
102
RTVSPost2010Prop51ColorRGB
 90
-16777216
102
RTVSPost2010PropOp51
 70
     0
102
RTVSPost2010Prop52
140
1.0
102
RTVSPost2010PropOp52
 70
     0
102
RTVSPost2010Prop53
 90
        2
102
RTVSPost2010PropOp53
 70
     1
102
RTVSPost2010Prop54
  1
strokes_ogs.tif
102
RTVSPost2010PropOp54
 70
     1
102
RTVSPost2010Prop55
280
     0
102
RTVSPost2010PropOp55
 70
     1
102
RTVSPost2010Prop56
140
1.0
102
RTVSPost2010PropOp56
 70
     1
102
RTVSPost2010Prop57
140
1.0
102
RTVSPost2010PropOp57
 70
     1
102
RTVSPropertyOp0
 70
     1
102
RTVSPropertyOp1
 70
     1
102
RTVSPropertyOp2
 70
     1
102
RTVSPropertyOp3
 70
     1
102
RTVSPropertyOp4
 70
     1
102
RTVSPropertyOp5
 70
     1
102
RTVSPropertyOp6
 70
     1
102
RTVSPropertyOp7
 70
     1
102
RTVSPropertyOp8
 70
     1
102
RTVSPropertyOp9
 70
     1
102
RTVSPropertyOp10
 70
     1
102
RTVSPropertyOp11
 70
     1
102
RTVSPropertyOp12
 70
     1
102
RTVSPropertyOp13
 70
     1
102
RTVSPropertyOp14
 70
     1
102
RTVSPropertyOp15
 70
     1
102
RTVSPropertyOp16
 70
     1
102
RTVSPropertyOp17
 70
     1
102
RTVSPropertyOp18
 70
     1
102
RTVSPropertyOp19
 70
     1
102
RTVSPropertyOp20
 70
     1
102
RTVSPropertyOp21
 70
     1
102
RTVSPropertyOp22
 70
     1
102
RTVSPropertyOp23
 70
     1
102
RTVSPropertyOp24
 70
     1
102
RTVSPropertyOp25
 70
     1
102
RTVSPropertyOp26
 70
     1
102
RTVSPropertyOp27
 70
     1
102
RTVSPropertyOp28
 70
     1
102
RTVSPropertyOp29
 70
     1
102
RTVSPropertyOp30
 70
     1
102
RTVSPropertyOp31
 70
     1
102
RTVSPropertyOp32
 70
     1
102
RTVSPropertyOp33
 70
     1
102
RTVSPropertyOp34
 70
     1
102
RTVSPropertyOp35
 70
     1
102
RTVSPropertyOp36
 70
     1
102
RTVSPropertyOp37
 70
     1
102
RTVSPropertyOp38
 70
     1
102
RTVSPropertyOp39
 70
     1
102
RTVSPropertyOp40
 70
     1
102
RTVSPropertyOp41
 70
     1
102
RTVSPropertyOp42
 70
     1
102
RTVSPropertyOp43
 70
     1
102
RTVSPropertyOp44
 70
     1
102
RTVSPropertyOp45
 70
     1
102
RTVSPropertyOp46
 70
     1
102
RTVSPropertyOp47
 70
     1
102
RTVSPropertyOp48
 70
     1
102
RTVSPropertyOp49
 70
     1
102
RTVSPropertyOp50
 70
     1
102
RTVSPropertyOp51
 70
     0
102
RTVSPropertyOp52
 70
     0
102
RTVSPropertyOp53
 70
     1
102
RTVSPropertyOp54
 70
     1
102
RTVSPropertyOp55
 70
     1
102
RTVSPropertyOp56
 70
     1
102
RTVSPropertyOp57
 70
     1
102
RTVSPropertyOp58
 70
     1
102
RTVSPropertyOp59
 70
     1
102
RTVSPropertyOp60
 70
     1
102
RTVSPropertyOp61
 70
     1
102
RTVSPropertyOp62
 70
     1
  0
XRECORD
  5
9EFE
102
{ACAD_REACTORS
330
9EFD
102
}
330
9EFD
100
AcDbXrecord
280
     1
102
RTVSPost2010Prop28
280
     0
102
RTVSPost2010PropOp28
 70
     1
102
RTVSPost2010Prop29
280
     1
102
RTVSPost2010PropOp29
 70
     1
102
RTVSPost2010Prop30
280
     1
102
RTVSPost2010PropOp30
 70
     1
102
RTVSPost2010Prop31
280
     0
102
RTVSPost2010PropOp31
 70
     1
102
RTVSPost2010Prop32
280
     0
102
RTVSPost2010PropOp32
 70
     1
102
RTVSPost2010Prop33
280
     0
102
RTVSPost2010PropOp33
 70
     1
102
RTVSPost2010Prop34
280
     0
102
RTVSPost2010PropOp34
 70
     1
102
RTVSPost2010Prop35
280
     0
102
RTVSPost2010PropOp35
 70
     1
102
RTVSPost2010Prop36
280
     0
102
RTVSPost2010PropOp36
 70
     1
102
RTVSPost2010Prop37
 90
       50
102
RTVSPost2010PropOp37
 70
     1
102
RTVSPost2010Prop38
140
0.0
102
RTVSPost2010PropOp38
 70
     1
102
RTVSPost2010Prop39
140
1.0
102
RTVSPost2010PropOp39
 70
     1
102
RTVSPost2010Prop40
 90
        0
102
RTVSPost2010PropOp40
 70
     1
102
RTVSPost2010Prop41ColorIndex
 90
       18
102
RTVSPost2010Prop41ColorRGB
 90
        0
102
RTVSPost2010PropOp41
 70
     1
102
RTVSPost2010Prop42
 90
       50
102
RTVSPost2010PropOp42
 70
     1
102
RTVSPost2010Prop43
 90
        3
102
RTVSPost2010PropOp43
 70
     1
102
RTVSPost2010Prop44ColorIndex
 90
        5
102
RTVSPost2010Prop44ColorRGB
 90
      255
102
RTVSPost2010PropOp44
 70
     1
102
RTVSPost2010Prop45
280
     0
102
RTVSPost2010PropOp45
 70
     1
102
RTVSPost2010Prop46
 90
       50
102
RTVSPost2010PropOp46
 70
     1
102
RTVSPost2010Prop47
 90
       50
102
RTVSPost2010PropOp47
 70
     1
102
RTVSPost2010Prop48
 90
       50
102
RTVSPost2010PropOp48
 70
     1
102
RTVSPost2010Prop49
280
     0
102
RTVSPost2010PropOp49
 70
     1
102
RTVSPost2010Prop50
 90
       50
102
RTVSPost2010PropOp50
 70
     1
102
RTVSPost2010Prop51ColorIndex
 90
      256
102
RTVSPost2010Prop51ColorRGB
 90
-16777216
102
RTVSPost2010PropOp51
 70
     0
102
RTVSPost2010Prop52
140
1.0
102
RTVSPost2010PropOp52
 70
     0
102
RTVSPost2010Prop53
 90
        2
102
RTVSPost2010PropOp53
 70
     1
102
RTVSPost2010Prop54
  1
strokes_ogs.tif
102
RTVSPost2010PropOp54
 70
     1
102
RTVSPost2010Prop55
280
     0
102
RTVSPost2010PropOp55
 70
     1
102
RTVSPost2010Prop56
140
1.0
102
RTVSPost2010PropOp56
 70
     1
102
RTVSPost2010Prop57
140
1.0
102
RTVSPost2010PropOp57
 70
     1
102
RTVSPropertyOp0
 70
     1
102
RTVSPropertyOp1
 70
     1
102
RTVSPropertyOp2
 70
     1
102
RTVSPropertyOp3
 70
     1
102
RTVSPropertyOp4
 70
     1
102
RTVSPropertyOp5
 70
     1
102
RTVSPropertyOp6
 70
     1
102
RTVSPropertyOp7
 70
     1
102
RTVSPropertyOp8
 70
     1
102
RTVSPropertyOp9
 70
     1
102
RTVSPropertyOp10
 70
     1
102
RTVSPropertyOp11
 70
     1
102
RTVSPropertyOp12
 70
     1
102
RTVSPropertyOp13
 70
     1
102
RTVSPropertyOp14
 70
     1
102
RTVSPropertyOp15
 70
     1
102
RTVSPropertyOp16
 70
     1
102
RTVSPropertyOp17
 70
     1
102
RTVSPropertyOp18
 70
     1
102
RTVSPropertyOp19
 70
     1
102
RTVSPropertyOp20
 70
     1
102
RTVSPropertyOp21
 70
     1
102
RTVSPropertyOp22
 70
     1
102
RTVSPropertyOp23
 70
     1
102
RTVSPropertyOp24
 70
     1
102
RTVSPropertyOp25
 70
     1
102
RTVSPropertyOp26
 70
     1
102
RTVSPropertyOp27
 70
     1
102
RTVSPropertyOp28
 70
     1
102
RTVSPropertyOp29
 70
     1
102
RTVSPropertyOp30
 70
     1
102
RTVSPropertyOp31
 70
     1
102
RTVSPropertyOp32
 70
     1
102
RTVSPropertyOp33
 70
     1
102
RTVSPropertyOp34
 70
     1
102
RTVSPropertyOp35
 70
     1
102
RTVSPropertyOp36
 70
     1
102
RTVSPropertyOp37
 70
     1
102
RTVSPropertyOp38
 70
     1
102
RTVSPropertyOp39
 70
     1
102
RTVSPropertyOp40
 70
     1
102
RTVSPropertyOp41
 70
     1
102
RTVSPropertyOp42
 70
     1
102
RTVSPropertyOp43
 70
     1
102
RTVSPropertyOp44
 70
     1
102
RTVSPropertyOp45
 70
     1
102
RTVSPropertyOp46
 70
     1
102
RTVSPropertyOp47
 70
     1
102
RTVSPropertyOp48
 70
     1
102
RTVSPropertyOp49
 70
     1
102
RTVSPropertyOp50
 70
     1
102
RTVSPropertyOp51
 70
     0
102
RTVSPropertyOp52
 70
     0
102
RTVSPropertyOp53
 70
     1
102
RTVSPropertyOp54
 70
     1
102
RTVSPropertyOp55
 70
     1
102
RTVSPropertyOp56
 70
     1
102
RTVSPropertyOp57
 70
     1
102
RTVSPropertyOp58
 70
     1
102
RTVSPropertyOp59
 70
     1
102
RTVSPropertyOp60
 70
     1
102
RTVSPropertyOp61
 70
     1
102
RTVSPropertyOp62
 70
     1
  0
XRECORD
  5
9F1A
102
{ACAD_REACTORS
330
9F19
102
}
330
9F19
100
AcDbXrecord
280
     1
102
RTVSPost2010Prop28
280
     0
102
RTVSPost2010PropOp28
 70
     1
102
RTVSPost2010Prop29
280
     1
102
RTVSPost2010PropOp29
 70
     1
102
RTVSPost2010Prop30
280
     1
102
RTVSPost2010PropOp30
 70
     1
102
RTVSPost2010Prop31
280
     0
102
RTVSPost2010PropOp31
 70
     1
102
RTVSPost2010Prop32
280
     0
102
RTVSPost2010PropOp32
 70
     1
102
RTVSPost2010Prop33
280
     0
102
RTVSPost2010PropOp33
 70
     1
102
RTVSPost2010Prop34
280
     0
102
RTVSPost2010PropOp34
 70
     1
102
RTVSPost2010Prop35
280
     0
102
RTVSPost2010PropOp35
 70
     1
102
RTVSPost2010Prop36
280
     0
102
RTVSPost2010PropOp36
 70
     1
102
RTVSPost2010Prop37
 90
       50
102
RTVSPost2010PropOp37
 70
     0
102
RTVSPost2010Prop38
140
0.0
102
RTVSPost2010PropOp38
 70
     0
102
RTVSPost2010Prop39
140
1.0
102
RTVSPost2010PropOp39
 70
     0
102
RTVSPost2010Prop40
 90
        0
102
RTVSPost2010PropOp40
 70
     0
102
RTVSPost2010Prop41ColorIndex
 90
       18
102
RTVSPost2010Prop41ColorRGB
 90
        0
102
RTVSPost2010PropOp41
 70
     0
102
RTVSPost2010Prop42
 90
       50
102
RTVSPost2010PropOp42
 70
     0
102
RTVSPost2010Prop43
 90
        3
102
RTVSPost2010PropOp43
 70
     0
102
RTVSPost2010Prop44ColorIndex
 90
        5
102
RTVSPost2010Prop44ColorRGB
 90
      255
102
RTVSPost2010PropOp44
 70
     0
102
RTVSPost2010Prop45
280
     0
102
RTVSPost2010PropOp45
 70
     1
102
RTVSPost2010Prop46
 90
       50
102
RTVSPost2010PropOp46
 70
     0
102
RTVSPost2010Prop47
 90
       50
102
RTVSPost2010PropOp47
 70
     0
102
RTVSPost2010Prop48
 90
       50
102
RTVSPost2010PropOp48
 70
     0
102
RTVSPost2010Prop49
280
     0
102
RTVSPost2010PropOp49
 70
     1
102
RTVSPost2010Prop50
 90
       50
102
RTVSPost2010PropOp50
 70
     0
102
RTVSPost2010Prop51ColorIndex
 90
      256
102
RTVSPost2010Prop51ColorRGB
 90
-16777216
102
RTVSPost2010PropOp51
 70
     0
102
RTVSPost2010Prop52
140
1.0
102
RTVSPost2010PropOp52
 70
     0
102
RTVSPost2010Prop53
 90
        2
102
RTVSPost2010PropOp53
 70
     0
102
RTVSPost2010Prop54
  1
strokes_ogs.tif
102
RTVSPost2010PropOp54
 70
     0
102
RTVSPost2010Prop55
280
     0
102
RTVSPost2010PropOp55
 70
     1
102
RTVSPost2010Prop56
140
1.0
102
RTVSPost2010PropOp56
 70
     0
102
RTVSPost2010Prop57
140
1.0
102
RTVSPost2010PropOp57
 70
     0
102
RTVSPropertyOp0
 70
     0
102
RTVSPropertyOp1
 70
     0
102
RTVSPropertyOp2
 70
     0
102
RTVSPropertyOp3
 70
     0
102
RTVSPropertyOp4
 70
     0
102
RTVSPropertyOp5
 70
     0
102
RTVSPropertyOp6
 70
     0
102
RTVSPropertyOp7
 70
     0
102
RTVSPropertyOp8
 70
     0
102
RTVSPropertyOp9
 70
     0
102
RTVSPropertyOp10
 70
     0
102
RTVSPropertyOp11
 70
     0
102
RTVSPropertyOp12
 70
     0
102
RTVSPropertyOp13
 70
     0
102
RTVSPropertyOp14
 70
     2
102
RTVSPropertyOp15
 70
     0
102
RTVSPropertyOp16
 70
     0
102
RTVSPropertyOp17
 70
     0
102
RTVSPropertyOp18
 70
     0
102
RTVSPropertyOp19
 70
     0
102
RTVSPropertyOp20
 70
     0
102
RTVSPropertyOp21
 70
     0
102
RTVSPropertyOp22
 70
     0
102
RTVSPropertyOp23
 70
     0
102
RTVSPropertyOp24
 70
     0
102
RTVSPropertyOp25
 70
     0
102
RTVSPropertyOp26
 70
     0
102
RTVSPropertyOp27
 70
     0
102
RTVSPropertyOp28
 70
     1
102
RTVSPropertyOp29
 70
     1
102
RTVSPropertyOp30
 70
     1
102
RTVSPropertyOp31
 70
     1
102
RTVSPropertyOp32
 70
     1
102
RTVSPropertyOp33
 70
     1
102
RTVSPropertyOp34
 70
     1
102
RTVSPropertyOp35
 70
     1
102
RTVSPropertyOp36
 70
     1
102
RTVSPropertyOp37
 70
     0
102
RTVSPropertyOp38
 70
     0
102
RTVSPropertyOp39
 70
     0
102
RTVSPropertyOp40
 70
     0
102
RTVSPropertyOp41
 70
     0
102
RTVSPropertyOp42
 70
     0
102
RTVSPropertyOp43
 70
     0
102
RTVSPropertyOp44
 70
     0
102
RTVSPropertyOp45
 70
     1
102
RTVSPropertyOp46
 70
     0
102
RTVSPropertyOp47
 70
     0
102
RTVSPropertyOp48
 70
     0
102
RTVSPropertyOp49
 70
     1
102
RTVSPropertyOp50
 70
     0
102
RTVSPropertyOp51
 70
     0
102
RTVSPropertyOp52
 70
     0
102
RTVSPropertyOp53
 70
     0
102
RTVSPropertyOp54
 70
     0
102
RTVSPropertyOp55
 70
     1
102
RTVSPropertyOp56
 70
     0
102
RTVSPropertyOp57
 70
     0
102
RTVSPropertyOp58
 70
     0
102
RTVSPropertyOp59
 70
     0
102
RTVSPropertyOp60
 70
     0
102
RTVSPropertyOp61
 70
     0
102
RTVSPropertyOp62
 70
     0
  0
XRECORD
  5
9F0A
102
{ACAD_REACTORS
330
9F09
102
}
330
9F09
100
AcDbXrecord
280
     1
102
RTVSPost2010Prop28
280
     0
102
RTVSPost2010PropOp28
 70
     1
102
RTVSPost2010Prop29
280
     1
102
RTVSPost2010PropOp29
 70
     1
102
RTVSPost2010Prop30
280
     1
102
RTVSPost2010PropOp30
 70
     1
102
RTVSPost2010Prop31
280
     0
102
RTVSPost2010PropOp31
 70
     1
102
RTVSPost2010Prop32
280
     0
102
RTVSPost2010PropOp32
 70
     1
102
RTVSPost2010Prop33
280
     0
102
RTVSPost2010PropOp33
 70
     1
102
RTVSPost2010Prop34
280
     0
102
RTVSPost2010PropOp34
 70
     1
102
RTVSPost2010Prop35
280
     0
102
RTVSPost2010PropOp35
 70
     1
102
RTVSPost2010Prop36
280
     0
102
RTVSPost2010PropOp36
 70
     1
102
RTVSPost2010Prop37
 90
       50
102
RTVSPost2010PropOp37
 70
     1
102
RTVSPost2010Prop38
140
0.0
102
RTVSPost2010PropOp38
 70
     1
102
RTVSPost2010Prop39
140
1.0
102
RTVSPost2010PropOp39
 70
     1
102
RTVSPost2010Prop40
 90
        0
102
RTVSPost2010PropOp40
 70
     1
102
RTVSPost2010Prop41ColorIndex
 90
       18
102
RTVSPost2010Prop41ColorRGB
 90
        0
102
RTVSPost2010PropOp41
 70
     1
102
RTVSPost2010Prop42
 90
       50
102
RTVSPost2010PropOp42
 70
     1
102
RTVSPost2010Prop43
 90
        3
102
RTVSPost2010PropOp43
 70
     1
102
RTVSPost2010Prop44ColorIndex
 90
        5
102
RTVSPost2010Prop44ColorRGB
 90
      255
102
RTVSPost2010PropOp44
 70
     1
102
RTVSPost2010Prop45
280
     0
102
RTVSPost2010PropOp45
 70
     1
102
RTVSPost2010Prop46
 90
       50
102
RTVSPost2010PropOp46
 70
     1
102
RTVSPost2010Prop47
 90
       50
102
RTVSPost2010PropOp47
 70
     1
102
RTVSPost2010Prop48
 90
       50
102
RTVSPost2010PropOp48
 70
     1
102
RTVSPost2010Prop49
280
     0
102
RTVSPost2010PropOp49
 70
     1
102
RTVSPost2010Prop50
 90
       50
102
RTVSPost2010PropOp50
 70
     1
102
RTVSPost2010Prop51ColorIndex
 90
      256
102
RTVSPost2010Prop51ColorRGB
 90
-16777216
102
RTVSPost2010PropOp51
 70
     0
102
RTVSPost2010Prop52
140
1.0
102
RTVSPost2010PropOp52
 70
     0
102
RTVSPost2010Prop53
 90
        2
102
RTVSPost2010PropOp53
 70
     1
102
RTVSPost2010Prop54
  1
strokes_ogs.tif
102
RTVSPost2010PropOp54
 70
     1
102
RTVSPost2010Prop55
280
     0
102
RTVSPost2010PropOp55
 70
     1
102
RTVSPost2010Prop56
140
1.0
102
RTVSPost2010PropOp56
 70
     1
102
RTVSPost2010Prop57
140
1.0
102
RTVSPost2010PropOp57
 70
     1
102
RTVSPropertyOp0
 70
     1
102
RTVSPropertyOp1
 70
     1
102
RTVSPropertyOp2
 70
     1
102
RTVSPropertyOp3
 70
     1
102
RTVSPropertyOp4
 70
     1
102
RTVSPropertyOp5
 70
     1
102
RTVSPropertyOp6
 70
     1
102
RTVSPropertyOp7
 70
     1
102
RTVSPropertyOp8
 70
     1
102
RTVSPropertyOp9
 70
     1
102
RTVSPropertyOp10
 70
     1
102
RTVSPropertyOp11
 70
     1
102
RTVSPropertyOp12
 70
     1
102
RTVSPropertyOp13
 70
     1
102
RTVSPropertyOp14
 70
     1
102
RTVSPropertyOp15
 70
     1
102
RTVSPropertyOp16
 70
     1
102
RTVSPropertyOp17
 70
     1
102
RTVSPropertyOp18
 70
     1
102
RTVSPropertyOp19
 70
     1
102
RTVSPropertyOp20
 70
     1
102
RTVSPropertyOp21
 70
     1
102
RTVSPropertyOp22
 70
     1
102
RTVSPropertyOp23
 70
     1
102
RTVSPropertyOp24
 70
     1
102
RTVSPropertyOp25
 70
     1
102
RTVSPropertyOp26
 70
     1
102
RTVSPropertyOp27
 70
     1
102
RTVSPropertyOp28
 70
     1
102
RTVSPropertyOp29
 70
     1
102
RTVSPropertyOp30
 70
     1
102
RTVSPropertyOp31
 70
     1
102
RTVSPropertyOp32
 70
     1
102
RTVSPropertyOp33
 70
     1
102
RTVSPropertyOp34
 70
     1
102
RTVSPropertyOp35
 70
     1
102
RTVSPropertyOp36
 70
     1
102
RTVSPropertyOp37
 70
     1
102
RTVSPropertyOp38
 70
     1
102
RTVSPropertyOp39
 70
     1
102
RTVSPropertyOp40
 70
     1
102
RTVSPropertyOp41
 70
     1
102
RTVSPropertyOp42
 70
     1
102
RTVSPropertyOp43
 70
     1
102
RTVSPropertyOp44
 70
     1
102
RTVSPropertyOp45
 70
     1
102
RTVSPropertyOp46
 70
     1
102
RTVSPropertyOp47
 70
     1
102
RTVSPropertyOp48
 70
     1
102
RTVSPropertyOp49
 70
     1
102
RTVSPropertyOp50
 70
     1
102
RTVSPropertyOp51
 70
     0
102
RTVSPropertyOp52
 70
     0
102
RTVSPropertyOp53
 70
     1
102
RTVSPropertyOp54
 70
     1
102
RTVSPropertyOp55
 70
     1
102
RTVSPropertyOp56
 70
     1
102
RTVSPropertyOp57
 70
     1
102
RTVSPropertyOp58
 70
     1
102
RTVSPropertyOp59
 70
     1
102
RTVSPropertyOp60
 70
     1
102
RTVSPropertyOp61
 70
     1
102
RTVSPropertyOp62
 70
     1
  0
XRECORD
  5
9F1C
102
{ACAD_REACTORS
330
9F1B
102
}
330
9F1B
100
AcDbXrecord
280
     1
102
RTVSPost2010Prop28
280
     0
102
RTVSPost2010PropOp28
 70
     1
102
RTVSPost2010Prop29
280
     1
102
RTVSPost2010PropOp29
 70
     1
102
RTVSPost2010Prop30
280
     1
102
RTVSPost2010PropOp30
 70
     1
102
RTVSPost2010Prop31
280
     0
102
RTVSPost2010PropOp31
 70
     1
102
RTVSPost2010Prop32
280
     0
102
RTVSPost2010PropOp32
 70
     1
102
RTVSPost2010Prop33
280
     0
102
RTVSPost2010PropOp33
 70
     1
102
RTVSPost2010Prop34
280
     0
102
RTVSPost2010PropOp34
 70
     1
102
RTVSPost2010Prop35
280
     0
102
RTVSPost2010PropOp35
 70
     1
102
RTVSPost2010Prop36
280
     0
102
RTVSPost2010PropOp36
 70
     1
102
RTVSPost2010Prop37
 90
       50
102
RTVSPost2010PropOp37
 70
     0
102
RTVSPost2010Prop38
140
0.0
102
RTVSPost2010PropOp38
 70
     0
102
RTVSPost2010Prop39
140
1.0
102
RTVSPost2010PropOp39
 70
     0
102
RTVSPost2010Prop40
 90
        0
102
RTVSPost2010PropOp40
 70
     0
102
RTVSPost2010Prop41ColorIndex
 90
       18
102
RTVSPost2010Prop41ColorRGB
 90
        0
102
RTVSPost2010PropOp41
 70
     0
102
RTVSPost2010Prop42
 90
       50
102
RTVSPost2010PropOp42
 70
     0
102
RTVSPost2010Prop43
 90
        3
102
RTVSPost2010PropOp43
 70
     0
102
RTVSPost2010Prop44ColorIndex
 90
        5
102
RTVSPost2010Prop44ColorRGB
 90
      255
102
RTVSPost2010PropOp44
 70
     0
102
RTVSPost2010Prop45
280
     0
102
RTVSPost2010PropOp45
 70
     1
102
RTVSPost2010Prop46
 90
       50
102
RTVSPost2010PropOp46
 70
     0
102
RTVSPost2010Prop47
 90
       50
102
RTVSPost2010PropOp47
 70
     0
102
RTVSPost2010Prop48
 90
       50
102
RTVSPost2010PropOp48
 70
     0
102
RTVSPost2010Prop49
280
     0
102
RTVSPost2010PropOp49
 70
     1
102
RTVSPost2010Prop50
 90
       50
102
RTVSPost2010PropOp50
 70
     0
102
RTVSPost2010Prop51ColorIndex
 90
      256
102
RTVSPost2010Prop51ColorRGB
 90
-16777216
102
RTVSPost2010PropOp51
 70
     0
102
RTVSPost2010Prop52
140
1.0
102
RTVSPost2010PropOp52
 70
     0
102
RTVSPost2010Prop53
 90
        2
102
RTVSPost2010PropOp53
 70
     0
102
RTVSPost2010Prop54
  1
strokes_ogs.tif
102
RTVSPost2010PropOp54
 70
     0
102
RTVSPost2010Prop55
280
     0
102
RTVSPost2010PropOp55
 70
     1
102
RTVSPost2010Prop56
140
1.0
102
RTVSPost2010PropOp56
 70
     0
102
RTVSPost2010Prop57
140
1.0
102
RTVSPost2010PropOp57
 70
     0
102
RTVSPropertyOp0
 70
     0
102
RTVSPropertyOp1
 70
     0
102
RTVSPropertyOp2
 70
     0
102
RTVSPropertyOp3
 70
     0
102
RTVSPropertyOp4
 70
     0
102
RTVSPropertyOp5
 70
     0
102
RTVSPropertyOp6
 70
     0
102
RTVSPropertyOp7
 70
     0
102
RTVSPropertyOp8
 70
     0
102
RTVSPropertyOp9
 70
     0
102
RTVSPropertyOp10
 70
     0
102
RTVSPropertyOp11
 70
     0
102
RTVSPropertyOp12
 70
     0
102
RTVSPropertyOp13
 70
     0
102
RTVSPropertyOp14
 70
     2
102
RTVSPropertyOp15
 70
     0
102
RTVSPropertyOp16
 70
     0
102
RTVSPropertyOp17
 70
     0
102
RTVSPropertyOp18
 70
     0
102
RTVSPropertyOp19
 70
     0
102
RTVSPropertyOp20
 70
     0
102
RTVSPropertyOp21
 70
     0
102
RTVSPropertyOp22
 70
     0
102
RTVSPropertyOp23
 70
     0
102
RTVSPropertyOp24
 70
     0
102
RTVSPropertyOp25
 70
     0
102
RTVSPropertyOp26
 70
     0
102
RTVSPropertyOp27
 70
     0
102
RTVSPropertyOp28
 70
     1
102
RTVSPropertyOp29
 70
     1
102
RTVSPropertyOp30
 70
     1
102
RTVSPropertyOp31
 70
     1
102
RTVSPropertyOp32
 70
     1
102
RTVSPropertyOp33
 70
     1
102
RTVSPropertyOp34
 70
     1
102
RTVSPropertyOp35
 70
     1
102
RTVSPropertyOp36
 70
     1
102
RTVSPropertyOp37
 70
     0
102
RTVSPropertyOp38
 70
     0
102
RTVSPropertyOp39
 70
     0
102
RTVSPropertyOp40
 70
     0
102
RTVSPropertyOp41
 70
     0
102
RTVSPropertyOp42
 70
     0
102
RTVSPropertyOp43
 70
     0
102
RTVSPropertyOp44
 70
     0
102
RTVSPropertyOp45
 70
     1
102
RTVSPropertyOp46
 70
     0
102
RTVSPropertyOp47
 70
     0
102
RTVSPropertyOp48
 70
     0
102
RTVSPropertyOp49
 70
     1
102
RTVSPropertyOp50
 70
     0
102
RTVSPropertyOp51
 70
     0
102
RTVSPropertyOp52
 70
     0
102
RTVSPropertyOp53
 70
     0
102
RTVSPropertyOp54
 70
     0
102
RTVSPropertyOp55
 70
     1
102
RTVSPropertyOp56
 70
     0
102
RTVSPropertyOp57
 70
     0
102
RTVSPropertyOp58
 70
     0
102
RTVSPropertyOp59
 70
     0
102
RTVSPropertyOp60
 70
     0
102
RTVSPropertyOp61
 70
     0
102
RTVSPropertyOp62
 70
     0
  0
XRECORD
  5
9F02
102
{ACAD_REACTORS
330
9F01
102
}
330
9F01
100
AcDbXrecord
280
     1
102
RTVSPost2010Prop28
280
     0
102
RTVSPost2010PropOp28
 70
     1
102
RTVSPost2010Prop29
280
     1
102
RTVSPost2010PropOp29
 70
     1
102
RTVSPost2010Prop30
280
     1
102
RTVSPost2010PropOp30
 70
     1
102
RTVSPost2010Prop31
280
     0
102
RTVSPost2010PropOp31
 70
     1
102
RTVSPost2010Prop32
280
     0
102
RTVSPost2010PropOp32
 70
     1
102
RTVSPost2010Prop33
280
     0
102
RTVSPost2010PropOp33
 70
     1
102
RTVSPost2010Prop34
280
     0
102
RTVSPost2010PropOp34
 70
     1
102
RTVSPost2010Prop35
280
     0
102
RTVSPost2010PropOp35
 70
     1
102
RTVSPost2010Prop36
280
     0
102
RTVSPost2010PropOp36
 70
     1
102
RTVSPost2010Prop37
 90
       50
102
RTVSPost2010PropOp37
 70
     1
102
RTVSPost2010Prop38
140
0.0
102
RTVSPost2010PropOp38
 70
     1
102
RTVSPost2010Prop39
140
1.0
102
RTVSPost2010PropOp39
 70
     1
102
RTVSPost2010Prop40
 90
        0
102
RTVSPost2010PropOp40
 70
     1
102
RTVSPost2010Prop41ColorIndex
 90
       18
102
RTVSPost2010Prop41ColorRGB
 90
        0
102
RTVSPost2010PropOp41
 70
     1
102
RTVSPost2010Prop42
 90
       50
102
RTVSPost2010PropOp42
 70
     1
102
RTVSPost2010Prop43
 90
        3
102
RTVSPost2010PropOp43
 70
     1
102
RTVSPost2010Prop44ColorIndex
 90
        5
102
RTVSPost2010Prop44ColorRGB
 90
      255
102
RTVSPost2010PropOp44
 70
     1
102
RTVSPost2010Prop45
280
     0
102
RTVSPost2010PropOp45
 70
     1
102
RTVSPost2010Prop46
 90
       50
102
RTVSPost2010PropOp46
 70
     1
102
RTVSPost2010Prop47
 90
       50
102
RTVSPost2010PropOp47
 70
     1
102
RTVSPost2010Prop48
 90
       50
102
RTVSPost2010PropOp48
 70
     1
102
RTVSPost2010Prop49
280
     0
102
RTVSPost2010PropOp49
 70
     1
102
RTVSPost2010Prop50
 90
       50
102
RTVSPost2010PropOp50
 70
     1
102
RTVSPost2010Prop51ColorIndex
 90
      256
102
RTVSPost2010Prop51ColorRGB
 90
-16777216
102
RTVSPost2010PropOp51
 70
     0
102
RTVSPost2010Prop52
140
1.0
102
RTVSPost2010PropOp52
 70
     0
102
RTVSPost2010Prop53
 90
        2
102
RTVSPost2010PropOp53
 70
     1
102
RTVSPost2010Prop54
  1
strokes_ogs.tif
102
RTVSPost2010PropOp54
 70
     1
102
RTVSPost2010Prop55
280
     0
102
RTVSPost2010PropOp55
 70
     1
102
RTVSPost2010Prop56
140
1.0
102
RTVSPost2010PropOp56
 70
     1
102
RTVSPost2010Prop57
140
1.0
102
RTVSPost2010PropOp57
 70
     1
102
RTVSPropertyOp0
 70
     1
102
RTVSPropertyOp1
 70
     1
102
RTVSPropertyOp2
 70
     1
102
RTVSPropertyOp3
 70
     1
102
RTVSPropertyOp4
 70
     1
102
RTVSPropertyOp5
 70
     1
102
RTVSPropertyOp6
 70
     1
102
RTVSPropertyOp7
 70
     1
102
RTVSPropertyOp8
 70
     1
102
RTVSPropertyOp9
 70
     1
102
RTVSPropertyOp10
 70
     1
102
RTVSPropertyOp11
 70
     1
102
RTVSPropertyOp12
 70
     1
102
RTVSPropertyOp13
 70
     1
102
RTVSPropertyOp14
 70
     1
102
RTVSPropertyOp15
 70
     1
102
RTVSPropertyOp16
 70
     1
102
RTVSPropertyOp17
 70
     1
102
RTVSPropertyOp18
 70
     1
102
RTVSPropertyOp19
 70
     1
102
RTVSPropertyOp20
 70
     1
102
RTVSPropertyOp21
 70
     1
102
RTVSPropertyOp22
 70
     1
102
RTVSPropertyOp23
 70
     1
102
RTVSPropertyOp24
 70
     1
102
RTVSPropertyOp25
 70
     1
102
RTVSPropertyOp26
 70
     1
102
RTVSPropertyOp27
 70
     1
102
RTVSPropertyOp28
 70
     1
102
RTVSPropertyOp29
 70
     1
102
RTVSPropertyOp30
 70
     1
102
RTVSPropertyOp31
 70
     1
102
RTVSPropertyOp32
 70
     1
102
RTVSPropertyOp33
 70
     1
102
RTVSPropertyOp34
 70
     1
102
RTVSPropertyOp35
 70
     1
102
RTVSPropertyOp36
 70
     1
102
RTVSPropertyOp37
 70
     1
102
RTVSPropertyOp38
 70
     1
102
RTVSPropertyOp39
 70
     1
102
RTVSPropertyOp40
 70
     1
102
RTVSPropertyOp41
 70
     1
102
RTVSPropertyOp42
 70
     1
102
RTVSPropertyOp43
 70
     1
102
RTVSPropertyOp44
 70
     1
102
RTVSPropertyOp45
 70
     1
102
RTVSPropertyOp46
 70
     1
102
RTVSPropertyOp47
 70
     1
102
RTVSPropertyOp48
 70
     1
102
RTVSPropertyOp49
 70
     1
102
RTVSPropertyOp50
 70
     1
102
RTVSPropertyOp51
 70
     0
102
RTVSPropertyOp52
 70
     0
102
RTVSPropertyOp53
 70
     1
102
RTVSPropertyOp54
 70
     1
102
RTVSPropertyOp55
 70
     1
102
RTVSPropertyOp56
 70
     1
102
RTVSPropertyOp57
 70
     1
102
RTVSPropertyOp58
 70
     1
102
RTVSPropertyOp59
 70
     1
102
RTVSPropertyOp60
 70
     1
102
RTVSPropertyOp61
 70
     1
102
RTVSPropertyOp62
 70
     1
  0
XRECORD
  5
9F18
102
{ACAD_REACTORS
330
9F17
102
}
330
9F17
100
AcDbXrecord
280
     1
102
RTVSPost2010Prop28
280
     0
102
RTVSPost2010PropOp28
 70
     1
102
RTVSPost2010Prop29
280
     1
102
RTVSPost2010PropOp29
 70
     1
102
RTVSPost2010Prop30
280
     1
102
RTVSPost2010PropOp30
 70
     1
102
RTVSPost2010Prop31
280
     0
102
RTVSPost2010PropOp31
 70
     1
102
RTVSPost2010Prop32
280
     0
102
RTVSPost2010PropOp32
 70
     1
102
RTVSPost2010Prop33
280
     0
102
RTVSPost2010PropOp33
 70
     1
102
RTVSPost2010Prop34
280
     0
102
RTVSPost2010PropOp34
 70
     1
102
RTVSPost2010Prop35
280
     0
102
RTVSPost2010PropOp35
 70
     1
102
RTVSPost2010Prop36
280
     0
102
RTVSPost2010PropOp36
 70
     1
102
RTVSPost2010Prop37
 90
       50
102
RTVSPost2010PropOp37
 70
     1
102
RTVSPost2010Prop38
140
0.0
102
RTVSPost2010PropOp38
 70
     1
102
RTVSPost2010Prop39
140
1.0
102
RTVSPost2010PropOp39
 70
     1
102
RTVSPost2010Prop40
 90
        0
102
RTVSPost2010PropOp40
 70
     1
102
RTVSPost2010Prop41ColorIndex
 90
       18
102
RTVSPost2010Prop41ColorRGB
 90
        0
102
RTVSPost2010PropOp41
 70
     1
102
RTVSPost2010Prop42
 90
       50
102
RTVSPost2010PropOp42
 70
     1
102
RTVSPost2010Prop43
 90
        3
102
RTVSPost2010PropOp43
 70
     1
102
RTVSPost2010Prop44ColorIndex
 90
        5
102
RTVSPost2010Prop44ColorRGB
 90
      255
102
RTVSPost2010PropOp44
 70
     1
102
RTVSPost2010Prop45
280
     0
102
RTVSPost2010PropOp45
 70
     1
102
RTVSPost2010Prop46
 90
       50
102
RTVSPost2010PropOp46
 70
     1
102
RTVSPost2010Prop47
 90
       50
102
RTVSPost2010PropOp47
 70
     1
102
RTVSPost2010Prop48
 90
       50
102
RTVSPost2010PropOp48
 70
     1
102
RTVSPost2010Prop49
280
     0
102
RTVSPost2010PropOp49
 70
     1
102
RTVSPost2010Prop50
 90
       50
102
RTVSPost2010PropOp50
 70
     1
102
RTVSPost2010Prop51ColorIndex
 90
      256
102
RTVSPost2010Prop51ColorRGB
 90
-16777216
102
RTVSPost2010PropOp51
 70
     0
102
RTVSPost2010Prop52
140
1.0
102
RTVSPost2010PropOp52
 70
     0
102
RTVSPost2010Prop53
 90
        2
102
RTVSPost2010PropOp53
 70
     1
102
RTVSPost2010Prop54
  1
strokes_ogs.tif
102
RTVSPost2010PropOp54
 70
     1
102
RTVSPost2010Prop55
280
     0
102
RTVSPost2010PropOp55
 70
     1
102
RTVSPost2010Prop56
140
1.0
102
RTVSPost2010PropOp56
 70
     1
102
RTVSPost2010Prop57
140
1.0
102
RTVSPost2010PropOp57
 70
     1
102
RTVSPropertyOp0
 70
     1
102
RTVSPropertyOp1
 70
     1
102
RTVSPropertyOp2
 70
     1
102
RTVSPropertyOp3
 70
     1
102
RTVSPropertyOp4
 70
     1
102
RTVSPropertyOp5
 70
     1
102
RTVSPropertyOp6
 70
     1
102
RTVSPropertyOp7
 70
     1
102
RTVSPropertyOp8
 70
     1
102
RTVSPropertyOp9
 70
     1
102
RTVSPropertyOp10
 70
     1
102
RTVSPropertyOp11
 70
     1
102
RTVSPropertyOp12
 70
     1
102
RTVSPropertyOp13
 70
     1
102
RTVSPropertyOp14
 70
     1
102
RTVSPropertyOp15
 70
     1
102
RTVSPropertyOp16
 70
     1
102
RTVSPropertyOp17
 70
     1
102
RTVSPropertyOp18
 70
     1
102
RTVSPropertyOp19
 70
     1
102
RTVSPropertyOp20
 70
     1
102
RTVSPropertyOp21
 70
     1
102
RTVSPropertyOp22
 70
     1
102
RTVSPropertyOp23
 70
     1
102
RTVSPropertyOp24
 70
     1
102
RTVSPropertyOp25
 70
     1
102
RTVSPropertyOp26
 70
     1
102
RTVSPropertyOp27
 70
     1
102
RTVSPropertyOp28
 70
     1
102
RTVSPropertyOp29
 70
     1
102
RTVSPropertyOp30
 70
     1
102
RTVSPropertyOp31
 70
     1
102
RTVSPropertyOp32
 70
     1
102
RTVSPropertyOp33
 70
     1
102
RTVSPropertyOp34
 70
     1
102
RTVSPropertyOp35
 70
     1
102
RTVSPropertyOp36
 70
     1
102
RTVSPropertyOp37
 70
     1
102
RTVSPropertyOp38
 70
     1
102
RTVSPropertyOp39
 70
     1
102
RTVSPropertyOp40
 70
     1
102
RTVSPropertyOp41
 70
     1
102
RTVSPropertyOp42
 70
     1
102
RTVSPropertyOp43
 70
     1
102
RTVSPropertyOp44
 70
     1
102
RTVSPropertyOp45
 70
     1
102
RTVSPropertyOp46
 70
     1
102
RTVSPropertyOp47
 70
     1
102
RTVSPropertyOp48
 70
     1
102
RTVSPropertyOp49
 70
     1
102
RTVSPropertyOp50
 70
     1
102
RTVSPropertyOp51
 70
     0
102
RTVSPropertyOp52
 70
     0
102
RTVSPropertyOp53
 70
     1
102
RTVSPropertyOp54
 70
     1
102
RTVSPropertyOp55
 70
     1
102
RTVSPropertyOp56
 70
     1
102
RTVSPropertyOp57
 70
     1
102
RTVSPropertyOp58
 70
     1
102
RTVSPropertyOp59
 70
     1
102
RTVSPropertyOp60
 70
     1
102
RTVSPropertyOp61
 70
     1
102
RTVSPropertyOp62
 70
     1
  0
XRECORD
  5
9F16
102
{ACAD_REACTORS
330
9F15
102
}
330
9F15
100
AcDbXrecord
280
     1
102
RTVSPost2010Prop28
280
     0
102
RTVSPost2010PropOp28
 70
     1
102
RTVSPost2010Prop29
280
     1
102
RTVSPost2010PropOp29
 70
     1
102
RTVSPost2010Prop30
280
     1
102
RTVSPost2010PropOp30
 70
     1
102
RTVSPost2010Prop31
280
     0
102
RTVSPost2010PropOp31
 70
     1
102
RTVSPost2010Prop32
280
     0
102
RTVSPost2010PropOp32
 70
     1
102
RTVSPost2010Prop33
280
     0
102
RTVSPost2010PropOp33
 70
     1
102
RTVSPost2010Prop34
280
     0
102
RTVSPost2010PropOp34
 70
     1
102
RTVSPost2010Prop35
280
     0
102
RTVSPost2010PropOp35
 70
     1
102
RTVSPost2010Prop36
280
     0
102
RTVSPost2010PropOp36
 70
     1
102
RTVSPost2010Prop37
 90
       50
102
RTVSPost2010PropOp37
 70
     1
102
RTVSPost2010Prop38
140
0.0
102
RTVSPost2010PropOp38
 70
     1
102
RTVSPost2010Prop39
140
1.0
102
RTVSPost2010PropOp39
 70
     1
102
RTVSPost2010Prop40
 90
        0
102
RTVSPost2010PropOp40
 70
     1
102
RTVSPost2010Prop41ColorIndex
 90
       18
102
RTVSPost2010Prop41ColorRGB
 90
        0
102
RTVSPost2010PropOp41
 70
     1
102
RTVSPost2010Prop42
 90
       50
102
RTVSPost2010PropOp42
 70
     1
102
RTVSPost2010Prop43
 90
        3
102
RTVSPost2010PropOp43
 70
     1
102
RTVSPost2010Prop44ColorIndex
 90
        5
102
RTVSPost2010Prop44ColorRGB
 90
      255
102
RTVSPost2010PropOp44
 70
     1
102
RTVSPost2010Prop45
280
     0
102
RTVSPost2010PropOp45
 70
     1
102
RTVSPost2010Prop46
 90
       50
102
RTVSPost2010PropOp46
 70
     1
102
RTVSPost2010Prop47
 90
       50
102
RTVSPost2010PropOp47
 70
     1
102
RTVSPost2010Prop48
 90
       50
102
RTVSPost2010PropOp48
 70
     1
102
RTVSPost2010Prop49
280
     0
102
RTVSPost2010PropOp49
 70
     1
102
RTVSPost2010Prop50
 90
       50
102
RTVSPost2010PropOp50
 70
     1
102
RTVSPost2010Prop51ColorIndex
 90
      256
102
RTVSPost2010Prop51ColorRGB
 90
-16777216
102
RTVSPost2010PropOp51
 70
     0
102
RTVSPost2010Prop52
140
1.0
102
RTVSPost2010PropOp52
 70
     0
102
RTVSPost2010Prop53
 90
        2
102
RTVSPost2010PropOp53
 70
     1
102
RTVSPost2010Prop54
  1
strokes_ogs.tif
102
RTVSPost2010PropOp54
 70
     1
102
RTVSPost2010Prop55
280
     0
102
RTVSPost2010PropOp55
 70
     1
102
RTVSPost2010Prop56
140
1.0
102
RTVSPost2010PropOp56
 70
     1
102
RTVSPost2010Prop57
140
1.0
102
RTVSPost2010PropOp57
 70
     1
102
RTVSPropertyOp0
 70
     1
102
RTVSPropertyOp1
 70
     1
102
RTVSPropertyOp2
 70
     1
102
RTVSPropertyOp3
 70
     1
102
RTVSPropertyOp4
 70
     1
102
RTVSPropertyOp5
 70
     1
102
RTVSPropertyOp6
 70
     1
102
RTVSPropertyOp7
 70
     1
102
RTVSPropertyOp8
 70
     1
102
RTVSPropertyOp9
 70
     1
102
RTVSPropertyOp10
 70
     1
102
RTVSPropertyOp11
 70
     1
102
RTVSPropertyOp12
 70
     1
102
RTVSPropertyOp13
 70
     1
102
RTVSPropertyOp14
 70
     1
102
RTVSPropertyOp15
 70
     1
102
RTVSPropertyOp16
 70
     1
102
RTVSPropertyOp17
 70
     1
102
RTVSPropertyOp18
 70
     1
102
RTVSPropertyOp19
 70
     1
102
RTVSPropertyOp20
 70
     1
102
RTVSPropertyOp21
 70
     1
102
RTVSPropertyOp22
 70
     1
102
RTVSPropertyOp23
 70
     1
102
RTVSPropertyOp24
 70
     1
102
RTVSPropertyOp25
 70
     1
102
RTVSPropertyOp26
 70
     1
102
RTVSPropertyOp27
 70
     1
102
RTVSPropertyOp28
 70
     1
102
RTVSPropertyOp29
 70
     1
102
RTVSPropertyOp30
 70
     1
102
RTVSPropertyOp31
 70
     1
102
RTVSPropertyOp32
 70
     1
102
RTVSPropertyOp33
 70
     1
102
RTVSPropertyOp34
 70
     1
102
RTVSPropertyOp35
 70
     1
102
RTVSPropertyOp36
 70
     1
102
RTVSPropertyOp37
 70
     1
102
RTVSPropertyOp38
 70
     1
102
RTVSPropertyOp39
 70
     1
102
RTVSPropertyOp40
 70
     1
102
RTVSPropertyOp41
 70
     1
102
RTVSPropertyOp42
 70
     1
102
RTVSPropertyOp43
 70
     1
102
RTVSPropertyOp44
 70
     1
102
RTVSPropertyOp45
 70
     1
102
RTVSPropertyOp46
 70
     1
102
RTVSPropertyOp47
 70
     1
102
RTVSPropertyOp48
 70
     1
102
RTVSPropertyOp49
 70
     1
102
RTVSPropertyOp50
 70
     1
102
RTVSPropertyOp51
 70
     0
102
RTVSPropertyOp52
 70
     0
102
RTVSPropertyOp53
 70
     1
102
RTVSPropertyOp54
 70
     1
102
RTVSPropertyOp55
 70
     1
102
RTVSPropertyOp56
 70
     1
102
RTVSPropertyOp57
 70
     1
102
RTVSPropertyOp58
 70
     1
102
RTVSPropertyOp59
 70
     1
102
RTVSPropertyOp60
 70
     1
102
RTVSPropertyOp61
 70
     1
102
RTVSPropertyOp62
 70
     1
  0
XRECORD
  5
9F10
102
{ACAD_REACTORS
330
9F0F
102
}
330
9F0F
100
AcDbXrecord
280
     1
102
RTVSPost2010Prop28
280
     0
102
RTVSPost2010PropOp28
 70
     1
102
RTVSPost2010Prop29
280
     1
102
RTVSPost2010PropOp29
 70
     1
102
RTVSPost2010Prop30
280
     1
102
RTVSPost2010PropOp30
 70
     1
102
RTVSPost2010Prop31
280
     0
102
RTVSPost2010PropOp31
 70
     1
102
RTVSPost2010Prop32
280
     0
102
RTVSPost2010PropOp32
 70
     1
102
RTVSPost2010Prop33
280
     0
102
RTVSPost2010PropOp33
 70
     1
102
RTVSPost2010Prop34
280
     0
102
RTVSPost2010PropOp34
 70
     1
102
RTVSPost2010Prop35
280
     0
102
RTVSPost2010PropOp35
 70
     1
102
RTVSPost2010Prop36
280
     0
102
RTVSPost2010PropOp36
 70
     1
102
RTVSPost2010Prop37
 90
       50
102
RTVSPost2010PropOp37
 70
     1
102
RTVSPost2010Prop38
140
0.0
102
RTVSPost2010PropOp38
 70
     1
102
RTVSPost2010Prop39
140
1.0
102
RTVSPost2010PropOp39
 70
     1
102
RTVSPost2010Prop40
 90
        0
102
RTVSPost2010PropOp40
 70
     1
102
RTVSPost2010Prop41ColorIndex
 90
       18
102
RTVSPost2010Prop41ColorRGB
 90
        0
102
RTVSPost2010PropOp41
 70
     1
102
RTVSPost2010Prop42
 90
       50
102
RTVSPost2010PropOp42
 70
     1
102
RTVSPost2010Prop43
 90
        3
102
RTVSPost2010PropOp43
 70
     1
102
RTVSPost2010Prop44ColorIndex
 90
        5
102
RTVSPost2010Prop44ColorRGB
 90
      255
102
RTVSPost2010PropOp44
 70
     1
102
RTVSPost2010Prop45
280
     0
102
RTVSPost2010PropOp45
 70
     1
102
RTVSPost2010Prop46
 90
       50
102
RTVSPost2010PropOp46
 70
     1
102
RTVSPost2010Prop47
 90
       50
102
RTVSPost2010PropOp47
 70
     1
102
RTVSPost2010Prop48
 90
       50
102
RTVSPost2010PropOp48
 70
     1
102
RTVSPost2010Prop49
280
     0
102
RTVSPost2010PropOp49
 70
     1
102
RTVSPost2010Prop50
 90
       50
102
RTVSPost2010PropOp50
 70
     1
102
RTVSPost2010Prop51ColorIndex
 90
      256
102
RTVSPost2010Prop51ColorRGB
 90
-16777216
102
RTVSPost2010PropOp51
 70
     0
102
RTVSPost2010Prop52
140
1.0
102
RTVSPost2010PropOp52
 70
     0
102
RTVSPost2010Prop53
 90
        2
102
RTVSPost2010PropOp53
 70
     1
102
RTVSPost2010Prop54
  1
strokes_ogs.tif
102
RTVSPost2010PropOp54
 70
     1
102
RTVSPost2010Prop55
280
     0
102
RTVSPost2010PropOp55
 70
     1
102
RTVSPost2010Prop56
140
1.0
102
RTVSPost2010PropOp56
 70
     1
102
RTVSPost2010Prop57
140
1.0
102
RTVSPost2010PropOp57
 70
     1
102
RTVSPropertyOp0
 70
     1
102
RTVSPropertyOp1
 70
     1
102
RTVSPropertyOp2
 70
     1
102
RTVSPropertyOp3
 70
     1
102
RTVSPropertyOp4
 70
     1
102
RTVSPropertyOp5
 70
     1
102
RTVSPropertyOp6
 70
     1
102
RTVSPropertyOp7
 70
     1
102
RTVSPropertyOp8
 70
     1
102
RTVSPropertyOp9
 70
     1
102
RTVSPropertyOp10
 70
     1
102
RTVSPropertyOp11
 70
     1
102
RTVSPropertyOp12
 70
     1
102
RTVSPropertyOp13
 70
     1
102
RTVSPropertyOp14
 70
     1
102
RTVSPropertyOp15
 70
     1
102
RTVSPropertyOp16
 70
     1
102
RTVSPropertyOp17
 70
     1
102
RTVSPropertyOp18
 70
     1
102
RTVSPropertyOp19
 70
     1
102
RTVSPropertyOp20
 70
     1
102
RTVSPropertyOp21
 70
     1
102
RTVSPropertyOp22
 70
     1
102
RTVSPropertyOp23
 70
     1
102
RTVSPropertyOp24
 70
     1
102
RTVSPropertyOp25
 70
     1
102
RTVSPropertyOp26
 70
     1
102
RTVSPropertyOp27
 70
     1
102
RTVSPropertyOp28
 70
     1
102
RTVSPropertyOp29
 70
     1
102
RTVSPropertyOp30
 70
     1
102
RTVSPropertyOp31
 70
     1
102
RTVSPropertyOp32
 70
     1
102
RTVSPropertyOp33
 70
     1
102
RTVSPropertyOp34
 70
     1
102
RTVSPropertyOp35
 70
     1
102
RTVSPropertyOp36
 70
     1
102
RTVSPropertyOp37
 70
     1
102
RTVSPropertyOp38
 70
     1
102
RTVSPropertyOp39
 70
     1
102
RTVSPropertyOp40
 70
     1
102
RTVSPropertyOp41
 70
     1
102
RTVSPropertyOp42
 70
     1
102
RTVSPropertyOp43
 70
     1
102
RTVSPropertyOp44
 70
     1
102
RTVSPropertyOp45
 70
     1
102
RTVSPropertyOp46
 70
     1
102
RTVSPropertyOp47
 70
     1
102
RTVSPropertyOp48
 70
     1
102
RTVSPropertyOp49
 70
     1
102
RTVSPropertyOp50
 70
     1
102
RTVSPropertyOp51
 70
     0
102
RTVSPropertyOp52
 70
     0
102
RTVSPropertyOp53
 70
     1
102
RTVSPropertyOp54
 70
     1
102
RTVSPropertyOp55
 70
     1
102
RTVSPropertyOp56
 70
     1
102
RTVSPropertyOp57
 70
     1
102
RTVSPropertyOp58
 70
     1
102
RTVSPropertyOp59
 70
     1
102
RTVSPropertyOp60
 70
     1
102
RTVSPropertyOp61
 70
     1
102
RTVSPropertyOp62
 70
     1
  0
XRECORD
  5
9F12
102
{ACAD_REACTORS
330
9F11
102
}
330
9F11
100
AcDbXrecord
280
     1
102
RTVSPost2010Prop28
280
     0
102
RTVSPost2010PropOp28
 70
     1
102
RTVSPost2010Prop29
280
     1
102
RTVSPost2010PropOp29
 70
     1
102
RTVSPost2010Prop30
280
     1
102
RTVSPost2010PropOp30
 70
     1
102
RTVSPost2010Prop31
280
     0
102
RTVSPost2010PropOp31
 70
     1
102
RTVSPost2010Prop32
280
     0
102
RTVSPost2010PropOp32
 70
     1
102
RTVSPost2010Prop33
280
     0
102
RTVSPost2010PropOp33
 70
     1
102
RTVSPost2010Prop34
280
     0
102
RTVSPost2010PropOp34
 70
     1
102
RTVSPost2010Prop35
280
     0
102
RTVSPost2010PropOp35
 70
     1
102
RTVSPost2010Prop36
280
     0
102
RTVSPost2010PropOp36
 70
     1
102
RTVSPost2010Prop37
 90
       50
102
RTVSPost2010PropOp37
 70
     1
102
RTVSPost2010Prop38
140
0.0
102
RTVSPost2010PropOp38
 70
     1
102
RTVSPost2010Prop39
140
1.0
102
RTVSPost2010PropOp39
 70
     1
102
RTVSPost2010Prop40
 90
        0
102
RTVSPost2010PropOp40
 70
     1
102
RTVSPost2010Prop41ColorIndex
 90
       18
102
RTVSPost2010Prop41ColorRGB
 90
        0
102
RTVSPost2010PropOp41
 70
     1
102
RTVSPost2010Prop42
 90
       50
102
RTVSPost2010PropOp42
 70
     1
102
RTVSPost2010Prop43
 90
        3
102
RTVSPost2010PropOp43
 70
     1
102
RTVSPost2010Prop44ColorIndex
 90
        5
102
RTVSPost2010Prop44ColorRGB
 90
      255
102
RTVSPost2010PropOp44
 70
     1
102
RTVSPost2010Prop45
280
     0
102
RTVSPost2010PropOp45
 70
     1
102
RTVSPost2010Prop46
 90
       50
102
RTVSPost2010PropOp46
 70
     1
102
RTVSPost2010Prop47
 90
       50
102
RTVSPost2010PropOp47
 70
     1
102
RTVSPost2010Prop48
 90
       50
102
RTVSPost2010PropOp48
 70
     1
102
RTVSPost2010Prop49
280
     0
102
RTVSPost2010PropOp49
 70
     1
102
RTVSPost2010Prop50
 90
       50
102
RTVSPost2010PropOp50
 70
     1
102
RTVSPost2010Prop51ColorIndex
 90
      256
102
RTVSPost2010Prop51ColorRGB
 90
-16777216
102
RTVSPost2010PropOp51
 70
     0
102
RTVSPost2010Prop52
140
1.0
102
RTVSPost2010PropOp52
 70
     0
102
RTVSPost2010Prop53
 90
        2
102
RTVSPost2010PropOp53
 70
     1
102
RTVSPost2010Prop54
  1
strokes_ogs.tif
102
RTVSPost2010PropOp54
 70
     1
102
RTVSPost2010Prop55
280
     0
102
RTVSPost2010PropOp55
 70
     1
102
RTVSPost2010Prop56
140
1.0
102
RTVSPost2010PropOp56
 70
     1
102
RTVSPost2010Prop57
140
1.0
102
RTVSPost2010PropOp57
 70
     1
102
RTVSPropertyOp0
 70
     1
102
RTVSPropertyOp1
 70
     1
102
RTVSPropertyOp2
 70
     1
102
RTVSPropertyOp3
 70
     1
102
RTVSPropertyOp4
 70
     1
102
RTVSPropertyOp5
 70
     1
102
RTVSPropertyOp6
 70
     1
102
RTVSPropertyOp7
 70
     1
102
RTVSPropertyOp8
 70
     1
102
RTVSPropertyOp9
 70
     1
102
RTVSPropertyOp10
 70
     1
102
RTVSPropertyOp11
 70
     1
102
RTVSPropertyOp12
 70
     1
102
RTVSPropertyOp13
 70
     1
102
RTVSPropertyOp14
 70
     1
102
RTVSPropertyOp15
 70
     1
102
RTVSPropertyOp16
 70
     1
102
RTVSPropertyOp17
 70
     1
102
RTVSPropertyOp18
 70
     1
102
RTVSPropertyOp19
 70
     1
102
RTVSPropertyOp20
 70
     1
102
RTVSPropertyOp21
 70
     1
102
RTVSPropertyOp22
 70
     1
102
RTVSPropertyOp23
 70
     1
102
RTVSPropertyOp24
 70
     1
102
RTVSPropertyOp25
 70
     1
102
RTVSPropertyOp26
 70
     1
102
RTVSPropertyOp27
 70
     1
102
RTVSPropertyOp28
 70
     1
102
RTVSPropertyOp29
 70
     1
102
RTVSPropertyOp30
 70
     1
102
RTVSPropertyOp31
 70
     1
102
RTVSPropertyOp32
 70
     1
102
RTVSPropertyOp33
 70
     1
102
RTVSPropertyOp34
 70
     1
102
RTVSPropertyOp35
 70
     1
102
RTVSPropertyOp36
 70
     1
102
RTVSPropertyOp37
 70
     1
102
RTVSPropertyOp38
 70
     1
102
RTVSPropertyOp39
 70
     1
102
RTVSPropertyOp40
 70
     1
102
RTVSPropertyOp41
 70
     1
102
RTVSPropertyOp42
 70
     1
102
RTVSPropertyOp43
 70
     1
102
RTVSPropertyOp44
 70
     1
102
RTVSPropertyOp45
 70
     1
102
RTVSPropertyOp46
 70
     1
102
RTVSPropertyOp47
 70
     1
102
RTVSPropertyOp48
 70
     1
102
RTVSPropertyOp49
 70
     1
102
RTVSPropertyOp50
 70
     1
102
RTVSPropertyOp51
 70
     0
102
RTVSPropertyOp52
 70
     0
102
RTVSPropertyOp53
 70
     1
102
RTVSPropertyOp54
 70
     1
102
RTVSPropertyOp55
 70
     1
102
RTVSPropertyOp56
 70
     1
102
RTVSPropertyOp57
 70
     1
102
RTVSPropertyOp58
 70
     1
102
RTVSPropertyOp59
 70
     1
102
RTVSPropertyOp60
 70
     1
102
RTVSPropertyOp61
 70
     1
102
RTVSPropertyOp62
 70
     1
  0
XRECORD
  5
9F08
102
{ACAD_REACTORS
330
9F07
102
}
330
9F07
100
AcDbXrecord
280
     1
102
RTVSPost2010Prop28
280
     0
102
RTVSPost2010PropOp28
 70
     1
102
RTVSPost2010Prop29
280
     1
102
RTVSPost2010PropOp29
 70
     1
102
RTVSPost2010Prop30
280
     1
102
RTVSPost2010PropOp30
 70
     1
102
RTVSPost2010Prop31
280
     0
102
RTVSPost2010PropOp31
 70
     1
102
RTVSPost2010Prop32
280
     0
102
RTVSPost2010PropOp32
 70
     1
102
RTVSPost2010Prop33
280
     0
102
RTVSPost2010PropOp33
 70
     1
102
RTVSPost2010Prop34
280
     0
102
RTVSPost2010PropOp34
 70
     1
102
RTVSPost2010Prop35
280
     0
102
RTVSPost2010PropOp35
 70
     1
102
RTVSPost2010Prop36
280
     0
102
RTVSPost2010PropOp36
 70
     1
102
RTVSPost2010Prop37
 90
       50
102
RTVSPost2010PropOp37
 70
     1
102
RTVSPost2010Prop38
140
0.0
102
RTVSPost2010PropOp38
 70
     1
102
RTVSPost2010Prop39
140
1.0
102
RTVSPost2010PropOp39
 70
     1
102
RTVSPost2010Prop40
 90
        0
102
RTVSPost2010PropOp40
 70
     1
102
RTVSPost2010Prop41ColorIndex
 90
       18
102
RTVSPost2010Prop41ColorRGB
 90
        0
102
RTVSPost2010PropOp41
 70
     1
102
RTVSPost2010Prop42
 90
       50
102
RTVSPost2010PropOp42
 70
     1
102
RTVSPost2010Prop43
 90
        3
102
RTVSPost2010PropOp43
 70
     1
102
RTVSPost2010Prop44ColorIndex
 90
        5
102
RTVSPost2010Prop44ColorRGB
 90
      255
102
RTVSPost2010PropOp44
 70
     1
102
RTVSPost2010Prop45
280
     0
102
RTVSPost2010PropOp45
 70
     1
102
RTVSPost2010Prop46
 90
       50
102
RTVSPost2010PropOp46
 70
     1
102
RTVSPost2010Prop47
 90
       50
102
RTVSPost2010PropOp47
 70
     1
102
RTVSPost2010Prop48
 90
       50
102
RTVSPost2010PropOp48
 70
     1
102
RTVSPost2010Prop49
280
     0
102
RTVSPost2010PropOp49
 70
     1
102
RTVSPost2010Prop50
 90
       50
102
RTVSPost2010PropOp50
 70
     1
102
RTVSPost2010Prop51ColorIndex
 90
      256
102
RTVSPost2010Prop51ColorRGB
 90
-16777216
102
RTVSPost2010PropOp51
 70
     0
102
RTVSPost2010Prop52
140
1.0
102
RTVSPost2010PropOp52
 70
     0
102
RTVSPost2010Prop53
 90
        2
102
RTVSPost2010PropOp53
 70
     1
102
RTVSPost2010Prop54
  1
strokes_ogs.tif
102
RTVSPost2010PropOp54
 70
     1
102
RTVSPost2010Prop55
280
     0
102
RTVSPost2010PropOp55
 70
     1
102
RTVSPost2010Prop56
140
1.0
102
RTVSPost2010PropOp56
 70
     1
102
RTVSPost2010Prop57
140
1.0
102
RTVSPost2010PropOp57
 70
     1
102
RTVSPropertyOp0
 70
     1
102
RTVSPropertyOp1
 70
     1
102
RTVSPropertyOp2
 70
     1
102
RTVSPropertyOp3
 70
     1
102
RTVSPropertyOp4
 70
     1
102
RTVSPropertyOp5
 70
     1
102
RTVSPropertyOp6
 70
     1
102
RTVSPropertyOp7
 70
     1
102
RTVSPropertyOp8
 70
     1
102
RTVSPropertyOp9
 70
     1
102
RTVSPropertyOp10
 70
     1
102
RTVSPropertyOp11
 70
     1
102
RTVSPropertyOp12
 70
     1
102
RTVSPropertyOp13
 70
     1
102
RTVSPropertyOp14
 70
     1
102
RTVSPropertyOp15
 70
     1
102
RTVSPropertyOp16
 70
     1
102
RTVSPropertyOp17
 70
     1
102
RTVSPropertyOp18
 70
     1
102
RTVSPropertyOp19
 70
     1
102
RTVSPropertyOp20
 70
     1
102
RTVSPropertyOp21
 70
     1
102
RTVSPropertyOp22
 70
     1
102
RTVSPropertyOp23
 70
     1
102
RTVSPropertyOp24
 70
     1
102
RTVSPropertyOp25
 70
     1
102
RTVSPropertyOp26
 70
     1
102
RTVSPropertyOp27
 70
     1
102
RTVSPropertyOp28
 70
     1
102
RTVSPropertyOp29
 70
     1
102
RTVSPropertyOp30
 70
     1
102
RTVSPropertyOp31
 70
     1
102
RTVSPropertyOp32
 70
     1
102
RTVSPropertyOp33
 70
     1
102
RTVSPropertyOp34
 70
     1
102
RTVSPropertyOp35
 70
     1
102
RTVSPropertyOp36
 70
     1
102
RTVSPropertyOp37
 70
     1
102
RTVSPropertyOp38
 70
     1
102
RTVSPropertyOp39
 70
     1
102
RTVSPropertyOp40
 70
     1
102
RTVSPropertyOp41
 70
     1
102
RTVSPropertyOp42
 70
     1
102
RTVSPropertyOp43
 70
     1
102
RTVSPropertyOp44
 70
     1
102
RTVSPropertyOp45
 70
     1
102
RTVSPropertyOp46
 70
     1
102
RTVSPropertyOp47
 70
     1
102
RTVSPropertyOp48
 70
     1
102
RTVSPropertyOp49
 70
     1
102
RTVSPropertyOp50
 70
     1
102
RTVSPropertyOp51
 70
     0
102
RTVSPropertyOp52
 70
     0
102
RTVSPropertyOp53
 70
     1
102
RTVSPropertyOp54
 70
     1
102
RTVSPropertyOp55
 70
     1
102
RTVSPropertyOp56
 70
     1
102
RTVSPropertyOp57
 70
     1
102
RTVSPropertyOp58
 70
     1
102
RTVSPropertyOp59
 70
     1
102
RTVSPropertyOp60
 70
     1
102
RTVSPropertyOp61
 70
     1
102
RTVSPropertyOp62
 70
     1
  0
XRECORD
  5
9EFC
102
{ACAD_REACTORS
330
9EFB
102
}
330
9EFB
100
AcDbXrecord
280
     1
102
RTVSPost2010Prop28
280
     0
102
RTVSPost2010PropOp28
 70
     1
102
RTVSPost2010Prop29
280
     1
102
RTVSPost2010PropOp29
 70
     1
102
RTVSPost2010Prop30
280
     1
102
RTVSPost2010PropOp30
 70
     1
102
RTVSPost2010Prop31
280
     0
102
RTVSPost2010PropOp31
 70
     1
102
RTVSPost2010Prop32
280
     0
102
RTVSPost2010PropOp32
 70
     1
102
RTVSPost2010Prop33
280
     0
102
RTVSPost2010PropOp33
 70
     1
102
RTVSPost2010Prop34
280
     0
102
RTVSPost2010PropOp34
 70
     1
102
RTVSPost2010Prop35
280
     0
102
RTVSPost2010PropOp35
 70
     1
102
RTVSPost2010Prop36
280
     0
102
RTVSPost2010PropOp36
 70
     1
102
RTVSPost2010Prop37
 90
       50
102
RTVSPost2010PropOp37
 70
     1
102
RTVSPost2010Prop38
140
0.0
102
RTVSPost2010PropOp38
 70
     1
102
RTVSPost2010Prop39
140
1.0
102
RTVSPost2010PropOp39
 70
     1
102
RTVSPost2010Prop40
 90
        0
102
RTVSPost2010PropOp40
 70
     1
102
RTVSPost2010Prop41ColorIndex
 90
       18
102
RTVSPost2010Prop41ColorRGB
 90
        0
102
RTVSPost2010PropOp41
 70
     1
102
RTVSPost2010Prop42
 90
       50
102
RTVSPost2010PropOp42
 70
     1
102
RTVSPost2010Prop43
 90
        3
102
RTVSPost2010PropOp43
 70
     1
102
RTVSPost2010Prop44ColorIndex
 90
        5
102
RTVSPost2010Prop44ColorRGB
 90
      255
102
RTVSPost2010PropOp44
 70
     1
102
RTVSPost2010Prop45
280
     0
102
RTVSPost2010PropOp45
 70
     1
102
RTVSPost2010Prop46
 90
       50
102
RTVSPost2010PropOp46
 70
     1
102
RTVSPost2010Prop47
 90
       50
102
RTVSPost2010PropOp47
 70
     1
102
RTVSPost2010Prop48
 90
       50
102
RTVSPost2010PropOp48
 70
     1
102
RTVSPost2010Prop49
280
     0
102
RTVSPost2010PropOp49
 70
     1
102
RTVSPost2010Prop50
 90
       50
102
RTVSPost2010PropOp50
 70
     1
102
RTVSPost2010Prop51ColorIndex
 90
      256
102
RTVSPost2010Prop51ColorRGB
 90
-16777216
102
RTVSPost2010PropOp51
 70
     0
102
RTVSPost2010Prop52
140
1.0
102
RTVSPost2010PropOp52
 70
     0
102
RTVSPost2010Prop53
 90
        2
102
RTVSPost2010PropOp53
 70
     1
102
RTVSPost2010Prop54
  1
strokes_ogs.tif
102
RTVSPost2010PropOp54
 70
     1
102
RTVSPost2010Prop55
280
     0
102
RTVSPost2010PropOp55
 70
     1
102
RTVSPost2010Prop56
140
1.0
102
RTVSPost2010PropOp56
 70
     1
102
RTVSPost2010Prop57
140
1.0
102
RTVSPost2010PropOp57
 70
     1
102
RTVSPropertyOp0
 70
     1
102
RTVSPropertyOp1
 70
     1
102
RTVSPropertyOp2
 70
     1
102
RTVSPropertyOp3
 70
     1
102
RTVSPropertyOp4
 70
     1
102
RTVSPropertyOp5
 70
     1
102
RTVSPropertyOp6
 70
     1
102
RTVSPropertyOp7
 70
     1
102
RTVSPropertyOp8
 70
     1
102
RTVSPropertyOp9
 70
     1
102
RTVSPropertyOp10
 70
     1
102
RTVSPropertyOp11
 70
     1
102
RTVSPropertyOp12
 70
     1
102
RTVSPropertyOp13
 70
     1
102
RTVSPropertyOp14
 70
     1
102
RTVSPropertyOp15
 70
     1
102
RTVSPropertyOp16
 70
     1
102
RTVSPropertyOp17
 70
     1
102
RTVSPropertyOp18
 70
     1
102
RTVSPropertyOp19
 70
     1
102
RTVSPropertyOp20
 70
     1
102
RTVSPropertyOp21
 70
     1
102
RTVSPropertyOp22
 70
     1
102
RTVSPropertyOp23
 70
     1
102
RTVSPropertyOp24
 70
     1
102
RTVSPropertyOp25
 70
     1
102
RTVSPropertyOp26
 70
     1
102
RTVSPropertyOp27
 70
     1
102
RTVSPropertyOp28
 70
     1
102
RTVSPropertyOp29
 70
     1
102
RTVSPropertyOp30
 70
     1
102
RTVSPropertyOp31
 70
     1
102
RTVSPropertyOp32
 70
     1
102
RTVSPropertyOp33
 70
     1
102
RTVSPropertyOp34
 70
     1
102
RTVSPropertyOp35
 70
     1
102
RTVSPropertyOp36
 70
     1
102
RTVSPropertyOp37
 70
     1
102
RTVSPropertyOp38
 70
     1
102
RTVSPropertyOp39
 70
     1
102
RTVSPropertyOp40
 70
     1
102
RTVSPropertyOp41
 70
     1
102
RTVSPropertyOp42
 70
     1
102
RTVSPropertyOp43
 70
     1
102
RTVSPropertyOp44
 70
     1
102
RTVSPropertyOp45
 70
     1
102
RTVSPropertyOp46
 70
     1
102
RTVSPropertyOp47
 70
     1
102
RTVSPropertyOp48
 70
     1
102
RTVSPropertyOp49
 70
     1
102
RTVSPropertyOp50
 70
     1
102
RTVSPropertyOp51
 70
     0
102
RTVSPropertyOp52
 70
     0
102
RTVSPropertyOp53
 70
     1
102
RTVSPropertyOp54
 70
     1
102
RTVSPropertyOp55
 70
     1
102
RTVSPropertyOp56
 70
     1
102
RTVSPropertyOp57
 70
     1
102
RTVSPropertyOp58
 70
     1
102
RTVSPropertyOp59
 70
     1
102
RTVSPropertyOp60
 70
     1
102
RTVSPropertyOp61
 70
     1
102
RTVSPropertyOp62
 70
     1
  0
XRECORD
  5
9F14
102
{ACAD_REACTORS
330
9F13
102
}
330
9F13
100
AcDbXrecord
280
     1
102
RTVSPost2010Prop28
280
     0
102
RTVSPost2010PropOp28
 70
     1
102
RTVSPost2010Prop29
280
     1
102
RTVSPost2010PropOp29
 70
     1
102
RTVSPost2010Prop30
280
     1
102
RTVSPost2010PropOp30
 70
     1
102
RTVSPost2010Prop31
280
     0
102
RTVSPost2010PropOp31
 70
     1
102
RTVSPost2010Prop32
280
     0
102
RTVSPost2010PropOp32
 70
     1
102
RTVSPost2010Prop33
280
     0
102
RTVSPost2010PropOp33
 70
     1
102
RTVSPost2010Prop34
280
     0
102
RTVSPost2010PropOp34
 70
     1
102
RTVSPost2010Prop35
280
     0
102
RTVSPost2010PropOp35
 70
     1
102
RTVSPost2010Prop36
280
     0
102
RTVSPost2010PropOp36
 70
     1
102
RTVSPost2010Prop37
 90
       50
102
RTVSPost2010PropOp37
 70
     1
102
RTVSPost2010Prop38
140
0.0
102
RTVSPost2010PropOp38
 70
     1
102
RTVSPost2010Prop39
140
1.0
102
RTVSPost2010PropOp39
 70
     1
102
RTVSPost2010Prop40
 90
        0
102
RTVSPost2010PropOp40
 70
     1
102
RTVSPost2010Prop41ColorIndex
 90
       18
102
RTVSPost2010Prop41ColorRGB
 90
        0
102
RTVSPost2010PropOp41
 70
     1
102
RTVSPost2010Prop42
 90
       50
102
RTVSPost2010PropOp42
 70
     1
102
RTVSPost2010Prop43
 90
        3
102
RTVSPost2010PropOp43
 70
     1
102
RTVSPost2010Prop44ColorIndex
 90
        5
102
RTVSPost2010Prop44ColorRGB
 90
      255
102
RTVSPost2010PropOp44
 70
     1
102
RTVSPost2010Prop45
280
     0
102
RTVSPost2010PropOp45
 70
     1
102
RTVSPost2010Prop46
 90
       50
102
RTVSPost2010PropOp46
 70
     1
102
RTVSPost2010Prop47
 90
       50
102
RTVSPost2010PropOp47
 70
     1
102
RTVSPost2010Prop48
 90
       50
102
RTVSPost2010PropOp48
 70
     1
102
RTVSPost2010Prop49
280
     0
102
RTVSPost2010PropOp49
 70
     1
102
RTVSPost2010Prop50
 90
       50
102
RTVSPost2010PropOp50
 70
     1
102
RTVSPost2010Prop51ColorIndex
 90
      256
102
RTVSPost2010Prop51ColorRGB
 90
-16777216
102
RTVSPost2010PropOp51
 70
     0
102
RTVSPost2010Prop52
140
1.0
102
RTVSPost2010PropOp52
 70
     0
102
RTVSPost2010Prop53
 90
        2
102
RTVSPost2010PropOp53
 70
     1
102
RTVSPost2010Prop54
  1
strokes_ogs.tif
102
RTVSPost2010PropOp54
 70
     1
102
RTVSPost2010Prop55
280
     0
102
RTVSPost2010PropOp55
 70
     1
102
RTVSPost2010Prop56
140
1.0
102
RTVSPost2010PropOp56
 70
     1
102
RTVSPost2010Prop57
140
1.0
102
RTVSPost2010PropOp57
 70
     1
102
RTVSPropertyOp0
 70
     1
102
RTVSPropertyOp1
 70
     1
102
RTVSPropertyOp2
 70
     1
102
RTVSPropertyOp3
 70
     1
102
RTVSPropertyOp4
 70
     1
102
RTVSPropertyOp5
 70
     1
102
RTVSPropertyOp6
 70
     1
102
RTVSPropertyOp7
 70
     1
102
RTVSPropertyOp8
 70
     1
102
RTVSPropertyOp9
 70
     1
102
RTVSPropertyOp10
 70
     1
102
RTVSPropertyOp11
 70
     1
102
RTVSPropertyOp12
 70
     1
102
RTVSPropertyOp13
 70
     1
102
RTVSPropertyOp14
 70
     1
102
RTVSPropertyOp15
 70
     1
102
RTVSPropertyOp16
 70
     1
102
RTVSPropertyOp17
 70
     1
102
RTVSPropertyOp18
 70
     1
102
RTVSPropertyOp19
 70
     1
102
RTVSPropertyOp20
 70
     1
102
RTVSPropertyOp21
 70
     1
102
RTVSPropertyOp22
 70
     1
102
RTVSPropertyOp23
 70
     1
102
RTVSPropertyOp24
 70
     1
102
RTVSPropertyOp25
 70
     1
102
RTVSPropertyOp26
 70
     1
102
RTVSPropertyOp27
 70
     1
102
RTVSPropertyOp28
 70
     1
102
RTVSPropertyOp29
 70
     1
102
RTVSPropertyOp30
 70
     1
102
RTVSPropertyOp31
 70
     1
102
RTVSPropertyOp32
 70
     1
102
RTVSPropertyOp33
 70
     1
102
RTVSPropertyOp34
 70
     1
102
RTVSPropertyOp35
 70
     1
102
RTVSPropertyOp36
 70
     1
102
RTVSPropertyOp37
 70
     1
102
RTVSPropertyOp38
 70
     1
102
RTVSPropertyOp39
 70
     1
102
RTVSPropertyOp40
 70
     1
102
RTVSPropertyOp41
 70
     1
102
RTVSPropertyOp42
 70
     1
102
RTVSPropertyOp43
 70
     1
102
RTVSPropertyOp44
 70
     1
102
RTVSPropertyOp45
 70
     1
102
RTVSPropertyOp46
 70
     1
102
RTVSPropertyOp47
 70
     1
102
RTVSPropertyOp48
 70
     1
102
RTVSPropertyOp49
 70
     1
102
RTVSPropertyOp50
 70
     1
102
RTVSPropertyOp51
 70
     0
102
RTVSPropertyOp52
 70
     0
102
RTVSPropertyOp53
 70
     1
102
RTVSPropertyOp54
 70
     1
102
RTVSPropertyOp55
 70
     1
102
RTVSPropertyOp56
 70
     1
102
RTVSPropertyOp57
 70
     1
102
RTVSPropertyOp58
 70
     1
102
RTVSPropertyOp59
 70
     1
102
RTVSPropertyOp60
 70
     1
102
RTVSPropertyOp61
 70
     1
102
RTVSPropertyOp62
 70
     1
  0
ENDSEC
  0
EOF
