  0
SECTION
  2
HEADER
  9
$ACADVER
  1
AC1015
  9
$DWGCODEPAGE
  3
ANSI_932
  9
$LTSCALE
 40
20.0
  9
$FILLMODE
 70
     1
  9
$CLAYER
  8
0
  9
$PDMODE
 70
     0
  9
$SPLFRAME
 70
     0
  9
$SPLINETYPE
 70
     6
  9
$SPLINESEGS
 70
     8
  9
$DIMASZ
 40
2.000000
  9
$DIMEXE
 40
1.500000
  9
$DIMEXO
 40
0.800000
  9
$DIMTAD
 70
     1
  9
$DIMTIH
 70
     0
  9
$DIMTOH
 70
     0
  9
$DIMTVP
 40
0.500000
  9
$DIMTXT
 40
3.100000
  9
$EXTMIN
 10
0.000000
 20
0.000000
 30
0.000000
  9
$EXTMAX
 10
297.000000
 20
420.000000
 30
0.000000
  9
$MEASUREMENT
 70
  1
  9
$LIMMIN
 10
0.000000
 20
0.000000
  9
$LIMMAX
 10
297.000000
 20
420.000000
  9
$HANDSEED
  5
248
  9
$LWDISPLAY
290
     0
  9
$DIMBLK
  1
_OPEN
  9
$DIMDEC
 70
     2
  9
$DIMADEC
 70
     2
  9
$DIMAUNIT
 70
     0
  9
$DIMZIN
 70
     8
  9
$DIMAZIN
 70
     2
  9
$DIMTOFL
 70
     1
  0
ENDSEC
  0
SECTION
  2
CLASSES
  0
ENDSEC
  0
SECTION
  2
TABLES
  0
TABLE
  2
VPORT
  5
215
100
AcDbSymbolTable
 70
     1
  0
VPORT
  5
216
100
AcDbSymbolTableRecord
100
AcDbViewportTableRecord
  2
*ACTIVE
 70
     0
 12
167.233953
 22
143.198827
 40
281.015271
 41
1.119042
  0
ENDTAB
  0
TABLE
  2
LTYPE
  5
217
100
AcDbSymbolTable
 70
     3
  0
LTYPE
  5
218
100
AcDbSymbolTableRecord
100
AcDbLinetypeTableRecord
  2
BYBLOCK
 70
     0
  3

 72
    65
 73
     0
 40
0.0
  0
LTYPE
  5
219
100
AcDbSymbolTableRecord
100
AcDbLinetypeTableRecord
  2
BYLAYER
 70
     0
  3

 72
    65
 73
     0
 40
0.0
  0
LTYPE
  5
21A
100
AcDbSymbolTableRecord
100
AcDbLinetypeTableRecord
  2
CONTINUOUS
 70
     0
  3
Solid line (NEC CAE2D for Win R18.0 : 2025.09.12)
 72
    65
 73
     0
 40
0.0
  0
LTYPE
  5
21B
100
AcDbSymbolTableRecord
100
AcDbLinetypeTableRecord
  2
DASHED
 70
     0
  3
__ __ __ __ __ __ __ __ __ __ __ __ __ _
 72
    65
 73
     2
 40
0.75
 49
0.5
 74
     0
 49
-0.25
 74
     0
  0
LTYPE
  5
21C
100
AcDbSymbolTableRecord
100
AcDbLinetypeTableRecord
  2
CENTER
 70
     0
  3
____ _ ____ _ ____ _ ____ _ ____ _ ____
 72
    65
 73
     4
 40
2.0
 49
1.25
 74
     0
 49
-0.25
 74
     0
 49
0.25
 74
     0
 49
-0.25
 74
     0
  0
ENDTAB
  0
TABLE
  2
LAYER
  5
21D
100
AcDbSymbolTable
 70
    12
  0
LAYER
  5
21E
100
AcDbSymbolTableRecord
100
AcDbLayerTableRecord
  2
0
 70
     0
 62
     7
  6
CONTINUOUS
370
    -3
390

  0
LAYER
  5
21F
100
AcDbSymbolTableRecord
100
AcDbLayerTableRecord
  2
A0
 70
     0
 62
     9
  6
CONTINUOUS
370
    -3
390

  0
LAYER
  5
220
100
AcDbSymbolTableRecord
100
AcDbLayerTableRecord
  2
A1
 70
     0
 62
     8
  6
CONTINUOUS
370
    -3
390

  0
LAYER
  5
221
100
AcDbSymbolTableRecord
100
AcDbLayerTableRecord
  2
A3
 70
     0
 62
    12
  6
CONTINUOUS
370
    -3
390

  0
LAYER
  5
222
100
AcDbSymbolTableRecord
100
AcDbLayerTableRecord
  2
A4
 70
     0
 62
    12
  6
CONTINUOUS
370
    -3
390

  0
LAYER
  5
223
100
AcDbSymbolTableRecord
100
AcDbLayerTableRecord
  2
A7
 70
     0
 62
    10
  6
CONTINUOUS
370
    -3
390

  0
LAYER
  5
224
100
AcDbSymbolTableRecord
100
AcDbLayerTableRecord
  2
A10
 70
     0
 62
     6
  6
CONTINUOUS
370
    -3
390

  0
LAYER
  5
225
100
AcDbSymbolTableRecord
100
AcDbLayerTableRecord
  2
A20
 70
     0
 62
     1
  6
CONTINUOUS
370
    -3
390

  0
LAYER
  5
226
100
AcDbSymbolTableRecord
100
AcDbLayerTableRecord
  2
A30
 70
     0
 62
     1
  6
CONTINUOUS
370
    -3
390

  0
LAYER
  5
227
100
AcDbSymbolTableRecord
100
AcDbLayerTableRecord
  2
A40
 70
     0
 62
     9
  6
CONTINUOUS
370
    -3
390

  0
LAYER
  5
228
100
AcDbSymbolTableRecord
100
AcDbLayerTableRecord
  2
A50
 70
     0
 62
    12
  6
CONTINUOUS
370
    -3
390

  0
LAYER
  5
229
100
AcDbSymbolTableRecord
100
AcDbLayerTableRecord
  2
A1023
 70
     0
 62
    16
  6
CONTINUOUS
370
    -3
390

  0
ENDTAB
  0
TABLE
  2
STYLE
  5
22A
100
AcDbSymbolTable
 70
     4
  0
STYLE
  5
22B
100
AcDbSymbolTableRecord
100
AcDbTextStyleTableRecord
  2
STANDARD
 70
    64
 40
0.0
 41
1.0
 50
0.0
 71
     0
 42
3.000000000000000
  3
TXT
  4

  0
STYLE
  5
22C
100
AcDbSymbolTableRecord
100
AcDbTextStyleTableRecord
  2
ANKTATE
 70
    68
 40
0.0
 41
1.0
 50
0.0
 71
     0
 42
3.000000000000000
  3
TXT
  4

  0
STYLE
  5
22D
100
AcDbSymbolTableRecord
100
AcDbTextStyleTableRecord
  2
KNJYOKO
 70
    64
 40
0.0
 41
1.0
 50
0.0
 71
     0
 42
3.000000000000000
  3
TXT
  4
BIGFONT
  0
STYLE
  5
22E
100
AcDbSymbolTableRecord
100
AcDbTextStyleTableRecord
  2
KNJTATE
 70
    68
 40
0.0
 41
1.0
 50
0.0
 71
     0
 42
3.000000000000000
  3
TXT
  4
BIGFONT
  0
ENDTAB
  0
TABLE
  2
VIEW
  5
22F
100
AcDbSymbolTable
 70
     0
  0
ENDTAB
  0
TABLE
  2
UCS
  5
230
100
AcDbSymbolTable
 70
     0
  0
ENDTAB
  0
TABLE
  2
APPID
  5
231
100
AcDbSymbolTable
 70
     1
  0
APPID
  5
232
100
AcDbSymbolTableRecord
100
AcDbRegAppTableRecord
  2
ACAD
 70
     0
  0
ENDTAB
  0
TABLE
  2
DIMSTYLE
  5
233
100
AcDbSymbolTable
 70
     2
100
AcDbDimStyleTable
  0
DIMSTYLE
105
234
100
AcDbSymbolTableRecord
100
AcDbDimStyleTableRecord
  2
STANDARD
 70
     0
 41
2.000000
 44
1.500000
 42
0.800000
145
0.661290
140
3.100000
144
1.000000
146
0.645161
340
22B
  0
DIMSTYLE
105
235
100
AcDbSymbolTableRecord
100
AcDbDimStyleTableRecord
  2
A001
 70
     0
 41
2.000000
 44
1.500000
 42
0.800000
145
0.661290
140
3.100000
144
1.000000
146
0.645161
 77
     1
 73
     0
 74
     0
271
     2
179
     2
275
     0
 78
     8
 79
     2
172
     1
340
22B
  0
ENDTAB
  0
TABLE
  2
BLOCK_RECORD
  5
236
100
AcDbSymbolTable
 70
    12
  0
BLOCK_RECORD
  5
237
100
AcDbSymbolTableRecord
100
AcDbBlockTableRecord
  2
*MODEL_SPACE
  0
BLOCK_RECORD
  5
238
100
AcDbSymbolTableRecord
100
AcDbBlockTableRecord
  2
*PAPER_SPACE
  0
BLOCK_RECORD
  5
239
100
AcDbSymbolTableRecord
100
AcDbBlockTableRecord
  2
*PAPER_SPACE0
  0
BLOCK_RECORD
  5
1
100
AcDbSymbolTableRecord
100
AcDbBlockTableRecord
  2
_NONE
  0
BLOCK_RECORD
  5
4
100
AcDbSymbolTableRecord
100
AcDbBlockTableRecord
  2
_CLOSED
  0
BLOCK_RECORD
  5
B
100
AcDbSymbolTableRecord
100
AcDbBlockTableRecord
  2
_DOT
  0
BLOCK_RECORD
  5
13
100
AcDbSymbolTableRecord
100
AcDbBlockTableRecord
  2
_OPEN
  0
BLOCK_RECORD
  5
19
100
AcDbSymbolTableRecord
100
AcDbBlockTableRecord
  2
_ORIGIN
  0
BLOCK_RECORD
  5
1E
100
AcDbSymbolTableRecord
100
AcDbBlockTableRecord
  2
_OPEN30
  0
BLOCK_RECORD
  5
24
100
AcDbSymbolTableRecord
100
AcDbBlockTableRecord
  2
_BOXFILLED
  0
BLOCK_RECORD
  5
29
100
AcDbSymbolTableRecord
100
AcDbBlockTableRecord
  2
_BOXBLANK
  0
BLOCK_RECORD
  5
31
100
AcDbSymbolTableRecord
100
AcDbBlockTableRecord
  2
_OBLIQUE
  0
BLOCK_RECORD
  5
35
100
AcDbSymbolTableRecord
100
AcDbBlockTableRecord
  2
_OPEN90
  0
BLOCK_RECORD
  5
3B
100
AcDbSymbolTableRecord
100
AcDbBlockTableRecord
  2
_CLOSEDBLANK
  0
BLOCK_RECORD
  5
41
100
AcDbSymbolTableRecord
100
AcDbBlockTableRecord
  2
_DOTBLANK
  0
ENDTAB
  0
ENDSEC
  0
SECTION
  2
BLOCKS
  0
BLOCK
  5
23A
100
AcDbEntity
  8
0
100
AcDbBlockBegin
  2
*MODEL_SPACE
 70
     0
 10
0.0
 20
0.0
 30
0.0
  3
*MODEL_SPACE
  1

  0
ENDBLK
  5
23B
100
AcDbEntity
  8
0
100
AcDbBlockEnd
  0
BLOCK
  5
23C
100
AcDbEntity
  8
0
100
AcDbBlockBegin
  2
*PAPER_SPACE
 70
     0
 10
0.0
 20
0.0
 30
0.0
  3
*PAPER_SPACE
  1

  0
ENDBLK
  5
23D
100
AcDbEntity
  8
0
100
AcDbBlockEnd
  0
BLOCK
  5
23E
100
AcDbEntity
  8
0
100
AcDbBlockBegin
  2
*PAPER_SPACE0
 70
     0
 10
0.0
 20
0.0
 30
0.0
  3
*PAPER_SPACE0
  1

  0
ENDBLK
  5
23F
100
AcDbEntity
  8
0
100
AcDbBlockEnd
  0
BLOCK
  5
2
330
1
100
AcDbEntity
  8
0
100
AcDbBlockBegin
  2
_NONE
 70
     0
 10
0.0
 20
0.0
 30
0.0
  3
_NONE
  1

  0
ENDBLK
  5
3
330
1
100
AcDbEntity
  8
0
100
AcDbBlockEnd
  0
BLOCK
  5
5
330
4
100
AcDbEntity
  8
0
100
AcDbBlockBegin
  2
_CLOSED
 70
     0
 10
0.0
 20
0.0
 30
0.0
  3
_CLOSED
  1

  0
LINE
  5
6
330
4
100
AcDbEntity
  8
0
  6
BYBLOCK
 62
     0
370
    -2
100
AcDbLine
 10
-1.0
 20
0.166667
 30
0.0
 11
0.0
 21
0.0
 31
0.0
  0
LINE
  5
7
330
4
100
AcDbEntity
  8
0
  6
BYBLOCK
 62
     0
370
    -2
100
AcDbLine
 10
0.0
 20
0.0
 30
0.0
 11
-1.0
 21
-0.166667
 31
0.0
  0
LINE
  5
8
330
4
100
AcDbEntity
  8
0
  6
BYBLOCK
 62
     0
370
    -2
100
AcDbLine
 10
-1.0
 20
0.166667
 30
0.0
 11
-1.0
 21
-0.166667
 31
0.0
  0
LINE
  5
9
330
4
100
AcDbEntity
  8
0
  6
BYBLOCK
 62
     0
370
    -2
100
AcDbLine
 10
0.0
 20
0.0
 30
0.0
 11
-1.0
 21
0.0
 31
0.0
  0
ENDBLK
  5
A
330
4
100
AcDbEntity
  8
0
100
AcDbBlockEnd
  0
BLOCK
  5
C
330
B
100
AcDbEntity
  8
0
100
AcDbBlockBegin
  2
_DOT
 70
     0
 10
0.0
 20
0.0
 30
0.0
  3
_DOT
  1

  0
POLYLINE
  5
D
330
B
100
AcDbEntity
  8
0
  6
BYBLOCK
 62
     0
370
    -2
100
AcDb2dPolyline
 66
     1
 10
0.0
 20
0.0
 30
0.0
 70
     1
 40
0.5
 41
0.5
  0
VERTEX
  5
E
330
B
100
AcDbEntity
  8
0
  6
BYBLOCK
 62
     0
370
    -2
100
AcDbVertex
100
AcDb2dVertex
 10
-0.25
 20
0.0
 30
0.0
 42
1.0
  0
VERTEX
  5
F
330
B
100
AcDbEntity
  8
0
  6
BYBLOCK
 62
     0
370
    -2
100
AcDbVertex
100
AcDb2dVertex
 10
0.25
 20
0.0
 30
0.0
 42
1.0
  0
SEQEND
  5
10
330
B
100
AcDbEntity
  8
0
  6
BYBLOCK
 62
     0
370
    -2
  0
LINE
  5
11
330
B
100
AcDbEntity
  8
0
  6
BYBLOCK
 62
     0
370
    -2
100
AcDbLine
 10
-0.5
 20
0.0
 30
0.0
 11
-1.0
 21
0.0
 31
0.0
  0
ENDBLK
  5
12
330
B
100
AcDbEntity
  8
0
100
AcDbBlockEnd
  0
BLOCK
  5
14
330
13
100
AcDbEntity
  8
0
100
AcDbBlockBegin
  2
_OPEN
 70
     0
 10
0.0
 20
0.0
 30
0.0
  3
_OPEN
  1

  0
LINE
  5
15
330
13
100
AcDbEntity
  8
0
  6
BYBLOCK
 62
     0
370
    -2
100
AcDbLine
 10
-1.0
 20
0.166667
 30
0.0
 11
0.0
 21
0.0
 31
0.0
  0
LINE
  5
16
330
13
100
AcDbEntity
  8
0
  6
BYBLOCK
 62
     0
370
    -2
100
AcDbLine
 10
0.0
 20
0.0
 30
0.0
 11
-1.0
 21
-0.166667
 31
0.0
  0
LINE
  5
17
330
13
100
AcDbEntity
  8
0
  6
BYBLOCK
 62
     0
370
    -2
100
AcDbLine
 10
0.0
 20
0.0
 30
0.0
 11
-1.0
 21
0.0
 31
0.0
  0
ENDBLK
  5
18
330
13
100
AcDbEntity
  8
0
100
AcDbBlockEnd
  0
BLOCK
  5
1A
330
19
100
AcDbEntity
  8
0
100
AcDbBlockBegin
  2
_ORIGIN
 70
     0
 10
0.0
 20
0.0
 30
0.0
  3
_ORIGIN
  1

  0
CIRCLE
  5
1B
330
19
100
AcDbEntity
  8
0
  6
BYBLOCK
 62
     0
370
    -2
100
AcDbCircle
 10
0.0
 20
0.0
 30
0.0
 40
0.5
  0
LINE
  5
1C
330
19
100
AcDbEntity
  8
0
  6
BYBLOCK
 62
     0
370
    -2
100
AcDbLine
 10
0.0
 20
0.0
 30
0.0
 11
-1.0
 21
0.0
 31
0.0
  0
ENDBLK
  5
1D
330
19
100
AcDbEntity
  8
0
100
AcDbBlockEnd
  0
BLOCK
  5
1F
330
1E
100
AcDbEntity
  8
0
100
AcDbBlockBegin
  2
_OPEN30
 70
     0
 10
0.0
 20
0.0
 30
0.0
  3
_OPEN30
  1

  0
LINE
  5
20
330
1E
100
AcDbEntity
  8
0
  6
BYBLOCK
 62
     0
370
    -2
100
AcDbLine
 10
-1.0
 20
0.267949
 30
0.0
 11
0.0
 21
0.0
 31
0.0
  0
LINE
  5
21
330
1E
100
AcDbEntity
  8
0
  6
BYBLOCK
 62
     0
370
    -2
100
AcDbLine
 10
0.0
 20
0.0
 30
0.0
 11
-1.0
 21
-0.267949
 31
0.0
  0
LINE
  5
22
330
1E
100
AcDbEntity
  8
0
  6
BYBLOCK
 62
     0
370
    -2
100
AcDbLine
 10
0.0
 20
0.0
 30
0.0
 11
-1.0
 21
0.0
 31
0.0
  0
ENDBLK
  5
23
330
1E
100
AcDbEntity
  8
0
100
AcDbBlockEnd
  0
BLOCK
  5
25
330
24
100
AcDbEntity
  8
0
100
AcDbBlockBegin
  2
_BOXFILLED
 70
     0
 10
0.0
 20
0.0
 30
0.0
  3
_BOXFILLED
  1

  0
SOLID
  5
26
330
24
100
AcDbEntity
  8
0
  6
BYBLOCK
 62
     0
370
    -2
100
AcDbTrace
 10
-0.5
 20
0.5
 30
0.0
 11
0.5
 21
0.5
 31
0.0
 12
-0.5
 22
-0.5
 32
0.0
 13
0.5
 23
-0.5
 33
0.0
  0
LINE
  5
27
330
24
100
AcDbEntity
  8
0
  6
BYBLOCK
 62
     0
370
    -2
100
AcDbLine
 10
-0.5
 20
0.0
 30
0.0
 11
-1.0
 21
0.0
 31
0.0
  0
ENDBLK
  5
28
330
24
100
AcDbEntity
  8
0
100
AcDbBlockEnd
  0
BLOCK
  5
2A
330
29
100
AcDbEntity
  8
0
100
AcDbBlockBegin
  2
_BOXBLANK
 70
     0
 10
0.0
 20
0.0
 30
0.0
  3
_BOXBLANK
  1

  0
LINE
  5
2B
330
29
100
AcDbEntity
  8
0
  6
BYBLOCK
 62
     0
370
    -2
100
AcDbLine
 10
-0.5
 20
-0.5
 30
0.0
 11
0.5
 21
-0.5
 31
0.0
  0
LINE
  5
2C
330
29
100
AcDbEntity
  8
0
  6
BYBLOCK
 62
     0
370
    -2
100
AcDbLine
 10
0.5
 20
-0.5
 30
0.0
 11
0.5
 21
0.5
 31
0.0
  0
LINE
  5
2D
330
29
100
AcDbEntity
  8
0
  6
BYBLOCK
 62
     0
370
    -2
100
AcDbLine
 10
0.5
 20
0.5
 30
0.0
 11
-0.5
 21
0.5
 31
0.0
  0
LINE
  5
2E
330
29
100
AcDbEntity
  8
0
  6
BYBLOCK
 62
     0
370
    -2
100
AcDbLine
 10
-0.5
 20
0.5
 30
0.0
 11
-0.5
 21
-0.5
 31
0.0
  0
LINE
  5
2F
330
29
100
AcDbEntity
  8
0
  6
BYBLOCK
 62
     0
370
    -2
100
AcDbLine
 10
-0.5
 20
0.0
 30
0.0
 11
-1.0
 21
0.0
 31
0.0
  0
ENDBLK
  5
30
330
29
100
AcDbEntity
  8
0
100
AcDbBlockEnd
  0
BLOCK
  5
32
330
31
100
AcDbEntity
  8
0
100
AcDbBlockBegin
  2
_OBLIQUE
 70
     0
 10
0.0
 20
0.0
 30
0.0
  3
_OBLIQUE
  1

  0
LINE
  5
33
330
31
100
AcDbEntity
  8
0
  6
BYBLOCK
 62
     0
370
    -2
100
AcDbLine
 10
-0.5
 20
-0.5
 30
0.0
 11
0.5
 21
0.5
 31
0.0
  0
ENDBLK
  5
34
330
31
100
AcDbEntity
  8
0
100
AcDbBlockEnd
  0
BLOCK
  5
36
330
35
100
AcDbEntity
  8
0
100
AcDbBlockBegin
  2
_OPEN90
 70
     0
 10
0.0
 20
0.0
 30
0.0
  3
_OPEN90
  1

  0
LINE
  5
37
330
35
100
AcDbEntity
  8
0
  6
BYBLOCK
 62
     0
370
    -2
100
AcDbLine
 10
-0.5
 20
0.5
 30
0.0
 11
0.0
 21
0.0
 31
0.0
  0
LINE
  5
38
330
35
100
AcDbEntity
  8
0
  6
BYBLOCK
 62
     0
370
    -2
100
AcDbLine
 10
0.0
 20
0.0
 30
0.0
 11
-0.5
 21
-0.5
 31
0.0
  0
LINE
  5
39
330
35
100
AcDbEntity
  8
0
  6
BYBLOCK
 62
     0
370
    -2
100
AcDbLine
 10
0.0
 20
0.0
 30
0.0
 11
-1.0
 21
0.0
 31
0.0
  0
ENDBLK
  5
3A
330
35
100
AcDbEntity
  8
0
100
AcDbBlockEnd
  0
BLOCK
  5
3C
330
3B
100
AcDbEntity
  8
0
100
AcDbBlockBegin
  2
_CLOSEDBLANK
 70
     0
 10
0.0
 20
0.0
 30
0.0
  3
_CLOSEDBLANK
  1

  0
LINE
  5
3D
330
3B
100
AcDbEntity
  8
0
  6
BYBLOCK
 62
     0
370
    -2
100
AcDbLine
 10
-1.0
 20
0.1666666666666666
 30
0.0
 11
0.0
 21
0.0
 31
0.0
  0
LINE
  5
3E
330
3B
100
AcDbEntity
  8
0
  6
BYBLOCK
 62
     0
370
    -2
100
AcDbLine
 10
0.0
 20
0.0
 30
0.0
 11
-1.0
 21
-0.1666666666666666
 31
0.0
  0
LINE
  5
3F
330
3B
100
AcDbEntity
  8
0
  6
BYBLOCK
 62
     0
370
    -2
100
AcDbLine
 10
-1.0
 20
0.1666666666666666
 30
0.0
 11
-1.0
 21
-0.1666666666666666
 31
0.0
  0
ENDBLK
  5
40
330
3B
100
AcDbEntity
  8
0
100
AcDbBlockEnd
  0
BLOCK
  5
42
330
41
100
AcDbEntity
  8
0
100
AcDbBlockBegin
  2
_DOTBLANK
 70
     0
 10
0.0
 20
0.0
 30
0.0
  3
_DOTBLANK
  1

  0
CIRCLE
  5
43
330
41
100
AcDbEntity
  8
0
  6
BYBLOCK
 62
     0
370
    -2
100
AcDbCircle
 10
0.0
 20
0.0
 30
0.0
 40
0.5
  0
LINE
  5
44
330
41
100
AcDbEntity
  8
0
  6
BYBLOCK
 62
     0
370
    -2
100
AcDbLine
 10
-0.5
 20
0.0
 30
0.0
 11
-1.0
 21
0.0
 31
0.0
  0
ENDBLK
  5
45
330
41
100
AcDbEntity
  8
0
100
AcDbBlockEnd
  0
ENDSEC
  0
SECTION
  2
ENTITIES
  0
MTEXT
  5
46
100
AcDbEntity
  8
A7
  6
CONTINUOUS
 62
3
100
AcDbMText
 10
9.999997526638502
 20
18.00000076076889
 30
0.000000000000000
 40
3.000000000000000
 41
0.000000000000000
 44
0.6739999771118164
 71
     7
 72
     1
  1
{\H0.93x;{TYPE No.TL-199}}
 11
1.000000000000000
 21
0.000000000000000
 31
0.000000000000000
  7
STANDARD
  0
POINT
  5
47
100
AcDbEntity
  8
A7
  6
CONTINUOUS
 62
3
100
AcDbPoint
 10
9.999997526638502
 20
18.00000076076889
 30
0.000000000000000
  0
POINT
  5
48
100
AcDbEntity
  8
A7
  6
CONTINUOUS
 62
3
100
AcDbPoint
 10
50.00000000000000
 20
50.00000000000000
 30
0.000000000000000
  0
ARC
  5
49
100
AcDbEntity
  8
A1
  6
CONTINUOUS
 62
7
100
AcDbCircle
 10
304.6179080917011
 20
5.191191315173995
 30
0.000000000000000
 40
1.000000000000000
100
AcDbArc
 50
270.0000000000000
 51
360.0000000000000
  0
ARC
  5
4A
100
AcDbEntity
  8
A1
  6
CONTINUOUS
 62
7
100
AcDbCircle
 10
299.4179080917012
 20
5.191191315173995
 30
0.000000000000000
 40
1.000000000000000
100
AcDbArc
 50
179.9999999999984
 51
270.0000000000000
  0
ARC
  5
4B
100
AcDbEntity
  8
A1
  6
CONTINUOUS
 62
7
100
AcDbCircle
 10
304.6179080917012
 20
61.19119131517411
 30
0.000000000000000
 40
1.000000000000000
100
AcDbArc
 50
0.000000000000000
 51
90.00000000000632
  0
ARC
  5
4C
100
AcDbEntity
  8
A1
  6
CONTINUOUS
 62
7
100
AcDbCircle
 10
299.4179080917012
 20
61.19119131517411
 30
0.000000000000000
 40
1.000000000000000
100
AcDbArc
 50
90.00000000000000
 51
180.0000000000000
  0
LINE
  5
4D
100
AcDbEntity
  8
A1
  6
CONTINUOUS
 62
7
100
AcDbLine
 10
303.6179080917012
 20
121.9911913151741
 30
0.000000000000000
 11
303.6179080917012
 21
122.6911913151741
 31
0.000000000000000
  0
LINE
  5
4E
100
AcDbEntity
  8
A1
  6
CONTINUOUS
 62
7
100
AcDbLine
 10
300.4179080917012
 20
121.9911913151741
 30
0.000000000000000
 11
300.4179080917012
 21
122.6911913151741
 31
0.000000000000000
  0
LINE
  5
4F
100
AcDbEntity
  8
A1
  6
CONTINUOUS
 62
7
100
AcDbLine
 10
300.4179080917012
 20
122.6911913151741
 30
0.000000000000000
 11
303.6179080917012
 21
122.6911913151741
 31
0.000000000000000
  0
LINE
  5
50
100
AcDbEntity
  8
A1
  6
CONTINUOUS
 62
7
100
AcDbLine
 10
299.4179080917012
 20
4.191191315173995
 30
0.000000000000000
 11
304.6179080917011
 21
4.191191315173995
 31
0.000000000000000
  0
LINE
  5
51
100
AcDbEntity
  8
A1
  6
CONTINUOUS
 62
7
100
AcDbLine
 10
300.4179080917012
 20
118.1911913151741
 30
0.000000000000000
 11
303.6179080917012
 21
118.1911913151741
 31
0.000000000000000
  0
LINE
  5
52
100
AcDbEntity
  8
A1
  6
CONTINUOUS
 62
7
100
AcDbLine
 10
299.4179080917012
 20
62.19119131517411
 30
0.000000000000000
 11
304.6179080917011
 21
62.19119131517411
 31
0.000000000000000
  0
ARC
  5
53
100
AcDbEntity
  8
A1
  6
CONTINUOUS
 62
7
100
AcDbCircle
 10
299.8179080917010
 20
119.0911913151741
 30
0.000000000000000
 40
2.900000000000000
100
AcDbArc
 50
90.00000000000001
 51
180.0000000000001
  0
ARC
  5
54
100
AcDbEntity
  8
A1
  6
CONTINUOUS
 62
7
100
AcDbCircle
 10
304.1179080917012
 20
119.0911913151741
 30
0.000000000000000
 40
2.900000000000000
100
AcDbArc
 50
359.9999999999998
 51
450.0000000000000
  0
ARC
  5
55
100
AcDbEntity
  8
A1
  6
CONTINUOUS
 62
7
100
AcDbCircle
 10
295.8679080917010
 20
104.9911913151742
 30
0.000000000000000
 40
1.049999999999983
100
AcDbArc
 50
180.0000000000000
 51
360.0000000000000
  0
ARC
  5
56
100
AcDbEntity
  8
A1
  6
CONTINUOUS
 62
7
100
AcDbCircle
 10
295.8679080917009
 20
113.3911913151740
 30
0.000000000000000
 40
1.049999999999983
100
AcDbArc
 50
0.000000000000000
 51
180.0000000000000
  0
ARC
  5
57
100
AcDbEntity
  8
A1
  6
CONTINUOUS
 62
7
100
AcDbCircle
 10
308.0679080917012
 20
104.9911913151742
 30
0.000000000000000
 40
1.049999999999983
100
AcDbArc
 50
180.0000000000000
 51
360.0000000000000
  0
ARC
  5
58
100
AcDbEntity
  8
A1
  6
CONTINUOUS
 62
7
100
AcDbCircle
 10
308.0679080917012
 20
113.3911913151740
 30
0.000000000000000
 40
1.049999999999983
100
AcDbArc
 50
0.000000000000000
 51
180.0000000000000
  0
LINE
  5
59
100
AcDbEntity
  8
A1
  6
CONTINUOUS
 62
7
100
AcDbLine
 10
288.6196327424633
 20
89.09119131517397
 30
0.000000000000000
 11
279.4679080917011
 21
89.09119131517397
 31
0.000000000000000
  0
LINE
  5
5A
100
AcDbEntity
  8
A1
  6
CONTINUOUS
 62
7
100
AcDbLine
 10
288.6179080917012
 20
119.0911913151741
 30
0.000000000000000
 11
279.4679080917011
 21
119.0911913151741
 31
0.000000000000000
  0
LINE
  5
5B
100
AcDbEntity
  8
A1
  6
CONTINUOUS
 62
7
100
AcDbLine
 10
279.4679080917011
 20
89.09119131517397
 30
0.000000000000000
 11
279.4679080917011
 21
119.0911913151741
 31
0.000000000000000
  0
LINE
  5
5C
100
AcDbEntity
  8
A1
  6
CONTINUOUS
 62
7
100
AcDbLine
 10
315.4161834409391
 20
89.09119131517397
 30
0.000000000000000
 11
324.4679080917011
 21
89.09119131517397
 31
0.000000000000000
  0
LINE
  5
5D
100
AcDbEntity
  8
A1
  6
CONTINUOUS
 62
7
100
AcDbLine
 10
315.4179080917012
 20
119.0911913151741
 30
0.000000000000000
 11
324.4679080917011
 21
119.0911913151741
 31
0.000000000000000
  0
LINE
  5
5E
100
AcDbEntity
  8
A1
  6
CONTINUOUS
 62
7
100
AcDbLine
 10
324.4679080917011
 20
89.09119131517397
 30
0.000000000000000
 11
324.4679080917011
 21
119.0911913151741
 31
0.000000000000000
  0
LINE
  5
5F
100
AcDbEntity
  8
A1
  6
CONTINUOUS
 62
7
100
AcDbLine
 10
303.6179080917012
 20
106.1911913151742
 30
0.000000000000000
 11
304.1179080917012
 21
106.1911913151742
 31
0.000000000000000
  0
LINE
  5
60
100
AcDbEntity
  8
A1
  6
CONTINUOUS
 62
7
100
AcDbLine
 10
299.8179080917009
 20
106.1911913151742
 30
0.000000000000000
 11
300.4179080917012
 21
106.1911913151742
 31
0.000000000000000
  0
LINE
  5
61
100
AcDbEntity
  8
A1
  6
CONTINUOUS
 62
7
100
AcDbLine
 10
300.4179080917012
 20
112.1911913151740
 30
0.000000000000000
 11
299.8179080917009
 21
112.1911913151740
 31
0.000000000000000
  0
LINE
  5
62
100
AcDbEntity
  8
A1
  6
CONTINUOUS
 62
7
100
AcDbLine
 10
304.1179080917012
 20
112.1911913151740
 30
0.000000000000000
 11
303.6179080917012
 21
112.1911913151740
 31
0.000000000000000
  0
LINE
  5
63
100
AcDbEntity
  8
A1
  6
CONTINUOUS
 62
7
100
AcDbLine
 10
299.8179080917010
 20
121.9911913151741
 30
0.000000000000000
 11
304.1179080917012
 21
121.9911913151741
 31
0.000000000000000
  0
LINE
  5
64
100
AcDbEntity
  8
A1
  6
CONTINUOUS
 62
7
100
AcDbLine
 10
294.8179080917010
 20
113.3911913151740
 30
0.000000000000000
 11
294.8179080917010
 21
104.9911913151742
 31
0.000000000000000
  0
LINE
  5
65
100
AcDbEntity
  8
A1
  6
CONTINUOUS
 62
7
100
AcDbLine
 10
309.1179080917011
 20
113.3911913151740
 30
0.000000000000000
 11
309.1179080917011
 21
104.9911913151742
 31
0.000000000000000
  0
ARC
  5
66
100
AcDbEntity
  8
A1
  6
CONTINUOUS
 62
7
100
AcDbCircle
 10
307.0179080917012
 20
179.6911913151740
 30
0.000000000000000
 40
8.500000000000000
100
AcDbArc
 50
270.0000000000000
 51
360.0000000000000
  0
ARC
  5
67
100
AcDbEntity
  8
A1
  6
CONTINUOUS
 62
7
100
AcDbCircle
 10
297.0179080917012
 20
179.6911913151740
 30
0.000000000000000
 40
8.500000000000000
100
AcDbArc
 50
180.0000000000000
 51
270.0000000000000
  0
LINE
  5
68
100
AcDbEntity
  8
A1
  6
CONTINUOUS
 62
7
100
AcDbLine
 10
315.5179080917012
 20
200.5911913151741
 30
0.000000000000000
 11
288.5179080917013
 21
200.5911913151741
 31
0.000000000000000
  0
LINE
  5
69
100
AcDbEntity
  8
A1
  6
CONTINUOUS
 62
7
100
AcDbLine
 10
297.5527653168283
 20
125.7911913151741
 30
0.000000000000000
 11
297.0179080917012
 21
125.7911913151741
 31
0.000000000000000
  0
LINE
  5
6A
100
AcDbEntity
  8
A1
  6
CONTINUOUS
 62
7
100
AcDbLine
 10
297.0179080917012
 20
127.3911913151740
 30
0.000000000000000
 11
297.0179080917012
 21
125.7911913151741
 31
0.000000000000000
  0
LINE
  5
6B
100
AcDbEntity
  8
A1
  6
CONTINUOUS
 62
7
100
AcDbLine
 10
307.0179080917012
 20
125.7911913151741
 30
0.000000000000000
 11
307.0179080917012
 21
127.3911913151740
 31
0.000000000000000
  0
LINE
  5
6C
100
AcDbEntity
  8
A1
  6
CONTINUOUS
 62
7
100
AcDbLine
 10
307.0179080917012
 20
125.7911913151741
 30
0.000000000000000
 11
306.4830508665741
 21
125.7911913151741
 31
0.000000000000000
  0
LINE
  5
6D
100
AcDbEntity
  8
A1
  6
CONTINUOUS
 62
7
100
AcDbLine
 10
297.5527653168283
 20
127.3911913151740
 30
0.000000000000000
 11
297.5527653168283
 21
125.7911913151741
 31
0.000000000000000
  0
LINE
  5
6E
100
AcDbEntity
  8
A1
  6
CONTINUOUS
 62
7
100
AcDbLine
 10
306.4830508665742
 20
125.7911913151741
 30
0.000000000000000
 11
297.5527653168283
 21
125.7911913151741
 31
0.000000000000000
  0
LINE
  5
6F
100
AcDbEntity
  8
A1
  6
CONTINUOUS
 62
7
100
AcDbLine
 10
306.4830508665742
 20
127.3911913151740
 30
0.000000000000000
 11
306.4830508665742
 21
125.7911913151741
 31
0.000000000000000
  0
SPLINE
  5
70
100
AcDbEntity
  8
A1
  6
CONTINUOUS
 62
7
100
AcDbSpline
210
0.000000000000000
220
0.000000000000000
230
1.000000000000000
 70
     8
 71
     3
 72
    10
 73
     6
 74
     0
 42
1.000000000000000e-07
 43
1.000000000000000e-07
 12
0.9383970230414889
 22
-0.3455590067489993
 32
0.000000000000000
 13
0.9883640220414236
 23
-0.1521070673359191
 33
0.000000000000000
 40
0.000000000000000
 40
0.000000000000000
 40
0.000000000000000
 40
0.000000000000000
 40
0.4843381456834242
 40
1.146036880303991
 40
1.582515233212273
 40
1.582515233212273
 40
1.582515233212273
 40
1.582515233212273
 10
292.3787586367660
 20
128.5650490946171
 30
0.000000000000000
 10
292.5302591281176
 20
128.5092599584328
 30
0.000000000000000
 10
292.8925931670304
 20
128.3877350693080
 30
0.000000000000000
 10
293.4025682704615
 20
128.2502599087241
 30
0.000000000000000
 10
293.7628923260620
 20
128.1841357123016
 30
0.000000000000000
 10
293.9066921595335
 20
128.1620052315628
 30
0.000000000000000
  0
SPLINE
  5
71
100
AcDbEntity
  8
A1
  6
CONTINUOUS
 62
7
100
AcDbSpline
210
0.000000000000000
220
0.000000000000000
230
1.000000000000000
 70
     8
 71
     3
 72
    11
 73
     7
 74
     0
 42
1.000000000000000e-07
 43
1.000000000000000e-07
 12
0.9941261594249227
 22
0.1082274417516373
 32
0.000000000000000
 13
0.9418234510653747
 23
0.3361079990474991
 33
0.000000000000000
 40
0.000000000000000
 40
0.000000000000000
 40
0.000000000000000
 40
0.000000000000000
 40
0.4313034315117229
 40
0.8673840770830750
 40
1.308489463279437
 40
1.755058222917170
 40
1.755058222917170
 40
1.755058222917170
 40
1.755058222917170
 10
295.4066921595335
 20
128.1279847575293
 30
0.000000000000000
 10
295.5496155008386
 20
128.1435443798664
 30
0.000000000000000
 10
295.8361464402802
 20
128.1840711992715
 30
0.000000000000000
 10
296.2631552688383
 20
128.2744095505522
 30
0.000000000000000
 10
296.6888983565075
 20
128.3911046483747
 30
0.000000000000000
 10
296.9702344934761
 20
128.4832277393435
 30
0.000000000000000
 10
297.1104308035895
 20
128.5332595167565
 30
0.000000000000000
  0
SPLINE
  5
72
100
AcDbEntity
  8
A1
  6
CONTINUOUS
 62
7
100
AcDbSpline
210
0.000000000000000
220
0.000000000000000
230
1.000000000000000
 70
     8
 71
     3
 72
    11
 73
     7
 74
     0
 42
1.000000000000000e-07
 43
1.000000000000000e-07
 12
0.9884713175042634
 22
0.1514082377967725
 32
0.000000000000000
 13
0.9392668120499366
 23
0.3431877850134697
 33
0.000000000000000
 40
0.000000000000000
 40
0.000000000000000
 40
0.000000000000000
 40
0.000000000000000
 40
0.4345998593322179
 40
0.8744770582485600
 40
1.319649086340740
 40
1.582416177321591
 40
1.582416177321591
 40
1.582416177321591
 40
1.582416177321591
 10
310.1291240238689
 20
128.1620052315628
 30
0.000000000000000
 10
310.2723205223826
 20
128.1839392311789
 30
0.000000000000000
 10
310.5592265932223
 20
128.2367289087358
 30
0.000000000000000
 10
310.9860996659827
 20
128.3439645144466
 30
0.000000000000000
 10
311.3517601107070
 20
128.4571028297937
 30
0.000000000000000
 10
311.5745721619006
 20
128.5349110144224
 30
0.000000000000000
 10
311.6568416311864
 20
128.5649704997317
 30
0.000000000000000
  0
SPLINE
  5
73
100
AcDbEntity
  8
A1
  6
CONTINUOUS
 62
7
100
AcDbSpline
210
0.000000000000000
220
0.000000000000000
230
1.000000000000000
 70
     8
 71
     3
 72
    10
 73
     6
 74
     0
 42
1.000000000000000e-07
 43
1.000000000000000e-07
 12
0.9407099673278481
 22
-0.3392119652510246
 32
0.000000000000000
 13
0.9940542971016839
 23
-0.1088855105776929
 33
0.000000000000000
 40
0.000000000000000
 40
0.000000000000000
 40
0.000000000000000
 40
0.000000000000000
 40
0.6655415731933348
 40
1.321433572492966
 40
1.754848170208808
 40
1.754848170208808
 40
1.754848170208808
 40
1.754848170208808
 10
306.9253853798131
 20
128.5332595167565
 30
0.000000000000000
 10
307.1340792436711
 20
128.4580062950901
 30
0.000000000000000
 10
307.5549442299764
 20
128.3263583371094
 30
0.000000000000000
 10
308.1256353858892
 20
128.1944191804908
 30
0.000000000000000
 10
308.4855114760949
 20
128.1437156141124
 30
0.000000000000000
 10
308.6291240238569
 20
128.1279847575244
 30
0.000000000000000
  0
SPLINE
  5
74
100
AcDbEntity
  8
A1
  6
CONTINUOUS
 62
7
100
AcDbSpline
210
0.000000000000000
220
0.000000000000000
230
1.000000000000000
 70
     8
 71
     3
 72
    15
 73
    11
 74
     0
 42
1.000000000000000e-07
 43
1.000000000000000e-07
 12
-0.9409455339512078
 22
0.3385579745580571
 32
0.000000000000000
 13
-0.9384640253490488
 23
-0.3453770014427846
 33
0.000000000000000
 40
0.000000000000000
 40
0.000000000000000
 40
0.000000000000000
 40
0.000000000000000
 40
0.6254659993481211
 40
1.242260332193323
 40
1.857218496754012
 40
2.469622425693844
 40
3.092925523512297
 40
3.723731513522376
 40
4.369553409778909
 40
4.841076538511821
 40
4.841076538511821
 40
4.841076538511821
 40
4.841076538511821
 10
297.1104308035893
 20
134.2492323906226
 30
0.000000000000000
 10
296.9142543240143
 20
134.3198178912540
 30
0.000000000000000
 10
296.5189733988063
 20
134.4446218365273
 30
0.000000000000000
 10
295.9161943846090
 20
134.5884974964158
 30
0.000000000000000
 10
295.3065357837223
 20
134.6750044984165
 30
0.000000000000000
 10
294.6888993317918
 20
134.6979530008867
 30
0.000000000000000
 10
294.0671250170341
 20
134.6533495717742
 30
0.000000000000000
 10
293.4424260280459
 20
134.5433034766844
 30
0.000000000000000
 10
292.8794501243614
 20
134.3905479417146
 30
0.000000000000000
 10
292.5262892033750
 20
134.2717294976598
 30
0.000000000000000
 10
292.3787867055630
 20
134.2174450828889
 30
0.000000000000000
  0
SPLINE
  5
75
100
AcDbEntity
  8
A1
  6
CONTINUOUS
 62
7
100
AcDbSpline
210
0.000000000000000
220
0.000000000000000
230
1.000000000000000
 70
     8
 71
     3
 72
    15
 73
    11
 74
     0
 42
1.000000000000000e-07
 43
1.000000000000000e-07
 12
-0.9385960077734126
 22
0.3450181650161994
 32
0.000000000000000
 13
-0.9407819773734900
 23
-0.3390121989693853
 33
0.000000000000000
 40
0.000000000000000
 40
0.000000000000000
 40
0.000000000000000
 40
0.000000000000000
 40
0.4427947727489530
 40
1.064151409912967
 40
1.682223700073673
 40
2.295770843815195
 40
2.917666604520489
 40
3.545129153271178
 40
4.186449448270927
 40
4.841032328186959
 40
4.841032328186959
 40
4.841032328186959
 40
4.841032328186959
 10
311.6570001394471
 20
134.2174557625557
 30
0.000000000000000
 10
311.5184650041253
 20
134.2683798425465
 30
0.000000000000000
 10
311.1823198799793
 20
134.3820757433880
 30
0.000000000000000
 10
310.6413567314154
 20
134.5316993817744
 30
0.000000000000000
 10
310.0331568101838
 20
134.6445008013468
 30
0.000000000000000
 10
309.4163577272304
 20
134.6962897053654
 30
0.000000000000000
 10
308.7943466489664
 20
134.6809466852430
 30
0.000000000000000
 10
308.1684056318841
 20
134.5983070934942
 30
0.000000000000000
 10
307.5432847300883
 20
134.4526844178581
 30
0.000000000000000
 10
307.1306586385206
 20
134.3232029177987
 30
0.000000000000000
 10
306.9253853798132
 20
134.2492323906227
 30
0.000000000000000
  0
SPLINE
  5
76
100
AcDbEntity
  8
A1
  6
CONTINUOUS
 62
7
100
AcDbSpline
210
0.000000000000000
220
0.000000000000000
230
1.000000000000000
 70
     8
 71
     3
 72
    11
 73
     7
 74
     0
 42
1.000000000000000e-07
 43
1.000000000000000e-07
 12
0.9977952676899804
 22
0.06636718899858352
 32
0.000000000000000
 13
0.9827425954986211
 23
0.1849783527652562
 33
0.000000000000000
 40
0.000000000000000
 40
0.000000000000000
 40
0.000000000000000
 40
0.000000000000000
 40
0.8574432714633062
 40
1.716899417220410
 40
2.577161629715913
 40
3.438261209899170
 40
3.438261209899170
 40
3.438261209899170
 40
3.438261209899170
 10
303.5179080917012
 20
128.0888804281405
 30
0.000000000000000
 10
303.8030923712274
 20
128.1078491280248
 30
0.000000000000000
 10
304.3735608347259
 20
128.1551907978319
 30
0.000000000000000
 10
305.2268876713870
 20
128.2555034818172
 30
0.000000000000000
 10
306.0779668674487
 20
128.3816307933831
 30
0.000000000000000
 10
306.6433056343424
 20
128.4801645894534
 30
0.000000000000000
 10
306.9253853798131
 20
128.5332595167565
 30
0.000000000000000
  0
SPLINE
  5
77
100
AcDbEntity
  8
A1
  6
CONTINUOUS
 62
7
100
AcDbSpline
210
0.000000000000000
220
0.000000000000000
230
1.000000000000000
 70
     8
 71
     3
 72
    15
 73
    11
 74
     0
 42
1.000000000000000e-07
 43
1.000000000000000e-07
 12
-0.9825337425436373
 22
0.1860845097347692
 32
0.000000000000000
 13
-0.9824883473858108
 23
-0.1863240383084985
 33
0.000000000000000
 40
0.000000000000000
 40
0.000000000000000
 40
0.000000000000000
 40
0.000000000000000
 40
1.208181496168068
 40
2.416252283106784
 40
3.638616549405741
 40
4.860898540056941
 40
6.107033370947292
 40
7.353249570548732
 40
8.612956147618473
 40
9.878035050440493
 40
9.878035050440493
 40
9.878035050440493
 40
9.878035050440493
 10
306.9253853798131
 20
134.2492323906227
 30
0.000000000000000
 10
306.5296923507791
 20
134.3241736777511
 30
0.000000000000000
 10
305.7352711209852
 20
134.4581207716339
 30
0.000000000000000
 10
304.5323299870779
 20
134.6156082518933
 30
0.000000000000000
 10
303.3183972300682
 20
134.7161401331777
 30
0.000000000000000
 10
302.0881403930939
 20
134.7546097282157
 30
0.000000000000000
 10
300.8496788932066
 20
134.7237830207594
 30
0.000000000000000
 10
299.6022027442468
 20
134.6266986051208
 30
0.000000000000000
 10
298.3549949470840
 20
134.4670239681818
 30
0.000000000000000
 10
297.5247392304382
 20
134.3278039272736
 30
0.000000000000000
 10
297.1104308035895
 20
134.2492323906227
 30
0.000000000000000
  0
SPLINE
  5
78
100
AcDbEntity
  8
A1
  6
CONTINUOUS
 62
7
100
AcDbSpline
210
0.000000000000000
220
0.000000000000000
230
1.000000000000000
 70
     8
 71
     3
 72
    10
 73
     6
 74
     0
 42
1.000000000000000e-07
 43
1.000000000000000e-07
 12
0.9824702374085064
 22
-0.1864195070438086
 32
0.000000000000000
 13
0.9977764011207455
 23
-0.06665023155369454
 33
0.000000000000000
 40
0.000000000000000
 40
0.000000000000000
 40
0.000000000000000
 40
0.000000000000000
 40
1.287261227752724
 40
2.576681150107681
 40
3.438153492687273
 40
3.438153492687273
 40
3.438153492687273
 40
3.438153492687273
 10
297.1104308035895
 20
128.5332595167565
 30
0.000000000000000
 10
297.5319960849351
 20
128.4532693155851
 30
0.000000000000000
 10
298.3793785431626
 20
128.3115509430433
 30
0.000000000000000
 10
299.5167034411178
 20
128.1671641266235
 30
0.000000000000000
 10
300.2313891671531
 20
128.1080195385163
 30
0.000000000000000
 10
300.5179080917012
 20
128.0888804281463
 30
0.000000000000000
  0
LINE
  5
79
100
AcDbEntity
  8
A1
  6
CONTINUOUS
 62
7
100
AcDbLine
 10
288.6179080917012
 20
138.2911913151741
 30
0.000000000000000
 11
288.0179080917012
 21
138.2911913151741
 31
0.000000000000000
  0
LINE
  5
7A
100
AcDbEntity
  8
A1
  6
CONTINUOUS
 62
7
100
AcDbLine
 10
292.0179080917012
 20
138.2911913151741
 30
0.000000000000000
 11
291.5179080917012
 21
138.2911913151741
 31
0.000000000000000
  0
LINE
  5
7B
100
AcDbEntity
  8
A1
  6
CONTINUOUS
 62
7
100
AcDbLine
 10
288.6179080917012
 20
135.3911913151740
 30
0.000000000000000
 11
288.0179080917012
 21
135.3911913151740
 31
0.000000000000000
  0
LINE
  5
7C
100
AcDbEntity
  8
A1
  6
CONTINUOUS
 62
7
100
AcDbLine
 10
292.0179080917012
 20
135.3911913151740
 30
0.000000000000000
 11
291.5179080917012
 21
135.3911913151740
 31
0.000000000000000
  0
LINE
  5
7D
100
AcDbEntity
  8
A1
  6
CONTINUOUS
 62
7
100
AcDbLine
 10
288.0179080917012
 20
135.3911913151740
 30
0.000000000000000
 11
288.0179080917012
 21
138.2911913151741
 31
0.000000000000000
  0
LINE
  5
7E
100
AcDbEntity
  8
A1
  6
CONTINUOUS
 62
7
100
AcDbLine
 10
312.5179080917013
 20
138.2911913151741
 30
0.000000000000000
 11
312.0179080917012
 21
138.2911913151741
 31
0.000000000000000
  0
LINE
  5
7F
100
AcDbEntity
  8
A1
  6
CONTINUOUS
 62
7
100
AcDbLine
 10
316.0179080917012
 20
138.2911913151741
 30
0.000000000000000
 11
315.4179080917012
 21
138.2911913151741
 31
0.000000000000000
  0
LINE
  5
80
100
AcDbEntity
  8
A1
  6
CONTINUOUS
 62
7
100
AcDbLine
 10
312.5179080917013
 20
135.3911913151740
 30
0.000000000000000
 11
312.0179080917012
 21
135.3911913151740
 31
0.000000000000000
  0
LINE
  5
81
100
AcDbEntity
  8
A1
  6
CONTINUOUS
 62
7
100
AcDbLine
 10
316.0179080917012
 20
135.3911913151740
 30
0.000000000000000
 11
315.4179080917012
 21
135.3911913151740
 31
0.000000000000000
  0
LINE
  5
82
100
AcDbEntity
  8
A1
  6
CONTINUOUS
 62
7
100
AcDbLine
 10
316.0179080917012
 20
135.3911913151740
 30
0.000000000000000
 11
316.0179080917012
 21
138.2911913151741
 31
0.000000000000000
  0
LINE
  5
83
100
AcDbEntity
  8
A1
  6
CONTINUOUS
 62
7
100
AcDbLine
 10
308.2404876184571
 20
127.3911913151740
 30
0.000000000000000
 11
308.4319098339088
 21
127.3911913151740
 31
0.000000000000000
  0
LINE
  5
84
100
AcDbEntity
  8
A1
  6
CONTINUOUS
 62
7
100
AcDbLine
 10
308.4319098339048
 20
127.3911913151741
 30
0.000000000000000
 11
311.6574231924237
 21
128.5651821679016
 31
0.000000000000000
  0
LINE
  5
85
100
AcDbEntity
  8
A1
  6
CONTINUOUS
 62
7
100
AcDbLine
 10
311.6568416311863
 20
128.5649704997318
 30
0.000000000000000
 11
311.8328626679249
 21
128.6307643055276
 31
0.000000000000000
  0
LINE
  5
86
100
AcDbEntity
  8
A1
  6
CONTINUOUS
 62
7
100
AcDbLine
 10
292.3776590681433
 20
128.5654492939679
 30
0.000000000000000
 11
295.6039063494977
 21
127.3911913151741
 31
0.000000000000000
  0
LINE
  5
87
100
AcDbEntity
  8
A1
  6
CONTINUOUS
 62
7
100
AcDbLine
 10
295.6039063494936
 20
127.3911913151740
 30
0.000000000000000
 11
295.7953285649454
 21
127.3911913151740
 31
0.000000000000000
  0
LINE
  5
88
100
AcDbEntity
  8
A1
  6
CONTINUOUS
 62
7
100
AcDbLine
 10
306.8995036944925
 20
127.3911913151740
 30
0.000000000000000
 11
308.2404876184570
 21
127.3911913151740
 31
0.000000000000000
  0
LINE
  5
89
100
AcDbEntity
  8
A1
  6
CONTINUOUS
 62
7
100
AcDbLine
 10
308.2404876184569
 20
127.3911913151741
 30
0.000000000000000
 11
310.1291240238688
 21
128.1620052315629
 31
0.000000000000000
  0
LINE
  5
8A
100
AcDbEntity
  8
A1
  6
CONTINUOUS
 62
7
100
AcDbLine
 10
295.7953285649454
 20
127.3911913151740
 30
0.000000000000000
 11
297.1363124889099
 21
127.3911913151740
 31
0.000000000000000
  0
LINE
  5
8B
100
AcDbEntity
  8
A1
  6
CONTINUOUS
 62
7
100
AcDbLine
 10
293.9066921595335
 20
128.1620052315627
 30
0.000000000000000
 11
295.7953285649455
 21
127.3911913151740
 31
0.000000000000000
  0
LINE
  5
8C
100
AcDbEntity
  8
A1
  6
CONTINUOUS
 62
7
100
AcDbLine
 10
292.0179080917012
 20
135.3911913151740
 30
0.000000000000000
 11
292.0179080917012
 21
138.2911913151741
 31
0.000000000000000
  0
LINE
  5
8D
100
AcDbEntity
  8
A1
  6
CONTINUOUS
 62
7
100
AcDbLine
 10
312.0179080917012
 20
138.2911913151741
 30
0.000000000000000
 11
292.0179080917012
 21
138.2911913151741
 31
0.000000000000000
  0
LINE
  5
8E
100
AcDbEntity
  8
A1
  6
CONTINUOUS
 62
7
100
AcDbLine
 10
312.0179080917012
 20
135.3911913151740
 30
0.000000000000000
 11
292.0179080917012
 21
135.3911913151740
 31
0.000000000000000
  0
LINE
  5
8F
100
AcDbEntity
  8
A1
  6
CONTINUOUS
 62
7
100
AcDbLine
 10
312.0179080917012
 20
135.3911913151740
 30
0.000000000000000
 11
312.0179080917012
 21
138.2911913151741
 31
0.000000000000000
  0
LINE
  5
90
100
AcDbEntity
  8
A1
  6
CONTINUOUS
 62
7
100
AcDbLine
 10
300.5179080917012
 20
128.0888804281463
 30
0.000000000000000
 11
300.5179080917012
 21
127.3911913151740
 31
0.000000000000000
  0
LINE
  5
91
100
AcDbEntity
  8
A1
  6
CONTINUOUS
 62
7
100
AcDbLine
 10
297.1850827146977
 20
127.3911913151741
 30
0.000000000000000
 11
295.4066921595336
 21
128.1279847575293
 31
0.000000000000000
  0
LINE
  5
92
100
AcDbEntity
  8
A1
  6
CONTINUOUS
 62
7
100
AcDbLine
 10
297.1850827146976
 20
127.3911913151740
 30
0.000000000000000
 11
300.5179080917012
 21
127.3911913151740
 31
0.000000000000000
  0
LINE
  5
93
100
AcDbEntity
  8
A1
  6
CONTINUOUS
 62
7
100
AcDbLine
 10
308.6291240238569
 20
128.1279847575243
 30
0.000000000000000
 11
306.8507334687049
 21
127.3911913151740
 31
0.000000000000000
  0
LINE
  5
94
100
AcDbEntity
  8
A1
  6
CONTINUOUS
 62
7
100
AcDbLine
 10
303.5179080917012
 20
127.3911913151740
 30
0.000000000000000
 11
303.5179080917012
 21
128.0888804281405
 31
0.000000000000000
  0
LINE
  5
95
100
AcDbEntity
  8
A1
  6
CONTINUOUS
 62
7
100
AcDbLine
 10
303.5179080917012
 20
127.3911913151740
 30
0.000000000000000
 11
306.8507334687049
 21
127.3911913151740
 31
0.000000000000000
  0
LINE
  5
96
100
AcDbEntity
  8
A1
  6
CONTINUOUS
 62
7
100
AcDbLine
 10
295.4066921595335
 20
128.1279847575293
 30
0.000000000000000
 11
295.4066921595335
 21
131.3911913151742
 31
0.000000000000000
  0
LINE
  5
97
100
AcDbEntity
  8
A1
  6
CONTINUOUS
 62
7
100
AcDbLine
 10
292.2029535154776
 20
134.1517193569004
 30
0.000000000000000
 11
292.2029535154776
 21
128.6307643055275
 31
0.000000000000000
  0
LINE
  5
98
100
AcDbEntity
  8
A1
  6
CONTINUOUS
 62
7
100
AcDbLine
 10
292.2029535154774
 20
128.6307643055276
 30
0.000000000000000
 11
292.3787586367659
 21
128.5650490946172
 31
0.000000000000000
  0
LINE
  5
99
100
AcDbEntity
  8
A1
  6
CONTINUOUS
 62
7
100
AcDbLine
 10
293.9066921595335
 20
131.3911913151742
 30
0.000000000000000
 11
293.9066921595335
 21
128.1620052315628
 31
0.000000000000000
  0
LINE
  5
9A
100
AcDbEntity
  8
A1
  6
CONTINUOUS
 62
7
100
AcDbLine
 10
293.9066921595335
 20
131.3911913151742
 30
0.000000000000000
 11
295.4066921595335
 21
131.3911913151742
 31
0.000000000000000
  0
LINE
  5
9B
100
AcDbEntity
  8
A1
  6
CONTINUOUS
 62
7
100
AcDbLine
 10
310.1291240238689
 20
128.1620052315629
 30
0.000000000000000
 11
310.1291240238689
 21
131.3911913151740
 31
0.000000000000000
  0
LINE
  5
9C
100
AcDbEntity
  8
A1
  6
CONTINUOUS
 62
7
100
AcDbLine
 10
311.8328626679249
 20
134.1517193569004
 30
0.000000000000000
 11
311.8328626679249
 21
128.6307643055275
 31
0.000000000000000
  0
LINE
  5
9D
100
AcDbEntity
  8
A1
  6
CONTINUOUS
 62
7
100
AcDbLine
 10
308.6291240238689
 20
131.3911913151741
 30
0.000000000000000
 11
308.6291240238569
 21
128.1279847575244
 31
0.000000000000000
  0
LINE
  5
9E
100
AcDbEntity
  8
A1
  6
CONTINUOUS
 62
7
100
AcDbLine
 10
308.6291240238689
 20
131.3911913151740
 30
0.000000000000000
 11
310.1291240238689
 21
131.3911913151740
 31
0.000000000000000
  0
LINE
  5
9F
100
AcDbEntity
  8
A1
  6
CONTINUOUS
 62
7
100
AcDbLine
 10
311.8328626679250
 20
134.1517193569005
 30
0.000000000000000
 11
311.6570001394472
 21
134.2174557625557
 31
0.000000000000000
  0
LINE
  5
A0
100
AcDbEntity
  8
A1
  6
CONTINUOUS
 62
7
100
AcDbLine
 10
295.6036279467725
 20
135.3911913151741
 30
0.000000000000000
 11
292.3777177025287
 21
134.2170560078563
 31
0.000000000000000
  0
LINE
  5
A1
100
AcDbEntity
  8
A1
  6
CONTINUOUS
 62
7
100
AcDbLine
 10
311.6580007167124
 20
134.2170915911013
 30
0.000000000000000
 11
308.4321882366298
 21
135.3911913151743
 31
0.000000000000000
  0
LINE
  5
A2
100
AcDbEntity
  8
A1
  6
CONTINUOUS
 62
7
100
AcDbLine
 10
292.3787867055631
 20
134.2174450828890
 30
0.000000000000000
 11
292.2029535154776
 21
134.1517193569005
 31
0.000000000000000
  0
LINE
  5
A3
100
AcDbEntity
  8
A1
  6
CONTINUOUS
 62
7
100
AcDbLine
 10
300.5179080917012
 20
131.3911913151742
 30
0.000000000000000
 11
300.5179080917012
 21
128.0888804281463
 31
0.000000000000000
  0
LINE
  5
A4
100
AcDbEntity
  8
A1
  6
CONTINUOUS
 62
7
100
AcDbLine
 10
300.5179080917012
 20
131.3911913151742
 30
0.000000000000000
 11
303.5179080917012
 21
131.3911913151742
 31
0.000000000000000
  0
LINE
  5
A5
100
AcDbEntity
  8
A1
  6
CONTINUOUS
 62
7
100
AcDbLine
 10
303.5179080917012
 20
128.0888804281405
 30
0.000000000000000
 11
303.5179080917012
 21
131.3911913151742
 31
0.000000000000000
  0
LINE
  5
A6
100
AcDbEntity
  8
A1
  6
CONTINUOUS
 62
7
100
AcDbLine
 10
306.9253853798131
 20
134.2492323906227
 30
0.000000000000000
 11
306.9253853798131
 21
128.5332595167565
 31
0.000000000000000
  0
LINE
  5
A7
100
AcDbEntity
  8
A1
  6
CONTINUOUS
 62
7
100
AcDbLine
 10
297.1104308035895
 20
134.2492323906227
 30
0.000000000000000
 11
297.1104308035895
 21
128.5332595167565
 31
0.000000000000000
  0
ARC
  5
A8
100
AcDbEntity
  8
A1
  6
CONTINUOUS
 62
7
100
AcDbCircle
 10
296.1179080917009
 20
79.79119131517407
 30
0.000000000000000
 40
0.9000000000000057
100
AcDbArc
 50
0.000000000000000
 51
180.0000000000000
  0
ARC
  5
A9
100
AcDbEntity
  8
A1
  6
CONTINUOUS
 62
7
100
AcDbCircle
 10
296.1179080917009
 20
72.59119131517397
 30
0.000000000000000
 40
0.9000000000000057
100
AcDbArc
 50
180.0000000000000
 51
360.0000000000000
  0
ARC
  5
AA
100
AcDbEntity
  8
A1
  6
CONTINUOUS
 62
7
100
AcDbCircle
 10
307.9179080917014
 20
79.79119131517407
 30
0.000000000000000
 40
0.9000000000000057
100
AcDbArc
 50
0.000000000000000
 51
180.0000000000000
  0
ARC
  5
AB
100
AcDbEntity
  8
A1
  6
CONTINUOUS
 62
7
100
AcDbCircle
 10
307.9179080917014
 20
72.59119131517397
 30
0.000000000000000
 40
0.9000000000000057
100
AcDbArc
 50
180.0000000000000
 51
360.0000000000000
  0
ARC
  5
AC
100
AcDbEntity
  8
A1
  6
CONTINUOUS
 62
7
100
AcDbCircle
 10
312.5179080917012
 20
89.19119131517400
 30
0.000000000000000
 40
2.900000000000000
100
AcDbArc
 50
302.7352262721113
 51
360.0000000000000
  0
ARC
  5
AD
100
AcDbEntity
  8
A1
  6
CONTINUOUS
 62
7
100
AcDbCircle
 10
291.5179080917012
 20
168.2911913151741
 30
0.000000000000000
 40
2.900000000000000
100
AcDbArc
 50
90.00000000000000
 51
180.0000000000000
  0
ARC
  5
AE
100
AcDbEntity
  8
A1
  6
CONTINUOUS
 62
7
100
AcDbCircle
 10
291.5179080917012
 20
89.19119131517400
 30
0.000000000000000
 40
2.900000000000000
100
AcDbArc
 50
180.0000000000000
 51
237.2647737278885
  0
ARC
  5
AF
100
AcDbEntity
  8
A1
  6
CONTINUOUS
 62
7
100
AcDbCircle
 10
312.5179080917012
 20
168.2911913151741
 30
0.000000000000000
 40
2.900000000000000
100
AcDbArc
 50
0.000000000000000
 51
90.00000000000000
  0
ARC
  5
B0
100
AcDbEntity
  8
A1
  6
CONTINUOUS
 62
7
100
AcDbCircle
 10
297.0179080917012
 20
82.20793279849036
 30
0.000000000000000
 40
2.900000000000001
100
AcDbArc
 50
0.000000000000000
 51
57.26477372789144
  0
ARC
  5
B1
100
AcDbEntity
  8
A1
  6
CONTINUOUS
 62
7
100
AcDbCircle
 10
307.0179080917012
 20
82.20793279849036
 30
0.000000000000000
 40
2.900000000000001
100
AcDbArc
 50
122.7352262721086
 51
180.0000000000000
  0
LINE
  5
B2
100
AcDbEntity
  8
A1
  6
CONTINUOUS
 62
7
100
AcDbLine
 10
300.4179080917012
 20
78.69119131517411
 30
0.000000000000000
 11
299.9179080917012
 21
78.69119131517411
 31
0.000000000000000
  0
LINE
  5
B3
100
AcDbEntity
  8
A1
  6
CONTINUOUS
 62
7
100
AcDbLine
 10
304.1179080917012
 20
78.69119131517411
 30
0.000000000000000
 11
303.6179080917012
 21
78.69119131517411
 31
0.000000000000000
  0
LINE
  5
B4
100
AcDbEntity
  8
A1
  6
CONTINUOUS
 62
7
100
AcDbLine
 10
303.6179080917012
 20
73.69119131517400
 30
0.000000000000000
 11
304.1179080917012
 21
73.69119131517400
 31
0.000000000000000
  0
LINE
  5
B5
100
AcDbEntity
  8
A1
  6
CONTINUOUS
 62
7
100
AcDbLine
 10
299.9179080917012
 20
73.69119131517400
 30
0.000000000000000
 11
300.4179080917012
 21
73.69119131517400
 31
0.000000000000000
  0
LINE
  5
B6
100
AcDbEntity
  8
A1
  6
CONTINUOUS
 62
7
100
AcDbLine
 10
295.2179080917009
 20
72.59119131517397
 30
0.000000000000000
 11
295.2179080917009
 21
79.79119131517407
 31
0.000000000000000
  0
LINE
  5
B7
100
AcDbEntity
  8
A1
  6
CONTINUOUS
 62
7
100
AcDbLine
 10
308.8179080917014
 20
72.59119131517397
 30
0.000000000000000
 11
308.8179080917014
 21
79.79119131517407
 31
0.000000000000000
  0
LINE
  5
B8
100
AcDbEntity
  8
A1
  6
CONTINUOUS
 62
7
100
AcDbLine
 10
307.0179080917012
 20
68.69522462275918
 30
0.000000000000000
 11
304.1179080917012
 21
68.69522462275918
 31
0.000000000000000
  0
LINE
  5
B9
100
AcDbEntity
  8
A1
  6
CONTINUOUS
 62
7
100
AcDbLine
 10
297.0179080917012
 20
68.69522462275918
 30
0.000000000000000
 11
299.9179080917012
 21
68.69522462275918
 31
0.000000000000000
  0
LINE
  5
BA
100
AcDbEntity
  8
A1
  6
CONTINUOUS
 62
7
100
AcDbLine
 10
312.5179080917014
 20
89.19119131517397
 30
0.000000000000000
 11
305.4497110768921
 21
84.64735037708238
 31
0.000000000000000
  0
LINE
  5
BB
100
AcDbEntity
  8
A1
  6
CONTINUOUS
 62
7
100
AcDbLine
 10
291.5179080917013
 20
168.2911913151742
 30
0.000000000000000
 11
291.5179080917011
 21
89.19119131517398
 31
0.000000000000000
  0
LINE
  5
BC
100
AcDbEntity
  8
A1
  6
CONTINUOUS
 62
7
100
AcDbLine
 10
288.6179080917012
 20
89.19119131517400
 30
0.000000000000000
 11
288.6179080917012
 21
168.2911913151741
 31
0.000000000000000
  0
LINE
  5
BD
100
AcDbEntity
  8
A1
  6
CONTINUOUS
 62
7
100
AcDbLine
 10
291.5179080917012
 20
168.2911913151741
 30
0.000000000000000
 11
312.5179080917012
 21
168.2911913151741
 31
0.000000000000000
  0
LINE
  5
BE
100
AcDbEntity
  8
A1
  6
CONTINUOUS
 62
7
100
AcDbLine
 10
297.0179080917013
 20
82.20793279849022
 30
0.000000000000000
 11
289.9497110768919
 21
86.75177373658204
 31
0.000000000000000
  0
LINE
  5
BF
100
AcDbEntity
  8
A1
  6
CONTINUOUS
 62
7
100
AcDbLine
 10
312.5179080917013
 20
168.2911913151741
 30
0.000000000000000
 11
312.5179080917014
 21
89.19119131517400
 31
0.000000000000000
  0
LINE
  5
C0
100
AcDbEntity
  8
A1
  6
CONTINUOUS
 62
7
100
AcDbLine
 10
315.4179080917012
 20
89.19119131517400
 30
0.000000000000000
 11
315.4179080917012
 21
168.2911913151741
 31
0.000000000000000
  0
LINE
  5
C1
100
AcDbEntity
  8
A1
  6
CONTINUOUS
 62
7
100
AcDbLine
 10
307.0179080917013
 20
82.20793279849026
 30
0.000000000000000
 11
314.0861051065104
 21
86.75177373658202
 31
0.000000000000000
  0
LINE
  5
C2
100
AcDbEntity
  8
A1
  6
CONTINUOUS
 62
7
100
AcDbLine
 10
312.5179080917012
 20
171.1911913151741
 30
0.000000000000000
 11
291.5179080917012
 21
171.1911913151741
 31
0.000000000000000
  0
LINE
  5
C3
100
AcDbEntity
  8
A1
  6
CONTINUOUS
 62
7
100
AcDbLine
 10
291.5179080917011
 20
89.19119131517401
 30
0.000000000000000
 11
298.5861051065104
 21
84.64735037708243
 31
0.000000000000000
  0
ARC
  5
C4
100
AcDbEntity
  8
A1
  6
CONTINUOUS
 62
7
100
AcDbCircle
 10
161.4453654532934
 20
94.19119131517411
 30
0.000000000000000
 40
2.750000000000000
100
AcDbArc
 50
288.5530029267733
 51
431.4469968754382
  0
ARC
  5
C5
100
AcDbEntity
  8
A1
  6
CONTINUOUS
 62
7
100
AcDbCircle
 10
155.5453654532934
 20
8.191191315173995
 30
0.000000000000000
 40
4.000000000000000
100
AcDbArc
 50
180.0000000000000
 51
270.0000000000000
  0
ARC
  5
C6
100
AcDbEntity
  8
A1
  6
CONTINUOUS
 62
7
100
AcDbCircle
 10
150.5623175482304
 20
61.19119131517411
 30
0.000000000000000
 40
1.000000000000000
100
AcDbArc
 50
90.00000000000000
 51
214.2868769772090
  0
ARC
  5
C7
100
AcDbEntity
  8
A1
  6
CONTINUOUS
 62
7
100
AcDbCircle
 10
155.5453654532934
 20
12.19119131517400
 30
0.000000000000000
 40
4.000000000000000
100
AcDbArc
 50
104.4775121859298
 51
180.0000000000000
  0
ARC
  5
C8
100
AcDbEntity
  8
A1
  6
CONTINUOUS
 62
7
100
AcDbCircle
 10
167.5453654532934
 20
61.19119131517411
 30
0.000000000000000
 40
1.000000000000000
100
AcDbArc
 50
0.000000000000000
 51
90.00000000000000
  0
ARC
  5
C9
100
AcDbEntity
  8
A1
  6
CONTINUOUS
 62
7
100
AcDbCircle
 10
162.5453654532934
 20
8.191191315173995
 30
0.000000000000000
 40
4.000000000000000
100
AcDbArc
 50
270.0000000000001
 51
356.8250481838629
  0
LINE
  5
CA
100
AcDbEntity
  8
A1
  6
CONTINUOUS
 62
7
100
AcDbLine
 10
146.3388849548053
 20
69.16069604628993
 30
0.000000000000000
 11
151.0908199987480
 21
62.19119131517395
 31
0.000000000000000
  0
LINE
  5
CB
100
AcDbEntity
  8
A1
  6
CONTINUOUS
 62
7
100
AcDbLine
 10
162.5453654532934
 20
4.191191315173995
 30
0.000000000000000
 11
155.5453654532934
 21
4.191191315173995
 31
0.000000000000000
  0
LINE
  5
CC
100
AcDbEntity
  8
A1
  6
CONTINUOUS
 62
7
100
AcDbLine
 10
154.5453654532934
 20
53.57425079365560
 30
0.000000000000000
 11
149.7360902054228
 21
60.62785449053258
 31
0.000000000000000
  0
LINE
  5
CD
100
AcDbEntity
  8
A1
  6
CONTINUOUS
 62
7
100
AcDbLine
 10
154.5453654532933
 20
16.06417466138146
 30
0.000000000000000
 11
154.5453654532934
 21
53.57425079365555
 31
0.000000000000000
  0
LINE
  5
CE
100
AcDbEntity
  8
A1
  6
CONTINUOUS
 62
7
100
AcDbLine
 10
151.5453654532934
 20
8.191191315173995
 30
0.000000000000000
 11
151.5453654532934
 21
12.19119131517400
 31
0.000000000000000
  0
LINE
  5
CF
100
AcDbEntity
  8
A1
  6
CONTINUOUS
 62
7
100
AcDbLine
 10
168.5453654532934
 20
61.19119131517411
 30
0.000000000000000
 11
168.5453654532934
 21
44.13576376848911
 31
0.000000000000000
  0
LINE
  5
D0
100
AcDbEntity
  8
A1
  6
CONTINUOUS
 62
7
100
AcDbLine
 10
168.5453654532934
 20
44.13576376848903
 30
0.000000000000000
 11
166.5392257430551
 21
7.969651282978129
 31
0.000000000000000
  0
LINE
  5
D1
100
AcDbEntity
  8
A1
  6
CONTINUOUS
 62
7
100
AcDbLine
 10
150.5623175482304
 20
62.19119131517411
 30
0.000000000000000
 11
167.5453654532934
 21
62.19119131517411
 31
0.000000000000000
  0
CIRCLE
  5
D2
100
AcDbEntity
  8
A1
  6
CONTINUOUS
 62
7
100
AcDbCircle
 10
161.8453654532934
 20
94.19119131517400
 30
0.000000000000000
 40
2.650000000000000
  0
ARC
  5
D3
100
AcDbEntity
  8
A1
  6
CONTINUOUS
 62
7
100
AcDbCircle
 10
161.5453654532934
 20
94.09119131517397
 30
0.000000000000000
 40
5.000000000000000
100
AcDbArc
 50
270.0000000000000
 51
360.0000000000000
  0
ARC
  5
D4
100
AcDbEntity
  8
A1
  6
CONTINUOUS
 62
7
100
AcDbCircle
 10
156.5453654532934
 20
109.9260399252624
 30
0.000000000000000
 40
10.00000000000000
100
AcDbArc
 50
0.000000000000000
 51
66.42182152179844
  0
ARC
  5
D5
100
AcDbEntity
  8
A1
  6
CONTINUOUS
 62
7
100
AcDbCircle
 10
156.5453654532934
 20
109.1911913151741
 30
0.000000000000000
 40
4.199999999999889
100
AcDbArc
 50
269.3178912766512
 51
450.6821087233488
  0
ARC
  5
D6
100
AcDbEntity
  8
A1
  6
CONTINUOUS
 62
7
100
AcDbCircle
 10
156.5453654532934
 20
109.1911913151741
 30
0.000000000000000
 40
5.249999999999873
100
AcDbArc
 50
269.4543176618920
 51
270.0000000000000
  0
ARC
  5
D7
100
AcDbEntity
  8
A1
  6
CONTINUOUS
 62
7
100
AcDbCircle
 10
156.5453654532934
 20
109.1911913151741
 30
0.000000000000000
 40
5.249999999999873
100
AcDbArc
 50
269.4543176618920
 51
450.5456823381080
  0
LINE
  5
D8
100
AcDbEntity
  8
A1
  6
CONTINUOUS
 62
7
100
AcDbLine
 10
160.5453654532934
 20
119.0911913151741
 30
0.000000000000000
 11
160.5453654532934
 21
121.9911913151741
 31
0.000000000000000
  0
LINE
  5
D9
100
AcDbEntity
  8
A1
  6
CONTINUOUS
 62
7
100
AcDbLine
 10
160.5453654532934
 20
121.9911913151741
 30
0.000000000000000
 11
156.2453654534648
 21
121.9911913151741
 31
0.000000000000000
  0
LINE
  5
DA
100
AcDbEntity
  8
A1
  6
CONTINUOUS
 62
7
100
AcDbLine
 10
161.5453654532934
 20
89.09119131517397
 30
0.000000000000000
 11
156.4953654534648
 21
89.09119131517397
 31
0.000000000000000
  0
LINE
  5
DB
100
AcDbEntity
  8
A1
  6
CONTINUOUS
 62
7
100
AcDbLine
 10
136.0453654532934
 20
89.09119131517397
 30
0.000000000000000
 11
136.0453654532934
 21
119.0911913151741
 31
0.000000000000000
  0
LINE
  5
DC
100
AcDbEntity
  8
A1
  6
CONTINUOUS
 62
7
100
AcDbLine
 10
138.9453654532934
 20
89.09119131517397
 30
0.000000000000000
 11
138.9453654532934
 21
119.0911913151741
 31
0.000000000000000
  0
ARC
  5
DD
100
AcDbEntity
  8
A1
  6
CONTINUOUS
 62
7
100
AcDbCircle
 10
144.6021290400159
 20
194.1979549018966
 30
0.000000000000000
 40
1.893236413277577
100
AcDbArc
 50
0.000000000000000
 51
145.0000000000875
  0
ARC
  5
DE
100
AcDbEntity
  8
A1
  6
CONTINUOUS
 62
7
100
AcDbCircle
 10
144.6021290400159
 20
194.1979549018966
 30
0.000000000000000
 40
6.393236413277578
100
AcDbArc
 50
0.000000000000000
 51
145.0000000000871
  0
LINE
  5
DF
100
AcDbEntity
  8
A1
  6
CONTINUOUS
 62
7
100
AcDbLine
 10
150.9953654532935
 20
147.7911913151741
 30
0.000000000000000
 11
150.9953654532935
 21
149.8940727372189
 31
0.000000000000000
  0
LINE
  5
E0
100
AcDbEntity
  8
A1
  6
CONTINUOUS
 62
7
100
AcDbLine
 10
146.4953654532935
 20
147.7911913151741
 30
0.000000000000000
 11
146.4953654532935
 21
149.8114854606635
 31
0.000000000000000
  0
LINE
  5
E1
100
AcDbEntity
  8
A1
  6
CONTINUOUS
 62
7
100
AcDbLine
 10
137.5247669619524
 20
187.3911913151740
 30
0.000000000000000
 11
133.8385827626479
 21
189.9722852787483
 31
0.000000000000000
  0
SPLINE
  5
E2
100
AcDbEntity
  8
A1
  6
CONTINUOUS
 62
7
100
AcDbSpline
210
0.000000000000000
220
0.000000000000000
230
1.000000000000000
 70
     8
 71
     3
 72
     9
 73
     5
 74
     0
 42
1.000000000000000e-07
 43
1.000000000000000e-07
 12
0.9893971178408947
 22
0.1452354750299492
 32
0.000000000000000
 13
0.9806119946027820
 23
0.1959594755076068
 33
0.000000000000000
 40
0.000000000000000
 40
0.000000000000000
 40
0.000000000000000
 40
0.000000000000000
 40
0.5156373038893228
 40
1.262953819496057
 40
1.262953819496057
 40
1.262953819496057
 40
1.262953819496057
 10
147.4963747779545
 20
128.4152514734907
 30
0.000000000000000
 10
147.6664314653943
 20
128.4402144164152
 30
0.000000000000000
 10
148.0823163512695
 20
128.5057337909376
 30
0.000000000000000
 10
148.4964265270418
 20
128.5819497213821
 30
0.000000000000000
 10
148.7407023733647
 20
128.6307643055275
 30
0.000000000000000
  0
SPLINE
  5
E3
100
AcDbEntity
  8
A1
  6
CONTINUOUS
 62
7
100
AcDbSpline
210
0.000000000000000
220
0.000000000000000
230
1.000000000000000
 70
     8
 71
     3
 72
    10
 73
     6
 74
     0
 42
1.000000000000000e-07
 43
1.000000000000000e-07
 12
-0.9803503934047058
 22
0.1972640518476396
 32
0.000000000000000
 13
-0.9968672308965552
 23
0.07909313474874580
 33
0.000000000000000
 40
0.000000000000000
 40
0.000000000000000
 40
0.000000000000000
 40
0.000000000000000
 40
1.050373980098345
 40
2.098856114775771
 40
2.622225113150152
 40
2.622225113150152
 40
2.622225113150152
 40
2.622225113150152
 10
148.7407023733646
 20
134.1517193569004
 30
0.000000000000000
 10
148.3974575251608
 20
134.2207863659903
 30
0.000000000000000
 10
147.7083114946803
 20
134.3428049702378
 30
0.000000000000000
 10
146.8415338654733
 20
134.4582376447042
 30
0.000000000000000
 10
146.3197112449794
 20
134.5061670020542
 30
0.000000000000000
 10
146.1458014435972
 20
134.5199653002914
 30
0.000000000000000
  0
SPLINE
  5
E4
100
AcDbEntity
  8
A1
  6
CONTINUOUS
 62
7
100
AcDbSpline
210
0.000000000000000
220
0.000000000000000
230
1.000000000000000
 70
     8
 71
     3
 72
     9
 73
     5
 74
     0
 42
1.000000000000000e-07
 43
1.000000000000000e-07
 12
0.03986243113149612
 22
0.006905340386765602
 32
0.000000000000000
 13
0.9795788992552161
 23
0.2010601405911530
 33
0.000000000000000
 40
0.000000000000000
 40
0.000000000000000
 40
0.000000000000000
 40
0.000000000000000
 40
0.2638268166510644
 40
1.011713910158131
 40
1.011713910158131
 40
1.011713910158131
 40
1.011713910158131
 10
156.4953654534563
 20
128.3922452654088
 30
0.000000000000000
 10
156.4988710462261
 20
128.3928525367328
 30
0.000000000000000
 10
156.7480093664291
 20
128.4360664248992
 30
0.000000000000000
 10
156.9964975680898
 20
128.4831360887009
 30
0.000000000000000
 10
157.2407023733647
 20
128.5332595167565
 30
0.000000000000000
  0
SPLINE
  5
E5
100
AcDbEntity
  8
A1
  6
CONTINUOUS
 62
7
100
AcDbSpline
210
0.000000000000000
220
0.000000000000000
230
1.000000000000000
 70
     8
 71
     3
 72
    10
 73
     6
 74
     0
 42
1.000000000000000e-07
 43
1.000000000000000e-07
 12
-0.9943971989918055
 22
-0.1057081389350287
 32
0.000000000000000
 13
-0.9757440348366231
 23
-0.2189145460697546
 33
0.000000000000000
 40
0.000000000000000
 40
0.000000000000000
 40
0.000000000000000
 40
0.000000000000000
 40
0.4480869765747684
 40
1.543634619037150
 40
2.641428847420568
 40
2.641428847420568
 40
2.641428847420568
 40
2.641428847420568
 10
151.3447807555984
 20
134.5870896149604
 30
0.000000000000000
 10
151.1962552774615
 20
134.5713008015021
 30
0.000000000000000
 10
150.6851302595582
 20
134.5116711527408
 30
0.000000000000000
 10
149.8149082893356
 20
134.3752854074656
 30
0.000000000000000
 10
149.0977577633057
 20
134.2318270652953
 30
0.000000000000000
 10
148.7407023733646
 20
134.1517193569004
 30
0.000000000000000
  0
SPLINE
  5
E6
100
AcDbEntity
  8
A1
  6
CONTINUOUS
 62
7
100
AcDbSpline
210
0.000000000000000
220
0.000000000000000
230
1.000000000000000
 70
     8
 71
     3
 72
     9
 73
     5
 74
     0
 42
1.000000000000000e-07
 43
1.000000000000000e-07
 12
0.9760113486157707
 22
-0.2177196531623053
 32
0.000000000000000
 13
0.9852929526973639
 23
-0.1708736298023723
 33
0.000000000000000
 40
0.000000000000000
 40
0.000000000000000
 40
0.000000000000000
 40
0.000000000000000
 40
1.121377922326945
 40
1.231513688050185
 40
1.231513688050185
 40
1.231513688050185
 40
1.231513688050185
 10
148.7407023733647
 20
128.6307643055275
 30
0.000000000000000
 10
149.1055282327908
 20
128.5493823014233
 30
0.000000000000000
 10
149.5082183382392
 20
128.4686968679125
 30
0.000000000000000
 10
149.9125319667476
 20
128.3976889912833
 30
0.000000000000000
 10
149.9487039646833
 20
128.3914158919299
 30
0.000000000000000
  0
LINE
  5
E7
100
AcDbEntity
  8
A1
  6
CONTINUOUS
 62
7
100
AcDbLine
 10
140.2407023733646
 20
128.7256785099389
 30
0.000000000000000
 11
140.2407023733646
 21
128.3077096346527
 31
0.000000000000000
  0
LINE
  5
E8
100
AcDbEntity
  8
A1
  6
CONTINUOUS
 62
7
100
AcDbLine
 10
140.9953654534646
 20
128.0374256901329
 30
0.000000000000000
 11
140.2407023733646
 21
128.3077096346526
 31
0.000000000000000
  0
LINE
  5
E9
100
AcDbEntity
  8
A1
  6
CONTINUOUS
 62
7
100
AcDbLine
 10
157.2407023733646
 20
128.0888804281462
 30
0.000000000000000
 11
156.4953654534647
 21
127.8226281233502
 31
0.000000000000000
  0
LINE
  5
EA
100
AcDbEntity
  8
A1
  6
CONTINUOUS
 62
7
100
AcDbLine
 10
157.2407023733647
 20
128.5332595167565
 30
0.000000000000000
 11
157.2407023733647
 21
128.0888804281463
 31
0.000000000000000
  0
LINE
  5
EB
100
AcDbEntity
  8
A1
  6
CONTINUOUS
 62
7
100
AcDbLine
 10
140.2407023733646
 20
134.0567967906061
 30
0.000000000000000
 11
140.2407023733646
 21
128.7256785099389
 31
0.000000000000000
  0
LINE
  5
EC
100
AcDbEntity
  8
A1
  6
CONTINUOUS
 62
7
100
AcDbLine
 10
140.2407023733647
 20
128.7256785099390
 30
0.000000000000000
 11
140.9953654534646
 21
128.5772014704316
 31
0.000000000000000
  0
LINE
  5
ED
100
AcDbEntity
  8
A1
  6
CONTINUOUS
 62
7
100
AcDbLine
 10
140.2407023733646
 20
134.5209358045007
 30
0.000000000000000
 11
140.2407023733646
 21
134.0567967906061
 31
0.000000000000000
  0
LINE
  5
EE
100
AcDbEntity
  8
A1
  6
CONTINUOUS
 62
7
100
AcDbLine
 10
140.9953654534646
 20
134.2052737756691
 30
0.000000000000000
 11
140.2407023733646
 21
134.0567967906061
 31
0.000000000000000
  0
LINE
  5
EF
100
AcDbEntity
  8
A1
  6
CONTINUOUS
 62
7
100
AcDbLine
 10
140.9953654534645
 20
134.7956111676052
 30
0.000000000000000
 11
140.2402214845495
 21
134.5207607750085
 31
0.000000000000000
  0
LINE
  5
F0
100
AcDbEntity
  8
A1
  6
CONTINUOUS
 62
7
100
AcDbLine
 10
157.2412795153988
 20
134.7429564989040
 30
0.000000000000000
 11
156.4953654534648
 21
135.0144465551303
 31
0.000000000000000
  0
LINE
  5
F1
100
AcDbEntity
  8
A1
  6
CONTINUOUS
 62
7
100
AcDbLine
 10
157.2407023733645
 20
134.7431665610370
 30
0.000000000000000
 11
157.2407023733645
 21
134.2492323906227
 31
0.000000000000000
  0
LINE
  5
F2
100
AcDbEntity
  8
A1
  6
CONTINUOUS
 62
7
100
AcDbLine
 10
157.2407023733646
 20
134.2492323906227
 30
0.000000000000000
 11
157.2407023733647
 21
128.5332595167565
 31
0.000000000000000
  0
LINE
  5
F3
100
AcDbEntity
  8
A1
  6
CONTINUOUS
 62
7
100
AcDbLine
 10
157.2407023733645
 20
134.2492323906226
 30
0.000000000000000
 11
156.4953654534648
 21
134.3862629395591
 31
0.000000000000000
  0
LINE
  5
F4
100
AcDbEntity
  8
A1
  6
CONTINUOUS
 62
7
100
AcDbLine
 10
148.7407023733646
 20
134.1517193569005
 30
0.000000000000000
 11
148.7407023733647
 21
128.6307643055276
 31
0.000000000000000
  0
LINE
  5
F5
100
AcDbEntity
  8
A1
  6
CONTINUOUS
 62
7
100
AcDbLine
 10
146.1953654532935
 20
138.2911913151741
 30
0.000000000000000
 11
146.1453654532950
 21
138.2911913151741
 31
0.000000000000000
  0
LINE
  5
F6
100
AcDbEntity
  8
A1
  6
CONTINUOUS
 62
7
100
AcDbLine
 10
146.1953654532935
 20
135.3911913151740
 30
0.000000000000000
 11
146.1453654532954
 21
135.3911913151740
 31
0.000000000000000
  0
LINE
  5
F7
100
AcDbEntity
  8
A1
  6
CONTINUOUS
 62
7
100
AcDbLine
 10
151.3453654532924
 20
138.2911913151741
 30
0.000000000000000
 11
151.2953654532935
 21
138.2911913151741
 31
0.000000000000000
  0
LINE
  5
F8
100
AcDbEntity
  8
A1
  6
CONTINUOUS
 62
7
100
AcDbLine
 10
151.3453654532928
 20
135.3911913151740
 30
0.000000000000000
 11
151.2953654532935
 21
135.3911913151740
 31
0.000000000000000
  0
LINE
  5
F9
100
AcDbEntity
  8
A1
  6
CONTINUOUS
 62
7
100
AcDbLine
 10
151.2953654532935
 20
138.2911913151741
 30
0.000000000000000
 11
146.1953654532935
 21
138.2911913151741
 31
0.000000000000000
  0
LINE
  5
FA
100
AcDbEntity
  8
A1
  6
CONTINUOUS
 62
7
100
AcDbLine
 10
151.2953654532935
 20
135.3911913151740
 30
0.000000000000000
 11
146.1953654532935
 21
135.3911913151740
 31
0.000000000000000
  0
LINE
  5
FB
100
AcDbEntity
  8
A1
  6
CONTINUOUS
 62
7
100
AcDbLine
 10
146.1953654532935
 20
135.3911913151740
 30
0.000000000000000
 11
146.1953654532935
 21
138.2911913151741
 31
0.000000000000000
  0
LINE
  5
FC
100
AcDbEntity
  8
A1
  6
CONTINUOUS
 62
7
100
AcDbLine
 10
151.2953654532935
 20
135.3911913151740
 30
0.000000000000000
 11
151.2953654532935
 21
138.2911913151741
 31
0.000000000000000
  0
CIRCLE
  5
FD
100
AcDbEntity
  8
A1
  6
CONTINUOUS
 62
7
100
AcDbCircle
 10
148.7453654532935
 20
76.19119131517411
 30
0.000000000000000
 40
4.500000000000040
  0
CIRCLE
  5
FE
100
AcDbEntity
  8
A1
  6
CONTINUOUS
 62
7
100
AcDbCircle
 10
148.7453654532935
 20
76.19119131517411
 30
0.000000000000000
 40
3.600000000000034
  0
ARC
  5
FF
100
AcDbEntity
  8
A1
  6
CONTINUOUS
 62
7
100
AcDbCircle
 10
148.7453654532923
 20
148.5911913151441
 30
0.000000000000000
 40
2.599999999998715
100
AcDbArc
 50
0.000000000000000
 51
180.0000000000000
  0
ARC
  5
100
100
AcDbEntity
  8
A1
  6
CONTINUOUS
 62
7
100
AcDbCircle
 10
148.7453654532948
 20
130.6911913151415
 30
0.000000000000000
 40
2.599999999998715
100
AcDbArc
 50
180.0000000000000
 51
360.0000000000000
  0
LINE
  5
101
100
AcDbEntity
  8
A1
  6
CONTINUOUS
 62
7
100
AcDbLine
 10
141.2453654534646
 20
82.20793279849030
 30
0.000000000000000
 11
156.2453654534648
 21
82.20793279849030
 31
0.000000000000000
  0
LINE
  5
102
100
AcDbEntity
  8
A1
  6
CONTINUOUS
 62
7
100
AcDbLine
 10
146.1453654532961
 20
130.6911913151415
 30
0.000000000000000
 11
146.1453654532936
 21
148.5911913151441
 31
0.000000000000000
  0
LINE
  5
103
100
AcDbEntity
  8
A1
  6
CONTINUOUS
 62
7
100
AcDbLine
 10
151.3453654532910
 20
148.5911913151442
 30
0.000000000000000
 11
151.3453654532935
 21
130.6911913151415
 31
0.000000000000000
  0
LINE
  5
104
100
AcDbEntity
  8
A1
  6
CONTINUOUS
 62
7
100
AcDbLine
 10
156.4953654534648
 20
76.44522462275941
 30
0.000000000000000
 11
156.4953654534648
 21
171.1911913151741
 31
0.000000000000000
  0
LINE
  5
105
100
AcDbEntity
  8
A1
  6
CONTINUOUS
 62
7
100
AcDbLine
 10
140.9953654534646
 20
76.44522462275941
 30
0.000000000000000
 11
140.9953654534646
 21
171.1911913151741
 31
0.000000000000000
  0
LINE
  5
106
100
AcDbEntity
  8
A1
  6
CONTINUOUS
 62
7
100
AcDbLine
 10
140.9953654534646
 20
171.1911913151741
 30
0.000000000000000
 11
156.4953654534648
 21
171.1911913151741
 31
0.000000000000000
  0
ARC
  5
107
100
AcDbEntity
  8
A3
  6
DASHED
 62
2
100
AcDbCircle
 10
316.9679080917011
 20
111.0911913151741
 30
0.000000000000000
 40
5.299999999999899
100
AcDbArc
 50
107.0048605918392
 51
147.1002929253668
  0
ARC
  5
108
100
AcDbEntity
  8
A3
  6
DASHED
 62
2
100
AcDbCircle
 10
316.9679080917011
 20
111.0911913151741
 30
0.000000000000000
 40
2.650000000000007
100
AcDbArc
 50
125.7963256298292
 51
234.2036743701712
  0
ARC
  5
109
100
AcDbEntity
  8
A1
  6
CONTINUOUS
 62
7
100
AcDbCircle
 10
316.9679080917011
 20
111.0911913151741
 30
0.000000000000000
 40
2.650000000000007
100
AcDbArc
 50
234.2036743701712
 51
485.7963256298291
  0
ARC
  5
10A
100
AcDbEntity
  8
A3
  6
DASHED
 62
2
100
AcDbCircle
 10
316.9679080917011
 20
97.09119131517409
 30
0.000000000000000
 40
5.299999999999983
100
AcDbArc
 50
107.0048605918390
 51
147.1002929253645
  0
ARC
  5
10B
100
AcDbEntity
  8
A1
  6
CONTINUOUS
 62
7
100
AcDbCircle
 10
316.9679080917011
 20
97.09119131517409
 30
0.000000000000000
 40
5.299999999999983
100
AcDbArc
 50
147.1002929253644
 51
212.8997070746361
  0
ARC
  5
10C
100
AcDbEntity
  8
A3
  6
DASHED
 62
2
100
AcDbCircle
 10
316.9679080917011
 20
97.09119131517409
 30
0.000000000000000
 40
5.299999999999983
100
AcDbArc
 50
212.8997070746361
 51
252.9951394081611
  0
ARC
  5
10D
100
AcDbEntity
  8
A1
  6
CONTINUOUS
 62
7
100
AcDbCircle
 10
316.9679080917011
 20
97.09119131517409
 30
0.000000000000000
 40
5.299999999999983
100
AcDbArc
 50
252.9951394081611
 51
467.0048605918390
  0
ARC
  5
10E
100
AcDbEntity
  8
A1
  6
CONTINUOUS
 62
7
100
AcDbCircle
 10
316.9679080917011
 20
97.09119131517409
 30
0.000000000000000
 40
2.649999999999992
100
AcDbArc
 50
234.2036743701708
 51
485.7963256298291
  0
ARC
  5
10F
100
AcDbEntity
  8
A3
  6
DASHED
 62
2
100
AcDbCircle
 10
316.9679080917011
 20
97.09119131517409
 30
0.000000000000000
 40
2.649999999999992
100
AcDbArc
 50
125.7963256298291
 51
234.2036743701709
  0
ARC
  5
110
100
AcDbEntity
  8
A1
  6
CONTINUOUS
 62
7
100
AcDbCircle
 10
316.9679080917011
 20
111.0911913151741
 30
0.000000000000000
 40
5.299999999999899
100
AcDbArc
 50
147.1002929253668
 51
212.8997070746338
  0
ARC
  5
111
100
AcDbEntity
  8
A3
  6
DASHED
 62
2
100
AcDbCircle
 10
316.9679080917011
 20
111.0911913151741
 30
0.000000000000000
 40
5.299999999999899
100
AcDbArc
 50
212.8997070746338
 51
252.9951394081608
  0
ARC
  5
112
100
AcDbEntity
  8
A1
  6
CONTINUOUS
 62
7
100
AcDbCircle
 10
316.9679080917011
 20
111.0911913151741
 30
0.000000000000000
 40
5.299999999999899
100
AcDbArc
 50
252.9951394081608
 51
467.0048605918392
  0
ARC
  5
113
100
AcDbEntity
  8
A3
  6
DASHED
 62
2
100
AcDbCircle
 10
286.9679080917011
 20
111.0911913151741
 30
0.000000000000000
 40
2.650000000000007
100
AcDbArc
 50
308.5092891244377
 51
411.4907108755623
  0
ARC
  5
114
100
AcDbEntity
  8
A1
  6
CONTINUOUS
 62
7
100
AcDbCircle
 10
286.9679080917011
 20
111.0911913151741
 30
0.000000000000000
 40
2.650000000000007
100
AcDbArc
 50
51.49071087556234
 51
308.5092891244377
  0
ARC
  5
115
100
AcDbEntity
  8
A1
  6
CONTINUOUS
 62
7
100
AcDbCircle
 10
286.9679080917011
 20
111.0911913151741
 30
0.000000000000000
 40
5.299999999999899
100
AcDbArc
 50
71.86115666443661
 51
288.1388433355633
  0
ARC
  5
116
100
AcDbEntity
  8
A1
  6
CONTINUOUS
 62
7
100
AcDbCircle
 10
286.9679080917011
 20
97.09119131517397
 30
0.000000000000000
 40
5.299999999999983
100
AcDbArc
 50
71.86115666443700
 51
288.1388433355630
  0
ARC
  5
117
100
AcDbEntity
  8
A1
  6
CONTINUOUS
 62
7
100
AcDbCircle
 10
286.9679080917011
 20
97.09119131517397
 30
0.000000000000000
 40
2.649999999999992
100
AcDbArc
 50
51.49071087556234
 51
308.5092891244377
  0
ARC
  5
118
100
AcDbEntity
  8
A3
  6
DASHED
 62
2
100
AcDbCircle
 10
286.9679080917011
 20
97.09119131517397
 30
0.000000000000000
 40
2.649999999999992
100
AcDbArc
 50
308.5092891244377
 51
411.4907108755623
  0
ARC
  5
119
100
AcDbEntity
  8
A3
  6
DASHED
 62
2
100
AcDbCircle
 10
286.9679080917011
 20
111.0911913151741
 30
0.000000000000000
 40
5.299999999999899
100
AcDbArc
 50
30.85247615642434
 51
71.86115666443661
  0
ARC
  5
11A
100
AcDbEntity
  8
A3
  6
DASHED
 62
2
100
AcDbCircle
 10
286.9679080917011
 20
111.0911913151741
 30
0.000000000000000
 40
5.299999999999899
100
AcDbArc
 50
288.1388433355633
 51
329.1475238435751
  0
ARC
  5
11B
100
AcDbEntity
  8
A1
  6
CONTINUOUS
 62
7
100
AcDbCircle
 10
286.9679080917011
 20
111.0911913151741
 30
0.000000000000000
 40
5.299999999999899
100
AcDbArc
 50
329.1475238435751
 51
390.8524761564244
  0
ARC
  5
11C
100
AcDbEntity
  8
A3
  6
DASHED
 62
2
100
AcDbCircle
 10
286.9679080917011
 20
97.09119131517397
 30
0.000000000000000
 40
5.299999999999983
100
AcDbArc
 50
30.85247615642699
 51
71.86115666443700
  0
ARC
  5
11D
100
AcDbEntity
  8
A3
  6
DASHED
 62
2
100
AcDbCircle
 10
286.9679080917011
 20
97.09119131517397
 30
0.000000000000000
 40
5.299999999999983
100
AcDbArc
 50
288.1388433355630
 51
329.1475238435727
  0
ARC
  5
11E
100
AcDbEntity
  8
A1
  6
CONTINUOUS
 62
7
100
AcDbCircle
 10
286.9679080917011
 20
97.09119131517397
 30
0.000000000000000
 40
5.299999999999983
100
AcDbArc
 50
329.1475238435727
 51
390.8524761564270
  0
CIRCLE
  5
11F
100
AcDbEntity
  8
A1
  6
CONTINUOUS
 62
7
100
AcDbCircle
 10
242.0179080917013
 20
215.0911913151741
 30
0.000000000000000
 40
2.650000000000000
  0
CIRCLE
  5
120
100
AcDbEntity
  8
A1
  6
CONTINUOUS
 62
7
100
AcDbCircle
 10
242.0179080917013
 20
201.0911913151741
 30
0.000000000000000
 40
2.650000000000000
  0
CIRCLE
  5
121
100
AcDbEntity
  8
A1
  6
CONTINUOUS
 62
7
100
AcDbCircle
 10
242.0179080917013
 20
215.0911913151741
 30
0.000000000000000
 40
5.300000000000000
  0
CIRCLE
  5
122
100
AcDbEntity
  8
A1
  6
CONTINUOUS
 62
7
100
AcDbCircle
 10
242.0179080917013
 20
201.0911913151741
 30
0.000000000000000
 40
5.300000000000000
  0
ELLIPSE
  5
123
100
AcDbEntity
  8
A1
  6
CONTINUOUS
 62
7
100
AcDbEllipse
 10
234.5179080917013
 20
190.5452514092414
 30
0.000000000000000
 11
5.000000000000000
 21
0.000000000000000
 31
0.000000000000000
210
0.000000000000000
220
0.000000000000000
230
1.000000000000000
 40
0.7071067811865610
 41
1.570796326794897
 42
3.141592653589793
  0
ELLIPSE
  5
124
100
AcDbEntity
  8
A1
  6
CONTINUOUS
 62
7
100
AcDbEllipse
 10
249.5179080917013
 20
190.5452514092414
 30
0.000000000000000
 11
5.000000000000000
 21
0.000000000000000
 31
0.000000000000000
210
0.000000000000000
220
0.000000000000000
230
1.000000000000000
 40
0.7071067811865610
 41
0.000000000000000
 42
1.570796326794897
  0
ELLIPSE
  5
125
100
AcDbEntity
  8
A1
  6
CONTINUOUS
 62
7
100
AcDbEllipse
 10
249.5179080917013
 20
187.3632744092416
 30
0.000000000000000
 11
-5.000000000000000
 21
0.000000000000000
 31
0.000000000000000
210
0.000000000000000
220
0.000000000000000
230
1.000000000000000
 40
0.7071067811865500
 41
3.141592653589793
 42
4.712388980384690
  0
ELLIPSE
  5
126
100
AcDbEntity
  8
A1
  6
CONTINUOUS
 62
7
100
AcDbEllipse
 10
234.5179080917013
 20
187.3632744092416
 30
0.000000000000000
 11
-5.000000000000000
 21
0.000000000000000
 31
0.000000000000000
210
0.000000000000000
220
0.000000000000000
230
1.000000000000000
 40
0.7071067811865500
 41
4.712388980384690
 42
0.000000000000000
  0
LINE
  5
127
100
AcDbEntity
  8
A1
  6
CONTINUOUS
 62
7
100
AcDbLine
 10
254.5179080917013
 20
223.0911613151744
 30
0.000000000000000
 11
254.5179080917013
 21
191.5912194399203
 31
0.000000000000000
  0
LINE
  5
128
100
AcDbEntity
  8
A1
  6
CONTINUOUS
 62
7
100
AcDbLine
 10
229.5179080917013
 20
223.0911613151744
 30
0.000000000000000
 11
229.5179080917013
 21
191.5912194399203
 31
0.000000000000000
  0
LINE
  5
129
100
AcDbEntity
  8
A1
  6
CONTINUOUS
 62
7
100
AcDbLine
 10
229.5179080917013
 20
223.0911613151744
 30
0.000000000000000
 11
254.5179080917013
 21
223.0911613151744
 31
0.000000000000000
  0
LINE
  5
12A
100
AcDbEntity
  8
A1
  6
CONTINUOUS
 62
7
100
AcDbLine
 10
254.5179080917013
 20
190.5452514092414
 30
0.000000000000000
 11
254.5179080917013
 21
191.5912194399203
 31
0.000000000000000
  0
LINE
  5
12B
100
AcDbEntity
  8
A1
  6
CONTINUOUS
 62
7
100
AcDbLine
 10
254.2940887580492
 20
191.5912194399203
 30
0.000000000000000
 11
254.5179080917013
 21
191.5912194399203
 31
0.000000000000000
  0
LINE
  5
12C
100
AcDbEntity
  8
A1
  6
CONTINUOUS
 62
7
100
AcDbLine
 10
229.5179080917013
 20
191.5912194399203
 30
0.000000000000000
 11
229.7417274253534
 21
191.5912194399203
 31
0.000000000000000
  0
LINE
  5
12D
100
AcDbEntity
  8
A1
  6
CONTINUOUS
 62
7
100
AcDbLine
 10
229.5179080917013
 20
191.5912194399203
 30
0.000000000000000
 11
229.5179080917013
 21
190.5452514092414
 31
0.000000000000000
  0
LINE
  5
12E
100
AcDbEntity
  8
A1
  6
CONTINUOUS
 62
7
100
AcDbLine
 10
254.5179080917013
 20
187.0462465963222
 30
0.000000000000000
 11
254.5179080917013
 21
185.1336538774704
 31
0.000000000000000
  0
LINE
  5
12F
100
AcDbEntity
  8
A1
  6
CONTINUOUS
 62
7
100
AcDbLine
 10
229.5179080917013
 20
185.1336538774704
 30
0.000000000000000
 11
254.5179080917013
 21
185.1336538774704
 31
0.000000000000000
  0
LINE
  5
130
100
AcDbEntity
  8
A1
  6
CONTINUOUS
 62
7
100
AcDbLine
 10
229.5179080917013
 20
185.1336538774704
 30
0.000000000000000
 11
229.5179080917013
 21
187.0462465963222
 31
0.000000000000000
  0
LINE
  5
131
100
AcDbEntity
  8
A1
  6
CONTINUOUS
 62
7
100
AcDbLine
 10
234.5179080917013
 20
194.0807853151742
 30
0.000000000000000
 11
249.5179080917013
 21
194.0807853151742
 31
0.000000000000000
  0
LINE
  5
132
100
AcDbEntity
  8
A1
  6
CONTINUOUS
 62
7
100
AcDbLine
 10
229.5179080917013
 20
187.3632744092416
 30
0.000000000000000
 11
229.5179080917013
 21
190.5452514092414
 31
0.000000000000000
  0
LINE
  5
133
100
AcDbEntity
  8
A1
  6
CONTINUOUS
 62
7
100
AcDbLine
 10
254.5179080917013
 20
190.5452514092414
 30
0.000000000000000
 11
254.5179080917013
 21
187.3632744092416
 31
0.000000000000000
  0
LINE
  5
134
100
AcDbEntity
  8
A1
  6
CONTINUOUS
 62
7
100
AcDbLine
 10
229.5179080917013
 20
187.3632744092416
 30
0.000000000000000
 11
229.5179080917013
 21
187.0462465963222
 31
0.000000000000000
  0
LINE
  5
135
100
AcDbEntity
  8
A1
  6
CONTINUOUS
 62
7
100
AcDbLine
 10
254.5179080917013
 20
187.3632744092416
 30
0.000000000000000
 11
254.5179080917013
 21
187.0462465963222
 31
0.000000000000000
  0
LINE
  5
136
100
AcDbEntity
  8
A1
  6
CONTINUOUS
 62
7
100
AcDbLine
 10
234.5179080917013
 20
190.8988083151744
 30
0.000000000000000
 11
249.5179080917013
 21
190.8988083151744
 31
0.000000000000000
  0
ELLIPSE
  5
137
100
AcDbEntity
  8
A1
  6
CONTINUOUS
 62
7
100
AcDbEllipse
 10
249.5179080917013
 20
267.9031270797663
 30
0.000000000000000
 11
-5.000000000000000
 21
0.000000000000000
 31
0.000000000000000
210
0.000000000000000
220
0.000000000000000
230
1.000000000000000
 40
0.7071067811865450
 41
1.570796326794897
 42
3.141592653589793
  0
ELLIPSE
  5
138
100
AcDbEntity
  8
A1
  6
CONTINUOUS
 62
7
100
AcDbEllipse
 10
234.5179080917013
 20
267.9031270797663
 30
0.000000000000000
 11
-5.000000000000000
 21
0.000000000000000
 31
0.000000000000000
210
0.000000000000000
220
0.000000000000000
230
1.000000000000000
 40
0.7071067811865450
 41
0.000000000000000
 42
1.570796326794897
  0
ELLIPSE
  5
139
100
AcDbEntity
  8
A1
  6
CONTINUOUS
 62
7
100
AcDbEllipse
 10
249.5179080917013
 20
271.0851030797666
 30
0.000000000000000
 11
5.000000000000000
 21
0.000000000000000
 31
0.000000000000000
210
0.000000000000000
220
0.000000000000000
230
1.000000000000000
 40
0.7071067811865350
 41
4.712388980384690
 42
0.000000000000000
  0
ELLIPSE
  5
13A
100
AcDbEntity
  8
A1
  6
CONTINUOUS
 62
7
100
AcDbEllipse
 10
234.5179080917013
 20
271.0851030797666
 30
0.000000000000000
 11
5.000000000000000
 21
0.000000000000000
 31
0.000000000000000
210
0.000000000000000
220
0.000000000000000
230
1.000000000000000
 40
0.7071067811865350
 41
3.141592653589793
 42
4.712388980384690
  0
LINE
  5
13B
100
AcDbEntity
  8
A1
  6
CONTINUOUS
 62
7
100
AcDbLine
 10
234.5179080917013
 20
264.3675931738336
 30
0.000000000000000
 11
249.5179080917013
 21
264.3675931738336
 31
0.000000000000000
  0
LINE
  5
13C
100
AcDbEntity
  8
A1
  6
CONTINUOUS
 62
7
100
AcDbLine
 10
234.5179080917013
 20
267.5495691738338
 30
0.000000000000000
 11
249.5179080917013
 21
267.5495691738338
 31
0.000000000000000
  0
LINE
  5
13D
100
AcDbEntity
  8
A1
  6
CONTINUOUS
 62
7
100
AcDbLine
 10
229.5179080917013
 20
279.3675621738337
 30
0.000000000000000
 11
254.5179080917013
 21
279.3675621738337
 31
0.000000000000000
  0
LINE
  5
13E
100
AcDbEntity
  8
A1
  6
CONTINUOUS
 62
7
100
AcDbLine
 10
229.5179080917013
 20
274.8675621738337
 30
0.000000000000000
 11
254.5179080917013
 21
274.8675621738337
 31
0.000000000000000
  0
ARC
  5
13F
100
AcDbEntity
  8
A1
  6
CONTINUOUS
 62
7
100
AcDbCircle
 10
102.5753654532934
 20
191.6636538774704
 30
0.000000000000000
 40
6.530000000000000
100
AcDbArc
 50
180.0000000000000
 51
314.9999999999994
  0
ARC
  5
140
100
AcDbEntity
  8
A1
  6
CONTINUOUS
 62
7
100
AcDbCircle
 10
102.5453654532934
 20
191.5912194399203
 30
0.000000000000000
 40
2.000000000000000
100
AcDbArc
 50
180.0000000000000
 51
314.9999999999991
  0
LINE
  5
141
100
AcDbEntity
  8
A1
  6
CONTINUOUS
 62
7
100
AcDbLine
 10
111.0453344532937
 20
190.8988083151743
 30
0.000000000000000
 11
107.5098005473609
 21
187.3632744092416
 31
0.000000000000000
  0
LINE
  5
142
100
AcDbEntity
  8
A1
  6
CONTINUOUS
 62
7
100
AcDbLine
 10
104.3278245473606
 20
190.5452514092414
 30
0.000000000000000
 11
107.8633584532934
 21
194.0807853151743
 31
0.000000000000000
  0
LINE
  5
143
100
AcDbEntity
  8
A1
  6
CONTINUOUS
 62
7
100
AcDbLine
 10
107.8633584532934
 20
194.0807853151742
 30
0.000000000000000
 11
111.0453344532936
 21
190.8988083151743
 31
0.000000000000000
  0
LINE
  5
144
100
AcDbEntity
  8
A1
  6
CONTINUOUS
 62
7
100
AcDbLine
 10
96.04536545329341
 20
191.6636538774704
 30
0.000000000000000
 11
96.04536545329341
 21
223.0911613151744
 31
0.000000000000000
  0
LINE
  5
145
100
AcDbEntity
  8
A1
  6
CONTINUOUS
 62
7
100
AcDbLine
 10
100.5453654532934
 20
223.0911613151744
 30
0.000000000000000
 11
100.5453654532934
 21
191.5912194399203
 31
0.000000000000000
  0
LINE
  5
146
100
AcDbEntity
  8
A1
  6
CONTINUOUS
 62
7
100
AcDbLine
 10
107.5098005473609
 20
187.3632744092415
 30
0.000000000000000
 11
107.1927727344415
 21
187.0462465963222
 31
0.000000000000000
  0
LINE
  5
147
100
AcDbEntity
  8
A1
  6
CONTINUOUS
 62
7
100
AcDbLine
 10
96.04536545329341
 20
223.0911613151744
 30
0.000000000000000
 11
100.5453654532934
 21
223.0911613151744
 31
0.000000000000000
  0
LINE
  5
148
100
AcDbEntity
  8
A1
  6
CONTINUOUS
 62
7
100
AcDbLine
 10
103.9595790156665
 20
190.1770058775473
 30
0.000000000000000
 11
104.3278245473606
 21
190.5452514092415
 31
0.000000000000000
  0
LINE
  5
149
100
AcDbEntity
  8
A4
  6
CENTER
 62
1
100
AcDbLine
 10
248.8179080917013
 20
215.0911913151741
 30
0.000000000000000
 11
235.2179080917012
 21
215.0911913151741
 31
0.000000000000000
  0
LINE
  5
14A
100
AcDbEntity
  8
A4
  6
CENTER
 62
1
100
AcDbLine
 10
248.8179080917013
 20
201.0911913151741
 30
0.000000000000000
 11
235.2179080917012
 21
201.0911913151741
 31
0.000000000000000
  0
ARC
  5
14B
100
AcDbEntity
  8
A1
  6
CONTINUOUS
 62
7
100
AcDbCircle
 10
294.5179080917385
 20
168.2911913151730
 30
0.000000000000000
 40
1.500000000000000
100
AcDbArc
 50
180.0000000000000
 51
270.0000000000000
  0
LINE
  5
14C
100
AcDbEntity
  8
A1
  6
CONTINUOUS
 62
7
100
AcDbLine
 10
294.5179080917385
 20
166.7911913151730
 30
0.000000000000000
 11
302.0179080917012
 21
166.7911913151730
 31
0.000000000000000
  0
LINE
  5
14D
100
AcDbEntity
  8
A1
  6
CONTINUOUS
 62
7
100
AcDbLine
 10
309.2237338889393
 20
168.2620623291310
 30
0.000000000000000
 11
294.2237338889458
 21
165.2620623286136
 31
0.000000000000000
  0
ARC
  5
14E
100
AcDbEntity
  8
A1
  6
CONTINUOUS
 62
7
100
AcDbCircle
 10
309.5179080916954
 20
166.7911913156046
 30
0.000000000000000
 40
1.500000000000000
100
AcDbArc
 50
281.3099324759255
 51
461.3099324759256
  0
LINE
  5
14F
100
AcDbEntity
  8
A1
  6
CONTINUOUS
 62
7
100
AcDbLine
 10
294.8120822944582
 20
162.3203203015604
 30
0.000000000000000
 11
309.8120822944516
 21
165.3203203020778
 31
0.000000000000000
  0
ARC
  5
150
100
AcDbEntity
  8
A1
  6
CONTINUOUS
 62
7
100
AcDbCircle
 10
294.5179080917019
 20
163.7911913150870
 30
0.000000000000000
 40
1.500000000000000
100
AcDbArc
 50
101.3099324759255
 51
281.3099324759255
  0
LINE
  5
151
100
AcDbEntity
  8
A1
  6
CONTINUOUS
 62
7
100
AcDbLine
 10
294.2237338890230
 20
162.3203203015451
 30
0.000000000000000
 11
297.0179080917013
 21
161.7614854610655
 31
0.000000000000000
  0
LINE
  5
152
100
AcDbEntity
  8
A1
  6
CONTINUOUS
 62
7
100
AcDbLine
 10
309.8120822943742
 20
162.2620623289313
 30
0.000000000000000
 11
307.0179080917013
 21
162.8208971694099
 31
0.000000000000000
  0
LINE
  5
153
100
AcDbEntity
  8
A1
  6
CONTINUOUS
 62
7
100
AcDbLine
 10
294.2237338889578
 20
159.2620623285305
 30
0.000000000000000
 11
309.2237338889514
 21
162.2620623289184
 31
0.000000000000000
  0
ARC
  5
154
100
AcDbEntity
  8
A1
  6
CONTINUOUS
 62
7
100
AcDbCircle
 10
309.5179080916954
 20
160.7911913153892
 30
0.000000000000000
 40
1.500000000000000
100
AcDbArc
 50
281.3099324754493
 51
461.3099324754493
  0
LINE
  5
155
100
AcDbEntity
  8
A1
  6
CONTINUOUS
 62
7
100
AcDbLine
 10
294.8120822944458
 20
156.3203203014724
 30
0.000000000000000
 11
309.8120822944394
 21
159.3203203018603
 31
0.000000000000000
  0
ARC
  5
156
100
AcDbEntity
  8
A1
  6
CONTINUOUS
 62
7
100
AcDbCircle
 10
294.5179080917019
 20
157.7911913150013
 30
0.000000000000000
 40
1.500000000000000
100
AcDbArc
 50
101.3099324754493
 51
281.3099324754493
  0
LINE
  5
157
100
AcDbEntity
  8
A1
  6
CONTINUOUS
 62
7
100
AcDbLine
 10
297.0179080917011
 20
155.7614854608755
 30
0.000000000000000
 11
294.2237338889702
 21
156.3203203014698
 31
0.000000000000000
  0
LINE
  5
158
100
AcDbEntity
  8
A1
  6
CONTINUOUS
 62
7
100
AcDbLine
 10
307.0179080917013
 20
156.8208971688685
 30
0.000000000000000
 11
309.8120822944269
 21
156.2620623282751
 31
0.000000000000000
  0
LINE
  5
159
100
AcDbEntity
  8
A1
  6
CONTINUOUS
 62
7
100
AcDbLine
 10
309.2237338890042
 20
156.2620623282838
 30
0.000000000000000
 11
294.2237338890106
 21
153.2620623284555
 31
0.000000000000000
  0
ARC
  5
15A
100
AcDbEntity
  8
A1
  6
CONTINUOUS
 62
7
100
AcDbCircle
 10
309.5179080916954
 20
154.7911913147437
 30
0.000000000000000
 40
1.500000000000000
100
AcDbArc
 50
281.3099324733946
 51
461.3099324733944
  0
LINE
  5
15B
100
AcDbEntity
  8
A1
  6
CONTINUOUS
 62
7
100
AcDbLine
 10
294.8120822943931
 20
150.3203203013761
 30
0.000000000000000
 11
309.8120822943866
 21
153.3203203012044
 31
0.000000000000000
  0
ARC
  5
15C
100
AcDbEntity
  8
A1
  6
CONTINUOUS
 62
7
100
AcDbCircle
 10
294.5179080917019
 20
151.7911913149153
 30
0.000000000000000
 40
1.500000000000000
100
AcDbArc
 50
101.3099324733945
 51
281.3099324733946
  0
LINE
  5
15D
100
AcDbEntity
  8
A1
  6
CONTINUOUS
 62
7
100
AcDbLine
 10
297.0179080917011
 20
149.7614854608456
 30
0.000000000000000
 11
294.2237338889984
 21
150.3203203013782
 31
0.000000000000000
  0
LINE
  5
15E
100
AcDbEntity
  8
A1
  6
CONTINUOUS
 62
7
100
AcDbLine
 10
307.0179080917011
 20
150.8208971690278
 30
0.000000000000000
 11
309.8120822943986
 21
150.2620623284962
 31
0.000000000000000
  0
LINE
  5
15F
100
AcDbEntity
  8
A1
  6
CONTINUOUS
 62
7
100
AcDbLine
 10
309.2237338889758
 20
150.2620623284930
 30
0.000000000000000
 11
294.2237338889823
 21
147.2620623283637
 31
0.000000000000000
  0
LINE
  5
160
100
AcDbEntity
  8
A1
  6
CONTINUOUS
 62
7
100
AcDbLine
 10
294.8120822944215
 20
144.3203203012959
 30
0.000000000000000
 11
309.8120822944150
 21
147.3203203014251
 31
0.000000000000000
  0
ARC
  5
161
100
AcDbEntity
  8
A1
  6
CONTINUOUS
 62
7
100
AcDbCircle
 10
309.5179080916954
 20
148.7911913149590
 30
0.000000000000000
 40
1.500000000000000
100
AcDbArc
 50
281.3099324744996
 51
461.3099324744995
  0
ARC
  5
162
100
AcDbEntity
  8
A1
  6
CONTINUOUS
 62
7
100
AcDbCircle
 10
294.5179080917019
 20
145.7911913148296
 30
0.000000000000000
 40
1.500000000000000
100
AcDbArc
 50
101.3099324744996
 51
281.3099324744996
  0
LINE
  5
163
100
AcDbEntity
  8
A1
  6
CONTINUOUS
 62
7
100
AcDbLine
 10
297.0179080917012
 20
143.7614854607356
 30
0.000000000000000
 11
294.2237338889864
 21
144.3203203012948
 31
0.000000000000000
  0
LINE
  5
164
100
AcDbEntity
  8
A1
  6
CONTINUOUS
 62
7
100
AcDbLine
 10
307.0179080917012
 20
144.8208971688366
 30
0.000000000000000
 11
309.8120822944109
 21
144.2620623282784
 31
0.000000000000000
  0
ARC
  5
165
100
AcDbEntity
  8
A1
  6
CONTINUOUS
 62
7
100
AcDbCircle
 10
309.5179080916954
 20
142.7911913147437
 30
0.000000000000000
 40
1.500000000000000
100
AcDbArc
 50
281.3099324740250
 51
461.3099324740250
  0
LINE
  5
166
100
AcDbEntity
  8
A1
  6
CONTINUOUS
 62
7
100
AcDbLine
 10
294.2237338889946
 20
141.2620623282802
 30
0.000000000000000
 11
309.2237338889881
 21
144.2620623282802
 31
0.000000000000000
  0
ARC
  5
167
100
AcDbEntity
  8
A1
  6
CONTINUOUS
 62
7
100
AcDbCircle
 10
294.5179080917019
 20
139.7911913147437
 30
0.000000000000000
 40
1.500000000000000
100
AcDbArc
 50
101.3099324740250
 51
270.0000000000000
  0
LINE
  5
168
100
AcDbEntity
  8
A1
  6
CONTINUOUS
 62
7
100
AcDbLine
 10
309.8120822944027
 20
141.3203203012077
 30
0.000000000000000
 11
294.6664373642424
 21
138.2911913151744
 31
0.000000000000000
  0
ARC
  5
169
100
AcDbEntity
  8
A1
  6
CONTINUOUS
 62
7
100
AcDbCircle
 10
309.5179080916954
 20
138.2911913147437
 30
0.000000000000000
 40
1.500000000000000
100
AcDbArc
 50
0.000000000000000
 51
90.00000000000000
  0
LINE
  5
16A
100
AcDbEntity
  8
A1
  6
CONTINUOUS
 62
7
100
AcDbLine
 10
309.5179080916955
 20
139.7911913147437
 30
0.000000000000000
 11
302.1664373620861
 21
139.7911913147085
 31
0.000000000000000
  0
LINE
  5
16B
100
AcDbEntity
  8
A1
  6
CONTINUOUS
 62
7
100
AcDbLine
 10
307.0179080917012
 20
168.2911913151741
 30
0.000000000000000
 11
307.0179080917012
 21
167.8208971696070
 31
0.000000000000000
  0
LINE
  5
16C
100
AcDbEntity
  8
A1
  6
CONTINUOUS
 62
7
100
AcDbLine
 10
297.0179080917012
 20
165.8208971692612
 30
0.000000000000000
 11
297.0179080917012
 21
166.7911913151730
 31
0.000000000000000
  0
LINE
  5
16D
100
AcDbEntity
  8
A1
  6
CONTINUOUS
 62
7
100
AcDbLine
 10
297.0179080917012
 20
159.8208971691517
 30
0.000000000000000
 11
297.0179080917012
 21
162.7614854610852
 31
0.000000000000000
  0
LINE
  5
16E
100
AcDbEntity
  8
A1
  6
CONTINUOUS
 62
7
100
AcDbLine
 10
307.0179080917012
 20
164.7614854614311
 30
0.000000000000000
 11
307.0179080917012
 21
161.8208971694112
 31
0.000000000000000
  0
LINE
  5
16F
100
AcDbEntity
  8
A1
  6
CONTINUOUS
 62
7
100
AcDbLine
 10
307.0179080917012
 20
152.7614854606990
 30
0.000000000000000
 11
307.0179080917012
 21
149.8208971690189
 31
0.000000000000000
  0
LINE
  5
170
100
AcDbEntity
  8
A1
  6
CONTINUOUS
 62
7
100
AcDbLine
 10
307.0179080917012
 20
158.7614854612403
 30
0.000000000000000
 11
307.0179080917012
 21
155.8208971688483
 31
0.000000000000000
  0
LINE
  5
171
100
AcDbEntity
  8
A1
  6
CONTINUOUS
 62
7
100
AcDbLine
 10
297.0179080917012
 20
147.8208971689319
 30
0.000000000000000
 11
297.0179080917012
 21
150.7614854608126
 31
0.000000000000000
  0
LINE
  5
172
100
AcDbEntity
  8
A1
  6
CONTINUOUS
 62
7
100
AcDbLine
 10
297.0179080917012
 20
153.8208971689619
 30
0.000000000000000
 11
297.0179080917012
 21
156.7614854609809
 31
0.000000000000000
  0
LINE
  5
173
100
AcDbEntity
  8
A1
  6
CONTINUOUS
 62
7
100
AcDbLine
 10
297.0179080917012
 20
138.7614854606664
 30
0.000000000000000
 11
297.0179080917012
 21
138.2911913151741
 31
0.000000000000000
  0
LINE
  5
174
100
AcDbEntity
  8
A1
  6
CONTINUOUS
 62
7
100
AcDbLine
 10
297.0179080917012
 20
144.7614854607710
 30
0.000000000000000
 11
297.0179080917012
 21
141.8208971688218
 31
0.000000000000000
  0
LINE
  5
175
100
AcDbEntity
  8
A1
  6
CONTINUOUS
 62
7
100
AcDbLine
 10
307.0179080917012
 20
139.7911913147318
 30
0.000000000000000
 11
307.0179080917012
 21
140.7614854606672
 31
0.000000000000000
  0
LINE
  5
176
100
AcDbEntity
  8
A1
  6
CONTINUOUS
 62
7
100
AcDbLine
 10
307.0179080917012
 20
143.8208971688226
 30
0.000000000000000
 11
307.0179080917012
 21
146.7614854608580
 31
0.000000000000000
  0
LINE
  5
177
100
AcDbEntity
  8
A1
  6
CONTINUOUS
 62
7
100
AcDbLine
 10
302.1664373620861
 20
139.7911913147086
 30
0.000000000000000
 11
302.1664373620868
 21
138.2911913151735
 31
0.000000000000000
  0
LINE
  5
178
100
AcDbEntity
  8
A1
  6
CONTINUOUS
 62
7
100
AcDbLine
 10
302.0179080917012
 20
166.7911913151730
 30
0.000000000000000
 11
302.0179080917030
 21
168.2911913151734
 31
0.000000000000000
  0
LINE
  5
179
100
AcDbEntity
  8
A4
  6
CENTER
 62
1
100
AcDbLine
 10
154.7453654532935
 20
76.19119131517411
 30
0.000000000000000
 11
142.7453654532935
 21
76.19119131517411
 31
0.000000000000000
  0
ARC
  5
17A
100
AcDbEntity
  8
A1
  6
CONTINUOUS
 62
7
100
AcDbCircle
 10
148.7453654534647
 20
76.44522462275941
 30
0.000000000000000
 40
7.750000000000114
100
AcDbArc
 50
180.0000000000000
 51
360.0000000000000
  0
ARC
  5
17B
100
AcDbEntity
  8
A1
  6
CONTINUOUS
 62
7
100
AcDbCircle
 10
141.2453654534658
 20
138.2911913147475
 30
0.000000000000000
 40
1.500000000000000
100
AcDbArc
 50
101.3099324740250
 51
180.0000000000000
  0
LINE
  5
17C
100
AcDbEntity
  8
A1
  6
CONTINUOUS
 62
7
100
AcDbLine
 10
140.9953654535913
 20
138.2911913152621
 30
0.000000000000000
 11
139.7453654534658
 21
138.2911913152621
 31
0.000000000000000
  0
LINE
  5
17D
100
AcDbEntity
  8
A1
  6
CONTINUOUS
 62
7
100
AcDbLine
 10
140.9953654535914
 20
168.2911913151748
 30
0.000000000000000
 11
139.7453654535024
 21
168.2911913151748
 31
0.000000000000000
  0
LINE
  5
17E
100
AcDbEntity
  8
A1
  6
CONTINUOUS
 62
7
100
AcDbLine
 10
140.9511912508351
 20
166.8203203016326
 30
0.000000000000000
 11
140.9953654535913
 21
166.8114854610826
 31
0.000000000000000
  0
ARC
  5
17F
100
AcDbEntity
  8
A1
  6
CONTINUOUS
 62
7
100
AcDbCircle
 10
141.2453654535024
 20
168.2911913151769
 30
0.000000000000000
 40
1.500000000000000
100
AcDbArc
 50
180.0000000000000
 51
260.4059317765819
  0
LINE
  5
180
100
AcDbEntity
  8
A1
  6
CONTINUOUS
 62
7
100
AcDbLine
 10
140.9953654535912
 20
163.7708971691955
 30
0.000000000000000
 11
140.9511912507096
 21
163.7620623286176
 31
0.000000000000000
  0
ARC
  5
181
100
AcDbEntity
  8
A1
  6
CONTINUOUS
 62
7
100
AcDbCircle
 10
141.2453654534658
 20
162.2911913150909
 30
0.000000000000000
 40
1.500000000000000
100
AcDbArc
 50
101.3099324759255
 51
260.4059317780025
  0
LINE
  5
182
100
AcDbEntity
  8
A1
  6
CONTINUOUS
 62
7
100
AcDbLine
 10
140.9511912507870
 20
160.8203203015491
 30
0.000000000000000
 11
140.9953654535915
 21
160.8114854609891
 31
0.000000000000000
  0
LINE
  5
183
100
AcDbEntity
  8
A1
  6
CONTINUOUS
 62
7
100
AcDbLine
 10
140.9953654535912
 20
157.7708971691091
 30
0.000000000000000
 11
140.9511912507217
 21
157.7620623285341
 31
0.000000000000000
  0
ARC
  5
184
100
AcDbEntity
  8
A1
  6
CONTINUOUS
 62
7
100
AcDbCircle
 10
141.2453654534658
 20
156.2911913150052
 30
0.000000000000000
 40
1.500000000000000
100
AcDbArc
 50
101.3099324754493
 51
260.4059317780021
  0
LINE
  5
185
100
AcDbEntity
  8
A1
  6
CONTINUOUS
 62
7
100
AcDbLine
 10
140.9511912507340
 20
154.8203203014736
 30
0.000000000000000
 11
140.9953654535912
 21
154.8114854609014
 31
0.000000000000000
  0
LINE
  5
186
100
AcDbEntity
  8
A1
  6
CONTINUOUS
 62
7
100
AcDbLine
 10
140.9953654535913
 20
151.7708971690218
 30
0.000000000000000
 11
140.9511912507747
 21
151.7620623284589
 31
0.000000000000000
  0
ARC
  5
187
100
AcDbEntity
  8
A1
  6
CONTINUOUS
 62
7
100
AcDbCircle
 10
141.2453654534658
 20
150.2911913149192
 30
0.000000000000000
 40
1.500000000000000
100
AcDbArc
 50
101.3099324733943
 51
260.4059317780025
  0
LINE
  5
188
100
AcDbEntity
  8
A1
  6
CONTINUOUS
 62
7
100
AcDbLine
 10
140.9511912507625
 20
148.8203203013823
 30
0.000000000000000
 11
140.9953654535914
 21
148.8114854608167
 31
0.000000000000000
  0
LINE
  5
189
100
AcDbEntity
  8
A1
  6
CONTINUOUS
 62
7
100
AcDbLine
 10
140.9953654535913
 20
145.7708971689368
 30
0.000000000000000
 11
140.9511912507462
 21
145.7620623283673
 31
0.000000000000000
  0
LINE
  5
18A
100
AcDbEntity
  8
A1
  6
CONTINUOUS
 62
7
100
AcDbLine
 10
140.9511912507504
 20
142.8203203012986
 30
0.000000000000000
 11
140.9953654535915
 21
142.8114854607302
 31
0.000000000000000
  0
ARC
  5
18B
100
AcDbEntity
  8
A1
  6
CONTINUOUS
 62
7
100
AcDbCircle
 10
141.2453654534658
 20
144.2911913148335
 30
0.000000000000000
 40
1.500000000000000
100
AcDbArc
 50
101.3099324744996
 51
260.4059317780029
  0
LINE
  5
18C
100
AcDbEntity
  8
A1
  6
CONTINUOUS
 62
7
100
AcDbLine
 10
140.9953654535913
 20
139.7708971688508
 30
0.000000000000000
 11
140.9511912507583
 21
139.7620623282841
 31
0.000000000000000
  0
LINE
  5
18D
100
AcDbEntity
  8
A1
  6
CONTINUOUS
 62
7
100
AcDbLine
 10
156.4953654535913
 20
138.2911913152621
 30
0.000000000000000
 11
157.7453654534469
 21
138.2911913152621
 31
0.000000000000000
  0
LINE
  5
18E
100
AcDbEntity
  8
A1
  6
CONTINUOUS
 62
7
100
AcDbLine
 10
157.7453654534278
 20
168.2911913151780
 30
0.000000000000000
 11
156.4953654535913
 21
168.2911913151780
 31
0.000000000000000
  0
LINE
  5
18F
100
AcDbEntity
  8
A1
  6
CONTINUOUS
 62
7
100
AcDbLine
 10
156.5395396561667
 20
139.8203203012116
 30
0.000000000000000
 11
156.4953654535914
 21
139.8114854606966
 31
0.000000000000000
  0
ARC
  5
190
100
AcDbEntity
  8
A1
  6
CONTINUOUS
 62
7
100
AcDbCircle
 10
156.2453654534592
 20
138.2911913147476
 30
0.000000000000000
 40
1.500000000000000
100
AcDbArc
 50
0.000000000000000
 51
80.40593176802579
  0
LINE
  5
191
100
AcDbEntity
  8
A1
  6
CONTINUOUS
 62
7
100
AcDbLine
 10
156.4953654535913
 20
142.7708971687989
 30
0.000000000000000
 11
156.5395396561747
 21
142.7620623282820
 31
0.000000000000000
  0
ARC
  5
192
100
AcDbEntity
  8
A1
  6
CONTINUOUS
 62
7
100
AcDbCircle
 10
156.2453654534592
 20
141.2911913147476
 30
0.000000000000000
 40
1.500000000000000
100
AcDbArc
 50
281.3099324740250
 51
440.4059317680261
  0
LINE
  5
193
100
AcDbEntity
  8
A1
  6
CONTINUOUS
 62
7
100
AcDbLine
 10
156.5395396561790
 20
145.8203203014289
 30
0.000000000000000
 11
156.4953654535913
 21
145.8114854609111
 31
0.000000000000000
  0
LINE
  5
194
100
AcDbEntity
  8
A1
  6
CONTINUOUS
 62
7
100
AcDbLine
 10
156.4953654535913
 20
148.7708971690142
 30
0.000000000000000
 11
156.5395396561626
 21
148.7620623285001
 31
0.000000000000000
  0
ARC
  5
195
100
AcDbEntity
  8
A1
  6
CONTINUOUS
 62
7
100
AcDbCircle
 10
156.2453654534592
 20
147.2911913149629
 30
0.000000000000000
 40
1.500000000000000
100
AcDbArc
 50
281.3099324744996
 51
440.4059317680249
  0
LINE
  5
196
100
AcDbEntity
  8
A1
  6
CONTINUOUS
 62
7
100
AcDbLine
 10
156.5395396561505
 20
151.8203203012080
 30
0.000000000000000
 11
156.4953654535914
 21
151.8114854606967
 31
0.000000000000000
  0
LINE
  5
197
100
AcDbEntity
  8
A1
  6
CONTINUOUS
 62
7
100
AcDbLine
 10
156.4953654535913
 20
154.7708971687999
 30
0.000000000000000
 11
156.5395396561909
 21
154.7620623282792
 31
0.000000000000000
  0
ARC
  5
198
100
AcDbEntity
  8
A1
  6
CONTINUOUS
 62
7
100
AcDbCircle
 10
156.2453654534592
 20
153.2911913147476
 30
0.000000000000000
 40
1.500000000000000
100
AcDbArc
 50
281.3099324733946
 51
440.4059317680256
  0
LINE
  5
199
100
AcDbEntity
  8
A1
  6
CONTINUOUS
 62
7
100
AcDbLine
 10
156.5395396562032
 20
157.8203203018643
 30
0.000000000000000
 11
156.4953654535912
 21
157.8114854613408
 31
0.000000000000000
  0
ARC
  5
19A
100
AcDbEntity
  8
A1
  6
CONTINUOUS
 62
7
100
AcDbCircle
 10
156.2453654534592
 20
159.2911913153931
 30
0.000000000000000
 40
1.500000000000000
100
AcDbArc
 50
281.3099324754493
 51
440.4059317680256
  0
LINE
  5
19B
100
AcDbEntity
  8
A1
  6
CONTINUOUS
 62
7
100
AcDbLine
 10
156.4953654535913
 20
160.7708971694436
 30
0.000000000000000
 11
156.5395396561382
 21
160.7620623289351
 31
0.000000000000000
  0
LINE
  5
19C
100
AcDbEntity
  8
A1
  6
CONTINUOUS
 62
7
100
AcDbLine
 10
156.5395396562155
 20
163.8203203020818
 30
0.000000000000000
 11
156.4953654535913
 21
163.8114854615555
 31
0.000000000000000
  0
ARC
  5
19D
100
AcDbEntity
  8
A1
  6
CONTINUOUS
 62
7
100
AcDbCircle
 10
156.2453654534277
 20
168.2911913151769
 30
0.000000000000000
 40
1.500000000000000
100
AcDbArc
 50
279.5940682331944
 51
360.0000000000000
  0
LINE
  5
19E
100
AcDbEntity
  8
A1
  6
CONTINUOUS
 62
7
100
AcDbLine
 10
156.4953654535912
 20
166.7708971696584
 30
0.000000000000000
 11
156.5395396561267
 21
166.7620623291526
 31
0.000000000000000
  0
ARC
  5
19F
100
AcDbEntity
  8
A1
  6
CONTINUOUS
 62
7
100
AcDbCircle
 10
156.2453654534592
 20
165.2911913156084
 30
0.000000000000000
 40
1.500000000000000
100
AcDbArc
 50
281.3099324759255
 51
440.4059317680256
  0
LINE
  5
1A0
100
AcDbEntity
  8
A1
  6
CONTINUOUS
 62
7
100
AcDbLine
 10
146.1453654534735
 20
147.7814854607660
 30
0.000000000000000
 11
146.4953654534578
 21
147.7114854607701
 31
0.000000000000000
  0
LINE
  5
1A1
100
AcDbEntity
  8
A1
  6
CONTINUOUS
 62
7
100
AcDbLine
 10
150.4042047298024
 20
150.5932533159208
 30
0.000000000000000
 11
146.4441053519430
 21
149.8012334403939
 31
0.000000000000000
  0
LINE
  5
1A2
100
AcDbEntity
  8
A1
  6
CONTINUOUS
 62
7
100
AcDbLine
 10
151.3453654534735
 20
147.8408971689162
 30
0.000000000000000
 11
146.1453654534735
 21
146.8008971688709
 31
0.000000000000000
  0
LINE
  5
1A3
100
AcDbEntity
  8
A1
  6
CONTINUOUS
 62
7
100
AcDbLine
 10
151.3453654534733
 20
144.7814854607554
 30
0.000000000000000
 11
146.1453654534733
 21
143.7414854607101
 31
0.000000000000000
  0
LINE
  5
1A4
100
AcDbEntity
  8
A1
  6
CONTINUOUS
 62
7
100
AcDbLine
 10
150.9953654534579
 20
143.8708971687690
 30
0.000000000000000
 11
151.3453654534735
 21
143.8008971687638
 31
0.000000000000000
  0
LINE
  5
1A5
100
AcDbEntity
  8
A1
  6
CONTINUOUS
 62
7
100
AcDbLine
 10
151.3453654534734
 20
141.8408971687407
 30
0.000000000000000
 11
146.1453654534733
 21
140.8008971687403
 31
0.000000000000000
  0
LINE
  5
1A6
100
AcDbEntity
  8
A1
  6
CONTINUOUS
 62
7
100
AcDbLine
 10
151.3453654534736
 20
138.7814854605851
 30
0.000000000000000
 11
148.8938947259998
 21
138.2911913150901
 31
0.000000000000000
  0
LINE
  5
1A7
100
AcDbEntity
  8
A1
  6
CONTINUOUS
 62
7
100
AcDbLine
 10
146.4953654531514
 20
143.8114854606486
 30
0.000000000000000
 11
146.4953654531514
 21
140.8708971686758
 31
0.000000000000000
  0
LINE
  5
1A8
100
AcDbEntity
  8
A1
  6
CONTINUOUS
 62
7
100
AcDbLine
 10
146.4953654531514
 20
147.7911913151870
 30
0.000000000000000
 11
146.4953654531514
 21
146.8708971688096
 31
0.000000000000000
  0
LINE
  5
1A9
100
AcDbEntity
  8
A1
  6
CONTINUOUS
 62
7
100
AcDbLine
 10
150.9953654532935
 20
147.7911913151870
 30
0.000000000000000
 11
150.9953654532933
 21
147.7708971688772
 31
0.000000000000000
  0
LINE
  5
1AA
100
AcDbEntity
  8
A1
  6
CONTINUOUS
 62
7
100
AcDbLine
 10
150.9953654532349
 20
138.7114854605374
 30
0.000000000000000
 11
150.9953654532322
 21
138.2911913151741
 31
0.000000000000000
  0
LINE
  5
1AB
100
AcDbEntity
  8
A1
  6
CONTINUOUS
 62
7
100
AcDbLine
 10
150.9953654532736
 20
144.7114854607123
 30
0.000000000000000
 11
150.9953654532547
 21
141.7708971686968
 31
0.000000000000000
  0
ARC
  5
1AC
100
AcDbEntity
  8
A1
  6
CONTINUOUS
 62
7
100
AcDbCircle
 10
299.4179080917012
 20
247.8675621738337
 30
0.000000000000000
 40
1.000000000000000
100
AcDbArc
 50
180.0000000000000
 51
270.0000000000000
  0
ARC
  5
1AD
100
AcDbEntity
  8
A1
  6
CONTINUOUS
 62
7
100
AcDbCircle
 10
304.6179080917012
 20
247.8675621738337
 30
0.000000000000000
 40
1.000000000000000
100
AcDbArc
 50
270.0000000000000
 51
360.0000000000000
  0
LINE
  5
1AE
100
AcDbEntity
  8
A1
  6
CONTINUOUS
 62
7
100
AcDbLine
 10
298.4179080917012
 20
247.8675621738337
 30
0.000000000000000
 11
298.4179080917012
 21
248.8675621738337
 31
0.000000000000000
  0
LINE
  5
1AF
100
AcDbEntity
  8
A1
  6
CONTINUOUS
 62
7
100
AcDbLine
 10
305.6179080917013
 20
248.8675621738337
 30
0.000000000000000
 11
305.6179080917013
 21
247.8675621738337
 31
0.000000000000000
  0
LINE
  5
1B0
100
AcDbEntity
  8
A1
  6
CONTINUOUS
 62
7
100
AcDbLine
 10
304.6179080917012
 20
246.8675621738337
 30
0.000000000000000
 11
299.4179080917012
 21
246.8675621738337
 31
0.000000000000000
  0
LINE
  5
1B1
100
AcDbEntity
  8
A1
  6
CONTINUOUS
 62
7
100
AcDbLine
 10
300.4179080917012
 20
254.8675621738337
 30
0.000000000000000
 11
300.4179080917012
 21
248.8675621738337
 31
0.000000000000000
  0
LINE
  5
1B2
100
AcDbEntity
  8
A1
  6
CONTINUOUS
 62
7
100
AcDbLine
 10
303.6179080917013
 20
254.8675621738337
 30
0.000000000000000
 11
303.6179080917013
 21
248.8675621738337
 31
0.000000000000000
  0
LINE
  5
1B3
100
AcDbEntity
  8
A1
  6
CONTINUOUS
 62
7
100
AcDbLine
 10
300.4179080917012
 20
248.8675621738337
 30
0.000000000000000
 11
303.6179080917013
 21
248.8675621738337
 31
0.000000000000000
  0
ARC
  5
1B4
100
AcDbEntity
  8
A1
  6
CONTINUOUS
 62
7
100
AcDbCircle
 10
295.8679080917011
 20
254.6675621738340
 30
0.000000000000000
 40
1.049999999999983
100
AcDbArc
 50
180.0000000000000
 51
360.0000000000000
  0
ARC
  5
1B5
100
AcDbEntity
  8
A1
  6
CONTINUOUS
 62
7
100
AcDbCircle
 10
308.0679080917011
 20
254.6675621738340
 30
0.000000000000000
 40
1.049999999999983
100
AcDbArc
 50
180.0000000000000
 51
360.0000000000000
  0
LINE
  5
1B6
100
AcDbEntity
  8
A1
  6
CONTINUOUS
 62
7
100
AcDbLine
 10
294.8179080917010
 20
258.9175621736624
 30
0.000000000000000
 11
294.8179080917010
 21
254.6675621738340
 31
0.000000000000000
  0
LINE
  5
1B7
100
AcDbEntity
  8
A1
  6
CONTINUOUS
 62
7
100
AcDbLine
 10
309.1179080917012
 20
258.9175621736624
 30
0.000000000000000
 11
309.1179080917012
 21
254.6675621738340
 31
0.000000000000000
  0
LINE
  5
1B8
100
AcDbEntity
  8
A1
  6
CONTINUOUS
 62
7
100
AcDbLine
 10
296.9179080916899
 20
254.8675621738339
 30
0.000000000000000
 11
296.9179080916899
 21
248.8675621738337
 31
0.000000000000000
  0
LINE
  5
1B9
100
AcDbEntity
  8
A1
  6
CONTINUOUS
 62
7
100
AcDbLine
 10
299.8179080917009
 20
248.8675621738337
 30
0.000000000000000
 11
299.8179080917009
 21
254.8675621738339
 31
0.000000000000000
  0
LINE
  5
1BA
100
AcDbEntity
  8
A1
  6
CONTINUOUS
 62
7
100
AcDbLine
 10
299.8179080917009
 20
248.8675621738337
 30
0.000000000000000
 11
296.9179080916899
 21
248.8675621738337
 31
0.000000000000000
  0
LINE
  5
1BB
100
AcDbEntity
  8
A1
  6
CONTINUOUS
 62
7
100
AcDbLine
 10
307.0179080917124
 20
254.8675621738339
 30
0.000000000000000
 11
307.0179080917124
 21
248.8675621738337
 31
0.000000000000000
  0
LINE
  5
1BC
100
AcDbEntity
  8
A1
  6
CONTINUOUS
 62
7
100
AcDbLine
 10
304.1179080917014
 20
248.8675621738337
 30
0.000000000000000
 11
307.0179080917124
 21
248.8675621738337
 31
0.000000000000000
  0
LINE
  5
1BD
100
AcDbEntity
  8
A1
  6
CONTINUOUS
 62
7
100
AcDbLine
 10
304.1179080917014
 20
248.8675621738337
 30
0.000000000000000
 11
304.1179080917014
 21
254.8675621738339
 31
0.000000000000000
  0
LINE
  5
1BE
100
AcDbEntity
  8
A1
  6
CONTINUOUS
 62
7
100
AcDbLine
 10
324.4679080917011
 20
276.4675621738338
 30
0.000000000000000
 11
324.4679080917011
 21
279.3675621738337
 31
0.000000000000000
  0
LINE
  5
1BF
100
AcDbEntity
  8
A1
  6
CONTINUOUS
 62
7
100
AcDbLine
 10
324.4679080917011
 20
279.3675621738337
 30
0.000000000000000
 11
315.3832479736740
 21
279.3675621738337
 31
0.000000000000000
  0
LINE
  5
1C0
100
AcDbEntity
  8
A1
  6
CONTINUOUS
 62
7
100
AcDbLine
 10
315.5179080917011
 20
276.4675621738338
 30
0.000000000000000
 11
324.4679080917011
 21
276.4675621738338
 31
0.000000000000000
  0
LINE
  5
1C1
100
AcDbEntity
  8
A1
  6
CONTINUOUS
 62
7
100
AcDbLine
 10
279.4679080917011
 20
276.4675621738338
 30
0.000000000000000
 11
279.4679080917011
 21
279.3675621738337
 31
0.000000000000000
  0
LINE
  5
1C2
100
AcDbEntity
  8
A1
  6
CONTINUOUS
 62
7
100
AcDbLine
 10
288.5179080917014
 20
276.4675621738338
 30
0.000000000000000
 11
279.4679080917011
 21
276.4675621738338
 31
0.000000000000000
  0
LINE
  5
1C3
100
AcDbEntity
  8
A1
  6
CONTINUOUS
 62
7
100
AcDbLine
 10
279.4679080917011
 20
279.3675621738337
 30
0.000000000000000
 11
288.6525682097285
 21
279.3675621738337
 31
0.000000000000000
  0
LINE
  5
1C4
100
AcDbEntity
  8
A1
  6
CONTINUOUS
 62
7
100
AcDbLine
 10
299.8179080917010
 20
254.8675621738337
 30
0.000000000000000
 11
304.1179080917013
 21
254.8675621738337
 31
0.000000000000000
  0
LINE
  5
1C5
100
AcDbEntity
  8
A1
  6
CONTINUOUS
 62
7
100
AcDbLine
 10
296.9179080917009
 20
254.8675621738337
 30
0.000000000000000
 11
299.8179080917010
 21
254.8675621738337
 31
0.000000000000000
  0
LINE
  5
1C6
100
AcDbEntity
  8
A1
  6
CONTINUOUS
 62
7
100
AcDbLine
 10
299.8179080917010
 20
264.1675621738336
 30
0.000000000000000
 11
299.8179080917010
 21
264.4175621738337
 31
0.000000000000000
  0
LINE
  5
1C7
100
AcDbEntity
  8
A1
  6
CONTINUOUS
 62
7
100
AcDbLine
 10
296.9179080917010
 20
258.5056843723642
 30
0.000000000000000
 11
296.9179080917012
 21
254.8675621738339
 31
0.000000000000000
  0
LINE
  5
1C8
100
AcDbEntity
  8
A1
  6
CONTINUOUS
 62
7
100
AcDbLine
 10
307.0179080917011
 20
254.8675621738337
 30
0.000000000000000
 11
304.1179080917013
 21
254.8675621738337
 31
0.000000000000000
  0
LINE
  5
1C9
100
AcDbEntity
  8
A1
  6
CONTINUOUS
 62
7
100
AcDbLine
 10
307.0179080917011
 20
258.3324792916068
 30
0.000000000000000
 11
307.0179080917011
 21
254.8675621738339
 31
0.000000000000000
  0
LINE
  5
1CA
100
AcDbEntity
  8
A1
  6
CONTINUOUS
 62
7
100
AcDbLine
 10
304.1179080917013
 20
264.1675621738336
 30
0.000000000000000
 11
304.1179080917013
 21
264.4175621738337
 31
0.000000000000000
  0
ELLIPSE
  5
1CB
100
AcDbEntity
  8
A1
  6
CONTINUOUS
 62
7
100
AcDbEllipse
 10
310.5179080917013
 20
278.7064626827304
 30
0.000000000000000
 11
5.000000000000000
 21
0.000000000000000
 31
0.000000000000000
210
0.000000000000000
220
0.000000000000000
230
1.000000000000000
 40
0.5735764363497985
 41
0.000000000000000
 42
1.570796326794897
  0
ELLIPSE
  5
1CC
100
AcDbEntity
  8
A1
  6
CONTINUOUS
 62
7
100
AcDbEllipse
 10
293.5179080917014
 20
278.7064626827304
 30
0.000000000000000
 11
5.000000000000000
 21
0.000000000000000
 31
0.000000000000000
210
0.000000000000000
220
0.000000000000000
230
1.000000000000000
 40
0.5735764363497985
 41
1.570796326794897
 42
3.141592653589793
  0
LINE
  5
1CD
100
AcDbEntity
  8
A1
  6
CONTINUOUS
 62
7
100
AcDbLine
 10
293.5179080917014
 20
281.5743448644794
 30
0.000000000000000
 11
310.5179080917011
 21
281.5743448644794
 31
0.000000000000000
  0
LINE
  5
1CE
100
AcDbEntity
  8
A1
  6
CONTINUOUS
 62
7
100
AcDbLine
 10
288.5179080917014
 20
276.0478312646760
 30
0.000000000000000
 11
315.5179080917011
 21
276.0478312646760
 31
0.000000000000000
  0
LINE
  5
1CF
100
AcDbEntity
  8
A1
  6
CONTINUOUS
 62
7
100
AcDbLine
 10
288.5179080917014
 20
264.4175621738337
 30
0.000000000000000
 11
315.5179080917011
 21
264.4175621738337
 31
0.000000000000000
  0
ARC
  5
1D0
100
AcDbEntity
  8
A1
  6
CONTINUOUS
 62
7
100
AcDbCircle
 10
302.0179080917013
 20
266.6722252537622
 30
0.000000000000000
 40
5.000000000000000
100
AcDbArc
 50
329.9382794179400
 51
333.1964646186979
  0
ARC
  5
1D1
100
AcDbEntity
  8
A1
  6
CONTINUOUS
 62
7
100
AcDbCircle
 10
302.0179080917013
 20
266.6722252537622
 30
0.000000000000000
 40
5.000000000000000
100
AcDbArc
 50
206.8035353813022
 51
210.0617205820601
  0
LINE
  5
1D2
100
AcDbEntity
  8
A1
  6
CONTINUOUS
 62
7
100
AcDbLine
 10
307.3553103689990
 20
258.9168771784758
 30
0.000000000000000
 11
306.9253853798132
 21
258.1722252537626
 31
0.000000000000000
  0
LINE
  5
1D3
100
AcDbEntity
  8
A1
  6
CONTINUOUS
 62
7
100
AcDbLine
 10
297.1104308035895
 20
258.1722252537627
 30
0.000000000000000
 11
296.6804504216773
 21
258.9169731214924
 31
0.000000000000000
  0
LINE
  5
1D4
100
AcDbEntity
  8
A1
  6
CONTINUOUS
 62
7
100
AcDbLine
 10
288.0179080917013
 20
269.2175621738336
 30
0.000000000000000
 11
288.5179080917014
 21
269.2175621738336
 31
0.000000000000000
  0
LINE
  5
1D5
100
AcDbEntity
  8
A1
  6
CONTINUOUS
 62
7
100
AcDbLine
 10
288.0179080917013
 20
264.1175621738337
 30
0.000000000000000
 11
288.0179080917013
 21
269.2175621738336
 31
0.000000000000000
  0
LINE
  5
1D6
100
AcDbEntity
  8
A1
  6
CONTINUOUS
 62
7
100
AcDbLine
 10
288.6179080917013
 20
264.1175621738337
 30
0.000000000000000
 11
288.0179080917013
 21
264.1175621738337
 31
0.000000000000000
  0
LINE
  5
1D7
100
AcDbEntity
  8
A1
  6
CONTINUOUS
 62
7
100
AcDbLine
 10
316.0179080917011
 20
264.1175621738336
 30
0.000000000000000
 11
315.4179080917011
 21
264.1175621738337
 31
0.000000000000000
  0
LINE
  5
1D8
100
AcDbEntity
  8
A1
  6
CONTINUOUS
 62
7
100
AcDbLine
 10
316.0179080917013
 20
269.2175621738336
 30
0.000000000000000
 11
316.0179080917013
 21
264.1175621738336
 31
0.000000000000000
  0
LINE
  5
1D9
100
AcDbEntity
  8
A1
  6
CONTINUOUS
 62
7
100
AcDbLine
 10
315.5179080917011
 20
269.2175621738336
 30
0.000000000000000
 11
316.0179080917013
 21
269.2175621738336
 31
0.000000000000000
  0
LINE
  5
1DA
100
AcDbEntity
  8
A1
  6
CONTINUOUS
 62
7
100
AcDbLine
 10
288.6179080917013
 20
264.4175621738337
 30
0.000000000000000
 11
288.6179080917013
 21
258.9175621736624
 31
0.000000000000000
  0
LINE
  5
1DB
100
AcDbEntity
  8
A1
  6
CONTINUOUS
 62
7
100
AcDbLine
 10
315.4179080917012
 20
264.4175621738337
 30
0.000000000000000
 11
315.4179080917012
 21
258.9175621736624
 31
0.000000000000000
  0
LINE
  5
1DC
100
AcDbEntity
  8
A1
  6
CONTINUOUS
 62
7
100
AcDbLine
 10
291.5179080917013
 20
264.4175621738337
 30
0.000000000000000
 11
291.5179080917013
 21
258.9175621736624
 31
0.000000000000000
  0
LINE
  5
1DD
100
AcDbEntity
  8
A1
  6
CONTINUOUS
 62
7
100
AcDbLine
 10
312.5179080917013
 20
264.4175621738337
 30
0.000000000000000
 11
312.5179080917013
 21
258.9175621736624
 31
0.000000000000000
  0
LINE
  5
1DE
100
AcDbEntity
  8
A1
  6
CONTINUOUS
 62
7
100
AcDbLine
 10
307.5179080917013
 20
264.1675621738336
 30
0.000000000000000
 11
296.5179080917013
 21
264.1675621738336
 31
0.000000000000000
  0
LINE
  5
1DF
100
AcDbEntity
  8
A1
  6
CONTINUOUS
 62
7
100
AcDbLine
 10
296.5179080917013
 20
264.4175621738337
 30
0.000000000000000
 11
296.5179080917013
 21
264.1675621738336
 31
0.000000000000000
  0
LINE
  5
1E0
100
AcDbEntity
  8
A1
  6
CONTINUOUS
 62
7
100
AcDbLine
 10
307.5179080917013
 20
264.4175621738337
 30
0.000000000000000
 11
307.5179080917013
 21
264.1675621738336
 31
0.000000000000000
  0
LINE
  5
1E1
100
AcDbEntity
  8
A1
  6
CONTINUOUS
 62
7
100
AcDbLine
 10
288.6179080917013
 20
258.9175621736624
 30
0.000000000000000
 11
315.4179080917012
 21
258.9175621736624
 31
0.000000000000000
  0
LINE
  5
1E2
100
AcDbEntity
  8
A1
  6
CONTINUOUS
 62
7
100
AcDbLine
 10
288.5179080917014
 20
264.4175621738337
 30
0.000000000000000
 11
288.5179080917013
 21
278.7064626827303
 31
0.000000000000000
  0
LINE
  5
1E3
100
AcDbEntity
  8
A1
  6
CONTINUOUS
 62
7
100
AcDbLine
 10
315.5179080917010
 20
264.4175621738337
 30
0.000000000000000
 11
315.5179080917012
 21
278.7064626827303
 31
0.000000000000000
  0
LINE
  5
1E4
100
AcDbEntity
  8
A1
  6
CONTINUOUS
 62
7
100
AcDbLine
 10
291.5179080917012
 20
119.0911913151741
 30
0.000000000000000
 11
312.5179080917013
 21
119.0911913151741
 31
0.000000000000000
  0
LINE
  5
1E5
100
AcDbEntity
  8
A1
  6
CONTINUOUS
 62
7
100
AcDbLine
 10
291.6734636472567
 20
89.09119131517397
 30
0.000000000000000
 11
299.8179080917010
 21
89.09119131517397
 31
0.000000000000000
  0
LINE
  5
1E6
100
AcDbEntity
  8
A1
  6
CONTINUOUS
 62
7
100
AcDbLine
 10
304.1179080917012
 20
89.09119131517397
 30
0.000000000000000
 11
312.3623525361459
 21
89.09119131517397
 31
0.000000000000000
  0
LINE
  5
1E7
100
AcDbEntity
  8
A1
  6
CONTINUOUS
 62
7
100
AcDbLine
 10
307.0179080917012
 20
89.09119131517396
 30
0.000000000000000
 11
307.0179080917124
 21
119.0911913151741
 31
0.000000000000000
  0
LINE
  5
1E8
100
AcDbEntity
  8
A1
  6
CONTINUOUS
 62
7
100
AcDbLine
 10
296.9179080917011
 20
89.09119131517397
 30
0.000000000000000
 11
296.9179080916899
 21
119.0911913151741
 31
0.000000000000000
  0
LINE
  5
1E9
100
AcDbEntity
  8
A1
  6
CONTINUOUS
 62
7
100
AcDbLine
 10
299.8179080917010
 20
89.09119131517394
 30
0.000000000000000
 11
299.8179080917009
 21
119.0911913151741
 31
0.000000000000000
  0
LINE
  5
1EA
100
AcDbEntity
  8
A1
  6
CONTINUOUS
 62
7
100
AcDbLine
 10
300.4179080917012
 20
62.19119131517411
 30
0.000000000000000
 11
300.4179080917012
 21
119.0911913151741
 31
0.000000000000000
  0
LINE
  5
1EB
100
AcDbEntity
  8
A1
  6
CONTINUOUS
 62
7
100
AcDbLine
 10
303.6179080917012
 20
62.19119131517411
 30
0.000000000000000
 11
303.6179080917012
 21
119.0911913151741
 31
0.000000000000000
  0
LINE
  5
1EC
100
AcDbEntity
  8
A1
  6
CONTINUOUS
 62
7
100
AcDbLine
 10
304.1179080917012
 20
89.09119131517397
 30
0.000000000000000
 11
304.1179080917015
 21
119.0911913151741
 31
0.000000000000000
  0
LINE
  5
1ED
100
AcDbEntity
  8
A1
  6
CONTINUOUS
 62
7
100
AcDbLine
 10
304.1179080917012
 20
68.69522462275918
 30
0.000000000000000
 11
304.1179080917012
 21
82.20793279849036
 31
0.000000000000000
  0
LINE
  5
1EE
100
AcDbEntity
  8
A1
  6
CONTINUOUS
 62
7
100
AcDbLine
 10
299.9179080917012
 20
68.69522462275918
 30
0.000000000000000
 11
299.9179080917012
 21
82.20793279849036
 31
0.000000000000000
  0
LINE
  5
1EF
100
AcDbEntity
  8
A1
  6
CONTINUOUS
 62
7
100
AcDbLine
 10
297.0179080917012
 20
68.69522462275918
 30
0.000000000000000
 11
297.0179080917012
 21
82.20793279849030
 31
0.000000000000000
  0
LINE
  5
1F0
100
AcDbEntity
  8
A1
  6
CONTINUOUS
 62
7
100
AcDbLine
 10
307.0179080917012
 20
68.69522462275918
 30
0.000000000000000
 11
307.0179080917012
 21
82.20793279849030
 31
0.000000000000000
  0
LINE
  5
1F1
100
AcDbEntity
  8
A1
  6
CONTINUOUS
 62
7
100
AcDbLine
 10
166.5453654532934
 20
62.19119131517411
 30
0.000000000000000
 11
166.5453654532934
 21
109.9260399252624
 31
0.000000000000000
  0
LINE
  5
1F2
100
AcDbEntity
  8
A1
  6
CONTINUOUS
 62
7
100
AcDbLine
 10
146.4953654532935
 20
171.1911913151679
 30
0.000000000000000
 11
146.4953654532935
 21
194.1979549018966
 31
0.000000000000000
  0
LINE
  5
1F3
100
AcDbEntity
  8
A1
  6
CONTINUOUS
 62
7
100
AcDbLine
 10
150.9953654532935
 20
171.1911913151740
 30
0.000000000000000
 11
150.9953654532933
 21
194.1979549018966
 31
0.000000000000000
  0
LINE
  5
1F4
100
AcDbEntity
  8
A1
  6
CONTINUOUS
 62
7
100
AcDbLine
 10
133.8385827626479
 20
189.9722852787485
 30
0.000000000000000
 11
139.3650963624511
 21
197.8649646605663
 31
0.000000000000000
  0
LINE
  5
1F5
100
AcDbEntity
  8
A1
  6
CONTINUOUS
 62
7
100
AcDbLine
 10
137.5247669619523
 20
187.3911913151742
 30
0.000000000000000
 11
143.0512805617554
 21
195.2838706969919
 31
0.000000000000000
  0
LINE
  5
1F6
100
AcDbEntity
  8
A1
  6
CONTINUOUS
 62
7
100
AcDbLine
 10
146.4953654532935
 20
147.7911913151741
 30
0.000000000000000
 11
150.9953654532935
 21
147.7911913151741
 31
0.000000000000000
  0
LINE
  5
1F7
100
AcDbEntity
  8
A1
  6
CONTINUOUS
 62
7
100
AcDbLine
 10
136.0453654532934
 20
119.0911913151741
 30
0.000000000000000
 11
140.9953654534646
 21
119.0911913151741
 31
0.000000000000000
  0
LINE
  5
1F8
100
AcDbEntity
  8
A1
  6
CONTINUOUS
 62
7
100
AcDbLine
 10
136.0453654532934
 20
89.09119131517397
 30
0.000000000000000
 11
140.9953654534646
 21
89.09119131517397
 31
0.000000000000000
  0
LINE
  5
1F9
100
AcDbEntity
  8
A4
  6
CENTER
 62
1
100
AcDbLine
 10
148.7453654532935
 20
70.19119131517405
 30
0.000000000000000
 11
148.7453654535138
 21
202.0911913151673
 31
0.000000000000000
  0
LINE
  5
1FA
100
AcDbEntity
  8
A1
  6
CONTINUOUS
 62
7
100
AcDbLine
 10
305.6179080917012
 20
5.191191315173995
 30
0.000000000000000
 11
305.6179080917012
 21
61.19119131517411
 31
0.000000000000000
  0
LINE
  5
1FB
100
AcDbEntity
  8
A1
  6
CONTINUOUS
 62
7
100
AcDbLine
 10
298.4179080917012
 20
5.191191315173995
 30
0.000000000000000
 11
298.4179080917012
 21
61.19119131517411
 31
0.000000000000000
  0
LINE
  5
1FC
100
AcDbEntity
  8
A1
  6
CONTINUOUS
 62
7
100
AcDbLine
 10
288.5179080917013
 20
179.6911913151740
 30
0.000000000000000
 11
288.5179080917014
 21
200.5911913151741
 31
0.000000000000000
  0
LINE
  5
1FD
100
AcDbEntity
  8
A1
  6
CONTINUOUS
 62
7
100
AcDbLine
 10
315.5179080917012
 20
179.6911913151740
 30
0.000000000000000
 11
315.5179080917012
 21
200.5911913151741
 31
0.000000000000000
  0
LINE
  5
1FE
100
AcDbEntity
  8
A4
  6
CENTER
 62
1
100
AcDbLine
 10
302.0179080917013
 20
245.3675621738337
 30
0.000000000000000
 11
302.0179080917013
 21
283.0743448644794
 31
0.000000000000000
  0
LINE
  5
1FF
100
AcDbEntity
  8
A4
  6
CENTER
 62
1
100
AcDbLine
 10
286.9679080917011
 20
112.5911913151741
 30
0.000000000000000
 11
286.9679080917011
 21
109.5911913151741
 31
0.000000000000000
  0
LINE
  5
200
100
AcDbEntity
  8
A4
  6
CENTER
 62
1
100
AcDbLine
 10
316.9679080917011
 20
98.59119131517409
 30
0.000000000000000
 11
316.9679080917011
 21
95.59119131517409
 31
0.000000000000000
  0
LINE
  5
201
100
AcDbEntity
  8
A4
  6
CENTER
 62
1
100
AcDbLine
 10
280.1679080917012
 20
111.0911913151741
 30
0.000000000000000
 11
323.7679080917010
 21
111.0911913151741
 31
0.000000000000000
  0
LINE
  5
202
100
AcDbEntity
  8
A4
  6
CENTER
 62
1
100
AcDbLine
 10
286.9679080917011
 20
90.29119131517402
 30
0.000000000000000
 11
286.9679080917011
 21
117.8911913151740
 31
0.000000000000000
  0
LINE
  5
203
100
AcDbEntity
  8
A4
  6
CENTER
 62
1
100
AcDbLine
 10
280.1679080917011
 20
97.09119131517397
 30
0.000000000000000
 11
323.7679080917011
 21
97.09119131517409
 31
0.000000000000000
  0
LINE
  5
204
100
AcDbEntity
  8
A4
  6
CENTER
 62
1
100
AcDbLine
 10
316.9679080917011
 20
90.29119131517413
 30
0.000000000000000
 11
316.9679080917011
 21
117.8911913151740
 31
0.000000000000000
  0
LINE
  5
205
100
AcDbEntity
  8
A1
  6
CONTINUOUS
 62
7
100
AcDbLine
 10
254.5179080917013
 20
267.9031270797663
 30
0.000000000000000
 11
254.5179080917013
 21
279.3675621738337
 31
0.000000000000000
  0
LINE
  5
206
100
AcDbEntity
  8
A1
  6
CONTINUOUS
 62
7
100
AcDbLine
 10
229.5179080917013
 20
267.9031270797663
 30
0.000000000000000
 11
229.5179080917013
 21
279.3675621738337
 31
0.000000000000000
  0
LINE
  5
207
100
AcDbEntity
  8
A4
  6
CENTER
 62
1
100
AcDbLine
 10
242.0179080917013
 20
262.8675931738336
 30
0.000000000000000
 11
242.0179080917013
 21
280.8675621738337
 31
0.000000000000000
  0
LINE
  5
208
100
AcDbEntity
  8
A4
  6
CENTER
 62
1
100
AcDbLine
 10
102.0453654532934
 20
215.0911913151741
 30
0.000000000000000
 11
94.54536545329341
 21
215.0911913151741
 31
0.000000000000000
  0
LINE
  5
209
100
AcDbEntity
  8
A4
  6
CENTER
 62
1
100
AcDbLine
 10
102.0453654532934
 20
201.0911913151741
 30
0.000000000000000
 11
94.54536545329341
 21
201.0911913151741
 31
0.000000000000000
  0
ARC
  5
20A
100
AcDbEntity
  8
A1
  6
CONTINUOUS
 62
7
100
AcDbCircle
 10
302.0179080917013
 20
266.6675621738337
 30
0.000000000000000
 40
8.999999999993634
100
AcDbArc
 50
239.4415682162788
 51
300.5584317837212
  0
LINE
  5
20B
100
AcDbEntity
  8
A1
  6
CONTINUOUS
 62
7
100
AcDbLine
 10
299.0465025969291
 20
258.1722252537626
 30
0.000000000000000
 11
297.1104308035893
 21
258.1722252537626
 31
0.000000000000000
  0
LINE
  5
20C
100
AcDbEntity
  8
A1
  6
CONTINUOUS
 62
7
100
AcDbLine
 10
306.9253853798131
 20
258.1722252537627
 30
0.000000000000000
 11
304.9893135864735
 21
258.1722252537627
 31
0.000000000000000
  0
LINE
  5
20D
100
AcDbEntity
  8
A4
  6
CENTER
 62
1
100
AcDbLine
 10
140.4453654532934
 20
111.0911913151741
 30
0.000000000000000
 11
134.5453654532934
 21
111.0911913151741
 31
0.000000000000000
  0
LINE
  5
20E
100
AcDbEntity
  8
A4
  6
CENTER
 62
1
100
AcDbLine
 10
140.4453654532934
 20
97.09119131517402
 30
0.000000000000000
 11
134.5453654532934
 21
97.09119131517402
 31
0.000000000000000
  0
LINE
  5
20F
100
AcDbEntity
  8
A4
  6
CENTER
 62
1
100
AcDbLine
 10
163.2953654532933
 20
109.1911913151741
 30
0.000000000000000
 11
149.7953654532935
 21
109.1911913151741
 31
0.000000000000000
  0
LINE
  5
210
100
AcDbEntity
  8
A4
  6
CENTER
 62
1
100
AcDbLine
 10
156.5453654532934
 20
115.9411913151740
 30
0.000000000000000
 11
156.5453654532934
 21
102.4411913151742
 31
0.000000000000000
  0
LINE
  5
211
100
AcDbEntity
  8
A4
  6
CENTER
 62
1
100
AcDbLine
 10
293.7179080917010
 20
76.19119131513015
 30
0.000000000000000
 11
310.3179080917014
 21
76.19119131512555
 31
0.000000000000000
  0
LINE
  5
212
100
AcDbEntity
  8
A4
  6
CENTER
 62
1
100
AcDbLine
 10
310.6179080917011
 20
109.1911913152116
 30
0.000000000000000
 11
293.3179080917010
 21
109.1911913152116
 31
0.000000000000000
  0
LINE
  5
213
100
AcDbEntity
  8
A4
  6
CENTER
 62
1
100
AcDbLine
 10
302.0179080917010
 20
2.691191315173996
 30
0.000000000000000
 11
302.0179080917013
 21
202.0911913151741
 31
0.000000000000000
  0
LINE
  5
214
100
AcDbEntity
  8
A4
  6
CENTER
 62
1
100
AcDbLine
 10
242.0179080917013
 20
183.6336538774704
 30
0.000000000000000
 11
242.0179080917013
 21
224.5911613151744
 31
0.000000000000000
  0
ENDSEC
  0
SECTION
  2
OBJECTS
  0
DICTIONARY
  5
240
100
AcDbDictionary
  3
ACAD_GROUP
350
241
  3
ACAD_LAYOUT
350
242
  3
ACAD_MLINESTYLE
350
243
  0
DICTIONARY
  5
241
102
{ACAD_REACTORS
330
240
102
}
330
240
100
AcDbDictionary
  0
DICTIONARY
  5
242
102
{ACAD_REACTORS
330
240
102
}
330
240
100
AcDbDictionary
  3
Model
350
244
  3
ﾚｲｱｳﾄ1
350
245
  3
ﾚｲｱｳﾄ2
350
246
  0
DICTIONARY
  5
243
102
{ACAD_REACTORS
330
240
102
}
330
240
100
AcDbDictionary
  3
STANDARD
350
247
  0
LAYOUT
  5
244
102
{ACAD_REACTORS
330
242
102
}
330
242
100
AcDbPlotSettings
 70
11952
  4
A3
 44
297.000000
 45
420.000000
 73
  1
 72
  1
100
AcDbLayout
  1
Model
 71
0
330
237
  0
LAYOUT
  5
245
102
{ACAD_REACTORS
330
242
102
}
330
242
100
AcDbPlotSettings
100
AcDbLayout
  1
ﾚｲｱｳﾄ1
 71
1
330
238
  0
LAYOUT
  5
246
102
{ACAD_REACTORS
330
242
102
}
330
242
100
AcDbPlotSettings
100
AcDbLayout
  1
ﾚｲｱｳﾄ2
 71
2
330
239
  0
MLINESTYLE
  5
247
102
{ACAD_REACTORS
330
243
102
}
330
243
100
AcDbMlineStyle
  2
STANDARD
 70
     0
  3

 62
   256
 51
90.00
 52
90.00
 71
     2
 49
0.50
 62
   256
  6
BYLAYER
 49
-0.50
 62
   256
  6
BYLAYER
  0
ENDSEC
  0
EOF
