  0
SECTION
  2
HEADER
  9
$ACADVER
  1
AC1024
  9
$DWGCODEPAGE
  3
ANSI_932
  9
$LTSCALE
 40
20.0
  9
$FILLMODE
 70
     1
  9
$CLAYER
  8
0
  9
$PDMODE
 70
     0
  9
$SPLFRAME
 70
     0
  9
$SPLINETYPE
 70
     6
  9
$SPLINESEGS
 70
     8
  9
$DIMASZ
 40
2.000000
  9
$DIMEXE
 40
1.500000
  9
$DIMEXO
 40
0.800000
  9
$DIMTAD
 70
     1
  9
$DIMTIH
 70
     0
  9
$DIMTOH
 70
     0
  9
$DIMTVP
 40
0.500000
  9
$DIMTXT
 40
3.100000
  9
$EXTMIN
 10
0.000000
 20
0.000000
 30
0.000000
  9
$EXTMAX
 10
297.000000
 20
420.000000
 30
0.000000
  9
$MEASUREMENT
 70
  1
  9
$LIMMIN
 10
0.000000
 20
0.000000
  9
$LIMMAX
 10
297.000000
 20
420.000000
  9
$HANDSEED
  5
35D
  9
$LWDISPLAY
290
     0
  9
$DIMBLK
  1
_OPEN
  9
$DIMDEC
 70
     2
  9
$DIMADEC
 70
     2
  9
$DIMAUNIT
 70
     0
  9
$DIMZIN
 70
     8
  9
$DIMAZIN
 70
     2
  9
$DIMTOFL
 70
     1
  0
ENDSEC
  0
SECTION
  2
CLASSES
  0
ENDSEC
  0
SECTION
  2
TABLES
  0
TABLE
  2
VPORT
  5
323
100
AcDbSymbolTable
 70
     1
  0
VPORT
  5
324
100
AcDbSymbolTableRecord
100
AcDbViewportTableRecord
  2
*ACTIVE
 70
     0
 12
164.750756
 22
146.428886
 40
256.857771
 41
1.204953
  0
ENDTAB
  0
TABLE
  2
LTYPE
  5
325
100
AcDbSymbolTable
 70
     3
  0
LTYPE
  5
326
100
AcDbSymbolTableRecord
100
AcDbLinetypeTableRecord
  2
BYBLOCK
 70
     0
  3

 72
    65
 73
     0
 40
0.0
  0
LTYPE
  5
327
100
AcDbSymbolTableRecord
100
AcDbLinetypeTableRecord
  2
BYLAYER
 70
     0
  3

 72
    65
 73
     0
 40
0.0
  0
LTYPE
  5
328
100
AcDbSymbolTableRecord
100
AcDbLinetypeTableRecord
  2
CONTINUOUS
 70
     0
  3
Solid line (NEC CAE2D for Win R18.0 : 2025.04.24)
 72
    65
 73
     0
 40
0.0
  0
LTYPE
  5
329
100
AcDbSymbolTableRecord
100
AcDbLinetypeTableRecord
  2
DASHED
 70
     0
  3
__ __ __ __ __ __ __ __ __ __ __ __ __ _
 72
    65
 73
     2
 40
0.75
 49
0.5
 74
     0
 49
-0.25
 74
     0
  0
LTYPE
  5
32A
100
AcDbSymbolTableRecord
100
AcDbLinetypeTableRecord
  2
CENTER
 70
     0
  3
____ _ ____ _ ____ _ ____ _ ____ _ ____
 72
    65
 73
     4
 40
2.0
 49
1.25
 74
     0
 49
-0.25
 74
     0
 49
0.25
 74
     0
 49
-0.25
 74
     0
  0
ENDTAB
  0
TABLE
  2
LAYER
  5
32B
100
AcDbSymbolTable
 70
    19
  0
LAYER
  5
32C
100
AcDbSymbolTableRecord
100
AcDbLayerTableRecord
  2
0
 70
     0
 62
     7
  6
CONTINUOUS
370
    -3
390

  0
LAYER
  5
32D
100
AcDbSymbolTableRecord
100
AcDbLayerTableRecord
  2
DXF0
 70
     0
 62
     7
  6
CONTINUOUS
370
    -3
390

  0
LAYER
  5
32E
100
AcDbSymbolTableRecord
100
AcDbLayerTableRecord
  2
A0
 70
     0
 62
     9
  6
CONTINUOUS
370
    -3
390

  0
LAYER
  5
32F
100
AcDbSymbolTableRecord
100
AcDbLayerTableRecord
  2
A1
 70
     0
 62
    12
  6
CONTINUOUS
370
    -3
390

  0
LAYER
  5
330
100
AcDbSymbolTableRecord
100
AcDbLayerTableRecord
  2
A2
 70
     0
 62
     9
  6
CONTINUOUS
370
    -3
390

  0
LAYER
  5
331
100
AcDbSymbolTableRecord
100
AcDbLayerTableRecord
  2
A3
 70
     0
 62
    12
  6
CONTINUOUS
370
    -3
390

  0
LAYER
  5
332
100
AcDbSymbolTableRecord
100
AcDbLayerTableRecord
  2
A4
 70
     0
 62
     9
  6
CONTINUOUS
370
    -3
390

  0
LAYER
  5
333
100
AcDbSymbolTableRecord
100
AcDbLayerTableRecord
  2
A5
 70
     0
 62
     8
  6
CONTINUOUS
370
    -3
390

  0
LAYER
  5
334
100
AcDbSymbolTableRecord
100
AcDbLayerTableRecord
  2
A6
 70
     0
 62
    12
  6
CONTINUOUS
370
    -3
390

  0
LAYER
  5
335
100
AcDbSymbolTableRecord
100
AcDbLayerTableRecord
  2
A7
 70
     0
 62
    12
  6
CONTINUOUS
370
    -3
390

  0
LAYER
  5
336
100
AcDbSymbolTableRecord
100
AcDbLayerTableRecord
  2
A8
 70
     0
 62
    10
  6
CONTINUOUS
370
    -3
390

  0
LAYER
  5
337
100
AcDbSymbolTableRecord
100
AcDbLayerTableRecord
  2
A9
 70
     0
 62
     9
  6
CONTINUOUS
370
    -3
390

  0
LAYER
  5
338
100
AcDbSymbolTableRecord
100
AcDbLayerTableRecord
  2
A10
 70
     0
 62
     6
  6
CONTINUOUS
370
    -3
390

  0
LAYER
  5
339
100
AcDbSymbolTableRecord
100
AcDbLayerTableRecord
  2
A20
 70
     0
 62
     1
  6
CONTINUOUS
370
    -3
390

  0
LAYER
  5
33A
100
AcDbSymbolTableRecord
100
AcDbLayerTableRecord
  2
A30
 70
     0
 62
     1
  6
CONTINUOUS
370
    -3
390

  0
LAYER
  5
33B
100
AcDbSymbolTableRecord
100
AcDbLayerTableRecord
  2
A40
 70
     0
 62
     9
  6
CONTINUOUS
370
    -3
390

  0
LAYER
  5
33C
100
AcDbSymbolTableRecord
100
AcDbLayerTableRecord
  2
A50
 70
     0
 62
    12
  6
CONTINUOUS
370
    -3
390

  0
LAYER
  5
33D
100
AcDbSymbolTableRecord
100
AcDbLayerTableRecord
  2
A1023
 70
     0
 62
     8
  6
CONTINUOUS
370
    -3
390

  0
LAYER
  5
33E
100
AcDbSymbolTableRecord
100
AcDbLayerTableRecord
  2
DXF1023
 70
     0
 62
    16
  6
CONTINUOUS
370
    -3
390

  0
ENDTAB
  0
TABLE
  2
STYLE
  5
33F
100
AcDbSymbolTable
 70
     4
  0
STYLE
  5
340
100
AcDbSymbolTableRecord
100
AcDbTextStyleTableRecord
  2
STANDARD
 70
    64
 40
0.0
 41
1.0
 50
0.0
 71
     0
 42
3.000000000000000
  3
TXT
  4

  0
STYLE
  5
341
100
AcDbSymbolTableRecord
100
AcDbTextStyleTableRecord
  2
ANKTATE
 70
    68
 40
0.0
 41
1.0
 50
0.0
 71
     0
 42
3.000000000000000
  3
TXT
  4

  0
STYLE
  5
342
100
AcDbSymbolTableRecord
100
AcDbTextStyleTableRecord
  2
KNJYOKO
 70
    64
 40
0.0
 41
1.0
 50
0.0
 71
     0
 42
3.000000000000000
  3
TXT
  4
BIGFONT
  0
STYLE
  5
343
100
AcDbSymbolTableRecord
100
AcDbTextStyleTableRecord
  2
KNJTATE
 70
    68
 40
0.0
 41
1.0
 50
0.0
 71
     0
 42
3.000000000000000
  3
TXT
  4
BIGFONT
  0
ENDTAB
  0
TABLE
  2
VIEW
  5
344
100
AcDbSymbolTable
 70
     0
  0
ENDTAB
  0
TABLE
  2
UCS
  5
345
100
AcDbSymbolTable
 70
     0
  0
ENDTAB
  0
TABLE
  2
APPID
  5
346
100
AcDbSymbolTable
 70
     1
  0
APPID
  5
347
100
AcDbSymbolTableRecord
100
AcDbRegAppTableRecord
  2
ACAD
 70
     0
  0
ENDTAB
  0
TABLE
  2
DIMSTYLE
  5
348
100
AcDbSymbolTable
 70
     2
100
AcDbDimStyleTable
  0
DIMSTYLE
105
349
100
AcDbSymbolTableRecord
100
AcDbDimStyleTableRecord
  2
STANDARD
 70
     0
 41
2.000000
 44
1.500000
 42
0.800000
145
0.661290
140
3.100000
144
1.000000
146
0.645161
340
340
  0
DIMSTYLE
105
34A
100
AcDbSymbolTableRecord
100
AcDbDimStyleTableRecord
  2
DXF001
 70
     0
 41
2.000000
 44
1.500000
 42
0.800000
145
0.661290
140
3.100000
144
1.000000
146
0.645161
 77
     1
 73
     0
 74
     0
271
     2
179
     2
275
     0
 78
     8
 79
     2
172
     1
340
340
  0
ENDTAB
  0
TABLE
  2
BLOCK_RECORD
  5
34B
100
AcDbSymbolTable
 70
    12
  0
BLOCK_RECORD
  5
34C
100
AcDbSymbolTableRecord
100
AcDbBlockTableRecord
  2
*MODEL_SPACE
  0
BLOCK_RECORD
  5
34D
100
AcDbSymbolTableRecord
100
AcDbBlockTableRecord
  2
*PAPER_SPACE
  0
BLOCK_RECORD
  5
34E
100
AcDbSymbolTableRecord
100
AcDbBlockTableRecord
  2
*PAPER_SPACE0
  0
BLOCK_RECORD
  5
1
100
AcDbSymbolTableRecord
100
AcDbBlockTableRecord
  2
_NONE
  0
BLOCK_RECORD
  5
4
100
AcDbSymbolTableRecord
100
AcDbBlockTableRecord
  2
_CLOSED
  0
BLOCK_RECORD
  5
B
100
AcDbSymbolTableRecord
100
AcDbBlockTableRecord
  2
_DOT
  0
BLOCK_RECORD
  5
13
100
AcDbSymbolTableRecord
100
AcDbBlockTableRecord
  2
_OPEN
  0
BLOCK_RECORD
  5
19
100
AcDbSymbolTableRecord
100
AcDbBlockTableRecord
  2
_ORIGIN
  0
BLOCK_RECORD
  5
1E
100
AcDbSymbolTableRecord
100
AcDbBlockTableRecord
  2
_OPEN30
  0
BLOCK_RECORD
  5
24
100
AcDbSymbolTableRecord
100
AcDbBlockTableRecord
  2
_BOXFILLED
  0
BLOCK_RECORD
  5
29
100
AcDbSymbolTableRecord
100
AcDbBlockTableRecord
  2
_BOXBLANK
  0
BLOCK_RECORD
  5
31
100
AcDbSymbolTableRecord
100
AcDbBlockTableRecord
  2
_OBLIQUE
  0
BLOCK_RECORD
  5
35
100
AcDbSymbolTableRecord
100
AcDbBlockTableRecord
  2
_OPEN90
  0
BLOCK_RECORD
  5
3B
100
AcDbSymbolTableRecord
100
AcDbBlockTableRecord
  2
_CLOSEDBLANK
  0
BLOCK_RECORD
  5
41
100
AcDbSymbolTableRecord
100
AcDbBlockTableRecord
  2
_DOTBLANK
  0
ENDTAB
  0
ENDSEC
  0
SECTION
  2
BLOCKS
  0
BLOCK
  5
34F
100
AcDbEntity
  8
0
100
AcDbBlockBegin
  2
*MODEL_SPACE
 70
     0
 10
0.0
 20
0.0
 30
0.0
  3
*MODEL_SPACE
  1

  0
ENDBLK
  5
350
100
AcDbEntity
  8
0
100
AcDbBlockEnd
  0
BLOCK
  5
351
100
AcDbEntity
  8
0
100
AcDbBlockBegin
  2
*PAPER_SPACE
 70
     0
 10
0.0
 20
0.0
 30
0.0
  3
*PAPER_SPACE
  1

  0
ENDBLK
  5
352
100
AcDbEntity
  8
0
100
AcDbBlockEnd
  0
BLOCK
  5
353
100
AcDbEntity
  8
0
100
AcDbBlockBegin
  2
*PAPER_SPACE0
 70
     0
 10
0.0
 20
0.0
 30
0.0
  3
*PAPER_SPACE0
  1

  0
ENDBLK
  5
354
100
AcDbEntity
  8
0
100
AcDbBlockEnd
  0
BLOCK
  5
2
330
1
100
AcDbEntity
  8
0
100
AcDbBlockBegin
  2
_NONE
 70
     0
 10
0.0
 20
0.0
 30
0.0
  3
_NONE
  1

  0
ENDBLK
  5
3
330
1
100
AcDbEntity
  8
0
100
AcDbBlockEnd
  0
BLOCK
  5
5
330
4
100
AcDbEntity
  8
0
100
AcDbBlockBegin
  2
_CLOSED
 70
     0
 10
0.0
 20
0.0
 30
0.0
  3
_CLOSED
  1

  0
LINE
  5
6
330
4
100
AcDbEntity
  8
0
  6
BYBLOCK
 62
     0
370
    -2
100
AcDbLine
 10
-1.0
 20
0.166667
 30
0.0
 11
0.0
 21
0.0
 31
0.0
  0
LINE
  5
7
330
4
100
AcDbEntity
  8
0
  6
BYBLOCK
 62
     0
370
    -2
100
AcDbLine
 10
0.0
 20
0.0
 30
0.0
 11
-1.0
 21
-0.166667
 31
0.0
  0
LINE
  5
8
330
4
100
AcDbEntity
  8
0
  6
BYBLOCK
 62
     0
370
    -2
100
AcDbLine
 10
-1.0
 20
0.166667
 30
0.0
 11
-1.0
 21
-0.166667
 31
0.0
  0
LINE
  5
9
330
4
100
AcDbEntity
  8
0
  6
BYBLOCK
 62
     0
370
    -2
100
AcDbLine
 10
0.0
 20
0.0
 30
0.0
 11
-1.0
 21
0.0
 31
0.0
  0
ENDBLK
  5
A
330
4
100
AcDbEntity
  8
0
100
AcDbBlockEnd
  0
BLOCK
  5
C
330
B
100
AcDbEntity
  8
0
100
AcDbBlockBegin
  2
_DOT
 70
     0
 10
0.0
 20
0.0
 30
0.0
  3
_DOT
  1

  0
POLYLINE
  5
D
330
B
100
AcDbEntity
  8
0
  6
BYBLOCK
 62
     0
370
    -2
100
AcDb2dPolyline
 66
     1
 10
0.0
 20
0.0
 30
0.0
 70
     1
 40
0.5
 41
0.5
  0
VERTEX
  5
E
330
B
100
AcDbEntity
  8
0
  6
BYBLOCK
 62
     0
370
    -2
100
AcDbVertex
100
AcDb2dVertex
 10
-0.25
 20
0.0
 30
0.0
 42
1.0
  0
VERTEX
  5
F
330
B
100
AcDbEntity
  8
0
  6
BYBLOCK
 62
     0
370
    -2
100
AcDbVertex
100
AcDb2dVertex
 10
0.25
 20
0.0
 30
0.0
 42
1.0
  0
SEQEND
  5
10
330
B
100
AcDbEntity
  8
0
  6
BYBLOCK
 62
     0
370
    -2
  0
LINE
  5
11
330
B
100
AcDbEntity
  8
0
  6
BYBLOCK
 62
     0
370
    -2
100
AcDbLine
 10
-0.5
 20
0.0
 30
0.0
 11
-1.0
 21
0.0
 31
0.0
  0
ENDBLK
  5
12
330
B
100
AcDbEntity
  8
0
100
AcDbBlockEnd
  0
BLOCK
  5
14
330
13
100
AcDbEntity
  8
0
100
AcDbBlockBegin
  2
_OPEN
 70
     0
 10
0.0
 20
0.0
 30
0.0
  3
_OPEN
  1

  0
LINE
  5
15
330
13
100
AcDbEntity
  8
0
  6
BYBLOCK
 62
     0
370
    -2
100
AcDbLine
 10
-1.0
 20
0.166667
 30
0.0
 11
0.0
 21
0.0
 31
0.0
  0
LINE
  5
16
330
13
100
AcDbEntity
  8
0
  6
BYBLOCK
 62
     0
370
    -2
100
AcDbLine
 10
0.0
 20
0.0
 30
0.0
 11
-1.0
 21
-0.166667
 31
0.0
  0
LINE
  5
17
330
13
100
AcDbEntity
  8
0
  6
BYBLOCK
 62
     0
370
    -2
100
AcDbLine
 10
0.0
 20
0.0
 30
0.0
 11
-1.0
 21
0.0
 31
0.0
  0
ENDBLK
  5
18
330
13
100
AcDbEntity
  8
0
100
AcDbBlockEnd
  0
BLOCK
  5
1A
330
19
100
AcDbEntity
  8
0
100
AcDbBlockBegin
  2
_ORIGIN
 70
     0
 10
0.0
 20
0.0
 30
0.0
  3
_ORIGIN
  1

  0
CIRCLE
  5
1B
330
19
100
AcDbEntity
  8
0
  6
BYBLOCK
 62
     0
370
    -2
100
AcDbCircle
 10
0.0
 20
0.0
 30
0.0
 40
0.5
  0
LINE
  5
1C
330
19
100
AcDbEntity
  8
0
  6
BYBLOCK
 62
     0
370
    -2
100
AcDbLine
 10
0.0
 20
0.0
 30
0.0
 11
-1.0
 21
0.0
 31
0.0
  0
ENDBLK
  5
1D
330
19
100
AcDbEntity
  8
0
100
AcDbBlockEnd
  0
BLOCK
  5
1F
330
1E
100
AcDbEntity
  8
0
100
AcDbBlockBegin
  2
_OPEN30
 70
     0
 10
0.0
 20
0.0
 30
0.0
  3
_OPEN30
  1

  0
LINE
  5
20
330
1E
100
AcDbEntity
  8
0
  6
BYBLOCK
 62
     0
370
    -2
100
AcDbLine
 10
-1.0
 20
0.267949
 30
0.0
 11
0.0
 21
0.0
 31
0.0
  0
LINE
  5
21
330
1E
100
AcDbEntity
  8
0
  6
BYBLOCK
 62
     0
370
    -2
100
AcDbLine
 10
0.0
 20
0.0
 30
0.0
 11
-1.0
 21
-0.267949
 31
0.0
  0
LINE
  5
22
330
1E
100
AcDbEntity
  8
0
  6
BYBLOCK
 62
     0
370
    -2
100
AcDbLine
 10
0.0
 20
0.0
 30
0.0
 11
-1.0
 21
0.0
 31
0.0
  0
ENDBLK
  5
23
330
1E
100
AcDbEntity
  8
0
100
AcDbBlockEnd
  0
BLOCK
  5
25
330
24
100
AcDbEntity
  8
0
100
AcDbBlockBegin
  2
_BOXFILLED
 70
     0
 10
0.0
 20
0.0
 30
0.0
  3
_BOXFILLED
  1

  0
SOLID
  5
26
330
24
100
AcDbEntity
  8
0
  6
BYBLOCK
 62
     0
370
    -2
100
AcDbTrace
 10
-0.5
 20
0.5
 30
0.0
 11
0.5
 21
0.5
 31
0.0
 12
-0.5
 22
-0.5
 32
0.0
 13
0.5
 23
-0.5
 33
0.0
  0
LINE
  5
27
330
24
100
AcDbEntity
  8
0
  6
BYBLOCK
 62
     0
370
    -2
100
AcDbLine
 10
-0.5
 20
0.0
 30
0.0
 11
-1.0
 21
0.0
 31
0.0
  0
ENDBLK
  5
28
330
24
100
AcDbEntity
  8
0
100
AcDbBlockEnd
  0
BLOCK
  5
2A
330
29
100
AcDbEntity
  8
0
100
AcDbBlockBegin
  2
_BOXBLANK
 70
     0
 10
0.0
 20
0.0
 30
0.0
  3
_BOXBLANK
  1

  0
LINE
  5
2B
330
29
100
AcDbEntity
  8
0
  6
BYBLOCK
 62
     0
370
    -2
100
AcDbLine
 10
-0.5
 20
-0.5
 30
0.0
 11
0.5
 21
-0.5
 31
0.0
  0
LINE
  5
2C
330
29
100
AcDbEntity
  8
0
  6
BYBLOCK
 62
     0
370
    -2
100
AcDbLine
 10
0.5
 20
-0.5
 30
0.0
 11
0.5
 21
0.5
 31
0.0
  0
LINE
  5
2D
330
29
100
AcDbEntity
  8
0
  6
BYBLOCK
 62
     0
370
    -2
100
AcDbLine
 10
0.5
 20
0.5
 30
0.0
 11
-0.5
 21
0.5
 31
0.0
  0
LINE
  5
2E
330
29
100
AcDbEntity
  8
0
  6
BYBLOCK
 62
     0
370
    -2
100
AcDbLine
 10
-0.5
 20
0.5
 30
0.0
 11
-0.5
 21
-0.5
 31
0.0
  0
LINE
  5
2F
330
29
100
AcDbEntity
  8
0
  6
BYBLOCK
 62
     0
370
    -2
100
AcDbLine
 10
-0.5
 20
0.0
 30
0.0
 11
-1.0
 21
0.0
 31
0.0
  0
ENDBLK
  5
30
330
29
100
AcDbEntity
  8
0
100
AcDbBlockEnd
  0
BLOCK
  5
32
330
31
100
AcDbEntity
  8
0
100
AcDbBlockBegin
  2
_OBLIQUE
 70
     0
 10
0.0
 20
0.0
 30
0.0
  3
_OBLIQUE
  1

  0
LINE
  5
33
330
31
100
AcDbEntity
  8
0
  6
BYBLOCK
 62
     0
370
    -2
100
AcDbLine
 10
-0.5
 20
-0.5
 30
0.0
 11
0.5
 21
0.5
 31
0.0
  0
ENDBLK
  5
34
330
31
100
AcDbEntity
  8
0
100
AcDbBlockEnd
  0
BLOCK
  5
36
330
35
100
AcDbEntity
  8
0
100
AcDbBlockBegin
  2
_OPEN90
 70
     0
 10
0.0
 20
0.0
 30
0.0
  3
_OPEN90
  1

  0
LINE
  5
37
330
35
100
AcDbEntity
  8
0
  6
BYBLOCK
 62
     0
370
    -2
100
AcDbLine
 10
-0.5
 20
0.5
 30
0.0
 11
0.0
 21
0.0
 31
0.0
  0
LINE
  5
38
330
35
100
AcDbEntity
  8
0
  6
BYBLOCK
 62
     0
370
    -2
100
AcDbLine
 10
0.0
 20
0.0
 30
0.0
 11
-0.5
 21
-0.5
 31
0.0
  0
LINE
  5
39
330
35
100
AcDbEntity
  8
0
  6
BYBLOCK
 62
     0
370
    -2
100
AcDbLine
 10
0.0
 20
0.0
 30
0.0
 11
-1.0
 21
0.0
 31
0.0
  0
ENDBLK
  5
3A
330
35
100
AcDbEntity
  8
0
100
AcDbBlockEnd
  0
BLOCK
  5
3C
330
3B
100
AcDbEntity
  8
0
100
AcDbBlockBegin
  2
_CLOSEDBLANK
 70
     0
 10
0.0
 20
0.0
 30
0.0
  3
_CLOSEDBLANK
  1

  0
LINE
  5
3D
330
3B
100
AcDbEntity
  8
0
  6
BYBLOCK
 62
     0
370
    -2
100
AcDbLine
 10
-1.0
 20
0.1666666666666666
 30
0.0
 11
0.0
 21
0.0
 31
0.0
  0
LINE
  5
3E
330
3B
100
AcDbEntity
  8
0
  6
BYBLOCK
 62
     0
370
    -2
100
AcDbLine
 10
0.0
 20
0.0
 30
0.0
 11
-1.0
 21
-0.1666666666666666
 31
0.0
  0
LINE
  5
3F
330
3B
100
AcDbEntity
  8
0
  6
BYBLOCK
 62
     0
370
    -2
100
AcDbLine
 10
-1.0
 20
0.1666666666666666
 30
0.0
 11
-1.0
 21
-0.1666666666666666
 31
0.0
  0
ENDBLK
  5
40
330
3B
100
AcDbEntity
  8
0
100
AcDbBlockEnd
  0
BLOCK
  5
42
330
41
100
AcDbEntity
  8
0
100
AcDbBlockBegin
  2
_DOTBLANK
 70
     0
 10
0.0
 20
0.0
 30
0.0
  3
_DOTBLANK
  1

  0
CIRCLE
  5
43
330
41
100
AcDbEntity
  8
0
  6
BYBLOCK
 62
     0
370
    -2
100
AcDbCircle
 10
0.0
 20
0.0
 30
0.0
 40
0.5
  0
LINE
  5
44
330
41
100
AcDbEntity
  8
0
  6
BYBLOCK
 62
     0
370
    -2
100
AcDbLine
 10
-0.5
 20
0.0
 30
0.0
 11
-1.0
 21
0.0
 31
0.0
  0
ENDBLK
  5
45
330
41
100
AcDbEntity
  8
0
100
AcDbBlockEnd
  0
ENDSEC
  0
SECTION
  2
ENTITIES
  0
MTEXT
  5
46
100
AcDbEntity
  8
A7
  6
CONTINUOUS
 62
3
100
AcDbMText
 10
9.999997526638502
 20
18.00000076076889
 30
0.000000000000000
 40
3.000000000000000
 41
0.000000000000000
 44
0.6739999771118164
 71
     7
 72
     1
  1
{\H0.94x;{TYPE No.TL-207SUS-1-H}}
 11
1.000000000000000
 21
0.000000000000000
 31
0.000000000000000
  7
STANDARD
  0
LINE
  5
47
100
AcDbEntity
  8
A1
  6
CONTINUOUS
 62
7
100
AcDbLine
 10
167.0925291603834
 20
185.4158925112999
 30
0.000000000000000
 11
144.0925291603834
 21
185.4158925112998
 31
0.000000000000000
  0
LINE
  5
48
100
AcDbEntity
  8
A1
  6
CONTINUOUS
 62
7
100
AcDbLine
 10
167.0925291603834
 20
185.4158925112998
 30
0.000000000000000
 11
167.0925291603834
 21
148.1801887763984
 31
0.000000000000000
  0
LINE
  5
49
100
AcDbEntity
  8
A1
  6
CONTINUOUS
 62
7
100
AcDbLine
 10
144.0925291603834
 20
185.4158925112998
 30
0.000000000000000
 11
144.0925291603834
 21
148.1801887763984
 31
0.000000000000000
  0
ARC
  5
4A
100
AcDbEntity
  8
A1
  6
CONTINUOUS
 62
7
100
AcDbCircle
 10
155.5925291603837
 20
133.9158925112998
 30
0.000000000000000
 40
9.500000000000000
100
AcDbArc
 50
180.0000000000001
 51
360.0000000000001
  0
LINE
  5
4B
100
AcDbEntity
  8
A4
  6
CENTER
 62
1
100
AcDbLine
 10
160.6391561603836
 20
161.4158925112999
 30
0.000000000000000
 11
150.6742971603837
 21
161.4158925112999
 31
0.000000000000000
  0
CIRCLE
  5
4C
100
AcDbEntity
  8
A3
  6
DASHED
 62
2
100
AcDbCircle
 10
155.5925291603837
 20
161.4158925113000
 30
0.000000000000000
 40
2.600000000000000
  0
CIRCLE
  5
4D
100
AcDbEntity
  8
A3
  6
DASHED
 62
2
100
AcDbCircle
 10
155.5925291603837
 20
147.4158925113000
 30
0.000000000000000
 40
2.600000000000000
  0
CIRCLE
  5
4E
100
AcDbEntity
  8
A3
  6
DASHED
 62
2
100
AcDbCircle
 10
155.5925291603837
 20
133.4158925113000
 30
0.000000000000000
 40
2.600000000000000
  0
LINE
  5
4F
100
AcDbEntity
  8
A4
  6
CENTER
 62
1
100
AcDbLine
 10
155.5925291603834
 20
203.1526155112996
 30
0.000000000000000
 11
155.5925291603835
 21
120.1788635112999
 31
0.000000000000000
  0
LINE
  5
50
100
AcDbEntity
  8
A1
  6
CONTINUOUS
 62
7
100
AcDbLine
 10
139.0925291603836
 20
167.8590496841379
 30
0.000000000000000
 11
139.0925291603836
 21
164.3722749069947
 31
0.000000000000000
  0
LINE
  5
51
100
AcDbEntity
  8
A1
  6
CONTINUOUS
 62
7
100
AcDbLine
 10
137.5925291603836
 20
167.8590496841379
 30
0.000000000000000
 11
137.5925291603836
 21
164.3722749069947
 31
0.000000000000000
  0
LINE
  5
52
100
AcDbEntity
  8
A1
  6
CONTINUOUS
 62
7
100
AcDbLine
 10
136.0925291603836
 20
167.8590496841379
 30
0.000000000000000
 11
136.0925291603836
 21
164.6826156841378
 31
0.000000000000000
  0
LINE
  5
53
100
AcDbEntity
  8
A1
  6
CONTINUOUS
 62
7
100
AcDbLine
 10
141.8425291603834
 20
200.6826156841377
 30
0.000000000000000
 11
141.8425291603834
 21
192.4826156841378
 31
0.000000000000000
  0
LINE
  5
54
100
AcDbEntity
  8
A1
  6
CONTINUOUS
 62
7
100
AcDbLine
 10
143.3425291603834
 20
200.6826156841377
 30
0.000000000000000
 11
143.3425291603834
 21
192.4826156841378
 31
0.000000000000000
  0
ARC
  5
55
100
AcDbEntity
  8
A1
  6
CONTINUOUS
 62
7
100
AcDbCircle
 10
133.3425291603836
 20
181.8901306841379
 30
0.000000000000000
 40
0.7500000000000000
100
AcDbArc
 50
100.1028200000001
 51
280.1023850000001
  0
LINE
  5
56
100
AcDbEntity
  8
A1
  6
CONTINUOUS
 62
7
100
AcDbLine
 10
139.0925291603836
 20
182.2879526841378
 30
0.000000000000000
 11
139.0925291603836
 21
180.1355266841379
 31
0.000000000000000
  0
LINE
  5
57
100
AcDbEntity
  8
A1
  6
CONTINUOUS
 62
7
100
AcDbLine
 10
133.4740841603837
 20
181.1517586841381
 30
0.000000000000000
 11
142.0082161603836
 21
182.8775796841381
 31
0.000000000000000
  0
LINE
  5
58
100
AcDbEntity
  8
A1
  6
CONTINUOUS
 62
7
100
AcDbLine
 10
139.0925291603836
 20
169.8480816841378
 30
0.000000000000000
 11
141.9709131603836
 21
169.3479796841378
 31
0.000000000000000
  0
LINE
  5
59
100
AcDbEntity
  8
A1
  6
CONTINUOUS
 62
7
100
AcDbLine
 10
133.3425291603836
 20
184.3590496841379
 30
0.000000000000000
 11
141.8425291603836
 21
184.3590496841379
 31
0.000000000000000
  0
LINE
  5
5A
100
AcDbEntity
  8
A1
  6
CONTINUOUS
 62
7
100
AcDbLine
 10
133.2109681603835
 20
182.6285016841380
 30
0.000000000000000
 11
141.7109731603836
 21
184.3474216841380
 31
0.000000000000000
  0
ARC
  5
5B
100
AcDbEntity
  8
A1
  6
CONTINUOUS
 62
7
100
AcDbCircle
 10
133.3425291603836
 20
185.1090496841379
 30
0.000000000000000
 40
0.7500000000000000
100
AcDbArc
 50
90.00000000000007
 51
270.0000000000001
  0
LINE
  5
5C
100
AcDbEntity
  8
A1
  6
CONTINUOUS
 62
7
100
AcDbLine
 10
133.3425291603836
 20
185.8590496841379
 30
0.000000000000000
 11
141.8425291603836
 21
185.8590496841379
 31
0.000000000000000
  0
LINE
  5
5D
100
AcDbEntity
  8
A1
  6
CONTINUOUS
 62
7
100
AcDbLine
 10
136.0925291603836
 20
188.8297086124307
 30
0.000000000000000
 11
136.0925291603836
 21
185.8590496841379
 31
0.000000000000000
  0
LINE
  5
5E
100
AcDbEntity
  8
A1
  6
CONTINUOUS
 62
7
100
AcDbLine
 10
137.5925291603836
 20
188.6039322010130
 30
0.000000000000000
 11
137.5925291603836
 21
185.8590496841379
 31
0.000000000000000
  0
LINE
  5
5F
100
AcDbEntity
  8
A1
  6
CONTINUOUS
 62
7
100
AcDbLine
 10
139.0925291603836
 20
188.4789316841379
 30
0.000000000000000
 11
139.0925291603836
 21
185.8590496841379
 31
0.000000000000000
  0
LINE
  5
60
100
AcDbEntity
  8
A1
  6
CONTINUOUS
 62
7
100
AcDbLine
 10
137.5925291603836
 20
188.4789316841379
 30
0.000000000000000
 11
139.0925291603836
 21
188.4789316841379
 31
0.000000000000000
  0
LINE
  5
61
100
AcDbEntity
  8
A1
  6
CONTINUOUS
 62
7
100
AcDbLine
 10
136.0925291603836
 20
184.3590496841379
 30
0.000000000000000
 11
136.0925291603836
 21
183.2112276841378
 31
0.000000000000000
  0
LINE
  5
62
100
AcDbEntity
  8
A1
  6
CONTINUOUS
 62
7
100
AcDbLine
 10
137.5925291603836
 20
184.3590496841379
 30
0.000000000000000
 11
137.5925291603836
 21
183.5145656841378
 31
0.000000000000000
  0
LINE
  5
63
100
AcDbEntity
  8
A1
  6
CONTINUOUS
 62
7
100
AcDbLine
 10
139.0925291603836
 20
184.3590496841379
 30
0.000000000000000
 11
139.0925291603836
 21
183.8179046841378
 31
0.000000000000000
  0
ARC
  5
64
100
AcDbEntity
  8
A1
  6
CONTINUOUS
 62
7
100
AcDbCircle
 10
141.8425291603836
 20
185.1090496841379
 30
0.000000000000000
 40
0.7500000000000000
100
AcDbArc
 50
270.0000000000001
 51
450.0000000000001
  0
ARC
  5
65
100
AcDbEntity
  8
A1
  6
CONTINUOUS
 62
7
100
AcDbCircle
 10
141.8425291603836
 20
183.6090496841379
 30
0.000000000000000
 40
0.7500000000000000
100
AcDbArc
 50
282.7628360000001
 51
460.1023850000000
  0
LINE
  5
66
100
AcDbEntity
  8
A1
  6
CONTINUOUS
 62
7
100
AcDbLine
 10
133.1768501603834
 20
178.9392246841380
 30
0.000000000000000
 11
141.7109681603832
 21
180.6650426841380
 31
0.000000000000000
  0
LINE
  5
67
100
AcDbEntity
  8
A1
  6
CONTINUOUS
 62
7
100
AcDbLine
 10
133.4740841603835
 20
177.4693816841377
 30
0.000000000000000
 11
142.0082571603834
 21
179.1952116841376
 31
0.000000000000000
  0
LINE
  5
68
100
AcDbEntity
  8
A1
  6
CONTINUOUS
 62
7
100
AcDbLine
 10
133.4740841603835
 20
169.3932226841380
 30
0.000000000000000
 11
141.9740821603835
 21
171.1121416841380
 31
0.000000000000000
  0
LINE
  5
69
100
AcDbEntity
  8
A1
  6
CONTINUOUS
 62
7
100
AcDbLine
 10
133.1768501603834
 20
170.8630666841380
 30
0.000000000000000
 11
141.6768501603834
 21
172.5819856841380
 31
0.000000000000000
  0
LINE
  5
6A
100
AcDbEntity
  8
A1
  6
CONTINUOUS
 62
7
100
AcDbLine
 10
133.4740841603836
 20
173.8427296841379
 30
0.000000000000000
 11
141.9740401603836
 21
175.5616396841379
 31
0.000000000000000
  0
LINE
  5
6B
100
AcDbEntity
  8
A1
  6
CONTINUOUS
 62
7
100
AcDbLine
 10
133.3425291603836
 20
169.3590496841379
 30
0.000000000000000
 11
141.8425291603836
 21
169.3590496841379
 31
0.000000000000000
  0
LINE
  5
6C
100
AcDbEntity
  8
A1
  6
CONTINUOUS
 62
7
100
AcDbLine
 10
133.1768091603834
 20
175.3125636841378
 30
0.000000000000000
 11
141.7109681603834
 21
177.0383906841378
 31
0.000000000000000
  0
LINE
  5
6D
100
AcDbEntity
  8
A1
  6
CONTINUOUS
 62
7
100
AcDbLine
 10
133.3425291603836
 20
167.8590496841379
 30
0.000000000000000
 11
141.8425291603836
 21
167.8590496841379
 31
0.000000000000000
  0
ARC
  5
6E
100
AcDbEntity
  8
A1
  6
CONTINUOUS
 62
7
100
AcDbCircle
 10
133.3425291603836
 20
178.2077526841379
 30
0.000000000000000
 40
0.7500000000000000
100
AcDbArc
 50
102.7621830000001
 51
280.1023850000001
  0
ARC
  5
6F
100
AcDbEntity
  8
A1
  6
CONTINUOUS
 62
7
100
AcDbCircle
 10
133.3425291603836
 20
174.5811016841379
 30
0.000000000000000
 40
0.7500000000000000
100
AcDbArc
 50
102.7654060000001
 51
280.1023850000001
  0
ARC
  5
70
100
AcDbEntity
  8
A1
  6
CONTINUOUS
 62
7
100
AcDbCircle
 10
133.3425291603836
 20
170.1315946841378
 30
0.000000000000000
 40
0.7500000000000000
100
AcDbArc
 50
102.7621830000001
 51
280.1023850000001
  0
ARC
  5
71
100
AcDbEntity
  8
A1
  6
CONTINUOUS
 62
7
100
AcDbCircle
 10
133.3425291603836
 20
168.6090496841379
 30
0.000000000000000
 40
0.7500000000000000
100
AcDbArc
 50
90.00000000000007
 51
270.0000000000001
  0
LINE
  5
72
100
AcDbEntity
  8
A1
  6
CONTINUOUS
 62
7
100
AcDbLine
 10
136.0925291603836
 20
174.3722456841379
 30
0.000000000000000
 11
136.0925291603836
 21
171.4526916841378
 31
0.000000000000000
  0
LINE
  5
73
100
AcDbEntity
  8
A1
  6
CONTINUOUS
 62
7
100
AcDbLine
 10
137.5925291603836
 20
174.6755846841378
 30
0.000000000000000
 11
137.5925291603836
 21
171.7560306841378
 31
0.000000000000000
  0
LINE
  5
74
100
AcDbEntity
  8
A1
  6
CONTINUOUS
 62
7
100
AcDbLine
 10
139.0925291603836
 20
174.9789236841378
 30
0.000000000000000
 11
139.0925291603836
 21
172.0593686841378
 31
0.000000000000000
  0
LINE
  5
75
100
AcDbEntity
  8
A1
  6
CONTINUOUS
 62
7
100
AcDbLine
 10
139.0925291603836
 20
178.6055756841378
 30
0.000000000000000
 11
139.0925291603836
 21
176.5088756841379
 31
0.000000000000000
  0
LINE
  5
76
100
AcDbEntity
  8
A1
  6
CONTINUOUS
 62
7
100
AcDbLine
 10
137.5925291603836
 20
178.3022366841379
 30
0.000000000000000
 11
137.5925291603836
 21
176.2055366841378
 31
0.000000000000000
  0
LINE
  5
77
100
AcDbEntity
  8
A1
  6
CONTINUOUS
 62
7
100
AcDbLine
 10
136.0925291603836
 20
177.9988976841378
 30
0.000000000000000
 11
136.0925291603836
 21
175.9021976841379
 31
0.000000000000000
  0
LINE
  5
78
100
AcDbEntity
  8
A1
  6
CONTINUOUS
 62
7
100
AcDbLine
 10
136.0925291603836
 20
181.6812756841379
 30
0.000000000000000
 11
136.0925291603836
 21
179.5288496841378
 31
0.000000000000000
  0
LINE
  5
79
100
AcDbEntity
  8
A1
  6
CONTINUOUS
 62
7
100
AcDbLine
 10
137.5925291603836
 20
181.9846146841379
 30
0.000000000000000
 11
137.5925291603836
 21
179.8321886841379
 31
0.000000000000000
  0
ARC
  5
7A
100
AcDbEntity
  8
A1
  6
CONTINUOUS
 62
7
100
AcDbCircle
 10
141.8425291603836
 20
179.9266716841378
 30
0.000000000000000
 40
0.7500000000000000
100
AcDbArc
 50
282.7660570000001
 51
460.1028200000001
  0
ARC
  5
7B
100
AcDbEntity
  8
A1
  6
CONTINUOUS
 62
7
100
AcDbCircle
 10
141.8425291603836
 20
176.3000196841379
 30
0.000000000000000
 40
0.7500000000000000
100
AcDbArc
 50
280.0989470000001
 51
460.1028200000001
  0
LINE
  5
7C
100
AcDbEntity
  8
A1
  6
CONTINUOUS
 62
7
100
AcDbLine
 10
139.0925291603836
 20
170.5294166841379
 30
0.000000000000000
 11
139.0925291603836
 21
169.3590496841379
 31
0.000000000000000
  0
LINE
  5
7D
100
AcDbEntity
  8
A1
  6
CONTINUOUS
 62
7
100
AcDbLine
 10
137.5925291603836
 20
170.2260786841379
 30
0.000000000000000
 11
137.5925291603836
 21
169.3590496841379
 31
0.000000000000000
  0
LINE
  5
7E
100
AcDbEntity
  8
A1
  6
CONTINUOUS
 62
7
100
AcDbLine
 10
136.0925291603836
 20
169.9227396841379
 30
0.000000000000000
 11
136.0925291603836
 21
169.3590496841379
 31
0.000000000000000
  0
ARC
  5
7F
100
AcDbEntity
  8
A1
  6
CONTINUOUS
 62
7
100
AcDbCircle
 10
141.8425291603836
 20
171.8505136841379
 30
0.000000000000000
 40
0.7500000000000000
100
AcDbArc
 50
280.1021680000001
 51
462.7621830000001
  0
ARC
  5
80
100
AcDbEntity
  8
A1
  6
CONTINUOUS
 62
7
100
AcDbCircle
 10
141.8425291603836
 20
168.6090496841379
 30
0.000000000000000
 40
0.7500000000000000
100
AcDbArc
 50
270.0000000000001
 51
450.0000000000001
  0
LINE
  5
81
100
AcDbEntity
  8
A1
  6
CONTINUOUS
 62
7
100
AcDbLine
 10
142.0925291603836
 20
158.9014626841379
 30
0.000000000000000
 11
142.0925291603836
 21
150.6888516841378
 31
0.000000000000000
  0
LINE
  5
82
100
AcDbEntity
  8
A1
  6
CONTINUOUS
 62
7
100
AcDbLine
 10
136.0925291603836
 20
164.6826156841378
 30
0.000000000000000
 11
137.5925291603836
 21
164.6826156841378
 31
0.000000000000000
  0
ARC
  5
83
100
AcDbEntity
  8
A1
  6
CONTINUOUS
 62
7
100
AcDbCircle
 10
140.5925291603836
 20
158.9014626841380
 30
0.000000000000000
 40
3.000000000000000
100
AcDbArc
 50
1.017777498068325e-13
 51
49.11709759187185
  0
ARC
  5
84
100
AcDbEntity
  8
A1
  6
CONTINUOUS
 62
7
100
AcDbCircle
 10
140.5925291603836
 20
158.9014626841380
 30
0.000000000000000
 40
1.500000000000000
100
AcDbArc
 50
1.017777498068325e-13
 51
46.65746336538673
  0
LINE
  5
85
100
AcDbEntity
  8
A4
  6
CENTER
 62
1
100
AcDbLine
 10
139.2567381603835
 20
155.6826156841378
 30
0.000000000000000
 11
146.2654281603836
 21
155.6826156841378
 31
0.000000000000000
  0
LINE
  5
86
100
AcDbEntity
  8
A1
  6
CONTINUOUS
 62
7
100
AcDbLine
 10
143.5925291603837
 20
150.6888516841378
 30
0.000000000000000
 11
142.0925291603837
 21
150.6888516841378
 31
0.000000000000000
  0
LINE
  5
87
100
AcDbEntity
  8
A1
  6
CONTINUOUS
 62
7
100
AcDbLine
 10
175.0925291603834
 20
167.8590496841379
 30
0.000000000000000
 11
175.0925291603834
 21
164.6826156841378
 31
0.000000000000000
  0
LINE
  5
88
100
AcDbEntity
  8
A1
  6
CONTINUOUS
 62
7
100
AcDbLine
 10
173.5925291603834
 20
167.8590496841379
 30
0.000000000000000
 11
173.5925291603834
 21
164.3722749069947
 31
0.000000000000000
  0
LINE
  5
89
100
AcDbEntity
  8
A1
  6
CONTINUOUS
 62
7
100
AcDbLine
 10
172.0925291603834
 20
167.8590496841379
 30
0.000000000000000
 11
172.0925291603834
 21
164.3722749069947
 31
0.000000000000000
  0
LINE
  5
8A
100
AcDbEntity
  8
A1
  6
CONTINUOUS
 62
7
100
AcDbLine
 10
167.8425291603832
 20
200.6826156841377
 30
0.000000000000000
 11
167.8425291603832
 21
192.3297090955558
 31
0.000000000000000
  0
LINE
  5
8B
100
AcDbEntity
  8
A1
  6
CONTINUOUS
 62
7
100
AcDbLine
 10
169.3425291603833
 20
200.6826156841377
 30
0.000000000000000
 11
169.3425291603833
 21
192.3297081124310
 31
0.000000000000000
  0
LINE
  5
8C
100
AcDbEntity
  8
A1
  6
CONTINUOUS
 62
7
100
AcDbLine
 10
172.0925291603835
 20
170.0172446841379
 30
0.000000000000000
 11
169.2109731603834
 21
171.1121416841379
 31
0.000000000000000
  0
LINE
  5
8D
100
AcDbEntity
  8
A1
  6
CONTINUOUS
 62
7
100
AcDbLine
 10
136.0925291603836
 20
172.9407156841379
 30
0.000000000000000
 11
133.1198671603837
 21
173.8649156841379
 31
0.000000000000000
  0
LINE
  5
8E
100
AcDbEntity
  8
A1
  6
CONTINUOUS
 62
7
100
AcDbLine
 10
136.0925291603837
 20
176.8416936841379
 30
0.000000000000000
 11
133.0392531603836
 21
177.5062006841379
 31
0.000000000000000
  0
LINE
  5
8F
100
AcDbEntity
  8
A1
  6
CONTINUOUS
 62
7
100
AcDbLine
 10
177.8425291603835
 20
167.8590496841379
 30
0.000000000000000
 11
169.3425291603835
 21
167.8590496841379
 31
0.000000000000000
  0
LINE
  5
90
100
AcDbEntity
  8
A1
  6
CONTINUOUS
 62
7
100
AcDbLine
 10
178.0082571603834
 20
175.3125616841378
 30
0.000000000000000
 11
169.5082161603830
 21
177.0314896841379
 31
0.000000000000000
  0
LINE
  5
91
100
AcDbEntity
  8
A1
  6
CONTINUOUS
 62
7
100
AcDbLine
 10
177.8425291603835
 20
169.3590496841379
 30
0.000000000000000
 11
169.3425291603835
 21
169.3590496841379
 31
0.000000000000000
  0
LINE
  5
92
100
AcDbEntity
  8
A1
  6
CONTINUOUS
 62
7
100
AcDbLine
 10
177.7109731603834
 20
173.8427296841380
 30
0.000000000000000
 11
169.1768091603833
 21
175.5685576841380
 31
0.000000000000000
  0
LINE
  5
93
100
AcDbEntity
  8
A1
  6
CONTINUOUS
 62
7
100
AcDbLine
 10
177.9740821603836
 20
170.8699666841378
 30
0.000000000000000
 11
169.5082161603836
 21
172.5819836841378
 31
0.000000000000000
  0
LINE
  5
94
100
AcDbEntity
  8
A1
  6
CONTINUOUS
 62
7
100
AcDbLine
 10
177.7109731603833
 20
169.3932226841380
 30
0.000000000000000
 11
169.1768501603834
 21
171.1190416841379
 31
0.000000000000000
  0
LINE
  5
95
100
AcDbEntity
  8
A1
  6
CONTINUOUS
 62
7
100
AcDbLine
 10
177.7109731603832
 20
177.4693816841379
 30
0.000000000000000
 11
169.1768091603831
 21
179.1952096841379
 31
0.000000000000000
  0
LINE
  5
96
100
AcDbEntity
  8
A1
  6
CONTINUOUS
 62
7
100
AcDbLine
 10
178.0082161603833
 20
178.9392226841380
 30
0.000000000000000
 11
169.4740821603834
 21
180.6650436841379
 31
0.000000000000000
  0
LINE
  5
97
100
AcDbEntity
  8
A1
  6
CONTINUOUS
 62
7
100
AcDbLine
 10
177.9740821603835
 20
182.6285026841378
 30
0.000000000000000
 11
169.4740841603835
 21
184.3474216841378
 31
0.000000000000000
  0
LINE
  5
98
100
AcDbEntity
  8
A1
  6
CONTINUOUS
 62
7
100
AcDbLine
 10
169.3425291603835
 20
184.3590496841379
 30
0.000000000000000
 11
177.8425291603835
 21
184.3590496841379
 31
0.000000000000000
  0
LINE
  5
99
100
AcDbEntity
  8
A1
  6
CONTINUOUS
 62
7
100
AcDbLine
 10
177.7109731603832
 20
181.1517586841379
 30
0.000000000000000
 11
169.2109681603834
 21
182.8706786841378
 31
0.000000000000000
  0
ARC
  5
9A
100
AcDbEntity
  8
A1
  6
CONTINUOUS
 62
7
100
AcDbCircle
 10
169.3425291603834
 20
183.6090496841379
 30
0.000000000000000
 40
0.7500000000000000
100
AcDbArc
 50
79.89761500000007
 51
259.8971800000000
  0
ARC
  5
9B
100
AcDbEntity
  8
A1
  6
CONTINUOUS
 62
7
100
AcDbCircle
 10
169.3425291603834
 20
185.1090496841379
 30
0.000000000000000
 40
0.7500000000000000
100
AcDbArc
 50
90.00000000000007
 51
270.0000000000001
  0
ARC
  5
9C
100
AcDbEntity
  8
A1
  6
CONTINUOUS
 62
7
100
AcDbCircle
 10
169.3425291603834
 20
179.9266716841379
 30
0.000000000000000
 40
0.7500000000000000
100
AcDbArc
 50
79.89783200000007
 51
257.2345940000001
  0
ARC
  5
9D
100
AcDbEntity
  8
A1
  6
CONTINUOUS
 62
7
100
AcDbCircle
 10
169.3425291603834
 20
176.3000196841379
 30
0.000000000000000
 40
0.7500000000000000
100
AcDbArc
 50
77.23716400000009
 51
257.2345940000001
  0
ARC
  5
9E
100
AcDbEntity
  8
A1
  6
CONTINUOUS
 62
7
100
AcDbCircle
 10
169.3425291603834
 20
171.8505136841379
 30
0.000000000000000
 40
0.7500000000000000
100
AcDbArc
 50
77.23716400000009
 51
257.2378170000001
  0
ARC
  5
9F
100
AcDbEntity
  8
A1
  6
CONTINUOUS
 62
7
100
AcDbCircle
 10
169.3425291603834
 20
168.6090496841379
 30
0.000000000000000
 40
0.7500000000000000
100
AcDbArc
 50
90.00000000000007
 51
270.0000000000001
  0
LINE
  5
A0
100
AcDbEntity
  8
A1
  6
CONTINUOUS
 62
7
100
AcDbLine
 10
172.0925291603834
 20
182.2879526841379
 30
0.000000000000000
 11
172.0925291603834
 21
180.1355266841379
 31
0.000000000000000
  0
ARC
  5
A1
100
AcDbEntity
  8
A1
  6
CONTINUOUS
 62
7
100
AcDbCircle
 10
177.8425291603834
 20
181.8901306841379
 30
0.000000000000000
 40
0.7500000000000000
100
AcDbArc
 50
259.8976150000001
 51
439.8978320000001
  0
LINE
  5
A2
100
AcDbEntity
  8
A1
  6
CONTINUOUS
 62
7
100
AcDbLine
 10
136.0925291603838
 20
180.5056186841380
 30
0.000000000000000
 11
133.1786091603836
 21
181.1582626841380
 31
0.000000000000000
  0
LINE
  5
A3
100
AcDbEntity
  8
A1
  6
CONTINUOUS
 62
7
100
AcDbLine
 10
136.0925291603835
 20
183.8774236841379
 30
0.000000000000000
 11
133.2159911603834
 21
184.3698016841379
 31
0.000000000000000
  0
LINE
  5
A4
100
AcDbEntity
  8
A1
  6
CONTINUOUS
 62
7
100
AcDbLine
 10
172.0925291603834
 20
188.4789316841379
 30
0.000000000000000
 11
172.0925291603834
 21
185.8590496841379
 31
0.000000000000000
  0
LINE
  5
A5
100
AcDbEntity
  8
A1
  6
CONTINUOUS
 62
7
100
AcDbLine
 10
173.5925291603835
 20
188.4789316841379
 30
0.000000000000000
 11
172.0925291603835
 21
188.4789316841379
 31
0.000000000000000
  0
LINE
  5
A6
100
AcDbEntity
  8
A1
  6
CONTINUOUS
 62
7
100
AcDbLine
 10
172.0925291603834
 20
184.3590496841379
 30
0.000000000000000
 11
172.0925291603834
 21
183.8179046841379
 31
0.000000000000000
  0
LINE
  5
A7
100
AcDbEntity
  8
A1
  6
CONTINUOUS
 62
7
100
AcDbLine
 10
173.5925291603834
 20
184.3590496841379
 30
0.000000000000000
 11
173.5925291603834
 21
183.5145656841379
 31
0.000000000000000
  0
LINE
  5
A8
100
AcDbEntity
  8
A1
  6
CONTINUOUS
 62
7
100
AcDbLine
 10
175.0925291603834
 20
184.3590496841379
 30
0.000000000000000
 11
175.0925291603834
 21
183.2112276841379
 31
0.000000000000000
  0
ARC
  5
A9
100
AcDbEntity
  8
A1
  6
CONTINUOUS
 62
7
100
AcDbCircle
 10
177.8425291603834
 20
185.1090496841379
 30
0.000000000000000
 40
0.7500000000000000
100
AcDbArc
 50
270.0000000000001
 51
450.0000000000001
  0
LINE
  5
AA
100
AcDbEntity
  8
A1
  6
CONTINUOUS
 62
7
100
AcDbLine
 10
177.8425291603835
 20
185.8590496841379
 30
0.000000000000000
 11
169.3425291603835
 21
185.8590496841379
 31
0.000000000000000
  0
LINE
  5
AB
100
AcDbEntity
  8
A1
  6
CONTINUOUS
 62
7
100
AcDbLine
 10
172.0925291603834
 20
174.9789236841379
 30
0.000000000000000
 11
172.0925291603834
 21
172.0593686841379
 31
0.000000000000000
  0
LINE
  5
AC
100
AcDbEntity
  8
A1
  6
CONTINUOUS
 62
7
100
AcDbLine
 10
173.5925291603834
 20
174.6755846841379
 30
0.000000000000000
 11
173.5925291603834
 21
171.7560306841379
 31
0.000000000000000
  0
LINE
  5
AD
100
AcDbEntity
  8
A1
  6
CONTINUOUS
 62
7
100
AcDbLine
 10
175.0925291603834
 20
174.3722456841379
 30
0.000000000000000
 11
175.0925291603834
 21
171.4526916841379
 31
0.000000000000000
  0
ARC
  5
AE
100
AcDbEntity
  8
A1
  6
CONTINUOUS
 62
7
100
AcDbCircle
 10
177.8425291603834
 20
174.5811016841379
 30
0.000000000000000
 40
0.7500000000000000
100
AcDbArc
 50
259.8976150000001
 51
437.2339430000001
  0
LINE
  5
AF
100
AcDbEntity
  8
A1
  6
CONTINUOUS
 62
7
100
AcDbLine
 10
139.0925291603836
 20
181.3111836841380
 30
0.000000000000000
 11
142.0064481603836
 21
180.6585396841380
 31
0.000000000000000
  0
LINE
  5
B0
100
AcDbEntity
  8
A1
  6
CONTINUOUS
 62
7
100
AcDbLine
 10
175.0925291603834
 20
177.9988976841379
 30
0.000000000000000
 11
175.0925291603834
 21
175.9021976841379
 31
0.000000000000000
  0
LINE
  5
B1
100
AcDbEntity
  8
A1
  6
CONTINUOUS
 62
7
100
AcDbLine
 10
173.5925291603834
 20
178.3022366841379
 30
0.000000000000000
 11
173.5925291603834
 21
176.2055366841379
 31
0.000000000000000
  0
LINE
  5
B2
100
AcDbEntity
  8
A1
  6
CONTINUOUS
 62
7
100
AcDbLine
 10
172.0925291603834
 20
178.6055756841378
 30
0.000000000000000
 11
172.0925291603834
 21
176.5088756841379
 31
0.000000000000000
  0
LINE
  5
B3
100
AcDbEntity
  8
A1
  6
CONTINUOUS
 62
7
100
AcDbLine
 10
173.5925291603834
 20
181.9846146841379
 30
0.000000000000000
 11
173.5925291603834
 21
179.8321886841379
 31
0.000000000000000
  0
LINE
  5
B4
100
AcDbEntity
  8
A1
  6
CONTINUOUS
 62
7
100
AcDbLine
 10
175.0925291603834
 20
181.6812756841379
 30
0.000000000000000
 11
175.0925291603834
 21
179.5288496841379
 31
0.000000000000000
  0
ARC
  5
B5
100
AcDbEntity
  8
A1
  6
CONTINUOUS
 62
7
100
AcDbCircle
 10
177.8425291603834
 20
178.2077526841379
 30
0.000000000000000
 40
0.7500000000000000
100
AcDbArc
 50
259.8976150000001
 51
437.2371640000001
  0
LINE
  5
B6
100
AcDbEntity
  8
A1
  6
CONTINUOUS
 62
7
100
AcDbLine
 10
139.0925291603837
 20
177.6660796841380
 30
0.000000000000000
 11
142.0020231603837
 21
177.0328646841380
 31
0.000000000000000
  0
LINE
  5
B7
100
AcDbEntity
  8
A1
  6
CONTINUOUS
 62
7
100
AcDbLine
 10
175.0925291603834
 20
169.9227396841380
 30
0.000000000000000
 11
175.0925291603834
 21
169.3590496841379
 31
0.000000000000000
  0
LINE
  5
B8
100
AcDbEntity
  8
A1
  6
CONTINUOUS
 62
7
100
AcDbLine
 10
173.5925291603834
 20
170.2260786841379
 30
0.000000000000000
 11
173.5925291603834
 21
169.3590496841379
 31
0.000000000000000
  0
LINE
  5
B9
100
AcDbEntity
  8
A1
  6
CONTINUOUS
 62
7
100
AcDbLine
 10
172.0925291603834
 20
170.5294166841379
 30
0.000000000000000
 11
172.0925291603834
 21
169.3590496841379
 31
0.000000000000000
  0
ARC
  5
BA
100
AcDbEntity
  8
A1
  6
CONTINUOUS
 62
7
100
AcDbCircle
 10
177.8425291603834
 20
170.1315946841378
 30
0.000000000000000
 40
0.7500000000000000
100
AcDbArc
 50
259.8976150000001
 51
439.8978320000001
  0
ARC
  5
BB
100
AcDbEntity
  8
A1
  6
CONTINUOUS
 62
7
100
AcDbCircle
 10
177.8425291603834
 20
168.6090496841379
 30
0.000000000000000
 40
0.7500000000000000
100
AcDbArc
 50
270.0000000000001
 51
450.0000000000001
  0
LINE
  5
BC
100
AcDbEntity
  8
A4
  6
CENTER
 62
1
100
AcDbLine
 10
172.1436661603835
 20
155.6826156841378
 30
0.000000000000000
 11
165.0001941603836
 21
155.6826156841378
 31
0.000000000000000
  0
LINE
  5
BD
100
AcDbEntity
  8
A1
  6
CONTINUOUS
 62
7
100
AcDbLine
 10
172.3112794811514
 20
161.9134342584654
 30
0.000000000000000
 11
169.9217051603834
 21
160.2431016841379
 31
0.000000000000000
  0
LINE
  5
BE
100
AcDbEntity
  8
A1
  6
CONTINUOUS
 62
7
100
AcDbLine
 10
169.0925291603834
 20
158.9014626841379
 30
0.000000000000000
 11
169.0925291603834
 21
150.6888516841379
 31
0.000000000000000
  0
ARC
  5
BF
100
AcDbEntity
  8
A1
  6
CONTINUOUS
 62
7
100
AcDbCircle
 10
170.5925291603834
 20
158.9014626841380
 30
0.000000000000000
 40
3.000000000000000
100
AcDbArc
 50
119.0248430552857
 51
180.0000000000001
  0
ARC
  5
C0
100
AcDbEntity
  8
A1
  6
CONTINUOUS
 62
7
100
AcDbCircle
 10
170.5925291603834
 20
158.9014626841380
 30
0.000000000000000
 40
1.500000000000000
100
AcDbArc
 50
116.5651880000001
 51
180.0000000000001
  0
LINE
  5
C1
100
AcDbEntity
  8
A1
  6
CONTINUOUS
 62
7
100
AcDbLine
 10
167.5925291603835
 20
150.6888516841379
 30
0.000000000000000
 11
169.0925291603836
 21
150.6888516841379
 31
0.000000000000000
  0
LINE
  5
C2
100
AcDbEntity
  8
A1
  6
CONTINUOUS
 62
7
100
AcDbLine
 10
175.0925291603835
 20
164.6826156841378
 30
0.000000000000000
 11
173.5925291603835
 21
164.6826156841378
 31
0.000000000000000
  0
LINE
  5
C3
100
AcDbEntity
  8
A1
  6
CONTINUOUS
 62
7
100
AcDbLine
 10
165.0925291603834
 20
146.6801887763984
 30
0.000000000000000
 11
165.0925291603834
 21
130.4158925112999
 31
0.000000000000000
  0
ARC
  5
C4
100
AcDbEntity
  8
A1
  6
CONTINUOUS
 62
7
100
AcDbCircle
 10
155.5925291603837
 20
134.5255641329560
 30
0.000000000000000
 40
9.500000000000000
100
AcDbArc
 50
180.0000000000001
 51
360.0000000000001
  0
LINE
  5
C5
100
AcDbEntity
  8
A1
  6
CONTINUOUS
 62
7
100
AcDbLine
 10
146.0925291603834
 20
146.6801887763984
 30
0.000000000000000
 11
146.0925291603834
 21
130.4158925112999
 31
0.000000000000000
  0
LINE
  5
C6
100
AcDbEntity
  8
A1
  6
CONTINUOUS
 62
7
100
AcDbLine
 10
175.5925291603834
 20
183.8076146841379
 30
0.000000000000000
 11
175.5925291603834
 21
183.4119046841379
 31
0.000000000000000
  0
LINE
  5
C7
100
AcDbEntity
  8
A1
  6
CONTINUOUS
 62
7
100
AcDbLine
 10
177.9863341603835
 20
184.3729656841382
 30
0.000000000000000
 11
175.0925291603834
 21
183.8076146841382
 31
0.000000000000000
  0
LINE
  5
C8
100
AcDbEntity
  8
A1
  6
CONTINUOUS
 62
7
100
AcDbLine
 10
178.1044941603834
 20
182.5928926841378
 30
0.000000000000000
 11
175.0925291603835
 21
183.7156486841378
 31
0.000000000000000
  0
LINE
  5
C9
100
AcDbEntity
  8
A1
  6
CONTINUOUS
 62
7
100
AcDbLine
 10
178.2384191603836
 20
175.2181026841380
 30
0.000000000000000
 11
175.0925291603836
 21
177.1732406841380
 31
0.000000000000000
  0
LINE
  5
CA
100
AcDbEntity
  8
A1
  6
CONTINUOUS
 62
7
100
AcDbLine
 10
178.2413271603835
 20
178.8429376841381
 30
0.000000000000000
 11
175.0925291603836
 21
180.8199006841380
 31
0.000000000000000
  0
LINE
  5
CB
100
AcDbEntity
  8
A1
  6
CONTINUOUS
 62
7
100
AcDbLine
 10
172.0925291603834
 20
177.2716506841381
 30
0.000000000000000
 11
168.9375891603834
 21
179.2953846841381
 31
0.000000000000000
  0
LINE
  5
CC
100
AcDbEntity
  8
A1
  6
CONTINUOUS
 62
7
100
AcDbLine
 10
172.0925291603834
 20
180.9540276841380
 30
0.000000000000000
 11
168.9375891603834
 21
182.9777616841380
 31
0.000000000000000
  0
LINE
  5
CD
100
AcDbEntity
  8
A1
  6
CONTINUOUS
 62
7
100
AcDbLine
 10
172.0925291603835
 20
173.4112846841380
 30
0.000000000000000
 11
168.9062491603835
 21
175.6899706841380
 31
0.000000000000000
  0
LINE
  5
CE
100
AcDbEntity
  8
A1
  6
CONTINUOUS
 62
7
100
AcDbLine
 10
175.0925291603833
 20
173.0203296841378
 30
0.000000000000000
 11
178.2788091603833
 21
170.7416436841378
 31
0.000000000000000
  0
LINE
  5
CF
100
AcDbEntity
  8
A1
  6
CONTINUOUS
 62
7
100
AcDbLine
 10
139.0925291603835
 20
173.4908986841381
 30
0.000000000000000
 11
142.0651911603833
 21
172.5666996841381
 31
0.000000000000000
  0
LINE
  5
D0
100
AcDbEntity
  8
A4
  6
CENTER
 62
1
100
AcDbLine
 10
160.1925291603836
 20
147.4158925113000
 30
0.000000000000000
 11
150.9925291603838
 21
147.4158925113000
 31
0.000000000000000
  0
LINE
  5
D1
100
AcDbEntity
  8
A4
  6
CENTER
 62
1
100
AcDbLine
 10
160.1925291603836
 20
133.4158925113000
 30
0.000000000000000
 11
150.9925291603838
 21
133.4158925113000
 31
0.000000000000000
  0
ARC
  5
D2
100
AcDbEntity
  8
A1
  6
CONTINUOUS
 62
7
100
AcDbCircle
 10
140.3425291603834
 20
192.4826156841378
 30
0.000000000000000
 40
1.500000000000000
100
AcDbArc
 50
270.0000000000000
 51
360.0000000000000
  0
ARC
  5
D3
100
AcDbEntity
  8
A1
  6
CONTINUOUS
 62
7
100
AcDbCircle
 10
140.3425291603834
 20
192.4826161672627
 30
0.000000000000000
 40
3.000000000000000
100
AcDbArc
 50
276.6363809241170
 51
360.0000000000000
  0
ARC
  5
D4
100
AcDbEntity
  8
A1
  6
CONTINUOUS
 62
7
100
AcDbCircle
 10
139.0925291603836
 20
188.6039322010130
 30
0.000000000000000
 40
1.500000000000000
100
AcDbArc
 50
169.3031641597842
 51
180.0000000000000
  0
LINE
  5
D5
100
AcDbEntity
  8
A3
  6
DASHED
 62
2
100
AcDbLine
 10
162.0925291603834
 20
127.4158925112999
 30
0.000000000000000
 11
149.0925291603834
 21
127.4158925112999
 31
0.000000000000000
  0
LINE
  5
D6
100
AcDbEntity
  8
A4
  6
CENTER
 62
1
100
AcDbLine
 10
138.9871731603834
 20
195.4419324774994
 30
0.000000000000000
 11
172.0686041603835
 21
195.4419324774994
 31
0.000000000000000
  0
LINE
  5
D7
100
AcDbEntity
  8
A1
  6
CONTINUOUS
 62
7
100
AcDbLine
 10
141.8425291603834
 20
200.6826156841377
 30
0.000000000000000
 11
143.3425291603836
 21
200.6826156841377
 31
0.000000000000000
  0
LINE
  5
D8
100
AcDbEntity
  8
A1
  6
CONTINUOUS
 62
7
100
AcDbLine
 10
167.8425291603834
 20
200.6826156841377
 30
0.000000000000000
 11
169.3425291603833
 21
200.6826156841377
 31
0.000000000000000
  0
LINE
  5
D9
100
AcDbEntity
  8
A1
  6
CONTINUOUS
 62
7
100
AcDbLine
 10
143.3425291603834
 20
193.4419324774994
 30
0.000000000000000
 11
167.8425291603832
 21
193.4419324774994
 31
0.000000000000000
  0
LINE
  5
DA
100
AcDbEntity
  8
A1
  6
CONTINUOUS
 62
7
100
AcDbLine
 10
143.3425291603834
 20
197.4419324774994
 30
0.000000000000000
 11
167.8425291603832
 21
197.4419324774994
 31
0.000000000000000
  0
ARC
  5
DB
100
AcDbEntity
  8
A1
  6
CONTINUOUS
 62
7
100
AcDbCircle
 10
168.0375291603834
 20
195.4419324774994
 30
0.000000000000000
 40
2.305000000000064
100
AcDbArc
 50
304.4829187978808
 51
415.5170812021193
  0
ARC
  5
DC
100
AcDbEntity
  8
A1
  6
CONTINUOUS
 62
7
100
AcDbCircle
 10
143.1475291603837
 20
195.4419324774994
 30
0.000000000000000
 40
2.305000000000064
100
AcDbArc
 50
124.4829187978809
 51
235.5170812021194
  0
ARC
  5
DD
100
AcDbEntity
  8
A1
  6
CONTINUOUS
 62
7
100
AcDbCircle
 10
167.5925291603834
 20
155.6826156841378
 30
0.000000000000000
 40
2.500000000000028
100
AcDbArc
 50
306.8698976458443
 51
413.1301023541564
  0
ARC
  5
DE
100
AcDbEntity
  8
A1
  6
CONTINUOUS
 62
7
100
AcDbCircle
 10
143.5925291603836
 20
155.6826156841378
 30
0.000000000000000
 40
2.500000000000028
100
AcDbArc
 50
126.8698976458438
 51
233.1301023541558
  0
ARC
  5
DF
100
AcDbEntity
  8
A3
  6
DASHED
 62
2
100
AcDbCircle
 10
162.0925291603834
 20
130.4158925112999
 30
0.000000000000000
 40
3.000000000000000
100
AcDbArc
 50
270.0000000000000
 51
276.7591239796740
  0
ARC
  5
E0
100
AcDbEntity
  8
A3
  6
DASHED
 62
2
100
AcDbCircle
 10
149.0925291603834
 20
130.4158925112999
 30
0.000000000000000
 40
3.000000000000000
100
AcDbArc
 50
263.2408760203298
 51
270.0000000000000
  0
LINE
  5
E1
100
AcDbEntity
  8
A1
  6
CONTINUOUS
 62
7
100
AcDbLine
 10
171.4519043207675
 20
163.1428545827301
 30
0.000000000000000
 11
168.6289834677274
 21
161.1696091328603
 31
0.000000000000000
  0
ARC
  5
E2
100
AcDbEntity
  8
A1
  6
CONTINUOUS
 62
7
100
AcDbCircle
 10
170.5925291603834
 20
164.3722749069947
 30
0.000000000000000
 40
1.500000000000000
100
AcDbArc
 50
304.9538727317081
 51
360.0000000000000
  0
ARC
  5
E3
100
AcDbEntity
  8
A1
  6
CONTINUOUS
 62
7
100
AcDbCircle
 10
170.5925291603834
 20
164.3722749069947
 30
0.000000000000000
 40
3.000000000000000
100
AcDbArc
 50
304.9538727317077
 51
360.0000000000000
  0
LINE
  5
E4
100
AcDbEntity
  8
A1
  6
CONTINUOUS
 62
7
100
AcDbLine
 10
138.8737788396155
 20
161.9134342584655
 30
0.000000000000000
 11
141.6220668586676
 21
159.9923577880834
 31
0.000000000000000
  0
LINE
  5
E5
100
AcDbEntity
  8
A1
  6
CONTINUOUS
 62
7
100
AcDbLine
 10
139.7331539999996
 20
163.1428545827303
 30
0.000000000000000
 11
142.5560748530396
 21
161.1696091328605
 31
0.000000000000000
  0
ARC
  5
E6
100
AcDbEntity
  8
A1
  6
CONTINUOUS
 62
7
100
AcDbCircle
 10
140.5925291603836
 20
164.3722749069947
 30
0.000000000000000
 40
3.000000000000000
100
AcDbArc
 50
180.0000000000001
 51
235.0461272682923
  0
ARC
  5
E7
100
AcDbEntity
  8
A1
  6
CONTINUOUS
 62
7
100
AcDbCircle
 10
140.5925291603836
 20
164.3722749069947
 30
0.000000000000000
 40
1.500000000000000
100
AcDbArc
 50
180.0000000000001
 51
235.0461272682923
  0
ARC
  5
E8
100
AcDbEntity
  8
A3
  6
DASHED
 62
2
100
AcDbCircle
 10
162.0925291603834
 20
130.4158925112999
 30
0.000000000000000
 40
3.000000000000000
100
AcDbArc
 50
276.7591239796740
 51
278.8498975605754
  0
ARC
  5
E9
100
AcDbEntity
  8
A1
  6
CONTINUOUS
 62
7
100
AcDbCircle
 10
162.0925291603834
 20
130.4158925112999
 30
0.000000000000000
 40
3.000000000000000
100
AcDbArc
 50
278.8498975605754
 51
360.0000000000000
  0
ARC
  5
EA
100
AcDbEntity
  8
A1
  6
CONTINUOUS
 62
7
100
AcDbCircle
 10
149.0925291603834
 20
130.4158925112999
 30
0.000000000000000
 40
3.000000000000000
100
AcDbArc
 50
180.0000000000000
 51
261.1501024394285
  0
ARC
  5
EB
100
AcDbEntity
  8
A3
  6
DASHED
 62
2
100
AcDbCircle
 10
149.0925291603834
 20
130.4158925112999
 30
0.000000000000000
 40
3.000000000000000
100
AcDbArc
 50
261.1501024394285
 51
263.2408760203298
  0
ARC
  5
EC
100
AcDbEntity
  8
A1
  6
CONTINUOUS
 62
7
100
AcDbCircle
 10
138.0925291603836
 20
188.8297086124307
 30
0.000000000000000
 40
2.000000000000000
100
AcDbArc
 50
90.00000000000000
 51
180.0000000000000
  0
LINE
  5
ED
100
AcDbEntity
  8
A1
  6
CONTINUOUS
 62
7
100
AcDbLine
 10
141.8425291603834
 20
192.2847685062418
 30
0.000000000000000
 11
143.3425291603836
 21
192.2847685062418
 31
0.000000000000000
  0
LINE
  5
EE
100
AcDbEntity
  8
A1
  6
CONTINUOUS
 62
7
100
AcDbLine
 10
140.3425291603836
 20
190.9826156841378
 30
0.000000000000000
 11
138.0925291603836
 21
190.8297086124307
 31
0.000000000000000
  0
LINE
  5
EF
100
AcDbEntity
  8
A1
  6
CONTINUOUS
 62
7
100
AcDbLine
 10
140.6892328187318
 20
189.5027174150755
 30
0.000000000000000
 11
138.1942326258594
 21
189.3331604491195
 31
0.000000000000000
  0
ARC
  5
F0
100
AcDbEntity
  8
A1
  6
CONTINUOUS
 62
7
100
AcDbCircle
 10
138.2383555494397
 20
188.6838995814067
 30
0.000000000000000
 40
0.6507584088803304
100
AcDbArc
 50
93.88776888979859
 51
162.2446252442963
  0
LINE
  5
F1
100
AcDbEntity
  8
A1
  6
CONTINUOUS
 62
7
100
AcDbLine
 10
175.0925291603834
 20
188.8297086124308
 30
0.000000000000000
 11
175.0925291603834
 21
185.8590496841380
 31
0.000000000000000
  0
ARC
  5
F2
100
AcDbEntity
  8
A1
  6
CONTINUOUS
 62
7
100
AcDbCircle
 10
170.8425291603834
 20
192.4826156841378
 30
0.000000000000000
 40
1.500000000000000
100
AcDbArc
 50
180.0000000000001
 51
270.0000000000001
  0
ARC
  5
F3
100
AcDbEntity
  8
A1
  6
CONTINUOUS
 62
7
100
AcDbCircle
 10
170.8425291603834
 20
192.4826161672628
 30
0.000000000000000
 40
3.000000000000000
100
AcDbArc
 50
180.0000000000001
 51
263.3636190758830
  0
ARC
  5
F4
100
AcDbEntity
  8
A1
  6
CONTINUOUS
 62
7
100
AcDbCircle
 10
172.0925291603834
 20
188.6039322010131
 30
0.000000000000000
 40
1.500000000000000
100
AcDbArc
 50
1.017777498068325e-13
 51
10.69683584021596
  0
ARC
  5
F5
100
AcDbEntity
  8
A1
  6
CONTINUOUS
 62
7
100
AcDbCircle
 10
173.0925291603834
 20
188.8297086124307
 30
0.000000000000000
 40
2.000000000000000
100
AcDbArc
 50
1.017777498068325e-13
 51
90.00000000000010
  0
LINE
  5
F6
100
AcDbEntity
  8
A1
  6
CONTINUOUS
 62
7
100
AcDbLine
 10
170.8425291603832
 20
190.9826156841379
 30
0.000000000000000
 11
173.0925291603832
 21
190.8297086124307
 31
0.000000000000000
  0
LINE
  5
F7
100
AcDbEntity
  8
A1
  6
CONTINUOUS
 62
7
100
AcDbLine
 10
170.4958255020354
 20
189.5027174150754
 30
0.000000000000000
 11
172.9908256949076
 21
189.3331604491195
 31
0.000000000000000
  0
ARC
  5
F8
100
AcDbEntity
  8
A1
  6
CONTINUOUS
 62
7
100
AcDbCircle
 10
172.9467027713271
 20
188.6838995814068
 30
0.000000000000000
 40
0.6507584088803304
100
AcDbArc
 50
17.75537475570385
 51
86.11223111020156
  0
LINE
  5
F9
100
AcDbEntity
  8
A1
  6
CONTINUOUS
 62
7
100
AcDbLine
 10
173.5925291603833
 20
188.6039322010131
 30
0.000000000000000
 11
173.5925291603839
 21
185.8590496841408
 31
0.000000000000000
  0
LINE
  5
FA
100
AcDbEntity
  8
A1
  6
CONTINUOUS
 62
7
100
AcDbLine
 10
42.77173090684701
 20
148.1801887763982
 30
0.000000000000000
 11
31.97173090684706
 21
148.1801887763982
 31
0.000000000000000
  0
LINE
  5
FB
100
AcDbEntity
  8
A1
  6
CONTINUOUS
 62
7
100
AcDbLine
 10
42.77173090684718
 20
181.4158898825643
 30
0.000000000000000
 11
42.77173090684722
 21
148.1801887763982
 31
0.000000000000000
  0
LINE
  5
FC
100
AcDbEntity
  8
A1
  6
CONTINUOUS
 62
7
100
AcDbLine
 10
26.97173090684702
 20
168.6801887763986
 30
0.000000000000000
 11
26.97173090684707
 21
127.4158925112997
 31
0.000000000000000
  0
LINE
  5
FD
100
AcDbEntity
  8
A1
  6
CONTINUOUS
 62
7
100
AcDbLine
 10
28.97173090684701
 20
164.4789297961305
 30
0.000000000000000
 11
28.97173090684707
 21
127.4158925112997
 31
0.000000000000000
  0
LINE
  5
FE
100
AcDbEntity
  8
A1
  6
CONTINUOUS
 62
7
100
AcDbLine
 10
26.97173090684701
 20
168.6801887763986
 30
0.000000000000000
 11
28.76753790684698
 21
168.6801887763986
 31
0.000000000000000
  0
ARC
  5
FF
100
AcDbEntity
  8
A1
  6
CONTINUOUS
 62
7
100
AcDbCircle
 10
31.97173090684704
 20
151.1801887763986
 30
0.000000000000000
 40
3.000000000000000
100
AcDbArc
 50
180.0000000000001
 51
270.0000000000001
  0
LINE
  5
100
100
AcDbEntity
  8
A1
  6
CONTINUOUS
 62
7
100
AcDbLine
 10
26.97173092868714
 20
171.6801887763987
 30
0.000000000000000
 11
26.97173092868713
 21
177.4158898825646
 31
0.000000000000000
  0
ARC
  5
101
100
AcDbEntity
  8
A1
  6
CONTINUOUS
 62
7
100
AcDbCircle
 10
33.97173092868717
 20
177.4158898825646
 30
0.000000000000000
 40
7.000000000000000
100
AcDbArc
 50
132.0152259713116
 51
180.0000000000001
  0
ARC
  5
102
100
AcDbEntity
  8
A1
  6
CONTINUOUS
 62
7
100
AcDbCircle
 10
29.97173090684704
 20
171.6801887763986
 30
0.000000000000000
 40
3.000000000000000
100
AcDbArc
 50
180.0000000000001
 51
236.0533640000001
  0
ARC
  5
103
100
AcDbEntity
  8
A1
  6
CONTINUOUS
 62
7
100
AcDbCircle
 10
27.45883890684707
 20
167.9471777763985
 30
0.000000000000000
 40
1.500000000000000
100
AcDbArc
 50
19.54222591117347
 51
56.05336400000009
  0
ARC
  5
104
100
AcDbEntity
  8
A1
  6
CONTINUOUS
 62
7
100
AcDbCircle
 10
33.97173091139246
 20
153.4469115820107
 30
0.000000000000000
 40
3.000000000000000
100
AcDbArc
 50
180.0000040000001
 51
360.0000090000000
  0
LINE
  5
105
100
AcDbEntity
  8
A1
  6
CONTINUOUS
 62
7
100
AcDbLine
 10
30.97173053564037
 20
153.4469113778340
 30
0.000000000000000
 11
30.97172978481311
 21
164.4789306379865
 31
0.000000000000000
  0
LINE
  5
106
100
AcDbEntity
  8
A1
  6
CONTINUOUS
 62
7
100
AcDbLine
 10
39.47172949740805
 20
164.4789314954927
 30
0.000000000000000
 11
28.47172948577793
 21
164.4789297152083
 31
0.000000000000000
  0
LINE
  5
107
100
AcDbEntity
  8
A1
  6
CONTINUOUS
 62
7
100
AcDbLine
 10
39.97172874735248
 20
166.9789318754501
 30
0.000000000000000
 11
39.97172941648590
 21
164.9789316627760
 31
0.000000000000000
  0
LINE
  5
108
100
AcDbEntity
  8
A1
  6
CONTINUOUS
 62
7
100
AcDbLine
 10
27.97172940485580
 20
164.9789295479250
 30
0.000000000000000
 11
27.97172873572240
 21
166.9789297605991
 31
0.000000000000000
  0
LINE
  5
109
100
AcDbEntity
  8
A1
  6
CONTINUOUS
 62
7
100
AcDbLine
 10
39.47172866643075
 20
167.4789317081667
 30
0.000000000000000
 11
28.47172865480061
 21
167.4789299278823
 31
0.000000000000000
  0
LINE
  5
10A
100
AcDbEntity
  8
A1
  6
CONTINUOUS
 62
7
100
AcDbLine
 10
39.47172654339882
 20
188.4789315112995
 30
0.000000000000000
 11
36.97172648372042
 21
188.4789306748828
 31
0.000000000000000
  0
LINE
  5
10B
100
AcDbEntity
  8
A1
  6
CONTINUOUS
 62
7
100
AcDbLine
 10
27.97172662468957
 20
185.9789304516177
 30
0.000000000000000
 11
27.97172667274945
 21
187.9789299157526
 31
0.000000000000000
  0
LINE
  5
10C
100
AcDbEntity
  8
A1
  6
CONTINUOUS
 62
7
100
AcDbLine
 10
39.97172671068206
 20
187.9789315255871
 30
0.000000000000000
 11
39.97172676783283
 21
185.9789304065580
 31
0.000000000000000
  0
ARC
  5
10D
100
AcDbEntity
  8
A1
  6
CONTINUOUS
 62
7
100
AcDbCircle
 10
29.72172732577258
 20
183.2289297680583
 30
0.000000000000000
 40
0.7500000000000000
100
AcDbArc
 50
79.89697600000007
 51
259.8976220000001
  0
ARC
  5
10E
100
AcDbEntity
  8
A1
  6
CONTINUOUS
 62
7
100
AcDbCircle
 10
38.22172707272274
 20
184.7289308511413
 30
0.000000000000000
 40
0.7500000000000000
100
AcDbArc
 50
269.9999970000001
 51
450.0000070000001
  0
LINE
  5
10F
100
AcDbEntity
  8
A1
  6
CONTINUOUS
 62
7
100
AcDbLine
 10
38.38740311614497
 20
182.2414839144745
 30
0.000000000000000
 11
29.85329119930520
 21
183.9673005211618
 31
0.000000000000000
  0
ARC
  5
110
100
AcDbEntity
  8
A1
  6
CONTINUOUS
 62
7
100
AcDbCircle
 10
29.72172919581124
 20
168.2289304617281
 30
0.000000000000000
 40
0.7500000000000000
100
AcDbArc
 50
90.00000700000010
 51
270.0000070000000
  0
ARC
  5
111
100
AcDbEntity
  8
A1
  6
CONTINUOUS
 62
7
100
AcDbCircle
 10
38.22172894617018
 20
168.2289313990200
 30
0.000000000000000
 40
0.7500000000000000
100
AcDbArc
 50
270.0000070000000
 51
450.0000070000001
  0
ARC
  5
112
100
AcDbEntity
  8
A1
  6
CONTINUOUS
 62
7
100
AcDbCircle
 10
29.72172816471573
 20
175.9199005717340
 30
0.000000000000000
 40
0.7500000000000000
100
AcDbArc
 50
79.89697600000007
 51
257.2380370000001
  0
LINE
  5
113
100
AcDbEntity
  8
A1
  6
CONTINUOUS
 62
7
100
AcDbLine
 10
38.38740395508821
 20
174.9324547181504
 30
0.000000000000000
 11
29.85329203824842
 21
176.6582713248377
 31
0.000000000000000
  0
LINE
  5
114
100
AcDbEntity
  8
A1
  6
CONTINUOUS
 62
7
100
AcDbLine
 10
38.22172898391953
 20
168.9789309734746
 30
0.000000000000000
 11
29.72172923356064
 21
168.9789300361826
 31
0.000000000000000
  0
LINE
  5
115
100
AcDbEntity
  8
A1
  6
CONTINUOUS
 62
7
100
AcDbLine
 10
38.09017260494005
 20
173.4626106719647
 30
0.000000000000000
 11
29.55605255522883
 21
175.1884286411519
 31
0.000000000000000
  0
LINE
  5
116
100
AcDbEntity
  8
A1
  6
CONTINUOUS
 62
7
100
AcDbLine
 10
38.38744537014672
 20
170.4829399672207
 30
0.000000000000000
 11
29.85329263113463
 21
172.2087653801711
 31
0.000000000000000
  0
LINE
  5
117
100
AcDbEntity
  8
A1
  6
CONTINUOUS
 62
7
100
AcDbLine
 10
38.09017319782635
 20
169.0131047272980
 30
0.000000000000000
 11
29.55605314811535
 21
170.7389226964852
 31
0.000000000000000
  0
ARC
  5
118
100
AcDbEntity
  8
A1
  6
CONTINUOUS
 62
7
100
AcDbCircle
 10
29.72172875760214
 20
171.4703946270673
 30
0.000000000000000
 40
0.7500000000000000
100
AcDbArc
 50
79.89697600000007
 51
257.2380370000001
  0
ARC
  5
119
100
AcDbEntity
  8
A1
  6
CONTINUOUS
 62
7
100
AcDbCircle
 10
38.22172893848791
 20
169.7514768429019
 30
0.000000000000000
 40
0.7500000000000000
100
AcDbArc
 50
259.8976220000001
 51
437.2348620000001
  0
ARC
  5
11A
100
AcDbEntity
  8
A1
  6
CONTINUOUS
 62
7
100
AcDbCircle
 10
38.22172834560151
 20
174.2009827875686
 30
0.000000000000000
 40
0.7500000000000000
100
AcDbArc
 50
259.8976220000001
 51
437.2380370000001
  0
LINE
  5
11B
100
AcDbEntity
  8
A1
  6
CONTINUOUS
 62
7
100
AcDbLine
 10
38.09017175116787
 20
177.0892628581520
 30
0.000000000000000
 11
29.59016343741101
 21
178.8081820048173
 31
0.000000000000000
  0
LINE
  5
11C
100
AcDbEntity
  8
A1
  6
CONTINUOUS
 62
7
100
AcDbLine
 10
38.35325070100576
 20
178.5660125393587
 30
0.000000000000000
 11
29.85329118447623
 21
180.2849235110249
 31
0.000000000000000
  0
LINE
  5
11D
100
AcDbEntity
  8
A1
  6
CONTINUOUS
 62
7
100
AcDbLine
 10
38.09017176599666
 20
180.7716398682892
 30
0.000000000000000
 11
29.59017150620289
 21
182.4905586493365
 31
0.000000000000000
  0
ARC
  5
11E
100
AcDbEntity
  8
A1
  6
CONTINUOUS
 62
7
100
AcDbCircle
 10
29.72172731094350
 20
179.5465527579212
 30
0.000000000000000
 40
0.7500000000000000
100
AcDbArc
 50
79.89697600000007
 51
259.8969760000001
  0
ARC
  5
11F
100
AcDbEntity
  8
A1
  6
CONTINUOUS
 62
7
100
AcDbCircle
 10
38.22172749182926
 20
177.8276349737557
 30
0.000000000000000
 40
0.7500000000000000
100
AcDbArc
 50
259.8976220000001
 51
439.9001380000000
  0
ARC
  5
120
100
AcDbEntity
  8
A1
  6
CONTINUOUS
 62
7
100
AcDbCircle
 10
38.22172750665812
 20
181.5100119838928
 30
0.000000000000000
 40
0.7500000000000000
100
AcDbArc
 50
259.8976220000001
 51
437.2380370000001
  0
ARC
  5
121
100
AcDbEntity
  8
A1
  6
CONTINUOUS
 62
7
100
AcDbCircle
 10
29.72172732236357
 20
184.7289299138493
 30
0.000000000000000
 40
0.7500000000000000
100
AcDbArc
 50
90.00000700000010
 51
270.0000070000000
  0
LINE
  5
122
100
AcDbEntity
  8
A1
  6
CONTINUOUS
 62
7
100
AcDbLine
 10
29.72172728461397
 20
183.9789303393946
 30
0.000000000000000
 11
38.22172703497308
 21
183.9789312766866
 31
0.000000000000000
  0
LINE
  5
123
100
AcDbEntity
  8
A1
  6
CONTINUOUS
 62
7
100
AcDbLine
 10
36.97172721592874
 20
183.6563935939167
 30
0.000000000000000
 11
38.39735615062973
 21
183.9997848414351
 31
0.000000000000000
  0
LINE
  5
124
100
AcDbEntity
  8
A1
  6
CONTINUOUS
 62
7
100
AcDbLine
 10
39.47172676568126
 20
185.4789303922703
 30
0.000000000000000
 11
28.47172662253821
 21
185.4789304396028
 31
0.000000000000000
  0
LINE
  5
125
100
AcDbEntity
  8
A1
  6
CONTINUOUS
 62
7
100
AcDbLine
 10
30.97172689743821
 20
188.4789307401544
 30
0.000000000000000
 11
28.47172650546614
 21
188.4789299037377
 31
0.000000000000000
  0
LINE
  5
126
100
AcDbEntity
  8
A1
  6
CONTINUOUS
 62
7
100
AcDbLine
 10
36.97172741192169
 20
183.9789313132997
 30
0.000000000000000
 11
36.97172760465175
 21
182.5277704681278
 31
0.000000000000000
  0
LINE
  5
127
100
AcDbEntity
  8
A1
  6
CONTINUOUS
 62
7
100
AcDbLine
 10
30.97172690425669
 20
185.4789304485726
 30
0.000000000000000
 11
30.97172659935769
 21
188.4789307401543
 31
0.000000000000000
  0
LINE
  5
128
100
AcDbEntity
  8
A1
  6
CONTINUOUS
 62
7
100
AcDbLine
 10
30.97172674249610
 20
183.7411237859448
 30
0.000000000000000
 11
30.97172690766562
 21
183.9789303027814
 31
0.000000000000000
  0
LINE
  5
129
100
AcDbEntity
  8
A1
  6
CONTINUOUS
 62
7
100
AcDbLine
 10
36.97172701414477
 20
180.9978188839798
 30
0.000000000000000
 11
36.97172766873054
 21
178.8453924611088
 31
0.000000000000000
  0
LINE
  5
12A
100
AcDbEntity
  8
A1
  6
CONTINUOUS
 62
7
100
AcDbLine
 10
36.97172807510564
 20
177.3154409558691
 30
0.000000000000000
 11
36.97172852250279
 21
175.2187402749218
 31
0.000000000000000
  0
LINE
  5
12B
100
AcDbEntity
  8
A1
  6
CONTINUOUS
 62
7
100
AcDbLine
 10
30.97172772454903
 20
180.0587468547158
 30
0.000000000000000
 11
30.97172714887125
 21
182.2111722807049
 31
0.000000000000000
  0
LINE
  5
12C
100
AcDbEntity
  8
A1
  6
CONTINUOUS
 62
7
100
AcDbLine
 10
30.97172758143945
 20
176.4320945896206
 30
0.000000000000000
 11
30.97172721295028
 21
178.5287942736861
 31
0.000000000000000
  0
LINE
  5
12D
100
AcDbEntity
  8
A1
  6
CONTINUOUS
 62
7
100
AcDbLine
 10
36.97172793199591
 20
173.6887886907739
 30
0.000000000000000
 11
36.97172811850721
 21
170.7692342513470
 31
0.000000000000000
  0
LINE
  5
12E
100
AcDbEntity
  8
A1
  6
CONTINUOUS
 62
7
100
AcDbLine
 10
36.97172852488232
 20
169.2392827461072
 30
0.000000000000000
 11
36.97172836398603
 21
168.9789309311797
 31
0.000000000000000
  0
LINE
  5
12F
100
AcDbEntity
  8
A1
  6
CONTINUOUS
 62
7
100
AcDbLine
 10
30.97172817432565
 20
171.9825886449539
 30
0.000000000000000
 11
30.97172798781435
 21
174.9021430843808
 31
0.000000000000000
  0
LINE
  5
130
100
AcDbEntity
  8
A1
  6
CONTINUOUS
 62
7
100
AcDbLine
 10
30.97172885661222
 20
168.9789299995694
 30
0.000000000000000
 11
30.97172865960892
 21
170.4526361428321
 31
0.000000000000000
  0
LINE
  5
131
100
AcDbEntity
  8
A1
  6
CONTINUOUS
 62
7
100
AcDbLine
 10
36.97172929218745
 20
164.4789315695966
 30
0.000000000000000
 11
36.97173101036194
 21
153.4469120492438
 31
0.000000000000000
  0
ARC
  5
132
100
AcDbEntity
  8
A1
  6
CONTINUOUS
 62
7
100
AcDbCircle
 10
38.77173092868711
 20
181.4158898825643
 30
0.000000000000000
 40
4.000000000000000
100
AcDbArc
 50
0.000000000000000
 51
93.35182776374977
  0
LINE
  5
133
100
AcDbEntity
  8
A1
  6
CONTINUOUS
 62
7
100
AcDbLine
 10
30.97172819246083
 20
170.2001327759619
 30
0.000000000000000
 11
29.45817770502554
 21
170.7682259118209
 31
0.000000000000000
  0
LINE
  5
134
100
AcDbEntity
  8
A1
  6
CONTINUOUS
 62
7
100
AcDbLine
 10
30.97172782175258
 20
174.1038990689514
 30
0.000000000000000
 11
29.28544855690001
 21
175.3098514303576
 31
0.000000000000000
  0
LINE
  5
135
100
AcDbEntity
  8
A1
  6
CONTINUOUS
 62
7
100
AcDbLine
 10
30.97172768622144
 20
177.8866480367307
 30
0.000000000000000
 11
29.32583744694538
 21
178.9095506482601
 31
0.000000000000000
  0
LINE
  5
136
100
AcDbEntity
  8
A1
  6
CONTINUOUS
 62
7
100
AcDbLine
 10
30.97172700027226
 20
181.5585533397719
 30
0.000000000000000
 11
29.32292892512493
 21
182.5937458208101
 31
0.000000000000000
  0
LINE
  5
137
100
AcDbEntity
  8
A1
  6
CONTINUOUS
 62
7
100
AcDbLine
 10
36.97172828456912
 20
171.5674782667766
 30
0.000000000000000
 11
38.65800854630368
 21
170.3615259842783
 31
0.000000000000000
  0
LINE
  5
138
100
AcDbEntity
  8
A1
  6
CONTINUOUS
 62
7
100
AcDbLine
 10
36.97172797032339
 20
175.8608875087587
 30
0.000000000000000
 11
38.61761820959964
 21
174.8379848972293
 31
0.000000000000000
  0
LINE
  5
139
100
AcDbEntity
  8
A1
  6
CONTINUOUS
 62
7
100
AcDbLine
 10
36.97172773842154
 20
179.4980123989241
 30
0.000000000000000
 11
38.62052581356906
 21
178.4628199178858
 31
0.000000000000000
  0
LINE
  5
13A
100
AcDbEntity
  8
A1
  6
CONTINUOUS
 62
7
100
AcDbLine
 10
36.97172711628490
 20
182.7763826264342
 30
0.000000000000000
 11
38.48369276536368
 21
182.2127744185999
 31
0.000000000000000
  0
LINE
  5
13B
100
AcDbEntity
  8
A1
  6
CONTINUOUS
 62
7
100
AcDbLine
 10
38.27173090684721
 20
124.7898603980548
 30
0.000000000000000
 11
36.90121986575815
 21
124.1801887763985
 31
0.000000000000000
  0
ARC
  5
13C
100
AcDbEntity
  8
A1
  6
CONTINUOUS
 62
7
100
AcDbCircle
 10
58.09940445630753
 20
133.1033050280513
 30
0.000000000000000
 40
21.50000000000000
100
AcDbArc
 50
135.4725893932402
 51
202.7475696206379
  0
ARC
  5
13D
100
AcDbEntity
  8
A1
  6
CONTINUOUS
 62
7
100
AcDbCircle
 10
58.09940445630753
 20
133.1033050280513
 30
0.000000000000000
 40
23.00000000000000
100
AcDbArc
 50
139.0411606558831
 51
202.8280795384831
  0
LINE
  5
13E
100
AcDbEntity
  8
A4
  6
CENTER
 62
1
100
AcDbLine
 10
37.47173097286419
 20
155.6826156841375
 30
0.000000000000000
 11
30.47173097286419
 21
155.6826156841375
 31
0.000000000000000
  0
LINE
  5
13F
100
AcDbEntity
  8
A4
  6
CENTER
 62
1
100
AcDbLine
 10
33.97173097286419
 20
159.1826156841375
 30
0.000000000000000
 11
33.97173097286419
 21
152.1826156841375
 31
0.000000000000000
  0
ARC
  5
140
100
AcDbEntity
  8
A1
  6
CONTINUOUS
 62
7
100
AcDbCircle
 10
38.77173092868711
 20
181.4158898825643
 30
0.000000000000000
 40
2.500000000000000
100
AcDbArc
 50
1.017777498068325e-13
 51
90.00000000000000
  0
LINE
  5
141
100
AcDbEntity
  8
A1
  6
CONTINUOUS
 62
7
100
AcDbLine
 10
41.27173092868711
 20
181.4158898825643
 30
0.000000000000000
 11
41.27173092868711
 21
178.2658898825672
 31
0.000000000000000
  0
LINE
  5
142
100
AcDbEntity
  8
A1
  6
CONTINUOUS
 62
7
100
AcDbLine
 10
41.27173092868976
 20
177.5158898825685
 30
0.000000000000000
 11
38.81980364236341
 21
177.5158898825644
 31
0.000000000000000
  0
ARC
  5
143
100
AcDbEntity
  8
A1
  6
CONTINUOUS
 62
7
100
AcDbCircle
 10
41.27173092868711
 20
179.0158898825684
 30
0.000000000000000
 40
1.500000000000000
100
AcDbArc
 50
270.0000000000000
 51
360.0000000000000
  0
ARC
  5
144
100
AcDbEntity
  8
A1
  6
CONTINUOUS
 62
7
100
AcDbCircle
 10
40.52173092868711
 20
178.2658898825672
 30
0.000000000000000
 40
0.7500000000000000
100
AcDbArc
 50
270.0000000000000
 51
360.0000000000000
  0
ARC
  5
145
100
AcDbEntity
  8
A1
  6
CONTINUOUS
 62
7
100
AcDbCircle
 10
39.47172671068200
 20
187.9789315112995
 30
0.000000000000000
 40
0.5000000000000000
100
AcDbArc
 50
0.000000000000000
 51
90.00000000000000
  0
ARC
  5
146
100
AcDbEntity
  8
A1
  6
CONTINUOUS
 62
7
100
AcDbCircle
 10
28.47172667274948
 20
187.9789299037378
 30
0.000000000000000
 40
0.5000000000000000
100
AcDbArc
 50
90.00000000000000
 51
180.0000000000000
  0
ARC
  5
147
100
AcDbEntity
  8
A1
  6
CONTINUOUS
 62
7
100
AcDbCircle
 10
28.47172662468973
 20
185.9789304396028
 30
0.000000000000000
 40
0.5000000000000000
100
AcDbArc
 50
180.0000000000000
 51
270.0000000000000
  0
ARC
  5
148
100
AcDbEntity
  8
A1
  6
CONTINUOUS
 62
7
100
AcDbCircle
 10
39.47172676783283
 20
185.9789303922704
 30
0.000000000000000
 40
0.5000000000000000
100
AcDbArc
 50
270.0000000000000
 51
360.0000000000000
  0
ARC
  5
149
100
AcDbEntity
  8
A1
  6
CONTINUOUS
 62
7
100
AcDbCircle
 10
28.47172873572243
 20
166.9789299278824
 30
0.000000000000000
 40
0.5000000000000000
100
AcDbArc
 50
90.00000000000000
 51
180.0000000000000
  0
ARC
  5
14A
100
AcDbEntity
  8
A1
  6
CONTINUOUS
 62
7
100
AcDbCircle
 10
39.47172874735259
 20
166.9789317081668
 30
0.000000000000000
 40
0.5000000000000000
100
AcDbArc
 50
0.000000000000000
 51
90.00000000000000
  0
ARC
  5
14B
100
AcDbEntity
  8
A1
  6
CONTINUOUS
 62
7
100
AcDbCircle
 10
39.47172941648603
 20
164.9789314954926
 30
0.000000000000000
 40
0.5000000000000000
100
AcDbArc
 50
270.0000000000000
 51
360.0000000000000
  0
ARC
  5
14C
100
AcDbEntity
  8
A1
  6
CONTINUOUS
 62
7
100
AcDbCircle
 10
28.47172940485587
 20
164.9789297152083
 30
0.000000000000000
 40
0.5000000000000000
100
AcDbArc
 50
180.0000000000000
 51
270.0000000000000
  0
LINE
  5
14D
100
AcDbEntity
  8
A3
  6
DASHED
 62
2
100
AcDbLine
 10
28.97173090684703
 20
136.0158925113379
 30
0.000000000000000
 11
26.97173090678746
 21
136.0158925113386
 31
0.000000000000000
  0
LINE
  5
14E
100
AcDbEntity
  8
A3
  6
DASHED
 62
2
100
AcDbLine
 10
28.97173090684695
 20
130.8158925113836
 30
0.000000000000000
 11
26.97173090678738
 21
130.8158925113851
 31
0.000000000000000
  0
LINE
  5
14F
100
AcDbEntity
  8
A4
  6
CENTER
 62
1
100
AcDbLine
 10
25.47173090678769
 20
133.4158925113613
 30
0.000000000000000
 11
30.47173090684726
 21
133.4158925113613
 31
0.000000000000000
  0
LINE
  5
150
100
AcDbEntity
  8
A3
  6
DASHED
 62
2
100
AcDbLine
 10
28.97173090684700
 20
150.0158925112763
 30
0.000000000000000
 11
26.97173090678743
 21
150.0158925112770
 31
0.000000000000000
  0
LINE
  5
151
100
AcDbEntity
  8
A3
  6
DASHED
 62
2
100
AcDbLine
 10
28.97173090684701
 20
144.8158925113220
 30
0.000000000000000
 11
26.97173090678766
 21
144.8158925113235
 31
0.000000000000000
  0
LINE
  5
152
100
AcDbEntity
  8
A4
  6
CENTER
 62
1
100
AcDbLine
 10
25.47173090678769
 20
147.4158925112997
 30
0.000000000000000
 11
30.47173090684704
 21
147.4158925112997
 31
0.000000000000000
  0
LINE
  5
153
100
AcDbEntity
  8
A3
  6
DASHED
 62
2
100
AcDbLine
 10
28.97173090684700
 20
164.0158925112761
 30
0.000000000000000
 11
26.97173090684701
 21
164.0158925112768
 31
0.000000000000000
  0
LINE
  5
154
100
AcDbEntity
  8
A3
  6
DASHED
 62
2
100
AcDbLine
 10
28.97173090684701
 20
158.8158925113217
 30
0.000000000000000
 11
26.97173090684704
 21
158.8158925113232
 31
0.000000000000000
  0
LINE
  5
155
100
AcDbEntity
  8
A4
  6
CENTER
 62
1
100
AcDbLine
 10
25.15349890678761
 20
161.4158925112997
 30
0.000000000000000
 11
30.15349890684718
 21
161.4158925112997
 31
0.000000000000000
  0
CIRCLE
  5
156
100
AcDbEntity
  8
A1
  6
CONTINUOUS
 62
7
100
AcDbCircle
 10
33.97173097286419
 20
155.6826156841375
 30
0.000000000000000
 40
2.000000000000000
  0
LINE
  5
157
100
AcDbEntity
  8
A1
  6
CONTINUOUS
 62
7
100
AcDbLine
 10
36.97172636597647
 20
188.4789306748828
 30
0.000000000000000
 11
36.97172641163066
 21
185.4789313801828
 31
0.000000000000000
  0
LINE
  5
158
100
AcDbEntity
  8
A1
  6
CONTINUOUS
 62
7
100
AcDbLine
 10
28.54490129212621
 20
196.8450778571759
 30
0.000000000000000
 11
30.97172689743839
 21
188.4789307401544
 31
0.000000000000000
  0
LINE
  5
159
100
AcDbEntity
  8
A1
  6
CONTINUOUS
 62
7
100
AcDbLine
 10
34.33889537630871
 20
198.4501119224137
 30
0.000000000000000
 11
36.97172648372032
 21
188.4789306748828
 31
0.000000000000000
  0
CIRCLE
  5
15A
100
AcDbEntity
  8
A1
  6
CONTINUOUS
 62
7
100
AcDbCircle
 10
32.19344720476409
 20
195.4419324774993
 30
0.000000000000000
 40
2.000000000000000
  0
LINE
  5
15B
100
AcDbEntity
  8
A4
  6
CENTER
 62
1
100
AcDbLine
 10
35.69344720476409
 20
195.4419324774993
 30
0.000000000000000
 11
28.69344720476409
 21
195.4419324774993
 31
0.000000000000000
  0
LINE
  5
15C
100
AcDbEntity
  8
A4
  6
CENTER
 62
1
100
AcDbLine
 10
32.19344720476409
 20
198.9419324774993
 30
0.000000000000000
 11
32.19344720476409
 21
191.9419324774993
 31
0.000000000000000
  0
ARC
  5
15D
100
AcDbEntity
  8
A1
  6
CONTINUOUS
 62
7
100
AcDbCircle
 10
31.43219703150954
 20
197.6826155112996
 30
0.000000000000000
 40
3.000000000000000
100
AcDbArc
 50
14.79103717223887
 51
196.1762205511306
  0
LINE
  5
15E
100
AcDbEntity
  8
A1
  6
CONTINUOUS
 62
7
100
AcDbLine
 10
29.00348418724852
 20
168.0130042991753
 30
0.000000000000000
 11
28.87243174546880
 21
168.4489299927338
 31
0.000000000000000
  0
LINE
  5
15F
100
AcDbEntity
  8
A1
  6
CONTINUOUS
 62
7
100
AcDbLine
 10
38.77173092868409
 20
183.9158898825643
 30
0.000000000000000
 11
38.04905641466848
 21
183.9158898825634
 31
0.000000000000000
  0
LINE
  5
160
100
AcDbEntity
  8
A1
  6
CONTINUOUS
 62
7
100
AcDbLine
 10
28.97173090684706
 20
127.4158925112997
 30
0.000000000000000
 11
26.97173090684708
 21
127.4158925112997
 31
0.000000000000000
  0
LINE
  5
161
100
AcDbEntity
  8
A1
  6
CONTINUOUS
 62
7
100
AcDbLine
 10
144.0925291603835
 20
148.1801887763983
 30
0.000000000000000
 11
144.5925291603835
 21
148.1801887763983
 31
0.000000000000000
  0
ARC
  5
162
100
AcDbEntity
  8
A1
  6
CONTINUOUS
 62
7
100
AcDbCircle
 10
144.5925291603835
 20
146.6801887763984
 30
0.000000000000000
 40
1.500000000000000
100
AcDbArc
 50
7.633331235512440e-14
 51
90.00000000000007
  0
ARC
  5
163
100
AcDbEntity
  8
A1
  6
CONTINUOUS
 62
7
100
AcDbCircle
 10
166.5925291603833
 20
146.6801887763984
 30
0.000000000000000
 40
1.500000000000000
100
AcDbArc
 50
90.00000000000007
 51
180.0000000000001
  0
LINE
  5
164
100
AcDbEntity
  8
A1
  6
CONTINUOUS
 62
7
100
AcDbLine
 10
167.0925291603833
 20
148.1801887763984
 30
0.000000000000000
 11
166.5925291603833
 21
148.1801887763984
 31
0.000000000000000
  0
LINE
  5
165
100
AcDbEntity
  8
A1
  6
CONTINUOUS
 62
7
100
AcDbLine
 10
301.8832834703016
 20
148.1801887763986
 30
0.000000000000000
 11
312.6832834703016
 21
148.1801887763986
 31
0.000000000000000
  0
LINE
  5
166
100
AcDbEntity
  8
A1
  6
CONTINUOUS
 62
7
100
AcDbLine
 10
301.8832834703014
 20
181.4158898825646
 30
0.000000000000000
 11
301.8832834703014
 21
148.1801887763986
 31
0.000000000000000
  0
LINE
  5
167
100
AcDbEntity
  8
A1
  6
CONTINUOUS
 62
7
100
AcDbLine
 10
317.6832834703016
 20
168.6801887763990
 30
0.000000000000000
 11
317.6832834703017
 21
127.4158925113002
 31
0.000000000000000
  0
LINE
  5
168
100
AcDbEntity
  8
A1
  6
CONTINUOUS
 62
7
100
AcDbLine
 10
315.6832834703017
 20
164.4789297961310
 30
0.000000000000000
 11
315.6832834703017
 21
127.4158925113002
 31
0.000000000000000
  0
LINE
  5
169
100
AcDbEntity
  8
A1
  6
CONTINUOUS
 62
7
100
AcDbLine
 10
317.6832834703016
 20
168.6801887763990
 30
0.000000000000000
 11
315.8874764703016
 21
168.6801887763990
 31
0.000000000000000
  0
ARC
  5
16A
100
AcDbEntity
  8
A1
  6
CONTINUOUS
 62
7
100
AcDbCircle
 10
312.6832834703016
 20
151.1801887763990
 30
0.000000000000000
 40
3.000000000000000
100
AcDbArc
 50
270.0000000000001
 51
360.0000000000001
  0
LINE
  5
16B
100
AcDbEntity
  8
A1
  6
CONTINUOUS
 62
7
100
AcDbLine
 10
317.6832834484614
 20
171.6801887763991
 30
0.000000000000000
 11
317.6832834484614
 21
177.4158898825651
 31
0.000000000000000
  0
ARC
  5
16C
100
AcDbEntity
  8
A1
  6
CONTINUOUS
 62
7
100
AcDbCircle
 10
310.6832834484615
 20
177.4158898825650
 30
0.000000000000000
 40
7.000000000000000
100
AcDbArc
 50
1.017777498068325e-13
 51
47.98477402868856
  0
ARC
  5
16D
100
AcDbEntity
  8
A1
  6
CONTINUOUS
 62
7
100
AcDbCircle
 10
314.6832834703016
 20
171.6801887763991
 30
0.000000000000000
 40
3.000000000000000
100
AcDbArc
 50
303.9466360000002
 51
360.0000000000001
  0
ARC
  5
16E
100
AcDbEntity
  8
A1
  6
CONTINUOUS
 62
7
100
AcDbCircle
 10
317.1961754703016
 20
167.9471777763990
 30
0.000000000000000
 40
1.500000000000000
100
AcDbArc
 50
123.9466360000001
 51
160.4577740888267
  0
ARC
  5
16F
100
AcDbEntity
  8
A1
  6
CONTINUOUS
 62
7
100
AcDbCircle
 10
310.6832834657562
 20
153.4469115820112
 30
0.000000000000000
 40
3.000000000000000
100
AcDbArc
 50
179.9999910000001
 51
359.9999960000001
  0
LINE
  5
170
100
AcDbEntity
  8
A1
  6
CONTINUOUS
 62
7
100
AcDbLine
 10
313.6832838415083
 20
153.4469113778344
 30
0.000000000000000
 11
313.6832845923357
 21
164.4789306379870
 31
0.000000000000000
  0
LINE
  5
171
100
AcDbEntity
  8
A1
  6
CONTINUOUS
 62
7
100
AcDbLine
 10
305.1832848797406
 20
164.4789314954931
 30
0.000000000000000
 11
316.1832848913706
 21
164.4789297152088
 31
0.000000000000000
  0
LINE
  5
172
100
AcDbEntity
  8
A1
  6
CONTINUOUS
 62
7
100
AcDbLine
 10
304.6832856297962
 20
166.9789318754505
 30
0.000000000000000
 11
304.6832849606627
 21
164.9789316627764
 31
0.000000000000000
  0
LINE
  5
173
100
AcDbEntity
  8
A1
  6
CONTINUOUS
 62
7
100
AcDbLine
 10
316.6832849722928
 20
164.9789295479255
 30
0.000000000000000
 11
316.6832856414262
 21
166.9789297605995
 31
0.000000000000000
  0
LINE
  5
174
100
AcDbEntity
  8
A1
  6
CONTINUOUS
 62
7
100
AcDbLine
 10
305.1832857107179
 20
167.4789317081671
 30
0.000000000000000
 11
316.1832857223480
 21
167.4789299278828
 31
0.000000000000000
  0
LINE
  5
175
100
AcDbEntity
  8
A1
  6
CONTINUOUS
 62
7
100
AcDbLine
 10
305.1832878337498
 20
188.4789315112999
 30
0.000000000000000
 11
307.6832878934282
 21
188.4789306748832
 31
0.000000000000000
  0
LINE
  5
176
100
AcDbEntity
  8
A1
  6
CONTINUOUS
 62
7
100
AcDbLine
 10
316.6832877524590
 20
185.9789304516182
 30
0.000000000000000
 11
316.6832877043990
 21
187.9789299157531
 31
0.000000000000000
  0
LINE
  5
177
100
AcDbEntity
  8
A1
  6
CONTINUOUS
 62
7
100
AcDbLine
 10
304.6832876664666
 20
187.9789315255875
 30
0.000000000000000
 11
304.6832876093158
 21
185.9789304065584
 31
0.000000000000000
  0
ARC
  5
178
100
AcDbEntity
  8
A1
  6
CONTINUOUS
 62
7
100
AcDbCircle
 10
314.9332870513761
 20
183.2289297680587
 30
0.000000000000000
 40
0.7500000000000000
100
AcDbArc
 50
280.1023780000001
 51
460.1030240000001
  0
ARC
  5
179
100
AcDbEntity
  8
A1
  6
CONTINUOUS
 62
7
100
AcDbCircle
 10
306.4332873044259
 20
184.7289308511417
 30
0.000000000000000
 40
0.7500000000000000
100
AcDbArc
 50
89.99999300000005
 51
270.0000030000000
  0
LINE
  5
17A
100
AcDbEntity
  8
A1
  6
CONTINUOUS
 62
7
100
AcDbLine
 10
306.2676112610035
 20
182.2414839144750
 30
0.000000000000000
 11
314.8017231778435
 21
183.9673005211624
 31
0.000000000000000
  0
ARC
  5
17B
100
AcDbEntity
  8
A1
  6
CONTINUOUS
 62
7
100
AcDbCircle
 10
314.9332851813374
 20
168.2289304617285
 30
0.000000000000000
 40
0.7500000000000000
100
AcDbArc
 50
269.9999930000000
 51
449.9999930000000
  0
ARC
  5
17C
100
AcDbEntity
  8
A1
  6
CONTINUOUS
 62
7
100
AcDbCircle
 10
306.4332854309785
 20
168.2289313990204
 30
0.000000000000000
 40
0.7500000000000000
100
AcDbArc
 50
89.99999300000005
 51
269.9999930000000
  0
ARC
  5
17D
100
AcDbEntity
  8
A1
  6
CONTINUOUS
 62
7
100
AcDbCircle
 10
314.9332862124329
 20
175.9199005717345
 30
0.000000000000000
 40
0.7500000000000000
100
AcDbArc
 50
282.7619630000001
 51
460.1030240000001
  0
LINE
  5
17E
100
AcDbEntity
  8
A1
  6
CONTINUOUS
 62
7
100
AcDbLine
 10
306.2676104220603
 20
174.9324547181508
 30
0.000000000000000
 11
314.8017223389001
 21
176.6582713248382
 31
0.000000000000000
  0
LINE
  5
17F
100
AcDbEntity
  8
A1
  6
CONTINUOUS
 62
7
100
AcDbLine
 10
306.4332853932291
 20
168.9789309734750
 30
0.000000000000000
 11
314.9332851435880
 21
168.9789300361830
 31
0.000000000000000
  0
LINE
  5
180
100
AcDbEntity
  8
A1
  6
CONTINUOUS
 62
7
100
AcDbLine
 10
306.5648417722086
 20
173.4626106719651
 30
0.000000000000000
 11
315.0989618219198
 21
175.1884286411524
 31
0.000000000000000
  0
LINE
  5
181
100
AcDbEntity
  8
A1
  6
CONTINUOUS
 62
7
100
AcDbLine
 10
306.2675690070019
 20
170.4829399672211
 30
0.000000000000000
 11
314.8017217460140
 21
172.2087653801716
 31
0.000000000000000
  0
LINE
  5
182
100
AcDbEntity
  8
A1
  6
CONTINUOUS
 62
7
100
AcDbLine
 10
306.5648411793222
 20
169.0131047272984
 30
0.000000000000000
 11
315.0989612290333
 21
170.7389226964856
 31
0.000000000000000
  0
ARC
  5
183
100
AcDbEntity
  8
A1
  6
CONTINUOUS
 62
7
100
AcDbCircle
 10
314.9332856195465
 20
171.4703946270677
 30
0.000000000000000
 40
0.7500000000000000
100
AcDbArc
 50
282.7619630000001
 51
460.1030240000001
  0
ARC
  5
184
100
AcDbEntity
  8
A1
  6
CONTINUOUS
 62
7
100
AcDbCircle
 10
306.4332854386607
 20
169.7514768429023
 30
0.000000000000000
 40
0.7500000000000000
100
AcDbArc
 50
102.7651380000000
 51
280.1023780000001
  0
ARC
  5
185
100
AcDbEntity
  8
A1
  6
CONTINUOUS
 62
7
100
AcDbCircle
 10
306.4332860315471
 20
174.2009827875690
 30
0.000000000000000
 40
0.7500000000000000
100
AcDbArc
 50
102.7619630000001
 51
280.1023780000001
  0
LINE
  5
186
100
AcDbEntity
  8
A1
  6
CONTINUOUS
 62
7
100
AcDbLine
 10
306.5648426259807
 20
177.0892628581524
 30
0.000000000000000
 11
315.0648509397376
 21
178.8081820048178
 31
0.000000000000000
  0
LINE
  5
187
100
AcDbEntity
  8
A1
  6
CONTINUOUS
 62
7
100
AcDbLine
 10
306.3017636761429
 20
178.5660125393591
 30
0.000000000000000
 11
314.8017231926722
 21
180.2849235110253
 31
0.000000000000000
  0
LINE
  5
188
100
AcDbEntity
  8
A1
  6
CONTINUOUS
 62
7
100
AcDbLine
 10
306.5648426111518
 20
180.7716398682895
 30
0.000000000000000
 11
315.0648428709457
 21
182.4905586493368
 31
0.000000000000000
  0
ARC
  5
189
100
AcDbEntity
  8
A1
  6
CONTINUOUS
 62
7
100
AcDbCircle
 10
314.9332870662051
 20
179.5465527579216
 30
0.000000000000000
 40
0.7500000000000000
100
AcDbArc
 50
280.1030240000000
 51
460.1030240000001
  0
ARC
  5
18A
100
AcDbEntity
  8
A1
  6
CONTINUOUS
 62
7
100
AcDbCircle
 10
306.4332868853194
 20
177.8276349737561
 30
0.000000000000000
 40
0.7500000000000000
100
AcDbArc
 50
100.0998620000001
 51
280.1023780000001
  0
ARC
  5
18B
100
AcDbEntity
  8
A1
  6
CONTINUOUS
 62
7
100
AcDbCircle
 10
306.4332868704905
 20
181.5100119838932
 30
0.000000000000000
 40
0.7500000000000000
100
AcDbArc
 50
102.7619630000001
 51
280.1023780000001
  0
ARC
  5
18C
100
AcDbEntity
  8
A1
  6
CONTINUOUS
 62
7
100
AcDbCircle
 10
314.9332870547851
 20
184.7289299138497
 30
0.000000000000000
 40
0.7500000000000000
100
AcDbArc
 50
269.9999930000000
 51
449.9999930000000
  0
LINE
  5
18D
100
AcDbEntity
  8
A1
  6
CONTINUOUS
 62
7
100
AcDbLine
 10
314.9332870925346
 20
183.9789303393949
 30
0.000000000000000
 11
306.4332873421755
 21
183.9789312766870
 31
0.000000000000000
  0
LINE
  5
18E
100
AcDbEntity
  8
A1
  6
CONTINUOUS
 62
7
100
AcDbLine
 10
307.6832871612198
 20
183.6563935939171
 30
0.000000000000000
 11
306.2576582265190
 21
183.9997848414356
 31
0.000000000000000
  0
LINE
  5
18F
100
AcDbEntity
  8
A1
  6
CONTINUOUS
 62
7
100
AcDbLine
 10
305.1832876114673
 20
185.4789303922707
 30
0.000000000000000
 11
316.1832877546103
 21
185.4789304396032
 31
0.000000000000000
  0
LINE
  5
190
100
AcDbEntity
  8
A1
  6
CONTINUOUS
 62
7
100
AcDbLine
 10
313.6832874797104
 20
188.4789307401549
 30
0.000000000000000
 11
316.1832878716825
 21
188.4789299037381
 31
0.000000000000000
  0
LINE
  5
191
100
AcDbEntity
  8
A1
  6
CONTINUOUS
 62
7
100
AcDbLine
 10
307.6832869652270
 20
183.9789313133001
 30
0.000000000000000
 11
307.6832867724970
 21
182.5277704681283
 31
0.000000000000000
  0
LINE
  5
192
100
AcDbEntity
  8
A1
  6
CONTINUOUS
 62
7
100
AcDbLine
 10
313.6832874728918
 20
185.4789304485730
 30
0.000000000000000
 11
313.6832877777908
 21
188.4789307401547
 31
0.000000000000000
  0
LINE
  5
193
100
AcDbEntity
  8
A1
  6
CONTINUOUS
 62
7
100
AcDbLine
 10
313.6832876346526
 20
183.7411237859453
 30
0.000000000000000
 11
313.6832874694829
 21
183.9789303027819
 31
0.000000000000000
  0
LINE
  5
194
100
AcDbEntity
  8
A1
  6
CONTINUOUS
 62
7
100
AcDbLine
 10
307.6832873630038
 20
180.9978188839803
 30
0.000000000000000
 11
307.6832867084179
 21
178.8453924611092
 31
0.000000000000000
  0
LINE
  5
195
100
AcDbEntity
  8
A1
  6
CONTINUOUS
 62
7
100
AcDbLine
 10
307.6832863020430
 20
177.3154409558695
 30
0.000000000000000
 11
307.6832858546459
 21
175.2187402749222
 31
0.000000000000000
  0
LINE
  5
196
100
AcDbEntity
  8
A1
  6
CONTINUOUS
 62
7
100
AcDbLine
 10
313.6832866525996
 20
180.0587468547162
 30
0.000000000000000
 11
313.6832872282774
 21
182.2111722807055
 31
0.000000000000000
  0
LINE
  5
197
100
AcDbEntity
  8
A1
  6
CONTINUOUS
 62
7
100
AcDbLine
 10
313.6832867957091
 20
176.4320945896211
 30
0.000000000000000
 11
313.6832871641984
 21
178.5287942736865
 31
0.000000000000000
  0
LINE
  5
198
100
AcDbEntity
  8
A1
  6
CONTINUOUS
 62
7
100
AcDbLine
 10
307.6832864451528
 20
173.6887886907744
 30
0.000000000000000
 11
307.6832862586415
 21
170.7692342513475
 31
0.000000000000000
  0
LINE
  5
199
100
AcDbEntity
  8
A1
  6
CONTINUOUS
 62
7
100
AcDbLine
 10
307.6832858522665
 20
169.2392827461076
 30
0.000000000000000
 11
307.6832860131627
 21
168.9789309311802
 31
0.000000000000000
  0
LINE
  5
19A
100
AcDbEntity
  8
A1
  6
CONTINUOUS
 62
7
100
AcDbLine
 10
313.6832862028230
 20
171.9825886449543
 30
0.000000000000000
 11
313.6832863893342
 21
174.9021430843813
 31
0.000000000000000
  0
LINE
  5
19B
100
AcDbEntity
  8
A1
  6
CONTINUOUS
 62
7
100
AcDbLine
 10
313.6832855205365
 20
168.9789299995699
 30
0.000000000000000
 11
313.6832857175398
 21
170.4526361428325
 31
0.000000000000000
  0
LINE
  5
19C
100
AcDbEntity
  8
A1
  6
CONTINUOUS
 62
7
100
AcDbLine
 10
307.6832850849613
 20
164.4789315695970
 30
0.000000000000000
 11
307.6832833667867
 21
153.4469120492442
 31
0.000000000000000
  0
ARC
  5
19D
100
AcDbEntity
  8
A1
  6
CONTINUOUS
 62
7
100
AcDbCircle
 10
305.8832834484615
 20
181.4158898825647
 30
0.000000000000000
 40
4.000000000000000
100
AcDbArc
 50
86.64817223625037
 51
180.0000000000001
  0
LINE
  5
19E
100
AcDbEntity
  8
A1
  6
CONTINUOUS
 62
7
100
AcDbLine
 10
313.6832861846880
 20
170.2001327759623
 30
0.000000000000000
 11
315.1968366721231
 21
170.7682259118213
 31
0.000000000000000
  0
LINE
  5
19F
100
AcDbEntity
  8
A1
  6
CONTINUOUS
 62
7
100
AcDbLine
 10
313.6832865553960
 20
174.1038990689518
 30
0.000000000000000
 11
315.3695658202486
 21
175.3098514303580
 31
0.000000000000000
  0
LINE
  5
1A0
100
AcDbEntity
  8
A1
  6
CONTINUOUS
 62
7
100
AcDbLine
 10
313.6832866909270
 20
177.8866480367311
 30
0.000000000000000
 11
315.3291769302031
 21
178.9095506482604
 31
0.000000000000000
  0
LINE
  5
1A1
100
AcDbEntity
  8
A1
  6
CONTINUOUS
 62
7
100
AcDbLine
 10
313.6832873768762
 20
181.5585533397722
 30
0.000000000000000
 11
315.3320854520235
 21
182.5937458208105
 31
0.000000000000000
  0
LINE
  5
1A2
100
AcDbEntity
  8
A1
  6
CONTINUOUS
 62
7
100
AcDbLine
 10
307.6832860925796
 20
171.5674782667772
 30
0.000000000000000
 11
305.9970058308452
 21
170.3615259842789
 31
0.000000000000000
  0
LINE
  5
1A3
100
AcDbEntity
  8
A1
  6
CONTINUOUS
 62
7
100
AcDbLine
 10
307.6832864068251
 20
175.8608875087591
 30
0.000000000000000
 11
306.0373961675488
 21
174.8379848972296
 31
0.000000000000000
  0
LINE
  5
1A4
100
AcDbEntity
  8
A1
  6
CONTINUOUS
 62
7
100
AcDbLine
 10
307.6832866387269
 20
179.4980123989245
 30
0.000000000000000
 11
306.0344885635794
 21
178.4628199178862
 31
0.000000000000000
  0
LINE
  5
1A5
100
AcDbEntity
  8
A1
  6
CONTINUOUS
 62
7
100
AcDbLine
 10
307.6832872608636
 20
182.7763826264346
 30
0.000000000000000
 11
306.1713216117848
 21
182.2127744186003
 31
0.000000000000000
  0
LINE
  5
1A6
100
AcDbEntity
  8
A1
  6
CONTINUOUS
 62
7
100
AcDbLine
 10
306.3832834703015
 20
124.7898603980552
 30
0.000000000000000
 11
307.7537945113905
 21
124.1801887763990
 31
0.000000000000000
  0
ARC
  5
1A7
100
AcDbEntity
  8
A1
  6
CONTINUOUS
 62
7
100
AcDbCircle
 10
286.5556099208412
 20
133.1033050280517
 30
0.000000000000000
 40
21.50000000000000
100
AcDbArc
 50
337.2524303793622
 51
404.5274106067600
  0
ARC
  5
1A8
100
AcDbEntity
  8
A1
  6
CONTINUOUS
 62
7
100
AcDbCircle
 10
286.5556099208412
 20
133.1033050280517
 30
0.000000000000000
 40
23.00000000000000
100
AcDbArc
 50
337.1719204615171
 51
400.9588393441169
  0
LINE
  5
1A9
100
AcDbEntity
  8
A4
  6
CENTER
 62
1
100
AcDbLine
 10
307.1832834042844
 20
155.6826156841379
 30
0.000000000000000
 11
314.1832834042844
 21
155.6826156841379
 31
0.000000000000000
  0
LINE
  5
1AA
100
AcDbEntity
  8
A4
  6
CENTER
 62
1
100
AcDbLine
 10
310.6832834042844
 20
159.1826156841379
 30
0.000000000000000
 11
310.6832834042845
 21
152.1826156841379
 31
0.000000000000000
  0
ARC
  5
1AB
100
AcDbEntity
  8
A1
  6
CONTINUOUS
 62
7
100
AcDbCircle
 10
305.8832834484615
 20
181.4158898825647
 30
0.000000000000000
 40
2.500000000000000
100
AcDbArc
 50
90.00000000000014
 51
180.0000000000000
  0
LINE
  5
1AC
100
AcDbEntity
  8
A1
  6
CONTINUOUS
 62
7
100
AcDbLine
 10
303.3832834484615
 20
181.4158898825647
 30
0.000000000000000
 11
303.3832834484615
 21
178.2658898825676
 31
0.000000000000000
  0
LINE
  5
1AD
100
AcDbEntity
  8
A1
  6
CONTINUOUS
 62
7
100
AcDbLine
 10
303.3832834484588
 20
177.5158898825689
 30
0.000000000000000
 11
305.8352107347852
 21
177.5158898825648
 31
0.000000000000000
  0
ARC
  5
1AE
100
AcDbEntity
  8
A1
  6
CONTINUOUS
 62
7
100
AcDbCircle
 10
303.3832834484615
 20
179.0158898825688
 30
0.000000000000000
 40
1.500000000000000
100
AcDbArc
 50
180.0000000000002
 51
270.0000000000002
  0
ARC
  5
1AF
100
AcDbEntity
  8
A1
  6
CONTINUOUS
 62
7
100
AcDbCircle
 10
304.1332834484615
 20
178.2658898825676
 30
0.000000000000000
 40
0.7500000000000000
100
AcDbArc
 50
180.0000000000002
 51
270.0000000000002
  0
ARC
  5
1B0
100
AcDbEntity
  8
A1
  6
CONTINUOUS
 62
7
100
AcDbCircle
 10
305.1832876664666
 20
187.9789315112999
 30
0.000000000000000
 40
0.5000000000000000
100
AcDbArc
 50
90.00000000000014
 51
180.0000000000001
  0
ARC
  5
1B1
100
AcDbEntity
  8
A1
  6
CONTINUOUS
 62
7
100
AcDbCircle
 10
316.1832877043992
 20
187.9789299037382
 30
0.000000000000000
 40
0.5000000000000000
100
AcDbArc
 50
1.526666247102488e-13
 51
90.00000000000014
  0
ARC
  5
1B2
100
AcDbEntity
  8
A1
  6
CONTINUOUS
 62
7
100
AcDbCircle
 10
316.1832877524589
 20
185.9789304396032
 30
0.000000000000000
 40
0.5000000000000000
100
AcDbArc
 50
270.0000000000002
 51
360.0000000000002
  0
ARC
  5
1B3
100
AcDbEntity
  8
A1
  6
CONTINUOUS
 62
7
100
AcDbCircle
 10
305.1832876093158
 20
185.9789303922708
 30
0.000000000000000
 40
0.5000000000000000
100
AcDbArc
 50
180.0000000000002
 51
270.0000000000002
  0
ARC
  5
1B4
100
AcDbEntity
  8
A1
  6
CONTINUOUS
 62
7
100
AcDbCircle
 10
316.1832856414262
 20
166.9789299278829
 30
0.000000000000000
 40
0.5000000000000000
100
AcDbArc
 50
1.526666247102488e-13
 51
90.00000000000014
  0
ARC
  5
1B5
100
AcDbEntity
  8
A1
  6
CONTINUOUS
 62
7
100
AcDbCircle
 10
305.1832856297960
 20
166.9789317081672
 30
0.000000000000000
 40
0.5000000000000000
100
AcDbArc
 50
90.00000000000014
 51
180.0000000000001
  0
ARC
  5
1B6
100
AcDbEntity
  8
A1
  6
CONTINUOUS
 62
7
100
AcDbCircle
 10
305.1832849606626
 20
164.9789314954930
 30
0.000000000000000
 40
0.5000000000000000
100
AcDbArc
 50
180.0000000000002
 51
270.0000000000002
  0
ARC
  5
1B7
100
AcDbEntity
  8
A1
  6
CONTINUOUS
 62
7
100
AcDbCircle
 10
316.1832849722928
 20
164.9789297152088
 30
0.000000000000000
 40
0.5000000000000000
100
AcDbArc
 50
270.0000000000002
 51
360.0000000000002
  0
LINE
  5
1B8
100
AcDbEntity
  8
A3
  6
DASHED
 62
2
100
AcDbLine
 10
315.6832834703017
 20
136.0158925113383
 30
0.000000000000000
 11
317.6832834703612
 21
136.0158925113390
 31
0.000000000000000
  0
LINE
  5
1B9
100
AcDbEntity
  8
A3
  6
DASHED
 62
2
100
AcDbLine
 10
315.6832834703018
 20
130.8158925113840
 30
0.000000000000000
 11
317.6832834703613
 21
130.8158925113855
 31
0.000000000000000
  0
LINE
  5
1BA
100
AcDbEntity
  8
A4
  6
CENTER
 62
1
100
AcDbLine
 10
319.1832834703610
 20
133.4158925113617
 30
0.000000000000000
 11
314.1832834703014
 21
133.4158925113617
 31
0.000000000000000
  0
LINE
  5
1BB
100
AcDbEntity
  8
A3
  6
DASHED
 62
2
100
AcDbLine
 10
315.6832834703017
 20
150.0158925112767
 30
0.000000000000000
 11
317.6832834703612
 21
150.0158925112774
 31
0.000000000000000
  0
LINE
  5
1BC
100
AcDbEntity
  8
A3
  6
DASHED
 62
2
100
AcDbLine
 10
315.6832834703017
 20
144.8158925113224
 30
0.000000000000000
 11
317.6832834703610
 21
144.8158925113240
 31
0.000000000000000
  0
LINE
  5
1BD
100
AcDbEntity
  8
A4
  6
CENTER
 62
1
100
AcDbLine
 10
319.1832834703609
 20
147.4158925113002
 30
0.000000000000000
 11
314.1832834703016
 21
147.4158925113001
 31
0.000000000000000
  0
LINE
  5
1BE
100
AcDbEntity
  8
A3
  6
DASHED
 62
2
100
AcDbLine
 10
315.6832834703017
 20
164.0158925112765
 30
0.000000000000000
 11
317.6832834703017
 21
164.0158925112773
 31
0.000000000000000
  0
LINE
  5
1BF
100
AcDbEntity
  8
A3
  6
DASHED
 62
2
100
AcDbLine
 10
315.6832834703017
 20
158.8158925113221
 30
0.000000000000000
 11
317.6832834703015
 21
158.8158925113237
 31
0.000000000000000
  0
LINE
  5
1C0
100
AcDbEntity
  8
A4
  6
CENTER
 62
1
100
AcDbLine
 10
319.5015154703610
 20
161.4158925113001
 30
0.000000000000000
 11
314.5015154703014
 21
161.4158925113001
 31
0.000000000000000
  0
CIRCLE
  5
1C1
100
AcDbEntity
  8
A1
  6
CONTINUOUS
 62
7
100
AcDbCircle
 10
310.6832834042845
 20
155.6826156841379
 30
0.000000000000000
 40
2.000000000000000
  0
LINE
  5
1C2
100
AcDbEntity
  8
A1
  6
CONTINUOUS
 62
7
100
AcDbLine
 10
307.6832880111721
 20
188.4789306748832
 30
0.000000000000000
 11
307.6832879655178
 21
185.4789313801832
 31
0.000000000000000
  0
LINE
  5
1C3
100
AcDbEntity
  8
A1
  6
CONTINUOUS
 62
7
100
AcDbLine
 10
316.1101130850224
 20
196.8450778571762
 30
0.000000000000000
 11
313.6832874797101
 21
188.4789307401548
 31
0.000000000000000
  0
LINE
  5
1C4
100
AcDbEntity
  8
A1
  6
CONTINUOUS
 62
7
100
AcDbLine
 10
310.3161190008399
 20
198.4501119224143
 30
0.000000000000000
 11
307.6832878934281
 21
188.4789306748833
 31
0.000000000000000
  0
CIRCLE
  5
1C5
100
AcDbEntity
  8
A1
  6
CONTINUOUS
 62
7
100
AcDbCircle
 10
312.4615671723844
 20
195.4419324774997
 30
0.000000000000000
 40
2.000000000000000
  0
LINE
  5
1C6
100
AcDbEntity
  8
A4
  6
CENTER
 62
1
100
AcDbLine
 10
308.9615671723844
 20
195.4419324774997
 30
0.000000000000000
 11
315.9615671723844
 21
195.4419324774997
 31
0.000000000000000
  0
LINE
  5
1C7
100
AcDbEntity
  8
A4
  6
CENTER
 62
1
100
AcDbLine
 10
312.4615671723844
 20
198.9419324774997
 30
0.000000000000000
 11
312.4615671723844
 21
191.9419324774997
 31
0.000000000000000
  0
ARC
  5
1C8
100
AcDbEntity
  8
A1
  6
CONTINUOUS
 62
7
100
AcDbCircle
 10
313.2228173456390
 20
197.6826155113000
 30
0.000000000000000
 40
3.000000000000000
100
AcDbArc
 50
343.8237794488695
 51
525.2089628277614
  0
LINE
  5
1C9
100
AcDbEntity
  8
A1
  6
CONTINUOUS
 62
7
100
AcDbLine
 10
315.6515301899001
 20
168.0130042991757
 30
0.000000000000000
 11
315.7825826316799
 21
168.4489299927342
 31
0.000000000000000
  0
LINE
  5
1CA
100
AcDbEntity
  8
A1
  6
CONTINUOUS
 62
7
100
AcDbLine
 10
305.8832834484646
 20
183.9158898825647
 30
0.000000000000000
 11
306.6059579624801
 21
183.9158898825638
 31
0.000000000000000
  0
LINE
  5
1CB
100
AcDbEntity
  8
A1
  6
CONTINUOUS
 62
7
100
AcDbLine
 10
315.6832834703017
 20
127.4158925113002
 30
0.000000000000000
 11
317.6832834703017
 21
127.4158925113002
 31
0.000000000000000
  0
LINE
  5
1CC
100
AcDbEntity
  8
A1
  6
CONTINUOUS
 62
7
100
AcDbLine
 10
141.5908202778530
 20
263.4376244205934
 30
0.000000000000000
 11
141.6721204649223
 21
263.4376244138955
 31
0.000000000000000
  0
LINE
  5
1CD
100
AcDbEntity
  8
A1
  6
CONTINUOUS
 62
7
100
AcDbLine
 10
139.1425827666383
 20
263.4376246222882
 30
0.000000000000000
 11
139.3853344838144
 21
263.4376246022894
 31
0.000000000000000
  0
LINE
  5
1CE
100
AcDbEntity
  8
A1
  6
CONTINUOUS
 62
7
100
AcDbLine
 10
141.6721204649225
 20
263.4376272563730
 30
0.000000000000000
 11
142.1425827666385
 21
263.4376272563730
 31
0.000000000000000
  0
LINE
  5
1CF
100
AcDbEntity
  8
A1
  6
CONTINUOUS
 62
7
100
AcDbLine
 10
143.1425827667629
 20
263.4376237414324
 30
0.000000000000000
 11
142.1425827666383
 21
263.4376237414324
 31
0.000000000000000
  0
LINE
  5
1D0
100
AcDbEntity
  8
A1
  6
CONTINUOUS
 62
7
100
AcDbLine
 10
142.6061284592943
 20
263.4376272563730
 30
0.000000000000000
 11
143.1425827667631
 21
263.4376272563730
 31
0.000000000000000
  0
LINE
  5
1D1
100
AcDbEntity
  8
A1
  6
CONTINUOUS
 62
7
100
AcDbLine
 10
142.6061284592939
 20
263.4376245526437
 30
0.000000000000000
 11
141.5908204295747
 21
263.4376246362885
 31
0.000000000000000
  0
LINE
  5
1D2
100
AcDbEntity
  8
A1
  6
CONTINUOUS
 62
7
100
AcDbLine
 10
139.1425827666385
 20
263.4376272563729
 30
0.000000000000000
 11
139.3802860805963
 21
263.4376272563729
 31
0.000000000000000
  0
LINE
  5
1D3
100
AcDbEntity
  8
A1
  6
CONTINUOUS
 62
7
100
AcDbLine
 10
139.3802860805963
 20
263.4376272563729
 30
0.000000000000000
 11
139.3866751238124
 21
263.4376272563729
 31
0.000000000000000
  0
LINE
  5
1D4
100
AcDbEntity
  8
A1
  6
CONTINUOUS
 62
7
100
AcDbLine
 10
137.6425827666383
 20
271.9376281473587
 30
0.000000000000000
 11
137.6425827666383
 21
272.4376279800754
 31
0.000000000000000
  0
LINE
  5
1D5
100
AcDbEntity
  8
A1
  6
CONTINUOUS
 62
7
100
AcDbLine
 10
139.1425827666382
 20
271.9376281473587
 30
0.000000000000000
 11
139.1425827666382
 21
272.4376279800754
 31
0.000000000000000
  0
LINE
  5
1D6
100
AcDbEntity
  8
A1
  6
CONTINUOUS
 62
7
100
AcDbLine
 10
139.1425827666382
 20
272.4376279800754
 30
0.000000000000000
 11
137.6425827666383
 21
272.4376279800754
 31
0.000000000000000
  0
LINE
  5
1D7
100
AcDbEntity
  8
A1
  6
CONTINUOUS
 62
7
100
AcDbLine
 10
137.6425827666383
 20
260.4376279421429
 30
0.000000000000000
 11
137.6425827666383
 21
260.9376279421429
 31
0.000000000000000
  0
LINE
  5
1D8
100
AcDbEntity
  8
A1
  6
CONTINUOUS
 62
7
100
AcDbLine
 10
139.1425827666382
 20
260.4376279421429
 30
0.000000000000000
 11
139.1425827666382
 21
260.9376279421429
 31
0.000000000000000
  0
LINE
  5
1D9
100
AcDbEntity
  8
A1
  6
CONTINUOUS
 62
7
100
AcDbLine
 10
139.1425827666383
 20
260.4376279421429
 30
0.000000000000000
 11
137.6425827666383
 21
260.4376279421429
 31
0.000000000000000
  0
LINE
  5
1DA
100
AcDbEntity
  8
A1
  6
CONTINUOUS
 62
7
100
AcDbLine
 10
139.1425827666383
 20
263.6793012292579
 30
0.000000000000000
 11
139.1425827666383
 21
260.9376279421427
 31
0.000000000000000
  0
LINE
  5
1DB
100
AcDbEntity
  8
A1
  6
CONTINUOUS
 62
7
100
AcDbLine
 10
139.1425827666383
 20
271.9376281473587
 30
0.000000000000000
 11
139.1425827666383
 21
270.1392468195982
 31
0.000000000000000
  0
LINE
  5
1DC
100
AcDbEntity
  8
A1
  6
CONTINUOUS
 62
7
100
AcDbLine
 10
137.6425827666383
 20
263.4657970279638
 30
0.000000000000000
 11
137.6425827666383
 21
260.9376279421427
 31
0.000000000000000
  0
LINE
  5
1DD
100
AcDbEntity
  8
A1
  6
CONTINUOUS
 62
7
100
AcDbLine
 10
137.6425827666383
 20
271.9376281473587
 30
0.000000000000000
 11
137.6425827666383
 21
270.0989917532870
 31
0.000000000000000
  0
SPLINE
  5
1DE
100
AcDbEntity
  8
A1
  6
CONTINUOUS
 62
7
100
AcDbSpline
210
0.000000000000000
220
0.000000000000000
230
1.000000000000000
 70
     8
 71
     3
 72
    21
 73
    17
 74
     0
 42
1.000000000000000e-07
 43
1.000000000000000e-07
 12
-0.9998920699699738
 22
-0.01469178035767982
 32
0.000000000000000
 13
0.002769257615682363
 23
0.9999961655980769
 33
0.000000000000000
 40
0.000000000000000
 40
0.000000000000000
 40
0.000000000000000
 40
0.000000000000000
 40
0.08218019990363330
 40
0.5134405730424143
 40
0.9455320061790979
 40
1.374995870730721
 40
1.799534108877940
 40
2.224111618748726
 40
2.654518001352863
 40
3.096344611050160
 40
3.543604662853336
 40
3.992116826557350
 40
4.438099875586456
 40
4.877879230010151
 40
5.308525182276627
 40
5.558629022472673
 40
5.558629022472673
 40
5.558629022472673
 40
5.558629022472673
 10
137.6429671507771
 20
262.9372824246750
 30
0.000000000000000
 10
137.6155767073797
 20
262.9368799668594
 30
0.000000000000000
 10
137.4444251116763
 20
262.9363915060302
 30
0.000000000000000
 10
137.1291578933052
 20
262.9594141862945
 30
0.000000000000000
 10
136.7053341141807
 20
263.0427540026809
 30
0.000000000000000
 10
136.2967816837449
 20
263.1761758759847
 30
0.000000000000000
 10
135.9098883638822
 20
263.3573800546581
 30
0.000000000000000
 10
135.5474162832473
 20
263.5842348143914
 30
0.000000000000000
 10
135.2119890253594
 20
263.8586470049286
 30
0.000000000000000
 10
134.9072490701112
 20
264.1774039533298
 30
0.000000000000000
 10
134.6422085945814
 20
264.5374219417878
 30
0.000000000000000
 10
134.4230833965953
 20
264.9286902769582
 30
0.000000000000000
 10
134.2576342480004
 20
265.3429139321373
 30
0.000000000000000
 10
134.1479018027914
 20
265.7689144957255
 30
0.000000000000000
 10
134.0990066288100
 20
266.1401939798216
 30
0.000000000000000
 10
134.0916059738093
 20
266.3671908771078
 30
0.000000000000000
 10
134.0918368411307
 20
266.4505585041736
 30
0.000000000000000
  0
SPLINE
  5
1DF
100
AcDbEntity
  8
A1
  6
CONTINUOUS
 62
7
100
AcDbSpline
210
0.000000000000000
220
0.000000000000000
230
1.000000000000000
 70
     8
 71
     3
 72
    13
 73
     9
 74
     0
 42
1.000000000000000e-07
 43
1.000000000000000e-07
 12
-0.7518173620064772
 22
0.6593714083792293
 32
0.000000000000000
 13
-0.9498388029210219
 23
0.3127399054578746
 33
0.000000000000000
 40
0.000000000000000
 40
0.000000000000000
 40
0.000000000000000
 40
0.000000000000000
 40
0.09018093893727459
 40
0.4722491148426329
 40
0.8942940236597081
 40
1.276665575996094
 40
1.686924432718834
 40
2.028152251245241
 40
2.028152251245241
 40
2.028152251245241
 40
2.028152251245241
 10
140.8971546263843
 20
270.1884280109636
 30
0.000000000000000
 10
140.8745547611793
 20
270.2082489218689
 30
0.000000000000000
 10
140.7552585559299
 20
270.3109609873590
 30
0.000000000000000
 10
140.5199762512400
 20
270.4945417010233
 30
0.000000000000000
 10
140.1891925269839
 20
270.7121831307005
 30
0.000000000000000
 10
139.8340244060498
 20
270.9073580101247
 30
0.000000000000000
 10
139.4892984372466
 20
271.0633181138838
 30
0.000000000000000
 10
139.2539070749478
 20
271.1495934470704
 30
0.000000000000000
 10
139.1458699340570
 20
271.1851652989722
 30
0.000000000000000
  0
SPLINE
  5
1E0
100
AcDbEntity
  8
A1
  6
CONTINUOUS
 62
7
100
AcDbSpline
210
0.000000000000000
220
0.000000000000000
230
1.000000000000000
 70
     8
 71
     3
 72
    11
 73
     7
 74
     0
 42
1.000000000000000e-07
 43
1.000000000000000e-07
 12
0.9223927901406341
 22
0.3862532080088386
 32
0.000000000000000
 13
0.6853572086024542
 23
0.7282070424125777
 33
0.000000000000000
 40
0.000000000000000
 40
0.000000000000000
 40
0.000000000000000
 40
0.000000000000000
 40
0.4494853972667940
 40
0.9567919316275879
 40
1.474895996079993
 40
1.660257333007414
 40
1.660257333007414
 40
1.660257333007414
 40
1.660257333007414
 10
139.1443166355364
 20
262.7568005521839
 30
0.000000000000000
 10
139.2825173321072
 20
262.8146722777331
 30
0.000000000000000
 10
139.5699942182555
 20
262.9546350833736
 30
0.000000000000000
 10
139.9835086477968
 20
263.2229591893265
 30
0.000000000000000
 10
140.2917382244971
 20
263.4854586823573
 30
0.000000000000000
 10
140.4563852525160
 20
263.6525040756176
 30
0.000000000000000
 10
140.4987314953358
 20
263.6974978859315
 30
0.000000000000000
  0
SPLINE
  5
1E1
100
AcDbEntity
  8
A1
  6
CONTINUOUS
 62
7
100
AcDbSpline
210
0.000000000000000
220
0.000000000000000
230
1.000000000000000
 70
     8
 71
     3
 72
    20
 73
    16
 74
     0
 42
1.000000000000000e-07
 43
1.000000000000000e-07
 12
0.002055090014891903
 22
-0.9999978883010954
 32
0.000000000000000
 13
0.9999070164194563
 23
0.01363666061752156
 33
0.000000000000000
 40
0.000000000000000
 40
0.000000000000000
 40
0.000000000000000
 40
0.000000000000000
 40
0.4571822783249478
 40
0.9780850614732588
 40
1.507919957186283
 40
2.042409377267643
 40
2.576538379004462
 40
3.105277623217443
 40
3.620510837786225
 40
4.127110737396010
 40
4.636817241989649
 40
5.157951333012282
 40
5.688030168699190
 40
6.222421278461607
 40
6.320984168740176
 40
6.320984168740176
 40
6.320984168740176
 40
6.320984168740176
 10
133.5980786622945
 20
266.4382521870498
 30
0.000000000000000
 10
133.5983918458729
 20
266.2858584160853
 30
0.000000000000000
 10
133.6173264002173
 20
265.9595778147950
 30
0.000000000000000
 10
133.7073267539737
 20
265.4636887245349
 30
0.000000000000000
 10
133.8686838732865
 20
264.9588189285922
 30
0.000000000000000
 10
134.0997837528596
 20
264.4769327314413
 30
0.000000000000000
 10
134.3913992887006
 20
264.0296083805738
 30
0.000000000000000
 10
134.7355826459319
 20
263.6297887144652
 30
0.000000000000000
 10
135.1214958526354
 20
263.2837924082149
 30
0.000000000000000
 10
135.5440965880423
 20
262.9948317273474
 30
0.000000000000000
 10
136.0018930710442
 20
262.7614145349713
 30
0.000000000000000
 10
136.4933694316536
 20
262.5861570971461
 30
0.000000000000000
 10
137.0114038193659
 20
262.4743600766485
 30
0.000000000000000
 10
137.3991658201876
 20
262.4428444437062
 30
0.000000000000000
 10
137.6101570625354
 20
262.4430878281082
 30
0.000000000000000
 10
137.6430083043848
 20
262.4435358510029
 30
0.000000000000000
  0
SPLINE
  5
1E2
100
AcDbEntity
  8
A1
  6
CONTINUOUS
 62
7
100
AcDbSpline
210
0.000000000000000
220
0.000000000000000
230
1.000000000000000
 70
     8
 71
     3
 72
    15
 73
    11
 74
     0
 42
1.000000000000000e-07
 43
1.000000000000000e-07
 12
0.9508038642335350
 22
0.3097934985744359
 32
0.000000000000000
 13
0.5292137792789617
 23
0.8484885242719429
 33
0.000000000000000
 40
0.000000000000000
 40
0.000000000000000
 40
0.000000000000000
 40
0.000000000000000
 40
0.4869362946189632
 40
0.8792393285877469
 40
1.287053675195216
 40
1.714162706474049
 40
2.165544025433272
 40
2.645240069433428
 40
3.149130559410779
 40
3.490829895194438
 40
3.490829895194438
 40
3.490829895194438
 40
3.490829895194438
 10
139.1425053448628
 20
261.6851323225926
 30
0.000000000000000
 10
139.2968323150492
 20
261.7354155553568
 30
0.000000000000000
 10
139.5713413828899
 20
261.8396696441332
 30
0.000000000000000
 10
139.9579726312645
 20
262.0264860403653
 30
0.000000000000000
 10
140.3113174749708
 20
262.2335737820900
 30
0.000000000000000
 10
140.6616274826730
 20
262.4817757772659
 30
0.000000000000000
 10
141.0066125961183
 20
262.7758710166264
 30
0.000000000000000
 10
141.3415201047778
 20
263.1183964748278
 30
0.000000000000000
 10
141.6176424781986
 20
263.4642384722430
 30
0.000000000000000
 10
141.7748991241312
 20
263.6984153687024
 30
0.000000000000000
 10
141.8351764564203
 20
263.7950580237570
 30
0.000000000000000
  0
SPLINE
  5
1E3
100
AcDbEntity
  8
A1
  6
CONTINUOUS
 62
7
100
AcDbSpline
210
0.000000000000000
220
0.000000000000000
230
1.000000000000000
 70
     8
 71
     3
 72
    25
 73
    21
 74
     0
 42
1.000000000000000e-07
 43
1.000000000000000e-07
 12
-0.004473005964882759
 22
-0.9999899960589573
 32
0.000000000000000
 13
0.9999581273439162
 23
0.009151150662091823
 33
0.000000000000000
 40
0.000000000000000
 40
0.000000000000000
 40
0.000000000000000
 40
0.000000000000000
 40
0.4814135937369332
 40
1.098795707706095
 40
1.569876051477119
 40
2.045893868973226
 40
2.524710057483278
 40
3.003974665841593
 40
3.479843260959462
 40
3.944368233226630
 40
4.393097932311367
 40
4.825823226805648
 40
5.386197526627133
 40
5.936992196174932
 40
6.484598308724990
 40
6.756686374755176
 40
7.039098707951877
 40
7.355730637254552
 40
7.707065087411213
 40
7.924520756630217
 40
7.924520756630217
 40
7.924520756630217
 40
7.924520756630217
 10
132.5933336173753
 20
266.4666203893362
 30
0.000000000000000
 10
132.5926158287499
 20
266.3061507967683
 30
0.000000000000000
 10
132.6083627593290
 20
265.9396022045430
 30
0.000000000000000
 10
132.6885989064463
 20
265.4210996778763
 30
0.000000000000000
 10
132.8227798669854
 20
264.9164482281873
 30
0.000000000000000
 10
132.9881941093930
 20
264.4700328537297
 30
0.000000000000000
 10
133.1979820526461
 20
264.0396533130541
 30
0.000000000000000
 10
133.4475520645178
 20
263.6311834989992
 30
0.000000000000000
 10
133.7312111535813
 20
263.2515307283587
 30
0.000000000000000
 10
134.0424787215288
 20
262.9078049232840
 30
0.000000000000000
 10
134.3732066256371
 20
262.6037530202902
 30
0.000000000000000
 10
134.7543837924377
 20
262.3100647357508
 30
0.000000000000000
 10
135.1932762772840
 20
262.0390555817220
 30
0.000000000000000
 10
135.6939804620080
 20
261.8020073140816
 30
0.000000000000000
 10
136.1267441234818
 20
261.6525843423890
 30
0.000000000000000
 10
136.4827781902489
 20
261.5614556063804
 30
0.000000000000000
 10
136.7677269214301
 20
261.5047726035309
 30
0.000000000000000
 10
137.0817285963979
 20
261.4613382817013
 30
0.000000000000000
 10
137.3763863339303
 20
261.4403287771705
 30
0.000000000000000
 10
137.5660318346306
 20
261.4378964607534
 30
0.000000000000000
 10
137.6385140225548
 20
261.4385597839506
 30
0.000000000000000
  0
ARC
  5
1E4
100
AcDbEntity
  8
A1
  6
CONTINUOUS
 62
7
100
AcDbCircle
 10
137.6297815926545
 20
266.3817957989515
 30
0.000000000000000
 40
3.434440644387287
100
AcDbArc
 50
296.1167516394091
 51
308.3225471194733
  0
ARC
  5
1E5
100
AcDbEntity
  8
A1
  6
CONTINUOUS
 62
7
100
AcDbCircle
 10
137.5925291603825
 20
266.4376237935998
 30
0.000000000000000
 40
4.999999999999106
100
AcDbArc
 50
90.00000000000006
 51
179.9999999999999
  0
ARC
  5
1E6
100
AcDbEntity
  8
A1
  6
CONTINUOUS
 62
7
100
AcDbCircle
 10
137.5925291603825
 20
266.4376237935998
 30
0.000000000000000
 40
3.499999999999105
100
AcDbArc
 50
114.1194559777165
 51
179.9999999999998
  0
LINE
  5
1E7
100
AcDbEntity
  8
A1
  6
CONTINUOUS
 62
7
100
AcDbLine
 10
134.0918368411308
 20
266.4505585041738
 30
0.000000000000000
 11
134.0924913022940
 21
266.5054050325675
 31
0.000000000000000
  0
LINE
  5
1E8
100
AcDbEntity
  8
A1
  6
CONTINUOUS
 62
7
100
AcDbLine
 10
137.6427552481367
 20
270.4305832996801
 30
0.000000000000000
 11
137.5925291603825
 21
270.4309123837998
 31
0.000000000000000
  0
LINE
  5
1E9
100
AcDbEntity
  8
A1
  6
CONTINUOUS
 62
7
100
AcDbLine
 10
137.6439398094964
 20
271.4366312290436
 30
0.000000000000000
 11
137.5925291603825
 21
271.4369066909510
 31
0.000000000000000
  0
LINE
  5
1EA
100
AcDbEntity
  8
A1
  6
CONTINUOUS
 62
7
100
AcDbLine
 10
137.5925291603825
 20
271.4376237935989
 30
0.000000000000000
 11
137.5925291603825
 21
270.4309123837998
 31
0.000000000000000
  0
LINE
  5
1EB
100
AcDbEntity
  8
A1
  6
CONTINUOUS
 62
7
100
AcDbLine
 10
137.5925291603825
 20
270.4309123837998
 30
0.000000000000000
 11
137.5925291603825
 21
270.0915254369793
 31
0.000000000000000
  0
LINE
  5
1EC
100
AcDbEntity
  8
A1
  6
CONTINUOUS
 62
7
100
AcDbLine
 10
132.5925291603835
 20
266.4376237935998
 30
0.000000000000000
 11
134.0925291603834
 21
266.4376237935998
 31
0.000000000000000
  0
SPLINE
  5
1ED
100
AcDbEntity
  8
A1
  6
CONTINUOUS
 62
7
100
AcDbSpline
210
0.000000000000000
220
0.000000000000000
230
1.000000000000000
 70
     8
 71
     3
 72
    16
 73
    12
 74
     0
 42
1.000000000000000e-07
 43
1.000000000000000e-07
 12
0.09804597639868007
 22
0.9951818861445645
 32
0.000000000000000
 13
0.9999996342546638
 23
-0.0008552720796615176
 33
0.000000000000000
 40
0.000000000000000
 40
0.000000000000000
 40
0.000000000000000
 40
0.000000000000000
 40
0.09806299385584330
 40
0.2269578387069087
 40
0.4026794002405774
 40
0.6298831573548792
 40
0.9040628360202578
 40
1.208161489062145
 40
1.532213168119212
 40
1.860869535774616
 40
2.180378551317838
 40
2.180378551317838
 40
2.180378551317838
 40
2.180378551317838
 10
136.1425827666384
 20
269.5393798736625
 30
0.000000000000000
 10
136.1457876606321
 20
269.5719100453913
 30
0.000000000000000
 10
136.1650792660276
 20
269.6480309529456
 30
0.000000000000000
 10
136.2635839555401
 20
269.7456929372491
 30
0.000000000000000
 10
136.4149496501491
 20
269.8379892800230
 30
0.000000000000000
 10
136.6255344499858
 20
269.9222501642873
 30
0.000000000000000
 10
136.8843764560839
 20
269.9943867963171
 30
0.000000000000000
 10
137.1800280989250
 20
270.0513366413697
 30
0.000000000000000
 10
137.4966054479458
 20
270.0914323675314
 30
0.000000000000000
 10
137.8199918589460
 20
270.1145112032546
 30
0.000000000000000
 10
138.0360798004103
 20
270.1196246634193
 30
0.000000000000000
 10
138.1425827666384
 20
270.1195335743726
 30
0.000000000000000
  0
SPLINE
  5
1EE
100
AcDbEntity
  8
A1
  6
CONTINUOUS
 62
7
100
AcDbSpline
210
0.000000000000000
220
0.000000000000000
230
1.000000000000000
 70
     8
 71
     3
 72
    15
 73
    11
 74
     0
 42
1.000000000000000e-07
 43
1.000000000000000e-07
 12
-0.1832673638773485
 22
-0.1963623798828849
 32
0.000000000000000
 13
-0.9999996342551185
 23
0.0008552720805710123
 33
0.000000000000000
 40
0.000000000000000
 40
0.000000000000000
 40
0.000000000000000
 40
0.000000000000000
 40
0.1702183273715906
 40
0.3020095225662930
 40
0.4724123535355583
 40
0.6780471204575208
 40
0.9061211152755240
 40
1.149159878068067
 40
1.395652156632220
 40
1.635284136024947
 40
1.635284136024947
 40
1.635284136024947
 40
1.635284136024947
 10
141.8425291595992
 20
270.4867038716823
 30
0.000000000000000
 10
141.8321306715522
 20
270.4755623797281
 30
0.000000000000000
 10
141.7872145682654
 20
270.4353556744345
 30
0.000000000000000
 10
141.6883078673932
 20
270.3750465234683
 30
0.000000000000000
 10
141.5303692344578
 20
270.3118508459348
 30
0.000000000000000
 10
141.3362377322371
 20
270.2577483601366
 30
0.000000000000000
 10
141.1144989933617
 20
270.2150359643520
 30
0.000000000000000
 10
140.8770659787638
 20
270.1849641840101
 30
0.000000000000000
 10
140.6345260978266
 20
270.1676549723317
 30
0.000000000000000
 10
140.4724600638879
 20
270.1638200592831
 30
0.000000000000000
 10
140.3925827666384
 20
270.1638883761303
 30
0.000000000000000
  0
SPLINE
  5
1EF
100
AcDbEntity
  8
A1
  6
CONTINUOUS
 62
7
100
AcDbSpline
210
0.000000000000000
220
0.000000000000000
230
1.000000000000000
 70
     8
 71
     3
 72
    15
 73
    11
 74
     0
 42
1.000000000000000e-07
 43
1.000000000000000e-07
 12
0.9999996445699253
 22
-0.0008431244782514113
 32
0.000000000000000
 13
0.7257994657738891
 23
0.7035646701879159
 33
0.000000000000000
 40
0.000000000000000
 40
0.000000000000000
 40
0.000000000000000
 40
0.000000000000000
 40
0.2440679299816318
 40
0.4949598493472830
 40
0.7416021771094869
 40
0.9716675414395617
 40
1.173626467062835
 40
1.336458015332818
 40
1.460906816515066
 40
1.500425144279531
 40
1.500425144279531
 40
1.500425144279531
 40
1.500425144279531
 10
140.3925827666384
 20
264.0987109603342
 30
0.000000000000000
 10
140.4739387143826
 20
264.0986423671188
 30
0.000000000000000
 10
140.6389465459306
 20
264.1022671829404
 30
0.000000000000000
 10
140.8856990015516
 20
264.1185978971378
 30
0.000000000000000
 10
141.1266775678901
 20
264.1469558447140
 30
0.000000000000000
 10
141.3495660781199
 20
264.1869425581997
 30
0.000000000000000
 10
141.5415514093809
 20
264.2368977857285
 30
0.000000000000000
 10
141.6951526799673
 20
264.2941077445814
 30
0.000000000000000
 10
141.7897018681021
 20
264.3477685197705
 30
0.000000000000000
 10
141.8329683590321
 20
264.3831847955575
 30
0.000000000000000
 10
141.8425291527586
 20
264.3924526953041
 30
0.000000000000000
  0
SPLINE
  5
1F0
100
AcDbEntity
  8
A1
  6
CONTINUOUS
 62
7
100
AcDbSpline
210
0.000000000000000
220
0.000000000000000
230
1.000000000000000
 70
     8
 71
     3
 72
    16
 73
    12
 74
     0
 42
1.000000000000000e-07
 43
1.000000000000000e-07
 12
-0.9999996445701527
 22
0.0008431244773419166
 32
0.000000000000000
 13
-0.1155484015007460
 23
-0.9933018508545501
 33
0.000000000000000
 40
0.000000000000000
 40
0.000000000000000
 40
0.000000000000000
 40
0.000000000000000
 40
0.3254236233080486
 40
0.6599461788184930
 40
0.9888026112723582
 40
1.295556423740855
 40
1.564834980868529
 40
1.781943694880604
 40
1.947875398321329
 40
2.067066288541710
 40
2.155227789004656
 40
2.155227789004656
 40
2.155227789004656
 40
2.155227789004656
 10
138.1425827666384
 20
264.0583367574249
 30
0.000000000000000
 10
138.0341082640908
 20
264.0584282149656
 30
0.000000000000000
 10
137.8140979233665
 20
264.0535948671445
 30
0.000000000000000
 10
137.4850947439214
 20
264.0318207002461
 30
0.000000000000000
 10
137.1637899923623
 20
263.9940100821143
 30
0.000000000000000
 10
136.8666053219659
 20
263.9406944793232
 30
0.000000000000000
 10
136.6106248754256
 20
263.8740875244000
 30
0.000000000000000
 10
136.4058232304213
 20
263.7978075947719
 30
0.000000000000000
 10
136.2605178808595
 20
263.7153405921179
 30
0.000000000000000
 10
136.1649077802319
 20
263.6288316393207
 30
0.000000000000000
 10
136.1459784067892
 20
263.5594389790976
 30
0.000000000000000
 10
136.1425827666384
 20
263.5302486519030
 30
0.000000000000000
  0
SPLINE
  5
1F1
100
AcDbEntity
  8
A1
  6
CONTINUOUS
 62
7
100
AcDbSpline
210
0.000000000000000
220
0.000000000000000
230
1.000000000000000
 70
     8
 71
     3
 72
    12
 73
     8
 74
     0
 42
1.000000000000000e-07
 43
1.000000000000000e-07
 12
-0.9998866895916763
 22
-0.01505350389288651
 32
0.000000000000000
 13
-0.8266427247981483
 23
-0.5627271146295243
 33
0.000000000000000
 40
0.000000000000000
 40
0.000000000000000
 40
0.000000000000000
 40
0.000000000000000
 40
0.1381997156294555
 40
0.2739266568089327
 40
0.3969097745009554
 40
0.5138570773658240
 40
0.5945632250691300
 40
0.5945632250691300
 40
0.5945632250691300
 40
0.5945632250691300
 10
138.2442862321142
 20
263.6631821152323
 30
0.000000000000000
 10
138.1982248800598
 20
263.6624886519132
 30
0.000000000000000
 10
138.1069806273590
 20
263.6580640361427
 30
0.000000000000000
 10
137.9752336564131
 20
263.6441634571010
 30
0.000000000000000
 10
137.8522753847179
 20
263.6209037867324
 30
0.000000000000000
 10
137.7483894452030
 20
263.5925355593413
 30
0.000000000000000
 10
137.6908865771922
 20
263.5592870015832
 30
0.000000000000000
 10
137.6686481939104
 20
263.5441484890399
 30
0.000000000000000
  0
SPLINE
  5
1F2
100
AcDbEntity
  8
A1
  6
CONTINUOUS
 62
7
100
AcDbSpline
210
0.000000000000000
220
0.000000000000000
230
1.000000000000000
 70
     8
 71
     3
 72
    17
 73
    13
 74
     0
 42
1.000000000000000e-07
 43
1.000000000000000e-07
 12
0.9995556781314008
 22
0.02980681658755202
 32
0.000000000000000
 13
0.5815872721841515
 23
0.8204472547458863
 33
0.000000000000000
 40
0.000000000000000
 40
0.000000000000000
 40
0.000000000000000
 40
0.000000000000000
 40
0.3749664364390968
 40
0.7537265182394385
 40
1.126131414658857
 40
1.481189524372033
 40
1.808134525011063
 40
2.097671663162923
 40
2.330462940430081
 40
2.521749963242556
 40
2.673053494776993
 40
2.732987117317805
 40
2.732987117317805
 40
2.732987117317805
 40
2.732987117317805
 10
140.7392864249872
 20
263.7079526236971
 30
0.000000000000000
 10
140.8642197018710
 20
263.7116781422963
 30
0.000000000000000
 10
141.1152317655157
 20
263.7237642601139
 30
0.000000000000000
 10
141.4893946275618
 20
263.7549457131674
 30
0.000000000000000
 10
141.8554422947071
 20
263.8003694400240
 30
0.000000000000000
 10
142.2020152602959
 20
263.8597345090796
 30
0.000000000000000
 10
142.5178823597895
 20
263.9320347679976
 30
0.000000000000000
 10
142.7891387779249
 20
264.0141656771985
 30
0.000000000000000
 10
143.0100657652693
 20
264.1031557394468
 30
0.000000000000000
 10
143.1791533505913
 20
264.1953771310762
 30
0.000000000000000
 10
143.2845510206291
 20
264.2792263907434
 30
0.000000000000000
 10
143.3309089441673
 20
264.3335974928956
 30
0.000000000000000
 10
143.3425278215159
 20
264.3499882849225
 30
0.000000000000000
  0
ELLIPSE
  5
1F3
100
AcDbEntity
  8
A1
  6
CONTINUOUS
 62
7
100
AcDbEllipse
 10
139.2455750151339
 20
263.4706494011349
 30
0.000000000000000
 11
-1.602992249670369
 21
0.000000000000000
 31
0.000000000000000
210
0.000000000000000
220
0.000000000000000
230
1.000000000000000
 40
0.2552945138018541
 41
6.102604342275344
 42
0.000000000000000
  0
ARC
  5
1F4
100
AcDbEntity
  8
A1
  6
CONTINUOUS
 62
7
100
AcDbCircle
 10
143.1975827666385
 20
268.2159067602888
 30
0.000000000000000
 40
2.305000000000066
100
AcDbArc
 50
126.0064095188779
 51
233.9935904811221
  0
LINE
  5
1F5
100
AcDbEntity
  8
A1
  6
CONTINUOUS
 62
7
100
AcDbLine
 10
136.1425827666383
 20
271.9376252293305
 30
0.000000000000000
 11
136.1425827666383
 21
272.4376252293305
 31
0.000000000000000
  0
LINE
  5
1F6
100
AcDbEntity
  8
A1
  6
CONTINUOUS
 62
7
100
AcDbLine
 10
137.6425827666384
 20
272.4376252293305
 30
0.000000000000000
 11
136.1425827666384
 21
272.4376252293305
 31
0.000000000000000
  0
LINE
  5
1F7
100
AcDbEntity
  8
A1
  6
CONTINUOUS
 62
7
100
AcDbLine
 10
136.1425827666383
 20
271.2227732641247
 30
0.000000000000000
 11
136.1425827666383
 21
271.9376252293305
 31
0.000000000000000
  0
LINE
  5
1F8
100
AcDbEntity
  8
A1
  6
CONTINUOUS
 62
7
100
AcDbLine
 10
136.1425827666383
 20
269.5393798736627
 30
0.000000000000000
 11
136.1425827666383
 21
269.6185860348577
 31
0.000000000000000
  0
LINE
  5
1F9
100
AcDbEntity
  8
A1
  6
CONTINUOUS
 62
7
100
AcDbLine
 10
136.1425827666384
 20
260.4376252177002
 30
0.000000000000000
 11
136.1425827666384
 21
260.9376252177002
 31
0.000000000000000
  0
LINE
  5
1FA
100
AcDbEntity
  8
A1
  6
CONTINUOUS
 62
7
100
AcDbLine
 10
137.6425827666384
 20
260.4376252177003
 30
0.000000000000000
 11
136.1425827666384
 21
260.4376252177003
 31
0.000000000000000
  0
LINE
  5
1FB
100
AcDbEntity
  8
A1
  6
CONTINUOUS
 62
7
100
AcDbLine
 10
136.1425827666383
 20
263.2578862686062
 30
0.000000000000000
 11
136.1425827666383
 21
263.4376255836110
 31
0.000000000000000
  0
LINE
  5
1FC
100
AcDbEntity
  8
A1
  6
CONTINUOUS
 62
7
100
AcDbLine
 10
136.1425827666383
 20
260.9376252177003
 30
0.000000000000000
 11
136.1425827666383
 21
261.6576714958088
 31
0.000000000000000
  0
LINE
  5
1FD
100
AcDbEntity
  8
A1
  6
CONTINUOUS
 62
7
100
AcDbLine
 10
137.6425827666384
 20
263.4376255836110
 30
0.000000000000000
 11
136.1425827666384
 21
263.4376255836110
 31
0.000000000000000
  0
LINE
  5
1FE
100
AcDbEntity
  8
A1
  6
CONTINUOUS
 62
7
100
AcDbLine
 10
136.1425827666384
 20
263.5302486519032
 30
0.000000000000000
 11
136.1425827666384
 21
269.5393798736627
 31
0.000000000000000
  0
LINE
  5
1FF
100
AcDbEntity
  8
A1
  6
CONTINUOUS
 62
7
100
AcDbLine
 10
140.3925827666383
 20
270.1638883761300
 30
0.000000000000000
 11
138.1425827666383
 21
270.1195335743724
 31
0.000000000000000
  0
LINE
  5
200
100
AcDbEntity
  8
A1
  6
CONTINUOUS
 62
7
100
AcDbLine
 10
143.3425291603834
 20
266.2159067602888
 30
0.000000000000000
 11
167.7924755540821
 21
266.2159067602888
 31
0.000000000000000
  0
LINE
  5
201
100
AcDbEntity
  8
A1
  6
CONTINUOUS
 62
7
100
AcDbLine
 10
167.7924755540821
 20
270.2159067602888
 30
0.000000000000000
 11
143.3425291603834
 21
270.2159067602888
 31
0.000000000000000
  0
LINE
  5
202
100
AcDbEntity
  8
A1
  6
CONTINUOUS
 62
7
100
AcDbLine
 10
143.3425291603835
 20
271.9771571507022
 30
0.000000000000000
 11
143.3425291603835
 21
264.3499882849225
 31
0.000000000000000
  0
LINE
  5
203
100
AcDbEntity
  8
A1
  6
CONTINUOUS
 62
7
100
AcDbLine
 10
138.1425827666384
 20
264.0583367574250
 30
0.000000000000000
 11
140.3925827666384
 21
264.0987109603343
 31
0.000000000000000
  0
LINE
  5
204
100
AcDbEntity
  8
A1
  6
CONTINUOUS
 62
7
100
AcDbLine
 10
136.1425827666383
 20
263.4376277353135
 30
0.000000000000000
 11
136.1425827666383
 21
263.5302486519030
 31
0.000000000000000
  0
LINE
  5
205
100
AcDbEntity
  8
A1
  6
CONTINUOUS
 62
7
100
AcDbLine
 10
137.6425827666384
 20
263.4376277353135
 30
0.000000000000000
 11
136.1425827666384
 21
263.4376277353135
 31
0.000000000000000
  0
LINE
  5
206
100
AcDbEntity
  8
A1
  6
CONTINUOUS
 62
7
100
AcDbLine
 10
137.6425827666384
 20
263.4706337332146
 30
0.000000000000000
 11
137.6425827666383
 21
263.4657970279637
 31
0.000000000000000
  0
LINE
  5
207
100
AcDbEntity
  8
A1
  6
CONTINUOUS
 62
7
100
AcDbLine
 10
140.7392864249871
 20
263.7079526236971
 30
0.000000000000000
 11
138.2442862321142
 21
263.6631821152323
 31
0.000000000000000
  0
LINE
  5
208
100
AcDbEntity
  8
A1
  6
CONTINUOUS
 62
7
100
AcDbLine
 10
143.3425291603835
 20
271.9771571507022
 30
0.000000000000000
 11
141.8425291603834
 21
271.9771571507022
 31
0.000000000000000
  0
SPLINE
  5
209
100
AcDbEntity
  8
A1
  6
CONTINUOUS
 62
7
100
AcDbSpline
210
0.000000000000000
220
0.000000000000000
230
1.000000000000000
 70
     8
 71
     3
 72
    16
 73
    12
 74
     0
 42
1.000000000000000e-07
 43
1.000000000000000e-07
 12
0.9999975365367391
 22
0.002219666645032703
 32
0.000000000000000
 13
0.0009203244496802654
 23
0.9999995765006133
 33
0.000000000000000
 40
0.000000000000000
 40
0.000000000000000
 40
0.000000000000000
 40
0.000000000000000
 40
0.2882601542868141
 40
0.5793324359422272
 40
0.8777424525039313
 40
1.192276057761005
 40
1.399551165884542
 40
1.616472244848563
 40
1.846935718050318
 40
2.091388783024544
 40
2.353097229598579
 40
2.353097229598579
 40
2.353097229598579
 40
2.353097229598579
 10
165.5925291603598
 20
257.6376238010747
 30
0.000000000000000
 10
165.6886156417493
 20
257.6378370815578
 30
0.000000000000000
 10
165.8822251018407
 20
257.6563074789470
 30
0.000000000000000
 10
166.1643261399805
 20
257.7403946597467
 30
0.000000000000000
 10
166.4325647375789
 20
257.8820099287298
 30
0.000000000000000
 10
166.6447569214496
 20
258.0577964294466
 30
0.000000000000000
 10
166.8050889434947
 20
258.2456312278752
 30
0.000000000000000
 10
166.9218784026382
 20
258.4309032510390
 30
0.000000000000000
 10
167.0151604421994
 20
258.6427825566418
 30
0.000000000000000
 10
167.0778447394434
 20
258.8812753565669
 30
0.000000000000000
 10
167.0924488747991
 20
259.0503877000810
 30
0.000000000000000
 10
167.0925291603598
 20
259.1376238119946
 30
0.000000000000000
  0
SPLINE
  5
20A
100
AcDbEntity
  8
A1
  6
CONTINUOUS
 62
7
100
AcDbSpline
210
0.000000000000000
220
0.000000000000000
230
1.000000000000000
 70
     8
 71
     3
 72
    16
 73
    12
 74
     0
 42
1.000000000000000e-07
 43
1.000000000000000e-07
 12
0.001216895566585663
 22
-0.9999992595817275
 32
0.000000000000000
 13
0.9999969269838402
 23
-0.002479117206803494
 33
0.000000000000000
 40
0.000000000000000
 40
0.000000000000000
 40
0.000000000000000
 40
0.000000000000000
 40
0.2768917521541447
 40
0.5348080330786924
 40
0.7768301156042244
 40
1.004425630461512
 40
1.222011799947831
 40
1.431707604927364
 40
1.745872517185321
 40
2.051060810582607
 40
2.353073753872785
 40
2.353073753872785
 40
2.353073753872785
 40
2.353073753872785
 10
144.0925291603598
 20
259.1376238119946
 30
0.000000000000000
 10
144.0926414764750
 20
259.0453266296151
 30
0.000000000000000
 10
144.1089636698523
 20
258.8665940917929
 30
0.000000000000000
 10
144.1787982858531
 20
258.6159657983337
 30
0.000000000000000
 10
144.2819947765574
 20
258.3953567909512
 30
0.000000000000000
 10
144.4105077587973
 20
258.2046539947542
 30
0.000000000000000
 10
144.5590014066939
 20
258.0435734210891
 30
0.000000000000000
 10
144.7507692284846
 20
257.8865372073449
 30
0.000000000000000
 10
144.9938628125343
 20
257.7505323753934
 30
0.000000000000000
 10
145.2888778262684
 20
257.6581499085297
 30
0.000000000000000
 10
145.4918584886266
 20
257.6378733762362
 30
0.000000000000000
 10
145.5925291603598
 20
257.6376238010747
 30
0.000000000000000
  0
LINE
  5
20B
100
AcDbEntity
  8
A1
  6
CONTINUOUS
 62
7
100
AcDbLine
 10
145.5925291603598
 20
265.2171442350760
 30
0.000000000000000
 11
145.5925291603598
 21
266.2159067602888
 31
0.000000000000000
  0
LINE
  5
20C
100
AcDbEntity
  8
A1
  6
CONTINUOUS
 62
7
100
AcDbLine
 10
144.0925291603597
 20
265.2171442350760
 30
0.000000000000000
 11
144.0925291603597
 21
266.2159067602888
 31
0.000000000000000
  0
LINE
  5
20D
100
AcDbEntity
  8
A1
  6
CONTINUOUS
 62
7
100
AcDbLine
 10
167.0925291603598
 20
265.2171442350760
 30
0.000000000000000
 11
167.0925291603598
 21
266.2159067602888
 31
0.000000000000000
  0
LINE
  5
20E
100
AcDbEntity
  8
A1
  6
CONTINUOUS
 62
7
100
AcDbLine
 10
165.5925291603598
 20
265.2171442350760
 30
0.000000000000000
 11
165.5925291603598
 21
266.2159067602888
 31
0.000000000000000
  0
LINE
  5
20F
100
AcDbEntity
  8
A1
  6
CONTINUOUS
 62
7
100
AcDbLine
 10
167.0925291603598
 20
270.2159067602888
 30
0.000000000000000
 11
167.0925291603598
 21
273.4376237901546
 31
0.000000000000000
  0
LINE
  5
210
100
AcDbEntity
  8
A1
  6
CONTINUOUS
 62
7
100
AcDbLine
 10
165.5925291603598
 20
270.2159067602888
 30
0.000000000000000
 11
165.5925291603598
 21
273.4376237901546
 31
0.000000000000000
  0
LINE
  5
211
100
AcDbEntity
  8
A1
  6
CONTINUOUS
 62
7
100
AcDbLine
 10
165.5925291603598
 20
273.4376237901546
 30
0.000000000000000
 11
167.0925291603598
 21
273.4376237901546
 31
0.000000000000000
  0
LINE
  5
212
100
AcDbEntity
  8
A1
  6
CONTINUOUS
 62
7
100
AcDbLine
 10
145.5925291603598
 20
270.2159067602888
 30
0.000000000000000
 11
145.5925291603598
 21
273.4376237901546
 31
0.000000000000000
  0
LINE
  5
213
100
AcDbEntity
  8
A1
  6
CONTINUOUS
 62
7
100
AcDbLine
 10
144.0925291603597
 20
270.2159067602888
 30
0.000000000000000
 11
144.0925291603597
 21
273.4376237901546
 31
0.000000000000000
  0
LINE
  5
214
100
AcDbEntity
  8
A1
  6
CONTINUOUS
 62
7
100
AcDbLine
 10
145.5925291603597
 20
273.4376237901546
 30
0.000000000000000
 11
144.0925291603597
 21
273.4376237901546
 31
0.000000000000000
  0
LINE
  5
215
100
AcDbEntity
  8
A1
  6
CONTINUOUS
 62
7
100
AcDbLine
 10
144.0925291603597
 20
259.1376238119946
 30
0.000000000000000
 11
144.0925291603597
 21
261.6376237901596
 31
0.000000000000000
  0
LINE
  5
216
100
AcDbEntity
  8
A1
  6
CONTINUOUS
 62
7
100
AcDbLine
 10
167.0925291603598
 20
259.1376238119946
 30
0.000000000000000
 11
167.0925291603598
 21
261.6376237901596
 31
0.000000000000000
  0
LINE
  5
217
100
AcDbEntity
  8
A1
  6
CONTINUOUS
 62
7
100
AcDbLine
 10
165.5925291603598
 20
257.6376237901547
 30
0.000000000000000
 11
145.5925291603597
 21
257.6376237901547
 31
0.000000000000000
  0
LINE
  5
218
100
AcDbEntity
  8
A1
  6
CONTINUOUS
 62
7
100
AcDbLine
 10
144.0925291603598
 20
265.2171442350760
 30
0.000000000000000
 11
144.0925291603598
 21
261.6376237901596
 31
0.000000000000000
  0
LINE
  5
219
100
AcDbEntity
  8
A1
  6
CONTINUOUS
 62
7
100
AcDbLine
 10
167.0925291603597
 20
261.6376237901596
 30
0.000000000000000
 11
144.0925291603597
 21
261.6376237901596
 31
0.000000000000000
  0
LINE
  5
21A
100
AcDbEntity
  8
A1
  6
CONTINUOUS
 62
7
100
AcDbLine
 10
167.0925291603598
 20
265.2171442350760
 30
0.000000000000000
 11
167.0925291603598
 21
261.6376237901596
 31
0.000000000000000
  0
LINE
  5
21B
100
AcDbEntity
  8
A1
  6
CONTINUOUS
 62
7
100
AcDbLine
 10
167.0925291603597
 20
265.2171442350760
 30
0.000000000000000
 11
144.0925291603597
 21
265.2171442350760
 31
0.000000000000000
  0
LINE
  5
21C
100
AcDbEntity
  8
A1
  6
CONTINUOUS
 62
7
100
AcDbLine
 10
167.3425291603600
 20
271.4376238119949
 30
0.000000000000000
 11
167.0925291603598
 21
271.4376238119949
 31
0.000000000000000
  0
LINE
  5
21D
100
AcDbEntity
  8
A1
  6
CONTINUOUS
 62
7
100
AcDbLine
 10
143.3425291603834
 20
271.4376238119949
 30
0.000000000000000
 11
144.0925291603597
 21
271.4376238119949
 31
0.000000000000000
  0
LINE
  5
21E
100
AcDbEntity
  8
A1
  6
CONTINUOUS
 62
7
100
AcDbLine
 10
165.5925291604844
 20
273.4376238119949
 30
0.000000000000000
 11
145.5925291604844
 21
273.4376238119949
 31
0.000000000000000
  0
LINE
  5
21F
100
AcDbEntity
  8
A1
  6
CONTINUOUS
 62
7
100
AcDbLine
 10
145.5925291604844
 20
272.8570112271915
 30
0.000000000000000
 11
165.5925291604844
 21
272.8570112271915
 31
0.000000000000000
  0
LINE
  5
220
100
AcDbEntity
  8
A1
  6
CONTINUOUS
 62
7
100
AcDbLine
 10
143.1425827667628
 20
263.4376238119949
 30
0.000000000000000
 11
144.0925291603598
 21
263.4376238119949
 31
0.000000000000000
  0
ARC
  5
221
100
AcDbEntity
  8
A1
  6
CONTINUOUS
 62
7
100
AcDbCircle
 10
144.0295748431167
 20
57.59672633204165
 30
0.000000000000000
 40
2.500000000000043
100
AcDbArc
 50
180.0000000000000
 51
233.1301023541556
  0
ARC
  5
222
100
AcDbEntity
  8
A1
  6
CONTINUOUS
 62
7
100
AcDbCircle
 10
144.0295748431167
 20
57.59672633204165
 30
0.000000000000000
 40
2.500000000000043
100
AcDbArc
 50
126.8698976458444
 51
180.0000000000000
  0
LINE
  5
223
100
AcDbEntity
  8
A1
  6
CONTINUOUS
 62
7
100
AcDbLine
 10
139.5295748431165
 20
51.59672204988413
 30
0.000000000000000
 11
139.5295748431165
 21
52.09672204988413
 31
0.000000000000000
  0
LINE
  5
224
100
AcDbEntity
  8
A1
  6
CONTINUOUS
 62
7
100
AcDbLine
 10
139.5295748431166
 20
51.59672204988426
 30
0.000000000000000
 11
138.0295748431166
 21
51.59672204988426
 31
0.000000000000000
  0
LINE
  5
225
100
AcDbEntity
  8
A1
  6
CONTINUOUS
 62
7
100
AcDbLine
 10
139.5295748431166
 20
54.46621271507845
 30
0.000000000000000
 11
139.5295748431166
 21
54.59672215462221
 31
0.000000000000000
  0
LINE
  5
226
100
AcDbEntity
  8
A1
  6
CONTINUOUS
 62
7
100
AcDbLine
 10
139.5295748431166
 20
52.09672204988423
 30
0.000000000000000
 11
139.5295748431166
 21
52.84306098091641
 31
0.000000000000000
  0
LINE
  5
227
100
AcDbEntity
  8
A1
  6
CONTINUOUS
 62
7
100
AcDbLine
 10
139.5295748431166
 20
62.34806849939745
 30
0.000000000000000
 11
139.5295748431166
 21
63.09672219087592
 31
0.000000000000000
  0
LINE
  5
228
100
AcDbEntity
  8
A1
  6
CONTINUOUS
 62
7
100
AcDbLine
 10
139.5295748431166
 20
60.59672266032945
 30
0.000000000000000
 11
139.5295748431166
 21
60.72766042455782
 31
0.000000000000000
  0
LINE
  5
229
100
AcDbEntity
  8
A1
  6
CONTINUOUS
 62
7
100
AcDbLine
 10
139.5295748431166
 20
63.09672219087586
 30
0.000000000000000
 11
139.5295748431166
 21
63.59672219302736
 31
0.000000000000000
  0
LINE
  5
22A
100
AcDbEntity
  8
A1
  6
CONTINUOUS
 62
7
100
AcDbLine
 10
139.5295748431166
 20
63.59672219302736
 30
0.000000000000000
 11
138.0295748431166
 21
63.59672219302736
 31
0.000000000000000
  0
LINE
  5
22B
100
AcDbEntity
  8
A1
  6
CONTINUOUS
 62
7
100
AcDbLine
 10
139.3108245223489
 20
60.59672282164644
 30
0.000000000000000
 11
138.0295748431169
 21
60.59672282164644
 31
0.000000000000000
  0
LINE
  5
22C
100
AcDbEntity
  8
A1
  6
CONTINUOUS
 62
7
100
AcDbLine
 10
138.0295748431166
 20
54.59672466262593
 30
0.000000000000000
 11
138.0295748431166
 21
60.59672514791604
 31
0.000000000000000
  0
LINE
  5
22D
100
AcDbEntity
  8
A1
  6
CONTINUOUS
 62
7
100
AcDbLine
 10
139.3108245223486
 20
60.59672543770983
 30
0.000000000000000
 11
142.0591125414007
 21
60.59672566412392
 31
0.000000000000000
  0
LINE
  5
22E
100
AcDbEntity
  8
A1
  6
CONTINUOUS
 62
7
100
AcDbLine
 10
142.5295748431168
 20
60.59672282164642
 30
0.000000000000000
 11
142.0591125414009
 21
60.59672282164643
 31
0.000000000000000
  0
LINE
  5
22F
100
AcDbEntity
  8
A1
  6
CONTINUOUS
 62
7
100
AcDbLine
 10
166.0295748432412
 20
59.09672615679980
 30
0.000000000000000
 11
165.5295748431167
 21
59.09672615679980
 31
0.000000000000000
  0
LINE
  5
230
100
AcDbEntity
  8
A1
  6
CONTINUOUS
 62
7
100
AcDbLine
 10
139.5295748431166
 20
54.59672215462227
 30
0.000000000000000
 11
138.0295748431166
 21
54.59672215462227
 31
0.000000000000000
  0
LINE
  5
231
100
AcDbEntity
  8
A1
  6
CONTINUOUS
 62
7
100
AcDbLine
 10
139.5295748431168
 20
54.59672231726337
 30
0.000000000000000
 11
140.1701996827329
 21
54.59672231726337
 31
0.000000000000000
  0
LINE
  5
232
100
AcDbEntity
  8
A1
  6
CONTINUOUS
 62
7
100
AcDbLine
 10
142.5295748431168
 20
54.59672500468158
 30
0.000000000000000
 11
142.9931205357725
 21
54.59672504318362
 31
0.000000000000000
  0
LINE
  5
233
100
AcDbEntity
  8
A1
  6
CONTINUOUS
 62
7
100
AcDbLine
 10
140.1701996827327
 20
54.59672480871223
 30
0.000000000000000
 11
142.5295748431168
 21
54.59672500468158
 31
0.000000000000000
  0
LINE
  5
234
100
AcDbEntity
  8
A1
  6
CONTINUOUS
 62
7
100
AcDbLine
 10
143.4931205357726
 20
54.59672235879347
 30
0.000000000000000
 11
144.5295748431168
 21
54.59672235879347
 31
0.000000000000000
  0
LINE
  5
235
100
AcDbEntity
  8
A1
  6
CONTINUOUS
 62
7
100
AcDbLine
 10
142.0591125414008
 20
54.59672231726377
 30
0.000000000000000
 11
142.5295748431168
 21
54.59672231726378
 31
0.000000000000000
  0
LINE
  5
236
100
AcDbEntity
  8
A1
  6
CONTINUOUS
 62
7
100
AcDbLine
 10
142.0591125414007
 20
54.59672518307077
 30
0.000000000000000
 11
139.3108245223487
 21
54.59672495479837
 31
0.000000000000000
  0
LINE
  5
237
100
AcDbEntity
  8
A1
  6
CONTINUOUS
 62
7
100
AcDbLine
 10
138.0295748431169
 20
54.59672231726350
 30
0.000000000000000
 11
139.3108245223489
 21
54.59672231726350
 31
0.000000000000000
  0
LINE
  5
238
100
AcDbEntity
  8
A1
  6
CONTINUOUS
 62
7
100
AcDbLine
 10
168.5660291504607
 20
54.59672235879347
 30
0.000000000000000
 11
167.5295748431164
 21
54.59672235879347
 31
0.000000000000000
  0
LINE
  5
239
100
AcDbEntity
  8
A1
  6
CONTINUOUS
 62
7
100
AcDbLine
 10
142.5295748431166
 20
60.59672633658705
 30
0.000000000000000
 11
142.5295748431166
 21
54.59672633658708
 31
0.000000000000000
  0
LINE
  5
23A
100
AcDbEntity
  8
A1
  6
CONTINUOUS
 62
7
100
AcDbLine
 10
144.0295748431166
 20
54.59672593208647
 30
0.000000000000000
 11
142.5295748431166
 21
54.59672593208647
 31
0.000000000000000
  0
LINE
  5
23B
100
AcDbEntity
  8
A1
  6
CONTINUOUS
 62
7
100
AcDbLine
 10
144.0295748431166
 20
60.59672633658701
 30
0.000000000000000
 11
142.5295748431166
 21
60.59672633658701
 31
0.000000000000000
  0
SPLINE
  5
23C
100
AcDbEntity
  8
A1
  6
CONTINUOUS
 62
7
100
AcDbSpline
210
0.000000000000000
220
0.000000000000000
230
1.000000000000000
 70
     8
 71
     3
 72
     9
 73
     5
 74
     0
 42
1.000000000000000e-07
 43
1.000000000000000e-07
 12
-0.09889549124955010
 22
0.9950978252466030
 32
0.000000000000000
 13
0.02417535349854916
 23
0.9997077334318192
 33
0.000000000000000
 40
0.000000000000000
 40
0.000000000000000
 40
0.000000000000000
 40
0.000000000000000
 40
0.1041162517235042
 40
0.4260913138898876
 40
0.4260913138898876
 40
0.4260913138898876
 40
0.4260913138898876
 10
134.4957847370383
 20
57.25589626047140
 30
0.000000000000000
 10
134.4923525277512
 20
57.29043154569237
 30
0.000000000000000
 10
134.4804307872445
 20
57.43196839003716
 30
0.000000000000000
 10
134.4772721138357
 20
57.57424671067406
 30
0.000000000000000
 10
134.4798667341509
 20
57.68154036388070
 30
0.000000000000000
  0
SPLINE
  5
23D
100
AcDbEntity
  8
A1
  6
CONTINUOUS
 62
7
100
AcDbSpline
210
0.000000000000000
220
0.000000000000000
230
1.000000000000000
 70
     8
 71
     3
 72
    20
 73
    16
 74
     0
 42
1.000000000000000e-07
 43
1.000000000000000e-07
 12
-0.6001091049802199
 22
0.7999181596333074
 32
0.000000000000000
 13
-0.9999353030100337
 23
0.01137496350690981
 33
0.000000000000000
 40
0.000000000000000
 40
0.000000000000000
 40
0.000000000000000
 40
0.000000000000000
 40
0.01395849840224310
 40
0.3063014851068658
 40
0.5987592671150501
 40
0.8964262297051750
 40
1.275424228185361
 40
1.662336341744815
 40
2.057329605505431
 40
2.471811915086222
 40
2.935373802950349
 40
3.449538262574233
 40
3.820552825175339
 40
4.214204316723843
 40
4.579481451690598
 40
4.579481451690598
 40
4.579481451690598
 40
4.579481451690598
 10
141.9775203679401
 20
60.59791751157108
 30
0.000000000000000
 10
141.9747281606124
 20
60.60163939702213
 30
0.000000000000000
 10
141.9133346394317
 20
60.68321917618122
 30
0.000000000000000
 10
141.7884558076774
 20
60.83908077453154
 30
0.000000000000000
 10
141.5913024338402
 20
61.05760711878025
 30
0.000000000000000
 10
141.3608746379322
 20
61.28428883192475
 30
0.000000000000000
 10
141.0910318480723
 20
61.51480286610440
 30
0.000000000000000
 10
140.7779311056885
 20
61.74285849875142
 30
0.000000000000000
 10
140.4379329280789
 20
61.95205724628271
 30
0.000000000000000
 10
140.0595511334032
 20
62.14516915228832
 30
0.000000000000000
 10
139.6290548764256
 20
62.32012974431036
 30
0.000000000000000
 10
139.1975057433430
 20
62.44906602616771
 30
0.000000000000000
 10
138.7796132926777
 20
62.53497907778347
 30
0.000000000000000
 10
138.4055680612796
 20
62.58247737417353
 30
0.000000000000000
 10
138.1526154763984
 20
62.59471460041656
 30
0.000000000000000
 10
138.0308643088532
 20
62.59609960510994
 30
0.000000000000000
  0
SPLINE
  5
23E
100
AcDbEntity
  8
A1
  6
CONTINUOUS
 62
7
100
AcDbSpline
210
0.000000000000000
220
0.000000000000000
230
1.000000000000000
 70
     8
 71
     3
 72
    14
 73
    10
 74
     0
 42
1.000000000000000e-07
 43
1.000000000000000e-07
 12
0.9999983151593597
 22
-0.001835668482726760
 32
0.000000000000000
 13
0.6857160733864021
 23
-0.7278691274535731
 33
0.000000000000000
 40
0.000000000000000
 40
0.000000000000000
 40
0.000000000000000
 40
0.000000000000000
 40
0.5542136657685091
 40
1.107760188966488
 40
1.661137234405607
 40
2.214390321858858
 40
2.767506931248556
 40
3.320811459856625
 40
3.562672560795696
 40
3.562672560795696
 40
3.562672560795696
 40
3.562672560795696
 10
138.1078769417591
 20
61.97706528506104
 30
0.000000000000000
 10
138.2926145190947
 20
61.97672616754139
 30
0.000000000000000
 10
138.6622962892077
 20
61.95277568212410
 30
0.000000000000000
 10
139.2069969026970
 20
61.84562743127813
 30
0.000000000000000
 10
139.7339112854365
 20
61.67192522627283
 30
0.000000000000000
 10
140.2352653789820
 20
61.43464570901881
 30
0.000000000000000
 10
140.7033521042791
 20
61.13714236463701
 30
0.000000000000000
 10
141.0501582515238
 20
60.84914102691395
 30
0.000000000000000
 10
141.2373468387838
 20
60.66130512040640
 30
0.000000000000000
 10
141.2926295202641
 20
60.60262404423791
 30
0.000000000000000
  0
SPLINE
  5
23F
100
AcDbEntity
  8
A1
  6
CONTINUOUS
 62
7
100
AcDbSpline
210
0.000000000000000
220
0.000000000000000
230
1.000000000000000
 70
     8
 71
     3
 72
    12
 73
     8
 74
     0
 42
1.000000000000000e-07
 43
1.000000000000000e-07
 12
0.9998608493633583
 22
-0.01668178375319940
 32
0.000000000000000
 13
0.8595063279376518
 23
-0.5111251042896470
 33
0.000000000000000
 40
0.000000000000000
 40
0.000000000000000
 40
0.000000000000000
 40
0.000000000000000
 40
0.3784510386098296
 40
0.7734516906390575
 40
1.133485878910416
 40
1.458652610402194
 40
1.836793804202919
 40
1.836793804202919
 40
1.836793804202919
 40
1.836793804202919
 10
138.0315681629574
 20
61.09667715264808
 30
0.000000000000000
 10
138.1577009552597
 20
61.09457273985232
 30
0.000000000000000
 10
138.4154809181182
 20
61.07634419207559
 30
0.000000000000000
 10
138.7877399978038
 20
61.00723728821317
 30
0.000000000000000
 10
139.1333823990805
 20
60.90414293575598
 30
0.000000000000000
 10
139.4622222386442
 20
60.77069485701762
 30
0.000000000000000
 10
139.6701902634933
 20
60.66133559476584
 30
0.000000000000000
 10
139.7785285131352
 20
60.59690977572664
 30
0.000000000000000
  0
SPLINE
  5
240
100
AcDbEntity
  8
A1
  6
CONTINUOUS
 62
7
100
AcDbSpline
210
0.000000000000000
220
0.000000000000000
230
1.000000000000000
 70
     8
 71
     3
 72
    11
 73
     7
 74
     0
 42
1.000000000000000e-07
 43
1.000000000000000e-07
 12
-0.02626319482078543
 22
0.9996550628081877
 32
0.000000000000000
 13
-0.3450861731025725
 23
0.9385710059077610
 33
0.000000000000000
 40
0.000000000000000
 40
0.000000000000000
 40
0.000000000000000
 40
0.000000000000000
 40
0.1867059251028435
 40
0.3528019395140072
 40
0.4877183553177209
 40
0.5683708512101437
 40
0.5683708512101437
 40
0.5683708512101437
 40
0.5683708512101437
 10
138.1078769417591
 20
61.97706528506104
 30
0.000000000000000
 10
138.1062424437307
 20
62.03927912615615
 30
0.000000000000000
 10
138.0996548618161
 20
62.15679938510345
 30
0.000000000000000
 10
138.0820835593733
 20
62.31837758992647
 30
0.000000000000000
 10
138.0613037146892
 20
62.44425947313066
 30
0.000000000000000
 10
138.0391427904402
 20
62.51279129712132
 30
0.000000000000000
 10
138.0298654367206
 20
62.53802399518756
 30
0.000000000000000
  0
SPLINE
  5
241
100
AcDbEntity
  8
A1
  6
CONTINUOUS
 62
7
100
AcDbSpline
210
0.000000000000000
220
0.000000000000000
230
1.000000000000000
 70
     8
 71
     3
 72
    25
 73
    21
 74
     0
 42
1.000000000000000e-07
 43
1.000000000000000e-07
 12
-0.9563775510032428
 22
-0.2921334967104485
 32
0.000000000000000
 13
-0.0006857038877114974
 23
-0.9999997649049988
 33
0.000000000000000
 40
0.000000000000000
 40
0.000000000000000
 40
0.000000000000000
 40
0.000000000000000
 40
0.005064781790884900
 40
0.4271456256890799
 40
0.8143865620193762
 40
1.166804663947641
 40
1.543760244322576
 40
1.870705160274718
 40
2.154447146627401
 40
2.436768976310518
 40
2.724720335899683
 40
3.092313775838951
 40
3.468633855061196
 40
3.853809178236195
 40
4.257342973222536
 40
4.709718137455650
 40
5.213386241209367
 40
5.577898750733511
 40
5.965561355273413
 40
6.376771300665433
 40
6.376771300665433
 40
6.376771300665433
 40
6.376771300665433
 10
136.5293228058325
 20
62.37776441118817
 30
0.000000000000000
 10
136.5277081912973
 20
62.37727121371662
 30
0.000000000000000
 10
136.3915624884772
 20
62.33559590461668
 30
0.000000000000000
 10
136.1351875005161
 20
62.24523730445762
 30
0.000000000000000
 10
135.7809829527626
 20
62.08784657116186
 30
0.000000000000000
 10
135.4524247470057
 20
61.91233508902778
 30
0.000000000000000
 10
135.1543028325080
 20
61.72434440888266
 30
0.000000000000000
 10
134.8886571631160
 20
61.52948670901378
 30
0.000000000000000
 10
134.6598423882441
 20
61.33883618067949
 30
0.000000000000000
 10
134.4519535460810
 20
61.14412109813016
 30
0.000000000000000
 10
134.2367605502082
 20
60.91710518370452
 30
0.000000000000000
 10
134.0172730842063
 20
60.65185167676091
 30
0.000000000000000
 10
133.7995471420235
 20
60.34442695519274
 30
0.000000000000000
 10
133.5995033024393
 20
60.01113428885217
 30
0.000000000000000
 10
133.4145247486680
 20
59.64061849209629
 30
0.000000000000000
 10
133.2464833158619
 20
59.21910899824230
 30
0.000000000000000
 10
133.1222012079707
 20
58.79603058763435
 30
0.000000000000000
 10
133.0390834437293
 20
58.38540244471777
 30
0.000000000000000
 10
132.9908933707783
 20
58.00022322633572
 30
0.000000000000000
 10
132.9796152262806
 20
57.73379623399253
 30
0.000000000000000
 10
132.9795212368612
 20
57.59672628441965
 30
0.000000000000000
  0
SPLINE
  5
242
100
AcDbEntity
  8
A1
  6
CONTINUOUS
 62
7
100
AcDbSpline
210
0.000000000000000
220
0.000000000000000
230
1.000000000000000
 70
     8
 71
     3
 72
    17
 73
    13
 74
     0
 42
1.000000000000000e-07
 43
1.000000000000000e-07
 12
0.001734237568257413
 22
0.9999984962088320
 32
0.000000000000000
 13
0.9322224378702231
 23
0.3618857918339700
 33
0.000000000000000
 40
0.000000000000000
 40
0.000000000000000
 40
0.000000000000000
 40
0.000000000000000
 40
0.5527479179926039
 40
1.104107859565609
 40
1.654708173276002
 40
2.204690997812260
 40
2.754087597899653
 40
3.303196820324070
 40
3.852234235851391
 40
4.355070694765528
 40
4.857901893625320
 40
5.255377897207750
 40
5.255377897207750
 40
5.255377897207750
 40
5.255377897207750
 10
133.7295212368612
 20
57.59672628441965
 30
0.000000000000000
 10
133.7298407689296
 20
57.78097531334472
 30
0.000000000000000
 10
133.7535885235646
 20
58.14943598991933
 30
0.000000000000000
 10
133.8597758661741
 20
58.69212077142363
 30
0.000000000000000
 10
134.0318055499588
 20
59.21667671966973
 30
0.000000000000000
 10
134.2665548023392
 20
59.71558695406468
 30
0.000000000000000
 10
134.5606349126083
 20
60.18143100356509
 30
0.000000000000000
 10
134.9105787068225
 20
60.60663024100087
 30
0.000000000000000
 10
135.3014907284932
 20
60.97216596585907
 30
0.000000000000000
 10
135.7213499955475
 20
61.27786827071294
 30
0.000000000000000
 10
136.1291768652380
 20
61.50890681771563
 30
0.000000000000000
 10
136.4042578079919
 20
61.62996559141805
 30
0.000000000000000
 10
136.5277698243434
 20
61.67791256418185
 30
0.000000000000000
  0
SPLINE
  5
243
100
AcDbEntity
  8
A1
  6
CONTINUOUS
 62
7
100
AcDbSpline
210
0.000000000000000
220
0.000000000000000
230
1.000000000000000
 70
     8
 71
     3
 72
    21
 73
    17
 74
     0
 42
1.000000000000000e-07
 43
1.000000000000000e-07
 12
0.001380413146648607
 22
0.9999990472292097
 32
0.000000000000000
 13
0.9101868012839986
 23
0.4141980043295916
 33
0.000000000000000
 40
0.000000000000000
 40
0.000000000000000
 40
0.000000000000000
 40
0.000000000000000
 40
0.3999100533711282
 40
0.7885426734531283
 40
1.165095205763143
 40
1.520712502064722
 40
1.853597845188998
 40
2.163806273437336
 40
2.342096977889555
 40
2.547616063207821
 40
2.789322464613000
 40
3.067009916976922
 40
3.380613960512638
 40
3.669550655828581
 40
3.983641798088511
 40
3.997569902751999
 40
3.997569902751999
 40
3.997569902751999
 40
3.997569902751999
 10
134.4795212368612
 20
57.59672628441965
 30
0.000000000000000
 10
134.4797052505596
 20
57.73002950853583
 30
0.000000000000000
 10
134.4950893059670
 20
57.99313079758185
 30
0.000000000000000
 10
134.5623543925501
 20
58.37640943837567
 30
0.000000000000000
 10
134.6664080927169
 20
58.73595978494767
 30
0.000000000000000
 10
134.7997282420729
 20
59.06562720240703
 30
0.000000000000000
 10
134.9538378305079
 20
59.36124842440707
 30
0.000000000000000
 10
135.1020647370233
 20
59.59189913969361
 30
0.000000000000000
 10
135.2404570544803
 20
59.77738722739762
 30
0.000000000000000
 10
135.3742889340155
 20
59.93743791730196
 30
0.000000000000000
 10
135.5412493809750
 20
60.11240414545240
 30
0.000000000000000
 10
135.7481112522796
 20
60.29808535295356
 30
0.000000000000000
 10
135.9828170876478
 20
60.47485211772975
 30
0.000000000000000
 10
136.2420094257603
 20
60.63722966113705
 30
0.000000000000000
 10
136.4252017306322
 20
60.73138019407263
 30
0.000000000000000
 10
136.5246271297327
 20
60.77687232916251
 30
0.000000000000000
 10
136.5288528554099
 20
60.77879532688109
 30
0.000000000000000
  0
SPLINE
  5
244
100
AcDbEntity
  8
A1
  6
CONTINUOUS
 62
7
100
AcDbSpline
210
0.000000000000000
220
0.000000000000000
230
1.000000000000000
 70
     8
 71
     3
 72
    13
 73
     9
 74
     0
 42
1.000000000000000e-07
 43
1.000000000000000e-07
 12
0.3736327960941708
 22
0.9275766996197490
 32
0.000000000000000
 13
-0.03012555894838442
 23
0.9995461223463735
 33
0.000000000000000
 40
0.000000000000000
 40
0.000000000000000
 40
0.000000000000000
 40
0.000000000000000
 40
0.01322451040094480
 40
0.1222705106264307
 40
0.2679913164728595
 40
0.4425111147187039
 40
0.6337771576214264
 40
0.8292734318404754
 40
0.8292734318404754
 40
0.8292734318404754
 40
0.8292734318404754
 10
138.0297678508106
 20
61.15521535566489
 30
0.000000000000000
 10
138.0314148877433
 20
61.15930427156883
 30
0.000000000000000
 10
138.0462820545955
 20
61.19726417149582
 30
0.000000000000000
 10
138.0674902350245
 20
61.28449499879729
 30
0.000000000000000
 10
138.0892484952892
 20
61.42591904275878
 30
0.000000000000000
 10
138.1036893841832
 20
61.59595427422881
 30
0.000000000000000
 10
138.1107210943687
 20
61.78295410584845
 30
0.000000000000000
 10
138.1098400866035
 20
61.91192943745143
 30
0.000000000000000
 10
138.1078769417591
 20
61.97706528506104
 30
0.000000000000000
  0
ARC
  5
245
100
AcDbEntity
  8
A1
  6
CONTINUOUS
 62
7
100
AcDbCircle
 10
137.9795212368608
 20
57.59672628441965
 30
0.000000000000000
 40
4.999999999999691
100
AcDbArc
 50
270.5735816580503
 51
323.1300833688289
  0
ARC
  5
246
100
AcDbEntity
  8
A1
  6
CONTINUOUS
 62
7
100
AcDbCircle
 10
137.9795212368608
 20
57.59672628441965
 30
0.000000000000000
 40
4.999999999999691
100
AcDbArc
 50
180.0000000000000
 51
253.1426858419723
  0
ARC
  5
247
100
AcDbEntity
  8
A1
  6
CONTINUOUS
 62
7
100
AcDbCircle
 10
137.9795212368608
 20
57.59672628441965
 30
0.000000000000000
 40
3.499999999999690
100
AcDbArc
 50
180.0000000000000
 51
245.5266216144766
  0
ARC
  5
248
100
AcDbEntity
  8
A1
  6
CONTINUOUS
 62
7
100
AcDbCircle
 10
137.9795212368608
 20
57.59672628441965
 30
0.000000000000000
 40
3.499999999999690
100
AcDbArc
 50
270.8194166149767
 51
301.0026761076713
  0
LINE
  5
249
100
AcDbEntity
  8
A1
  6
CONTINUOUS
 62
7
100
AcDbLine
 10
138.0298896182701
 20
61.09706858221615
 30
0.000000000000000
 11
138.1751482787788
 21
61.09182239283983
 31
0.000000000000000
  0
LINE
  5
24A
100
AcDbEntity
  8
A1
  6
CONTINUOUS
 62
7
100
AcDbLine
 10
138.0293048759557
 20
61.97633200471079
 30
0.000000000000000
 11
138.1078769417590
 21
61.97706528506103
 31
0.000000000000000
  0
LINE
  5
24B
100
AcDbEntity
  8
A1
  6
CONTINUOUS
 62
7
100
AcDbLine
 10
132.9795212368612
 20
57.59672628441965
 30
0.000000000000000
 11
133.7295219026515
 21
57.59672628441965
 31
0.000000000000000
  0
LINE
  5
24C
100
AcDbEntity
  8
A1
  6
CONTINUOUS
 62
7
100
AcDbLine
 10
133.7295219026515
 20
57.59672628441965
 30
0.000000000000000
 11
134.4795212368612
 21
57.59672628441965
 31
0.000000000000000
  0
SPLINE
  5
24D
100
AcDbEntity
  8
A1
  6
CONTINUOUS
 62
7
100
AcDbSpline
210
0.000000000000000
220
0.000000000000000
230
1.000000000000000
 70
     8
 71
     3
 72
    17
 73
    13
 74
     0
 42
1.000000000000000e-07
 43
1.000000000000000e-07
 12
-0.05524540246915421
 22
0.9984728065930994
 32
0.000000000000000
 13
-0.9956645175579979
 23
0.09301703325172639
 33
0.000000000000000
 40
0.000000000000000
 40
0.000000000000000
 40
0.000000000000000
 40
0.000000000000000
 40
0.1128066998567261
 40
0.2488106318079060
 40
0.4217792510010632
 40
0.6387022242578956
 40
0.9006606978373690
 40
1.204024110208615
 40
1.521517622011355
 40
1.861352261758188
 40
2.214519431252713
 40
2.347052505074249
 40
2.347052505074249
 40
2.347052505074249
 40
2.347052505074249
 10
143.7795748431165
 20
53.43534628621325
 30
0.000000000000000
 10
143.7774974926049
 20
53.47289109361607
 30
0.000000000000000
 10
143.7608113949599
 20
53.55648587596329
 30
0.000000000000000
 10
143.6753007138668
 20
53.67218545086268
 30
0.000000000000000
 10
143.5390776106090
 20
53.78375233763222
 30
0.000000000000000
 10
143.3485510753116
 20
53.89014598368763
 30
0.000000000000000
 10
143.1068576695719
 20
53.98900967952005
 30
0.000000000000000
 10
142.8252458715345
 20
54.07552661750142
 30
0.000000000000000
 10
142.5132822878429
 20
54.14860109689329
 30
0.000000000000000
 10
142.1814843771365
 20
54.20744350028914
 30
0.000000000000000
 10
141.9084947900770
 20
54.24281007991281
 30
0.000000000000000
 10
141.7474197838041
 20
54.25917574263531
 30
0.000000000000000
 10
141.7034336241351
 20
54.26328502041351
 30
0.000000000000000
  0
SPLINE
  5
24E
100
AcDbEntity
  8
A1
  6
CONTINUOUS
 62
7
100
AcDbSpline
210
0.000000000000000
220
0.000000000000000
230
1.000000000000000
 70
     8
 71
     3
 72
    14
 73
    10
 74
     0
 42
1.000000000000000e-07
 43
1.000000000000000e-07
 12
-0.09804597639686108
 22
0.9951818861463835
 32
0.000000000000000
 13
-0.9951820520693673
 23
0.09804429222640465
 33
0.000000000000000
 40
0.000000000000000
 40
0.000000000000000
 40
0.000000000000000
 40
0.000000000000000
 40
0.07354698752697940
 40
0.1702182055710758
 40
0.3020094046430177
 40
0.4724122364780840
 40
0.6780470049764917
 40
0.9061210072719841
 40
1.131988005730552
 40
1.131988005730552
 40
1.131988005730552
 40
1.131988005730552
 10
142.2795748431165
 20
53.43534642635657
 30
0.000000000000000
 10
142.2771711810488
 20
53.45974396961239
 30
0.000000000000000
 10
142.2627026581092
 20
53.51683466235688
 30
0.000000000000000
 10
142.1888242155754
 20
53.59008094038253
 30
0.000000000000000
 10
142.0753000779214
 20
53.65930497180278
 30
0.000000000000000
 10
141.9173606169614
 20
53.72249121561408
 30
0.000000000000000
 10
141.7232332567233
 20
53.77663963766376
 30
0.000000000000000
 10
141.5071032652126
 20
53.81807309412063
 30
0.000000000000000
 10
141.3570060046899
 20
53.83793776447389
 30
0.000000000000000
 10
141.2820797436830
 20
53.84531942114094
 30
0.000000000000000
  0
LINE
  5
24F
100
AcDbEntity
  8
A1
  6
CONTINUOUS
 62
7
100
AcDbLine
 10
142.2795748431165
 20
52.05719292731724
 30
0.000000000000000
 11
143.7795748431165
 21
52.05719292731724
 31
0.000000000000000
  0
LINE
  5
250
100
AcDbEntity
  8
A1
  6
CONTINUOUS
 62
7
100
AcDbLine
 10
142.2795748431165
 20
52.05279852624811
 30
0.000000000000000
 11
142.2795748431165
 21
52.16989718793384
 31
0.000000000000000
  0
LINE
  5
251
100
AcDbEntity
  8
A1
  6
CONTINUOUS
 62
7
100
AcDbLine
 10
167.7795748431168
 20
54.59672521176005
 30
0.000000000000000
 11
167.7795748431168
 21
53.43534632774316
 31
0.000000000000000
  0
LINE
  5
252
100
AcDbEntity
  8
A1
  6
CONTINUOUS
 62
7
100
AcDbLine
 10
143.7795748431165
 20
54.59672521176005
 30
0.000000000000000
 11
143.7795748431165
 21
53.43534632774316
 31
0.000000000000000
  0
LINE
  5
253
100
AcDbEntity
  8
A1
  6
CONTINUOUS
 62
7
100
AcDbLine
 10
167.7795748431168
 20
53.43534632774313
 30
0.000000000000000
 11
167.7795748431168
 21
52.59672630755458
 31
0.000000000000000
  0
LINE
  5
254
100
AcDbEntity
  8
A1
  6
CONTINUOUS
 62
7
100
AcDbLine
 10
142.2795748431165
 20
52.16989718793384
 30
0.000000000000000
 11
142.2795748431165
 21
53.43534642635657
 31
0.000000000000000
  0
LINE
  5
255
100
AcDbEntity
  8
A1
  6
CONTINUOUS
 62
7
100
AcDbLine
 10
143.7795748431165
 20
53.43534632774313
 30
0.000000000000000
 11
143.7795748431165
 21
52.05719292731724
 31
0.000000000000000
  0
LINE
  5
256
100
AcDbEntity
  8
A1
  6
CONTINUOUS
 62
7
100
AcDbLine
 10
136.5295748431167
 20
51.59672551782235
 30
0.000000000000000
 11
136.5295748431167
 21
51.69398727264650
 31
0.000000000000000
  0
LINE
  5
257
100
AcDbEntity
  8
A1
  6
CONTINUOUS
 62
7
100
AcDbLine
 10
138.0295748431170
 20
51.69398727264649
 30
0.000000000000000
 11
138.0295748431170
 21
51.59672551782234
 31
0.000000000000000
  0
LINE
  5
258
100
AcDbEntity
  8
A1
  6
CONTINUOUS
 62
7
100
AcDbLine
 10
138.0295748431167
 20
51.59672551782235
 30
0.000000000000000
 11
136.5295748431167
 21
51.59672551782235
 31
0.000000000000000
  0
LINE
  5
259
100
AcDbEntity
  8
A1
  6
CONTINUOUS
 62
7
100
AcDbLine
 10
136.5295748431164
 20
63.49946246478160
 30
0.000000000000000
 11
136.5295748431164
 21
63.59672552945254
 31
0.000000000000000
  0
LINE
  5
25A
100
AcDbEntity
  8
A1
  6
CONTINUOUS
 62
7
100
AcDbLine
 10
138.0295748431167
 20
63.59672552945254
 30
0.000000000000000
 11
136.5295748431167
 21
63.59672552945254
 31
0.000000000000000
  0
LINE
  5
25B
100
AcDbEntity
  8
A1
  6
CONTINUOUS
 62
7
100
AcDbLine
 10
138.0295748431167
 20
63.59672552945253
 30
0.000000000000000
 11
138.0295748431167
 21
63.49946246478159
 31
0.000000000000000
  0
LINE
  5
25C
100
AcDbEntity
  8
A1
  6
CONTINUOUS
 62
7
100
AcDbLine
 10
136.5295748431167
 20
63.49946246478161
 30
0.000000000000000
 11
136.5295748431167
 21
51.69398727264652
 31
0.000000000000000
  0
LINE
  5
25D
100
AcDbEntity
  8
A1
  6
CONTINUOUS
 62
7
100
AcDbLine
 10
138.0295748431167
 20
54.59672279324604
 30
0.000000000000000
 11
138.0295748431167
 21
51.69398727264652
 31
0.000000000000000
  0
LINE
  5
25E
100
AcDbEntity
  8
A1
  6
CONTINUOUS
 62
7
100
AcDbLine
 10
138.0295748431167
 20
63.49946246478161
 30
0.000000000000000
 11
138.0295748431167
 21
60.59672514791604
 31
0.000000000000000
  0
SPLINE
  5
25F
100
AcDbEntity
  8
A1
  6
CONTINUOUS
 62
7
100
AcDbSpline
210
0.000000000000000
220
0.000000000000000
230
1.000000000000000
 70
     8
 71
     3
 72
    14
 73
    10
 74
     0
 42
1.000000000000000e-07
 43
1.000000000000000e-07
 12
0.01523928466644975
 22
0.9998838753589325
 32
0.000000000000000
 13
0.9446069579116738
 23
0.3282037401743310
 33
0.000000000000000
 40
0.000000000000000
 40
0.000000000000000
 40
0.000000000000000
 40
0.000000000000000
 40
0.2686109261826854
 40
0.5529931575486559
 40
0.8586020886976327
 40
1.051894548432598
 40
1.257384614034849
 40
1.474192394875832
 40
1.704170150424866
 40
1.704170150424866
 40
1.704170150424866
 40
1.704170150424866
 10
165.5295748431167
 20
65.05352022563773
 30
0.000000000000000
 10
165.5309393225729
 20
65.14304680358282
 30
0.000000000000000
 10
165.5540205102255
 20
65.32806405954859
 30
0.000000000000000
 10
165.6612030808712
 20
65.59626107702168
 30
0.000000000000000
 10
165.8085951648496
 20
65.81419362118426
 30
0.000000000000000
 10
165.9710422749785
 20
65.98449389793106
 30
0.000000000000000
 10
166.1309686039444
 20
66.11401853799524
 30
0.000000000000000
 10
166.3170661474118
 20
66.22768613417239
 30
0.000000000000000
 10
166.4544757744433
 20
66.28672686588172
 30
0.000000000000000
 10
166.5268886371288
 20
66.31188671905775
 30
0.000000000000000
  0
SPLINE
  5
260
100
AcDbEntity
  8
A1
  6
CONTINUOUS
 62
7
100
AcDbSpline
210
0.000000000000000
220
0.000000000000000
230
1.000000000000000
 70
     8
 71
     3
 72
     9
 73
     5
 74
     0
 42
1.000000000000000e-07
 43
1.000000000000000e-07
 12
-0.9440991981421121
 22
0.3296614992187870
 32
0.000000000000000
 13
-0.9999988802178450
 23
0.001496518004387326
 33
0.000000000000000
 40
0.000000000000000
 40
0.000000000000000
 40
0.000000000000000
 40
0.000000000000000
 40
0.2800135555192771
 40
0.5062719985121154
 40
0.5062719985121154
 40
0.5062719985121154
 40
0.5062719985121154
 10
166.5268886371288
 20
66.31188671905775
 30
0.000000000000000
 10
166.4387684460506
 20
66.34265661522910
 30
0.000000000000000
 10
166.2739486022613
 20
66.38398045997013
 30
0.000000000000000
 10
166.1049942396608
 20
66.39661344094367
 30
0.000000000000000
 10
166.0295748431166
 20
66.39672630755486
 30
0.000000000000000
  0
SPLINE
  5
261
100
AcDbEntity
  8
A1
  6
CONTINUOUS
 62
7
100
AcDbSpline
210
0.000000000000000
220
0.000000000000000
230
1.000000000000000
 70
     8
 71
     3
 72
    14
 73
    10
 74
     0
 42
1.000000000000000e-07
 43
1.000000000000000e-07
 12
0.9442200105465872
 22
-0.3293153073913118
 32
0.000000000000000
 13
0.008674599671394390
 23
-0.9999623749524744
 33
0.000000000000000
 40
0.000000000000000
 40
0.000000000000000
 40
0.000000000000000
 40
0.000000000000000
 40
0.2890794502316865
 40
0.5584449673526876
 40
0.8099048530703691
 40
1.044154596042584
 40
1.274795090000932
 40
1.493978194739360
 40
1.704519686318873
 40
1.704519686318873
 40
1.704519686318873
 40
1.704519686318873
 10
145.5322610491037
 20
66.31188671905745
 30
0.000000000000000
 10
145.6232459162859
 20
66.28015395638627
 30
0.000000000000000
 10
145.7939900271409
 20
66.20299809304591
 30
0.000000000000000
 10
146.0175454802629
 20
66.04942586350943
 30
0.000000000000000
 10
146.1995081301328
 20
65.87394403198857
 30
0.000000000000000
 10
146.3435205395858
 20
65.68219968687043
 30
0.000000000000000
 10
146.4488082349741
 20
65.47869404659639
 30
0.000000000000000
 10
146.5147196398462
 20
65.26730746352681
 30
0.000000000000000
 10
146.5289660553988
 20
65.12369808228635
 30
0.000000000000000
 10
146.5295748431167
 20
65.05352022563773
 30
0.000000000000000
  0
SPLINE
  5
262
100
AcDbEntity
  8
A1
  6
CONTINUOUS
 62
7
100
AcDbSpline
210
0.000000000000000
220
0.000000000000000
230
1.000000000000000
 70
     8
 71
     3
 72
    45
 73
    41
 74
     0
 42
1.000000000000000e-07
 43
1.000000000000000e-07
 12
0.9999864341662033
 22
0.005208786635193974
 32
0.000000000000000
 13
0.9995570170376595
 23
-0.02976188312004524
 33
0.000000000000000
 40
0.000000000000000
 40
0.000000000000000
 40
0.000000000000000
 40
0.000000000000000
 40
0.007782554493543200
 40
0.1196035381918975
 40
0.2822709408520824
 40
0.4984440294562590
 40
0.7652496244374556
 40
1.062087039165064
 40
1.403089206862111
 40
1.789007342022182
 40
2.216286329898431
 40
2.678130720143283
 40
3.204265454749212
 40
3.767121718547939
 40
4.365128115649477
 40
4.987775828158483
 40
5.631519226412782
 40
6.296160144939265
 40
7.105941446390855
 40
7.931448407069694
 40
8.765312978339566
 40
9.608919470968177
 40
10.46679184229993
 40
11.31269247638519
 40
12.14770248258923
 40
12.97109721861573
 40
13.76704168472024
 40
14.51509746716620
 40
15.23033242794062
 40
15.90875628855132
 40
16.53434336913025
 40
17.02175223622924
 40
17.46872109031789
 40
17.87367059193402
 40
18.22843006595255
 40
18.53138608644391
 40
18.78347589121676
 40
19.01541563711171
 40
19.17521786680132
 40
19.21808852164017
 40
19.21808852164017
 40
19.21808852164017
 40
19.21808852164017
 10
146.6087725301388
 20
60.22439473457668
 30
0.000000000000000
 10
146.6113666797777
 20
60.22440824713197
 30
0.000000000000000
 10
146.6512390889341
 20
60.22484275988467
 30
0.000000000000000
 10
146.7447080298218
 20
60.23956882414183
 30
0.000000000000000
 10
146.9037550276353
 20
60.27713036929983
 30
0.000000000000000
 10
147.1109890820156
 20
60.33562646221499
 30
0.000000000000000
 10
147.3597856184984
 20
60.41081569306153
 30
0.000000000000000
 10
147.6478375896267
 20
60.50005754211455
 30
0.000000000000000
 10
147.9738732347871
 20
60.60081403058811
 30
0.000000000000000
 10
148.3420680646528
 20
60.71241923517178
 30
0.000000000000000
 10
148.7499662820663
 20
60.83184709138305
 30
0.000000000000000
 10
149.2043536191920
 20
60.95872005205281
 30
0.000000000000000
 10
149.7043704631533
 20
61.09002836738161
 30
0.000000000000000
 10
150.2508335723425
 20
61.22282892637408
 30
0.000000000000000
 10
150.8313322572867
 20
61.35132262278038
 30
0.000000000000000
 10
151.4410204874133
 20
61.47202514526259
 30
0.000000000000000
 10
152.0753142047444
 20
61.58191704101477
 30
0.000000000000000
 10
152.7738994221833
 20
61.68487355255020
 30
0.000000000000000
 10
153.5354035506691
 20
61.77465037918377
 30
0.000000000000000
 10
154.3556479654024
 20
61.84435314182765
 30
0.000000000000000
 10
155.1890370923998
 20
61.88711207774952
 30
0.000000000000000
 10
156.0341923792058
 20
61.90163839177462
 30
0.000000000000000
 10
156.8833630067672
 20
61.88680919382340
 30
0.000000000000000
 10
157.7286414576289
 20
61.84274267945680
 30
0.000000000000000
 10
158.5604824529599
 20
61.77104521625758
 30
0.000000000000000
 10
159.3729475762955
 20
61.67382475908815
 30
0.000000000000000
 10
160.1532522145810
 20
61.55528471303748
 30
0.000000000000000
 10
160.8942055798754
 20
61.42012932800045
 30
0.000000000000000
 10
161.5928405325383
 20
61.27286696544466
 30
0.000000000000000
 10
162.2478351540226
 20
61.11760304044081
 30
0.000000000000000
 10
162.8257018740974
 20
60.96694606011174
 30
0.000000000000000
 10
163.3265187739549
 20
60.82698891823605
 30
0.000000000000000
 10
163.7548828040308
 20
60.70119100964224
 30
0.000000000000000
 10
164.1396981230124
 20
60.58413300436759
 30
0.000000000000000
 10
164.4780693792762
 20
60.47931626631490
 30
0.000000000000000
 10
164.7678116237685
 20
60.38987624411838
 30
0.000000000000000
 10
165.0192269225275
 20
60.31460282189919
 30
0.000000000000000
 10
165.2263437026194
 20
60.25932563748894
 30
0.000000000000000
 10
165.3685507424873
 20
60.22827850076662
 30
0.000000000000000
 10
165.4360970532016
 20
60.22482021262157
 30
0.000000000000000
 10
165.4503809411580
 20
60.22439490881538
 30
0.000000000000000
  0
SPLINE
  5
263
100
AcDbEntity
  8
A1
  6
CONTINUOUS
 62
7
100
AcDbSpline
210
0.000000000000000
220
0.000000000000000
230
1.000000000000000
 70
     8
 71
     3
 72
     9
 73
     5
 74
     0
 42
1.000000000000000e-07
 43
1.000000000000000e-07
 12
0.9848495234982693
 22
-0.1734111186524387
 32
0.000000000000000
 13
0.3844267836229847
 23
0.9231554842094738
 33
0.000000000000000
 40
0.000000000000000
 40
0.000000000000000
 40
0.000000000000000
 40
0.000000000000000
 40
0.04957240001598450
 40
0.09707722774418290
 40
0.09707722774418290
 40
0.09707722774418290
 40
0.09707722774418290
 10
165.4503809411580
 20
60.22439490881538
 30
0.000000000000000
 10
165.4666547260028
 20
60.22152944036836
 30
0.000000000000000
 10
165.5028515159391
 20
60.22334394928322
 30
0.000000000000000
 10
165.5234874670732
 20
60.25279684845529
 30
0.000000000000000
 10
165.5295748431166
 20
60.26741496253653
 30
0.000000000000000
  0
SPLINE
  5
264
100
AcDbEntity
  8
A1
  6
CONTINUOUS
 62
7
100
AcDbSpline
210
0.000000000000000
220
0.000000000000000
230
1.000000000000000
 70
     8
 71
     3
 72
     9
 73
     5
 74
     0
 42
1.000000000000000e-07
 43
1.000000000000000e-07
 12
0.3090405913080758
 22
-0.9510488488622286
 32
0.000000000000000
 13
0.9824690995874334
 23
0.1864255035020506
 33
0.000000000000000
 40
0.000000000000000
 40
0.000000000000000
 40
0.000000000000000
 40
0.000000000000000
 40
0.03968587113375230
 40
0.09819161255285340
 40
0.09819161255285340
 40
0.09819161255285340
 40
0.09819161255285340
 10
146.5295748431167
 20
60.26741496253653
 30
0.000000000000000
 10
146.5336630248106
 20
60.25483389518391
 30
0.000000000000000
 10
146.5508280886805
 20
60.22324650676455
 30
0.000000000000000
 10
146.5896125024412
 20
60.22075908047608
 30
0.000000000000000
 10
146.6087725301388
 20
60.22439473457668
 30
0.000000000000000
  0
SPLINE
  5
265
100
AcDbEntity
  8
A1
  6
CONTINUOUS
 62
7
100
AcDbSpline
210
0.000000000000000
220
0.000000000000000
230
1.000000000000000
 70
     8
 71
     3
 72
    45
 73
    41
 74
     0
 42
1.000000000000000e-07
 43
1.000000000000000e-07
 12
-0.8262158648494733
 22
0.008885218200248346
 32
0.000000000000000
 13
-0.2768544283426309
 23
-0.01010840559411008
 33
0.000000000000000
 40
0.000000000000000
 40
0.000000000000000
 40
0.000000000000000
 40
0.000000000000000
 40
0.08753079981350456
 40
0.2055451671631798
 40
0.3760495749809127
 40
0.5980569111028194
 40
0.8917969195814817
 40
1.261824727671398
 40
1.713871453406782
 40
2.229201001381531
 40
2.769374394759451
 40
3.323977028705436
 40
3.886365637332869
 40
4.480455671274560
 40
5.101099433405428
 40
5.743361730502870
 40
6.447281705991267
 40
7.211695514885603
 40
8.032465549632201
 40
8.864610515868121
 40
9.707220452603348
 40
10.55367836766995
 40
11.39725058836310
 40
12.22945749896670
 40
13.04528406006385
 40
13.83250940856473
 40
14.58414913095980
 40
15.29723431974684
 40
15.97038010503035
 40
16.56851646430194
 40
17.09038898611902
 40
17.53953805022915
 40
17.94554860820407
 40
18.30468122256531
 40
18.61389677846955
 40
18.88314534551878
 40
19.10574597728123
 40
19.27327982537593
 40
19.36598213618833
 40
19.40538894509170
 40
19.40538894509170
 40
19.40538894509170
 40
19.40538894509170
 10
165.5097213510514
 20
58.72439433619382
 30
0.000000000000000
 10
165.4856149058951
 20
58.72465357961234
 30
0.000000000000000
 10
165.4241178974822
 20
58.74016454038704
 30
0.000000000000000
 10
165.3109850246102
 20
58.77375537212238
 30
0.000000000000000
 10
165.1496193949411
 20
58.82882702224087
 30
0.000000000000000
 10
164.9400343026973
 20
58.90204823775312
 30
0.000000000000000
 10
164.6629043078415
 20
58.99942461339050
 30
0.000000000000000
 10
164.3130432774593
 20
59.11991460542211
 30
0.000000000000000
 10
163.8839065244878
 20
59.26199869846950
 30
0.000000000000000
 10
163.3921669268036
 20
59.41613082064164
 30
0.000000000000000
 10
162.8736752078269
 20
59.56763538250684
 30
0.000000000000000
 10
162.3383022361720
 20
59.71241059724070
 30
0.000000000000000
 10
161.7925091159362
 20
59.84802334375527
 30
0.000000000000000
 10
161.2129164126589
 20
59.97846592398328
 30
0.000000000000000
 10
160.6043741059630
 20
60.10042878895911
 30
0.000000000000000
 10
159.9716989975654
 20
60.21098676238027
 30
0.000000000000000
 10
159.2753898631035
 20
60.31421912724984
 30
0.000000000000000
 10
158.5162714508995
 20
60.40403954520251
 30
0.000000000000000
 10
157.6984607214725
 20
60.47367474299746
 30
0.000000000000000
 10
156.8674103251303
 20
60.51634186817992
 30
0.000000000000000
 10
156.0249246138140
 20
60.53081016845138
 30
0.000000000000000
 10
155.1785955874015
 20
60.51603921619349
 30
0.000000000000000
 10
154.3361686578980
 20
60.47209652655785
 30
0.000000000000000
 10
153.5070454139103
 20
60.40052147269266
 30
0.000000000000000
 10
152.6970375490425
 20
60.30325772485249
 30
0.000000000000000
 10
151.9188498500894
 20
60.18431381151333
 30
0.000000000000000
 10
151.1796438593627
 20
60.04816398391230
 30
0.000000000000000
 10
150.4823216998436
 20
59.89905901313301
 30
0.000000000000000
 10
149.8280464759141
 20
59.74078968699267
 30
0.000000000000000
 10
149.2503227279907
 20
59.58586268686653
 30
0.000000000000000
 10
148.7491366426144
 20
59.44038610162740
 30
0.000000000000000
 10
148.3199566955989
 20
59.30794949463802
 30
0.000000000000000
 10
147.9337929020298
 20
59.18256170526682
 30
0.000000000000000
 10
147.5935225408072
 20
59.06770389764648
 30
0.000000000000000
 10
147.3014652959893
 20
58.96613212123893
 30
0.000000000000000
 10
147.0473712152347
 20
58.87707602103515
 30
0.000000000000000
 10
146.8374181294632
 20
58.80311154959058
 30
0.000000000000000
 10
146.6776247374587
 20
58.75277605387313
 30
0.000000000000000
 10
146.5887851457344
 20
58.72629501589842
 30
0.000000000000000
 10
146.5530611070084
 20
58.72452753600786
 30
0.000000000000000
 10
146.5494244571578
 20
58.72439475600534
 30
0.000000000000000
  0
ARC
  5
266
100
AcDbEntity
  8
A1
  6
CONTINUOUS
 62
7
100
AcDbCircle
 10
146.0295748431167
 20
64.89672630755480
 30
0.000000000000000
 40
1.500000000000025
100
AcDbArc
 50
131.8103148957739
 51
180.0000000000000
  0
ARC
  5
267
100
AcDbEntity
  8
A1
  6
CONTINUOUS
 62
7
100
AcDbCircle
 10
166.0295748431167
 20
64.89672630755479
 30
0.000000000000000
 40
1.499999999999948
100
AcDbArc
 50
4.750000000000000e-13
 51
48.18968510422227
  0
ARC
  5
268
100
AcDbEntity
  8
A1
  6
CONTINUOUS
 62
7
100
AcDbCircle
 10
146.0295434787002
 20
64.89677937068987
 30
0.000000000000000
 40
1.499939539511296
100
AcDbArc
 50
109.3619692089829
 51
131.8107731952103
  0
ARC
  5
269
100
AcDbEntity
  8
A1
  6
CONTINUOUS
 62
7
100
AcDbCircle
 10
166.0296503016346
 20
64.89685397023725
 30
0.000000000000000
 40
1.499854540453702
100
AcDbArc
 50
48.18858243564451
 51
70.63867516017476
  0
ARC
  5
26A
100
AcDbEntity
  8
A1
  6
CONTINUOUS
 62
7
100
AcDbCircle
 10
146.0301816138521
 20
64.89316953103059
 30
0.000000000000000
 40
1.503556898957464
100
AcDbArc
 50
90.02312210681093
 51
109.3393054015892
  0
LINE
  5
26B
100
AcDbEntity
  8
A1
  6
CONTINUOUS
 62
7
100
AcDbLine
 10
166.0295748431166
 20
52.59672630755456
 30
0.000000000000000
 11
166.0295748431166
 21
55.59672630755456
 31
0.000000000000000
  0
LINE
  5
26C
100
AcDbEntity
  8
A1
  6
CONTINUOUS
 62
7
100
AcDbLine
 10
167.5295748431166
 20
52.59672630755457
 30
0.000000000000000
 11
167.5295748431166
 21
55.59672630755457
 31
0.000000000000000
  0
LINE
  5
26D
100
AcDbEntity
  8
A1
  6
CONTINUOUS
 62
7
100
AcDbLine
 10
144.5295748431166
 20
52.59672630755456
 30
0.000000000000000
 11
144.5295748431166
 21
55.59672630755466
 31
0.000000000000000
  0
LINE
  5
26E
100
AcDbEntity
  8
A1
  6
CONTINUOUS
 62
7
100
AcDbLine
 10
146.0295748431166
 20
52.59672630755456
 30
0.000000000000000
 11
146.0295748431166
 21
55.59672630755466
 31
0.000000000000000
  0
LINE
  5
26F
100
AcDbEntity
  8
A1
  6
CONTINUOUS
 62
7
100
AcDbLine
 10
144.5295748431166
 20
64.89672630755480
 30
0.000000000000000
 11
144.5295748431166
 21
55.59672630755466
 31
0.000000000000000
  0
LINE
  5
270
100
AcDbEntity
  8
A1
  6
CONTINUOUS
 62
7
100
AcDbLine
 10
146.0295748431166
 20
64.89672632939467
 30
0.000000000000000
 11
146.0295748431166
 21
55.59672630755466
 31
0.000000000000000
  0
LINE
  5
271
100
AcDbEntity
  8
A1
  6
CONTINUOUS
 62
7
100
AcDbLine
 10
167.5295748431166
 20
64.89672630755480
 30
0.000000000000000
 11
167.5295748431166
 21
55.59672630755456
 31
0.000000000000000
  0
LINE
  5
272
100
AcDbEntity
  8
A1
  6
CONTINUOUS
 62
7
100
AcDbLine
 10
166.0295748431166
 20
55.59672630755456
 30
0.000000000000000
 11
166.0295748431166
 21
64.89672632939467
 31
0.000000000000000
  0
LINE
  5
273
100
AcDbEntity
  8
A1
  6
CONTINUOUS
 62
7
100
AcDbLine
 10
146.0295748431166
 20
64.89672632939467
 30
0.000000000000000
 11
146.5295748431167
 21
64.89672632939467
 31
0.000000000000000
  0
LINE
  5
274
100
AcDbEntity
  8
A1
  6
CONTINUOUS
 62
7
100
AcDbLine
 10
165.5295748431167
 20
64.89672632939465
 30
0.000000000000000
 11
166.0295748431166
 21
64.89672632939465
 31
0.000000000000000
  0
LINE
  5
275
100
AcDbEntity
  8
A1
  6
CONTINUOUS
 62
7
100
AcDbLine
 10
146.5295748431166
 20
60.26741496253653
 30
0.000000000000000
 11
146.5295748431166
 21
65.05352022563771
 31
0.000000000000000
  0
LINE
  5
276
100
AcDbEntity
  8
A1
  6
CONTINUOUS
 62
7
100
AcDbLine
 10
165.5295748431167
 20
60.26741496253653
 30
0.000000000000000
 11
165.5295748431167
 21
65.05352022563773
 31
0.000000000000000
  0
LINE
  5
277
100
AcDbEntity
  8
A1
  6
CONTINUOUS
 62
7
100
AcDbLine
 10
166.0295748431166
 20
66.39672630755453
 30
0.000000000000000
 11
146.0295748431165
 21
66.39672630755453
 31
0.000000000000000
  0
LINE
  5
278
100
AcDbEntity
  8
A1
  6
CONTINUOUS
 62
7
100
AcDbLine
 10
146.5295748431167
 20
58.73437646658846
 30
0.000000000000000
 11
146.5295748431167
 21
60.26741496253653
 31
0.000000000000000
  0
LINE
  5
279
100
AcDbEntity
  8
A1
  6
CONTINUOUS
 62
7
100
AcDbLine
 10
165.5295748431167
 20
60.26741496253653
 30
0.000000000000000
 11
165.5295748431167
 21
58.73437646658846
 31
0.000000000000000
  0
LINE
  5
27A
100
AcDbEntity
  8
A1
  6
CONTINUOUS
 62
7
100
AcDbLine
 10
165.5295748431166
 20
58.73437646658846
 30
0.000000000000000
 11
165.5097213510514
 21
58.72439433619381
 31
0.000000000000000
  0
LINE
  5
27B
100
AcDbEntity
  8
A1
  6
CONTINUOUS
 62
7
100
AcDbLine
 10
146.5494244571578
 20
58.72439985701511
 30
0.000000000000000
 11
165.5097213510514
 21
58.72439985701511
 31
0.000000000000000
  0
LINE
  5
27C
100
AcDbEntity
  8
A1
  6
CONTINUOUS
 62
7
100
AcDbLine
 10
146.5494244571578
 20
58.72439475600535
 30
0.000000000000000
 11
146.5295748431167
 21
58.73437646658846
 31
0.000000000000000
  0
LINE
  5
27D
100
AcDbEntity
  8
A1
  6
CONTINUOUS
 62
7
100
AcDbLine
 10
168.0295748432412
 20
62.59672630755458
 30
0.000000000000000
 11
167.5295748431166
 21
62.59672630755458
 31
0.000000000000000
  0
LINE
  5
27E
100
AcDbEntity
  8
A1
  6
CONTINUOUS
 62
7
100
AcDbLine
 10
168.0295748432412
 20
60.59672630755458
 30
0.000000000000000
 11
168.0295748432412
 21
62.59672630755458
 31
0.000000000000000
  0
LINE
  5
27F
100
AcDbEntity
  8
A1
  6
CONTINUOUS
 62
7
100
AcDbLine
 10
144.0295748432412
 20
62.59672630755458
 30
0.000000000000000
 11
144.5295748431165
 21
62.59672630755458
 31
0.000000000000000
  0
LINE
  5
280
100
AcDbEntity
  8
A1
  6
CONTINUOUS
 62
7
100
AcDbLine
 10
144.0295748432412
 20
60.59672630755458
 30
0.000000000000000
 11
144.0295748432412
 21
62.59672630755458
 31
0.000000000000000
  0
LINE
  5
281
100
AcDbEntity
  8
A1
  6
CONTINUOUS
 62
7
100
AcDbLine
 10
165.5295748431167
 20
62.59672630755458
 30
0.000000000000000
 11
166.0295748432412
 21
62.59672630755458
 31
0.000000000000000
  0
LINE
  5
282
100
AcDbEntity
  8
A1
  6
CONTINUOUS
 62
7
100
AcDbLine
 10
146.0295748432412
 20
62.59672630755458
 30
0.000000000000000
 11
146.5295748431167
 21
62.59672630755458
 31
0.000000000000000
  0
LINE
  5
283
100
AcDbEntity
  8
A1
  6
CONTINUOUS
 62
7
100
AcDbLine
 10
165.5295748431167
 20
62.01611372275133
 30
0.000000000000000
 11
166.0295748432412
 21
62.01611372275133
 31
0.000000000000000
  0
LINE
  5
284
100
AcDbEntity
  8
A1
  6
CONTINUOUS
 62
7
100
AcDbLine
 10
146.0295748432412
 20
62.01611372275133
 30
0.000000000000000
 11
146.5295748431167
 21
62.01611372275133
 31
0.000000000000000
  0
LINE
  5
285
100
AcDbEntity
  8
A1
  6
CONTINUOUS
 62
7
100
AcDbLine
 10
165.5295748431164
 20
50.59672630755458
 30
0.000000000000000
 11
168.0295748432412
 21
50.59672630755458
 31
0.000000000000000
  0
LINE
  5
286
100
AcDbEntity
  8
A1
  6
CONTINUOUS
 62
7
100
AcDbLine
 10
168.0295748432412
 20
52.59672630755458
 30
0.000000000000000
 11
165.5295748431165
 21
52.59672630755458
 31
0.000000000000000
  0
LINE
  5
287
100
AcDbEntity
  8
A1
  6
CONTINUOUS
 62
7
100
AcDbLine
 10
168.0295748432412
 20
50.59672630755458
 30
0.000000000000000
 11
168.0295748432412
 21
52.59672630755458
 31
0.000000000000000
  0
LINE
  5
288
100
AcDbEntity
  8
A1
  6
CONTINUOUS
 62
7
100
AcDbLine
 10
144.0295748432412
 20
50.59672630755458
 30
0.000000000000000
 11
146.5295748431164
 21
50.59672630755458
 31
0.000000000000000
  0
LINE
  5
289
100
AcDbEntity
  8
A1
  6
CONTINUOUS
 62
7
100
AcDbLine
 10
146.5295748431165
 20
52.59672630755458
 30
0.000000000000000
 11
144.0295748432412
 21
52.59672630755458
 31
0.000000000000000
  0
LINE
  5
28A
100
AcDbEntity
  8
A1
  6
CONTINUOUS
 62
7
100
AcDbLine
 10
144.0295748432412
 20
50.59672630755458
 30
0.000000000000000
 11
144.0295748432412
 21
52.59672630755458
 31
0.000000000000000
  0
LINE
  5
28B
100
AcDbEntity
  8
A1
  6
CONTINUOUS
 62
7
100
AcDbLine
 10
146.5295748431164
 20
50.59672630755458
 30
0.000000000000000
 11
149.5295748431164
 21
50.59672630755458
 31
0.000000000000000
  0
LINE
  5
28C
100
AcDbEntity
  8
A1
  6
CONTINUOUS
 62
7
100
AcDbLine
 10
149.5295748431164
 20
52.59672630755458
 30
0.000000000000000
 11
146.5295748431164
 21
52.59672630755458
 31
0.000000000000000
  0
LINE
  5
28D
100
AcDbEntity
  8
A1
  6
CONTINUOUS
 62
7
100
AcDbLine
 10
146.5295748431164
 20
50.59672630755458
 30
0.000000000000000
 11
146.5295748431164
 21
52.59672630755458
 31
0.000000000000000
  0
LINE
  5
28E
100
AcDbEntity
  8
A1
  6
CONTINUOUS
 62
7
100
AcDbLine
 10
162.5295748431165
 20
50.59672630755467
 30
0.000000000000000
 11
149.5295748431165
 21
50.59672630755467
 31
0.000000000000000
  0
LINE
  5
28F
100
AcDbEntity
  8
A1
  6
CONTINUOUS
 62
7
100
AcDbLine
 10
162.5295748431165
 20
52.59672630755458
 30
0.000000000000000
 11
149.5295748431165
 21
52.59672630755458
 31
0.000000000000000
  0
LINE
  5
290
100
AcDbEntity
  8
A1
  6
CONTINUOUS
 62
7
100
AcDbLine
 10
165.5295748431164
 20
52.59672630755458
 30
0.000000000000000
 11
162.5295748431164
 21
52.59672630755458
 31
0.000000000000000
  0
LINE
  5
291
100
AcDbEntity
  8
A1
  6
CONTINUOUS
 62
7
100
AcDbLine
 10
162.5295748431164
 20
50.59672630755458
 30
0.000000000000000
 11
165.5295748431164
 21
50.59672630755458
 31
0.000000000000000
  0
LINE
  5
292
100
AcDbEntity
  8
A1
  6
CONTINUOUS
 62
7
100
AcDbLine
 10
165.5295748431164
 20
50.59672630755458
 30
0.000000000000000
 11
165.5295748431164
 21
52.59672630755458
 31
0.000000000000000
  0
LINE
  5
293
100
AcDbEntity
  8
A4
  6
CENTER
 62
1
100
AcDbLine
 10
155.5925291603598
 20
255.3843772453513
 30
0.000000000000000
 11
155.5925291603598
 21
274.8577717913424
 31
0.000000000000000
  0
LINE
  5
294
100
AcDbEntity
  8
A4
  6
CENTER
 62
1
100
AcDbLine
 10
156.0295748431166
 20
48.94336851306695
 30
0.000000000000000
 11
156.0295748431166
 21
68.34729095864205
 31
0.000000000000000
  0
LINE
  5
295
100
AcDbEntity
  8
A1
  6
CONTINUOUS
 62
7
100
AcDbLine
 10
167.5925291603833
 20
158.9014626841379
 30
0.000000000000000
 11
167.5925291603833
 21
150.6888516841379
 31
0.000000000000000
  0
LINE
  5
296
100
AcDbEntity
  8
A1
  6
CONTINUOUS
 62
7
100
AcDbLine
 10
143.5925291603837
 20
158.9014626841378
 30
0.000000000000000
 11
143.5925291603837
 21
150.6888516841378
 31
0.000000000000000
  0
LINE
  5
297
100
AcDbEntity
  8
A1
  6
CONTINUOUS
 62
7
100
AcDbLine
 10
143.5925291603837
 20
157.6826156841378
 30
0.000000000000000
 11
144.0925291603834
 21
157.6826156841378
 31
0.000000000000000
  0
LINE
  5
298
100
AcDbEntity
  8
A1
  6
CONTINUOUS
 62
7
100
AcDbLine
 10
167.0925291603834
 20
157.6826156841378
 30
0.000000000000000
 11
167.5925291603833
 21
157.6826156841378
 31
0.000000000000000
  0
LINE
  5
299
100
AcDbEntity
  8
A1
  6
CONTINUOUS
 62
7
100
AcDbLine
 10
143.5925291603837
 20
153.6826156841378
 30
0.000000000000000
 11
144.0925291603834
 21
153.6826156841378
 31
0.000000000000000
  0
LINE
  5
29A
100
AcDbEntity
  8
A1
  6
CONTINUOUS
 62
7
100
AcDbLine
 10
167.0925291603834
 20
153.6826156841378
 30
0.000000000000000
 11
167.5925291603833
 21
153.6826156841378
 31
0.000000000000000
  0
LINE
  5
29B
100
AcDbEntity
  8
A1
  6
CONTINUOUS
 62
7
100
AcDbLine
 10
143.5925291602358
 20
271.4376238119949
 30
0.000000000000000
 11
143.5925291602358
 21
273.4376238119949
 31
0.000000000000000
  0
LINE
  5
29C
100
AcDbEntity
  8
A1
  6
CONTINUOUS
 62
7
100
AcDbLine
 10
143.5925291602358
 20
263.4376238119949
 30
0.000000000000000
 11
143.5925291602358
 21
261.4376238119949
 31
0.000000000000000
  0
LINE
  5
29D
100
AcDbEntity
  8
A1
  6
CONTINUOUS
 62
7
100
AcDbLine
 10
167.7924755540820
 20
271.4376238119949
 30
0.000000000000000
 11
167.0925291603604
 21
271.4376238119949
 31
0.000000000000000
  0
LINE
  5
29E
100
AcDbEntity
  8
A1
  6
CONTINUOUS
 62
7
100
AcDbLine
 10
168.0424755539573
 20
263.4376238119949
 30
0.000000000000000
 11
167.0925291603604
 21
263.4376238119949
 31
0.000000000000000
  0
LINE
  5
29F
100
AcDbEntity
  8
A1
  6
CONTINUOUS
 62
7
100
AcDbLine
 10
141.8425291603835
 20
271.9771571507022
 30
0.000000000000000
 11
141.8425291603835
 21
264.3924526953041
 31
0.000000000000000
  0
LINE
  5
2A0
100
AcDbEntity
  8
A1
  6
CONTINUOUS
 62
7
100
AcDbLine
 10
169.5942380428671
 20
263.4376244205934
 30
0.000000000000000
 11
169.5129378557978
 21
263.4376244138955
 31
0.000000000000000
  0
LINE
  5
2A1
100
AcDbEntity
  8
A1
  6
CONTINUOUS
 62
7
100
AcDbLine
 10
172.0424755540818
 20
263.4376246222882
 30
0.000000000000000
 11
171.7997238369057
 21
263.4376246022894
 31
0.000000000000000
  0
LINE
  5
2A2
100
AcDbEntity
  8
A1
  6
CONTINUOUS
 62
7
100
AcDbLine
 10
169.5129378557977
 20
263.4376272563730
 30
0.000000000000000
 11
169.0424755540817
 21
263.4376272563730
 31
0.000000000000000
  0
LINE
  5
2A3
100
AcDbEntity
  8
A1
  6
CONTINUOUS
 62
7
100
AcDbLine
 10
168.0424755539573
 20
263.4376237414324
 30
0.000000000000000
 11
169.0424755540819
 21
263.4376237414324
 31
0.000000000000000
  0
LINE
  5
2A4
100
AcDbEntity
  8
A1
  6
CONTINUOUS
 62
7
100
AcDbLine
 10
168.5789298614259
 20
263.4376272563730
 30
0.000000000000000
 11
168.0424755539571
 21
263.4376272563730
 31
0.000000000000000
  0
LINE
  5
2A5
100
AcDbEntity
  8
A1
  6
CONTINUOUS
 62
7
100
AcDbLine
 10
168.5789298614262
 20
263.4376245526437
 30
0.000000000000000
 11
169.5942378911454
 21
263.4376246362885
 31
0.000000000000000
  0
LINE
  5
2A6
100
AcDbEntity
  8
A1
  6
CONTINUOUS
 62
7
100
AcDbLine
 10
172.0424755540817
 20
263.4376272563729
 30
0.000000000000000
 11
171.8047722401239
 21
263.4376272563729
 31
0.000000000000000
  0
LINE
  5
2A7
100
AcDbEntity
  8
A1
  6
CONTINUOUS
 62
7
100
AcDbLine
 10
171.8047722401239
 20
263.4376272563729
 30
0.000000000000000
 11
171.7983831969078
 21
263.4376272563729
 31
0.000000000000000
  0
LINE
  5
2A8
100
AcDbEntity
  8
A1
  6
CONTINUOUS
 62
7
100
AcDbLine
 10
173.5424755540819
 20
271.9376281473587
 30
0.000000000000000
 11
173.5424755540819
 21
272.4376279800754
 31
0.000000000000000
  0
LINE
  5
2A9
100
AcDbEntity
  8
A1
  6
CONTINUOUS
 62
7
100
AcDbLine
 10
172.0424755540820
 20
271.9376281473587
 30
0.000000000000000
 11
172.0424755540820
 21
272.4376279800754
 31
0.000000000000000
  0
LINE
  5
2AA
100
AcDbEntity
  8
A1
  6
CONTINUOUS
 62
7
100
AcDbLine
 10
172.0424755540820
 20
272.4376279800754
 30
0.000000000000000
 11
173.5424755540819
 21
272.4376279800754
 31
0.000000000000000
  0
LINE
  5
2AB
100
AcDbEntity
  8
A1
  6
CONTINUOUS
 62
7
100
AcDbLine
 10
173.5424755540819
 20
260.4376279421429
 30
0.000000000000000
 11
173.5424755540819
 21
260.9376279421429
 31
0.000000000000000
  0
LINE
  5
2AC
100
AcDbEntity
  8
A1
  6
CONTINUOUS
 62
7
100
AcDbLine
 10
172.0424755540820
 20
260.4376279421429
 30
0.000000000000000
 11
172.0424755540820
 21
260.9376279421429
 31
0.000000000000000
  0
LINE
  5
2AD
100
AcDbEntity
  8
A1
  6
CONTINUOUS
 62
7
100
AcDbLine
 10
172.0424755540819
 20
260.4376279421429
 30
0.000000000000000
 11
173.5424755540819
 21
260.4376279421429
 31
0.000000000000000
  0
LINE
  5
2AE
100
AcDbEntity
  8
A1
  6
CONTINUOUS
 62
7
100
AcDbLine
 10
172.0424755540819
 20
263.6793012292579
 30
0.000000000000000
 11
172.0424755540819
 21
260.9376279421427
 31
0.000000000000000
  0
LINE
  5
2AF
100
AcDbEntity
  8
A1
  6
CONTINUOUS
 62
7
100
AcDbLine
 10
172.0424755540819
 20
271.9376281473587
 30
0.000000000000000
 11
172.0424755540819
 21
270.1392468195982
 31
0.000000000000000
  0
LINE
  5
2B0
100
AcDbEntity
  8
A1
  6
CONTINUOUS
 62
7
100
AcDbLine
 10
173.5424755540819
 20
263.4657970279638
 30
0.000000000000000
 11
173.5424755540819
 21
260.9376279421427
 31
0.000000000000000
  0
LINE
  5
2B1
100
AcDbEntity
  8
A1
  6
CONTINUOUS
 62
7
100
AcDbLine
 10
173.5424755540819
 20
271.9376281473587
 30
0.000000000000000
 11
173.5424755540819
 21
270.0989917532870
 31
0.000000000000000
  0
SPLINE
  5
2B2
100
AcDbEntity
  8
A1
  6
CONTINUOUS
 62
7
100
AcDbSpline
210
0.000000000000000
220
0.000000000000000
230
1.000000000000000
 70
     8
 71
     3
 72
    21
 73
    17
 74
     0
 42
1.000000000000000e-07
 43
1.000000000000000e-07
 12
0.9998920699699738
 22
-0.01469178035767982
 32
0.000000000000000
 13
-0.002769257615454990
 23
0.9999961655980769
 33
0.000000000000000
 40
0.000000000000000
 40
0.000000000000000
 40
0.000000000000000
 40
0.000000000000000
 40
0.08218019990363330
 40
0.5134405730424143
 40
0.9455320061790979
 40
1.374995870730721
 40
1.799534108877940
 40
2.224111618748726
 40
2.654518001352863
 40
3.096344611050160
 40
3.543604662853336
 40
3.992116826557350
 40
4.438099875586456
 40
4.877879230010151
 40
5.308525182276627
 40
5.558629022472673
 40
5.558629022472673
 40
5.558629022472673
 40
5.558629022472673
 10
173.5420911699431
 20
262.9372824246750
 30
0.000000000000000
 10
173.5694816133405
 20
262.9368799668594
 30
0.000000000000000
 10
173.7406332090439
 20
262.9363915060302
 30
0.000000000000000
 10
174.0559004274150
 20
262.9594141862945
 30
0.000000000000000
 10
174.4797242065395
 20
263.0427540026809
 30
0.000000000000000
 10
174.8882766369753
 20
263.1761758759847
 30
0.000000000000000
 10
175.2751699568380
 20
263.3573800546581
 30
0.000000000000000
 10
175.6376420374729
 20
263.5842348143914
 30
0.000000000000000
 10
175.9730692953608
 20
263.8586470049286
 30
0.000000000000000
 10
176.2778092506090
 20
264.1774039533298
 30
0.000000000000000
 10
176.5428497261388
 20
264.5374219417878
 30
0.000000000000000
 10
176.7619749241249
 20
264.9286902769582
 30
0.000000000000000
 10
176.9274240727198
 20
265.3429139321373
 30
0.000000000000000
 10
177.0371565179288
 20
265.7689144957255
 30
0.000000000000000
 10
177.0860516919102
 20
266.1401939798216
 30
0.000000000000000
 10
177.0934523469109
 20
266.3671908771078
 30
0.000000000000000
 10
177.0932214795895
 20
266.4505585041736
 30
0.000000000000000
  0
SPLINE
  5
2B3
100
AcDbEntity
  8
A1
  6
CONTINUOUS
 62
7
100
AcDbSpline
210
0.000000000000000
220
0.000000000000000
230
1.000000000000000
 70
     8
 71
     3
 72
    13
 73
     9
 74
     0
 42
1.000000000000000e-07
 43
1.000000000000000e-07
 12
0.7518173620064772
 22
0.6593714083792293
 32
0.000000000000000
 13
0.9498388029207945
 23
0.3127399054578746
 33
0.000000000000000
 40
0.000000000000000
 40
0.000000000000000
 40
0.000000000000000
 40
0.000000000000000
 40
0.09018093893727459
 40
0.4722491148426329
 40
0.8942940236597081
 40
1.276665575996094
 40
1.686924432718834
 40
2.028152251245241
 40
2.028152251245241
 40
2.028152251245241
 40
2.028152251245241
 10
170.2879036943359
 20
270.1884280109636
 30
0.000000000000000
 10
170.3105035595409
 20
270.2082489218689
 30
0.000000000000000
 10
170.4297997647903
 20
270.3109609873590
 30
0.000000000000000
 10
170.6650820694801
 20
270.4945417010233
 30
0.000000000000000
 10
170.9958657937363
 20
270.7121831307005
 30
0.000000000000000
 10
171.3510339146704
 20
270.9073580101247
 30
0.000000000000000
 10
171.6957598834736
 20
271.0633181138838
 30
0.000000000000000
 10
171.9311512457724
 20
271.1495934470704
 30
0.000000000000000
 10
172.0391883866632
 20
271.1851652989722
 30
0.000000000000000
  0
SPLINE
  5
2B4
100
AcDbEntity
  8
A1
  6
CONTINUOUS
 62
7
100
AcDbSpline
210
0.000000000000000
220
0.000000000000000
230
1.000000000000000
 70
     8
 71
     3
 72
    11
 73
     7
 74
     0
 42
1.000000000000000e-07
 43
1.000000000000000e-07
 12
-0.9223927901407478
 22
0.3862532080088386
 32
0.000000000000000
 13
-0.6853572086024542
 23
0.7282070424125777
 33
0.000000000000000
 40
0.000000000000000
 40
0.000000000000000
 40
0.000000000000000
 40
0.000000000000000
 40
0.4494853972667940
 40
0.9567919316275879
 40
1.474895996079993
 40
1.660257333007414
 40
1.660257333007414
 40
1.660257333007414
 40
1.660257333007414
 10
172.0407416851838
 20
262.7568005521839
 30
0.000000000000000
 10
171.9025409886130
 20
262.8146722777331
 30
0.000000000000000
 10
171.6150641024647
 20
262.9546350833736
 30
0.000000000000000
 10
171.2015496729234
 20
263.2229591893265
 30
0.000000000000000
 10
170.8933200962231
 20
263.4854586823573
 30
0.000000000000000
 10
170.7286730682042
 20
263.6525040756176
 30
0.000000000000000
 10
170.6863268253844
 20
263.6974978859315
 30
0.000000000000000
  0
SPLINE
  5
2B5
100
AcDbEntity
  8
A1
  6
CONTINUOUS
 62
7
100
AcDbSpline
210
0.000000000000000
220
0.000000000000000
230
1.000000000000000
 70
     8
 71
     3
 72
    20
 73
    16
 74
     0
 42
1.000000000000000e-07
 43
1.000000000000000e-07
 12
-0.002055090014891903
 22
-0.9999978883010954
 32
0.000000000000000
 13
-0.9999070164194563
 23
0.01363666061752156
 33
0.000000000000000
 40
0.000000000000000
 40
0.000000000000000
 40
0.000000000000000
 40
0.000000000000000
 40
0.4571822783249478
 40
0.9780850614732588
 40
1.507919957186283
 40
2.042409377267643
 40
2.576538379004462
 40
3.105277623217443
 40
3.620510837786225
 40
4.127110737396010
 40
4.636817241989649
 40
5.157951333012282
 40
5.688030168699190
 40
6.222421278461607
 40
6.320984168740176
 40
6.320984168740176
 40
6.320984168740176
 40
6.320984168740176
 10
177.5869796584257
 20
266.4382521870498
 30
0.000000000000000
 10
177.5866664748473
 20
266.2858584160853
 30
0.000000000000000
 10
177.5677319205029
 20
265.9595778147950
 30
0.000000000000000
 10
177.4777315667465
 20
265.4636887245349
 30
0.000000000000000
 10
177.3163744474337
 20
264.9588189285922
 30
0.000000000000000
 10
177.0852745678606
 20
264.4769327314413
 30
0.000000000000000
 10
176.7936590320196
 20
264.0296083805738
 30
0.000000000000000
 10
176.4494756747883
 20
263.6297887144652
 30
0.000000000000000
 10
176.0635624680848
 20
263.2837924082149
 30
0.000000000000000
 10
175.6409617326779
 20
262.9948317273474
 30
0.000000000000000
 10
175.1831652496760
 20
262.7614145349713
 30
0.000000000000000
 10
174.6916888890666
 20
262.5861570971461
 30
0.000000000000000
 10
174.1736545013543
 20
262.4743600766485
 30
0.000000000000000
 10
173.7858925005326
 20
262.4428444437062
 30
0.000000000000000
 10
173.5749012581848
 20
262.4430878281082
 30
0.000000000000000
 10
173.5420500163354
 20
262.4435358510029
 30
0.000000000000000
  0
SPLINE
  5
2B6
100
AcDbEntity
  8
A1
  6
CONTINUOUS
 62
7
100
AcDbSpline
210
0.000000000000000
220
0.000000000000000
230
1.000000000000000
 70
     8
 71
     3
 72
    15
 73
    11
 74
     0
 42
1.000000000000000e-07
 43
1.000000000000000e-07
 12
-0.9508038642334213
 22
0.3097934985744359
 32
0.000000000000000
 13
-0.5292137792789617
 23
0.8484885242719429
 33
0.000000000000000
 40
0.000000000000000
 40
0.000000000000000
 40
0.000000000000000
 40
0.000000000000000
 40
0.4869362946189632
 40
0.8792393285877469
 40
1.287053675195216
 40
1.714162706474049
 40
2.165544025433272
 40
2.645240069433428
 40
3.149130559410779
 40
3.490829895194438
 40
3.490829895194438
 40
3.490829895194438
 40
3.490829895194438
 10
172.0425529758574
 20
261.6851323225926
 30
0.000000000000000
 10
171.8882260056710
 20
261.7354155553568
 30
0.000000000000000
 10
171.6137169378303
 20
261.8396696441332
 30
0.000000000000000
 10
171.2270856894557
 20
262.0264860403653
 30
0.000000000000000
 10
170.8737408457494
 20
262.2335737820900
 30
0.000000000000000
 10
170.5234308380472
 20
262.4817757772659
 30
0.000000000000000
 10
170.1784457246019
 20
262.7758710166264
 30
0.000000000000000
 10
169.8435382159424
 20
263.1183964748278
 30
0.000000000000000
 10
169.5674158425216
 20
263.4642384722430
 30
0.000000000000000
 10
169.4101591965889
 20
263.6984153687024
 30
0.000000000000000
 10
169.3498818642999
 20
263.7950580237570
 30
0.000000000000000
  0
SPLINE
  5
2B7
100
AcDbEntity
  8
A1
  6
CONTINUOUS
 62
7
100
AcDbSpline
210
0.000000000000000
220
0.000000000000000
230
1.000000000000000
 70
     8
 71
     3
 72
    25
 73
    21
 74
     0
 42
1.000000000000000e-07
 43
1.000000000000000e-07
 12
0.004473005964882759
 22
-0.9999899960589573
 32
0.000000000000000
 13
-0.9999581273441436
 23
0.009151150662091823
 33
0.000000000000000
 40
0.000000000000000
 40
0.000000000000000
 40
0.000000000000000
 40
0.000000000000000
 40
0.4814135937369332
 40
1.098795707706095
 40
1.569876051477119
 40
2.045893868973226
 40
2.524710057483278
 40
3.003974665841593
 40
3.479843260959462
 40
3.944368233226630
 40
4.393097932311367
 40
4.825823226805648
 40
5.386197526627133
 40
5.936992196174932
 40
6.484598308724990
 40
6.756686374755176
 40
7.039098707951877
 40
7.355730637254552
 40
7.707065087411213
 40
7.924520756630217
 40
7.924520756630217
 40
7.924520756630217
 40
7.924520756630217
 10
178.5917247033449
 20
266.4666203893362
 30
0.000000000000000
 10
178.5924424919703
 20
266.3061507967683
 30
0.000000000000000
 10
178.5766955613912
 20
265.9396022045430
 30
0.000000000000000
 10
178.4964594142739
 20
265.4210996778763
 30
0.000000000000000
 10
178.3622784537348
 20
264.9164482281873
 30
0.000000000000000
 10
178.1968642113272
 20
264.4700328537297
 30
0.000000000000000
 10
177.9870762680741
 20
264.0396533130541
 30
0.000000000000000
 10
177.7375062562024
 20
263.6311834989992
 30
0.000000000000000
 10
177.4538471671389
 20
263.2515307283587
 30
0.000000000000000
 10
177.1425795991914
 20
262.9078049232840
 30
0.000000000000000
 10
176.8118516950830
 20
262.6037530202902
 30
0.000000000000000
 10
176.4306745282825
 20
262.3100647357508
 30
0.000000000000000
 10
175.9917820434362
 20
262.0390555817220
 30
0.000000000000000
 10
175.4910778587122
 20
261.8020073140816
 30
0.000000000000000
 10
175.0583141972384
 20
261.6525843423890
 30
0.000000000000000
 10
174.7022801304713
 20
261.5614556063804
 30
0.000000000000000
 10
174.4173313992901
 20
261.5047726035309
 30
0.000000000000000
 10
174.1033297243223
 20
261.4613382817013
 30
0.000000000000000
 10
173.8086719867899
 20
261.4403287771705
 30
0.000000000000000
 10
173.6190264860896
 20
261.4378964607534
 30
0.000000000000000
 10
173.5465442981654
 20
261.4385597839506
 30
0.000000000000000
  0
ARC
  5
2B8
100
AcDbEntity
  8
A1
  6
CONTINUOUS
 62
7
100
AcDbCircle
 10
173.5552767280656
 20
266.3817957989515
 30
0.000000000000000
 40
3.434440644387287
100
AcDbArc
 50
231.6774528805267
 51
243.8832483605909
  0
ARC
  5
2B9
100
AcDbEntity
  8
A1
  6
CONTINUOUS
 62
7
100
AcDbCircle
 10
173.5925291603377
 20
266.4376237935998
 30
0.000000000000000
 40
4.999999999999106
100
AcDbArc
 50
1.017777498068325e-13
 51
89.99999999999994
  0
ARC
  5
2BA
100
AcDbEntity
  8
A1
  6
CONTINUOUS
 62
7
100
AcDbCircle
 10
173.5925291603377
 20
266.4376237935998
 30
0.000000000000000
 40
3.499999999999105
100
AcDbArc
 50
2.035554996136651e-13
 51
65.88054402228350
  0
LINE
  5
2BB
100
AcDbEntity
  8
A1
  6
CONTINUOUS
 62
7
100
AcDbLine
 10
177.0932214795894
 20
266.4505585041738
 30
0.000000000000000
 11
177.0925670184263
 21
266.5054050325675
 31
0.000000000000000
  0
LINE
  5
2BC
100
AcDbEntity
  8
A1
  6
CONTINUOUS
 62
7
100
AcDbLine
 10
173.5423030725835
 20
270.4305832996801
 30
0.000000000000000
 11
173.5925291603377
 21
270.4309123837998
 31
0.000000000000000
  0
LINE
  5
2BD
100
AcDbEntity
  8
A1
  6
CONTINUOUS
 62
7
100
AcDbLine
 10
173.5411185112238
 20
271.4366312290436
 30
0.000000000000000
 11
173.5925291603377
 21
271.4369066909510
 31
0.000000000000000
  0
LINE
  5
2BE
100
AcDbEntity
  8
A1
  6
CONTINUOUS
 62
7
100
AcDbLine
 10
173.5925291603377
 20
271.4376237935989
 30
0.000000000000000
 11
173.5925291603377
 21
270.4309123837998
 31
0.000000000000000
  0
LINE
  5
2BF
100
AcDbEntity
  8
A1
  6
CONTINUOUS
 62
7
100
AcDbLine
 10
173.5925291603377
 20
270.4309123837998
 30
0.000000000000000
 11
173.5925291603377
 21
270.0915254369793
 31
0.000000000000000
  0
LINE
  5
2C0
100
AcDbEntity
  8
A1
  6
CONTINUOUS
 62
7
100
AcDbLine
 10
178.5925291603367
 20
266.4376237935998
 30
0.000000000000000
 11
177.0925291603368
 21
266.4376237935998
 31
0.000000000000000
  0
SPLINE
  5
2C1
100
AcDbEntity
  8
A1
  6
CONTINUOUS
 62
7
100
AcDbSpline
210
0.000000000000000
220
0.000000000000000
230
1.000000000000000
 70
     8
 71
     3
 72
    16
 73
    12
 74
     0
 42
1.000000000000000e-07
 43
1.000000000000000e-07
 12
-0.09804597639868007
 22
0.9951818861445645
 32
0.000000000000000
 13
-0.9999996342548911
 23
-0.0008552720796615176
 33
0.000000000000000
 40
0.000000000000000
 40
0.000000000000000
 40
0.000000000000000
 40
0.000000000000000
 40
0.09806299385584330
 40
0.2269578387069087
 40
0.4026794002405774
 40
0.6298831573548792
 40
0.9040628360202578
 40
1.208161489062145
 40
1.532213168119212
 40
1.860869535774616
 40
2.180378551317838
 40
2.180378551317838
 40
2.180378551317838
 40
2.180378551317838
 10
175.0424755540818
 20
269.5393798736625
 30
0.000000000000000
 10
175.0392706600881
 20
269.5719100453913
 30
0.000000000000000
 10
175.0199790546926
 20
269.6480309529456
 30
0.000000000000000
 10
174.9214743651801
 20
269.7456929372491
 30
0.000000000000000
 10
174.7701086705711
 20
269.8379892800230
 30
0.000000000000000
 10
174.5595238707344
 20
269.9222501642873
 30
0.000000000000000
 10
174.3006818646363
 20
269.9943867963171
 30
0.000000000000000
 10
174.0050302217952
 20
270.0513366413697
 30
0.000000000000000
 10
173.6884528727744
 20
270.0914323675314
 30
0.000000000000000
 10
173.3650664617742
 20
270.1145112032546
 30
0.000000000000000
 10
173.1489785203099
 20
270.1196246634193
 30
0.000000000000000
 10
173.0424755540818
 20
270.1195335743726
 30
0.000000000000000
  0
SPLINE
  5
2C2
100
AcDbEntity
  8
A1
  6
CONTINUOUS
 62
7
100
AcDbSpline
210
0.000000000000000
220
0.000000000000000
230
1.000000000000000
 70
     8
 71
     3
 72
    15
 73
    11
 74
     0
 42
1.000000000000000e-07
 43
1.000000000000000e-07
 12
0.1832673638773485
 22
-0.1963623798828849
 32
0.000000000000000
 13
0.9999996342553459
 23
0.0008552720805710123
 33
0.000000000000000
 40
0.000000000000000
 40
0.000000000000000
 40
0.000000000000000
 40
0.000000000000000
 40
0.1702183273715906
 40
0.3020095225662930
 40
0.4724123535355583
 40
0.6780471204575208
 40
0.9061211152755240
 40
1.149159878068067
 40
1.395652156632220
 40
1.635284136024947
 40
1.635284136024947
 40
1.635284136024947
 40
1.635284136024947
 10
169.3425291611210
 20
270.4867038716823
 30
0.000000000000000
 10
169.3529276491680
 20
270.4755623797281
 30
0.000000000000000
 10
169.3978437524547
 20
270.4353556744345
 30
0.000000000000000
 10
169.4967504533270
 20
270.3750465234683
 30
0.000000000000000
 10
169.6546890862624
 20
270.3118508459348
 30
0.000000000000000
 10
169.8488205884831
 20
270.2577483601366
 30
0.000000000000000
 10
170.0705593273585
 20
270.2150359643520
 30
0.000000000000000
 10
170.3079923419563
 20
270.1849641840101
 30
0.000000000000000
 10
170.5505322228936
 20
270.1676549723317
 30
0.000000000000000
 10
170.7125982568323
 20
270.1638200592831
 30
0.000000000000000
 10
170.7924755540818
 20
270.1638883761303
 30
0.000000000000000
  0
SPLINE
  5
2C3
100
AcDbEntity
  8
A1
  6
CONTINUOUS
 62
7
100
AcDbSpline
210
0.000000000000000
220
0.000000000000000
230
1.000000000000000
 70
     8
 71
     3
 72
    15
 73
    11
 74
     0
 42
1.000000000000000e-07
 43
1.000000000000000e-07
 12
-0.9999996445699253
 22
-0.0008431244782514113
 32
0.000000000000000
 13
-0.7257994657738891
 23
0.7035646701879159
 33
0.000000000000000
 40
0.000000000000000
 40
0.000000000000000
 40
0.000000000000000
 40
0.000000000000000
 40
0.2440679299816318
 40
0.4949598493472830
 40
0.7416021771094869
 40
0.9716675414395617
 40
1.173626467062835
 40
1.336458015332818
 40
1.460906816515066
 40
1.500425144279531
 40
1.500425144279531
 40
1.500425144279531
 40
1.500425144279531
 10
170.7924755540818
 20
264.0987109603342
 30
0.000000000000000
 10
170.7111196063376
 20
264.0986423671188
 30
0.000000000000000
 10
170.5461117747896
 20
264.1022671829404
 30
0.000000000000000
 10
170.2993593191686
 20
264.1185978971378
 30
0.000000000000000
 10
170.0583807528301
 20
264.1469558447140
 30
0.000000000000000
 10
169.8354922426003
 20
264.1869425581997
 30
0.000000000000000
 10
169.6435069113393
 20
264.2368977857285
 30
0.000000000000000
 10
169.4899056407529
 20
264.2941077445814
 30
0.000000000000000
 10
169.3953564526181
 20
264.3477685197705
 30
0.000000000000000
 10
169.3520899616881
 20
264.3831847955575
 30
0.000000000000000
 10
169.3425291679615
 20
264.3924526953041
 30
0.000000000000000
  0
SPLINE
  5
2C4
100
AcDbEntity
  8
A1
  6
CONTINUOUS
 62
7
100
AcDbSpline
210
0.000000000000000
220
0.000000000000000
230
1.000000000000000
 70
     8
 71
     3
 72
    16
 73
    12
 74
     0
 42
1.000000000000000e-07
 43
1.000000000000000e-07
 12
0.9999996445701527
 22
0.0008431244773419166
 32
0.000000000000000
 13
0.1155484014998365
 23
-0.9933018508545501
 33
0.000000000000000
 40
0.000000000000000
 40
0.000000000000000
 40
0.000000000000000
 40
0.000000000000000
 40
0.3254236233080486
 40
0.6599461788184930
 40
0.9888026112723582
 40
1.295556423740855
 40
1.564834980868529
 40
1.781943694880604
 40
1.947875398321329
 40
2.067066288541710
 40
2.155227789004656
 40
2.155227789004656
 40
2.155227789004656
 40
2.155227789004656
 10
173.0424755540818
 20
264.0583367574249
 30
0.000000000000000
 10
173.1509500566294
 20
264.0584282149656
 30
0.000000000000000
 10
173.3709603973537
 20
264.0535948671445
 30
0.000000000000000
 10
173.6999635767988
 20
264.0318207002461
 30
0.000000000000000
 10
174.0212683283579
 20
263.9940100821143
 30
0.000000000000000
 10
174.3184529987543
 20
263.9406944793232
 30
0.000000000000000
 10
174.5744334452946
 20
263.8740875244000
 30
0.000000000000000
 10
174.7792350902989
 20
263.7978075947719
 30
0.000000000000000
 10
174.9245404398607
 20
263.7153405921179
 30
0.000000000000000
 10
175.0201505404883
 20
263.6288316393207
 30
0.000000000000000
 10
175.0390799139310
 20
263.5594389790976
 30
0.000000000000000
 10
175.0424755540818
 20
263.5302486519030
 30
0.000000000000000
  0
SPLINE
  5
2C5
100
AcDbEntity
  8
A1
  6
CONTINUOUS
 62
7
100
AcDbSpline
210
0.000000000000000
220
0.000000000000000
230
1.000000000000000
 70
     8
 71
     3
 72
    12
 73
     8
 74
     0
 42
1.000000000000000e-07
 43
1.000000000000000e-07
 12
0.9998866895916763
 22
-0.01505350389288651
 32
0.000000000000000
 13
0.8266427247981483
 23
-0.5627271146295243
 33
0.000000000000000
 40
0.000000000000000
 40
0.000000000000000
 40
0.000000000000000
 40
0.000000000000000
 40
0.1381997156294555
 40
0.2739266568089327
 40
0.3969097745009554
 40
0.5138570773658240
 40
0.5945632250691300
 40
0.5945632250691300
 40
0.5945632250691300
 40
0.5945632250691300
 10
172.9407720886060
 20
263.6631821152323
 30
0.000000000000000
 10
172.9868334406604
 20
263.6624886519132
 30
0.000000000000000
 10
173.0780776933612
 20
263.6580640361427
 30
0.000000000000000
 10
173.2098246643071
 20
263.6441634571010
 30
0.000000000000000
 10
173.3327829360023
 20
263.6209037867324
 30
0.000000000000000
 10
173.4366688755172
 20
263.5925355593413
 30
0.000000000000000
 10
173.4941717435280
 20
263.5592870015832
 30
0.000000000000000
 10
173.5164101268098
 20
263.5441484890399
 30
0.000000000000000
  0
SPLINE
  5
2C6
100
AcDbEntity
  8
A1
  6
CONTINUOUS
 62
7
100
AcDbSpline
210
0.000000000000000
220
0.000000000000000
230
1.000000000000000
 70
     8
 71
     3
 72
    17
 73
    13
 74
     0
 42
1.000000000000000e-07
 43
1.000000000000000e-07
 12
-0.9995556781314008
 22
0.02980681658755202
 32
0.000000000000000
 13
-0.5815872721832420
 23
0.8204472547458863
 33
0.000000000000000
 40
0.000000000000000
 40
0.000000000000000
 40
0.000000000000000
 40
0.000000000000000
 40
0.3749664364390968
 40
0.7537265182394385
 40
1.126131414658857
 40
1.481189524372033
 40
1.808134525011063
 40
2.097671663162923
 40
2.330462940430081
 40
2.521749963242556
 40
2.673053494776993
 40
2.732987117317805
 40
2.732987117317805
 40
2.732987117317805
 40
2.732987117317805
 10
170.4457718957330
 20
263.7079526236971
 30
0.000000000000000
 10
170.3208386188492
 20
263.7116781422963
 30
0.000000000000000
 10
170.0698265552045
 20
263.7237642601139
 30
0.000000000000000
 10
169.6956636931584
 20
263.7549457131674
 30
0.000000000000000
 10
169.3296160260131
 20
263.8003694400240
 30
0.000000000000000
 10
168.9830430604243
 20
263.8597345090796
 30
0.000000000000000
 10
168.6671759609307
 20
263.9320347679976
 30
0.000000000000000
 10
168.3959195427953
 20
264.0141656771985
 30
0.000000000000000
 10
168.1749925554509
 20
264.1031557394468
 30
0.000000000000000
 10
168.0059049701289
 20
264.1953771310762
 30
0.000000000000000
 10
167.9005073000911
 20
264.2792263907434
 30
0.000000000000000
 10
167.8541493765528
 20
264.3335974928956
 30
0.000000000000000
 10
167.8425304992043
 20
264.3499882849225
 30
0.000000000000000
  0
ELLIPSE
  5
2C7
100
AcDbEntity
  8
A1
  6
CONTINUOUS
 62
7
100
AcDbEllipse
 10
171.9394833055863
 20
263.4706494011349
 30
0.000000000000000
 11
1.602992249670369
 21
0.000000000000000
 31
0.000000000000000
210
0.000000000000000
220
0.000000000000000
230
1.000000000000000
 40
0.2552945138018541
 41
0.000000000000000
 42
0.1805809649042421
  0
ARC
  5
2C8
100
AcDbEntity
  8
A1
  6
CONTINUOUS
 62
7
100
AcDbCircle
 10
167.9874755540817
 20
268.2159067602888
 30
0.000000000000000
 40
2.305000000000066
100
AcDbArc
 50
306.0064095188779
 51
413.9935904811221
  0
LINE
  5
2C9
100
AcDbEntity
  8
A1
  6
CONTINUOUS
 62
7
100
AcDbLine
 10
175.0424755540819
 20
271.9376252293305
 30
0.000000000000000
 11
175.0424755540819
 21
272.4376252293305
 31
0.000000000000000
  0
LINE
  5
2CA
100
AcDbEntity
  8
A1
  6
CONTINUOUS
 62
7
100
AcDbLine
 10
173.5424755540818
 20
272.4376252293305
 30
0.000000000000000
 11
175.0424755540818
 21
272.4376252293305
 31
0.000000000000000
  0
LINE
  5
2CB
100
AcDbEntity
  8
A1
  6
CONTINUOUS
 62
7
100
AcDbLine
 10
175.0424755540819
 20
271.2227732641247
 30
0.000000000000000
 11
175.0424755540819
 21
271.9376252293305
 31
0.000000000000000
  0
LINE
  5
2CC
100
AcDbEntity
  8
A1
  6
CONTINUOUS
 62
7
100
AcDbLine
 10
175.0424755540819
 20
269.5393798736627
 30
0.000000000000000
 11
175.0424755540819
 21
269.6185860348577
 31
0.000000000000000
  0
LINE
  5
2CD
100
AcDbEntity
  8
A1
  6
CONTINUOUS
 62
7
100
AcDbLine
 10
175.0424755540818
 20
260.4376252177002
 30
0.000000000000000
 11
175.0424755540818
 21
260.9376252177002
 31
0.000000000000000
  0
LINE
  5
2CE
100
AcDbEntity
  8
A1
  6
CONTINUOUS
 62
7
100
AcDbLine
 10
173.5424755540818
 20
260.4376252177003
 30
0.000000000000000
 11
175.0424755540818
 21
260.4376252177003
 31
0.000000000000000
  0
LINE
  5
2CF
100
AcDbEntity
  8
A1
  6
CONTINUOUS
 62
7
100
AcDbLine
 10
175.0424755540819
 20
263.2578862686062
 30
0.000000000000000
 11
175.0424755540819
 21
263.4376255836110
 31
0.000000000000000
  0
LINE
  5
2D0
100
AcDbEntity
  8
A1
  6
CONTINUOUS
 62
7
100
AcDbLine
 10
175.0424755540819
 20
260.9376252177003
 30
0.000000000000000
 11
175.0424755540819
 21
261.6576714958088
 31
0.000000000000000
  0
LINE
  5
2D1
100
AcDbEntity
  8
A1
  6
CONTINUOUS
 62
7
100
AcDbLine
 10
173.5424755540818
 20
263.4376255836110
 30
0.000000000000000
 11
175.0424755540818
 21
263.4376255836110
 31
0.000000000000000
  0
LINE
  5
2D2
100
AcDbEntity
  8
A1
  6
CONTINUOUS
 62
7
100
AcDbLine
 10
175.0424755540818
 20
263.5302486519032
 30
0.000000000000000
 11
175.0424755540818
 21
269.5393798736627
 31
0.000000000000000
  0
LINE
  5
2D3
100
AcDbEntity
  8
A1
  6
CONTINUOUS
 62
7
100
AcDbLine
 10
170.7924755540819
 20
270.1638883761300
 30
0.000000000000000
 11
173.0424755540819
 21
270.1195335743724
 31
0.000000000000000
  0
LINE
  5
2D4
100
AcDbEntity
  8
A1
  6
CONTINUOUS
 62
7
100
AcDbLine
 10
167.8425291603367
 20
271.9771571507022
 30
0.000000000000000
 11
167.8425291603367
 21
264.3499882849225
 31
0.000000000000000
  0
LINE
  5
2D5
100
AcDbEntity
  8
A1
  6
CONTINUOUS
 62
7
100
AcDbLine
 10
173.0424755540818
 20
264.0583367574249
 30
0.000000000000000
 11
170.7924755540818
 21
264.0987109603342
 31
0.000000000000000
  0
LINE
  5
2D6
100
AcDbEntity
  8
A1
  6
CONTINUOUS
 62
7
100
AcDbLine
 10
175.0424755540819
 20
263.4376277353135
 30
0.000000000000000
 11
175.0424755540819
 21
263.5302486519030
 31
0.000000000000000
  0
LINE
  5
2D7
100
AcDbEntity
  8
A1
  6
CONTINUOUS
 62
7
100
AcDbLine
 10
173.5424755540818
 20
263.4376277353135
 30
0.000000000000000
 11
175.0424755540818
 21
263.4376277353135
 31
0.000000000000000
  0
LINE
  5
2D8
100
AcDbEntity
  8
A1
  6
CONTINUOUS
 62
7
100
AcDbLine
 10
173.5424755540817
 20
263.4706337332147
 30
0.000000000000000
 11
173.5424755540818
 21
263.4657970279638
 31
0.000000000000000
  0
LINE
  5
2D9
100
AcDbEntity
  8
A1
  6
CONTINUOUS
 62
7
100
AcDbLine
 10
170.4457718957331
 20
263.7079526236972
 30
0.000000000000000
 11
172.9407720886060
 21
263.6631821152324
 31
0.000000000000000
  0
LINE
  5
2DA
100
AcDbEntity
  8
A1
  6
CONTINUOUS
 62
7
100
AcDbLine
 10
167.8425291603367
 20
271.9771571507022
 30
0.000000000000000
 11
169.3425291603367
 21
271.9771571507022
 31
0.000000000000000
  0
LINE
  5
2DB
100
AcDbEntity
  8
A1
  6
CONTINUOUS
 62
7
100
AcDbLine
 10
167.5925291604844
 20
271.4376238119949
 30
0.000000000000000
 11
167.5925291604844
 21
273.4376238119949
 31
0.000000000000000
  0
LINE
  5
2DC
100
AcDbEntity
  8
A1
  6
CONTINUOUS
 62
7
100
AcDbLine
 10
167.5925291604844
 20
263.4376238119949
 30
0.000000000000000
 11
167.5925291604844
 21
261.4376238119949
 31
0.000000000000000
  0
LINE
  5
2DD
100
AcDbEntity
  8
A1
  6
CONTINUOUS
 62
7
100
AcDbLine
 10
169.3425291603366
 20
271.9771571507022
 30
0.000000000000000
 11
169.3425291603366
 21
264.3924526953041
 31
0.000000000000000
  0
LINE
  5
2DE
100
AcDbEntity
  8
A1
  6
CONTINUOUS
 62
7
100
AcDbLine
 10
143.5925291602358
 20
273.4376238119949
 30
0.000000000000000
 11
144.0925291603597
 21
273.4376238119949
 31
0.000000000000000
  0
LINE
  5
2DF
100
AcDbEntity
  8
A1
  6
CONTINUOUS
 62
7
100
AcDbLine
 10
167.0925291603598
 20
273.4376238119949
 30
0.000000000000000
 11
167.5925291604844
 21
273.4376238119949
 31
0.000000000000000
  0
LINE
  5
2E0
100
AcDbEntity
  8
A1
  6
CONTINUOUS
 62
7
100
AcDbLine
 10
144.0925291603597
 20
261.4376238119949
 30
0.000000000000000
 11
143.5925291602358
 21
261.4376238119949
 31
0.000000000000000
  0
LINE
  5
2E1
100
AcDbEntity
  8
A1
  6
CONTINUOUS
 62
7
100
AcDbLine
 10
167.5925291604844
 20
261.4376238119949
 30
0.000000000000000
 11
167.0925291603598
 21
261.4376238119949
 31
0.000000000000000
  0
ARC
  5
2E2
100
AcDbEntity
  8
A1
  6
CONTINUOUS
 62
7
100
AcDbCircle
 10
168.0295748431164
 20
57.59672633204165
 30
0.000000000000000
 40
2.500000000000043
100
AcDbArc
 50
306.8698976458444
 51
360.0000000000000
  0
ARC
  5
2E3
100
AcDbEntity
  8
A1
  6
CONTINUOUS
 62
7
100
AcDbCircle
 10
168.0295748431164
 20
57.59672633204165
 30
0.000000000000000
 40
2.500000000000043
100
AcDbArc
 50
0.000000000000000
 51
53.13010235415560
  0
LINE
  5
2E4
100
AcDbEntity
  8
A1
  6
CONTINUOUS
 62
7
100
AcDbLine
 10
172.5295748431166
 20
51.59672204988413
 30
0.000000000000000
 11
172.5295748431166
 21
52.09672204988413
 31
0.000000000000000
  0
LINE
  5
2E5
100
AcDbEntity
  8
A1
  6
CONTINUOUS
 62
7
100
AcDbLine
 10
172.5295748431165
 20
51.59672204988426
 30
0.000000000000000
 11
174.0295748431165
 21
51.59672204988426
 31
0.000000000000000
  0
LINE
  5
2E6
100
AcDbEntity
  8
A1
  6
CONTINUOUS
 62
7
100
AcDbLine
 10
172.5295748431165
 20
54.46621271507845
 30
0.000000000000000
 11
172.5295748431165
 21
54.59672215462221
 31
0.000000000000000
  0
LINE
  5
2E7
100
AcDbEntity
  8
A1
  6
CONTINUOUS
 62
7
100
AcDbLine
 10
172.5295748431165
 20
52.09672204988423
 30
0.000000000000000
 11
172.5295748431165
 21
52.84306098091641
 31
0.000000000000000
  0
LINE
  5
2E8
100
AcDbEntity
  8
A1
  6
CONTINUOUS
 62
7
100
AcDbLine
 10
172.5295748431165
 20
62.34806849939745
 30
0.000000000000000
 11
172.5295748431165
 21
63.09672219087592
 31
0.000000000000000
  0
LINE
  5
2E9
100
AcDbEntity
  8
A1
  6
CONTINUOUS
 62
7
100
AcDbLine
 10
172.5295748431165
 20
60.59672266032945
 30
0.000000000000000
 11
172.5295748431165
 21
60.72766042455782
 31
0.000000000000000
  0
LINE
  5
2EA
100
AcDbEntity
  8
A1
  6
CONTINUOUS
 62
7
100
AcDbLine
 10
172.5295748431165
 20
63.09672219087586
 30
0.000000000000000
 11
172.5295748431165
 21
63.59672219302736
 31
0.000000000000000
  0
LINE
  5
2EB
100
AcDbEntity
  8
A1
  6
CONTINUOUS
 62
7
100
AcDbLine
 10
172.5295748431165
 20
63.59672219302736
 30
0.000000000000000
 11
174.0295748431165
 21
63.59672219302736
 31
0.000000000000000
  0
LINE
  5
2EC
100
AcDbEntity
  8
A1
  6
CONTINUOUS
 62
7
100
AcDbLine
 10
172.7483251638842
 20
60.59672282164644
 30
0.000000000000000
 11
174.0295748431162
 21
60.59672282164644
 31
0.000000000000000
  0
LINE
  5
2ED
100
AcDbEntity
  8
A1
  6
CONTINUOUS
 62
7
100
AcDbLine
 10
174.0295748431165
 20
54.59672466262593
 30
0.000000000000000
 11
174.0295748431165
 21
60.59672514791604
 31
0.000000000000000
  0
LINE
  5
2EE
100
AcDbEntity
  8
A1
  6
CONTINUOUS
 62
7
100
AcDbLine
 10
172.7483251638845
 20
60.59672543770983
 30
0.000000000000000
 11
170.0000371448324
 21
60.59672566412392
 31
0.000000000000000
  0
LINE
  5
2EF
100
AcDbEntity
  8
A1
  6
CONTINUOUS
 62
7
100
AcDbLine
 10
169.5295748431163
 20
60.59672282164642
 30
0.000000000000000
 11
170.0000371448322
 21
60.59672282164643
 31
0.000000000000000
  0
LINE
  5
2F0
100
AcDbEntity
  8
A1
  6
CONTINUOUS
 62
7
100
AcDbLine
 10
172.5295748431165
 20
54.59672215462227
 30
0.000000000000000
 11
174.0295748431165
 21
54.59672215462227
 31
0.000000000000000
  0
LINE
  5
2F1
100
AcDbEntity
  8
A1
  6
CONTINUOUS
 62
7
100
AcDbLine
 10
172.5295748431163
 20
54.59672231726337
 30
0.000000000000000
 11
171.8889500035002
 21
54.59672231726337
 31
0.000000000000000
  0
LINE
  5
2F2
100
AcDbEntity
  8
A1
  6
CONTINUOUS
 62
7
100
AcDbLine
 10
169.5295748431163
 20
54.59672500468158
 30
0.000000000000000
 11
169.0660291504606
 21
54.59672504318362
 31
0.000000000000000
  0
LINE
  5
2F3
100
AcDbEntity
  8
A1
  6
CONTINUOUS
 62
7
100
AcDbLine
 10
171.8889500035004
 20
54.59672480871223
 30
0.000000000000000
 11
169.5295748431163
 21
54.59672500468158
 31
0.000000000000000
  0
LINE
  5
2F4
100
AcDbEntity
  8
A1
  6
CONTINUOUS
 62
7
100
AcDbLine
 10
170.0000371448323
 20
54.59672231726377
 30
0.000000000000000
 11
169.5295748431163
 21
54.59672231726378
 31
0.000000000000000
  0
LINE
  5
2F5
100
AcDbEntity
  8
A1
  6
CONTINUOUS
 62
7
100
AcDbLine
 10
170.0000371448324
 20
54.59672518307077
 30
0.000000000000000
 11
172.7483251638844
 21
54.59672495479838
 31
0.000000000000000
  0
LINE
  5
2F6
100
AcDbEntity
  8
A1
  6
CONTINUOUS
 62
7
100
AcDbLine
 10
174.0295748431162
 20
54.59672231726350
 30
0.000000000000000
 11
172.7483251638842
 21
54.59672231726350
 31
0.000000000000000
  0
LINE
  5
2F7
100
AcDbEntity
  8
A1
  6
CONTINUOUS
 62
7
100
AcDbLine
 10
169.5295748431165
 20
60.59672633658705
 30
0.000000000000000
 11
169.5295748431165
 21
54.59672633658708
 31
0.000000000000000
  0
LINE
  5
2F8
100
AcDbEntity
  8
A1
  6
CONTINUOUS
 62
7
100
AcDbLine
 10
168.0295748431165
 20
54.59672593208647
 30
0.000000000000000
 11
169.5295748431165
 21
54.59672593208647
 31
0.000000000000000
  0
LINE
  5
2F9
100
AcDbEntity
  8
A1
  6
CONTINUOUS
 62
7
100
AcDbLine
 10
168.0295748431165
 20
60.59672633658701
 30
0.000000000000000
 11
169.5295748431165
 21
60.59672633658701
 31
0.000000000000000
  0
SPLINE
  5
2FA
100
AcDbEntity
  8
A1
  6
CONTINUOUS
 62
7
100
AcDbSpline
210
0.000000000000000
220
0.000000000000000
230
1.000000000000000
 70
     8
 71
     3
 72
     9
 73
     5
 74
     0
 42
1.000000000000000e-07
 43
1.000000000000000e-07
 12
0.09889549125000485
 22
0.9950978252466030
 32
0.000000000000000
 13
-0.02417535349832178
 23
0.9997077334318192
 33
0.000000000000000
 40
0.000000000000000
 40
0.000000000000000
 40
0.000000000000000
 40
0.000000000000000
 40
0.1041162517235042
 40
0.4260913138898876
 40
0.4260913138898876
 40
0.4260913138898876
 40
0.4260913138898876
 10
177.5633649491948
 20
57.25589626047140
 30
0.000000000000000
 10
177.5667971584819
 20
57.29043154569237
 30
0.000000000000000
 10
177.5787188989886
 20
57.43196839003716
 30
0.000000000000000
 10
177.5818775723974
 20
57.57424671067406
 30
0.000000000000000
 10
177.5792829520822
 20
57.68154036388070
 30
0.000000000000000
  0
SPLINE
  5
2FB
100
AcDbEntity
  8
A1
  6
CONTINUOUS
 62
7
100
AcDbSpline
210
0.000000000000000
220
0.000000000000000
230
1.000000000000000
 70
     8
 71
     3
 72
    20
 73
    16
 74
     0
 42
1.000000000000000e-07
 43
1.000000000000000e-07
 12
0.6001091049838578
 22
0.7999181596333074
 32
0.000000000000000
 13
0.9999353030100337
 23
0.01137496350690981
 33
0.000000000000000
 40
0.000000000000000
 40
0.000000000000000
 40
0.000000000000000
 40
0.000000000000000
 40
0.01395849840224310
 40
0.3063014851068658
 40
0.5987592671150501
 40
0.8964262297051750
 40
1.275424228185361
 40
1.662336341744815
 40
2.057329605505431
 40
2.471811915086222
 40
2.935373802950349
 40
3.449538262574233
 40
3.820552825175339
 40
4.214204316723843
 40
4.579481451690598
 40
4.579481451690598
 40
4.579481451690598
 40
4.579481451690598
 10
170.0816293182930
 20
60.59791751157108
 30
0.000000000000000
 10
170.0844215256207
 20
60.60163939702213
 30
0.000000000000000
 10
170.1458150468014
 20
60.68321917618122
 30
0.000000000000000
 10
170.2706938785557
 20
60.83908077453154
 30
0.000000000000000
 10
170.4678472523929
 20
61.05760711878025
 30
0.000000000000000
 10
170.6982750483009
 20
61.28428883192475
 30
0.000000000000000
 10
170.9681178381608
 20
61.51480286610440
 30
0.000000000000000
 10
171.2812185805446
 20
61.74285849875142
 30
0.000000000000000
 10
171.6212167581542
 20
61.95205724628271
 30
0.000000000000000
 10
171.9995985528299
 20
62.14516915228832
 30
0.000000000000000
 10
172.4300948098075
 20
62.32012974431036
 30
0.000000000000000
 10
172.8616439428901
 20
62.44906602616771
 30
0.000000000000000
 10
173.2795363935554
 20
62.53497907778347
 30
0.000000000000000
 10
173.6535816249535
 20
62.58247737417353
 30
0.000000000000000
 10
173.9065342098347
 20
62.59471460041656
 30
0.000000000000000
 10
174.0282853773799
 20
62.59609960510994
 30
0.000000000000000
  0
SPLINE
  5
2FC
100
AcDbEntity
  8
A1
  6
CONTINUOUS
 62
7
100
AcDbSpline
210
0.000000000000000
220
0.000000000000000
230
1.000000000000000
 70
     8
 71
     3
 72
    14
 73
    10
 74
     0
 42
1.000000000000000e-07
 43
1.000000000000000e-07
 12
-0.9999983151593597
 22
-0.001835668482726760
 32
0.000000000000000
 13
-0.6857160733861747
 23
-0.7278691274535731
 33
0.000000000000000
 40
0.000000000000000
 40
0.000000000000000
 40
0.000000000000000
 40
0.000000000000000
 40
0.5542136657685091
 40
1.107760188966488
 40
1.661137234405607
 40
2.214390321858858
 40
2.767506931248556
 40
3.320811459856625
 40
3.562672560795696
 40
3.562672560795696
 40
3.562672560795696
 40
3.562672560795696
 10
173.9512727444740
 20
61.97706528506104
 30
0.000000000000000
 10
173.7665351671384
 20
61.97672616754139
 30
0.000000000000000
 10
173.3968533970254
 20
61.95277568212410
 30
0.000000000000000
 10
172.8521527835361
 20
61.84562743127813
 30
0.000000000000000
 10
172.3252384007966
 20
61.67192522627283
 30
0.000000000000000
 10
171.8238843072511
 20
61.43464570901881
 30
0.000000000000000
 10
171.3557975819540
 20
61.13714236463701
 30
0.000000000000000
 10
171.0089914347093
 20
60.84914102691395
 30
0.000000000000000
 10
170.8218028474493
 20
60.66130512040640
 30
0.000000000000000
 10
170.7665201659690
 20
60.60262404423791
 30
0.000000000000000
  0
SPLINE
  5
2FD
100
AcDbEntity
  8
A1
  6
CONTINUOUS
 62
7
100
AcDbSpline
210
0.000000000000000
220
0.000000000000000
230
1.000000000000000
 70
     8
 71
     3
 72
    12
 73
     8
 74
     0
 42
1.000000000000000e-07
 43
1.000000000000000e-07
 12
-0.9998608493635857
 22
-0.01668178375319940
 32
0.000000000000000
 13
-0.8595063279376518
 23
-0.5111251042896470
 33
0.000000000000000
 40
0.000000000000000
 40
0.000000000000000
 40
0.000000000000000
 40
0.000000000000000
 40
0.3784510386098296
 40
0.7734516906390575
 40
1.133485878910416
 40
1.458652610402194
 40
1.836793804202919
 40
1.836793804202919
 40
1.836793804202919
 40
1.836793804202919
 10
174.0275815232757
 20
61.09667715264808
 30
0.000000000000000
 10
173.9014487309734
 20
61.09457273985232
 30
0.000000000000000
 10
173.6436687681149
 20
61.07634419207559
 30
0.000000000000000
 10
173.2714096884293
 20
61.00723728821317
 30
0.000000000000000
 10
172.9257672871526
 20
60.90414293575598
 30
0.000000000000000
 10
172.5969274475889
 20
60.77069485701762
 30
0.000000000000000
 10
172.3889594227398
 20
60.66133559476584
 30
0.000000000000000
 10
172.2806211730979
 20
60.59690977572664
 30
0.000000000000000
  0
SPLINE
  5
2FE
100
AcDbEntity
  8
A1
  6
CONTINUOUS
 62
7
100
AcDbSpline
210
0.000000000000000
220
0.000000000000000
230
1.000000000000000
 70
     8
 71
     3
 72
    11
 73
     7
 74
     0
 42
1.000000000000000e-07
 43
1.000000000000000e-07
 12
0.02626319482078543
 22
0.9996550628081877
 32
0.000000000000000
 13
0.3450861731034820
 23
0.9385710059077610
 33
0.000000000000000
 40
0.000000000000000
 40
0.000000000000000
 40
0.000000000000000
 40
0.000000000000000
 40
0.1867059251028435
 40
0.3528019395140072
 40
0.4877183553177209
 40
0.5683708512101437
 40
0.5683708512101437
 40
0.5683708512101437
 40
0.5683708512101437
 10
173.9512727444740
 20
61.97706528506104
 30
0.000000000000000
 10
173.9529072425024
 20
62.03927912615615
 30
0.000000000000000
 10
173.9594948244170
 20
62.15679938510345
 30
0.000000000000000
 10
173.9770661268598
 20
62.31837758992647
 30
0.000000000000000
 10
173.9978459715439
 20
62.44425947313066
 30
0.000000000000000
 10
174.0200068957929
 20
62.51279129712132
 30
0.000000000000000
 10
174.0292842495125
 20
62.53802399518756
 30
0.000000000000000
  0
SPLINE
  5
2FF
100
AcDbEntity
  8
A1
  6
CONTINUOUS
 62
7
100
AcDbSpline
210
0.000000000000000
220
0.000000000000000
230
1.000000000000000
 70
     8
 71
     3
 72
    25
 73
    21
 74
     0
 42
1.000000000000000e-07
 43
1.000000000000000e-07
 12
0.9563775509886909
 22
-0.2921334967104485
 32
0.000000000000000
 13
0.0006857038879388710
 23
-0.9999997649049988
 33
0.000000000000000
 40
0.000000000000000
 40
0.000000000000000
 40
0.000000000000000
 40
0.000000000000000
 40
0.005064781790884900
 40
0.4271456256890799
 40
0.8143865620193762
 40
1.166804663947641
 40
1.543760244322576
 40
1.870705160274718
 40
2.154447146627401
 40
2.436768976310518
 40
2.724720335899683
 40
3.092313775838951
 40
3.468633855061196
 40
3.853809178236195
 40
4.257342973222536
 40
4.709718137455650
 40
5.213386241209367
 40
5.577898750733511
 40
5.965561355273413
 40
6.376771300665433
 40
6.376771300665433
 40
6.376771300665433
 40
6.376771300665433
 10
175.5298268804006
 20
62.37776441118817
 30
0.000000000000000
 10
175.5314414949358
 20
62.37727121371662
 30
0.000000000000000
 10
175.6675871977559
 20
62.33559590461668
 30
0.000000000000000
 10
175.9239621857170
 20
62.24523730445762
 30
0.000000000000000
 10
176.2781667334705
 20
62.08784657116186
 30
0.000000000000000
 10
176.6067249392274
 20
61.91233508902778
 30
0.000000000000000
 10
176.9048468537251
 20
61.72434440888266
 30
0.000000000000000
 10
177.1704925231171
 20
61.52948670901378
 30
0.000000000000000
 10
177.3993072979890
 20
61.33883618067949
 30
0.000000000000000
 10
177.6071961401521
 20
61.14412109813016
 30
0.000000000000000
 10
177.8223891360249
 20
60.91710518370452
 30
0.000000000000000
 10
178.0418766020268
 20
60.65185167676091
 30
0.000000000000000
 10
178.2596025442096
 20
60.34442695519274
 30
0.000000000000000
 10
178.4596463837938
 20
60.01113428885217
 30
0.000000000000000
 10
178.6446249375651
 20
59.64061849209629
 30
0.000000000000000
 10
178.8126663703712
 20
59.21910899824230
 30
0.000000000000000
 10
178.9369484782624
 20
58.79603058763435
 30
0.000000000000000
 10
179.0200662425038
 20
58.38540244471777
 30
0.000000000000000
 10
179.0682563154548
 20
58.00022322633572
 30
0.000000000000000
 10
179.0795344599525
 20
57.73379623399253
 30
0.000000000000000
 10
179.0796284493719
 20
57.59672628441965
 30
0.000000000000000
  0
SPLINE
  5
300
100
AcDbEntity
  8
A1
  6
CONTINUOUS
 62
7
100
AcDbSpline
210
0.000000000000000
220
0.000000000000000
230
1.000000000000000
 70
     8
 71
     3
 72
    17
 73
    13
 74
     0
 42
1.000000000000000e-07
 43
1.000000000000000e-07
 12
-0.001734237568257413
 22
0.9999984962088320
 32
0.000000000000000
 13
-0.9322224378702231
 23
0.3618857918339700
 33
0.000000000000000
 40
0.000000000000000
 40
0.000000000000000
 40
0.000000000000000
 40
0.000000000000000
 40
0.5527479179926039
 40
1.104107859565609
 40
1.654708173276002
 40
2.204690997812260
 40
2.754087597899653
 40
3.303196820324070
 40
3.852234235851391
 40
4.355070694765528
 40
4.857901893625320
 40
5.255377897207750
 40
5.255377897207750
 40
5.255377897207750
 40
5.255377897207750
 10
178.3296284493719
 20
57.59672628441965
 30
0.000000000000000
 10
178.3293089173035
 20
57.78097531334472
 30
0.000000000000000
 10
178.3055611626685
 20
58.14943598991933
 30
0.000000000000000
 10
178.1993738200590
 20
58.69212077142363
 30
0.000000000000000
 10
178.0273441362743
 20
59.21667671966973
 30
0.000000000000000
 10
177.7925948838939
 20
59.71558695406468
 30
0.000000000000000
 10
177.4985147736248
 20
60.18143100356509
 30
0.000000000000000
 10
177.1485709794106
 20
60.60663024100087
 30
0.000000000000000
 10
176.7576589577399
 20
60.97216596585907
 30
0.000000000000000
 10
176.3377996906856
 20
61.27786827071294
 30
0.000000000000000
 10
175.9299728209951
 20
61.50890681771563
 30
0.000000000000000
 10
175.6548918782412
 20
61.62996559141805
 30
0.000000000000000
 10
175.5313798618897
 20
61.67791256418185
 30
0.000000000000000
  0
SPLINE
  5
301
100
AcDbEntity
  8
A1
  6
CONTINUOUS
 62
7
100
AcDbSpline
210
0.000000000000000
220
0.000000000000000
230
1.000000000000000
 70
     8
 71
     3
 72
    21
 73
    17
 74
     0
 42
1.000000000000000e-07
 43
1.000000000000000e-07
 12
-0.001380413146534920
 22
0.9999990472292097
 32
0.000000000000000
 13
-0.9101868012876366
 23
0.4141980043295916
 33
0.000000000000000
 40
0.000000000000000
 40
0.000000000000000
 40
0.000000000000000
 40
0.000000000000000
 40
0.3999100533711282
 40
0.7885426734531283
 40
1.165095205763143
 40
1.520712502064722
 40
1.853597845188998
 40
2.163806273437336
 40
2.342096977889555
 40
2.547616063207821
 40
2.789322464613000
 40
3.067009916976922
 40
3.380613960512638
 40
3.669550655828581
 40
3.983641798088511
 40
3.997569902751999
 40
3.997569902751999
 40
3.997569902751999
 40
3.997569902751999
 10
177.5796284493719
 20
57.59672628441965
 30
0.000000000000000
 10
177.5794444356735
 20
57.73002950853583
 30
0.000000000000000
 10
177.5640603802661
 20
57.99313079758185
 30
0.000000000000000
 10
177.4967952936830
 20
58.37640943837567
 30
0.000000000000000
 10
177.3927415935162
 20
58.73595978494767
 30
0.000000000000000
 10
177.2594214441602
 20
59.06562720240703
 30
0.000000000000000
 10
177.1053118557252
 20
59.36124842440707
 30
0.000000000000000
 10
176.9570849492098
 20
59.59189913969361
 30
0.000000000000000
 10
176.8186926317528
 20
59.77738722739762
 30
0.000000000000000
 10
176.6848607522176
 20
59.93743791730196
 30
0.000000000000000
 10
176.5179003052581
 20
60.11240414545240
 30
0.000000000000000
 10
176.3110384339535
 20
60.29808535295356
 30
0.000000000000000
 10
176.0763325985853
 20
60.47485211772975
 30
0.000000000000000
 10
175.8171402604728
 20
60.63722966113705
 30
0.000000000000000
 10
175.6339479556009
 20
60.73138019407263
 30
0.000000000000000
 10
175.5345225565004
 20
60.77687232916251
 30
0.000000000000000
 10
175.5302968308232
 20
60.77879532688109
 30
0.000000000000000
  0
SPLINE
  5
302
100
AcDbEntity
  8
A1
  6
CONTINUOUS
 62
7
100
AcDbSpline
210
0.000000000000000
220
0.000000000000000
230
1.000000000000000
 70
     8
 71
     3
 72
    13
 73
     9
 74
     0
 42
1.000000000000000e-07
 43
1.000000000000000e-07
 12
-0.3736327961014467
 22
0.9275766996197490
 32
0.000000000000000
 13
0.03012555894838442
 23
0.9995461223463735
 33
0.000000000000000
 40
0.000000000000000
 40
0.000000000000000
 40
0.000000000000000
 40
0.000000000000000
 40
0.01322451040094480
 40
0.1222705106264307
 40
0.2679913164728595
 40
0.4425111147187039
 40
0.6337771576214264
 40
0.8292734318404754
 40
0.8292734318404754
 40
0.8292734318404754
 40
0.8292734318404754
 10
174.0293818354225
 20
61.15521535566489
 30
0.000000000000000
 10
174.0277347984898
 20
61.15930427156883
 30
0.000000000000000
 10
174.0128676316376
 20
61.19726417149582
 30
0.000000000000000
 10
173.9916594512086
 20
61.28449499879729
 30
0.000000000000000
 10
173.9699011909439
 20
61.42591904275878
 30
0.000000000000000
 10
173.9554603020499
 20
61.59595427422881
 30
0.000000000000000
 10
173.9484285918644
 20
61.78295410584845
 30
0.000000000000000
 10
173.9493095996296
 20
61.91192943745143
 30
0.000000000000000
 10
173.9512727444740
 20
61.97706528506104
 30
0.000000000000000
  0
ARC
  5
303
100
AcDbEntity
  8
A1
  6
CONTINUOUS
 62
7
100
AcDbCircle
 10
174.0796284493723
 20
57.59672628441965
 30
0.000000000000000
 40
4.999999999999691
100
AcDbArc
 50
216.8699166311711
 51
269.4264183419497
  0
ARC
  5
304
100
AcDbEntity
  8
A1
  6
CONTINUOUS
 62
7
100
AcDbCircle
 10
174.0796284493723
 20
57.59672628441965
 30
0.000000000000000
 40
4.999999999999691
100
AcDbArc
 50
286.8573141580277
 51
360.0000000000000
  0
ARC
  5
305
100
AcDbEntity
  8
A1
  6
CONTINUOUS
 62
7
100
AcDbCircle
 10
174.0796284493723
 20
57.59672628441965
 30
0.000000000000000
 40
3.499999999999690
100
AcDbArc
 50
294.4733783855234
 51
360.0000000000000
  0
ARC
  5
306
100
AcDbEntity
  8
A1
  6
CONTINUOUS
 62
7
100
AcDbCircle
 10
174.0796284493723
 20
57.59672628441965
 30
0.000000000000000
 40
3.499999999999690
100
AcDbArc
 50
238.9973238923287
 51
269.1805833850233
  0
LINE
  5
307
100
AcDbEntity
  8
A1
  6
CONTINUOUS
 62
7
100
AcDbLine
 10
174.0292600679630
 20
61.09706858221615
 30
0.000000000000000
 11
173.8840014074543
 21
61.09182239283983
 31
0.000000000000000
  0
LINE
  5
308
100
AcDbEntity
  8
A1
  6
CONTINUOUS
 62
7
100
AcDbLine
 10
174.0298448102774
 20
61.97633200471079
 30
0.000000000000000
 11
173.9512727444741
 21
61.97706528506103
 31
0.000000000000000
  0
LINE
  5
309
100
AcDbEntity
  8
A1
  6
CONTINUOUS
 62
7
100
AcDbLine
 10
179.0796284493719
 20
57.59672628441965
 30
0.000000000000000
 11
178.3296277835816
 21
57.59672628441965
 31
0.000000000000000
  0
LINE
  5
30A
100
AcDbEntity
  8
A1
  6
CONTINUOUS
 62
7
100
AcDbLine
 10
178.3296277835816
 20
57.59672628441965
 30
0.000000000000000
 11
177.5796284493719
 21
57.59672628441965
 31
0.000000000000000
  0
SPLINE
  5
30B
100
AcDbEntity
  8
A1
  6
CONTINUOUS
 62
7
100
AcDbSpline
210
0.000000000000000
220
0.000000000000000
230
1.000000000000000
 70
     8
 71
     3
 72
    17
 73
    13
 74
     0
 42
1.000000000000000e-07
 43
1.000000000000000e-07
 12
0.05524540246915421
 22
0.9984728065930994
 32
0.000000000000000
 13
0.9956645175579979
 23
0.09301703325172639
 33
0.000000000000000
 40
0.000000000000000
 40
0.000000000000000
 40
0.000000000000000
 40
0.000000000000000
 40
0.1128066998567261
 40
0.2488106318079060
 40
0.4217792510010632
 40
0.6387022242578956
 40
0.9006606978373690
 40
1.204024110208615
 40
1.521517622011355
 40
1.861352261758188
 40
2.214519431252713
 40
2.347052505074249
 40
2.347052505074249
 40
2.347052505074249
 40
2.347052505074249
 10
168.2795748431166
 20
53.43534628621325
 30
0.000000000000000
 10
168.2816521936282
 20
53.47289109361607
 30
0.000000000000000
 10
168.2983382912732
 20
53.55648587596329
 30
0.000000000000000
 10
168.3838489723663
 20
53.67218545086268
 30
0.000000000000000
 10
168.5200720756241
 20
53.78375233763222
 30
0.000000000000000
 10
168.7105986109215
 20
53.89014598368763
 30
0.000000000000000
 10
168.9522920166612
 20
53.98900967952005
 30
0.000000000000000
 10
169.2339038146986
 20
54.07552661750142
 30
0.000000000000000
 10
169.5458673983902
 20
54.14860109689329
 30
0.000000000000000
 10
169.8776653090966
 20
54.20744350028914
 30
0.000000000000000
 10
170.1506548961561
 20
54.24281007991281
 30
0.000000000000000
 10
170.3117299024290
 20
54.25917574263531
 30
0.000000000000000
 10
170.3557160620980
 20
54.26328502041351
 30
0.000000000000000
  0
SPLINE
  5
30C
100
AcDbEntity
  8
A1
  6
CONTINUOUS
 62
7
100
AcDbSpline
210
0.000000000000000
220
0.000000000000000
230
1.000000000000000
 70
     8
 71
     3
 72
    14
 73
    10
 74
     0
 42
1.000000000000000e-07
 43
1.000000000000000e-07
 12
0.09804597639686108
 22
0.9951818861463835
 32
0.000000000000000
 13
0.9951820520691399
 23
0.09804429222640465
 33
0.000000000000000
 40
0.000000000000000
 40
0.000000000000000
 40
0.000000000000000
 40
0.000000000000000
 40
0.07354698752697940
 40
0.1702182055710758
 40
0.3020094046430177
 40
0.4724122364780840
 40
0.6780470049764917
 40
0.9061210072719841
 40
1.131988005730552
 40
1.131988005730552
 40
1.131988005730552
 40
1.131988005730552
 10
169.7795748431166
 20
53.43534642635657
 30
0.000000000000000
 10
169.7819785051843
 20
53.45974396961239
 30
0.000000000000000
 10
169.7964470281239
 20
53.51683466235688
 30
0.000000000000000
 10
169.8703254706577
 20
53.59008094038253
 30
0.000000000000000
 10
169.9838496083117
 20
53.65930497180278
 30
0.000000000000000
 10
170.1417890692717
 20
53.72249121561408
 30
0.000000000000000
 10
170.3359164295098
 20
53.77663963766376
 30
0.000000000000000
 10
170.5520464210205
 20
53.81807309412063
 30
0.000000000000000
 10
170.7021436815432
 20
53.83793776447389
 30
0.000000000000000
 10
170.7770699425501
 20
53.84531942114094
 30
0.000000000000000
  0
LINE
  5
30D
100
AcDbEntity
  8
A1
  6
CONTINUOUS
 62
7
100
AcDbLine
 10
169.7795748431166
 20
52.05719292731724
 30
0.000000000000000
 11
168.2795748431166
 21
52.05719292731724
 31
0.000000000000000
  0
LINE
  5
30E
100
AcDbEntity
  8
A1
  6
CONTINUOUS
 62
7
100
AcDbLine
 10
169.7795748431166
 20
52.05279852624811
 30
0.000000000000000
 11
169.7795748431166
 21
52.16989718793384
 31
0.000000000000000
  0
LINE
  5
30F
100
AcDbEntity
  8
A1
  6
CONTINUOUS
 62
7
100
AcDbLine
 10
168.2795748431166
 20
54.59672521176005
 30
0.000000000000000
 11
168.2795748431166
 21
53.43534632774316
 31
0.000000000000000
  0
LINE
  5
310
100
AcDbEntity
  8
A1
  6
CONTINUOUS
 62
7
100
AcDbLine
 10
169.7795748431166
 20
52.16989718793384
 30
0.000000000000000
 11
169.7795748431166
 21
53.43534642635657
 31
0.000000000000000
  0
LINE
  5
311
100
AcDbEntity
  8
A1
  6
CONTINUOUS
 62
7
100
AcDbLine
 10
168.2795748431166
 20
53.43534632774313
 30
0.000000000000000
 11
168.2795748431166
 21
52.05719292731724
 31
0.000000000000000
  0
LINE
  5
312
100
AcDbEntity
  8
A1
  6
CONTINUOUS
 62
7
100
AcDbLine
 10
175.5295748431164
 20
51.59672551782235
 30
0.000000000000000
 11
175.5295748431164
 21
51.69398727264650
 31
0.000000000000000
  0
LINE
  5
313
100
AcDbEntity
  8
A1
  6
CONTINUOUS
 62
7
100
AcDbLine
 10
174.0295748431161
 20
51.69398727264649
 30
0.000000000000000
 11
174.0295748431161
 21
51.59672551782234
 31
0.000000000000000
  0
LINE
  5
314
100
AcDbEntity
  8
A1
  6
CONTINUOUS
 62
7
100
AcDbLine
 10
174.0295748431164
 20
51.59672551782235
 30
0.000000000000000
 11
175.5295748431164
 21
51.59672551782235
 31
0.000000000000000
  0
LINE
  5
315
100
AcDbEntity
  8
A1
  6
CONTINUOUS
 62
7
100
AcDbLine
 10
175.5295748431167
 20
63.49946246478160
 30
0.000000000000000
 11
175.5295748431167
 21
63.59672552945254
 31
0.000000000000000
  0
LINE
  5
316
100
AcDbEntity
  8
A1
  6
CONTINUOUS
 62
7
100
AcDbLine
 10
174.0295748431164
 20
63.59672552945254
 30
0.000000000000000
 11
175.5295748431164
 21
63.59672552945254
 31
0.000000000000000
  0
LINE
  5
317
100
AcDbEntity
  8
A1
  6
CONTINUOUS
 62
7
100
AcDbLine
 10
174.0295748431164
 20
63.59672552945253
 30
0.000000000000000
 11
174.0295748431164
 21
63.49946246478159
 31
0.000000000000000
  0
LINE
  5
318
100
AcDbEntity
  8
A1
  6
CONTINUOUS
 62
7
100
AcDbLine
 10
175.5295748431164
 20
63.49946246478161
 30
0.000000000000000
 11
175.5295748431164
 21
51.69398727264652
 31
0.000000000000000
  0
LINE
  5
319
100
AcDbEntity
  8
A1
  6
CONTINUOUS
 62
7
100
AcDbLine
 10
174.0295748431164
 20
54.59672279324604
 30
0.000000000000000
 11
174.0295748431164
 21
51.69398727264652
 31
0.000000000000000
  0
LINE
  5
31A
100
AcDbEntity
  8
A1
  6
CONTINUOUS
 62
7
100
AcDbLine
 10
174.0295748431164
 20
63.49946246478161
 30
0.000000000000000
 11
174.0295748431164
 21
60.59672514791604
 31
0.000000000000000
  0
LINE
  5
31B
100
AcDbEntity
  8
A1
  6
CONTINUOUS
 62
7
100
AcDbLine
 10
143.5925291603837
 20
60.59672633658701
 30
0.000000000000000
 11
143.5925291603837
 21
54.59672235879347
 31
0.000000000000000
  0
LINE
  5
31C
100
AcDbEntity
  8
A1
  6
CONTINUOUS
 62
7
100
AcDbLine
 10
168.4666205258494
 20
60.59672633658701
 30
0.000000000000000
 11
168.4666205258494
 21
54.59672235879347
 31
0.000000000000000
  0
LINE
  5
31D
100
AcDbEntity
  8
A1
  6
CONTINUOUS
 62
7
100
AcDbLine
 10
144.5295748431166
 20
59.09672615679980
 30
0.000000000000000
 11
143.5925291603837
 21
59.09672615679980
 31
0.000000000000000
  0
LINE
  5
31E
100
AcDbEntity
  8
A1
  6
CONTINUOUS
 62
7
100
AcDbLine
 10
146.5295748431167
 20
59.09672615679980
 30
0.000000000000000
 11
146.0295748431166
 21
59.09672615679980
 31
0.000000000000000
  0
LINE
  5
31F
100
AcDbEntity
  8
A1
  6
CONTINUOUS
 62
7
100
AcDbLine
 10
143.5925291603837
 20
56.09672659034335
 30
0.000000000000000
 11
144.5295748431166
 21
56.09672659034335
 31
0.000000000000000
  0
LINE
  5
320
100
AcDbEntity
  8
A1
  6
CONTINUOUS
 62
7
100
AcDbLine
 10
146.0295748431166
 20
56.09672659034335
 30
0.000000000000000
 11
166.0295748431166
 21
56.09672659034335
 31
0.000000000000000
  0
LINE
  5
321
100
AcDbEntity
  8
A1
  6
CONTINUOUS
 62
7
100
AcDbLine
 10
167.5295748431165
 20
59.09672615679980
 30
0.000000000000000
 11
168.4666205258494
 21
59.09672615679980
 31
0.000000000000000
  0
LINE
  5
322
100
AcDbEntity
  8
A1
  6
CONTINUOUS
 62
7
100
AcDbLine
 10
168.4666205258495
 20
56.09672659034335
 30
0.000000000000000
 11
167.5295748431165
 21
56.09672659034335
 31
0.000000000000000
  0
ENDSEC
  0
SECTION
  2
OBJECTS
  0
DICTIONARY
  5
355
100
AcDbDictionary
  3
ACAD_GROUP
350
356
  3
ACAD_LAYOUT
350
357
  3
ACAD_MLINESTYLE
350
358
  0
DICTIONARY
  5
356
102
{ACAD_REACTORS
330
355
102
}
330
355
100
AcDbDictionary
  0
DICTIONARY
  5
357
102
{ACAD_REACTORS
330
355
102
}
330
355
100
AcDbDictionary
  3
Model
350
359
  3
ﾚｲｱｳﾄ1
350
35A
  3
ﾚｲｱｳﾄ2
350
35B
  0
DICTIONARY
  5
358
102
{ACAD_REACTORS
330
355
102
}
330
355
100
AcDbDictionary
  3
STANDARD
350
35C
  0
LAYOUT
  5
359
102
{ACAD_REACTORS
330
357
102
}
330
357
100
AcDbPlotSettings
 70
11952
  4
A3
 44
297.000000
 45
420.000000
 73
  1
 72
  1
100
AcDbLayout
  1
Model
 71
0
330
34C
  0
LAYOUT
  5
35A
102
{ACAD_REACTORS
330
357
102
}
330
357
100
AcDbPlotSettings
100
AcDbLayout
  1
ﾚｲｱｳﾄ1
 71
1
330
34D
  0
LAYOUT
  5
35B
102
{ACAD_REACTORS
330
357
102
}
330
357
100
AcDbPlotSettings
100
AcDbLayout
  1
ﾚｲｱｳﾄ2
 71
2
330
34E
  0
MLINESTYLE
  5
35C
102
{ACAD_REACTORS
330
358
102
}
330
358
100
AcDbMlineStyle
  2
STANDARD
 70
     0
  3

 62
   256
 51
90.00
 52
90.00
 71
     2
 49
0.50
 62
   256
  6
BYLAYER
 49
-0.50
 62
   256
  6
BYLAYER
  0
ENDSEC
  0
EOF
