  0
SECTION
  2
HEADER
  9
$ACADVER
  1
AC1014
  9
$DWGCODEPAGE
  3
ANSI_932
  9
$LTSCALE
 40
20.0
  9
$FILLMODE
 70
     1
  9
$CLAYER
  8
0
  9
$PDMODE
 70
     0
  9
$SPLFRAME
 70
     0
  9
$SPLINETYPE
 70
     6
  9
$SPLINESEGS
 70
     8
  9
$DIMASZ
 40
2.000000
  9
$DIMEXE
 40
1.500000
  9
$DIMEXO
 40
0.800000
  9
$DIMTAD
 70
     1
  9
$DIMTIH
 70
     0
  9
$DIMTOH
 70
     0
  9
$DIMTVP
 40
0.500000
  9
$DIMTXT
 40
3.100000
  9
$EXTMIN
 10
0.000000
 20
0.000000
 30
0.000000
  9
$EXTMAX
 10
297.000000
 20
420.000000
 30
0.000000
  9
$MEASUREMENT
 70
  1
  9
$LIMMIN
 10
0.000000
 20
0.000000
  9
$LIMMAX
 10
297.000000
 20
420.000000
  9
$HANDLING
 70
     1
  9
$HANDSEED
  5
3F6
  9
$DIMBLK
  1
_OPEN
  9
$DIMDEC
 70
     2
  9
$DIMAUNIT
 70
     0
  9
$DIMZIN
 70
     8
  9
$DIMTOFL
 70
     1
  0
ENDSEC
  0
SECTION
  2
CLASSES
  0
ENDSEC
  0
SECTION
  2
TABLES
  0
TABLE
  2
VPORT
  5
3C5
100
AcDbSymbolTable
 70
     1
  0
VPORT
  5
3C6
100
AcDbSymbolTableRecord
100
AcDbViewportTableRecord
  2
*ACTIVE
 70
     0
 12
131.446266
 22
102.238849
 40
168.477697
 41
1.441690
  0
ENDTAB
  0
TABLE
  2
LTYPE
  5
3C7
100
AcDbSymbolTable
 70
     3
  0
LTYPE
  5
3C8
100
AcDbSymbolTableRecord
100
AcDbLinetypeTableRecord
  2
BYBLOCK
 70
     0
  3

 72
    65
 73
     0
 40
0.0
  0
LTYPE
  5
3C9
100
AcDbSymbolTableRecord
100
AcDbLinetypeTableRecord
  2
BYLAYER
 70
     0
  3

 72
    65
 73
     0
 40
0.0
  0
LTYPE
  5
3CA
100
AcDbSymbolTableRecord
100
AcDbLinetypeTableRecord
  2
CONTINUOUS
 70
     0
  3
Solid line (NEC CAE2D for Win R18.0 : 2025.04.23)
 72
    65
 73
     0
 40
0.0
  0
LTYPE
  5
3CB
100
AcDbSymbolTableRecord
100
AcDbLinetypeTableRecord
  2
DASHED
 70
     0
  3
__ __ __ __ __ __ __ __ __ __ __ __ __ _
 72
    65
 73
     2
 40
0.75
 49
0.5
 74
     0
 49
-0.25
 74
     0
  0
LTYPE
  5
3CC
100
AcDbSymbolTableRecord
100
AcDbLinetypeTableRecord
  2
CENTER
 70
     0
  3
____ _ ____ _ ____ _ ____ _ ____ _ ____
 72
    65
 73
     4
 40
2.0
 49
1.25
 74
     0
 49
-0.25
 74
     0
 49
0.25
 74
     0
 49
-0.25
 74
     0
  0
ENDTAB
  0
TABLE
  2
LAYER
  5
3CD
100
AcDbSymbolTable
 70
    17
  0
LAYER
  5
3CE
100
AcDbSymbolTableRecord
100
AcDbLayerTableRecord
  2
0
 70
     0
 62
     7
  6
CONTINUOUS
  0
LAYER
  5
3CF
100
AcDbSymbolTableRecord
100
AcDbLayerTableRecord
  2
A0
 70
     0
 62
     9
  6
CONTINUOUS
  0
LAYER
  5
3D0
100
AcDbSymbolTableRecord
100
AcDbLayerTableRecord
  2
A1
 70
     0
 62
    12
  6
CONTINUOUS
  0
LAYER
  5
3D1
100
AcDbSymbolTableRecord
100
AcDbLayerTableRecord
  2
A2
 70
     0
 62
     9
  6
CONTINUOUS
  0
LAYER
  5
3D2
100
AcDbSymbolTableRecord
100
AcDbLayerTableRecord
  2
A3
 70
     0
 62
    12
  6
CONTINUOUS
  0
LAYER
  5
3D3
100
AcDbSymbolTableRecord
100
AcDbLayerTableRecord
  2
A4
 70
     0
 62
     9
  6
CONTINUOUS
  0
LAYER
  5
3D4
100
AcDbSymbolTableRecord
100
AcDbLayerTableRecord
  2
A5
 70
     0
 62
     8
  6
CONTINUOUS
  0
LAYER
  5
3D5
100
AcDbSymbolTableRecord
100
AcDbLayerTableRecord
  2
A6
 70
     0
 62
    12
  6
CONTINUOUS
  0
LAYER
  5
3D6
100
AcDbSymbolTableRecord
100
AcDbLayerTableRecord
  2
A7
 70
     0
 62
    12
  6
CONTINUOUS
  0
LAYER
  5
3D7
100
AcDbSymbolTableRecord
100
AcDbLayerTableRecord
  2
A8
 70
     0
 62
    10
  6
CONTINUOUS
  0
LAYER
  5
3D8
100
AcDbSymbolTableRecord
100
AcDbLayerTableRecord
  2
A9
 70
     0
 62
     9
  6
CONTINUOUS
  0
LAYER
  5
3D9
100
AcDbSymbolTableRecord
100
AcDbLayerTableRecord
  2
A10
 70
     0
 62
     6
  6
CONTINUOUS
  0
LAYER
  5
3DA
100
AcDbSymbolTableRecord
100
AcDbLayerTableRecord
  2
A20
 70
     0
 62
     1
  6
CONTINUOUS
  0
LAYER
  5
3DB
100
AcDbSymbolTableRecord
100
AcDbLayerTableRecord
  2
A30
 70
     0
 62
     1
  6
CONTINUOUS
  0
LAYER
  5
3DC
100
AcDbSymbolTableRecord
100
AcDbLayerTableRecord
  2
A40
 70
     0
 62
     9
  6
CONTINUOUS
  0
LAYER
  5
3DD
100
AcDbSymbolTableRecord
100
AcDbLayerTableRecord
  2
A50
 70
     0
 62
    12
  6
CONTINUOUS
  0
LAYER
  5
3DE
100
AcDbSymbolTableRecord
100
AcDbLayerTableRecord
  2
A1023
 70
     0
 62
    16
  6
CONTINUOUS
  0
ENDTAB
  0
TABLE
  2
STYLE
  5
3DF
100
AcDbSymbolTable
 70
     4
  0
STYLE
  5
3E0
100
AcDbSymbolTableRecord
100
AcDbTextStyleTableRecord
  2
STANDARD
 70
    64
 40
0.0
 41
1.0
 50
0.0
 71
     0
 42
3.000000000000000
  3
TXT
  4

  0
STYLE
  5
3E1
100
AcDbSymbolTableRecord
100
AcDbTextStyleTableRecord
  2
ANKTATE
 70
    68
 40
0.0
 41
1.0
 50
0.0
 71
     0
 42
3.000000000000000
  3
TXT
  4

  0
STYLE
  5
3E2
100
AcDbSymbolTableRecord
100
AcDbTextStyleTableRecord
  2
KNJYOKO
 70
    64
 40
0.0
 41
1.0
 50
0.0
 71
     0
 42
3.000000000000000
  3
TXT
  4
BIGFONT
  0
STYLE
  5
3E3
100
AcDbSymbolTableRecord
100
AcDbTextStyleTableRecord
  2
KNJTATE
 70
    68
 40
0.0
 41
1.0
 50
0.0
 71
     0
 42
3.000000000000000
  3
TXT
  4
BIGFONT
  0
ENDTAB
  0
TABLE
  2
VIEW
  5
3E4
100
AcDbSymbolTable
 70
     0
  0
ENDTAB
  0
TABLE
  2
UCS
  5
3E5
100
AcDbSymbolTable
 70
     0
  0
ENDTAB
  0
TABLE
  2
APPID
  5
3E6
100
AcDbSymbolTable
 70
     1
  0
APPID
  5
3E7
100
AcDbSymbolTableRecord
100
AcDbRegAppTableRecord
  2
ACAD
 70
     0
  0
ENDTAB
  0
TABLE
  2
DIMSTYLE
  5
3E8
100
AcDbSymbolTable
 70
     2
  0
DIMSTYLE
105
3E9
100
AcDbSymbolTableRecord
100
AcDbDimStyleTableRecord
  2
STANDARD
 70
     0
 41
2.000000
 44
1.500000
 42
0.800000
145
0.661290
140
3.100000
144
1.000000
146
0.645161
340
3E0
  0
DIMSTYLE
105
3EA
100
AcDbSymbolTableRecord
100
AcDbDimStyleTableRecord
  2
A001
 70
     0
 41
2.000000
 44
1.500000
 42
0.800000
145
0.661290
140
3.100000
144
1.000000
146
0.645161
 77
     1
 73
     0
 74
     0
271
     2
275
     0
 78
     8
172
     1
340
3E0
  0
ENDTAB
  0
TABLE
  2
BLOCK_RECORD
  5
3EB
100
AcDbSymbolTable
 70
    12
  0
BLOCK_RECORD
  5
3EC
100
AcDbSymbolTableRecord
100
AcDbBlockTableRecord
  2
*MODEL_SPACE
  0
BLOCK_RECORD
  5
3ED
100
AcDbSymbolTableRecord
100
AcDbBlockTableRecord
  2
*PAPER_SPACE
  0
BLOCK_RECORD
  5
1
100
AcDbSymbolTableRecord
100
AcDbBlockTableRecord
  2
_NONE
  0
BLOCK_RECORD
  5
4
100
AcDbSymbolTableRecord
100
AcDbBlockTableRecord
  2
_CLOSED
  0
BLOCK_RECORD
  5
B
100
AcDbSymbolTableRecord
100
AcDbBlockTableRecord
  2
_DOT
  0
BLOCK_RECORD
  5
13
100
AcDbSymbolTableRecord
100
AcDbBlockTableRecord
  2
_OPEN
  0
BLOCK_RECORD
  5
19
100
AcDbSymbolTableRecord
100
AcDbBlockTableRecord
  2
_ORIGIN
  0
BLOCK_RECORD
  5
1E
100
AcDbSymbolTableRecord
100
AcDbBlockTableRecord
  2
_OPEN30
  0
BLOCK_RECORD
  5
24
100
AcDbSymbolTableRecord
100
AcDbBlockTableRecord
  2
_BOXFILLED
  0
BLOCK_RECORD
  5
29
100
AcDbSymbolTableRecord
100
AcDbBlockTableRecord
  2
_BOXBLANK
  0
BLOCK_RECORD
  5
31
100
AcDbSymbolTableRecord
100
AcDbBlockTableRecord
  2
_OBLIQUE
  0
BLOCK_RECORD
  5
35
100
AcDbSymbolTableRecord
100
AcDbBlockTableRecord
  2
_OPEN90
  0
BLOCK_RECORD
  5
3B
100
AcDbSymbolTableRecord
100
AcDbBlockTableRecord
  2
_CLOSEDBLANK
  0
BLOCK_RECORD
  5
41
100
AcDbSymbolTableRecord
100
AcDbBlockTableRecord
  2
_DOTBLANK
  0
ENDTAB
  0
ENDSEC
  0
SECTION
  2
BLOCKS
  0
BLOCK
  5
3EE
100
AcDbEntity
  8
0
100
AcDbBlockBegin
  2
*MODEL_SPACE
 70
     0
 10
0.0
 20
0.0
 30
0.0
  3
*MODEL_SPACE
  1

  0
ENDBLK
  5
3EF
100
AcDbEntity
  8
0
100
AcDbBlockEnd
  0
BLOCK
  5
3F0
100
AcDbEntity
  8
0
100
AcDbBlockBegin
  2
*PAPER_SPACE
 70
     0
 10
0.0
 20
0.0
 30
0.0
  3
*PAPER_SPACE
  1

  0
ENDBLK
  5
3F1
100
AcDbEntity
  8
0
100
AcDbBlockEnd
  0
BLOCK
  5
2
100
AcDbEntity
  8
0
100
AcDbBlockBegin
  2
_NONE
 70
     0
 10
0.0
 20
0.0
 30
0.0
  3
_NONE
  1

  0
ENDBLK
  5
3
100
AcDbEntity
  8
0
100
AcDbBlockEnd
  0
BLOCK
  5
5
100
AcDbEntity
  8
0
100
AcDbBlockBegin
  2
_CLOSED
 70
     0
 10
0.0
 20
0.0
 30
0.0
  3
_CLOSED
  1

  0
LINE
  5
6
100
AcDbEntity
  8
0
  6
BYBLOCK
 62
     0
100
AcDbLine
 10
-1.0
 20
0.166667
 30
0.0
 11
0.0
 21
0.0
 31
0.0
  0
LINE
  5
7
100
AcDbEntity
  8
0
  6
BYBLOCK
 62
     0
100
AcDbLine
 10
0.0
 20
0.0
 30
0.0
 11
-1.0
 21
-0.166667
 31
0.0
  0
LINE
  5
8
100
AcDbEntity
  8
0
  6
BYBLOCK
 62
     0
100
AcDbLine
 10
-1.0
 20
0.166667
 30
0.0
 11
-1.0
 21
-0.166667
 31
0.0
  0
LINE
  5
9
100
AcDbEntity
  8
0
  6
BYBLOCK
 62
     0
100
AcDbLine
 10
0.0
 20
0.0
 30
0.0
 11
-1.0
 21
0.0
 31
0.0
  0
ENDBLK
  5
A
100
AcDbEntity
  8
0
100
AcDbBlockEnd
  0
BLOCK
  5
C
100
AcDbEntity
  8
0
100
AcDbBlockBegin
  2
_DOT
 70
     0
 10
0.0
 20
0.0
 30
0.0
  3
_DOT
  1

  0
POLYLINE
  5
D
100
AcDbEntity
  8
0
  6
BYBLOCK
 62
     0
100
AcDb2dPolyline
 66
     1
 10
0.0
 20
0.0
 30
0.0
 70
     1
 40
0.5
 41
0.5
  0
VERTEX
  5
E
100
AcDbEntity
  8
0
  6
BYBLOCK
 62
     0
100
AcDbVertex
100
AcDb2dVertex
 10
-0.25
 20
0.0
 30
0.0
 42
1.0
  0
VERTEX
  5
F
100
AcDbEntity
  8
0
  6
BYBLOCK
 62
     0
100
AcDbVertex
100
AcDb2dVertex
 10
0.25
 20
0.0
 30
0.0
 42
1.0
  0
SEQEND
  5
10
100
AcDbEntity
  8
0
  6
BYBLOCK
 62
     0
  0
LINE
  5
11
100
AcDbEntity
  8
0
  6
BYBLOCK
 62
     0
100
AcDbLine
 10
-0.5
 20
0.0
 30
0.0
 11
-1.0
 21
0.0
 31
0.0
  0
ENDBLK
  5
12
100
AcDbEntity
  8
0
100
AcDbBlockEnd
  0
BLOCK
  5
14
100
AcDbEntity
  8
0
100
AcDbBlockBegin
  2
_OPEN
 70
     0
 10
0.0
 20
0.0
 30
0.0
  3
_OPEN
  1

  0
LINE
  5
15
100
AcDbEntity
  8
0
  6
BYBLOCK
 62
     0
100
AcDbLine
 10
-1.0
 20
0.166667
 30
0.0
 11
0.0
 21
0.0
 31
0.0
  0
LINE
  5
16
100
AcDbEntity
  8
0
  6
BYBLOCK
 62
     0
100
AcDbLine
 10
0.0
 20
0.0
 30
0.0
 11
-1.0
 21
-0.166667
 31
0.0
  0
LINE
  5
17
100
AcDbEntity
  8
0
  6
BYBLOCK
 62
     0
100
AcDbLine
 10
0.0
 20
0.0
 30
0.0
 11
-1.0
 21
0.0
 31
0.0
  0
ENDBLK
  5
18
100
AcDbEntity
  8
0
100
AcDbBlockEnd
  0
BLOCK
  5
1A
100
AcDbEntity
  8
0
100
AcDbBlockBegin
  2
_ORIGIN
 70
     0
 10
0.0
 20
0.0
 30
0.0
  3
_ORIGIN
  1

  0
CIRCLE
  5
1B
100
AcDbEntity
  8
0
  6
BYBLOCK
 62
     0
100
AcDbCircle
 10
0.0
 20
0.0
 30
0.0
 40
0.5
  0
LINE
  5
1C
100
AcDbEntity
  8
0
  6
BYBLOCK
 62
     0
100
AcDbLine
 10
0.0
 20
0.0
 30
0.0
 11
-1.0
 21
0.0
 31
0.0
  0
ENDBLK
  5
1D
100
AcDbEntity
  8
0
100
AcDbBlockEnd
  0
BLOCK
  5
1F
100
AcDbEntity
  8
0
100
AcDbBlockBegin
  2
_OPEN30
 70
     0
 10
0.0
 20
0.0
 30
0.0
  3
_OPEN30
  1

  0
LINE
  5
20
100
AcDbEntity
  8
0
  6
BYBLOCK
 62
     0
100
AcDbLine
 10
-1.0
 20
0.267949
 30
0.0
 11
0.0
 21
0.0
 31
0.0
  0
LINE
  5
21
100
AcDbEntity
  8
0
  6
BYBLOCK
 62
     0
100
AcDbLine
 10
0.0
 20
0.0
 30
0.0
 11
-1.0
 21
-0.267949
 31
0.0
  0
LINE
  5
22
100
AcDbEntity
  8
0
  6
BYBLOCK
 62
     0
100
AcDbLine
 10
0.0
 20
0.0
 30
0.0
 11
-1.0
 21
0.0
 31
0.0
  0
ENDBLK
  5
23
100
AcDbEntity
  8
0
100
AcDbBlockEnd
  0
BLOCK
  5
25
100
AcDbEntity
  8
0
100
AcDbBlockBegin
  2
_BOXFILLED
 70
     0
 10
0.0
 20
0.0
 30
0.0
  3
_BOXFILLED
  1

  0
SOLID
  5
26
100
AcDbEntity
  8
0
  6
BYBLOCK
 62
     0
100
AcDbTrace
 10
-0.5
 20
0.5
 30
0.0
 11
0.5
 21
0.5
 31
0.0
 12
-0.5
 22
-0.5
 32
0.0
 13
0.5
 23
-0.5
 33
0.0
  0
LINE
  5
27
100
AcDbEntity
  8
0
  6
BYBLOCK
 62
     0
100
AcDbLine
 10
-0.5
 20
0.0
 30
0.0
 11
-1.0
 21
0.0
 31
0.0
  0
ENDBLK
  5
28
100
AcDbEntity
  8
0
100
AcDbBlockEnd
  0
BLOCK
  5
2A
100
AcDbEntity
  8
0
100
AcDbBlockBegin
  2
_BOXBLANK
 70
     0
 10
0.0
 20
0.0
 30
0.0
  3
_BOXBLANK
  1

  0
LINE
  5
2B
100
AcDbEntity
  8
0
  6
BYBLOCK
 62
     0
100
AcDbLine
 10
-0.5
 20
-0.5
 30
0.0
 11
0.5
 21
-0.5
 31
0.0
  0
LINE
  5
2C
100
AcDbEntity
  8
0
  6
BYBLOCK
 62
     0
100
AcDbLine
 10
0.5
 20
-0.5
 30
0.0
 11
0.5
 21
0.5
 31
0.0
  0
LINE
  5
2D
100
AcDbEntity
  8
0
  6
BYBLOCK
 62
     0
100
AcDbLine
 10
0.5
 20
0.5
 30
0.0
 11
-0.5
 21
0.5
 31
0.0
  0
LINE
  5
2E
100
AcDbEntity
  8
0
  6
BYBLOCK
 62
     0
100
AcDbLine
 10
-0.5
 20
0.5
 30
0.0
 11
-0.5
 21
-0.5
 31
0.0
  0
LINE
  5
2F
100
AcDbEntity
  8
0
  6
BYBLOCK
 62
     0
100
AcDbLine
 10
-0.5
 20
0.0
 30
0.0
 11
-1.0
 21
0.0
 31
0.0
  0
ENDBLK
  5
30
100
AcDbEntity
  8
0
100
AcDbBlockEnd
  0
BLOCK
  5
32
100
AcDbEntity
  8
0
100
AcDbBlockBegin
  2
_OBLIQUE
 70
     0
 10
0.0
 20
0.0
 30
0.0
  3
_OBLIQUE
  1

  0
LINE
  5
33
100
AcDbEntity
  8
0
  6
BYBLOCK
 62
     0
100
AcDbLine
 10
-0.5
 20
-0.5
 30
0.0
 11
0.5
 21
0.5
 31
0.0
  0
ENDBLK
  5
34
100
AcDbEntity
  8
0
100
AcDbBlockEnd
  0
BLOCK
  5
36
100
AcDbEntity
  8
0
100
AcDbBlockBegin
  2
_OPEN90
 70
     0
 10
0.0
 20
0.0
 30
0.0
  3
_OPEN90
  1

  0
LINE
  5
37
100
AcDbEntity
  8
0
  6
BYBLOCK
 62
     0
100
AcDbLine
 10
-0.5
 20
0.5
 30
0.0
 11
0.0
 21
0.0
 31
0.0
  0
LINE
  5
38
100
AcDbEntity
  8
0
  6
BYBLOCK
 62
     0
100
AcDbLine
 10
0.0
 20
0.0
 30
0.0
 11
-0.5
 21
-0.5
 31
0.0
  0
LINE
  5
39
100
AcDbEntity
  8
0
  6
BYBLOCK
 62
     0
100
AcDbLine
 10
0.0
 20
0.0
 30
0.0
 11
-1.0
 21
0.0
 31
0.0
  0
ENDBLK
  5
3A
100
AcDbEntity
  8
0
100
AcDbBlockEnd
  0
BLOCK
  5
3C
100
AcDbEntity
  8
0
100
AcDbBlockBegin
  2
_CLOSEDBLANK
 70
     0
 10
0.0
 20
0.0
 30
0.0
  3
_CLOSEDBLANK
  1

  0
LINE
  5
3D
100
AcDbEntity
  8
0
  6
BYBLOCK
 62
     0
100
AcDbLine
 10
-1.0
 20
0.1666666666666666
 30
0.0
 11
0.0
 21
0.0
 31
0.0
  0
LINE
  5
3E
100
AcDbEntity
  8
0
  6
BYBLOCK
 62
     0
100
AcDbLine
 10
0.0
 20
0.0
 30
0.0
 11
-1.0
 21
-0.1666666666666666
 31
0.0
  0
LINE
  5
3F
100
AcDbEntity
  8
0
  6
BYBLOCK
 62
     0
100
AcDbLine
 10
-1.0
 20
0.1666666666666666
 30
0.0
 11
-1.0
 21
-0.1666666666666666
 31
0.0
  0
ENDBLK
  5
40
100
AcDbEntity
  8
0
100
AcDbBlockEnd
  0
BLOCK
  5
42
100
AcDbEntity
  8
0
100
AcDbBlockBegin
  2
_DOTBLANK
 70
     0
 10
0.0
 20
0.0
 30
0.0
  3
_DOTBLANK
  1

  0
CIRCLE
  5
43
100
AcDbEntity
  8
0
  6
BYBLOCK
 62
     0
100
AcDbCircle
 10
0.0
 20
0.0
 30
0.0
 40
0.5
  0
LINE
  5
44
100
AcDbEntity
  8
0
  6
BYBLOCK
 62
     0
100
AcDbLine
 10
-0.5
 20
0.0
 30
0.0
 11
-1.0
 21
0.0
 31
0.0
  0
ENDBLK
  5
45
100
AcDbEntity
  8
0
100
AcDbBlockEnd
  0
ENDSEC
  0
SECTION
  2
ENTITIES
  0
MTEXT
  5
46
100
AcDbEntity
  8
A7
  6
CONTINUOUS
 62
3
100
AcDbMText
 10
9.999997526638502
 20
18.00000076076889
 30
0.000000000000000
 40
3.000000000000000
 41
0.000000000000000
 71
     7
 72
     1
  1
{\H0.94x;{TYPE No.TL-207SUS-2-H}}
 11
1.000000000000000
 21
0.000000000000000
 31
0.000000000000000
  7
STANDARD
  0
LINE
  5
47
100
AcDbEntity
  8
A1
  6
CONTINUOUS
 62
7
100
AcDbLine
 10
38.55353810002671
 20
100.1613280462181
 30
0.000000000000000
 11
38.55353810002671
 21
77.95827300806313
 31
0.000000000000000
  0
LINE
  5
48
100
AcDbEntity
  8
A1
  6
CONTINUOUS
 62
7
100
AcDbLine
 10
40.05353810002671
 20
100.1613280462181
 30
0.000000000000000
 11
40.05353810002671
 21
77.95827300806313
 31
0.000000000000000
  0
LINE
  5
49
100
AcDbEntity
  8
A1
  6
CONTINUOUS
 62
7
100
AcDbLine
 10
40.25353810002676
 20
100.1613280462181
 30
0.000000000000000
 11
40.25353810002676
 21
99.45827300806302
 31
0.000000000000000
  0
ARC
  5
4A
100
AcDbEntity
  8
A1
  6
CONTINUOUS
 62
7
100
AcDbCircle
 10
40.05353810002671
 20
99.45827300806302
 30
0.000000000000000
 40
0.2000000000000002
100
AcDbArc
 50
270.0000000000000
 51
360.0000000000000
  0
ARC
  5
4B
100
AcDbEntity
  8
A1
  6
CONTINUOUS
 62
7
100
AcDbCircle
 10
40.55353810002671
 20
100.1613280462181
 30
0.000000000000000
 40
0.2999999999999998
100
AcDbArc
 50
146.4426902380768
 51
180.0000000000000
  0
LINE
  5
4C
100
AcDbEntity
  8
A4
  6
CENTER
 62
1
100
AcDbLine
 10
41.55353810002671
 20
83.95827300806313
 30
0.000000000000000
 11
37.05353810002671
 21
83.95827300806313
 31
0.000000000000000
  0
LINE
  5
4D
100
AcDbEntity
  8
A4
  6
CENTER
 62
1
100
AcDbLine
 10
41.55353810002671
 20
97.95827300806313
 30
0.000000000000000
 11
37.05353810002671
 21
97.95827300806313
 31
0.000000000000000
  0
LINE
  5
4E
100
AcDbEntity
  8
A1
  6
CONTINUOUS
 62
7
100
AcDbLine
 10
40.30353810002671
 20
103.7241011443113
 30
0.000000000000000
 11
40.30353810002671
 21
93.95827300806316
 31
0.000000000000000
  0
LINE
  5
4F
100
AcDbEntity
  8
A1
  6
CONTINUOUS
 62
7
100
AcDbLine
 10
51.55353810002615
 20
90.23556422018397
 30
0.000000000000000
 11
51.55353810002615
 21
112.6534210780809
 31
0.000000000000000
  0
LINE
  5
50
100
AcDbEntity
  8
A1
  6
CONTINUOUS
 62
7
100
AcDbLine
 10
40.05353810002671
 20
77.95827300806313
 30
0.000000000000000
 11
38.55353810002671
 21
77.95827300806313
 31
0.000000000000000
  0
CIRCLE
  5
51
100
AcDbEntity
  8
A1
  6
CONTINUOUS
 62
7
100
AcDbCircle
 10
42.40026816012258
 20
132.2241011443135
 30
0.000000000000000
 40
1.750000000000000
  0
LINE
  5
52
100
AcDbEntity
  8
A1
  6
CONTINUOUS
 62
7
100
AcDbLine
 10
148.5842559509057
 20
113.6534210780810
 30
0.000000000000000
 11
148.5842559509057
 21
111.6534210780810
 31
0.000000000000000
  0
LINE
  5
53
100
AcDbEntity
  8
A1
  6
CONTINUOUS
 62
7
100
AcDbLine
 10
146.8342559509057
 20
90.45827300806320
 30
0.000000000000000
 11
148.0842559509057
 21
90.45827300806320
 31
0.000000000000000
  0
LINE
  5
54
100
AcDbEntity
  8
A1
  6
CONTINUOUS
 62
7
100
AcDbLine
 10
133.3342559509058
 20
90.45827300806320
 30
0.000000000000000
 11
132.0842559509058
 21
90.45827300806320
 31
0.000000000000000
  0
LINE
  5
55
100
AcDbEntity
  8
A1
  6
CONTINUOUS
 62
7
100
AcDbLine
 10
131.5842559509058
 20
113.6534210780810
 30
0.000000000000000
 11
131.5842559509058
 21
111.6534210780810
 31
0.000000000000000
  0
ARC
  5
56
100
AcDbEntity
  8
A1
  6
CONTINUOUS
 62
7
100
AcDbCircle
 10
132.0842559509058
 20
113.6534210780810
 30
0.000000000000000
 40
0.5000000000000002
100
AcDbArc
 50
90.00000000000000
 51
180.0000000000000
  0
ARC
  5
57
100
AcDbEntity
  8
A1
  6
CONTINUOUS
 62
7
100
AcDbCircle
 10
132.0842559509058
 20
111.6534210780810
 30
0.000000000000000
 40
0.5000000000000002
100
AcDbArc
 50
180.0000000000000
 51
270.0000000000000
  0
ARC
  5
58
100
AcDbEntity
  8
A1
  6
CONTINUOUS
 62
7
100
AcDbCircle
 10
148.0842559509057
 20
113.6534210780810
 30
0.000000000000000
 40
0.5000000000000002
100
AcDbArc
 50
0.000000000000000
 51
90.00000000000000
  0
ARC
  5
59
100
AcDbEntity
  8
A1
  6
CONTINUOUS
 62
7
100
AcDbCircle
 10
148.0842559509057
 20
111.6534210780810
 30
0.000000000000000
 40
0.5000000000000002
100
AcDbArc
 50
270.0000000000000
 51
360.0000000000000
  0
ARC
  5
5A
100
AcDbEntity
  8
A1
  6
CONTINUOUS
 62
7
100
AcDbCircle
 10
148.0842559509057
 20
90.95827300806320
 30
0.000000000000000
 40
0.5000000000000002
100
AcDbArc
 50
270.0000000000000
 51
360.0000000000000
  0
ARC
  5
5B
100
AcDbEntity
  8
A1
  6
CONTINUOUS
 62
7
100
AcDbCircle
 10
132.0842559509058
 20
90.95827300806320
 30
0.000000000000000
 40
0.5000000000000002
100
AcDbArc
 50
180.0000000000000
 51
270.0000000000000
  0
LINE
  5
5C
100
AcDbEntity
  8
A1
  6
CONTINUOUS
 62
7
100
AcDbLine
 10
133.5842559509057
 20
81.40598300806317
 30
0.000000000000000
 11
133.5842559509057
 21
90.95827300806320
 31
0.000000000000000
  0
LINE
  5
5D
100
AcDbEntity
  8
A1
  6
CONTINUOUS
 62
7
100
AcDbLine
 10
146.5842559509057
 20
81.40598300806317
 30
0.000000000000000
 11
146.5842559509057
 21
90.95827300806320
 31
0.000000000000000
  0
LINE
  5
5E
100
AcDbEntity
  8
A1
  6
CONTINUOUS
 62
7
100
AcDbLine
 10
130.5842559509058
 20
97.47011121092441
 30
0.000000000000000
 11
132.0842559509058
 21
97.47011121092441
 31
0.000000000000000
  0
LINE
  5
5F
100
AcDbEntity
  8
A1
  6
CONTINUOUS
 62
7
100
AcDbLine
 10
148.0842559509057
 20
100.9701112109244
 30
0.000000000000000
 11
149.5842559509057
 21
100.9701112109244
 31
0.000000000000000
  0
LINE
  5
60
100
AcDbEntity
  8
A1
  6
CONTINUOUS
 62
7
100
AcDbLine
 10
130.5842559509058
 20
100.9701112109244
 30
0.000000000000000
 11
132.0842559509058
 21
100.9701112109244
 31
0.000000000000000
  0
LINE
  5
61
100
AcDbEntity
  8
A1
  6
CONTINUOUS
 62
7
100
AcDbLine
 10
148.0842559509057
 20
97.47011121092441
 30
0.000000000000000
 11
149.5842559509057
 21
97.47011121092441
 31
0.000000000000000
  0
LINE
  5
62
100
AcDbEntity
  8
A1
  6
CONTINUOUS
 62
7
100
AcDbLine
 10
131.5842559509058
 20
90.95827300806320
 30
0.000000000000000
 11
131.5842559509058
 21
97.47011121092441
 31
0.000000000000000
  0
LINE
  5
63
100
AcDbEntity
  8
A1
  6
CONTINUOUS
 62
7
100
AcDbLine
 10
148.5842559509057
 20
90.95827300806320
 30
0.000000000000000
 11
148.5842559509057
 21
97.47011121092441
 31
0.000000000000000
  0
LINE
  5
64
100
AcDbEntity
  8
A1
  6
CONTINUOUS
 62
7
100
AcDbLine
 10
130.5842559509058
 20
133.9764430191352
 30
0.000000000000000
 11
149.5842559509058
 21
133.9764430191352
 31
0.000000000000000
  0
LINE
  5
65
100
AcDbEntity
  8
A1
  6
CONTINUOUS
 62
7
100
AcDbLine
 10
130.5842559509058
 20
130.4764430191352
 30
0.000000000000000
 11
149.5842559509058
 21
130.4764430191352
 31
0.000000000000000
  0
ARC
  5
66
100
AcDbEntity
  8
A1
  6
CONTINUOUS
 62
7
100
AcDbCircle
 10
140.0842559509057
 20
81.45848776932314
 30
0.000000000000000
 40
6.500214761259960
100
AcDbArc
 50
180.4657500871202
 51
359.5342499128798
  0
ARC
  5
67
100
AcDbEntity
  8
A1
  6
CONTINUOUS
 62
7
100
AcDbCircle
 10
140.0842559509057
 20
81.94973486882105
 30
0.000000000000000
 40
6.522731751674519
100
AcDbArc
 50
184.7848191741218
 51
355.2151808258782
  0
LINE
  5
68
100
AcDbEntity
  8
A1
  6
CONTINUOUS
 62
7
100
AcDbLine
 10
149.5842559509058
 20
135.2201112109244
 30
0.000000000000000
 11
151.0842559509058
 21
135.2201112109244
 31
0.000000000000000
  0
LINE
  5
69
100
AcDbEntity
  8
A1
  6
CONTINUOUS
 62
7
100
AcDbLine
 10
151.0842559509058
 20
135.2201112109244
 30
0.000000000000000
 11
151.0842559509058
 21
130.1394873631195
 31
0.000000000000000
  0
LINE
  5
6A
100
AcDbEntity
  8
A1
  6
CONTINUOUS
 62
7
100
AcDbLine
 10
149.5842559509058
 20
135.2201112109244
 30
0.000000000000000
 11
149.5842559509058
 21
130.1394873631199
 31
0.000000000000000
  0
LINE
  5
6B
100
AcDbEntity
  8
A1
  6
CONTINUOUS
 62
7
100
AcDbLine
 10
155.3342559509057
 20
126.2201112109244
 30
0.000000000000000
 11
155.3342559509057
 21
123.2201112109244
 31
0.000000000000000
  0
LINE
  5
6C
100
AcDbEntity
  8
A1
  6
CONTINUOUS
 62
7
100
AcDbLine
 10
152.3342559509057
 20
126.2201112109244
 30
0.000000000000000
 11
152.3342559509057
 21
123.2201112109244
 31
0.000000000000000
  0
LINE
  5
6D
100
AcDbEntity
  8
A1
  6
CONTINUOUS
 62
7
100
AcDbLine
 10
153.8342559509057
 20
103.7201112109244
 30
0.000000000000000
 11
155.3342559509057
 21
103.7201112109244
 31
0.000000000000000
  0
LINE
  5
6E
100
AcDbEntity
  8
A1
  6
CONTINUOUS
 62
7
100
AcDbLine
 10
152.3342559509057
 20
126.2201112109244
 30
0.000000000000000
 11
153.8342559509057
 21
126.2201112109244
 31
0.000000000000000
  0
LINE
  5
6F
100
AcDbEntity
  8
A1
  6
CONTINUOUS
 62
7
100
AcDbLine
 10
149.5842559509058
 20
96.72011121092441
 30
0.000000000000000
 11
151.0842559509058
 21
96.72011121092441
 31
0.000000000000000
  0
LINE
  5
70
100
AcDbEntity
  8
A1
  6
CONTINUOUS
 62
7
100
AcDbLine
 10
130.5842559509058
 20
135.2201112109244
 30
0.000000000000000
 11
129.0842559509058
 21
135.2201112109244
 31
0.000000000000000
  0
LINE
  5
71
100
AcDbEntity
  8
A1
  6
CONTINUOUS
 62
7
100
AcDbLine
 10
129.0842559509058
 20
135.2201112109244
 30
0.000000000000000
 11
129.0842559509058
 21
130.1394873631195
 31
0.000000000000000
  0
LINE
  5
72
100
AcDbEntity
  8
A1
  6
CONTINUOUS
 62
7
100
AcDbLine
 10
130.5842559509058
 20
135.2201112109244
 30
0.000000000000000
 11
130.5842559509058
 21
130.1394873631199
 31
0.000000000000000
  0
LINE
  5
73
100
AcDbEntity
  8
A1
  6
CONTINUOUS
 62
7
100
AcDbLine
 10
124.8342559509057
 20
126.2201112109244
 30
0.000000000000000
 11
124.8342559509057
 21
123.2201112109244
 31
0.000000000000000
  0
LINE
  5
74
100
AcDbEntity
  8
A1
  6
CONTINUOUS
 62
7
100
AcDbLine
 10
127.8342559509056
 20
126.2201112109244
 30
0.000000000000000
 11
127.8342559509056
 21
123.2201112109244
 31
0.000000000000000
  0
ARC
  5
75
100
AcDbEntity
  8
A1
  6
CONTINUOUS
 62
7
100
AcDbCircle
 10
126.8342559509056
 20
126.2201112109244
 30
0.000000000000000
 40
2.000000000000000
100
AcDbArc
 50
107.8742721800560
 51
180.0000000000000
  0
ARC
  5
76
100
AcDbEntity
  8
A1
  6
CONTINUOUS
 62
7
100
AcDbCircle
 10
126.8342559509056
 20
126.2201112109244
 30
0.000000000000000
 40
0.5000000000000000
100
AcDbArc
 50
107.8742721800573
 51
180.0000000000000
  0
LINE
  5
77
100
AcDbEntity
  8
A1
  6
CONTINUOUS
 62
7
100
AcDbLine
 10
126.2203973759547
 20
128.1235758546614
 30
0.000000000000000
 11
128.0446498821188
 21
128.7118888803162
 31
0.000000000000000
  0
LINE
  5
78
100
AcDbEntity
  8
A1
  6
CONTINUOUS
 62
7
100
AcDbLine
 10
126.6807913071679
 20
126.6959773718584
 30
0.000000000000000
 11
128.5050438133322
 21
127.2842903975133
 31
0.000000000000000
  0
LINE
  5
79
100
AcDbEntity
  8
A1
  6
CONTINUOUS
 62
7
100
AcDbLine
 10
126.3342559509056
 20
103.7201112109244
 30
0.000000000000000
 11
124.8342559509057
 21
103.7201112109244
 31
0.000000000000000
  0
LINE
  5
7A
100
AcDbEntity
  8
A1
  6
CONTINUOUS
 62
7
100
AcDbLine
 10
127.8342559509056
 20
126.2201112109244
 30
0.000000000000000
 11
126.3342559509056
 21
126.2201112109244
 31
0.000000000000000
  0
LINE
  5
7B
100
AcDbEntity
  8
A1
  6
CONTINUOUS
 62
7
100
AcDbLine
 10
130.5842559509058
 20
102.5701865855744
 30
0.000000000000000
 11
130.5842559509058
 21
96.72011121092441
 31
0.000000000000000
  0
LINE
  5
7C
100
AcDbEntity
  8
A1
  6
CONTINUOUS
 62
7
100
AcDbLine
 10
129.0842559509058
 20
102.5701865855747
 30
0.000000000000000
 11
129.0842559509058
 21
96.72011121092441
 31
0.000000000000000
  0
ARC
  5
7D
100
AcDbEntity
  8
A1
  6
CONTINUOUS
 62
7
100
AcDbCircle
 10
128.3342559509056
 20
107.2201112109244
 30
0.000000000000000
 40
2.000000000000000
100
AcDbArc
 50
194.4775121859290
 51
213.6144893934672
  0
LINE
  5
7E
100
AcDbEntity
  8
A1
  6
CONTINUOUS
 62
7
100
AcDbLine
 10
128.0782907552755
 20
106.7201112109245
 30
0.000000000000000
 11
130.2118412750919
 21
103.7324972206863
 31
0.000000000000000
  0
LINE
  5
7F
100
AcDbEntity
  8
A1
  6
CONTINUOUS
 62
7
100
AcDbLine
 10
126.6686934144970
 20
106.1129068768874
 30
0.000000000000000
 11
128.9911522819524
 21
102.8607642443528
 31
0.000000000000000
  0
LINE
  5
80
100
AcDbEntity
  8
A1
  6
CONTINUOUS
 62
7
100
AcDbLine
 10
130.5842559509058
 20
96.72011121092441
 30
0.000000000000000
 11
129.0842559509058
 21
96.72011121092441
 31
0.000000000000000
  0
LINE
  5
81
100
AcDbEntity
  8
A1
  6
CONTINUOUS
 62
7
100
AcDbLine
 10
130.0332422985420
 20
107.9201112109245
 30
0.000000000000000
 11
122.6842559509058
 21
107.9201112109245
 31
0.000000000000000
  0
LINE
  5
82
100
AcDbEntity
  8
A1
  6
CONTINUOUS
 62
7
100
AcDbLine
 10
129.9842559509056
 20
122.0201112109245
 30
0.000000000000000
 11
122.6842559509058
 21
122.0201112109245
 31
0.000000000000000
  0
ARC
  5
83
100
AcDbEntity
  8
A1
  6
CONTINUOUS
 62
7
100
AcDbCircle
 10
122.6842559509058
 20
122.6201112109244
 30
0.000000000000000
 40
0.6000000000000000
100
AcDbArc
 50
90.00000000000000
 51
270.0000000000000
  0
ARC
  5
84
100
AcDbEntity
  8
A1
  6
CONTINUOUS
 62
7
100
AcDbCircle
 10
122.6842559509058
 20
107.3201112109244
 30
0.000000000000000
 40
0.6000000000000000
100
AcDbArc
 50
90.00000000000000
 51
270.0000000000000
  0
ARC
  5
85
100
AcDbEntity
  8
A1
  6
CONTINUOUS
 62
7
100
AcDbCircle
 10
129.9842559509056
 20
107.3201112109244
 30
0.000000000000000
 40
0.6000000000000000
100
AcDbArc
 50
270.0000000000000
 51
450.0000000000000
  0
ARC
  5
86
100
AcDbEntity
  8
A1
  6
CONTINUOUS
 62
7
100
AcDbCircle
 10
129.9842559509056
 20
122.6201112109244
 30
0.000000000000000
 40
0.6000000000000000
100
AcDbArc
 50
270.0000000000000
 51
450.0000000000000
  0
ARC
  5
87
100
AcDbEntity
  8
A1
  6
CONTINUOUS
 62
7
100
AcDbCircle
 10
129.9842559509056
 20
121.4201112109245
 30
0.000000000000000
 40
0.6000000000000000
100
AcDbArc
 50
279.1264502506606
 51
459.1264502506609
  0
ARC
  5
88
100
AcDbEntity
  8
A1
  6
CONTINUOUS
 62
7
100
AcDbCircle
 10
122.6842559509058
 20
108.5201112109244
 30
0.000000000000000
 40
0.6000000000000000
100
AcDbArc
 50
99.12645025066155
 51
279.1264502506611
  0
LINE
  5
89
100
AcDbEntity
  8
A1
  6
CONTINUOUS
 62
7
100
AcDbLine
 10
157.5332422985422
 20
107.9201112109245
 30
0.000000000000000
 11
150.1842559509059
 21
107.9201112109245
 31
0.000000000000000
  0
LINE
  5
8A
100
AcDbEntity
  8
A1
  6
CONTINUOUS
 62
7
100
AcDbLine
 10
157.4842559509058
 20
122.0201112109245
 30
0.000000000000000
 11
150.1842559509059
 21
122.0201112109245
 31
0.000000000000000
  0
ARC
  5
8B
100
AcDbEntity
  8
A1
  6
CONTINUOUS
 62
7
100
AcDbCircle
 10
150.1842559509059
 20
122.6201112109244
 30
0.000000000000000
 40
0.6000000000000000
100
AcDbArc
 50
90.00000000000000
 51
270.0000000000000
  0
ARC
  5
8C
100
AcDbEntity
  8
A1
  6
CONTINUOUS
 62
7
100
AcDbCircle
 10
150.1842559509059
 20
107.3201112109244
 30
0.000000000000000
 40
0.6000000000000000
100
AcDbArc
 50
90.00000000000000
 51
270.0000000000000
  0
ARC
  5
8D
100
AcDbEntity
  8
A1
  6
CONTINUOUS
 62
7
100
AcDbCircle
 10
157.4842559509058
 20
107.3201112109244
 30
0.000000000000000
 40
0.6000000000000000
100
AcDbArc
 50
270.0000000000000
 51
450.0000000000000
  0
ARC
  5
8E
100
AcDbEntity
  8
A1
  6
CONTINUOUS
 62
7
100
AcDbCircle
 10
157.4842559509058
 20
122.6201112109244
 30
0.000000000000000
 40
0.6000000000000000
100
AcDbArc
 50
270.0000000000000
 51
450.0000000000000
  0
ARC
  5
8F
100
AcDbEntity
  8
A1
  6
CONTINUOUS
 62
7
100
AcDbCircle
 10
157.4842559509058
 20
110.1401112109244
 30
0.000000000000000
 40
0.6000000000000000
100
AcDbArc
 50
282.5121857834468
 51
462.5121857834468
  0
ARC
  5
90
100
AcDbEntity
  8
A1
  6
CONTINUOUS
 62
7
100
AcDbCircle
 10
157.4842559509058
 20
112.9601112109244
 30
0.000000000000000
 40
0.6000000000000000
100
AcDbArc
 50
282.5121857834474
 51
462.5121857834474
  0
ARC
  5
91
100
AcDbEntity
  8
A1
  6
CONTINUOUS
 62
7
100
AcDbCircle
 10
157.4842559509058
 20
115.7801112109245
 30
0.000000000000000
 40
0.6000000000000000
100
AcDbArc
 50
282.5121857834474
 51
462.5121857834474
  0
ARC
  5
92
100
AcDbEntity
  8
A1
  6
CONTINUOUS
 62
7
100
AcDbCircle
 10
157.4842559509058
 20
118.6001112109244
 30
0.000000000000000
 40
0.6000000000000000
100
AcDbArc
 50
282.5121857834474
 51
462.5121857834474
  0
ARC
  5
93
100
AcDbEntity
  8
A1
  6
CONTINUOUS
 62
7
100
AcDbCircle
 10
157.4842559509058
 20
121.4201112109245
 30
0.000000000000000
 40
0.6000000000000000
100
AcDbArc
 50
282.5121857834474
 51
462.5121857834474
  0
ARC
  5
94
100
AcDbEntity
  8
A1
  6
CONTINUOUS
 62
7
100
AcDbCircle
 10
150.1842559509059
 20
119.8001112109245
 30
0.000000000000000
 40
0.6000000000000000
100
AcDbArc
 50
102.5121857834474
 51
282.5121857834474
  0
ARC
  5
95
100
AcDbEntity
  8
A1
  6
CONTINUOUS
 62
7
100
AcDbCircle
 10
150.1842559509059
 20
116.9801112109245
 30
0.000000000000000
 40
0.6000000000000000
100
AcDbArc
 50
102.5121857834468
 51
282.5121857834468
  0
ARC
  5
96
100
AcDbEntity
  8
A1
  6
CONTINUOUS
 62
7
100
AcDbCircle
 10
150.1842559509059
 20
114.1601112109244
 30
0.000000000000000
 40
0.6000000000000000
100
AcDbArc
 50
102.5121857834468
 51
282.5121857834468
  0
ARC
  5
97
100
AcDbEntity
  8
A1
  6
CONTINUOUS
 62
7
100
AcDbCircle
 10
150.1842559509059
 20
111.3401112109244
 30
0.000000000000000
 40
0.6000000000000000
100
AcDbArc
 50
102.5121857834468
 51
282.5121857834468
  0
ARC
  5
98
100
AcDbEntity
  8
A1
  6
CONTINUOUS
 62
7
100
AcDbCircle
 10
150.1842559509059
 20
108.5201112109244
 30
0.000000000000000
 40
0.6000000000000000
100
AcDbArc
 50
102.5121857834468
 51
282.5121857834468
  0
LINE
  5
99
100
AcDbEntity
  8
A1
  6
CONTINUOUS
 62
7
100
AcDbLine
 10
157.3542676011030
 20
122.0058611822566
 30
0.000000000000000
 11
150.0542676011031
 21
120.3858611822566
 31
0.000000000000000
  0
LINE
  5
9A
100
AcDbEntity
  8
A1
  6
CONTINUOUS
 62
7
100
AcDbLine
 10
150.3142443007083
 20
119.2143612395924
 30
0.000000000000000
 11
157.6142443007084
 21
120.8343612395924
 31
0.000000000000000
  0
LINE
  5
9B
100
AcDbEntity
  8
A1
  6
CONTINUOUS
 62
7
100
AcDbLine
 10
150.0869319907267
 20
119.2080571198354
 30
0.000000000000000
 11
152.3342559509056
 21
118.8386340030937
 31
0.000000000000000
  0
LINE
  5
9C
100
AcDbEntity
  8
A1
  6
CONTINUOUS
 62
7
100
AcDbLine
 10
157.3542676011030
 20
119.1858611822566
 30
0.000000000000000
 11
150.0542676011031
 21
117.5658611822566
 31
0.000000000000000
  0
LINE
  5
9D
100
AcDbEntity
  8
A1
  6
CONTINUOUS
 62
7
100
AcDbLine
 10
150.3142443007083
 20
116.3943612395923
 30
0.000000000000000
 11
157.6142443007083
 21
118.0143612395923
 31
0.000000000000000
  0
LINE
  5
9E
100
AcDbEntity
  8
A1
  6
CONTINUOUS
 62
7
100
AcDbLine
 10
150.0869319907268
 20
116.3880571198354
 30
0.000000000000000
 11
152.3342559509057
 21
116.0186340030937
 31
0.000000000000000
  0
LINE
  5
9F
100
AcDbEntity
  8
A1
  6
CONTINUOUS
 62
7
100
AcDbLine
 10
157.3542676011030
 20
116.3658611822566
 30
0.000000000000000
 11
150.0542676011031
 21
114.7458611822566
 31
0.000000000000000
  0
LINE
  5
A0
100
AcDbEntity
  8
A1
  6
CONTINUOUS
 62
7
100
AcDbLine
 10
150.3142443007082
 20
113.5743612395923
 30
0.000000000000000
 11
157.6142443007082
 21
115.1943612395923
 31
0.000000000000000
  0
LINE
  5
A1
100
AcDbEntity
  8
A1
  6
CONTINUOUS
 62
7
100
AcDbLine
 10
150.0869319907268
 20
113.5680571198354
 30
0.000000000000000
 11
152.3342559509057
 21
113.1986340030937
 31
0.000000000000000
  0
LINE
  5
A2
100
AcDbEntity
  8
A1
  6
CONTINUOUS
 62
7
100
AcDbLine
 10
157.3542676011030
 20
113.5458611822566
 30
0.000000000000000
 11
150.0542676011032
 21
111.9258611822566
 31
0.000000000000000
  0
LINE
  5
A3
100
AcDbEntity
  8
A1
  6
CONTINUOUS
 62
7
100
AcDbLine
 10
150.3142443007082
 20
110.7543612395924
 30
0.000000000000000
 11
157.6142443007082
 21
112.3743612395924
 31
0.000000000000000
  0
LINE
  5
A4
100
AcDbEntity
  8
A1
  6
CONTINUOUS
 62
7
100
AcDbLine
 10
150.0869319907267
 20
110.7480571198357
 30
0.000000000000000
 11
152.3342559509056
 21
110.3786340030939
 31
0.000000000000000
  0
LINE
  5
A5
100
AcDbEntity
  8
A1
  6
CONTINUOUS
 62
7
100
AcDbLine
 10
157.3542676011030
 20
110.7258611822566
 30
0.000000000000000
 11
150.0542676011032
 21
109.1058611822566
 31
0.000000000000000
  0
LINE
  5
A6
100
AcDbEntity
  8
A1
  6
CONTINUOUS
 62
7
100
AcDbLine
 10
150.3142443007083
 20
107.9343612395923
 30
0.000000000000000
 11
157.6142443007083
 21
109.5543612395923
 31
0.000000000000000
  0
LINE
  5
A7
100
AcDbEntity
  8
A1
  6
CONTINUOUS
 62
7
100
AcDbLine
 10
127.8342559509056
 20
122.0201112109245
 30
0.000000000000000
 11
127.8342559509056
 21
121.6824119064360
 31
0.000000000000000
  0
LINE
  5
A8
100
AcDbEntity
  8
A1
  6
CONTINUOUS
 62
7
100
AcDbLine
 10
124.8342559509057
 20
122.0201112109245
 30
0.000000000000000
 11
124.8342559509057
 21
121.2004691916165
 31
0.000000000000000
  0
LINE
  5
A9
100
AcDbEntity
  8
A1
  6
CONTINUOUS
 62
7
100
AcDbLine
 10
127.8342559509056
 20
120.4670259575050
 30
0.000000000000000
 11
127.8342559509056
 21
119.3369573609815
 31
0.000000000000000
  0
LINE
  5
AA
100
AcDbEntity
  8
A1
  6
CONTINUOUS
 62
7
100
AcDbLine
 10
124.8342559509057
 20
119.9850832426856
 30
0.000000000000000
 11
124.8342559509057
 21
118.8550146461620
 31
0.000000000000000
  0
LINE
  5
AB
100
AcDbEntity
  8
A1
  6
CONTINUOUS
 62
7
100
AcDbLine
 10
127.8342559509056
 20
118.1215714120505
 30
0.000000000000000
 11
127.8342559509056
 21
116.9915028155268
 31
0.000000000000000
  0
LINE
  5
AC
100
AcDbEntity
  8
A1
  6
CONTINUOUS
 62
7
100
AcDbLine
 10
127.8342559509056
 20
113.4306623211414
 30
0.000000000000000
 11
127.8342559509056
 21
112.3005937246179
 31
0.000000000000000
  0
LINE
  5
AD
100
AcDbEntity
  8
A1
  6
CONTINUOUS
 62
7
100
AcDbLine
 10
124.8342559509057
 20
112.9487196063220
 30
0.000000000000000
 11
124.8342559509057
 21
111.8186510097984
 31
0.000000000000000
  0
LINE
  5
AE
100
AcDbEntity
  8
A1
  6
CONTINUOUS
 62
7
100
AcDbLine
 10
124.8342559509057
 20
115.2941741517765
 30
0.000000000000000
 11
124.8342559509057
 21
114.1641055552528
 31
0.000000000000000
  0
LINE
  5
AF
100
AcDbEntity
  8
A1
  6
CONTINUOUS
 62
7
100
AcDbLine
 10
127.8342559509056
 20
115.7761168665960
 30
0.000000000000000
 11
127.8342559509056
 21
114.6460482700724
 31
0.000000000000000
  0
LINE
  5
B0
100
AcDbEntity
  8
A1
  6
CONTINUOUS
 62
7
100
AcDbLine
 10
124.8342559509057
 20
108.2578105154129
 30
0.000000000000000
 11
124.8342559509057
 21
107.9201112109245
 31
0.000000000000000
  0
LINE
  5
B1
100
AcDbEntity
  8
A1
  6
CONTINUOUS
 62
7
100
AcDbLine
 10
127.8342559509056
 20
108.7397532302323
 30
0.000000000000000
 11
127.8342559509056
 21
107.9201112109245
 31
0.000000000000000
  0
LINE
  5
B2
100
AcDbEntity
  8
A1
  6
CONTINUOUS
 62
7
100
AcDbLine
 10
127.8342559509057
 20
108.2815884187551
 30
0.000000000000000
 11
130.0815799110846
 21
107.9121653020135
 31
0.000000000000000
  0
LINE
  5
B3
100
AcDbEntity
  8
A1
  6
CONTINUOUS
 62
7
100
AcDbLine
 10
124.8342559509057
 20
106.7201112109244
 30
0.000000000000000
 11
124.8342559509057
 21
103.7201112109244
 31
0.000000000000000
  0
LINE
  5
B4
100
AcDbEntity
  8
A1
  6
CONTINUOUS
 62
7
100
AcDbLine
 10
152.3342559509057
 20
122.0201112109245
 30
0.000000000000000
 11
152.3342559509057
 21
120.8918311996100
 31
0.000000000000000
  0
LINE
  5
B5
100
AcDbEntity
  8
A1
  6
CONTINUOUS
 62
7
100
AcDbLine
 10
155.3342559509057
 20
122.0201112109245
 30
0.000000000000000
 11
155.3342559509057
 21
121.5575846242675
 31
0.000000000000000
  0
LINE
  5
B6
100
AcDbEntity
  8
A1
  6
CONTINUOUS
 62
7
100
AcDbLine
 10
152.3342559509057
 20
119.6626377975814
 30
0.000000000000000
 11
152.3342559509057
 21
118.0718311996101
 31
0.000000000000000
  0
LINE
  5
B7
100
AcDbEntity
  8
A1
  6
CONTINUOUS
 62
7
100
AcDbLine
 10
155.3342559509057
 20
120.3283912222388
 30
0.000000000000000
 11
155.3342559509057
 21
118.7375846242675
 31
0.000000000000000
  0
LINE
  5
B8
100
AcDbEntity
  8
A1
  6
CONTINUOUS
 62
7
100
AcDbLine
 10
152.3342559509057
 20
116.8426377975813
 30
0.000000000000000
 11
152.3342559509057
 21
115.2518311996100
 31
0.000000000000000
  0
LINE
  5
B9
100
AcDbEntity
  8
A1
  6
CONTINUOUS
 62
7
100
AcDbLine
 10
155.3342559509057
 20
117.5083912222389
 30
0.000000000000000
 11
155.3342559509057
 21
115.9175846242675
 31
0.000000000000000
  0
LINE
  5
BA
100
AcDbEntity
  8
A1
  6
CONTINUOUS
 62
7
100
AcDbLine
 10
155.3342559509057
 20
114.6883912222389
 30
0.000000000000000
 11
155.3342559509057
 21
113.0975846242676
 31
0.000000000000000
  0
LINE
  5
BB
100
AcDbEntity
  8
A1
  6
CONTINUOUS
 62
7
100
AcDbLine
 10
152.3342559509057
 20
114.0226377975813
 30
0.000000000000000
 11
152.3342559509057
 21
112.4318311996100
 31
0.000000000000000
  0
LINE
  5
BC
100
AcDbEntity
  8
A1
  6
CONTINUOUS
 62
7
100
AcDbLine
 10
152.3342559509057
 20
111.2026377975814
 30
0.000000000000000
 11
152.3342559509057
 21
109.6118311996100
 31
0.000000000000000
  0
LINE
  5
BD
100
AcDbEntity
  8
A1
  6
CONTINUOUS
 62
7
100
AcDbLine
 10
155.3342559509057
 20
111.8683912222388
 30
0.000000000000000
 11
155.3342559509057
 21
110.2775846242677
 31
0.000000000000000
  0
LINE
  5
BE
100
AcDbEntity
  8
A1
  6
CONTINUOUS
 62
7
100
AcDbLine
 10
152.3342559509057
 20
108.3826377975813
 30
0.000000000000000
 11
152.3342559509057
 21
107.9201112109245
 31
0.000000000000000
  0
LINE
  5
BF
100
AcDbEntity
  8
A1
  6
CONTINUOUS
 62
7
100
AcDbLine
 10
155.3342559509057
 20
109.0483912222389
 30
0.000000000000000
 11
155.3342559509057
 21
107.9201112109245
 31
0.000000000000000
  0
LINE
  5
C0
100
AcDbEntity
  8
A1
  6
CONTINUOUS
 62
7
100
AcDbLine
 10
153.8342559509057
 20
106.7201112109244
 30
0.000000000000000
 11
153.8342559509057
 21
103.7201112109244
 31
0.000000000000000
  0
LINE
  5
C1
100
AcDbEntity
  8
A1
  6
CONTINUOUS
 62
7
100
AcDbLine
 10
155.3342559509057
 20
106.7201112109244
 30
0.000000000000000
 11
155.3342559509057
 21
103.7201112109244
 31
0.000000000000000
  0
LINE
  5
C2
100
AcDbEntity
  8
A1
  6
CONTINUOUS
 62
7
100
AcDbLine
 10
155.3342559509058
 20
108.2815884187551
 30
0.000000000000000
 11
157.5815799110848
 21
107.9121653020134
 31
0.000000000000000
  0
LINE
  5
C3
100
AcDbEntity
  8
A1
  6
CONTINUOUS
 62
7
100
AcDbLine
 10
155.3342559509057
 20
111.1015884187551
 30
0.000000000000000
 11
157.5815799110848
 21
110.7321653020134
 31
0.000000000000000
  0
LINE
  5
C4
100
AcDbEntity
  8
A1
  6
CONTINUOUS
 62
7
100
AcDbLine
 10
155.3342559509057
 20
113.9215884187551
 30
0.000000000000000
 11
157.5815799110847
 21
113.5521653020134
 31
0.000000000000000
  0
LINE
  5
C5
100
AcDbEntity
  8
A1
  6
CONTINUOUS
 62
7
100
AcDbLine
 10
155.3342559509058
 20
116.7415884187551
 30
0.000000000000000
 11
157.5815799110847
 21
116.3721653020134
 31
0.000000000000000
  0
LINE
  5
C6
100
AcDbEntity
  8
A1
  6
CONTINUOUS
 62
7
100
AcDbLine
 10
155.3342559509057
 20
119.5615884187551
 30
0.000000000000000
 11
157.5815799110846
 21
119.1921653020134
 31
0.000000000000000
  0
LINE
  5
C7
100
AcDbEntity
  8
A1
  6
CONTINUOUS
 62
7
100
AcDbLine
 10
151.6842559509060
 20
133.9701112109244
 30
0.000000000000000
 11
151.0842559509059
 21
133.6486826394959
 31
0.000000000000000
  0
LINE
  5
C8
100
AcDbEntity
  8
A1
  6
CONTINUOUS
 62
7
100
AcDbLine
 10
151.0842559509058
 20
130.7915397823527
 30
0.000000000000000
 11
151.6842559509059
 21
130.4701112109242
 31
0.000000000000000
  0
LINE
  5
C9
100
AcDbEntity
  8
A4
  6
CENTER
 62
1
100
AcDbLine
 10
126.9842559509058
 20
132.2241011443135
 30
0.000000000000000
 11
153.1842559509059
 21
132.2241011443135
 31
0.000000000000000
  0
LINE
  5
CA
100
AcDbEntity
  8
A1
  6
CONTINUOUS
 62
7
100
AcDbLine
 10
122.6842559509058
 20
123.2201112109244
 30
0.000000000000000
 11
129.9842559509056
 21
123.2201112109244
 31
0.000000000000000
  0
LINE
  5
CB
100
AcDbEntity
  8
A1
  6
CONTINUOUS
 62
7
100
AcDbLine
 10
126.3342559509056
 20
123.2201112109244
 30
0.000000000000000
 11
126.3342559509056
 21
126.2201112109244
 31
0.000000000000000
  0
LINE
  5
CC
100
AcDbEntity
  8
A1
  6
CONTINUOUS
 62
7
100
AcDbLine
 10
126.3342559509056
 20
121.4414405490262
 30
0.000000000000000
 11
126.3342559509056
 21
122.0201112109245
 31
0.000000000000000
  0
LINE
  5
CD
100
AcDbEntity
  8
A1
  6
CONTINUOUS
 62
7
100
AcDbLine
 10
126.3342559509056
 20
119.0959860035717
 30
0.000000000000000
 11
126.3342559509056
 21
120.2260546000954
 31
0.000000000000000
  0
LINE
  5
CE
100
AcDbEntity
  8
A1
  6
CONTINUOUS
 62
7
100
AcDbLine
 10
126.3342559509056
 20
112.0596223672081
 30
0.000000000000000
 11
126.3342559509056
 21
113.1896909637317
 31
0.000000000000000
  0
LINE
  5
CF
100
AcDbEntity
  8
A1
  6
CONTINUOUS
 62
7
100
AcDbLine
 10
126.3342559509056
 20
107.9201112109245
 30
0.000000000000000
 11
126.3342559509056
 21
108.4987818728226
 31
0.000000000000000
  0
LINE
  5
D0
100
AcDbEntity
  8
A1
  6
CONTINUOUS
 62
7
100
AcDbLine
 10
126.3342559509056
 20
103.7201112109244
 30
0.000000000000000
 11
126.3342559509056
 21
106.7201112109244
 31
0.000000000000000
  0
LINE
  5
D1
100
AcDbEntity
  8
A1
  6
CONTINUOUS
 62
7
100
AcDbLine
 10
150.1842559509059
 20
123.2201112109244
 30
0.000000000000000
 11
157.4842559509058
 21
123.2201112109244
 31
0.000000000000000
  0
LINE
  5
D2
100
AcDbEntity
  8
A1
  6
CONTINUOUS
 62
7
100
AcDbLine
 10
153.8342559509057
 20
121.2247079119387
 30
0.000000000000000
 11
153.8342559509057
 21
122.0201112109245
 31
0.000000000000000
  0
LINE
  5
D3
100
AcDbEntity
  8
A1
  6
CONTINUOUS
 62
7
100
AcDbLine
 10
153.8342559509057
 20
107.9201112109245
 30
0.000000000000000
 11
153.8342559509057
 21
108.7155145099101
 31
0.000000000000000
  0
LINE
  5
D4
100
AcDbEntity
  8
A1
  6
CONTINUOUS
 62
7
100
AcDbLine
 10
153.8342559509057
 20
123.2201112109244
 30
0.000000000000000
 11
153.8342559509057
 21
126.2201112109244
 31
0.000000000000000
  0
LINE
  5
D5
100
AcDbEntity
  8
A1
  6
CONTINUOUS
 62
7
100
AcDbLine
 10
150.1842559509059
 20
106.7201112109244
 30
0.000000000000000
 11
157.4842559509058
 21
106.7201112109244
 31
0.000000000000000
  0
LINE
  5
D6
100
AcDbEntity
  8
A1
  6
CONTINUOUS
 62
7
100
AcDbLine
 10
122.6842559509058
 20
106.7201112109244
 30
0.000000000000000
 11
129.9842559509056
 21
106.7201112109244
 31
0.000000000000000
  0
LINE
  5
D7
100
AcDbEntity
  8
A4
  6
CENTER
 62
1
100
AcDbLine
 10
143.1842559509058
 20
97.95827300806314
 30
0.000000000000000
 11
136.9842559509058
 21
97.95827300806314
 31
0.000000000000000
  0
LINE
  5
D8
100
AcDbEntity
  8
A4
  6
CENTER
 62
1
100
AcDbLine
 10
143.1842559509058
 20
83.95827300806314
 30
0.000000000000000
 11
136.9842559509058
 21
83.95827300806314
 31
0.000000000000000
  0
LINE
  5
D9
100
AcDbEntity
  8
A4
  6
CENTER
 62
1
100
AcDbLine
 10
140.0842559509058
 20
73.45827300806320
 30
0.000000000000000
 11
140.0842559509058
 21
134.4582730080632
 31
0.000000000000000
  0
LINE
  5
DA
100
AcDbEntity
  8
A1
  6
CONTINUOUS
 62
7
100
AcDbLine
 10
126.3342559509056
 20
114.4050769126626
 30
0.000000000000000
 11
126.3342559509056
 21
115.5351455091862
 31
0.000000000000000
  0
LINE
  5
DB
100
AcDbEntity
  8
A1
  6
CONTINUOUS
 62
7
100
AcDbLine
 10
126.3342559509056
 20
116.7505314581172
 30
0.000000000000000
 11
126.3342559509056
 21
117.8806000546408
 31
0.000000000000000
  0
LINE
  5
DC
100
AcDbEntity
  8
A1
  6
CONTINUOUS
 62
7
100
AcDbLine
 10
124.8342559509058
 20
121.6586340030939
 30
0.000000000000000
 11
122.5869319907270
 21
122.0280571198357
 31
0.000000000000000
  0
LINE
  5
DD
100
AcDbEntity
  8
A1
  6
CONTINUOUS
 62
7
100
AcDbLine
 10
152.3342559509057
 20
121.6586340030939
 30
0.000000000000000
 11
150.0869319907268
 21
122.0280571198356
 31
0.000000000000000
  0
LINE
  5
DE
100
AcDbEntity
  8
A1
  6
CONTINUOUS
 62
7
100
AcDbLine
 10
153.8342559509057
 20
118.4047079119388
 30
0.000000000000000
 11
153.8342559509057
 21
119.9955145099101
 31
0.000000000000000
  0
LINE
  5
DF
100
AcDbEntity
  8
A1
  6
CONTINUOUS
 62
7
100
AcDbLine
 10
153.8342559509057
 20
115.5847079119388
 30
0.000000000000000
 11
153.8342559509057
 21
117.1755145099102
 31
0.000000000000000
  0
LINE
  5
E0
100
AcDbEntity
  8
A1
  6
CONTINUOUS
 62
7
100
AcDbLine
 10
153.8342559509057
 20
109.9447079119388
 30
0.000000000000000
 11
153.8342559509057
 21
111.5355145099102
 31
0.000000000000000
  0
LINE
  5
E1
100
AcDbEntity
  8
A1
  6
CONTINUOUS
 62
7
100
AcDbLine
 10
153.8342559509057
 20
112.7647079119388
 30
0.000000000000000
 11
153.8342559509057
 21
114.3555145099101
 31
0.000000000000000
  0
LINE
  5
E2
100
AcDbEntity
  8
A1
  6
CONTINUOUS
 62
7
100
AcDbLine
 10
132.0842559509058
 20
90.95827300806320
 30
0.000000000000000
 11
132.0842559509058
 21
116.9582730080632
 31
0.000000000000000
  0
LINE
  5
E3
100
AcDbEntity
  8
A1
  6
CONTINUOUS
 62
7
100
AcDbLine
 10
148.0842559509057
 20
90.95827300806320
 30
0.000000000000000
 11
148.0842559509057
 21
116.9582730080632
 31
0.000000000000000
  0
ARC
  5
E4
100
AcDbEntity
  8
A1
  6
CONTINUOUS
 62
7
100
AcDbCircle
 10
129.9842559509056
 20
112.0382930291063
 30
0.000000000000000
 40
0.6000000000000000
100
AcDbArc
 50
279.1264502506617
 51
459.1264502506610
  0
ARC
  5
E5
100
AcDbEntity
  8
A1
  6
CONTINUOUS
 62
7
100
AcDbCircle
 10
122.6842559509058
 20
110.8655657563789
 30
0.000000000000000
 40
0.6000000000000000
100
AcDbArc
 50
99.12645025066109
 51
279.1264502506617
  0
LINE
  5
E6
100
AcDbEntity
  8
A1
  6
CONTINUOUS
 62
7
100
AcDbLine
 10
122.5890876205016
 20
111.4579701696711
 30
0.000000000000000
 11
129.8890876205013
 21
112.6306974423984
 31
0.000000000000000
  0
LINE
  5
E7
100
AcDbEntity
  8
A1
  6
CONTINUOUS
 62
7
100
AcDbLine
 10
122.7794242813103
 20
110.2731613430869
 30
0.000000000000000
 11
130.0794242813100
 21
111.4458886158142
 31
0.000000000000000
  0
LINE
  5
E8
100
AcDbEntity
  8
A1
  6
CONTINUOUS
 62
7
100
AcDbLine
 10
122.7794242813102
 20
112.6186158885414
 30
0.000000000000000
 11
130.0794242813101
 21
113.7913431612687
 31
0.000000000000000
  0
ARC
  5
E9
100
AcDbEntity
  8
A1
  6
CONTINUOUS
 62
7
100
AcDbCircle
 10
122.6842559509058
 20
113.2110203018335
 30
0.000000000000000
 40
0.6000000000000000
100
AcDbArc
 50
99.12645025066109
 51
279.1264502506617
  0
LINE
  5
EA
100
AcDbEntity
  8
A1
  6
CONTINUOUS
 62
7
100
AcDbLine
 10
122.5890876205015
 20
113.8034247151257
 30
0.000000000000000
 11
129.8890876205014
 21
114.9761519878530
 31
0.000000000000000
  0
ARC
  5
EB
100
AcDbEntity
  8
A1
  6
CONTINUOUS
 62
7
100
AcDbCircle
 10
129.9842559509056
 20
114.3837475745607
 30
0.000000000000000
 40
0.6000000000000000
100
AcDbArc
 50
279.1264502506617
 51
459.1264502506610
  0
LINE
  5
EC
100
AcDbEntity
  8
A1
  6
CONTINUOUS
 62
7
100
AcDbLine
 10
122.7794242813102
 20
114.9640704339959
 30
0.000000000000000
 11
130.0794242813101
 21
116.1367977067232
 31
0.000000000000000
  0
ARC
  5
ED
100
AcDbEntity
  8
A1
  6
CONTINUOUS
 62
7
100
AcDbCircle
 10
122.6842559509058
 20
115.5564748472881
 30
0.000000000000000
 40
0.6000000000000000
100
AcDbArc
 50
99.12645025066109
 51
279.1264502506617
  0
LINE
  5
EE
100
AcDbEntity
  8
A1
  6
CONTINUOUS
 62
7
100
AcDbLine
 10
122.5890876205015
 20
116.1488792605802
 30
0.000000000000000
 11
129.8890876205014
 21
117.3216065333075
 31
0.000000000000000
  0
ARC
  5
EF
100
AcDbEntity
  8
A1
  6
CONTINUOUS
 62
7
100
AcDbCircle
 10
129.9842559509056
 20
116.7292021200154
 30
0.000000000000000
 40
0.6000000000000000
100
AcDbArc
 50
279.1264502506617
 51
459.1264502506610
  0
LINE
  5
F0
100
AcDbEntity
  8
A1
  6
CONTINUOUS
 62
7
100
AcDbLine
 10
122.7794242813103
 20
117.3095249794505
 30
0.000000000000000
 11
130.0794242813100
 21
118.4822522521778
 31
0.000000000000000
  0
ARC
  5
F1
100
AcDbEntity
  8
A1
  6
CONTINUOUS
 62
7
100
AcDbCircle
 10
122.6842559509058
 20
117.9019293927425
 30
0.000000000000000
 40
0.6000000000000000
100
AcDbArc
 50
99.12645025066109
 51
279.1264502506617
  0
LINE
  5
F2
100
AcDbEntity
  8
A1
  6
CONTINUOUS
 62
7
100
AcDbLine
 10
122.5890876205016
 20
118.4943338060348
 30
0.000000000000000
 11
129.8890876205013
 21
119.6670610787621
 31
0.000000000000000
  0
ARC
  5
F3
100
AcDbEntity
  8
A1
  6
CONTINUOUS
 62
7
100
AcDbCircle
 10
129.9842559509056
 20
119.0746566654699
 30
0.000000000000000
 40
0.6000000000000000
100
AcDbArc
 50
279.1264502506617
 51
459.1264502506610
  0
ARC
  5
F4
100
AcDbEntity
  8
A1
  6
CONTINUOUS
 62
7
100
AcDbCircle
 10
129.9842559509056
 20
109.6928384836517
 30
0.000000000000000
 40
0.6000000000000000
100
AcDbArc
 50
279.1264502506611
 51
459.1264502506618
  0
ARC
  5
F5
100
AcDbEntity
  8
A1
  6
CONTINUOUS
 62
7
100
AcDbCircle
 10
122.6842559509058
 20
120.2473839381972
 30
0.000000000000000
 40
0.6000000000000000
100
AcDbArc
 50
99.12645025066109
 51
279.1264502506605
  0
LINE
  5
F6
100
AcDbEntity
  8
A1
  6
CONTINUOUS
 62
7
100
AcDbLine
 10
122.5890876205015
 20
120.8397883514893
 30
0.000000000000000
 11
129.8890876205013
 21
122.0125156242165
 31
0.000000000000000
  0
LINE
  5
F7
100
AcDbEntity
  8
A1
  6
CONTINUOUS
 62
7
100
AcDbLine
 10
122.7794242813102
 20
119.6549795249050
 30
0.000000000000000
 11
130.0794242813099
 21
120.8277067976322
 31
0.000000000000000
  0
LINE
  5
F8
100
AcDbEntity
  8
A1
  6
CONTINUOUS
 62
7
100
AcDbLine
 10
122.5890876205013
 20
109.1125156242166
 30
0.000000000000000
 11
129.8890876205012
 21
110.2852428969439
 31
0.000000000000000
  0
LINE
  5
F9
100
AcDbEntity
  8
A1
  6
CONTINUOUS
 62
7
100
AcDbLine
 10
130.0794242813099
 20
109.1004340703595
 30
0.000000000000000
 11
122.7794242813100
 21
107.9277067976322
 31
0.000000000000000
  0
LINE
  5
FA
100
AcDbEntity
  8
A1
  6
CONTINUOUS
 62
7
100
AcDbLine
 10
124.8342559509057
 20
117.6396286972312
 30
0.000000000000000
 11
124.8342559509057
 21
116.5095601007074
 31
0.000000000000000
  0
LINE
  5
FB
100
AcDbEntity
  8
A1
  6
CONTINUOUS
 62
7
100
AcDbLine
 10
124.8342559509056
 20
110.6032650608674
 30
0.000000000000000
 11
124.8342559509056
 21
109.4731964643426
 31
0.000000000000000
  0
LINE
  5
FC
100
AcDbEntity
  8
A1
  6
CONTINUOUS
 62
7
100
AcDbLine
 10
126.3342559509056
 20
110.8442364182770
 30
0.000000000000000
 11
126.3342559509056
 21
109.7141678217515
 31
0.000000000000000
  0
LINE
  5
FD
100
AcDbEntity
  8
A1
  6
CONTINUOUS
 62
7
100
AcDbLine
 10
127.8342559509055
 20
111.0852077756869
 30
0.000000000000000
 11
127.8342559509055
 21
109.9551391791676
 31
0.000000000000000
  0
LINE
  5
FE
100
AcDbEntity
  8
A1
  6
CONTINUOUS
 62
7
100
AcDbLine
 10
127.8342559509057
 20
120.0277419188892
 30
0.000000000000000
 11
130.0794242813101
 21
119.6670610787620
 31
0.000000000000000
  0
LINE
  5
FF
100
AcDbEntity
  8
A1
  6
CONTINUOUS
 62
7
100
AcDbLine
 10
122.5890876205015
 20
119.6549795249051
 30
0.000000000000000
 11
124.8342559509057
 21
119.2942986847779
 31
0.000000000000000
  0
LINE
  5
100
100
AcDbEntity
  8
A1
  6
CONTINUOUS
 62
7
100
AcDbLine
 10
127.8342559509058
 20
117.6822873734347
 30
0.000000000000000
 11
130.0794242813101
 21
117.3216065333075
 31
0.000000000000000
  0
LINE
  5
101
100
AcDbEntity
  8
A1
  6
CONTINUOUS
 62
7
100
AcDbLine
 10
122.5890876205015
 20
117.3095249794506
 30
0.000000000000000
 11
124.8342559509057
 21
116.9488441393234
 31
0.000000000000000
  0
LINE
  5
102
100
AcDbEntity
  8
A1
  6
CONTINUOUS
 62
7
100
AcDbLine
 10
127.8342559509057
 20
115.3368328279801
 30
0.000000000000000
 11
130.0794242813101
 21
114.9761519878529
 31
0.000000000000000
  0
LINE
  5
103
100
AcDbEntity
  8
A1
  6
CONTINUOUS
 62
7
100
AcDbLine
 10
122.5890876205015
 20
114.9640704339959
 30
0.000000000000000
 11
124.8342559509056
 21
114.6033895938687
 31
0.000000000000000
  0
LINE
  5
104
100
AcDbEntity
  8
A1
  6
CONTINUOUS
 62
7
100
AcDbLine
 10
127.8342559509058
 20
112.9913782825256
 30
0.000000000000000
 11
130.0794242813101
 21
112.6306974423984
 31
0.000000000000000
  0
LINE
  5
105
100
AcDbEntity
  8
A1
  6
CONTINUOUS
 62
7
100
AcDbLine
 10
122.5890876205015
 20
112.6186158885414
 30
0.000000000000000
 11
124.8342559509057
 21
112.2579350484142
 31
0.000000000000000
  0
LINE
  5
106
100
AcDbEntity
  8
A1
  6
CONTINUOUS
 62
7
100
AcDbLine
 10
127.8342559509057
 20
110.6459237370711
 30
0.000000000000000
 11
130.0794242813101
 21
110.2852428969438
 31
0.000000000000000
  0
LINE
  5
107
100
AcDbEntity
  8
A1
  6
CONTINUOUS
 62
7
100
AcDbLine
 10
122.5890876205015
 20
110.2731613430868
 30
0.000000000000000
 11
124.8342559509057
 21
109.9124805029596
 31
0.000000000000000
  0
LINE
  5
108
100
AcDbEntity
  8
A3
  6
DASHED
 62
2
100
AcDbLine
 10
143.3342559509059
 20
77.95827300806317
 30
0.000000000000000
 11
136.8342559509059
 21
77.95827300806316
 31
0.000000000000000
  0
ARC
  5
109
100
AcDbEntity
  8
A3
  6
DASHED
 62
2
100
AcDbCircle
 10
143.3342559509057
 20
80.95827300806309
 30
0.000000000000000
 40
3.000000000000000
100
AcDbArc
 50
270.0000000000001
 51
360.0000000000001
  0
LINE
  5
10A
100
AcDbEntity
  8
A3
  6
DASHED
 62
2
100
AcDbLine
 10
146.3342559509057
 20
89.95827300806320
 30
0.000000000000000
 11
146.3342559509057
 21
81.85827300806318
 31
0.000000000000000
  0
ARC
  5
10B
100
AcDbEntity
  8
A3
  6
DASHED
 62
2
100
AcDbCircle
 10
136.8342559509057
 20
80.95827300806309
 30
0.000000000000000
 40
3.000000000000000
100
AcDbArc
 50
180.0000000000001
 51
270.0000000000001
  0
LINE
  5
10C
100
AcDbEntity
  8
A3
  6
DASHED
 62
2
100
AcDbLine
 10
133.8342559509057
 20
89.95827300806320
 30
0.000000000000000
 11
133.8342559509057
 21
81.85827300806318
 31
0.000000000000000
  0
ARC
  5
10D
100
AcDbEntity
  8
A1
  6
CONTINUOUS
 62
7
100
AcDbCircle
 10
146.8342559509057
 20
89.95827300806320
 30
0.000000000000000
 40
0.5000000000000002
100
AcDbArc
 50
90.00000000000000
 51
120.0000000000005
  0
ARC
  5
10E
100
AcDbEntity
  8
A3
  6
DASHED
 62
2
100
AcDbCircle
 10
146.8342559509057
 20
89.95827300806320
 30
0.000000000000000
 40
0.5000000000000002
100
AcDbArc
 50
120.0000000000005
 51
180.0000000000000
  0
ARC
  5
10F
100
AcDbEntity
  8
A3
  6
DASHED
 62
2
100
AcDbCircle
 10
133.3342559509058
 20
89.95827300806320
 30
0.000000000000000
 40
0.5000000000000002
100
AcDbArc
 50
0.000000000000000
 51
60.00000000001479
  0
ARC
  5
110
100
AcDbEntity
  8
A1
  6
CONTINUOUS
 62
7
100
AcDbCircle
 10
133.3342559509058
 20
89.95827300806320
 30
0.000000000000000
 40
0.5000000000000002
100
AcDbArc
 50
60.00000000001479
 51
90.00000000000000
  0
CIRCLE
  5
111
100
AcDbEntity
  8
A3
  6
DASHED
 62
2
100
AcDbCircle
 10
140.0842559509058
 20
97.95827300806314
 30
0.000000000000000
 40
1.700000000000000
  0
CIRCLE
  5
112
100
AcDbEntity
  8
A3
  6
DASHED
 62
2
100
AcDbCircle
 10
140.0842559509058
 20
83.95827300806314
 30
0.000000000000000
 40
1.700000000000000
  0
ARC
  5
113
100
AcDbEntity
  8
A1
  6
CONTINUOUS
 62
7
100
AcDbCircle
 10
127.5842559509058
 20
130.1394873631199
 30
0.000000000000000
 40
3.000000000000000
100
AcDbArc
 50
287.8742721800696
 51
360.0000000000000
  0
ARC
  5
114
100
AcDbEntity
  8
A1
  6
CONTINUOUS
 62
7
100
AcDbCircle
 10
127.5842559509058
 20
130.1394873631195
 30
0.000000000000000
 40
1.500000000000000
100
AcDbArc
 50
287.8742721800675
 51
360.0000000000000
  0
ARC
  5
115
100
AcDbEntity
  8
A1
  6
CONTINUOUS
 62
7
100
AcDbCircle
 10
128.5842559509058
 20
102.5701865855744
 30
0.000000000000000
 40
2.000000000000000
100
AcDbArc
 50
0.000000000000000
 51
35.53184261148708
  0
ARC
  5
116
100
AcDbEntity
  8
A1
  6
CONTINUOUS
 62
7
100
AcDbCircle
 10
128.5842559509059
 20
102.5701865855747
 30
0.000000000000000
 40
0.5000000000000000
100
AcDbArc
 50
0.000000000000000
 51
35.53184261149210
  0
LINE
  5
117
100
AcDbEntity
  8
A1
  6
CONTINUOUS
 62
7
100
AcDbLine
 10
149.5842559509057
 20
102.5701865855744
 30
0.000000000000000
 11
149.5842559509057
 21
96.72011121092441
 31
0.000000000000000
  0
LINE
  5
118
100
AcDbEntity
  8
A1
  6
CONTINUOUS
 62
7
100
AcDbLine
 10
151.0842559509057
 20
102.5701865855747
 30
0.000000000000000
 11
151.0842559509057
 21
96.72011121092441
 31
0.000000000000000
  0
LINE
  5
119
100
AcDbEntity
  8
A1
  6
CONTINUOUS
 62
7
100
AcDbLine
 10
153.4998184873146
 20
106.1129068768873
 30
0.000000000000000
 11
151.1773596198592
 21
102.8607642443528
 31
0.000000000000000
  0
ARC
  5
11A
100
AcDbEntity
  8
A1
  6
CONTINUOUS
 62
7
100
AcDbCircle
 10
151.5842559509057
 20
102.5701865855744
 30
0.000000000000000
 40
2.000000000000000
100
AcDbArc
 50
144.4681573885129
 51
180.0000000000000
  0
LINE
  5
11B
100
AcDbEntity
  8
A1
  6
CONTINUOUS
 62
7
100
AcDbLine
 10
152.0902211465361
 20
106.7201112109243
 30
0.000000000000000
 11
149.9566706267197
 21
103.7324972206862
 31
0.000000000000000
  0
ARC
  5
11C
100
AcDbEntity
  8
A1
  6
CONTINUOUS
 62
7
100
AcDbCircle
 10
151.5842559509057
 20
102.5701865855747
 30
0.000000000000000
 40
0.5000000000000000
100
AcDbArc
 50
144.4681573885079
 51
180.0000000000000
  0
ARC
  5
11D
100
AcDbEntity
  8
A1
  6
CONTINUOUS
 62
7
100
AcDbCircle
 10
151.8342559509059
 20
107.2201112109244
 30
0.000000000000000
 40
2.000000000000000
100
AcDbArc
 50
326.3855106065328
 51
345.5224878140710
  0
ARC
  5
11E
100
AcDbEntity
  8
A1
  6
CONTINUOUS
 62
7
100
AcDbCircle
 10
153.3342559509059
 20
126.2201112109244
 30
0.000000000000000
 40
2.000000000000000
100
AcDbArc
 50
0.000000000000000
 51
72.12572781994400
  0
ARC
  5
11F
100
AcDbEntity
  8
A1
  6
CONTINUOUS
 62
7
100
AcDbCircle
 10
153.3342559509059
 20
126.2201112109244
 30
0.000000000000000
 40
0.5000000000000000
100
AcDbArc
 50
0.000000000000000
 51
72.12572781994268
  0
LINE
  5
120
100
AcDbEntity
  8
A1
  6
CONTINUOUS
 62
7
100
AcDbLine
 10
153.9481145258568
 20
128.1235758546615
 30
0.000000000000000
 11
152.1238620196927
 21
128.7118888803163
 31
0.000000000000000
  0
LINE
  5
121
100
AcDbEntity
  8
A1
  6
CONTINUOUS
 62
7
100
AcDbLine
 10
153.4877205946437
 20
126.6959773718583
 30
0.000000000000000
 11
151.6634680884794
 21
127.2842903975132
 31
0.000000000000000
  0
ARC
  5
122
100
AcDbEntity
  8
A1
  6
CONTINUOUS
 62
7
100
AcDbCircle
 10
152.5842559509057
 20
130.1394873631199
 30
0.000000000000000
 40
3.000000000000000
100
AcDbArc
 50
180.0000000000000
 51
252.1257278199304
  0
ARC
  5
123
100
AcDbEntity
  8
A1
  6
CONTINUOUS
 62
7
100
AcDbCircle
 10
152.5842559509057
 20
130.1394873631195
 30
0.000000000000000
 40
1.500000000000000
100
AcDbArc
 50
180.0000000000000
 51
252.1257278199324
  0
LINE
  5
124
100
AcDbEntity
  8
A1
  6
CONTINUOUS
 62
7
100
AcDbLine
 10
151.6842559509059
 20
130.4701112109244
 30
0.000000000000000
 11
151.6842559509059
 21
133.9701112109244
 31
0.000000000000000
  0
LINE
  5
125
100
AcDbEntity
  8
A1
  6
CONTINUOUS
 62
7
100
AcDbLine
 10
151.6842559509060
 20
100.9701112109244
 30
0.000000000000000
 11
151.0842559509059
 21
100.6486826394959
 31
0.000000000000000
  0
LINE
  5
126
100
AcDbEntity
  8
A1
  6
CONTINUOUS
 62
7
100
AcDbLine
 10
151.6842559509059
 20
97.47011121092437
 30
0.000000000000000
 11
151.6842559509059
 21
100.9701112109244
 31
0.000000000000000
  0
LINE
  5
127
100
AcDbEntity
  8
A1
  6
CONTINUOUS
 62
7
100
AcDbLine
 10
151.0842559509058
 20
97.79153978235291
 30
0.000000000000000
 11
151.6842559509059
 21
97.47011121092440
 31
0.000000000000000
  0
LINE
  5
128
100
AcDbEntity
  8
A1
  6
CONTINUOUS
 62
7
100
AcDbLine
 10
128.4842559509057
 20
100.9701112109245
 30
0.000000000000000
 11
129.0842559509057
 21
100.6486826394960
 31
0.000000000000000
  0
LINE
  5
129
100
AcDbEntity
  8
A1
  6
CONTINUOUS
 62
7
100
AcDbLine
 10
128.4842559509057
 20
97.47011121092446
 30
0.000000000000000
 11
128.4842559509057
 21
100.9701112109245
 31
0.000000000000000
  0
LINE
  5
12A
100
AcDbEntity
  8
A1
  6
CONTINUOUS
 62
7
100
AcDbLine
 10
129.0842559509058
 20
97.79153978235308
 30
0.000000000000000
 11
128.4842559509057
 21
97.47011121092456
 31
0.000000000000000
  0
LINE
  5
12B
100
AcDbEntity
  8
A1
  6
CONTINUOUS
 62
7
100
AcDbLine
 10
128.4842559509056
 20
133.9701112109244
 30
0.000000000000000
 11
129.0842559509057
 21
133.6486826394959
 31
0.000000000000000
  0
LINE
  5
12C
100
AcDbEntity
  8
A1
  6
CONTINUOUS
 62
7
100
AcDbLine
 10
128.4842559509057
 20
130.4701112109244
 30
0.000000000000000
 11
128.4842559509057
 21
133.9701112109244
 31
0.000000000000000
  0
LINE
  5
12D
100
AcDbEntity
  8
A1
  6
CONTINUOUS
 62
7
100
AcDbLine
 10
129.0842559509058
 20
130.7915397823531
 30
0.000000000000000
 11
128.4842559509057
 21
130.4701112109246
 31
0.000000000000000
  0
LINE
  5
12E
100
AcDbEntity
  8
A1
  6
CONTINUOUS
 62
7
100
AcDbLine
 10
132.0842559509058
 20
90.95827300806320
 30
0.000000000000000
 11
133.5842559509058
 21
90.95827300806320
 31
0.000000000000000
  0
LINE
  5
12F
100
AcDbEntity
  8
A1
  6
CONTINUOUS
 62
7
100
AcDbLine
 10
148.0842559509057
 20
90.95827300806320
 30
0.000000000000000
 11
146.5842559509057
 21
90.95827300806320
 31
0.000000000000000
  0
LINE
  5
130
100
AcDbEntity
  8
A1
  6
CONTINUOUS
 62
7
100
AcDbLine
 10
49.05353810002615
 20
114.1534210780809
 30
0.000000000000000
 11
49.05353810002615
 21
111.1534210780809
 31
0.000000000000000
  0
LINE
  5
131
100
AcDbEntity
  8
A1
  6
CONTINUOUS
 62
7
100
AcDbLine
 10
50.05353810002615
 20
112.6534210780809
 30
0.000000000000000
 11
50.05353810002615
 21
111.6089510780810
 31
0.000000000000000
  0
LINE
  5
132
100
AcDbEntity
  8
A1
  6
CONTINUOUS
 62
7
100
AcDbLine
 10
50.05353810002603
 20
111.6089510780810
 30
0.000000000000000
 11
49.19639810002600
 21
111.0121210780810
 31
0.000000000000000
  0
ARC
  5
133
100
AcDbEntity
  8
A1
  6
CONTINUOUS
 62
7
100
AcDbCircle
 10
48.05353810002615
 20
112.6534210780809
 30
0.000000000000000
 40
2.000000000000000
100
AcDbArc
 50
247.4751498548854
 51
304.8499000000014
  0
LINE
  5
134
100
AcDbEntity
  8
A1
  6
CONTINUOUS
 62
7
100
AcDbLine
 10
49.05353810002615
 20
114.1534210780809
 30
0.000000000000000
 11
48.03612014715438
 21
114.1534210780809
 31
0.000000000000000
  0
ARC
  5
135
100
AcDbEntity
  8
A1
  6
CONTINUOUS
 62
7
100
AcDbCircle
 10
48.05353810002615
 20
112.6534210780809
 30
0.000000000000000
 40
2.000000000000000
100
AcDbArc
 50
0.000000000000000
 51
71.89044138278302
  0
ARC
  5
136
100
AcDbEntity
  8
A1
  6
CONTINUOUS
 62
7
100
AcDbCircle
 10
48.05353810002615
 20
112.6534210780809
 30
0.000000000000000
 40
3.500000000000000
100
AcDbArc
 50
0.000000000000000
 51
71.89044138277873
  0
LINE
  5
137
100
AcDbEntity
  8
A1
  6
CONTINUOUS
 62
7
100
AcDbLine
 10
46.40025724014858
 20
115.2983375081790
 30
0.000000000000000
 11
48.67520809846918
 21
114.5543488549935
 31
0.000000000000000
  0
LINE
  5
138
100
AcDbEntity
  8
A1
  6
CONTINUOUS
 62
7
100
AcDbLine
 10
51.55353810002615
 20
112.6534210780809
 30
0.000000000000000
 11
50.05353810002615
 21
112.6534210780809
 31
0.000000000000000
  0
LINE
  5
139
100
AcDbEntity
  8
A1
  6
CONTINUOUS
 62
7
100
AcDbLine
 10
49.05353810002615
 20
111.1534210780809
 30
0.000000000000000
 11
48.06842208837858
 21
111.1534210780809
 31
0.000000000000000
  0
ARC
  5
13A
100
AcDbEntity
  8
A1
  6
CONTINUOUS
 62
7
100
AcDbCircle
 10
40.55353810002671
 20
100.1613280462181
 30
0.000000000000000
 40
0.4999999999999998
100
AcDbArc
 50
136.5481576989767
 51
180.0000000000000
  0
ARC
  5
13B
100
AcDbEntity
  8
A1
  6
CONTINUOUS
 62
7
100
AcDbCircle
 10
40.55353810002671
 20
100.1613280462181
 30
0.000000000000000
 40
2.000000000000000
100
AcDbArc
 50
97.18075578145823
 51
180.0000000000000
  0
LINE
  5
13C
100
AcDbEntity
  8
A1
  6
CONTINUOUS
 62
7
100
AcDbLine
 10
40.30353810002642
 20
100.6244531755682
 30
0.000000000000000
 11
40.19056175807363
 21
100.5052003701736
 31
0.000000000000000
  0
LINE
  5
13D
100
AcDbEntity
  8
A1
  6
CONTINUOUS
 62
7
100
AcDbLine
 10
135.1064781731279
 20
90.95827300806320
 30
0.000000000000000
 11
145.0620337286834
 21
90.95827300806320
 31
0.000000000000000
  0
LINE
  5
13E
100
AcDbEntity
  8
A4
  6
CENTER
 62
1
100
AcDbLine
 10
47.15025724016553
 20
99.22410114431496
 30
0.000000000000000
 11
40.65025724016553
 21
99.22410114431496
 31
0.000000000000000
  0
LINE
  5
13F
100
AcDbEntity
  8
A4
  6
CENTER
 62
1
100
AcDbLine
 10
43.90025724016553
 20
102.4741011443150
 30
0.000000000000000
 11
43.90025724016553
 21
95.97410114431496
 31
0.000000000000000
  0
LINE
  5
140
100
AcDbEntity
  8
A1
  6
CONTINUOUS
 62
7
100
AcDbLine
 10
46.40025724015757
 20
107.9241011443102
 30
0.000000000000000
 11
46.40025724015757
 21
108.3205839933737
 31
0.000000000000000
  0
LINE
  5
141
100
AcDbEntity
  8
A1
  6
CONTINUOUS
 62
7
100
AcDbLine
 10
46.40025724015757
 20
109.5355813468123
 30
0.000000000000000
 11
46.40025724015757
 21
110.6634816443096
 31
0.000000000000000
  0
LINE
  5
142
100
AcDbEntity
  8
A1
  6
CONTINUOUS
 62
7
100
AcDbLine
 10
46.40025724015757
 20
111.8788675932405
 30
0.000000000000000
 11
46.40025724015757
 21
113.0089361897684
 31
0.000000000000000
  0
LINE
  5
143
100
AcDbEntity
  8
A1
  6
CONTINUOUS
 62
7
100
AcDbLine
 10
46.40025724015757
 20
114.2243221386992
 30
0.000000000000000
 11
46.40025724015757
 21
115.3543907352271
 31
0.000000000000000
  0
LINE
  5
144
100
AcDbEntity
  8
A1
  6
CONTINUOUS
 62
7
100
AcDbLine
 10
46.40025724015757
 20
116.5697766841580
 30
0.000000000000000
 11
46.40025724015757
 21
117.6998452805720
 31
0.000000000000000
  0
LINE
  5
145
100
AcDbEntity
  8
A1
  6
CONTINUOUS
 62
7
100
AcDbLine
 10
41.40025724015757
 20
111.0756297352095
 30
0.000000000000000
 11
41.40025724015757
 21
112.2056983317375
 31
0.000000000000000
  0
LINE
  5
146
100
AcDbEntity
  8
A1
  6
CONTINUOUS
 62
7
100
AcDbLine
 10
41.40025724015757
 20
118.1119933714720
 30
0.000000000000000
 11
41.40025724015757
 21
119.2420619679977
 31
0.000000000000000
  0
LINE
  5
147
100
AcDbEntity
  8
A1
  6
CONTINUOUS
 62
7
100
AcDbLine
 10
41.40025724015757
 20
120.4574479169286
 30
0.000000000000000
 11
41.40025724015757
 21
121.5050174406004
 31
0.000000000000000
  0
ARC
  5
148
100
AcDbEntity
  8
A1
  6
CONTINUOUS
 62
7
100
AcDbCircle
 10
47.55025724015744
 20
122.6241011443103
 30
0.000000000000000
 40
0.6000000000000000
100
AcDbArc
 50
274.8049742396774
 51
454.8049742396773
  0
LINE
  5
149
100
AcDbEntity
  8
A1
  6
CONTINUOUS
 62
7
100
AcDbLine
 10
41.40025724015757
 20
113.4210842806684
 30
0.000000000000000
 11
41.40025724015757
 21
114.5511528771961
 31
0.000000000000000
  0
LINE
  5
14A
100
AcDbEntity
  8
A1
  6
CONTINUOUS
 62
7
100
AcDbLine
 10
41.40025724015757
 20
115.7665388261270
 30
0.000000000000000
 11
41.40025724015757
 21
116.8966074225411
 31
0.000000000000000
  0
LINE
  5
14B
100
AcDbEntity
  8
A1
  6
CONTINUOUS
 62
7
100
AcDbLine
 10
43.90025724015757
 20
107.9241011443101
 30
0.000000000000000
 11
43.90025724015757
 21
106.7241011443102
 31
0.000000000000000
  0
LINE
  5
14C
100
AcDbEntity
  8
A1
  6
CONTINUOUS
 62
7
100
AcDbLine
 10
47.55025724015738
 20
107.9241011443101
 30
0.000000000000000
 11
43.90025724015757
 21
107.9241011443101
 31
0.000000000000000
  0
ARC
  5
14D
100
AcDbEntity
  8
A1
  6
CONTINUOUS
 62
7
100
AcDbCircle
 10
47.55025724015738
 20
107.3241011443101
 30
0.000000000000000
 40
0.5999999999999943
100
AcDbArc
 50
270.0000000000000
 51
450.0000000000000
  0
ARC
  5
14E
100
AcDbEntity
  8
A1
  6
CONTINUOUS
 62
7
100
AcDbCircle
 10
40.25025724015742
 20
110.2831920533969
 30
0.000000000000000
 40
0.6000000000000000
100
AcDbArc
 50
99.12645025064592
 51
279.1264502506446
  0
ARC
  5
14F
100
AcDbEntity
  8
A1
  6
CONTINUOUS
 62
7
100
AcDbCircle
 10
47.55025724015744
 20
111.4559193261221
 30
0.000000000000000
 40
0.6000000000000000
100
AcDbArc
 50
279.1264502506446
 51
459.1264502506446
  0
LINE
  5
150
100
AcDbEntity
  8
A1
  6
CONTINUOUS
 62
7
100
AcDbLine
 10
40.15508890975335
 20
110.8755964666891
 30
0.000000000000000
 11
47.45508890975332
 21
112.0483237394143
 31
0.000000000000000
  0
LINE
  5
151
100
AcDbEntity
  8
A1
  6
CONTINUOUS
 62
7
100
AcDbLine
 10
47.64542557056168
 20
110.8635149128298
 30
0.000000000000000
 11
40.34542557056172
 21
109.6907876401047
 31
0.000000000000000
  0
LINE
  5
152
100
AcDbEntity
  8
A1
  6
CONTINUOUS
 62
7
100
AcDbLine
 10
47.64542557056173
 20
113.2089694582887
 30
0.000000000000000
 11
40.34542557056164
 21
112.0362421855635
 31
0.000000000000000
  0
ARC
  5
153
100
AcDbEntity
  8
A1
  6
CONTINUOUS
 62
7
100
AcDbCircle
 10
47.55025724015744
 20
113.8013738715809
 30
0.000000000000000
 40
0.6000000000000000
100
AcDbArc
 50
279.1264502506446
 51
459.1264502506446
  0
LINE
  5
154
100
AcDbEntity
  8
A1
  6
CONTINUOUS
 62
7
100
AcDbLine
 10
40.15508890975328
 20
113.2210510121479
 30
0.000000000000000
 11
47.45508890975336
 21
114.3937782848731
 31
0.000000000000000
  0
ARC
  5
155
100
AcDbEntity
  8
A1
  6
CONTINUOUS
 62
7
100
AcDbCircle
 10
40.25025724015742
 20
112.6286465988557
 30
0.000000000000000
 40
0.6000000000000000
100
AcDbArc
 50
99.12645025064592
 51
279.1264502506446
  0
LINE
  5
156
100
AcDbEntity
  8
A1
  6
CONTINUOUS
 62
7
100
AcDbLine
 10
47.64542557056166
 20
115.5544240037474
 30
0.000000000000000
 11
40.34542557056169
 21
114.3816967310223
 31
0.000000000000000
  0
ARC
  5
157
100
AcDbEntity
  8
A1
  6
CONTINUOUS
 62
7
100
AcDbCircle
 10
47.55025724015744
 20
116.1468284170397
 30
0.000000000000000
 40
0.6000000000000000
100
AcDbArc
 50
279.1264502506446
 51
459.1264502506446
  0
LINE
  5
158
100
AcDbEntity
  8
A1
  6
CONTINUOUS
 62
7
100
AcDbLine
 10
40.15508890975332
 20
115.5665055576068
 30
0.000000000000000
 11
47.45508890975329
 21
116.7392328303319
 31
0.000000000000000
  0
ARC
  5
159
100
AcDbEntity
  8
A1
  6
CONTINUOUS
 62
7
100
AcDbCircle
 10
40.25025724015742
 20
114.9741011443145
 30
0.000000000000000
 40
0.6000000000000000
100
AcDbArc
 50
99.12645025064592
 51
279.1264502506446
  0
LINE
  5
15A
100
AcDbEntity
  8
A1
  6
CONTINUOUS
 62
7
100
AcDbLine
 10
47.64542557056169
 20
117.8998785490923
 30
0.000000000000000
 11
40.34542557056162
 21
116.7271512763671
 31
0.000000000000000
  0
ARC
  5
15B
100
AcDbEntity
  8
A1
  6
CONTINUOUS
 62
7
100
AcDbCircle
 10
47.55025724015744
 20
118.4922829623846
 30
0.000000000000000
 40
0.6000000000000000
100
AcDbArc
 50
279.1264502506446
 51
459.1264502506446
  0
LINE
  5
15C
100
AcDbEntity
  8
A1
  6
CONTINUOUS
 62
7
100
AcDbLine
 10
40.15508890975336
 20
117.9119601029516
 30
0.000000000000000
 11
47.45508890975333
 21
119.0846873756767
 31
0.000000000000000
  0
ARC
  5
15D
100
AcDbEntity
  8
A1
  6
CONTINUOUS
 62
7
100
AcDbCircle
 10
40.25025724015742
 20
117.3195556896594
 30
0.000000000000000
 40
0.6000000000000000
100
AcDbArc
 50
99.12645025064592
 51
279.1264502506446
  0
LINE
  5
15E
100
AcDbEntity
  8
A1
  6
CONTINUOUS
 62
7
100
AcDbLine
 10
47.64542557056171
 20
120.2453330945490
 30
0.000000000000000
 11
40.34542557056164
 21
119.0726058218239
 31
0.000000000000000
  0
ARC
  5
15F
100
AcDbEntity
  8
A1
  6
CONTINUOUS
 62
7
100
AcDbCircle
 10
47.55025724015744
 20
120.8377375078412
 30
0.000000000000000
 40
0.6000000000000000
100
AcDbArc
 50
279.1264502506446
 51
459.1264502506446
  0
LINE
  5
160
100
AcDbEntity
  8
A1
  6
CONTINUOUS
 62
7
100
AcDbLine
 10
40.15508890975330
 20
120.2574146484082
 30
0.000000000000000
 11
47.45508890975337
 21
121.4301419211334
 31
0.000000000000000
  0
ARC
  5
161
100
AcDbEntity
  8
A1
  6
CONTINUOUS
 62
7
100
AcDbCircle
 10
40.25025724015742
 20
119.6650102351160
 30
0.000000000000000
 40
0.6000000000000000
100
AcDbArc
 50
99.12645025064592
 51
279.1264502506446
  0
ARC
  5
162
100
AcDbEntity
  8
A1
  6
CONTINUOUS
 62
7
100
AcDbCircle
 10
47.55025724015738
 20
109.1104647806632
 30
0.000000000000000
 40
0.6000000000000000
100
AcDbArc
 50
279.0116645897985
 51
459.0116645899141
  0
LINE
  5
163
100
AcDbEntity
  8
A1
  6
CONTINUOUS
 62
7
100
AcDbLine
 10
47.64423856464906
 20
108.5178708972600
 30
0.000000000000000
 11
40.34423856464043
 21
107.3601409779931
 31
0.000000000000000
  0
LINE
  5
164
100
AcDbEntity
  8
A1
  6
CONTINUOUS
 62
7
100
AcDbLine
 10
47.45627591566553
 20
109.7030586640664
 30
0.000000000000000
 11
40.15627591565811
 21
108.5453287447846
 31
0.000000000000000
  0
ARC
  5
165
100
AcDbEntity
  8
A1
  6
CONTINUOUS
 62
7
100
AcDbCircle
 10
40.25025724014998
 20
107.9527348613889
 30
0.000000000000000
 40
0.5999999999913473
100
AcDbArc
 50
99.01166458991293
 51
279.0116645897978
  0
LINE
  5
166
100
AcDbEntity
  8
A1
  6
CONTINUOUS
 62
7
100
AcDbLine
 10
40.20424383161065
 20
107.3545018246684
 30
0.000000000000000
 11
41.40025724015762
 21
107.2625098245480
 31
0.000000000000000
  0
LINE
  5
167
100
AcDbEntity
  8
A1
  6
CONTINUOUS
 62
7
100
AcDbLine
 10
46.40025724015745
 20
108.0253530711613
 30
0.000000000000000
 11
47.60173524579128
 21
107.9218887444957
 31
0.000000000000000
  0
LINE
  5
168
100
AcDbEntity
  8
A1
  6
CONTINUOUS
 62
7
100
AcDbLine
 10
47.64542557056230
 20
109.7028691939555
 30
0.000000000000000
 11
46.40025724015759
 21
109.9029024624774
 31
0.000000000000000
  0
LINE
  5
169
100
AcDbEntity
  8
A1
  6
CONTINUOUS
 62
7
100
AcDbLine
 10
40.15508890975259
 20
109.6907876401048
 30
0.000000000000000
 11
41.40025724015764
 21
109.4907543715829
 31
0.000000000000000
  0
LINE
  5
16A
100
AcDbEntity
  8
A1
  6
CONTINUOUS
 62
7
100
AcDbLine
 10
47.64542557056225
 20
112.0483237394121
 30
0.000000000000000
 11
46.40025724015766
 21
112.2483570079339
 31
0.000000000000000
  0
LINE
  5
16B
100
AcDbEntity
  8
A1
  6
CONTINUOUS
 62
7
100
AcDbLine
 10
40.15508890975267
 20
112.0362421855615
 30
0.000000000000000
 11
41.40025724015760
 21
111.8362089170396
 31
0.000000000000000
  0
LINE
  5
16C
100
AcDbEntity
  8
A1
  6
CONTINUOUS
 62
7
100
AcDbLine
 10
47.64542557056232
 20
114.3937782848687
 30
0.000000000000000
 11
46.40025724015761
 21
114.5938115533906
 31
0.000000000000000
  0
LINE
  5
16D
100
AcDbEntity
  8
A1
  6
CONTINUOUS
 62
7
100
AcDbLine
 10
40.15508890975262
 20
114.3816967310181
 30
0.000000000000000
 11
41.40025724015766
 21
114.1816634624962
 31
0.000000000000000
  0
LINE
  5
16E
100
AcDbEntity
  8
A1
  6
CONTINUOUS
 62
7
100
AcDbLine
 10
47.64542557056231
 20
116.7392328302962
 30
0.000000000000000
 11
46.40025724015760
 21
116.9392660988181
 31
0.000000000000000
  0
LINE
  5
16F
100
AcDbEntity
  8
A1
  6
CONTINUOUS
 62
7
100
AcDbLine
 10
40.15508890975262
 20
116.7271512764457
 30
0.000000000000000
 11
41.40025724015767
 21
116.5271180079237
 31
0.000000000000000
  0
LINE
  5
170
100
AcDbEntity
  8
A1
  6
CONTINUOUS
 62
7
100
AcDbLine
 10
47.64542557056227
 20
119.0846873757529
 30
0.000000000000000
 11
46.40025724015768
 21
119.2847206442748
 31
0.000000000000000
  0
LINE
  5
171
100
AcDbEntity
  8
A1
  6
CONTINUOUS
 62
7
100
AcDbLine
 10
40.15508890975258
 20
119.0726058219023
 30
0.000000000000000
 11
41.40025724015761
 21
118.8725725533804
 31
0.000000000000000
  0
LINE
  5
172
100
AcDbEntity
  8
A1
  6
CONTINUOUS
 62
7
100
AcDbLine
 10
41.40025724015757
 20
106.7241011443101
 30
0.000000000000000
 11
41.40025724015757
 21
107.5276182952465
 31
0.000000000000000
  0
LINE
  5
173
100
AcDbEntity
  8
A1
  6
CONTINUOUS
 62
7
100
AcDbLine
 10
41.40025724015757
 20
108.7426156486749
 30
0.000000000000000
 11
41.40025724015757
 21
109.8602437862787
 31
0.000000000000000
  0
ARC
  5
174
100
AcDbEntity
  8
A1
  6
CONTINUOUS
 62
7
100
AcDbCircle
 10
40.25025724015748
 20
122.0104647806510
 30
0.000000000000000
 40
0.6000000000000000
100
AcDbArc
 50
94.80497423967738
 51
274.8049742396774
  0
LINE
  5
175
100
AcDbEntity
  8
A1
  6
CONTINUOUS
 62
7
100
AcDbLine
 10
40.30051585339628
 20
121.4125734261432
 30
0.000000000000000
 11
47.60051585339619
 21
122.0262097898023
 31
0.000000000000000
  0
LINE
  5
176
100
AcDbEntity
  8
A1
  6
CONTINUOUS
 62
7
100
AcDbLine
 10
40.19999862691861
 20
122.6083561351590
 30
0.000000000000000
 11
47.49999862691851
 21
123.2219924988182
 31
0.000000000000000
  0
LINE
  5
177
100
AcDbEntity
  8
A1
  6
CONTINUOUS
 62
7
100
AcDbLine
 10
46.40025724015760
 20
121.6271870822016
 30
0.000000000000000
 11
47.64403815584219
 21
121.4303631399675
 31
0.000000000000000
  0
LINE
  5
178
100
AcDbEntity
  8
A1
  6
CONTINUOUS
 62
7
100
AcDbLine
 10
41.40025724015747
 20
121.2180270988242
 30
0.000000000000000
 11
40.15508890974650
 21
121.4180603673601
 31
0.000000000000000
  0
LINE
  5
179
100
AcDbEntity
  8
A1
  6
CONTINUOUS
 62
7
100
AcDbLine
 10
46.40025724015757
 20
118.9152312295029
 30
0.000000000000000
 11
46.40025724015757
 21
120.0452998260286
 31
0.000000000000000
  0
LINE
  5
17A
100
AcDbEntity
  8
A1
  6
CONTINUOUS
 62
7
100
AcDbLine
 10
46.40025724015757
 20
121.2606857749596
 30
0.000000000000000
 11
46.40025724015757
 21
121.9253163198189
 31
0.000000000000000
  0
LINE
  5
17B
100
AcDbEntity
  8
A4
  6
CENTER
 62
1
100
AcDbLine
 10
126.9842559509060
 20
99.22011121126053
 30
0.000000000000000
 11
153.1842559509057
 21
99.22011121126064
 31
0.000000000000000
  0
ARC
  5
17C
100
AcDbEntity
  8
A1
  6
CONTINUOUS
 62
7
100
AcDbCircle
 10
42.40025724013063
 20
132.2241011443135
 30
0.000000000000000
 40
3.000000000000000
100
AcDbArc
 50
352.7339555493165
 51
587.2660444508006
  0
LINE
  5
17D
100
AcDbEntity
  8
A1
  6
CONTINUOUS
 62
7
100
AcDbLine
 10
45.45458138060641
 20
131.1419255370737
 30
0.000000000000000
 11
46.00825927524190
 21
129.6207080239184
 31
0.000000000000000
  0
ARC
  5
17E
100
AcDbEntity
  8
A1
  6
CONTINUOUS
 62
7
100
AcDbCircle
 10
46.86412031178494
 20
131.6549557520620
 30
0.000000000000000
 40
1.500000000000000
100
AcDbArc
 50
172.7339555492748
 51
200.0000000000095
  0
LINE
  5
17F
100
AcDbEntity
  8
A1
  6
CONTINUOUS
 62
7
100
AcDbLine
 10
40.75611827667969
 20
129.4318248204408
 30
0.000000000000000
 11
41.30979617131431
 21
127.9106073072855
 31
0.000000000000000
  0
ARC
  5
180
100
AcDbEntity
  8
A1
  6
CONTINUOUS
 62
7
100
AcDbCircle
 10
39.34657934550117
 20
128.9187946054503
 30
0.000000000000000
 40
1.500000000000000
100
AcDbArc
 50
20.00000000004865
 51
47.26604445079937
  0
ARC
  5
181
100
AcDbEntity
  8
A1
  6
CONTINUOUS
 62
7
100
AcDbCircle
 10
39.90025724013574
 20
127.3975770922967
 30
0.000000000000000
 40
1.500000000000000
100
AcDbArc
 50
0.000000000000000
 51
20.00000000000669
  0
ARC
  5
182
100
AcDbEntity
  8
A1
  6
CONTINUOUS
 62
7
100
AcDbCircle
 10
39.90025724013580
 20
127.3975770922949
 30
0.000000000000000
 40
6.500000000000000
100
AcDbArc
 50
6.045598338525852e-11
 51
20.00000000005728
  0
LINE
  5
183
100
AcDbEntity
  8
A1
  6
CONTINUOUS
 62
7
100
AcDbLine
 10
48.40025724015776
 20
106.7241011443197
 30
0.000000000000000
 11
39.40025724015776
 21
106.7241011443102
 31
0.000000000000000
  0
LINE
  5
184
100
AcDbEntity
  8
A1
  6
CONTINUOUS
 62
7
100
AcDbLine
 10
38.90025724016039
 20
104.2241011443097
 30
0.000000000000000
 11
38.90025724015828
 21
106.2241011443097
 31
0.000000000000000
  0
ARC
  5
185
100
AcDbEntity
  8
A1
  6
CONTINUOUS
 62
7
100
AcDbCircle
 10
39.40025724013870
 20
106.2241011443197
 30
0.000000000000000
 40
0.4999999999999998
100
AcDbArc
 50
89.99999999993955
 51
179.9999999999395
  0
ARC
  5
186
100
AcDbEntity
  8
A1
  6
CONTINUOUS
 62
7
100
AcDbCircle
 10
39.40025724013660
 20
104.2241011443197
 30
0.000000000000000
 40
0.4999999999999998
100
AcDbArc
 50
179.9999999999395
 51
269.9999999999396
  0
LINE
  5
187
100
AcDbEntity
  8
A1
  6
CONTINUOUS
 62
7
100
AcDbLine
 10
48.40025724016092
 20
103.7241011443197
 30
0.000000000000000
 11
39.40025724016092
 21
103.7241011443102
 31
0.000000000000000
  0
LINE
  5
188
100
AcDbEntity
  8
A1
  6
CONTINUOUS
 62
7
100
AcDbLine
 10
48.90025724016039
 20
104.2241011443202
 30
0.000000000000000
 11
48.90025724015828
 21
106.2241011443202
 31
0.000000000000000
  0
ARC
  5
189
100
AcDbEntity
  8
A1
  6
CONTINUOUS
 62
7
100
AcDbCircle
 10
48.40025724015814
 20
106.2241011443197
 30
0.000000000000000
 40
0.4999999999999998
100
AcDbArc
 50
6.045598338525852e-11
 51
90.00000000006045
  0
ARC
  5
18A
100
AcDbEntity
  8
A1
  6
CONTINUOUS
 62
7
100
AcDbCircle
 10
48.40025724016024
 20
104.2241011443197
 30
0.000000000000000
 40
0.4999999999999998
100
AcDbArc
 50
270.0000000000605
 51
360.0000000000604
  0
LINE
  5
18B
100
AcDbEntity
  8
A1
  6
CONTINUOUS
 62
7
100
AcDbLine
 10
46.40025724016296
 20
101.7856539571265
 30
0.000000000000000
 11
46.40025724016092
 21
103.7241011443176
 31
0.000000000000000
  0
ARC
  5
18C
100
AcDbEntity
  8
A1
  6
CONTINUOUS
 62
7
100
AcDbCircle
 10
47.90025724016280
 20
101.7856539571281
 30
0.000000000000000
 40
1.500000000000000
100
AcDbArc
 50
180.0000000000605
 51
207.2660444508085
  0
ARC
  5
18D
100
AcDbEntity
  8
A1
  6
CONTINUOUS
 62
7
100
AcDbCircle
 10
43.90025724016496
 20
99.72410114431496
 30
0.000000000000000
 40
3.000000000000000
100
AcDbArc
 50
152.7339555493324
 51
387.2660444507852
  0
LINE
  5
18E
100
AcDbEntity
  8
A1
  6
CONTINUOUS
 62
7
100
AcDbLine
 10
41.40025724016277
 20
101.7856539571214
 30
0.000000000000000
 11
41.40025724016073
 21
103.7241011443125
 31
0.000000000000000
  0
ARC
  5
18F
100
AcDbEntity
  8
A1
  6
CONTINUOUS
 62
7
100
AcDbCircle
 10
39.90025724016280
 20
101.7856539571197
 30
0.000000000000000
 40
1.500000000000000
100
AcDbArc
 50
332.7339555493368
 51
360.0000000000604
  0
CIRCLE
  5
190
100
AcDbEntity
  8
A1
  6
CONTINUOUS
 62
7
100
AcDbCircle
 10
43.90025724016553
 20
99.22410114431496
 30
0.000000000000000
 40
1.750000000000000
  0
LINE
  5
191
100
AcDbEntity
  8
A1
  6
CONTINUOUS
 62
7
100
AcDbLine
 10
48.90025724013770
 20
125.7241011443147
 30
0.000000000000000
 11
48.90025724013981
 21
123.7241011443147
 31
0.000000000000000
  0
ARC
  5
192
100
AcDbEntity
  8
A1
  6
CONTINUOUS
 62
7
100
AcDbCircle
 10
48.40025724033538
 20
123.7241011443283
 30
0.000000000000000
 40
0.4999999999999998
100
AcDbArc
 50
270.0000000002401
 51
360.0000000002400
  0
LINE
  5
193
100
AcDbEntity
  8
A1
  6
CONTINUOUS
 62
7
100
AcDbLine
 10
48.40025724014013
 20
123.2241011443142
 30
0.000000000000000
 11
46.40025724014013
 21
123.2241011443121
 31
0.000000000000000
  0
LINE
  5
194
100
AcDbEntity
  8
A1
  6
CONTINUOUS
 62
7
100
AcDbLine
 10
46.40025724013717
 20
126.2241011443121
 30
0.000000000000000
 11
48.40025724013717
 21
126.2241011443142
 31
0.000000000000000
  0
ARC
  5
195
100
AcDbEntity
  8
A1
  6
CONTINUOUS
 62
7
100
AcDbCircle
 10
48.40025724013756
 20
125.7241011443142
 30
0.000000000000000
 40
0.4999999999999998
100
AcDbArc
 50
6.045598338525852e-11
 51
90.00000000006045
  0
LINE
  5
196
100
AcDbEntity
  8
A1
  6
CONTINUOUS
 62
7
100
AcDbLine
 10
39.40025724013717
 20
126.2241011443047
 30
0.000000000000000
 11
41.30884377679681
 21
126.2241011443067
 31
0.000000000000000
  0
ARC
  5
197
100
AcDbEntity
  8
A1
  6
CONTINUOUS
 62
7
100
AcDbCircle
 10
39.40025723996987
 20
125.7241011443283
 30
0.000000000000000
 40
0.4999999999999998
100
AcDbArc
 50
89.99999999975992
 51
179.9999999997599
  0
LINE
  5
198
100
AcDbEntity
  8
A1
  6
CONTINUOUS
 62
7
100
AcDbLine
 10
38.90025724013770
 20
125.7241011443042
 30
0.000000000000000
 11
38.90025724013981
 21
123.7241011443042
 31
0.000000000000000
  0
ARC
  5
199
100
AcDbEntity
  8
A1
  6
CONTINUOUS
 62
7
100
AcDbCircle
 10
39.40025723996146
 20
123.7241011443283
 30
0.000000000000000
 40
0.4999999999999998
100
AcDbArc
 50
179.9999999997599
 51
269.9999999997599
  0
LINE
  5
19A
100
AcDbEntity
  8
A1
  6
CONTINUOUS
 62
7
100
AcDbLine
 10
41.40025724014024
 20
123.2241011443068
 30
0.000000000000000
 11
39.40025724014013
 21
123.2241011443047
 31
0.000000000000000
  0
LINE
  5
19B
100
AcDbEntity
  8
A1
  6
CONTINUOUS
 62
7
100
AcDbLine
 10
132.0842559509058
 20
116.9582730080632
 30
0.000000000000000
 11
148.0842559509057
 21
116.9582730080632
 31
0.000000000000000
  0
LINE
  5
19C
100
AcDbEntity
  8
A1
  6
CONTINUOUS
 62
7
100
AcDbLine
 10
47.61711132017334
 20
112.0521831368512
 30
0.000000000000000
 11
47.61711132017334
 21
113.2051100608518
 31
0.000000000000000
  0
LINE
  5
19D
100
AcDbEntity
  8
A1
  6
CONTINUOUS
 62
7
100
AcDbLine
 10
41.40025724014075
 20
122.7092496051410
 30
0.000000000000000
 11
41.40025724013581
 21
127.3975770922966
 31
0.000000000000000
  0
LINE
  5
19E
100
AcDbEntity
  8
A1
  6
CONTINUOUS
 62
7
100
AcDbLine
 10
46.40025724014029
 20
123.1295484843596
 30
0.000000000000000
 11
46.40025724013579
 21
127.3975770923019
 31
0.000000000000000
  0
LINE
  5
19F
100
AcDbEntity
  8
A1
  6
CONTINUOUS
 62
7
100
AcDbLine
 10
46.40025724014228
 20
121.2606857749571
 30
0.000000000000000
 11
46.40025724014158
 21
121.9253163198177
 31
0.000000000000000
  0
LINE
  5
1A0
100
AcDbEntity
  8
A1
  6
CONTINUOUS
 62
7
100
AcDbLine
 10
41.40025724014320
 20
120.4574479169263
 30
0.000000000000000
 11
41.40025724014209
 21
121.5050174405991
 31
0.000000000000000
  0
LINE
  5
1A1
100
AcDbEntity
  8
A1
  6
CONTINUOUS
 62
7
100
AcDbLine
 10
41.40025724014563
 20
118.1119933714701
 30
0.000000000000000
 11
41.40025724014443
 21
119.2420619679956
 31
0.000000000000000
  0
LINE
  5
1A2
100
AcDbEntity
  8
A1
  6
CONTINUOUS
 62
7
100
AcDbLine
 10
46.40025724014478
 20
118.9152312295009
 30
0.000000000000000
 11
46.40025724014359
 21
120.0452998260264
 31
0.000000000000000
  0
LINE
  5
1A3
100
AcDbEntity
  8
A1
  6
CONTINUOUS
 62
7
100
AcDbLine
 10
46.40025724014725
 20
116.5697766841564
 30
0.000000000000000
 11
46.40025724014606
 21
117.6998452805701
 31
0.000000000000000
  0
LINE
  5
1A4
100
AcDbEntity
  8
A1
  6
CONTINUOUS
 62
7
100
AcDbLine
 10
41.40025724014811
 20
115.7665388261256
 30
0.000000000000000
 11
41.40025724014691
 21
116.8966074225393
 31
0.000000000000000
  0
LINE
  5
1A5
100
AcDbEntity
  8
A1
  6
CONTINUOUS
 62
7
100
AcDbLine
 10
41.40025724015058
 20
113.4210842806672
 30
0.000000000000000
 11
41.40025724014939
 21
114.5511528771948
 31
0.000000000000000
  0
LINE
  5
1A6
100
AcDbEntity
  8
A1
  6
CONTINUOUS
 62
7
100
AcDbLine
 10
46.40025724014973
 20
114.2243221386979
 30
0.000000000000000
 11
46.40025724014854
 21
115.3543907352257
 31
0.000000000000000
  0
LINE
  5
1A7
100
AcDbEntity
  8
A1
  6
CONTINUOUS
 62
7
100
AcDbLine
 10
46.40025724015762
 20
106.7241011443178
 30
0.000000000000000
 11
46.40025724015346
 21
110.6634816443089
 31
0.000000000000000
  0
LINE
  5
1A8
100
AcDbEntity
  8
A1
  6
CONTINUOUS
 62
7
100
AcDbLine
 10
46.40025724015221
 20
111.8788675932396
 30
0.000000000000000
 11
46.40025724015102
 21
113.0089361897672
 31
0.000000000000000
  0
LINE
  5
1A9
100
AcDbEntity
  8
A1
  6
CONTINUOUS
 62
7
100
AcDbLine
 10
41.40025724015306
 20
111.0756297352088
 30
0.000000000000000
 11
41.40025724015187
 21
112.2056983317365
 31
0.000000000000000
  0
LINE
  5
1AA
100
AcDbEntity
  8
A1
  6
CONTINUOUS
 62
7
100
AcDbLine
 10
41.40025724015768
 20
106.7241011443124
 30
0.000000000000000
 11
41.40025724015683
 21
107.5276182952463
 31
0.000000000000000
  0
LINE
  5
1AB
100
AcDbEntity
  8
A1
  6
CONTINUOUS
 62
7
100
AcDbLine
 10
41.40025724015545
 20
108.7426156486745
 30
0.000000000000000
 11
41.40025724015427
 21
109.8602437862781
 31
0.000000000000000
  0
LINE
  5
1AC
100
AcDbEntity
  8
A1
  6
CONTINUOUS
 62
7
100
AcDbLine
 10
45.80240090863325
 20
128.1235758546615
 30
0.000000000000000
 11
41.80240090863325
 21
128.1235758546615
 31
0.000000000000000
  0
LINE
  5
1AD
100
AcDbEntity
  8
A4
  6
CENTER
 62
1
100
AcDbLine
 10
45.65026816012258
 20
132.2241011443135
 30
0.000000000000000
 11
39.15026816012258
 21
132.2241011443135
 31
0.000000000000000
  0
LINE
  5
1AE
100
AcDbEntity
  8
A4
  6
CENTER
 62
1
100
AcDbLine
 10
42.40026816012258
 20
135.4741011443135
 30
0.000000000000000
 11
42.40026816012258
 21
128.9741011443135
 31
0.000000000000000
  0
LINE
  5
1AF
100
AcDbEntity
  8
A1
  6
CONTINUOUS
 62
7
100
AcDbLine
 10
48.12714271745378
 20
116.3117621797583
 30
0.000000000000000
 11
49.14146059730014
 21
115.9800446876775
 31
0.000000000000000
  0
ARC
  5
1B0
100
AcDbEntity
  8
A1
  6
CONTINUOUS
 62
7
100
AcDbCircle
 10
42.09821342933392
 20
111.6534210780813
 30
0.000000000000000
 40
3.000000000000000
100
AcDbArc
 50
118.2015717003117
 51
180.0000000000000
  0
LINE
  5
1B1
100
AcDbEntity
  8
A1
  6
CONTINUOUS
 62
7
100
AcDbLine
 10
39.09821342933392
 20
111.6534210780813
 30
0.000000000000000
 11
39.09821342933392
 21
107.0515899559285
 31
0.000000000000000
  0
ARC
  5
1B2
100
AcDbEntity
  8
A1
  6
CONTINUOUS
 62
7
100
AcDbCircle
 10
39.40025724015791
 20
106.6531310040365
 30
0.000000000000000
 40
0.5000000000000002
100
AcDbArc
 50
127.1632163651488
 51
180.0000000000000
  0
LINE
  5
1B3
100
AcDbEntity
  8
A1
  6
CONTINUOUS
 62
7
100
AcDbLine
 10
38.90025724015791
 20
106.6531310040366
 30
0.000000000000000
 11
38.90025724015791
 21
106.2241011443098
 31
0.000000000000000
  0
LINE
  5
1B4
100
AcDbEntity
  8
A1
  6
CONTINUOUS
 62
7
100
AcDbLine
 10
40.05353810002671
 20
90.45827300806316
 30
0.000000000000000
 11
38.55353810002671
 21
90.45827300806316
 31
0.000000000000000
  0
ARC
  5
1B5
100
AcDbEntity
  8
A1
  6
CONTINUOUS
 62
7
100
AcDbCircle
 10
43.30353810002671
 20
93.95827300806316
 30
0.000000000000000
 40
3.000000000000000
100
AcDbArc
 50
180.0000000000000
 51
270.0000000000000
  0
LINE
  5
1B6
100
AcDbEntity
  8
A1
  6
CONTINUOUS
 62
7
100
AcDbLine
 10
51.55353810002615
 20
90.95827300806316
 30
0.000000000000000
 11
43.30353810002671
 21
90.95827300806316
 31
0.000000000000000
  0
LINE
  5
1B7
100
AcDbEntity
  8
A1
  6
CONTINUOUS
 62
7
100
AcDbLine
 10
49.32496355393363
 20
75.42700311714651
 30
0.000000000000000
 11
47.90075966115852
 21
74.95827300806316
 31
0.000000000000000
  0
ARC
  5
1B8
100
AcDbEntity
  8
A1
  6
CONTINUOUS
 62
7
100
AcDbCircle
 10
56.39703733550675
 20
81.93468262339334
 30
0.000000000000000
 40
10.99349923548002
100
AcDbArc
 50
124.8338912369254
 51
219.3898851908775
  0
ARC
  5
1B9
100
AcDbEntity
  8
A1
  6
CONTINUOUS
 62
7
100
AcDbCircle
 10
56.39703733550675
 20
81.93468262339334
 30
0.000000000000000
 40
9.610625376531880
100
AcDbArc
 50
120.2632259031601
 51
222.6200738586734
  0
LINE
  5
1BA
100
AcDbEntity
  8
A1
  6
CONTINUOUS
 62
7
100
AcDbLine
 10
251.3925343384088
 20
100.1613280461763
 30
0.000000000000000
 11
251.3925343384088
 21
77.95827300802131
 31
0.000000000000000
  0
LINE
  5
1BB
100
AcDbEntity
  8
A1
  6
CONTINUOUS
 62
7
100
AcDbLine
 10
249.8925343384088
 20
100.1613280461763
 30
0.000000000000000
 11
249.8925343384088
 21
77.95827300802131
 31
0.000000000000000
  0
LINE
  5
1BC
100
AcDbEntity
  8
A1
  6
CONTINUOUS
 62
7
100
AcDbLine
 10
249.6925343384088
 20
100.1613280461763
 30
0.000000000000000
 11
249.6925343384088
 21
99.45827300802119
 31
0.000000000000000
  0
ARC
  5
1BD
100
AcDbEntity
  8
A1
  6
CONTINUOUS
 62
7
100
AcDbCircle
 10
249.8925343384088
 20
99.45827300802119
 30
0.000000000000000
 40
0.2000000000000002
100
AcDbArc
 50
180.0000000000000
 51
270.0000000000000
  0
ARC
  5
1BE
100
AcDbEntity
  8
A1
  6
CONTINUOUS
 62
7
100
AcDbCircle
 10
249.3925343384088
 20
100.1613280461763
 30
0.000000000000000
 40
0.2999999999999998
100
AcDbArc
 50
0.000000000000000
 51
33.55730976192326
  0
LINE
  5
1BF
100
AcDbEntity
  8
A4
  6
CENTER
 62
1
100
AcDbLine
 10
248.3925343384088
 20
83.95827300802131
 30
0.000000000000000
 11
252.8925343384088
 21
83.95827300802131
 31
0.000000000000000
  0
LINE
  5
1C0
100
AcDbEntity
  8
A4
  6
CENTER
 62
1
100
AcDbLine
 10
248.3925343384088
 20
97.95827300802131
 30
0.000000000000000
 11
252.8925343384088
 21
97.95827300802131
 31
0.000000000000000
  0
LINE
  5
1C1
100
AcDbEntity
  8
A1
  6
CONTINUOUS
 62
7
100
AcDbLine
 10
249.6425343384088
 20
103.7241011442694
 30
0.000000000000000
 11
249.6425343384088
 21
93.95827300802134
 31
0.000000000000000
  0
LINE
  5
1C2
100
AcDbEntity
  8
A1
  6
CONTINUOUS
 62
7
100
AcDbLine
 10
238.3925343384094
 20
90.23556422014215
 30
0.000000000000000
 11
238.3925343384094
 21
112.6534210780391
 31
0.000000000000000
  0
LINE
  5
1C3
100
AcDbEntity
  8
A1
  6
CONTINUOUS
 62
7
100
AcDbLine
 10
249.8925343384088
 20
77.95827300802131
 30
0.000000000000000
 11
251.3925343384088
 21
77.95827300802131
 31
0.000000000000000
  0
CIRCLE
  5
1C4
100
AcDbEntity
  8
A1
  6
CONTINUOUS
 62
7
100
AcDbCircle
 10
247.5458042783130
 20
132.2241011442717
 30
0.000000000000000
 40
1.750000000000000
  0
LINE
  5
1C5
100
AcDbEntity
  8
A1
  6
CONTINUOUS
 62
7
100
AcDbLine
 10
240.8925343384094
 20
114.1534210780391
 30
0.000000000000000
 11
240.8925343384094
 21
111.1534210780391
 31
0.000000000000000
  0
LINE
  5
1C6
100
AcDbEntity
  8
A1
  6
CONTINUOUS
 62
7
100
AcDbLine
 10
239.8925343384094
 20
112.6534210780391
 30
0.000000000000000
 11
239.8925343384094
 21
111.6089510780392
 31
0.000000000000000
  0
LINE
  5
1C7
100
AcDbEntity
  8
A1
  6
CONTINUOUS
 62
7
100
AcDbLine
 10
239.8925343384095
 20
111.6089510780392
 30
0.000000000000000
 11
240.7496743384096
 21
111.0121210780391
 31
0.000000000000000
  0
ARC
  5
1C8
100
AcDbEntity
  8
A1
  6
CONTINUOUS
 62
7
100
AcDbCircle
 10
241.8925343384094
 20
112.6534210780391
 30
0.000000000000000
 40
2.000000000000000
100
AcDbArc
 50
235.1500999999986
 51
292.5248501451146
  0
LINE
  5
1C9
100
AcDbEntity
  8
A1
  6
CONTINUOUS
 62
7
100
AcDbLine
 10
240.8925343384094
 20
114.1534210780391
 30
0.000000000000000
 11
241.9099522912812
 21
114.1534210780391
 31
0.000000000000000
  0
ARC
  5
1CA
100
AcDbEntity
  8
A1
  6
CONTINUOUS
 62
7
100
AcDbCircle
 10
241.8925343384094
 20
112.6534210780391
 30
0.000000000000000
 40
2.000000000000000
100
AcDbArc
 50
108.1095586172170
 51
180.0000000000000
  0
ARC
  5
1CB
100
AcDbEntity
  8
A1
  6
CONTINUOUS
 62
7
100
AcDbCircle
 10
241.8925343384094
 20
112.6534210780391
 30
0.000000000000000
 40
3.500000000000000
100
AcDbArc
 50
108.1095586172213
 51
180.0000000000000
  0
LINE
  5
1CC
100
AcDbEntity
  8
A1
  6
CONTINUOUS
 62
7
100
AcDbLine
 10
243.5458151982869
 20
115.2983375081371
 30
0.000000000000000
 11
241.2708643399664
 21
114.5543488549516
 31
0.000000000000000
  0
LINE
  5
1CD
100
AcDbEntity
  8
A1
  6
CONTINUOUS
 62
7
100
AcDbLine
 10
238.3925343384094
 20
112.6534210780391
 30
0.000000000000000
 11
239.8925343384094
 21
112.6534210780391
 31
0.000000000000000
  0
LINE
  5
1CE
100
AcDbEntity
  8
A1
  6
CONTINUOUS
 62
7
100
AcDbLine
 10
240.8925343384094
 20
111.1534210780391
 30
0.000000000000000
 11
241.8776503500570
 21
111.1534210780391
 31
0.000000000000000
  0
ARC
  5
1CF
100
AcDbEntity
  8
A1
  6
CONTINUOUS
 62
7
100
AcDbCircle
 10
249.3925343384088
 20
100.1613280461763
 30
0.000000000000000
 40
0.4999999999999998
100
AcDbArc
 50
0.000000000000000
 51
43.45184230102327
  0
ARC
  5
1D0
100
AcDbEntity
  8
A1
  6
CONTINUOUS
 62
7
100
AcDbCircle
 10
249.3925343384088
 20
100.1613280461763
 30
0.000000000000000
 40
2.000000000000000
100
AcDbArc
 50
0.000000000000000
 51
82.81924421854177
  0
LINE
  5
1D1
100
AcDbEntity
  8
A1
  6
CONTINUOUS
 62
7
100
AcDbLine
 10
249.6425343384092
 20
100.6244531755264
 30
0.000000000000000
 11
249.7555106803620
 21
100.5052003701318
 31
0.000000000000000
  0
LINE
  5
1D2
100
AcDbEntity
  8
A4
  6
CENTER
 62
1
100
AcDbLine
 10
242.7958151982700
 20
99.22410114427313
 30
0.000000000000000
 11
249.2958151982700
 21
99.22410114427313
 31
0.000000000000000
  0
LINE
  5
1D3
100
AcDbEntity
  8
A4
  6
CENTER
 62
1
100
AcDbLine
 10
246.0458151982700
 20
102.4741011442731
 30
0.000000000000000
 11
246.0458151982700
 21
95.97410114427313
 31
0.000000000000000
  0
LINE
  5
1D4
100
AcDbEntity
  8
A1
  6
CONTINUOUS
 62
7
100
AcDbLine
 10
243.5458151982780
 20
107.9241011442684
 30
0.000000000000000
 11
243.5458151982780
 21
108.3205839933318
 31
0.000000000000000
  0
LINE
  5
1D5
100
AcDbEntity
  8
A1
  6
CONTINUOUS
 62
7
100
AcDbLine
 10
243.5458151982780
 20
109.5355813467705
 30
0.000000000000000
 11
243.5458151982780
 21
110.6634816442678
 31
0.000000000000000
  0
LINE
  5
1D6
100
AcDbEntity
  8
A1
  6
CONTINUOUS
 62
7
100
AcDbLine
 10
243.5458151982780
 20
111.8788675931987
 30
0.000000000000000
 11
243.5458151982780
 21
113.0089361897265
 31
0.000000000000000
  0
LINE
  5
1D7
100
AcDbEntity
  8
A1
  6
CONTINUOUS
 62
7
100
AcDbLine
 10
243.5458151982780
 20
114.2243221386574
 30
0.000000000000000
 11
243.5458151982780
 21
115.3543907351853
 31
0.000000000000000
  0
LINE
  5
1D8
100
AcDbEntity
  8
A1
  6
CONTINUOUS
 62
7
100
AcDbLine
 10
243.5458151982780
 20
116.5697766841161
 30
0.000000000000000
 11
243.5458151982780
 21
117.6998452805302
 31
0.000000000000000
  0
LINE
  5
1D9
100
AcDbEntity
  8
A1
  6
CONTINUOUS
 62
7
100
AcDbLine
 10
248.5458151982780
 20
111.0756297351677
 30
0.000000000000000
 11
248.5458151982780
 21
112.2056983316956
 31
0.000000000000000
  0
LINE
  5
1DA
100
AcDbEntity
  8
A1
  6
CONTINUOUS
 62
7
100
AcDbLine
 10
248.5458151982780
 20
118.1119933714302
 30
0.000000000000000
 11
248.5458151982780
 21
119.2420619679559
 31
0.000000000000000
  0
LINE
  5
1DB
100
AcDbEntity
  8
A1
  6
CONTINUOUS
 62
7
100
AcDbLine
 10
248.5458151982780
 20
120.4574479168868
 30
0.000000000000000
 11
248.5458151982780
 21
121.5050174405586
 31
0.000000000000000
  0
ARC
  5
1DC
100
AcDbEntity
  8
A1
  6
CONTINUOUS
 62
7
100
AcDbCircle
 10
242.3958151982781
 20
122.6241011442685
 30
0.000000000000000
 40
0.6000000000000000
100
AcDbArc
 50
85.19502576032259
 51
265.1950257603226
  0
LINE
  5
1DD
100
AcDbEntity
  8
A1
  6
CONTINUOUS
 62
7
100
AcDbLine
 10
248.5458151982780
 20
113.4210842806266
 30
0.000000000000000
 11
248.5458151982780
 21
114.5511528771543
 31
0.000000000000000
  0
LINE
  5
1DE
100
AcDbEntity
  8
A1
  6
CONTINUOUS
 62
7
100
AcDbLine
 10
248.5458151982780
 20
115.7665388260852
 30
0.000000000000000
 11
248.5458151982780
 21
116.8966074224993
 31
0.000000000000000
  0
LINE
  5
1DF
100
AcDbEntity
  8
A1
  6
CONTINUOUS
 62
7
100
AcDbLine
 10
246.0458151982780
 20
107.9241011442683
 30
0.000000000000000
 11
246.0458151982780
 21
106.7241011442684
 31
0.000000000000000
  0
LINE
  5
1E0
100
AcDbEntity
  8
A1
  6
CONTINUOUS
 62
7
100
AcDbLine
 10
242.3958151982782
 20
107.9241011442683
 30
0.000000000000000
 11
246.0458151982780
 21
107.9241011442683
 31
0.000000000000000
  0
ARC
  5
1E1
100
AcDbEntity
  8
A1
  6
CONTINUOUS
 62
7
100
AcDbCircle
 10
242.3958151982782
 20
107.3241011442683
 30
0.000000000000000
 40
0.5999999999999943
100
AcDbArc
 50
90.00000000000000
 51
270.0000000000000
  0
ARC
  5
1E2
100
AcDbEntity
  8
A1
  6
CONTINUOUS
 62
7
100
AcDbCircle
 10
249.6958151982781
 20
110.2831920533551
 30
0.000000000000000
 40
0.6000000000000000
100
AcDbArc
 50
260.8735497493554
 51
440.8735497493540
  0
ARC
  5
1E3
100
AcDbEntity
  8
A1
  6
CONTINUOUS
 62
7
100
AcDbCircle
 10
242.3958151982781
 20
111.4559193260802
 30
0.000000000000000
 40
0.6000000000000000
100
AcDbArc
 50
80.87354974935545
 51
260.8735497493554
  0
LINE
  5
1E4
100
AcDbEntity
  8
A1
  6
CONTINUOUS
 62
7
100
AcDbLine
 10
249.7909835286823
 20
110.8755964666473
 30
0.000000000000000
 11
242.4909835286823
 21
112.0483237393725
 31
0.000000000000000
  0
LINE
  5
1E5
100
AcDbEntity
  8
A1
  6
CONTINUOUS
 62
7
100
AcDbLine
 10
242.3006468678739
 20
110.8635149127880
 30
0.000000000000000
 11
249.6006468678739
 21
109.6907876400629
 31
0.000000000000000
  0
LINE
  5
1E6
100
AcDbEntity
  8
A1
  6
CONTINUOUS
 62
7
100
AcDbLine
 10
242.3006468678739
 20
113.2089694582468
 30
0.000000000000000
 11
249.6006468678740
 21
112.0362421855216
 31
0.000000000000000
  0
ARC
  5
1E7
100
AcDbEntity
  8
A1
  6
CONTINUOUS
 62
7
100
AcDbCircle
 10
242.3958151982781
 20
113.8013738715391
 30
0.000000000000000
 40
0.6000000000000000
100
AcDbArc
 50
80.87354974935545
 51
260.8735497493554
  0
LINE
  5
1E8
100
AcDbEntity
  8
A1
  6
CONTINUOUS
 62
7
100
AcDbLine
 10
249.7909835286824
 20
113.2210510121061
 30
0.000000000000000
 11
242.4909835286823
 21
114.3937782848313
 31
0.000000000000000
  0
ARC
  5
1E9
100
AcDbEntity
  8
A1
  6
CONTINUOUS
 62
7
100
AcDbCircle
 10
249.6958151982781
 20
112.6286465988139
 30
0.000000000000000
 40
0.6000000000000000
100
AcDbArc
 50
260.8735497493554
 51
440.8735497493540
  0
LINE
  5
1EA
100
AcDbEntity
  8
A1
  6
CONTINUOUS
 62
7
100
AcDbLine
 10
242.3006468678740
 20
115.5544240037056
 30
0.000000000000000
 11
249.6006468678739
 21
114.3816967309805
 31
0.000000000000000
  0
ARC
  5
1EB
100
AcDbEntity
  8
A1
  6
CONTINUOUS
 62
7
100
AcDbCircle
 10
242.3958151982781
 20
116.1468284169979
 30
0.000000000000000
 40
0.6000000000000000
100
AcDbArc
 50
80.87354974935545
 51
260.8735497493554
  0
LINE
  5
1EC
100
AcDbEntity
  8
A1
  6
CONTINUOUS
 62
7
100
AcDbLine
 10
249.7909835286823
 20
115.5665055575649
 30
0.000000000000000
 11
242.4909835286824
 21
116.7392328302901
 31
0.000000000000000
  0
ARC
  5
1ED
100
AcDbEntity
  8
A1
  6
CONTINUOUS
 62
7
100
AcDbCircle
 10
249.6958151982781
 20
114.9741011442727
 30
0.000000000000000
 40
0.6000000000000000
100
AcDbArc
 50
260.8735497493554
 51
440.8735497493540
  0
LINE
  5
1EE
100
AcDbEntity
  8
A1
  6
CONTINUOUS
 62
7
100
AcDbLine
 10
242.3006468678739
 20
117.8998785490505
 30
0.000000000000000
 11
249.6006468678740
 21
116.7271512763253
 31
0.000000000000000
  0
ARC
  5
1EF
100
AcDbEntity
  8
A1
  6
CONTINUOUS
 62
7
100
AcDbCircle
 10
242.3958151982781
 20
118.4922829623427
 30
0.000000000000000
 40
0.6000000000000000
100
AcDbArc
 50
80.87354974935545
 51
260.8735497493554
  0
LINE
  5
1F0
100
AcDbEntity
  8
A1
  6
CONTINUOUS
 62
7
100
AcDbLine
 10
249.7909835286823
 20
117.9119601029097
 30
0.000000000000000
 11
242.4909835286823
 21
119.0846873756349
 31
0.000000000000000
  0
ARC
  5
1F1
100
AcDbEntity
  8
A1
  6
CONTINUOUS
 62
7
100
AcDbCircle
 10
249.6958151982781
 20
117.3195556896175
 30
0.000000000000000
 40
0.6000000000000000
100
AcDbArc
 50
260.8735497493554
 51
440.8735497493540
  0
LINE
  5
1F2
100
AcDbEntity
  8
A1
  6
CONTINUOUS
 62
7
100
AcDbLine
 10
242.3006468678739
 20
120.2453330945072
 30
0.000000000000000
 11
249.6006468678740
 21
119.0726058217820
 31
0.000000000000000
  0
ARC
  5
1F3
100
AcDbEntity
  8
A1
  6
CONTINUOUS
 62
7
100
AcDbCircle
 10
242.3958151982781
 20
120.8377375077993
 30
0.000000000000000
 40
0.6000000000000000
100
AcDbArc
 50
80.87354974935545
 51
260.8735497493554
  0
LINE
  5
1F4
100
AcDbEntity
  8
A1
  6
CONTINUOUS
 62
7
100
AcDbLine
 10
249.7909835286823
 20
120.2574146483664
 30
0.000000000000000
 11
242.4909835286823
 21
121.4301419210915
 31
0.000000000000000
  0
ARC
  5
1F5
100
AcDbEntity
  8
A1
  6
CONTINUOUS
 62
7
100
AcDbCircle
 10
249.6958151982781
 20
119.6650102350742
 30
0.000000000000000
 40
0.6000000000000000
100
AcDbArc
 50
260.8735497493554
 51
440.8735497493540
  0
ARC
  5
1F6
100
AcDbEntity
  8
A1
  6
CONTINUOUS
 62
7
100
AcDbCircle
 10
242.3958151982782
 20
109.1104647806214
 30
0.000000000000000
 40
0.6000000000000000
100
AcDbArc
 50
80.98833541008592
 51
260.9883354102016
  0
LINE
  5
1F7
100
AcDbEntity
  8
A1
  6
CONTINUOUS
 62
7
100
AcDbLine
 10
242.3018338737865
 20
108.5178708972182
 30
0.000000000000000
 11
249.6018338737952
 21
107.3601409779512
 31
0.000000000000000
  0
LINE
  5
1F8
100
AcDbEntity
  8
A1
  6
CONTINUOUS
 62
7
100
AcDbLine
 10
242.4897965227700
 20
109.7030586640246
 30
0.000000000000000
 11
249.7897965227774
 21
108.5453287447427
 31
0.000000000000000
  0
ARC
  5
1F9
100
AcDbEntity
  8
A1
  6
CONTINUOUS
 62
7
100
AcDbCircle
 10
249.6958151982856
 20
107.9527348613471
 30
0.000000000000000
 40
0.5999999999913473
100
AcDbArc
 50
260.9883354102022
 51
440.9883354100871
  0
LINE
  5
1FA
100
AcDbEntity
  8
A1
  6
CONTINUOUS
 62
7
100
AcDbLine
 10
249.7418286068250
 20
107.3545018246266
 30
0.000000000000000
 11
248.5458151982780
 21
107.2625098245062
 31
0.000000000000000
  0
LINE
  5
1FB
100
AcDbEntity
  8
A1
  6
CONTINUOUS
 62
7
100
AcDbLine
 10
243.5458151982781
 20
108.0253530711195
 30
0.000000000000000
 11
242.3443371926442
 21
107.9218887444539
 31
0.000000000000000
  0
LINE
  5
1FC
100
AcDbEntity
  8
A1
  6
CONTINUOUS
 62
7
100
AcDbLine
 10
242.3006468678733
 20
109.7028691939136
 30
0.000000000000000
 11
243.5458151982780
 21
109.9029024624355
 31
0.000000000000000
  0
LINE
  5
1FD
100
AcDbEntity
  8
A1
  6
CONTINUOUS
 62
7
100
AcDbLine
 10
249.7909835286829
 20
109.6907876400630
 30
0.000000000000000
 11
248.5458151982779
 21
109.4907543715411
 31
0.000000000000000
  0
LINE
  5
1FE
100
AcDbEntity
  8
A1
  6
CONTINUOUS
 62
7
100
AcDbLine
 10
242.3006468678734
 20
112.0483237393702
 30
0.000000000000000
 11
243.5458151982779
 21
112.2483570078921
 31
0.000000000000000
  0
LINE
  5
1FF
100
AcDbEntity
  8
A1
  6
CONTINUOUS
 62
7
100
AcDbLine
 10
249.7909835286828
 20
112.0362421855197
 30
0.000000000000000
 11
248.5458151982779
 21
111.8362089169978
 31
0.000000000000000
  0
LINE
  5
200
100
AcDbEntity
  8
A1
  6
CONTINUOUS
 62
7
100
AcDbLine
 10
242.3006468678733
 20
114.3937782848269
 30
0.000000000000000
 11
243.5458151982780
 21
114.5938115533488
 31
0.000000000000000
  0
LINE
  5
201
100
AcDbEntity
  8
A1
  6
CONTINUOUS
 62
7
100
AcDbLine
 10
249.7909835286829
 20
114.3816967309763
 30
0.000000000000000
 11
248.5458151982778
 21
114.1816634624544
 31
0.000000000000000
  0
LINE
  5
202
100
AcDbEntity
  8
A1
  6
CONTINUOUS
 62
7
100
AcDbLine
 10
242.3006468678733
 20
116.7392328302544
 30
0.000000000000000
 11
243.5458151982780
 21
116.9392660987763
 31
0.000000000000000
  0
LINE
  5
203
100
AcDbEntity
  8
A1
  6
CONTINUOUS
 62
7
100
AcDbLine
 10
249.7909835286829
 20
116.7271512764038
 30
0.000000000000000
 11
248.5458151982779
 21
116.5271180078819
 31
0.000000000000000
  0
LINE
  5
204
100
AcDbEntity
  8
A1
  6
CONTINUOUS
 62
7
100
AcDbLine
 10
242.3006468678733
 20
119.0846873757111
 30
0.000000000000000
 11
243.5458151982779
 21
119.2847206442329
 31
0.000000000000000
  0
LINE
  5
205
100
AcDbEntity
  8
A1
  6
CONTINUOUS
 62
7
100
AcDbLine
 10
249.7909835286830
 20
119.0726058218604
 30
0.000000000000000
 11
248.5458151982779
 21
118.8725725533385
 31
0.000000000000000
  0
LINE
  5
206
100
AcDbEntity
  8
A1
  6
CONTINUOUS
 62
7
100
AcDbLine
 10
248.5458151982780
 20
106.7241011442683
 30
0.000000000000000
 11
248.5458151982780
 21
107.5276182952047
 31
0.000000000000000
  0
LINE
  5
207
100
AcDbEntity
  8
A1
  6
CONTINUOUS
 62
7
100
AcDbLine
 10
248.5458151982780
 20
108.7426156486331
 30
0.000000000000000
 11
248.5458151982780
 21
109.8602437862369
 31
0.000000000000000
  0
ARC
  5
208
100
AcDbEntity
  8
A1
  6
CONTINUOUS
 62
7
100
AcDbCircle
 10
249.6958151982781
 20
122.0104647806092
 30
0.000000000000000
 40
0.6000000000000000
100
AcDbArc
 50
265.1950257603226
 51
445.1950257603226
  0
LINE
  5
209
100
AcDbEntity
  8
A1
  6
CONTINUOUS
 62
7
100
AcDbLine
 10
249.6455565850392
 20
121.4125734261013
 30
0.000000000000000
 11
242.3455565850393
 21
122.0262097897605
 31
0.000000000000000
  0
LINE
  5
20A
100
AcDbEntity
  8
A1
  6
CONTINUOUS
 62
7
100
AcDbLine
 10
249.7460738115169
 20
122.6083561351172
 30
0.000000000000000
 11
242.4460738115170
 21
123.2219924987763
 31
0.000000000000000
  0
LINE
  5
20B
100
AcDbEntity
  8
A1
  6
CONTINUOUS
 62
7
100
AcDbLine
 10
243.5458151982779
 20
121.6271870821598
 30
0.000000000000000
 11
242.3020342825933
 21
121.4303631399257
 31
0.000000000000000
  0
LINE
  5
20C
100
AcDbEntity
  8
A1
  6
CONTINUOUS
 62
7
100
AcDbLine
 10
248.5458151982781
 20
121.2180270987823
 30
0.000000000000000
 11
249.7909835286891
 21
121.4180603673182
 31
0.000000000000000
  0
LINE
  5
20D
100
AcDbEntity
  8
A1
  6
CONTINUOUS
 62
7
100
AcDbLine
 10
243.5458151982780
 20
118.9152312294611
 30
0.000000000000000
 11
243.5458151982780
 21
120.0452998259868
 31
0.000000000000000
  0
LINE
  5
20E
100
AcDbEntity
  8
A1
  6
CONTINUOUS
 62
7
100
AcDbLine
 10
243.5458151982780
 20
121.2606857749177
 30
0.000000000000000
 11
243.5458151982780
 21
121.9253163197771
 31
0.000000000000000
  0
ARC
  5
20F
100
AcDbEntity
  8
A1
  6
CONTINUOUS
 62
7
100
AcDbCircle
 10
247.5458151983049
 20
132.2241011442717
 30
0.000000000000000
 40
3.000000000000000
100
AcDbArc
 50
312.7339555491995
 51
547.2660444506835
  0
LINE
  5
210
100
AcDbEntity
  8
A1
  6
CONTINUOUS
 62
7
100
AcDbLine
 10
244.4914910578291
 20
131.1419255370319
 30
0.000000000000000
 11
243.9378131631937
 21
129.6207080238765
 31
0.000000000000000
  0
ARC
  5
211
100
AcDbEntity
  8
A1
  6
CONTINUOUS
 62
7
100
AcDbCircle
 10
243.0819521266506
 20
131.6549557520202
 30
0.000000000000000
 40
1.500000000000000
100
AcDbArc
 50
339.9999999999905
 51
367.2660444507252
  0
LINE
  5
212
100
AcDbEntity
  8
A1
  6
CONTINUOUS
 62
7
100
AcDbLine
 10
249.1899541617558
 20
129.4318248203990
 30
0.000000000000000
 11
248.6362762671212
 21
127.9106073072436
 31
0.000000000000000
  0
ARC
  5
213
100
AcDbEntity
  8
A1
  6
CONTINUOUS
 62
7
100
AcDbCircle
 10
250.5994930929344
 20
128.9187946054085
 30
0.000000000000000
 40
1.500000000000000
100
AcDbArc
 50
132.7339555492006
 51
159.9999999999513
  0
ARC
  5
214
100
AcDbEntity
  8
A1
  6
CONTINUOUS
 62
7
100
AcDbCircle
 10
250.0458151982998
 20
127.3975770922549
 30
0.000000000000000
 40
1.500000000000000
100
AcDbArc
 50
159.9999999999933
 51
180.0000000000000
  0
ARC
  5
215
100
AcDbEntity
  8
A1
  6
CONTINUOUS
 62
7
100
AcDbCircle
 10
250.0458151982997
 20
127.3975770922530
 30
0.000000000000000
 40
6.500000000000000
100
AcDbArc
 50
159.9999999999427
 51
179.9999999999395
  0
LINE
  5
216
100
AcDbEntity
  8
A1
  6
CONTINUOUS
 62
7
100
AcDbLine
 10
241.5458151982777
 20
106.7241011442779
 30
0.000000000000000
 11
250.5458151982777
 21
106.7241011442684
 31
0.000000000000000
  0
LINE
  5
217
100
AcDbEntity
  8
A1
  6
CONTINUOUS
 62
7
100
AcDbLine
 10
251.0458151982751
 20
104.2241011442679
 30
0.000000000000000
 11
251.0458151982772
 21
106.2241011442679
 31
0.000000000000000
  0
ARC
  5
218
100
AcDbEntity
  8
A1
  6
CONTINUOUS
 62
7
100
AcDbCircle
 10
250.5458151982969
 20
106.2241011442779
 30
0.000000000000000
 40
0.4999999999999998
100
AcDbArc
 50
6.045598338525852e-11
 51
90.00000000006045
  0
ARC
  5
219
100
AcDbEntity
  8
A1
  6
CONTINUOUS
 62
7
100
AcDbCircle
 10
250.5458151982990
 20
104.2241011442779
 30
0.000000000000000
 40
0.4999999999999998
100
AcDbArc
 50
270.0000000000605
 51
360.0000000000604
  0
LINE
  5
21A
100
AcDbEntity
  8
A1
  6
CONTINUOUS
 62
7
100
AcDbLine
 10
241.5458151982745
 20
103.7241011442779
 30
0.000000000000000
 11
250.5458151982745
 21
103.7241011442684
 31
0.000000000000000
  0
LINE
  5
21B
100
AcDbEntity
  8
A1
  6
CONTINUOUS
 62
7
100
AcDbLine
 10
241.0458151982751
 20
104.2241011442784
 30
0.000000000000000
 11
241.0458151982772
 21
106.2241011442784
 31
0.000000000000000
  0
ARC
  5
21C
100
AcDbEntity
  8
A1
  6
CONTINUOUS
 62
7
100
AcDbCircle
 10
241.5458151982774
 20
106.2241011442779
 30
0.000000000000000
 40
0.4999999999999998
100
AcDbArc
 50
89.99999999993955
 51
179.9999999999395
  0
ARC
  5
21D
100
AcDbEntity
  8
A1
  6
CONTINUOUS
 62
7
100
AcDbCircle
 10
241.5458151982753
 20
104.2241011442779
 30
0.000000000000000
 40
0.4999999999999998
100
AcDbArc
 50
179.9999999999395
 51
269.9999999999396
  0
LINE
  5
21E
100
AcDbEntity
  8
A1
  6
CONTINUOUS
 62
7
100
AcDbLine
 10
243.5458151982725
 20
101.7856539570847
 30
0.000000000000000
 11
243.5458151982745
 21
103.7241011442758
 31
0.000000000000000
  0
ARC
  5
21F
100
AcDbEntity
  8
A1
  6
CONTINUOUS
 62
7
100
AcDbCircle
 10
242.0458151982727
 20
101.7856539570863
 30
0.000000000000000
 40
1.500000000000000
100
AcDbArc
 50
332.7339555491915
 51
359.9999999999396
  0
ARC
  5
220
100
AcDbEntity
  8
A1
  6
CONTINUOUS
 62
7
100
AcDbCircle
 10
246.0458151982706
 20
99.72410114427313
 30
0.000000000000000
 40
3.000000000000000
100
AcDbArc
 50
152.7339555492148
 51
387.2660444506676
  0
LINE
  5
221
100
AcDbEntity
  8
A1
  6
CONTINUOUS
 62
7
100
AcDbLine
 10
248.5458151982728
 20
101.7856539570795
 30
0.000000000000000
 11
248.5458151982748
 21
103.7241011442706
 31
0.000000000000000
  0
ARC
  5
222
100
AcDbEntity
  8
A1
  6
CONTINUOUS
 62
7
100
AcDbCircle
 10
250.0458151982727
 20
101.7856539570779
 30
0.000000000000000
 40
1.500000000000000
100
AcDbArc
 50
179.9999999999395
 51
207.2660444506632
  0
CIRCLE
  5
223
100
AcDbEntity
  8
A1
  6
CONTINUOUS
 62
7
100
AcDbCircle
 10
246.0458151982700
 20
99.22410114427313
 30
0.000000000000000
 40
1.750000000000000
  0
LINE
  5
224
100
AcDbEntity
  8
A1
  6
CONTINUOUS
 62
7
100
AcDbLine
 10
241.0458151982978
 20
125.7241011442729
 30
0.000000000000000
 11
241.0458151982957
 21
123.7241011442729
 31
0.000000000000000
  0
ARC
  5
225
100
AcDbEntity
  8
A1
  6
CONTINUOUS
 62
7
100
AcDbCircle
 10
241.5458151981002
 20
123.7241011442864
 30
0.000000000000000
 40
0.4999999999999998
100
AcDbArc
 50
179.9999999997599
 51
269.9999999997599
  0
LINE
  5
226
100
AcDbEntity
  8
A1
  6
CONTINUOUS
 62
7
100
AcDbLine
 10
241.5458151982954
 20
123.2241011442724
 30
0.000000000000000
 11
243.5458151982954
 21
123.2241011442703
 31
0.000000000000000
  0
LINE
  5
227
100
AcDbEntity
  8
A1
  6
CONTINUOUS
 62
7
100
AcDbLine
 10
243.5458151982983
 20
126.2241011442703
 30
0.000000000000000
 11
241.5458151982983
 21
126.2241011442724
 31
0.000000000000000
  0
ARC
  5
228
100
AcDbEntity
  8
A1
  6
CONTINUOUS
 62
7
100
AcDbCircle
 10
241.5458151982980
 20
125.7241011442723
 30
0.000000000000000
 40
0.4999999999999998
100
AcDbArc
 50
89.99999999993955
 51
179.9999999999395
  0
LINE
  5
229
100
AcDbEntity
  8
A1
  6
CONTINUOUS
 62
7
100
AcDbLine
 10
250.5458151982983
 20
126.2241011442629
 30
0.000000000000000
 11
248.6372286616387
 21
126.2241011442649
 31
0.000000000000000
  0
ARC
  5
22A
100
AcDbEntity
  8
A1
  6
CONTINUOUS
 62
7
100
AcDbCircle
 10
250.5458151984657
 20
125.7241011442864
 30
0.000000000000000
 40
0.4999999999999998
100
AcDbArc
 50
2.400937117943179e-10
 51
90.00000000024009
  0
LINE
  5
22B
100
AcDbEntity
  8
A1
  6
CONTINUOUS
 62
7
100
AcDbLine
 10
251.0458151982978
 20
125.7241011442624
 30
0.000000000000000
 11
251.0458151982957
 21
123.7241011442624
 31
0.000000000000000
  0
ARC
  5
22C
100
AcDbEntity
  8
A1
  6
CONTINUOUS
 62
7
100
AcDbCircle
 10
250.5458151984741
 20
123.7241011442864
 30
0.000000000000000
 40
0.4999999999999998
100
AcDbArc
 50
270.0000000002401
 51
360.0000000002400
  0
LINE
  5
22D
100
AcDbEntity
  8
A1
  6
CONTINUOUS
 62
7
100
AcDbLine
 10
248.5458151982953
 20
123.2241011442650
 30
0.000000000000000
 11
250.5458151982954
 21
123.2241011442629
 31
0.000000000000000
  0
LINE
  5
22E
100
AcDbEntity
  8
A1
  6
CONTINUOUS
 62
7
100
AcDbLine
 10
242.3289611182622
 20
112.0521831368094
 30
0.000000000000000
 11
242.3289611182622
 21
113.2051100608099
 31
0.000000000000000
  0
LINE
  5
22F
100
AcDbEntity
  8
A1
  6
CONTINUOUS
 62
7
100
AcDbLine
 10
248.5458151982948
 20
122.7092496050991
 30
0.000000000000000
 11
248.5458151982997
 21
127.3975770922548
 31
0.000000000000000
  0
LINE
  5
230
100
AcDbEntity
  8
A1
  6
CONTINUOUS
 62
7
100
AcDbLine
 10
243.5458151982953
 20
123.1295484843178
 30
0.000000000000000
 11
243.5458151982998
 21
127.3975770922601
 31
0.000000000000000
  0
LINE
  5
231
100
AcDbEntity
  8
A1
  6
CONTINUOUS
 62
7
100
AcDbLine
 10
243.5458151982933
 20
121.2606857749153
 30
0.000000000000000
 11
243.5458151982940
 21
121.9253163197758
 31
0.000000000000000
  0
LINE
  5
232
100
AcDbEntity
  8
A1
  6
CONTINUOUS
 62
7
100
AcDbLine
 10
248.5458151982924
 20
120.4574479168844
 30
0.000000000000000
 11
248.5458151982935
 21
121.5050174405573
 31
0.000000000000000
  0
LINE
  5
233
100
AcDbEntity
  8
A1
  6
CONTINUOUS
 62
7
100
AcDbLine
 10
248.5458151982899
 20
118.1119933714283
 30
0.000000000000000
 11
248.5458151982911
 21
119.2420619679538
 31
0.000000000000000
  0
LINE
  5
234
100
AcDbEntity
  8
A1
  6
CONTINUOUS
 62
7
100
AcDbLine
 10
243.5458151982908
 20
118.9152312294591
 30
0.000000000000000
 11
243.5458151982920
 21
120.0452998259846
 31
0.000000000000000
  0
LINE
  5
235
100
AcDbEntity
  8
A1
  6
CONTINUOUS
 62
7
100
AcDbLine
 10
243.5458151982883
 20
116.5697766841146
 30
0.000000000000000
 11
243.5458151982895
 21
117.6998452805283
 31
0.000000000000000
  0
LINE
  5
236
100
AcDbEntity
  8
A1
  6
CONTINUOUS
 62
7
100
AcDbLine
 10
248.5458151982874
 20
115.7665388260838
 30
0.000000000000000
 11
248.5458151982886
 21
116.8966074224975
 31
0.000000000000000
  0
LINE
  5
237
100
AcDbEntity
  8
A1
  6
CONTINUOUS
 62
7
100
AcDbLine
 10
248.5458151982849
 20
113.4210842806254
 30
0.000000000000000
 11
248.5458151982861
 21
114.5511528771530
 31
0.000000000000000
  0
LINE
  5
238
100
AcDbEntity
  8
A1
  6
CONTINUOUS
 62
7
100
AcDbLine
 10
243.5458151982858
 20
114.2243221386561
 30
0.000000000000000
 11
243.5458151982870
 21
115.3543907351839
 31
0.000000000000000
  0
LINE
  5
239
100
AcDbEntity
  8
A1
  6
CONTINUOUS
 62
7
100
AcDbLine
 10
243.5458151982779
 20
106.7241011442759
 30
0.000000000000000
 11
243.5458151982821
 21
110.6634816442671
 31
0.000000000000000
  0
LINE
  5
23A
100
AcDbEntity
  8
A1
  6
CONTINUOUS
 62
7
100
AcDbLine
 10
243.5458151982833
 20
111.8788675931978
 30
0.000000000000000
 11
243.5458151982845
 21
113.0089361897254
 31
0.000000000000000
  0
LINE
  5
23B
100
AcDbEntity
  8
A1
  6
CONTINUOUS
 62
7
100
AcDbLine
 10
248.5458151982825
 20
111.0756297351670
 30
0.000000000000000
 11
248.5458151982837
 21
112.2056983316946
 31
0.000000000000000
  0
LINE
  5
23C
100
AcDbEntity
  8
A1
  6
CONTINUOUS
 62
7
100
AcDbLine
 10
248.5458151982779
 20
106.7241011442706
 30
0.000000000000000
 11
248.5458151982787
 21
107.5276182952045
 31
0.000000000000000
  0
LINE
  5
23D
100
AcDbEntity
  8
A1
  6
CONTINUOUS
 62
7
100
AcDbLine
 10
248.5458151982801
 20
108.7426156486327
 30
0.000000000000000
 11
248.5458151982813
 21
109.8602437862363
 31
0.000000000000000
  0
LINE
  5
23E
100
AcDbEntity
  8
A1
  6
CONTINUOUS
 62
7
100
AcDbLine
 10
244.1436715298023
 20
128.1235758546196
 30
0.000000000000000
 11
248.1436715298023
 21
128.1235758546196
 31
0.000000000000000
  0
LINE
  5
23F
100
AcDbEntity
  8
A4
  6
CENTER
 62
1
100
AcDbLine
 10
244.2958042783130
 20
132.2241011442717
 30
0.000000000000000
 11
250.7958042783130
 21
132.2241011442717
 31
0.000000000000000
  0
LINE
  5
240
100
AcDbEntity
  8
A4
  6
CENTER
 62
1
100
AcDbLine
 10
247.5458042783130
 20
135.4741011442717
 30
0.000000000000000
 11
247.5458042783130
 21
128.9741011442717
 31
0.000000000000000
  0
LINE
  5
241
100
AcDbEntity
  8
A1
  6
CONTINUOUS
 62
7
100
AcDbLine
 10
241.8189297209818
 20
116.3117621797165
 30
0.000000000000000
 11
240.8046118411354
 21
115.9800446876357
 31
0.000000000000000
  0
ARC
  5
242
100
AcDbEntity
  8
A1
  6
CONTINUOUS
 62
7
100
AcDbCircle
 10
247.8478590091016
 20
111.6534210780395
 30
0.000000000000000
 40
3.000000000000000
100
AcDbArc
 50
0.000000000000000
 51
61.79842829968837
  0
LINE
  5
243
100
AcDbEntity
  8
A1
  6
CONTINUOUS
 62
7
100
AcDbLine
 10
250.8478590091016
 20
111.6534210780395
 30
0.000000000000000
 11
250.8478590091016
 21
107.0515899558867
 31
0.000000000000000
  0
ARC
  5
244
100
AcDbEntity
  8
A1
  6
CONTINUOUS
 62
7
100
AcDbCircle
 10
250.5458151982776
 20
106.6531310039947
 30
0.000000000000000
 40
0.5000000000000002
100
AcDbArc
 50
0.000000000000000
 51
52.83678363485123
  0
LINE
  5
245
100
AcDbEntity
  8
A1
  6
CONTINUOUS
 62
7
100
AcDbLine
 10
251.0458151982777
 20
106.6531310039947
 30
0.000000000000000
 11
251.0458151982777
 21
106.2241011442680
 31
0.000000000000000
  0
LINE
  5
246
100
AcDbEntity
  8
A1
  6
CONTINUOUS
 62
7
100
AcDbLine
 10
249.8925343384088
 20
90.45827300802134
 30
0.000000000000000
 11
251.3925343384088
 21
90.45827300802134
 31
0.000000000000000
  0
ARC
  5
247
100
AcDbEntity
  8
A1
  6
CONTINUOUS
 62
7
100
AcDbCircle
 10
246.6425343384088
 20
93.95827300802134
 30
0.000000000000000
 40
3.000000000000000
100
AcDbArc
 50
270.0000000000000
 51
360.0000000000000
  0
LINE
  5
248
100
AcDbEntity
  8
A1
  6
CONTINUOUS
 62
7
100
AcDbLine
 10
238.3925343384094
 20
90.95827300802134
 30
0.000000000000000
 11
246.6425343384088
 21
90.95827300802134
 31
0.000000000000000
  0
LINE
  5
249
100
AcDbEntity
  8
A1
  6
CONTINUOUS
 62
7
100
AcDbLine
 10
240.6211088845020
 20
75.42700311710470
 30
0.000000000000000
 11
242.0453127772771
 21
74.95827300802137
 31
0.000000000000000
  0
ARC
  5
24A
100
AcDbEntity
  8
A1
  6
CONTINUOUS
 62
7
100
AcDbCircle
 10
233.5490351029288
 20
81.93468262335152
 30
0.000000000000000
 40
10.99349923548002
100
AcDbArc
 50
320.6101148091225
 51
415.1661087630746
  0
ARC
  5
24B
100
AcDbEntity
  8
A1
  6
CONTINUOUS
 62
7
100
AcDbCircle
 10
233.5490351029288
 20
81.93468262335152
 30
0.000000000000000
 40
9.610625376531880
100
AcDbArc
 50
317.3799261413266
 51
419.7367740968399
  0
SPLINE
  5
24C
100
AcDbEntity
  8
A1
  6
CONTINUOUS
 62
7
100
AcDbSpline
210
0.000000000000000
220
0.000000000000000
230
1.000000000000000
 70
     8
 71
     3
 72
    48
 73
    44
 74
     0
 42
1.000000000000000e-07
 43
1.000000000000000e-07
 12
0.3203592050558655
 22
0.9472961415185637
 32
0.000000000000000
 13
0.2980650328954653
 23
-0.9545455652641976
 33
0.000000000000000
 40
0.000000000000000
 40
0.000000000000000
 40
0.000000000000000
 40
0.000000000000000
 40
0.03813781284008240
 40
0.1123223596748569
 40
0.2270679483911048
 40
0.3821793172875964
 40
0.5679979663291742
 40
0.7893144431329775
 40
1.048362704322747
 40
1.340221663122462
 40
1.656959643372949
 40
2.000728755520312
 40
2.373575888140652
 40
2.769226001255694
 40
3.218723754881740
 40
3.689623793774325
 40
4.186076047105860
 40
4.699777315850967
 40
5.187467546028937
 40
5.686148424998571
 40
6.201381001655317
 40
6.724441332400010
 40
7.132169292030407
 40
7.648319996392075
 40
8.166259520265568
 40
8.691817001555714
 40
9.214449409878545
 40
9.708616325094997
 40
10.19509109008103
 40
10.67740309505593
 40
11.14629013537187
 40
11.60616667608051
 40
12.04517623668922
 40
12.46507175704438
 40
12.85436595146742
 40
13.18638364904241
 40
13.48201738821597
 40
13.74077654241340
 40
13.95200684512037
 40
14.07405341143681
 40
14.16680483193950
 40
14.23030611109473
 40
14.26435408021191
 40
14.26435408021191
 40
14.26435408021191
 40
14.26435408021191
 10
133.3342559509059
 20
46.84873692342423
 30
0.000000000000000
 10
133.3383285507072
 20
46.86077952440736
 30
0.000000000000000
 10
133.3530905137673
 20
46.89569200388631
 30
0.000000000000000
 10
133.4066918660761
 20
46.95077576422976
 30
0.000000000000000
 10
133.4877800641285
 20
47.03111580126405
 30
0.000000000000000
 10
133.6037256077223
 20
47.12978620073938
 30
0.000000000000000
 10
133.7502418991974
 20
47.24651833365503
 30
0.000000000000000
 10
133.9286074460596
 20
47.37892689299512
 30
0.000000000000000
 10
134.1396672292687
 20
47.52631386268442
 30
0.000000000000000
 10
134.3814796886288
 20
47.68505203093928
 30
0.000000000000000
 10
134.6517094675703
 20
47.85172429512298
 30
0.000000000000000
 10
134.9500151700033
 20
48.02404671569025
 30
0.000000000000000
 10
135.2765838218349
 20
48.19971059665838
 30
0.000000000000000
 10
135.6402359014374
 20
48.38040990948911
 30
0.000000000000000
 10
136.0399719327735
 20
48.56138335007590
 30
0.000000000000000
 10
136.4778659492822
 20
48.73867372791731
 30
0.000000000000000
 10
136.9433798473547
 20
48.90358564302588
 30
0.000000000000000
 10
137.4217258089316
 20
49.04739735126217
 30
0.000000000000000
 10
137.9074211483784
 20
49.16711027660238
 30
0.000000000000000
 10
138.3991950888891
 20
49.26162213147865
 30
0.000000000000000
 10
138.9071554484713
 20
49.33042567056825
 30
0.000000000000000
 10
139.3880520218124
 20
49.36724183881497
 30
0.000000000000000
 10
139.8703920006357
 20
49.37850113661387
 30
0.000000000000000
 10
140.3510804993601
 20
49.36429094738309
 30
0.000000000000000
 10
140.8692245311246
 20
49.31837162815694
 30
0.000000000000000
 10
141.3859563803462
 20
49.24206474411222
 30
0.000000000000000
 10
141.8897478567708
 20
49.13821511400482
 30
0.000000000000000
 10
142.3747020446087
 20
49.01124623105921
 30
0.000000000000000
 10
142.8400554548390
 20
48.86486805559495
 30
0.000000000000000
 10
143.2902660328623
 20
48.70018724604109
 30
0.000000000000000
 10
143.7247538220148
 20
48.51967484499810
 30
0.000000000000000
 10
144.1384704632356
 20
48.32780525615701
 30
0.000000000000000
 10
144.5300134488575
 20
48.12774426080973
 30
0.000000000000000
 10
144.8935163170881
 20
47.92513587297097
 30
0.000000000000000
 10
145.2192273653543
 20
47.72847946473660
 30
0.000000000000000
 10
145.5035618791783
 20
47.54380361660493
 30
0.000000000000000
 10
145.7460804747173
 20
47.37496261907717
 30
0.000000000000000
 10
145.9505938728017
 20
47.22211891726650
 30
0.000000000000000
 10
146.1036138614174
 20
47.09760164843610
 30
0.000000000000000
 10
146.2102460234809
 20
47.00336081997035
 30
0.000000000000000
 10
146.2747356835331
 20
46.93724615784534
 30
0.000000000000000
 10
146.3186783595134
 20
46.89016666333945
 30
0.000000000000000
 10
146.3308731145607
 20
46.85957036939992
 30
0.000000000000000
 10
146.3342559509057
 20
46.84873692342423
 30
0.000000000000000
  0
SPLINE
  5
24D
100
AcDbEntity
  8
A1
  6
CONTINUOUS
 62
7
100
AcDbSpline
210
0.000000000000000
220
0.000000000000000
230
1.000000000000000
 70
     8
 71
     3
 72
    47
 73
    43
 74
     0
 42
1.000000000000000e-07
 43
1.000000000000000e-07
 12
-0.2046084981193417
 22
0.9788438907694399
 32
0.000000000000000
 13
-0.1692533398527303
 23
-0.9855725782240370
 33
0.000000000000000
 40
0.000000000000000
 40
0.000000000000000
 40
0.000000000000000
 40
0.000000000000000
 40
0.05377107798671010
 40
0.1430963315001821
 40
0.2702762189476430
 40
0.4391242073933744
 40
0.6383823166309237
 40
0.8761660347912710
 40
1.146973129980272
 40
1.453804231294772
 40
1.785790341453017
 40
2.148877974116208
 40
2.535400500603139
 40
2.948964301792804
 40
3.408169634027457
 40
3.893829557846512
 40
4.395459176003460
 40
4.919440113416305
 40
5.450325647498648
 40
5.993564576573670
 40
6.556123159096816
 40
7.126595051118321
 40
7.647985520557175
 40
8.176886599877871
 40
8.700989709369761
 40
9.227558706766207
 40
9.725156719329556
 40
10.21906720223196
 40
10.69847729253760
 40
11.16820808557377
 40
11.62129571434508
 40
12.05294771803287
 40
12.46500864657382
 40
12.84645276695622
 40
13.17272593905914
 40
13.46678586098149
 40
13.71793687375308
 40
13.92717103849417
 40
14.04649613740101
 40
14.14071701420185
 40
14.20873077980303
 40
14.25337379334857
 40
14.25337379334857
 40
14.25337379334857
 40
14.25337379334857
 10
146.3342559509057
 20
45.49348998812159
 30
0.000000000000000
 10
146.3305886110693
 20
45.51103448518405
 30
0.000000000000000
 10
146.3163702015305
 20
45.55738848591284
 30
0.000000000000000
 10
146.2578334322299
 20
45.62786927438047
 30
0.000000000000000
 10
146.1699257314543
 20
45.72081000094953
 30
0.000000000000000
 10
146.0457322947505
 20
45.83024340818211
 30
0.000000000000000
 10
145.8880725971306
 20
45.95637283364454
 30
0.000000000000000
 10
145.6974933622081
 20
46.09566673389578
 30
0.000000000000000
 10
145.4723373800461
 20
46.24799908006307
 30
0.000000000000000
 10
145.2154476504467
 20
46.40918666386325
 30
0.000000000000000
 10
144.9267974293170
 20
46.57727703681467
 30
0.000000000000000
 10
144.6093440806595
 20
46.74832102148884
 30
0.000000000000000
 10
144.2619194925652
 20
46.92061684897460
 30
0.000000000000000
 10
143.8794039975821
 20
47.09370923747747
 30
0.000000000000000
 10
143.4598792247789
 20
47.26444215928266
 30
0.000000000000000
 10
143.0058436320464
 20
47.42718014667598
 30
0.000000000000000
 10
142.5242941086703
 20
47.57571656385564
 30
0.000000000000000
 10
142.0214733562952
 20
47.70450250680383
 30
0.000000000000000
 10
141.4990946603971
 20
47.81010016245152
 30
0.000000000000000
 10
140.9590373901283
 20
47.88932325668944
 30
0.000000000000000
 10
140.4021752273773
 20
47.93898603822517
 30
0.000000000000000
 10
139.8506151395964
 20
47.95547053439296
 30
0.000000000000000
 10
139.3102965856952
 20
47.94073518295540
 30
0.000000000000000
 10
138.7870112340849
 20
47.89756836947966
 30
0.000000000000000
 10
138.2651067349827
 20
47.82612440283169
 30
0.000000000000000
 10
137.7579915296804
 20
47.72901434237956
 30
0.000000000000000
 10
137.2661900486016
 20
47.60906570890693
 30
0.000000000000000
 10
136.7956973440207
 20
47.47046927416852
 30
0.000000000000000
 10
136.3406722994313
 20
47.31402355402661
 30
0.000000000000000
 10
135.9054377091266
 20
47.14322921112683
 30
0.000000000000000
 10
135.4921098952470
 20
46.96126362975964
 30
0.000000000000000
 10
135.1034887665258
 20
46.77173914070760
 30
0.000000000000000
 10
134.7434004485351
 20
46.57887833892202
 30
0.000000000000000
 10
134.4211596637789
 20
46.39033196022534
 30
0.000000000000000
 10
134.1393475497541
 20
46.21105289643507
 30
0.000000000000000
 10
133.9003565462037
 20
46.04579856970255
 30
0.000000000000000
 10
133.6997052219827
 20
45.89398938956986
 30
0.000000000000000
 10
133.5520353242588
 20
45.76931395874229
 30
0.000000000000000
 10
133.4500037572047
 20
45.67166618055432
 30
0.000000000000000
 10
133.3884847813846
 20
45.60115900482153
 30
0.000000000000000
 10
133.3467513824108
 20
45.54499066062984
 30
0.000000000000000
 10
133.3367746106204
 20
45.50815629810818
 30
0.000000000000000
 10
133.3342559509059
 20
45.49348998812159
 30
0.000000000000000
  0
ARC
  5
24E
100
AcDbEntity
  8
A1
  6
CONTINUOUS
 62
7
100
AcDbCircle
 10
146.3342559509057
 20
50.10305737043222
 30
0.000000000000000
 40
1.500000000000000
100
AcDbArc
 50
0.000000000000000
 51
86.24854675216855
  0
ARC
  5
24F
100
AcDbEntity
  8
A1
  6
CONTINUOUS
 62
7
100
AcDbCircle
 10
133.3342559509059
 20
50.10305737043222
 30
0.000000000000000
 40
1.500000000000000
100
AcDbArc
 50
93.75145324783045
 51
180.0000000000000
  0
ARC
  5
250
100
AcDbEntity
  8
A1
  6
CONTINUOUS
 62
7
100
AcDbCircle
 10
146.3342559509057
 20
50.10305737043222
 30
0.000000000000000
 40
1.500000000000003
100
AcDbArc
 50
86.24854675216855
 51
90.00000000000000
  0
ARC
  5
251
100
AcDbEntity
  8
A1
  6
CONTINUOUS
 62
7
100
AcDbCircle
 10
133.3342559509059
 20
50.10305737043222
 30
0.000000000000000
 40
1.500000000000003
100
AcDbArc
 50
90.00000000000000
 51
93.75145324783045
  0
LINE
  5
252
100
AcDbEntity
  8
A1
  6
CONTINUOUS
 62
7
100
AcDbLine
 10
131.8342559509059
 20
40.35305737043281
 30
0.000000000000000
 11
131.8342559509059
 21
40.10305737043280
 31
0.000000000000000
  0
LINE
  5
253
100
AcDbEntity
  8
A1
  6
CONTINUOUS
 62
7
100
AcDbLine
 10
133.3342559509059
 20
40.35305737043281
 30
0.000000000000000
 11
133.3342559509059
 21
40.10305737043280
 31
0.000000000000000
  0
LINE
  5
254
100
AcDbEntity
  8
A1
  6
CONTINUOUS
 62
7
100
AcDbLine
 10
147.8342559509058
 20
40.10305737043280
 30
0.000000000000000
 11
147.8342559509058
 21
40.35305737043270
 31
0.000000000000000
  0
LINE
  5
255
100
AcDbEntity
  8
A1
  6
CONTINUOUS
 62
7
100
AcDbLine
 10
146.3342559509057
 20
40.10305737043280
 30
0.000000000000000
 11
146.3342559509057
 21
40.35305737043270
 31
0.000000000000000
  0
LINE
  5
256
100
AcDbEntity
  8
A1
  6
CONTINUOUS
 62
7
100
AcDbLine
 10
131.8342559509059
 20
43.35305737043281
 30
0.000000000000000
 11
131.8342559509059
 21
50.10305737043222
 31
0.000000000000000
  0
LINE
  5
257
100
AcDbEntity
  8
A1
  6
CONTINUOUS
 62
7
100
AcDbLine
 10
133.3342559509059
 20
45.45305737043281
 30
0.000000000000000
 11
133.3342559509059
 21
43.35305737043281
 31
0.000000000000000
  0
LINE
  5
258
100
AcDbEntity
  8
A1
  6
CONTINUOUS
 62
7
100
AcDbLine
 10
147.8342559509058
 20
43.35305737043282
 30
0.000000000000000
 11
147.8342559509058
 21
50.10305737043222
 31
0.000000000000000
  0
LINE
  5
259
100
AcDbEntity
  8
A1
  6
CONTINUOUS
 62
7
100
AcDbLine
 10
146.3342559509057
 20
43.35305737043281
 30
0.000000000000000
 11
146.3342559509057
 21
45.45305737043281
 31
0.000000000000000
  0
LINE
  5
25A
100
AcDbEntity
  8
A1
  6
CONTINUOUS
 62
7
100
AcDbLine
 10
147.8342559509058
 20
40.35305737043270
 30
0.000000000000000
 11
147.8342559509058
 21
43.35305737043281
 31
0.000000000000000
  0
LINE
  5
25B
100
AcDbEntity
  8
A1
  6
CONTINUOUS
 62
7
100
AcDbLine
 10
146.3342559509057
 20
40.35305737043270
 30
0.000000000000000
 11
146.3342559509057
 21
43.35305737043281
 31
0.000000000000000
  0
LINE
  5
25C
100
AcDbEntity
  8
A1
  6
CONTINUOUS
 62
7
100
AcDbLine
 10
131.8342559509059
 20
40.35305737043270
 30
0.000000000000000
 11
131.8342559509059
 21
43.35305737043281
 31
0.000000000000000
  0
LINE
  5
25D
100
AcDbEntity
  8
A1
  6
CONTINUOUS
 62
7
100
AcDbLine
 10
133.3342559509059
 20
40.35305737043270
 30
0.000000000000000
 11
133.3342559509059
 21
43.35305737043281
 31
0.000000000000000
  0
LINE
  5
25E
100
AcDbEntity
  8
A1
  6
CONTINUOUS
 62
7
100
AcDbLine
 10
133.3342559509059
 20
50.95946720613050
 30
0.000000000000000
 11
133.3342559509059
 21
51.59984326648518
 31
0.000000000000000
  0
LINE
  5
25F
100
AcDbEntity
  8
A1
  6
CONTINUOUS
 62
7
100
AcDbLine
 10
146.3342559509057
 20
51.59984326648518
 30
0.000000000000000
 11
146.3342559509057
 21
50.95946720613050
 31
0.000000000000000
  0
LINE
  5
260
100
AcDbEntity
  8
A1
  6
CONTINUOUS
 62
7
100
AcDbLine
 10
133.3342559509059
 20
51.60305737043222
 30
0.000000000000000
 11
146.3342559509057
 21
51.60305737043222
 31
0.000000000000000
  0
LINE
  5
261
100
AcDbEntity
  8
A1
  6
CONTINUOUS
 62
7
100
AcDbLine
 10
133.3342559509057
 20
51.59984326648518
 30
0.000000000000000
 11
133.2361132926123
 21
51.59984326648518
 31
0.000000000000000
  0
LINE
  5
262
100
AcDbEntity
  8
A1
  6
CONTINUOUS
 62
7
100
AcDbLine
 10
146.4323986091993
 20
51.59984326648518
 30
0.000000000000000
 11
146.3342559509057
 21
51.59984326648518
 31
0.000000000000000
  0
LINE
  5
263
100
AcDbEntity
  8
A1
  6
CONTINUOUS
 62
7
100
AcDbLine
 10
146.3342559509057
 20
46.84873692342423
 30
0.000000000000000
 11
146.3342559509057
 21
50.95946720613050
 31
0.000000000000000
  0
LINE
  5
264
100
AcDbEntity
  8
A1
  6
CONTINUOUS
 62
7
100
AcDbLine
 10
133.3342559509059
 20
46.84873692342423
 30
0.000000000000000
 11
133.3342559509059
 21
50.95946720613050
 31
0.000000000000000
  0
LINE
  5
265
100
AcDbEntity
  8
A1
  6
CONTINUOUS
 62
7
100
AcDbLine
 10
146.3342559509057
 20
46.84873692342423
 30
0.000000000000000
 11
146.3342559509057
 21
45.49348998812159
 31
0.000000000000000
  0
LINE
  5
266
100
AcDbEntity
  8
A1
  6
CONTINUOUS
 62
7
100
AcDbLine
 10
133.3342559509059
 20
45.49348998812159
 30
0.000000000000000
 11
133.3342559509059
 21
46.84873692342423
 31
0.000000000000000
  0
LINE
  5
267
100
AcDbEntity
  8
A1
  6
CONTINUOUS
 62
7
100
AcDbLine
 10
133.3342559509059
 20
45.45305737043281
 30
0.000000000000000
 11
146.3342559509057
 21
45.45305737043281
 31
0.000000000000000
  0
LINE
  5
268
100
AcDbEntity
  8
A1
  6
CONTINUOUS
 62
7
100
AcDbLine
 10
146.3342559509057
 20
45.45305737043281
 30
0.000000000000000
 11
146.3342559509057
 21
45.49348998812159
 31
0.000000000000000
  0
LINE
  5
269
100
AcDbEntity
  8
A1
  6
CONTINUOUS
 62
7
100
AcDbLine
 10
133.3342559509059
 20
45.45305737043281
 30
0.000000000000000
 11
133.3342559509059
 21
45.49348998812159
 31
0.000000000000000
  0
SPLINE
  5
26A
100
AcDbEntity
  8
A1
  6
CONTINUOUS
 62
7
100
AcDbSpline
210
0.000000000000000
220
0.000000000000000
230
1.000000000000000
 70
     8
 71
     3
 72
    10
 73
     6
 74
     0
 42
1.000000000000000e-07
 43
1.000000000000000e-07
 12
-0.4167787131118530
 22
-0.9090079781267377
 32
0.000000000000000
 13
-0.04957167604334245
 23
-0.9987705687162816
 33
0.000000000000000
 40
0.000000000000000
 40
0.000000000000000
 40
0.000000000000000
 40
0.000000000000000
 40
0.03913153708623280
 40
0.1428361106440295
 40
0.2608600042408549
 40
0.2608600042408549
 40
0.2608600042408549
 40
0.2608600042408549
 10
151.1449444982471
 20
40.66747121506299
 30
0.000000000000000
 10
151.1395081010241
 20
40.65561425526041
 30
0.000000000000000
 10
151.1210693707526
 20
40.61164112206804
 30
0.000000000000000
 10
151.1002910347122
 20
40.52676523421913
 30
0.000000000000000
 10
151.0907434844843
 20
40.45328417794000
 30
0.000000000000000
 10
151.0887932704114
 20
40.41399124749673
 30
0.000000000000000
  0
SPLINE
  5
26B
100
AcDbEntity
  8
A1
  6
CONTINUOUS
 62
7
100
AcDbSpline
210
0.000000000000000
220
0.000000000000000
230
1.000000000000000
 70
     8
 71
     3
 72
    10
 73
     6
 74
     0
 42
1.000000000000000e-07
 43
1.000000000000000e-07
 12
0.4109389145469322
 22
-0.9116628809529175
 32
0.000000000000000
 13
0.04957167604470669
 23
-0.9987705687162816
 33
0.000000000000000
 40
0.000000000000000
 40
0.000000000000000
 40
0.000000000000000
 40
0.000000000000000
 40
0.03609011162764020
 40
0.1397947091852179
 40
0.2578185941211872
 40
0.2578185941211872
 40
0.2578185941211872
 40
0.2578185941211872
 10
129.0248492731542
 20
40.66471007900378
 30
0.000000000000000
 10
129.0297928835869
 20
40.65374274062365
 30
0.000000000000000
 10
129.0476750422247
 20
40.61064842453530
 30
0.000000000000000
 10
129.0682252885010
 20
40.52676665006185
 30
0.000000000000000
 10
129.0777684174705
 20
40.45328417505659
 30
0.000000000000000
 10
129.0797186314003
 20
40.41399124749672
 30
0.000000000000000
  0
SPLINE
  5
26C
100
AcDbEntity
  8
A1
  6
CONTINUOUS
 62
7
100
AcDbSpline
210
0.000000000000000
220
0.000000000000000
230
1.000000000000000
 70
     8
 71
     3
 72
    10
 73
     6
 74
     0
 42
1.000000000000000e-07
 43
1.000000000000000e-07
 12
0.4963725658371914
 22
-0.8681095990048107
 32
0.000000000000000
 13
0.006422008725166961
 23
-0.9999793786893179
 33
0.000000000000000
 40
0.000000000000000
 40
0.000000000000000
 40
0.000000000000000
 40
0.000000000000000
 40
0.1039937055300238
 40
0.2380568702645190
 40
0.4039840302298013
 40
0.4039840302298013
 40
0.4039840302298013
 40
0.4039840302298013
 10
130.5001645152289
 20
40.80563754713069
 30
0.000000000000000
 10
130.5173710560438
 20
40.77554490246179
 30
0.000000000000000
 10
130.5512891536564
 20
40.70284790844831
 30
0.000000000000000
 10
130.5725975263967
 20
40.56892437986129
 30
0.000000000000000
 10
130.5816346712851
 20
40.46929916027331
 30
0.000000000000000
 10
130.5819898665081
 20
40.41399124749672
 30
0.000000000000000
  0
SPLINE
  5
26D
100
AcDbEntity
  8
A1
  6
CONTINUOUS
 62
7
100
AcDbSpline
210
0.000000000000000
220
0.000000000000000
230
1.000000000000000
 70
     8
 71
     3
 72
    10
 73
     6
 74
     0
 42
1.000000000000000e-07
 43
1.000000000000000e-07
 12
-0.4963725658381009
 22
-0.8681095990043559
 32
0.000000000000000
 13
-0.006422008725621708
 23
-0.9999793786893179
 33
0.000000000000000
 40
0.000000000000000
 40
0.000000000000000
 40
0.000000000000000
 40
0.000000000000000
 40
0.1039937055300532
 40
0.2380568702645418
 40
0.4039840302298248
 40
0.4039840302298248
 40
0.4039840302298248
 40
0.4039840302298248
 10
149.6683473865828
 20
40.80563754713069
 30
0.000000000000000
 10
149.6511408457678
 20
40.77554490246181
 30
0.000000000000000
 10
149.6172227481552
 20
40.70284790844835
 30
0.000000000000000
 10
149.5959143754150
 20
40.56892437986129
 30
0.000000000000000
 10
149.5868772305267
 20
40.46929916027332
 30
0.000000000000000
 10
149.5865220353036
 20
40.41399124749673
 30
0.000000000000000
  0
ELLIPSE
  5
26E
100
AcDbEntity
  8
A1
  6
CONTINUOUS
 62
7
100
AcDbEllipse
 10
127.5842559509059
 20
40.54892181841831
 30
0.000000000000000
 11
3.000000000000002
 21
0.000000000000000
 31
0.000000000000000
210
0.000000000000000
220
0.000000000000000
230
1.000000000000000
 40
0.3639702342651353
 41
0.2373285384815661
 42
0.3759034770085658
  0
ELLIPSE
  5
26F
100
AcDbEntity
  8
A1
  6
CONTINUOUS
 62
7
100
AcDbEllipse
 10
152.5842559509058
 20
40.54892181841831
 30
0.000000000000000
 11
3.000000000000002
 21
0.000000000000000
 31
0.000000000000000
210
0.000000000000000
220
0.000000000000000
230
1.000000000000000
 40
0.3639702342651353
 41
2.765689176581227
 42
2.904264115108106
  0
LINE
  5
270
100
AcDbEntity
  8
A1
  6
CONTINUOUS
 62
7
100
AcDbLine
 10
147.8342559509058
 20
40.69978743057957
 30
0.000000000000000
 11
149.5842559509058
 21
40.69978743057957
 31
0.000000000000000
  0
LINE
  5
271
100
AcDbEntity
  8
A1
  6
CONTINUOUS
 62
7
100
AcDbLine
 10
146.0842559509057
 20
40.69978743057956
 30
0.000000000000000
 11
146.3342559509057
 21
40.69978743057957
 31
0.000000000000000
  0
LINE
  5
272
100
AcDbEntity
  8
A1
  6
CONTINUOUS
 62
7
100
AcDbLine
 10
133.3342559509059
 20
40.69978743057955
 30
0.000000000000000
 11
133.5842559509057
 21
40.69978743057955
 31
0.000000000000000
  0
LINE
  5
273
100
AcDbEntity
  8
A1
  6
CONTINUOUS
 62
7
100
AcDbLine
 10
130.5842559509058
 20
40.69978743057955
 30
0.000000000000000
 11
131.8342559509059
 21
40.69978743057955
 31
0.000000000000000
  0
LINE
  5
274
100
AcDbEntity
  8
A1
  6
CONTINUOUS
 62
7
100
AcDbLine
 10
129.0842559509059
 20
40.29463937113618
 30
0.000000000000000
 11
129.0842559509059
 21
39.44977651058764
 31
0.000000000000000
  0
LINE
  5
275
100
AcDbEntity
  8
A1
  6
CONTINUOUS
 62
7
100
AcDbLine
 10
129.0842559509058
 20
39.44977651058764
 30
0.000000000000000
 11
130.5842559509059
 21
39.44977651058764
 31
0.000000000000000
  0
LINE
  5
276
100
AcDbEntity
  8
A1
  6
CONTINUOUS
 62
7
100
AcDbLine
 10
130.5842559509059
 20
39.44977651058764
 30
0.000000000000000
 11
130.5842559509059
 21
40.29463937113589
 31
0.000000000000000
  0
LINE
  5
277
100
AcDbEntity
  8
A1
  6
CONTINUOUS
 62
7
100
AcDbLine
 10
151.0842559509058
 20
40.29463937113619
 30
0.000000000000000
 11
151.0842559509058
 21
39.44977651058765
 31
0.000000000000000
  0
LINE
  5
278
100
AcDbEntity
  8
A1
  6
CONTINUOUS
 62
7
100
AcDbLine
 10
149.5842559509058
 20
39.44977651058765
 30
0.000000000000000
 11
151.0842559509057
 21
39.44977651058765
 31
0.000000000000000
  0
LINE
  5
279
100
AcDbEntity
  8
A1
  6
CONTINUOUS
 62
7
100
AcDbLine
 10
149.5842559509058
 20
39.44977651058765
 30
0.000000000000000
 11
149.5842559509058
 21
40.29463937113589
 31
0.000000000000000
  0
LINE
  5
27A
100
AcDbEntity
  8
A1
  6
CONTINUOUS
 62
7
100
AcDbLine
 10
151.0842559509058
 20
40.29463937113620
 30
0.000000000000000
 11
151.0887932704114
 21
40.41399124749674
 31
0.000000000000000
  0
LINE
  5
27B
100
AcDbEntity
  8
A1
  6
CONTINUOUS
 62
7
100
AcDbLine
 10
129.0842559509058
 20
40.29463937113618
 30
0.000000000000000
 11
129.0797186314003
 21
40.41399124749672
 31
0.000000000000000
  0
LINE
  5
27C
100
AcDbEntity
  8
A1
  6
CONTINUOUS
 62
7
100
AcDbLine
 10
152.2610501195801
 20
41.35931544176209
 30
0.000000000000000
 11
152.3342559509058
 21
41.35931544176209
 31
0.000000000000000
  0
LINE
  5
27D
100
AcDbEntity
  8
A1
  6
CONTINUOUS
 62
7
100
AcDbLine
 10
127.9161255275995
 20
41.35931544176209
 30
0.000000000000000
 11
127.8342559509056
 21
41.35931544176209
 31
0.000000000000000
  0
LINE
  5
27E
100
AcDbEntity
  8
A1
  6
CONTINUOUS
 62
7
100
AcDbLine
 10
130.5842559509059
 20
40.29463937113589
 30
0.000000000000000
 11
130.5819898665081
 21
40.41399124749671
 31
0.000000000000000
  0
LINE
  5
27F
100
AcDbEntity
  8
A1
  6
CONTINUOUS
 62
7
100
AcDbLine
 10
130.5842559509058
 20
40.94977651057160
 30
0.000000000000000
 11
130.5842559509059
 21
40.29463937113589
 31
0.000000000000000
  0
LINE
  5
280
100
AcDbEntity
  8
A1
  6
CONTINUOUS
 62
7
100
AcDbLine
 10
149.5842559509057
 20
40.94977651057160
 30
0.000000000000000
 11
149.5842559509057
 21
40.29463937113591
 31
0.000000000000000
  0
LINE
  5
281
100
AcDbEntity
  8
A1
  6
CONTINUOUS
 62
7
100
AcDbLine
 10
149.5842559509058
 20
40.29463937113591
 30
0.000000000000000
 11
149.5865220353036
 21
40.41399124749672
 31
0.000000000000000
  0
LINE
  5
282
100
AcDbEntity
  8
A1
  6
CONTINUOUS
 62
7
100
AcDbLine
 10
153.8342559509058
 20
38.94977651055691
 30
0.000000000000000
 11
153.8342559509058
 21
39.44977651055533
 31
0.000000000000000
  0
LINE
  5
283
100
AcDbEntity
  8
A1
  6
CONTINUOUS
 62
7
100
AcDbLine
 10
155.3342559509058
 20
38.94977651055691
 30
0.000000000000000
 11
155.3342559509058
 21
39.44977651055533
 31
0.000000000000000
  0
LINE
  5
284
100
AcDbEntity
  8
A1
  6
CONTINUOUS
 62
7
100
AcDbLine
 10
153.8342559509058
 20
38.94977651055691
 30
0.000000000000000
 11
155.3342559509058
 21
38.94977651055842
 31
0.000000000000000
  0
LINE
  5
285
100
AcDbEntity
  8
A1
  6
CONTINUOUS
 62
7
100
AcDbLine
 10
124.8342559509058
 20
38.94977651055689
 30
0.000000000000000
 11
124.8342559509058
 21
39.44977651055533
 31
0.000000000000000
  0
LINE
  5
286
100
AcDbEntity
  8
A1
  6
CONTINUOUS
 62
7
100
AcDbLine
 10
126.3342559509057
 20
38.94977651055689
 30
0.000000000000000
 11
126.3342559509057
 21
39.44977651055533
 31
0.000000000000000
  0
LINE
  5
287
100
AcDbEntity
  8
A1
  6
CONTINUOUS
 62
7
100
AcDbLine
 10
126.3342559509057
 20
38.94977651055690
 30
0.000000000000000
 11
124.8342559509057
 21
38.94977651055841
 31
0.000000000000000
  0
LINE
  5
288
100
AcDbEntity
  8
A1
  6
CONTINUOUS
 62
7
100
AcDbLine
 10
153.8342559509058
 20
48.44977651055532
 30
0.000000000000000
 11
153.8342559509058
 21
48.94977651055586
 31
0.000000000000000
  0
LINE
  5
289
100
AcDbEntity
  8
A1
  6
CONTINUOUS
 62
7
100
AcDbLine
 10
155.3342559509058
 20
48.44977651055532
 30
0.000000000000000
 11
155.3342559509058
 21
48.94977651055586
 31
0.000000000000000
  0
LINE
  5
28A
100
AcDbEntity
  8
A1
  6
CONTINUOUS
 62
7
100
AcDbLine
 10
153.8342559509058
 20
48.94977651055586
 30
0.000000000000000
 11
155.3342559509058
 21
48.94977651055586
 31
0.000000000000000
  0
LINE
  5
28B
100
AcDbEntity
  8
A1
  6
CONTINUOUS
 62
7
100
AcDbLine
 10
124.8342559509058
 20
48.44977651055532
 30
0.000000000000000
 11
124.8342559509058
 21
48.94977651055585
 31
0.000000000000000
  0
LINE
  5
28C
100
AcDbEntity
  8
A1
  6
CONTINUOUS
 62
7
100
AcDbLine
 10
126.3342559509057
 20
48.44977651055532
 30
0.000000000000000
 11
126.3342559509057
 21
48.94977651055585
 31
0.000000000000000
  0
LINE
  5
28D
100
AcDbEntity
  8
A1
  6
CONTINUOUS
 62
7
100
AcDbLine
 10
126.3342559509057
 20
48.94977651055585
 30
0.000000000000000
 11
124.8342559509058
 21
48.94977651055585
 31
0.000000000000000
  0
LINE
  5
28E
100
AcDbEntity
  8
A1
  6
CONTINUOUS
 62
7
100
AcDbLine
 10
153.8342559509058
 20
39.44977651055533
 30
0.000000000000000
 11
153.8342559509058
 21
48.44977651055532
 31
0.000000000000000
  0
LINE
  5
28F
100
AcDbEntity
  8
A1
  6
CONTINUOUS
 62
7
100
AcDbLine
 10
155.3342559509058
 20
39.44977651055533
 30
0.000000000000000
 11
155.3342559509058
 21
48.44977651055532
 31
0.000000000000000
  0
LINE
  5
290
100
AcDbEntity
  8
A1
  6
CONTINUOUS
 62
7
100
AcDbLine
 10
124.8342559509058
 20
39.44977651055533
 30
0.000000000000000
 11
124.8342559509058
 21
48.44977651055532
 31
0.000000000000000
  0
LINE
  5
291
100
AcDbEntity
  8
A1
  6
CONTINUOUS
 62
7
100
AcDbLine
 10
126.3342559509057
 20
39.44977651055533
 30
0.000000000000000
 11
126.3342559509057
 21
48.44977651055532
 31
0.000000000000000
  0
SPLINE
  5
292
100
AcDbEntity
  8
A1
  6
CONTINUOUS
 62
7
100
AcDbSpline
210
0.000000000000000
220
0.000000000000000
230
1.000000000000000
 70
     8
 71
     3
 72
     9
 73
     5
 74
     0
 42
1.000000000000000e-07
 43
1.000000000000000e-07
 12
-0.8805635747328324
 22
0.4739280439619620
 32
0.000000000000000
 13
-0.8196915172411536
 23
0.5728052169488365
 33
0.000000000000000
 40
0.000000000000000
 40
0.000000000000000
 40
0.000000000000000
 40
0.000000000000000
 40
0.3074977311906282
 40
0.3333468634380373
 40
0.3333468634380373
 40
0.3333468634380373
 40
0.3333468634380373
 10
152.3790195518924
 20
41.27382586699256
 30
0.000000000000000
 10
152.2887624514259
 20
41.32240313308120
 30
0.000000000000000
 10
152.1935991252066
 20
41.38036941009047
 30
0.000000000000000
 10
152.1022360399725
 20
41.44360308941862
 30
0.000000000000000
 10
152.0951732684954
 20
41.44853859535360
 30
0.000000000000000
  0
SPLINE
  5
293
100
AcDbEntity
  8
A1
  6
CONTINUOUS
 62
7
100
AcDbSpline
210
0.000000000000000
220
0.000000000000000
230
1.000000000000000
 70
     8
 71
     3
 72
     9
 73
     5
 74
     0
 42
1.000000000000000e-07
 43
1.000000000000000e-07
 12
0.05606459643081507
 22
-0.9984271435747587
 32
0.000000000000000
 13
-0.1724671521396886
 23
-0.9850152696445207
 33
0.000000000000000
 40
0.000000000000000
 40
0.000000000000000
 40
0.000000000000000
 40
0.000000000000000
 40
0.2599743662159472
 40
0.6896988739184036
 40
0.6896988739184036
 40
0.6896988739184036
 40
0.6896988739184036
 10
156.8765854277505
 20
44.11261974011273
 30
0.000000000000000
 10
156.8814438803919
 20
44.02609791882484
 30
0.000000000000000
 10
156.8844955738298
 20
43.79596031025402
 30
0.000000000000000
 10
156.8608180745225
 20
43.56627905886427
 30
0.000000000000000
 10
156.8361136205066
 20
43.42518399158848
 30
0.000000000000000
  0
SPLINE
  5
294
100
AcDbEntity
  8
A1
  6
CONTINUOUS
 62
7
100
AcDbSpline
210
0.000000000000000
220
0.000000000000000
230
1.000000000000000
 70
     8
 71
     3
 72
    16
 73
    12
 74
     0
 42
1.000000000000000e-07
 43
1.000000000000000e-07
 12
0.7059352796418352
 22
-0.7082763450495122
 32
0.000000000000000
 13
0.9999964379065887
 23
-0.002669114878784740
 33
0.000000000000000
 40
0.000000000000000
 40
0.000000000000000
 40
0.000000000000000
 40
0.000000000000000
 40
0.2471470962363242
 40
0.5651555599749284
 40
0.8894392242478955
 40
1.220025711314065
 40
1.564311887757276
 40
1.948473452369793
 40
2.373602657020994
 40
2.837859840327967
 40
3.338863345730675
 40
3.338863345730675
 40
3.338863345730675
 40
3.338863345730675
 10
150.8276549394901
 20
40.94973083449479
 30
0.000000000000000
 10
150.8858115576548
 20
40.89138135382417
 30
0.000000000000000
 10
151.0228312659147
 20
40.76190909456159
 30
0.000000000000000
 10
151.2521809103188
 20
40.57355903555410
 30
0.000000000000000
 10
151.5180989471531
 20
40.38738980777166
 30
0.000000000000000
 10
151.8050641518600
 20
40.21770341680165
 30
0.000000000000000
 10
152.1222966098977
 20
40.06202362823255
 30
0.000000000000000
 10
152.4808132771587
 20
39.92165237715847
 30
0.000000000000000
 10
152.8893322750475
 20
39.80378156307873
 30
0.000000000000000
 10
153.3462612024253
 20
39.72111672348326
 30
0.000000000000000
 10
153.6683422647312
 20
39.70125128149876
 30
0.000000000000000
 10
153.8353428383250
 20
39.70080553619523
 30
0.000000000000000
  0
SPLINE
  5
295
100
AcDbEntity
  8
A1
  6
CONTINUOUS
 62
7
100
AcDbSpline
210
0.000000000000000
220
0.000000000000000
230
1.000000000000000
 70
     8
 71
     3
 72
    13
 73
     9
 74
     0
 42
1.000000000000000e-07
 43
1.000000000000000e-07
 12
-0.9999974848528836
 22
0.002242830413251795
 32
0.000000000000000
 13
-0.8236722136102799
 23
0.5670662082386002
 33
0.000000000000000
 40
0.000000000000000
 40
0.000000000000000
 40
0.000000000000000
 40
0.000000000000000
 40
0.3582855475999839
 40
0.6906570155794920
 40
0.9954767908574629
 40
1.271456322186326
 40
1.598749350286172
 40
1.855983211982280
 40
1.855983211982280
 40
1.855983211982280
 40
1.855983211982280
 10
153.8331690634864
 20
40.89874748494819
 30
0.000000000000000
 10
153.7137408480000
 20
40.89901534285578
 30
0.000000000000000
 10
153.4832825722994
 20
40.91307839926464
 30
0.000000000000000
 10
153.1560817964722
 20
40.97193283442296
 30
0.000000000000000
 10
152.8630451222789
 20
41.05605977084276
 30
0.000000000000000
 10
152.5806818572187
 20
41.16613262520815
 30
0.000000000000000
 10
152.3240798366803
 20
41.29553459400937
 30
0.000000000000000
 10
152.1589883018551
 20
41.39948079093597
 30
0.000000000000000
 10
152.0883628404289
 20
41.44810366779684
 30
0.000000000000000
  0
SPLINE
  5
296
100
AcDbEntity
  8
A1
  6
CONTINUOUS
 62
7
100
AcDbSpline
210
0.000000000000000
220
0.000000000000000
230
1.000000000000000
 70
     8
 71
     3
 72
    16
 73
    12
 74
     0
 42
1.000000000000000e-07
 43
1.000000000000000e-07
 12
-0.02592265081966616
 22
0.9996639516230061
 32
0.000000000000000
 13
0.9615810935029003
 23
0.2745210385692189
 33
0.000000000000000
 40
0.000000000000000
 40
0.000000000000000
 40
0.000000000000000
 40
0.000000000000000
 40
0.1165334888425864
 40
0.2313862183177440
 40
0.3412100323363345
 40
0.4426476144184862
 40
0.5323618820894217
 40
0.6070897687720282
 40
0.6637944156082243
 40
0.7003235092668112
 40
0.7166962887270578
 40
0.7166962887270578
 40
0.7166962887270578
 40
0.7166962887270578
 10
153.7382383070779
 20
40.20180082337628
 30
0.000000000000000
 10
153.7372313547645
 20
40.24063226602721
 30
0.000000000000000
 10
153.7365594540498
 20
40.31777468775973
 30
0.000000000000000
 10
153.7394917029944
 20
40.43150191543590
 30
0.000000000000000
 10
153.7458596585564
 20
40.54001299457200
 30
0.000000000000000
 10
153.7551822295335
 20
40.64001561063336
 30
0.000000000000000
 10
153.7672777486342
 20
40.72758099758787
 30
0.000000000000000
 10
153.7807896605713
 20
40.80082374350972
 30
0.000000000000000
 10
153.7972694412113
 20
40.85279148229093
 30
0.000000000000000
 10
153.8108699271592
 20
40.88997362510158
 30
0.000000000000000
 10
153.8279049677460
 20
40.89725014406478
 30
0.000000000000000
 10
153.8331528861384
 20
40.89874836820534
 30
0.000000000000000
  0
SPLINE
  5
297
100
AcDbEntity
  8
A1
  6
CONTINUOUS
 62
7
100
AcDbSpline
210
0.000000000000000
220
0.000000000000000
230
1.000000000000000
 70
     8
 71
     3
 72
    24
 73
    20
 74
     0
 42
1.000000000000000e-07
 43
1.000000000000000e-07
 12
0.9349419040859175
 22
0.3548008398853426
 32
0.000000000000000
 13
0.001409000495186774
 23
0.9999990073581557
 33
0.000000000000000
 40
0.000000000000000
 40
0.000000000000000
 40
0.000000000000000
 40
0.000000000000000
 40
0.1390319726591418
 40
0.4884920269854257
 40
0.8073684206011350
 40
1.148638511837979
 40
1.443989927718387
 40
1.712607738240305
 40
1.987146162462608
 40
2.264261434612567
 40
2.730827563593262
 40
3.203473708029347
 40
3.657248913198968
 40
3.871333432363544
 40
4.076935374695846
 40
4.274610272210914
 40
4.504774352974266
 40
4.791266540892351
 40
5.130584489480515
 40
5.130584489480515
 40
5.130584489480515
 40
5.130584489480515
 10
155.3387662664621
 20
39.98198400964316
 30
0.000000000000000
 10
155.3820952055443
 20
39.99842689653328
 30
0.000000000000000
 10
155.5334192630858
 20
40.05860800727223
 30
0.000000000000000
 10
155.7778894869934
 20
40.17189585726689
 30
0.000000000000000
 10
156.0717609247708
 20
40.33647431572835
 30
0.000000000000000
 10
156.3371982915708
 20
40.51314354884246
 30
0.000000000000000
 10
156.5752485747318
 20
40.69897290012969
 30
0.000000000000000
 10
156.7834857714116
 20
40.88570804236976
 30
0.000000000000000
 10
156.9744932576943
 20
41.08165387818229
 30
0.000000000000000
 10
157.1946932158046
 20
41.34022970472166
 30
0.000000000000000
 10
157.4294203714513
 20
41.67192008299821
 30
0.000000000000000
 10
157.6546517704359
 20
42.07899600946002
 30
0.000000000000000
 10
157.8025629843634
 20
42.43001764551384
 30
0.000000000000000
 10
157.8949566034281
 20
42.70621947275385
 30
0.000000000000000
 10
157.9508649945547
 20
42.90434969393555
 30
0.000000000000000
 10
157.9987953577064
 20
43.11005604788313
 30
0.000000000000000
 10
158.0413215221106
 20
43.34445363521596
 30
0.000000000000000
 10
158.0752808918265
 20
43.62796114317412
 30
0.000000000000000
 10
158.0840965845198
 20
43.83667063998258
 30
0.000000000000000
 10
158.0842559509056
 20
43.94977651057157
 30
0.000000000000000
  0
SPLINE
  5
298
100
AcDbEntity
  8
A1
  6
CONTINUOUS
 62
7
100
AcDbSpline
210
0.000000000000000
220
0.000000000000000
230
1.000000000000000
 70
     8
 71
     3
 72
    21
 73
    17
 74
     0
 42
1.000000000000000e-07
 43
1.000000000000000e-07
 12
-0.002849426092780050
 22
-0.9999959403771754
 32
0.000000000000000
 13
-0.8749553730458501
 23
-0.4842035679117203
 33
0.000000000000000
 40
0.000000000000000
 40
0.000000000000000
 40
0.000000000000000
 40
0.000000000000000
 40
0.2167714563196250
 40
0.3844206271310060
 40
0.5000569402769064
 40
0.6038913402498870
 40
0.7129754619804434
 40
0.8273121836099491
 40
0.9468800266483985
 40
1.373971913024427
 40
1.792555295588686
 40
2.004095855475897
 40
2.258021089876154
 40
2.561023356798508
 40
2.915714107184991
 40
3.202706791730031
 40
3.202706791730031
 40
3.202706791730031
 40
3.202706791730031
 10
156.8842559509056
 20
43.94977651057157
 30
0.000000000000000
 10
156.8840500594910
 20
43.87751965180181
 30
0.000000000000000
 10
156.8787165526435
 20
43.74932149669973
 30
0.000000000000000
 10
156.8598853296673
 20
43.58361321226376
 30
0.000000000000000
 10
156.8393337896139
 20
43.45619099438344
 30
0.000000000000000
 10
156.8180636571162
 20
43.34873759372102
 30
0.000000000000000
 10
156.7933178846216
 20
43.24247570761477
 30
0.000000000000000
 10
156.7635760593109
 20
43.13205568662244
 30
0.000000000000000
 10
156.6987763879092
 20
42.92143912290734
 30
0.000000000000000
 10
156.5791051320388
 20
42.62174667939188
 30
0.000000000000000
 10
156.4072396618645
 20
42.31286007981959
 30
0.000000000000000
 10
156.2381926325069
 20
42.07123481640605
 30
0.000000000000000
 10
156.0749014291148
 20
41.87340174614953
 30
0.000000000000000
 10
155.8575556019597
 20
41.66007100605872
 30
0.000000000000000
 10
155.6072293229198
 20
41.46773465011930
 30
0.000000000000000
 10
155.4249537613730
 20
41.35519662034573
 30
0.000000000000000
 10
155.3412518309171
 20
41.30887565973864
 30
0.000000000000000
  0
SPLINE
  5
299
100
AcDbEntity
  8
A1
  6
CONTINUOUS
 62
7
100
AcDbSpline
210
0.000000000000000
220
0.000000000000000
230
1.000000000000000
 70
     8
 71
     3
 72
    15
 73
    11
 74
     0
 42
1.000000000000000e-07
 43
1.000000000000000e-07
 12
-0.9925364400987746
 22
0.1219484116809326
 32
0.000000000000000
 13
-0.02506927209014975
 23
0.9996857164114772
 33
0.000000000000000
 40
0.000000000000000
 40
0.000000000000000
 40
0.000000000000000
 40
0.000000000000000
 40
0.004152913665009600
 40
0.03017298395233250
 40
0.07401487770560640
 40
0.1357196148901365
 40
0.2134911198419290
 40
0.3051378406318292
 40
0.4083500980717462
 40
0.5207850388518135
 40
0.5207850388518135
 40
0.5207850388518135
 40
0.5207850388518135
 10
153.8353204735909
 20
39.70080678734676
 30
0.000000000000000
 10
153.8339465008758
 20
39.70097560108852
 30
0.000000000000000
 10
153.8238988134147
 20
39.70278711829886
 30
0.000000000000000
 10
153.8077901347633
 20
39.72520214119658
 30
0.000000000000000
 10
153.7921017160882
 20
39.76476425504448
 30
0.000000000000000
 10
153.7763597010210
 20
39.82456467278880
 30
0.000000000000000
 10
153.7626150321921
 20
39.90017199094885
 30
0.000000000000000
 10
153.7510397054457
 20
39.99042655516568
 30
0.000000000000000
 10
153.7425091357255
 20
40.09250032338608
 30
0.000000000000000
 10
153.7391778611189
 20
40.16433428860181
 30
0.000000000000000
 10
153.7382383070779
 20
40.20180082337628
 30
0.000000000000000
  0
ARC
  5
29A
100
AcDbEntity
  8
A1
  6
CONTINUOUS
 62
7
100
AcDbCircle
 10
153.8342559509057
 20
43.94977651057160
 30
0.000000000000000
 40
4.249999999999890
100
AcDbArc
 50
89.91815954090342
 51
135.0991278440258
  0
ARC
  5
29B
100
AcDbEntity
  8
A1
  6
CONTINUOUS
 62
7
100
AcDbCircle
 10
153.8342559509057
 20
43.94977651057160
 30
0.000000000000000
 40
4.249999999999890
100
AcDbArc
 50
0.0008972477357857001
 51
69.33268350648567
  0
ARC
  5
29C
100
AcDbEntity
  8
A1
  6
CONTINUOUS
 62
7
100
AcDbCircle
 10
153.8342559509057
 20
43.94977651057160
 30
0.000000000000000
 40
3.049999999999890
100
AcDbArc
 50
0.000000000000000
 51
60.54082508824326
  0
ARC
  5
29D
100
AcDbEntity
  8
A1
  6
CONTINUOUS
 62
7
100
AcDbCircle
 10
153.8342559509057
 20
43.94977651057160
 30
0.000000000000000
 40
3.049999999999890
100
AcDbArc
 50
90.11057758981813
 51
124.9480137199046
  0
LINE
  5
29E
100
AcDbEntity
  8
A1
  6
CONTINUOUS
 62
7
100
AcDbLine
 10
153.8399687265581
 20
40.90305997055017
 30
0.000000000000000
 11
153.6723962864310
 21
40.90753593943302
 31
0.000000000000000
  0
LINE
  5
29F
100
AcDbEntity
  8
A1
  6
CONTINUOUS
 62
7
100
AcDbLine
 10
156.8842559509056
 20
43.94977651057160
 30
0.000000000000000
 11
157.4842559509056
 21
43.94977651057160
 31
0.000000000000000
  0
LINE
  5
2A0
100
AcDbEntity
  8
A1
  6
CONTINUOUS
 62
7
100
AcDbLine
 10
157.4842559509056
 20
43.94977651057160
 30
0.000000000000000
 11
158.0842558351264
 21
43.94977651057160
 31
0.000000000000000
  0
SPLINE
  5
2A1
100
AcDbEntity
  8
A1
  6
CONTINUOUS
 62
7
100
AcDbSpline
210
0.000000000000000
220
0.000000000000000
230
1.000000000000000
 70
     8
 71
     3
 72
     9
 73
     5
 74
     0
 42
1.000000000000000e-07
 43
1.000000000000000e-07
 12
0.004724791871012712
 22
0.9999888381083792
 32
0.000000000000000
 13
0.07795283627638128
 23
0.9969570478792775
 33
0.000000000000000
 40
0.000000000000000
 40
0.000000000000000
 40
0.000000000000000
 40
0.000000000000000
 40
0.1840626516367215
 40
0.2225042065337629
 40
0.2225042065337629
 40
0.2225042065337629
 40
0.2225042065337629
 10
123.2877151371701
 20
43.95702073046093
 30
0.000000000000000
 10
123.2880050230768
 20
44.01837426284406
 30
0.000000000000000
 10
123.2906030719405
 20
44.09256145662144
 30
0.000000000000000
 10
123.2959160365487
 20
44.16653841460377
 30
0.000000000000000
 10
123.2969149126271
 20
44.17931327429912
 30
0.000000000000000
  0
SPLINE
  5
2A2
100
AcDbEntity
  8
A1
  6
CONTINUOUS
 62
7
100
AcDbSpline
210
0.000000000000000
220
0.000000000000000
230
1.000000000000000
 70
     8
 71
     3
 72
    18
 73
    14
 74
     0
 42
1.000000000000000e-07
 43
1.000000000000000e-07
 12
-0.8718033827578893
 22
0.4898559602698924
 32
0.000000000000000
 13
0.004580122806146392
 23
0.9999895111827755
 33
0.000000000000000
 40
0.000000000000000
 40
0.000000000000000
 40
0.000000000000000
 40
0.000000000000000
 40
0.2543547396561545
 40
0.5717451191680667
 40
0.8981579880060964
 40
1.233285535452230
 40
1.574215772192519
 40
1.918248344486430
 40
2.262355919923064
 40
2.596361221012716
 40
2.897400937726950
 40
3.165918313932296
 40
3.219296552209524
 40
3.219296552209524
 40
3.219296552209524
 40
3.219296552209524
 10
124.8324357381669
 20
41.29952600831677
 30
0.000000000000000
 10
124.7585199640160
 20
41.34105840339792
 30
0.000000000000000
 10
124.5963645800813
 20
41.44174867170847
 30
0.000000000000000
 10
124.3589836873815
 20
41.62517157153190
 30
0.000000000000000
 10
124.1228829354257
 20
41.85125453970053
 30
0.000000000000000
 10
123.9061723907155
 20
42.10639802624991
 30
0.000000000000000
 10
123.7140639595186
 20
42.38774116459685
 30
0.000000000000000
 10
123.5528580347270
 20
42.69143284668760
 30
0.000000000000000
 10
123.4301821414392
 20
43.01010779106218
 30
0.000000000000000
 10
123.3462190918282
 20
43.32616489547402
 30
0.000000000000000
 10
123.3001450186643
 20
43.62432239103628
 30
0.000000000000000
 10
123.2881003632785
 20
43.83192886632387
 30
0.000000000000000
 10
123.2876336442079
 20
43.93922817099338
 30
0.000000000000000
 10
123.2877151371701
 20
43.95702073046093
 30
0.000000000000000
  0
SPLINE
  5
2A3
100
AcDbEntity
  8
A1
  6
CONTINUOUS
 62
7
100
AcDbSpline
210
0.000000000000000
220
0.000000000000000
230
1.000000000000000
 70
     8
 71
     3
 72
     9
 73
     5
 74
     0
 42
1.000000000000000e-07
 43
1.000000000000000e-07
 12
0.003048176842185057
 22
0.9999953542982212
 32
0.000000000000000
 13
0.1059377491937994
 23
0.9943727637541997
 33
0.000000000000000
 40
0.000000000000000
 40
0.000000000000000
 40
0.000000000000000
 40
0.000000000000000
 40
0.2331646759355183
 40
0.2818011669746753
 40
0.2818011669746753
 40
0.2818011669746753
 40
0.2818011669746753
 10
123.2807659685407
 20
43.94838697648517
 30
0.000000000000000
 10
123.2810028775959
 20
44.02610817405917
 30
0.000000000000000
 10
123.2852893540163
 20
44.12010608544930
 30
0.000000000000000
 10
123.2944095519566
 20
44.21359461080379
 30
0.000000000000000
 10
123.2961270320864
 20
44.22971554480842
 30
0.000000000000000
  0
SPLINE
  5
2A4
100
AcDbEntity
  8
A1
  6
CONTINUOUS
 62
7
100
AcDbSpline
210
0.000000000000000
220
0.000000000000000
230
1.000000000000000
 70
     8
 71
     3
 72
    24
 73
    20
 74
     0
 42
1.000000000000000e-07
 43
1.000000000000000e-07
 12
0.002162481845516595
 22
-0.9999976618333335
 32
0.000000000000000
 13
0.9345932516171160
 23
-0.3557182227998510
 33
0.000000000000000
 40
0.000000000000000
 40
0.000000000000000
 40
0.000000000000000
 40
0.000000000000000
 40
0.2664730072626176
 40
0.5992500082610921
 40
0.9142588891478862
 40
1.209678571770752
 40
1.577822556272641
 40
1.916030862665196
 40
2.223864725636374
 40
2.553142556331386
 40
2.838703162209032
 40
3.086088338444959
 40
3.331619529029178
 40
3.581623508463378
 40
3.899632146597059
 40
4.223915876324187
 40
4.554502390145571
 40
4.898788478453940
 40
5.132418368955821
 40
5.132418368955821
 40
5.132418368955821
 40
5.132418368955821
 10
122.0877267388504
 20
43.95433784509353
 30
0.000000000000000
 10
122.0879188198639
 20
43.86551371702542
 30
0.000000000000000
 10
122.0943941096003
 20
43.66573105516634
 30
0.000000000000000
 10
122.1250198589453
 20
43.36223173059080
 30
0.000000000000000
 10
122.1796803815897
 20
43.05231142596282
 30
0.000000000000000
 10
122.2603484673119
 20
42.73598449373909
 30
0.000000000000000
 10
122.3676312515601
 20
42.41931193202126
 30
0.000000000000000
 10
122.5026305929885
 20
42.10897727676869
 30
0.000000000000000
 10
122.6548643476118
 20
41.82140273240017
 30
0.000000000000000
 10
122.8187789875816
 20
41.56079497957584
 30
0.000000000000000
 10
122.9889825511026
 20
41.32894178370734
 30
0.000000000000000
 10
123.1553875898726
 20
41.12964356147091
 30
0.000000000000000
 10
123.3249459433682
 20
40.94896242213166
 30
0.000000000000000
 10
123.5220857125191
 20
40.76251303456799
 30
0.000000000000000
 10
123.7521846830256
 20
40.57355906958590
 30
0.000000000000000
 10
124.0181002624585
 20
40.38738921048714
 30
0.000000000000000
 10
124.3050621478652
 20
40.21770474064289
 30
0.000000000000000
 10
124.5772180540065
 20
40.08414720685760
 30
0.000000000000000
 10
124.7554557430056
 20
40.01081196920967
 30
0.000000000000000
 10
124.8282387160186
 20
39.98310983272892
 30
0.000000000000000
  0
SPLINE
  5
2A5
100
AcDbEntity
  8
A1
  6
CONTINUOUS
 62
7
100
AcDbSpline
210
0.000000000000000
220
0.000000000000000
230
1.000000000000000
 70
     8
 71
     3
 72
    21
 73
    17
 74
     0
 42
1.000000000000000e-07
 43
1.000000000000000e-07
 12
-0.8727296792094421
 22
0.4882037556444629
 32
0.000000000000000
 13
0.001079194552403351
 23
0.9999994176693008
 33
0.000000000000000
 40
0.000000000000000
 40
0.000000000000000
 40
0.000000000000000
 40
0.000000000000000
 40
0.03069284930705390
 40
0.3444894282639486
 40
0.6504212835604126
 40
0.8748098807163379
 40
1.094149460829922
 40
1.335805254648633
 40
1.626675636324364
 40
1.966696637950721
 40
2.355464124270465
 40
2.524430087114910
 40
2.699961984029911
 40
2.878388624333384
 40
3.067766649316998
 40
3.216252192789160
 40
3.216252192789160
 40
3.216252192789160
 40
3.216252192789160
 10
124.8327883920860
 20
41.29598203189783
 30
0.000000000000000
 10
124.8238595385761
 20
41.30097681999887
 30
0.000000000000000
 10
124.7239296616939
 20
41.35754110044330
 30
0.000000000000000
 10
124.5410908279120
 20
41.47485682877137
 30
0.000000000000000
 10
124.3206441938377
 20
41.65052081169201
 30
0.000000000000000
 10
124.1400331976884
 20
41.82355295766308
 30
0.000000000000000
 10
123.9870255318691
 20
41.99347402338200
 30
0.000000000000000
 10
123.8336517273361
 20
42.19200743053999
 30
0.000000000000000
 10
123.6761868333475
 20
42.43706638545589
 30
0.000000000000000
 10
123.5224855113507
 20
42.74098070263277
 30
0.000000000000000
 10
123.4202441611656
 20
43.02320039031939
 30
0.000000000000000
 10
123.3581909963830
 20
43.25971319957743
 30
0.000000000000000
 10
123.3235400799487
 20
43.43063215401295
 30
0.000000000000000
 10
123.2969445670654
 20
43.60989115699994
 30
0.000000000000000
 10
123.2834554660896
 20
43.78159394128620
 30
0.000000000000000
 10
123.2807368852711
 20
43.89422707086798
 30
0.000000000000000
 10
123.2807903002010
 20
43.94372222320280
 30
0.000000000000000
  0
SPLINE
  5
2A6
100
AcDbEntity
  8
A1
  6
CONTINUOUS
 62
7
100
AcDbSpline
210
0.000000000000000
220
0.000000000000000
230
1.000000000000000
 70
     8
 71
     3
 72
    17
 73
    13
 74
     0
 42
1.000000000000000e-07
 43
1.000000000000000e-07
 12
0.9999975496268689
 22
0.002213761619827892
 32
0.000000000000000
 13
0.7068543411805877
 23
0.7073591311025211
 33
0.000000000000000
 40
0.000000000000000
 40
0.000000000000000
 40
0.000000000000000
 40
0.000000000000000
 40
0.4568218754767299
 40
0.8900456044515993
 40
1.297163704425179
 40
1.676184701563579
 40
2.025645399717989
 40
2.344522057272181
 40
2.685792233370203
 40
2.981143653050153
 40
3.249761269793882
 40
3.337541052096725
 40
3.337541052096725
 40
3.337541052096725
 40
3.337541052096725
 10
126.3353428161140
 20
39.70080553619523
 30
0.000000000000000
 10
126.4876164014782
 20
39.70114263444024
 30
0.000000000000000
 10
126.7845551028584
 20
39.71789140106779
 30
0.000000000000000
 10
127.2117635428803
 20
39.78917071554088
 30
0.000000000000000
 10
127.6049332386953
 20
39.89452433732909
 30
0.000000000000000
 10
127.9607859872698
 20
40.02494493176101
 30
0.000000000000000
 10
128.2778832532755
 20
40.17189185211125
 30
0.000000000000000
 10
128.5717644842721
 20
40.33647422421955
 30
0.000000000000000
 10
128.8372001886236
 20
40.51314497525626
 30
0.000000000000000
 10
129.0752472987669
 20
40.69896754039313
 30
0.000000000000000
 10
129.2371133980220
 20
40.84413031645249
 30
0.000000000000000
 10
129.3219896503058
 20
40.92726183694182
 30
0.000000000000000
 10
129.3426721570353
 20
40.94795911378785
 30
0.000000000000000
  0
SPLINE
  5
2A7
100
AcDbEntity
  8
A1
  6
CONTINUOUS
 62
7
100
AcDbSpline
210
0.000000000000000
220
0.000000000000000
230
1.000000000000000
 70
     8
 71
     3
 72
    12
 73
     8
 74
     0
 42
1.000000000000000e-07
 43
1.000000000000000e-07
 12
-0.8312053273474476
 22
-0.5559655598949007
 32
0.000000000000000
 13
-0.9999772822536670
 23
-0.006740547183483159
 33
0.000000000000000
 40
0.000000000000000
 40
0.000000000000000
 40
0.000000000000000
 40
0.000000000000000
 40
0.3880546818417108
 40
0.8412520493089883
 40
1.165470271723340
 40
1.502511923609620
 40
1.847081282370371
 40
1.847081282370371
 40
1.847081282370371
 40
1.847081282370371
 10
128.0706881331786
 20
41.44941574920735
 30
0.000000000000000
 10
127.9631704268957
 20
41.37750073638737
 30
0.000000000000000
 10
127.7208346369520
 20
41.23495727782224
 30
0.000000000000000
 10
127.3622352526066
 20
41.08225812676732
 30
0.000000000000000
 10
127.0055407800197
 20
40.97666154979178
 30
0.000000000000000
 10
126.6754207581006
 20
40.91424179984324
 30
0.000000000000000
 10
126.4480228849158
 20
40.89952168028842
 30
0.000000000000000
 10
126.3331690412753
 20
40.89874748494819
 30
0.000000000000000
  0
ARC
  5
2A8
100
AcDbEntity
  8
A1
  6
CONTINUOUS
 62
7
100
AcDbCircle
 10
126.3342559286946
 20
43.94977651057160
 30
0.000000000000000
 40
4.249999999999890
100
AcDbArc
 50
110.6673161734822
 51
180.0000000000000
  0
ARC
  5
2A9
100
AcDbEntity
  8
A1
  6
CONTINUOUS
 62
7
100
AcDbCircle
 10
126.3342559286946
 20
43.94977651057160
 30
0.000000000000000
 40
4.249999999999890
100
AcDbArc
 50
44.90087215597418
 51
89.91815954090342
  0
ARC
  5
2AA
100
AcDbEntity
  8
A1
  6
CONTINUOUS
 62
7
100
AcDbCircle
 10
126.3342559286946
 20
43.94977651057160
 30
0.000000000000000
 40
3.049999999999890
100
AcDbArc
 50
55.05198628009543
 51
90.11057758981815
  0
ARC
  5
2AB
100
AcDbEntity
  8
A1
  6
CONTINUOUS
 62
7
100
AcDbCircle
 10
126.3342559286946
 20
43.94977651057160
 30
0.000000000000000
 40
3.049999999999890
100
AcDbArc
 50
119.4591744325507
 51
180.0000000000000
  0
LINE
  5
2AC
100
AcDbEntity
  8
A1
  6
CONTINUOUS
 62
7
100
AcDbLine
 10
126.4378285075912
 20
40.90488312183015
 30
0.000000000000000
 11
126.3399687261943
 21
40.90305997059175
 31
0.000000000000000
  0
LINE
  5
2AD
100
AcDbEntity
  8
A1
  6
CONTINUOUS
 62
7
100
AcDbLine
 10
122.6842559286947
 20
43.94977651057160
 30
0.000000000000000
 11
123.2842559286947
 21
43.94977651057160
 31
0.000000000000000
  0
LINE
  5
2AE
100
AcDbEntity
  8
A1
  6
CONTINUOUS
 62
7
100
AcDbLine
 10
122.0842559286947
 20
43.94977651057160
 30
0.000000000000000
 11
122.6842559286947
 21
43.94977651057160
 31
0.000000000000000
  0
LINE
  5
2AF
100
AcDbEntity
  8
A1
  6
CONTINUOUS
 62
7
100
AcDbLine
 10
147.8342559509058
 20
47.60305737043280
 30
0.000000000000000
 11
148.3342559509057
 21
47.60305737043280
 31
0.000000000000000
  0
LINE
  5
2B0
100
AcDbEntity
  8
A1
  6
CONTINUOUS
 62
7
100
AcDbLine
 10
148.3342559509057
 20
47.60305737043280
 30
0.000000000000000
 11
148.3342559509057
 21
49.10305737043280
 31
0.000000000000000
  0
LINE
  5
2B1
100
AcDbEntity
  8
A1
  6
CONTINUOUS
 62
7
100
AcDbLine
 10
148.3342559509057
 20
49.10305737043280
 30
0.000000000000000
 11
147.8342559509058
 21
49.10305737043280
 31
0.000000000000000
  0
LINE
  5
2B2
100
AcDbEntity
  8
A1
  6
CONTINUOUS
 62
7
100
AcDbLine
 10
131.3342559509057
 20
47.60305737043280
 30
0.000000000000000
 11
131.8342559509059
 21
47.60305737043280
 31
0.000000000000000
  0
LINE
  5
2B3
100
AcDbEntity
  8
A1
  6
CONTINUOUS
 62
7
100
AcDbLine
 10
131.3342559509057
 20
49.10305737043280
 30
0.000000000000000
 11
131.8342559509059
 21
49.10305737043280
 31
0.000000000000000
  0
LINE
  5
2B4
100
AcDbEntity
  8
A1
  6
CONTINUOUS
 62
7
100
AcDbLine
 10
131.3342559509057
 20
47.60305737043280
 30
0.000000000000000
 11
131.3342559509058
 21
49.10305737043280
 31
0.000000000000000
  0
LINE
  5
2B5
100
AcDbEntity
  8
A1
  6
CONTINUOUS
 62
7
100
AcDbLine
 10
133.5842559509057
 20
40.24992238456254
 30
0.000000000000000
 11
133.5842559509057
 21
42.19977651057160
 31
0.000000000000000
  0
LINE
  5
2B6
100
AcDbEntity
  8
A1
  6
CONTINUOUS
 62
7
100
AcDbLine
 10
146.0842559509057
 20
42.19977651057160
 30
0.000000000000000
 11
146.0842559509057
 21
40.24992238456254
 31
0.000000000000000
  0
LINE
  5
2B7
100
AcDbEntity
  8
A1
  6
CONTINUOUS
 62
7
100
AcDbLine
 10
133.5842559509057
 20
40.24992238456253
 30
0.000000000000000
 11
133.5842559509057
 21
40.10305737043280
 31
0.000000000000000
  0
LINE
  5
2B8
100
AcDbEntity
  8
A1
  6
CONTINUOUS
 62
7
100
AcDbLine
 10
146.0842559509057
 20
40.10305737043280
 30
0.000000000000000
 11
146.0842559509057
 21
40.24992238456253
 31
0.000000000000000
  0
LINE
  5
2B9
100
AcDbEntity
  8
A1
  6
CONTINUOUS
 62
7
100
AcDbLine
 10
148.3342559509057
 20
38.60305737043280
 30
0.000000000000000
 11
146.0842559509057
 21
38.60305737043286
 31
0.000000000000000
  0
LINE
  5
2BA
100
AcDbEntity
  8
A1
  6
CONTINUOUS
 62
7
100
AcDbLine
 10
148.3342559509057
 20
40.10305737043280
 30
0.000000000000000
 11
146.0842559509057
 21
40.10305737043280
 31
0.000000000000000
  0
LINE
  5
2BB
100
AcDbEntity
  8
A1
  6
CONTINUOUS
 62
7
100
AcDbLine
 10
148.3342559509057
 20
38.60305737043280
 30
0.000000000000000
 11
148.3342559509057
 21
40.10305737043280
 31
0.000000000000000
  0
LINE
  5
2BC
100
AcDbEntity
  8
A1
  6
CONTINUOUS
 62
7
100
AcDbLine
 10
133.5842559509057
 20
38.60305737043286
 30
0.000000000000000
 11
131.3342559509057
 21
38.60305737043286
 31
0.000000000000000
  0
LINE
  5
2BD
100
AcDbEntity
  8
A1
  6
CONTINUOUS
 62
7
100
AcDbLine
 10
133.5842559509057
 20
40.10305737043280
 30
0.000000000000000
 11
131.3342559509057
 21
40.10305737043280
 31
0.000000000000000
  0
LINE
  5
2BE
100
AcDbEntity
  8
A1
  6
CONTINUOUS
 62
7
100
AcDbLine
 10
131.3342559509057
 20
38.60305737043286
 30
0.000000000000000
 11
131.3342559509057
 21
40.10305737043280
 31
0.000000000000000
  0
LINE
  5
2BF
100
AcDbEntity
  8
A1
  6
CONTINUOUS
 62
7
100
AcDbLine
 10
134.9259435557280
 20
38.60305737043286
 30
0.000000000000000
 11
144.7425683460834
 21
38.60305737043286
 31
0.000000000000000
  0
LINE
  5
2C0
100
AcDbEntity
  8
A1
  6
CONTINUOUS
 62
7
100
AcDbLine
 10
134.9259435557280
 20
40.10305737043280
 30
0.000000000000000
 11
144.7425683460834
 21
40.10305737043280
 31
0.000000000000000
  0
LINE
  5
2C1
100
AcDbEntity
  8
A1
  6
CONTINUOUS
 62
7
100
AcDbLine
 10
144.7425683460834
 20
38.60305737043286
 30
0.000000000000000
 11
146.0842559509057
 21
38.60305737043286
 31
0.000000000000000
  0
LINE
  5
2C2
100
AcDbEntity
  8
A1
  6
CONTINUOUS
 62
7
100
AcDbLine
 10
144.7425683460834
 20
40.10305737043280
 30
0.000000000000000
 11
146.0842559509057
 21
40.10305737043280
 31
0.000000000000000
  0
LINE
  5
2C3
100
AcDbEntity
  8
A1
  6
CONTINUOUS
 62
7
100
AcDbLine
 10
146.0842559509057
 20
38.60305737043286
 30
0.000000000000000
 11
146.0842559509057
 21
40.10305737043280
 31
0.000000000000000
  0
LINE
  5
2C4
100
AcDbEntity
  8
A1
  6
CONTINUOUS
 62
7
100
AcDbLine
 10
133.5842559509057
 20
38.60305737043286
 30
0.000000000000000
 11
134.9259435557280
 21
38.60305737043286
 31
0.000000000000000
  0
LINE
  5
2C5
100
AcDbEntity
  8
A1
  6
CONTINUOUS
 62
7
100
AcDbLine
 10
133.5842559509057
 20
40.10305737043280
 30
0.000000000000000
 11
134.9259435557280
 21
40.10305737043280
 31
0.000000000000000
  0
LINE
  5
2C6
100
AcDbEntity
  8
A1
  6
CONTINUOUS
 62
7
100
AcDbLine
 10
133.5842559509057
 20
38.60305737043286
 30
0.000000000000000
 11
133.5842559509057
 21
40.10305737043280
 31
0.000000000000000
  0
LINE
  5
2C7
100
AcDbEntity
  8
A1
  6
CONTINUOUS
 62
7
100
AcDbLine
 10
152.3342559509058
 20
41.30149630335329
 30
0.000000000000000
 11
152.3342559509058
 21
41.44977651057160
 31
0.000000000000000
  0
LINE
  5
2C8
100
AcDbEntity
  8
A1
  6
CONTINUOUS
 62
7
100
AcDbLine
 10
152.3342559509058
 20
39.44977651057160
 30
0.000000000000000
 11
152.3342559509058
 21
39.98505703589146
 31
0.000000000000000
  0
LINE
  5
2C9
100
AcDbEntity
  8
A1
  6
CONTINUOUS
 62
7
100
AcDbLine
 10
127.8342559509056
 20
38.94977651057160
 30
0.000000000000000
 11
127.8342559509056
 21
39.44977651057160
 31
0.000000000000000
  0
LINE
  5
2CA
100
AcDbEntity
  8
A1
  6
CONTINUOUS
 62
7
100
AcDbLine
 10
127.8342559509056
 20
38.94977651057160
 30
0.000000000000000
 11
126.3342559509057
 21
38.94977651057160
 31
0.000000000000000
  0
LINE
  5
2CB
100
AcDbEntity
  8
A1
  6
CONTINUOUS
 62
7
100
AcDbLine
 10
152.3342559509058
 20
47.92626994071821
 30
0.000000000000000
 11
152.3342559509058
 21
48.44977651057160
 31
0.000000000000000
  0
LINE
  5
2CC
100
AcDbEntity
  8
A1
  6
CONTINUOUS
 62
7
100
AcDbLine
 10
152.3342559509058
 20
46.44977651057160
 30
0.000000000000000
 11
152.3342559509058
 21
46.59158406909965
 31
0.000000000000000
  0
LINE
  5
2CD
100
AcDbEntity
  8
A1
  6
CONTINUOUS
 62
7
100
AcDbLine
 10
127.8342559509057
 20
41.31091259030058
 30
0.000000000000000
 11
127.8342559509056
 21
41.44977651057160
 31
0.000000000000000
  0
LINE
  5
2CE
100
AcDbEntity
  8
A1
  6
CONTINUOUS
 62
7
100
AcDbLine
 10
127.8342559509056
 20
39.44977651057160
 30
0.000000000000000
 11
127.8342559509057
 21
39.98436606239093
 31
0.000000000000000
  0
LINE
  5
2CF
100
AcDbEntity
  8
A1
  6
CONTINUOUS
 62
7
100
AcDbLine
 10
152.3342559509058
 20
48.44977651057160
 30
0.000000000000000
 11
152.3342559509058
 21
48.94977651057160
 31
0.000000000000000
  0
LINE
  5
2D0
100
AcDbEntity
  8
A1
  6
CONTINUOUS
 62
7
100
AcDbLine
 10
152.3342559509058
 20
48.94977651057160
 30
0.000000000000000
 11
153.8342559509058
 21
48.94977651057160
 31
0.000000000000000
  0
LINE
  5
2D1
100
AcDbEntity
  8
A1
  6
CONTINUOUS
 62
7
100
AcDbLine
 10
127.8342559509056
 20
48.44977651057160
 30
0.000000000000000
 11
127.8342559509056
 21
48.94977651057160
 31
0.000000000000000
  0
LINE
  5
2D2
100
AcDbEntity
  8
A1
  6
CONTINUOUS
 62
7
100
AcDbLine
 10
127.8342559509056
 20
48.94977651057160
 30
0.000000000000000
 11
126.3342559509057
 21
48.94977651057160
 31
0.000000000000000
  0
LINE
  5
2D3
100
AcDbEntity
  8
A1
  6
CONTINUOUS
 62
7
100
AcDbLine
 10
152.3342559509058
 20
38.94977651057160
 30
0.000000000000000
 11
152.3342559509058
 21
39.44977651057160
 31
0.000000000000000
  0
LINE
  5
2D4
100
AcDbEntity
  8
A1
  6
CONTINUOUS
 62
7
100
AcDbLine
 10
152.3342559509058
 20
38.94977651057160
 30
0.000000000000000
 11
153.8342559509058
 21
38.94977651057160
 31
0.000000000000000
  0
LINE
  5
2D5
100
AcDbEntity
  8
A1
  6
CONTINUOUS
 62
7
100
AcDbLine
 10
127.8342559509057
 20
47.92626993233969
 30
0.000000000000000
 11
127.8342559509056
 21
48.44977651057160
 31
0.000000000000000
  0
LINE
  5
2D6
100
AcDbEntity
  8
A1
  6
CONTINUOUS
 62
7
100
AcDbLine
 10
127.8342559509056
 20
46.44977651057160
 30
0.000000000000000
 11
127.8342559509057
 21
46.59913070215055
 31
0.000000000000000
  0
LINE
  5
2D7
100
AcDbEntity
  8
A1
  6
CONTINUOUS
 62
7
100
AcDbLine
 10
153.4618412750918
 20
41.44977651057166
 30
0.000000000000000
 11
153.8342559509058
 21
41.44977651057166
 31
0.000000000000000
  0
LINE
  5
2D8
100
AcDbEntity
  8
A1
  6
CONTINUOUS
 62
7
100
AcDbLine
 10
153.8342559509058
 20
46.44977651057155
 30
0.000000000000000
 11
153.4618412750918
 21
46.44977651057155
 31
0.000000000000000
  0
LINE
  5
2D9
100
AcDbEntity
  8
A1
  6
CONTINUOUS
 62
7
100
AcDbLine
 10
126.3342559509057
 20
46.44977651057155
 30
0.000000000000000
 11
126.7066706267197
 21
46.44977651057155
 31
0.000000000000000
  0
LINE
  5
2DA
100
AcDbEntity
  8
A1
  6
CONTINUOUS
 62
7
100
AcDbLine
 10
126.7066706267197
 20
41.44977651057166
 30
0.000000000000000
 11
126.3342559509057
 21
41.44977651057166
 31
0.000000000000000
  0
LINE
  5
2DB
100
AcDbEntity
  8
A1
  6
CONTINUOUS
 62
7
100
AcDbLine
 10
151.1773596198592
 20
41.44977651057166
 30
0.000000000000000
 11
153.4618412750918
 21
41.44977651057166
 31
0.000000000000000
  0
LINE
  5
2DC
100
AcDbEntity
  8
A1
  6
CONTINUOUS
 62
7
100
AcDbLine
 10
153.4618412750918
 20
46.44977651057155
 30
0.000000000000000
 11
151.1773596198592
 21
46.44977651057155
 31
0.000000000000000
  0
LINE
  5
2DD
100
AcDbEntity
  8
A1
  6
CONTINUOUS
 62
7
100
AcDbLine
 10
153.4618412750918
 20
46.44977651057155
 30
0.000000000000000
 11
153.4618412750918
 21
41.44977651057166
 31
0.000000000000000
  0
LINE
  5
2DE
100
AcDbEntity
  8
A1
  6
CONTINUOUS
 62
7
100
AcDbLine
 10
126.7066706267197
 20
46.44977651057155
 30
0.000000000000000
 11
128.9911522819523
 21
46.44977651057155
 31
0.000000000000000
  0
LINE
  5
2DF
100
AcDbEntity
  8
A1
  6
CONTINUOUS
 62
7
100
AcDbLine
 10
128.9911522819523
 20
41.44977651057166
 30
0.000000000000000
 11
126.7066706267197
 21
41.44977651057166
 31
0.000000000000000
  0
LINE
  5
2E0
100
AcDbEntity
  8
A1
  6
CONTINUOUS
 62
7
100
AcDbLine
 10
128.9911522819523
 20
46.44977651057155
 30
0.000000000000000
 11
129.0842559509058
 21
46.44977651057155
 31
0.000000000000000
  0
LINE
  5
2E1
100
AcDbEntity
  8
A1
  6
CONTINUOUS
 62
7
100
AcDbLine
 10
129.0842559509058
 20
41.44977651057166
 30
0.000000000000000
 11
128.9911522819523
 21
41.44977651057166
 31
0.000000000000000
  0
LINE
  5
2E2
100
AcDbEntity
  8
A1
  6
CONTINUOUS
 62
7
100
AcDbLine
 10
151.0842559509058
 20
41.44977651057166
 30
0.000000000000000
 11
151.1773596198593
 21
41.44977651057166
 31
0.000000000000000
  0
LINE
  5
2E3
100
AcDbEntity
  8
A1
  6
CONTINUOUS
 62
7
100
AcDbLine
 10
151.1773596198593
 20
46.44977651057155
 30
0.000000000000000
 11
151.0842559509058
 21
46.44977651057155
 31
0.000000000000000
  0
LINE
  5
2E4
100
AcDbEntity
  8
A1
  6
CONTINUOUS
 62
7
100
AcDbLine
 10
151.1773596198592
 20
42.19977651057160
 30
0.000000000000000
 11
151.1773596198592
 21
41.44977651057166
 31
0.000000000000000
  0
LINE
  5
2E5
100
AcDbEntity
  8
A1
  6
CONTINUOUS
 62
7
100
AcDbLine
 10
151.1773596198592
 20
46.44977651057155
 30
0.000000000000000
 11
151.1773596198592
 21
45.69977651057160
 31
0.000000000000000
  0
LINE
  5
2E6
100
AcDbEntity
  8
A1
  6
CONTINUOUS
 62
7
100
AcDbLine
 10
151.0842559509058
 20
42.19977651057160
 30
0.000000000000000
 11
151.2175892842392
 21
42.19977651057160
 31
0.000000000000000
  0
LINE
  5
2E7
100
AcDbEntity
  8
A1
  6
CONTINUOUS
 62
7
100
AcDbLine
 10
151.2175892842392
 20
45.69977651057160
 30
0.000000000000000
 11
151.0842559509058
 21
45.69977651057160
 31
0.000000000000000
  0
LINE
  5
2E8
100
AcDbEntity
  8
A1
  6
CONTINUOUS
 62
7
100
AcDbLine
 10
129.0842559509058
 20
45.69977651057160
 30
0.000000000000000
 11
128.9509226175723
 21
45.69977651057160
 31
0.000000000000000
  0
LINE
  5
2E9
100
AcDbEntity
  8
A1
  6
CONTINUOUS
 62
7
100
AcDbLine
 10
128.9509226175723
 20
42.19977651057160
 30
0.000000000000000
 11
129.0842559509058
 21
42.19977651057160
 31
0.000000000000000
  0
LINE
  5
2EA
100
AcDbEntity
  8
A1
  6
CONTINUOUS
 62
7
100
AcDbLine
 10
131.8342559509059
 20
45.69977651057160
 30
0.000000000000000
 11
130.5842559509058
 21
45.69977651057160
 31
0.000000000000000
  0
LINE
  5
2EB
100
AcDbEntity
  8
A1
  6
CONTINUOUS
 62
7
100
AcDbLine
 10
149.5842559509058
 20
45.69977651057160
 30
0.000000000000000
 11
147.8342559509057
 21
45.69977651057160
 31
0.000000000000000
  0
LINE
  5
2EC
100
AcDbEntity
  8
A1
  6
CONTINUOUS
 62
7
100
AcDbLine
 10
147.8342559509058
 20
42.19977651057160
 30
0.000000000000000
 11
149.5842559509058
 21
42.19977651057160
 31
0.000000000000000
  0
LINE
  5
2ED
100
AcDbEntity
  8
A1
  6
CONTINUOUS
 62
7
100
AcDbLine
 10
133.3342559509059
 20
42.19977651057160
 30
0.000000000000000
 11
146.3342559509057
 21
42.19977651057160
 31
0.000000000000000
  0
LINE
  5
2EE
100
AcDbEntity
  8
A1
  6
CONTINUOUS
 62
7
100
AcDbLine
 10
130.5842559509058
 20
42.19977651057160
 30
0.000000000000000
 11
131.8342559509059
 21
42.19977651057160
 31
0.000000000000000
  0
LINE
  5
2EF
100
AcDbEntity
  8
A1
  6
CONTINUOUS
 62
7
100
AcDbLine
 10
128.9509226175722
 20
45.69977651057160
 30
0.000000000000000
 11
128.4842559509058
 21
45.94977651057161
 31
0.000000000000000
  0
LINE
  5
2F0
100
AcDbEntity
  8
A1
  6
CONTINUOUS
 62
7
100
AcDbLine
 10
128.4842559509058
 20
41.94977651057159
 30
0.000000000000000
 11
128.9509226175722
 21
42.19977651057159
 31
0.000000000000000
  0
LINE
  5
2F1
100
AcDbEntity
  8
A1
  6
CONTINUOUS
 62
7
100
AcDbLine
 10
128.9509226175723
 20
42.19977651057160
 30
0.000000000000000
 11
128.9509226175723
 21
45.69977651057160
 31
0.000000000000000
  0
LINE
  5
2F2
100
AcDbEntity
  8
A1
  6
CONTINUOUS
 62
7
100
AcDbLine
 10
128.4842559509058
 20
41.94977651057160
 30
0.000000000000000
 11
128.4842559509058
 21
45.94977651057160
 31
0.000000000000000
  0
LINE
  5
2F3
100
AcDbEntity
  8
A1
  6
CONTINUOUS
 62
7
100
AcDbLine
 10
151.2175892842392
 20
42.19977651057163
 30
0.000000000000000
 11
151.6842559509058
 21
41.94977651057160
 31
0.000000000000000
  0
LINE
  5
2F4
100
AcDbEntity
  8
A1
  6
CONTINUOUS
 62
7
100
AcDbLine
 10
151.6842559509058
 20
45.94977651057157
 30
0.000000000000000
 11
151.2175892842392
 21
45.69977651057154
 31
0.000000000000000
  0
LINE
  5
2F5
100
AcDbEntity
  8
A1
  6
CONTINUOUS
 62
7
100
AcDbLine
 10
151.2175892842392
 20
42.19977651057160
 30
0.000000000000000
 11
151.2175892842392
 21
45.69977651057160
 31
0.000000000000000
  0
LINE
  5
2F6
100
AcDbEntity
  8
A1
  6
CONTINUOUS
 62
7
100
AcDbLine
 10
151.6842559509058
 20
41.94977651057160
 30
0.000000000000000
 11
151.6842559509058
 21
45.94977651057160
 31
0.000000000000000
  0
LINE
  5
2F7
100
AcDbEntity
  8
A1
  6
CONTINUOUS
 62
7
100
AcDbLine
 10
149.5842559509058
 20
40.94977651057160
 30
0.000000000000000
 11
151.0842559509057
 21
40.94977651057160
 31
0.000000000000000
  0
LINE
  5
2F8
100
AcDbEntity
  8
A1
  6
CONTINUOUS
 62
7
100
AcDbLine
 10
151.0842559509057
 20
46.94977651057160
 30
0.000000000000000
 11
149.5842559509058
 21
46.94977651057160
 31
0.000000000000000
  0
LINE
  5
2F9
100
AcDbEntity
  8
A1
  6
CONTINUOUS
 62
7
100
AcDbLine
 10
151.0842559509058
 20
46.94977651057160
 30
0.000000000000000
 11
151.0842559509058
 21
40.94977651057160
 31
0.000000000000000
  0
LINE
  5
2FA
100
AcDbEntity
  8
A1
  6
CONTINUOUS
 62
7
100
AcDbLine
 10
149.5842559509058
 20
40.94977651057160
 30
0.000000000000000
 11
149.5842559509058
 21
46.94977651057160
 31
0.000000000000000
  0
LINE
  5
2FB
100
AcDbEntity
  8
A1
  6
CONTINUOUS
 62
7
100
AcDbLine
 10
130.5842559509058
 20
46.94977651057160
 30
0.000000000000000
 11
129.0842559509058
 21
46.94977651057160
 31
0.000000000000000
  0
LINE
  5
2FC
100
AcDbEntity
  8
A1
  6
CONTINUOUS
 62
7
100
AcDbLine
 10
129.0842559509058
 20
40.94977651057160
 30
0.000000000000000
 11
130.5842559509058
 21
40.94977651057160
 31
0.000000000000000
  0
LINE
  5
2FD
100
AcDbEntity
  8
A1
  6
CONTINUOUS
 62
7
100
AcDbLine
 10
129.0842559509058
 20
46.94977651057160
 30
0.000000000000000
 11
129.0842559509058
 21
40.94977651057160
 31
0.000000000000000
  0
LINE
  5
2FE
100
AcDbEntity
  8
A1
  6
CONTINUOUS
 62
7
100
AcDbLine
 10
130.5842559509058
 20
40.94977651057160
 30
0.000000000000000
 11
130.5842559509058
 21
46.94977651057160
 31
0.000000000000000
  0
ARC
  5
2FF
100
AcDbEntity
  8
A1
  6
CONTINUOUS
 62
7
100
AcDbCircle
 10
146.3342559509088
 20
174.3244164807484
 30
0.000000000000000
 40
1.499999999996984
100
AcDbArc
 50
269.9999999998826
 51
360.0000000001152
  0
ARC
  5
300
100
AcDbEntity
  8
A1
  6
CONTINUOUS
 62
7
100
AcDbCircle
 10
133.3342559509051
 20
174.3244164807506
 30
0.000000000000000
 40
1.499999999999255
100
AcDbArc
 50
179.9999999999715
 51
270.0000000000284
  0
LINE
  5
301
100
AcDbEntity
  8
A1
  6
CONTINUOUS
 62
7
100
AcDbLine
 10
146.3342559509057
 20
185.2797411514437
 30
0.000000000000000
 11
146.3342559509057
 21
185.4776973406197
 31
0.000000000000000
  0
LINE
  5
302
100
AcDbEntity
  8
A1
  6
CONTINUOUS
 62
7
100
AcDbLine
 10
147.8342559509057
 20
185.2797411514437
 30
0.000000000000000
 11
147.8342559509057
 21
185.4776973406197
 31
0.000000000000000
  0
LINE
  5
303
100
AcDbEntity
  8
A1
  6
CONTINUOUS
 62
7
100
AcDbLine
 10
146.3342559509057
 20
185.4776973406197
 30
0.000000000000000
 11
147.8342559509057
 21
185.4776973406197
 31
0.000000000000000
  0
LINE
  5
304
100
AcDbEntity
  8
A1
  6
CONTINUOUS
 62
7
100
AcDbLine
 10
131.8342559509058
 20
185.2797411514438
 30
0.000000000000000
 11
131.8342559509058
 21
185.4776973406197
 31
0.000000000000000
  0
LINE
  5
305
100
AcDbEntity
  8
A1
  6
CONTINUOUS
 62
7
100
AcDbLine
 10
133.3342559509058
 20
185.2797411514438
 30
0.000000000000000
 11
133.3342559509058
 21
185.4776973406197
 31
0.000000000000000
  0
LINE
  5
306
100
AcDbEntity
  8
A1
  6
CONTINUOUS
 62
7
100
AcDbLine
 10
133.3342559509058
 20
185.4776973406197
 30
0.000000000000000
 11
131.8342559509058
 21
185.4776973406197
 31
0.000000000000000
  0
LINE
  5
307
100
AcDbEntity
  8
A1
  6
CONTINUOUS
 62
7
100
AcDbLine
 10
146.3342559509057
 20
183.7276864206040
 30
0.000000000000000
 11
146.3342559509057
 21
185.2797411514438
 31
0.000000000000000
  0
LINE
  5
308
100
AcDbEntity
  8
A1
  6
CONTINUOUS
 62
7
100
AcDbLine
 10
147.8342559509057
 20
183.7276864206040
 30
0.000000000000000
 11
147.8342559509057
 21
185.2797411514438
 31
0.000000000000000
  0
LINE
  5
309
100
AcDbEntity
  8
A1
  6
CONTINUOUS
 62
7
100
AcDbLine
 10
131.8342559509058
 20
183.7276864206040
 30
0.000000000000000
 11
131.8342559509058
 21
185.2797411514438
 31
0.000000000000000
  0
LINE
  5
30A
100
AcDbEntity
  8
A1
  6
CONTINUOUS
 62
7
100
AcDbLine
 10
133.3342559509058
 20
183.7276864206040
 30
0.000000000000000
 11
133.3342559509058
 21
185.2797411514438
 31
0.000000000000000
  0
LINE
  5
30B
100
AcDbEntity
  8
A1
  6
CONTINUOUS
 62
7
100
AcDbLine
 10
147.8342559509057
 20
178.6939498394644
 30
0.000000000000000
 11
147.8342559509057
 21
180.2276864206040
 31
0.000000000000000
  0
LINE
  5
30C
100
AcDbEntity
  8
A1
  6
CONTINUOUS
 62
7
100
AcDbLine
 10
146.3342559509057
 20
178.6939498394644
 30
0.000000000000000
 11
146.3342559509057
 21
180.2276864206040
 31
0.000000000000000
  0
LINE
  5
30D
100
AcDbEntity
  8
A1
  6
CONTINUOUS
 62
7
100
AcDbLine
 10
131.8342559509059
 20
180.2276864206040
 30
0.000000000000000
 11
131.8342559509059
 21
178.6939498394644
 31
0.000000000000000
  0
LINE
  5
30E
100
AcDbEntity
  8
A1
  6
CONTINUOUS
 62
7
100
AcDbLine
 10
133.3342559509058
 20
180.2276864206040
 30
0.000000000000000
 11
133.3342559509058
 21
178.6939498394644
 31
0.000000000000000
  0
LINE
  5
30F
100
AcDbEntity
  8
A1
  6
CONTINUOUS
 62
7
100
AcDbLine
 10
147.8342559509057
 20
174.3244164807514
 30
0.000000000000000
 11
147.8342559509057
 21
175.2364939834775
 31
0.000000000000000
  0
LINE
  5
310
100
AcDbEntity
  8
A1
  6
CONTINUOUS
 62
7
100
AcDbLine
 10
131.8342559509058
 20
174.3244164807514
 30
0.000000000000000
 11
131.8342559509058
 21
175.2364939834775
 31
0.000000000000000
  0
LINE
  5
311
100
AcDbEntity
  8
A1
  6
CONTINUOUS
 62
7
100
AcDbLine
 10
146.3342559509057
 20
172.8244164807514
 30
0.000000000000000
 11
133.3342559509058
 21
172.8244164807514
 31
0.000000000000000
  0
LINE
  5
312
100
AcDbEntity
  8
A1
  6
CONTINUOUS
 62
7
100
AcDbLine
 10
147.8342559509057
 20
178.2276973406327
 30
0.000000000000000
 11
147.8342559509057
 21
178.6939498394644
 31
0.000000000000000
  0
LINE
  5
313
100
AcDbEntity
  8
A1
  6
CONTINUOUS
 62
7
100
AcDbLine
 10
131.8342559509058
 20
178.2276973406327
 30
0.000000000000000
 11
131.8342559509058
 21
178.6939498394644
 31
0.000000000000000
  0
LINE
  5
314
100
AcDbEntity
  8
A1
  6
CONTINUOUS
 62
7
100
AcDbLine
 10
147.8342559509057
 20
178.6939498394644
 30
0.000000000000000
 11
131.8342559509058
 21
178.6939498394644
 31
0.000000000000000
  0
LINE
  5
315
100
AcDbEntity
  8
A1
  6
CONTINUOUS
 62
7
100
AcDbLine
 10
147.8342559509057
 20
175.2364939834775
 30
0.000000000000000
 11
147.8342559509057
 21
178.2276973406327
 31
0.000000000000000
  0
LINE
  5
316
100
AcDbEntity
  8
A1
  6
CONTINUOUS
 62
7
100
AcDbLine
 10
131.8342559509058
 20
175.2364939834775
 30
0.000000000000000
 11
131.8342559509058
 21
178.2276973406327
 31
0.000000000000000
  0
LINE
  5
317
100
AcDbEntity
  8
A1
  6
CONTINUOUS
 62
7
100
AcDbLine
 10
147.8342559509057
 20
178.2276973406327
 30
0.000000000000000
 11
131.8342559509058
 21
178.2276973406327
 31
0.000000000000000
  0
SPLINE
  5
318
100
AcDbEntity
  8
A1
  6
CONTINUOUS
 62
7
100
AcDbSpline
210
0.000000000000000
220
0.000000000000000
230
1.000000000000000
 70
     8
 71
     3
 72
    10
 73
     6
 74
     0
 42
1.000000000000000e-07
 43
1.000000000000000e-07
 12
0.9696055779963899
 22
-0.2446732987455107
 32
0.000000000000000
 13
0.9998037566429048
 23
-0.01981030544629903
 33
0.000000000000000
 40
0.000000000000000
 40
0.000000000000000
 40
0.000000000000000
 40
0.000000000000000
 40
0.2432140613696391
 40
0.4618380705255333
 40
0.5582435422142504
 40
0.5582435422142504
 40
0.5582435422142504
 40
0.5582435422142504
 10
154.3992909753649
 20
183.0681584094215
 30
0.000000000000000
 10
154.4778982122153
 20
183.0483224138559
 30
0.000000000000000
 10
154.6285650769379
 20
183.0169368350240
 30
0.000000000000000
 10
154.8120293285697
 20
182.9831899262795
 30
0.000000000000000
 10
154.9170740521895
 20
182.9783339478817
 30
0.000000000000000
 10
154.9492029031080
 20
182.9776973406014
 30
0.000000000000000
  0
SPLINE
  5
319
100
AcDbEntity
  8
A1
  6
CONTINUOUS
 62
7
100
AcDbSpline
210
0.000000000000000
220
0.000000000000000
230
1.000000000000000
 70
     8
 71
     3
 72
    10
 73
     6
 74
     0
 42
1.000000000000000e-07
 43
1.000000000000000e-07
 12
-0.9696055779959352
 22
-0.2446732987455107
 32
0.000000000000000
 13
-0.9998037566438143
 23
-0.01981030544629903
 33
0.000000000000000
 40
0.000000000000000
 40
0.000000000000000
 40
0.000000000000000
 40
0.000000000000000
 40
0.2432140613696144
 40
0.4618380705255108
 40
0.5582435422142377
 40
0.5582435422142377
 40
0.5582435422142377
 40
0.5582435422142377
 10
125.7692209264467
 20
183.0681584094215
 30
0.000000000000000
 10
125.6906136895964
 20
183.0483224138559
 30
0.000000000000000
 10
125.5399468248738
 20
183.0169368350240
 30
0.000000000000000
 10
125.3564825732419
 20
182.9831899262795
 30
0.000000000000000
 10
125.2514378496221
 20
182.9783339478817
 30
0.000000000000000
 10
125.2193089987037
 20
182.9776973406014
 30
0.000000000000000
  0
SPLINE
  5
31A
100
AcDbEntity
  8
A1
  6
CONTINUOUS
 62
7
100
AcDbSpline
210
0.000000000000000
220
0.000000000000000
230
1.000000000000000
 70
     8
 71
     3
 72
    11
 73
     7
 74
     0
 42
1.000000000000000e-07
 43
1.000000000000000e-07
 12
-0.9992361033243924
 22
-0.03907953189559521
 32
0.000000000000000
 13
-0.9999542740633842
 23
-0.009562937982082076
 33
0.000000000000000
 40
0.000000000000000
 40
0.000000000000000
 40
0.000000000000000
 40
0.000000000000000
 40
0.3066242358537576
 40
0.5956407768557791
 40
0.8116953549174253
 40
1.001954789089861
 40
1.001954789089861
 40
1.001954789089861
 40
1.001954789089861
 10
126.2203973759545
 20
178.0181059673696
 30
0.000000000000000
 10
126.1182673737481
 20
178.0141117235013
 30
0.000000000000000
 10
125.9198886622597
 20
178.0058295748493
 30
0.000000000000000
 10
125.6496860455329
 20
177.9919028357319
 30
0.000000000000000
 10
125.4181579379680
 20
177.9808602430925
 30
0.000000000000000
 10
125.2827259101687
 20
177.9783038203241
 30
0.000000000000000
 10
125.2193089987082
 20
177.9776973406009
 30
0.000000000000000
  0
SPLINE
  5
31B
100
AcDbEntity
  8
A1
  6
CONTINUOUS
 62
7
100
AcDbSpline
210
0.000000000000000
220
0.000000000000000
230
1.000000000000000
 70
     8
 71
     3
 72
    11
 73
     7
 74
     0
 42
1.000000000000000e-07
 43
1.000000000000000e-07
 12
0.9992361033241650
 22
-0.03907953189559521
 32
0.000000000000000
 13
0.9999542740629295
 23
-0.009562937982082076
 33
0.000000000000000
 40
0.000000000000000
 40
0.000000000000000
 40
0.000000000000000
 40
0.000000000000000
 40
0.3066242358537470
 40
0.5956407768557573
 40
0.8116953549174161
 40
1.001954789089834
 40
1.001954789089834
 40
1.001954789089834
 40
1.001954789089834
 10
153.9481145258571
 20
178.0181059673696
 30
0.000000000000000
 10
154.0502445280635
 20
178.0141117235013
 30
0.000000000000000
 10
154.2486232395519
 20
178.0058295748493
 30
0.000000000000000
 10
154.5188258562787
 20
177.9919028357320
 30
0.000000000000000
 10
154.7503539638436
 20
177.9808602430925
 30
0.000000000000000
 10
154.8857859916429
 20
177.9783038203241
 30
0.000000000000000
 10
154.9492029031034
 20
177.9776973406009
 30
0.000000000000000
  0
SPLINE
  5
31C
100
AcDbEntity
  8
A1
  6
CONTINUOUS
 62
7
100
AcDbSpline
210
0.000000000000000
220
0.000000000000000
230
1.000000000000000
 70
     8
 71
     3
 72
    11
 73
     7
 74
     0
 42
1.000000000000000e-07
 43
1.000000000000000e-07
 12
-0.8167864468696280
 22
0.5769401183933951
 32
0.000000000000000
 13
-0.04957167604288770
 23
0.9987705687153721
 33
0.000000000000000
 40
0.000000000000000
 40
0.000000000000000
 40
0.000000000000000
 40
0.000000000000000
 40
0.1058938882726771
 40
0.2205587876037821
 40
0.3242628403853377
 40
0.4422874404198895
 40
0.4422874404198895
 40
0.4422874404198895
 40
0.4422874404198895
 10
151.2604271268154
 20
183.6218363040529
 30
0.000000000000000
 10
151.2315962292329
 20
183.6422011148653
 30
0.000000000000000
 10
151.1766949377120
 20
183.6933281302380
 30
0.000000000000000
 10
151.1272653783829
 20
183.7915294285991
 30
0.000000000000000
 10
151.1002360545798
 20
183.9006226321150
 30
0.000000000000000
 10
151.0907434961574
 20
183.9741894380539
 30
0.000000000000000
 10
151.0887932704113
 20
184.0134826036869
 30
0.000000000000000
  0
SPLINE
  5
31D
100
AcDbEntity
  8
A1
  6
CONTINUOUS
 62
7
100
AcDbSpline
210
0.000000000000000
220
0.000000000000000
230
1.000000000000000
 70
     8
 71
     3
 72
    13
 73
     9
 74
     0
 42
1.000000000000000e-07
 43
1.000000000000000e-07
 12
-0.9982056438520885
 22
0.05987898280591253
 32
0.000000000000000
 13
-0.7293958469354038
 23
0.6840918786774637
 33
0.000000000000000
 40
0.000000000000000
 40
0.000000000000000
 40
0.000000000000000
 40
0.000000000000000
 40
0.2264629317908668
 40
0.4409689839661454
 40
0.6267666052386754
 40
0.7918437437207443
 40
0.9015227219024310
 40
0.9986442260357165
 40
0.9986442260357165
 40
0.9986442260357165
 40
0.9986442260357165
 10
152.1238620196928
 20
178.1114790795852
 30
0.000000000000000
 10
152.0485098274804
 20
178.1159992029181
 30
0.000000000000000
 10
151.9020466687441
 20
178.1292964080134
 30
0.000000000000000
 10
151.6950053520079
 20
178.1581075381325
 30
0.000000000000000
 10
151.5106324952916
 20
178.1984087355870
 30
0.000000000000000
 10
151.3648054869888
 20
178.2477340702411
 30
0.000000000000000
 10
151.2537530514897
 20
178.3041596732473
 30
0.000000000000000
 10
151.1995751654726
 20
178.3475486280828
 30
0.000000000000000
 10
151.1759618248850
 20
178.3696953054903
 30
0.000000000000000
  0
SPLINE
  5
31E
100
AcDbEntity
  8
A1
  6
CONTINUOUS
 62
7
100
AcDbSpline
210
0.000000000000000
220
0.000000000000000
230
1.000000000000000
 70
     8
 71
     3
 72
    11
 73
     7
 74
     0
 42
1.000000000000000e-07
 43
1.000000000000000e-07
 12
0.8167864468691732
 22
0.5769401183943046
 32
0.000000000000000
 13
0.04957167604425194
 23
0.9987705687162816
 33
0.000000000000000
 40
0.000000000000000
 40
0.000000000000000
 40
0.000000000000000
 40
0.000000000000000
 40
0.1058938882726522
 40
0.2205587876037667
 40
0.3242628403853207
 40
0.4422874404198661
 40
0.4422874404198661
 40
0.4422874404198661
 40
0.4422874404198661
 10
128.9080847749963
 20
183.6218363040529
 30
0.000000000000000
 10
128.9369156725787
 20
183.6422011148653
 30
0.000000000000000
 10
128.9918169640996
 20
183.6933281302380
 30
0.000000000000000
 10
129.0412465234288
 20
183.7915294285991
 30
0.000000000000000
 10
129.0682758472317
 20
183.9006226321150
 30
0.000000000000000
 10
129.0777684056542
 20
183.9741894380539
 30
0.000000000000000
 10
129.0797186314003
 20
184.0134826036869
 30
0.000000000000000
  0
SPLINE
  5
31F
100
AcDbEntity
  8
A1
  6
CONTINUOUS
 62
7
100
AcDbSpline
210
0.000000000000000
220
0.000000000000000
230
1.000000000000000
 70
     8
 71
     3
 72
    13
 73
     9
 74
     0
 42
1.000000000000000e-07
 43
1.000000000000000e-07
 12
0.9982056438518612
 22
0.05987898280591253
 32
0.000000000000000
 13
0.7293958469376776
 23
0.6840918786774637
 33
0.000000000000000
 40
0.000000000000000
 40
0.000000000000000
 40
0.000000000000000
 40
0.000000000000000
 40
0.2264629317908641
 40
0.4409689839661647
 40
0.6267666052386460
 40
0.7918437437207261
 40
0.9015227219023806
 40
0.9986442260356968
 40
0.9986442260356968
 40
0.9986442260356968
 40
0.9986442260356968
 10
128.0446498821189
 20
178.1114790795852
 30
0.000000000000000
 10
128.1200020743312
 20
178.1159992029181
 30
0.000000000000000
 10
128.2664652330675
 20
178.1292964080134
 30
0.000000000000000
 10
128.4735065498037
 20
178.1581075381325
 30
0.000000000000000
 10
128.6578794065200
 20
178.1984087355870
 30
0.000000000000000
 10
128.8037064148228
 20
178.2477340702410
 30
0.000000000000000
 10
128.9147588503219
 20
178.3041596732473
 30
0.000000000000000
 10
128.9689367363389
 20
178.3475486280828
 30
0.000000000000000
 10
128.9925500769267
 20
178.3696953054903
 30
0.000000000000000
  0
SPLINE
  5
320
100
AcDbEntity
  8
A1
  6
CONTINUOUS
 62
7
100
AcDbSpline
210
0.000000000000000
220
0.000000000000000
230
1.000000000000000
 70
     8
 71
     3
 72
    19
 73
    15
 74
     0
 42
1.000000000000000e-07
 43
1.000000000000000e-07
 12
-0.9999982509220899
 22
-0.001870335147486912
 32
0.000000000000000
 13
-0.4410043904772465
 23
0.8975049457148998
 33
0.000000000000000
 40
0.000000000000000
 40
0.000000000000000
 40
0.000000000000000
 40
0.000000000000000
 40
0.2181587682492304
 40
0.4268444873838431
 40
0.6301182757651510
 40
0.8206222174415094
 40
0.9925562183449133
 40
1.150558532869229
 40
1.298370697656313
 40
1.431142630026771
 40
1.547409100913410
 40
1.652232487927833
 40
1.751671910619155
 40
1.846836428355876
 40
1.846836428355876
 40
1.846836428355876
 40
1.846836428355876
 10
151.3616501257686
 20
177.9776973406010
 30
0.000000000000000
 10
151.2889306635444
 20
177.9775613305969
 30
0.000000000000000
 10
151.1466477088018
 20
177.9782189223089
 30
0.000000000000000
 10
150.9366242747114
 20
177.9812322675828
 30
0.000000000000000
 10
150.7358936910800
 20
177.9877660730330
 30
0.000000000000000
 10
150.5476153619407
 20
177.9987923701194
 30
0.000000000000000
 10
150.3748699488353
 20
178.0152683180131
 30
0.000000000000000
 10
150.2171766485470
 20
178.0380724590042
 30
0.000000000000000
 10
150.0740774914199
 20
178.0687081921545
 30
0.000000000000000
 10
149.9475295884104
 20
178.1080717710475
 30
0.000000000000000
 10
149.8396569711382
 20
178.1566863671570
 30
0.000000000000000
 10
149.7497384378171
 20
178.2153513811991
 30
0.000000000000000
 10
149.6777839933653
 20
178.2856865559722
 30
0.000000000000000
 10
149.6430308412226
 20
178.3412250970486
 30
0.000000000000000
 10
149.6290415178427
 20
178.3696953054903
 30
0.000000000000000
  0
SPLINE
  5
321
100
AcDbEntity
  8
A1
  6
CONTINUOUS
 62
7
100
AcDbSpline
210
0.000000000000000
220
0.000000000000000
230
1.000000000000000
 70
     8
 71
     3
 72
    19
 73
    15
 74
     0
 42
1.000000000000000e-07
 43
1.000000000000000e-07
 12
0.9999982509216352
 22
-0.001870335147941660
 32
0.000000000000000
 13
0.4410043904772465
 23
0.8975049457139903
 33
0.000000000000000
 40
0.000000000000000
 40
0.000000000000000
 40
0.000000000000000
 40
0.000000000000000
 40
0.2181587682492082
 40
0.4268444873838209
 40
0.6301182757651324
 40
0.8206222174415040
 40
0.9925562183448911
 40
1.150558532869187
 40
1.298370697656277
 40
1.431142630026748
 40
1.547409100913372
 40
1.652232487927782
 40
1.751671910619109
 40
1.846836428355862
 40
1.846836428355862
 40
1.846836428355862
 40
1.846836428355862
 10
128.8068617760431
 20
177.9776973406010
 30
0.000000000000000
 10
128.8795812382672
 20
177.9775613305969
 30
0.000000000000000
 10
129.0218641930099
 20
177.9782189223089
 30
0.000000000000000
 10
129.2318876271001
 20
177.9812322675828
 30
0.000000000000000
 10
129.4326182107316
 20
177.9877660730330
 30
0.000000000000000
 10
129.6208965398710
 20
177.9987923701194
 30
0.000000000000000
 10
129.7936419529763
 20
178.0152683180131
 30
0.000000000000000
 10
129.9513352532646
 20
178.0380724590042
 30
0.000000000000000
 10
130.0944344103917
 20
178.0687081921545
 30
0.000000000000000
 10
130.2209823134012
 20
178.1080717710475
 30
0.000000000000000
 10
130.3288549306734
 20
178.1566863671570
 30
0.000000000000000
 10
130.4187734639944
 20
178.2153513811991
 30
0.000000000000000
 10
130.4907279084463
 20
178.2856865559722
 30
0.000000000000000
 10
130.5254810605891
 20
178.3412250970486
 30
0.000000000000000
 10
130.5394703839689
 20
178.3696953054903
 30
0.000000000000000
  0
ELLIPSE
  5
322
100
AcDbEntity
  8
A1
  6
CONTINUOUS
 62
7
100
AcDbEllipse
 10
153.3342559509060
 20
182.4520157764775
 30
0.000000000000000
 11
-2.000000000000001
 21
0.000000000000000
 31
0.000000000000000
210
0.000000000000000
220
0.000000000000000
230
1.000000000000000
 40
0.3639702342651351
 41
4.150816878600720
 42
4.400424079444806
  0
ELLIPSE
  5
323
100
AcDbEntity
  8
A1
  6
CONTINUOUS
 62
7
100
AcDbEllipse
 10
126.8342559509056
 20
182.4520157764775
 30
0.000000000000000
 11
-2.000000000000001
 21
0.000000000000000
 31
0.000000000000000
210
0.000000000000000
220
0.000000000000000
230
1.000000000000000
 40
0.3639702342651351
 41
5.024353881324574
 42
5.273961082168676
  0
ELLIPSE
  5
324
100
AcDbEntity
  8
A1
  6
CONTINUOUS
 62
7
100
AcDbEllipse
 10
123.9764679826914
 20
184.4776973406010
 30
0.000000000000000
 11
-20.15532679540473
 21
0.000000000000000
 31
0.000000000000000
210
0.000000000000000
220
0.000000000000000
230
1.000000000000000
 40
0.3224953912174569
 41
1.682359436838783
 42
1.774034108059576
  0
ELLIPSE
  5
325
100
AcDbEntity
  8
A1
  6
CONTINUOUS
 62
7
100
AcDbEllipse
 10
156.1920439191202
 20
184.4776973406009
 30
0.000000000000000
 11
-20.15532679540473
 21
0.000000000000000
 31
0.000000000000000
210
0.000000000000000
220
0.000000000000000
230
1.000000000000000
 40
0.3224953912174569
 41
1.367558545530217
 42
1.459233216751013
  0
ELLIPSE
  5
326
100
AcDbEntity
  8
A1
  6
CONTINUOUS
 62
7
100
AcDbEllipse
 10
152.5842559509057
 20
183.8785520327652
 30
0.000000000000000
 11
-1.500000000000001
 21
0.000000000000000
 31
0.000000000000000
210
0.000000000000000
220
0.000000000000000
230
1.000000000000000
 40
0.3639702342651359
 41
0.9272952180018688
 42
1.258831425855147
  0
ELLIPSE
  5
327
100
AcDbEntity
  8
A1
  6
CONTINUOUS
 62
7
100
AcDbEllipse
 10
152.5842559509057
 20
183.8785520327652
 30
0.000000000000000
 11
-1.500000000000001
 21
0.000000000000000
 31
0.000000000000000
210
0.000000000000000
220
0.000000000000000
230
1.000000000000000
 40
0.3639702342651359
 41
0.4895329899721703
 42
0.6329677547761936
  0
ELLIPSE
  5
328
100
AcDbEntity
  8
A1
  6
CONTINUOUS
 62
7
100
AcDbEllipse
 10
127.5842559509058
 20
183.8785520327652
 30
0.000000000000000
 11
-1.500000000000001
 21
0.000000000000000
 31
0.000000000000000
210
0.000000000000000
220
0.000000000000000
230
1.000000000000000
 40
0.3639702342651359
 41
1.882761227734687
 42
2.214297435587972
  0
ELLIPSE
  5
329
100
AcDbEntity
  8
A1
  6
CONTINUOUS
 62
7
100
AcDbEllipse
 10
127.5842559509058
 20
183.8785520327652
 30
0.000000000000000
 11
-1.500000000000001
 21
0.000000000000000
 31
0.000000000000000
210
0.000000000000000
220
0.000000000000000
230
1.000000000000000
 40
0.3639702342651359
 41
2.508624898813632
 42
2.652059663617744
  0
ELLIPSE
  5
32A
100
AcDbEntity
  8
A1
  6
CONTINUOUS
 62
7
100
AcDbEllipse
 10
127.5842559509058
 20
178.5576631703843
 30
0.000000000000000
 11
-1.500000000000000
 21
0.000000000000000
 31
0.000000000000000
210
0.000000000000000
220
0.000000000000000
230
1.000000000000000
 40
0.3639702342657336
 41
2.790108457134446
 42
3.141592653589793
  0
ELLIPSE
  5
32B
100
AcDbEntity
  8
A1
  6
CONTINUOUS
 62
7
100
AcDbEllipse
 10
127.5842559509058
 20
178.5576631703844
 30
0.000000000000000
 11
-3.000000000000000
 21
0.000000000000000
 31
0.000000000000000
210
0.000000000000000
220
0.000000000000000
230
1.000000000000000
 40
0.3639702342657336
 41
2.968585056331485
 42
3.141592653589793
  0
ELLIPSE
  5
32C
100
AcDbEntity
  8
A1
  6
CONTINUOUS
 62
7
100
AcDbEllipse
 10
152.5842559509057
 20
178.5576631703844
 30
0.000000000000000
 11
-3.000000000000000
 21
0.000000000000000
 31
0.000000000000000
210
0.000000000000000
220
0.000000000000000
230
1.000000000000000
 40
0.3639702342657336
 41
0.000000000000000
 42
0.1730075972584736
  0
ELLIPSE
  5
32D
100
AcDbEntity
  8
A1
  6
CONTINUOUS
 62
7
100
AcDbEllipse
 10
152.5842559509057
 20
178.5576631703843
 30
0.000000000000000
 11
-1.500000000000000
 21
0.000000000000000
 31
0.000000000000000
210
0.000000000000000
220
0.000000000000000
230
1.000000000000000
 40
0.3639702342657336
 41
0.000000000000000
 42
0.3514841964554570
  0
LINE
  5
32E
100
AcDbEntity
  8
A1
  6
CONTINUOUS
 62
7
100
AcDbLine
 10
124.8342559509057
 20
175.4776973406256
 30
0.000000000000000
 11
124.8342559509057
 21
175.9776973406251
 31
0.000000000000000
  0
LINE
  5
32F
100
AcDbEntity
  8
A1
  6
CONTINUOUS
 62
7
100
AcDbLine
 10
126.3342559509057
 20
175.4776973406257
 30
0.000000000000000
 11
124.8342559509057
 21
175.4776973406210
 31
0.000000000000000
  0
LINE
  5
330
100
AcDbEntity
  8
A1
  6
CONTINUOUS
 62
7
100
AcDbLine
 10
155.3342559509057
 20
175.4776973406256
 30
0.000000000000000
 11
155.3342559509057
 21
175.9776973406251
 31
0.000000000000000
  0
LINE
  5
331
100
AcDbEntity
  8
A1
  6
CONTINUOUS
 62
7
100
AcDbLine
 10
153.8342559509058
 20
175.4776973406256
 30
0.000000000000000
 11
155.3342559509058
 21
175.4776973406209
 31
0.000000000000000
  0
LINE
  5
332
100
AcDbEntity
  8
A1
  6
CONTINUOUS
 62
7
100
AcDbLine
 10
124.8342559509057
 20
177.8385958453223
 30
0.000000000000000
 11
124.8342559509057
 21
177.9776973406231
 31
0.000000000000000
  0
LINE
  5
333
100
AcDbEntity
  8
A1
  6
CONTINUOUS
 62
7
100
AcDbLine
 10
124.8342559509058
 20
175.9776973406251
 30
0.000000000000000
 11
124.8342559509057
 21
176.5012039020870
 31
0.000000000000000
  0
LINE
  5
334
100
AcDbEntity
  8
A1
  6
CONTINUOUS
 62
7
100
AcDbLine
 10
155.3342559509057
 20
177.8396212981071
 30
0.000000000000000
 11
155.3342559509057
 21
177.9776973406231
 31
0.000000000000000
  0
LINE
  5
335
100
AcDbEntity
  8
A1
  6
CONTINUOUS
 62
7
100
AcDbLine
 10
155.3342559509057
 20
175.9776973406251
 30
0.000000000000000
 11
155.3342559509057
 21
176.5012039104654
 31
0.000000000000000
  0
LINE
  5
336
100
AcDbEntity
  8
A1
  6
CONTINUOUS
 62
7
100
AcDbLine
 10
124.8342559509057
 20
184.9776973406230
 30
0.000000000000000
 11
124.8342559509057
 21
185.4776973406246
 31
0.000000000000000
  0
LINE
  5
337
100
AcDbEntity
  8
A1
  6
CONTINUOUS
 62
7
100
AcDbLine
 10
126.3342559509056
 20
185.4776973406210
 30
0.000000000000000
 11
124.8342559509058
 21
185.4776973406246
 31
0.000000000000000
  0
LINE
  5
338
100
AcDbEntity
  8
A1
  6
CONTINUOUS
 62
7
100
AcDbLine
 10
155.3342559509057
 20
184.9776973406230
 30
0.000000000000000
 11
155.3342559509057
 21
185.4776973406246
 31
0.000000000000000
  0
LINE
  5
339
100
AcDbEntity
  8
A1
  6
CONTINUOUS
 62
7
100
AcDbLine
 10
153.8342559509058
 20
185.4776973406209
 30
0.000000000000000
 11
155.3342559509058
 21
185.4776973406246
 31
0.000000000000000
  0
LINE
  5
33A
100
AcDbEntity
  8
A1
  6
CONTINUOUS
 62
7
100
AcDbLine
 10
155.3342559509057
 20
184.4431077969319
 30
0.000000000000000
 11
155.3342559509057
 21
184.9776973406230
 31
0.000000000000000
  0
LINE
  5
33B
100
AcDbEntity
  8
A1
  6
CONTINUOUS
 62
7
100
AcDbLine
 10
155.3342559509057
 20
182.9776973406232
 30
0.000000000000000
 11
155.3342559509057
 21
183.1179726602951
 31
0.000000000000000
  0
LINE
  5
33C
100
AcDbEntity
  8
A1
  6
CONTINUOUS
 62
7
100
AcDbLine
 10
124.8342559509057
 20
184.4424168239882
 30
0.000000000000000
 11
124.8342559509058
 21
184.9776973406230
 31
0.000000000000000
  0
LINE
  5
33D
100
AcDbEntity
  8
A1
  6
CONTINUOUS
 62
7
100
AcDbLine
 10
124.8342559509057
 20
182.9776973406232
 30
0.000000000000000
 11
124.8342559509057
 21
183.1118751775261
 31
0.000000000000000
  0
LINE
  5
33E
100
AcDbEntity
  8
A1
  6
CONTINUOUS
 62
7
100
AcDbLine
 10
155.3342559509060
 20
182.9776973406374
 30
0.000000000000000
 11
154.9492029031079
 21
182.9776973406374
 31
0.000000000000000
  0
LINE
  5
33F
100
AcDbEntity
  8
A1
  6
CONTINUOUS
 62
7
100
AcDbLine
 10
154.9492029031035
 20
177.9776973406375
 30
0.000000000000000
 11
155.3342559509060
 21
177.9776973406375
 31
0.000000000000000
  0
LINE
  5
340
100
AcDbEntity
  8
A1
  6
CONTINUOUS
 62
7
100
AcDbLine
 10
155.3342559509057
 20
177.9776973406022
 30
0.000000000000000
 11
155.3342559509057
 21
182.9776973406026
 31
0.000000000000000
  0
LINE
  5
341
100
AcDbEntity
  8
A1
  6
CONTINUOUS
 62
7
100
AcDbLine
 10
124.8342559509056
 20
182.9776973406374
 30
0.000000000000000
 11
125.2193089987037
 21
182.9776973406374
 31
0.000000000000000
  0
LINE
  5
342
100
AcDbEntity
  8
A1
  6
CONTINUOUS
 62
7
100
AcDbLine
 10
124.8342559509057
 20
177.9776973406022
 30
0.000000000000000
 11
124.8342559509057
 21
182.9776973406027
 31
0.000000000000000
  0
LINE
  5
343
100
AcDbEntity
  8
A1
  6
CONTINUOUS
 62
7
100
AcDbLine
 10
125.2193089987082
 20
177.9776973406375
 30
0.000000000000000
 11
124.8342559509056
 21
177.9776973406375
 31
0.000000000000000
  0
LINE
  5
344
100
AcDbEntity
  8
A1
  6
CONTINUOUS
 62
7
100
AcDbLine
 10
153.9481145258569
 20
183.1448202487739
 30
0.000000000000000
 11
152.1238620196928
 21
183.3589486785427
 31
0.000000000000000
  0
LINE
  5
345
100
AcDbEntity
  8
A1
  6
CONTINUOUS
 62
7
100
AcDbLine
 10
126.2203973759547
 20
183.1448202487739
 30
0.000000000000000
 11
128.0446498821189
 21
183.3589486785427
 31
0.000000000000000
  0
LINE
  5
346
100
AcDbEntity
  8
A1
  6
CONTINUOUS
 62
7
100
AcDbLine
 10
128.8068617760431
 20
177.9776973406009
 30
0.000000000000000
 11
125.2193089987082
 21
177.9776973406009
 31
0.000000000000000
  0
LINE
  5
347
100
AcDbEntity
  8
A1
  6
CONTINUOUS
 62
7
100
AcDbLine
 10
151.3616501257686
 20
177.9776973406010
 30
0.000000000000000
 11
154.9492029031035
 21
177.9776973406009
 31
0.000000000000000
  0
LINE
  5
348
100
AcDbEntity
  8
A1
  6
CONTINUOUS
 62
7
100
AcDbLine
 10
130.5842559509058
 20
178.5576631703844
 30
0.000000000000000
 11
130.5842559509058
 21
178.9233732001227
 31
0.000000000000000
  0
LINE
  5
349
100
AcDbEntity
  8
A1
  6
CONTINUOUS
 62
7
100
AcDbLine
 10
129.0842559509058
 20
178.9233732001227
 30
0.000000000000000
 11
129.0842559509058
 21
178.5576631703843
 31
0.000000000000000
  0
LINE
  5
34A
100
AcDbEntity
  8
A1
  6
CONTINUOUS
 62
7
100
AcDbLine
 10
151.0842559509057
 20
178.9233732001227
 30
0.000000000000000
 11
151.0842559509057
 21
178.5576631703843
 31
0.000000000000000
  0
LINE
  5
34B
100
AcDbEntity
  8
A1
  6
CONTINUOUS
 62
7
100
AcDbLine
 10
149.5842559509057
 20
178.5576631703844
 30
0.000000000000000
 11
149.5842559509057
 21
178.9233732001227
 31
0.000000000000000
  0
LINE
  5
34C
100
AcDbEntity
  8
A1
  6
CONTINUOUS
 62
7
100
AcDbLine
 10
151.0842559509057
 20
178.9776973405960
 30
0.000000000000000
 11
151.0842559509057
 21
178.9233732001227
 31
0.000000000000000
  0
LINE
  5
34D
100
AcDbEntity
  8
A1
  6
CONTINUOUS
 62
7
100
AcDbLine
 10
149.5842559509057
 20
178.9233732001227
 30
0.000000000000000
 11
149.5842559509057
 21
178.9776973405960
 31
0.000000000000000
  0
LINE
  5
34E
100
AcDbEntity
  8
A1
  6
CONTINUOUS
 62
7
100
AcDbLine
 10
129.0842559509058
 20
178.9776973405960
 30
0.000000000000000
 11
129.0842559509058
 21
178.9233732001227
 31
0.000000000000000
  0
LINE
  5
34F
100
AcDbEntity
  8
A1
  6
CONTINUOUS
 62
7
100
AcDbLine
 10
130.5842559509059
 20
178.9233732001227
 30
0.000000000000000
 11
130.5842559509059
 21
178.9776973405960
 31
0.000000000000000
  0
LINE
  5
350
100
AcDbEntity
  8
A1
  6
CONTINUOUS
 62
7
100
AcDbLine
 10
129.0842559509057
 20
183.3999260409647
 30
0.000000000000000
 11
128.4842559509056
 21
183.7213546123932
 31
0.000000000000000
  0
LINE
  5
351
100
AcDbEntity
  8
A1
  6
CONTINUOUS
 62
7
100
AcDbLine
 10
128.4842559509056
 20
180.2340182288148
 30
0.000000000000000
 11
129.0842559509057
 21
180.5554468002433
 31
0.000000000000000
  0
LINE
  5
352
100
AcDbEntity
  8
A1
  6
CONTINUOUS
 62
7
100
AcDbLine
 10
128.4842559509056
 20
180.2340182288148
 30
0.000000000000000
 11
128.4842559509056
 21
183.7213546123932
 31
0.000000000000000
  0
LINE
  5
353
100
AcDbEntity
  8
A1
  6
CONTINUOUS
 62
7
100
AcDbLine
 10
151.0842559509057
 20
180.5554468002434
 30
0.000000000000000
 11
151.6842559509060
 21
180.2340182288148
 31
0.000000000000000
  0
LINE
  5
354
100
AcDbEntity
  8
A1
  6
CONTINUOUS
 62
7
100
AcDbLine
 10
151.6842559509060
 20
183.7213546123932
 30
0.000000000000000
 11
151.0842559509057
 21
183.3999260409646
 31
0.000000000000000
  0
LINE
  5
355
100
AcDbEntity
  8
A1
  6
CONTINUOUS
 62
7
100
AcDbLine
 10
151.6842559509060
 20
180.2340182288148
 30
0.000000000000000
 11
151.6842559509060
 21
183.7213546123932
 31
0.000000000000000
  0
LINE
  5
356
100
AcDbEntity
  8
A1
  6
CONTINUOUS
 62
7
100
AcDbLine
 10
149.5842559509057
 20
183.7276864206040
 30
0.000000000000000
 11
130.5842559509058
 21
183.7276864206040
 31
0.000000000000000
  0
LINE
  5
357
100
AcDbEntity
  8
A1
  6
CONTINUOUS
 62
7
100
AcDbLine
 10
130.5842559509058
 20
180.2276864206040
 30
0.000000000000000
 11
149.5842559509057
 21
180.2276864206040
 31
0.000000000000000
  0
LINE
  5
358
100
AcDbEntity
  8
A1
  6
CONTINUOUS
 62
7
100
AcDbLine
 10
151.0842559509057
 20
181.7828877990636
 30
0.000000000000000
 11
151.0842559509057
 21
178.9776973405960
 31
0.000000000000000
  0
LINE
  5
359
100
AcDbEntity
  8
A1
  6
CONTINUOUS
 62
7
100
AcDbLine
 10
149.5842559509057
 20
178.9776973405960
 30
0.000000000000000
 11
149.5842559509057
 21
181.7828877990636
 31
0.000000000000000
  0
LINE
  5
35A
100
AcDbEntity
  8
A1
  6
CONTINUOUS
 62
7
100
AcDbLine
 10
129.0842559509058
 20
181.7828877990636
 30
0.000000000000000
 11
129.0842559509058
 21
178.9776973405960
 31
0.000000000000000
  0
LINE
  5
35B
100
AcDbEntity
  8
A1
  6
CONTINUOUS
 62
7
100
AcDbLine
 10
130.5842559509059
 20
178.9776973405960
 30
0.000000000000000
 11
130.5842559509059
 21
181.7828877990636
 31
0.000000000000000
  0
LINE
  5
35C
100
AcDbEntity
  8
A1
  6
CONTINUOUS
 62
7
100
AcDbLine
 10
130.5842559509059
 20
181.7828877990636
 30
0.000000000000000
 11
130.5842559509059
 21
182.1725068821157
 31
0.000000000000000
  0
LINE
  5
35D
100
AcDbEntity
  8
A1
  6
CONTINUOUS
 62
7
100
AcDbLine
 10
129.0842559509058
 20
181.7828877990636
 30
0.000000000000000
 11
129.0842559509058
 21
182.1725068821157
 31
0.000000000000000
  0
LINE
  5
35E
100
AcDbEntity
  8
A1
  6
CONTINUOUS
 62
7
100
AcDbLine
 10
151.0842559509057
 20
181.7828877990636
 30
0.000000000000000
 11
151.0842559509057
 21
182.1725068821157
 31
0.000000000000000
  0
LINE
  5
35F
100
AcDbEntity
  8
A1
  6
CONTINUOUS
 62
7
100
AcDbLine
 10
149.5842559509057
 20
181.7828877990636
 30
0.000000000000000
 11
149.5842559509057
 21
182.1725068821157
 31
0.000000000000000
  0
LINE
  5
360
100
AcDbEntity
  8
A1
  6
CONTINUOUS
 62
7
100
AcDbLine
 10
130.5842559509059
 20
182.1725068821157
 30
0.000000000000000
 11
130.5842559509059
 21
184.9776973405959
 31
0.000000000000000
  0
LINE
  5
361
100
AcDbEntity
  8
A1
  6
CONTINUOUS
 62
7
100
AcDbLine
 10
130.5842559509059
 20
184.9776973405960
 30
0.000000000000000
 11
129.0842559509058
 21
184.9776973405960
 31
0.000000000000000
  0
LINE
  5
362
100
AcDbEntity
  8
A1
  6
CONTINUOUS
 62
7
100
AcDbLine
 10
129.0842559509058
 20
184.9776973405960
 30
0.000000000000000
 11
129.0842559509058
 21
182.1725068821157
 31
0.000000000000000
  0
LINE
  5
363
100
AcDbEntity
  8
A1
  6
CONTINUOUS
 62
7
100
AcDbLine
 10
149.5842559509058
 20
182.1725068821157
 30
0.000000000000000
 11
149.5842559509058
 21
184.9776973405960
 31
0.000000000000000
  0
LINE
  5
364
100
AcDbEntity
  8
A1
  6
CONTINUOUS
 62
7
100
AcDbLine
 10
151.0842559509057
 20
184.9776973405960
 30
0.000000000000000
 11
149.5842559509058
 21
184.9776973405960
 31
0.000000000000000
  0
LINE
  5
365
100
AcDbEntity
  8
A1
  6
CONTINUOUS
 62
7
100
AcDbLine
 10
151.0842559509057
 20
184.9776973405960
 30
0.000000000000000
 11
151.0842559509057
 21
182.1725068821157
 31
0.000000000000000
  0
SPLINE
  5
366
100
AcDbEntity
  8
A1
  6
CONTINUOUS
 62
7
100
AcDbSpline
210
0.000000000000000
220
0.000000000000000
230
1.000000000000000
 70
     8
 71
     3
 72
    17
 73
    13
 74
     0
 42
1.000000000000000e-07
 43
1.000000000000000e-07
 12
-0.6891302481471939
 22
0.7246374963310700
 32
0.000000000000000
 13
-0.9999975496267552
 23
0.002213761619941579
 33
0.000000000000000
 40
0.000000000000000
 40
0.000000000000000
 40
0.000000000000000
 40
0.000000000000000
 40
0.1882509870066302
 40
0.4568686415187520
 40
0.7522199899264963
 40
1.093490044212948
 40
1.412366471762056
 40
1.761826976733746
 40
2.140848452416658
 40
2.547966464600479
 40
2.981190148834762
 40
3.438012055451030
 40
3.438012055451030
 40
3.438012055451030
 40
3.438012055451030
 10
156.9128061282464
 20
183.4075548072937
 30
0.000000000000000
 10
156.8695629784498
 20
183.4530260485958
 30
0.000000000000000
 10
156.7620607821422
 20
183.5609771677391
 30
0.000000000000000
 10
156.5752488173455
 20
183.7285022090626
 30
0.000000000000000
 10
156.3371994219258
 20
183.9143298984034
 30
0.000000000000000
 10
156.0717645206408
 20
184.0909989154912
 30
0.000000000000000
 10
155.7778831811095
 20
184.2555814805420
 30
0.000000000000000
 10
155.4607861653236
 20
184.4025287151221
 30
0.000000000000000
 10
155.1049333682264
 20
184.5329495230285
 30
0.000000000000000
 10
154.7117634807061
 20
184.6383028075366
 30
0.000000000000000
 10
154.2845551458142
 20
184.7095825046392
 30
0.000000000000000
 10
153.9876164340690
 20
184.7263312167204
 30
0.000000000000000
 10
153.8353428383250
 20
184.7266683149884
 30
0.000000000000000
  0
SPLINE
  5
367
100
AcDbEntity
  8
A1
  6
CONTINUOUS
 62
7
100
AcDbSpline
210
0.000000000000000
220
0.000000000000000
230
1.000000000000000
 70
     8
 71
     3
 72
    18
 73
    14
 74
     0
 42
1.000000000000000e-07
 43
1.000000000000000e-07
 12
-0.001409000494959400
 22
0.9999990073577010
 32
0.000000000000000
 13
-0.6890489826801058
 23
0.7247147711123034
 33
0.000000000000000
 40
0.000000000000000
 40
0.000000000000000
 40
0.000000000000000
 40
0.000000000000000
 40
0.3393176503982170
 40
0.6258100214346773
 40
0.8559744063523952
 40
1.053649536564483
 40
1.259251767966128
 40
1.473336711248969
 40
1.927112552149196
 40
2.399758638567005
 40
2.866324585967998
 40
3.143439622809201
 40
3.229759328357561
 40
3.229759328357561
 40
3.229759328357561
 40
3.229759328357561
 10
158.0842559509056
 20
180.4776973406121
 30
0.000000000000000
 10
158.0840965846598
 20
180.5908031118045
 30
0.000000000000000
 10
158.0752810001551
 20
180.7995125403615
 30
0.000000000000000
 10
158.0413231749870
 20
181.0830203028171
 30
0.000000000000000
 10
157.9987970551171
 20
181.3174181563886
 30
0.000000000000000
 10
157.9508667683384
 20
181.5231248117408
 30
0.000000000000000
 10
157.8949583529338
 20
181.7212553394446
 30
0.000000000000000
 10
157.8025644503280
 20
181.9974576449723
 30
0.000000000000000
 10
157.6546528538607
 20
182.3484786833639
 30
0.000000000000000
 10
157.4294183219211
 20
182.7555568372193
 30
0.000000000000000
 10
157.1946990983581
 20
183.0872391175717
 30
0.000000000000000
 10
157.0151880180875
 20
183.2980315967561
 30
0.000000000000000
 10
156.9326322966775
 20
183.3867024187441
 30
0.000000000000000
 10
156.9128061282464
 20
183.4075548072937
 30
0.000000000000000
  0
SPLINE
  5
368
100
AcDbEntity
  8
A1
  6
CONTINUOUS
 62
7
100
AcDbSpline
210
0.000000000000000
220
0.000000000000000
230
1.000000000000000
 70
     8
 71
     3
 72
    12
 73
     8
 74
     0
 42
1.000000000000000e-07
 43
1.000000000000000e-07
 12
-0.9345932496607929
 22
-0.3557182279400877
 32
0.000000000000000
 13
-0.7760790719230499
 23
-0.6306356112067988
 33
0.000000000000000
 40
0.000000000000000
 40
0.000000000000000
 40
0.000000000000000
 40
0.000000000000000
 40
0.2336312475548653
 40
0.5779171949542093
 40
0.9085036387662040
 40
1.232786834061887
 40
1.369917876287011
 40
1.369917876287011
 40
1.369917876287011
 40
1.369917876287011
 10
152.3282387156351
 20
184.4443640098539
 30
0.000000000000000
 10
152.2554553200102
 20
184.4166617120634
 30
0.000000000000000
 10
152.0772172837537
 20
184.3433275293918
 30
0.000000000000000
 10
151.8050583514217
 20
184.2097684197936
 30
0.000000000000000
 10
151.5181085202908
 20
184.0400854703321
 30
0.000000000000000
 10
151.3015974236619
 20
183.8885246796692
 30
0.000000000000000
 10
151.1806513691281
 20
183.7934703779059
 30
0.000000000000000
 10
151.1451765251342
 20
183.7646438050295
 30
0.000000000000000
  0
SPLINE
  5
369
100
AcDbEntity
  8
A1
  6
CONTINUOUS
 62
7
100
AcDbSpline
210
0.000000000000000
220
0.000000000000000
230
1.000000000000000
 70
     8
 71
     3
 72
     9
 73
     5
 74
     0
 42
1.000000000000000e-07
 43
1.000000000000000e-07
 12
-0.3124392630488728
 22
0.9499377384345280
 32
0.000000000000000
 13
-0.9713547331084555
 23
0.2376341357376077
 33
0.000000000000000
 40
0.000000000000000
 40
0.000000000000000
 40
0.000000000000000
 40
0.000000000000000
 40
0.02248604087232720
 40
0.03889347576686050
 40
0.03889347576686050
 40
0.03889347576686050
 40
0.03889347576686050
 10
153.8625933567192
 20
184.7009154663695
 30
0.000000000000000
 10
153.8602515160395
 20
184.7080355793071
 30
0.000000000000000
 10
153.8529817718787
 20
184.7199555470920
 30
0.000000000000000
 10
153.8406321270927
 20
184.7253673614030
 30
0.000000000000000
 10
153.8353196472451
 20
184.7266670169400
 30
0.000000000000000
  0
SPLINE
  5
36A
100
AcDbEntity
  8
A1
  6
CONTINUOUS
 62
7
100
AcDbSpline
210
0.000000000000000
220
0.000000000000000
230
1.000000000000000
 70
     8
 71
     3
 72
    16
 73
    12
 74
     0
 42
1.000000000000000e-07
 43
1.000000000000000e-07
 12
0.5803806602580153
 22
-0.8143453132415743
 32
0.000000000000000
 13
0.9348296845255391
 23
-0.3550964107535037
 33
0.000000000000000
 40
0.000000000000000
 40
0.000000000000000
 40
0.000000000000000
 40
0.000000000000000
 40
0.1616209215338704
 40
0.3459516973625829
 40
0.6235736447434288
 40
0.9536139483002724
 40
1.335739677932930
 40
1.770144156558547
 40
2.088973513062793
 40
2.431158337725402
 40
2.498276302792256
 40
2.498276302792256
 40
2.498276302792256
 40
2.498276302792256
 10
150.3794933260062
 20
178.0146616336029
 30
0.000000000000000
 10
150.4107605450567
 20
177.9707898869453
 30
0.000000000000000
 10
150.4794778748353
 20
177.8781425426525
 30
0.000000000000000
 10
150.6100226651700
 20
177.7163176381203
 30
0.000000000000000
 10
150.7868142955394
 20
177.5199951697617
 30
0.000000000000000
 10
151.0250824943507
 20
177.2912695123518
 30
0.000000000000000
 10
151.3231015139188
 20
177.0511482707210
 30
0.000000000000000
 10
151.6398930289550
 20
176.8428202194962
 30
0.000000000000000
 10
151.9616092712444
 20
176.6695105150706
 30
0.000000000000000
 10
152.1837086677424
 20
176.5708954510961
 30
0.000000000000000
 10
152.3108729359059
 20
176.5214608513166
 30
0.000000000000000
 10
152.3317875579424
 20
176.5135164018192
 30
0.000000000000000
  0
SPLINE
  5
36B
100
AcDbEntity
  8
A1
  6
CONTINUOUS
 62
7
100
AcDbSpline
210
0.000000000000000
220
0.000000000000000
230
1.000000000000000
 70
     8
 71
     3
 72
    46
 73
    42
 74
     0
 42
1.000000000000000e-07
 43
1.000000000000000e-07
 12
0.9278487983651758
 22
0.3729565757193996
 32
0.000000000000000
 13
-0.8601222155770074
 23
0.5100880063982913
 33
0.000000000000000
 40
0.000000000000000
 40
0.000000000000000
 40
0.000000000000000
 40
0.000000000000000
 40
0.1713145731291068
 40
0.4903068285868249
 40
0.8214502205016125
 40
1.159307813708908
 40
1.474502443331300
 40
1.757584824266608
 40
2.007646247495174
 40
2.224601363457258
 40
2.423948932212509
 40
2.647750116065366
 40
2.899963989966832
 40
3.184757133879665
 40
3.506935606503728
 40
3.843527724758744
 40
4.175746336490759
 40
4.503872358645082
 40
4.828081181255647
 40
5.300625537557313
 40
5.753121857836457
 40
6.049073642814981
 40
6.356832325848925
 40
6.678820790588729
 40
7.011682123989317
 40
7.349603738642235
 40
7.651341837809476
 40
7.903057642087883
 40
8.106380609226525
 40
8.278950540847998
 40
8.492247352124011
 40
8.751109476140915
 40
9.051050668732110
 40
9.363420508599662
 40
9.677877988638576
 40
9.995942999358460
 40
10.47480338861407
 40
10.95016119586922
 40
11.42167064480914
 40
11.88360565692774
 40
12.33640227524741
 40
12.33640227524741
 40
12.33640227524741
 40
12.33640227524741
 10
152.6888273905691
 20
183.2955474180884
 30
0.000000000000000
 10
152.7418120641759
 20
183.3168450502768
 30
0.000000000000000
 10
152.8951748424348
 20
183.3735830239116
 30
0.000000000000000
 10
153.1592851016406
 20
183.4477588861465
 30
0.000000000000000
 10
153.4846234927635
 20
183.5031035646154
 30
0.000000000000000
 10
153.8129452351081
 20
183.5203834368623
 30
0.000000000000000
 10
154.1250816899765
 20
183.5046016492433
 30
0.000000000000000
 10
154.4053035454085
 20
183.4639337739856
 30
0.000000000000000
 10
154.6490870594359
 20
183.4072066189659
 30
0.000000000000000
 10
154.8611635536506
 20
183.3404675648039
 30
0.000000000000000
 10
155.0595519092165
 20
183.2614915689088
 30
0.000000000000000
 10
155.2626786660053
 20
183.1639833714106
 30
0.000000000000000
 10
155.4821343661639
 20
183.0362651901070
 30
0.000000000000000
 10
155.7159279358369
 20
182.8701263934933
 30
0.000000000000000
 10
155.9536296881653
 20
182.6632550204871
 30
0.000000000000000
 10
156.1782125495994
 20
182.4201391779457
 30
0.000000000000000
 10
156.3768850709036
 20
182.1528831085089
 30
0.000000000000000
 10
156.5406830309024
 20
181.8676342236386
 30
0.000000000000000
 10
156.6912304984755
 20
181.5235447722628
 30
0.000000000000000
 10
156.8102022326714
 20
181.1229330754830
 30
0.000000000000000
 10
156.8699385900082
 20
180.7187806008462
 30
0.000000000000000
 10
156.8753980266027
 20
180.3660880372795
 30
0.000000000000000
 10
156.8458479805444
 20
180.0583412941819
 30
0.000000000000000
 10
156.7831295598790
 20
179.7431289380738
 30
0.000000000000000
 10
156.6860291450600
 20
179.4261651259770
 30
0.000000000000000
 10
156.5591856162858
 20
179.1271641927743
 30
0.000000000000000
 10
156.4148381584978
 20
178.8668188811445
 30
0.000000000000000
 10
156.2708837543743
 20
178.6592710368762
 30
0.000000000000000
 10
156.1391113272422
 20
178.4965967631634
 30
0.000000000000000
 10
156.0063538510869
 20
178.3517351828336
 30
0.000000000000000
 10
155.8514508696075
 20
178.2025083199539
 30
0.000000000000000
 10
155.6523891727306
 20
178.0389001579097
 30
0.000000000000000
 10
155.4119646842716
 20
177.8751607599295
 30
0.000000000000000
 10
155.1393636432180
 20
177.7286580510275
 30
0.000000000000000
 10
154.8476615703107
 20
177.6082694503303
 30
0.000000000000000
 10
154.4910452734868
 20
177.5054634031902
 30
0.000000000000000
 10
154.0702936477387
 20
177.4405684724693
 30
0.000000000000000
 10
153.5931887726650
 20
177.4379936708443
 30
0.000000000000000
 10
153.1272587575266
 20
177.5107819227898
 30
0.000000000000000
 10
152.6851317551881
 20
177.6508678846098
 30
0.000000000000000
 10
152.4108790828004
 20
177.7872510262843
 30
0.000000000000000
 10
152.2810589392822
 20
177.8642397343985
 30
0.000000000000000
  0
SPLINE
  5
36C
100
AcDbEntity
  8
A1
  6
CONTINUOUS
 62
7
100
AcDbSpline
210
0.000000000000000
220
0.000000000000000
230
1.000000000000000
 70
     8
 71
     3
 72
     9
 73
     5
 74
     0
 42
1.000000000000000e-07
 43
1.000000000000000e-07
 12
-0.8715000333547778
 22
0.4903954443739167
 32
0.000000000000000
 13
-0.8201426441410149
 23
0.5721591065921530
 33
0.000000000000000
 40
0.000000000000000
 40
0.000000000000000
 40
0.000000000000000
 40
0.000000000000000
 40
0.2515427425176354
 40
0.2753056135865691
 40
0.2753056135865691
 40
0.2753056135865691
 40
0.2753056135865691
 10
152.3323067816017
 20
177.8300934398534
 30
0.000000000000000
 10
152.2592336121036
 20
177.8712119115187
 30
0.000000000000000
 10
152.1811663624586
 20
177.9197814984209
 30
0.000000000000000
 10
152.1056865401939
 20
177.9719714009988
 30
0.000000000000000
 10
152.0991902255570
 20
177.9765034486924
 30
0.000000000000000
  0
SPLINE
  5
36D
100
AcDbEntity
  8
A1
  6
CONTINUOUS
 62
7
100
AcDbSpline
210
0.000000000000000
220
0.000000000000000
230
1.000000000000000
 70
     8
 71
     3
 72
    25
 73
    21
 74
     0
 42
1.000000000000000e-07
 43
1.000000000000000e-07
 12
0.9999828377049198
 22
0.005858693991285691
 32
0.000000000000000
 13
-0.004183621641004720
 23
-0.9999912486164249
 33
0.000000000000000
 40
0.000000000000000
 40
0.000000000000000
 40
0.000000000000000
 40
0.000000000000000
 40
0.1991965191765839
 40
0.5320359441124879
 40
0.8624267866174091
 40
1.188841674416097
 40
1.513984457727131
 40
1.840838761215499
 40
2.147781680574028
 40
2.410042433776480
 40
2.625952705278064
 40
2.756676082901738
 40
2.894009001361617
 40
3.058870798961419
 40
3.251166701674133
 40
3.549377954661627
 40
3.875515155025346
 40
4.195200213947333
 40
4.662112293275920
 40
4.801943603600459
 40
4.801943603600459
 40
4.801943603600459
 40
4.801943603600459
 10
153.8338705819564
 20
183.5213360446142
 30
0.000000000000000
 10
153.9002682821254
 20
183.5217250550975
 30
0.000000000000000
 10
154.0776681809447
 20
183.5169012904698
 30
0.000000000000000
 10
154.3639334826449
 20
183.4841763372442
 30
0.000000000000000
 10
154.6858441651784
 20
183.4091908567128
 30
0.000000000000000
 10
154.9958412396508
 20
183.3022679949211
 30
0.000000000000000
 10
155.2912146178834
 20
183.1624223800656
 30
0.000000000000000
 10
155.5638880799658
 20
182.9943585781212
 30
0.000000000000000
 10
155.8004369215955
 20
182.8111817759041
 30
0.000000000000000
 10
155.9924240793505
 20
182.6328755385902
 30
0.000000000000000
 10
156.1295508313578
 20
182.4829697447871
 30
0.000000000000000
 10
156.2311927899725
 20
182.3576359774914
 30
0.000000000000000
 10
156.3171128055995
 20
182.2416370422990
 30
0.000000000000000
 10
156.4087119568225
 20
182.1045094109227
 30
0.000000000000000
 10
156.5197151650235
 20
181.9162120209904
 30
0.000000000000000
 10
156.6397812293490
 20
181.6714652801092
 30
0.000000000000000
 10
156.7503415611567
 20
181.3761904427774
 30
0.000000000000000
 10
156.8420154331972
 20
181.0161274968041
 30
0.000000000000000
 10
156.8782283673668
 20
180.7079735741557
 30
0.000000000000000
 10
156.8820100102283
 20
180.5057284511648
 30
0.000000000000000
 10
156.8818150097963
 20
180.4591184222958
 30
0.000000000000000
  0
SPLINE
  5
36E
100
AcDbEntity
  8
A1
  6
CONTINUOUS
 62
7
100
AcDbSpline
210
0.000000000000000
220
0.000000000000000
230
1.000000000000000
 70
     8
 71
     3
 72
    12
 73
     8
 74
     0
 42
1.000000000000000e-07
 43
1.000000000000000e-07
 12
-0.9362122780421487
 22
-0.3514350159589412
 32
0.000000000000000
 13
-0.7737139078681139
 23
-0.6335351519617234
 33
0.000000000000000
 40
0.000000000000000
 40
0.000000000000000
 40
0.000000000000000
 40
0.000000000000000
 40
0.1678397821923395
 40
0.4483643800812578
 40
0.7195829712778896
 40
1.016004144126830
 40
1.366215129306181
 40
1.366215129306181
 40
1.366215129306181
 40
1.366215129306181
 10
152.3320394108769
 20
184.4311808933127
 30
0.000000000000000
 10
152.2796615225995
 20
184.4115193011349
 30
0.000000000000000
 10
152.1408032552171
 20
184.3561322852831
 30
0.000000000000000
 10
151.9230181012501
 20
184.2551468533599
 30
0.000000000000000
 10
151.6749344531826
 20
184.1191247103922
 30
0.000000000000000
 10
151.4171933243810
 20
183.9538463538954
 30
0.000000000000000
 10
151.2447481805881
 20
183.8240533014059
 30
0.000000000000000
 10
151.1544271439477
 20
183.7500963115011
 30
0.000000000000000
  0
SPLINE
  5
36F
100
AcDbEntity
  8
A1
  6
CONTINUOUS
 62
7
100
AcDbSpline
210
0.000000000000000
220
0.000000000000000
230
1.000000000000000
 70
     8
 71
     3
 72
    41
 73
    37
 74
     0
 42
1.000000000000000e-07
 43
1.000000000000000e-07
 12
0.9999999210549504
 22
0.0003973556777054910
 32
0.000000000000000
 13
-0.9999914533523224
 23
-0.004134395025175763
 33
0.000000000000000
 40
0.000000000000000
 40
0.000000000000000
 40
0.000000000000000
 40
0.000000000000000
 40
0.06317631266462230
 40
0.4826891090282745
 40
0.8881957092986514
 40
1.277784475710299
 40
1.652135423245548
 40
2.012039890897464
 40
2.358111835254244
 40
2.705567819609708
 40
3.073853179733633
 40
3.462997730237066
 40
3.872307063941523
 40
4.300822061901518
 40
4.745964545939836
 40
5.199602232416717
 40
5.653062709509082
 40
6.107982451145487
 40
6.568424764366638
 40
7.038840932405934
 40
7.516209655606668
 40
7.957057202653899
 40
8.350870782787597
 40
8.695189782610592
 40
8.991431375756612
 40
9.266425969976755
 40
9.533208974054075
 40
9.847774907120456
 40
10.22078683491484
 40
10.64792271206769
 40
11.10610182258697
 40
11.56086659186216
 40
12.01661419541104
 40
12.47792601925038
 40
12.94174349950591
 40
13.27984565573058
 40
13.27984565573058
 40
13.27984565573058
 40
13.27984565573058
 10
153.8344589802183
 20
176.2475592167154
 30
0.000000000000000
 10
153.8555177494441
 20
176.2475675845375
 30
0.000000000000000
 10
154.0164083823138
 20
176.2488338747024
 30
0.000000000000000
 10
154.3124141993437
 20
176.2680905587579
 30
0.000000000000000
 10
154.7125242297379
 20
176.3337625866442
 30
0.000000000000000
 10
155.0901101319872
 20
176.4328558838416
 30
0.000000000000000
 10
155.4428799655019
 20
176.5603460703029
 30
0.000000000000000
 10
155.7700815141483
 20
176.7117741198410
 30
0.000000000000000
 10
156.0757232174984
 20
176.8854348582605
 30
0.000000000000000
 10
156.3682787462079
 20
177.0853981153778
 30
0.000000000000000
 10
156.6531475039553
 20
177.3196023427061
 30
0.000000000000000
 10
156.9309334937711
 20
177.5925327648442
 30
0.000000000000000
 10
157.1956125727061
 20
177.9051202443945
 30
0.000000000000000
 10
157.4397958158639
 20
178.2570390524582
 30
0.000000000000000
 10
157.6542301184196
 20
178.6450234393419
 30
0.000000000000000
 10
157.8276175598153
 20
179.0620329950840
 30
0.000000000000000
 10
157.9580953048250
 20
179.4977473294566
 30
0.000000000000000
 10
158.0408333051630
 20
179.9474059680559
 30
0.000000000000000
 10
158.0734305636655
 20
180.4091721962683
 30
0.000000000000000
 10
158.0531896726632
 20
180.8790971667685
 30
0.000000000000000
 10
157.9831662054102
 20
181.3376368669658
 30
0.000000000000000
 10
157.8691653250931
 20
181.7607420186875
 30
0.000000000000000
 10
157.7294234563402
 20
182.1286390969256
 30
0.000000000000000
 10
157.5801299957212
 20
182.4398214255990
 30
0.000000000000000
 10
157.4283442459084
 20
182.7048468887550
 30
0.000000000000000
 10
157.2739007223731
 20
182.9378339929428
 30
0.000000000000000
 10
157.1014198624806
 20
183.1655022485934
 30
0.000000000000000
 10
156.8919629828682
 20
183.4053692727814
 30
0.000000000000000
 10
156.6242349928373
 20
183.6637084642225
 30
0.000000000000000
 10
156.2970543343417
 20
183.9272436761763
 30
0.000000000000000
 10
155.9204689395259
 20
184.1692512084070
 30
0.000000000000000
 10
155.5106775317081
 20
184.3719663375452
 30
0.000000000000000
 10
155.0799620474946
 20
184.5281302643249
 30
0.000000000000000
 10
154.6323518182672
 20
184.6391467727998
 30
0.000000000000000
 10
154.2140227972372
 20
184.6945638927739
 30
0.000000000000000
 10
153.9465796640128
 20
184.7041996918425
 30
0.000000000000000
 10
153.8338799084845
 20
184.7037337425516
 30
0.000000000000000
  0
SPLINE
  5
370
100
AcDbEntity
  8
A1
  6
CONTINUOUS
 62
7
100
AcDbSpline
210
0.000000000000000
220
0.000000000000000
230
1.000000000000000
 70
     8
 71
     3
 72
     9
 73
     5
 74
     0
 42
1.000000000000000e-07
 43
1.000000000000000e-07
 12
0.008118326409658039
 22
-0.9999670458450964
 32
0.000000000000000
 13
0.06714663156708411
 23
-0.9977431181741849
 33
0.000000000000000
 40
0.000000000000000
 40
0.000000000000000
 40
0.000000000000000
 40
0.000000000000000
 40
0.1971356438665126
 40
0.2420494823053896
 40
0.2420494823053896
 40
0.2420494823053896
 40
0.2420494823053896
 10
149.5877445271653
 20
180.4765218817013
 30
0.000000000000000
 10
149.5882779976666
 20
180.4108121658920
 30
0.000000000000000
 10
149.5908735959893
 20
180.3301267179444
 30
0.000000000000000
 10
149.5958495923151
 20
180.2495973751570
 30
0.000000000000000
 10
149.5968548633024
 20
180.2346598840859
 30
0.000000000000000
  0
ARC
  5
371
100
AcDbEntity
  8
A1
  6
CONTINUOUS
 62
7
100
AcDbCircle
 10
153.8342559509057
 20
180.4776973406120
 30
0.000000000000000
 40
4.249999999999766
100
AcDbArc
 50
269.9998610523937
 51
360.0000000000000
  0
ARC
  5
372
100
AcDbEntity
  8
A1
  6
CONTINUOUS
 62
7
100
AcDbCircle
 10
153.8342559509057
 20
180.4776973406120
 30
0.000000000000000
 40
3.049999999999765
100
AcDbArc
 50
270.0044924654152
 51
360.0000000000000
  0
ARC
  5
373
100
AcDbEntity
  8
A1
  6
CONTINUOUS
 62
7
100
AcDbCircle
 10
153.8397290145301
 20
180.5045706081960
 30
0.000000000000000
 40
3.080827416587824
100
AcDbArc
 50
235.0839205624056
 51
240.6596113644859
  0
LINE
  5
374
100
AcDbEntity
  8
A1
  6
CONTINUOUS
 62
7
100
AcDbLine
 10
156.9654282544817
 20
180.4776973406120
 30
0.000000000000000
 11
158.0842559509054
 21
180.4776973406120
 31
0.000000000000000
  0
LINE
  5
375
100
AcDbEntity
  8
A1
  6
CONTINUOUS
 62
7
100
AcDbLine
 10
156.8842559509054
 20
180.4776973406120
 30
0.000000000000000
 11
156.9654282544817
 21
180.4776973406120
 31
0.000000000000000
  0
LINE
  5
376
100
AcDbEntity
  8
A1
  6
CONTINUOUS
 62
7
100
AcDbLine
 10
153.9687017279776
 20
177.4356307323555
 30
0.000000000000000
 11
153.8380876624851
 21
177.4326104293022
 31
0.000000000000000
  0
SPLINE
  5
377
100
AcDbEntity
  8
A1
  6
CONTINUOUS
 62
7
100
AcDbSpline
210
0.000000000000000
220
0.000000000000000
230
1.000000000000000
 70
     8
 71
     3
 72
    12
 73
     8
 74
     0
 42
1.000000000000000e-07
 43
1.000000000000000e-07
 12
-0.7766214125126680
 22
0.6299676036333040
 32
0.000000000000000
 13
-0.9349419021987160
 23
0.3548008448606197
 33
0.000000000000000
 40
0.000000000000000
 40
0.000000000000000
 40
0.000000000000000
 40
0.000000000000000
 40
0.2263942528402322
 40
0.5676640614104324
 40
0.8865404926010479
 40
1.236000109858733
 40
1.375033349847031
 40
1.375033349847031
 40
1.375033349847031
 40
1.375033349847031
 10
129.0268179984813
 20
183.7642456127028
 30
0.000000000000000
 10
128.9682104570061
 20
183.8117859610155
 30
0.000000000000000
 10
128.8180583567394
 20
183.9270914518233
 30
0.000000000000000
 10
128.5717571095826
 20
184.0909961204925
 30
0.000000000000000
 10
128.2778915643420
 20
184.2555782213097
 30
0.000000000000000
 10
128.0334202441494
 20
184.3688666691830
 30
0.000000000000000
 10
127.8820956001212
 20
184.4290467962193
 30
0.000000000000000
 10
127.8387662661667
 20
184.4454898332231
 30
0.000000000000000
  0
SPLINE
  5
378
100
AcDbEntity
  8
A1
  6
CONTINUOUS
 62
7
100
AcDbSpline
210
0.000000000000000
220
0.000000000000000
230
1.000000000000000
 70
     8
 71
     3
 72
    27
 73
    23
 74
     0
 42
1.000000000000000e-07
 43
1.000000000000000e-07
 12
-0.9999964379067023
 22
-0.002669114878699475
 32
0.000000000000000
 13
-0.002162481845061848
 23
-0.9999976618335040
 33
0.000000000000000
 40
0.000000000000000
 40
0.000000000000000
 40
0.000000000000000
 40
0.000000000000000
 40
0.5010034517818844
 40
0.9652608568248380
 40
1.390389876351328
 40
1.774550312924504
 40
2.118836409520615
 40
2.449422932892323
 40
2.773706674014855
 40
3.091715324218027
 40
3.341719313186921
 40
3.587250512094340
 40
3.834635694979925
 40
4.120196307014306
 40
4.449474143506944
 40
4.757308010718555
 40
5.095516321583894
 40
5.463660311197076
 40
5.759079996903322
 40
6.074088878758107
 40
6.406865877303192
 40
6.673338763706746
 40
6.673338763706746
 40
6.673338763706746
 40
6.673338763706746
 10
126.3353428161139
 20
184.7266683149884
 30
0.000000000000000
 10
126.1683422603937
 20
184.7262225697326
 30
0.000000000000000
 10
125.8462611198159
 20
184.7063572779027
 30
0.000000000000000
 10
125.3893322773959
 20
184.6236920132527
 30
0.000000000000000
 10
124.9808135370908
 20
184.5058217142517
 30
0.000000000000000
 10
124.6222973645204
 20
184.3654502066207
 30
0.000000000000000
 10
124.3050656268351
 20
184.2097704560424
 30
0.000000000000000
 10
124.0180993099322
 20
184.0400842371615
 30
0.000000000000000
 10
123.7521848691540
 20
183.8539148195550
 30
0.000000000000000
 10
123.5220856058551
 20
183.6649607324194
 30
0.000000000000000
 10
123.3249458911072
 20
183.4785113595510
 30
0.000000000000000
 10
123.1553875191401
 20
183.2978302071301
 30
0.000000000000000
 10
122.9889824812734
 20
183.0985319798697
 30
0.000000000000000
 10
122.8187789143311
 20
182.8666787773848
 30
0.000000000000000
 10
122.6548642735627
 20
182.6060710190789
 30
0.000000000000000
 10
122.5026305185819
 20
182.3184964693463
 30
0.000000000000000
 10
122.3676311773768
 20
182.0081618088978
 30
0.000000000000000
 10
122.2603483949983
 20
181.6914892423405
 30
0.000000000000000
 10
122.1796803093906
 20
181.3751623062215
 30
0.000000000000000
 10
122.1250198010632
 20
181.0652420003533
 30
0.000000000000000
 10
122.0943940114337
 20
180.7617427177058
 30
0.000000000000000
 10
122.0879188197768
 20
180.5619600938719
 30
0.000000000000000
 10
122.0877267388504
 20
180.4731360060900
 30
0.000000000000000
  0
SPLINE
  5
379
100
AcDbEntity
  8
A1
  6
CONTINUOUS
 62
7
100
AcDbSpline
210
0.000000000000000
220
0.000000000000000
230
1.000000000000000
 70
     8
 71
     3
 72
    26
 73
    22
 74
     0
 42
1.000000000000000e-07
 43
1.000000000000000e-07
 12
-0.9999981895695100
 22
0.001902855208072651
 32
0.000000000000000
 13
0.0009754620800777047
 23
0.9999995242374098
 33
0.000000000000000
 40
0.000000000000000
 40
0.000000000000000
 40
0.000000000000000
 40
0.000000000000000
 40
0.4019910105866797
 40
0.7662924478255287
 40
1.093282209997247
 40
1.383013097346119
 40
1.635486948326586
 40
1.850729113487411
 40
2.028779036793684
 40
2.192743932150919
 40
2.392799042680807
 40
2.630624181220707
 40
2.906033482858864
 40
3.219099031964846
 40
3.569980302571384
 40
3.958795715847723
 40
4.125003830466999
 40
4.295955786343606
 40
4.468969241049813
 40
4.652224549692288
 40
4.793177901916785
 40
4.793177901916785
 40
4.793177901916785
 40
4.793177901916785
 10
126.3342559286946
 20
177.4207632522217
 30
0.000000000000000
 10
126.2002591677580
 20
177.4210182291177
 30
0.000000000000000
 10
125.9444949977878
 20
177.4382217208836
 30
0.000000000000000
 10
125.5861977615633
 20
177.5091421552020
 30
0.000000000000000
 10
125.2738526140090
 20
177.6079809110986
 30
0.000000000000000
 10
125.0072013104885
 20
177.7223551418512
 30
0.000000000000000
 10
124.7844158697878
 20
177.8417442030051
 30
0.000000000000000
 10
124.6027456919282
 20
177.9575307350318
 30
0.000000000000000
 10
124.4527502387745
 20
178.0672772518265
 30
0.000000000000000
 10
124.3131137174008
 20
178.1820895817894
 30
0.000000000000000
 10
124.1661359501461
 20
178.3188589305846
 30
0.000000000000000
 10
124.0042783873910
 20
178.4933586661218
 30
0.000000000000000
 10
123.8342725983544
 20
178.7105307223450
 30
0.000000000000000
 10
123.6654525828150
 20
178.9748926696429
 30
0.000000000000000
 10
123.5093157095876
 20
179.2899980349542
 30
0.000000000000000
 10
123.4087952430299
 20
179.5757197303817
 30
0.000000000000000
 10
123.3494753414310
 20
179.8104207937398
 30
0.000000000000000
 10
123.3168075897185
 20
179.9773935820832
 30
0.000000000000000
 10
123.2920697633235
 20
180.1514869842891
 30
0.000000000000000
 10
123.2797485998061
 20
180.3168901426426
 30
0.000000000000000
 10
123.2772808655758
 20
180.4249690666342
 30
0.000000000000000
 10
123.2773266971258
 20
180.4719534950223
 30
0.000000000000000
  0
SPLINE
  5
37A
100
AcDbEntity
  8
A1
  6
CONTINUOUS
 62
7
100
AcDbSpline
210
0.000000000000000
220
0.000000000000000
230
1.000000000000000
 70
     8
 71
     3
 72
    28
 73
    24
 74
     0
 42
1.000000000000000e-07
 43
1.000000000000000e-07
 12
0.001529085353467963
 22
-0.9999988309491528
 32
0.000000000000000
 13
0.9999993331633732
 23
-0.001154847595898900
 33
0.000000000000000
 40
0.000000000000000
 40
0.000000000000000
 40
0.000000000000000
 40
0.000000000000000
 40
0.2094816637521352
 40
0.4844086225684464
 40
0.7491832121146217
 40
0.9962894044652392
 40
1.450409738101214
 40
1.852821687647754
 40
2.137459217368508
 40
2.389002446492706
 40
2.607508186503001
 40
2.793000342395369
 40
2.977331090563263
 40
3.254953042340344
 40
3.584993363779232
 40
3.967119124884624
 40
4.401523646561579
 40
4.720352967204205
 40
5.062537936443452
 40
5.428076690804862
 40
5.816979491691432
 40
6.229355669240986
 40
6.665575745839047
 40
6.665575745839047
 40
6.665575745839047
 40
6.665575745839047
 10
122.0911897227077
 20
180.4818405752538
 30
0.000000000000000
 10
122.0912964944890
 20
180.4120134356347
 30
0.000000000000000
 10
122.0954027566449
 20
180.2505206258268
 30
0.000000000000000
 10
122.1160781924240
 20
180.0014963074056
 30
0.000000000000000
 10
122.1528396309753
 20
179.7416416453479
 30
0.000000000000000
 10
122.2184482570335
 20
179.4262205924006
 30
0.000000000000000
 10
122.3229092308279
 20
179.0726948280644
 30
0.000000000000000
 10
122.4671783994058
 20
178.7200998211344
 30
0.000000000000000
 10
122.6089321747266
 20
178.4409372107637
 30
0.000000000000000
 10
122.7367992857695
 20
178.2241242679114
 30
0.000000000000000
 10
122.8580592704770
 20
178.0422289164748
 30
0.000000000000000
 10
122.9744793251185
 20
177.8843377821549
 30
0.000000000000000
 10
123.1100232560734
 20
177.7163173332323
 30
0.000000000000000
 10
123.2868142411326
 20
177.5199951260728
 30
0.000000000000000
 10
123.5250824410611
 20
177.2912694511491
 30
0.000000000000000
 10
123.8231026605681
 20
177.0511477998226
 30
0.000000000000000
 10
124.1398892577481
 20
176.8428214220519
 30
0.000000000000000
 10
124.4616201113427
 20
176.6695067336263
 30
0.000000000000000
 10
124.7746903537633
 20
176.5304937081501
 30
0.000000000000000
 10
125.1201491784501
 20
176.4096875419102
 30
0.000000000000000
 10
125.4976090347925
 20
176.3136958042527
 30
0.000000000000000
 10
125.9057582648688
 20
176.2497499143598
 30
0.000000000000000
 10
126.1888493334578
 20
176.2347993515717
 30
0.000000000000000
 10
126.3342559286946
 20
176.2346314290028
 30
0.000000000000000
  0
SPLINE
  5
37B
100
AcDbEntity
  8
A1
  6
CONTINUOUS
 62
7
100
AcDbSpline
210
0.000000000000000
220
0.000000000000000
230
1.000000000000000
 70
     8
 71
     3
 72
    42
 73
    38
 74
     0
 42
1.000000000000000e-07
 43
1.000000000000000e-07
 12
-0.9999999858951014
 22
-0.0001679559400145081
 32
0.000000000000000
 13
0.9274195559237342
 23
-0.3740226828576851
 33
0.000000000000000
 40
0.000000000000000
 40
0.000000000000000
 40
0.000000000000000
 40
0.000000000000000
 40
0.1735533469487925
 40
0.5120511016617815
 40
0.8474015370004124
 40
1.178748252597246
 40
1.505031271978746
 40
1.825200269882939
 40
2.148588968152115
 40
2.474475444715132
 40
2.789811733014162
 40
3.236017795778717
 40
3.645102967809445
 40
4.013039384267289
 40
4.342239973876547
 40
4.561207348168152
 40
4.809324936202930
 40
5.087674028465288
 40
5.397963745867138
 40
5.737837380202780
 40
6.078522590118433
 40
6.413259870002489
 40
6.739478830066485
 40
7.055118666172461
 40
7.358638179399628
 40
7.651216398571911
 40
7.945384995490164
 40
8.245302416753990
 40
8.553393778083548
 40
8.872386021414286
 40
9.203529404777036
 40
9.541386998425581
 40
9.856581632517051
 40
10.13966401982547
 40
10.38972544978218
 40
10.60668056929076
 40
10.72328093542750
 40
10.72328093542750
 40
10.72328093542750
 40
10.72328093542750
 10
126.3380876624769
 20
177.4326104293202
 30
0.000000000000000
 10
126.2802365476432
 20
177.4326007128817
 30
0.000000000000000
 10
126.1095283499465
 20
177.4374826136339
 30
0.000000000000000
 10
125.8282978144440
 20
177.4700641374916
 30
0.000000000000000
 10
125.5010499616860
 20
177.5448921191152
 30
0.000000000000000
 10
125.1874661465196
 20
177.6527713878864
 30
0.000000000000000
 10
124.8916362893614
 20
177.7909885150345
 30
0.000000000000000
 10
124.6143368444323
 20
177.9584701564112
 30
0.000000000000000
 10
124.3583215689135
 20
178.1567721952033
 30
0.000000000000000
 10
124.1260619397042
 20
178.3799740697638
 30
0.000000000000000
 10
123.8907872630988
 20
178.6563759568440
 30
0.000000000000000
 10
123.6735502921540
 20
178.9822562801713
 30
0.000000000000000
 10
123.4980484253118
 20
179.3517489250274
 30
0.000000000000000
 10
123.3840385957368
 20
179.7033518602663
 30
0.000000000000000
 10
123.3232574145774
 20
180.0032536445578
 30
0.000000000000000
 10
123.2947004894873
 20
180.2673599623435
 30
0.000000000000000
 10
123.2873145647800
 20
180.5160251234151
 30
0.000000000000000
 10
123.3036293837393
 20
180.7948388402426
 30
0.000000000000000
 10
123.3506079500322
 20
181.1013093280162
 30
0.000000000000000
 10
123.4371442743969
 20
181.4208452402155
 30
0.000000000000000
 10
123.5620418095330
 20
181.7361041398919
 30
0.000000000000000
 10
123.7173349235409
 20
182.0323553948406
 30
0.000000000000000
 10
123.8977886900218
 20
182.3039793424045
 30
0.000000000000000
 10
124.0988658906716
 20
182.5474212890688
 30
0.000000000000000
 10
124.3170634553235
 20
182.7597177642444
 30
0.000000000000000
 10
124.5484919107868
 20
182.9461490468007
 30
0.000000000000000
 10
124.7961120421160
 20
183.1084098977734
 30
0.000000000000000
 10
125.0633718494561
 20
183.2474084919480
 30
0.000000000000000
 10
125.3512370556115
 20
183.3612260437363
 30
0.000000000000000
 10
125.6592765967375
 20
183.4477605024863
 30
0.000000000000000
 10
125.9846282313603
 20
183.5031030443372
 30
0.000000000000000
 10
126.3129462414255
 20
183.5203829652928
 30
0.000000000000000
 10
126.6250840223820
 20
183.5046027586794
 30
0.000000000000000
 10
126.9053042961135
 20
183.4639293052998
 30
0.000000000000000
 10
127.1490921371827
 20
183.4072194848416
 30
0.000000000000000
 10
127.3348219917179
 20
183.3487209393693
 30
0.000000000000000
 10
127.4387712659812
 20
183.3091789531906
 30
0.000000000000000
 10
127.4748170859089
 20
183.2946418926024
 30
0.000000000000000
  0
SPLINE
  5
37C
100
AcDbEntity
  8
A1
  6
CONTINUOUS
 62
7
100
AcDbSpline
210
0.000000000000000
220
0.000000000000000
230
1.000000000000000
 70
     8
 71
     3
 72
    24
 73
    20
 74
     0
 42
1.000000000000000e-07
 43
1.000000000000000e-07
 12
0.005509618753421819
 22
0.9999848219349587
 32
0.000000000000000
 13
0.9999865947756916
 23
0.005177863321478071
 33
0.000000000000000
 40
0.000000000000000
 40
0.000000000000000
 40
0.000000000000000
 40
0.000000000000000
 40
0.1652417384221578
 40
0.4837479825310818
 40
0.7992456151949061
 40
1.248579884285035
 40
1.661280634128075
 40
2.035479993628707
 40
2.370368388762458
 40
2.665542881193011
 40
2.920507699510637
 40
3.136404489007445
 40
3.328472729420312
 40
3.526110833445549
 40
3.731807883911124
 40
4.021662769018581
 40
4.329714539491229
 40
4.652209230665867
 40
4.785383507151712
 40
4.785383507151712
 40
4.785383507151712
 40
4.785383507151712
 10
123.2773064194994
 20
180.4762962114742
 30
0.000000000000000
 10
123.2776098924930
 20
180.5313759549316
 30
0.000000000000000
 10
123.2830236274163
 20
180.6926303149004
 30
0.000000000000000
 10
123.3153050185484
 20
180.9576487980404
 30
0.000000000000000
 10
123.3939466007800
 20
181.3105806986997
 30
0.000000000000000
 10
123.5242300930070
 20
181.6823200642397
 30
0.000000000000000
 10
123.7137514555677
 20
182.0496797530879
 30
0.000000000000000
 10
123.9283039878990
 20
182.3571027900402
 30
0.000000000000000
 10
124.1501891168840
 20
182.6086118032092
 30
0.000000000000000
 10
124.3674177420425
 20
182.8089056337054
 30
0.000000000000000
 10
124.5700521904734
 20
182.9647301153760
 30
0.000000000000000
 10
124.7548430118699
 20
183.0862339553324
 30
0.000000000000000
 10
124.9309349595975
 20
183.1852352247155
 30
0.000000000000000
 10
125.1102293835539
 20
183.2707089181151
 30
0.000000000000000
 10
125.3254106998604
 20
183.3553922009819
 30
0.000000000000000
 10
125.5823896749813
 20
183.4324803569240
 30
0.000000000000000
 10
125.8837605906812
 20
183.4923449150903
 30
0.000000000000000
 10
126.1376047134187
 20
183.5171595169843
 30
0.000000000000000
 10
126.2894797515726
 20
183.5211061919903
 30
0.000000000000000
 10
126.3338705819909
 20
183.5213360447242
 30
0.000000000000000
  0
SPLINE
  5
37D
100
AcDbEntity
  8
A1
  6
CONTINUOUS
 62
7
100
AcDbSpline
210
0.000000000000000
220
0.000000000000000
230
1.000000000000000
 70
     8
 71
     3
 72
    27
 73
    23
 74
     0
 42
1.000000000000000e-07
 43
1.000000000000000e-07
 12
-0.9999943344514577
 22
-0.003366164650287828
 32
0.000000000000000
 13
-0.005842029944233218
 23
-0.9999829351982044
 33
0.000000000000000
 40
0.000000000000000
 40
0.000000000000000
 40
0.000000000000000
 40
0.000000000000000
 40
0.1232621426735635
 40
0.5721618171209566
 40
1.002197683447478
 40
1.410308425645489
 40
1.701649000535630
 40
1.982173602927407
 40
2.253392142289197
 40
2.549813003435785
 40
2.900035101168439
 40
3.308405306894932
 40
3.614060838606973
 40
3.945817855430828
 40
4.302603806517485
 40
4.682866399858757
 40
5.084610580353773
 40
5.506010138309858
 40
5.834260748628582
 40
6.172216287290037
 40
6.524065535099468
 40
6.650378926381106
 40
6.650378926381106
 40
6.650378926381106
 40
6.650378926381106
 10
126.3338799084705
 20
184.7037337426238
 30
0.000000000000000
 10
126.2927927603618
 20
184.7035954357346
 30
0.000000000000000
 10
126.1020869139817
 20
184.7002724913609
 30
0.000000000000000
 10
125.7685063828421
 20
184.6725308490554
 30
0.000000000000000
 10
125.3460074328448
 20
184.5943331812996
 30
0.000000000000000
 10
124.9836225492709
 20
184.4899713215977
 30
0.000000000000000
 10
124.6781722060914
 20
184.3734676595794
 30
0.000000000000000
 10
124.4230204531998
 20
184.2551445032459
 30
0.000000000000000
 10
124.1749336710549
 20
184.1191309989169
 30
0.000000000000000
 10
123.9171915268256
 20
183.9538177742121
 30
0.000000000000000
 10
123.6358333065963
 20
183.7422079336435
 30
0.000000000000000
 10
123.3722769051935
 20
183.5038502431503
 30
0.000000000000000
 10
123.1342202649367
 20
183.2488328641688
 30
0.000000000000000
 10
122.9261255420727
 20
182.9904975029128
 30
0.000000000000000
 10
122.7250570404612
 20
182.6959056924350
 30
0.000000000000000
 10
122.5388843869729
 20
182.3644578563531
 30
0.000000000000000
 10
122.3769907003802
 20
181.9967815513455
 30
0.000000000000000
 10
122.2554105003420
 20
181.6321218781088
 30
0.000000000000000
 10
122.1703592495846
 20
181.2793760041490
 30
0.000000000000000
 10
122.1159311120049
 20
180.9440674639444
 30
0.000000000000000
 10
122.0947386956513
 20
180.6724887239966
 30
0.000000000000000
 10
122.0914021460083
 20
180.5131188185620
 30
0.000000000000000
 10
122.0911561704702
 20
180.4710150733058
 30
0.000000000000000
  0
SPLINE
  5
37E
100
AcDbEntity
  8
A1
  6
CONTINUOUS
 62
7
100
AcDbSpline
210
0.000000000000000
220
0.000000000000000
230
1.000000000000000
 70
     8
 71
     3
 72
    11
 73
     7
 74
     0
 42
1.000000000000000e-07
 43
1.000000000000000e-07
 12
-0.7697573560180899
 22
0.6383365984008833
 32
0.000000000000000
 13
-0.9361826905892485
 23
0.3515138259581363
 33
0.000000000000000
 40
0.000000000000000
 40
0.000000000000000
 40
0.000000000000000
 40
0.000000000000000
 40
0.2767320826267215
 40
0.7349110921919784
 40
1.189675646316417
 40
1.373903591981431
 40
1.373903591981431
 40
1.373903591981431
 40
1.373903591981431
 10
129.0195507912180
 20
183.7453056256988
 30
0.000000000000000
 10
128.9485452724686
 20
183.8041883644628
 30
0.000000000000000
 10
128.7547468462355
 20
183.9543261051204
 30
0.000000000000000
 10
128.4205053243265
 20
184.1692892449744
 30
0.000000000000000
 10
128.0919069947947
 20
184.3317120751639
 30
0.000000000000000
 10
127.8941756574280
 20
184.4110533363597
 30
0.000000000000000
 10
127.8366853194765
 20
184.4326395597027
 30
0.000000000000000
  0
SPLINE
  5
37F
100
AcDbEntity
  8
A1
  6
CONTINUOUS
 62
7
100
AcDbSpline
210
0.000000000000000
220
0.000000000000000
230
1.000000000000000
 70
     8
 71
     3
 72
     9
 73
     5
 74
     0
 42
1.000000000000000e-07
 43
1.000000000000000e-07
 12
0.009025907761952112
 22
-0.9999592656649838
 32
0.000000000000000
 13
0.1233406516237210
 23
-0.9923643905633526
 33
0.000000000000000
 40
0.000000000000000
 40
0.000000000000000
 40
0.000000000000000
 40
0.000000000000000
 40
0.1971373553963316
 40
0.4879907965399422
 40
0.4879907965399422
 40
0.4879907965399422
 40
0.4879907965399422
 10
122.0877445049542
 20
180.4765218817013
 30
0.000000000000000
 10
122.0883376194829
 20
180.4108121066556
 30
0.000000000000000
 10
122.0935652136258
 20
180.2481772198832
 30
0.000000000000000
 10
122.1081324264935
 20
180.0860088304047
 30
0.000000000000000
 10
122.1200904441460
 20
179.9897979644501
 30
0.000000000000000
  0
LINE
  5
380
100
AcDbEntity
  8
A1
  6
CONTINUOUS
 62
7
100
AcDbLine
 10
123.2773104443548
 20
180.4764801456460
 30
0.000000000000000
 11
123.2760054992260
 21
180.4785311881008
 31
0.000000000000000
  0
SPLINE
  5
381
100
AcDbEntity
  8
A1
  6
CONTINUOUS
 62
7
100
AcDbSpline
210
0.000000000000000
220
0.000000000000000
230
1.000000000000000
 70
     8
 71
     3
 72
    18
 73
    14
 74
     0
 42
1.000000000000000e-07
 43
1.000000000000000e-07
 12
0.2013689750247067
 22
0.5024415564748779
 32
0.000000000000000
 13
0.6102423214997543
 23
-0.3616793261489875
 33
0.000000000000000
 40
0.000000000000000
 40
0.000000000000000
 40
0.000000000000000
 40
0.000000000000000
 40
0.07982456107404769
 40
0.1629321662386541
 40
0.2806589352295819
 40
0.3926001845691949
 40
0.4957188576240583
 40
0.6040427937493257
 40
0.7400527903693376
 40
0.8869861658241235
 40
1.033029456945281
 40
1.129025781655529
 40
1.199384056257412
 40
1.199384056257412
 40
1.199384056257412
 40
1.199384056257412
 10
122.0912028403367
 20
180.4789217167758
 30
0.000000000000000
 10
122.0965609036851
 20
180.4922907756795
 30
0.000000000000000
 10
122.1614685527260
 20
180.4841051644289
 30
0.000000000000000
 10
122.2425603145708
 20
180.5022985752444
 30
0.000000000000000
 10
122.3602838158344
 20
180.5014214280022
 30
0.000000000000000
 10
122.4721832455733
 20
180.5044809913392
 30
0.000000000000000
 10
122.5753000420009
 20
180.5051031063679
 30
0.000000000000000
 10
122.6836239700072
 20
180.5051450463086
 30
0.000000000000000
 10
122.8196303712941
 20
180.5041561127524
 30
0.000000000000000
 10
122.9665235683022
 20
180.5007202001731
 30
0.000000000000000
 10
123.1125341352867
 20
180.4976287263546
 30
0.000000000000000
 10
123.2079728180936
 20
180.4872966316025
 30
0.000000000000000
 10
123.2616936336161
 20
180.4870135658831
 30
0.000000000000000
 10
123.2760054992260
 20
180.4785311881008
 30
0.000000000000000
  0
ARC
  5
382
100
AcDbEntity
  8
A1
  6
CONTINUOUS
 62
7
100
AcDbCircle
 10
126.3342559286946
 20
180.4776973406120
 30
0.000000000000000
 40
4.249999999999890
100
AcDbArc
 50
269.6336154983366
 51
270.0000002994350
  0
ARC
  5
383
100
AcDbEntity
  8
A1
  6
CONTINUOUS
 62
7
100
AcDbCircle
 10
126.3342559286946
 20
180.4776973406120
 30
0.000000000000000
 40
4.249999999999890
100
AcDbArc
 50
182.2633919066842
 51
182.7595365785465
  0
ARC
  5
384
100
AcDbEntity
  8
A1
  6
CONTINUOUS
 62
7
100
AcDbCircle
 10
126.3342559286946
 20
180.4776973406120
 30
0.000000000000000
 40
4.249999999999890
100
AcDbArc
 50
180.0000000000000
 51
182.2633919066842
  0
ARC
  5
385
100
AcDbEntity
  8
A1
  6
CONTINUOUS
 62
7
100
AcDbCircle
 10
126.3342559286946
 20
180.4776973406120
 30
0.000000000000000
 40
4.249999999999766
100
AcDbArc
 50
290.6673168135443
 51
324.5339468394413
  0
ARC
  5
386
100
AcDbEntity
  8
A1
  6
CONTINUOUS
 62
7
100
AcDbCircle
 10
126.3342559286946
 20
180.4776973406120
 30
0.000000000000000
 40
3.049999999999765
100
AcDbArc
 50
299.4591753909599
 51
304.9480137199012
  0
LINE
  5
387
100
AcDbEntity
  8
A1
  6
CONTINUOUS
 62
7
100
AcDbLine
 10
133.3342559509058
 20
184.3244164807508
 30
0.000000000000000
 11
133.5842559509057
 21
184.3244164807508
 31
0.000000000000000
  0
LINE
  5
388
100
AcDbEntity
  8
A1
  6
CONTINUOUS
 62
7
100
AcDbLine
 10
131.3342559509057
 20
184.3244164807508
 30
0.000000000000000
 11
131.8342559509059
 21
184.3244164807508
 31
0.000000000000000
  0
LINE
  5
389
100
AcDbEntity
  8
A1
  6
CONTINUOUS
 62
7
100
AcDbLine
 10
131.3342559509057
 20
185.8244164807508
 30
0.000000000000000
 11
133.5842559509057
 21
185.8244164807508
 31
0.000000000000000
  0
LINE
  5
38A
100
AcDbEntity
  8
A1
  6
CONTINUOUS
 62
7
100
AcDbLine
 10
131.3342559509057
 20
185.8244164807508
 30
0.000000000000000
 11
131.3342559509057
 21
184.3244164807508
 31
0.000000000000000
  0
LINE
  5
38B
100
AcDbEntity
  8
A1
  6
CONTINUOUS
 62
7
100
AcDbLine
 10
147.8342559509058
 20
184.3244164807508
 30
0.000000000000000
 11
148.3342559509057
 21
184.3244164807508
 31
0.000000000000000
  0
LINE
  5
38C
100
AcDbEntity
  8
A1
  6
CONTINUOUS
 62
7
100
AcDbLine
 10
146.0842559509057
 20
184.3244164807508
 30
0.000000000000000
 11
146.3342559509057
 21
184.3244164807508
 31
0.000000000000000
  0
LINE
  5
38D
100
AcDbEntity
  8
A1
  6
CONTINUOUS
 62
7
100
AcDbLine
 10
148.3342559509057
 20
185.8244164807508
 30
0.000000000000000
 11
148.3342559509057
 21
184.3244164807508
 31
0.000000000000000
  0
LINE
  5
38E
100
AcDbEntity
  8
A1
  6
CONTINUOUS
 62
7
100
AcDbLine
 10
146.0842559509057
 20
185.8244164807508
 30
0.000000000000000
 11
148.3342559509057
 21
185.8244164807508
 31
0.000000000000000
  0
LINE
  5
38F
100
AcDbEntity
  8
A1
  6
CONTINUOUS
 62
7
100
AcDbLine
 10
133.5842559509057
 20
185.8244164807508
 30
0.000000000000000
 11
133.5842559509057
 21
185.2369564242317
 31
0.000000000000000
  0
LINE
  5
390
100
AcDbEntity
  8
A1
  6
CONTINUOUS
 62
7
100
AcDbLine
 10
146.0842559509057
 20
185.2369564242317
 30
0.000000000000000
 11
146.0842559509057
 21
185.8244164807508
 31
0.000000000000000
  0
LINE
  5
391
100
AcDbEntity
  8
A1
  6
CONTINUOUS
 62
7
100
AcDbLine
 10
133.5842559509057
 20
185.8244164807508
 30
0.000000000000000
 11
146.0842559509057
 21
185.8244164807508
 31
0.000000000000000
  0
LINE
  5
392
100
AcDbEntity
  8
A1
  6
CONTINUOUS
 62
7
100
AcDbLine
 10
133.5842559509057
 20
183.7276864206040
 30
0.000000000000000
 11
133.5842559509057
 21
185.2369564242317
 31
0.000000000000000
  0
LINE
  5
393
100
AcDbEntity
  8
A1
  6
CONTINUOUS
 62
7
100
AcDbLine
 10
133.5842559509057
 20
178.6939498394644
 30
0.000000000000000
 11
133.5842559509057
 21
180.2276864206040
 31
0.000000000000000
  0
LINE
  5
394
100
AcDbEntity
  8
A1
  6
CONTINUOUS
 62
7
100
AcDbLine
 10
146.0842559509057
 20
180.2276864206040
 30
0.000000000000000
 11
146.0842559509057
 21
178.6939498394644
 31
0.000000000000000
  0
LINE
  5
395
100
AcDbEntity
  8
A1
  6
CONTINUOUS
 62
7
100
AcDbLine
 10
146.0842559509057
 20
185.2369564242317
 30
0.000000000000000
 11
146.0842559509057
 21
183.7276864206040
 31
0.000000000000000
  0
LINE
  5
396
100
AcDbEntity
  8
A1
  6
CONTINUOUS
 62
7
100
AcDbLine
 10
133.5842559509057
 20
185.2369564242317
 30
0.000000000000000
 11
146.0842559509057
 21
185.2369564242317
 31
0.000000000000000
  0
LINE
  5
397
100
AcDbEntity
  8
A1
  6
CONTINUOUS
 62
7
100
AcDbLine
 10
131.3342559509057
 20
176.8244164807508
 30
0.000000000000000
 11
131.3342559509057
 21
175.3244164807508
 31
0.000000000000000
  0
LINE
  5
398
100
AcDbEntity
  8
A1
  6
CONTINUOUS
 62
7
100
AcDbLine
 10
148.3342559509057
 20
176.8244164807508
 30
0.000000000000000
 11
148.3342559509057
 21
175.3244164807508
 31
0.000000000000000
  0
LINE
  5
399
100
AcDbEntity
  8
A1
  6
CONTINUOUS
 62
7
100
AcDbLine
 10
147.8342559509058
 20
176.8244164807508
 30
0.000000000000000
 11
148.3342559509057
 21
176.8244164807508
 31
0.000000000000000
  0
LINE
  5
39A
100
AcDbEntity
  8
A1
  6
CONTINUOUS
 62
7
100
AcDbLine
 10
131.3342559509057
 20
176.8244164807508
 30
0.000000000000000
 11
131.8342559509059
 21
176.8244164807508
 31
0.000000000000000
  0
LINE
  5
39B
100
AcDbEntity
  8
A1
  6
CONTINUOUS
 62
7
100
AcDbLine
 10
147.8342559509058
 20
175.3244164807508
 30
0.000000000000000
 11
148.3342559509057
 21
175.3244164807508
 31
0.000000000000000
  0
LINE
  5
39C
100
AcDbEntity
  8
A1
  6
CONTINUOUS
 62
7
100
AcDbLine
 10
131.3342559509057
 20
175.3244164807508
 30
0.000000000000000
 11
131.8342559509059
 21
175.3244164807508
 31
0.000000000000000
  0
LINE
  5
39D
100
AcDbEntity
  8
A1
  6
CONTINUOUS
 62
7
100
AcDbLine
 10
147.8342559509057
 20
178.7276973406120
 30
0.000000000000000
 11
149.5842559509058
 21
178.7276973406120
 31
0.000000000000000
  0
LINE
  5
39E
100
AcDbEntity
  8
A1
  6
CONTINUOUS
 62
7
100
AcDbLine
 10
146.0842559509057
 20
178.7276973406120
 30
0.000000000000000
 11
146.3342559509057
 21
178.7276973406120
 31
0.000000000000000
  0
LINE
  5
39F
100
AcDbEntity
  8
A1
  6
CONTINUOUS
 62
7
100
AcDbLine
 10
133.3342559509058
 20
178.7276973406120
 30
0.000000000000000
 11
133.5842559509057
 21
178.7276973406120
 31
0.000000000000000
  0
LINE
  5
3A0
100
AcDbEntity
  8
A1
  6
CONTINUOUS
 62
7
100
AcDbLine
 10
130.5842559509058
 20
178.7276973406120
 30
0.000000000000000
 11
131.8342559509058
 21
178.7276973406120
 31
0.000000000000000
  0
LINE
  5
3A1
100
AcDbEntity
  8
A1
  6
CONTINUOUS
 62
7
100
AcDbLine
 10
149.5842559509058
 20
177.4776973406120
 30
0.000000000000000
 11
150.8238573062078
 21
177.4776973406120
 31
0.000000000000000
  0
LINE
  5
3A2
100
AcDbEntity
  8
A1
  6
CONTINUOUS
 62
7
100
AcDbLine
 10
149.5842559509058
 20
177.4776973406120
 30
0.000000000000000
 11
149.5842559509058
 21
177.8110306739451
 31
0.000000000000000
  0
LINE
  5
3A3
100
AcDbEntity
  8
A1
  6
CONTINUOUS
 62
7
100
AcDbLine
 10
129.3446545733925
 20
177.4776973406120
 30
0.000000000000000
 11
130.5842559509057
 21
177.4776973406120
 31
0.000000000000000
  0
LINE
  5
3A4
100
AcDbEntity
  8
A1
  6
CONTINUOUS
 62
7
100
AcDbLine
 10
130.5842559509058
 20
177.4776973406120
 30
0.000000000000000
 11
130.5842559509058
 21
177.8110306739451
 31
0.000000000000000
  0
LINE
  5
3A5
100
AcDbEntity
  8
A1
  6
CONTINUOUS
 62
7
100
AcDbLine
 10
149.5842559509058
 20
177.8110306739451
 30
0.000000000000000
 11
149.5842559509058
 21
177.9776973406120
 31
0.000000000000000
  0
LINE
  5
3A6
100
AcDbEntity
  8
A1
  6
CONTINUOUS
 62
7
100
AcDbLine
 10
130.5842559509058
 20
177.8110306739451
 30
0.000000000000000
 11
130.5842559509058
 21
177.9776973406120
 31
0.000000000000000
  0
LINE
  5
3A7
100
AcDbEntity
  8
A1
  6
CONTINUOUS
 62
7
100
AcDbLine
 10
149.5842559509058
 20
177.9776973406121
 30
0.000000000000000
 11
149.9566706267196
 21
177.9776973406121
 31
0.000000000000000
  0
LINE
  5
3A8
100
AcDbEntity
  8
A1
  6
CONTINUOUS
 62
7
100
AcDbLine
 10
149.5842559509058
 20
177.9776973406120
 30
0.000000000000000
 11
149.5842559509058
 21
178.5576631703843
 31
0.000000000000000
  0
LINE
  5
3A9
100
AcDbEntity
  8
A1
  6
CONTINUOUS
 62
7
100
AcDbLine
 10
130.5842559509058
 20
177.9776973406121
 30
0.000000000000000
 11
130.2118412750918
 21
177.9776973406121
 31
0.000000000000000
  0
LINE
  5
3AA
100
AcDbEntity
  8
A1
  6
CONTINUOUS
 62
7
100
AcDbLine
 10
130.5842559509058
 20
177.9776973406120
 30
0.000000000000000
 11
130.5842559509058
 21
178.5576631703843
 31
0.000000000000000
  0
LINE
  5
3AB
100
AcDbEntity
  8
A1
  6
CONTINUOUS
 62
7
100
AcDbLine
 10
130.2118412750919
 20
177.9776973406121
 30
0.000000000000000
 11
129.7711876999114
 21
177.9776973406121
 31
0.000000000000000
  0
LINE
  5
3AC
100
AcDbEntity
  8
A1
  6
CONTINUOUS
 62
7
100
AcDbLine
 10
130.2118412750919
 20
177.9776973406120
 30
0.000000000000000
 11
130.2118412750919
 21
178.1081329482270
 31
0.000000000000000
  0
LINE
  5
3AD
100
AcDbEntity
  8
A1
  6
CONTINUOUS
 62
7
100
AcDbLine
 10
149.9566706267196
 20
177.9776973406121
 30
0.000000000000000
 11
150.3973241796889
 21
177.9776973406121
 31
0.000000000000000
  0
LINE
  5
3AE
100
AcDbEntity
  8
A1
  6
CONTINUOUS
 62
7
100
AcDbLine
 10
149.9566706267196
 20
177.9776973406121
 30
0.000000000000000
 11
149.9566706267196
 21
178.1081329482270
 31
0.000000000000000
  0
LINE
  5
3AF
100
AcDbEntity
  8
A1
  6
CONTINUOUS
 62
7
100
AcDbLine
 10
127.8342559509056
 20
175.4776973406120
 30
0.000000000000000
 11
127.8342559509056
 21
175.8781985969009
 31
0.000000000000000
  0
LINE
  5
3B0
100
AcDbEntity
  8
A1
  6
CONTINUOUS
 62
7
100
AcDbLine
 10
126.3342559509057
 20
175.4776973406120
 30
0.000000000000000
 11
126.3342559509057
 21
175.8781985969009
 31
0.000000000000000
  0
LINE
  5
3B1
100
AcDbEntity
  8
A1
  6
CONTINUOUS
 62
7
100
AcDbLine
 10
127.8342559509056
 20
175.4776973406120
 30
0.000000000000000
 11
126.3342559509056
 21
175.4776973406120
 31
0.000000000000000
  0
LINE
  5
3B2
100
AcDbEntity
  8
A1
  6
CONTINUOUS
 62
7
100
AcDbLine
 10
127.8342559509056
 20
185.0771960843231
 30
0.000000000000000
 11
127.8342559509056
 21
185.4776973406120
 31
0.000000000000000
  0
LINE
  5
3B3
100
AcDbEntity
  8
A1
  6
CONTINUOUS
 62
7
100
AcDbLine
 10
126.3342559509057
 20
185.0771960843231
 30
0.000000000000000
 11
126.3342559509057
 21
185.4776973406120
 31
0.000000000000000
  0
LINE
  5
3B4
100
AcDbEntity
  8
A1
  6
CONTINUOUS
 62
7
100
AcDbLine
 10
127.8342559509056
 20
185.4776973406120
 30
0.000000000000000
 11
126.3342559509057
 21
185.4776973406120
 31
0.000000000000000
  0
LINE
  5
3B5
100
AcDbEntity
  8
A1
  6
CONTINUOUS
 62
7
100
AcDbLine
 10
127.8342559509056
 20
183.3342529075508
 30
0.000000000000000
 11
127.8342559509056
 21
185.0771960843231
 31
0.000000000000000
  0
LINE
  5
3B6
100
AcDbEntity
  8
A1
  6
CONTINUOUS
 62
7
100
AcDbLine
 10
127.8342559509056
 20
175.8781985969009
 30
0.000000000000000
 11
127.8342559509056
 21
177.9776973406121
 31
0.000000000000000
  0
LINE
  5
3B7
100
AcDbEntity
  8
A1
  6
CONTINUOUS
 62
7
100
AcDbLine
 10
126.3342559509057
 20
183.1581848229145
 30
0.000000000000000
 11
126.3342559509057
 21
185.0771960843231
 31
0.000000000000000
  0
LINE
  5
3B8
100
AcDbEntity
  8
A1
  6
CONTINUOUS
 62
7
100
AcDbLine
 10
126.3342559509057
 20
175.8781985969009
 30
0.000000000000000
 11
126.3342559509057
 21
177.9776973406009
 31
0.000000000000000
  0
LINE
  5
3B9
100
AcDbEntity
  8
A1
  6
CONTINUOUS
 62
7
100
AcDbLine
 10
153.8342559509058
 20
185.0771960843231
 30
0.000000000000000
 11
153.8342559509058
 21
185.4776973406120
 31
0.000000000000000
  0
LINE
  5
3BA
100
AcDbEntity
  8
A1
  6
CONTINUOUS
 62
7
100
AcDbLine
 10
152.3342559509058
 20
185.4776973406120
 30
0.000000000000000
 11
153.8342559509058
 21
185.4776973406120
 31
0.000000000000000
  0
LINE
  5
3BB
100
AcDbEntity
  8
A1
  6
CONTINUOUS
 62
7
100
AcDbLine
 10
152.3342559509058
 20
185.0771960843231
 30
0.000000000000000
 11
152.3342559509058
 21
185.4776973406120
 31
0.000000000000000
  0
LINE
  5
3BC
100
AcDbEntity
  8
A1
  6
CONTINUOUS
 62
7
100
AcDbLine
 10
152.3342559509058
 20
175.4776973406120
 30
0.000000000000000
 11
152.3342559509058
 21
175.8781985969009
 31
0.000000000000000
  0
LINE
  5
3BD
100
AcDbEntity
  8
A1
  6
CONTINUOUS
 62
7
100
AcDbLine
 10
152.3342559509058
 20
175.4776973406120
 30
0.000000000000000
 11
153.8342559509058
 21
175.4776973406120
 31
0.000000000000000
  0
LINE
  5
3BE
100
AcDbEntity
  8
A1
  6
CONTINUOUS
 62
7
100
AcDbLine
 10
153.8342559509058
 20
175.4776973406120
 30
0.000000000000000
 11
153.8342559509058
 21
175.8781985969009
 31
0.000000000000000
  0
LINE
  5
3BF
100
AcDbEntity
  8
A1
  6
CONTINUOUS
 62
7
100
AcDbLine
 10
152.3342559509058
 20
183.3342529075508
 30
0.000000000000000
 11
152.3342559509058
 21
185.0771960843231
 31
0.000000000000000
  0
LINE
  5
3C0
100
AcDbEntity
  8
A1
  6
CONTINUOUS
 62
7
100
AcDbLine
 10
152.3342559509058
 20
175.8781985969009
 30
0.000000000000000
 11
152.3342559509058
 21
177.9776973406121
 31
0.000000000000000
  0
LINE
  5
3C1
100
AcDbEntity
  8
A1
  6
CONTINUOUS
 62
7
100
AcDbLine
 10
153.8342559509058
 20
183.1581848229146
 30
0.000000000000000
 11
153.8342559509058
 21
185.0771960843231
 31
0.000000000000000
  0
LINE
  5
3C2
100
AcDbEntity
  8
A1
  6
CONTINUOUS
 62
7
100
AcDbLine
 10
153.8342559509058
 20
175.8781985969009
 30
0.000000000000000
 11
153.8342559509058
 21
177.9776973406009
 31
0.000000000000000
  0
LINE
  5
3C3
100
AcDbEntity
  8
A4
  6
CENTER
 62
1
100
AcDbLine
 10
140.0842559509058
 20
171.5504414321030
 30
0.000000000000000
 11
140.0842559509058
 21
186.4776973405960
 31
0.000000000000000
  0
LINE
  5
3C4
100
AcDbEntity
  8
A4
  6
CENTER
 62
1
100
AcDbLine
 10
140.0842559509058
 20
37.77208699022245
 30
0.000000000000000
 11
140.0842559509058
 21
52.82357088792095
 31
0.000000000000000
  0
ENDSEC
  0
SECTION
  2
OBJECTS
  0
DICTIONARY
  5
3F2
100
AcDbDictionary
  3
ACAD_GROUP
350
3F3
  3
ACAD_MLINESTYLE
350
3F4
  0
DICTIONARY
  5
3F3
102
{ACAD_REACTORS
330
3F2
102
}
100
AcDbDictionary
  0
DICTIONARY
  5
3F4
102
{ACAD_REACTORS
330
3F2
102
}
100
AcDbDictionary
  3
STANDARD
350
3F5
  0
MLINESTYLE
  5
3F5
102
{ACAD_REACTORS
330
3F4
102
}
100
AcDbMlineStyle
  2
STANDARD
 70
     0
  3

 62
   256
 51
90.00
 52
90.00
 71
     2
 49
0.50
 62
   256
  6
BYLAYER
 49
-0.50
 62
   256
  6
BYLAYER
  0
ENDSEC
  0
EOF
