  0
SECTION
  2
HEADER
  9
$ACADVER
  1
AC1024
  9
$DWGCODEPAGE
  3
ANSI_932
  9
$LTSCALE
 40
20.0
  9
$FILLMODE
 70
     1
  9
$CLAYER
  8
0
  9
$PDMODE
 70
     0
  9
$SPLFRAME
 70
     0
  9
$SPLINETYPE
 70
     6
  9
$SPLINESEGS
 70
     8
  9
$DIMASZ
 40
2.000000
  9
$DIMEXE
 40
1.500000
  9
$DIMEXO
 40
0.800000
  9
$DIMTAD
 70
     1
  9
$DIMTIH
 70
     0
  9
$DIMTOH
 70
     0
  9
$DIMTVP
 40
0.500000
  9
$DIMTXT
 40
3.100000
  9
$EXTMIN
 10
0.000000
 20
0.000000
 30
0.000000
  9
$EXTMAX
 10
297.000000
 20
420.000000
 30
0.000000
  9
$MEASUREMENT
 70
  1
  9
$LIMMIN
 10
0.000000
 20
0.000000
  9
$LIMMAX
 10
297.000000
 20
420.000000
  9
$HANDSEED
  5
2E1
  9
$LWDISPLAY
290
     0
  9
$DIMBLK
  1
_OPEN
  9
$DIMDEC
 70
     2
  9
$DIMADEC
 70
     2
  9
$DIMAUNIT
 70
     0
  9
$DIMZIN
 70
     8
  9
$DIMAZIN
 70
     2
  9
$DIMTOFL
 70
     1
  0
ENDSEC
  0
SECTION
  2
CLASSES
  0
ENDSEC
  0
SECTION
  2
TABLES
  0
TABLE
  2
VPORT
  5
29E
100
AcDbSymbolTable
 70
     1
  0
VPORT
  5
29F
100
AcDbSymbolTableRecord
100
AcDbViewportTableRecord
  2
*ACTIVE
 70
     0
 12
48.352860
 22
90.153892
 40
152.119386
 41
2.944919
  0
ENDTAB
  0
TABLE
  2
LTYPE
  5
2A0
100
AcDbSymbolTable
 70
     3
  0
LTYPE
  5
2A1
100
AcDbSymbolTableRecord
100
AcDbLinetypeTableRecord
  2
BYBLOCK
 70
     0
  3

 72
    65
 73
     0
 40
0.0
  0
LTYPE
  5
2A2
100
AcDbSymbolTableRecord
100
AcDbLinetypeTableRecord
  2
BYLAYER
 70
     0
  3

 72
    65
 73
     0
 40
0.0
  0
LTYPE
  5
2A3
100
AcDbSymbolTableRecord
100
AcDbLinetypeTableRecord
  2
CONTINUOUS
 70
     0
  3
Solid line (NEC CAE2D for Win R18.0 : 2025.06.12)
 72
    65
 73
     0
 40
0.0
  0
LTYPE
  5
2A4
100
AcDbSymbolTableRecord
100
AcDbLinetypeTableRecord
  2
DASHED
 70
     0
  3
__ __ __ __ __ __ __ __ __ __ __ __ __ _
 72
    65
 73
     2
 40
0.75
 49
0.5
 74
     0
 49
-0.25
 74
     0
  0
LTYPE
  5
2A5
100
AcDbSymbolTableRecord
100
AcDbLinetypeTableRecord
  2
CENTER
 70
     0
  3
____ _ ____ _ ____ _ ____ _ ____ _ ____
 72
    65
 73
     4
 40
2.0
 49
1.25
 74
     0
 49
-0.25
 74
     0
 49
0.25
 74
     0
 49
-0.25
 74
     0
  0
ENDTAB
  0
TABLE
  2
LAYER
  5
2A6
100
AcDbSymbolTable
 70
    28
  0
LAYER
  5
2A7
100
AcDbSymbolTableRecord
100
AcDbLayerTableRecord
  2
0
 70
     0
 62
     7
  6
CONTINUOUS
370
    -3
390

  0
LAYER
  5
2A8
100
AcDbSymbolTableRecord
100
AcDbLayerTableRecord
  2
DXF0
 70
     0
 62
     7
  6
CONTINUOUS
370
    -3
390

  0
LAYER
  5
2A9
100
AcDbSymbolTableRecord
100
AcDbLayerTableRecord
  2
A0
 70
     0
 62
     9
  6
CONTINUOUS
370
    -3
390

  0
LAYER
  5
2AA
100
AcDbSymbolTableRecord
100
AcDbLayerTableRecord
  2
A1
 70
     0
 62
     1
  6
CONTINUOUS
370
    -3
390

  0
LAYER
  5
2AB
100
AcDbSymbolTableRecord
100
AcDbLayerTableRecord
  2
A2
 70
     0
 62
     9
  6
CONTINUOUS
370
    -3
390

  0
LAYER
  5
2AC
100
AcDbSymbolTableRecord
100
AcDbLayerTableRecord
  2
A3
 70
     0
 62
    12
  6
CONTINUOUS
370
    -3
390

  0
LAYER
  5
2AD
100
AcDbSymbolTableRecord
100
AcDbLayerTableRecord
  2
A4
 70
     0
 62
     9
  6
CONTINUOUS
370
    -3
390

  0
LAYER
  5
2AE
100
AcDbSymbolTableRecord
100
AcDbLayerTableRecord
  2
A5
 70
     0
 62
     8
  6
CONTINUOUS
370
    -3
390

  0
LAYER
  5
2AF
100
AcDbSymbolTableRecord
100
AcDbLayerTableRecord
  2
A6
 70
     0
 62
    12
  6
CONTINUOUS
370
    -3
390

  0
LAYER
  5
2B0
100
AcDbSymbolTableRecord
100
AcDbLayerTableRecord
  2
A7
 70
     0
 62
    12
  6
CONTINUOUS
370
    -3
390

  0
LAYER
  5
2B1
100
AcDbSymbolTableRecord
100
AcDbLayerTableRecord
  2
A8
 70
     0
 62
    10
  6
CONTINUOUS
370
    -3
390

  0
LAYER
  5
2B2
100
AcDbSymbolTableRecord
100
AcDbLayerTableRecord
  2
A9
 70
     0
 62
     9
  6
CONTINUOUS
370
    -3
390

  0
LAYER
  5
2B3
100
AcDbSymbolTableRecord
100
AcDbLayerTableRecord
  2
A10
 70
     0
 62
     6
  6
CONTINUOUS
370
    -3
390

  0
LAYER
  5
2B4
100
AcDbSymbolTableRecord
100
AcDbLayerTableRecord
  2
A11
 70
     0
 62
    10
  6
CONTINUOUS
370
    -3
390

  0
LAYER
  5
2B5
100
AcDbSymbolTableRecord
100
AcDbLayerTableRecord
  2
A16
 70
     0
 62
     5
  6
CONTINUOUS
370
    -3
390

  0
LAYER
  5
2B6
100
AcDbSymbolTableRecord
100
AcDbLayerTableRecord
  2
A17
 70
     0
 62
     9
  6
CONTINUOUS
370
    -3
390

  0
LAYER
  5
2B7
100
AcDbSymbolTableRecord
100
AcDbLayerTableRecord
  2
A20
 70
     0
 62
     1
  6
CONTINUOUS
370
    -3
390

  0
LAYER
  5
2B8
100
AcDbSymbolTableRecord
100
AcDbLayerTableRecord
  2
A23
 70
     0
 62
   121
  6
CONTINUOUS
370
    -3
390

  0
LAYER
  5
2B9
100
AcDbSymbolTableRecord
100
AcDbLayerTableRecord
  2
A27
 70
     0
 62
   242
  6
CONTINUOUS
370
    -3
390

  0
LAYER
  5
2BA
100
AcDbSymbolTableRecord
100
AcDbLayerTableRecord
  2
A28
 70
     0
 62
     2
  6
CONTINUOUS
370
    -3
390

  0
LAYER
  5
2BB
100
AcDbSymbolTableRecord
100
AcDbLayerTableRecord
  2
A29
 70
     0
 62
    80
  6
CONTINUOUS
370
    -3
390

  0
LAYER
  5
2BC
100
AcDbSymbolTableRecord
100
AcDbLayerTableRecord
  2
A30
 70
     0
 62
     1
  6
CONTINUOUS
370
    -3
390

  0
LAYER
  5
2BD
100
AcDbSymbolTableRecord
100
AcDbLayerTableRecord
  2
A40
 70
     0
 62
     9
  6
CONTINUOUS
370
    -3
390

  0
LAYER
  5
2BE
100
AcDbSymbolTableRecord
100
AcDbLayerTableRecord
  2
A50
 70
     0
 62
    12
  6
CONTINUOUS
370
    -3
390

  0
LAYER
  5
2BF
100
AcDbSymbolTableRecord
100
AcDbLayerTableRecord
  2
A1023
 70
     0
 62
     8
  6
CONTINUOUS
370
    -3
390

  0
LAYER
  5
2C0
100
AcDbSymbolTableRecord
100
AcDbLayerTableRecord
  2
DXF30
 70
     0
 62
    12
  6
CONTINUOUS
370
    -3
390

  0
LAYER
  5
2C1
100
AcDbSymbolTableRecord
100
AcDbLayerTableRecord
  2
DXF40
 70
     0
 62
    11
  6
CONTINUOUS
370
    -3
390

  0
LAYER
  5
2C2
100
AcDbSymbolTableRecord
100
AcDbLayerTableRecord
  2
DXF1023
 70
     0
 62
    16
  6
CONTINUOUS
370
    -3
390

  0
ENDTAB
  0
TABLE
  2
STYLE
  5
2C3
100
AcDbSymbolTable
 70
     4
  0
STYLE
  5
2C4
100
AcDbSymbolTableRecord
100
AcDbTextStyleTableRecord
  2
STANDARD
 70
    64
 40
0.0
 41
1.0
 50
0.0
 71
     0
 42
3.000000000000000
  3
TXT
  4

  0
STYLE
  5
2C5
100
AcDbSymbolTableRecord
100
AcDbTextStyleTableRecord
  2
ANKTATE
 70
    68
 40
0.0
 41
1.0
 50
0.0
 71
     0
 42
3.000000000000000
  3
TXT
  4

  0
STYLE
  5
2C6
100
AcDbSymbolTableRecord
100
AcDbTextStyleTableRecord
  2
KNJYOKO
 70
    64
 40
0.0
 41
1.0
 50
0.0
 71
     0
 42
3.000000000000000
  3
TXT
  4
BIGFONT
  0
STYLE
  5
2C7
100
AcDbSymbolTableRecord
100
AcDbTextStyleTableRecord
  2
KNJTATE
 70
    68
 40
0.0
 41
1.0
 50
0.0
 71
     0
 42
3.000000000000000
  3
TXT
  4
BIGFONT
  0
ENDTAB
  0
TABLE
  2
VIEW
  5
2C8
100
AcDbSymbolTable
 70
     0
  0
ENDTAB
  0
TABLE
  2
UCS
  5
2C9
100
AcDbSymbolTable
 70
     0
  0
ENDTAB
  0
TABLE
  2
APPID
  5
2CA
100
AcDbSymbolTable
 70
     1
  0
APPID
  5
2CB
100
AcDbSymbolTableRecord
100
AcDbRegAppTableRecord
  2
ACAD
 70
     0
  0
ENDTAB
  0
TABLE
  2
DIMSTYLE
  5
2CC
100
AcDbSymbolTable
 70
     2
100
AcDbDimStyleTable
  0
DIMSTYLE
105
2CD
100
AcDbSymbolTableRecord
100
AcDbDimStyleTableRecord
  2
STANDARD
 70
     0
 41
2.000000
 44
1.500000
 42
0.800000
145
0.661290
140
3.100000
144
1.000000
146
0.645161
340
2C4
  0
DIMSTYLE
105
2CE
100
AcDbSymbolTableRecord
100
AcDbDimStyleTableRecord
  2
DXF001
 70
     0
 41
2.000000
 44
1.500000
 42
0.800000
145
0.661290
140
3.100000
144
1.000000
146
0.645161
 77
     1
 73
     0
 74
     0
271
     2
179
     2
275
     0
 78
     8
 79
     2
172
     1
340
2C4
  0
ENDTAB
  0
TABLE
  2
BLOCK_RECORD
  5
2CF
100
AcDbSymbolTable
 70
    12
  0
BLOCK_RECORD
  5
2D0
100
AcDbSymbolTableRecord
100
AcDbBlockTableRecord
  2
*MODEL_SPACE
  0
BLOCK_RECORD
  5
2D1
100
AcDbSymbolTableRecord
100
AcDbBlockTableRecord
  2
*PAPER_SPACE
  0
BLOCK_RECORD
  5
2D2
100
AcDbSymbolTableRecord
100
AcDbBlockTableRecord
  2
*PAPER_SPACE0
  0
BLOCK_RECORD
  5
1
100
AcDbSymbolTableRecord
100
AcDbBlockTableRecord
  2
_NONE
  0
BLOCK_RECORD
  5
4
100
AcDbSymbolTableRecord
100
AcDbBlockTableRecord
  2
_CLOSED
  0
BLOCK_RECORD
  5
B
100
AcDbSymbolTableRecord
100
AcDbBlockTableRecord
  2
_DOT
  0
BLOCK_RECORD
  5
13
100
AcDbSymbolTableRecord
100
AcDbBlockTableRecord
  2
_OPEN
  0
BLOCK_RECORD
  5
19
100
AcDbSymbolTableRecord
100
AcDbBlockTableRecord
  2
_ORIGIN
  0
BLOCK_RECORD
  5
1E
100
AcDbSymbolTableRecord
100
AcDbBlockTableRecord
  2
_OPEN30
  0
BLOCK_RECORD
  5
24
100
AcDbSymbolTableRecord
100
AcDbBlockTableRecord
  2
_BOXFILLED
  0
BLOCK_RECORD
  5
29
100
AcDbSymbolTableRecord
100
AcDbBlockTableRecord
  2
_BOXBLANK
  0
BLOCK_RECORD
  5
31
100
AcDbSymbolTableRecord
100
AcDbBlockTableRecord
  2
_OBLIQUE
  0
BLOCK_RECORD
  5
35
100
AcDbSymbolTableRecord
100
AcDbBlockTableRecord
  2
_OPEN90
  0
BLOCK_RECORD
  5
3B
100
AcDbSymbolTableRecord
100
AcDbBlockTableRecord
  2
_CLOSEDBLANK
  0
BLOCK_RECORD
  5
41
100
AcDbSymbolTableRecord
100
AcDbBlockTableRecord
  2
_DOTBLANK
  0
ENDTAB
  0
ENDSEC
  0
SECTION
  2
BLOCKS
  0
BLOCK
  5
2D3
100
AcDbEntity
  8
0
100
AcDbBlockBegin
  2
*MODEL_SPACE
 70
     0
 10
0.0
 20
0.0
 30
0.0
  3
*MODEL_SPACE
  1

  0
ENDBLK
  5
2D4
100
AcDbEntity
  8
0
100
AcDbBlockEnd
  0
BLOCK
  5
2D5
100
AcDbEntity
  8
0
100
AcDbBlockBegin
  2
*PAPER_SPACE
 70
     0
 10
0.0
 20
0.0
 30
0.0
  3
*PAPER_SPACE
  1

  0
ENDBLK
  5
2D6
100
AcDbEntity
  8
0
100
AcDbBlockEnd
  0
BLOCK
  5
2D7
100
AcDbEntity
  8
0
100
AcDbBlockBegin
  2
*PAPER_SPACE0
 70
     0
 10
0.0
 20
0.0
 30
0.0
  3
*PAPER_SPACE0
  1

  0
ENDBLK
  5
2D8
100
AcDbEntity
  8
0
100
AcDbBlockEnd
  0
BLOCK
  5
2
330
1
100
AcDbEntity
  8
0
100
AcDbBlockBegin
  2
_NONE
 70
     0
 10
0.0
 20
0.0
 30
0.0
  3
_NONE
  1

  0
ENDBLK
  5
3
330
1
100
AcDbEntity
  8
0
100
AcDbBlockEnd
  0
BLOCK
  5
5
330
4
100
AcDbEntity
  8
0
100
AcDbBlockBegin
  2
_CLOSED
 70
     0
 10
0.0
 20
0.0
 30
0.0
  3
_CLOSED
  1

  0
LINE
  5
6
330
4
100
AcDbEntity
  8
0
  6
BYBLOCK
 62
     0
370
    -2
100
AcDbLine
 10
-1.0
 20
0.166667
 30
0.0
 11
0.0
 21
0.0
 31
0.0
  0
LINE
  5
7
330
4
100
AcDbEntity
  8
0
  6
BYBLOCK
 62
     0
370
    -2
100
AcDbLine
 10
0.0
 20
0.0
 30
0.0
 11
-1.0
 21
-0.166667
 31
0.0
  0
LINE
  5
8
330
4
100
AcDbEntity
  8
0
  6
BYBLOCK
 62
     0
370
    -2
100
AcDbLine
 10
-1.0
 20
0.166667
 30
0.0
 11
-1.0
 21
-0.166667
 31
0.0
  0
LINE
  5
9
330
4
100
AcDbEntity
  8
0
  6
BYBLOCK
 62
     0
370
    -2
100
AcDbLine
 10
0.0
 20
0.0
 30
0.0
 11
-1.0
 21
0.0
 31
0.0
  0
ENDBLK
  5
A
330
4
100
AcDbEntity
  8
0
100
AcDbBlockEnd
  0
BLOCK
  5
C
330
B
100
AcDbEntity
  8
0
100
AcDbBlockBegin
  2
_DOT
 70
     0
 10
0.0
 20
0.0
 30
0.0
  3
_DOT
  1

  0
POLYLINE
  5
D
330
B
100
AcDbEntity
  8
0
  6
BYBLOCK
 62
     0
370
    -2
100
AcDb2dPolyline
 66
     1
 10
0.0
 20
0.0
 30
0.0
 70
     1
 40
0.5
 41
0.5
  0
VERTEX
  5
E
330
B
100
AcDbEntity
  8
0
  6
BYBLOCK
 62
     0
370
    -2
100
AcDbVertex
100
AcDb2dVertex
 10
-0.25
 20
0.0
 30
0.0
 42
1.0
  0
VERTEX
  5
F
330
B
100
AcDbEntity
  8
0
  6
BYBLOCK
 62
     0
370
    -2
100
AcDbVertex
100
AcDb2dVertex
 10
0.25
 20
0.0
 30
0.0
 42
1.0
  0
SEQEND
  5
10
330
B
100
AcDbEntity
  8
0
  6
BYBLOCK
 62
     0
370
    -2
  0
LINE
  5
11
330
B
100
AcDbEntity
  8
0
  6
BYBLOCK
 62
     0
370
    -2
100
AcDbLine
 10
-0.5
 20
0.0
 30
0.0
 11
-1.0
 21
0.0
 31
0.0
  0
ENDBLK
  5
12
330
B
100
AcDbEntity
  8
0
100
AcDbBlockEnd
  0
BLOCK
  5
14
330
13
100
AcDbEntity
  8
0
100
AcDbBlockBegin
  2
_OPEN
 70
     0
 10
0.0
 20
0.0
 30
0.0
  3
_OPEN
  1

  0
LINE
  5
15
330
13
100
AcDbEntity
  8
0
  6
BYBLOCK
 62
     0
370
    -2
100
AcDbLine
 10
-1.0
 20
0.166667
 30
0.0
 11
0.0
 21
0.0
 31
0.0
  0
LINE
  5
16
330
13
100
AcDbEntity
  8
0
  6
BYBLOCK
 62
     0
370
    -2
100
AcDbLine
 10
0.0
 20
0.0
 30
0.0
 11
-1.0
 21
-0.166667
 31
0.0
  0
LINE
  5
17
330
13
100
AcDbEntity
  8
0
  6
BYBLOCK
 62
     0
370
    -2
100
AcDbLine
 10
0.0
 20
0.0
 30
0.0
 11
-1.0
 21
0.0
 31
0.0
  0
ENDBLK
  5
18
330
13
100
AcDbEntity
  8
0
100
AcDbBlockEnd
  0
BLOCK
  5
1A
330
19
100
AcDbEntity
  8
0
100
AcDbBlockBegin
  2
_ORIGIN
 70
     0
 10
0.0
 20
0.0
 30
0.0
  3
_ORIGIN
  1

  0
CIRCLE
  5
1B
330
19
100
AcDbEntity
  8
0
  6
BYBLOCK
 62
     0
370
    -2
100
AcDbCircle
 10
0.0
 20
0.0
 30
0.0
 40
0.5
  0
LINE
  5
1C
330
19
100
AcDbEntity
  8
0
  6
BYBLOCK
 62
     0
370
    -2
100
AcDbLine
 10
0.0
 20
0.0
 30
0.0
 11
-1.0
 21
0.0
 31
0.0
  0
ENDBLK
  5
1D
330
19
100
AcDbEntity
  8
0
100
AcDbBlockEnd
  0
BLOCK
  5
1F
330
1E
100
AcDbEntity
  8
0
100
AcDbBlockBegin
  2
_OPEN30
 70
     0
 10
0.0
 20
0.0
 30
0.0
  3
_OPEN30
  1

  0
LINE
  5
20
330
1E
100
AcDbEntity
  8
0
  6
BYBLOCK
 62
     0
370
    -2
100
AcDbLine
 10
-1.0
 20
0.267949
 30
0.0
 11
0.0
 21
0.0
 31
0.0
  0
LINE
  5
21
330
1E
100
AcDbEntity
  8
0
  6
BYBLOCK
 62
     0
370
    -2
100
AcDbLine
 10
0.0
 20
0.0
 30
0.0
 11
-1.0
 21
-0.267949
 31
0.0
  0
LINE
  5
22
330
1E
100
AcDbEntity
  8
0
  6
BYBLOCK
 62
     0
370
    -2
100
AcDbLine
 10
0.0
 20
0.0
 30
0.0
 11
-1.0
 21
0.0
 31
0.0
  0
ENDBLK
  5
23
330
1E
100
AcDbEntity
  8
0
100
AcDbBlockEnd
  0
BLOCK
  5
25
330
24
100
AcDbEntity
  8
0
100
AcDbBlockBegin
  2
_BOXFILLED
 70
     0
 10
0.0
 20
0.0
 30
0.0
  3
_BOXFILLED
  1

  0
SOLID
  5
26
330
24
100
AcDbEntity
  8
0
  6
BYBLOCK
 62
     0
370
    -2
100
AcDbTrace
 10
-0.5
 20
0.5
 30
0.0
 11
0.5
 21
0.5
 31
0.0
 12
-0.5
 22
-0.5
 32
0.0
 13
0.5
 23
-0.5
 33
0.0
  0
LINE
  5
27
330
24
100
AcDbEntity
  8
0
  6
BYBLOCK
 62
     0
370
    -2
100
AcDbLine
 10
-0.5
 20
0.0
 30
0.0
 11
-1.0
 21
0.0
 31
0.0
  0
ENDBLK
  5
28
330
24
100
AcDbEntity
  8
0
100
AcDbBlockEnd
  0
BLOCK
  5
2A
330
29
100
AcDbEntity
  8
0
100
AcDbBlockBegin
  2
_BOXBLANK
 70
     0
 10
0.0
 20
0.0
 30
0.0
  3
_BOXBLANK
  1

  0
LINE
  5
2B
330
29
100
AcDbEntity
  8
0
  6
BYBLOCK
 62
     0
370
    -2
100
AcDbLine
 10
-0.5
 20
-0.5
 30
0.0
 11
0.5
 21
-0.5
 31
0.0
  0
LINE
  5
2C
330
29
100
AcDbEntity
  8
0
  6
BYBLOCK
 62
     0
370
    -2
100
AcDbLine
 10
0.5
 20
-0.5
 30
0.0
 11
0.5
 21
0.5
 31
0.0
  0
LINE
  5
2D
330
29
100
AcDbEntity
  8
0
  6
BYBLOCK
 62
     0
370
    -2
100
AcDbLine
 10
0.5
 20
0.5
 30
0.0
 11
-0.5
 21
0.5
 31
0.0
  0
LINE
  5
2E
330
29
100
AcDbEntity
  8
0
  6
BYBLOCK
 62
     0
370
    -2
100
AcDbLine
 10
-0.5
 20
0.5
 30
0.0
 11
-0.5
 21
-0.5
 31
0.0
  0
LINE
  5
2F
330
29
100
AcDbEntity
  8
0
  6
BYBLOCK
 62
     0
370
    -2
100
AcDbLine
 10
-0.5
 20
0.0
 30
0.0
 11
-1.0
 21
0.0
 31
0.0
  0
ENDBLK
  5
30
330
29
100
AcDbEntity
  8
0
100
AcDbBlockEnd
  0
BLOCK
  5
32
330
31
100
AcDbEntity
  8
0
100
AcDbBlockBegin
  2
_OBLIQUE
 70
     0
 10
0.0
 20
0.0
 30
0.0
  3
_OBLIQUE
  1

  0
LINE
  5
33
330
31
100
AcDbEntity
  8
0
  6
BYBLOCK
 62
     0
370
    -2
100
AcDbLine
 10
-0.5
 20
-0.5
 30
0.0
 11
0.5
 21
0.5
 31
0.0
  0
ENDBLK
  5
34
330
31
100
AcDbEntity
  8
0
100
AcDbBlockEnd
  0
BLOCK
  5
36
330
35
100
AcDbEntity
  8
0
100
AcDbBlockBegin
  2
_OPEN90
 70
     0
 10
0.0
 20
0.0
 30
0.0
  3
_OPEN90
  1

  0
LINE
  5
37
330
35
100
AcDbEntity
  8
0
  6
BYBLOCK
 62
     0
370
    -2
100
AcDbLine
 10
-0.5
 20
0.5
 30
0.0
 11
0.0
 21
0.0
 31
0.0
  0
LINE
  5
38
330
35
100
AcDbEntity
  8
0
  6
BYBLOCK
 62
     0
370
    -2
100
AcDbLine
 10
0.0
 20
0.0
 30
0.0
 11
-0.5
 21
-0.5
 31
0.0
  0
LINE
  5
39
330
35
100
AcDbEntity
  8
0
  6
BYBLOCK
 62
     0
370
    -2
100
AcDbLine
 10
0.0
 20
0.0
 30
0.0
 11
-1.0
 21
0.0
 31
0.0
  0
ENDBLK
  5
3A
330
35
100
AcDbEntity
  8
0
100
AcDbBlockEnd
  0
BLOCK
  5
3C
330
3B
100
AcDbEntity
  8
0
100
AcDbBlockBegin
  2
_CLOSEDBLANK
 70
     0
 10
0.0
 20
0.0
 30
0.0
  3
_CLOSEDBLANK
  1

  0
LINE
  5
3D
330
3B
100
AcDbEntity
  8
0
  6
BYBLOCK
 62
     0
370
    -2
100
AcDbLine
 10
-1.0
 20
0.1666666666666666
 30
0.0
 11
0.0
 21
0.0
 31
0.0
  0
LINE
  5
3E
330
3B
100
AcDbEntity
  8
0
  6
BYBLOCK
 62
     0
370
    -2
100
AcDbLine
 10
0.0
 20
0.0
 30
0.0
 11
-1.0
 21
-0.1666666666666666
 31
0.0
  0
LINE
  5
3F
330
3B
100
AcDbEntity
  8
0
  6
BYBLOCK
 62
     0
370
    -2
100
AcDbLine
 10
-1.0
 20
0.1666666666666666
 30
0.0
 11
-1.0
 21
-0.1666666666666666
 31
0.0
  0
ENDBLK
  5
40
330
3B
100
AcDbEntity
  8
0
100
AcDbBlockEnd
  0
BLOCK
  5
42
330
41
100
AcDbEntity
  8
0
100
AcDbBlockBegin
  2
_DOTBLANK
 70
     0
 10
0.0
 20
0.0
 30
0.0
  3
_DOTBLANK
  1

  0
CIRCLE
  5
43
330
41
100
AcDbEntity
  8
0
  6
BYBLOCK
 62
     0
370
    -2
100
AcDbCircle
 10
0.0
 20
0.0
 30
0.0
 40
0.5
  0
LINE
  5
44
330
41
100
AcDbEntity
  8
0
  6
BYBLOCK
 62
     0
370
    -2
100
AcDbLine
 10
-0.5
 20
0.0
 30
0.0
 11
-1.0
 21
0.0
 31
0.0
  0
ENDBLK
  5
45
330
41
100
AcDbEntity
  8
0
100
AcDbBlockEnd
  0
ENDSEC
  0
SECTION
  2
ENTITIES
  0
MTEXT
  5
46
100
AcDbEntity
  8
A7
  6
CONTINUOUS
 62
3
100
AcDbMText
 10
9.999997526638502
 20
18.00000076076889
 30
0.000000000000000
 40
3.000000000000000
 41
0.000000000000000
 44
0.6739999771118164
 71
     7
 72
     1
  1
{\H0.93x;{TYPE No.TL-207-1}}
 11
1.000000000000000
 21
0.000000000000000
 31
0.000000000000000
  7
STANDARD
  0
POINT
  5
47
100
AcDbEntity
  8
A10
  6
CONTINUOUS
 62
3
100
AcDbPoint
 10
9.999997526638502
 20
18.00000076076889
 30
0.000000000000000
  0
LINE
  5
48
100
AcDbEntity
  8
A1
  6
CONTINUOUS
 62
7
100
AcDbLine
 10
53.19265061865789
 20
90.00264581406290
 30
0.000000000000000
 11
53.19265061865789
 21
92.06481160665879
 31
0.000000000000000
  0
LINE
  5
49
100
AcDbEntity
  8
A1
  6
CONTINUOUS
 62
7
100
AcDbLine
 10
53.39265781717390
 20
78.92748181409129
 30
0.000000000000000
 11
43.79265820371495
 21
78.92748655338048
 31
0.000000000000000
  0
LINE
  5
4A
100
AcDbEntity
  8
A1
  6
CONTINUOUS
 62
7
100
AcDbLine
 10
53.39266670499174
 20
93.72748129611841
 30
0.000000000000000
 11
43.79266604351712
 21
93.72748698496710
 31
0.000000000000000
  0
LINE
  5
4B
100
AcDbEntity
  8
A1
  6
CONTINUOUS
 62
7
100
AcDbLine
 10
53.56362089777503
 20
88.44596153581287
 30
0.000000000000000
 11
43.96362014825114
 21
86.34596710567179
 31
0.000000000000000
  0
LINE
  5
4C
100
AcDbEntity
  8
A1
  6
CONTINUOUS
 62
7
100
AcDbLine
 10
53.22170692087474
 20
90.00900186281828
 30
0.000000000000000
 11
43.62170617135099
 21
87.90900743267721
 31
0.000000000000000
  0
LINE
  5
4D
100
AcDbEntity
  8
A1
  6
CONTINUOUS
 62
7
100
AcDbLine
 10
53.56361868812768
 20
84.74596141560922
 30
0.000000000000000
 11
43.96361793860379
 21
82.64596698546814
 31
0.000000000000000
  0
LINE
  5
4E
100
AcDbEntity
  8
A1
  6
CONTINUOUS
 62
7
100
AcDbLine
 10
53.22170471122751
 20
86.30900174261467
 30
0.000000000000000
 11
43.62170396170362
 21
84.20900731247359
 31
0.000000000000000
  0
LINE
  5
4F
100
AcDbEntity
  8
A1
  6
CONTINUOUS
 62
7
100
AcDbLine
 10
53.56361647848004
 20
81.04596129540543
 30
0.000000000000000
 11
43.96361572895631
 21
78.94596686526438
 31
0.000000000000000
  0
LINE
  5
50
100
AcDbEntity
  8
A1
  6
CONTINUOUS
 62
7
100
AcDbLine
 10
53.22170250158004
 20
82.60900162241094
 30
0.000000000000000
 11
43.62170175205618
 21
80.50900719226985
 31
0.000000000000000
  0
LINE
  5
51
100
AcDbEntity
  8
A1
  6
CONTINUOUS
 62
7
100
AcDbLine
 10
53.56362310742240
 20
92.14596165601657
 30
0.000000000000000
 11
43.96362240712676
 21
90.04596622708794
 31
0.000000000000000
  0
LINE
  5
52
100
AcDbEntity
  8
A1
  6
CONTINUOUS
 62
7
100
AcDbLine
 10
53.22170913052224
 20
93.70900198302196
 30
0.000000000000000
 11
43.62170843022655
 21
91.60900655409331
 31
0.000000000000000
  0
ARC
  5
53
100
AcDbEntity
  8
A1
  6
CONTINUOUS
 62
7
100
AcDbCircle
 10
43.79265764230954
 20
78.12748657738754
 30
0.000000000000000
 40
0.8000000000000000
100
AcDbArc
 50
89.99996900000006
 51
269.9999690000001
  0
ARC
  5
54
100
AcDbEntity
  8
A1
  6
CONTINUOUS
 62
7
100
AcDbCircle
 10
43.79266660492248
 20
94.52748696095998
 30
0.000000000000000
 40
0.8000000000000000
100
AcDbArc
 50
89.99996900000006
 51
269.9999690000001
  0
ARC
  5
55
100
AcDbEntity
  8
A1
  6
CONTINUOUS
 62
7
100
AcDbCircle
 10
53.39265825455622
 20
78.12748188732647
 30
0.000000000000000
 40
0.8000000000000000
100
AcDbArc
 50
269.9999690000001
 51
449.9999690000001
  0
ARC
  5
56
100
AcDbEntity
  8
A1
  6
CONTINUOUS
 62
7
100
AcDbCircle
 10
53.39266393393896
 20
89.22748119992181
 30
0.000000000000000
 40
0.8000000000000000
100
AcDbArc
 50
282.3390550000000
 51
462.3390600000001
  0
ARC
  5
57
100
AcDbEntity
  8
A1
  6
CONTINUOUS
 62
7
100
AcDbCircle
 10
53.39266726639709
 20
94.52748127211132
 30
0.000000000000000
 40
0.8000000000000000
100
AcDbArc
 50
269.9999690000001
 51
449.9999690000001
  0
LINE
  5
58
100
AcDbEntity
  8
A1
  6
CONTINUOUS
 62
7
100
AcDbLine
 10
53.52417716050790
 20
78.91659605669746
 30
0.000000000000000
 11
51.59266836236013
 21
79.23851541417444
 31
0.000000000000000
  0
LINE
  5
59
100
AcDbEntity
  8
A1
  6
CONTINUOUS
 62
7
100
AcDbLine
 10
53.52417937015526
 20
82.61659617690123
 30
0.000000000000000
 11
51.59266836236156
 21
82.93851590265393
 31
0.000000000000000
  0
LINE
  5
5A
100
AcDbEntity
  8
A1
  6
CONTINUOUS
 62
7
100
AcDbLine
 10
43.66114111925664
 20
82.63837143219038
 30
0.000000000000000
 11
45.59266836236132
 21
82.31644900054224
 31
0.000000000000000
  0
LINE
  5
5B
100
AcDbEntity
  8
A1
  6
CONTINUOUS
 62
7
100
AcDbLine
 10
43.66114553855142
 20
90.03837167259761
 30
0.000000000000000
 11
45.59266836236424
 21
89.71644997750087
 31
0.000000000000000
  0
LINE
  5
5C
100
AcDbEntity
  8
A1
  6
CONTINUOUS
 62
7
100
AcDbLine
 10
53.52418378945005
 20
90.01659641730852
 30
0.000000000000000
 11
51.59266836236449
 21
90.33851687961267
 31
0.000000000000000
  0
LINE
  5
5D
100
AcDbEntity
  8
A1
  6
CONTINUOUS
 62
7
100
AcDbLine
 10
43.66114332890405
 20
86.33837155239397
 30
0.000000000000000
 11
45.59266836236277
 21
86.01644948902157
 31
0.000000000000000
  0
LINE
  5
5E
100
AcDbEntity
  8
A1
  6
CONTINUOUS
 62
7
100
AcDbLine
 10
53.52418157980271
 20
86.31659629710491
 30
0.000000000000000
 11
51.59266836236306
 21
86.63851639113334
 31
0.000000000000000
  0
LINE
  5
5F
100
AcDbEntity
  8
A1
  6
CONTINUOUS
 62
7
100
AcDbLine
 10
43.66114674941144
 20
93.73837174357327
 30
0.000000000000000
 11
45.59266836236567
 21
93.41645049089433
 31
0.000000000000000
  0
LINE
  5
60
100
AcDbEntity
  8
A1
  6
CONTINUOUS
 62
7
100
AcDbLine
 10
43.09266901445260
 20
98.32748741502660
 30
0.000000000000000
 11
45.59266836236760
 21
98.32748610652244
 31
0.000000000000000
  0
LINE
  5
61
100
AcDbEntity
  8
A1
  6
CONTINUOUS
 62
7
100
AcDbLine
 10
42.59266722695251
 20
95.32748727966718
 30
0.000000000000000
 11
42.59266875275189
 21
97.82748772018651
 31
0.000000000000000
  0
LINE
  5
62
100
AcDbEntity
  8
A1
  6
CONTINUOUS
 62
7
100
AcDbLine
 10
54.59266776717782
 20
95.32748090538998
 30
0.000000000000000
 11
42.59266722695239
 21
95.32748727966717
 31
0.000000000000000
  0
LINE
  5
63
100
AcDbEntity
  8
A1
  6
CONTINUOUS
 62
7
100
AcDbLine
 10
54.59266846065421
 20
97.82748137622791
 30
0.000000000000000
 11
54.59266776717782
 21
95.32748090539000
 31
0.000000000000000
  0
LINE
  5
64
100
AcDbEntity
  8
A1
  6
CONTINUOUS
 62
7
100
AcDbLine
 10
51.59266836236758
 20
98.32748282342762
 30
0.000000000000000
 11
54.09266872235511
 21
98.32748151492295
 31
0.000000000000000
  0
LINE
  5
65
100
AcDbEntity
  8
A1
  6
CONTINUOUS
 62
7
100
AcDbLine
 10
53.19265061865790
 20
88.09419924617652
 30
0.000000000000000
 11
53.19265061865790
 21
88.36481200882642
 31
0.000000000000000
  0
LINE
  5
66
100
AcDbEntity
  8
A1
  6
CONTINUOUS
 62
7
100
AcDbLine
 10
41.39265071054485
 20
78.79419913993856
 30
0.000000000000000
 11
43.35051020204032
 21
78.79419913993858
 31
0.000000000000000
  0
LINE
  5
67
100
AcDbEntity
  8
A1
  6
CONTINUOUS
 62
7
100
AcDbLine
 10
41.39265071054473
 20
38.79419913993856
 30
0.000000000000000
 11
41.39265071054468
 21
78.79419913993848
 31
0.000000000000000
  0
ARC
  5
68
100
AcDbEntity
  8
A1
  6
CONTINUOUS
 62
7
100
AcDbCircle
 10
45.59265071054480
 20
82.96718313993856
 30
0.000000000000000
 40
4.000000000000000
100
AcDbArc
 50
180.0000000000001
 51
229.6980561641606
  0
ARC
  5
69
100
AcDbEntity
  8
A1
  6
CONTINUOUS
 62
7
100
AcDbCircle
 10
47.59265071054480
 20
63.09419913993855
 30
0.000000000000000
 40
3.000000000000000
100
AcDbArc
 50
180.0000000000001
 51
270.0000000000001
  0
LINE
  5
6A
100
AcDbEntity
  8
A1
  6
CONTINUOUS
 62
7
100
AcDbLine
 10
47.59265071054480
 20
60.09419924617649
 30
0.000000000000000
 11
57.19265071054475
 21
60.09419924617650
 31
0.000000000000000
  0
LINE
  5
6B
100
AcDbEntity
  8
A1
  6
CONTINUOUS
 62
7
100
AcDbLine
 10
44.59265071054475
 20
74.32748648345914
 30
0.000000000000000
 11
44.59265071054476
 21
63.09419913993855
 31
0.000000000000000
  0
LINE
  5
6C
100
AcDbEntity
  8
A1
  6
CONTINUOUS
 62
7
100
AcDbLine
 10
53.39265061865795
 20
88.09419924617652
 30
0.000000000000000
 11
51.95556032594943
 21
88.09419924617652
 31
0.000000000000000
  0
ARC
  5
6D
100
AcDbEntity
  8
A1
  6
CONTINUOUS
 62
7
100
AcDbCircle
 10
53.39265071054486
 20
90.09419924617652
 30
0.000000000000000
 40
2.000000000000000
100
AcDbArc
 50
270.0000000000001
 51
360.0000000000001
  0
ARC
  5
6E
100
AcDbEntity
  8
A1
  6
CONTINUOUS
 62
7
100
AcDbCircle
 10
48.59265071054480
 20
87.60134413993856
 30
0.000000000000000
 40
7.000000000000000
100
AcDbArc
 50
122.0364199820368
 51
180.0000000000001
  0
ARC
  5
6F
100
AcDbEntity
  8
A1
  6
CONTINUOUS
 62
7
100
AcDbCircle
 10
46.59265071054480
 20
78.79419913993857
 30
0.000000000000000
 40
5.200000000000000
100
AcDbArc
 50
152.1770680000001
 51
180.0000000000001
  0
LINE
  5
70
100
AcDbEntity
  8
A1
  6
CONTINUOUS
 62
7
100
AcDbLine
 10
54.59265768175420
 20
77.32748056983169
 30
0.000000000000000
 11
42.59265714152877
 21
77.32748694410888
 31
0.000000000000000
  0
ARC
  5
71
100
AcDbEntity
  8
A1
  6
CONTINUOUS
 62
7
100
AcDbCircle
 10
51.39265071054486
 20
90.09419924617652
 30
0.000000000000000
 40
4.000000000000000
100
AcDbArc
 50
1.017777498068325e-13
 51
45.57967901447314
  0
LINE
  5
72
100
AcDbEntity
  8
A1
  6
CONTINUOUS
 62
7
100
AcDbLine
 10
42.59265714152877
 20
77.32748694410884
 30
0.000000000000000
 11
42.59265557470616
 21
74.82748759360574
 31
0.000000000000000
  0
LINE
  5
73
100
AcDbEntity
  8
A1
  6
CONTINUOUS
 62
7
100
AcDbLine
 10
43.09265530911109
 20
74.32748728024130
 30
0.000000000000000
 11
54.09265584933684
 21
74.32748143715385
 31
0.000000000000000
  0
LINE
  5
74
100
AcDbEntity
  8
A1
  6
CONTINUOUS
 62
7
100
AcDbLine
 10
54.59265611493149
 20
74.82748112378907
 30
0.000000000000000
 11
54.59265768175413
 21
77.32748056983164
 31
0.000000000000000
  0
LINE
  5
75
100
AcDbEntity
  8
A1
  6
CONTINUOUS
 62
7
100
AcDbLine
 10
41.59265071054471
 20
87.60134413993853
 30
0.000000000000000
 11
41.59265071054472
 21
82.96718313993847
 31
0.000000000000000
  0
LINE
  5
76
100
AcDbEntity
  8
A1
  6
CONTINUOUS
 62
7
100
AcDbLine
 10
44.59265071054475
 20
63.09419913993857
 30
0.000000000000000
 11
44.59265071054477
 21
38.79419913993856
 31
0.000000000000000
  0
LINE
  5
77
100
AcDbEntity
  8
A1
  6
CONTINUOUS
 62
7
100
AcDbLine
 10
44.59265071054483
 20
38.79419913993856
 30
0.000000000000000
 11
41.39265071054490
 21
38.79419913993856
 31
0.000000000000000
  0
ARC
  5
78
100
AcDbEntity
  8
A1
  6
CONTINUOUS
 62
7
100
AcDbCircle
 10
53.39266614358638
 20
92.92748132012551
 30
0.000000000000000
 40
0.8000000000000000
100
AcDbArc
 50
282.3390600000001
 51
462.3390600000001
  0
ARC
  5
79
100
AcDbEntity
  8
A1
  6
CONTINUOUS
 62
7
100
AcDbCircle
 10
53.39266167506349
 20
85.52748207850576
 30
0.000000000000000
 40
0.8000000000000000
100
AcDbArc
 50
282.3390550000000
 51
462.3390550000001
  0
ARC
  5
7A
100
AcDbEntity
  8
A1
  6
CONTINUOUS
 62
7
100
AcDbCircle
 10
53.39265946541605
 20
81.82748195830206
 30
0.000000000000000
 40
0.8000000000000000
100
AcDbArc
 50
282.3390550000000
 51
462.3390550000001
  0
ARC
  5
7B
100
AcDbEntity
  8
A1
  6
CONTINUOUS
 62
7
100
AcDbCircle
 10
43.79265876512034
 20
79.72748652937335
 30
0.000000000000000
 40
0.8000000000000000
100
AcDbArc
 50
102.3390550000001
 51
282.3390550000000
  0
ARC
  5
7C
100
AcDbEntity
  8
A1
  6
CONTINUOUS
 62
7
100
AcDbCircle
 10
43.79266097476778
 20
83.42748664957705
 30
0.000000000000000
 40
0.8000000000000000
100
AcDbArc
 50
102.3390550000001
 51
282.3390550000000
  0
ARC
  5
7D
100
AcDbEntity
  8
A1
  6
CONTINUOUS
 62
7
100
AcDbCircle
 10
43.79266318441518
 20
87.12748676978075
 30
0.000000000000000
 40
0.8000000000000000
100
AcDbArc
 50
102.3390550000001
 51
282.3390550000000
  0
ARC
  5
7E
100
AcDbEntity
  8
A1
  6
CONTINUOUS
 62
7
100
AcDbCircle
 10
43.79266544329057
 20
90.82748589119680
 30
0.000000000000000
 40
0.8000000000000000
100
AcDbArc
 50
102.3390600000001
 51
282.3390600000001
  0
LINE
  5
7F
100
AcDbEntity
  8
A1
  6
CONTINUOUS
 62
7
100
AcDbLine
 10
54.99265071054474
 20
37.34596824617650
 30
0.000000000000000
 11
53.43267749506256
 21
36.09419924617659
 31
0.000000000000000
  0
ARC
  5
80
100
AcDbEntity
  8
A1
  6
CONTINUOUS
 62
7
100
AcDbCircle
 10
67.23972746207296
 20
47.64204084897881
 30
0.000000000000000
 40
16.00000000000000
100
AcDbArc
 50
128.8984715747551
 51
220.0536432263970
  0
ARC
  5
81
100
AcDbEntity
  8
A1
  6
CONTINUOUS
 62
7
100
AcDbCircle
 10
67.23972746207296
 20
47.64204084897881
 30
0.000000000000000
 40
18.00000000000000
100
AcDbArc
 50
136.2283011202675
 51
219.9072541068820
  0
LINE
  5
82
100
AcDbEntity
  8
A1
  6
CONTINUOUS
 62
7
100
AcDbLine
 10
57.19265071054475
 20
60.09419924617650
 30
0.000000000000000
 11
57.19265071054472
 21
89.65873569900791
 31
0.000000000000000
  0
ARC
  5
83
100
AcDbEntity
  8
A1
  6
CONTINUOUS
 62
7
100
AcDbCircle
 10
51.19265402169194
 20
89.65873716453123
 30
0.000000000000000
 40
6.000000000000000
100
AcDbArc
 50
0.000000000000000
 51
61.06704525709610
  0
ARC
  5
84
100
AcDbEntity
  8
A1
  6
CONTINUOUS
 62
7
100
AcDbCircle
 10
43.09266875275167
 20
97.82748741502670
 30
0.000000000000000
 40
0.5000000000000000
100
AcDbArc
 50
90.00000000000000
 51
180.0000000000000
  0
ARC
  5
85
100
AcDbEntity
  8
A1
  6
CONTINUOUS
 62
7
100
AcDbCircle
 10
54.09266846065423
 20
97.82748151492316
 30
0.000000000000000
 40
0.5000000000000000
100
AcDbArc
 50
0.000000000000000
 51
90.00000000000000
  0
ARC
  5
86
100
AcDbEntity
  8
A1
  6
CONTINUOUS
 62
7
100
AcDbCircle
 10
54.09265611493169
 20
74.82748143715369
 30
0.000000000000000
 40
0.5000000000000000
100
AcDbArc
 50
270.0000000000000
 51
360.0000000000000
  0
ARC
  5
87
100
AcDbEntity
  8
A1
  6
CONTINUOUS
 62
7
100
AcDbCircle
 10
43.09265557470599
 20
74.82748728024117
 30
0.000000000000000
 40
0.5000000000000000
100
AcDbArc
 50
180.0000000000000
 51
270.0000000000000
  0
CIRCLE
  5
88
100
AcDbEntity
  8
A1
  6
CONTINUOUS
 62
7
100
AcDbCircle
 10
48.59265071054475
 20
66.09419913993858
 30
0.000000000000000
 40
1.900000000000000
  0
LINE
  5
89
100
AcDbEntity
  8
A1
  6
CONTINUOUS
 62
7
100
AcDbLine
 10
57.19265071054469
 20
60.09419913993857
 30
0.000000000000000
 11
57.19265071054466
 21
89.65873559276997
 31
0.000000000000000
  0
LINE
  5
8A
100
AcDbEntity
  8
A4
  6
CENTER
 62
1
100
AcDbLine
 10
47.10199171054492
 20
44.06419913993853
 30
0.000000000000000
 11
38.03870771054496
 21
44.06419913993852
 31
0.000000000000000
  0
LINE
  5
8B
100
AcDbEntity
  8
A4
  6
CENTER
 62
1
100
AcDbLine
 10
47.12222071054487
 20
58.06419913993853
 30
0.000000000000000
 11
38.11962971054482
 21
58.06419913993852
 31
0.000000000000000
  0
LINE
  5
8C
100
AcDbEntity
  8
A4
  6
CENTER
 62
1
100
AcDbLine
 10
38.30170471054485
 20
72.06419913993849
 30
0.000000000000000
 11
46.98060671054485
 21
72.06419913993851
 31
0.000000000000000
  0
LINE
  5
8D
100
AcDbEntity
  8
A1
  6
CONTINUOUS
 62
7
100
AcDbLine
 10
42.59265714152880
 20
77.32748694410886
 30
0.000000000000000
 11
42.59265557470619
 21
74.82748759360575
 31
0.000000000000000
  0
LINE
  5
8E
100
AcDbEntity
  8
A1
  6
CONTINUOUS
 62
7
100
AcDbLine
 10
43.09265530911112
 20
74.32748728024130
 30
0.000000000000000
 11
54.09265584933687
 21
74.32748143715385
 31
0.000000000000000
  0
ARC
  5
8F
100
AcDbEntity
  8
A1
  6
CONTINUOUS
 62
7
100
AcDbCircle
 10
43.09265557470601
 20
74.82748728024117
 30
0.000000000000000
 40
0.5000000000000000
100
AcDbArc
 50
180.0000000000000
 51
270.0000000000000
  0
LINE
  5
90
100
AcDbEntity
  8
A1
  6
CONTINUOUS
 62
7
100
AcDbLine
 10
51.55282290249473
 20
101.0584860083720
 30
0.000000000000000
 11
45.50628236438388
 21
101.0584860083720
 31
0.000000000000000
  0
CIRCLE
  5
91
100
AcDbEntity
  8
A1
  6
CONTINUOUS
 62
7
100
AcDbCircle
 10
46.61436700849775
 20
106.2901539745853
 30
0.000000000000000
 40
1.900000000000063
  0
LINE
  5
92
100
AcDbEntity
  8
A4
  6
CENTER
 62
1
100
AcDbLine
 10
50.01436700849781
 20
106.2901539745853
 30
0.000000000000000
 11
43.21436700849769
 21
106.2901539745853
 31
0.000000000000000
  0
LINE
  5
93
100
AcDbEntity
  8
A4
  6
CENTER
 62
1
100
AcDbLine
 10
46.61436700849775
 20
109.6901539745853
 30
0.000000000000000
 11
46.61436700849775
 21
102.8901539745852
 31
0.000000000000000
  0
LINE
  5
94
100
AcDbEntity
  8
A1
  6
CONTINUOUS
 62
7
100
AcDbLine
 10
44.59265071054480
 20
60.09419913994699
 30
0.000000000000000
 11
41.39265071054487
 21
60.09419913994698
 31
0.000000000000000
  0
LINE
  5
95
100
AcDbEntity
  8
A1
  6
CONTINUOUS
 62
7
100
AcDbLine
 10
175.9526540553875
 20
68.09419913993874
 30
0.000000000000000
 11
175.5526540553875
 21
68.09419913993874
 31
0.000000000000000
  0
LINE
  5
96
100
AcDbEntity
  8
A1
  6
CONTINUOUS
 62
7
100
AcDbLine
 10
175.9526540553875
 20
64.09419913993872
 30
0.000000000000000
 11
175.5526540553875
 21
64.09419913993872
 31
0.000000000000000
  0
LINE
  5
97
100
AcDbEntity
  8
A1
  6
CONTINUOUS
 62
7
100
AcDbLine
 10
178.4026540553873
 20
102.0585711399387
 30
0.000000000000000
 11
178.4026540553873
 21
111.5941991399388
 31
0.000000000000000
  0
LINE
  5
98
100
AcDbEntity
  8
A1
  6
CONTINUOUS
 62
7
100
AcDbLine
 10
181.9526540553872
 20
101.0585711399387
 30
0.000000000000000
 11
179.4026540553873
 21
101.0585711399387
 31
0.000000000000000
  0
LINE
  5
99
100
AcDbEntity
  8
A1
  6
CONTINUOUS
 62
7
100
AcDbLine
 10
178.5526540553875
 20
61.17982713993870
 30
0.000000000000000
 11
175.9526540553875
 21
61.17982713993870
 31
0.000000000000000
  0
LINE
  5
9A
100
AcDbEntity
  8
A1
  6
CONTINUOUS
 62
7
100
AcDbLine
 10
178.5526540553873
 20
72.29973568366826
 30
0.000000000000000
 11
178.5526540553873
 21
61.17982713993870
 31
0.000000000000000
  0
LINE
  5
9B
100
AcDbEntity
  8
A1
  6
CONTINUOUS
 62
7
100
AcDbLine
 10
175.9526540553873
 20
61.17982713993869
 30
0.000000000000000
 11
175.9526540553873
 21
72.28901310995799
 31
0.000000000000000
  0
LINE
  5
9C
100
AcDbEntity
  8
A1
  6
CONTINUOUS
 62
7
100
AcDbLine
 10
175.8026540553873
 20
111.5941991399388
 30
0.000000000000000
 11
175.8026540553873
 21
102.0585711399387
 31
0.000000000000000
  0
LINE
  5
9D
100
AcDbEntity
  8
A1
  6
CONTINUOUS
 62
7
100
AcDbLine
 10
155.5526540553874
 20
45.06039013993863
 30
0.000000000000000
 11
155.5526540553873
 21
60.09419913993867
 31
0.000000000000000
  0
LINE
  5
9E
100
AcDbEntity
  8
A1
  6
CONTINUOUS
 62
7
100
AcDbLine
 10
173.5526540553874
 20
45.06039013993867
 30
0.000000000000000
 11
173.5526540553873
 21
60.09419913993870
 31
0.000000000000000
  0
ARC
  5
9F
100
AcDbEntity
  8
A1
  6
CONTINUOUS
 62
7
100
AcDbCircle
 10
164.5526540553874
 20
46.34596813993865
 30
0.000000000000000
 40
9.000000000000000
100
AcDbArc
 50
180.0000000000001
 51
360.0000000000001
  0
ARC
  5
A0
100
AcDbEntity
  8
A1
  6
CONTINUOUS
 62
7
100
AcDbCircle
 10
164.5526540553874
 20
45.06039013993866
 30
0.000000000000000
 40
9.000000000000000
100
AcDbArc
 50
180.0000000000001
 51
360.0000000000001
  0
LINE
  5
A1
100
AcDbEntity
  8
A1
  6
CONTINUOUS
 62
7
100
AcDbLine
 10
153.5526540553873
 20
96.06039013993865
 30
0.000000000000000
 11
153.5526540553873
 21
60.09419913993868
 31
0.000000000000000
  0
LINE
  5
A2
100
AcDbEntity
  8
A1
  6
CONTINUOUS
 62
7
100
AcDbLine
 10
175.5526540553874
 20
96.06039013993869
 30
0.000000000000000
 11
153.5526540553874
 21
96.06039013993866
 31
0.000000000000000
  0
LINE
  5
A3
100
AcDbEntity
  8
A1
  6
CONTINUOUS
 62
7
100
AcDbLine
 10
175.5526540553873
 20
60.09419913993872
 30
0.000000000000000
 11
175.5526540553873
 21
96.06039013993866
 31
0.000000000000000
  0
LINE
  5
A4
100
AcDbEntity
  8
A4
  6
CENTER
 62
1
100
AcDbLine
 10
180.5715530553874
 20
66.09419913993875
 30
0.000000000000000
 11
148.6771420553874
 21
66.09419913993871
 31
0.000000000000000
  0
LINE
  5
A5
100
AcDbEntity
  8
A4
  6
CENTER
 62
1
100
AcDbLine
 10
164.5526540553873
 20
114.3323122699262
 30
0.000000000000000
 11
164.5526540553874
 21
30.37962713993871
 31
0.000000000000000
  0
CIRCLE
  5
A6
100
AcDbEntity
  8
A3
  6
DASHED
 62
2
100
AcDbCircle
 10
164.5526540553874
 20
44.06419913993867
 30
0.000000000000000
 40
2.600000000000000
  0
CIRCLE
  5
A7
100
AcDbEntity
  8
A3
  6
DASHED
 62
2
100
AcDbCircle
 10
164.5526540553874
 20
58.06419913993867
 30
0.000000000000000
 40
2.600000000000000
  0
CIRCLE
  5
A8
100
AcDbEntity
  8
A3
  6
DASHED
 62
2
100
AcDbCircle
 10
164.5526540553874
 20
72.06419913993869
 30
0.000000000000000
 40
2.600000000000000
  0
LINE
  5
A9
100
AcDbEntity
  8
A4
  6
CENTER
 62
1
100
AcDbLine
 10
169.1526540553874
 20
72.06419913993869
 30
0.000000000000000
 11
159.9526540553875
 21
72.06419913993869
 31
0.000000000000000
  0
LINE
  5
AA
100
AcDbEntity
  8
A4
  6
CENTER
 62
1
100
AcDbLine
 10
169.1526540553874
 20
58.06419913993867
 30
0.000000000000000
 11
159.9526540553875
 21
58.06419913993867
 31
0.000000000000000
  0
LINE
  5
AB
100
AcDbEntity
  8
A4
  6
CENTER
 62
1
100
AcDbLine
 10
169.1526540553874
 20
44.06419913993867
 30
0.000000000000000
 11
159.9526540553875
 21
44.06419913993867
 31
0.000000000000000
  0
ARC
  5
AC
100
AcDbEntity
  8
A1
  6
CONTINUOUS
 62
7
100
AcDbCircle
 10
179.4026540553873
 20
102.0585711399387
 30
0.000000000000000
 40
1.000000000000000
100
AcDbArc
 50
180.0000000000000
 51
270.0000000000000
  0
ARC
  5
AD
100
AcDbEntity
  8
A1
  6
CONTINUOUS
 62
7
100
AcDbCircle
 10
179.4026540553873
 20
102.0585711399387
 30
0.000000000000000
 40
3.600000000000000
100
AcDbArc
 50
180.0000000000000
 51
270.0000000000000
  0
LINE
  5
AE
100
AcDbEntity
  8
A1
  6
CONTINUOUS
 62
7
100
AcDbLine
 10
147.1526540553875
 20
101.0585711399386
 30
0.000000000000000
 11
149.7026540553873
 21
101.0585711399386
 31
0.000000000000000
  0
LINE
  5
AF
100
AcDbEntity
  8
A1
  6
CONTINUOUS
 62
7
100
AcDbLine
 10
149.7026540553898
 20
98.45857113993863
 30
0.000000000000000
 11
146.1526540553875
 21
98.45857113993618
 31
0.000000000000000
  0
ARC
  5
B0
100
AcDbEntity
  8
A1
  6
CONTINUOUS
 62
7
100
AcDbCircle
 10
147.1526540553875
 20
97.45857113993691
 30
0.000000000000000
 40
3.600000000000000
100
AcDbArc
 50
90.00000000000014
 51
180.0000000000001
  0
LINE
  5
B1
100
AcDbEntity
  8
A1
  6
CONTINUOUS
 62
7
100
AcDbLine
 10
143.5526540553875
 20
95.32752113993884
 30
0.000000000000000
 11
143.5526540553875
 21
97.45857113993704
 31
0.000000000000000
  0
LINE
  5
B2
100
AcDbEntity
  8
A1
  6
CONTINUOUS
 62
7
100
AcDbLine
 10
146.1526540553875
 20
98.45857113993637
 30
0.000000000000000
 11
146.1526540553875
 21
95.32752113993882
 31
0.000000000000000
  0
LINE
  5
B3
100
AcDbEntity
  8
A1
  6
CONTINUOUS
 62
7
100
AcDbLine
 10
148.7526540553875
 20
98.32388413993860
 30
0.000000000000000
 11
146.1526540553875
 21
98.32388413993860
 31
0.000000000000000
  0
LINE
  5
B4
100
AcDbEntity
  8
A1
  6
CONTINUOUS
 62
7
100
AcDbLine
 10
146.1526540553875
 20
98.32388413993867
 30
0.000000000000000
 11
146.1526540553875
 21
95.32752113993870
 31
0.000000000000000
  0
ARC
  5
B5
100
AcDbEntity
  8
A1
  6
CONTINUOUS
 62
7
100
AcDbCircle
 10
150.9526540553875
 20
94.52752113993870
 30
0.000000000000000
 40
0.8000000000000000
100
AcDbArc
 50
270.0000000000001
 51
450.0000000000001
  0
LINE
  5
B6
100
AcDbEntity
  8
A1
  6
CONTINUOUS
 62
7
100
AcDbLine
 10
150.9526540553875
 20
93.72752113993862
 30
0.000000000000000
 11
141.3526540553874
 21
93.72752113993860
 31
0.000000000000000
  0
ARC
  5
B7
100
AcDbEntity
  8
A1
  6
CONTINUOUS
 62
7
100
AcDbCircle
 10
141.3526540553875
 20
94.52752113993864
 30
0.000000000000000
 40
0.8000000000000000
100
AcDbArc
 50
90.00000000000010
 51
270.0000000000001
  0
LINE
  5
B8
100
AcDbEntity
  8
A1
  6
CONTINUOUS
 62
7
100
AcDbLine
 10
141.2211340553874
 20
93.73840613993860
 30
0.000000000000000
 11
143.5526540553875
 21
93.34981947327191
 31
0.000000000000000
  0
LINE
  5
B9
100
AcDbEntity
  8
A1
  6
CONTINUOUS
 62
7
100
AcDbLine
 10
150.7816960553873
 20
93.70904113993859
 30
0.000000000000000
 11
141.1816960553874
 21
91.60904113993860
 31
0.000000000000000
  0
ARC
  5
BA
100
AcDbEntity
  8
A1
  6
CONTINUOUS
 62
7
100
AcDbCircle
 10
150.9526540553875
 20
92.92752113993868
 30
0.000000000000000
 40
0.8000000000000000
100
AcDbArc
 50
282.3390870000001
 51
462.3390870000001
  0
LINE
  5
BB
100
AcDbEntity
  8
A1
  6
CONTINUOUS
 62
7
100
AcDbLine
 10
151.1236110553874
 20
92.14600113993868
 30
0.000000000000000
 11
141.5236110553874
 21
90.04600113993864
 31
0.000000000000000
  0
ARC
  5
BC
100
AcDbEntity
  8
A1
  6
CONTINUOUS
 62
7
100
AcDbCircle
 10
141.3526540553874
 20
90.82752113993865
 30
0.000000000000000
 40
0.8000000000000000
100
AcDbArc
 50
102.3390870000001
 51
282.3390870000001
  0
LINE
  5
BD
100
AcDbEntity
  8
A1
  6
CONTINUOUS
 62
7
100
AcDbLine
 10
141.2211340553875
 20
90.03840613993867
 30
0.000000000000000
 11
143.5526540553876
 21
89.64981947327198
 31
0.000000000000000
  0
LINE
  5
BE
100
AcDbEntity
  8
A1
  6
CONTINUOUS
 62
7
100
AcDbLine
 10
151.0841730553873
 20
90.01663613993878
 30
0.000000000000000
 11
148.7526540553874
 21
90.40522282662286
 31
0.000000000000000
  0
LINE
  5
BF
100
AcDbEntity
  8
A1
  6
CONTINUOUS
 62
7
100
AcDbLine
 10
150.7816960553874
 20
90.00904113993866
 30
0.000000000000000
 11
141.1816960553874
 21
87.90904113993865
 31
0.000000000000000
  0
ARC
  5
C0
100
AcDbEntity
  8
A1
  6
CONTINUOUS
 62
7
100
AcDbCircle
 10
150.9526540553875
 20
89.22752113993869
 30
0.000000000000000
 40
0.8000000000000000
100
AcDbArc
 50
282.3390870000001
 51
462.3390870000001
  0
LINE
  5
C1
100
AcDbEntity
  8
A1
  6
CONTINUOUS
 62
7
100
AcDbLine
 10
151.1236110553874
 20
88.44600113993863
 30
0.000000000000000
 11
141.5236110553874
 21
86.34600113993861
 31
0.000000000000000
  0
ARC
  5
C2
100
AcDbEntity
  8
A1
  6
CONTINUOUS
 62
7
100
AcDbCircle
 10
141.3526540553874
 20
87.12752113993866
 30
0.000000000000000
 40
0.8000000000000000
100
AcDbArc
 50
102.3390870000001
 51
282.3390870000001
  0
LINE
  5
C3
100
AcDbEntity
  8
A1
  6
CONTINUOUS
 62
7
100
AcDbLine
 10
141.2211340553874
 20
86.33840613993870
 30
0.000000000000000
 11
143.5526540553875
 21
85.94981947327200
 31
0.000000000000000
  0
LINE
  5
C4
100
AcDbEntity
  8
A1
  6
CONTINUOUS
 62
7
100
AcDbLine
 10
151.0841730553874
 20
86.31663613993862
 30
0.000000000000000
 11
148.7526540553875
 21
86.70522282662270
 31
0.000000000000000
  0
LINE
  5
C5
100
AcDbEntity
  8
A1
  6
CONTINUOUS
 62
7
100
AcDbLine
 10
150.7816960553875
 20
86.30904113993870
 30
0.000000000000000
 11
141.1816960553876
 21
84.20904113993866
 31
0.000000000000000
  0
ARC
  5
C6
100
AcDbEntity
  8
A1
  6
CONTINUOUS
 62
7
100
AcDbCircle
 10
150.9526540553875
 20
85.52752113993870
 30
0.000000000000000
 40
0.8000000000000000
100
AcDbArc
 50
282.3390870000001
 51
462.3390870000001
  0
LINE
  5
C7
100
AcDbEntity
  8
A1
  6
CONTINUOUS
 62
7
100
AcDbLine
 10
151.1236110553875
 20
84.74600113993876
 30
0.000000000000000
 11
141.5236110553876
 21
82.64600113993872
 31
0.000000000000000
  0
ARC
  5
C8
100
AcDbEntity
  8
A1
  6
CONTINUOUS
 62
7
100
AcDbCircle
 10
141.3526530553875
 20
83.42752113993862
 30
0.000000000000000
 40
0.8000000000000000
100
AcDbArc
 50
102.3390870000001
 51
282.3390870000001
  0
LINE
  5
C9
100
AcDbEntity
  8
A1
  6
CONTINUOUS
 62
7
100
AcDbLine
 10
141.2211340553874
 20
82.63840613993872
 30
0.000000000000000
 11
143.5526540553875
 21
82.24981947327200
 31
0.000000000000000
  0
LINE
  5
CA
100
AcDbEntity
  8
A1
  6
CONTINUOUS
 62
7
100
AcDbLine
 10
151.0841730553873
 20
82.61663613993875
 30
0.000000000000000
 11
148.7526540553874
 21
83.00522282662280
 31
0.000000000000000
  0
LINE
  5
CB
100
AcDbEntity
  8
A1
  6
CONTINUOUS
 62
7
100
AcDbLine
 10
150.7816960553874
 20
82.60904113993865
 30
0.000000000000000
 11
141.1816960553874
 21
80.50904113993863
 31
0.000000000000000
  0
ARC
  5
CC
100
AcDbEntity
  8
A1
  6
CONTINUOUS
 62
7
100
AcDbCircle
 10
150.9526540553875
 20
81.82752113993865
 30
0.000000000000000
 40
0.8000000000000000
100
AcDbArc
 50
282.3390870000001
 51
462.3390870000001
  0
LINE
  5
CD
100
AcDbEntity
  8
A1
  6
CONTINUOUS
 62
7
100
AcDbLine
 10
151.1236110553874
 20
81.04600113993862
 30
0.000000000000000
 11
141.5236110553874
 21
78.94600113993860
 31
0.000000000000000
  0
ARC
  5
CE
100
AcDbEntity
  8
A1
  6
CONTINUOUS
 62
7
100
AcDbCircle
 10
141.3526540553874
 20
79.72752113993863
 30
0.000000000000000
 40
0.8000000000000000
100
AcDbArc
 50
102.3390870000001
 51
282.3390870000001
  0
ARC
  5
CF
100
AcDbEntity
  8
A1
  6
CONTINUOUS
 62
7
100
AcDbCircle
 10
141.3526540553874
 20
78.12752113993866
 30
0.000000000000000
 40
0.8000000000000000
100
AcDbArc
 50
90.00000000000010
 51
270.0000000000001
  0
LINE
  5
D0
100
AcDbEntity
  8
A1
  6
CONTINUOUS
 62
7
100
AcDbLine
 10
143.5526540553875
 20
77.32752113993863
 30
0.000000000000000
 11
141.3526540553875
 21
77.32752113993863
 31
0.000000000000000
  0
LINE
  5
D1
100
AcDbEntity
  8
A1
  6
CONTINUOUS
 62
7
100
AcDbLine
 10
150.9526540553875
 20
78.92752113993861
 30
0.000000000000000
 11
141.3526540553874
 21
78.92752113993859
 31
0.000000000000000
  0
LINE
  5
D2
100
AcDbEntity
  8
A1
  6
CONTINUOUS
 62
7
100
AcDbLine
 10
146.1526540553874
 20
74.33115813993878
 30
0.000000000000000
 11
143.5526540553874
 21
74.33115813993876
 31
0.000000000000000
  0
LINE
  5
D3
100
AcDbEntity
  8
A1
  6
CONTINUOUS
 62
7
100
AcDbLine
 10
150.9526540553875
 20
77.32752113993865
 30
0.000000000000000
 11
143.5526540553875
 21
77.32752113993865
 31
0.000000000000000
  0
ARC
  5
D4
100
AcDbEntity
  8
A1
  6
CONTINUOUS
 62
7
100
AcDbCircle
 10
150.9526540553875
 20
78.12752113993866
 30
0.000000000000000
 40
0.8000000000000000
100
AcDbArc
 50
270.0000000000001
 51
450.0000000000001
  0
LINE
  5
D5
100
AcDbEntity
  8
A1
  6
CONTINUOUS
 62
7
100
AcDbLine
 10
151.0841730553875
 20
78.91663613993867
 30
0.000000000000000
 11
148.7526540553874
 21
79.30522282662281
 31
0.000000000000000
  0
ARC
  5
D6
100
AcDbEntity
  8
A1
  6
CONTINUOUS
 62
7
100
AcDbCircle
 10
148.7526540553876
 20
76.97020213993869
 30
0.000000000000000
 40
2.600000000000000
100
AcDbArc
 50
180.0000000000002
 51
227.6300095813259
  0
ARC
  5
D7
100
AcDbEntity
  8
A1
  6
CONTINUOUS
 62
7
100
AcDbCircle
 10
149.7026540553873
 20
102.0585711399390
 30
0.000000000000000
 40
1.000000000000000
100
AcDbArc
 50
270.0000000000002
 51
360.0000000000002
  0
LINE
  5
D8
100
AcDbEntity
  8
A1
  6
CONTINUOUS
 62
7
100
AcDbLine
 10
150.7026540553873
 20
102.0585711399386
 30
0.000000000000000
 11
150.7026540553873
 21
111.5941991399387
 31
0.000000000000000
  0
LINE
  5
D9
100
AcDbEntity
  8
A1
  6
CONTINUOUS
 62
7
100
AcDbLine
 10
153.3026540553873
 20
111.5941991399387
 30
0.000000000000000
 11
153.3026540553873
 21
102.0585711399387
 31
0.000000000000000
  0
ARC
  5
DA
100
AcDbEntity
  8
A1
  6
CONTINUOUS
 62
7
100
AcDbCircle
 10
149.7026540553873
 20
102.0585711399390
 30
0.000000000000000
 40
3.600000000000000
100
AcDbArc
 50
270.0000000000000
 51
360.0000000000002
  0
LINE
  5
DB
100
AcDbEntity
  8
A1
  6
CONTINUOUS
 62
7
100
AcDbLine
 10
150.5526540553874
 20
72.29973568366825
 30
0.000000000000000
 11
150.5526540553874
 21
61.17982713993868
 31
0.000000000000000
  0
LINE
  5
DC
100
AcDbEntity
  8
A1
  6
CONTINUOUS
 62
7
100
AcDbLine
 10
150.5526540553873
 20
61.17982713993867
 30
0.000000000000000
 11
153.1526540553873
 21
61.17982713993867
 31
0.000000000000000
  0
LINE
  5
DD
100
AcDbEntity
  8
A1
  6
CONTINUOUS
 62
7
100
AcDbLine
 10
153.1526540553874
 20
61.17982713993868
 30
0.000000000000000
 11
153.1526540553874
 21
72.28901310995795
 31
0.000000000000000
  0
LINE
  5
DE
100
AcDbEntity
  8
A1
  6
CONTINUOUS
 62
7
100
AcDbLine
 10
153.1526540553873
 20
68.09419913993871
 30
0.000000000000000
 11
153.5526540553873
 21
68.09419913993871
 31
0.000000000000000
  0
LINE
  5
DF
100
AcDbEntity
  8
A1
  6
CONTINUOUS
 62
7
100
AcDbLine
 10
153.1526540553873
 20
64.09419913993868
 30
0.000000000000000
 11
153.5526540553873
 21
64.09419913993868
 31
0.000000000000000
  0
LINE
  5
E0
100
AcDbEntity
  8
A3
  6
DASHED
 62
2
100
AcDbLine
 10
159.0526540553874
 20
38.79419913993858
 30
0.000000000000000
 11
170.0526540553874
 21
38.79419913993858
 31
0.000000000000000
  0
LINE
  5
E1
100
AcDbEntity
  8
A1
  6
CONTINUOUS
 62
7
100
AcDbLine
 10
153.5526540553875
 20
60.09419913993868
 30
0.000000000000000
 11
155.5526540553873
 21
60.09419913993868
 31
0.000000000000000
  0
LINE
  5
E2
100
AcDbEntity
  8
A1
  6
CONTINUOUS
 62
7
100
AcDbLine
 10
173.5526540553873
 20
60.09419913993871
 30
0.000000000000000
 11
175.5526540553875
 21
60.09419913993871
 31
0.000000000000000
  0
ARC
  5
E3
100
AcDbEntity
  8
A1
  6
CONTINUOUS
 62
7
100
AcDbCircle
 10
175.0426540553870
 20
106.2901539745853
 30
0.000000000000000
 40
3.860000000000298
100
AcDbArc
 50
330.5128743270605
 51
389.4871256729396
  0
LINE
  5
E4
100
AcDbEntity
  8
A1
  6
CONTINUOUS
 62
7
100
AcDbLine
 10
153.3026540553873
 20
104.2901539745853
 30
0.000000000000000
 11
175.8026540553873
 21
104.2901539745853
 31
0.000000000000000
  0
LINE
  5
E5
100
AcDbEntity
  8
A1
  6
CONTINUOUS
 62
7
100
AcDbLine
 10
153.3026540553874
 20
108.2901539745853
 30
0.000000000000000
 11
175.8026540553873
 21
108.2901539745853
 31
0.000000000000000
  0
ARC
  5
E6
100
AcDbEntity
  8
A1
  6
CONTINUOUS
 62
7
100
AcDbCircle
 10
154.0626540553876
 20
106.2901539745853
 30
0.000000000000000
 40
3.860000000000298
100
AcDbArc
 50
150.5128743270606
 51
209.4871256729397
  0
ARC
  5
E7
100
AcDbEntity
  8
A1
  6
CONTINUOUS
 62
7
100
AcDbCircle
 10
176.3240826268159
 20
66.09419913993872
 30
0.000000000000000
 40
2.928571428571473
100
AcDbArc
 50
319.5502811376647
 51
400.4497188623354
  0
ARC
  5
E8
100
AcDbEntity
  8
A1
  6
CONTINUOUS
 62
7
100
AcDbCircle
 10
152.7812254839589
 20
66.09419913993867
 30
0.000000000000000
 40
2.928571428571473
100
AcDbArc
 50
139.5502811376646
 51
220.4497188623355
  0
LINE
  5
E9
100
AcDbEntity
  8
A1
  6
CONTINUOUS
 62
7
100
AcDbLine
 10
158.2268858344109
 20
60.09419913993868
 30
0.000000000000000
 11
170.8784222763638
 21
60.09419913993868
 31
0.000000000000000
  0
ARC
  5
EA
100
AcDbEntity
  8
A3
  6
DASHED
 62
2
100
AcDbCircle
 10
170.0526540553874
 20
41.79419913993858
 30
0.000000000000000
 40
3.000000000000000
100
AcDbArc
 50
270.0000000000000
 51
293.3764410061307
  0
ARC
  5
EB
100
AcDbEntity
  8
A1
  6
CONTINUOUS
 62
7
100
AcDbCircle
 10
170.0526540553874
 20
41.79419913993858
 30
0.000000000000000
 40
3.000000000000000
100
AcDbArc
 50
293.3764410061307
 51
360.0000000000000
  0
LINE
  5
EC
100
AcDbEntity
  8
A1
  6
CONTINUOUS
 62
7
100
AcDbLine
 10
173.0526540553874
 20
41.79419913993858
 30
0.000000000000000
 11
173.0526540553874
 21
42.10235024838876
 31
0.000000000000000
  0
LINE
  5
ED
100
AcDbEntity
  8
A3
  6
DASHED
 62
2
100
AcDbLine
 10
173.0526540553874
 20
42.10235024838876
 30
0.000000000000000
 11
173.0526540553873
 21
60.09419913993871
 31
0.000000000000000
  0
ARC
  5
EE
100
AcDbEntity
  8
A1
  6
CONTINUOUS
 62
7
100
AcDbCircle
 10
159.0526540553874
 20
41.79419913993858
 30
0.000000000000000
 40
3.000000000000000
100
AcDbArc
 50
180.0000000000000
 51
246.6235589938703
  0
ARC
  5
EF
100
AcDbEntity
  8
A3
  6
DASHED
 62
2
100
AcDbCircle
 10
159.0526540553874
 20
41.79419913993858
 30
0.000000000000000
 40
3.000000000000000
100
AcDbArc
 50
246.6235589938703
 51
270.0000000000000
  0
LINE
  5
F0
100
AcDbEntity
  8
A1
  6
CONTINUOUS
 62
7
100
AcDbLine
 10
156.0526540553874
 20
41.79419913993858
 30
0.000000000000000
 11
156.0526540553874
 21
42.10235024838893
 31
0.000000000000000
  0
LINE
  5
F1
100
AcDbEntity
  8
A3
  6
DASHED
 62
2
100
AcDbLine
 10
156.0526540553874
 20
42.10235024838892
 30
0.000000000000000
 11
156.0526540553873
 21
60.09419913993867
 31
0.000000000000000
  0
LINE
  5
F2
100
AcDbEntity
  8
A3
  6
DASHED
 62
2
100
AcDbLine
 10
173.5526540553873
 20
60.09419913993871
 30
0.000000000000000
 11
173.0526540553873
 21
60.09419913993871
 31
0.000000000000000
  0
LINE
  5
F3
100
AcDbEntity
  8
A3
  6
DASHED
 62
2
100
AcDbLine
 10
155.5526540553873
 20
60.09419913993868
 30
0.000000000000000
 11
156.0526540553873
 21
60.09419913993868
 31
0.000000000000000
  0
LINE
  5
F4
100
AcDbEntity
  8
A4
  6
CENTER
 62
1
100
AcDbLine
 10
148.7437752250785
 20
106.2901539745853
 30
0.000000000000000
 11
180.4684454388978
 21
106.2901539745853
 31
0.000000000000000
  0
LINE
  5
F5
100
AcDbEntity
  8
A1
  6
CONTINUOUS
 62
7
100
AcDbLine
 10
147.0004737103827
 20
75.04930025837929
 30
0.000000000000000
 11
150.5526540553873
 21
72.29973568366819
 31
0.000000000000000
  0
LINE
  5
F6
100
AcDbEntity
  8
A1
  6
CONTINUOUS
 62
7
100
AcDbLine
 10
152.1441203706732
 20
74.34503717774274
 30
0.000000000000000
 11
148.7526540553874
 21
76.97020313993859
 31
0.000000000000000
  0
LINE
  5
F7
100
AcDbEntity
  8
A1
  6
CONTINUOUS
 62
7
100
AcDbLine
 10
153.3026540553873
 20
111.5941991399387
 30
0.000000000000000
 11
150.7026540553873
 21
111.5941991399387
 31
0.000000000000000
  0
LINE
  5
F8
100
AcDbEntity
  8
A1
  6
CONTINUOUS
 62
7
100
AcDbLine
 10
178.4026540553873
 20
111.5941991399388
 30
0.000000000000000
 11
175.8026540553873
 21
111.5941991399388
 31
0.000000000000000
  0
ARC
  5
F9
100
AcDbEntity
  8
A1
  6
CONTINUOUS
 62
7
100
AcDbCircle
 10
150.5526540553874
 20
72.28901310995795
 30
0.000000000000000
 40
2.600000000000000
100
AcDbArc
 50
0.000000000000000
 51
52.25832199171238
  0
LINE
  5
FA
100
AcDbEntity
  8
A1
  6
CONTINUOUS
 62
7
100
AcDbLine
 10
148.7526540553874
 20
95.32752113993863
 30
0.000000000000000
 11
148.7526540553874
 21
98.32388413993863
 31
0.000000000000000
  0
LINE
  5
FB
100
AcDbEntity
  8
A1
  6
CONTINUOUS
 62
7
100
AcDbLine
 10
143.5526540553875
 20
92.12768820243863
 30
0.000000000000000
 11
143.5526540553875
 21
93.72752113993860
 31
0.000000000000000
  0
LINE
  5
FC
100
AcDbEntity
  8
A1
  6
CONTINUOUS
 62
7
100
AcDbLine
 10
146.1526540553876
 20
93.72752113993860
 30
0.000000000000000
 11
146.1526540553876
 21
92.69643820243863
 31
0.000000000000000
  0
LINE
  5
FD
100
AcDbEntity
  8
A1
  6
CONTINUOUS
 62
7
100
AcDbLine
 10
148.7526540553874
 20
93.26518820243862
 30
0.000000000000000
 11
148.7526540553874
 21
93.72752113993863
 31
0.000000000000000
  0
LINE
  5
FE
100
AcDbEntity
  8
A1
  6
CONTINUOUS
 62
7
100
AcDbLine
 10
146.1526540553876
 20
91.05860429618869
 30
0.000000000000000
 11
146.1526540553876
 21
88.99643820243867
 31
0.000000000000000
  0
LINE
  5
FF
100
AcDbEntity
  8
A1
  6
CONTINUOUS
 62
7
100
AcDbLine
 10
148.7526540553874
 20
89.56518820243863
 30
0.000000000000000
 11
148.7526540553874
 21
91.62735429618866
 31
0.000000000000000
  0
LINE
  5
100
100
AcDbEntity
  8
A1
  6
CONTINUOUS
 62
7
100
AcDbLine
 10
143.5526540553875
 20
88.42768820243865
 30
0.000000000000000
 11
143.5526540553875
 21
90.48985429618867
 31
0.000000000000000
  0
LINE
  5
101
100
AcDbEntity
  8
A1
  6
CONTINUOUS
 62
7
100
AcDbLine
 10
143.5526540553875
 20
84.72768820243866
 30
0.000000000000000
 11
143.5526540553875
 21
86.78985429618865
 31
0.000000000000000
  0
LINE
  5
102
100
AcDbEntity
  8
A1
  6
CONTINUOUS
 62
7
100
AcDbLine
 10
146.1526540553876
 20
87.35860429618867
 30
0.000000000000000
 11
146.1526540553876
 21
85.29643820243865
 31
0.000000000000000
  0
LINE
  5
103
100
AcDbEntity
  8
A1
  6
CONTINUOUS
 62
7
100
AcDbLine
 10
148.7526540553874
 20
85.86518820243865
 30
0.000000000000000
 11
148.7526540553874
 21
87.92735429618864
 31
0.000000000000000
  0
LINE
  5
104
100
AcDbEntity
  8
A1
  6
CONTINUOUS
 62
7
100
AcDbLine
 10
148.7526540553874
 20
82.16518820243866
 30
0.000000000000000
 11
148.7526540553874
 21
84.22735429618871
 31
0.000000000000000
  0
LINE
  5
105
100
AcDbEntity
  8
A1
  6
CONTINUOUS
 62
7
100
AcDbLine
 10
146.1526540553876
 20
83.65860429618871
 30
0.000000000000000
 11
146.1526540553876
 21
81.59643820243869
 31
0.000000000000000
  0
LINE
  5
106
100
AcDbEntity
  8
A1
  6
CONTINUOUS
 62
7
100
AcDbLine
 10
143.5526540553875
 20
81.02768820243870
 30
0.000000000000000
 11
143.5526540553875
 21
83.08985429618869
 31
0.000000000000000
  0
LINE
  5
107
100
AcDbEntity
  8
A1
  6
CONTINUOUS
 62
7
100
AcDbLine
 10
148.7526540553874
 20
76.97020313993860
 30
0.000000000000000
 11
148.7526540553874
 21
77.32752113993865
 31
0.000000000000000
  0
LINE
  5
108
100
AcDbEntity
  8
A1
  6
CONTINUOUS
 62
7
100
AcDbLine
 10
148.7526540553874
 20
78.92752113993862
 30
0.000000000000000
 11
148.7526540553874
 21
80.52735429618863
 31
0.000000000000000
  0
LINE
  5
109
100
AcDbEntity
  8
A1
  6
CONTINUOUS
 62
7
100
AcDbLine
 10
141.3526540553874
 20
95.32752113993861
 30
0.000000000000000
 11
150.9526540553875
 21
95.32752113993864
 31
0.000000000000000
  0
LINE
  5
10A
100
AcDbEntity
  8
A1
  6
CONTINUOUS
 62
7
100
AcDbLine
 10
181.9526540553872
 20
101.0585711399387
 30
0.000000000000000
 11
179.4026540553873
 21
101.0585711399387
 31
0.000000000000000
  0
LINE
  5
10B
100
AcDbEntity
  8
A1
  6
CONTINUOUS
 62
7
100
AcDbLine
 10
179.4026540553848
 20
98.45857113993870
 30
0.000000000000000
 11
182.9526540553872
 21
98.45857113993625
 31
0.000000000000000
  0
ARC
  5
10C
100
AcDbEntity
  8
A1
  6
CONTINUOUS
 62
7
100
AcDbCircle
 10
181.9526540553872
 20
97.45857113993694
 30
0.000000000000000
 40
3.600000000000000
100
AcDbArc
 50
0.000000000000000
 51
90.00000000000000
  0
LINE
  5
10D
100
AcDbEntity
  8
A1
  6
CONTINUOUS
 62
7
100
AcDbLine
 10
185.5526540553872
 20
95.32752113993891
 30
0.000000000000000
 11
185.5526540553872
 21
97.45857113993711
 31
0.000000000000000
  0
LINE
  5
10E
100
AcDbEntity
  8
A1
  6
CONTINUOUS
 62
7
100
AcDbLine
 10
182.9526540553872
 20
98.45857113993638
 30
0.000000000000000
 11
182.9526540553872
 21
95.32752113993884
 31
0.000000000000000
  0
LINE
  5
10F
100
AcDbEntity
  8
A1
  6
CONTINUOUS
 62
7
100
AcDbLine
 10
180.3526540553872
 20
98.32388413993866
 30
0.000000000000000
 11
182.9526540553872
 21
98.32388413993866
 31
0.000000000000000
  0
LINE
  5
110
100
AcDbEntity
  8
A1
  6
CONTINUOUS
 62
7
100
AcDbLine
 10
182.9526540553872
 20
98.32388413993871
 30
0.000000000000000
 11
182.9526540553872
 21
95.32752113993874
 31
0.000000000000000
  0
LINE
  5
111
100
AcDbEntity
  8
A1
  6
CONTINUOUS
 62
7
100
AcDbLine
 10
180.3526540553873
 20
95.32752113993863
 30
0.000000000000000
 11
180.3526540553873
 21
98.32388413993863
 31
0.000000000000000
  0
LINE
  5
112
100
AcDbEntity
  8
A1
  6
CONTINUOUS
 62
7
100
AcDbLine
 10
176.9611877401015
 20
74.34503717774285
 30
0.000000000000000
 11
180.3526540553873
 21
76.97020313993872
 31
0.000000000000000
  0
LINE
  5
113
100
AcDbEntity
  8
A1
  6
CONTINUOUS
 62
7
100
AcDbLine
 10
182.1048344003921
 20
75.04930025837938
 30
0.000000000000000
 11
178.5526540553873
 21
72.29973568366825
 31
0.000000000000000
  0
ARC
  5
114
100
AcDbEntity
  8
A1
  6
CONTINUOUS
 62
7
100
AcDbCircle
 10
178.5526540553873
 20
72.28901310995798
 30
0.000000000000000
 40
2.600000000000000
100
AcDbArc
 50
127.7416780082878
 51
180.0000000000001
  0
LINE
  5
115
100
AcDbEntity
  8
A1
  6
CONTINUOUS
 62
7
100
AcDbLine
 10
182.9526540553873
 20
74.33115813993882
 30
0.000000000000000
 11
185.5526540553874
 21
74.33115813993882
 31
0.000000000000000
  0
ARC
  5
116
100
AcDbEntity
  8
A1
  6
CONTINUOUS
 62
7
100
AcDbCircle
 10
187.7526540552752
 20
94.52752113993870
 30
0.000000000000000
 40
0.8000000000000000
100
AcDbArc
 50
270.0000000000001
 51
450.0000000000001
  0
LINE
  5
117
100
AcDbEntity
  8
A1
  6
CONTINUOUS
 62
7
100
AcDbLine
 10
187.7526540552752
 20
93.72752113993860
 30
0.000000000000000
 11
178.1526540552752
 21
93.72752113993859
 31
0.000000000000000
  0
ARC
  5
118
100
AcDbEntity
  8
A1
  6
CONTINUOUS
 62
7
100
AcDbCircle
 10
178.1526540552752
 20
94.52752113993864
 30
0.000000000000000
 40
0.8000000000000000
100
AcDbArc
 50
90.00000000000010
 51
270.0000000000001
  0
LINE
  5
119
100
AcDbEntity
  8
A1
  6
CONTINUOUS
 62
7
100
AcDbLine
 10
178.0211340552752
 20
93.73840613993860
 30
0.000000000000000
 11
180.3526540552753
 21
93.34981947327191
 31
0.000000000000000
  0
LINE
  5
11A
100
AcDbEntity
  8
A1
  6
CONTINUOUS
 62
7
100
AcDbLine
 10
187.5816960552751
 20
93.70904113993859
 30
0.000000000000000
 11
177.9816960552751
 21
91.60904113993860
 31
0.000000000000000
  0
ARC
  5
11B
100
AcDbEntity
  8
A1
  6
CONTINUOUS
 62
7
100
AcDbCircle
 10
187.7526540552753
 20
92.92752113993868
 30
0.000000000000000
 40
0.8000000000000000
100
AcDbArc
 50
282.3390870000001
 51
462.3390870000001
  0
LINE
  5
11C
100
AcDbEntity
  8
A1
  6
CONTINUOUS
 62
7
100
AcDbLine
 10
187.9236110552752
 20
92.14600113993868
 30
0.000000000000000
 11
178.3236110552751
 21
90.04600113993864
 31
0.000000000000000
  0
ARC
  5
11D
100
AcDbEntity
  8
A1
  6
CONTINUOUS
 62
7
100
AcDbCircle
 10
178.1526540552751
 20
90.82752113993865
 30
0.000000000000000
 40
0.8000000000000000
100
AcDbArc
 50
102.3390870000001
 51
282.3390870000001
  0
LINE
  5
11E
100
AcDbEntity
  8
A1
  6
CONTINUOUS
 62
7
100
AcDbLine
 10
178.0211340552752
 20
90.03840613993864
 30
0.000000000000000
 11
180.3526540552753
 21
89.64981947327195
 31
0.000000000000000
  0
LINE
  5
11F
100
AcDbEntity
  8
A1
  6
CONTINUOUS
 62
7
100
AcDbLine
 10
187.8841730552749
 20
90.01663613993874
 30
0.000000000000000
 11
185.5526540552751
 21
90.40522282662282
 31
0.000000000000000
  0
LINE
  5
120
100
AcDbEntity
  8
A1
  6
CONTINUOUS
 62
7
100
AcDbLine
 10
187.5816960552752
 20
90.00904113993863
 30
0.000000000000000
 11
177.9816960552751
 21
87.90904113993861
 31
0.000000000000000
  0
ARC
  5
121
100
AcDbEntity
  8
A1
  6
CONTINUOUS
 62
7
100
AcDbCircle
 10
187.7526540552753
 20
89.22752113993869
 30
0.000000000000000
 40
0.8000000000000000
100
AcDbArc
 50
282.3390870000001
 51
462.3390870000001
  0
LINE
  5
122
100
AcDbEntity
  8
A1
  6
CONTINUOUS
 62
7
100
AcDbLine
 10
187.9236110552751
 20
88.44600113993860
 30
0.000000000000000
 11
178.3236110552751
 21
86.34600113993861
 31
0.000000000000000
  0
ARC
  5
123
100
AcDbEntity
  8
A1
  6
CONTINUOUS
 62
7
100
AcDbCircle
 10
178.1526540552751
 20
87.12752113993866
 30
0.000000000000000
 40
0.8000000000000000
100
AcDbArc
 50
102.3390870000001
 51
282.3390870000001
  0
LINE
  5
124
100
AcDbEntity
  8
A1
  6
CONTINUOUS
 62
7
100
AcDbLine
 10
178.0211340552751
 20
86.33840613993870
 30
0.000000000000000
 11
180.3526540552754
 21
85.94981947327200
 31
0.000000000000000
  0
LINE
  5
125
100
AcDbEntity
  8
A1
  6
CONTINUOUS
 62
7
100
AcDbLine
 10
187.8841730552751
 20
86.31663613993862
 30
0.000000000000000
 11
185.5526540552752
 21
86.70522282662270
 31
0.000000000000000
  0
LINE
  5
126
100
AcDbEntity
  8
A1
  6
CONTINUOUS
 62
7
100
AcDbLine
 10
187.5816960552753
 20
86.30904113993870
 30
0.000000000000000
 11
177.9816960552754
 21
84.20904113993868
 31
0.000000000000000
  0
ARC
  5
127
100
AcDbEntity
  8
A1
  6
CONTINUOUS
 62
7
100
AcDbCircle
 10
187.7526540552753
 20
85.52752113993870
 30
0.000000000000000
 40
0.8000000000000000
100
AcDbArc
 50
282.3390870000001
 51
462.3390870000001
  0
LINE
  5
128
100
AcDbEntity
  8
A1
  6
CONTINUOUS
 62
7
100
AcDbLine
 10
187.9236110552753
 20
84.74600113993874
 30
0.000000000000000
 11
178.3236110552754
 21
82.64600113993872
 31
0.000000000000000
  0
ARC
  5
129
100
AcDbEntity
  8
A1
  6
CONTINUOUS
 62
7
100
AcDbCircle
 10
178.1526530552753
 20
83.42752113993862
 30
0.000000000000000
 40
0.8000000000000000
100
AcDbArc
 50
102.3390870000001
 51
282.3390870000001
  0
LINE
  5
12A
100
AcDbEntity
  8
A1
  6
CONTINUOUS
 62
7
100
AcDbLine
 10
178.0211340552751
 20
82.63840613993871
 30
0.000000000000000
 11
180.3526540552753
 21
82.24981947327198
 31
0.000000000000000
  0
LINE
  5
12B
100
AcDbEntity
  8
A1
  6
CONTINUOUS
 62
7
100
AcDbLine
 10
187.8841730552750
 20
82.61663613993875
 30
0.000000000000000
 11
185.5526540552752
 21
83.00522282662280
 31
0.000000000000000
  0
LINE
  5
12C
100
AcDbEntity
  8
A1
  6
CONTINUOUS
 62
7
100
AcDbLine
 10
187.5816960552752
 20
82.60904113993867
 30
0.000000000000000
 11
177.9816960552752
 21
80.50904113993865
 31
0.000000000000000
  0
ARC
  5
12D
100
AcDbEntity
  8
A1
  6
CONTINUOUS
 62
7
100
AcDbCircle
 10
187.7526540552753
 20
81.82752113993865
 30
0.000000000000000
 40
0.8000000000000000
100
AcDbArc
 50
282.3390870000001
 51
462.3390870000001
  0
LINE
  5
12E
100
AcDbEntity
  8
A1
  6
CONTINUOUS
 62
7
100
AcDbLine
 10
187.9236110552752
 20
81.04600113993865
 30
0.000000000000000
 11
178.3236110552751
 21
78.94600113993863
 31
0.000000000000000
  0
ARC
  5
12F
100
AcDbEntity
  8
A1
  6
CONTINUOUS
 62
7
100
AcDbCircle
 10
178.1526540552751
 20
79.72752113993863
 30
0.000000000000000
 40
0.8000000000000000
100
AcDbArc
 50
102.3390870000001
 51
282.3390870000001
  0
ARC
  5
130
100
AcDbEntity
  8
A1
  6
CONTINUOUS
 62
7
100
AcDbCircle
 10
178.1526540552751
 20
78.12752113993866
 30
0.000000000000000
 40
0.8000000000000000
100
AcDbArc
 50
90.00000000000010
 51
270.0000000000001
  0
LINE
  5
131
100
AcDbEntity
  8
A1
  6
CONTINUOUS
 62
7
100
AcDbLine
 10
182.9526540552753
 20
77.32752113993863
 30
0.000000000000000
 11
178.1526540552752
 21
77.32752113993863
 31
0.000000000000000
  0
LINE
  5
132
100
AcDbEntity
  8
A1
  6
CONTINUOUS
 62
7
100
AcDbLine
 10
187.7526540552752
 20
78.92752113993859
 30
0.000000000000000
 11
178.1526540552752
 21
78.92752113993858
 31
0.000000000000000
  0
LINE
  5
133
100
AcDbEntity
  8
A1
  6
CONTINUOUS
 62
7
100
AcDbLine
 10
187.7526540552752
 20
77.32752113993865
 30
0.000000000000000
 11
182.9526540552753
 21
77.32752113993865
 31
0.000000000000000
  0
ARC
  5
134
100
AcDbEntity
  8
A1
  6
CONTINUOUS
 62
7
100
AcDbCircle
 10
187.7526540552753
 20
78.12752113993866
 30
0.000000000000000
 40
0.8000000000000000
100
AcDbArc
 50
270.0000000000001
 51
450.0000000000001
  0
LINE
  5
135
100
AcDbEntity
  8
A1
  6
CONTINUOUS
 62
7
100
AcDbLine
 10
187.8841730552752
 20
78.91663613993867
 30
0.000000000000000
 11
185.5526540552752
 21
79.30522282662281
 31
0.000000000000000
  0
LINE
  5
136
100
AcDbEntity
  8
A1
  6
CONTINUOUS
 62
7
100
AcDbLine
 10
180.3526540552753
 20
92.12768820243863
 30
0.000000000000000
 11
180.3526540552753
 21
93.72752113993860
 31
0.000000000000000
  0
LINE
  5
137
100
AcDbEntity
  8
A1
  6
CONTINUOUS
 62
7
100
AcDbLine
 10
182.9526540552753
 20
93.72752113993860
 30
0.000000000000000
 11
182.9526540552753
 21
92.69643820243863
 31
0.000000000000000
  0
LINE
  5
138
100
AcDbEntity
  8
A1
  6
CONTINUOUS
 62
7
100
AcDbLine
 10
185.5526540552752
 20
93.26518820243862
 30
0.000000000000000
 11
185.5526540552752
 21
93.72752113993863
 31
0.000000000000000
  0
LINE
  5
139
100
AcDbEntity
  8
A1
  6
CONTINUOUS
 62
7
100
AcDbLine
 10
182.9526540552753
 20
91.05860429618869
 30
0.000000000000000
 11
182.9526540552753
 21
88.99643820243867
 31
0.000000000000000
  0
LINE
  5
13A
100
AcDbEntity
  8
A1
  6
CONTINUOUS
 62
7
100
AcDbLine
 10
185.5526540552752
 20
89.56518820243863
 30
0.000000000000000
 11
185.5526540552752
 21
91.62735429618866
 31
0.000000000000000
  0
LINE
  5
13B
100
AcDbEntity
  8
A1
  6
CONTINUOUS
 62
7
100
AcDbLine
 10
180.3526540552753
 20
88.42768820243865
 30
0.000000000000000
 11
180.3526540552753
 21
90.48985429618867
 31
0.000000000000000
  0
LINE
  5
13C
100
AcDbEntity
  8
A1
  6
CONTINUOUS
 62
7
100
AcDbLine
 10
180.3526540552753
 20
84.72768820243866
 30
0.000000000000000
 11
180.3526540552753
 21
86.78985429618865
 31
0.000000000000000
  0
LINE
  5
13D
100
AcDbEntity
  8
A1
  6
CONTINUOUS
 62
7
100
AcDbLine
 10
182.9526540552753
 20
87.35860429618867
 30
0.000000000000000
 11
182.9526540552753
 21
85.29643820243865
 31
0.000000000000000
  0
LINE
  5
13E
100
AcDbEntity
  8
A1
  6
CONTINUOUS
 62
7
100
AcDbLine
 10
185.5526540552752
 20
85.86518820243865
 30
0.000000000000000
 11
185.5526540552752
 21
87.92735429618864
 31
0.000000000000000
  0
LINE
  5
13F
100
AcDbEntity
  8
A1
  6
CONTINUOUS
 62
7
100
AcDbLine
 10
185.5526540552752
 20
82.16518820243866
 30
0.000000000000000
 11
185.5526540552752
 21
84.22735429618871
 31
0.000000000000000
  0
LINE
  5
140
100
AcDbEntity
  8
A1
  6
CONTINUOUS
 62
7
100
AcDbLine
 10
182.9526540552753
 20
83.65860429618871
 30
0.000000000000000
 11
182.9526540552753
 21
81.59643820243869
 31
0.000000000000000
  0
LINE
  5
141
100
AcDbEntity
  8
A1
  6
CONTINUOUS
 62
7
100
AcDbLine
 10
180.3526540552753
 20
81.02768820243870
 30
0.000000000000000
 11
180.3526540552753
 21
83.08985429618869
 31
0.000000000000000
  0
LINE
  5
142
100
AcDbEntity
  8
A1
  6
CONTINUOUS
 62
7
100
AcDbLine
 10
185.5526540552752
 20
76.97020313993860
 30
0.000000000000000
 11
185.5526540552752
 21
77.32752113993865
 31
0.000000000000000
  0
LINE
  5
143
100
AcDbEntity
  8
A1
  6
CONTINUOUS
 62
7
100
AcDbLine
 10
185.5526540552752
 20
78.92752113993862
 30
0.000000000000000
 11
185.5526540552752
 21
80.52735429618863
 31
0.000000000000000
  0
LINE
  5
144
100
AcDbEntity
  8
A1
  6
CONTINUOUS
 62
7
100
AcDbLine
 10
178.1526540552752
 20
95.32752113993861
 30
0.000000000000000
 11
187.7526540552752
 21
95.32752113993864
 31
0.000000000000000
  0
ARC
  5
145
100
AcDbEntity
  8
A1
  6
CONTINUOUS
 62
7
100
AcDbCircle
 10
180.3526540553872
 20
76.97020213993872
 30
0.000000000000000
 40
2.600000000000000
100
AcDbArc
 50
312.3699904186743
 51
359.9999999999999
  0
LINE
  5
146
100
AcDbEntity
  8
A1
  6
CONTINUOUS
 62
7
100
AcDbLine
 10
180.3526540553873
 20
76.97020313993860
 30
0.000000000000000
 11
180.3526540553873
 21
77.32752113993865
 31
0.000000000000000
  0
LINE
  5
147
100
AcDbEntity
  8
A1
  6
CONTINUOUS
 62
7
100
AcDbLine
 10
51.59266845424411
 20
72.29973568357794
 30
0.000000000000000
 11
45.59266845424413
 21
72.29973568357194
 31
0.000000000000000
  0
LINE
  5
148
100
AcDbEntity
  8
A1
  6
CONTINUOUS
 62
7
100
AcDbLine
 10
182.9526540553872
 20
77.32752113993865
 30
0.000000000000000
 11
182.9526540553872
 21
74.33115813993882
 31
0.000000000000000
  0
LINE
  5
149
100
AcDbEntity
  8
A1
  6
CONTINUOUS
 62
7
100
AcDbLine
 10
182.9526540553872
 20
79.95860429618870
 30
0.000000000000000
 11
182.9526540553872
 21
78.92752113993859
 31
0.000000000000000
  0
LINE
  5
14A
100
AcDbEntity
  8
A1
  6
CONTINUOUS
 62
7
100
AcDbLine
 10
185.5526540553872
 20
74.33115813993879
 30
0.000000000000000
 11
185.5526540553872
 21
77.32752113993865
 31
0.000000000000000
  0
LINE
  5
14B
100
AcDbEntity
  8
A1
  6
CONTINUOUS
 62
7
100
AcDbLine
 10
185.5526540553872
 20
78.92752113993859
 30
0.000000000000000
 11
185.5526540553872
 21
79.38985429618867
 31
0.000000000000000
  0
LINE
  5
14C
100
AcDbEntity
  8
A1
  6
CONTINUOUS
 62
7
100
AcDbLine
 10
146.1526540553876
 20
77.32752113993865
 30
0.000000000000000
 11
146.1526540553876
 21
74.33115813993879
 31
0.000000000000000
  0
LINE
  5
14D
100
AcDbEntity
  8
A1
  6
CONTINUOUS
 62
7
100
AcDbLine
 10
146.1526540553876
 20
79.95860429618867
 30
0.000000000000000
 11
146.1526540553876
 21
78.92752113993862
 31
0.000000000000000
  0
LINE
  5
14E
100
AcDbEntity
  8
A1
  6
CONTINUOUS
 62
7
100
AcDbLine
 10
143.5526540553875
 20
74.33115813993876
 30
0.000000000000000
 11
143.5526540553875
 21
77.32752113993863
 31
0.000000000000000
  0
LINE
  5
14F
100
AcDbEntity
  8
A1
  6
CONTINUOUS
 62
7
100
AcDbLine
 10
143.5526540553875
 20
78.92752113993859
 30
0.000000000000000
 11
143.5526540553875
 21
79.38985429618864
 31
0.000000000000000
  0
LINE
  5
150
100
AcDbEntity
  8
A4
  6
CENTER
 62
1
100
AcDbLine
 10
104.1656675682182
 20
132.0054161399517
 30
0.000000000000000
 11
104.1656675682182
 21
114.2335391399516
 31
0.000000000000000
  0
LINE
  5
151
100
AcDbEntity
  8
A4
  6
CENTER
 62
1
100
AcDbLine
 10
129.1656675682182
 20
132.3345261399517
 30
0.000000000000000
 11
129.1656675682182
 21
114.1924011399517
 31
0.000000000000000
  0
CIRCLE
  5
152
100
AcDbEntity
  8
A1
  6
CONTINUOUS
 62
7
100
AcDbCircle
 10
104.1656675682182
 20
123.0641991399516
 30
0.000000000000000
 40
2.600000000000000
  0
CIRCLE
  5
153
100
AcDbEntity
  8
A1
  6
CONTINUOUS
 62
7
100
AcDbCircle
 10
129.1656675682182
 20
123.0641991399517
 30
0.000000000000000
 40
2.600000000000000
  0
ARC
  5
154
100
AcDbEntity
  8
A1
  6
CONTINUOUS
 62
7
100
AcDbCircle
 10
104.1656675682182
 20
123.0641991399516
 30
0.000000000000000
 40
6.000000000000000
100
AcDbArc
 50
90.00000000000007
 51
270.0000000000001
  0
ARC
  5
155
100
AcDbEntity
  8
A1
  6
CONTINUOUS
 62
7
100
AcDbCircle
 10
129.1656675682182
 20
123.0641991399517
 30
0.000000000000000
 40
6.000000000000000
100
AcDbArc
 50
270.0000000000001
 51
450.0000000000001
  0
LINE
  5
156
100
AcDbEntity
  8
A1
  6
CONTINUOUS
 62
7
100
AcDbLine
 10
106.1656675682184
 20
117.0641991399516
 30
0.000000000000000
 11
104.1656675682184
 21
117.0641991399516
 31
0.000000000000000
  0
LINE
  5
157
100
AcDbEntity
  8
A1
  6
CONTINUOUS
 62
7
100
AcDbLine
 10
106.1656675682182
 20
102.2641991399516
 30
0.000000000000000
 11
106.1656675682182
 21
117.0641991399516
 31
0.000000000000000
  0
LINE
  5
158
100
AcDbEntity
  8
A1
  6
CONTINUOUS
 62
7
100
AcDbLine
 10
127.1656675682184
 20
102.2641991399516
 30
0.000000000000000
 11
106.1656675682184
 21
102.2641991399516
 31
0.000000000000000
  0
LINE
  5
159
100
AcDbEntity
  8
A1
  6
CONTINUOUS
 62
7
100
AcDbLine
 10
127.1656675682182
 20
117.0641991399517
 30
0.000000000000000
 11
127.1656675682182
 21
102.2641991399517
 31
0.000000000000000
  0
LINE
  5
15A
100
AcDbEntity
  8
A1
  6
CONTINUOUS
 62
7
100
AcDbLine
 10
129.1656675682183
 20
117.0641991399517
 30
0.000000000000000
 11
127.1656675682184
 21
117.0641991399516
 31
0.000000000000000
  0
LINE
  5
15B
100
AcDbEntity
  8
A1
  6
CONTINUOUS
 62
7
100
AcDbLine
 10
129.1656675682183
 20
129.0641991399517
 30
0.000000000000000
 11
104.1656675682183
 21
129.0641991399516
 31
0.000000000000000
  0
LINE
  5
15C
100
AcDbEntity
  8
A4
  6
CENTER
 62
1
100
AcDbLine
 10
116.6656675682052
 20
132.3551510721162
 30
0.000000000000000
 11
116.6656675682248
 21
98.12428695989209
 31
0.000000000000000
  0
LINE
  5
15D
100
AcDbEntity
  8
A4
  6
CENTER
 62
1
100
AcDbLine
 10
108.2656675682182
 20
123.0641991399517
 30
0.000000000000000
 11
95.26632656821826
 21
123.0641991399517
 31
0.000000000000000
  0
LINE
  5
15E
100
AcDbEntity
  8
A4
  6
CENTER
 62
1
100
AcDbLine
 10
137.4333985682183
 20
123.0641991399517
 30
0.000000000000000
 11
125.0656675682182
 21
123.0641991399517
 31
0.000000000000000
  0
LINE
  5
15F
100
AcDbEntity
  8
A1
  6
CONTINUOUS
 62
7
100
AcDbLine
 10
109.1656675682182
 20
111.7641991399594
 30
0.000000000000000
 11
124.1656675682182
 21
111.7641991399594
 31
0.000000000000000
  0
LINE
  5
160
100
AcDbEntity
  8
A1
  6
CONTINUOUS
 62
7
100
AcDbLine
 10
109.1656675682182
 20
111.0349918109673
 30
0.000000000000000
 11
124.1656675682182
 21
111.0349918109673
 31
0.000000000000000
  0
ARC
  5
161
100
AcDbEntity
  8
A1
  6
CONTINUOUS
 62
7
100
AcDbCircle
 10
124.1656675682182
 20
108.7641991399594
 30
0.000000000000000
 40
3.000000000000000
100
AcDbArc
 50
0.000000000000000
 51
90.00000000000000
  0
ARC
  5
162
100
AcDbEntity
  8
A1
  6
CONTINUOUS
 62
7
100
AcDbCircle
 10
124.1656675682182
 20
108.0349918109673
 30
0.000000000000000
 40
3.000000000000000
100
AcDbArc
 50
0.000000000000000
 51
90.00000000000000
  0
ARC
  5
163
100
AcDbEntity
  8
A1
  6
CONTINUOUS
 62
7
100
AcDbCircle
 10
109.1656675682182
 20
108.7641991399593
 30
0.000000000000000
 40
3.000000000000000
100
AcDbArc
 50
90.00000000000000
 51
180.0000000000000
  0
ARC
  5
164
100
AcDbEntity
  8
A1
  6
CONTINUOUS
 62
7
100
AcDbCircle
 10
109.1656675682182
 20
108.0349918109673
 30
0.000000000000000
 40
3.000000000000000
100
AcDbArc
 50
90.00000000000000
 51
180.0000000000000
  0
LINE
  5
165
100
AcDbEntity
  8
A1
  6
CONTINUOUS
 62
7
100
AcDbLine
 10
18.86647694789238
 20
107.7641991397973
 30
0.000000000000000
 11
18.86647694786791
 21
129.0641991398701
 31
0.000000000000000
  0
LINE
  5
166
100
AcDbEntity
  8
A1
  6
CONTINUOUS
 62
7
100
AcDbLine
 10
18.86647694788187
 20
117.0641991398699
 30
0.000000000000000
 11
16.86647694788187
 21
117.0641991398676
 31
0.000000000000000
  0
LINE
  5
167
100
AcDbEntity
  8
A4
  6
CENTER
 62
1
100
AcDbLine
 10
20.98992294787497
 20
123.0641991398723
 30
0.000000000000000
 11
14.19268694787498
 21
123.0641991398645
 31
0.000000000000000
  0
LINE
  5
168
100
AcDbEntity
  8
A1
  6
CONTINUOUS
 62
7
100
AcDbLine
 10
16.86647694786802
 20
129.0641991398677
 30
0.000000000000000
 11
16.86647694789232
 21
107.7641991397951
 31
0.000000000000000
  0
LINE
  5
169
100
AcDbEntity
  8
A1
  6
CONTINUOUS
 62
7
100
AcDbLine
 10
18.86647694786819
 20
129.0641991398698
 30
0.000000000000000
 11
16.86647694786819
 21
129.0641991398676
 31
0.000000000000000
  0
ARC
  5
16A
100
AcDbEntity
  8
A1
  6
CONTINUOUS
 62
7
100
AcDbCircle
 10
22.36647694789241
 20
107.7641991398013
 30
0.000000000000000
 40
5.500000000000000
100
AcDbArc
 50
180.0000000000653
 51
337.5725335692051
  0
ARC
  5
16B
100
AcDbEntity
  8
A1
  6
CONTINUOUS
 62
7
100
AcDbCircle
 10
22.36647694789241
 20
107.7641991398013
 30
0.000000000000000
 40
3.500000000000000
100
AcDbArc
 50
180.0000000000653
 51
337.5692322676673
  0
LINE
  5
16C
100
AcDbEntity
  8
A1
  6
CONTINUOUS
 62
7
100
AcDbLine
 10
29.66647691447366
 20
111.0349918108100
 30
0.000000000000000
 11
27.80415174147285
 21
111.7641991398135
 31
0.000000000000000
  0
POINT
  5
16D
100
AcDbEntity
  8
A10
  6
CONTINUOUS
 62
3
100
AcDbPoint
 10
22.36647694789241
 20
107.7641991398013
 30
0.000000000000000
  0
LINE
  5
16E
100
AcDbEntity
  8
A1
  6
CONTINUOUS
 62
7
100
AcDbLine
 10
27.45047482290694
 20
105.6658746637378
 30
0.000000000000000
 11
29.66647691447372
 21
111.0349918108098
 31
0.000000000000000
  0
LINE
  5
16F
100
AcDbEntity
  8
A1
  6
CONTINUOUS
 62
7
100
AcDbLine
 10
25.60167137958967
 20
106.4287153364121
 30
0.000000000000000
 11
27.80415174147289
 21
111.7641991398133
 31
0.000000000000000
  0
LINE
  5
170
100
AcDbEntity
  8
A1
  6
CONTINUOUS
 62
7
100
AcDbLine
 10
45.59266845425503
 20
100.1145807028901
 30
0.000000000000000
 11
45.59266845425316
 21
95.32748568609730
 31
0.000000000000000
  0
LINE
  5
171
100
AcDbEntity
  8
A1
  6
CONTINUOUS
 62
7
100
AcDbLine
 10
45.59266836236581
 20
93.72748591830671
 30
0.000000000000000
 11
45.59266836236514
 21
92.04015306931856
 31
0.000000000000000
  0
LINE
  5
172
100
AcDbEntity
  8
A1
  6
CONTINUOUS
 62
7
100
AcDbLine
 10
45.59266836236451
 20
90.40231922812563
 30
0.000000000000000
 11
45.59266836236370
 21
88.34015423475958
 31
0.000000000000000
  0
LINE
  5
173
100
AcDbEntity
  8
A1
  6
CONTINUOUS
 62
7
100
AcDbLine
 10
45.59266836236306
 20
86.70232042952296
 30
0.000000000000000
 11
45.59266836236225
 21
84.64015459791472
 31
0.000000000000000
  0
LINE
  5
174
100
AcDbEntity
  8
A1
  6
CONTINUOUS
 62
7
100
AcDbLine
 10
45.59266836236160
 20
83.00232079267801
 30
0.000000000000000
 11
45.59266836236079
 21
80.94015496106968
 31
0.000000000000000
  0
LINE
  5
175
100
AcDbEntity
  8
A1
  6
CONTINUOUS
 62
7
100
AcDbLine
 10
45.59266845424493
 20
74.32748595225996
 30
0.000000000000000
 11
45.59266845424095
 21
64.15873897303609
 31
0.000000000000000
  0
LINE
  5
176
100
AcDbEntity
  8
A1
  6
CONTINUOUS
 62
7
100
AcDbLine
 10
45.59266836236016
 20
79.30232115583303
 30
0.000000000000000
 11
45.59266836236002
 21
78.92748566475873
 31
0.000000000000000
  0
LINE
  5
177
100
AcDbEntity
  8
A1
  6
CONTINUOUS
 62
7
100
AcDbLine
 10
51.59266845425503
 20
100.1145807029017
 30
0.000000000000000
 11
51.59266845425316
 21
95.32748249895884
 31
0.000000000000000
  0
LINE
  5
178
100
AcDbEntity
  8
A1
  6
CONTINUOUS
 62
7
100
AcDbLine
 10
51.59266836236582
 20
93.72748236277650
 30
0.000000000000000
 11
51.59266836236569
 21
93.35265011665575
 31
0.000000000000000
  0
LINE
  5
179
100
AcDbEntity
  8
A1
  6
CONTINUOUS
 62
7
100
AcDbLine
 10
51.59266836236501
 20
91.71481627546277
 30
0.000000000000000
 11
51.59266836236420
 21
89.65265065112416
 31
0.000000000000000
  0
LINE
  5
17A
100
AcDbEntity
  8
A1
  6
CONTINUOUS
 62
7
100
AcDbLine
 10
51.59266836236356
 20
88.01481684588757
 30
0.000000000000000
 11
51.59266836236275
 21
85.95265101427930
 31
0.000000000000000
  0
LINE
  5
17B
100
AcDbEntity
  8
A1
  6
CONTINUOUS
 62
7
100
AcDbLine
 10
51.59266836236213
 20
84.31481720904262
 30
0.000000000000000
 11
51.59266836236132
 21
82.25265137743426
 31
0.000000000000000
  0
LINE
  5
17C
100
AcDbEntity
  8
A1
  6
CONTINUOUS
 62
7
100
AcDbLine
 10
51.59266845424492
 20
74.32748276512150
 30
0.000000000000000
 11
51.59266845424094
 21
64.15873897303373
 31
0.000000000000000
  0
LINE
  5
17D
100
AcDbEntity
  8
A1
  6
CONTINUOUS
 62
7
100
AcDbLine
 10
51.59266836236066
 20
80.61481757219765
 30
0.000000000000000
 11
51.59266836235999
 21
78.92748270270290
 31
0.000000000000000
  0
ARC
  5
17E
100
AcDbEntity
  8
A1
  6
CONTINUOUS
 62
7
100
AcDbCircle
 10
48.59266845424095
 20
64.15873897303491
 30
0.000000000000000
 40
2.999999999999993
100
AcDbArc
 50
180.0000000000000
 51
360.0000000000000
  0
ARC
  5
17F
100
AcDbEntity
  8
A1
  6
CONTINUOUS
 62
7
100
AcDbCircle
 10
40.39266938571180
 20
100.1145831440830
 30
0.000000000000000
 40
5.199999068543812
100
AcDbArc
 50
0.000000000000000
 51
31.08691394500681
  0
ARC
  5
180
100
AcDbEntity
  8
A1
  6
CONTINUOUS
 62
7
100
AcDbCircle
 10
40.39266938571180
 20
100.1145831440830
 30
0.000000000000000
 40
11.19999906854350
100
AcDbArc
 50
0.000000000000000
 51
31.08692445844841
  0
LINE
  5
181
100
AcDbEntity
  8
A1
  6
CONTINUOUS
 62
7
100
AcDbLine
 10
42.28605489384586
 20
107.0451863449703
 30
0.000000000000000
 11
44.84587077400145
 21
102.7995389553007
 31
0.000000000000000
  0
LINE
  5
182
100
AcDbEntity
  8
A1
  6
CONTINUOUS
 62
7
100
AcDbLine
 10
47.42436482419692
 20
110.1432133073530
 30
0.000000000000000
 11
49.98418098858735
 21
105.8975654462585
 31
0.000000000000000
  0
ARC
  5
183
100
AcDbEntity
  8
A1
  6
CONTINUOUS
 62
7
100
AcDbCircle
 10
44.85521079882415
 20
108.5942000713953
 30
0.000000000000000
 40
2.999999068543323
100
AcDbArc
 50
31.08692445844953
 51
211.0869139450070
  0
LINE
  5
184
100
AcDbEntity
  8
A4
  6
CENTER
 62
1
100
AcDbLine
 10
51.99265071054475
 20
66.09419913993858
 30
0.000000000000000
 11
45.19265071054474
 21
66.09419913993858
 31
0.000000000000000
  0
LINE
  5
185
100
AcDbEntity
  8
A4
  6
CENTER
 62
1
100
AcDbLine
 10
48.59265071054475
 20
69.49419913993859
 30
0.000000000000000
 11
48.59265071054475
 21
62.69419913993858
 31
0.000000000000000
  0
LINE
  5
186
100
AcDbEntity
  8
A1
  6
CONTINUOUS
 62
7
100
AcDbLine
 10
233.3425107119950
 20
90.00264581413482
 30
0.000000000000000
 11
233.3425107119950
 21
92.06481160673071
 31
0.000000000000000
  0
LINE
  5
187
100
AcDbEntity
  8
A1
  6
CONTINUOUS
 62
7
100
AcDbLine
 10
233.1425035134791
 20
78.92748181416322
 30
0.000000000000000
 11
242.7425031269380
 21
78.92748655345243
 31
0.000000000000000
  0
LINE
  5
188
100
AcDbEntity
  8
A1
  6
CONTINUOUS
 62
7
100
AcDbLine
 10
233.1424946256611
 20
93.72748129619033
 30
0.000000000000000
 11
242.7424952871357
 21
93.72748698503904
 31
0.000000000000000
  0
LINE
  5
189
100
AcDbEntity
  8
A1
  6
CONTINUOUS
 62
7
100
AcDbLine
 10
232.9715404328780
 20
88.44596153588475
 30
0.000000000000000
 11
242.5715411824019
 21
86.34596710574370
 31
0.000000000000000
  0
LINE
  5
18A
100
AcDbEntity
  8
A1
  6
CONTINUOUS
 62
7
100
AcDbLine
 10
233.3134544097784
 20
90.00900186289020
 30
0.000000000000000
 11
242.9134551593020
 21
87.90900743274918
 31
0.000000000000000
  0
LINE
  5
18B
100
AcDbEntity
  8
A1
  6
CONTINUOUS
 62
7
100
AcDbLine
 10
232.9715426425255
 20
84.74596141568112
 30
0.000000000000000
 11
242.5715433920493
 21
82.64596698554007
 31
0.000000000000000
  0
LINE
  5
18C
100
AcDbEntity
  8
A1
  6
CONTINUOUS
 62
7
100
AcDbLine
 10
233.3134566194256
 20
86.30900174268662
 30
0.000000000000000
 11
242.9134573689495
 21
84.20900731254557
 31
0.000000000000000
  0
LINE
  5
18D
100
AcDbEntity
  8
A1
  6
CONTINUOUS
 62
7
100
AcDbLine
 10
232.9715448521730
 20
81.04596129547735
 30
0.000000000000000
 11
242.5715456016967
 21
78.94596686533632
 31
0.000000000000000
  0
LINE
  5
18E
100
AcDbEntity
  8
A1
  6
CONTINUOUS
 62
7
100
AcDbLine
 10
233.3134588290730
 20
82.60900162248282
 30
0.000000000000000
 11
242.9134595785968
 21
80.50900719234178
 31
0.000000000000000
  0
LINE
  5
18F
100
AcDbEntity
  8
A1
  6
CONTINUOUS
 62
7
100
AcDbLine
 10
232.9715382232307
 20
92.14596165608845
 30
0.000000000000000
 11
242.5715389235263
 21
90.04596622715985
 31
0.000000000000000
  0
LINE
  5
190
100
AcDbEntity
  8
A1
  6
CONTINUOUS
 62
7
100
AcDbLine
 10
233.3134522001307
 20
93.70900198309383
 30
0.000000000000000
 11
242.9134529004265
 21
91.60900655416521
 31
0.000000000000000
  0
ARC
  5
191
100
AcDbEntity
  8
A1
  6
CONTINUOUS
 62
7
100
AcDbCircle
 10
242.7425036883434
 20
78.12748657745949
 30
0.000000000000000
 40
0.8000000000000000
100
AcDbArc
 50
270.0000310000000
 51
450.0000310000001
  0
ARC
  5
192
100
AcDbEntity
  8
A1
  6
CONTINUOUS
 62
7
100
AcDbCircle
 10
242.7424947257304
 20
94.52748696103193
 30
0.000000000000000
 40
0.8000000000000000
100
AcDbArc
 50
270.0000310000000
 51
450.0000310000001
  0
ARC
  5
193
100
AcDbEntity
  8
A1
  6
CONTINUOUS
 62
7
100
AcDbCircle
 10
233.1425030760967
 20
78.12748188739839
 30
0.000000000000000
 40
0.8000000000000000
100
AcDbArc
 50
90.00003100000005
 51
270.0000310000000
  0
ARC
  5
194
100
AcDbEntity
  8
A1
  6
CONTINUOUS
 62
7
100
AcDbCircle
 10
233.1424973967140
 20
89.22748119999373
 30
0.000000000000000
 40
0.8000000000000000
100
AcDbArc
 50
77.66094000000011
 51
257.6609450000001
  0
ARC
  5
195
100
AcDbEntity
  8
A1
  6
CONTINUOUS
 62
7
100
AcDbCircle
 10
233.1424940642558
 20
94.52748127218324
 30
0.000000000000000
 40
0.8000000000000000
100
AcDbArc
 50
90.00003100000005
 51
270.0000310000000
  0
LINE
  5
196
100
AcDbEntity
  8
A1
  6
CONTINUOUS
 62
7
100
AcDbLine
 10
233.0109841701452
 20
78.91659605676939
 30
0.000000000000000
 11
234.9424929682928
 21
79.23851541424639
 31
0.000000000000000
  0
LINE
  5
197
100
AcDbEntity
  8
A1
  6
CONTINUOUS
 62
7
100
AcDbLine
 10
233.0109819604977
 20
82.61659617697315
 30
0.000000000000000
 11
234.9424929682914
 21
82.93851590272585
 31
0.000000000000000
  0
LINE
  5
198
100
AcDbEntity
  8
A1
  6
CONTINUOUS
 62
7
100
AcDbLine
 10
242.8740202113964
 20
82.63837143226235
 30
0.000000000000000
 11
240.9424929682917
 21
82.31644900061420
 31
0.000000000000000
  0
LINE
  5
199
100
AcDbEntity
  8
A1
  6
CONTINUOUS
 62
7
100
AcDbLine
 10
242.8740157921015
 20
90.03837167266957
 30
0.000000000000000
 11
240.9424929682887
 21
89.71644997757281
 31
0.000000000000000
  0
LINE
  5
19A
100
AcDbEntity
  8
A1
  6
CONTINUOUS
 62
7
100
AcDbLine
 10
233.0109775412030
 20
90.01659641738044
 30
0.000000000000000
 11
234.9424929682885
 21
90.33851687968458
 31
0.000000000000000
  0
LINE
  5
19B
100
AcDbEntity
  8
A1
  6
CONTINUOUS
 62
7
100
AcDbLine
 10
242.8740180017489
 20
86.33837155246593
 30
0.000000000000000
 11
240.9424929682901
 21
86.01644948909352
 31
0.000000000000000
  0
LINE
  5
19C
100
AcDbEntity
  8
A1
  6
CONTINUOUS
 62
7
100
AcDbLine
 10
233.0109797508503
 20
86.31659629717686
 30
0.000000000000000
 11
234.9424929682899
 21
86.63851639120529
 31
0.000000000000000
  0
LINE
  5
19D
100
AcDbEntity
  8
A1
  6
CONTINUOUS
 62
7
100
AcDbLine
 10
242.8740145812415
 20
93.73837174364522
 30
0.000000000000000
 11
240.9424929682872
 21
93.41645049096627
 31
0.000000000000000
  0
LINE
  5
19E
100
AcDbEntity
  8
A1
  6
CONTINUOUS
 62
7
100
AcDbLine
 10
243.4424923162003
 20
98.32748741509853
 30
0.000000000000000
 11
240.9424929682853
 21
98.32748610659438
 31
0.000000000000000
  0
LINE
  5
19F
100
AcDbEntity
  8
A1
  6
CONTINUOUS
 62
7
100
AcDbLine
 10
243.9424941037005
 20
95.32748727973912
 30
0.000000000000000
 11
243.9424925779012
 21
97.82748772025846
 31
0.000000000000000
  0
LINE
  5
1A0
100
AcDbEntity
  8
A1
  6
CONTINUOUS
 62
7
100
AcDbLine
 10
231.9424935634751
 20
95.32748090546190
 30
0.000000000000000
 11
243.9424941037007
 21
95.32748727973912
 31
0.000000000000000
  0
LINE
  5
1A1
100
AcDbEntity
  8
A1
  6
CONTINUOUS
 62
7
100
AcDbLine
 10
231.9424928699987
 20
97.82748137629984
 30
0.000000000000000
 11
231.9424935634752
 21
95.32748090546194
 31
0.000000000000000
  0
LINE
  5
1A2
100
AcDbEntity
  8
A1
  6
CONTINUOUS
 62
7
100
AcDbLine
 10
234.9424929682853
 20
98.32748282349955
 30
0.000000000000000
 11
232.4424926082978
 21
98.32748151499487
 31
0.000000000000000
  0
LINE
  5
1A3
100
AcDbEntity
  8
A1
  6
CONTINUOUS
 62
7
100
AcDbLine
 10
233.3425107119950
 20
88.09419924617748
 30
0.000000000000000
 11
233.3425107119950
 21
88.36481200889834
 31
0.000000000000000
  0
LINE
  5
1A4
100
AcDbEntity
  8
A1
  6
CONTINUOUS
 62
7
100
AcDbLine
 10
245.1425107119949
 20
78.79419913993885
 30
0.000000000000000
 11
243.1846511287207
 21
78.79419913993887
 31
0.000000000000000
  0
LINE
  5
1A5
100
AcDbEntity
  8
A1
  6
CONTINUOUS
 62
7
100
AcDbLine
 10
245.1425107119951
 20
38.79419913993883
 30
0.000000000000000
 11
245.1425107119950
 21
78.79419913993877
 31
0.000000000000000
  0
ARC
  5
1A6
100
AcDbEntity
  8
A1
  6
CONTINUOUS
 62
7
100
AcDbCircle
 10
240.9425107119949
 20
82.96718313993883
 30
0.000000000000000
 40
4.000000000000000
100
AcDbArc
 50
310.3019438358396
 51
360.0000000000001
  0
ARC
  5
1A7
100
AcDbEntity
  8
A1
  6
CONTINUOUS
 62
7
100
AcDbCircle
 10
238.9425107119949
 20
63.09419913993882
 30
0.000000000000000
 40
3.000000000000000
100
AcDbArc
 50
270.0000000000001
 51
360.0000000000001
  0
LINE
  5
1A8
100
AcDbEntity
  8
A1
  6
CONTINUOUS
 62
7
100
AcDbLine
 10
238.9425107119949
 20
60.09419924617675
 30
0.000000000000000
 11
229.3425107119950
 21
60.09419924617674
 31
0.000000000000000
  0
LINE
  5
1A9
100
AcDbEntity
  8
A1
  6
CONTINUOUS
 62
7
100
AcDbLine
 10
241.9425107119950
 20
74.32748648353113
 30
0.000000000000000
 11
241.9425107119950
 21
63.09419913993882
 31
0.000000000000000
  0
LINE
  5
1AA
100
AcDbEntity
  8
A1
  6
CONTINUOUS
 62
7
100
AcDbLine
 10
233.1425107119949
 20
88.09419924617748
 30
0.000000000000000
 11
234.5796010050278
 21
88.09419924617750
 31
0.000000000000000
  0
ARC
  5
1AB
100
AcDbEntity
  8
A1
  6
CONTINUOUS
 62
7
100
AcDbCircle
 10
233.1425107119948
 20
90.09419924617677
 30
0.000000000000000
 40
2.000000000000000
100
AcDbArc
 50
180.0000000000000
 51
270.0000000000001
  0
ARC
  5
1AC
100
AcDbEntity
  8
A1
  6
CONTINUOUS
 62
7
100
AcDbCircle
 10
237.9425107119949
 20
87.60134413993883
 30
0.000000000000000
 40
7.000000000000000
100
AcDbArc
 50
1.017777498068325e-13
 51
57.96358020544191
  0
ARC
  5
1AD
100
AcDbEntity
  8
A1
  6
CONTINUOUS
 62
7
100
AcDbCircle
 10
239.9425107119949
 20
78.79419913993884
 30
0.000000000000000
 40
5.200000000000000
100
AcDbArc
 50
1.017777498068325e-13
 51
27.82293200000009
  0
LINE
  5
1AE
100
AcDbEntity
  8
A1
  6
CONTINUOUS
 62
7
100
AcDbLine
 10
231.9425036488988
 20
77.32748056990361
 30
0.000000000000000
 11
243.9425041891242
 21
77.32748694418083
 31
0.000000000000000
  0
ARC
  5
1AF
100
AcDbEntity
  8
A1
  6
CONTINUOUS
 62
7
100
AcDbCircle
 10
235.1425107119948
 20
90.09419924617677
 30
0.000000000000000
 40
4.000000000000000
100
AcDbArc
 50
133.5314045335026
 51
180.0000000000000
  0
LINE
  5
1B0
100
AcDbEntity
  8
A1
  6
CONTINUOUS
 62
7
100
AcDbLine
 10
243.9425041891241
 20
77.32748694418078
 30
0.000000000000000
 11
243.9425057559467
 21
74.82748759367767
 31
0.000000000000000
  0
LINE
  5
1B1
100
AcDbEntity
  8
A1
  6
CONTINUOUS
 62
7
100
AcDbLine
 10
243.4425060215419
 20
74.32748728031325
 30
0.000000000000000
 11
232.4425054813161
 21
74.32748143722577
 31
0.000000000000000
  0
LINE
  5
1B2
100
AcDbEntity
  8
A1
  6
CONTINUOUS
 62
7
100
AcDbLine
 10
231.9425052157214
 20
74.82748112386099
 30
0.000000000000000
 11
231.9425036488987
 21
77.32748056990356
 31
0.000000000000000
  0
LINE
  5
1B3
100
AcDbEntity
  8
A1
  6
CONTINUOUS
 62
7
100
AcDbLine
 10
244.9425107119950
 20
87.60134413993882
 30
0.000000000000000
 11
244.9425107119950
 21
82.96718313993875
 31
0.000000000000000
  0
LINE
  5
1B4
100
AcDbEntity
  8
A1
  6
CONTINUOUS
 62
7
100
AcDbLine
 10
241.9425107119950
 20
63.09419913993884
 30
0.000000000000000
 11
241.9425107119950
 21
38.79419913993883
 31
0.000000000000000
  0
LINE
  5
1B5
100
AcDbEntity
  8
A1
  6
CONTINUOUS
 62
7
100
AcDbLine
 10
241.9425107119950
 20
38.79419913993883
 30
0.000000000000000
 11
245.1425107119949
 21
38.79419913993883
 31
0.000000000000000
  0
ARC
  5
1B6
100
AcDbEntity
  8
A1
  6
CONTINUOUS
 62
7
100
AcDbCircle
 10
233.1424951870665
 20
92.92748132019743
 30
0.000000000000000
 40
0.8000000000000000
100
AcDbArc
 50
77.66094000000011
 51
257.6609400000001
  0
ARC
  5
1B7
100
AcDbEntity
  8
A1
  6
CONTINUOUS
 62
7
100
AcDbCircle
 10
233.1424996555894
 20
85.52748207857768
 30
0.000000000000000
 40
0.8000000000000000
100
AcDbArc
 50
77.66094500000000
 51
257.6609450000001
  0
ARC
  5
1B8
100
AcDbEntity
  8
A1
  6
CONTINUOUS
 62
7
100
AcDbCircle
 10
233.1425018652369
 20
81.82748195837398
 30
0.000000000000000
 40
0.8000000000000000
100
AcDbArc
 50
77.66094500000000
 51
257.6609450000001
  0
ARC
  5
1B9
100
AcDbEntity
  8
A1
  6
CONTINUOUS
 62
7
100
AcDbCircle
 10
242.7425025655326
 20
79.72748652944530
 30
0.000000000000000
 40
0.8000000000000000
100
AcDbArc
 50
257.6609450000001
 51
437.6609450000001
  0
ARC
  5
1BA
100
AcDbEntity
  8
A1
  6
CONTINUOUS
 62
7
100
AcDbCircle
 10
242.7425003558853
 20
83.42748664964900
 30
0.000000000000000
 40
0.8000000000000000
100
AcDbArc
 50
257.6609450000001
 51
437.6609450000001
  0
ARC
  5
1BB
100
AcDbEntity
  8
A1
  6
CONTINUOUS
 62
7
100
AcDbCircle
 10
242.7424981462378
 20
87.12748676985269
 30
0.000000000000000
 40
0.8000000000000000
100
AcDbArc
 50
257.6609450000001
 51
437.6609450000001
  0
ARC
  5
1BC
100
AcDbEntity
  8
A1
  6
CONTINUOUS
 62
7
100
AcDbCircle
 10
242.7424958873625
 20
90.82748589126875
 30
0.000000000000000
 40
0.8000000000000000
100
AcDbArc
 50
257.6609400000001
 51
437.6609400000001
  0
LINE
  5
1BD
100
AcDbEntity
  8
A1
  6
CONTINUOUS
 62
7
100
AcDbLine
 10
231.5425107119951
 20
37.34596824617674
 30
0.000000000000000
 11
233.1024839274773
 21
36.09419924617683
 31
0.000000000000000
  0
ARC
  5
1BE
100
AcDbEntity
  8
A1
  6
CONTINUOUS
 62
7
100
AcDbCircle
 10
219.2954339604668
 20
47.64204084897901
 30
0.000000000000000
 40
16.00000000000000
100
AcDbArc
 50
319.9463567736032
 51
411.1015284252451
  0
ARC
  5
1BF
100
AcDbEntity
  8
A1
  6
CONTINUOUS
 62
7
100
AcDbCircle
 10
219.2954339604668
 20
47.64204084897901
 30
0.000000000000000
 40
18.00000000000000
100
AcDbArc
 50
320.0927458931181
 51
403.7716988797328
  0
LINE
  5
1C0
100
AcDbEntity
  8
A1
  6
CONTINUOUS
 62
7
100
AcDbLine
 10
229.3425107119950
 20
60.09419924617673
 30
0.000000000000000
 11
229.3425107119949
 21
89.65873569900815
 31
0.000000000000000
  0
ARC
  5
1C1
100
AcDbEntity
  8
A1
  6
CONTINUOUS
 62
7
100
AcDbCircle
 10
235.3425074008477
 20
89.65873716453149
 30
0.000000000000000
 40
6.000000000000000
100
AcDbArc
 50
120.0000449842632
 51
180.0000000000001
  0
ARC
  5
1C2
100
AcDbEntity
  8
A1
  6
CONTINUOUS
 62
7
100
AcDbCircle
 10
243.4424925779012
 20
97.82748741509864
 30
0.000000000000000
 40
0.5000000000000000
100
AcDbArc
 50
1.526666247102488e-13
 51
90.00000000000014
  0
ARC
  5
1C3
100
AcDbEntity
  8
A1
  6
CONTINUOUS
 62
7
100
AcDbCircle
 10
232.4424928699987
 20
97.82748151499509
 30
0.000000000000000
 40
0.5000000000000000
100
AcDbArc
 50
90.00000000000014
 51
180.0000000000001
  0
ARC
  5
1C4
100
AcDbEntity
  8
A1
  6
CONTINUOUS
 62
7
100
AcDbCircle
 10
232.4425052157214
 20
74.82748143722561
 30
0.000000000000000
 40
0.5000000000000000
100
AcDbArc
 50
180.0000000000002
 51
270.0000000000002
  0
ARC
  5
1C5
100
AcDbEntity
  8
A1
  6
CONTINUOUS
 62
7
100
AcDbCircle
 10
243.4425057559471
 20
74.82748728031312
 30
0.000000000000000
 40
0.5000000000000000
100
AcDbArc
 50
270.0000000000002
 51
360.0000000000002
  0
CIRCLE
  5
1C6
100
AcDbEntity
  8
A1
  6
CONTINUOUS
 62
7
100
AcDbCircle
 10
237.9425107119950
 20
66.09419913993885
 30
0.000000000000000
 40
1.900000000000000
  0
LINE
  5
1C7
100
AcDbEntity
  8
A1
  6
CONTINUOUS
 62
7
100
AcDbLine
 10
229.3425107119951
 20
60.09419913993879
 30
0.000000000000000
 11
229.3425107119950
 21
89.65873559277021
 31
0.000000000000000
  0
LINE
  5
1C8
100
AcDbEntity
  8
A4
  6
CENTER
 62
1
100
AcDbLine
 10
239.4331697119949
 20
44.06419913993879
 30
0.000000000000000
 11
248.4964537119948
 21
44.06419913993881
 31
0.000000000000000
  0
LINE
  5
1C9
100
AcDbEntity
  8
A4
  6
CENTER
 62
1
100
AcDbLine
 10
239.4129407119949
 20
58.06419913993879
 30
0.000000000000000
 11
248.4155317119949
 21
58.06419913993881
 31
0.000000000000000
  0
LINE
  5
1CA
100
AcDbEntity
  8
A4
  6
CENTER
 62
1
100
AcDbLine
 10
248.2334567119949
 20
72.06419913993878
 30
0.000000000000000
 11
239.5545547119949
 21
72.06419913993876
 31
0.000000000000000
  0
LINE
  5
1CB
100
AcDbEntity
  8
A1
  6
CONTINUOUS
 62
7
100
AcDbLine
 10
243.9425041891241
 20
77.32748694418079
 30
0.000000000000000
 11
243.9425057559466
 21
74.82748759367769
 31
0.000000000000000
  0
LINE
  5
1CC
100
AcDbEntity
  8
A1
  6
CONTINUOUS
 62
7
100
AcDbLine
 10
243.4425060215418
 20
74.32748728031325
 30
0.000000000000000
 11
232.4425054813161
 21
74.32748143722577
 31
0.000000000000000
  0
ARC
  5
1CD
100
AcDbEntity
  8
A1
  6
CONTINUOUS
 62
7
100
AcDbCircle
 10
243.4425057559471
 20
74.82748728031312
 30
0.000000000000000
 40
0.5000000000000000
100
AcDbArc
 50
270.0000000000002
 51
360.0000000000002
  0
LINE
  5
1CE
100
AcDbEntity
  8
A1
  6
CONTINUOUS
 62
7
100
AcDbLine
 10
234.9823385200449
 20
101.0584860083722
 30
0.000000000000000
 11
241.0288790581558
 21
101.0584860083723
 31
0.000000000000000
  0
CIRCLE
  5
1CF
100
AcDbEntity
  8
A1
  6
CONTINUOUS
 62
7
100
AcDbCircle
 10
239.9207944140419
 20
106.2901539745855
 30
0.000000000000000
 40
1.900000000000063
  0
LINE
  5
1D0
100
AcDbEntity
  8
A4
  6
CENTER
 62
1
100
AcDbLine
 10
236.5207944140418
 20
106.2901539745855
 30
0.000000000000000
 11
243.3207944140420
 21
106.2901539745855
 31
0.000000000000000
  0
LINE
  5
1D1
100
AcDbEntity
  8
A4
  6
CENTER
 62
1
100
AcDbLine
 10
239.9207944140419
 20
109.6901539745856
 30
0.000000000000000
 11
239.9207944140419
 21
102.8901539745855
 31
0.000000000000000
  0
LINE
  5
1D2
100
AcDbEntity
  8
A1
  6
CONTINUOUS
 62
7
100
AcDbLine
 10
241.9425107119949
 20
60.09419913994726
 30
0.000000000000000
 11
245.1425107119949
 21
60.09419913994726
 31
0.000000000000000
  0
LINE
  5
1D3
100
AcDbEntity
  8
A1
  6
CONTINUOUS
 62
7
100
AcDbLine
 10
234.9424929682956
 20
72.29973568357819
 30
0.000000000000000
 11
240.9424929682956
 21
72.29973568357222
 31
0.000000000000000
  0
LINE
  5
1D4
100
AcDbEntity
  8
A1
  6
CONTINUOUS
 62
7
100
AcDbLine
 10
267.6686844746473
 20
107.7641991397976
 30
0.000000000000000
 11
267.6686844746716
 21
129.0641991398704
 31
0.000000000000000
  0
LINE
  5
1D5
100
AcDbEntity
  8
A1
  6
CONTINUOUS
 62
7
100
AcDbLine
 10
267.6686844746577
 20
117.0641991398702
 30
0.000000000000000
 11
269.6686844746577
 21
117.0641991398679
 31
0.000000000000000
  0
LINE
  5
1D6
100
AcDbEntity
  8
A4
  6
CENTER
 62
1
100
AcDbLine
 10
265.5452384746646
 20
123.0641991398726
 30
0.000000000000000
 11
272.3424744746646
 21
123.0641991398649
 31
0.000000000000000
  0
LINE
  5
1D7
100
AcDbEntity
  8
A1
  6
CONTINUOUS
 62
7
100
AcDbLine
 10
269.6686844746715
 20
129.0641991398681
 30
0.000000000000000
 11
269.6686844746473
 21
107.7641991397955
 31
0.000000000000000
  0
LINE
  5
1D8
100
AcDbEntity
  8
A1
  6
CONTINUOUS
 62
7
100
AcDbLine
 10
267.6686844746714
 20
129.0641991398702
 30
0.000000000000000
 11
269.6686844746714
 21
129.0641991398679
 31
0.000000000000000
  0
ARC
  5
1D9
100
AcDbEntity
  8
A1
  6
CONTINUOUS
 62
7
100
AcDbCircle
 10
264.1686844746472
 20
107.7641991398016
 30
0.000000000000000
 40
5.500000000000000
100
AcDbArc
 50
202.4274664307950
 51
359.9999999999348
  0
ARC
  5
1DA
100
AcDbEntity
  8
A1
  6
CONTINUOUS
 62
7
100
AcDbCircle
 10
264.1686844746472
 20
107.7641991398016
 30
0.000000000000000
 40
3.500000000000000
100
AcDbArc
 50
202.4307677323328
 51
359.9999999999348
  0
LINE
  5
1DB
100
AcDbEntity
  8
A1
  6
CONTINUOUS
 62
7
100
AcDbLine
 10
256.8686845080658
 20
111.0349918108103
 30
0.000000000000000
 11
258.7310096810667
 21
111.7641991398138
 31
0.000000000000000
  0
POINT
  5
1DC
100
AcDbEntity
  8
A10
  6
CONTINUOUS
 62
3
100
AcDbPoint
 10
264.1686844746472
 20
107.7641991398016
 30
0.000000000000000
  0
LINE
  5
1DD
100
AcDbEntity
  8
A1
  6
CONTINUOUS
 62
7
100
AcDbLine
 10
259.0846865996327
 20
105.6658746637381
 30
0.000000000000000
 11
256.8686845080659
 21
111.0349918108102
 31
0.000000000000000
  0
LINE
  5
1DE
100
AcDbEntity
  8
A1
  6
CONTINUOUS
 62
7
100
AcDbLine
 10
260.9334900429499
 20
106.4287153364124
 30
0.000000000000000
 11
258.7310096810667
 21
111.7641991398136
 31
0.000000000000000
  0
LINE
  5
1DF
100
AcDbEntity
  8
A1
  6
CONTINUOUS
 62
7
100
AcDbLine
 10
240.9424929682846
 20
100.1145807028904
 30
0.000000000000000
 11
240.9424929682865
 21
95.32748568616928
 31
0.000000000000000
  0
LINE
  5
1E0
100
AcDbEntity
  8
A1
  6
CONTINUOUS
 62
7
100
AcDbLine
 10
240.9424929682872
 20
93.72748591837865
 30
0.000000000000000
 11
240.9424929682878
 21
92.04015306939050
 31
0.000000000000000
  0
LINE
  5
1E1
100
AcDbEntity
  8
A1
  6
CONTINUOUS
 62
7
100
AcDbLine
 10
240.9424929682885
 20
90.40231922819757
 30
0.000000000000000
 11
240.9424929682893
 21
88.34015423483152
 31
0.000000000000000
  0
LINE
  5
1E2
100
AcDbEntity
  8
A1
  6
CONTINUOUS
 62
7
100
AcDbLine
 10
240.9424929682900
 20
86.70232042959489
 30
0.000000000000000
 11
240.9424929682908
 21
84.64015459798665
 31
0.000000000000000
  0
LINE
  5
1E3
100
AcDbEntity
  8
A1
  6
CONTINUOUS
 62
7
100
AcDbLine
 10
240.9424929682913
 20
83.00232079274994
 30
0.000000000000000
 11
240.9424929682921
 21
80.94015496114162
 31
0.000000000000000
  0
LINE
  5
1E4
100
AcDbEntity
  8
A1
  6
CONTINUOUS
 62
7
100
AcDbLine
 10
240.9424929682947
 20
74.32748595233195
 30
0.000000000000000
 11
240.9424929682988
 21
64.15873897303638
 31
0.000000000000000
  0
LINE
  5
1E5
100
AcDbEntity
  8
A1
  6
CONTINUOUS
 62
7
100
AcDbLine
 10
240.9424929682928
 20
79.30232115590496
 30
0.000000000000000
 11
240.9424929682930
 21
78.92748566483067
 31
0.000000000000000
  0
LINE
  5
1E6
100
AcDbEntity
  8
A1
  6
CONTINUOUS
 62
7
100
AcDbLine
 10
234.9424929682846
 20
100.1145807029020
 30
0.000000000000000
 11
234.9424929682865
 21
95.32748249903082
 31
0.000000000000000
  0
LINE
  5
1E7
100
AcDbEntity
  8
A1
  6
CONTINUOUS
 62
7
100
AcDbLine
 10
234.9424929682872
 20
93.72748236284842
 30
0.000000000000000
 11
234.9424929682872
 21
93.35265011672767
 31
0.000000000000000
  0
LINE
  5
1E8
100
AcDbEntity
  8
A1
  6
CONTINUOUS
 62
7
100
AcDbLine
 10
234.9424929682880
 20
91.71481627553469
 30
0.000000000000000
 11
234.9424929682888
 21
89.65265065119608
 31
0.000000000000000
  0
LINE
  5
1E9
100
AcDbEntity
  8
A1
  6
CONTINUOUS
 62
7
100
AcDbLine
 10
234.9424929682894
 20
88.01481684595949
 30
0.000000000000000
 11
234.9424929682902
 21
85.95265101435122
 31
0.000000000000000
  0
LINE
  5
1EA
100
AcDbEntity
  8
A1
  6
CONTINUOUS
 62
7
100
AcDbLine
 10
234.9424929682908
 20
84.31481720911454
 30
0.000000000000000
 11
234.9424929682916
 21
82.25265137750618
 31
0.000000000000000
  0
LINE
  5
1EB
100
AcDbEntity
  8
A1
  6
CONTINUOUS
 62
7
100
AcDbLine
 10
234.9424929682948
 20
74.32748276519348
 30
0.000000000000000
 11
234.9424929682988
 21
64.15873897303399
 31
0.000000000000000
  0
LINE
  5
1EC
100
AcDbEntity
  8
A1
  6
CONTINUOUS
 62
7
100
AcDbLine
 10
234.9424929682923
 20
80.61481757226957
 30
0.000000000000000
 11
234.9424929682930
 21
78.92748270277482
 31
0.000000000000000
  0
ARC
  5
1ED
100
AcDbEntity
  8
A1
  6
CONTINUOUS
 62
7
100
AcDbCircle
 10
237.9424929682988
 20
64.15873897303518
 30
0.000000000000000
 40
2.999999999999993
100
AcDbArc
 50
180.0000000000002
 51
360.0000000000002
  0
ARC
  5
1EE
100
AcDbEntity
  8
A1
  6
CONTINUOUS
 62
7
100
AcDbCircle
 10
246.1424920368279
 20
100.1145831440832
 30
0.000000000000000
 40
5.199999068543812
100
AcDbArc
 50
148.9130860549934
 51
180.0000000000001
  0
ARC
  5
1EF
100
AcDbEntity
  8
A1
  6
CONTINUOUS
 62
7
100
AcDbCircle
 10
246.1424920368279
 20
100.1145831440832
 30
0.000000000000000
 40
11.19999906854350
100
AcDbArc
 50
148.9130755415517
 51
180.0000000000001
  0
LINE
  5
1F0
100
AcDbEntity
  8
A1
  6
CONTINUOUS
 62
7
100
AcDbLine
 10
244.2491065286938
 20
107.0451863449706
 30
0.000000000000000
 11
241.6892906485382
 21
102.7995389553010
 31
0.000000000000000
  0
LINE
  5
1F1
100
AcDbEntity
  8
A1
  6
CONTINUOUS
 62
7
100
AcDbLine
 10
239.1107965983427
 20
110.1432133073532
 30
0.000000000000000
 11
236.5509804339524
 21
105.8975654462587
 31
0.000000000000000
  0
ARC
  5
1F2
100
AcDbEntity
  8
A1
  6
CONTINUOUS
 62
7
100
AcDbCircle
 10
241.6799506237155
 20
108.5942000713956
 30
0.000000000000000
 40
2.999999068543323
100
AcDbArc
 50
328.9130860549931
 51
508.9130755415506
  0
LINE
  5
1F3
100
AcDbEntity
  8
A4
  6
CENTER
 62
1
100
AcDbLine
 10
234.5425107119950
 20
66.09419913993885
 30
0.000000000000000
 11
241.3425107119950
 21
66.09419913993887
 31
0.000000000000000
  0
LINE
  5
1F4
100
AcDbEntity
  8
A4
  6
CENTER
 62
1
100
AcDbLine
 10
237.9425107119950
 20
69.49419913993886
 30
0.000000000000000
 11
237.9425107119950
 21
62.69419913993884
 31
0.000000000000000
  0
SPLINE
  5
1F5
100
AcDbEntity
  8
A1
  6
CONTINUOUS
 62
7
100
AcDbSpline
210
0.000000000000000
220
0.000000000000000
230
1.000000000000000
 70
     8
 71
     3
 72
     9
 73
     5
 74
     0
 42
1.000000000000000e-07
 43
1.000000000000000e-07
 12
-0.08938500813883365
 22
-0.9959971487505754
 32
0.000000000000000
 13
-0.004176849600298738
 23
-0.9999912769249022
 33
0.000000000000000
 40
0.000000000000000
 40
0.000000000000000
 40
0.000000000000000
 40
0.000000000000000
 40
0.1880263654271933
 40
0.4677087649320117
 40
0.4677087649320117
 40
0.4677087649320117
 40
0.4677087649320117
 10
140.5746231370341
 20
157.6660366128123
 30
0.000000000000000
 10
140.5690208909661
 20
157.6036120381938
 30
0.000000000000000
 10
140.5577461594613
 20
157.4480883880102
 30
0.000000000000000
 10
140.5531211046199
 20
157.2921696135929
 30
0.000000000000000
 10
140.5527317075137
 20
157.1989429603215
 30
0.000000000000000
  0
SPLINE
  5
1F6
100
AcDbEntity
  8
A1
  6
CONTINUOUS
 62
7
100
AcDbSpline
210
0.000000000000000
220
0.000000000000000
230
1.000000000000000
 70
     8
 71
     3
 72
    13
 73
     9
 74
     0
 42
1.000000000000000e-07
 43
1.000000000000000e-07
 12
0.9999999967694748
 22
-8.036723079385411e-05
 32
0.000000000000000
 13
0.9999999967058102
 23
-8.112764044199139e-05
 33
0.000000000000000
 40
0.000000000000000
 40
0.000000000000000
 40
0.000000000000000
 40
0.000000000000000
 40
0.2572837898388796
 40
0.4550617491652575
 40
0.6003495383405624
 40
0.7001628177266810
 40
0.7615172476853128
 40
0.7879718857412499
 40
0.7879718857412499
 40
0.7879718857412499
 40
0.7879718857412499
 10
141.3526527777102
 20
157.1810683413802
 30
0.000000000000000
 10
141.4384140407128
 20
157.1810614489850
 30
0.000000000000000
 10
141.5901012899738
 20
157.1810496213962
 30
0.000000000000000
 10
141.7902178021661
 20
157.1810342828863
 30
0.000000000000000
 10
141.9378441443539
 20
157.1810228663677
 30
0.000000000000000
 10
142.0399959768776
 20
157.1810148261491
 30
0.000000000000000
 10
142.1025367591443
 20
157.1810098221370
 30
0.000000000000000
 10
142.1318064483868
 20
157.1810074555077
 30
0.000000000000000
 10
142.1406246610431
 20
157.1810067401069
 30
0.000000000000000
  0
SPLINE
  5
1F7
100
AcDbEntity
  8
A1
  6
CONTINUOUS
 62
7
100
AcDbSpline
210
0.000000000000000
220
0.000000000000000
230
1.000000000000000
 70
     8
 71
     3
 72
    14
 73
    10
 74
     0
 42
1.000000000000000e-07
 43
1.000000000000000e-07
 12
-0.9999999911351551
 22
-0.0001331583084720478
 32
0.000000000000000
 13
-0.9999999999199645
 23
-1.197687379317358e-05
 33
0.000000000000000
 40
0.000000000000000
 40
0.000000000000000
 40
0.000000000000000
 40
0.000000000000000
 40
0.1193519025056446
 40
0.2528622365403621
 40
0.3958756810269368
 40
0.5387434481712166
 40
0.6714658612283759
 40
0.7650922017276689
 40
0.7778087135758844
 40
0.7778087135758844
 40
0.7778087135758844
 40
0.7778087135758844
 10
141.3526546733902
 20
157.1810144480377
 30
0.000000000000000
 10
141.3128707062410
 20
157.1810091504719
 30
0.000000000000000
 10
141.2285832946833
 20
157.1809988460225
 30
0.000000000000000
 10
141.0966247349924
 20
157.1809856243140
 30
0.000000000000000
 10
140.9568275535097
 20
157.1809748106713
 30
0.000000000000000
 10
140.8172930121485
 20
157.1809671151406
 30
0.000000000000000
 10
140.6942208386502
 20
157.1809627937102
 30
0.000000000000000
 10
140.6145324168620
 20
157.1809612242387
 30
0.000000000000000
 10
140.5790847994157
 20
157.1809607706425
 30
0.000000000000000
 10
140.5748459621333
 20
157.1809607198745
 30
0.000000000000000
  0
SPLINE
  5
1F8
100
AcDbEntity
  8
A1
  6
CONTINUOUS
 62
7
100
AcDbSpline
210
0.000000000000000
220
0.000000000000000
230
1.000000000000000
 70
     8
 71
     3
 72
     9
 73
     5
 74
     0
 42
1.000000000000000e-07
 43
1.000000000000000e-07
 12
-0.07885314449345060
 22
-0.9968862430612262
 32
0.000000000000000
 13
0.002164229435493326
 23
-0.9999976580543262
 33
0.000000000000000
 40
0.000000000000000
 40
0.000000000000000
 40
0.000000000000000
 40
0.000000000000000
 40
0.3390829491819629
 40
0.4543344266832056
 40
0.4543344266832056
 40
0.4543344266832056
 40
0.4543344266832056
 10
140.5701071713047
 20
157.6227455605139
 30
0.000000000000000
 10
140.5611945857090
 20
157.5100698514152
 30
0.000000000000000
 10
140.5538127719437
 20
157.3586780078007
 30
0.000000000000000
 10
140.5525837481072
 20
157.2072338878833
 30
0.000000000000000
 10
140.5526668916539
 20
157.1688168186871
 30
0.000000000000000
  0
ARC
  5
1F9
100
AcDbEntity
  8
A1
  6
CONTINUOUS
 62
7
100
AcDbCircle
 10
146.1526540553161
 20
157.1809605547386
 30
0.000000000000000
 40
5.600000330804253
100
AcDbArc
 50
179.9995186204235
 51
181.0710646475191
  0
ARC
  5
1FA
100
AcDbEntity
  8
A1
  6
CONTINUOUS
 62
7
100
AcDbCircle
 10
146.1526540553161
 20
157.1809605547386
 30
0.000000000000000
 40
5.600000330804253
100
AcDbArc
 50
297.6640027226927
 51
327.6074774439721
  0
ARC
  5
1FB
100
AcDbEntity
  8
A1
  6
CONTINUOUS
 62
7
100
AcDbCircle
 10
146.1526540553161
 20
157.1809605547386
 30
0.000000000000000
 40
5.600000330804253
100
AcDbArc
 50
181.0710646475191
 51
270.0000000006551
  0
ARC
  5
1FC
100
AcDbEntity
  8
A1
  6
CONTINUOUS
 62
7
100
AcDbCircle
 10
146.1526540553161
 20
157.1809605547386
 30
0.000000000000000
 40
4.000000330804726
100
AcDbArc
 50
181.0400222865777
 51
270.0000000009171
  0
ARC
  5
1FD
100
AcDbEntity
  8
A1
  6
CONTINUOUS
 62
7
100
AcDbCircle
 10
146.1526540553161
 20
157.1809605547386
 30
0.000000000000000
 40
4.000000330804726
100
AcDbArc
 50
310.5415978217575
 51
311.4093429191569
  0
ARC
  5
1FE
100
AcDbEntity
  8
A1
  6
CONTINUOUS
 62
7
100
AcDbCircle
 10
146.1526948829318
 20
157.1809588716472
 30
0.000000000000000
 40
5.600025371385567
100
AcDbArc
 50
179.9999827797234
 51
181.0713301317931
  0
ARC
  5
1FF
100
AcDbEntity
  8
A1
  6
CONTINUOUS
 62
7
100
AcDbCircle
 10
146.1526540553812
 20
157.1809605547376
 30
0.000000000000000
 40
4.000000330737431
100
AcDbArc
 50
90.00465669967471
 51
179.9992240843788
  0
ARC
  5
200
100
AcDbEntity
  8
A1
  6
CONTINUOUS
 62
7
100
AcDbCircle
 10
146.1526540553814
 20
157.1809605547400
 30
0.000000000000000
 40
5.600000330735524
100
AcDbArc
 50
89.96206097861121
 51
179.8827393137950
  0
ARC
  5
201
100
AcDbEntity
  8
A1
  6
CONTINUOUS
 62
7
100
AcDbCircle
 10
146.1526540553817
 20
157.1809605547376
 30
0.000000000000000
 40
5.600000330735918
100
AcDbArc
 50
38.77032929951669
 51
62.32110321388002
  0
LINE
  5
202
100
AcDbEntity
  8
A1
  6
CONTINUOUS
 62
7
100
AcDbLine
 10
145.9868599828648
 20
161.1795211897248
 30
0.000000000000000
 11
146.0809404148349
 21
161.1824142861658
 31
0.000000000000000
  0
LINE
  5
203
100
AcDbEntity
  8
A1
  6
CONTINUOUS
 62
7
100
AcDbLine
 10
142.1526795433294
 20
157.1815835448467
 30
0.000000000000000
 11
142.1546051895948
 21
157.3007320554336
 31
0.000000000000000
  0
LINE
  5
204
100
AcDbEntity
  8
A1
  6
CONTINUOUS
 62
7
100
AcDbLine
 10
142.1533513068407
 20
157.1062600095414
 30
0.000000000000000
 11
142.1526795433294
 21
157.1815835448467
 31
0.000000000000000
  0
LINE
  5
205
100
AcDbEntity
  8
A1
  6
CONTINUOUS
 62
7
100
AcDbLine
 10
142.1305626457272
 20
157.1810056617734
 30
0.000000000000000
 11
141.3526546733902
 21
157.1810144480377
 31
0.000000000000000
  0
LINE
  5
206
100
AcDbEntity
  8
A1
  6
CONTINUOUS
 62
7
100
AcDbLine
 10
140.5748459621333
 20
157.1809607198745
 30
0.000000000000000
 11
140.5526695121501
 21
157.1809605547378
 31
0.000000000000000
  0
LINE
  5
207
100
AcDbEntity
  8
A1
  6
CONTINUOUS
 62
7
100
AcDbLine
 10
142.1554669028748
 20
157.0309688425101
 30
0.000000000000000
 11
142.1533513068453
 21
157.1062600095414
 31
0.000000000000000
  0
LINE
  5
208
100
AcDbEntity
  8
A1
  6
CONTINUOUS
 62
7
100
AcDbLine
 10
142.1526838410208
 20
157.1964824789065
 30
0.000000000000000
 11
142.1528712031011
 21
157.2226712309010
 31
0.000000000000000
  0
LINE
  5
209
100
AcDbEntity
  8
A1
  6
CONTINUOUS
 62
7
100
AcDbLine
 10
142.1526574450662
 20
157.1864161362350
 30
0.000000000000000
 11
142.1526838410207
 21
157.1964824789064
 31
0.000000000000000
  0
LINE
  5
20A
100
AcDbEntity
  8
A1
  6
CONTINUOUS
 62
7
100
AcDbLine
 10
142.1534209718144
 20
157.1026190637893
 30
0.000000000000000
 11
142.1526574450664
 21
157.1864161362349
 31
0.000000000000000
  0
LINE
  5
20B
100
AcDbEntity
  8
A1
  6
CONTINUOUS
 62
7
100
AcDbLine
 10
142.1613175556103
 20
156.9178339853925
 30
0.000000000000000
 11
142.1534209718144
 21
157.1026190637894
 31
0.000000000000000
  0
LINE
  5
20C
100
AcDbEntity
  8
A1
  6
CONTINUOUS
 62
7
100
AcDbLine
 10
142.1378437344529
 20
157.1810055746311
 30
0.000000000000000
 11
142.1305626457272
 21
157.1810056617734
 31
0.000000000000000
  0
LINE
  5
20D
100
AcDbEntity
  8
A1
  6
CONTINUOUS
 62
7
100
AcDbLine
 10
142.1483944725463
 20
157.1810059903539
 30
0.000000000000000
 11
142.1378437344528
 21
157.1810055746311
 31
0.000000000000000
  0
LINE
  5
20E
100
AcDbEntity
  8
A1
  6
CONTINUOUS
 62
7
100
AcDbLine
 10
140.5526654524715
 20
157.1924214237378
 30
0.000000000000000
 11
140.5526537254055
 21
157.1808683150727
 31
0.000000000000000
  0
LINE
  5
20F
100
AcDbEntity
  8
A1
  6
CONTINUOUS
 62
7
100
AcDbLine
 10
175.5526540553802
 20
155.1809598003678
 30
0.000000000000000
 11
175.8026540553873
 21
155.1809598003678
 31
0.000000000000000
  0
LINE
  5
210
100
AcDbEntity
  8
A1
  6
CONTINUOUS
 62
7
100
AcDbLine
 10
153.3026540553873
 20
155.1809598003678
 30
0.000000000000000
 11
153.5526540553802
 21
155.1809598003678
 31
0.000000000000000
  0
LINE
  5
211
100
AcDbEntity
  8
A1
  6
CONTINUOUS
 62
7
100
AcDbLine
 10
152.7445034818632
 20
154.1809420566586
 30
0.000000000000000
 11
153.1526540553802
 21
154.1809420566586
 31
0.000000000000000
  0
LINE
  5
212
100
AcDbEntity
  8
A1
  6
CONTINUOUS
 62
7
100
AcDbLine
 10
152.7326558164873
 20
154.1809420566586
 30
0.000000000000000
 11
152.7445034818632
 21
154.1809420566586
 31
0.000000000000000
  0
LINE
  5
213
100
AcDbEntity
  8
A1
  6
CONTINUOUS
 62
7
100
AcDbLine
 10
153.1526540553802
 20
154.1809420566678
 30
0.000000000000000
 11
153.1526540553802
 21
154.2210804946156
 31
0.000000000000000
  0
LINE
  5
214
100
AcDbEntity
  8
A1
  6
CONTINUOUS
 62
7
100
AcDbLine
 10
176.3608046289035
 20
154.1809420566586
 30
0.000000000000000
 11
175.9526540553802
 21
154.1809420566586
 31
0.000000000000000
  0
LINE
  5
215
100
AcDbEntity
  8
A1
  6
CONTINUOUS
 62
7
100
AcDbLine
 10
176.3726522942873
 20
154.1809420566586
 30
0.000000000000000
 11
176.3608046289035
 21
154.1809420566586
 31
0.000000000000000
  0
LINE
  5
216
100
AcDbEntity
  8
A1
  6
CONTINUOUS
 62
7
100
AcDbLine
 10
175.9526540553802
 20
154.1809420566678
 30
0.000000000000000
 11
175.9526540553802
 21
154.2210804946192
 31
0.000000000000000
  0
LINE
  5
217
100
AcDbEntity
  8
A1
  6
CONTINUOUS
 62
7
100
AcDbLine
 10
180.3526540553802
 20
163.1809416662778
 30
0.000000000000000
 11
180.3526540553802
 21
163.1528824867582
 31
0.000000000000000
  0
LINE
  5
218
100
AcDbEntity
  8
A1
  6
CONTINUOUS
 62
7
100
AcDbLine
 10
182.9526540553802
 20
163.1528824867582
 30
0.000000000000000
 11
182.9526540553802
 21
163.1809416662778
 31
0.000000000000000
  0
LINE
  5
219
100
AcDbEntity
  8
A1
  6
CONTINUOUS
 62
7
100
AcDbLine
 10
182.9526540553802
 20
163.1809416662778
 30
0.000000000000000
 11
180.3526540553802
 21
163.1809431920778
 31
0.000000000000000
  0
LINE
  5
21A
100
AcDbEntity
  8
A1
  6
CONTINUOUS
 62
7
100
AcDbLine
 10
146.1526540553802
 20
160.2430880808193
 30
0.000000000000000
 11
146.1526540553802
 21
163.1528824867678
 31
0.000000000000000
  0
LINE
  5
21B
100
AcDbEntity
  8
A1
  6
CONTINUOUS
 62
7
100
AcDbLine
 10
146.1526540553802
 20
151.2090032024878
 30
0.000000000000000
 11
146.1526540553802
 21
154.1809474144978
 31
0.000000000000000
  0
LINE
  5
21C
100
AcDbEntity
  8
A1
  6
CONTINUOUS
 62
7
100
AcDbLine
 10
148.7526540553802
 20
160.2673481825178
 30
0.000000000000000
 11
148.7526540553802
 21
163.1528824867678
 31
0.000000000000000
  0
LINE
  5
21D
100
AcDbEntity
  8
A1
  6
CONTINUOUS
 62
7
100
AcDbLine
 10
148.7526540553802
 20
151.2090032024878
 30
0.000000000000000
 11
148.7526540553802
 21
154.1809474144878
 31
0.000000000000000
  0
LINE
  5
21E
100
AcDbEntity
  8
A1
  6
CONTINUOUS
 62
7
100
AcDbLine
 10
146.1526540553802
 20
151.1809419583678
 30
0.000000000000000
 11
146.1526540553802
 21
151.2090032024970
 31
0.000000000000000
  0
LINE
  5
21F
100
AcDbEntity
  8
A1
  6
CONTINUOUS
 62
7
100
AcDbLine
 10
146.1526540553802
 20
151.1809419583678
 30
0.000000000000000
 11
148.7526540553802
 21
151.1809419583678
 31
0.000000000000000
  0
LINE
  5
220
100
AcDbEntity
  8
A1
  6
CONTINUOUS
 62
7
100
AcDbLine
 10
148.7526540553802
 20
151.2090032024970
 30
0.000000000000000
 11
148.7526540553802
 21
151.1809419583678
 31
0.000000000000000
  0
LINE
  5
221
100
AcDbEntity
  8
A1
  6
CONTINUOUS
 62
7
100
AcDbLine
 10
146.1526540553802
 20
151.2090032024878
 30
0.000000000000000
 11
148.7526540553802
 21
151.2090032024878
 31
0.000000000000000
  0
LINE
  5
222
100
AcDbEntity
  8
A1
  6
CONTINUOUS
 62
7
100
AcDbLine
 10
182.9526540553802
 20
151.1809419583678
 30
0.000000000000000
 11
182.9526540553802
 21
151.2090032024970
 31
0.000000000000000
  0
LINE
  5
223
100
AcDbEntity
  8
A1
  6
CONTINUOUS
 62
7
100
AcDbLine
 10
180.3526540553802
 20
151.2090032024970
 30
0.000000000000000
 11
180.3526540553802
 21
151.1809419583678
 31
0.000000000000000
  0
LINE
  5
224
100
AcDbEntity
  8
A1
  6
CONTINUOUS
 62
7
100
AcDbLine
 10
182.9526540553802
 20
151.1809419583678
 30
0.000000000000000
 11
180.3526540553802
 21
151.1809419583678
 31
0.000000000000000
  0
LINE
  5
225
100
AcDbEntity
  8
A1
  6
CONTINUOUS
 62
7
100
AcDbLine
 10
182.9526540553802
 20
160.2430880808200
 30
0.000000000000000
 11
182.9526540553802
 21
163.1528824867678
 31
0.000000000000000
  0
LINE
  5
226
100
AcDbEntity
  8
A1
  6
CONTINUOUS
 62
7
100
AcDbLine
 10
182.9526540553802
 20
151.2090032024878
 30
0.000000000000000
 11
182.9526540553802
 21
154.1809474144978
 31
0.000000000000000
  0
LINE
  5
227
100
AcDbEntity
  8
A1
  6
CONTINUOUS
 62
7
100
AcDbLine
 10
180.3526540553802
 20
163.1528824867678
 30
0.000000000000000
 11
182.9526540553802
 21
163.1528824867678
 31
0.000000000000000
  0
LINE
  5
228
100
AcDbEntity
  8
A1
  6
CONTINUOUS
 62
7
100
AcDbLine
 10
180.3526540553802
 20
160.2673481825178
 30
0.000000000000000
 11
180.3526540553802
 21
163.1528824867678
 31
0.000000000000000
  0
LINE
  5
229
100
AcDbEntity
  8
A1
  6
CONTINUOUS
 62
7
100
AcDbLine
 10
180.3526540553802
 20
151.2090032024878
 30
0.000000000000000
 11
180.3526540553802
 21
154.1809474144878
 31
0.000000000000000
  0
LINE
  5
22A
100
AcDbEntity
  8
A1
  6
CONTINUOUS
 62
7
100
AcDbLine
 10
182.9526540553802
 20
151.2090032024878
 30
0.000000000000000
 11
180.3526540553802
 21
151.2090032024878
 31
0.000000000000000
  0
LINE
  5
22B
100
AcDbEntity
  8
A1
  6
CONTINUOUS
 62
7
100
AcDbLine
 10
148.7526540553802
 20
163.1809416662778
 30
0.000000000000000
 11
148.7526540553802
 21
163.1528824867582
 31
0.000000000000000
  0
LINE
  5
22C
100
AcDbEntity
  8
A1
  6
CONTINUOUS
 62
7
100
AcDbLine
 10
146.1526540553802
 20
163.1809416662778
 30
0.000000000000000
 11
148.7526540553802
 21
163.1809431920778
 31
0.000000000000000
  0
LINE
  5
22D
100
AcDbEntity
  8
A1
  6
CONTINUOUS
 62
7
100
AcDbLine
 10
146.1526540553802
 20
163.1528824867582
 30
0.000000000000000
 11
146.1526540553802
 21
163.1809416662778
 31
0.000000000000000
  0
LINE
  5
22E
100
AcDbEntity
  8
A1
  6
CONTINUOUS
 62
7
100
AcDbLine
 10
148.7526540553802
 20
163.1528824867678
 30
0.000000000000000
 11
146.1526540553802
 21
163.1528824867678
 31
0.000000000000000
  0
SPLINE
  5
22F
100
AcDbEntity
  8
A1
  6
CONTINUOUS
 62
7
100
AcDbSpline
210
0.000000000000000
220
0.000000000000000
230
1.000000000000000
 70
     8
 71
     3
 72
    13
 73
     9
 74
     0
 42
1.000000000000000e-07
 43
1.000000000000000e-07
 12
0.9999993754656771
 22
-0.001117617146974226
 32
0.000000000000000
 13
0.9999712447929596
 23
-0.007583507625213315
 33
0.000000000000000
 40
0.000000000000000
 40
0.000000000000000
 40
0.000000000000000
 40
0.000000000000000
 40
0.4967206567350574
 40
0.9825117657242241
 40
1.452104859597592
 40
1.799734757429623
 40
2.127206296984959
 40
2.431970766304854
 40
2.431970766304854
 40
2.431970766304854
 40
2.431970766304854
 10
181.9526540553873
 20
160.2673481825178
 30
0.000000000000000
 10
182.1182275042260
 20
160.2671631346767
 30
0.000000000000000
 10
182.4457456562500
 20
160.2631900612849
 30
0.000000000000000
 10
182.9294919500788
 20
160.2455003678041
 30
0.000000000000000
 10
183.3632382014451
 20
160.2226888169986
 30
0.000000000000000
 10
183.7442101349410
 20
160.2015508602198
 30
0.000000000000000
 10
184.0704659633595
 20
160.1855736403057
 30
0.000000000000000
 10
184.2812099220358
 20
160.1817172748168
 30
0.000000000000000
 10
184.3827951572873
 20
160.1809468802578
 30
0.000000000000000
  0
SPLINE
  5
230
100
AcDbEntity
  8
A1
  6
CONTINUOUS
 62
7
100
AcDbSpline
210
0.000000000000000
220
0.000000000000000
230
1.000000000000000
 70
     8
 71
     3
 72
    11
 73
     7
 74
     0
 42
1.000000000000000e-07
 43
1.000000000000000e-07
 12
-0.9999929428286123
 22
-0.003756899185191287
 32
0.000000000000000
 13
-0.9758943907318098
 23
0.2182433003272308
 33
0.000000000000000
 40
0.000000000000000
 40
0.000000000000000
 40
0.000000000000000
 40
0.000000000000000
 40
0.2236710227353707
 40
0.4353008569664379
 40
0.6258788639726627
 40
0.6942715183201513
 40
0.6942715183201513
 40
0.6942715183201513
 40
0.6942715183201513
 10
179.4026540553873
 20
160.2673481825178
 30
0.000000000000000
 10
179.3280975739704
 20
160.2670680793568
 30
0.000000000000000
 10
179.1829630993422
 20
160.2702970604527
 30
0.000000000000000
 10
178.9747454012407
 20
160.2840052725029
 30
0.000000000000000
 10
178.8189009684081
 20
160.3038037051442
 30
0.000000000000000
 10
178.7343397022819
 20
160.3212888915791
 30
0.000000000000000
 10
178.7120916997002
 20
160.3262643044467
 30
0.000000000000000
  0
SPLINE
  5
231
100
AcDbEntity
  8
A1
  6
CONTINUOUS
 62
7
100
AcDbSpline
210
0.000000000000000
220
0.000000000000000
230
1.000000000000000
 70
     8
 71
     3
 72
    11
 73
     7
 74
     0
 42
1.000000000000000e-07
 43
1.000000000000000e-07
 12
0.9999929428283849
 22
-0.003756899184736540
 32
0.000000000000000
 13
0.9752282050458234
 23
0.2212011484480172
 33
0.000000000000000
 40
0.000000000000000
 40
0.000000000000000
 40
0.000000000000000
 40
0.000000000000000
 40
0.2236710263765725
 40
0.4353008622210970
 40
0.6258788760953612
 40
0.6990452598454708
 40
0.6990452598454708
 40
0.6990452598454708
 40
0.6990452598454708
 10
149.7026540553873
 20
160.2673481825178
 30
0.000000000000000
 10
149.7772105380179
 20
160.2670680793522
 30
0.000000000000000
 10
149.9223453886883
 20
160.2702948182244
 30
0.000000000000000
 10
150.1305615342048
 20
160.2840123595179
 30
0.000000000000000
 10
150.2879909301913
 20
160.3039871253428
 30
0.000000000000000
 10
150.3740831891994
 20
160.3219497996755
 30
0.000000000000000
 10
150.3978678295642
 20
160.3273446290466
 30
0.000000000000000
  0
SPLINE
  5
232
100
AcDbEntity
  8
A1
  6
CONTINUOUS
 62
7
100
AcDbSpline
210
0.000000000000000
220
0.000000000000000
230
1.000000000000000
 70
     8
 71
     3
 72
    13
 73
     9
 74
     0
 42
1.000000000000000e-07
 43
1.000000000000000e-07
 12
-0.9999993754660181
 22
-0.001117617146974226
 32
0.000000000000000
 13
-0.9999712447920501
 23
-0.007583507625213315
 33
0.000000000000000
 40
0.000000000000000
 40
0.000000000000000
 40
0.000000000000000
 40
0.000000000000000
 40
0.4967206567350645
 40
0.9825117657242312
 40
1.452104859597595
 40
1.799734757429625
 40
2.127206296984966
 40
2.431970766304858
 40
2.431970766304858
 40
2.431970766304858
 40
2.431970766304858
 10
147.1526540553873
 20
160.2673481825178
 30
0.000000000000000
 10
146.9870806065486
 20
160.2671631346767
 30
0.000000000000000
 10
146.6595624545245
 20
160.2631900612849
 30
0.000000000000000
 10
146.1758161606957
 20
160.2455003678041
 30
0.000000000000000
 10
145.7420699093295
 20
160.2226888169986
 30
0.000000000000000
 10
145.3610979758336
 20
160.2015508602198
 30
0.000000000000000
 10
145.0348421474150
 20
160.1855736403057
 30
0.000000000000000
 10
144.8240981887387
 20
160.1817172748168
 30
0.000000000000000
 10
144.7225129534873
 20
160.1809468802578
 30
0.000000000000000
  0
SPLINE
  5
233
100
AcDbEntity
  8
A1
  6
CONTINUOUS
 62
7
100
AcDbSpline
210
0.000000000000000
220
0.000000000000000
230
1.000000000000000
 70
     8
 71
     3
 72
    13
 73
     9
 74
     0
 42
1.000000000000000e-07
 43
1.000000000000000e-07
 12
0.9999998788641733
 22
-0.0004922111144196606
 32
0.000000000000000
 13
0.9999937855670851
 23
-0.003525454163991526
 33
0.000000000000000
 40
0.000000000000000
 40
0.000000000000000
 40
0.000000000000000
 40
0.000000000000000
 40
0.4965283120584809
 40
0.9821139450586152
 40
1.451462554759880
 40
1.798833345196356
 40
2.125997554072698
 40
2.430533773469524
 40
2.430533773469524
 40
2.430533773469524
 40
2.430533773469524
 10
181.9526540553873
 20
154.2208001668278
 30
0.000000000000000
 10
182.1181634726910
 20
154.2207187012432
 30
0.000000000000000
 10
182.4455377844452
 20
154.2188957855224
 30
0.000000000000000
 10
182.9292979697234
 20
154.2107824273577
 30
0.000000000000000
 10
183.3632740885856
 20
154.2002711536717
 30
0.000000000000000
 10
183.7444417968887
 20
154.1904961857885
 30
0.000000000000000
 10
184.0707201731036
 20
154.1830913800448
 30
0.000000000000000
 10
184.2812866898950
 20
154.1813052906487
 30
0.000000000000000
 10
184.3827981321873
 20
154.1809474144878
 30
0.000000000000000
  0
SPLINE
  5
234
100
AcDbEntity
  8
A1
  6
CONTINUOUS
 62
7
100
AcDbSpline
210
0.000000000000000
220
0.000000000000000
230
1.000000000000000
 70
     8
 71
     3
 72
    14
 73
    10
 74
     0
 42
1.000000000000000e-07
 43
1.000000000000000e-07
 12
-0.9999986302104844
 22
-0.001655166846830980
 32
0.000000000000000
 13
-0.4152151270882314
 23
0.9097232536514639
 33
0.000000000000000
 40
0.000000000000000
 40
0.000000000000000
 40
0.000000000000000
 40
0.000000000000000
 40
0.2195129940932161
 40
0.4277242739458770
 40
0.6154914107316654
 40
0.7734724713533997
 40
0.9004419420757852
 40
0.9835069822417288
 40
1.029464801659428
 40
1.029464801659428
 40
1.029464801659428
 40
1.029464801659428
 10
179.4026540553873
 20
154.2208001668278
 30
0.000000000000000
 10
179.3294831575851
 20
154.2206790566177
 30
0.000000000000000
 10
179.1869382913475
 20
154.2221430681031
 30
0.000000000000000
 10
178.9817027466294
 20
154.2280209232225
 30
0.000000000000000
 10
178.7977662642577
 20
154.2389981564275
 30
0.000000000000000
 10
178.6396083053805
 20
154.2535981358051
 30
0.000000000000000
 10
178.5220094896320
 20
154.2780281120814
 30
0.000000000000000
 10
178.4334138455816
 20
154.2987190298188
 30
0.000000000000000
 10
178.4090148493307
 20
154.3370106460740
 30
0.000000000000000
 10
178.4026540553873
 20
154.3509469450778
 30
0.000000000000000
  0
SPLINE
  5
235
100
AcDbEntity
  8
A1
  6
CONTINUOUS
 62
7
100
AcDbSpline
210
0.000000000000000
220
0.000000000000000
230
1.000000000000000
 70
     8
 71
     3
 72
    12
 73
     8
 74
     0
 42
1.000000000000000e-07
 43
1.000000000000000e-07
 12
-0.9998550303594129
 22
-0.01702698633289401
 32
0.000000000000000
 13
-0.1467067603089163
 23
0.9891800273344415
 33
0.000000000000000
 40
0.000000000000000
 40
0.000000000000000
 40
0.000000000000000
 40
0.000000000000000
 40
0.1905260830811601
 40
0.3438047912034233
 40
0.4619777743859829
 40
0.5604863403301444
 40
0.6356037261693175
 40
0.6356037261693175
 40
0.6356037261693175
 40
0.6356037261693175
 10
176.3726522942873
 20
154.1809474144878
 30
0.000000000000000
 10
176.3091528067595
 20
154.1798660528169
 30
0.000000000000000
 10
176.1947566247161
 20
154.1836159620295
 30
0.000000000000000
 10
176.0402898448756
 20
154.1970448794222
 30
0.000000000000000
 10
175.9217066555709
 20
154.2243043683868
 30
0.000000000000000
 10
175.8266310576213
 20
154.2669310339142
 30
0.000000000000000
 10
175.8063274648271
 20
154.3261787391519
 30
0.000000000000000
 10
175.8026540553873
 20
154.3509469450778
 30
0.000000000000000
  0
SPLINE
  5
236
100
AcDbEntity
  8
A1
  6
CONTINUOUS
 62
7
100
AcDbSpline
210
0.000000000000000
220
0.000000000000000
230
1.000000000000000
 70
     8
 71
     3
 72
    13
 73
     9
 74
     0
 42
1.000000000000000e-07
 43
1.000000000000000e-07
 12
-0.9999998788640596
 22
-0.0004922111145333474
 32
0.000000000000000
 13
-0.9999937855670851
 23
-0.003525454163991526
 33
0.000000000000000
 40
0.000000000000000
 40
0.000000000000000
 40
0.000000000000000
 40
0.000000000000000
 40
0.4965283120584801
 40
0.9821139450586176
 40
1.451462554759884
 40
1.798833345196359
 40
2.125997554072699
 40
2.430533773469528
 40
2.430533773469528
 40
2.430533773469528
 40
2.430533773469528
 10
147.1526540553873
 20
154.2208001668278
 30
0.000000000000000
 10
146.9871446380836
 20
154.2207187012432
 30
0.000000000000000
 10
146.6597703263294
 20
154.2188957855223
 30
0.000000000000000
 10
146.1760101410512
 20
154.2107824273578
 30
0.000000000000000
 10
145.7420340221890
 20
154.2002711536717
 30
0.000000000000000
 10
145.3608663138859
 20
154.1904961857885
 30
0.000000000000000
 10
145.0345879376709
 20
154.1830913800448
 30
0.000000000000000
 10
144.8240214208796
 20
154.1813052906487
 30
0.000000000000000
 10
144.7225099785873
 20
154.1809474144878
 30
0.000000000000000
  0
SPLINE
  5
237
100
AcDbEntity
  8
A1
  6
CONTINUOUS
 62
7
100
AcDbSpline
210
0.000000000000000
220
0.000000000000000
230
1.000000000000000
 70
     8
 71
     3
 72
    12
 73
     8
 74
     0
 42
1.000000000000000e-07
 43
1.000000000000000e-07
 12
0.9998550303598677
 22
-0.01702698633334876
 32
0.000000000000000
 13
0.1467067603107353
 23
0.9891800273344415
 33
0.000000000000000
 40
0.000000000000000
 40
0.000000000000000
 40
0.000000000000000
 40
0.000000000000000
 40
0.1905260830811552
 40
0.3438047912034219
 40
0.4619777743859763
 40
0.5604863403301437
 40
0.6356037261693167
 40
0.6356037261693167
 40
0.6356037261693167
 40
0.6356037261693167
 10
152.7326558164873
 20
154.1809474144878
 30
0.000000000000000
 10
152.7961553040151
 20
154.1798660528169
 30
0.000000000000000
 10
152.9105514860584
 20
154.1836159620295
 30
0.000000000000000
 10
153.0650182658989
 20
154.1970448794222
 30
0.000000000000000
 10
153.1836014552037
 20
154.2243043683867
 30
0.000000000000000
 10
153.2786770531533
 20
154.2669310339142
 30
0.000000000000000
 10
153.2989806459475
 20
154.3261787391519
 30
0.000000000000000
 10
153.3026540553873
 20
154.3509469450778
 30
0.000000000000000
  0
SPLINE
  5
238
100
AcDbEntity
  8
A1
  6
CONTINUOUS
 62
7
100
AcDbSpline
210
0.000000000000000
220
0.000000000000000
230
1.000000000000000
 70
     8
 71
     3
 72
    14
 73
    10
 74
     0
 42
1.000000000000000e-07
 43
1.000000000000000e-07
 12
0.9999986302102570
 22
-0.001655166846376233
 32
0.000000000000000
 13
0.4152151270955073
 23
0.9097232536514639
 33
0.000000000000000
 40
0.000000000000000
 40
0.000000000000000
 40
0.000000000000000
 40
0.000000000000000
 40
0.2195129940932195
 40
0.4277242739458786
 40
0.6154914107316651
 40
0.7734724713534064
 40
0.9004419420757901
 40
0.9835069822417353
 40
1.029464801659431
 40
1.029464801659431
 40
1.029464801659431
 40
1.029464801659431
 10
149.7026540553873
 20
154.2208001668278
 30
0.000000000000000
 10
149.7758249531895
 20
154.2206790566177
 30
0.000000000000000
 10
149.9183698194271
 20
154.2221430681031
 30
0.000000000000000
 10
150.1236053641452
 20
154.2280209232225
 30
0.000000000000000
 10
150.3075418465168
 20
154.2389981564275
 30
0.000000000000000
 10
150.4656998053941
 20
154.2535981358051
 30
0.000000000000000
 10
150.5832986211426
 20
154.2780281120814
 30
0.000000000000000
 10
150.6718942651930
 20
154.2987190298188
 30
0.000000000000000
 10
150.6962932614438
 20
154.3370106460740
 30
0.000000000000000
 10
150.7026540553873
 20
154.3509469450778
 30
0.000000000000000
  0
ARC
  5
239
100
AcDbEntity
  8
A1
  6
CONTINUOUS
 62
7
100
AcDbCircle
 10
175.0426540553873
 20
159.1592488602478
 30
0.000000000000000
 40
3.860000000000000
100
AcDbArc
 50
0.000000000000000
 51
29.48712567294151
  0
ARC
  5
23A
100
AcDbEntity
  8
A1
  6
CONTINUOUS
 62
7
100
AcDbCircle
 10
175.0426540553873
 20
159.1592488602478
 30
0.000000000000000
 40
3.860000000000000
100
AcDbArc
 50
330.5128743270585
 51
360.0000000000000
  0
ARC
  5
23B
100
AcDbEntity
  8
A1
  6
CONTINUOUS
 62
7
100
AcDbCircle
 10
154.0626540553873
 20
159.1592488602478
 30
0.000000000000000
 40
3.860000000000000
100
AcDbArc
 50
150.5128743270585
 51
209.4871256729415
  0
LINE
  5
23C
100
AcDbEntity
  8
A1
  6
CONTINUOUS
 62
7
100
AcDbLine
 10
143.5526540553873
 20
154.1491015503346
 30
0.000000000000000
 11
143.5526540553873
 21
154.1809474144978
 31
0.000000000000000
  0
LINE
  5
23D
100
AcDbEntity
  8
A1
  6
CONTINUOUS
 62
7
100
AcDbLine
 10
143.5526540553873
 20
151.1809575608778
 30
0.000000000000000
 11
143.5526540553873
 21
152.2211214741457
 31
0.000000000000000
  0
LINE
  5
23E
100
AcDbEntity
  8
A1
  6
CONTINUOUS
 62
7
100
AcDbLine
 10
143.5526540553873
 20
151.1809575608778
 30
0.000000000000000
 11
146.1526540553873
 21
151.1809575608778
 31
0.000000000000000
  0
LINE
  5
23F
100
AcDbEntity
  8
A1
  6
CONTINUOUS
 62
7
100
AcDbLine
 10
185.5526540553873
 20
154.1496824081223
 30
0.000000000000000
 11
185.5526540553873
 21
154.1809474144978
 31
0.000000000000000
  0
LINE
  5
240
100
AcDbEntity
  8
A1
  6
CONTINUOUS
 62
7
100
AcDbLine
 10
185.5526540553873
 20
151.1809575608778
 30
0.000000000000000
 11
185.5526540553873
 21
152.2211214742202
 31
0.000000000000000
  0
LINE
  5
241
100
AcDbEntity
  8
A1
  6
CONTINUOUS
 62
7
100
AcDbLine
 10
185.5526540553873
 20
151.1809575608778
 30
0.000000000000000
 11
182.9526540553873
 21
151.1809575608778
 31
0.000000000000000
  0
LINE
  5
242
100
AcDbEntity
  8
A1
  6
CONTINUOUS
 62
7
100
AcDbLine
 10
185.5526540553873
 20
162.1401138877079
 30
0.000000000000000
 11
185.5526540553873
 21
163.1809581010978
 31
0.000000000000000
  0
LINE
  5
243
100
AcDbEntity
  8
A1
  6
CONTINUOUS
 62
7
100
AcDbLine
 10
185.5526540553873
 20
160.1809468802678
 30
0.000000000000000
 11
185.5526540553873
 21
160.2105370825391
 31
0.000000000000000
  0
LINE
  5
244
100
AcDbEntity
  8
A1
  6
CONTINUOUS
 62
7
100
AcDbLine
 10
185.5526540553873
 20
163.1809596679278
 30
0.000000000000000
 11
182.9526540553873
 21
163.1809596679278
 31
0.000000000000000
  0
LINE
  5
245
100
AcDbEntity
  8
A1
  6
CONTINUOUS
 62
7
100
AcDbLine
 10
185.5526540553873
 20
163.1809581010978
 30
0.000000000000000
 11
182.9526540553873
 21
163.1809581010978
 31
0.000000000000000
  0
LINE
  5
246
100
AcDbEntity
  8
A1
  6
CONTINUOUS
 62
7
100
AcDbLine
 10
143.5526540553873
 20
162.1377915532108
 30
0.000000000000000
 11
143.5526540553873
 21
163.1809581010978
 31
0.000000000000000
  0
LINE
  5
247
100
AcDbEntity
  8
A1
  6
CONTINUOUS
 62
7
100
AcDbLine
 10
143.5526540553873
 20
160.1809468802678
 30
0.000000000000000
 11
143.5526540553873
 21
160.2147441404355
 31
0.000000000000000
  0
LINE
  5
248
100
AcDbEntity
  8
A1
  6
CONTINUOUS
 62
7
100
AcDbLine
 10
143.5526540553873
 20
163.1809596679278
 30
0.000000000000000
 11
146.1526540553873
 21
163.1809596679278
 31
0.000000000000000
  0
LINE
  5
249
100
AcDbEntity
  8
A1
  6
CONTINUOUS
 62
7
100
AcDbLine
 10
143.5526540553873
 20
163.1809581010978
 30
0.000000000000000
 11
146.1526540553873
 21
163.1809581010978
 31
0.000000000000000
  0
LINE
  5
24A
100
AcDbEntity
  8
A1
  6
CONTINUOUS
 62
7
100
AcDbLine
 10
185.5526540553873
 20
160.1809468802684
 30
0.000000000000000
 11
184.3827951572843
 21
160.1809468802684
 31
0.000000000000000
  0
LINE
  5
24B
100
AcDbEntity
  8
A1
  6
CONTINUOUS
 62
7
100
AcDbLine
 10
184.3827981321690
 20
154.1809474144883
 30
0.000000000000000
 11
185.5526540553873
 21
154.1809474144883
 31
0.000000000000000
  0
LINE
  5
24C
100
AcDbEntity
  8
A1
  6
CONTINUOUS
 62
7
100
AcDbLine
 10
185.5526540553873
 20
160.1809468802678
 30
0.000000000000000
 11
185.5526540553873
 21
154.1809474144878
 31
0.000000000000000
  0
LINE
  5
24D
100
AcDbEntity
  8
A1
  6
CONTINUOUS
 62
7
100
AcDbLine
 10
143.5526540553873
 20
160.1809468802683
 30
0.000000000000000
 11
144.7225129534903
 21
160.1809468802683
 31
0.000000000000000
  0
LINE
  5
24E
100
AcDbEntity
  8
A1
  6
CONTINUOUS
 62
7
100
AcDbLine
 10
143.5526540553873
 20
160.1809468802678
 30
0.000000000000000
 11
143.5526540553873
 21
154.1809474144878
 31
0.000000000000000
  0
LINE
  5
24F
100
AcDbEntity
  8
A1
  6
CONTINUOUS
 62
7
100
AcDbLine
 10
144.7225099786056
 20
154.1809474144883
 30
0.000000000000000
 11
143.5526540553873
 21
154.1809474144883
 31
0.000000000000000
  0
LINE
  5
250
100
AcDbEntity
  8
A1
  6
CONTINUOUS
 62
7
100
AcDbLine
 10
181.9526540553873
 20
160.2673481825178
 30
0.000000000000000
 11
179.4026540553873
 21
160.2673481825178
 31
0.000000000000000
  0
LINE
  5
251
100
AcDbEntity
  8
A1
  6
CONTINUOUS
 62
7
100
AcDbLine
 10
147.1526540553873
 20
160.2673481825178
 30
0.000000000000000
 11
149.7026540553873
 21
160.2673481825178
 31
0.000000000000000
  0
LINE
  5
252
100
AcDbEntity
  8
A1
  6
CONTINUOUS
 62
7
100
AcDbLine
 10
178.4026540553873
 20
154.3509469451220
 30
0.000000000000000
 11
178.4026540553873
 21
155.7894359413401
 31
0.000000000000000
  0
LINE
  5
253
100
AcDbEntity
  8
A1
  6
CONTINUOUS
 62
7
100
AcDbLine
 10
175.8026540553873
 20
155.7894359413401
 30
0.000000000000000
 11
175.8026540553873
 21
154.3509469451220
 31
0.000000000000000
  0
LINE
  5
254
100
AcDbEntity
  8
A1
  6
CONTINUOUS
 62
7
100
AcDbLine
 10
181.9526540553873
 20
154.2208001668278
 30
0.000000000000000
 11
179.4026540553873
 21
154.2208001668278
 31
0.000000000000000
  0
LINE
  5
255
100
AcDbEntity
  8
A1
  6
CONTINUOUS
 62
7
100
AcDbLine
 10
184.3827981321873
 20
154.1809474144878
 30
0.000000000000000
 11
176.3726522942873
 21
154.1809474144878
 31
0.000000000000000
  0
LINE
  5
256
100
AcDbEntity
  8
A1
  6
CONTINUOUS
 62
7
100
AcDbLine
 10
150.7026540553873
 20
154.3509469451220
 30
0.000000000000000
 11
150.7026540553873
 21
155.7894359413401
 31
0.000000000000000
  0
LINE
  5
257
100
AcDbEntity
  8
A1
  6
CONTINUOUS
 62
7
100
AcDbLine
 10
153.3026540553873
 20
155.7894359413401
 30
0.000000000000000
 11
153.3026540553873
 21
154.3509469451220
 31
0.000000000000000
  0
LINE
  5
258
100
AcDbEntity
  8
A1
  6
CONTINUOUS
 62
7
100
AcDbLine
 10
144.7225099785873
 20
154.1809474144878
 30
0.000000000000000
 11
152.7326558164873
 21
154.1809474144878
 31
0.000000000000000
  0
LINE
  5
259
100
AcDbEntity
  8
A1
  6
CONTINUOUS
 62
7
100
AcDbLine
 10
147.1526540553873
 20
154.2208001668278
 30
0.000000000000000
 11
149.7026540553873
 21
154.2208001668278
 31
0.000000000000000
  0
LINE
  5
25A
100
AcDbEntity
  8
A1
  6
CONTINUOUS
 62
7
100
AcDbLine
 10
153.3026540553873
 20
157.1592488602478
 30
0.000000000000000
 11
175.8026540553873
 21
157.1592488602478
 31
0.000000000000000
  0
LINE
  5
25B
100
AcDbEntity
  8
A1
  6
CONTINUOUS
 62
7
100
AcDbLine
 10
175.8026540553873
 20
161.1592488602478
 30
0.000000000000000
 11
153.3026540553873
 21
161.1592488602478
 31
0.000000000000000
  0
LINE
  5
25C
100
AcDbEntity
  8
A1
  6
CONTINUOUS
 62
7
100
AcDbLine
 10
150.7026540553873
 20
155.7894359412978
 30
0.000000000000000
 11
150.7026540553873
 21
158.3492521056918
 31
0.000000000000000
  0
LINE
  5
25D
100
AcDbEntity
  8
A1
  6
CONTINUOUS
 62
7
100
AcDbLine
 10
153.3026540553873
 20
158.3492521056918
 30
0.000000000000000
 11
153.3026540553873
 21
155.7894359412978
 31
0.000000000000000
  0
LINE
  5
25E
100
AcDbEntity
  8
A1
  6
CONTINUOUS
 62
7
100
AcDbLine
 10
178.4026540553873
 20
155.7894359412978
 30
0.000000000000000
 11
178.4026540553873
 21
158.3492521056918
 31
0.000000000000000
  0
LINE
  5
25F
100
AcDbEntity
  8
A1
  6
CONTINUOUS
 62
7
100
AcDbLine
 10
175.8026540553873
 20
158.3492521056918
 30
0.000000000000000
 11
175.8026540553873
 21
155.7894359412978
 31
0.000000000000000
  0
LINE
  5
260
100
AcDbEntity
  8
A1
  6
CONTINUOUS
 62
7
100
AcDbLine
 10
150.7026540553873
 20
158.3492521056937
 30
0.000000000000000
 11
150.7026540553873
 21
163.9184051996078
 31
0.000000000000000
  0
LINE
  5
261
100
AcDbEntity
  8
A1
  6
CONTINUOUS
 62
7
100
AcDbLine
 10
153.3026540553873
 20
163.9184051996078
 30
0.000000000000000
 11
150.7026540553873
 21
163.9184051996078
 31
0.000000000000000
  0
LINE
  5
262
100
AcDbEntity
  8
A1
  6
CONTINUOUS
 62
7
100
AcDbLine
 10
153.3026540553873
 20
163.9184051996078
 30
0.000000000000000
 11
153.3026540553873
 21
158.3492521056937
 31
0.000000000000000
  0
LINE
  5
263
100
AcDbEntity
  8
A1
  6
CONTINUOUS
 62
7
100
AcDbLine
 10
178.4026540553872
 20
158.3492521056937
 30
0.000000000000000
 11
178.4026540553872
 21
163.9184051996078
 31
0.000000000000000
  0
LINE
  5
264
100
AcDbEntity
  8
A1
  6
CONTINUOUS
 62
7
100
AcDbLine
 10
178.4026540553873
 20
163.9184051996078
 30
0.000000000000000
 11
175.8026540553873
 21
163.9184051996078
 31
0.000000000000000
  0
LINE
  5
265
100
AcDbEntity
  8
A1
  6
CONTINUOUS
 62
7
100
AcDbLine
 10
175.8026540553873
 20
163.9184051996078
 30
0.000000000000000
 11
175.8026540553873
 21
158.3492521056937
 31
0.000000000000000
  0
ARC
  5
266
100
AcDbEntity
  8
A1
  6
CONTINUOUS
 62
7
100
AcDbCircle
 10
182.9526540553161
 20
157.1809605547386
 30
0.000000000000000
 40
5.600000330804253
100
AcDbArc
 50
270.0000000007278
 51
359.9999999999928
  0
ARC
  5
267
100
AcDbEntity
  8
A1
  6
CONTINUOUS
 62
7
100
AcDbCircle
 10
182.9526540553161
 20
157.1809605547386
 30
0.000000000000000
 40
5.600000330804253
100
AcDbArc
 50
212.3925225560280
 51
242.3359972787866
  0
ARC
  5
268
100
AcDbEntity
  8
A1
  6
CONTINUOUS
 62
7
100
AcDbCircle
 10
182.9526540553161
 20
157.1809605547386
 30
0.000000000000000
 40
4.000000330804726
100
AcDbArc
 50
228.5906570808431
 51
229.4584021806561
  0
ARC
  5
269
100
AcDbEntity
  8
A1
  6
CONTINUOUS
 62
7
100
AcDbCircle
 10
182.9526540553161
 20
157.1809605547386
 30
0.000000000000000
 40
4.000000330804726
100
AcDbArc
 50
270.0000000010190
 51
359.9999999999928
  0
ARC
  5
26A
100
AcDbEntity
  8
A1
  6
CONTINUOUS
 62
7
100
AcDbCircle
 10
182.9526540553769
 20
157.1809605547376
 30
0.000000000000000
 40
4.000000330739705
100
AcDbArc
 50
359.8696824830870
 51
409.0538890333298
  0
ARC
  5
26B
100
AcDbEntity
  8
A1
  6
CONTINUOUS
 62
7
100
AcDbCircle
 10
182.9526540553817
 20
157.1809605547411
 30
0.000000000000000
 40
4.000000330733901
100
AcDbArc
 50
49.05388903334894
 51
90.00465669978358
  0
ARC
  5
26C
100
AcDbEntity
  8
A1
  6
CONTINUOUS
 62
7
100
AcDbCircle
 10
182.9526540553859
 20
157.1809605547294
 30
0.000000000000000
 40
5.600000330746182
100
AcDbArc
 50
117.6705049338928
 51
141.2961980273753
  0
ARC
  5
26D
100
AcDbEntity
  8
A1
  6
CONTINUOUS
 62
7
100
AcDbCircle
 10
182.9526540553795
 20
157.1809605547400
 30
0.000000000000000
 40
5.600000330735546
100
AcDbArc
 50
355.9822220243916
 51
449.9620609786665
  0
LINE
  5
26E
100
AcDbEntity
  8
A1
  6
CONTINUOUS
 62
7
100
AcDbLine
 10
187.7526543861202
 20
157.1809605547378
 30
0.000000000000000
 11
188.5526543861202
 21
157.1809605547378
 31
0.000000000000000
  0
LINE
  5
26F
100
AcDbEntity
  8
A1
  6
CONTINUOUS
 62
7
100
AcDbLine
 10
186.9526543861203
 20
157.1809605547378
 30
0.000000000000000
 11
187.7526543861202
 21
157.1809605547378
 31
0.000000000000000
  0
SPLINE
  5
270
100
AcDbEntity
  8
A1
  6
CONTINUOUS
 62
7
100
AcDbSpline
210
0.000000000000000
220
0.000000000000000
230
1.000000000000000
 70
     8
 71
     3
 72
    17
 73
    13
 74
     0
 42
1.000000000000000e-07
 43
1.000000000000000e-07
 12
0.9999995643213424
 22
0.0009334653400401294
 32
0.000000000000000
 13
0.0009398777619935572
 23
0.9999995583150394
 33
0.000000000000000
 40
0.000000000000000
 40
0.000000000000000
 40
0.000000000000000
 40
0.000000000000000
 40
0.3086707750158092
 40
0.6179238974023576
 40
0.9315127441584247
 40
1.254649151016058
 40
1.592671295019114
 40
1.868789782758842
 40
2.157407278806957
 40
2.463910553899467
 40
2.789611838240451
 40
3.138425704626713
 40
3.138425704626713
 40
3.138425704626713
 40
3.138425704626713
 10
173.5526540553802
 20
148.5809564892178
 30
0.000000000000000
 10
173.6555442688917
 20
148.5810525337078
 30
0.000000000000000
 10
173.8618784723259
 20
148.5968620665343
 30
0.000000000000000
 10
174.1651926122597
 20
148.6686160870705
 30
0.000000000000000
 10
174.4584370302650
 20
148.7880616510041
 30
0.000000000000000
 10
174.7370523786396
 20
148.9579645202153
 30
0.000000000000000
 10
174.9746253943781
 20
149.1632034186239
 30
0.000000000000000
 10
175.1703719409908
 20
149.3929837725277
 30
0.000000000000000
 10
175.3256000640110
 20
149.6396483277247
 30
0.000000000000000
 10
175.4496636487993
 20
149.9216948191331
 30
0.000000000000000
 10
175.5330871192998
 20
150.2393262468672
 30
0.000000000000000
 10
175.5525447745815
 20
150.4646852517777
 30
0.000000000000000
 10
175.5526540553802
 20
150.5809564892178
 30
0.000000000000000
  0
SPLINE
  5
271
100
AcDbEntity
  8
A1
  6
CONTINUOUS
 62
7
100
AcDbSpline
210
0.000000000000000
220
0.000000000000000
230
1.000000000000000
 70
     8
 71
     3
 72
    18
 73
    14
 74
     0
 42
1.000000000000000e-07
 43
1.000000000000000e-07
 12
0.0005483861239099497
 22
-0.9999998496366516
 32
0.000000000000000
 13
0.9999996020437720
 23
-0.0008921397406993492
 33
0.000000000000000
 40
0.000000000000000
 40
0.000000000000000
 40
0.000000000000000
 40
0.000000000000000
 40
0.3182775381451487
 40
0.6167960463001092
 40
0.8996633147616888
 40
1.166591387773725
 40
1.421788927297616
 40
1.668473462071843
 40
1.907788093088139
 40
2.224398504470832
 40
2.532097671058112
 40
2.835787168170970
 40
3.138952943599462
 40
3.138952943599462
 40
3.138952943599462
 40
3.138952943599462
 10
153.5526540553802
 20
150.5809564892178
 30
0.000000000000000
 10
153.5527122350420
 20
150.4748639924552
 30
0.000000000000000
 10
153.5689453230572
 20
150.2688649071001
 30
0.000000000000000
 10
153.6389326914276
 20
149.9761584672713
 30
0.000000000000000
 10
153.7440313793028
 20
149.7126278560274
 30
0.000000000000000
 10
153.8768307339820
 20
149.4785578413139
 30
0.000000000000000
 10
154.0317644444840
 20
149.2735223330701
 30
0.000000000000000
 10
154.2050797156556
 20
149.0965579484266
 30
0.000000000000000
 10
154.4140676216417
 20
148.9285960128735
 30
0.000000000000000
 10
154.6625217400194
 20
148.7806508057777
 30
0.000000000000000
 10
154.9509215934480
 20
148.6654873743368
 30
0.000000000000000
 10
155.2489757205386
 20
148.5963008186489
 30
0.000000000000000
 10
155.4515988371196
 20
148.5810466446299
 30
0.000000000000000
 10
155.5526540553802
 20
148.5809564892178
 30
0.000000000000000
  0
LINE
  5
272
100
AcDbEntity
  8
A1
  6
CONTINUOUS
 62
7
100
AcDbLine
 10
155.5526540553802
 20
155.7809598922278
 30
0.000000000000000
 11
155.5526540553802
 21
157.1592488602478
 31
0.000000000000000
  0
LINE
  5
273
100
AcDbEntity
  8
A1
  6
CONTINUOUS
 62
7
100
AcDbLine
 10
153.5526540553802
 20
155.7809598922278
 30
0.000000000000000
 11
153.5526540553802
 21
157.1592488602478
 31
0.000000000000000
  0
LINE
  5
274
100
AcDbEntity
  8
A1
  6
CONTINUOUS
 62
7
100
AcDbLine
 10
175.5526540553802
 20
155.7809598922278
 30
0.000000000000000
 11
175.5526540553802
 21
157.1592488602478
 31
0.000000000000000
  0
LINE
  5
275
100
AcDbEntity
  8
A1
  6
CONTINUOUS
 62
7
100
AcDbLine
 10
173.5526540553802
 20
155.7809598922278
 30
0.000000000000000
 11
173.5526540553802
 21
157.1592488602478
 31
0.000000000000000
  0
LINE
  5
276
100
AcDbEntity
  8
A1
  6
CONTINUOUS
 62
7
100
AcDbLine
 10
155.5526540553802
 20
161.1592488602478
 30
0.000000000000000
 11
155.5526540553802
 21
164.1809598003678
 31
0.000000000000000
  0
LINE
  5
277
100
AcDbEntity
  8
A1
  6
CONTINUOUS
 62
7
100
AcDbLine
 10
153.5526540553802
 20
161.1592488602478
 30
0.000000000000000
 11
153.5526540553802
 21
164.1809598003678
 31
0.000000000000000
  0
LINE
  5
278
100
AcDbEntity
  8
A1
  6
CONTINUOUS
 62
7
100
AcDbLine
 10
155.5526540553802
 20
164.1809598003678
 30
0.000000000000000
 11
153.5526540553802
 21
164.1809598003678
 31
0.000000000000000
  0
LINE
  5
279
100
AcDbEntity
  8
A1
  6
CONTINUOUS
 62
7
100
AcDbLine
 10
175.5526540553802
 20
161.1592488602478
 30
0.000000000000000
 11
175.5526540553802
 21
164.1809598003678
 31
0.000000000000000
  0
LINE
  5
27A
100
AcDbEntity
  8
A1
  6
CONTINUOUS
 62
7
100
AcDbLine
 10
173.5526540553802
 20
161.1592488602478
 30
0.000000000000000
 11
173.5526540553802
 21
164.1809598003678
 31
0.000000000000000
  0
LINE
  5
27B
100
AcDbEntity
  8
A1
  6
CONTINUOUS
 62
7
100
AcDbLine
 10
173.5526540553802
 20
164.1809598003678
 30
0.000000000000000
 11
175.5526540553802
 21
164.1809598003678
 31
0.000000000000000
  0
LINE
  5
27C
100
AcDbEntity
  8
A1
  6
CONTINUOUS
 62
7
100
AcDbLine
 10
153.5526540553802
 20
150.5809564892171
 30
0.000000000000000
 11
153.5526540553802
 21
151.7110900075007
 31
0.000000000000000
  0
LINE
  5
27D
100
AcDbEntity
  8
A1
  6
CONTINUOUS
 62
7
100
AcDbLine
 10
175.5526540553802
 20
150.5809564892171
 30
0.000000000000000
 11
175.5526540553802
 21
151.7110900075007
 31
0.000000000000000
  0
LINE
  5
27E
100
AcDbEntity
  8
A1
  6
CONTINUOUS
 62
7
100
AcDbLine
 10
173.5526540553802
 20
148.5809564892178
 30
0.000000000000000
 11
155.5526540553802
 21
148.5809564892178
 31
0.000000000000000
  0
LINE
  5
27F
100
AcDbEntity
  8
A1
  6
CONTINUOUS
 62
7
100
AcDbLine
 10
153.5526540553802
 20
151.7110900074993
 30
0.000000000000000
 11
153.5526540553802
 21
155.5156553679378
 31
0.000000000000000
  0
LINE
  5
280
100
AcDbEntity
  8
A1
  6
CONTINUOUS
 62
7
100
AcDbLine
 10
175.5526540553802
 20
151.7110900074993
 30
0.000000000000000
 11
175.5526540553802
 21
155.5156553679378
 31
0.000000000000000
  0
LINE
  5
281
100
AcDbEntity
  8
A1
  6
CONTINUOUS
 62
7
100
AcDbLine
 10
175.5526540553802
 20
155.5156553679378
 30
0.000000000000000
 11
153.5526540553802
 21
155.5156553679378
 31
0.000000000000000
  0
LINE
  5
282
100
AcDbEntity
  8
A1
  6
CONTINUOUS
 62
7
100
AcDbLine
 10
175.5526540553802
 20
164.3809598003278
 30
0.000000000000000
 11
173.0526540553802
 21
164.3809598003278
 31
0.000000000000000
  0
LINE
  5
283
100
AcDbEntity
  8
A1
  6
CONTINUOUS
 62
7
100
AcDbLine
 10
175.5526540553802
 20
164.3809598003278
 30
0.000000000000000
 11
175.5526540553802
 21
164.1809598003678
 31
0.000000000000000
  0
LINE
  5
284
100
AcDbEntity
  8
A1
  6
CONTINUOUS
 62
7
100
AcDbLine
 10
173.5526540553802
 20
161.1809598003578
 30
0.000000000000000
 11
173.0526540553802
 21
161.1809598003578
 31
0.000000000000000
  0
LINE
  5
285
100
AcDbEntity
  8
A1
  6
CONTINUOUS
 62
7
100
AcDbLine
 10
155.5526540553802
 20
161.1809598003578
 30
0.000000000000000
 11
156.0526540553802
 21
161.1809598003578
 31
0.000000000000000
  0
LINE
  5
286
100
AcDbEntity
  8
A1
  6
CONTINUOUS
 62
7
100
AcDbLine
 10
156.0526540553802
 20
164.3809598003278
 30
0.000000000000000
 11
153.5526540553802
 21
164.3809598003278
 31
0.000000000000000
  0
LINE
  5
287
100
AcDbEntity
  8
A1
  6
CONTINUOUS
 62
7
100
AcDbLine
 10
153.5526540553802
 20
164.3809598003278
 30
0.000000000000000
 11
153.5526540553802
 21
164.1809598003678
 31
0.000000000000000
  0
LINE
  5
288
100
AcDbEntity
  8
A1
  6
CONTINUOUS
 62
7
100
AcDbLine
 10
156.0526540553802
 20
164.3809598003578
 30
0.000000000000000
 11
156.0526540553802
 21
162.3995350687949
 31
0.000000000000000
  0
LINE
  5
289
100
AcDbEntity
  8
A1
  6
CONTINUOUS
 62
7
100
AcDbLine
 10
173.0526540553802
 20
162.3995350687949
 30
0.000000000000000
 11
173.0526540553802
 21
164.3809598003578
 31
0.000000000000000
  0
LINE
  5
28A
100
AcDbEntity
  8
A1
  6
CONTINUOUS
 62
7
100
AcDbLine
 10
173.0526540553802
 20
164.3809598003278
 30
0.000000000000000
 11
156.0526540553802
 21
164.3809598003278
 31
0.000000000000000
  0
LINE
  5
28B
100
AcDbEntity
  8
A1
  6
CONTINUOUS
 62
7
100
AcDbLine
 10
156.0526540553802
 20
157.1592488602478
 30
0.000000000000000
 11
156.0526540553802
 21
155.7809598922278
 31
0.000000000000000
  0
LINE
  5
28C
100
AcDbEntity
  8
A1
  6
CONTINUOUS
 62
7
100
AcDbLine
 10
156.0526540553802
 20
162.3995350687778
 30
0.000000000000000
 11
156.0526540553802
 21
161.1592488602478
 31
0.000000000000000
  0
LINE
  5
28D
100
AcDbEntity
  8
A1
  6
CONTINUOUS
 62
7
100
AcDbLine
 10
173.0526540553802
 20
161.1592488602478
 30
0.000000000000000
 11
173.0526540553802
 21
162.3995350687778
 31
0.000000000000000
  0
LINE
  5
28E
100
AcDbEntity
  8
A1
  6
CONTINUOUS
 62
7
100
AcDbLine
 10
173.0526540553802
 20
155.7809598922278
 30
0.000000000000000
 11
173.0526540553802
 21
157.1592488602478
 31
0.000000000000000
  0
LINE
  5
28F
100
AcDbEntity
  8
A1
  6
CONTINUOUS
 62
7
100
AcDbLine
 10
173.0526540553802
 20
162.3995350687778
 30
0.000000000000000
 11
156.0526540553802
 21
162.3995350687778
 31
0.000000000000000
  0
LINE
  5
290
100
AcDbEntity
  8
A1
  6
CONTINUOUS
 62
7
100
AcDbLine
 10
153.5526540553802
 20
155.5156553679378
 30
0.000000000000000
 11
153.5526540553802
 21
155.7809598922278
 31
0.000000000000000
  0
LINE
  5
291
100
AcDbEntity
  8
A1
  6
CONTINUOUS
 62
7
100
AcDbLine
 10
175.5526540553802
 20
155.5156553679378
 30
0.000000000000000
 11
175.5526540553802
 21
155.7809598922278
 31
0.000000000000000
  0
LINE
  5
292
100
AcDbEntity
  8
A1
  6
CONTINUOUS
 62
7
100
AcDbLine
 10
175.5526540553802
 20
155.7809598922278
 30
0.000000000000000
 11
153.5526540553802
 21
155.7809598922278
 31
0.000000000000000
  0
LINE
  5
293
100
AcDbEntity
  8
A1
  6
CONTINUOUS
 62
7
100
AcDbLine
 10
135.1656675682182
 20
164.3809598003278
 30
0.000000000000000
 11
98.16566756821820
 21
164.3809598003277
 31
0.000000000000000
  0
LINE
  5
294
100
AcDbEntity
  8
A1
  6
CONTINUOUS
 62
7
100
AcDbLine
 10
135.1656675682182
 20
162.3809598003278
 30
0.000000000000000
 11
98.16566756821820
 21
162.3809598003277
 31
0.000000000000000
  0
LINE
  5
295
100
AcDbEntity
  8
A1
  6
CONTINUOUS
 62
7
100
AcDbLine
 10
135.1656675682182
 20
164.3809598003278
 30
0.000000000000000
 11
135.1656675682182
 21
162.3809598003278
 31
0.000000000000000
  0
LINE
  5
296
100
AcDbEntity
  8
A1
  6
CONTINUOUS
 62
7
100
AcDbLine
 10
98.16566756821820
 20
164.3809598003277
 30
0.000000000000000
 11
98.16566756821820
 21
162.3809598003277
 31
0.000000000000000
  0
LINE
  5
297
100
AcDbEntity
  8
A1
  6
CONTINUOUS
 62
7
100
AcDbLine
 10
127.1656675682181
 20
151.5809598003277
 30
0.000000000000000
 11
106.1656675682182
 21
151.5809598003277
 31
0.000000000000000
  0
LINE
  5
298
100
AcDbEntity
  8
A1
  6
CONTINUOUS
 62
7
100
AcDbLine
 10
106.1656675682182
 20
151.5809598003277
 30
0.000000000000000
 11
106.1656675682170
 21
162.3809598003281
 31
0.000000000000000
  0
LINE
  5
299
100
AcDbEntity
  8
A1
  6
CONTINUOUS
 62
7
100
AcDbLine
 10
127.1656675682181
 20
151.5809598003277
 30
0.000000000000000
 11
127.1656675682170
 21
162.3809598003281
 31
0.000000000000000
  0
LINE
  5
29A
100
AcDbEntity
  8
A1
  6
CONTINUOUS
 62
7
100
AcDbLine
 10
127.1656675682181
 20
153.4409598003278
 30
0.000000000000000
 11
106.1656675682181
 21
153.4409598003277
 31
0.000000000000000
  0
LINE
  5
29B
100
AcDbEntity
  8
A4
  6
CENTER
 62
1
100
AcDbLine
 10
104.1656675682182
 20
166.2135855203691
 30
0.000000000000000
 11
104.1656675682182
 21
160.0992862163330
 31
0.000000000000000
  0
LINE
  5
29C
100
AcDbEntity
  8
A4
  6
CENTER
 62
1
100
AcDbLine
 10
129.1656675682182
 20
166.2135855203691
 30
0.000000000000000
 11
129.1656675682182
 21
160.0992862163330
 31
0.000000000000000
  0
LINE
  5
29D
100
AcDbEntity
  8
A4
  6
CENTER
 62
1
100
AcDbLine
 10
164.5526540553802
 20
146.5661761300124
 30
0.000000000000000
 11
164.5526540553802
 21
165.6809598003678
 31
0.000000000000000
  0
ENDSEC
  0
SECTION
  2
OBJECTS
  0
DICTIONARY
  5
2D9
100
AcDbDictionary
  3
ACAD_GROUP
350
2DA
  3
ACAD_LAYOUT
350
2DB
  3
ACAD_MLINESTYLE
350
2DC
  0
DICTIONARY
  5
2DA
102
{ACAD_REACTORS
330
2D9
102
}
330
2D9
100
AcDbDictionary
  0
DICTIONARY
  5
2DB
102
{ACAD_REACTORS
330
2D9
102
}
330
2D9
100
AcDbDictionary
  3
Model
350
2DD
  3
ﾚｲｱｳﾄ1
350
2DE
  3
ﾚｲｱｳﾄ2
350
2DF
  0
DICTIONARY
  5
2DC
102
{ACAD_REACTORS
330
2D9
102
}
330
2D9
100
AcDbDictionary
  3
STANDARD
350
2E0
  0
LAYOUT
  5
2DD
102
{ACAD_REACTORS
330
2DB
102
}
330
2DB
100
AcDbPlotSettings
 70
11952
  4
A3
 44
297.000000
 45
420.000000
 73
  1
 72
  1
100
AcDbLayout
  1
Model
 71
0
330
2D0
  0
LAYOUT
  5
2DE
102
{ACAD_REACTORS
330
2DB
102
}
330
2DB
100
AcDbPlotSettings
100
AcDbLayout
  1
ﾚｲｱｳﾄ1
 71
1
330
2D1
  0
LAYOUT
  5
2DF
102
{ACAD_REACTORS
330
2DB
102
}
330
2DB
100
AcDbPlotSettings
100
AcDbLayout
  1
ﾚｲｱｳﾄ2
 71
2
330
2D2
  0
MLINESTYLE
  5
2E0
102
{ACAD_REACTORS
330
2DC
102
}
330
2DC
100
AcDbMlineStyle
  2
STANDARD
 70
     0
  3

 62
   256
 51
90.00
 52
90.00
 71
     2
 49
0.50
 62
   256
  6
BYLAYER
 49
-0.50
 62
   256
  6
BYLAYER
  0
ENDSEC
  0
EOF
