  0
SECTION
  2
HEADER
  9
$ACADVER
  1
AC1014
  9
$DWGCODEPAGE
  3
ANSI_932
  9
$LTSCALE
 40
20.0
  9
$FILLMODE
 70
     1
  9
$CLAYER
  8
0
  9
$PDMODE
 70
     0
  9
$SPLFRAME
 70
     0
  9
$SPLINETYPE
 70
     6
  9
$SPLINESEGS
 70
     8
  9
$DIMASZ
 40
2.000000
  9
$DIMEXE
 40
1.500000
  9
$DIMEXO
 40
0.800000
  9
$DIMTAD
 70
     1
  9
$DIMTIH
 70
     0
  9
$DIMTOH
 70
     0
  9
$DIMTVP
 40
0.500000
  9
$DIMTXT
 40
3.100000
  9
$EXTMIN
 10
0.000000
 20
0.000000
 30
0.000000
  9
$EXTMAX
 10
297.000000
 20
420.000000
 30
0.000000
  9
$MEASUREMENT
 70
  1
  9
$LIMMIN
 10
0.000000
 20
0.000000
  9
$LIMMAX
 10
297.000000
 20
420.000000
  9
$HANDLING
 70
     1
  9
$HANDSEED
  5
3CB
  9
$DIMBLK
  1
_OPEN
  9
$DIMDEC
 70
     2
  9
$DIMAUNIT
 70
     0
  9
$DIMZIN
 70
     8
  9
$DIMTOFL
 70
     1
  0
ENDSEC
  0
SECTION
  2
CLASSES
  0
ENDSEC
  0
SECTION
  2
TABLES
  0
TABLE
  2
VPORT
  5
39A
100
AcDbSymbolTable
 70
     1
  0
VPORT
  5
39B
100
AcDbSymbolTableRecord
100
AcDbViewportTableRecord
  2
*ACTIVE
 70
     0
 12
154.421585
 22
84.661176
 40
137.572002
 41
2.099578
  0
ENDTAB
  0
TABLE
  2
LTYPE
  5
39C
100
AcDbSymbolTable
 70
     3
  0
LTYPE
  5
39D
100
AcDbSymbolTableRecord
100
AcDbLinetypeTableRecord
  2
BYBLOCK
 70
     0
  3

 72
    65
 73
     0
 40
0.0
  0
LTYPE
  5
39E
100
AcDbSymbolTableRecord
100
AcDbLinetypeTableRecord
  2
BYLAYER
 70
     0
  3

 72
    65
 73
     0
 40
0.0
  0
LTYPE
  5
39F
100
AcDbSymbolTableRecord
100
AcDbLinetypeTableRecord
  2
CONTINUOUS
 70
     0
  3
Solid line (NEC CAE2D for Win R18.0 : 2025.05.19)
 72
    65
 73
     0
 40
0.0
  0
LTYPE
  5
3A0
100
AcDbSymbolTableRecord
100
AcDbLinetypeTableRecord
  2
DASHED
 70
     0
  3
__ __ __ __ __ __ __ __ __ __ __ __ __ _
 72
    65
 73
     2
 40
0.75
 49
0.5
 74
     0
 49
-0.25
 74
     0
  0
LTYPE
  5
3A1
100
AcDbSymbolTableRecord
100
AcDbLinetypeTableRecord
  2
CENTER
 70
     0
  3
____ _ ____ _ ____ _ ____ _ ____ _ ____
 72
    65
 73
     4
 40
2.0
 49
1.25
 74
     0
 49
-0.25
 74
     0
 49
0.25
 74
     0
 49
-0.25
 74
     0
  0
ENDTAB
  0
TABLE
  2
LAYER
  5
3A2
100
AcDbSymbolTable
 70
    17
  0
LAYER
  5
3A3
100
AcDbSymbolTableRecord
100
AcDbLayerTableRecord
  2
0
 70
     0
 62
     7
  6
CONTINUOUS
  0
LAYER
  5
3A4
100
AcDbSymbolTableRecord
100
AcDbLayerTableRecord
  2
A0
 70
     0
 62
     9
  6
CONTINUOUS
  0
LAYER
  5
3A5
100
AcDbSymbolTableRecord
100
AcDbLayerTableRecord
  2
A1
 70
     0
 62
     1
  6
CONTINUOUS
  0
LAYER
  5
3A6
100
AcDbSymbolTableRecord
100
AcDbLayerTableRecord
  2
A2
 70
     0
 62
     9
  6
CONTINUOUS
  0
LAYER
  5
3A7
100
AcDbSymbolTableRecord
100
AcDbLayerTableRecord
  2
A3
 70
     0
 62
    12
  6
CONTINUOUS
  0
LAYER
  5
3A8
100
AcDbSymbolTableRecord
100
AcDbLayerTableRecord
  2
A4
 70
     0
 62
     9
  6
CONTINUOUS
  0
LAYER
  5
3A9
100
AcDbSymbolTableRecord
100
AcDbLayerTableRecord
  2
A5
 70
     0
 62
     8
  6
CONTINUOUS
  0
LAYER
  5
3AA
100
AcDbSymbolTableRecord
100
AcDbLayerTableRecord
  2
A6
 70
     0
 62
    12
  6
CONTINUOUS
  0
LAYER
  5
3AB
100
AcDbSymbolTableRecord
100
AcDbLayerTableRecord
  2
A7
 70
     0
 62
    12
  6
CONTINUOUS
  0
LAYER
  5
3AC
100
AcDbSymbolTableRecord
100
AcDbLayerTableRecord
  2
A8
 70
     0
 62
    10
  6
CONTINUOUS
  0
LAYER
  5
3AD
100
AcDbSymbolTableRecord
100
AcDbLayerTableRecord
  2
A9
 70
     0
 62
     9
  6
CONTINUOUS
  0
LAYER
  5
3AE
100
AcDbSymbolTableRecord
100
AcDbLayerTableRecord
  2
A10
 70
     0
 62
     6
  6
CONTINUOUS
  0
LAYER
  5
3AF
100
AcDbSymbolTableRecord
100
AcDbLayerTableRecord
  2
A20
 70
     0
 62
     1
  6
CONTINUOUS
  0
LAYER
  5
3B0
100
AcDbSymbolTableRecord
100
AcDbLayerTableRecord
  2
A30
 70
     0
 62
     1
  6
CONTINUOUS
  0
LAYER
  5
3B1
100
AcDbSymbolTableRecord
100
AcDbLayerTableRecord
  2
A40
 70
     0
 62
     9
  6
CONTINUOUS
  0
LAYER
  5
3B2
100
AcDbSymbolTableRecord
100
AcDbLayerTableRecord
  2
A50
 70
     0
 62
    12
  6
CONTINUOUS
  0
LAYER
  5
3B3
100
AcDbSymbolTableRecord
100
AcDbLayerTableRecord
  2
A1023
 70
     0
 62
    16
  6
CONTINUOUS
  0
ENDTAB
  0
TABLE
  2
STYLE
  5
3B4
100
AcDbSymbolTable
 70
     4
  0
STYLE
  5
3B5
100
AcDbSymbolTableRecord
100
AcDbTextStyleTableRecord
  2
STANDARD
 70
    64
 40
0.0
 41
1.0
 50
0.0
 71
     0
 42
3.000000000000000
  3
TXT
  4

  0
STYLE
  5
3B6
100
AcDbSymbolTableRecord
100
AcDbTextStyleTableRecord
  2
ANKTATE
 70
    68
 40
0.0
 41
1.0
 50
0.0
 71
     0
 42
3.000000000000000
  3
TXT
  4

  0
STYLE
  5
3B7
100
AcDbSymbolTableRecord
100
AcDbTextStyleTableRecord
  2
KNJYOKO
 70
    64
 40
0.0
 41
1.0
 50
0.0
 71
     0
 42
3.000000000000000
  3
TXT
  4
BIGFONT
  0
STYLE
  5
3B8
100
AcDbSymbolTableRecord
100
AcDbTextStyleTableRecord
  2
KNJTATE
 70
    68
 40
0.0
 41
1.0
 50
0.0
 71
     0
 42
3.000000000000000
  3
TXT
  4
BIGFONT
  0
ENDTAB
  0
TABLE
  2
VIEW
  5
3B9
100
AcDbSymbolTable
 70
     0
  0
ENDTAB
  0
TABLE
  2
UCS
  5
3BA
100
AcDbSymbolTable
 70
     0
  0
ENDTAB
  0
TABLE
  2
APPID
  5
3BB
100
AcDbSymbolTable
 70
     1
  0
APPID
  5
3BC
100
AcDbSymbolTableRecord
100
AcDbRegAppTableRecord
  2
ACAD
 70
     0
  0
ENDTAB
  0
TABLE
  2
DIMSTYLE
  5
3BD
100
AcDbSymbolTable
 70
     2
  0
DIMSTYLE
105
3BE
100
AcDbSymbolTableRecord
100
AcDbDimStyleTableRecord
  2
STANDARD
 70
     0
 41
2.000000
 44
1.500000
 42
0.800000
145
0.661290
140
3.100000
144
1.000000
146
0.645161
340
3B5
  0
DIMSTYLE
105
3BF
100
AcDbSymbolTableRecord
100
AcDbDimStyleTableRecord
  2
A001
 70
     0
 41
2.000000
 44
1.500000
 42
0.800000
145
0.661290
140
3.100000
144
1.000000
146
0.645161
 77
     1
 73
     0
 74
     0
271
     2
275
     0
 78
     8
172
     1
340
3B5
  0
ENDTAB
  0
TABLE
  2
BLOCK_RECORD
  5
3C0
100
AcDbSymbolTable
 70
    12
  0
BLOCK_RECORD
  5
3C1
100
AcDbSymbolTableRecord
100
AcDbBlockTableRecord
  2
*MODEL_SPACE
  0
BLOCK_RECORD
  5
3C2
100
AcDbSymbolTableRecord
100
AcDbBlockTableRecord
  2
*PAPER_SPACE
  0
BLOCK_RECORD
  5
1
100
AcDbSymbolTableRecord
100
AcDbBlockTableRecord
  2
_NONE
  0
BLOCK_RECORD
  5
4
100
AcDbSymbolTableRecord
100
AcDbBlockTableRecord
  2
_CLOSED
  0
BLOCK_RECORD
  5
B
100
AcDbSymbolTableRecord
100
AcDbBlockTableRecord
  2
_DOT
  0
BLOCK_RECORD
  5
13
100
AcDbSymbolTableRecord
100
AcDbBlockTableRecord
  2
_OPEN
  0
BLOCK_RECORD
  5
19
100
AcDbSymbolTableRecord
100
AcDbBlockTableRecord
  2
_ORIGIN
  0
BLOCK_RECORD
  5
1E
100
AcDbSymbolTableRecord
100
AcDbBlockTableRecord
  2
_OPEN30
  0
BLOCK_RECORD
  5
24
100
AcDbSymbolTableRecord
100
AcDbBlockTableRecord
  2
_BOXFILLED
  0
BLOCK_RECORD
  5
29
100
AcDbSymbolTableRecord
100
AcDbBlockTableRecord
  2
_BOXBLANK
  0
BLOCK_RECORD
  5
31
100
AcDbSymbolTableRecord
100
AcDbBlockTableRecord
  2
_OBLIQUE
  0
BLOCK_RECORD
  5
35
100
AcDbSymbolTableRecord
100
AcDbBlockTableRecord
  2
_OPEN90
  0
BLOCK_RECORD
  5
3B
100
AcDbSymbolTableRecord
100
AcDbBlockTableRecord
  2
_CLOSEDBLANK
  0
BLOCK_RECORD
  5
41
100
AcDbSymbolTableRecord
100
AcDbBlockTableRecord
  2
_DOTBLANK
  0
ENDTAB
  0
ENDSEC
  0
SECTION
  2
BLOCKS
  0
BLOCK
  5
3C3
100
AcDbEntity
  8
0
100
AcDbBlockBegin
  2
*MODEL_SPACE
 70
     0
 10
0.0
 20
0.0
 30
0.0
  3
*MODEL_SPACE
  1

  0
ENDBLK
  5
3C4
100
AcDbEntity
  8
0
100
AcDbBlockEnd
  0
BLOCK
  5
3C5
100
AcDbEntity
  8
0
100
AcDbBlockBegin
  2
*PAPER_SPACE
 70
     0
 10
0.0
 20
0.0
 30
0.0
  3
*PAPER_SPACE
  1

  0
ENDBLK
  5
3C6
100
AcDbEntity
  8
0
100
AcDbBlockEnd
  0
BLOCK
  5
2
100
AcDbEntity
  8
0
100
AcDbBlockBegin
  2
_NONE
 70
     0
 10
0.0
 20
0.0
 30
0.0
  3
_NONE
  1

  0
ENDBLK
  5
3
100
AcDbEntity
  8
0
100
AcDbBlockEnd
  0
BLOCK
  5
5
100
AcDbEntity
  8
0
100
AcDbBlockBegin
  2
_CLOSED
 70
     0
 10
0.0
 20
0.0
 30
0.0
  3
_CLOSED
  1

  0
LINE
  5
6
100
AcDbEntity
  8
0
  6
BYBLOCK
 62
     0
100
AcDbLine
 10
-1.0
 20
0.166667
 30
0.0
 11
0.0
 21
0.0
 31
0.0
  0
LINE
  5
7
100
AcDbEntity
  8
0
  6
BYBLOCK
 62
     0
100
AcDbLine
 10
0.0
 20
0.0
 30
0.0
 11
-1.0
 21
-0.166667
 31
0.0
  0
LINE
  5
8
100
AcDbEntity
  8
0
  6
BYBLOCK
 62
     0
100
AcDbLine
 10
-1.0
 20
0.166667
 30
0.0
 11
-1.0
 21
-0.166667
 31
0.0
  0
LINE
  5
9
100
AcDbEntity
  8
0
  6
BYBLOCK
 62
     0
100
AcDbLine
 10
0.0
 20
0.0
 30
0.0
 11
-1.0
 21
0.0
 31
0.0
  0
ENDBLK
  5
A
100
AcDbEntity
  8
0
100
AcDbBlockEnd
  0
BLOCK
  5
C
100
AcDbEntity
  8
0
100
AcDbBlockBegin
  2
_DOT
 70
     0
 10
0.0
 20
0.0
 30
0.0
  3
_DOT
  1

  0
POLYLINE
  5
D
100
AcDbEntity
  8
0
  6
BYBLOCK
 62
     0
100
AcDb2dPolyline
 66
     1
 10
0.0
 20
0.0
 30
0.0
 70
     1
 40
0.5
 41
0.5
  0
VERTEX
  5
E
100
AcDbEntity
  8
0
  6
BYBLOCK
 62
     0
100
AcDbVertex
100
AcDb2dVertex
 10
-0.25
 20
0.0
 30
0.0
 42
1.0
  0
VERTEX
  5
F
100
AcDbEntity
  8
0
  6
BYBLOCK
 62
     0
100
AcDbVertex
100
AcDb2dVertex
 10
0.25
 20
0.0
 30
0.0
 42
1.0
  0
SEQEND
  5
10
100
AcDbEntity
  8
0
  6
BYBLOCK
 62
     0
  0
LINE
  5
11
100
AcDbEntity
  8
0
  6
BYBLOCK
 62
     0
100
AcDbLine
 10
-0.5
 20
0.0
 30
0.0
 11
-1.0
 21
0.0
 31
0.0
  0
ENDBLK
  5
12
100
AcDbEntity
  8
0
100
AcDbBlockEnd
  0
BLOCK
  5
14
100
AcDbEntity
  8
0
100
AcDbBlockBegin
  2
_OPEN
 70
     0
 10
0.0
 20
0.0
 30
0.0
  3
_OPEN
  1

  0
LINE
  5
15
100
AcDbEntity
  8
0
  6
BYBLOCK
 62
     0
100
AcDbLine
 10
-1.0
 20
0.166667
 30
0.0
 11
0.0
 21
0.0
 31
0.0
  0
LINE
  5
16
100
AcDbEntity
  8
0
  6
BYBLOCK
 62
     0
100
AcDbLine
 10
0.0
 20
0.0
 30
0.0
 11
-1.0
 21
-0.166667
 31
0.0
  0
LINE
  5
17
100
AcDbEntity
  8
0
  6
BYBLOCK
 62
     0
100
AcDbLine
 10
0.0
 20
0.0
 30
0.0
 11
-1.0
 21
0.0
 31
0.0
  0
ENDBLK
  5
18
100
AcDbEntity
  8
0
100
AcDbBlockEnd
  0
BLOCK
  5
1A
100
AcDbEntity
  8
0
100
AcDbBlockBegin
  2
_ORIGIN
 70
     0
 10
0.0
 20
0.0
 30
0.0
  3
_ORIGIN
  1

  0
CIRCLE
  5
1B
100
AcDbEntity
  8
0
  6
BYBLOCK
 62
     0
100
AcDbCircle
 10
0.0
 20
0.0
 30
0.0
 40
0.5
  0
LINE
  5
1C
100
AcDbEntity
  8
0
  6
BYBLOCK
 62
     0
100
AcDbLine
 10
0.0
 20
0.0
 30
0.0
 11
-1.0
 21
0.0
 31
0.0
  0
ENDBLK
  5
1D
100
AcDbEntity
  8
0
100
AcDbBlockEnd
  0
BLOCK
  5
1F
100
AcDbEntity
  8
0
100
AcDbBlockBegin
  2
_OPEN30
 70
     0
 10
0.0
 20
0.0
 30
0.0
  3
_OPEN30
  1

  0
LINE
  5
20
100
AcDbEntity
  8
0
  6
BYBLOCK
 62
     0
100
AcDbLine
 10
-1.0
 20
0.267949
 30
0.0
 11
0.0
 21
0.0
 31
0.0
  0
LINE
  5
21
100
AcDbEntity
  8
0
  6
BYBLOCK
 62
     0
100
AcDbLine
 10
0.0
 20
0.0
 30
0.0
 11
-1.0
 21
-0.267949
 31
0.0
  0
LINE
  5
22
100
AcDbEntity
  8
0
  6
BYBLOCK
 62
     0
100
AcDbLine
 10
0.0
 20
0.0
 30
0.0
 11
-1.0
 21
0.0
 31
0.0
  0
ENDBLK
  5
23
100
AcDbEntity
  8
0
100
AcDbBlockEnd
  0
BLOCK
  5
25
100
AcDbEntity
  8
0
100
AcDbBlockBegin
  2
_BOXFILLED
 70
     0
 10
0.0
 20
0.0
 30
0.0
  3
_BOXFILLED
  1

  0
SOLID
  5
26
100
AcDbEntity
  8
0
  6
BYBLOCK
 62
     0
100
AcDbTrace
 10
-0.5
 20
0.5
 30
0.0
 11
0.5
 21
0.5
 31
0.0
 12
-0.5
 22
-0.5
 32
0.0
 13
0.5
 23
-0.5
 33
0.0
  0
LINE
  5
27
100
AcDbEntity
  8
0
  6
BYBLOCK
 62
     0
100
AcDbLine
 10
-0.5
 20
0.0
 30
0.0
 11
-1.0
 21
0.0
 31
0.0
  0
ENDBLK
  5
28
100
AcDbEntity
  8
0
100
AcDbBlockEnd
  0
BLOCK
  5
2A
100
AcDbEntity
  8
0
100
AcDbBlockBegin
  2
_BOXBLANK
 70
     0
 10
0.0
 20
0.0
 30
0.0
  3
_BOXBLANK
  1

  0
LINE
  5
2B
100
AcDbEntity
  8
0
  6
BYBLOCK
 62
     0
100
AcDbLine
 10
-0.5
 20
-0.5
 30
0.0
 11
0.5
 21
-0.5
 31
0.0
  0
LINE
  5
2C
100
AcDbEntity
  8
0
  6
BYBLOCK
 62
     0
100
AcDbLine
 10
0.5
 20
-0.5
 30
0.0
 11
0.5
 21
0.5
 31
0.0
  0
LINE
  5
2D
100
AcDbEntity
  8
0
  6
BYBLOCK
 62
     0
100
AcDbLine
 10
0.5
 20
0.5
 30
0.0
 11
-0.5
 21
0.5
 31
0.0
  0
LINE
  5
2E
100
AcDbEntity
  8
0
  6
BYBLOCK
 62
     0
100
AcDbLine
 10
-0.5
 20
0.5
 30
0.0
 11
-0.5
 21
-0.5
 31
0.0
  0
LINE
  5
2F
100
AcDbEntity
  8
0
  6
BYBLOCK
 62
     0
100
AcDbLine
 10
-0.5
 20
0.0
 30
0.0
 11
-1.0
 21
0.0
 31
0.0
  0
ENDBLK
  5
30
100
AcDbEntity
  8
0
100
AcDbBlockEnd
  0
BLOCK
  5
32
100
AcDbEntity
  8
0
100
AcDbBlockBegin
  2
_OBLIQUE
 70
     0
 10
0.0
 20
0.0
 30
0.0
  3
_OBLIQUE
  1

  0
LINE
  5
33
100
AcDbEntity
  8
0
  6
BYBLOCK
 62
     0
100
AcDbLine
 10
-0.5
 20
-0.5
 30
0.0
 11
0.5
 21
0.5
 31
0.0
  0
ENDBLK
  5
34
100
AcDbEntity
  8
0
100
AcDbBlockEnd
  0
BLOCK
  5
36
100
AcDbEntity
  8
0
100
AcDbBlockBegin
  2
_OPEN90
 70
     0
 10
0.0
 20
0.0
 30
0.0
  3
_OPEN90
  1

  0
LINE
  5
37
100
AcDbEntity
  8
0
  6
BYBLOCK
 62
     0
100
AcDbLine
 10
-0.5
 20
0.5
 30
0.0
 11
0.0
 21
0.0
 31
0.0
  0
LINE
  5
38
100
AcDbEntity
  8
0
  6
BYBLOCK
 62
     0
100
AcDbLine
 10
0.0
 20
0.0
 30
0.0
 11
-0.5
 21
-0.5
 31
0.0
  0
LINE
  5
39
100
AcDbEntity
  8
0
  6
BYBLOCK
 62
     0
100
AcDbLine
 10
0.0
 20
0.0
 30
0.0
 11
-1.0
 21
0.0
 31
0.0
  0
ENDBLK
  5
3A
100
AcDbEntity
  8
0
100
AcDbBlockEnd
  0
BLOCK
  5
3C
100
AcDbEntity
  8
0
100
AcDbBlockBegin
  2
_CLOSEDBLANK
 70
     0
 10
0.0
 20
0.0
 30
0.0
  3
_CLOSEDBLANK
  1

  0
LINE
  5
3D
100
AcDbEntity
  8
0
  6
BYBLOCK
 62
     0
100
AcDbLine
 10
-1.0
 20
0.1666666666666666
 30
0.0
 11
0.0
 21
0.0
 31
0.0
  0
LINE
  5
3E
100
AcDbEntity
  8
0
  6
BYBLOCK
 62
     0
100
AcDbLine
 10
0.0
 20
0.0
 30
0.0
 11
-1.0
 21
-0.1666666666666666
 31
0.0
  0
LINE
  5
3F
100
AcDbEntity
  8
0
  6
BYBLOCK
 62
     0
100
AcDbLine
 10
-1.0
 20
0.1666666666666666
 30
0.0
 11
-1.0
 21
-0.1666666666666666
 31
0.0
  0
ENDBLK
  5
40
100
AcDbEntity
  8
0
100
AcDbBlockEnd
  0
BLOCK
  5
42
100
AcDbEntity
  8
0
100
AcDbBlockBegin
  2
_DOTBLANK
 70
     0
 10
0.0
 20
0.0
 30
0.0
  3
_DOTBLANK
  1

  0
CIRCLE
  5
43
100
AcDbEntity
  8
0
  6
BYBLOCK
 62
     0
100
AcDbCircle
 10
0.0
 20
0.0
 30
0.0
 40
0.5
  0
LINE
  5
44
100
AcDbEntity
  8
0
  6
BYBLOCK
 62
     0
100
AcDbLine
 10
-0.5
 20
0.0
 30
0.0
 11
-1.0
 21
0.0
 31
0.0
  0
ENDBLK
  5
45
100
AcDbEntity
  8
0
100
AcDbBlockEnd
  0
ENDSEC
  0
SECTION
  2
ENTITIES
  0
MTEXT
  5
46
100
AcDbEntity
  8
A7
  6
CONTINUOUS
 62
3
100
AcDbMText
 10
9.999997526638502
 20
18.00000076076889
 30
0.000000000000000
 40
3.000000000000000
 41
0.000000000000000
 71
     7
 72
     1
  1
{\H0.93x;{TYPE No.TL-207-2}}
 11
1.000000000000000
 21
0.000000000000000
 31
0.000000000000000
  7
STANDARD
  0
POINT
  5
47
100
AcDbEntity
  8
A10
  6
CONTINUOUS
 62
3
100
AcDbPoint
 10
9.999997526638502
 20
18.00000076076889
 30
0.000000000000000
  0
LINE
  5
48
100
AcDbEntity
  8
A1
  6
CONTINUOUS
 62
7
100
AcDbLine
 10
143.8444813863707
 20
94.50373233651210
 30
0.000000000000000
 11
151.0444813863707
 21
94.50373233651212
 31
0.000000000000000
  0
LINE
  5
49
100
AcDbEntity
  8
A1
  6
CONTINUOUS
 62
7
100
AcDbLine
 10
143.8444813863707
 20
93.30373233651206
 30
0.000000000000000
 11
151.0444813863707
 21
93.30373233651207
 31
0.000000000000000
  0
ARC
  5
4A
100
AcDbEntity
  8
A1
  6
CONTINUOUS
 62
7
100
AcDbCircle
 10
151.0444813863707
 20
93.90373233651192
 30
0.000000000000000
 40
0.6000000000000000
100
AcDbArc
 50
270.0000000000001
 51
450.0000000000001
  0
ARC
  5
4B
100
AcDbEntity
  8
A1
  6
CONTINUOUS
 62
7
100
AcDbCircle
 10
151.0444813863707
 20
92.70373233651188
 30
0.000000000000000
 40
0.6000000000000000
100
AcDbArc
 50
280.2348027607915
 51
460.2348027607889
  0
ARC
  5
4C
100
AcDbEntity
  8
A1
  6
CONTINUOUS
 62
7
100
AcDbCircle
 10
143.8444813863706
 20
80.90373233651215
 30
0.000000000000000
 40
0.6000000000000000
100
AcDbArc
 50
101.0035408517476
 51
281.0035408517449
  0
LINE
  5
4D
100
AcDbEntity
  8
A1
  6
CONTINUOUS
 62
7
100
AcDbLine
 10
143.8444813863707
 20
80.30373233651217
 30
0.000000000000000
 11
151.0444813863708
 21
80.30373233651218
 31
0.000000000000000
  0
ARC
  5
4E
100
AcDbEntity
  8
A1
  6
CONTINUOUS
 62
7
100
AcDbCircle
 10
143.8444813863706
 20
79.70373233651205
 30
0.000000000000000
 40
0.6000000000000000
100
AcDbArc
 50
90.00000000000000
 51
270.0000000000000
  0
ARC
  5
4F
100
AcDbEntity
  8
A1
  6
CONTINUOUS
 62
7
100
AcDbCircle
 10
151.0444813863707
 20
79.70373233651205
 30
0.000000000000000
 40
0.6000000000000000
100
AcDbArc
 50
270.0000000000000
 51
450.0000000000000
  0
LINE
  5
50
100
AcDbEntity
  8
A1
  6
CONTINUOUS
 62
7
100
AcDbLine
 10
151.0444813863708
 20
79.10373233651214
 30
0.000000000000000
 11
143.8444813863707
 21
79.10373233651212
 31
0.000000000000000
  0
ARC
  5
51
100
AcDbEntity
  8
A1
  6
CONTINUOUS
 62
7
100
AcDbCircle
 10
151.0444813863707
 20
90.10373233651185
 30
0.000000000000000
 40
0.6000000000000000
100
AcDbArc
 50
280.2348027607915
 51
460.2348027607916
  0
ARC
  5
52
100
AcDbEntity
  8
A1
  6
CONTINUOUS
 62
7
100
AcDbCircle
 10
151.0444813863707
 20
87.50373233651183
 30
0.000000000000000
 40
0.6000000000000000
100
AcDbArc
 50
280.2348027607915
 51
460.2348027607916
  0
ARC
  5
53
100
AcDbEntity
  8
A1
  6
CONTINUOUS
 62
7
100
AcDbCircle
 10
151.0444813863707
 20
84.90373233651181
 30
0.000000000000000
 40
0.6000000000000000
100
AcDbArc
 50
280.2348027607915
 51
460.2348027607916
  0
ARC
  5
54
100
AcDbEntity
  8
A1
  6
CONTINUOUS
 62
7
100
AcDbCircle
 10
151.0444813863707
 20
82.30373233651179
 30
0.000000000000000
 40
0.6000000000000000
100
AcDbArc
 50
281.0035408517449
 51
461.0035408517475
  0
ARC
  5
55
100
AcDbEntity
  8
A1
  6
CONTINUOUS
 62
7
100
AcDbCircle
 10
143.8444813863699
 20
91.40373233685332
 30
0.000000000000000
 40
0.6000000000000000
100
AcDbArc
 50
100.2348027607889
 51
280.2348027607915
  0
ARC
  5
56
100
AcDbEntity
  8
A1
  6
CONTINUOUS
 62
7
100
AcDbCircle
 10
143.8444813863699
 20
88.80373233685330
 30
0.000000000000000
 40
0.6000000000000000
100
AcDbArc
 50
100.2348027607916
 51
280.2348027607915
  0
ARC
  5
57
100
AcDbEntity
  8
A1
  6
CONTINUOUS
 62
7
100
AcDbCircle
 10
143.8444813863699
 20
86.20373233685328
 30
0.000000000000000
 40
0.6000000000000000
100
AcDbArc
 50
100.2348027607916
 51
280.2348027607915
  0
ARC
  5
58
100
AcDbEntity
  8
A1
  6
CONTINUOUS
 62
7
100
AcDbCircle
 10
143.8444813863699
 20
83.60373233685326
 30
0.000000000000000
 40
0.6000000000000000
100
AcDbArc
 50
100.2348027607916
 51
280.2348027607915
  0
LINE
  5
59
100
AcDbEntity
  8
A1
  6
CONTINUOUS
 62
7
100
AcDbLine
 10
150.9378718681121
 20
93.29418505317656
 30
0.000000000000000
 11
143.7378718681114
 21
91.99418505351801
 31
0.000000000000000
  0
LINE
  5
5A
100
AcDbEntity
  8
A1
  6
CONTINUOUS
 62
7
100
AcDbLine
 10
143.9510909046287
 20
90.81327962018875
 30
0.000000000000000
 11
151.1510909046294
 21
92.11327961984730
 31
0.000000000000000
  0
LINE
  5
5B
100
AcDbEntity
  8
A1
  6
CONTINUOUS
 62
7
100
AcDbLine
 10
143.7378718681113
 20
89.39418505351793
 30
0.000000000000000
 11
150.9378718681120
 21
90.69418505317648
 31
0.000000000000000
  0
LINE
  5
5C
100
AcDbEntity
  8
A1
  6
CONTINUOUS
 62
7
100
AcDbLine
 10
151.1510909046294
 20
89.51327961984721
 30
0.000000000000000
 11
143.9510909046287
 21
88.21327962018866
 31
0.000000000000000
  0
LINE
  5
5D
100
AcDbEntity
  8
A1
  6
CONTINUOUS
 62
7
100
AcDbLine
 10
143.7378718681114
 20
86.79418505351792
 30
0.000000000000000
 11
150.9378718681121
 21
88.09418505317646
 31
0.000000000000000
  0
LINE
  5
5E
100
AcDbEntity
  8
A1
  6
CONTINUOUS
 62
7
100
AcDbLine
 10
151.1510909046294
 20
86.91327961984724
 30
0.000000000000000
 11
143.9510909046287
 21
85.61327962018871
 31
0.000000000000000
  0
LINE
  5
5F
100
AcDbEntity
  8
A1
  6
CONTINUOUS
 62
7
100
AcDbLine
 10
143.7378718681113
 20
84.19418505351788
 30
0.000000000000000
 11
150.9378718681120
 21
85.49418505317644
 31
0.000000000000000
  0
LINE
  5
60
100
AcDbEntity
  8
A1
  6
CONTINUOUS
 62
7
100
AcDbLine
 10
151.1510909046294
 20
84.31327961984718
 30
0.000000000000000
 11
143.9510909046287
 21
83.01327962018863
 31
0.000000000000000
  0
LINE
  5
61
100
AcDbEntity
  8
A1
  6
CONTINUOUS
 62
7
100
AcDbLine
 10
143.7299595909093
 20
81.49270157031327
 30
0.000000000000000
 11
150.9299595909094
 21
82.89270157031291
 31
0.000000000000000
  0
LINE
  5
62
100
AcDbEntity
  8
A1
  6
CONTINUOUS
 62
7
100
AcDbLine
 10
151.1590031818320
 20
81.71476310271062
 30
0.000000000000000
 11
143.9590031818319
 21
80.31476310271098
 31
0.000000000000000
  0
LINE
  5
63
100
AcDbEntity
  8
A1
  6
CONTINUOUS
 62
7
100
AcDbLine
 10
147.4444813863707
 20
93.30373233651201
 30
0.000000000000000
 11
147.4444813863707
 21
92.66343399413898
 31
0.000000000000000
  0
LINE
  5
64
100
AcDbEntity
  8
A1
  6
CONTINUOUS
 62
7
100
AcDbLine
 10
145.9444813863707
 20
96.00898133651206
 30
0.000000000000000
 11
145.9444813863707
 21
94.50373233651202
 31
0.000000000000000
  0
LINE
  5
65
100
AcDbEntity
  8
A1
  6
CONTINUOUS
 62
7
100
AcDbLine
 10
147.4444813863707
 20
97.00898133651222
 30
0.000000000000000
 11
147.4444813863707
 21
94.50373233651203
 31
0.000000000000000
  0
LINE
  5
66
100
AcDbEntity
  8
A1
  6
CONTINUOUS
 62
7
100
AcDbLine
 10
147.4444813863706
 20
96.00898133651208
 30
0.000000000000000
 11
147.4444813863706
 21
94.50373233651214
 31
0.000000000000000
  0
LINE
  5
67
100
AcDbEntity
  8
A1
  6
CONTINUOUS
 62
7
100
AcDbLine
 10
148.9444813863706
 20
97.00898133651206
 30
0.000000000000000
 11
148.9444813863707
 21
94.50373233651213
 31
0.000000000000000
  0
LINE
  5
68
100
AcDbEntity
  8
A1
  6
CONTINUOUS
 62
7
100
AcDbLine
 10
150.0944813863705
 20
98.50898133651212
 30
0.000000000000000
 11
148.4444813863707
 21
98.50898133651215
 31
0.000000000000000
  0
LINE
  5
69
100
AcDbEntity
  8
A1
  6
CONTINUOUS
 62
7
100
AcDbLine
 10
150.0944813863705
 20
97.00898133651212
 30
0.000000000000000
 11
147.4444813863707
 21
97.00898133651218
 31
0.000000000000000
  0
ARC
  5
6A
100
AcDbEntity
  8
A1
  6
CONTINUOUS
 62
7
100
AcDbCircle
 10
150.0944813863705
 20
99.50898133651205
 30
0.000000000000000
 40
1.000000000000000
100
AcDbArc
 50
270.0000000000002
 51
360.0000000000002
  0
ARC
  5
6B
100
AcDbEntity
  8
A1
  6
CONTINUOUS
 62
7
100
AcDbCircle
 10
150.0944813863705
 20
99.50898133651205
 30
0.000000000000000
 40
2.500000000000000
100
AcDbArc
 50
270.0000000000002
 51
360.0000000000002
  0
ARC
  5
6C
100
AcDbEntity
  8
A1
  6
CONTINUOUS
 62
7
100
AcDbCircle
 10
148.4444813863707
 20
96.00898133651205
 30
0.000000000000000
 40
2.500000000000000
100
AcDbArc
 50
90.00000000000020
 51
180.0000000000002
  0
LINE
  5
6D
100
AcDbEntity
  8
A1
  6
CONTINUOUS
 62
7
100
AcDbLine
 10
151.0944813863707
 20
73.45021404964301
 30
0.000000000000000
 11
151.0944813863707
 21
66.40373233651216
 31
0.000000000000000
  0
LINE
  5
6E
100
AcDbEntity
  8
A1
  6
CONTINUOUS
 62
7
100
AcDbLine
 10
145.9444813863707
 20
76.60373233651215
 30
0.000000000000000
 11
147.4444813863707
 21
76.60373233651215
 31
0.000000000000000
  0
LINE
  5
6F
100
AcDbEntity
  8
A1
  6
CONTINUOUS
 62
7
100
AcDbLine
 10
148.9444813863709
 20
79.10373233651211
 30
0.000000000000000
 11
148.9444813863709
 21
77.82414454262400
 31
0.000000000000000
  0
LINE
  5
70
100
AcDbEntity
  8
A1
  6
CONTINUOUS
 62
7
100
AcDbLine
 10
147.4444813863709
 20
79.10373233651210
 30
0.000000000000000
 11
147.4444813863709
 21
77.82250125126352
 31
0.000000000000000
  0
LINE
  5
71
100
AcDbEntity
  8
A1
  6
CONTINUOUS
 62
7
100
AcDbLine
 10
147.4444813863707
 20
79.10373233651215
 30
0.000000000000000
 11
147.4444813863707
 21
76.60373233651215
 31
0.000000000000000
  0
LINE
  5
72
100
AcDbEntity
  8
A1
  6
CONTINUOUS
 62
7
100
AcDbLine
 10
145.9444813863707
 20
79.10373233651215
 30
0.000000000000000
 11
145.9444813863707
 21
76.60373233651215
 31
0.000000000000000
  0
ARC
  5
73
100
AcDbEntity
  8
A1
  6
CONTINUOUS
 62
7
100
AcDbCircle
 10
151.0944813863706
 20
73.45021404964311
 30
0.000000000000000
 40
1.500000000000000
100
AcDbArc
 50
2.035554996136651e-13
 51
44.10120267838633
  0
ARC
  5
74
100
AcDbEntity
  8
A1
  6
CONTINUOUS
 62
7
100
AcDbCircle
 10
148.9444813863707
 20
77.82250125126362
 30
0.000000000000000
 40
1.500000000000000
100
AcDbArc
 50
180.0000000000002
 51
221.8637235246549
  0
LINE
  5
75
100
AcDbEntity
  8
A1
  6
CONTINUOUS
 62
7
100
AcDbLine
 10
150.5944813863706
 20
72.20373233651218
 30
0.000000000000000
 11
150.5944813863706
 21
69.60373233651215
 31
0.000000000000000
  0
LINE
  5
76
100
AcDbEntity
  8
A1
  6
CONTINUOUS
 62
7
100
AcDbLine
 10
150.5944813863706
 20
72.20373233651218
 30
0.000000000000000
 11
151.0944813863706
 21
72.20373233651218
 31
0.000000000000000
  0
LINE
  5
77
100
AcDbEntity
  8
A1
  6
CONTINUOUS
 62
7
100
AcDbLine
 10
150.5944813863706
 20
69.60373233651215
 30
0.000000000000000
 11
151.0944813863706
 21
69.60373233651215
 31
0.000000000000000
  0
LINE
  5
78
100
AcDbEntity
  8
A1
  6
CONTINUOUS
 62
7
100
AcDbLine
 10
152.5944813863706
 20
73.45021404964311
 30
0.000000000000000
 11
152.5944813863706
 21
66.40373233651215
 31
0.000000000000000
  0
LINE
  5
79
100
AcDbEntity
  8
A1
  6
CONTINUOUS
 62
7
100
AcDbLine
 10
152.5944813863705
 20
108.6037323365121
 30
0.000000000000000
 11
152.5944813863705
 21
99.50898133651205
 31
0.000000000000000
  0
LINE
  5
7A
100
AcDbEntity
  8
A1
  6
CONTINUOUS
 62
7
100
AcDbLine
 10
151.0944813863705
 20
108.6037323365121
 30
0.000000000000000
 11
151.0944813863705
 21
99.50898133651205
 31
0.000000000000000
  0
LINE
  5
7B
100
AcDbEntity
  8
A1
  6
CONTINUOUS
 62
7
100
AcDbLine
 10
151.0944813863705
 20
108.6037323365121
 30
0.000000000000000
 11
152.5944813863705
 21
108.6037323365121
 31
0.000000000000000
  0
LINE
  5
7C
100
AcDbEntity
  8
A4
  6
CENTER
 62
1
100
AcDbLine
 10
149.5655067994144
 20
105.9571925035472
 30
0.000000000000000
 11
172.6278389867308
 21
105.9571925035472
 31
0.000000000000000
  0
LINE
  5
7D
100
AcDbEntity
  8
A1
  6
CONTINUOUS
 62
7
100
AcDbLine
 10
152.5944807758332
 20
104.4571925035472
 30
0.000000000000000
 11
169.5944807758332
 21
104.4571925035472
 31
0.000000000000000
  0
LINE
  5
7E
100
AcDbEntity
  8
A1
  6
CONTINUOUS
 62
7
100
AcDbLine
 10
152.5944807758331
 20
107.4571925035472
 30
0.000000000000000
 11
169.5944807758332
 21
107.4571925035472
 31
0.000000000000000
  0
LINE
  5
7F
100
AcDbEntity
  8
A1
  6
CONTINUOUS
 62
7
100
AcDbLine
 10
169.0944807758349
 20
91.60719250354708
 30
0.000000000000000
 11
169.0944807758350
 21
66.80719250354696
 31
0.000000000000000
  0
LINE
  5
80
100
AcDbEntity
  8
A1
  6
CONTINUOUS
 62
7
100
AcDbLine
 10
153.0944807758349
 20
91.60719250354705
 30
0.000000000000000
 11
153.0944807758350
 21
66.80719250354693
 31
0.000000000000000
  0
LINE
  5
81
100
AcDbEntity
  8
A1
  6
CONTINUOUS
 62
7
100
AcDbLine
 10
164.8116013127547
 20
66.80719250354720
 30
0.000000000000000
 11
157.5868095330445
 21
66.80719250354718
 31
0.000000000000000
  0
LINE
  5
82
100
AcDbEntity
  8
A4
  6
CENTER
 62
1
100
AcDbLine
 10
164.6944807758349
 20
58.60719250354715
 30
0.000000000000000
 11
157.4944807758350
 21
58.60719250354715
 31
0.000000000000000
  0
LINE
  5
83
100
AcDbEntity
  8
A4
  6
CENTER
 62
1
100
AcDbLine
 10
164.6944807758349
 20
72.60719250354715
 30
0.000000000000000
 11
157.4944807758350
 21
72.60719250354715
 31
0.000000000000000
  0
LINE
  5
84
100
AcDbEntity
  8
A3
  6
DASHED
 62
2
100
AcDbLine
 10
167.0944807758365
 20
67.40719250354702
 30
0.000000000000000
 11
169.0944807758349
 21
67.40719250354704
 31
0.000000000000000
  0
LINE
  5
85
100
AcDbEntity
  8
A3
  6
DASHED
 62
2
100
AcDbLine
 10
155.0944807758334
 20
67.40719250354694
 30
0.000000000000000
 11
153.0944807758349
 21
67.40719250354695
 31
0.000000000000000
  0
LINE
  5
86
100
AcDbEntity
  8
A1
  6
CONTINUOUS
 62
7
100
AcDbLine
 10
155.0944807758349
 20
66.80719250354690
 30
0.000000000000000
 11
155.0944807758350
 21
56.80719250354696
 31
0.000000000000000
  0
LINE
  5
87
100
AcDbEntity
  8
A1
  6
CONTINUOUS
 62
7
100
AcDbLine
 10
167.0944807758349
 20
66.80719250354691
 30
0.000000000000000
 11
167.0944807758350
 21
56.80719250354709
 31
0.000000000000000
  0
ARC
  5
88
100
AcDbEntity
  8
A1
  6
CONTINUOUS
 62
7
100
AcDbCircle
 10
161.0944807758349
 20
56.80719250354703
 30
0.000000000000000
 40
6.000000000000000
100
AcDbArc
 50
180.0000000000000
 51
360.0000000000000
  0
ARC
  5
89
100
AcDbEntity
  8
A1
  6
CONTINUOUS
 62
7
100
AcDbCircle
 10
161.0944807758350
 20
57.60457853406713
 30
0.000000000000000
 40
5.999999999999986
100
AcDbArc
 50
180.0000000000000
 51
360.0000000000000
  0
ARC
  5
8A
100
AcDbEntity
  8
A3
  6
DASHED
 62
2
100
AcDbCircle
 10
161.0944807758349
 20
60.10719250354715
 30
0.000000000000000
 40
6.000000000000014
100
AcDbArc
 50
180.0000000000000
 51
360.0000000000000
  0
LINE
  5
8B
100
AcDbEntity
  8
A3
  6
DASHED
 62
2
100
AcDbLine
 10
167.0944807758355
 20
66.80719250354691
 30
0.000000000000000
 11
167.0944807758365
 21
67.40719250354739
 31
0.000000000000000
  0
LINE
  5
8C
100
AcDbEntity
  8
A3
  6
DASHED
 62
2
100
AcDbLine
 10
155.0944807758344
 20
66.80719250354691
 30
0.000000000000000
 11
155.0944807758334
 21
67.40719250354739
 31
0.000000000000000
  0
LINE
  5
8D
100
AcDbEntity
  8
A1
  6
CONTINUOUS
 62
7
100
AcDbLine
 10
169.0944807758349
 20
91.60719250354708
 30
0.000000000000000
 11
153.0944807758349
 21
91.60719250354705
 31
0.000000000000000
  0
LINE
  5
8E
100
AcDbEntity
  8
A1
  6
CONTINUOUS
 62
7
100
AcDbLine
 10
61.29546094695139
 20
94.50372879773204
 30
0.000000000000000
 11
52.29140912158876
 21
94.50372879773204
 31
0.000000000000000
  0
ARC
  5
8F
100
AcDbEntity
  8
A1
  6
CONTINUOUS
 62
7
100
AcDbCircle
 10
61.29541888827461
 20
96.50897950354724
 30
0.000000000000000
 40
0.5000000000000000
100
AcDbArc
 50
1.768599999999876
 51
89.99999999999893
  0
ARC
  5
90
100
AcDbEntity
  8
A1
  6
CONTINUOUS
 62
7
100
AcDbCircle
 10
52.29140912158877
 20
96.50897950354724
 30
0.000000000000000
 40
0.5000000000000000
100
AcDbArc
 50
90.00000000000057
 51
181.7685999999999
  0
ARC
  5
91
100
AcDbEntity
  8
A1
  6
CONTINUOUS
 62
7
100
AcDbCircle
 10
52.29140912158877
 20
95.00372879773218
 30
0.000000000000000
 40
0.5000000000000000
100
AcDbArc
 50
181.7685999999999
 51
270.0000000000006
  0
ARC
  5
92
100
AcDbEntity
  8
A1
  6
CONTINUOUS
 62
7
100
AcDbCircle
 10
61.29546094695138
 20
95.00372879773212
 30
0.000000000000000
 40
0.5000000000000000
100
AcDbArc
 50
270.0000000000006
 51
361.7685999999999
  0
ARC
  5
93
100
AcDbEntity
  8
A1
  6
CONTINUOUS
 62
7
100
AcDbCircle
 10
143.8444813863706
 20
93.90373233651198
 30
0.000000000000000
 40
0.6000000000000000
100
AcDbArc
 50
90.00000000000000
 51
270.0000000000000
  0
LINE
  5
94
100
AcDbEntity
  8
A1
  6
CONTINUOUS
 62
7
100
AcDbLine
 10
63.79345064661925
 20
66.80719250354697
 30
0.000000000000000
 11
58.10900018531490
 21
66.80719250354697
 31
0.000000000000000
  0
LINE
  5
95
100
AcDbEntity
  8
A1
  6
CONTINUOUS
 62
7
100
AcDbLine
 10
50.79345064661929
 20
76.11024754170212
 30
0.000000000000000
 11
50.79345064661932
 21
54.10719250354725
 31
0.000000000000000
  0
LINE
  5
96
100
AcDbEntity
  8
A1
  6
CONTINUOUS
 62
7
100
AcDbLine
 10
50.79345064661931
 20
67.40719250354699
 30
0.000000000000000
 11
52.79345064661931
 21
67.40719250354699
 31
0.000000000000000
  0
LINE
  5
97
100
AcDbEntity
  8
A4
  6
CENTER
 62
1
100
AcDbLine
 10
49.29345064661928
 20
72.60719250354721
 30
0.000000000000000
 11
53.79345064661928
 21
72.60719250354721
 31
0.000000000000000
  0
LINE
  5
98
100
AcDbEntity
  8
A4
  6
CENTER
 62
1
100
AcDbLine
 10
49.29345064661931
 20
58.60719250354721
 30
0.000000000000000
 11
53.79345064661931
 21
58.60719250354722
 31
0.000000000000000
  0
LINE
  5
99
100
AcDbEntity
  8
A1
  6
CONTINUOUS
 62
7
100
AcDbLine
 10
59.24719029598560
 20
76.60373220941233
 30
0.000000000000000
 11
59.24719701191080
 21
68.90373474552234
 31
0.000000000000000
  0
LINE
  5
9A
100
AcDbEntity
  8
A1
  6
CONTINUOUS
 62
7
100
AcDbLine
 10
52.79345064661929
 20
69.90719250354701
 30
0.000000000000000
 11
52.79345064661932
 21
54.10719250354722
 31
0.000000000000000
  0
LINE
  5
9B
100
AcDbEntity
  8
A1
  6
CONTINUOUS
 62
7
100
AcDbLine
 10
59.99345064661934
 20
51.60457853406724
 30
0.000000000000000
 11
58.60630410845859
 21
50.80719250354707
 31
0.000000000000000
  0
ARC
  5
9C
100
AcDbEntity
  8
A1
  6
CONTINUOUS
 62
7
100
AcDbCircle
 10
70.71117627529662
 20
57.00183314621900
 30
0.000000000000000
 40
12.00000000000000
100
AcDbArc
 50
125.2031426751035
 51
206.7290064627833
  0
ARC
  5
9D
100
AcDbEntity
  8
A1
  6
CONTINUOUS
 62
7
100
AcDbCircle
 10
70.71117627529662
 20
57.00183314621900
 30
0.000000000000000
 40
13.60000000000000
100
AcDbArc
 50
133.8643589260834
 51
207.1014342533745
  0
LINE
  5
9E
100
AcDbEntity
  8
A1
  6
CONTINUOUS
 62
7
100
AcDbLine
 10
63.79345064661919
 20
85.90719250354719
 30
0.000000000000000
 11
63.79345064661922
 21
66.80719250354696
 31
0.000000000000000
  0
LINE
  5
9F
100
AcDbEntity
  8
A4
  6
CENTER
 62
1
100
AcDbLine
 10
60.29345064661931
 20
70.90373233651221
 30
0.000000000000000
 11
53.29345064661931
 21
70.90373233651221
 31
0.000000000000000
  0
LINE
  5
A0
100
AcDbEntity
  8
A4
  6
CENTER
 62
1
100
AcDbLine
 10
56.79345064661931
 20
73.90373233651221
 30
0.000000000000000
 11
56.79345064661931
 21
66.90373233651221
 31
0.000000000000000
  0
CIRCLE
  5
A1
100
AcDbEntity
  8
A1
  6
CONTINUOUS
 62
7
100
AcDbCircle
 10
56.79345064661931
 20
70.90373233651221
 30
0.000000000000000
 40
1.300000000000000
  0
LINE
  5
A2
100
AcDbEntity
  8
A1
  6
CONTINUOUS
 62
7
100
AcDbLine
 10
58.44050235761794
 20
98.50898133651211
 30
0.000000000000000
 11
55.00197190426893
 21
98.50898133651211
 31
0.000000000000000
  0
LINE
  5
A3
100
AcDbEntity
  8
A1
  6
CONTINUOUS
 62
7
100
AcDbLine
 10
51.79164730938211
 20
96.49354800783479
 30
0.000000000000000
 11
51.79164730938211
 21
94.98829730201973
 31
0.000000000000000
  0
LINE
  5
A4
100
AcDbEntity
  8
A1
  6
CONTINUOUS
 62
7
100
AcDbLine
 10
61.79518070048127
 20
96.52441099925969
 30
0.000000000000000
 11
61.79518070048127
 21
95.01916029344457
 31
0.000000000000000
  0
LINE
  5
A5
100
AcDbEntity
  8
A1
  6
CONTINUOUS
 62
7
100
AcDbLine
 10
53.19345064661935
 20
93.30373050354696
 30
0.000000000000000
 11
60.39345064661939
 21
93.30373050354697
 31
0.000000000000000
  0
ARC
  5
A6
100
AcDbEntity
  8
A1
  6
CONTINUOUS
 62
7
100
AcDbCircle
 10
60.39345064661933
 20
93.90373050354683
 30
0.000000000000000
 40
0.6000000000000000
100
AcDbArc
 50
270.0000000000001
 51
450.0000000000001
  0
ARC
  5
A7
100
AcDbEntity
  8
A1
  6
CONTINUOUS
 62
7
100
AcDbCircle
 10
60.39345064661933
 20
92.70373050354678
 30
0.000000000000000
 40
0.6000000000000000
100
AcDbArc
 50
280.2348027607915
 51
460.2348027607889
  0
ARC
  5
A8
100
AcDbEntity
  8
A1
  6
CONTINUOUS
 62
7
100
AcDbCircle
 10
53.19345064661928
 20
80.90373050354705
 30
0.000000000000000
 40
0.6000000000000000
100
AcDbArc
 50
101.0035408517476
 51
281.0035408517449
  0
LINE
  5
A9
100
AcDbEntity
  8
A1
  6
CONTINUOUS
 62
7
100
AcDbLine
 10
53.19345064661936
 20
80.30373050354707
 30
0.000000000000000
 11
60.39345064661941
 21
80.30373050354709
 31
0.000000000000000
  0
ARC
  5
AA
100
AcDbEntity
  8
A1
  6
CONTINUOUS
 62
7
100
AcDbCircle
 10
53.19345064661928
 20
79.70373050354695
 30
0.000000000000000
 40
0.6000000000000000
100
AcDbArc
 50
90.00000000000000
 51
270.0000000000000
  0
ARC
  5
AB
100
AcDbEntity
  8
A1
  6
CONTINUOUS
 62
7
100
AcDbCircle
 10
60.39345064661933
 20
79.70373050354695
 30
0.000000000000000
 40
0.6000000000000000
100
AcDbArc
 50
270.0000000000000
 51
450.0000000000000
  0
ARC
  5
AC
100
AcDbEntity
  8
A1
  6
CONTINUOUS
 62
7
100
AcDbCircle
 10
60.39345064661933
 20
90.10373050354676
 30
0.000000000000000
 40
0.6000000000000000
100
AcDbArc
 50
280.2348027607915
 51
460.2348027607916
  0
ARC
  5
AD
100
AcDbEntity
  8
A1
  6
CONTINUOUS
 62
7
100
AcDbCircle
 10
60.39345064661933
 20
87.50373050354673
 30
0.000000000000000
 40
0.6000000000000000
100
AcDbArc
 50
280.2348027607915
 51
460.2348027607916
  0
ARC
  5
AE
100
AcDbEntity
  8
A1
  6
CONTINUOUS
 62
7
100
AcDbCircle
 10
60.39345064661933
 20
84.90373050354671
 30
0.000000000000000
 40
0.6000000000000000
100
AcDbArc
 50
280.2348027607915
 51
460.2348027607916
  0
ARC
  5
AF
100
AcDbEntity
  8
A1
  6
CONTINUOUS
 62
7
100
AcDbCircle
 10
60.39345064661933
 20
82.30373050354669
 30
0.000000000000000
 40
0.6000000000000000
100
AcDbArc
 50
281.0035408517449
 51
461.0035408517475
  0
ARC
  5
B0
100
AcDbEntity
  8
A1
  6
CONTINUOUS
 62
7
100
AcDbCircle
 10
53.19345064661860
 20
91.40373050388823
 30
0.000000000000000
 40
0.6000000000000000
100
AcDbArc
 50
100.2348027607889
 51
280.2348027607915
  0
ARC
  5
B1
100
AcDbEntity
  8
A1
  6
CONTINUOUS
 62
7
100
AcDbCircle
 10
53.19345064661860
 20
88.80373050388820
 30
0.000000000000000
 40
0.6000000000000000
100
AcDbArc
 50
100.2348027607916
 51
280.2348027607915
  0
ARC
  5
B2
100
AcDbEntity
  8
A1
  6
CONTINUOUS
 62
7
100
AcDbCircle
 10
53.19345064661860
 20
86.20373050388818
 30
0.000000000000000
 40
0.6000000000000000
100
AcDbArc
 50
100.2348027607916
 51
280.2348027607915
  0
ARC
  5
B3
100
AcDbEntity
  8
A1
  6
CONTINUOUS
 62
7
100
AcDbCircle
 10
53.19345064661860
 20
83.60373050388816
 30
0.000000000000000
 40
0.6000000000000000
100
AcDbArc
 50
100.2348027607916
 51
280.2348027607915
  0
LINE
  5
B4
100
AcDbEntity
  8
A1
  6
CONTINUOUS
 62
7
100
AcDbLine
 10
60.28684112836071
 20
93.29418322021141
 30
0.000000000000000
 11
53.08684112836001
 21
91.99418322055286
 31
0.000000000000000
  0
LINE
  5
B5
100
AcDbEntity
  8
A1
  6
CONTINUOUS
 62
7
100
AcDbLine
 10
53.30006016487733
 20
90.81327778722361
 30
0.000000000000000
 11
60.50006016487803
 21
92.11327778688216
 31
0.000000000000000
  0
LINE
  5
B6
100
AcDbEntity
  8
A1
  6
CONTINUOUS
 62
7
100
AcDbLine
 10
53.08684112835996
 20
89.39418322055283
 30
0.000000000000000
 11
60.28684112836066
 21
90.69418322021137
 31
0.000000000000000
  0
LINE
  5
B7
100
AcDbEntity
  8
A1
  6
CONTINUOUS
 62
7
100
AcDbLine
 10
60.50006016487804
 20
89.51327778688209
 30
0.000000000000000
 11
53.30006016487734
 21
88.21327778722355
 31
0.000000000000000
  0
LINE
  5
B8
100
AcDbEntity
  8
A1
  6
CONTINUOUS
 62
7
100
AcDbLine
 10
53.08684112836002
 20
86.79418322055280
 30
0.000000000000000
 11
60.28684112836072
 21
88.09418322021133
 31
0.000000000000000
  0
LINE
  5
B9
100
AcDbEntity
  8
A1
  6
CONTINUOUS
 62
7
100
AcDbLine
 10
60.50006016487802
 20
86.91327778688212
 30
0.000000000000000
 11
53.30006016487732
 21
85.61327778722358
 31
0.000000000000000
  0
LINE
  5
BA
100
AcDbEntity
  8
A1
  6
CONTINUOUS
 62
7
100
AcDbLine
 10
53.08684112835996
 20
84.19418322055276
 30
0.000000000000000
 11
60.28684112836066
 21
85.49418322021131
 31
0.000000000000000
  0
LINE
  5
BB
100
AcDbEntity
  8
A1
  6
CONTINUOUS
 62
7
100
AcDbLine
 10
60.50006016487804
 20
84.31327778688205
 30
0.000000000000000
 11
53.30006016487734
 21
83.01327778722350
 31
0.000000000000000
  0
LINE
  5
BC
100
AcDbEntity
  8
A1
  6
CONTINUOUS
 62
7
100
AcDbLine
 10
53.07892885115797
 20
81.49269973734818
 30
0.000000000000000
 11
60.27892885115803
 21
82.89269973734781
 31
0.000000000000000
  0
LINE
  5
BD
100
AcDbEntity
  8
A1
  6
CONTINUOUS
 62
7
100
AcDbLine
 10
60.50797244208064
 20
81.71476126974551
 30
0.000000000000000
 11
53.30797244208058
 21
80.31476126974587
 31
0.000000000000000
  0
LINE
  5
BE
100
AcDbEntity
  8
A1
  6
CONTINUOUS
 62
7
100
AcDbLine
 10
53.08684112830558
 20
90.81327778723346
 30
0.000000000000000
 11
54.24776889873569
 21
90.60366582862856
 31
0.000000000000000
  0
LINE
  5
BF
100
AcDbEntity
  8
A1
  6
CONTINUOUS
 62
7
100
AcDbLine
 10
53.08684112830578
 20
88.21327778723330
 30
0.000000000000000
 11
54.24770024881013
 21
88.00367822375387
 31
0.000000000000000
  0
LINE
  5
C0
100
AcDbEntity
  8
A1
  6
CONTINUOUS
 62
7
100
AcDbLine
 10
53.08684112830562
 20
85.61327778723334
 30
0.000000000000000
 11
54.24763159888457
 21
85.40369061887935
 31
0.000000000000000
  0
LINE
  5
C1
100
AcDbEntity
  8
A1
  6
CONTINUOUS
 62
7
100
AcDbLine
 10
53.08684112830569
 20
83.01327778723339
 30
0.000000000000000
 11
54.24756294895897
 21
82.80370301400484
 31
0.000000000000000
  0
LINE
  5
C2
100
AcDbEntity
  8
A1
  6
CONTINUOUS
 62
7
100
AcDbLine
 10
59.24713332748139
 20
85.72040612146726
 30
0.000000000000000
 11
60.50006016493226
 21
85.49418322020148
 31
0.000000000000000
  0
LINE
  5
C3
100
AcDbEntity
  8
A1
  6
CONTINUOUS
 62
7
100
AcDbLine
 10
59.24713332748517
 20
88.32040612146669
 30
0.000000000000000
 11
60.50006016493217
 21
88.09418322020159
 31
0.000000000000000
  0
LINE
  5
C4
100
AcDbEntity
  8
A1
  6
CONTINUOUS
 62
7
100
AcDbLine
 10
59.24713332748900
 20
90.92040612146599
 30
0.000000000000000
 11
60.69491784190825
 21
90.65900058407166
 31
0.000000000000000
  0
LINE
  5
C5
100
AcDbEntity
  8
A1
  6
CONTINUOUS
 62
7
100
AcDbLine
 10
59.24713332747761
 20
83.12040612146794
 30
0.000000000000000
 11
60.50006016493229
 21
82.89418322020144
 31
0.000000000000000
  0
LINE
  5
C6
100
AcDbEntity
  8
A1
  6
CONTINUOUS
 62
7
100
AcDbLine
 10
59.24713332747380
 20
80.50305964310088
 30
0.000000000000000
 11
60.49209003900279
 21
80.29556685784604
 31
0.000000000000000
  0
ARC
  5
C7
100
AcDbEntity
  8
A1
  6
CONTINUOUS
 62
7
100
AcDbCircle
 10
53.19345064661925
 20
93.90373050354688
 30
0.000000000000000
 40
0.6000000000000000
100
AcDbArc
 50
90.00000000000000
 51
270.0000000000000
  0
LINE
  5
C8
100
AcDbEntity
  8
A1
  6
CONTINUOUS
 62
7
100
AcDbLine
 10
52.29140912156272
 20
79.10373050354659
 30
0.000000000000000
 11
61.29541888824856
 21
79.10373050354659
 31
0.000000000000000
  0
ARC
  5
C9
100
AcDbEntity
  8
A1
  6
CONTINUOUS
 62
7
100
AcDbCircle
 10
61.29541888824858
 20
78.60373050354670
 30
0.000000000000000
 40
0.5000000000000000
100
AcDbArc
 50
1.768599999999876
 51
89.99999999999893
  0
ARC
  5
CA
100
AcDbEntity
  8
A1
  6
CONTINUOUS
 62
7
100
AcDbCircle
 10
52.29140912156274
 20
78.60373050354670
 30
0.000000000000000
 40
0.5000000000000000
100
AcDbArc
 50
90.00000000000057
 51
181.7685999999999
  0
LINE
  5
CB
100
AcDbEntity
  8
A1
  6
CONTINUOUS
 62
7
100
AcDbLine
 10
61.29546094692536
 20
76.60373050359732
 30
0.000000000000000
 11
52.29140912156272
 21
76.60373050359732
 31
0.000000000000000
  0
ARC
  5
CC
100
AcDbEntity
  8
A1
  6
CONTINUOUS
 62
7
100
AcDbCircle
 10
52.29140912156274
 20
77.10373050359746
 30
0.000000000000000
 40
0.5000000000000000
100
AcDbArc
 50
181.7685999999999
 51
270.0000000000006
  0
ARC
  5
CD
100
AcDbEntity
  8
A1
  6
CONTINUOUS
 62
7
100
AcDbCircle
 10
61.29546094692535
 20
77.10373050359740
 30
0.000000000000000
 40
0.5000000000000000
100
AcDbArc
 50
270.0000000000006
 51
361.7685999999999
  0
LINE
  5
CE
100
AcDbEntity
  8
A1
  6
CONTINUOUS
 62
7
100
AcDbLine
 10
53.19345064659331
 20
76.60373220941229
 30
0.000000000000000
 11
60.39345064659335
 21
76.60373220941230
 31
0.000000000000000
  0
LINE
  5
CF
100
AcDbEntity
  8
A1
  6
CONTINUOUS
 62
7
100
AcDbLine
 10
61.79518070045524
 20
78.61916199925915
 30
0.000000000000000
 11
61.79518070045524
 21
77.11916199930985
 31
0.000000000000000
  0
LINE
  5
D0
100
AcDbEntity
  8
A1
  6
CONTINUOUS
 62
7
100
AcDbLine
 10
51.79164730935609
 20
78.58829900783425
 30
0.000000000000000
 11
51.79164730935609
 21
77.08829900788501
 31
0.000000000000000
  0
ARC
  5
D1
100
AcDbEntity
  8
A1
  6
CONTINUOUS
 62
7
100
AcDbCircle
 10
52.79345064661931
 20
76.11024754170208
 30
0.000000000000000
 40
2.000000000000000
100
AcDbArc
 50
120.0596718674171
 51
180.0000000000000
  0
LINE
  5
D2
100
AcDbEntity
  8
A1
  6
CONTINUOUS
 62
7
100
AcDbLine
 10
52.79345064661926
 20
76.60373050359729
 30
0.000000000000000
 11
52.79345064661931
 21
69.90719250354701
 31
0.000000000000000
  0
LINE
  5
D3
100
AcDbEntity
  8
A1
  6
CONTINUOUS
 62
7
100
AcDbLine
 10
52.79345064661931
 20
54.10719250354721
 30
0.000000000000000
 11
50.79345064661931
 21
54.10719250354721
 31
0.000000000000000
  0
LINE
  5
D4
100
AcDbEntity
  8
A1
  6
CONTINUOUS
 62
7
100
AcDbLine
 10
54.24719365030767
 20
68.90373038452198
 30
0.000000000000000
 11
54.24719365031012
 21
76.60373050359158
 31
0.000000000000000
  0
LINE
  5
D5
100
AcDbEntity
  8
A1
  6
CONTINUOUS
 62
7
100
AcDbLine
 10
153.0944807758350
 20
66.80719250354691
 30
0.000000000000000
 11
155.0944807758349
 21
66.80719250354691
 31
0.000000000000000
  0
LINE
  5
D6
100
AcDbEntity
  8
A1
  6
CONTINUOUS
 62
7
100
AcDbLine
 10
167.0944807758349
 20
66.80719250354691
 30
0.000000000000000
 11
169.0944807758350
 21
66.80719250354691
 31
0.000000000000000
  0
LINE
  5
D7
100
AcDbEntity
  8
A1
  6
CONTINUOUS
 62
7
100
AcDbLine
 10
52.29140912158876
 20
97.00897950354712
 30
0.000000000000000
 11
54.24793802427544
 21
97.00897950354712
 31
0.000000000000000
  0
LINE
  5
D8
100
AcDbEntity
  8
A1
  6
CONTINUOUS
 62
7
100
AcDbLine
 10
59.24713332749779
 20
97.00897950354712
 30
0.000000000000000
 11
61.29541888827460
 21
97.00897950354712
 31
0.000000000000000
  0
LINE
  5
D9
100
AcDbEntity
  8
A1
  6
CONTINUOUS
 62
7
100
AcDbLine
 10
59.24713332749415
 20
94.50373050354702
 30
0.000000000000000
 11
60.39345064661940
 21
94.50373050354702
 31
0.000000000000000
  0
LINE
  5
DA
100
AcDbEntity
  8
A1
  6
CONTINUOUS
 62
7
100
AcDbLine
 10
54.24803908470365
 20
100.8364543127217
 30
0.000000000000000
 11
54.24787187577755
 21
94.50372879773205
 31
0.000000000000000
  0
LINE
  5
DB
100
AcDbEntity
  8
A1
  6
CONTINUOUS
 62
7
100
AcDbLine
 10
59.24713332750336
 20
100.8364543127130
 30
0.000000000000000
 11
59.24713332749415
 21
94.50372879773212
 31
0.000000000000000
  0
LINE
  5
DC
100
AcDbEntity
  8
A1
  6
CONTINUOUS
 62
7
100
AcDbLine
 10
59.24713332749243
 20
93.30373050354699
 30
0.000000000000000
 11
59.24713332749214
 21
93.10645820065939
 31
0.000000000000000
  0
LINE
  5
DD
100
AcDbEntity
  8
A1
  6
CONTINUOUS
 62
7
100
AcDbLine
 10
54.24784019109054
 20
93.30373050354694
 30
0.000000000000000
 11
54.24781114866190
 21
92.20380280749667
 31
0.000000000000000
  0
LINE
  5
DE
100
AcDbEntity
  8
A1
  6
CONTINUOUS
 62
7
100
AcDbLine
 10
54.24777895145232
 20
90.98439367919902
 30
0.000000000000000
 11
54.24774249808179
 21
89.60379041225295
 31
0.000000000000000
  0
LINE
  5
DF
100
AcDbEntity
  8
A1
  6
CONTINUOUS
 62
7
100
AcDbLine
 10
59.24713332749035
 20
91.88705488574651
 30
0.000000000000000
 11
59.24713332748835
 21
90.50645820065868
 31
0.000000000000000
  0
LINE
  5
E0
100
AcDbEntity
  8
A1
  6
CONTINUOUS
 62
7
100
AcDbLine
 10
59.24713332748658
 20
89.28705488574580
 30
0.000000000000000
 11
59.24713332748458
 21
87.90645820065798
 31
0.000000000000000
  0
LINE
  5
E1
100
AcDbEntity
  8
A1
  6
CONTINUOUS
 62
7
100
AcDbLine
 10
54.24771030087221
 20
88.38438128395534
 30
0.000000000000000
 11
54.24767384750168
 21
87.00377801700931
 31
0.000000000000000
  0
LINE
  5
E2
100
AcDbEntity
  8
A1
  6
CONTINUOUS
 62
7
100
AcDbLine
 10
59.24713332748279
 20
86.68705488574516
 30
0.000000000000000
 11
59.24713332748079
 21
85.30645820065727
 31
0.000000000000000
  0
LINE
  5
E3
100
AcDbEntity
  8
A1
  6
CONTINUOUS
 62
7
100
AcDbLine
 10
54.24764165029207
 20
85.78436888871173
 30
0.000000000000000
 11
54.24760519692154
 21
84.40376562176567
 31
0.000000000000000
  0
LINE
  5
E4
100
AcDbEntity
  8
A1
  6
CONTINUOUS
 62
7
100
AcDbLine
 10
54.24750205472115
 20
80.49744758331482
 30
0.000000000000000
 11
54.24749693982635
 21
80.30373050354703
 31
0.000000000000000
  0
LINE
  5
E5
100
AcDbEntity
  8
A1
  6
CONTINUOUS
 62
7
100
AcDbLine
 10
54.24757299971193
 20
83.18435649346803
 30
0.000000000000000
 11
54.24753433304022
 21
81.71992858104745
 31
0.000000000000000
  0
LINE
  5
E6
100
AcDbEntity
  8
A1
  6
CONTINUOUS
 62
7
100
AcDbLine
 10
59.24713332747523
 20
81.46959810857238
 30
0.000000000000000
 11
59.24713332747354
 21
80.30373050354713
 31
0.000000000000000
  0
LINE
  5
E7
100
AcDbEntity
  8
A1
  6
CONTINUOUS
 62
7
100
AcDbLine
 10
59.24713332747903
 20
84.08705488574442
 30
0.000000000000000
 11
59.24713332747701
 21
82.69207282996548
 31
0.000000000000000
  0
ARC
  5
E8
100
AcDbEntity
  8
A1
  6
CONTINUOUS
 62
7
100
AcDbCircle
 10
56.74719264727827
 20
68.90373256501678
 30
0.000000000000000
 40
2.500000000000247
100
AcDbArc
 50
180.0000499732594
 51
360.0000499734188
  0
ARC
  5
E9
100
AcDbEntity
  8
A1
  6
CONTINUOUS
 62
7
100
AcDbCircle
 10
55.79345064661939
 20
69.80719250354696
 30
0.000000000000000
 40
3.000000000000000
100
AcDbArc
 50
180.0000000000001
 51
261.1502618797728
  0
ARC
  5
EA
100
AcDbEntity
  8
A1
  6
CONTINUOUS
 62
7
100
AcDbCircle
 10
57.79345064661916
 20
85.90719250354735
 30
0.000000000000000
 40
6.000000000000000
100
AcDbArc
 50
0.000000000000000
 51
75.97882664267524
  0
ARC
  5
EB
100
AcDbEntity
  8
A1
  6
CONTINUOUS
 62
7
100
AcDbCircle
 10
61.25749000787604
 20
86.40762362134782
 30
0.000000000000000
 40
1.000000000000000
100
AcDbArc
 50
268.6262731699549
 51
368.2203413968241
  0
ARC
  5
EC
100
AcDbEntity
  8
A1
  6
CONTINUOUS
 62
7
100
AcDbCircle
 10
57.79345064661916
 20
85.90719250354735
 30
0.000000000000000
 40
4.500000000000000
100
AcDbArc
 50
8.220341396824471
 51
53.21597825535165
  0
ARC
  5
ED
100
AcDbEntity
  8
A1
  6
CONTINUOUS
 62
7
100
AcDbCircle
 10
61.29345064661939
 20
87.90719250354712
 30
0.000000000000000
 40
2.499999999999773
100
AcDbArc
 50
270.0000000000000
 51
341.7955525199615
  0
LINE
  5
EE
100
AcDbEntity
  8
A1
  6
CONTINUOUS
 62
7
100
AcDbLine
 10
61.29345064661939
 20
85.40791103321479
 30
0.000000000000000
 11
60.71872283034189
 21
85.40791103321479
 31
0.000000000000000
  0
LINE
  5
EF
100
AcDbEntity
  8
A1
  6
CONTINUOUS
 62
7
100
AcDbLine
 10
50.79345064661917
 20
85.90719250354712
 30
0.000000000000000
 11
50.79345064661917
 21
79.98319950354713
 31
0.000000000000000
  0
ARC
  5
F0
100
AcDbEntity
  8
A1
  6
CONTINUOUS
 62
7
100
AcDbCircle
 10
55.79345064661916
 20
85.90719250354712
 30
0.000000000000000
 40
5.000000000000000
100
AcDbArc
 50
109.3738472046452
 51
180.0000000000001
  0
LINE
  5
F1
100
AcDbEntity
  8
A1
  6
CONTINUOUS
 62
7
100
AcDbLine
 10
51.79164730935605
 20
78.38731928606853
 30
0.000000000000000
 11
51.25645909531295
 21
78.89938747071128
 31
0.000000000000000
  0
ARC
  5
F2
100
AcDbEntity
  8
A1
  6
CONTINUOUS
 62
7
100
AcDbCircle
 10
52.29345064661916
 20
79.98319950354713
 30
0.000000000000000
 40
1.500000000000000
100
AcDbArc
 50
180.0000000000001
 51
226.2647000000001
  0
LINE
  5
F3
100
AcDbEntity
  8
A4
  6
CENTER
 62
1
100
AcDbLine
 10
149.0944813863706
 20
70.90373233651215
 30
0.000000000000000
 11
152.5944813863706
 21
70.90373233651215
 31
0.000000000000000
  0
LINE
  5
F4
100
AcDbEntity
  8
A1
  6
CONTINUOUS
 62
7
100
AcDbLine
 10
150.5944807758338
 20
107.3571925035471
 30
0.000000000000000
 11
150.5944807758338
 21
104.5571925035471
 31
0.000000000000000
  0
LINE
  5
F5
100
AcDbEntity
  8
A1
  6
CONTINUOUS
 62
7
100
AcDbLine
 10
151.0944807758338
 20
107.3571925035471
 30
0.000000000000000
 11
150.5944807758338
 21
107.3571925035471
 31
0.000000000000000
  0
LINE
  5
F6
100
AcDbEntity
  8
A1
  6
CONTINUOUS
 62
7
100
AcDbLine
 10
151.0944807758338
 20
104.5571925035471
 30
0.000000000000000
 11
150.5944807758338
 21
104.5571925035471
 31
0.000000000000000
  0
LINE
  5
F7
100
AcDbEntity
  8
A1
  6
CONTINUOUS
 62
7
100
AcDbLine
 10
171.0944801652991
 20
73.45021404964299
 30
0.000000000000000
 11
171.0944801652991
 21
66.40373233651221
 31
0.000000000000000
  0
LINE
  5
F8
100
AcDbEntity
  8
A1
  6
CONTINUOUS
 62
7
100
AcDbLine
 10
171.5944801652993
 20
72.20373233651219
 30
0.000000000000000
 11
171.5944801652993
 21
69.60373233651217
 31
0.000000000000000
  0
LINE
  5
F9
100
AcDbEntity
  8
A1
  6
CONTINUOUS
 62
7
100
AcDbLine
 10
171.5944801652993
 20
72.20373233651219
 30
0.000000000000000
 11
171.0944801652993
 21
72.20373233651219
 31
0.000000000000000
  0
LINE
  5
FA
100
AcDbEntity
  8
A1
  6
CONTINUOUS
 62
7
100
AcDbLine
 10
171.5944801652993
 20
69.60373233651217
 30
0.000000000000000
 11
171.0944801652993
 21
69.60373233651217
 31
0.000000000000000
  0
LINE
  5
FB
100
AcDbEntity
  8
A1
  6
CONTINUOUS
 62
7
100
AcDbLine
 10
169.5944801652993
 20
73.45021404964314
 30
0.000000000000000
 11
169.5944801652993
 21
66.40373233651222
 31
0.000000000000000
  0
LINE
  5
FC
100
AcDbEntity
  8
A4
  6
CENTER
 62
1
100
AcDbLine
 10
173.0944801652993
 20
70.90373233651219
 30
0.000000000000000
 11
169.5944801652993
 21
70.90373233651218
 31
0.000000000000000
  0
ARC
  5
FD
100
AcDbEntity
  8
A1
  6
CONTINUOUS
 62
7
100
AcDbCircle
 10
172.0944801652993
 20
99.50898133651211
 30
0.000000000000000
 40
1.000000000000000
100
AcDbArc
 50
180.0000000000000
 51
269.9999999999999
  0
ARC
  5
FE
100
AcDbEntity
  8
A1
  6
CONTINUOUS
 62
7
100
AcDbCircle
 10
172.0944801652993
 20
99.50898133651211
 30
0.000000000000000
 40
2.500000000000000
100
AcDbArc
 50
180.0000000000000
 51
269.9999999999999
  0
LINE
  5
FF
100
AcDbEntity
  8
A1
  6
CONTINUOUS
 62
7
100
AcDbLine
 10
169.5944801652993
 20
108.6037323365122
 30
0.000000000000000
 11
169.5944801652993
 21
99.50898133651212
 31
0.000000000000000
  0
LINE
  5
100
100
AcDbEntity
  8
A1
  6
CONTINUOUS
 62
7
100
AcDbLine
 10
171.0944801652993
 20
108.6037323365122
 30
0.000000000000000
 11
171.0944801652993
 21
99.50898133651212
 31
0.000000000000000
  0
LINE
  5
101
100
AcDbEntity
  8
A1
  6
CONTINUOUS
 62
7
100
AcDbLine
 10
171.0944801652993
 20
108.6037323365122
 30
0.000000000000000
 11
169.5944801652993
 21
108.6037323365122
 31
0.000000000000000
  0
LINE
  5
102
100
AcDbEntity
  8
A1
  6
CONTINUOUS
 62
7
100
AcDbLine
 10
171.5944807758360
 20
107.3571925035471
 30
0.000000000000000
 11
171.5944807758360
 21
104.5571925035471
 31
0.000000000000000
  0
LINE
  5
103
100
AcDbEntity
  8
A1
  6
CONTINUOUS
 62
7
100
AcDbLine
 10
171.0944807758360
 20
107.3571925035472
 30
0.000000000000000
 11
171.5944807758360
 21
107.3571925035472
 31
0.000000000000000
  0
LINE
  5
104
100
AcDbEntity
  8
A1
  6
CONTINUOUS
 62
7
100
AcDbLine
 10
171.0944807758360
 20
104.5571925035471
 30
0.000000000000000
 11
171.5944807758360
 21
104.5571925035471
 31
0.000000000000000
  0
LINE
  5
105
100
AcDbEntity
  8
A1
  6
CONTINUOUS
 62
7
100
AcDbLine
 10
152.5944813863706
 20
72.20373233651068
 30
0.000000000000000
 11
153.0944807758315
 21
72.20373233651019
 31
0.000000000000000
  0
LINE
  5
106
100
AcDbEntity
  8
A1
  6
CONTINUOUS
 62
7
100
AcDbLine
 10
152.5944813863706
 20
69.60373233651177
 30
0.000000000000000
 11
153.0944807758315
 21
69.60373233651164
 31
0.000000000000000
  0
LINE
  5
107
100
AcDbEntity
  8
A1
  6
CONTINUOUS
 62
7
100
AcDbLine
 10
169.5944801652993
 20
72.20373233651073
 30
0.000000000000000
 11
169.0944807758383
 21
72.20373233651023
 31
0.000000000000000
  0
LINE
  5
108
100
AcDbEntity
  8
A1
  6
CONTINUOUS
 62
7
100
AcDbLine
 10
169.5944801652993
 20
69.60373233651180
 30
0.000000000000000
 11
169.0944807758384
 21
69.60373233651167
 31
0.000000000000000
  0
CIRCLE
  5
109
100
AcDbEntity
  8
A3
  6
DASHED
 62
2
100
AcDbCircle
 10
161.0944807758349
 20
72.60719250354715
 30
0.000000000000000
 40
1.650000000000000
  0
CIRCLE
  5
10A
100
AcDbEntity
  8
A3
  6
DASHED
 62
2
100
AcDbCircle
 10
161.0944807758349
 20
58.60719250354715
 30
0.000000000000000
 40
1.650000000000000
  0
LINE
  5
10B
100
AcDbEntity
  8
A1
  6
CONTINUOUS
 62
7
100
AcDbLine
 10
151.0944813863707
 20
66.40373233651215
 30
0.000000000000000
 11
152.5944813863706
 21
66.40373233651215
 31
0.000000000000000
  0
LINE
  5
10C
100
AcDbEntity
  8
A1
  6
CONTINUOUS
 62
7
100
AcDbLine
 10
171.0944801652991
 20
66.40373233651221
 30
0.000000000000000
 11
169.5944801652993
 21
66.40373233651221
 31
0.000000000000000
  0
LINE
  5
10D
100
AcDbEntity
  8
A4
  6
CENTER
 62
1
100
AcDbLine
 10
161.0944807758349
 20
110.1037323365121
 30
0.000000000000000
 11
161.0944807758350
 21
49.41217250354707
 31
0.000000000000000
  0
ARC
  5
10E
100
AcDbEntity
  8
A1
  6
CONTINUOUS
 62
7
100
AcDbCircle
 10
53.79925742710050
 20
106.1037323365122
 30
0.000000000000000
 40
2.500000000000000
100
AcDbArc
 50
35.37811625348954
 51
215.3915740964966
  0
LINE
  5
10F
100
AcDbEntity
  8
A1
  6
CONTINUOUS
 62
7
100
AcDbLine
 10
55.83762989936282
 20
107.5511568299913
 30
0.000000000000000
 11
58.12329435072254
 21
104.3323115503447
 31
0.000000000000000
  0
LINE
  5
110
100
AcDbEntity
  8
A1
  6
CONTINUOUS
 62
7
100
AcDbLine
 10
51.76088495483826
 20
104.6563078430331
 30
0.000000000000000
 11
54.08808940731348
 21
101.3789627969717
 31
0.000000000000000
  0
ARC
  5
111
100
AcDbEntity
  8
A1
  6
CONTINUOUS
 62
7
100
AcDbCircle
 10
53.24803908470375
 20
100.8364543127217
 30
0.000000000000000
 40
5.999094242857485
100
AcDbArc
 50
0.000000000000000
 51
35.64284561617577
  0
ARC
  5
112
100
AcDbEntity
  8
A1
  6
CONTINUOUS
 62
7
100
AcDbCircle
 10
53.24803908470375
 20
100.8364543127217
 30
0.000000000000000
 40
1.000000000000000
100
AcDbArc
 50
0.000000000000000
 51
32.85456605441293
  0
CIRCLE
  5
113
100
AcDbEntity
  8
A1
  6
CONTINUOUS
 62
7
100
AcDbCircle
 10
53.89345064661937
 20
105.9571925035472
 30
0.000000000000000
 40
1.400000000000000
  0
LINE
  5
114
100
AcDbEntity
  8
A1
  6
CONTINUOUS
 62
7
100
AcDbLine
 10
145.9444813863707
 20
93.30373233651201
 30
0.000000000000000
 11
145.9444813863707
 21
92.39260066087681
 31
0.000000000000000
  0
LINE
  5
115
100
AcDbEntity
  8
A1
  6
CONTINUOUS
 62
7
100
AcDbLine
 10
147.4444813863707
 20
93.30373233651201
 30
0.000000000000000
 11
147.4444813863707
 21
92.66343399413898
 31
0.000000000000000
  0
LINE
  5
116
100
AcDbEntity
  8
A1
  6
CONTINUOUS
 62
7
100
AcDbLine
 10
148.9444813863707
 20
93.30373233651201
 30
0.000000000000000
 11
148.9444813863707
 21
92.93426732740116
 31
0.000000000000000
  0
LINE
  5
117
100
AcDbEntity
  8
A1
  6
CONTINUOUS
 62
7
100
AcDbLine
 10
148.9444813863707
 20
91.71486401248862
 30
0.000000000000000
 11
148.9444813863707
 21
90.33426732740108
 31
0.000000000000000
  0
LINE
  5
118
100
AcDbEntity
  8
A1
  6
CONTINUOUS
 62
7
100
AcDbLine
 10
147.4444813863707
 20
91.44403067922644
 30
0.000000000000000
 11
147.4444813863707
 21
90.06343399413893
 31
0.000000000000000
  0
LINE
  5
119
100
AcDbEntity
  8
A1
  6
CONTINUOUS
 62
7
100
AcDbLine
 10
145.9444813863707
 20
91.17319734596427
 30
0.000000000000000
 11
145.9444813863707
 21
89.79260066087673
 31
0.000000000000000
  0
LINE
  5
11A
100
AcDbEntity
  8
A1
  6
CONTINUOUS
 62
7
100
AcDbLine
 10
148.9444813863707
 20
89.11486401248854
 30
0.000000000000000
 11
148.9444813863707
 21
87.73426732740108
 31
0.000000000000000
  0
LINE
  5
11B
100
AcDbEntity
  8
A1
  6
CONTINUOUS
 62
7
100
AcDbLine
 10
147.4444813863707
 20
88.84403067922634
 30
0.000000000000000
 11
147.4444813863707
 21
87.46343399413891
 31
0.000000000000000
  0
LINE
  5
11C
100
AcDbEntity
  8
A1
  6
CONTINUOUS
 62
7
100
AcDbLine
 10
145.9444813863707
 20
88.57319734596419
 30
0.000000000000000
 11
145.9444813863707
 21
87.19260066087674
 31
0.000000000000000
  0
LINE
  5
11D
100
AcDbEntity
  8
A1
  6
CONTINUOUS
 62
7
100
AcDbLine
 10
148.9444813863707
 20
86.51486401248857
 30
0.000000000000000
 11
148.9444813863707
 21
85.13426732740106
 31
0.000000000000000
  0
LINE
  5
11E
100
AcDbEntity
  8
A1
  6
CONTINUOUS
 62
7
100
AcDbLine
 10
147.4444813863707
 20
86.24403067922640
 30
0.000000000000000
 11
147.4444813863707
 21
84.86343399413889
 31
0.000000000000000
  0
LINE
  5
11F
100
AcDbEntity
  8
A1
  6
CONTINUOUS
 62
7
100
AcDbLine
 10
145.9444813863707
 20
85.97319734596422
 30
0.000000000000000
 11
145.9444813863707
 21
84.59260066087671
 31
0.000000000000000
  0
LINE
  5
120
100
AcDbEntity
  8
A1
  6
CONTINUOUS
 62
7
100
AcDbLine
 10
148.9444813863707
 20
81.28416164248216
 30
0.000000000000000
 11
148.9444813863707
 21
80.30373233651235
 31
0.000000000000000
  0
LINE
  5
121
100
AcDbEntity
  8
A1
  6
CONTINUOUS
 62
7
100
AcDbLine
 10
148.9444813863707
 20
83.91486401248849
 30
0.000000000000000
 11
148.9444813863707
 21
82.50663636387495
 31
0.000000000000000
  0
LINE
  5
122
100
AcDbEntity
  8
A1
  6
CONTINUOUS
 62
7
100
AcDbLine
 10
147.4444813863707
 20
80.99249497581556
 30
0.000000000000000
 11
147.4444813863707
 21
80.30373233651218
 31
0.000000000000000
  0
LINE
  5
123
100
AcDbEntity
  8
A1
  6
CONTINUOUS
 62
7
100
AcDbLine
 10
147.4444813863707
 20
83.64403067922632
 30
0.000000000000000
 11
147.4444813863707
 21
82.21496969720837
 31
0.000000000000000
  0
LINE
  5
124
100
AcDbEntity
  8
A1
  6
CONTINUOUS
 62
7
100
AcDbLine
 10
145.9444813863707
 20
80.70082830914896
 30
0.000000000000000
 11
145.9444813863707
 21
80.30373233651235
 31
0.000000000000000
  0
LINE
  5
125
100
AcDbEntity
  8
A1
  6
CONTINUOUS
 62
7
100
AcDbLine
 10
145.9444813863707
 20
83.37319734596414
 30
0.000000000000000
 11
145.9444813863707
 21
81.92330303054177
 31
0.000000000000000
  0
LINE
  5
126
100
AcDbEntity
  8
A1
  6
CONTINUOUS
 62
7
100
AcDbLine
 10
147.2212905661562
 20
91.40373233669831
 30
0.000000000000000
 11
147.4444813863706
 21
91.36343399414901
 31
0.000000000000000
  0
LINE
  5
127
100
AcDbEntity
  8
A1
  6
CONTINUOUS
 62
7
100
AcDbLine
 10
148.9444813863707
 20
91.09260066074454
 30
0.000000000000000
 11
151.1510909046838
 21
90.69418505316669
 31
0.000000000000000
  0
LINE
  5
128
100
AcDbEntity
  8
A1
  6
CONTINUOUS
 62
7
100
AcDbLine
 10
143.7378718680570
 20
90.81327962019860
 30
0.000000000000000
 11
145.9444813863707
 21
90.41486401262073
 31
0.000000000000000
  0
LINE
  5
129
100
AcDbEntity
  8
A1
  6
CONTINUOUS
 62
7
100
AcDbLine
 10
147.4444813863707
 20
90.14403067921633
 30
0.000000000000000
 11
147.6676722065850
 21
90.10373233666705
 31
0.000000000000000
  0
LINE
  5
12A
100
AcDbEntity
  8
A1
  6
CONTINUOUS
 62
7
100
AcDbLine
 10
147.2212905661564
 20
88.80373233669826
 30
0.000000000000000
 11
147.4444813863707
 21
88.76343399414898
 31
0.000000000000000
  0
LINE
  5
12B
100
AcDbEntity
  8
A1
  6
CONTINUOUS
 62
7
100
AcDbLine
 10
148.9444813863707
 20
88.49260066074459
 30
0.000000000000000
 11
151.1510909046836
 21
88.09418505316680
 31
0.000000000000000
  0
LINE
  5
12C
100
AcDbEntity
  8
A1
  6
CONTINUOUS
 62
7
100
AcDbLine
 10
143.7378718680571
 20
88.21327962019839
 30
0.000000000000000
 11
145.9444813863706
 21
87.81486401262052
 31
0.000000000000000
  0
LINE
  5
12D
100
AcDbEntity
  8
A1
  6
CONTINUOUS
 62
7
100
AcDbLine
 10
147.4444813863707
 20
87.54403067921609
 30
0.000000000000000
 11
147.6676722065845
 21
87.50373233666690
 31
0.000000000000000
  0
LINE
  5
12E
100
AcDbEntity
  8
A1
  6
CONTINUOUS
 62
7
100
AcDbLine
 10
147.2212905661557
 20
86.20373233669820
 30
0.000000000000000
 11
147.4444813863706
 21
86.16343399414880
 31
0.000000000000000
  0
LINE
  5
12F
100
AcDbEntity
  8
A1
  6
CONTINUOUS
 62
7
100
AcDbLine
 10
148.9444813863706
 20
85.89260066074441
 30
0.000000000000000
 11
151.1510909046836
 21
85.49418505316665
 31
0.000000000000000
  0
LINE
  5
130
100
AcDbEntity
  8
A1
  6
CONTINUOUS
 62
7
100
AcDbLine
 10
143.7378718680570
 20
85.61327962019850
 30
0.000000000000000
 11
145.9444813863707
 21
85.21486401262065
 31
0.000000000000000
  0
LINE
  5
131
100
AcDbEntity
  8
A1
  6
CONTINUOUS
 62
7
100
AcDbLine
 10
147.4444813863707
 20
84.94403067921624
 30
0.000000000000000
 11
147.6676722065849
 21
84.90373233666699
 31
0.000000000000000
  0
LINE
  5
132
100
AcDbEntity
  8
A1
  6
CONTINUOUS
 62
7
100
AcDbLine
 10
147.2212905661558
 20
83.60373233669809
 30
0.000000000000000
 11
147.4444813863707
 21
83.56343399414872
 31
0.000000000000000
  0
LINE
  5
133
100
AcDbEntity
  8
A1
  6
CONTINUOUS
 62
7
100
AcDbLine
 10
148.9444813863707
 20
83.29260066074434
 30
0.000000000000000
 11
151.1510909046837
 21
82.89418505316658
 31
0.000000000000000
  0
LINE
  5
134
100
AcDbEntity
  8
A1
  6
CONTINUOUS
 62
7
100
AcDbLine
 10
143.7378718680569
 20
83.01327962019843
 30
0.000000000000000
 11
145.9444813863707
 21
82.61486401262047
 31
0.000000000000000
  0
LINE
  5
135
100
AcDbEntity
  8
A1
  6
CONTINUOUS
 62
7
100
AcDbLine
 10
147.4444813863707
 20
82.34403067921602
 30
0.000000000000000
 11
147.7886440050145
 21
82.28189020638901
 31
0.000000000000000
  0
LINE
  5
136
100
AcDbEntity
  8
A1
  6
CONTINUOUS
 62
7
100
AcDbLine
 10
147.2215960089971
 20
80.94915615243740
 30
0.000000000000000
 11
147.4444813863706
 21
80.91200858954180
 31
0.000000000000000
  0
LINE
  5
137
100
AcDbEntity
  8
A1
  6
CONTINUOUS
 62
7
100
AcDbLine
 10
148.9444813863707
 20
80.66200858954173
 30
0.000000000000000
 11
151.1431207787541
 21
80.29556869081114
 31
0.000000000000000
  0
LINE
  5
138
100
AcDbEntity
  8
A1
  6
CONTINUOUS
 62
7
100
AcDbLine
 10
147.8273800396472
 20
76.82145950330876
 30
0.000000000000000
 11
151.0944813863707
 21
73.45021404964304
 31
0.000000000000000
  0
LINE
  5
139
100
AcDbEntity
  8
A1
  6
CONTINUOUS
 62
7
100
AcDbLine
 10
148.9444813863709
 20
77.82414454262404
 30
0.000000000000000
 11
152.1716489212354
 21
74.49410585525965
 31
0.000000000000000
  0
LINE
  5
13A
100
AcDbEntity
  8
A1
  6
CONTINUOUS
 62
7
100
AcDbLine
 10
176.2444801652991
 20
96.00898133651211
 30
0.000000000000000
 11
176.2444801652991
 21
94.50373233651206
 31
0.000000000000000
  0
LINE
  5
13B
100
AcDbEntity
  8
A1
  6
CONTINUOUS
 62
7
100
AcDbLine
 10
174.7444801652991
 20
96.00898133651211
 30
0.000000000000000
 11
174.7444801652991
 21
94.50373233651206
 31
0.000000000000000
  0
LINE
  5
13C
100
AcDbEntity
  8
A1
  6
CONTINUOUS
 62
7
100
AcDbLine
 10
174.7444801652991
 20
97.00898133651225
 30
0.000000000000000
 11
174.7444801652991
 21
94.50373233651220
 31
0.000000000000000
  0
LINE
  5
13D
100
AcDbEntity
  8
A1
  6
CONTINUOUS
 62
7
100
AcDbLine
 10
173.2444801652991
 20
97.00898133651211
 30
0.000000000000000
 11
173.2444801652991
 21
94.50373233651217
 31
0.000000000000000
  0
LINE
  5
13E
100
AcDbEntity
  8
A1
  6
CONTINUOUS
 62
7
100
AcDbLine
 10
172.0944801652992
 20
98.50898133651219
 30
0.000000000000000
 11
173.7444801652990
 21
98.50898133651222
 31
0.000000000000000
  0
LINE
  5
13F
100
AcDbEntity
  8
A1
  6
CONTINUOUS
 62
7
100
AcDbLine
 10
172.0944801652993
 20
97.00898133651222
 30
0.000000000000000
 11
174.7444801652991
 21
97.00898133651228
 31
0.000000000000000
  0
ARC
  5
140
100
AcDbEntity
  8
A1
  6
CONTINUOUS
 62
7
100
AcDbCircle
 10
173.7444801652990
 20
96.00898133651211
 30
0.000000000000000
 40
2.500000000000000
100
AcDbArc
 50
0.000000000000000
 51
90.00000000000000
  0
ARC
  5
141
100
AcDbEntity
  8
A1
  6
CONTINUOUS
 62
7
100
AcDbCircle
 10
171.0944801652992
 20
73.45021404964314
 30
0.000000000000000
 40
1.500000000000000
100
AcDbArc
 50
135.8987973216138
 51
180.0000000000000
  0
ARC
  5
142
100
AcDbEntity
  8
A1
  6
CONTINUOUS
 62
7
100
AcDbCircle
 10
173.2444801652991
 20
77.82250125126367
 30
0.000000000000000
 40
1.500000000000000
100
AcDbArc
 50
318.1362764753453
 51
360.0000000000000
  0
LINE
  5
143
100
AcDbEntity
  8
A1
  6
CONTINUOUS
 62
7
100
AcDbLine
 10
174.3615815120227
 20
76.82145950330876
 30
0.000000000000000
 11
171.0944801652992
 21
73.45021404964302
 31
0.000000000000000
  0
LINE
  5
144
100
AcDbEntity
  8
A1
  6
CONTINUOUS
 62
7
100
AcDbLine
 10
173.2444801652990
 20
77.82414454262407
 30
0.000000000000000
 11
170.0173126304345
 21
74.49410585525965
 31
0.000000000000000
  0
LINE
  5
145
100
AcDbEntity
  8
A1
  6
CONTINUOUS
 62
7
100
AcDbLine
 10
173.2444801652989
 20
79.10373233651217
 30
0.000000000000000
 11
173.2444801652989
 21
77.82414454262405
 31
0.000000000000000
  0
LINE
  5
146
100
AcDbEntity
  8
A1
  6
CONTINUOUS
 62
7
100
AcDbLine
 10
174.7444801652989
 20
79.10373233651214
 30
0.000000000000000
 11
174.7444801652989
 21
77.82250125126356
 31
0.000000000000000
  0
LINE
  5
147
100
AcDbEntity
  8
A1
  6
CONTINUOUS
 62
7
100
AcDbLine
 10
176.2444801652991
 20
79.10373233651221
 30
0.000000000000000
 11
176.2444801652991
 21
76.60373233651221
 31
0.000000000000000
  0
LINE
  5
148
100
AcDbEntity
  8
A1
  6
CONTINUOUS
 62
7
100
AcDbLine
 10
176.2444801652991
 20
76.60373233651221
 30
0.000000000000000
 11
174.7444801652991
 21
76.60373233651221
 31
0.000000000000000
  0
LINE
  5
149
100
AcDbEntity
  8
A1
  6
CONTINUOUS
 62
7
100
AcDbLine
 10
174.7444801652991
 20
79.10373233651221
 30
0.000000000000000
 11
174.7444801652991
 21
76.60373233651221
 31
0.000000000000000
  0
LINE
  5
14A
100
AcDbEntity
  8
A1
  6
CONTINUOUS
 62
7
100
AcDbLine
 10
171.1444801652991
 20
94.50373233651214
 30
0.000000000000000
 11
178.3444801652991
 21
94.50373233651214
 31
0.000000000000000
  0
LINE
  5
14B
100
AcDbEntity
  8
A1
  6
CONTINUOUS
 62
7
100
AcDbLine
 10
171.1444801652991
 20
93.30373233651210
 30
0.000000000000000
 11
178.3444801652991
 21
93.30373233651210
 31
0.000000000000000
  0
ARC
  5
14C
100
AcDbEntity
  8
A1
  6
CONTINUOUS
 62
7
100
AcDbCircle
 10
178.3444801652991
 20
93.90373233651195
 30
0.000000000000000
 40
0.6000000000000000
100
AcDbArc
 50
270.0000000000001
 51
450.0000000000001
  0
ARC
  5
14D
100
AcDbEntity
  8
A1
  6
CONTINUOUS
 62
7
100
AcDbCircle
 10
178.3444801652991
 20
92.70373233651191
 30
0.000000000000000
 40
0.6000000000000000
100
AcDbArc
 50
280.2348027607915
 51
460.2348027607889
  0
ARC
  5
14E
100
AcDbEntity
  8
A1
  6
CONTINUOUS
 62
7
100
AcDbCircle
 10
171.1444801652990
 20
80.90373233651218
 30
0.000000000000000
 40
0.6000000000000000
100
AcDbArc
 50
101.0035408517476
 51
281.0035408517449
  0
LINE
  5
14F
100
AcDbEntity
  8
A1
  6
CONTINUOUS
 62
7
100
AcDbLine
 10
171.1444801652991
 20
80.30373233651221
 30
0.000000000000000
 11
178.3444801652992
 21
80.30373233651221
 31
0.000000000000000
  0
ARC
  5
150
100
AcDbEntity
  8
A1
  6
CONTINUOUS
 62
7
100
AcDbCircle
 10
171.1444801652990
 20
79.70373233651208
 30
0.000000000000000
 40
0.6000000000000000
100
AcDbArc
 50
90.00000000000000
 51
270.0000000000000
  0
ARC
  5
151
100
AcDbEntity
  8
A1
  6
CONTINUOUS
 62
7
100
AcDbCircle
 10
178.3444801652991
 20
79.70373233651208
 30
0.000000000000000
 40
0.6000000000000000
100
AcDbArc
 50
270.0000000000000
 51
450.0000000000000
  0
LINE
  5
152
100
AcDbEntity
  8
A1
  6
CONTINUOUS
 62
7
100
AcDbLine
 10
178.3444801652992
 20
79.10373233651217
 30
0.000000000000000
 11
171.1444801652991
 21
79.10373233651217
 31
0.000000000000000
  0
ARC
  5
153
100
AcDbEntity
  8
A1
  6
CONTINUOUS
 62
7
100
AcDbCircle
 10
178.3444801652991
 20
90.10373233651188
 30
0.000000000000000
 40
0.6000000000000000
100
AcDbArc
 50
280.2348027607915
 51
460.2348027607916
  0
ARC
  5
154
100
AcDbEntity
  8
A1
  6
CONTINUOUS
 62
7
100
AcDbCircle
 10
178.3444801652991
 20
87.50373233651186
 30
0.000000000000000
 40
0.6000000000000000
100
AcDbArc
 50
280.2348027607915
 51
460.2348027607916
  0
ARC
  5
155
100
AcDbEntity
  8
A1
  6
CONTINUOUS
 62
7
100
AcDbCircle
 10
178.3444801652991
 20
84.90373233651184
 30
0.000000000000000
 40
0.6000000000000000
100
AcDbArc
 50
280.2348027607915
 51
460.2348027607916
  0
ARC
  5
156
100
AcDbEntity
  8
A1
  6
CONTINUOUS
 62
7
100
AcDbCircle
 10
178.3444801652991
 20
82.30373233651181
 30
0.000000000000000
 40
0.6000000000000000
100
AcDbArc
 50
281.0035408517449
 51
461.0035408517475
  0
ARC
  5
157
100
AcDbEntity
  8
A1
  6
CONTINUOUS
 62
7
100
AcDbCircle
 10
171.1444801652983
 20
91.40373233685335
 30
0.000000000000000
 40
0.6000000000000000
100
AcDbArc
 50
100.2348027607889
 51
280.2348027607915
  0
ARC
  5
158
100
AcDbEntity
  8
A1
  6
CONTINUOUS
 62
7
100
AcDbCircle
 10
171.1444801652983
 20
88.80373233685333
 30
0.000000000000000
 40
0.6000000000000000
100
AcDbArc
 50
100.2348027607916
 51
280.2348027607915
  0
ARC
  5
159
100
AcDbEntity
  8
A1
  6
CONTINUOUS
 62
7
100
AcDbCircle
 10
171.1444801652983
 20
86.20373233685331
 30
0.000000000000000
 40
0.6000000000000000
100
AcDbArc
 50
100.2348027607916
 51
280.2348027607915
  0
ARC
  5
15A
100
AcDbEntity
  8
A1
  6
CONTINUOUS
 62
7
100
AcDbCircle
 10
171.1444801652983
 20
83.60373233685328
 30
0.000000000000000
 40
0.6000000000000000
100
AcDbArc
 50
100.2348027607916
 51
280.2348027607915
  0
LINE
  5
15B
100
AcDbEntity
  8
A1
  6
CONTINUOUS
 62
7
100
AcDbLine
 10
178.2378706470405
 20
93.29418505317659
 30
0.000000000000000
 11
171.0378706470398
 21
91.99418505351804
 31
0.000000000000000
  0
LINE
  5
15C
100
AcDbEntity
  8
A1
  6
CONTINUOUS
 62
7
100
AcDbLine
 10
171.2510896835571
 20
90.81327962018877
 30
0.000000000000000
 11
178.4510896835578
 21
92.11327961984730
 31
0.000000000000000
  0
LINE
  5
15D
100
AcDbEntity
  8
A1
  6
CONTINUOUS
 62
7
100
AcDbLine
 10
171.0378706470397
 20
89.39418505351796
 30
0.000000000000000
 11
178.2378706470404
 21
90.69418505317650
 31
0.000000000000000
  0
LINE
  5
15E
100
AcDbEntity
  8
A1
  6
CONTINUOUS
 62
7
100
AcDbLine
 10
178.4510896835578
 20
89.51327961984724
 30
0.000000000000000
 11
171.2510896835571
 21
88.21327962018870
 31
0.000000000000000
  0
LINE
  5
15F
100
AcDbEntity
  8
A1
  6
CONTINUOUS
 62
7
100
AcDbLine
 10
171.0378706470398
 20
86.79418505351795
 30
0.000000000000000
 11
178.2378706470405
 21
88.09418505317649
 31
0.000000000000000
  0
LINE
  5
160
100
AcDbEntity
  8
A1
  6
CONTINUOUS
 62
7
100
AcDbLine
 10
178.4510896835578
 20
86.91327961984727
 30
0.000000000000000
 11
171.2510896835571
 21
85.61327962018873
 31
0.000000000000000
  0
LINE
  5
161
100
AcDbEntity
  8
A1
  6
CONTINUOUS
 62
7
100
AcDbLine
 10
171.0378706470397
 20
84.19418505351791
 30
0.000000000000000
 11
178.2378706470404
 21
85.49418505317647
 31
0.000000000000000
  0
LINE
  5
162
100
AcDbEntity
  8
A1
  6
CONTINUOUS
 62
7
100
AcDbLine
 10
178.4510896835578
 20
84.31327961984721
 30
0.000000000000000
 11
171.2510896835571
 21
83.01327962018865
 31
0.000000000000000
  0
LINE
  5
163
100
AcDbEntity
  8
A1
  6
CONTINUOUS
 62
7
100
AcDbLine
 10
171.0299583698377
 20
81.49270157031330
 30
0.000000000000000
 11
178.2299583698378
 21
82.89270157031294
 31
0.000000000000000
  0
LINE
  5
164
100
AcDbEntity
  8
A1
  6
CONTINUOUS
 62
7
100
AcDbLine
 10
178.4590019607604
 20
81.71476310271065
 30
0.000000000000000
 11
171.2590019607603
 21
80.31476310271101
 31
0.000000000000000
  0
LINE
  5
165
100
AcDbEntity
  8
A1
  6
CONTINUOUS
 62
7
100
AcDbLine
 10
174.7444801652991
 20
93.30373233651204
 30
0.000000000000000
 11
174.7444801652991
 21
92.66343399413901
 31
0.000000000000000
  0
ARC
  5
166
100
AcDbEntity
  8
A1
  6
CONTINUOUS
 62
7
100
AcDbCircle
 10
171.1444801652990
 20
93.90373233651201
 30
0.000000000000000
 40
0.6000000000000000
100
AcDbArc
 50
90.00000000000000
 51
270.0000000000000
  0
LINE
  5
167
100
AcDbEntity
  8
A1
  6
CONTINUOUS
 62
7
100
AcDbLine
 10
173.2444801652991
 20
93.30373233651204
 30
0.000000000000000
 11
173.2444801652991
 21
92.39260066087684
 31
0.000000000000000
  0
LINE
  5
168
100
AcDbEntity
  8
A1
  6
CONTINUOUS
 62
7
100
AcDbLine
 10
174.7444801652991
 20
93.30373233651204
 30
0.000000000000000
 11
174.7444801652991
 21
92.66343399413901
 31
0.000000000000000
  0
LINE
  5
169
100
AcDbEntity
  8
A1
  6
CONTINUOUS
 62
7
100
AcDbLine
 10
176.2444801652991
 20
93.30373233651204
 30
0.000000000000000
 11
176.2444801652991
 21
92.93426732740119
 31
0.000000000000000
  0
LINE
  5
16A
100
AcDbEntity
  8
A1
  6
CONTINUOUS
 62
7
100
AcDbLine
 10
176.2444801652991
 20
91.71486401248865
 30
0.000000000000000
 11
176.2444801652991
 21
90.33426732740111
 31
0.000000000000000
  0
LINE
  5
16B
100
AcDbEntity
  8
A1
  6
CONTINUOUS
 62
7
100
AcDbLine
 10
174.7444801652991
 20
91.44403067922647
 30
0.000000000000000
 11
174.7444801652991
 21
90.06343399413896
 31
0.000000000000000
  0
LINE
  5
16C
100
AcDbEntity
  8
A1
  6
CONTINUOUS
 62
7
100
AcDbLine
 10
173.2444801652991
 20
91.17319734596430
 30
0.000000000000000
 11
173.2444801652991
 21
89.79260066087676
 31
0.000000000000000
  0
LINE
  5
16D
100
AcDbEntity
  8
A1
  6
CONTINUOUS
 62
7
100
AcDbLine
 10
176.2444801652991
 20
89.11486401248857
 30
0.000000000000000
 11
176.2444801652991
 21
87.73426732740111
 31
0.000000000000000
  0
LINE
  5
16E
100
AcDbEntity
  8
A1
  6
CONTINUOUS
 62
7
100
AcDbLine
 10
174.7444801652991
 20
88.84403067922636
 30
0.000000000000000
 11
174.7444801652991
 21
87.46343399413894
 31
0.000000000000000
  0
LINE
  5
16F
100
AcDbEntity
  8
A1
  6
CONTINUOUS
 62
7
100
AcDbLine
 10
173.2444801652991
 20
88.57319734596422
 30
0.000000000000000
 11
173.2444801652991
 21
87.19260066087676
 31
0.000000000000000
  0
LINE
  5
170
100
AcDbEntity
  8
A1
  6
CONTINUOUS
 62
7
100
AcDbLine
 10
176.2444801652991
 20
86.51486401248860
 30
0.000000000000000
 11
176.2444801652991
 21
85.13426732740109
 31
0.000000000000000
  0
LINE
  5
171
100
AcDbEntity
  8
A1
  6
CONTINUOUS
 62
7
100
AcDbLine
 10
174.7444801652991
 20
86.24403067922643
 30
0.000000000000000
 11
174.7444801652991
 21
84.86343399413892
 31
0.000000000000000
  0
LINE
  5
172
100
AcDbEntity
  8
A1
  6
CONTINUOUS
 62
7
100
AcDbLine
 10
173.2444801652991
 20
85.97319734596425
 30
0.000000000000000
 11
173.2444801652991
 21
84.59260066087674
 31
0.000000000000000
  0
LINE
  5
173
100
AcDbEntity
  8
A1
  6
CONTINUOUS
 62
7
100
AcDbLine
 10
176.2444801652991
 20
81.28416164248219
 30
0.000000000000000
 11
176.2444801652991
 21
80.30373233651238
 31
0.000000000000000
  0
LINE
  5
174
100
AcDbEntity
  8
A1
  6
CONTINUOUS
 62
7
100
AcDbLine
 10
176.2444801652991
 20
83.91486401248852
 30
0.000000000000000
 11
176.2444801652991
 21
82.50663636387497
 31
0.000000000000000
  0
LINE
  5
175
100
AcDbEntity
  8
A1
  6
CONTINUOUS
 62
7
100
AcDbLine
 10
174.7444801652991
 20
80.99249497581559
 30
0.000000000000000
 11
174.7444801652991
 21
80.30373233651221
 31
0.000000000000000
  0
LINE
  5
176
100
AcDbEntity
  8
A1
  6
CONTINUOUS
 62
7
100
AcDbLine
 10
174.7444801652991
 20
83.64403067922635
 30
0.000000000000000
 11
174.7444801652991
 21
82.21496969720840
 31
0.000000000000000
  0
LINE
  5
177
100
AcDbEntity
  8
A1
  6
CONTINUOUS
 62
7
100
AcDbLine
 10
173.2444801652991
 20
80.70082830914899
 30
0.000000000000000
 11
173.2444801652991
 21
80.30373233651238
 31
0.000000000000000
  0
LINE
  5
178
100
AcDbEntity
  8
A1
  6
CONTINUOUS
 62
7
100
AcDbLine
 10
173.2444801652991
 20
83.37319734596417
 30
0.000000000000000
 11
173.2444801652991
 21
81.92330303054180
 31
0.000000000000000
  0
LINE
  5
179
100
AcDbEntity
  8
A1
  6
CONTINUOUS
 62
7
100
AcDbLine
 10
174.5212893450846
 20
91.40373233669835
 30
0.000000000000000
 11
174.7444801652990
 21
91.36343399414903
 31
0.000000000000000
  0
LINE
  5
17A
100
AcDbEntity
  8
A1
  6
CONTINUOUS
 62
7
100
AcDbLine
 10
176.2444801652990
 20
91.09260066074457
 30
0.000000000000000
 11
178.4510896836121
 21
90.69418505316672
 31
0.000000000000000
  0
LINE
  5
17B
100
AcDbEntity
  8
A1
  6
CONTINUOUS
 62
7
100
AcDbLine
 10
171.0378706469854
 20
90.81327962019863
 30
0.000000000000000
 11
173.2444801652991
 21
90.41486401262074
 31
0.000000000000000
  0
LINE
  5
17C
100
AcDbEntity
  8
A1
  6
CONTINUOUS
 62
7
100
AcDbLine
 10
174.7444801652991
 20
90.14403067921633
 30
0.000000000000000
 11
174.9676709855134
 21
90.10373233666706
 31
0.000000000000000
  0
LINE
  5
17D
100
AcDbEntity
  8
A1
  6
CONTINUOUS
 62
7
100
AcDbLine
 10
174.5212893450848
 20
88.80373233669826
 30
0.000000000000000
 11
174.7444801652991
 21
88.76343399414898
 31
0.000000000000000
  0
LINE
  5
17E
100
AcDbEntity
  8
A1
  6
CONTINUOUS
 62
7
100
AcDbLine
 10
176.2444801652991
 20
88.49260066074461
 30
0.000000000000000
 11
178.4510896836120
 21
88.09418505316683
 31
0.000000000000000
  0
LINE
  5
17F
100
AcDbEntity
  8
A1
  6
CONTINUOUS
 62
7
100
AcDbLine
 10
171.0378706469855
 20
88.21327962019842
 30
0.000000000000000
 11
173.2444801652990
 21
87.81486401262055
 31
0.000000000000000
  0
LINE
  5
180
100
AcDbEntity
  8
A1
  6
CONTINUOUS
 62
7
100
AcDbLine
 10
174.7444801652991
 20
87.54403067921614
 30
0.000000000000000
 11
174.9676709855129
 21
87.50373233666694
 31
0.000000000000000
  0
LINE
  5
181
100
AcDbEntity
  8
A1
  6
CONTINUOUS
 62
7
100
AcDbLine
 10
174.5212893450841
 20
86.20373233669824
 30
0.000000000000000
 11
174.7444801652990
 21
86.16343399414885
 31
0.000000000000000
  0
LINE
  5
182
100
AcDbEntity
  8
A1
  6
CONTINUOUS
 62
7
100
AcDbLine
 10
176.2444801652990
 20
85.89260066074442
 30
0.000000000000000
 11
178.4510896836120
 21
85.49418505316666
 31
0.000000000000000
  0
LINE
  5
183
100
AcDbEntity
  8
A1
  6
CONTINUOUS
 62
7
100
AcDbLine
 10
171.0378706469854
 20
85.61327962019851
 30
0.000000000000000
 11
173.2444801652991
 21
85.21486401262067
 31
0.000000000000000
  0
LINE
  5
184
100
AcDbEntity
  8
A1
  6
CONTINUOUS
 62
7
100
AcDbLine
 10
174.7444801652990
 20
84.94403067921628
 30
0.000000000000000
 11
174.9676709855133
 21
84.90373233666703
 31
0.000000000000000
  0
LINE
  5
185
100
AcDbEntity
  8
A1
  6
CONTINUOUS
 62
7
100
AcDbLine
 10
174.5212893450842
 20
83.60373233669810
 30
0.000000000000000
 11
174.7444801652991
 21
83.56343399414874
 31
0.000000000000000
  0
LINE
  5
186
100
AcDbEntity
  8
A1
  6
CONTINUOUS
 62
7
100
AcDbLine
 10
176.2444801652991
 20
83.29260066074437
 30
0.000000000000000
 11
178.4510896836120
 21
82.89418505316661
 31
0.000000000000000
  0
LINE
  5
187
100
AcDbEntity
  8
A1
  6
CONTINUOUS
 62
7
100
AcDbLine
 10
171.0378706469853
 20
83.01327962019846
 30
0.000000000000000
 11
173.2444801652990
 21
82.61486401262050
 31
0.000000000000000
  0
LINE
  5
188
100
AcDbEntity
  8
A1
  6
CONTINUOUS
 62
7
100
AcDbLine
 10
174.7444801652991
 20
82.34403067921605
 30
0.000000000000000
 11
175.0886427839428
 21
82.28189020638905
 31
0.000000000000000
  0
LINE
  5
189
100
AcDbEntity
  8
A1
  6
CONTINUOUS
 62
7
100
AcDbLine
 10
174.5215947879255
 20
80.94915615243742
 30
0.000000000000000
 11
174.7444801652991
 21
80.91200858954183
 31
0.000000000000000
  0
LINE
  5
18A
100
AcDbEntity
  8
A1
  6
CONTINUOUS
 62
7
100
AcDbLine
 10
176.2444801652990
 20
80.66200858954176
 30
0.000000000000000
 11
178.4431195576825
 21
80.29556869081117
 31
0.000000000000000
  0
LINE
  5
18B
100
AcDbEntity
  8
A1
  6
CONTINUOUS
 62
7
100
AcDbLine
 10
263.4944698437375
 20
94.50372879773241
 30
0.000000000000000
 11
272.4985216691002
 21
94.50372879773244
 31
0.000000000000000
  0
ARC
  5
18C
100
AcDbEntity
  8
A1
  6
CONTINUOUS
 62
7
100
AcDbCircle
 10
263.4945119024144
 20
96.50897950354762
 30
0.000000000000000
 40
0.5000000000000000
100
AcDbArc
 50
90.00000000000121
 51
178.2314000000003
  0
ARC
  5
18D
100
AcDbEntity
  8
A1
  6
CONTINUOUS
 62
7
100
AcDbCircle
 10
272.4985216691002
 20
96.50897950354765
 30
0.000000000000000
 40
0.5000000000000000
100
AcDbArc
 50
358.2314000000003
 51
449.9999999999995
  0
ARC
  5
18E
100
AcDbEntity
  8
A1
  6
CONTINUOUS
 62
7
100
AcDbCircle
 10
272.4985216691002
 20
95.00372879773259
 30
0.000000000000000
 40
0.5000000000000000
100
AcDbArc
 50
269.9999999999995
 51
358.2314000000003
  0
ARC
  5
18F
100
AcDbEntity
  8
A1
  6
CONTINUOUS
 62
7
100
AcDbCircle
 10
263.4944698437376
 20
95.00372879773251
 30
0.000000000000000
 40
0.5000000000000000
100
AcDbArc
 50
178.2314000000003
 51
269.9999999999995
  0
LINE
  5
190
100
AcDbEntity
  8
A1
  6
CONTINUOUS
 62
7
100
AcDbLine
 10
260.9964801440698
 20
66.80719250354736
 30
0.000000000000000
 11
266.6809306053742
 21
66.80719250354737
 31
0.000000000000000
  0
LINE
  5
191
100
AcDbEntity
  8
A1
  6
CONTINUOUS
 62
7
100
AcDbLine
 10
273.9964801440698
 20
76.11024754170252
 30
0.000000000000000
 11
273.9964801440698
 21
54.10719250354767
 31
0.000000000000000
  0
LINE
  5
192
100
AcDbEntity
  8
A1
  6
CONTINUOUS
 62
7
100
AcDbLine
 10
273.9964801440698
 20
67.40719250354741
 30
0.000000000000000
 11
271.9964801440698
 21
67.40719250354741
 31
0.000000000000000
  0
LINE
  5
193
100
AcDbEntity
  8
A4
  6
CENTER
 62
1
100
AcDbLine
 10
275.4964801440698
 20
72.60719250354762
 30
0.000000000000000
 11
270.9964801440698
 21
72.60719250354762
 31
0.000000000000000
  0
LINE
  5
194
100
AcDbEntity
  8
A4
  6
CENTER
 62
1
100
AcDbLine
 10
275.4964801440698
 20
58.60719250354762
 30
0.000000000000000
 11
270.9964801440698
 21
58.60719250354762
 31
0.000000000000000
  0
LINE
  5
195
100
AcDbEntity
  8
A1
  6
CONTINUOUS
 62
7
100
AcDbLine
 10
265.5427404947034
 20
76.60373220941271
 30
0.000000000000000
 11
265.5427337787783
 21
68.90373474552273
 31
0.000000000000000
  0
LINE
  5
196
100
AcDbEntity
  8
A1
  6
CONTINUOUS
 62
7
100
AcDbLine
 10
271.9964801440698
 20
69.90719250354741
 30
0.000000000000000
 11
271.9964801440698
 21
54.10719250354763
 31
0.000000000000000
  0
LINE
  5
197
100
AcDbEntity
  8
A1
  6
CONTINUOUS
 62
7
100
AcDbLine
 10
264.7964801440698
 20
51.60457853406761
 30
0.000000000000000
 11
266.1836266822305
 21
50.80719250354745
 31
0.000000000000000
  0
ARC
  5
198
100
AcDbEntity
  8
A1
  6
CONTINUOUS
 62
7
100
AcDbCircle
 10
254.0787545153925
 20
57.00183314621935
 30
0.000000000000000
 40
12.00000000000000
100
AcDbArc
 50
333.2709935372169
 51
414.7968573248966
  0
ARC
  5
199
100
AcDbEntity
  8
A1
  6
CONTINUOUS
 62
7
100
AcDbCircle
 10
254.0787545153925
 20
57.00183314621935
 30
0.000000000000000
 40
13.60000000000000
100
AcDbArc
 50
332.8985657466256
 51
406.1356410739168
  0
LINE
  5
19A
100
AcDbEntity
  8
A1
  6
CONTINUOUS
 62
7
100
AcDbLine
 10
260.9964801440699
 20
85.90719250354756
 30
0.000000000000000
 11
260.9964801440699
 21
66.80719250354733
 31
0.000000000000000
  0
LINE
  5
19B
100
AcDbEntity
  8
A4
  6
CENTER
 62
1
100
AcDbLine
 10
264.4964801440698
 20
70.90373233651259
 30
0.000000000000000
 11
271.4964801440698
 21
70.90373233651262
 31
0.000000000000000
  0
LINE
  5
19C
100
AcDbEntity
  8
A4
  6
CENTER
 62
1
100
AcDbLine
 10
267.9964801440698
 20
73.90373233651260
 30
0.000000000000000
 11
267.9964801440698
 21
66.90373233651260
 31
0.000000000000000
  0
CIRCLE
  5
19D
100
AcDbEntity
  8
A1
  6
CONTINUOUS
 62
7
100
AcDbCircle
 10
267.9964801440698
 20
70.90373233651260
 30
0.000000000000000
 40
1.300000000000000
  0
LINE
  5
19E
100
AcDbEntity
  8
A1
  6
CONTINUOUS
 62
7
100
AcDbLine
 10
266.3494284330711
 20
98.50898133651251
 30
0.000000000000000
 11
269.7879588864201
 21
98.50898133651251
 31
0.000000000000000
  0
LINE
  5
19F
100
AcDbEntity
  8
A1
  6
CONTINUOUS
 62
7
100
AcDbLine
 10
272.9982834813069
 20
96.49354800783520
 30
0.000000000000000
 11
272.9982834813069
 21
94.98829730202014
 31
0.000000000000000
  0
LINE
  5
1A0
100
AcDbEntity
  8
A1
  6
CONTINUOUS
 62
7
100
AcDbLine
 10
262.9947500902077
 20
96.52441099926007
 30
0.000000000000000
 11
262.9947500902077
 21
95.01916029344495
 31
0.000000000000000
  0
LINE
  5
1A1
100
AcDbEntity
  8
A1
  6
CONTINUOUS
 62
7
100
AcDbLine
 10
271.5964801440697
 20
93.30373050354737
 30
0.000000000000000
 11
264.3964801440696
 21
93.30373050354736
 31
0.000000000000000
  0
ARC
  5
1A2
100
AcDbEntity
  8
A1
  6
CONTINUOUS
 62
7
100
AcDbCircle
 10
264.3964801440697
 20
93.90373050354721
 30
0.000000000000000
 40
0.6000000000000000
100
AcDbArc
 50
90.00000000000010
 51
270.0000000000001
  0
ARC
  5
1A3
100
AcDbEntity
  8
A1
  6
CONTINUOUS
 62
7
100
AcDbCircle
 10
264.3964801440697
 20
92.70373050354716
 30
0.000000000000000
 40
0.6000000000000000
100
AcDbArc
 50
79.76519723921129
 51
259.7651972392086
  0
ARC
  5
1A4
100
AcDbEntity
  8
A1
  6
CONTINUOUS
 62
7
100
AcDbCircle
 10
271.5964801440698
 20
80.90373050354745
 30
0.000000000000000
 40
0.6000000000000000
100
AcDbArc
 50
258.9964591482553
 51
438.9964591482526
  0
LINE
  5
1A5
100
AcDbEntity
  8
A1
  6
CONTINUOUS
 62
7
100
AcDbLine
 10
271.5964801440697
 20
80.30373050354748
 30
0.000000000000000
 11
264.3964801440696
 21
80.30373050354747
 31
0.000000000000000
  0
ARC
  5
1A6
100
AcDbEntity
  8
A1
  6
CONTINUOUS
 62
7
100
AcDbCircle
 10
271.5964801440698
 20
79.70373050354735
 30
0.000000000000000
 40
0.6000000000000000
100
AcDbArc
 50
270.0000000000002
 51
450.0000000000001
  0
ARC
  5
1A7
100
AcDbEntity
  8
A1
  6
CONTINUOUS
 62
7
100
AcDbCircle
 10
264.3964801440698
 20
79.70373050354733
 30
0.000000000000000
 40
0.6000000000000000
100
AcDbArc
 50
90.00000000000010
 51
270.0000000000002
  0
ARC
  5
1A8
100
AcDbEntity
  8
A1
  6
CONTINUOUS
 62
7
100
AcDbCircle
 10
264.3964801440697
 20
90.10373050354714
 30
0.000000000000000
 40
0.6000000000000000
100
AcDbArc
 50
79.76519723920865
 51
259.7651972392086
  0
ARC
  5
1A9
100
AcDbEntity
  8
A1
  6
CONTINUOUS
 62
7
100
AcDbCircle
 10
264.3964801440697
 20
87.50373050354712
 30
0.000000000000000
 40
0.6000000000000000
100
AcDbArc
 50
79.76519723920865
 51
259.7651972392086
  0
ARC
  5
1AA
100
AcDbEntity
  8
A1
  6
CONTINUOUS
 62
7
100
AcDbCircle
 10
264.3964801440698
 20
84.90373050354710
 30
0.000000000000000
 40
0.6000000000000000
100
AcDbArc
 50
79.76519723920865
 51
259.7651972392086
  0
ARC
  5
1AB
100
AcDbEntity
  8
A1
  6
CONTINUOUS
 62
7
100
AcDbCircle
 10
264.3964801440698
 20
82.30373050354707
 30
0.000000000000000
 40
0.6000000000000000
100
AcDbArc
 50
78.99645914825267
 51
258.9964591482553
  0
ARC
  5
1AC
100
AcDbEntity
  8
A1
  6
CONTINUOUS
 62
7
100
AcDbCircle
 10
271.5964801440704
 20
91.40373050388862
 30
0.000000000000000
 40
0.6000000000000000
100
AcDbArc
 50
259.7651972392086
 51
439.7651972392112
  0
ARC
  5
1AD
100
AcDbEntity
  8
A1
  6
CONTINUOUS
 62
7
100
AcDbCircle
 10
271.5964801440704
 20
88.80373050388860
 30
0.000000000000000
 40
0.6000000000000000
100
AcDbArc
 50
259.7651972392086
 51
439.7651972392086
  0
ARC
  5
1AE
100
AcDbEntity
  8
A1
  6
CONTINUOUS
 62
7
100
AcDbCircle
 10
271.5964801440705
 20
86.20373050388858
 30
0.000000000000000
 40
0.6000000000000000
100
AcDbArc
 50
259.7651972392086
 51
439.7651972392086
  0
ARC
  5
1AF
100
AcDbEntity
  8
A1
  6
CONTINUOUS
 62
7
100
AcDbCircle
 10
271.5964801440705
 20
83.60373050388856
 30
0.000000000000000
 40
0.6000000000000000
100
AcDbArc
 50
259.7651972392086
 51
439.7651972392086
  0
LINE
  5
1B0
100
AcDbEntity
  8
A1
  6
CONTINUOUS
 62
7
100
AcDbLine
 10
264.5030896623284
 20
93.29418322021181
 30
0.000000000000000
 11
271.7030896623291
 21
91.99418322055328
 31
0.000000000000000
  0
LINE
  5
1B1
100
AcDbEntity
  8
A1
  6
CONTINUOUS
 62
7
100
AcDbLine
 10
271.4898706258118
 20
90.81327778722402
 30
0.000000000000000
 11
264.2898706258111
 21
92.11327778688255
 31
0.000000000000000
  0
LINE
  5
1B2
100
AcDbEntity
  8
A1
  6
CONTINUOUS
 62
7
100
AcDbLine
 10
271.7030896623291
 20
89.39418322055324
 30
0.000000000000000
 11
264.5030896623285
 21
90.69418322021177
 31
0.000000000000000
  0
LINE
  5
1B3
100
AcDbEntity
  8
A1
  6
CONTINUOUS
 62
7
100
AcDbLine
 10
264.2898706258111
 20
89.51327778688247
 30
0.000000000000000
 11
271.4898706258118
 21
88.21327778722394
 31
0.000000000000000
  0
LINE
  5
1B4
100
AcDbEntity
  8
A1
  6
CONTINUOUS
 62
7
100
AcDbLine
 10
271.7030896623291
 20
86.79418322055319
 30
0.000000000000000
 11
264.5030896623284
 21
88.09418322021172
 31
0.000000000000000
  0
LINE
  5
1B5
100
AcDbEntity
  8
A1
  6
CONTINUOUS
 62
7
100
AcDbLine
 10
264.2898706258111
 20
86.91327778688249
 30
0.000000000000000
 11
271.4898706258118
 21
85.61327778722396
 31
0.000000000000000
  0
LINE
  5
1B6
100
AcDbEntity
  8
A1
  6
CONTINUOUS
 62
7
100
AcDbLine
 10
271.7030896623291
 20
84.19418322055316
 30
0.000000000000000
 11
264.5030896623285
 21
85.49418322021168
 31
0.000000000000000
  0
LINE
  5
1B7
100
AcDbEntity
  8
A1
  6
CONTINUOUS
 62
7
100
AcDbLine
 10
264.2898706258111
 20
84.31327778688242
 30
0.000000000000000
 11
271.4898706258118
 21
83.01327778722390
 31
0.000000000000000
  0
LINE
  5
1B8
100
AcDbEntity
  8
A1
  6
CONTINUOUS
 62
7
100
AcDbLine
 10
271.7110019395310
 20
81.49269973734860
 30
0.000000000000000
 11
264.5110019395310
 21
82.89269973734821
 31
0.000000000000000
  0
LINE
  5
1B9
100
AcDbEntity
  8
A1
  6
CONTINUOUS
 62
7
100
AcDbLine
 10
264.2819583486084
 20
81.71476126974591
 30
0.000000000000000
 11
271.4819583486084
 21
80.31476126974630
 31
0.000000000000000
  0
LINE
  5
1BA
100
AcDbEntity
  8
A1
  6
CONTINUOUS
 62
7
100
AcDbLine
 10
271.7030896623835
 20
90.81327778723386
 30
0.000000000000000
 11
270.5421618919534
 21
90.60366582862896
 31
0.000000000000000
  0
LINE
  5
1BB
100
AcDbEntity
  8
A1
  6
CONTINUOUS
 62
7
100
AcDbLine
 10
271.7030896623833
 20
88.21327778723372
 30
0.000000000000000
 11
270.5422305418790
 21
88.00367822375429
 31
0.000000000000000
  0
LINE
  5
1BC
100
AcDbEntity
  8
A1
  6
CONTINUOUS
 62
7
100
AcDbLine
 10
271.7030896623835
 20
85.61327778723377
 30
0.000000000000000
 11
270.5422991918046
 21
85.40369061887978
 31
0.000000000000000
  0
LINE
  5
1BD
100
AcDbEntity
  8
A1
  6
CONTINUOUS
 62
7
100
AcDbLine
 10
271.7030896623834
 20
83.01327778723379
 30
0.000000000000000
 11
270.5423678417301
 21
82.80370301400524
 31
0.000000000000000
  0
LINE
  5
1BE
100
AcDbEntity
  8
A1
  6
CONTINUOUS
 62
7
100
AcDbLine
 10
265.5427974632076
 20
85.72040612146765
 30
0.000000000000000
 11
264.2898706257568
 21
85.49418322020188
 31
0.000000000000000
  0
LINE
  5
1BF
100
AcDbEntity
  8
A1
  6
CONTINUOUS
 62
7
100
AcDbLine
 10
265.5427974632038
 20
88.32040612146709
 30
0.000000000000000
 11
264.2898706257569
 21
88.09418322020198
 31
0.000000000000000
  0
LINE
  5
1C0
100
AcDbEntity
  8
A1
  6
CONTINUOUS
 62
7
100
AcDbLine
 10
265.5427974632002
 20
90.92040612146639
 30
0.000000000000000
 11
264.0950129487809
 21
90.65900058407205
 31
0.000000000000000
  0
LINE
  5
1C1
100
AcDbEntity
  8
A1
  6
CONTINUOUS
 62
7
100
AcDbLine
 10
265.5427974632115
 20
83.12040612146833
 30
0.000000000000000
 11
264.2898706257569
 21
82.89418322020182
 31
0.000000000000000
  0
LINE
  5
1C2
100
AcDbEntity
  8
A1
  6
CONTINUOUS
 62
7
100
AcDbLine
 10
265.5427974632153
 20
80.50305964310130
 30
0.000000000000000
 11
264.2978407516862
 21
80.29556685784645
 31
0.000000000000000
  0
ARC
  5
1C3
100
AcDbEntity
  8
A1
  6
CONTINUOUS
 62
7
100
AcDbCircle
 10
271.5964801440698
 20
93.90373050354728
 30
0.000000000000000
 40
0.6000000000000000
100
AcDbArc
 50
270.0000000000002
 51
450.0000000000001
  0
LINE
  5
1C4
100
AcDbEntity
  8
A1
  6
CONTINUOUS
 62
7
100
AcDbLine
 10
272.4985216691263
 20
79.10373050354700
 30
0.000000000000000
 11
263.4945119024405
 21
79.10373050354697
 31
0.000000000000000
  0
ARC
  5
1C5
100
AcDbEntity
  8
A1
  6
CONTINUOUS
 62
7
100
AcDbCircle
 10
263.4945119024405
 20
78.60373050354708
 30
0.000000000000000
 40
0.5000000000000000
100
AcDbArc
 50
90.00000000000121
 51
178.2314000000003
  0
ARC
  5
1C6
100
AcDbEntity
  8
A1
  6
CONTINUOUS
 62
7
100
AcDbCircle
 10
272.4985216691263
 20
78.60373050354711
 30
0.000000000000000
 40
0.5000000000000000
100
AcDbArc
 50
358.2314000000003
 51
449.9999999999995
  0
LINE
  5
1C7
100
AcDbEntity
  8
A1
  6
CONTINUOUS
 62
7
100
AcDbLine
 10
263.4944698437636
 20
76.60373050359769
 30
0.000000000000000
 11
272.4985216691262
 21
76.60373050359772
 31
0.000000000000000
  0
ARC
  5
1C8
100
AcDbEntity
  8
A1
  6
CONTINUOUS
 62
7
100
AcDbCircle
 10
272.4985216691264
 20
77.10373050359787
 30
0.000000000000000
 40
0.5000000000000000
100
AcDbArc
 50
269.9999999999995
 51
358.2314000000003
  0
ARC
  5
1C9
100
AcDbEntity
  8
A1
  6
CONTINUOUS
 62
7
100
AcDbCircle
 10
263.4944698437637
 20
77.10373050359779
 30
0.000000000000000
 40
0.5000000000000000
100
AcDbArc
 50
178.2314000000003
 51
269.9999999999995
  0
LINE
  5
1CA
100
AcDbEntity
  8
A1
  6
CONTINUOUS
 62
7
100
AcDbLine
 10
271.5964801440957
 20
76.60373220941270
 30
0.000000000000000
 11
264.3964801440957
 21
76.60373220941268
 31
0.000000000000000
  0
LINE
  5
1CB
100
AcDbEntity
  8
A1
  6
CONTINUOUS
 62
7
100
AcDbLine
 10
262.9947500902338
 20
78.61916199925953
 30
0.000000000000000
 11
262.9947500902338
 21
77.11916199931024
 31
0.000000000000000
  0
LINE
  5
1CC
100
AcDbEntity
  8
A1
  6
CONTINUOUS
 62
7
100
AcDbLine
 10
272.9982834813330
 20
78.58829900783466
 30
0.000000000000000
 11
272.9982834813330
 21
77.08829900788542
 31
0.000000000000000
  0
ARC
  5
1CD
100
AcDbEntity
  8
A1
  6
CONTINUOUS
 62
7
100
AcDbCircle
 10
271.9964801440698
 20
76.11024754170249
 30
0.000000000000000
 40
2.000000000000000
100
AcDbArc
 50
1.526666247102488e-13
 51
59.94032813258309
  0
LINE
  5
1CE
100
AcDbEntity
  8
A1
  6
CONTINUOUS
 62
7
100
AcDbLine
 10
271.9964801440698
 20
76.60373050359770
 30
0.000000000000000
 11
271.9964801440698
 21
69.90719250354742
 31
0.000000000000000
  0
LINE
  5
1CF
100
AcDbEntity
  8
A1
  6
CONTINUOUS
 62
7
100
AcDbLine
 10
271.9964801440698
 20
54.10719250354762
 30
0.000000000000000
 11
273.9964801440698
 21
54.10719250354762
 31
0.000000000000000
  0
LINE
  5
1D0
100
AcDbEntity
  8
A1
  6
CONTINUOUS
 62
7
100
AcDbLine
 10
270.5427371403814
 20
68.90373038452238
 30
0.000000000000000
 11
270.5427371403789
 21
76.60373050359198
 31
0.000000000000000
  0
LINE
  5
1D1
100
AcDbEntity
  8
A1
  6
CONTINUOUS
 62
7
100
AcDbLine
 10
272.4985216691003
 20
97.00897950354754
 30
0.000000000000000
 11
270.5419927664136
 21
97.00897950354752
 31
0.000000000000000
  0
LINE
  5
1D2
100
AcDbEntity
  8
A1
  6
CONTINUOUS
 62
7
100
AcDbLine
 10
265.5427974631912
 20
97.00897950354752
 30
0.000000000000000
 11
263.4945119024144
 21
97.00897950354751
 31
0.000000000000000
  0
LINE
  5
1D3
100
AcDbEntity
  8
A1
  6
CONTINUOUS
 62
7
100
AcDbLine
 10
265.5427974631949
 20
94.50373050354742
 30
0.000000000000000
 11
264.3964801440696
 21
94.50373050354740
 31
0.000000000000000
  0
LINE
  5
1D4
100
AcDbEntity
  8
A1
  6
CONTINUOUS
 62
7
100
AcDbLine
 10
270.5418917059853
 20
100.8364543127221
 30
0.000000000000000
 11
270.5420589149115
 21
94.50372879773246
 31
0.000000000000000
  0
LINE
  5
1D5
100
AcDbEntity
  8
A1
  6
CONTINUOUS
 62
7
100
AcDbLine
 10
265.5427974631857
 20
100.8364543127134
 30
0.000000000000000
 11
265.5427974631949
 21
94.50372879773249
 31
0.000000000000000
  0
LINE
  5
1D6
100
AcDbEntity
  8
A1
  6
CONTINUOUS
 62
7
100
AcDbLine
 10
265.5427974631966
 20
93.30373050354738
 30
0.000000000000000
 11
265.5427974631969
 21
93.10645820065979
 31
0.000000000000000
  0
LINE
  5
1D7
100
AcDbEntity
  8
A1
  6
CONTINUOUS
 62
7
100
AcDbLine
 10
270.5420905995986
 20
93.30373050354737
 30
0.000000000000000
 11
270.5421196420272
 21
92.20380280749708
 31
0.000000000000000
  0
LINE
  5
1D8
100
AcDbEntity
  8
A1
  6
CONTINUOUS
 62
7
100
AcDbLine
 10
270.5421518392367
 20
90.98439367919941
 30
0.000000000000000
 11
270.5421882926072
 21
89.60379041225335
 31
0.000000000000000
  0
LINE
  5
1D9
100
AcDbEntity
  8
A1
  6
CONTINUOUS
 62
7
100
AcDbLine
 10
265.5427974631986
 20
91.88705488574691
 30
0.000000000000000
 11
265.5427974632007
 21
90.50645820065908
 31
0.000000000000000
  0
LINE
  5
1DA
100
AcDbEntity
  8
A1
  6
CONTINUOUS
 62
7
100
AcDbLine
 10
265.5427974632024
 20
89.28705488574620
 30
0.000000000000000
 11
265.5427974632044
 21
87.90645820065838
 31
0.000000000000000
  0
LINE
  5
1DB
100
AcDbEntity
  8
A1
  6
CONTINUOUS
 62
7
100
AcDbLine
 10
270.5422204898168
 20
88.38438128395575
 30
0.000000000000000
 11
270.5422569431873
 21
87.00377801700971
 31
0.000000000000000
  0
LINE
  5
1DC
100
AcDbEntity
  8
A1
  6
CONTINUOUS
 62
7
100
AcDbLine
 10
265.5427974632062
 20
86.68705488574555
 30
0.000000000000000
 11
265.5427974632083
 21
85.30645820065767
 31
0.000000000000000
  0
LINE
  5
1DD
100
AcDbEntity
  8
A1
  6
CONTINUOUS
 62
7
100
AcDbLine
 10
270.5422891403969
 20
85.78436888871214
 30
0.000000000000000
 11
270.5423255937674
 21
84.40376562176607
 31
0.000000000000000
  0
LINE
  5
1DE
100
AcDbEntity
  8
A1
  6
CONTINUOUS
 62
7
100
AcDbLine
 10
270.5424287359679
 20
80.49744758331525
 30
0.000000000000000
 11
270.5424338508627
 21
80.30373050354746
 31
0.000000000000000
  0
LINE
  5
1DF
100
AcDbEntity
  8
A1
  6
CONTINUOUS
 62
7
100
AcDbLine
 10
270.5423577909771
 20
83.18435649346843
 30
0.000000000000000
 11
270.5423964576488
 21
81.71992858104785
 31
0.000000000000000
  0
LINE
  5
1E0
100
AcDbEntity
  8
A1
  6
CONTINUOUS
 62
7
100
AcDbLine
 10
265.5427974632138
 20
81.46959810857275
 30
0.000000000000000
 11
265.5427974632155
 21
80.30373050354750
 31
0.000000000000000
  0
LINE
  5
1E1
100
AcDbEntity
  8
A1
  6
CONTINUOUS
 62
7
100
AcDbLine
 10
265.5427974632100
 20
84.08705488574482
 30
0.000000000000000
 11
265.5427974632121
 21
82.69207282996588
 31
0.000000000000000
  0
ARC
  5
1E2
100
AcDbEntity
  8
A1
  6
CONTINUOUS
 62
7
100
AcDbCircle
 10
268.0427381434108
 20
68.90373256501718
 30
0.000000000000000
 40
2.500000000000247
100
AcDbArc
 50
179.9999500265814
 51
359.9999500267407
  0
ARC
  5
1E3
100
AcDbEntity
  8
A1
  6
CONTINUOUS
 62
7
100
AcDbCircle
 10
268.9964801440697
 20
69.80719250354736
 30
0.000000000000000
 40
3.000000000000000
100
AcDbArc
 50
278.8497381202274
 51
360.0000000000001
  0
ARC
  5
1E4
100
AcDbEntity
  8
A1
  6
CONTINUOUS
 62
7
100
AcDbCircle
 10
266.9964801440699
 20
85.90719250354775
 30
0.000000000000000
 40
6.000000000000000
100
AcDbArc
 50
104.0211733573249
 51
180.0000000000001
  0
ARC
  5
1E5
100
AcDbEntity
  8
A1
  6
CONTINUOUS
 62
7
100
AcDbCircle
 10
263.5324407828130
 20
86.40762362134821
 30
0.000000000000000
 40
1.000000000000000
100
AcDbArc
 50
171.7796586031761
 51
271.3737268300453
  0
ARC
  5
1E6
100
AcDbEntity
  8
A1
  6
CONTINUOUS
 62
7
100
AcDbCircle
 10
266.9964801440699
 20
85.90719250354775
 30
0.000000000000000
 40
4.500000000000000
100
AcDbArc
 50
126.7840217446485
 51
171.7796586031757
  0
ARC
  5
1E7
100
AcDbEntity
  8
A1
  6
CONTINUOUS
 62
7
100
AcDbCircle
 10
263.4964801440697
 20
87.90719250354751
 30
0.000000000000000
 40
2.499999999999773
100
AcDbArc
 50
198.2044474800386
 51
270.0000000000002
  0
LINE
  5
1E8
100
AcDbEntity
  8
A1
  6
CONTINUOUS
 62
7
100
AcDbLine
 10
263.4964801440697
 20
85.40791103321517
 30
0.000000000000000
 11
264.0712079603471
 21
85.40791103321517
 31
0.000000000000000
  0
LINE
  5
1E9
100
AcDbEntity
  8
A1
  6
CONTINUOUS
 62
7
100
AcDbLine
 10
273.9964801440699
 20
85.90719250354753
 30
0.000000000000000
 11
273.9964801440699
 21
79.98319950354754
 31
0.000000000000000
  0
ARC
  5
1EA
100
AcDbEntity
  8
A1
  6
CONTINUOUS
 62
7
100
AcDbCircle
 10
268.9964801440699
 20
85.90719250354752
 30
0.000000000000000
 40
5.000000000000000
100
AcDbArc
 50
1.017777498068325e-13
 51
70.62615279535498
  0
LINE
  5
1EB
100
AcDbEntity
  8
A1
  6
CONTINUOUS
 62
7
100
AcDbLine
 10
272.9982834813329
 20
78.38731928606896
 30
0.000000000000000
 11
273.5334716953761
 21
78.89938747071170
 31
0.000000000000000
  0
ARC
  5
1EC
100
AcDbEntity
  8
A1
  6
CONTINUOUS
 62
7
100
AcDbCircle
 10
272.4964801440699
 20
79.98319950354754
 30
0.000000000000000
 40
1.500000000000000
100
AcDbArc
 50
313.7353000000001
 51
360.0000000000001
  0
ARC
  5
1ED
100
AcDbEntity
  8
A1
  6
CONTINUOUS
 62
7
100
AcDbCircle
 10
270.9906733635885
 20
106.1037323365126
 30
0.000000000000000
 40
2.500000000000000
100
AcDbArc
 50
324.6084259035035
 51
504.6218837465105
  0
LINE
  5
1EE
100
AcDbEntity
  8
A1
  6
CONTINUOUS
 62
7
100
AcDbLine
 10
268.9523008913262
 20
107.5511568299917
 30
0.000000000000000
 11
266.6666364399665
 21
104.3323115503452
 31
0.000000000000000
  0
LINE
  5
1EF
100
AcDbEntity
  8
A1
  6
CONTINUOUS
 62
7
100
AcDbLine
 10
273.0290458358508
 20
104.6563078430335
 30
0.000000000000000
 11
270.7018413833755
 21
101.3789627969721
 31
0.000000000000000
  0
ARC
  5
1F0
100
AcDbEntity
  8
A1
  6
CONTINUOUS
 62
7
100
AcDbCircle
 10
271.5418917059852
 20
100.8364543127221
 30
0.000000000000000
 40
5.999094242857485
100
AcDbArc
 50
144.3571543838244
 51
180.0000000000001
  0
ARC
  5
1F1
100
AcDbEntity
  8
A1
  6
CONTINUOUS
 62
7
100
AcDbCircle
 10
271.5418917059852
 20
100.8364543127221
 30
0.000000000000000
 40
1.000000000000000
100
AcDbArc
 50
147.1454339455872
 51
180.0000000000001
  0
CIRCLE
  5
1F2
100
AcDbEntity
  8
A1
  6
CONTINUOUS
 62
7
100
AcDbCircle
 10
270.8964801440696
 20
105.9571925035476
 30
0.000000000000000
 40
1.400000000000000
  0
SPLINE
  5
1F3
100
AcDbEntity
  8
A1
  6
CONTINUOUS
 62
7
100
AcDbSpline
210
0.000000000000000
220
0.000000000000000
230
1.000000000000000
 70
     8
 71
     3
 72
     9
 73
     5
 74
     0
 42
1.000000000000000e-07
 43
1.000000000000000e-07
 12
-0.9984023324941518
 22
-0.05650471194530837
 32
0.000000000000000
 13
-0.7568033162024221
 23
-0.6536426704151381
 33
0.000000000000000
 40
0.000000000000000
 40
0.000000000000000
 40
0.000000000000000
 40
0.000000000000000
 40
0.02709418349011820
 40
0.05415767634198150
 40
0.05415767634198150
 40
0.05415767634198150
 40
0.05415767634198150
 10
178.3613813977419
 20
146.0686577335434
 30
0.000000000000000
 10
178.3523644324107
 20
146.0681474171989
 30
0.000000000000000
 10
178.3343141026623
 20
146.0643657212238
 30
0.000000000000000
 10
178.3187148917113
 20
146.0545300037141
 30
0.000000000000000
 10
178.3118876446652
 20
146.0486333858013
 30
0.000000000000000
  0
ARC
  5
1F4
100
AcDbEntity
  8
A1
  6
CONTINUOUS
 62
7
100
AcDbCircle
 10
174.7613813977624
 20
145.9864326708177
 30
0.000000000000000
 40
4.199999999979616
100
AcDbArc
 50
0.000000000000000
 51
1.003652346661201
  0
ARC
  5
1F5
100
AcDbEntity
  8
A1
  6
CONTINUOUS
 62
7
100
AcDbCircle
 10
174.7613813977624
 20
145.9864326708177
 30
0.000000000000000
 40
4.199999999979616
100
AcDbArc
 50
269.7694352613614
 51
360.0000000000000
  0
ARC
  5
1F6
100
AcDbEntity
  8
A1
  6
CONTINUOUS
 62
7
100
AcDbCircle
 10
174.7613813977624
 20
145.9864326708177
 30
0.000000000000000
 40
4.199999999979616
100
AcDbArc
 50
216.4105277101522
 51
248.8281196571924
  0
ARC
  5
1F7
100
AcDbEntity
  8
A1
  6
CONTINUOUS
 62
7
100
AcDbCircle
 10
174.7613813977624
 20
145.9864326708177
 30
0.000000000000000
 40
2.999999999979617
100
AcDbArc
 50
236.2009279178109
 51
239.6265692474302
  0
ARC
  5
1F8
100
AcDbEntity
  8
A1
  6
CONTINUOUS
 62
7
100
AcDbCircle
 10
174.7613813977624
 20
145.9864326708177
 30
0.000000000000000
 40
2.999999999979617
100
AcDbArc
 50
269.6772085295569
 51
361.0036523466612
  0
ARC
  5
1F9
100
AcDbEntity
  8
A1
  6
CONTINUOUS
 62
7
100
AcDbCircle
 10
174.7613813977624
 20
145.9864326708177
 30
0.000000000000000
 40
2.999999999979604
100
AcDbArc
 50
1.003652346660946
 51
90.37757161143202
  0
ARC
  5
1FA
100
AcDbEntity
  8
A1
  6
CONTINUOUS
 62
7
100
AcDbCircle
 10
174.7613813977624
 20
145.9864326708177
 30
0.000000000000000
 40
4.199999999979632
100
AcDbArc
 50
111.1721747361201
 51
139.0315444116583
  0
ARC
  5
1FB
100
AcDbEntity
  8
A1
  6
CONTINUOUS
 62
7
100
AcDbCircle
 10
174.7613813977624
 20
145.9864326708177
 30
0.000000000000000
 40
4.199999999979604
100
AcDbArc
 50
1.003652346660946
 51
90.25595149361703
  0
LINE
  5
1FC
100
AcDbEntity
  8
A1
  6
CONTINUOUS
 62
7
100
AcDbLine
 10
178.3613813977419
 20
146.0495004584424
 30
0.000000000000000
 11
178.3613813977419
 21
146.0686577335434
 31
0.000000000000000
  0
LINE
  5
1FD
100
AcDbEntity
  8
A1
  6
CONTINUOUS
 62
7
100
AcDbLine
 10
178.3118876446652
 20
146.0486333858013
 30
0.000000000000000
 11
177.7611316783400
 21
146.0389847857132
 31
0.000000000000000
  0
LINE
  5
1FE
100
AcDbEntity
  8
A1
  6
CONTINUOUS
 62
7
100
AcDbLine
 10
173.1132642676823
 20
148.4931655894618
 30
0.000000000000000
 11
173.2426449786105
 21
148.5736009469489
 31
0.000000000000000
  0
LINE
  5
1FF
100
AcDbEntity
  8
A1
  6
CONTINUOUS
 62
7
100
AcDbLine
 10
177.7613813972252
 20
145.9863769668693
 30
0.000000000000000
 11
177.7607650424597
 21
145.9256235283949
 31
0.000000000000000
  0
LINE
  5
200
100
AcDbEntity
  8
A1
  6
CONTINUOUS
 62
7
100
AcDbLine
 10
178.9607370220067
 20
146.0600004676710
 30
0.000000000000000
 11
178.3613813975079
 21
146.0495004584383
 31
0.000000000000000
  0
ARC
  5
201
100
AcDbEntity
  8
A1
  6
CONTINUOUS
 62
7
100
AcDbCircle
 10
167.4944807758393
 20
140.5471768362996
 30
0.000000000000000
 40
1.599999999995680
100
AcDbArc
 50
269.9999999998437
 51
360.0000000001547
  0
ARC
  5
202
100
AcDbEntity
  8
A1
  6
CONTINUOUS
 62
7
100
AcDbCircle
 10
154.6944580738235
 20
140.5471541342924
 30
0.000000000000000
 40
1.599977298149574
100
AcDbArc
 50
179.9991870325622
 51
270.0008129674395
  0
LINE
  5
203
100
AcDbEntity
  8
A1
  6
CONTINUOUS
 62
7
100
AcDbLine
 10
167.4944807758349
 20
146.9471768363039
 30
0.000000000000000
 11
167.4944807758349
 21
146.6382632504903
 31
0.000000000000000
  0
LINE
  5
204
100
AcDbEntity
  8
A1
  6
CONTINUOUS
 62
7
100
AcDbLine
 10
169.0944807758349
 20
146.9471768363039
 30
0.000000000000000
 11
169.0944807758349
 21
146.6382632504903
 31
0.000000000000000
  0
LINE
  5
205
100
AcDbEntity
  8
A1
  6
CONTINUOUS
 62
7
100
AcDbLine
 10
153.0944807758349
 20
146.6382632504903
 30
0.000000000000000
 11
153.0944807758349
 21
146.9471768363039
 31
0.000000000000000
  0
LINE
  5
206
100
AcDbEntity
  8
A1
  6
CONTINUOUS
 62
7
100
AcDbLine
 10
154.6944807758350
 20
146.6382632504903
 30
0.000000000000000
 11
154.6944807758350
 21
146.9471768363039
 31
0.000000000000000
  0
LINE
  5
207
100
AcDbEntity
  8
A1
  6
CONTINUOUS
 62
7
100
AcDbLine
 10
167.4944807758349
 20
151.9471768363039
 30
0.000000000000000
 11
167.4944807758349
 21
150.3471349162858
 31
0.000000000000000
  0
LINE
  5
208
100
AcDbEntity
  8
A1
  6
CONTINUOUS
 62
7
100
AcDbLine
 10
169.0944807758349
 20
151.9471768363039
 30
0.000000000000000
 11
169.0944807758349
 21
150.3471349162858
 31
0.000000000000000
  0
LINE
  5
209
100
AcDbEntity
  8
A1
  6
CONTINUOUS
 62
7
100
AcDbLine
 10
167.4944807758349
 20
151.9471768363039
 30
0.000000000000000
 11
169.0944807758349
 21
151.9471768363039
 31
0.000000000000000
  0
LINE
  5
20A
100
AcDbEntity
  8
A1
  6
CONTINUOUS
 62
7
100
AcDbLine
 10
153.0944807758349
 20
150.3471349162858
 30
0.000000000000000
 11
153.0944807758349
 21
151.9471768363039
 31
0.000000000000000
  0
LINE
  5
20B
100
AcDbEntity
  8
A1
  6
CONTINUOUS
 62
7
100
AcDbLine
 10
154.6944807758350
 20
150.3471349162858
 30
0.000000000000000
 11
154.6944807758350
 21
151.9471768363039
 31
0.000000000000000
  0
LINE
  5
20C
100
AcDbEntity
  8
A1
  6
CONTINUOUS
 62
7
100
AcDbLine
 10
154.6944807758350
 20
151.9471768363039
 30
0.000000000000000
 11
153.0944807758349
 21
151.9471768363039
 31
0.000000000000000
  0
LINE
  5
20D
100
AcDbEntity
  8
A1
  6
CONTINUOUS
 62
7
100
AcDbLine
 10
167.4944807758349
 20
147.3471349162858
 30
0.000000000000000
 11
167.4944807758349
 21
146.9471768363039
 31
0.000000000000000
  0
LINE
  5
20E
100
AcDbEntity
  8
A1
  6
CONTINUOUS
 62
7
100
AcDbLine
 10
169.0944807758349
 20
147.3471349162858
 30
0.000000000000000
 11
169.0944807758349
 21
146.9471768363039
 31
0.000000000000000
  0
LINE
  5
20F
100
AcDbEntity
  8
A1
  6
CONTINUOUS
 62
7
100
AcDbLine
 10
153.0944807758349
 20
146.9471768363039
 30
0.000000000000000
 11
153.0944807758349
 21
147.3471349162858
 31
0.000000000000000
  0
LINE
  5
210
100
AcDbEntity
  8
A1
  6
CONTINUOUS
 62
7
100
AcDbLine
 10
154.6944807758350
 20
146.9471768363039
 30
0.000000000000000
 11
154.6944807758350
 21
147.3471349162858
 31
0.000000000000000
  0
LINE
  5
211
100
AcDbEntity
  8
A1
  6
CONTINUOUS
 62
7
100
AcDbLine
 10
153.0944807758349
 20
140.5471768363039
 30
0.000000000000000
 11
153.0944807758349
 21
143.0736774367845
 31
0.000000000000000
  0
LINE
  5
212
100
AcDbEntity
  8
A1
  6
CONTINUOUS
 62
7
100
AcDbLine
 10
169.0944807758349
 20
140.5471768363039
 30
0.000000000000000
 11
169.0944807758349
 21
143.0736774367845
 31
0.000000000000000
  0
LINE
  5
213
100
AcDbEntity
  8
A1
  6
CONTINUOUS
 62
7
100
AcDbLine
 10
167.4944807758349
 20
138.9471768363039
 30
0.000000000000000
 11
154.6944807758350
 21
138.9471768363039
 31
0.000000000000000
  0
LINE
  5
214
100
AcDbEntity
  8
A1
  6
CONTINUOUS
 62
7
100
AcDbLine
 10
153.0944807758349
 20
143.0736774367845
 30
0.000000000000000
 11
153.0944807758349
 21
146.6382632504903
 31
0.000000000000000
  0
LINE
  5
215
100
AcDbEntity
  8
A1
  6
CONTINUOUS
 62
7
100
AcDbLine
 10
169.0944807758349
 20
146.6382632504903
 30
0.000000000000000
 11
153.0944807758349
 21
146.6382632504903
 31
0.000000000000000
  0
LINE
  5
216
100
AcDbEntity
  8
A1
  6
CONTINUOUS
 62
7
100
AcDbLine
 10
169.0944807758349
 20
143.0736774367845
 30
0.000000000000000
 11
169.0944807758349
 21
146.6382632504903
 31
0.000000000000000
  0
LINE
  5
217
100
AcDbEntity
  8
A1
  6
CONTINUOUS
 62
7
100
AcDbLine
 10
167.4944807758349
 20
151.9471768363037
 30
0.000000000000000
 11
167.0944807758364
 21
151.9471768363037
 31
0.000000000000000
  0
LINE
  5
218
100
AcDbEntity
  8
A1
  6
CONTINUOUS
 62
7
100
AcDbLine
 10
154.6944807758350
 20
151.9471768363036
 30
0.000000000000000
 11
155.0944807758335
 21
151.9471768363036
 31
0.000000000000000
  0
LINE
  5
219
100
AcDbEntity
  8
A1
  6
CONTINUOUS
 62
7
100
AcDbLine
 10
167.0944807758365
 20
151.9471768363036
 30
0.000000000000000
 11
167.0944807758365
 21
151.4039660001582
 31
0.000000000000000
  0
LINE
  5
21A
100
AcDbEntity
  8
A1
  6
CONTINUOUS
 62
7
100
AcDbLine
 10
155.0944807758333
 20
151.4039660001582
 30
0.000000000000000
 11
155.0944807758333
 21
151.9471768363036
 31
0.000000000000000
  0
LINE
  5
21B
100
AcDbEntity
  8
A1
  6
CONTINUOUS
 62
7
100
AcDbLine
 10
167.0944807758364
 20
151.9471768363036
 30
0.000000000000000
 11
155.0944807758335
 21
151.9471768363036
 31
0.000000000000000
  0
LINE
  5
21C
100
AcDbEntity
  8
A1
  6
CONTINUOUS
 62
7
100
AcDbLine
 10
167.0944807758365
 20
150.3471349162858
 30
0.000000000000000
 11
167.0944807758365
 21
151.4039660001581
 31
0.000000000000000
  0
LINE
  5
21D
100
AcDbEntity
  8
A1
  6
CONTINUOUS
 62
7
100
AcDbLine
 10
167.0944807758365
 20
146.6382632504903
 30
0.000000000000000
 11
167.0944807758365
 21
147.3471349162858
 31
0.000000000000000
  0
LINE
  5
21E
100
AcDbEntity
  8
A1
  6
CONTINUOUS
 62
7
100
AcDbLine
 10
155.0944807758334
 20
147.3471349162858
 30
0.000000000000000
 11
155.0944807758334
 21
146.6382632504903
 31
0.000000000000000
  0
LINE
  5
21F
100
AcDbEntity
  8
A1
  6
CONTINUOUS
 62
7
100
AcDbLine
 10
155.0944807758335
 20
151.4039660001582
 30
0.000000000000000
 11
155.0944807758335
 21
150.3471349162858
 31
0.000000000000000
  0
SPLINE
  5
220
100
AcDbEntity
  8
A1
  6
CONTINUOUS
 62
7
100
AcDbSpline
210
0.000000000000000
220
0.000000000000000
230
1.000000000000000
 70
     8
 71
     3
 72
     9
 73
     5
 74
     0
 42
1.000000000000000e-07
 43
1.000000000000000e-07
 12
0.9984023324959708
 22
-0.05650471194530837
 32
0.000000000000000
 13
0.7568033162060601
 23
-0.6536426704151381
 33
0.000000000000000
 40
0.000000000000000
 40
0.000000000000000
 40
0.000000000000000
 40
0.000000000000000
 40
0.02709418349011970
 40
0.05415767634198810
 40
0.05415767634198810
 40
0.05415767634198810
 40
0.05415767634198810
 10
143.8275801539245
 20
146.0686577335434
 30
0.000000000000000
 10
143.8365971192557
 20
146.0681474171989
 30
0.000000000000000
 10
143.8546474490041
 20
146.0643657212238
 30
0.000000000000000
 10
143.8702466599552
 20
146.0545300037141
 30
0.000000000000000
 10
143.8770739070013
 20
146.0486333858013
 30
0.000000000000000
  0
ARC
  5
221
100
AcDbEntity
  8
A1
  6
CONTINUOUS
 62
7
100
AcDbCircle
 10
147.4275801539041
 20
145.9864326708177
 30
0.000000000000000
 40
4.199999999979616
100
AcDbArc
 50
291.1718803428514
 51
323.5894722898478
  0
ARC
  5
222
100
AcDbEntity
  8
A1
  6
CONTINUOUS
 62
7
100
AcDbCircle
 10
147.4275801539041
 20
145.9864326708177
 30
0.000000000000000
 40
4.199999999979616
100
AcDbArc
 50
178.9963476533389
 51
270.2305647386796
  0
ARC
  5
223
100
AcDbEntity
  8
A1
  6
CONTINUOUS
 62
7
100
AcDbCircle
 10
147.4275801539041
 20
145.9864326708177
 30
0.000000000000000
 40
2.999999999979617
100
AcDbArc
 50
178.9963476533389
 51
180.0000000000000
  0
ARC
  5
224
100
AcDbEntity
  8
A1
  6
CONTINUOUS
 62
7
100
AcDbCircle
 10
147.4275801539041
 20
145.9864326708177
 30
0.000000000000000
 40
2.999999999979617
100
AcDbArc
 50
180.0000000000000
 51
270.3227914705001
  0
ARC
  5
225
100
AcDbEntity
  8
A1
  6
CONTINUOUS
 62
7
100
AcDbCircle
 10
147.4275801539041
 20
145.9864326708177
 30
0.000000000000000
 40
2.999999999979617
100
AcDbArc
 50
300.3734307526360
 51
303.7990720821891
  0
ARC
  5
226
100
AcDbEntity
  8
A1
  6
CONTINUOUS
 62
7
100
AcDbCircle
 10
147.4275801539041
 20
145.9864326708177
 30
0.000000000000000
 40
4.199999999979624
100
AcDbArc
 50
89.73613268556163
 51
178.9963476533387
  0
ARC
  5
227
100
AcDbEntity
  8
A1
  6
CONTINUOUS
 62
7
100
AcDbCircle
 10
147.4275801539041
 20
145.9864326708177
 30
0.000000000000000
 40
4.199999999979569
100
AcDbArc
 50
40.99252770666448
 51
68.72943328022627
  0
ARC
  5
228
100
AcDbEntity
  8
A1
  6
CONTINUOUS
 62
7
100
AcDbCircle
 10
147.4275801539041
 20
145.9864326708177
 30
0.000000000000000
 40
2.999999999979609
100
AcDbArc
 50
89.65424932085354
 51
178.9963476533391
  0
LINE
  5
229
100
AcDbEntity
  8
A1
  6
CONTINUOUS
 62
7
100
AcDbLine
 10
143.8275801539245
 20
146.0495004584424
 30
0.000000000000000
 11
143.8275801539245
 21
146.0686577335434
 31
0.000000000000000
  0
LINE
  5
22A
100
AcDbEntity
  8
A1
  6
CONTINUOUS
 62
7
100
AcDbLine
 10
143.8770739070013
 20
146.0486333858013
 30
0.000000000000000
 11
144.4278298733265
 21
146.0389847857131
 31
0.000000000000000
  0
LINE
  5
22B
100
AcDbEntity
  8
A1
  6
CONTINUOUS
 62
7
100
AcDbLine
 10
144.4294744025716
 20
145.8798404398403
 30
0.000000000000000
 11
144.4297179633400
 21
146.0996682052751
 31
0.000000000000000
  0
LINE
  5
22C
100
AcDbEntity
  8
A1
  6
CONTINUOUS
 62
7
100
AcDbLine
 10
148.9467412794127
 20
148.5733515861726
 30
0.000000000000000
 11
149.0752202990422
 21
148.4934791306997
 31
0.000000000000000
  0
LINE
  5
22D
100
AcDbEntity
  8
A1
  6
CONTINUOUS
 62
7
100
AcDbLine
 10
143.2282245322383
 20
146.0600004676258
 30
0.000000000000000
 11
143.8275801541586
 21
146.0495004584382
 31
0.000000000000000
  0
LINE
  5
22E
100
AcDbEntity
  8
A1
  6
CONTINUOUS
 62
7
100
AcDbLine
 10
153.0944807758349
 20
147.2471768362981
 30
0.000000000000000
 11
152.5944813863705
 21
147.2471768362981
 31
0.000000000000000
  0
LINE
  5
22F
100
AcDbEntity
  8
A1
  6
CONTINUOUS
 62
7
100
AcDbLine
 10
155.0944807758334
 20
147.2471768362981
 30
0.000000000000000
 11
154.6944807758350
 21
147.2471768362981
 31
0.000000000000000
  0
LINE
  5
230
100
AcDbEntity
  8
A1
  6
CONTINUOUS
 62
7
100
AcDbLine
 10
167.4944807758349
 20
147.2471768362981
 30
0.000000000000000
 11
167.0944807758365
 21
147.2471768362981
 31
0.000000000000000
  0
LINE
  5
231
100
AcDbEntity
  8
A1
  6
CONTINUOUS
 62
7
100
AcDbLine
 10
169.5944801652990
 20
147.2471768362981
 30
0.000000000000000
 11
169.0944807758349
 21
147.2471768362981
 31
0.000000000000000
  0
LINE
  5
232
100
AcDbEntity
  8
A1
  6
CONTINUOUS
 62
7
100
AcDbLine
 10
169.0944807758349
 20
144.6471768363095
 30
0.000000000000000
 11
169.5944801652990
 21
144.6471768363095
 31
0.000000000000000
  0
LINE
  5
233
100
AcDbEntity
  8
A1
  6
CONTINUOUS
 62
7
100
AcDbLine
 10
152.5944813863705
 20
144.6471768363095
 30
0.000000000000000
 11
153.0944807758349
 21
144.6471768363095
 31
0.000000000000000
  0
LINE
  5
234
100
AcDbEntity
  8
A1
  6
CONTINUOUS
 62
7
100
AcDbLine
 10
148.9444813863705
 20
148.4931975024414
 30
0.000000000000000
 11
149.0597449445933
 21
148.4932006534816
 31
0.000000000000000
  0
LINE
  5
235
100
AcDbEntity
  8
A1
  6
CONTINUOUS
 62
7
100
AcDbLine
 10
149.0596564342689
 20
148.4932577543591
 30
0.000000000000000
 11
148.9444813863704
 21
148.4932546057386
 31
0.000000000000000
  0
LINE
  5
236
100
AcDbEntity
  8
A1
  6
CONTINUOUS
 62
7
100
AcDbLine
 10
173.1293051173979
 20
148.4932577543591
 30
0.000000000000000
 11
173.2444801652991
 21
148.4932546057386
 31
0.000000000000000
  0
LINE
  5
237
100
AcDbEntity
  8
A1
  6
CONTINUOUS
 62
7
100
AcDbLine
 10
173.2444801652991
 20
148.4931975024414
 30
0.000000000000000
 11
173.1292166070736
 21
148.4932006534816
 31
0.000000000000000
  0
LINE
  5
238
100
AcDbEntity
  8
A1
  6
CONTINUOUS
 62
7
100
AcDbLine
 10
170.0173126304342
 20
143.4934477396327
 30
0.000000000000000
 11
171.0944801653015
 21
143.4934513700186
 31
0.000000000000000
  0
LINE
  5
239
100
AcDbEntity
  8
A1
  6
CONTINUOUS
 62
7
100
AcDbLine
 10
169.5944801652418
 20
143.4934903114176
 30
0.000000000000000
 11
170.0173126303773
 21
143.4934903114176
 31
0.000000000000000
  0
LINE
  5
23A
100
AcDbEntity
  8
A1
  6
CONTINUOUS
 62
7
100
AcDbLine
 10
152.5944813864277
 20
143.4934903114176
 30
0.000000000000000
 11
152.1716489212922
 21
143.4934903114176
 31
0.000000000000000
  0
LINE
  5
23B
100
AcDbEntity
  8
A1
  6
CONTINUOUS
 62
7
100
AcDbLine
 10
152.1716489212352
 20
143.4934477396327
 30
0.000000000000000
 11
151.0944813863683
 21
143.4934513700186
 31
0.000000000000000
  0
LINE
  5
23C
100
AcDbEntity
  8
A1
  6
CONTINUOUS
 62
7
100
AcDbLine
 10
148.9444813863704
 20
150.4492183613343
 30
0.000000000000000
 11
148.9444813863704
 21
150.9489801735410
 31
0.000000000000000
  0
LINE
  5
23D
100
AcDbEntity
  8
A1
  6
CONTINUOUS
 62
7
100
AcDbLine
 10
147.4444813863706
 20
150.4492183613343
 30
0.000000000000000
 11
147.4444813863706
 21
150.9489801735410
 31
0.000000000000000
  0
LINE
  5
23E
100
AcDbEntity
  8
A1
  6
CONTINUOUS
 62
7
100
AcDbLine
 10
148.9444813863704
 20
150.9489801735410
 30
0.000000000000000
 11
147.4444813863706
 21
150.9489801735411
 31
0.000000000000000
  0
LINE
  5
23F
100
AcDbEntity
  8
A1
  6
CONTINUOUS
 62
7
100
AcDbLine
 10
173.2444801652991
 20
150.4492183613343
 30
0.000000000000000
 11
173.2444801652991
 21
150.9489801735410
 31
0.000000000000000
  0
LINE
  5
240
100
AcDbEntity
  8
A1
  6
CONTINUOUS
 62
7
100
AcDbLine
 10
174.7444801652989
 20
150.4492183613343
 30
0.000000000000000
 11
174.7444801652989
 21
150.9489801735410
 31
0.000000000000000
  0
LINE
  5
241
100
AcDbEntity
  8
A1
  6
CONTINUOUS
 62
7
100
AcDbLine
 10
173.2444801652991
 20
150.9489801735410
 30
0.000000000000000
 11
174.7444801652989
 21
150.9489801735410
 31
0.000000000000000
  0
LINE
  5
242
100
AcDbEntity
  8
A1
  6
CONTINUOUS
 62
7
100
AcDbLine
 10
148.9444813863704
 20
140.9454467824418
 30
0.000000000000000
 11
148.9444813863704
 21
141.4452085946485
 31
0.000000000000000
  0
LINE
  5
243
100
AcDbEntity
  8
A1
  6
CONTINUOUS
 62
7
100
AcDbLine
 10
147.4444813863706
 20
140.9454467824418
 30
0.000000000000000
 11
147.4444813863706
 21
141.4452085946485
 31
0.000000000000000
  0
LINE
  5
244
100
AcDbEntity
  8
A1
  6
CONTINUOUS
 62
7
100
AcDbLine
 10
148.9444813863705
 20
140.9454467824418
 30
0.000000000000000
 11
147.4444813863705
 21
140.9454467824419
 31
0.000000000000000
  0
LINE
  5
245
100
AcDbEntity
  8
A1
  6
CONTINUOUS
 62
7
100
AcDbLine
 10
173.2444801652991
 20
148.4926475385813
 30
0.000000000000000
 11
173.2444801652991
 21
150.4492183613343
 31
0.000000000000000
  0
LINE
  5
246
100
AcDbEntity
  8
A1
  6
CONTINUOUS
 62
7
100
AcDbLine
 10
173.2444801652991
 20
141.4452085946485
 30
0.000000000000000
 11
173.2444801652991
 21
143.4934522353473
 31
0.000000000000000
  0
LINE
  5
247
100
AcDbEntity
  8
A1
  6
CONTINUOUS
 62
7
100
AcDbLine
 10
174.7444801652989
 20
148.4926475385813
 30
0.000000000000000
 11
174.7444801652989
 21
150.4492183613343
 31
0.000000000000000
  0
LINE
  5
248
100
AcDbEntity
  8
A1
  6
CONTINUOUS
 62
7
100
AcDbLine
 10
174.7444801652989
 20
141.4452085946485
 30
0.000000000000000
 11
174.7444801652989
 21
143.4934522353755
 31
0.000000000000000
  0
LINE
  5
249
100
AcDbEntity
  8
A1
  6
CONTINUOUS
 62
7
100
AcDbLine
 10
148.9444813863704
 20
148.4926475385813
 30
0.000000000000000
 11
148.9444813863704
 21
150.4492183613343
 31
0.000000000000000
  0
LINE
  5
24A
100
AcDbEntity
  8
A1
  6
CONTINUOUS
 62
7
100
AcDbLine
 10
148.9444813863704
 20
141.4452085946485
 30
0.000000000000000
 11
148.9444813863704
 21
143.4934522353473
 31
0.000000000000000
  0
LINE
  5
24B
100
AcDbEntity
  8
A1
  6
CONTINUOUS
 62
7
100
AcDbLine
 10
147.4444813863707
 20
148.4926475385813
 30
0.000000000000000
 11
147.4444813863706
 21
150.4492183613343
 31
0.000000000000000
  0
LINE
  5
24C
100
AcDbEntity
  8
A1
  6
CONTINUOUS
 62
7
100
AcDbLine
 10
147.4444813863706
 20
141.4452085946485
 30
0.000000000000000
 11
147.4444813863706
 21
143.4934522353755
 31
0.000000000000000
  0
LINE
  5
24D
100
AcDbEntity
  8
A1
  6
CONTINUOUS
 62
7
100
AcDbLine
 10
173.2444801652991
 20
140.9454467824418
 30
0.000000000000000
 11
173.2444801652991
 21
141.4452085946485
 31
0.000000000000000
  0
LINE
  5
24E
100
AcDbEntity
  8
A1
  6
CONTINUOUS
 62
7
100
AcDbLine
 10
173.2444801652989
 20
140.9454467824418
 30
0.000000000000000
 11
174.7444801652989
 21
140.9454467824419
 31
0.000000000000000
  0
LINE
  5
24F
100
AcDbEntity
  8
A1
  6
CONTINUOUS
 62
7
100
AcDbLine
 10
174.7444801652989
 20
140.9454467824418
 30
0.000000000000000
 11
174.7444801652989
 21
141.4452085946485
 31
0.000000000000000
  0
LINE
  5
250
100
AcDbEntity
  8
A1
  6
CONTINUOUS
 62
7
100
AcDbLine
 10
176.2444801652991
 20
150.9491764413425
 30
0.000000000000000
 11
174.7444801652991
 21
150.9491764413425
 31
0.000000000000000
  0
LINE
  5
251
100
AcDbEntity
  8
A1
  6
CONTINUOUS
 62
7
100
AcDbLine
 10
176.2444801652991
 20
150.9491764413425
 30
0.000000000000000
 11
176.2444801652991
 21
150.4491764413425
 31
0.000000000000000
  0
LINE
  5
252
100
AcDbEntity
  8
A1
  6
CONTINUOUS
 62
7
100
AcDbLine
 10
176.2444801652992
 20
149.9147319513654
 30
0.000000000000000
 11
176.2444801652991
 21
150.4491764413425
 31
0.000000000000000
  0
LINE
  5
253
100
AcDbEntity
  8
A1
  6
CONTINUOUS
 62
7
100
AcDbLine
 10
176.2444801652991
 20
148.4931203078109
 30
0.000000000000000
 11
176.2444801652992
 21
148.5885197069050
 31
0.000000000000000
  0
LINE
  5
254
100
AcDbEntity
  8
A1
  6
CONTINUOUS
 62
7
100
AcDbLine
 10
145.9444813863707
 20
149.9139513719762
 30
0.000000000000000
 11
145.9444813863708
 21
150.4491764413425
 31
0.000000000000000
  0
LINE
  5
255
100
AcDbEntity
  8
A1
  6
CONTINUOUS
 62
7
100
AcDbLine
 10
145.9444813863708
 20
148.4931203078109
 30
0.000000000000000
 11
145.9444813863707
 21
148.5902257788437
 31
0.000000000000000
  0
LINE
  5
256
100
AcDbEntity
  8
A1
  6
CONTINUOUS
 62
7
100
AcDbLine
 10
147.4444813863707
 20
150.9491764413425
 30
0.000000000000000
 11
145.9444813863708
 21
150.9491764413425
 31
0.000000000000000
  0
LINE
  5
257
100
AcDbEntity
  8
A1
  6
CONTINUOUS
 62
7
100
AcDbLine
 10
145.9444813863708
 20
150.9491764413425
 30
0.000000000000000
 11
145.9444813863708
 21
150.4491764413425
 31
0.000000000000000
  0
LINE
  5
258
100
AcDbEntity
  8
A1
  6
CONTINUOUS
 62
7
100
AcDbLine
 10
176.2444801652991
 20
143.3877772802646
 30
0.000000000000000
 11
176.2444801652991
 21
143.4934522353754
 31
0.000000000000000
  0
LINE
  5
259
100
AcDbEntity
  8
A1
  6
CONTINUOUS
 62
7
100
AcDbLine
 10
176.2444801652991
 20
141.4451666746567
 30
0.000000000000000
 11
176.2444801652991
 21
142.0570029354031
 31
0.000000000000000
  0
LINE
  5
25A
100
AcDbEntity
  8
A1
  6
CONTINUOUS
 62
7
100
AcDbLine
 10
145.9444813863707
 20
143.3872846356925
 30
0.000000000000000
 11
145.9444813863708
 21
143.4934522353754
 31
0.000000000000000
  0
LINE
  5
25B
100
AcDbEntity
  8
A1
  6
CONTINUOUS
 62
7
100
AcDbLine
 10
145.9444813863708
 20
141.4451666746567
 30
0.000000000000000
 11
145.9444813863707
 21
142.0570029354019
 31
0.000000000000000
  0
LINE
  5
25C
100
AcDbEntity
  8
A1
  6
CONTINUOUS
 62
7
100
AcDbLine
 10
176.2444801652991
 20
141.4451666746567
 30
0.000000000000000
 11
176.2444801652991
 21
140.9454048624499
 31
0.000000000000000
  0
LINE
  5
25D
100
AcDbEntity
  8
A1
  6
CONTINUOUS
 62
7
100
AcDbLine
 10
174.7444801652991
 20
140.9454048624499
 30
0.000000000000000
 11
176.2444801652992
 21
140.9454048624499
 31
0.000000000000000
  0
LINE
  5
25E
100
AcDbEntity
  8
A1
  6
CONTINUOUS
 62
7
100
AcDbLine
 10
145.9444813863708
 20
141.4451666746567
 30
0.000000000000000
 11
145.9444813863708
 21
140.9454048624499
 31
0.000000000000000
  0
LINE
  5
25F
100
AcDbEntity
  8
A1
  6
CONTINUOUS
 62
7
100
AcDbLine
 10
147.4444813863707
 20
140.9454048624499
 30
0.000000000000000
 11
145.9444813863707
 21
140.9454048624499
 31
0.000000000000000
  0
LINE
  5
260
100
AcDbEntity
  8
A1
  6
CONTINUOUS
 62
7
100
AcDbLine
 10
173.7444801652993
 20
143.4934522353473
 30
0.000000000000000
 11
172.0944801652993
 21
143.4934522353473
 31
0.000000000000000
  0
LINE
  5
261
100
AcDbEntity
  8
A1
  6
CONTINUOUS
 62
7
100
AcDbLine
 10
176.2444801652993
 20
143.4934522353573
 30
0.000000000000000
 11
173.7444801652993
 21
143.4934522353573
 31
0.000000000000000
  0
LINE
  5
262
100
AcDbEntity
  8
A1
  6
CONTINUOUS
 62
7
100
AcDbLine
 10
176.2444801652991
 20
143.4934522353510
 30
0.000000000000000
 11
176.2444801652991
 21
148.4926739425247
 31
0.000000000000000
  0
LINE
  5
263
100
AcDbEntity
  8
A1
  6
CONTINUOUS
 62
7
100
AcDbLine
 10
148.4444813863706
 20
143.4934522353473
 30
0.000000000000000
 11
150.0944813863705
 21
143.4934522353473
 31
0.000000000000000
  0
LINE
  5
264
100
AcDbEntity
  8
A1
  6
CONTINUOUS
 62
7
100
AcDbLine
 10
145.9444813863706
 20
143.4934522353573
 30
0.000000000000000
 11
148.4444813863706
 21
143.4934522353573
 31
0.000000000000000
  0
LINE
  5
265
100
AcDbEntity
  8
A1
  6
CONTINUOUS
 62
7
100
AcDbLine
 10
145.9444813863707
 20
143.4934522353510
 30
0.000000000000000
 11
145.9444813863707
 21
148.4926739425246
 31
0.000000000000000
  0
LINE
  5
266
100
AcDbEntity
  8
A1
  6
CONTINUOUS
 62
7
100
AcDbLine
 10
150.0944813863705
 20
143.4934522353573
 30
0.000000000000000
 11
151.0944813863705
 21
143.4934522353573
 31
0.000000000000000
  0
LINE
  5
267
100
AcDbEntity
  8
A1
  6
CONTINUOUS
 62
7
100
AcDbLine
 10
172.0944801652993
 20
143.4934522353573
 30
0.000000000000000
 11
171.0944801652993
 21
143.4934522353573
 31
0.000000000000000
  0
LINE
  5
268
100
AcDbEntity
  8
A1
  6
CONTINUOUS
 62
7
100
AcDbLine
 10
150.0944813863705
 20
148.4926475385813
 30
0.000000000000000
 11
150.5944807758338
 21
148.4926462049146
 31
0.000000000000000
  0
LINE
  5
269
100
AcDbEntity
  8
A1
  6
CONTINUOUS
 62
7
100
AcDbLine
 10
148.9444813863704
 20
148.4926475385813
 30
0.000000000000000
 11
150.0944813863705
 21
148.4926475385813
 31
0.000000000000000
  0
LINE
  5
26A
100
AcDbEntity
  8
A1
  6
CONTINUOUS
 62
7
100
AcDbLine
 10
147.4444813863707
 20
148.4926475385813
 30
0.000000000000000
 11
148.9444813863704
 21
148.4926475385813
 31
0.000000000000000
  0
LINE
  5
26B
100
AcDbEntity
  8
A1
  6
CONTINUOUS
 62
7
100
AcDbLine
 10
147.4444813863707
 20
148.4931203078109
 30
0.000000000000000
 11
145.9444813863708
 21
148.4931203078109
 31
0.000000000000000
  0
LINE
  5
26C
100
AcDbEntity
  8
A1
  6
CONTINUOUS
 62
7
100
AcDbLine
 10
145.9444813863706
 20
148.4926739425247
 30
0.000000000000000
 11
148.4444813863706
 21
148.4926079326662
 31
0.000000000000000
  0
LINE
  5
26D
100
AcDbEntity
  8
A1
  6
CONTINUOUS
 62
7
100
AcDbLine
 10
150.0944813863705
 20
148.4926079326662
 30
0.000000000000000
 11
148.4444813863706
 21
148.4926079326662
 31
0.000000000000000
  0
LINE
  5
26E
100
AcDbEntity
  8
A1
  6
CONTINUOUS
 62
7
100
AcDbLine
 10
150.0944813863706
 20
148.4926079326662
 30
0.000000000000000
 11
150.5944807758339
 21
148.4926043952179
 31
0.000000000000000
  0
LINE
  5
26F
100
AcDbEntity
  8
A1
  6
CONTINUOUS
 62
7
100
AcDbLine
 10
172.0944801652994
 20
148.4926079326662
 30
0.000000000000000
 11
171.5944807758361
 21
148.4926043952179
 31
0.000000000000000
  0
LINE
  5
270
100
AcDbEntity
  8
A1
  6
CONTINUOUS
 62
7
100
AcDbLine
 10
172.0944801652993
 20
148.4926079326662
 30
0.000000000000000
 11
173.7444801652993
 21
148.4926079326662
 31
0.000000000000000
  0
LINE
  5
271
100
AcDbEntity
  8
A1
  6
CONTINUOUS
 62
7
100
AcDbLine
 10
176.2444801652993
 20
148.4926739425246
 30
0.000000000000000
 11
173.7444801652993
 21
148.4926079326662
 31
0.000000000000000
  0
LINE
  5
272
100
AcDbEntity
  8
A1
  6
CONTINUOUS
 62
7
100
AcDbLine
 10
174.7444801652991
 20
148.4931203078109
 30
0.000000000000000
 11
176.2444801652991
 21
148.4931203078109
 31
0.000000000000000
  0
LINE
  5
273
100
AcDbEntity
  8
A1
  6
CONTINUOUS
 62
7
100
AcDbLine
 10
173.2444801652991
 20
148.4926475385813
 30
0.000000000000000
 11
172.0944801652993
 21
148.4926475385813
 31
0.000000000000000
  0
LINE
  5
274
100
AcDbEntity
  8
A1
  6
CONTINUOUS
 62
7
100
AcDbLine
 10
174.7444801652991
 20
148.4926475385813
 30
0.000000000000000
 11
173.2444801652991
 21
148.4926475385813
 31
0.000000000000000
  0
LINE
  5
275
100
AcDbEntity
  8
A1
  6
CONTINUOUS
 62
7
100
AcDbLine
 10
172.0944801652994
 20
148.4926475385813
 30
0.000000000000000
 11
171.5944807758360
 21
148.4926462049146
 31
0.000000000000000
  0
LINE
  5
276
100
AcDbEntity
  8
A1
  6
CONTINUOUS
 62
7
100
AcDbLine
 10
152.5944813863705
 20
143.4934522353440
 30
0.000000000000000
 11
152.5944813863705
 21
144.6172912121826
 31
0.000000000000000
  0
LINE
  5
277
100
AcDbEntity
  8
A1
  6
CONTINUOUS
 62
7
100
AcDbLine
 10
151.0944813863705
 20
144.6172912121826
 30
0.000000000000000
 11
151.0944813863705
 21
143.4934522353440
 31
0.000000000000000
  0
LINE
  5
278
100
AcDbEntity
  8
A1
  6
CONTINUOUS
 62
7
100
AcDbLine
 10
152.5944813863705
 20
143.4934522353440
 30
0.000000000000000
 11
151.0944813863705
 21
143.4934522353440
 31
0.000000000000000
  0
LINE
  5
279
100
AcDbEntity
  8
A1
  6
CONTINUOUS
 62
7
100
AcDbLine
 10
171.0944801652993
 20
144.6172912121827
 30
0.000000000000000
 11
171.0944801652993
 21
143.4934522353440
 31
0.000000000000000
  0
LINE
  5
27A
100
AcDbEntity
  8
A1
  6
CONTINUOUS
 62
7
100
AcDbLine
 10
169.5944801652994
 20
143.4934522353440
 30
0.000000000000000
 11
169.5944801652994
 21
144.6172912121826
 31
0.000000000000000
  0
LINE
  5
27B
100
AcDbEntity
  8
A1
  6
CONTINUOUS
 62
7
100
AcDbLine
 10
169.5944801652994
 20
143.4934522353440
 30
0.000000000000000
 11
171.0944801652993
 21
143.4934522353440
 31
0.000000000000000
  0
LINE
  5
27C
100
AcDbEntity
  8
A1
  6
CONTINUOUS
 62
7
100
AcDbLine
 10
171.5944807758360
 20
148.8471349162858
 30
0.000000000000000
 11
171.5944807758360
 21
150.2471349162858
 31
0.000000000000000
  0
LINE
  5
27D
100
AcDbEntity
  8
A1
  6
CONTINUOUS
 62
7
100
AcDbLine
 10
171.0944801652993
 20
147.4471349162858
 30
0.000000000000000
 11
171.5944807758360
 21
147.4471349162858
 31
0.000000000000000
  0
LINE
  5
27E
100
AcDbEntity
  8
A1
  6
CONTINUOUS
 62
7
100
AcDbLine
 10
171.5944807758360
 20
150.2471349162858
 30
0.000000000000000
 11
171.0944801652993
 21
150.2471349162858
 31
0.000000000000000
  0
LINE
  5
27F
100
AcDbEntity
  8
A1
  6
CONTINUOUS
 62
7
100
AcDbLine
 10
171.5944807758360
 20
147.4471349162858
 30
0.000000000000000
 11
171.5944807758360
 21
148.8471349162858
 31
0.000000000000000
  0
LINE
  5
280
100
AcDbEntity
  8
A1
  6
CONTINUOUS
 62
7
100
AcDbLine
 10
150.5944807758338
 20
148.8471349162858
 30
0.000000000000000
 11
150.5944807758338
 21
150.2471349162858
 31
0.000000000000000
  0
LINE
  5
281
100
AcDbEntity
  8
A1
  6
CONTINUOUS
 62
7
100
AcDbLine
 10
151.0944813863705
 20
150.2471349162858
 30
0.000000000000000
 11
150.5944807758338
 21
150.2471349162858
 31
0.000000000000000
  0
LINE
  5
282
100
AcDbEntity
  8
A1
  6
CONTINUOUS
 62
7
100
AcDbLine
 10
150.5944807758338
 20
147.4471349162858
 30
0.000000000000000
 11
151.0944813863705
 21
147.4471349162858
 31
0.000000000000000
  0
LINE
  5
283
100
AcDbEntity
  8
A1
  6
CONTINUOUS
 62
7
100
AcDbLine
 10
150.5944807758338
 20
147.4471349162858
 30
0.000000000000000
 11
150.5944807758338
 21
148.8471349162858
 31
0.000000000000000
  0
LINE
  5
284
100
AcDbEntity
  8
A1
  6
CONTINUOUS
 62
7
100
AcDbLine
 10
169.5944801652994
 20
150.3471349162858
 30
0.000000000000000
 11
152.5944813863706
 21
150.3471349162858
 31
0.000000000000000
  0
LINE
  5
285
100
AcDbEntity
  8
A1
  6
CONTINUOUS
 62
7
100
AcDbLine
 10
152.5944813863706
 20
147.3471349162858
 30
0.000000000000000
 11
169.5944801652994
 21
147.3471349162858
 31
0.000000000000000
  0
LINE
  5
286
100
AcDbEntity
  8
A1
  6
CONTINUOUS
 62
7
100
AcDbLine
 10
152.5944813863705
 20
146.9029556635424
 30
0.000000000000000
 11
152.5944813863705
 21
144.6172912121827
 31
0.000000000000000
  0
LINE
  5
287
100
AcDbEntity
  8
A1
  6
CONTINUOUS
 62
7
100
AcDbLine
 10
151.0944813863705
 20
144.6172912121827
 30
0.000000000000000
 11
151.0944813863705
 21
146.9029556635424
 31
0.000000000000000
  0
LINE
  5
288
100
AcDbEntity
  8
A1
  6
CONTINUOUS
 62
7
100
AcDbLine
 10
171.0944801652993
 20
144.6172912121827
 30
0.000000000000000
 11
171.0944801652993
 21
146.9029556635424
 31
0.000000000000000
  0
LINE
  5
289
100
AcDbEntity
  8
A1
  6
CONTINUOUS
 62
7
100
AcDbLine
 10
169.5944801652994
 20
146.9029556635424
 30
0.000000000000000
 11
169.5944801652994
 21
144.6172912121827
 31
0.000000000000000
  0
LINE
  5
28A
100
AcDbEntity
  8
A1
  6
CONTINUOUS
 62
7
100
AcDbLine
 10
171.0944801652993
 20
151.4370296558897
 30
0.000000000000000
 11
171.0944801652993
 21
146.9029556635424
 31
0.000000000000000
  0
LINE
  5
28B
100
AcDbEntity
  8
A1
  6
CONTINUOUS
 62
7
100
AcDbLine
 10
169.5944801652993
 20
151.4370296558897
 30
0.000000000000000
 11
171.0944801652993
 21
151.4370296558897
 31
0.000000000000000
  0
LINE
  5
28C
100
AcDbEntity
  8
A1
  6
CONTINUOUS
 62
7
100
AcDbLine
 10
169.5944801652994
 20
146.9029556635424
 30
0.000000000000000
 11
169.5944801652994
 21
151.4370296558897
 31
0.000000000000000
  0
LINE
  5
28D
100
AcDbEntity
  8
A1
  6
CONTINUOUS
 62
7
100
AcDbLine
 10
151.0944813863705
 20
151.4370296558897
 30
0.000000000000000
 11
151.0944813863705
 21
146.9029556635424
 31
0.000000000000000
  0
LINE
  5
28E
100
AcDbEntity
  8
A1
  6
CONTINUOUS
 62
7
100
AcDbLine
 10
152.5944813863705
 20
146.9029556635424
 30
0.000000000000000
 11
152.5944813863705
 21
151.4370296558897
 31
0.000000000000000
  0
LINE
  5
28F
100
AcDbEntity
  8
A1
  6
CONTINUOUS
 62
7
100
AcDbLine
 10
152.5944813863706
 20
151.4370296558897
 30
0.000000000000000
 11
151.0944813863706
 21
151.4370296558897
 31
0.000000000000000
  0
SPLINE
  5
290
100
AcDbEntity
  8
A1
  6
CONTINUOUS
 62
7
100
AcDbSpline
210
0.000000000000000
220
0.000000000000000
230
1.000000000000000
 70
     8
 71
     3
 72
    23
 73
    19
 74
     0
 42
1.000000000000000e-07
 43
1.000000000000000e-07
 12
0.9349329690217019
 22
0.3548243839375118
 32
0.000000000000000
 13
0.01860696275230111
 23
0.9998268754824267
 33
0.000000000000000
 40
0.000000000000000
 40
0.000000000000000
 40
0.000000000000000
 40
0.000000000000000
 40
0.3338815956034490
 40
0.6091629598403870
 40
0.8526631619871298
 40
1.064408532346306
 40
1.244420907227222
 40
1.422064562334344
 40
1.689958291152038
 40
2.008896594963663
 40
2.378662906541086
 40
2.799506661055682
 40
3.108646129596434
 40
3.440653424724813
 40
3.795564326625370
 40
4.173442413416517
 40
4.574465367976801
 40
4.999080465182328
 40
4.999080465182328
 40
4.999080465182328
 40
4.999080465182328
 10
176.2479422867329
 20
19.41167291213677
 30
0.000000000000000
 10
176.3519945905593
 20
19.45116268929279
 30
0.000000000000000
 10
176.5391292610054
 20
19.53062137192458
 30
0.000000000000000
 10
176.7923482955504
 20
19.66009441883832
 30
0.000000000000000
 10
177.0021392157124
 20
19.78399451066802
 30
0.000000000000000
 10
177.1784863630659
 20
19.90137566662058
 30
0.000000000000000
 10
177.3314502108699
 20
20.01384213496553
 30
0.000000000000000
 10
177.4940211608785
 20
20.14451090539648
 30
0.000000000000000
 10
177.6838626686583
 20
20.31478341376616
 30
0.000000000000000
 10
177.9053683721293
 20
20.54461349383550
 30
0.000000000000000
 10
178.1390594547186
 20
20.83190073458796
 30
0.000000000000000
 10
178.3429169381500
 20
21.13735095628824
 30
0.000000000000000
 10
178.5136435260394
 20
21.44777930255920
 30
0.000000000000000
 10
178.6516106920450
 20
21.75014689562372
 30
0.000000000000000
 10
178.7728197598171
 20
22.08416984634549
 30
0.000000000000000
 10
178.8709331074298
 20
22.44967035503775
 30
0.000000000000000
 10
178.9389846418858
 20
22.84562705186512
 30
0.000000000000000
 10
178.9581026108765
 20
23.12075939112761
 30
0.000000000000000
 10
178.9607362099758
 20
23.26227325310150
 30
0.000000000000000
  0
SPLINE
  5
291
100
AcDbEntity
  8
A1
  6
CONTINUOUS
 62
7
100
AcDbSpline
210
0.000000000000000
220
0.000000000000000
230
1.000000000000000
 70
     8
 71
     3
 72
    20
 73
    16
 74
     0
 42
1.000000000000000e-07
 43
1.000000000000000e-07
 12
-0.01927456367684499
 22
-0.9998142283419895
 32
0.000000000000000
 13
-0.8704566541564418
 23
-0.4922450743888476
 33
0.000000000000000
 40
0.000000000000000
 40
0.000000000000000
 40
0.000000000000000
 40
0.000000000000000
 40
0.3881977947385303
 40
0.7394803997991339
 40
1.054348436729666
 40
1.332951140057141
 40
1.575347991710998
 40
1.781589769476245
 40
1.951722021835966
 40
2.109483450676961
 40
2.301901424103321
 40
2.530208263668198
 40
2.794210731837355
 40
3.094051372271917
 40
3.103331069204802
 40
3.103331069204802
 40
3.103331069204802
 40
3.103331069204802
 10
177.7609196217174
 20
23.28331492083583
 30
0.000000000000000
 10
177.7584255073461
 20
23.15393969463898
 30
0.000000000000000
 10
177.7377870431749
 20
22.90745794830055
 30
0.000000000000000
 10
177.6645229592773
 20
22.56294739630611
 30
0.000000000000000
 10
177.5656307016384
 20
22.26336755914935
 30
0.000000000000000
 10
177.4529151582504
 20
22.00814273409053
 30
0.000000000000000
 10
177.3363631563169
 20
21.79529576364882
 30
0.000000000000000
 10
177.2241333425740
 20
21.62205412336308
 30
0.000000000000000
 10
177.1181136212915
 20
21.47889726705990
 30
0.000000000000000
 10
177.0073120597383
 20
21.34536462772877
 30
0.000000000000000
 10
176.8754619240398
 20
21.20446373054604
 30
0.000000000000000
 10
176.7075777968260
 20
21.04947964774133
 30
0.000000000000000
 10
176.4989369348205
 20
20.88710372961306
 30
0.000000000000000
 10
176.3374632525793
 20
20.78430775696804
 30
0.000000000000000
 10
176.2478581187077
 20
20.73343560393744
 30
0.000000000000000
 10
176.2451655940598
 20
20.73191297556843
 30
0.000000000000000
  0
SPLINE
  5
292
100
AcDbEntity
  8
A1
  6
CONTINUOUS
 62
7
100
AcDbSpline
210
0.000000000000000
220
0.000000000000000
230
1.000000000000000
 70
     8
 71
     3
 72
    13
 73
     9
 74
     0
 42
1.000000000000000e-07
 43
1.000000000000000e-07
 12
0.8349039080499097
 22
0.5503957342871786
 32
0.000000000000000
 13
0.9999745401303244
 23
0.007135761439599264
 33
0.000000000000000
 40
0.000000000000000
 40
0.000000000000000
 40
0.000000000000000
 40
0.000000000000000
 40
0.1749898770336107
 40
0.5154705671792936
 40
0.8926481602118139
 40
1.164570675332519
 40
1.452847501383965
 40
1.738303573851751
 40
1.738303573851751
 40
1.738303573851751
 40
1.738303573851751
 10
173.1038235245611
 20
25.82957299857481
 30
0.000000000000000
 10
173.1525234352959
 20
25.86167755919573
 30
0.000000000000000
 10
173.2987021118274
 20
25.95216157055081
 30
0.000000000000000
 10
173.5646536463536
 20
26.08701800781482
 30
0.000000000000000
 10
173.8750608934548
 20
26.20118582446838
 30
0.000000000000000
 10
174.1784855888460
 20
26.27738455890577
 30
0.000000000000000
 10
174.4574962268318
 20
26.32050009546953
 30
0.000000000000000
 10
174.6488044453700
 20
26.33103653451691
 30
0.000000000000000
 10
174.7439540469678
 20
26.33171551666178
 30
0.000000000000000
  0
SPLINE
  5
293
100
AcDbEntity
  8
A1
  6
CONTINUOUS
 62
7
100
AcDbSpline
210
0.000000000000000
220
0.000000000000000
230
1.000000000000000
 70
     8
 71
     3
 72
    13
 73
     9
 74
     0
 42
1.000000000000000e-07
 43
1.000000000000000e-07
 12
-0.9999655288215763
 22
0.008303081888612951
 32
0.000000000000000
 13
-0.8392683084684904
 23
0.5437174876711310
 33
0.000000000000000
 40
0.000000000000000
 40
0.000000000000000
 40
0.000000000000000
 40
0.000000000000000
 40
0.3396181632869678
 40
0.6673095788255512
 40
0.9659277616657720
 40
1.235597798623926
 40
1.554178862249244
 40
1.712610621640457
 40
1.712610621640457
 40
1.712610621640457
 40
1.712610621640457
 10
174.7437573424003
 20
20.33806452210502
 30
0.000000000000000
 10
174.6305551903174
 20
20.33900448124523
 30
0.000000000000000
 10
174.4080022614185
 20
20.35345146305532
 30
0.000000000000000
 10
174.0905446505327
 20
20.41080043161290
 30
0.000000000000000
 10
173.8031948271667
 20
20.49398227424908
 30
0.000000000000000
 10
173.5277522898056
 20
20.60229560532268
 30
0.000000000000000
 10
173.3054460646453
 20
20.71534255985832
 30
0.000000000000000
 10
173.1697518505589
 20
20.79835036817593
 30
0.000000000000000
 10
173.1254295989882
 20
20.82706440757043
 30
0.000000000000000
  0
SPLINE
  5
294
100
AcDbEntity
  8
A1
  6
CONTINUOUS
 62
7
100
AcDbSpline
210
0.000000000000000
220
0.000000000000000
230
1.000000000000000
 70
     8
 71
     3
 72
    20
 73
    16
 74
     0
 42
1.000000000000000e-07
 43
1.000000000000000e-07
 12
0.8695053089813882
 22
-0.4939235949541398
 32
0.000000000000000
 13
0.0003552297116584668
 23
-0.9999999369058514
 33
0.000000000000000
 40
0.000000000000000
 40
0.000000000000000
 40
0.000000000000000
 40
0.000000000000000
 40
0.03260362254822670
 40
0.2414226237273711
 40
0.4142977939355502
 40
0.5730938636698273
 40
0.7668130507628054
 40
0.9972098760713031
 40
1.263982030091009
 40
1.567267524128713
 40
1.907227589756108
 40
2.284005913090491
 40
2.555861600520435
 40
2.844364732816727
 40
3.149886424945748
 40
3.149886424945748
 40
3.149886424945748
 40
3.149886424945748
 10
176.2469610559223
 20
25.93503697053949
 30
0.000000000000000
 10
176.2564107302215
 20
25.92966907105364
 30
0.000000000000000
 10
176.3261661521377
 20
25.88954138465602
 30
0.000000000000000
 10
176.4431601493957
 20
25.81592122513443
 30
0.000000000000000
 10
176.5893184095674
 20
25.71042041727240
 30
0.000000000000000
 10
176.7254402480619
 20
25.60010130647013
 30
0.000000000000000
 10
176.8688757538426
 20
25.46881193743435
 30
0.000000000000000
 10
177.0270029988020
 20
25.30104859282176
 30
0.000000000000000
 10
177.1931260070459
 20
25.09179332697909
 30
0.000000000000000
 10
177.3585240606414
 20
24.83689806833405
 30
0.000000000000000
 10
177.5127123426267
 20
24.53308863109884
 30
0.000000000000000
 10
177.6267858797661
 20
24.22298073790712
 30
0.000000000000000
 10
177.7029163740458
 20
23.91962037890200
 30
0.000000000000000
 10
177.7469798404056
 20
23.63393160650533
 30
0.000000000000000
 10
177.7571945012265
 20
23.43576313195301
 30
0.000000000000000
 10
177.7572306780207
 20
23.33392257433555
 30
0.000000000000000
  0
SPLINE
  5
295
100
AcDbEntity
  8
A1
  6
CONTINUOUS
 62
7
100
AcDbSpline
210
0.000000000000000
220
0.000000000000000
230
1.000000000000000
 70
     8
 71
     3
 72
    10
 73
     6
 74
     0
 42
1.000000000000000e-07
 43
1.000000000000000e-07
 12
0.7133784355373791
 22
-0.06701429877057308
 32
0.000000000000000
 13
1.115700168860258
 23
0.0001625830278157991
 33
0.000000000000000
 40
0.000000000000000
 40
0.000000000000000
 40
0.000000000000000
 40
0.000000000000000
 40
0.08932252600064342
 40
0.2246022532839055
 40
0.4074304205168710
 40
0.4074304205168710
 40
0.4074304205168710
 40
0.4074304205168710
 10
177.7572305436516
 20
23.33391906593842
 30
0.000000000000000
 10
177.7784707982704
 20
23.33192377045697
 30
0.000000000000000
 10
177.8464053171170
 20
23.33463900169039
 30
0.000000000000000
 10
177.9816543679237
 20
23.33175822579940
 30
0.000000000000000
 10
178.0964863596116
 20
23.33249586484620
 30
0.000000000000000
 10
178.1644801652964
 20
23.33250577309853
 30
0.000000000000000
  0
SPLINE
  5
296
100
AcDbEntity
  8
A1
  6
CONTINUOUS
 62
7
100
AcDbSpline
210
0.000000000000000
220
0.000000000000000
230
1.000000000000000
 70
     8
 71
     3
 72
    20
 73
    16
 74
     0
 42
1.000000000000000e-07
 43
1.000000000000000e-07
 12
-0.9999867936223836
 22
-0.005139317167760282
 32
0.000000000000000
 13
-0.5911273020226417
 23
-0.8065782744430976
 33
0.000000000000000
 40
0.000000000000000
 40
0.000000000000000
 40
0.000000000000000
 40
0.000000000000000
 40
0.3506782167608731
 40
0.6974847157472761
 40
1.021798748964347
 40
1.466140312721168
 40
1.860094754301907
 40
2.138980927171843
 40
2.385590830468796
 40
2.599947766527630
 40
2.782077787734254
 40
2.962276531122894
 40
3.233922026420227
 40
3.557081281985327
 40
3.903831444751249
 40
3.903831444751249
 40
3.903831444751249
 40
3.903831444751249
 10
174.7439112285667
 20
27.53538937394626
 30
0.000000000000000
 10
174.6270200333761
 20
27.53478862508634
 30
0.000000000000000
 10
174.3944521314963
 20
27.52376898439802
 30
0.000000000000000
 10
174.0564638754145
 20
27.47862534364005
 30
0.000000000000000
 10
173.6926763366857
 20
27.40013728347440
 30
0.000000000000000
 10
173.3220689610620
 20
27.28434244153056
 30
0.000000000000000
 10
172.9786377724385
 20
27.13900390576483
 30
0.000000000000000
 10
172.7064134492542
 20
26.99774768079088
 30
0.000000000000000
 10
172.4947900384700
 20
26.87084239211806
 30
0.000000000000000
 10
172.3171427579184
 20
26.75070257477656
 30
0.000000000000000
 10
172.1631292809139
 20
26.63557092127085
 30
0.000000000000000
 10
171.9995078923743
 20
26.50173579200234
 30
0.000000000000000
 10
171.8086850230968
 20
26.32729803292034
 30
0.000000000000000
 10
171.5931255419994
 20
26.09874772880677
 30
0.000000000000000
 10
171.4534463765261
 20
25.92412045168882
 30
0.000000000000000
 10
171.3851218804622
 20
25.83089340237328
 30
0.000000000000000
  0
SPLINE
  5
297
100
AcDbEntity
  8
A1
  6
CONTINUOUS
 62
7
100
AcDbSpline
210
0.000000000000000
220
0.000000000000000
230
1.000000000000000
 70
     8
 71
     3
 72
    20
 73
    16
 74
     0
 42
1.000000000000000e-07
 43
1.000000000000000e-07
 12
0.5954497329657897
 22
-0.8033925662530805
 32
0.000000000000000
 13
0.9999880089369526
 23
-0.004897140170641023
 33
0.000000000000000
 40
0.000000000000000
 40
0.000000000000000
 40
0.000000000000000
 40
0.000000000000000
 40
0.1302598468970605
 40
0.3688558646032176
 40
0.6069051115233561
 40
0.8493040766512410
 40
1.158223938730865
 40
1.473921949523497
 40
1.796515625082673
 40
2.134853071230610
 40
2.513359509340519
 40
2.933488915771528
 40
3.236829257319684
 40
3.558842255342409
 40
3.883463425033121
 40
3.883463425033121
 40
3.883463425033121
 40
3.883463425033121
 10
171.3973982419531
 20
20.82408232511499
 30
0.000000000000000
 10
171.4232526389701
 20
20.78919906088887
 30
0.000000000000000
 10
171.4980246834047
 20
20.69157148039542
 30
0.000000000000000
 10
171.6281109462342
 20
20.53648412149637
 30
0.000000000000000
 10
171.7926840067973
 20
20.36204544258759
 30
0.000000000000000
 10
171.9844423559501
 20
20.18165200807558
 30
0.000000000000000
 10
172.2080033407024
 20
19.99806001750900
 30
0.000000000000000
 10
172.4665749938018
 20
19.81635365708276
 30
0.000000000000000
 10
172.7465589303846
 20
19.64964790844997
 30
0.000000000000000
 10
173.0574002835732
 20
19.49578243575414
 30
0.000000000000000
 10
173.4103446584238
 20
19.35639343495058
 30
0.000000000000000
 10
173.7636726353196
 20
19.25366251237381
 30
0.000000000000000
 10
174.1056565663233
 20
19.18518641768050
 30
0.000000000000000
 10
174.4202284765430
 20
19.14625773751733
 30
0.000000000000000
 10
174.6358289119619
 20
19.13676165385613
 30
0.000000000000000
 10
174.7440346710078
 20
19.13623174873269
 30
0.000000000000000
  0
SPLINE
  5
298
100
AcDbEntity
  8
A1
  6
CONTINUOUS
 62
7
100
AcDbSpline
210
0.000000000000000
220
0.000000000000000
230
1.000000000000000
 70
     8
 71
     3
 72
    12
 73
     8
 74
     0
 42
1.000000000000000e-07
 43
1.000000000000000e-07
 12
0.9999998639441401
 22
-0.0005216430661789673
 32
0.000000000000000
 13
0.9998132338605501
 23
0.01932608067909314
 33
0.000000000000000
 40
0.000000000000000
 40
0.000000000000000
 40
0.000000000000000
 40
0.000000000000000
 40
0.2317804707358502
 40
0.4583257180418708
 40
0.6454467941398804
 40
0.7621550933746101
 40
0.7964170070140473
 40
0.7964170070140473
 40
0.7964170070140473
 40
0.7964170070140473
 10
178.1644801652964
 20
23.33250577309853
 30
0.000000000000000
 10
178.2417403116967
 20
23.33246547087339
 30
0.000000000000000
 10
178.3945153452549
 20
23.33249544292207
 30
0.000000000000000
 10
178.6096651877099
 20
23.33268213234320
 30
0.000000000000000
 10
178.7864535064841
 20
23.33331590714388
 30
0.000000000000000
 10
178.8991548262620
 20
23.33340917508345
 30
0.000000000000000
 10
178.9494712886920
 20
23.33428487363786
 30
0.000000000000000
 10
178.9608897935834
 20
23.33450558980693
 30
0.000000000000000
  0
SPLINE
  5
299
100
AcDbEntity
  8
A1
  6
CONTINUOUS
 62
7
100
AcDbSpline
210
0.000000000000000
220
0.000000000000000
230
1.000000000000000
 70
     8
 71
     3
 72
    24
 73
    20
 74
     0
 42
1.000000000000000e-07
 43
1.000000000000000e-07
 12
-0.0004087395614078559
 22
0.9999999164660096
 32
0.000000000000000
 13
-0.9349935915852257
 23
0.3546646073339161
 33
0.000000000000000
 40
0.000000000000000
 40
0.000000000000000
 40
0.000000000000000
 40
0.000000000000000
 40
0.3703746750756844
 40
0.7175217272126071
 40
1.041838918945595
 40
1.485806854484273
 40
1.879178107353546
 40
2.157562005381542
 40
2.403687451257499
 40
2.617596089655373
 40
2.799315845273165
 40
2.979396836205996
 40
3.250869568089986
 40
3.573857292268904
 40
3.947971600346396
 40
4.373402882552442
 40
4.685703661828550
 40
5.020921740779062
 40
5.074961640759025
 40
5.074961640759025
 40
5.074961640759025
 40
5.074961640759025
 10
178.9608897169731
 20
23.33450223357225
 30
0.000000000000000
 10
178.9608392547124
 20
23.45796044828452
 30
0.000000000000000
 10
178.9500920740132
 20
23.69727822499357
 30
0.000000000000000
 10
178.9041639454280
 20
24.04190222578797
 30
0.000000000000000
 10
178.8257578598382
 20
24.40569989039550
 30
0.000000000000000
 10
178.7100853774410
 20
24.77601424323955
 30
0.000000000000000
 10
178.5648893122434
 20
25.11897914244233
 30
0.000000000000000
 10
178.4238073475738
 20
25.39070424161660
 30
0.000000000000000
 10
178.2970927199579
 20
25.60188376770188
 30
0.000000000000000
 10
178.1771671794731
 20
25.77913496729256
 30
0.000000000000000
 10
178.0622168855704
 20
25.93287681075576
 30
0.000000000000000
 10
177.9285361675626
 20
26.09632325647685
 30
0.000000000000000
 10
177.7542533160888
 20
26.28706994388918
 30
0.000000000000000
 10
177.5192790735637
 20
26.50898621229077
 30
0.000000000000000
 10
177.2259808698595
 20
26.74213609473870
 30
0.000000000000000
 10
176.9146335025457
 20
26.94441803677953
 30
0.000000000000000
 10
176.5987553254481
 20
27.11273728471750
 30
0.000000000000000
 10
176.3844105068125
 20
27.20694905315067
 30
0.000000000000000
 10
176.2633859047613
 20
27.25373254171525
 30
0.000000000000000
 10
176.2465435847042
 20
27.26012122168417
 30
0.000000000000000
  0
ARC
  5
29A
100
AcDbEntity
  8
A1
  6
CONTINUOUS
 62
7
100
AcDbCircle
 10
174.7613813977627
 20
23.33591903323313
 30
0.000000000000000
 40
4.199999999979616
100
AcDbArc
 50
359.9775474511454
 51
360.5949148273164
  0
ARC
  5
29B
100
AcDbEntity
  8
A1
  6
CONTINUOUS
 62
7
100
AcDbCircle
 10
174.7613813977627
 20
23.33591903323313
 30
0.000000000000000
 40
4.199999999979616
100
AcDbArc
 50
358.9963476533389
 51
359.9775474511454
  0
LINE
  5
29C
100
AcDbEntity
  8
A1
  6
CONTINUOUS
 62
7
100
AcDbLine
 10
178.9613740779104
 20
23.33394301458276
 30
0.000000000000000
 11
178.9607250389369
 21
23.26227345492855
 31
0.000000000000000
  0
LINE
  5
29D
100
AcDbEntity
  8
A1
  6
CONTINUOUS
 62
7
100
AcDbLine
 10
178.9605412670380
 20
23.25191669935806
 30
0.000000000000000
 11
178.9607370363170
 21
23.26235123612915
 31
0.000000000000000
  0
LINE
  5
29E
100
AcDbEntity
  8
A1
  6
CONTINUOUS
 62
7
100
AcDbLine
 10
178.9612163375637
 20
23.29868358966018
 30
0.000000000000000
 11
178.9613808409172
 21
23.33375631902689
 31
0.000000000000000
  0
LINE
  5
29F
100
AcDbEntity
  8
A1
  6
CONTINUOUS
 62
7
100
AcDbLine
 10
178.9613813970186
 20
23.33599701876092
 30
0.000000000000000
 11
178.9612552028601
 21
23.36847699827399
 31
0.000000000000000
  0
LINE
  5
2A0
100
AcDbEntity
  8
A1
  6
CONTINUOUS
 62
7
100
AcDbLine
 10
177.7555097537103
 20
23.52352337217462
 30
0.000000000000000
 11
177.7613813972254
 21
23.33597473718154
 31
0.000000000000000
  0
LINE
  5
2A1
100
AcDbEntity
  8
A1
  6
CONTINUOUS
 62
7
100
AcDbLine
 10
174.7114307080316
 20
26.33550315915342
 30
0.000000000000000
 11
174.7411539373195
 21
26.33585084074504
 31
0.000000000000000
  0
LINE
  5
2A2
100
AcDbEntity
  8
A1
  6
CONTINUOUS
 62
7
100
AcDbLine
 10
174.7445080777061
 20
20.33596648511707
 30
0.000000000000000
 11
174.7080927928619
 21
20.33639234982699
 31
0.000000000000000
  0
LINE
  5
2A3
100
AcDbEntity
  8
A1
  6
CONTINUOUS
 62
7
100
AcDbLine
 10
177.7613773313412
 20
23.34085850600945
 30
0.000000000000000
 11
177.7579363977898
 21
23.19218966361191
 31
0.000000000000000
  0
SPLINE
  5
2A4
100
AcDbEntity
  8
A1
  6
CONTINUOUS
 62
7
100
AcDbSpline
210
0.000000000000000
220
0.000000000000000
230
1.000000000000000
 70
     8
 71
     3
 72
    45
 73
    41
 74
     0
 42
1.000000000000000e-07
 43
1.000000000000000e-07
 12
0.9989442273290479
 22
0.04593942411838725
 32
0.000000000000000
 13
0.9995968291550525
 23
-0.02839329403468582
 33
0.000000000000000
 40
0.000000000000000
 40
0.000000000000000
 40
0.000000000000000
 40
0.000000000000000
 40
0.02496857678692390
 40
0.1129183299090084
 40
0.2450044547705799
 40
0.4156804126278962
 40
0.6302779265942241
 40
0.8936890312831511
 40
1.201799886536134
 40
1.508174766206722
 40
1.845712924730957
 40
2.213645797518277
 40
2.611335895612148
 40
3.017644323031359
 40
3.444177749986693
 40
3.889970586200917
 40
4.354269236869316
 40
4.787698205713659
 40
5.229712789304590
 40
5.680973693919622
 40
6.136957893365774
 40
6.630524483755506
 40
7.128321334245652
 40
7.623984637710459
 40
8.117990586630180
 40
8.583337255746640
 40
9.040882493795145
 40
9.483699875658095
 40
9.911132828067084
 40
10.29474605647727
 40
10.65422336115367
 40
10.98714527306324
 40
11.29064913677256
 40
11.53932935820357
 40
11.75511782172970
 40
11.93670372082540
 40
12.08287892616779
 40
12.18714746436867
 40
12.25831913405865
 40
12.27390868368297
 40
12.27390868368297
 40
12.27390868368297
 40
12.27390868368297
 10
155.1333768267604
 20
25.29290050387140
 30
0.000000000000000
 10
155.1416908986424
 20
25.29328285121761
 30
0.000000000000000
 10
155.1793035571559
 20
25.29606875853224
 30
0.000000000000000
 10
155.2582797687292
 20
25.31908991502117
 30
0.000000000000000
 10
155.3812477524595
 20
25.36122055078793
 30
0.000000000000000
 10
155.5424339801111
 20
25.42289565998475
 30
0.000000000000000
 10
155.7439170374143
 20
25.50124328571504
 30
0.000000000000000
 10
155.9884780489155
 20
25.59539769940496
 30
0.000000000000000
 10
156.2628495043433
 20
25.69716999459476
 30
0.000000000000000
 10
156.5622011473604
 20
25.80255245103254
 30
0.000000000000000
 10
156.8824896469888
 20
25.90834015737263
 30
0.000000000000000
 10
157.2342124499528
 20
26.01574386216525
 30
0.000000000000000
 10
157.6106628730360
 20
26.12026599011028
 30
0.000000000000000
 10
158.0088179150601
 20
26.21907044844056
 30
0.000000000000000
 10
158.4253668684776
 20
26.30961672936793
 30
0.000000000000000
 10
158.8635516087451
 20
26.39066737096768
 30
0.000000000000000
 10
159.3064555767318
 20
26.45756406215033
 30
0.000000000000000
 10
159.7500607872369
 20
26.50967663005481
 30
0.000000000000000
 10
160.1907979678471
 20
26.54700136931767
 30
0.000000000000000
 10
160.6400490245897
 20
26.56999517361425
 30
0.000000000000000
 10
161.1070078258554
 20
26.57799130446087
 30
0.000000000000000
 10
161.5894858791346
 20
26.56904824338243
 30
0.000000000000000
 10
162.0845071859842
 20
26.54144857791320
 30
0.000000000000000
 10
162.5783097001903
 20
26.49551919801950
 30
0.000000000000000
 10
163.0593708768706
 20
26.43295102909342
 30
0.000000000000000
 10
163.5253906370193
 20
26.35564506704777
 30
0.000000000000000
 10
163.9718457003765
 20
26.26624538881100
 30
0.000000000000000
 10
164.4029082183700
 20
26.16554164494888
 30
0.000000000000000
 10
164.8069090901226
 20
26.05821173871961
 30
0.000000000000000
 10
165.1811594896188
 20
25.94773398914197
 30
0.000000000000000
 10
165.5226233233092
 20
25.83787080214373
 30
0.000000000000000
 10
165.8364053647376
 20
25.72943874460323
 30
0.000000000000000
 10
166.1134909163410
 20
25.62805950305985
 30
0.000000000000000
 10
166.3527415245378
 20
25.53701007472147
 30
0.000000000000000
 10
166.5534822973520
 20
25.45899998859308
 30
0.000000000000000
 10
166.7224371828696
 20
25.39367812496678
 30
0.000000000000000
 10
166.8574915385817
 20
25.34335076789590
 30
0.000000000000000
 10
166.9593066847530
 20
25.31036680073198
 30
0.000000000000000
 10
167.0214784595544
 20
25.29450402343537
 30
0.000000000000000
 10
167.0504007672889
 20
25.29304804684083
 30
0.000000000000000
 10
167.0555951887463
 20
25.29290050061871
 30
0.000000000000000
  0
SPLINE
  5
2A5
100
AcDbEntity
  8
A1
  6
CONTINUOUS
 62
7
100
AcDbSpline
210
0.000000000000000
220
0.000000000000000
230
1.000000000000000
 70
     8
 71
     3
 72
     9
 73
     5
 74
     0
 42
1.000000000000000e-07
 43
1.000000000000000e-07
 12
0.9904485269980796
 22
-0.1378829770646917
 32
0.000000000000000
 13
0.2241470556255081
 23
0.9745553331918018
 33
0.000000000000000
 40
0.000000000000000
 40
0.000000000000000
 40
0.000000000000000
 40
0.000000000000000
 40
0.02591774786485240
 40
0.05194991988813250
 40
0.05194991988813250
 40
0.05194991988813250
 40
0.05194991988813250
 10
167.0555951887463
 20
25.29290050061871
 30
0.000000000000000
 10
167.0641519204783
 20
25.29170929520724
 30
0.000000000000000
 10
167.0839686135859
 20
25.29329655483615
 30
0.000000000000000
 10
167.0925357642650
 20
25.31125657288970
 30
0.000000000000000
 10
167.0944807758352
 20
25.31971317024966
 30
0.000000000000000
  0
SPLINE
  5
2A6
100
AcDbEntity
  8
A1
  6
CONTINUOUS
 62
7
100
AcDbSpline
210
0.000000000000000
220
0.000000000000000
230
1.000000000000000
 70
     8
 71
     3
 72
    47
 73
    43
 74
     0
 42
1.000000000000000e-07
 43
1.000000000000000e-07
 12
-0.7314697807341872
 22
0.6818738592114642
 32
0.000000000000000
 13
-0.7105981599743245
 23
-0.7035980777700388
 33
0.000000000000000
 40
0.000000000000000
 40
0.000000000000000
 40
0.000000000000000
 40
0.000000000000000
 40
0.02201085761520990
 40
0.08345110545293410
 40
0.1881906653362084
 40
0.3373921885847608
 40
0.5234955718124553
 40
0.7518732877472150
 40
1.026976946026749
 40
1.344290376340322
 40
1.661718151673846
 40
2.009314860244795
 40
2.390623123288418
 40
2.798440292867790
 40
3.213251431140800
 40
3.647712864381137
 40
4.105720055656944
 40
4.578920853862679
 40
4.985931373815120
 40
5.399912019240131
 40
5.823556839316136
 40
6.251082072899660
 40
6.745322623326486
 40
7.240261941466663
 40
7.740235720838772
 40
8.235071778261567
 40
8.701307973261645
 40
9.156620930922079
 40
9.604143288322485
 40
10.03343644436405
 40
10.41927262977656
 40
10.78177840206903
 40
11.12243871671051
 40
11.43195221302689
 40
11.68834304820675
 40
11.91240264692937
 40
12.10456998014713
 40
12.25975924100888
 40
12.36396819886394
 40
12.43894147438016
 40
12.48509795676846
 40
12.50215851832676
 40
12.50215851832676
 40
12.50215851832676
 40
12.50215851832676
 10
167.0944807758352
 20
23.69355125869872
 30
0.000000000000000
 10
167.0891140167707
 20
23.69855413484093
 30
0.000000000000000
 10
167.0681771064084
 20
23.71697057802461
 30
0.000000000000000
 10
167.0135755732671
 20
23.74848688603591
 30
0.000000000000000
 10
166.9234555787963
 20
23.80229023719684
 30
0.000000000000000
 10
166.7940380840047
 20
23.87159539110368
 30
0.000000000000000
 10
166.6266521199844
 20
23.95689617219391
 30
0.000000000000000
 10
166.4190827187109
 20
24.05574699127570
 30
0.000000000000000
 10
166.1691104302521
 20
24.16702935710379
 30
0.000000000000000
 10
165.8887047674357
 20
24.28269660023078
 30
0.000000000000000
 10
165.5826810814245
 20
24.39929195027612
 30
0.000000000000000
 10
165.2534536721235
 20
24.51456172895022
 30
0.000000000000000
 10
164.8923149664349
 20
24.62941866166607
 30
0.000000000000000
 10
164.5062776485231
 20
24.73932677763526
 30
0.000000000000000
 10
164.0997910790458
 20
24.84136898968284
 30
0.000000000000000
 10
163.6738710742906
 20
24.93382137485705
 30
0.000000000000000
 10
163.2259146937571
 20
25.01534098131697
 30
0.000000000000000
 10
162.7844141517532
 20
25.07972864008605
 30
0.000000000000000
 10
162.3556303085382
 20
25.12774034456586
 30
0.000000000000000
 10
161.9420231846996
 20
25.16106212771737
 30
0.000000000000000
 10
161.5207308667345
 20
25.18155085672808
 30
0.000000000000000
 10
161.0722430955054
 20
25.18884029813430
 30
0.000000000000000
 10
160.5999775697618
 20
25.17996637473438
 30
0.000000000000000
 10
160.1042657359505
 20
25.15199217336569
 30
0.000000000000000
 10
159.6097619096494
 20
25.10531068106432
 30
0.000000000000000
 10
159.1268565902080
 20
25.04129496204411
 30
0.000000000000000
 10
158.6612897580652
 20
24.96227348315607
 30
0.000000000000000
 10
158.2142108164856
 20
24.87026990282949
 30
0.000000000000000
 10
157.7825122998325
 20
24.76593242400669
 30
0.000000000000000
 10
157.3768650092776
 20
24.65342451815101
 30
0.000000000000000
 10
157.0020304153635
 20
24.53664863869104
 30
0.000000000000000
 10
156.6587435897208
 20
24.41849388640186
 30
0.000000000000000
 10
156.3427885053558
 20
24.29954155636031
 30
0.000000000000000
 10
156.0630076253834
 20
24.18524890803050
 30
0.000000000000000
 10
155.8218726958995
 20
24.07938525780048
 30
0.000000000000000
 10
155.6188200560875
 20
23.98428246628181
 30
0.000000000000000
 10
155.4482363278655
 20
23.89946061993901
 30
0.000000000000000
 10
155.3152855362990
 20
23.82894140837404
 30
0.000000000000000
 10
155.2177540466993
 20
23.77479397930840
 30
0.000000000000000
 10
155.1539240083102
 20
23.73546310028724
 30
0.000000000000000
 10
155.1140083561969
 20
23.71193437990931
 30
0.000000000000000
 10
155.0985218437190
 20
23.69755251813808
 30
0.000000000000000
 10
155.0944807758352
 20
23.69355125869872
 30
0.000000000000000
  0
SPLINE
  5
2A7
100
AcDbEntity
  8
A1
  6
CONTINUOUS
 62
7
100
AcDbSpline
210
0.000000000000000
220
0.000000000000000
230
1.000000000000000
 70
     8
 71
     3
 72
     9
 73
     5
 74
     0
 42
1.000000000000000e-07
 43
1.000000000000000e-07
 12
0.2555320565152215
 22
-0.9668005834155338
 32
0.000000000000000
 13
0.9906331209786003
 23
0.1365504288196462
 33
0.000000000000000
 40
0.000000000000000
 40
0.000000000000000
 40
0.000000000000000
 40
0.000000000000000
 40
0.02791796636258250
 40
0.05163632667820260
 40
0.05163632667820260
 40
0.05163632667820260
 40
0.05163632667820260
 10
155.0944807758352
 20
25.31971317024966
 30
0.000000000000000
 10
155.0968587542880
 20
25.31071613486062
 30
0.000000000000000
 10
155.1062860089519
 20
25.29312890837274
 30
0.000000000000000
 10
155.1255447623258
 20
25.29182091978073
 30
0.000000000000000
 10
155.1333768267604
 20
25.29290050387140
 30
0.000000000000000
  0
ARC
  5
2A8
100
AcDbEntity
  8
A1
  6
CONTINUOUS
 62
7
100
AcDbCircle
 10
154.6944807758352
 20
28.77517486774694
 30
0.000000000000000
 40
1.600000000000000
100
AcDbArc
 50
90.00000000000000
 51
180.0000000000000
  0
ARC
  5
2A9
100
AcDbEntity
  8
A1
  6
CONTINUOUS
 62
7
100
AcDbCircle
 10
167.4944807758352
 20
28.77517486774694
 30
0.000000000000000
 40
1.600000000000000
100
AcDbArc
 50
0.000000000000000
 51
90.00000000000000
  0
LINE
  5
2AA
100
AcDbEntity
  8
A1
  6
CONTINUOUS
 62
7
100
AcDbLine
 10
169.0944807758352
 20
22.37517486774714
 30
0.000000000000000
 11
169.0944807758352
 21
19.37517486774714
 31
0.000000000000000
  0
LINE
  5
2AB
100
AcDbEntity
  8
A1
  6
CONTINUOUS
 62
7
100
AcDbLine
 10
167.4944807758352
 20
22.37517486774714
 30
0.000000000000000
 11
167.4944807758352
 21
19.37517486774714
 31
0.000000000000000
  0
LINE
  5
2AC
100
AcDbEntity
  8
A1
  6
CONTINUOUS
 62
7
100
AcDbLine
 10
154.6944807758353
 20
19.37517486774714
 30
0.000000000000000
 11
154.6944807758353
 21
22.37517486774714
 31
0.000000000000000
  0
LINE
  5
2AD
100
AcDbEntity
  8
A1
  6
CONTINUOUS
 62
7
100
AcDbLine
 10
153.0944807758352
 20
19.37517486774714
 30
0.000000000000000
 11
153.0944807758352
 21
22.37517486774714
 31
0.000000000000000
  0
LINE
  5
2AE
100
AcDbEntity
  8
A1
  6
CONTINUOUS
 62
7
100
AcDbLine
 10
154.6944807758352
 20
30.37517486774690
 30
0.000000000000000
 11
155.0944807758352
 21
30.37517486774692
 31
0.000000000000000
  0
LINE
  5
2AF
100
AcDbEntity
  8
A1
  6
CONTINUOUS
 62
7
100
AcDbLine
 10
153.0944807758352
 20
28.77517486774694
 30
0.000000000000000
 11
153.0944807758352
 21
22.37517486774714
 31
0.000000000000000
  0
LINE
  5
2B0
100
AcDbEntity
  8
A1
  6
CONTINUOUS
 62
7
100
AcDbLine
 10
154.6944807758353
 20
27.86873327201379
 30
0.000000000000000
 11
154.6944807758353
 21
22.37517486774714
 31
0.000000000000000
  0
LINE
  5
2B1
100
AcDbEntity
  8
A1
  6
CONTINUOUS
 62
7
100
AcDbLine
 10
167.4944807758352
 20
30.37517486774693
 30
0.000000000000000
 11
167.0944807758352
 21
30.37517486774691
 31
0.000000000000000
  0
LINE
  5
2B2
100
AcDbEntity
  8
A1
  6
CONTINUOUS
 62
7
100
AcDbLine
 10
169.0944807758352
 20
28.77517486774694
 30
0.000000000000000
 11
169.0944807758352
 21
22.37517486774714
 31
0.000000000000000
  0
LINE
  5
2B3
100
AcDbEntity
  8
A1
  6
CONTINUOUS
 62
7
100
AcDbLine
 10
167.4944807758352
 20
27.86873327201379
 30
0.000000000000000
 11
167.4944807758352
 21
22.37517486774714
 31
0.000000000000000
  0
LINE
  5
2B4
100
AcDbEntity
  8
A1
  6
CONTINUOUS
 62
7
100
AcDbLine
 10
167.0944807758352
 20
25.31971317024966
 30
0.000000000000000
 11
167.0944807758352
 21
30.37517486774706
 31
0.000000000000000
  0
LINE
  5
2B5
100
AcDbEntity
  8
A1
  6
CONTINUOUS
 62
7
100
AcDbLine
 10
167.0944807758353
 20
30.37517486774690
 30
0.000000000000000
 11
155.0944807758353
 21
30.37517486774692
 31
0.000000000000000
  0
LINE
  5
2B6
100
AcDbEntity
  8
A1
  6
CONTINUOUS
 62
7
100
AcDbLine
 10
155.0944807758352
 20
30.37517486774692
 30
0.000000000000000
 11
155.0944807758352
 21
25.31971317024966
 31
0.000000000000000
  0
LINE
  5
2B7
100
AcDbEntity
  8
A1
  6
CONTINUOUS
 62
7
100
AcDbLine
 10
155.0944807758353
 20
27.86873327201380
 30
0.000000000000000
 11
154.6944807758353
 21
27.86873327201379
 31
0.000000000000000
  0
LINE
  5
2B8
100
AcDbEntity
  8
A1
  6
CONTINUOUS
 62
7
100
AcDbLine
 10
167.4944807758352
 20
27.86873327201379
 30
0.000000000000000
 11
167.0944807758352
 21
27.86873327201380
 31
0.000000000000000
  0
LINE
  5
2B9
100
AcDbEntity
  8
A1
  6
CONTINUOUS
 62
7
100
AcDbLine
 10
155.0944807758352
 20
23.69290049642434
 30
0.000000000000000
 11
167.0944807758352
 21
23.69290049642434
 31
0.000000000000000
  0
LINE
  5
2BA
100
AcDbEntity
  8
A1
  6
CONTINUOUS
 62
7
100
AcDbLine
 10
155.0944807758352
 20
23.69355125869872
 30
0.000000000000000
 11
155.0944807758352
 21
25.31971317024966
 31
0.000000000000000
  0
LINE
  5
2BB
100
AcDbEntity
  8
A1
  6
CONTINUOUS
 62
7
100
AcDbLine
 10
167.0944807758352
 20
25.31971317024966
 30
0.000000000000000
 11
167.0944807758352
 21
23.69355125869872
 31
0.000000000000000
  0
LINE
  5
2BC
100
AcDbEntity
  8
A1
  6
CONTINUOUS
 62
7
100
AcDbLine
 10
155.0944807758337
 20
25.37517486774708
 30
0.000000000000000
 11
154.6944807758353
 21
25.37517486774709
 31
0.000000000000000
  0
LINE
  5
2BD
100
AcDbEntity
  8
A1
  6
CONTINUOUS
 62
7
100
AcDbLine
 10
155.0944807758336
 20
27.37517486774705
 30
0.000000000000000
 11
154.6944807758353
 21
27.37517486774705
 31
0.000000000000000
  0
LINE
  5
2BE
100
AcDbEntity
  8
A1
  6
CONTINUOUS
 62
7
100
AcDbLine
 10
167.4944807758352
 20
27.37517486774705
 30
0.000000000000000
 11
167.0944807758367
 21
27.37517486774705
 31
0.000000000000000
  0
LINE
  5
2BF
100
AcDbEntity
  8
A1
  6
CONTINUOUS
 62
7
100
AcDbLine
 10
167.4944807758352
 20
25.37517486774714
 30
0.000000000000000
 11
167.0944807758367
 21
25.37517486774716
 31
0.000000000000000
  0
LINE
  5
2C0
100
AcDbEntity
  8
A1
  6
CONTINUOUS
 62
7
100
AcDbLine
 10
155.0944807758337
 20
22.07517486775270
 30
0.000000000000000
 11
155.0944807758337
 21
19.37517486774716
 31
0.000000000000000
  0
LINE
  5
2C1
100
AcDbEntity
  8
A1
  6
CONTINUOUS
 62
7
100
AcDbLine
 10
167.0944807758367
 20
19.37517486774716
 30
0.000000000000000
 11
167.0944807758368
 21
22.07517486775270
 31
0.000000000000000
  0
LINE
  5
2C2
100
AcDbEntity
  8
A1
  6
CONTINUOUS
 62
7
100
AcDbLine
 10
167.0944807758368
 20
19.37517486774716
 30
0.000000000000000
 11
169.0944807758352
 21
19.37517486774716
 31
0.000000000000000
  0
LINE
  5
2C3
100
AcDbEntity
  8
A1
  6
CONTINUOUS
 62
7
100
AcDbLine
 10
169.0944807758352
 20
17.37517486774715
 30
0.000000000000000
 11
167.0944807758368
 21
17.37517486774715
 31
0.000000000000000
  0
LINE
  5
2C4
100
AcDbEntity
  8
A1
  6
CONTINUOUS
 62
7
100
AcDbLine
 10
169.0944807758352
 20
17.37517486774715
 30
0.000000000000000
 11
169.0944807758352
 21
19.37517486774716
 31
0.000000000000000
  0
LINE
  5
2C5
100
AcDbEntity
  8
A1
  6
CONTINUOUS
 62
7
100
AcDbLine
 10
153.0944807758352
 20
19.37517486774717
 30
0.000000000000000
 11
155.0944807758337
 21
19.37517486774716
 31
0.000000000000000
  0
LINE
  5
2C6
100
AcDbEntity
  8
A1
  6
CONTINUOUS
 62
7
100
AcDbLine
 10
155.0944807758337
 20
17.37517486774715
 30
0.000000000000000
 11
153.0944807758352
 21
17.37517486774715
 31
0.000000000000000
  0
LINE
  5
2C7
100
AcDbEntity
  8
A1
  6
CONTINUOUS
 62
7
100
AcDbLine
 10
153.0944807758352
 20
17.37517486774715
 30
0.000000000000000
 11
153.0944807758352
 21
19.37517486774717
 31
0.000000000000000
  0
LINE
  5
2C8
100
AcDbEntity
  8
A1
  6
CONTINUOUS
 62
7
100
AcDbLine
 10
167.0944807758353
 20
19.37517486774705
 30
0.000000000000000
 11
155.0944807758352
 21
19.37517486774705
 31
0.000000000000000
  0
LINE
  5
2C9
100
AcDbEntity
  8
A1
  6
CONTINUOUS
 62
7
100
AcDbLine
 10
155.0944807758352
 20
17.37517486774715
 30
0.000000000000000
 11
155.0944807758352
 21
19.37517486774716
 31
0.000000000000000
  0
LINE
  5
2CA
100
AcDbEntity
  8
A1
  6
CONTINUOUS
 62
7
100
AcDbLine
 10
155.0944807758352
 20
17.37517486774715
 30
0.000000000000000
 11
167.0944807758353
 21
17.37517486774715
 31
0.000000000000000
  0
LINE
  5
2CB
100
AcDbEntity
  8
A1
  6
CONTINUOUS
 62
7
100
AcDbLine
 10
167.0944807758353
 20
17.37517486774715
 30
0.000000000000000
 11
167.0944807758353
 21
19.37517486774716
 31
0.000000000000000
  0
SPLINE
  5
2CC
100
AcDbEntity
  8
A1
  6
CONTINUOUS
 62
7
100
AcDbSpline
210
0.000000000000000
220
0.000000000000000
230
1.000000000000000
 70
     8
 71
     3
 72
    11
 73
     7
 74
     0
 42
1.000000000000000e-07
 43
1.000000000000000e-07
 12
-0.9999997708948740
 22
-0.0006769120062131151
 32
0.000000000000000
 13
-0.9998660630626546
 23
0.01636630501889158
 33
0.000000000000000
 40
0.000000000000000
 40
0.000000000000000
 40
0.000000000000000
 40
0.000000000000000
 40
0.2302397203461217
 40
0.4242928601086771
 40
0.5560148872817605
 40
0.5999135125384355
 40
0.5999135125384355
 40
0.5999135125384355
 40
0.5999135125384355
 10
143.8275658123656
 20
23.33250577309853
 30
0.000000000000000
 10
143.7508192564999
 20
23.33245382242153
 30
0.000000000000000
 10
143.6093876765816
 20
23.33241203453198
 30
0.000000000000000
 10
143.4240515102679
 20
23.33286335365983
 30
0.000000000000000
 10
143.3008233680714
 20
23.33281813580045
 30
0.000000000000000
 10
143.2422885499011
 20
23.33366460699364
 30
0.000000000000000
 10
143.2276576346981
 20
23.33390409309060
 30
0.000000000000000
  0
SPLINE
  5
2CD
100
AcDbEntity
  8
A1
  6
CONTINUOUS
 62
7
100
AcDbSpline
210
0.000000000000000
220
0.000000000000000
230
1.000000000000000
 70
     8
 71
     3
 72
    24
 73
    20
 74
     0
 42
1.000000000000000e-07
 43
1.000000000000000e-07
 12
0.01831915440561716
 22
-0.9998321902108103
 32
0.000000000000000
 13
0.9351426830926357
 23
-0.3542713116535197
 33
0.000000000000000
 40
0.000000000000000
 40
0.000000000000000
 40
0.000000000000000
 40
0.000000000000000
 40
0.3673222752266427
 40
0.7116121597436369
 40
1.033223957727750
 40
1.473352494512286
 40
1.863086210761449
 40
2.138689448562891
 40
2.382157204395038
 40
2.593550110325411
 40
2.772922778399514
 40
2.951471505764757
 40
3.220303300278950
 40
3.539770147502772
 40
3.909559927205874
 40
4.329846053581661
 40
4.638256992620980
 40
4.969227593152887
 40
5.001419413241803
 40
5.001419413241803
 40
5.001419413241803
 40
5.001419413241803
 10
143.2282253416916
 20
23.26227325310150
 30
0.000000000000000
 10
143.2304683528504
 20
23.13985304145047
 30
0.000000000000000
 10
143.2453022840745
 20
22.90273562947105
 30
0.000000000000000
 10
143.2966621194167
 20
22.56179197622421
 30
0.000000000000000
 10
143.3802981796007
 20
22.20238695528153
 30
0.000000000000000
 10
143.5006369289650
 20
21.83715629418313
 30
0.000000000000000
 10
143.6494076646031
 20
21.49947746280342
 30
0.000000000000000
 10
143.7927483756986
 20
21.23237319415340
 30
0.000000000000000
 10
143.9207857481431
 20
21.02510867328271
 30
0.000000000000000
 10
144.0414454530442
 20
20.85140404742721
 30
0.000000000000000
 10
144.1568871258046
 20
20.70071027105145
 30
0.000000000000000
 10
144.2910001909779
 20
20.54044417156715
 30
0.000000000000000
 10
144.4655874231089
 20
20.35347647227821
 30
0.000000000000000
 10
144.7002270901714
 20
20.13633852941456
 30
0.000000000000000
 10
144.9921655207198
 20
19.90849162782881
 30
0.000000000000000
 10
145.3013043918007
 20
19.71104668556224
 30
0.000000000000000
 10
145.6143851050438
 20
19.54693219571179
 30
0.000000000000000
 10
145.8200981671986
 20
19.45797003986813
 30
0.000000000000000
 10
145.9331362952346
 20
19.41465506845953
 30
0.000000000000000
 10
145.9431709435718
 20
19.41085352235039
 30
0.000000000000000
  0
SPLINE
  5
2CE
100
AcDbEntity
  8
A1
  6
CONTINUOUS
 62
7
100
AcDbSpline
210
0.000000000000000
220
0.000000000000000
230
1.000000000000000
 70
     8
 71
     3
 72
    20
 73
    16
 74
     0
 42
1.000000000000000e-07
 43
1.000000000000000e-07
 12
-0.8704045949489227
 22
0.4923371213881182
 32
0.000000000000000
 13
-0.01858664105361640
 23
0.9998272534665773
 33
0.000000000000000
 40
0.000000000000000
 40
0.000000000000000
 40
0.000000000000000
 40
0.000000000000000
 40
0.01151333340464370
 40
0.2184935316658342
 40
0.3903963727724366
 40
0.5468761556083995
 40
0.7376987360446746
 40
0.9652516203776826
 40
1.229310870808997
 40
1.530017147696724
 40
1.867522375042626
 40
2.241940292780567
 40
2.512242777634325
 40
2.799175458273722
 40
3.103064566769270
 40
3.103064566769270
 40
3.103064566769270
 40
3.103064566769270
 10
145.9435201869827
 20
20.73206525085517
 30
0.000000000000000
 10
145.9401797675498
 20
20.73395473133051
 30
0.000000000000000
 10
145.8768605670090
 20
20.76994060685750
 30
0.000000000000000
 10
145.7659866635445
 20
20.83830186118030
 30
0.000000000000000
 10
145.6202195534640
 20
20.94140632187546
 30
0.000000000000000
 10
145.4845950433739
 20
21.04904452611995
 30
0.000000000000000
 10
145.3417039787788
 20
21.17692324719917
 30
0.000000000000000
 10
145.1834955615410
 20
21.34070234305400
 30
0.000000000000000
 10
145.0163613638897
 20
21.54564963981838
 30
0.000000000000000
 10
144.8488439395715
 20
21.79603951816448
 30
0.000000000000000
 10
144.6912842980887
 20
22.09531309750594
 30
0.000000000000000
 10
144.5730649386742
 20
22.40156926135325
 30
0.000000000000000
 10
144.4923557084610
 20
22.70184310747233
 30
0.000000000000000
 10
144.4436160292112
 20
22.98515474178203
 30
0.000000000000000
 10
144.4299246892099
 20
23.18203604993400
 30
0.000000000000000
 10
144.4280419299500
 20
23.28331492083583
 30
0.000000000000000
  0
SPLINE
  5
2CF
100
AcDbEntity
  8
A1
  6
CONTINUOUS
 62
7
100
AcDbSpline
210
0.000000000000000
220
0.000000000000000
230
1.000000000000000
 70
     8
 71
     3
 72
    13
 73
     9
 74
     0
 42
1.000000000000000e-07
 43
1.000000000000000e-07
 12
0.9999683020982957
 22
-0.007962085089957327
 32
0.000000000000000
 13
0.8344725898718934
 23
-0.5510494503690779
 33
0.000000000000000
 40
0.000000000000000
 40
0.000000000000000
 40
0.000000000000000
 40
0.000000000000000
 40
0.3694177053106195
 40
0.7223540604919390
 40
1.039338896491852
 40
1.320378597768197
 40
1.565447042074035
 40
1.740125398618205
 40
1.740125398618205
 40
1.740125398618205
 40
1.740125398618205
 10
147.4453908862780
 20
26.33171315219501
 30
0.000000000000000
 10
147.5685262181261
 20
26.33073270712720
 30
0.000000000000000
 10
147.8094804245181
 20
26.31402220167313
 30
0.000000000000000
 10
148.1502831541529
 20
26.24757025381408
 30
0.000000000000000
 10
148.4534291774501
 20
26.15299383862713
 30
0.000000000000000
 10
148.7126321714579
 20
26.04339149156769
 30
0.000000000000000
 10
148.9194262874470
 20
25.93420691735934
 30
0.000000000000000
 10
149.0384098236145
 20
25.86043059871099
 30
0.000000000000000
 10
149.0869979238078
 20
25.82834512792265
 30
0.000000000000000
  0
SPLINE
  5
2D0
100
AcDbEntity
  8
A1
  6
CONTINUOUS
 62
7
100
AcDbSpline
210
0.000000000000000
220
0.000000000000000
230
1.000000000000000
 70
     8
 71
     3
 72
    13
 73
     9
 74
     0
 42
1.000000000000000e-07
 43
1.000000000000000e-07
 12
-0.8392683084689452
 22
-0.5437174876711310
 32
0.000000000000000
 13
-0.9999655288213489
 23
-0.008303081889749819
 33
0.000000000000000
 40
0.000000000000000
 40
0.000000000000000
 40
0.000000000000000
 40
0.000000000000000
 40
0.1584317593912156
 40
0.4770128230165399
 40
0.7466828599746920
 40
1.045301042814915
 40
1.372992458353502
 40
1.712610621637290
 40
1.712610621637290
 40
1.712610621637290
 40
1.712610621637290
 10
149.0635319526792
 20
20.82706440757043
 30
0.000000000000000
 10
149.0192097011085
 20
20.79835036817593
 30
0.000000000000000
 10
148.8835154870221
 20
20.71534255985832
 30
0.000000000000000
 10
148.6612092618618
 20
20.60229560532269
 30
0.000000000000000
 10
148.3857667245007
 20
20.49398227424908
 30
0.000000000000000
 10
148.0984169011346
 20
20.41080043161290
 30
0.000000000000000
 10
147.7809592902499
 20
20.35345146305551
 30
0.000000000000000
 10
147.5584063613521
 20
20.33900448124537
 30
0.000000000000000
 10
147.4452042092703
 20
20.33806452210504
 30
0.000000000000000
  0
SPLINE
  5
2D1
100
AcDbEntity
  8
A1
  6
CONTINUOUS
 62
7
100
AcDbSpline
210
0.000000000000000
220
0.000000000000000
230
1.000000000000000
 70
     8
 71
     3
 72
    20
 73
    16
 74
     0
 42
1.000000000000000e-07
 43
1.000000000000000e-07
 12
0.001026961443130858
 22
0.9999994726748866
 32
0.000000000000000
 13
0.8695738453134254
 23
0.4938029237941919
 33
0.000000000000000
 40
0.000000000000000
 40
0.000000000000000
 40
0.000000000000000
 40
0.000000000000000
 40
0.3899315783870074
 40
0.7429552874727900
 40
1.059673634028069
 40
1.340297257195777
 40
1.584918920450520
 40
1.793604334363570
 40
1.966402320036815
 40
2.125118508567715
 40
2.318782010560145
 40
2.549195335121329
 40
2.816081412932741
 40
3.119575981300605
 40
3.150246422102835
 40
3.150246422102835
 40
3.150246422102835
 40
3.150246422102835
 10
144.4317308736467
 20
23.33392257433555
 30
0.000000000000000
 10
144.4318643552122
 20
23.46389969859098
 30
0.000000000000000
 10
144.4481599538389
 20
23.71187983052391
 30
0.000000000000000
 10
144.5158086624622
 20
24.05935889736441
 30
0.000000000000000
 10
144.6103063531538
 20
24.36232663870037
 30
0.000000000000000
 10
144.7197938795701
 20
24.62117096382899
 30
0.000000000000000
 10
144.8342076960164
 20
24.83770885214568
 30
0.000000000000000
 10
144.9452953055624
 20
25.01458584447757
 30
0.000000000000000
 10
145.0506045139703
 20
25.16077027084613
 30
0.000000000000000
 10
145.1607417065739
 20
25.29694591652479
 30
0.000000000000000
 10
145.2918286735688
 20
25.44051063997186
 30
0.000000000000000
 10
145.4594060496635
 20
25.59887863663873
 30
0.000000000000000
 10
145.6685723508078
 20
25.76526728016420
 30
0.000000000000000
 10
145.8368832920641
 20
25.87468757541571
 30
0.000000000000000
 10
145.9334587385242
 20
25.93018642550523
 30
0.000000000000000
 10
145.9423488095728
 20
25.93523480995263
 30
0.000000000000000
  0
SPLINE
  5
2D2
100
AcDbEntity
  8
A1
  6
CONTINUOUS
 62
7
100
AcDbSpline
210
0.000000000000000
220
0.000000000000000
230
1.000000000000000
 70
     8
 71
     3
 72
    10
 73
     6
 74
     0
 42
1.000000000000000e-07
 43
1.000000000000000e-07
 12
-0.7133857775170327
 22
-0.06696879390801769
 32
0.000000000000000
 13
-1.115700633675715
 23
0.0001625830955731544
 33
0.000000000000000
 40
0.000000000000000
 40
0.000000000000000
 40
0.000000000000000
 40
0.000000000000000
 40
0.08932218609276046
 40
0.2246020671591777
 40
0.4074301581945029
 40
0.4074301581945029
 40
0.4074301581945029
 40
0.4074301581945029
 10
144.4317310312882
 20
23.33391899859645
 30
0.000000000000000
 10
144.4104906388964
 20
23.33192506557249
 30
0.000000000000000
 10
144.3425563629507
 20
23.33463761658331
 30
0.000000000000000
 10
144.2073071124770
 20
23.33175899406132
 30
0.000000000000000
 10
144.0924751920450
 20
23.33249586484620
 30
0.000000000000000
 10
144.0244813863710
 20
23.33250577309853
 30
0.000000000000000
  0
SPLINE
  5
2D3
100
AcDbEntity
  8
A1
  6
CONTINUOUS
 62
7
100
AcDbSpline
210
0.000000000000000
220
0.000000000000000
230
1.000000000000000
 70
     8
 71
     3
 72
    19
 73
    15
 74
     0
 42
1.000000000000000e-07
 43
1.000000000000000e-07
 12
-0.5916828879667264
 22
0.8061708008149253
 32
0.000000000000000
 13
-0.9999853100414384
 23
0.005420304601784665
 33
0.000000000000000
 40
0.000000000000000
 40
0.000000000000000
 40
0.000000000000000
 40
0.000000000000000
 40
0.1260930329974169
 40
0.3065323205268456
 40
0.5784346641699016
 40
0.9018190945213224
 40
1.276327200699329
 40
1.702150052512484
 40
2.014701991692654
 40
2.350148943119565
 40
2.708468287922944
 40
3.089642502422160
 40
3.493741947335773
 40
3.902266785484453
 40
3.902266785484453
 40
3.902266785484453
 40
3.902266785484453
 10
150.8029911748456
 20
25.83204969972601
 30
0.000000000000000
 10
150.7781221448735
 20
25.86593387352224
 30
0.000000000000000
 10
150.7164069931729
 20
25.94738978265302
 30
0.000000000000000
 10
150.5943489775472
 20
26.09672222451572
 30
0.000000000000000
 10
150.4198007577273
 20
26.28776457571090
 30
0.000000000000000
 10
150.1844479081704
 20
26.50987584948844
 30
0.000000000000000
 10
149.8907269642324
 20
26.74313141576062
 30
0.000000000000000
 10
149.5789738312647
 20
26.94541677065627
 30
0.000000000000000
 10
149.2627200490377
 20
27.11368164674710
 30
0.000000000000000
 10
148.9552354091622
 20
27.24861048605583
 30
0.000000000000000
 10
148.6162001806754
 20
27.36582958347937
 30
0.000000000000000
 10
148.2460169475314
 20
27.45892665145146
 30
0.000000000000000
 10
147.8521767188004
 20
27.51992021332271
 30
0.000000000000000
 10
147.5811745459163
 20
27.53465147630857
 30
0.000000000000000
 10
147.4450016002711
 20
27.53538958599529
 30
0.000000000000000
  0
SPLINE
  5
2D4
100
AcDbEntity
  8
A1
  6
CONTINUOUS
 62
7
100
AcDbSpline
210
0.000000000000000
220
0.000000000000000
230
1.000000000000000
 70
     8
 71
     3
 72
    19
 73
    15
 74
     0
 42
1.000000000000000e-07
 43
1.000000000000000e-07
 12
0.9999880089374074
 22
0.004897140171436831
 32
0.000000000000000
 13
0.5953087937982673
 23
0.8034970068557925
 33
0.000000000000000
 40
0.000000000000000
 40
0.000000000000000
 40
0.000000000000000
 40
0.000000000000000
 40
0.3246211749280452
 40
0.6466341752128193
 40
0.9499745189145974
 40
1.370103927938485
 40
1.748610368607611
 40
2.086947817172442
 40
2.409541495441701
 40
2.725239510023196
 40
3.034159378851037
 40
3.336471859741679
 40
3.631896305044001
 40
3.883442673755694
 40
3.883442673755694
 40
3.883442673755694
 40
3.883442673755694
 10
147.4449268806627
 20
19.13623174873270
 30
0.000000000000000
 10
147.5531326414544
 20
19.13676165386478
 30
0.000000000000000
 10
147.7687330791121
 20
19.14625774117363
 30
0.000000000000000
 10
148.0833049929558
 20
19.18518642259667
 30
0.000000000000000
 10
148.4252889241973
 20
19.25366251376206
 30
0.000000000000000
 10
148.7786169132492
 20
19.35639345905141
 30
0.000000000000000
 10
149.1315612564517
 20
19.49578238384251
 30
0.000000000000000
 10
149.4424027221121
 20
19.64964810299134
 30
0.000000000000000
 10
149.7223862819401
 20
19.81635300337822
 30
0.000000000000000
 10
149.9809593038456
 20
19.99806241983557
 30
0.000000000000000
 10
150.2199641068589
 20
20.19433014360975
 30
0.000000000000000
 10
150.4387623116881
 20
20.40322038034943
 30
0.000000000000000
 10
150.6286278246679
 20
20.61353533081085
 30
0.000000000000000
 10
150.7416733293018
 20
20.75674506743888
 30
0.000000000000000
 10
150.7915892510825
 20
20.82411731888731
 30
0.000000000000000
  0
SPLINE
  5
2D5
100
AcDbEntity
  8
A1
  6
CONTINUOUS
 62
7
100
AcDbSpline
210
0.000000000000000
220
0.000000000000000
230
1.000000000000000
 70
     8
 71
     3
 72
    12
 73
     8
 74
     0
 42
1.000000000000000e-07
 43
1.000000000000000e-07
 12
-0.9999998639441401
 22
-0.0005216430661789673
 32
0.000000000000000
 13
-0.9998132347773208
 23
0.01932603341083450
 33
0.000000000000000
 40
0.000000000000000
 40
0.000000000000000
 40
0.000000000000000
 40
0.000000000000000
 40
0.2317804707358226
 40
0.4583257180418459
 40
0.6454467941398592
 40
0.7621550933745598
 40
0.7964170064782229
 40
0.7964170064782229
 40
0.7964170064782229
 40
0.7964170064782229
 10
144.0244813863710
 20
23.33250577309853
 30
0.000000000000000
 10
143.9472212399708
 20
23.33246547087339
 30
0.000000000000000
 10
143.7944462064110
 20
23.33249544282194
 30
0.000000000000000
 10
143.5792963639623
 20
23.33268213265974
 30
0.000000000000000
 10
143.4025080451713
 20
23.33331590634086
 30
0.000000000000000
 10
143.2898067256033
 20
23.33340917635850
 30
0.000000000000000
 10
143.2394902633209
 20
23.33428487285299
 30
0.000000000000000
 10
143.2280717585977
 20
23.33450558847878
 30
0.000000000000000
  0
SPLINE
  5
2D6
100
AcDbEntity
  8
A1
  6
CONTINUOUS
 62
7
100
AcDbSpline
210
0.000000000000000
220
0.000000000000000
230
1.000000000000000
 70
     8
 71
     3
 72
    23
 73
    19
 74
     0
 42
1.000000000000000e-07
 43
1.000000000000000e-07
 12
-0.9349591563075137
 22
-0.3547553749221777
 32
0.000000000000000
 13
-0.0006842895555791983
 23
-0.9999997658738380
 33
0.000000000000000
 40
0.000000000000000
 40
0.000000000000000
 40
0.000000000000000
 40
0.000000000000000
 40
0.3615247206663605
 40
0.6401112647540242
 40
0.8864043310048759
 40
1.100431476649481
 40
1.282219094443122
 40
1.462399660413720
 40
1.733950451499654
 40
2.056915054689749
 40
2.430869690608975
 40
2.856007813810052
 40
3.168068105153102
 40
3.503056350144686
 40
3.861037178177174
 40
4.242117748148769
 40
4.646534299855935
 40
5.074807197951378
 40
5.074807197951378
 40
5.074807197951378
 40
5.074807197951378
 10
145.9423167461439
 20
27.26008282715371
 30
0.000000000000000
 10
145.8296464635378
 20
27.21733188121249
 30
0.000000000000000
 10
145.6332161359387
 20
27.13321660105989
 30
0.000000000000000
 10
145.3708695442494
 20
26.99689013806496
 30
0.000000000000000
 10
145.1595809335232
 20
26.87003477000674
 30
0.000000000000000
 10
144.9822638801624
 20
26.74999694062061
 30
0.000000000000000
 10
144.8284796400998
 20
26.63494372542700
 30
0.000000000000000
 10
144.6650178773813
 20
26.50115203139507
 30
0.000000000000000
 10
144.4743290662769
 20
26.32672716561051
 30
0.000000000000000
 10
144.2525934370283
 20
26.09163286194287
 30
0.000000000000000
 10
144.0196338887595
 20
25.79838878937983
 30
0.000000000000000
 10
143.8175584991478
 20
25.48718858714985
 30
0.000000000000000
 10
143.6494515602797
 20
25.17146799707253
 30
0.000000000000000
 10
143.5146344596494
 20
24.86440243569639
 30
0.000000000000000
 10
143.3975043108896
 20
24.52564965692925
 30
0.000000000000000
 10
143.3044747305489
 20
24.15548475088212
 30
0.000000000000000
 10
143.2425800822892
 20
23.75504572753430
 30
0.000000000000000
 10
143.2281695222513
 20
23.47725983284744
 30
0.000000000000000
 10
143.2280718346943
 20
23.33450223357225
 30
0.000000000000000
  0
LINE
  5
2D7
100
AcDbEntity
  8
A1
  6
CONTINUOUS
 62
7
100
AcDbLine
 10
143.2275874737572
 20
23.33394301458275
 30
0.000000000000000
 11
143.2282333357603
 21
23.26227339494154
 31
0.000000000000000
  0
LINE
  5
2D8
100
AcDbEntity
  8
A1
  6
CONTINUOUS
 62
7
100
AcDbLine
 10
144.4305252766208
 20
23.20302034088298
 30
0.000000000000000
 11
144.4275810874536
 21
23.33828571280256
 31
0.000000000000000
  0
LINE
  5
2D9
100
AcDbEntity
  8
A1
  6
CONTINUOUS
 62
7
100
AcDbLine
 10
143.2275914330183
 20
23.34565269945351
 30
0.000000000000000
 11
143.2275804280170
 21
23.33440167531542
 31
0.000000000000000
  0
LINE
  5
2DA
100
AcDbEntity
  8
A1
  6
CONTINUOUS
 62
7
100
AcDbLine
 10
148.9444813863707
 20
18.37337153050984
 30
0.000000000000000
 11
148.9444813863707
 21
18.87313334271650
 31
0.000000000000000
  0
LINE
  5
2DB
100
AcDbEntity
  8
A1
  6
CONTINUOUS
 62
7
100
AcDbLine
 10
148.9444813863709
 20
18.37337153050978
 30
0.000000000000000
 11
147.4444813863711
 21
18.37337153050979
 31
0.000000000000000
  0
LINE
  5
2DC
100
AcDbEntity
  8
A1
  6
CONTINUOUS
 62
7
100
AcDbLine
 10
173.2444801652993
 20
18.37337153050984
 30
0.000000000000000
 11
173.2444801652993
 21
18.87313334271650
 31
0.000000000000000
  0
LINE
  5
2DD
100
AcDbEntity
  8
A1
  6
CONTINUOUS
 62
7
100
AcDbLine
 10
173.2444801652992
 20
18.37337153050978
 30
0.000000000000000
 11
174.7444801652990
 21
18.37337153050979
 31
0.000000000000000
  0
LINE
  5
2DE
100
AcDbEntity
  8
A1
  6
CONTINUOUS
 62
7
100
AcDbLine
 10
173.2444801652993
 20
27.87718516807918
 30
0.000000000000000
 11
173.2444801652993
 21
28.37690492160899
 31
0.000000000000000
  0
LINE
  5
2DF
100
AcDbEntity
  8
A1
  6
CONTINUOUS
 62
7
100
AcDbLine
 10
174.7444801652992
 20
28.37690492160899
 30
0.000000000000000
 11
173.2444801652992
 21
28.37690492160899
 31
0.000000000000000
  0
LINE
  5
2E0
100
AcDbEntity
  8
A1
  6
CONTINUOUS
 62
7
100
AcDbLine
 10
173.2444801652993
 20
27.25242393566587
 30
0.000000000000000
 11
173.2444801652993
 21
27.87718516807918
 31
0.000000000000000
  0
LINE
  5
2E1
100
AcDbEntity
  8
A1
  6
CONTINUOUS
 62
7
100
AcDbLine
 10
173.2444801652994
 20
25.82889946870130
 30
0.000000000000000
 11
173.2444801652993
 21
25.91637568545626
 31
0.000000000000000
  0
LINE
  5
2E2
100
AcDbEntity
  8
A1
  6
CONTINUOUS
 62
7
100
AcDbLine
 10
148.9444813863707
 20
27.87718516807918
 30
0.000000000000000
 11
148.9444813863707
 21
28.37690492160899
 31
0.000000000000000
  0
LINE
  5
2E3
100
AcDbEntity
  8
A1
  6
CONTINUOUS
 62
7
100
AcDbLine
 10
147.4444813863709
 20
28.37690492160899
 30
0.000000000000000
 11
148.9444813863708
 21
28.37690492160899
 31
0.000000000000000
  0
LINE
  5
2E4
100
AcDbEntity
  8
A1
  6
CONTINUOUS
 62
7
100
AcDbLine
 10
148.9444813863707
 20
20.75479079512679
 30
0.000000000000000
 11
148.9444813863707
 21
20.82909709831221
 31
0.000000000000000
  0
LINE
  5
2E5
100
AcDbEntity
  8
A1
  6
CONTINUOUS
 62
7
100
AcDbLine
 10
148.9444813863707
 20
18.87313334271650
 30
0.000000000000000
 11
148.9444813863708
 21
19.42652063292341
 31
0.000000000000000
  0
LINE
  5
2E6
100
AcDbEntity
  8
A1
  6
CONTINUOUS
 62
7
100
AcDbLine
 10
173.2444801652993
 20
20.75479079512502
 30
0.000000000000000
 11
173.2444801652993
 21
20.82909709831221
 31
0.000000000000000
  0
LINE
  5
2E7
100
AcDbEntity
  8
A1
  6
CONTINUOUS
 62
7
100
AcDbLine
 10
173.2444801652994
 20
18.87313334271650
 30
0.000000000000000
 11
173.2444801652993
 21
19.41965078953947
 31
0.000000000000000
  0
LINE
  5
2E8
100
AcDbEntity
  8
A1
  6
CONTINUOUS
 62
7
100
AcDbLine
 10
148.9444813863707
 20
27.25242393566476
 30
0.000000000000000
 11
148.9444813863707
 21
27.87718516807918
 31
0.000000000000000
  0
LINE
  5
2E9
100
AcDbEntity
  8
A1
  6
CONTINUOUS
 62
7
100
AcDbLine
 10
148.9444813863707
 20
25.82889946870131
 30
0.000000000000000
 11
148.9444813863707
 21
25.91665113018329
 31
0.000000000000000
  0
LINE
  5
2EA
100
AcDbEntity
  8
A1
  6
CONTINUOUS
 62
7
100
AcDbLine
 10
147.4444813863709
 20
20.82915415807343
 30
0.000000000000000
 11
147.8273800396473
 21
20.82912763729025
 31
0.000000000000000
  0
LINE
  5
2EB
100
AcDbEntity
  8
A1
  6
CONTINUOUS
 62
7
100
AcDbLine
 10
147.4444813864507
 20
25.82886139263314
 30
0.000000000000000
 11
147.8273800397275
 21
25.82886139263314
 31
0.000000000000000
  0
LINE
  5
2EC
100
AcDbEntity
  8
A1
  6
CONTINUOUS
 62
7
100
AcDbLine
 10
174.7444801652992
 20
20.82915415807342
 30
0.000000000000000
 11
174.3615815120227
 21
20.82912763729024
 31
0.000000000000000
  0
LINE
  5
2ED
100
AcDbEntity
  8
A1
  6
CONTINUOUS
 62
7
100
AcDbLine
 10
174.7444801652194
 20
25.82886139263314
 30
0.000000000000000
 11
174.3615815119425
 21
25.82886139263314
 31
0.000000000000000
  0
LINE
  5
2EE
100
AcDbEntity
  8
A1
  6
CONTINUOUS
 62
7
100
AcDbLine
 10
171.0944801652992
 20
20.82903832226387
 30
0.000000000000000
 11
174.3615815120228
 21
20.82912763729024
 31
0.000000000000000
  0
LINE
  5
2EF
100
AcDbEntity
  8
A1
  6
CONTINUOUS
 62
7
100
AcDbLine
 10
174.3615815120227
 20
25.82889817472306
 30
0.000000000000000
 11
171.0944801652992
 21
25.82890656127973
 31
0.000000000000000
  0
LINE
  5
2F0
100
AcDbEntity
  8
A1
  6
CONTINUOUS
 62
7
100
AcDbLine
 10
174.3615815120227
 20
25.82889817472306
 30
0.000000000000000
 11
174.3615815120227
 21
20.82912763729024
 31
0.000000000000000
  0
LINE
  5
2F1
100
AcDbEntity
  8
A1
  6
CONTINUOUS
 62
7
100
AcDbLine
 10
151.0944813863708
 20
20.82903832226387
 30
0.000000000000000
 11
147.8273800396473
 21
20.82912763729024
 31
0.000000000000000
  0
LINE
  5
2F2
100
AcDbEntity
  8
A1
  6
CONTINUOUS
 62
7
100
AcDbLine
 10
147.8273800396474
 20
25.82889817472305
 30
0.000000000000000
 11
151.0944813863709
 21
25.82890656127972
 31
0.000000000000000
  0
LINE
  5
2F3
100
AcDbEntity
  8
A1
  6
CONTINUOUS
 62
7
100
AcDbLine
 10
153.0944807758352
 20
24.67517486774130
 30
0.000000000000000
 11
152.5944813863707
 21
24.67517486774130
 31
0.000000000000000
  0
LINE
  5
2F4
100
AcDbEntity
  8
A1
  6
CONTINUOUS
 62
7
100
AcDbLine
 10
155.0944807758337
 20
24.67517486774130
 30
0.000000000000000
 11
154.6944807758353
 21
24.67517486774130
 31
0.000000000000000
  0
LINE
  5
2F5
100
AcDbEntity
  8
A1
  6
CONTINUOUS
 62
7
100
AcDbLine
 10
167.4944807758352
 20
24.67517486774130
 30
0.000000000000000
 11
167.0944807758368
 21
24.67517486774130
 31
0.000000000000000
  0
LINE
  5
2F6
100
AcDbEntity
  8
A1
  6
CONTINUOUS
 62
7
100
AcDbLine
 10
169.5944801652993
 20
24.67517486774130
 30
0.000000000000000
 11
169.0944807758352
 21
24.67517486774130
 31
0.000000000000000
  0
LINE
  5
2F7
100
AcDbEntity
  8
A1
  6
CONTINUOUS
 62
7
100
AcDbLine
 10
169.0944807758352
 20
22.07517486775270
 30
0.000000000000000
 11
169.5944801652993
 21
22.07517486775270
 31
0.000000000000000
  0
LINE
  5
2F8
100
AcDbEntity
  8
A1
  6
CONTINUOUS
 62
7
100
AcDbLine
 10
154.6944807758353
 20
22.07517486775270
 30
0.000000000000000
 11
167.4944807758352
 21
22.07517486775270
 31
0.000000000000000
  0
LINE
  5
2F9
100
AcDbEntity
  8
A1
  6
CONTINUOUS
 62
7
100
AcDbLine
 10
152.5944813863707
 20
22.07517486775270
 30
0.000000000000000
 11
153.0944807758352
 21
22.07517486775270
 31
0.000000000000000
  0
LINE
  5
2FA
100
AcDbEntity
  8
A1
  6
CONTINUOUS
 62
7
100
AcDbLine
 10
151.0944813863707
 20
24.67517486774699
 30
0.000000000000000
 11
150.5944813863707
 21
24.67517486774699
 31
0.000000000000000
  0
LINE
  5
2FB
100
AcDbEntity
  8
A1
  6
CONTINUOUS
 62
7
100
AcDbLine
 10
150.5944813863707
 20
22.07517486774700
 30
0.000000000000000
 11
151.0944813863707
 21
22.07517486774700
 31
0.000000000000000
  0
LINE
  5
2FC
100
AcDbEntity
  8
A1
  6
CONTINUOUS
 62
7
100
AcDbLine
 10
150.5944813863707
 20
22.07517486774700
 30
0.000000000000000
 11
150.5944813863707
 21
24.67517486774699
 31
0.000000000000000
  0
LINE
  5
2FD
100
AcDbEntity
  8
A1
  6
CONTINUOUS
 62
7
100
AcDbLine
 10
171.0944801652993
 20
22.07517486774700
 30
0.000000000000000
 11
171.5944801652993
 21
22.07517486774700
 31
0.000000000000000
  0
LINE
  5
2FE
100
AcDbEntity
  8
A1
  6
CONTINUOUS
 62
7
100
AcDbLine
 10
171.5944801652993
 20
24.67517486774699
 30
0.000000000000000
 11
171.0944801652993
 21
24.67517486774699
 31
0.000000000000000
  0
LINE
  5
2FF
100
AcDbEntity
  8
A1
  6
CONTINUOUS
 62
7
100
AcDbLine
 10
171.5944801652993
 20
22.07517486774700
 30
0.000000000000000
 11
171.5944801652993
 21
24.67517486774699
 31
0.000000000000000
  0
LINE
  5
300
100
AcDbEntity
  8
A1
  6
CONTINUOUS
 62
7
100
AcDbLine
 10
151.0944813863705
 20
25.82891787143486
 30
0.000000000000000
 11
151.0944813863705
 21
20.82891787143531
 31
0.000000000000000
  0
LINE
  5
301
100
AcDbEntity
  8
A1
  6
CONTINUOUS
 62
7
100
AcDbLine
 10
152.5944813863707
 20
20.82891787143537
 30
0.000000000000000
 11
151.0944813863709
 21
20.82891787143537
 31
0.000000000000000
  0
LINE
  5
302
100
AcDbEntity
  8
A1
  6
CONTINUOUS
 62
7
100
AcDbLine
 10
152.5944813863707
 20
20.82891787143531
 30
0.000000000000000
 11
152.5944813863707
 21
25.82891787143486
 31
0.000000000000000
  0
LINE
  5
303
100
AcDbEntity
  8
A1
  6
CONTINUOUS
 62
7
100
AcDbLine
 10
152.5944813863707
 20
25.82891787143392
 30
0.000000000000000
 11
151.0944813863709
 21
25.82891787143392
 31
0.000000000000000
  0
LINE
  5
304
100
AcDbEntity
  8
A1
  6
CONTINUOUS
 62
7
100
AcDbLine
 10
171.0944801652995
 20
25.82891787143486
 30
0.000000000000000
 11
171.0944801652995
 21
20.82891787143531
 31
0.000000000000000
  0
LINE
  5
305
100
AcDbEntity
  8
A1
  6
CONTINUOUS
 62
7
100
AcDbLine
 10
169.5944801652993
 20
25.82891787143392
 30
0.000000000000000
 11
171.0944801652991
 21
25.82891787143392
 31
0.000000000000000
  0
LINE
  5
306
100
AcDbEntity
  8
A1
  6
CONTINUOUS
 62
7
100
AcDbLine
 10
169.5944801652993
 20
20.82891787143531
 30
0.000000000000000
 11
169.5944801652993
 21
25.82891787143486
 31
0.000000000000000
  0
LINE
  5
307
100
AcDbEntity
  8
A1
  6
CONTINUOUS
 62
7
100
AcDbLine
 10
169.5944801652993
 20
20.82891787143537
 30
0.000000000000000
 11
171.0944801652991
 21
20.82891787143537
 31
0.000000000000000
  0
LINE
  5
308
100
AcDbEntity
  8
A1
  6
CONTINUOUS
 62
7
100
AcDbLine
 10
169.5944801652997
 20
17.88532204816112
 30
0.000000000000000
 11
169.5944801652997
 21
18.34265117691529
 31
0.000000000000000
  0
LINE
  5
309
100
AcDbEntity
  8
A1
  6
CONTINUOUS
 62
7
100
AcDbLine
 10
171.0944801652996
 20
18.34265117691529
 30
0.000000000000000
 11
171.0944801652996
 21
17.88532204816112
 31
0.000000000000000
  0
LINE
  5
30A
100
AcDbEntity
  8
A1
  6
CONTINUOUS
 62
7
100
AcDbLine
 10
171.0944801652996
 20
17.88532204816111
 30
0.000000000000000
 11
169.5944801652997
 21
17.88532204816112
 31
0.000000000000000
  0
LINE
  5
30B
100
AcDbEntity
  8
A1
  6
CONTINUOUS
 62
7
100
AcDbLine
 10
152.5944813863708
 20
17.88532204816112
 30
0.000000000000000
 11
152.5944813863708
 21
18.34265117691529
 31
0.000000000000000
  0
LINE
  5
30C
100
AcDbEntity
  8
A1
  6
CONTINUOUS
 62
7
100
AcDbLine
 10
151.0944813863708
 20
18.34265117691529
 30
0.000000000000000
 11
151.0944813863708
 21
17.88532204816112
 31
0.000000000000000
  0
LINE
  5
30D
100
AcDbEntity
  8
A1
  6
CONTINUOUS
 62
7
100
AcDbLine
 10
151.0944813863708
 20
17.88532204816111
 30
0.000000000000000
 11
152.5944813863708
 21
17.88532204816112
 31
0.000000000000000
  0
LINE
  5
30E
100
AcDbEntity
  8
A1
  6
CONTINUOUS
 62
7
100
AcDbLine
 10
150.5944807758341
 20
19.07521678776501
 30
0.000000000000000
 11
151.0944813863708
 21
19.07521678776501
 31
0.000000000000000
  0
LINE
  5
30F
100
AcDbEntity
  8
A1
  6
CONTINUOUS
 62
7
100
AcDbLine
 10
150.5944807758341
 20
19.07521678776501
 30
0.000000000000000
 11
150.5944807758341
 21
20.58368984815750
 31
0.000000000000000
  0
LINE
  5
310
100
AcDbEntity
  8
A1
  6
CONTINUOUS
 62
7
100
AcDbLine
 10
171.0944801652996
 20
19.07521678776501
 30
0.000000000000000
 11
171.5944807758363
 21
19.07521678776501
 31
0.000000000000000
  0
LINE
  5
311
100
AcDbEntity
  8
A1
  6
CONTINUOUS
 62
7
100
AcDbLine
 10
171.5944807758363
 20
19.07521678776501
 30
0.000000000000000
 11
171.5944807758363
 21
20.58643061839879
 31
0.000000000000000
  0
LINE
  5
312
100
AcDbEntity
  8
A1
  6
CONTINUOUS
 62
7
100
AcDbLine
 10
153.0944807758352
 20
21.97521678776502
 30
0.000000000000000
 11
152.5944813863708
 21
21.97521678776502
 31
0.000000000000000
  0
LINE
  5
313
100
AcDbEntity
  8
A1
  6
CONTINUOUS
 62
7
100
AcDbLine
 10
155.0944807758337
 20
21.97521678776502
 30
0.000000000000000
 11
154.6944807758353
 21
21.97521678776502
 31
0.000000000000000
  0
LINE
  5
314
100
AcDbEntity
  8
A1
  6
CONTINUOUS
 62
7
100
AcDbLine
 10
167.4944807758352
 20
21.97521678776502
 30
0.000000000000000
 11
167.0944807758368
 21
21.97521678776502
 31
0.000000000000000
  0
LINE
  5
315
100
AcDbEntity
  8
A1
  6
CONTINUOUS
 62
7
100
AcDbLine
 10
169.5944801652996
 20
21.97521678776502
 30
0.000000000000000
 11
169.0944807758352
 21
21.97521678776502
 31
0.000000000000000
  0
LINE
  5
316
100
AcDbEntity
  8
A1
  6
CONTINUOUS
 62
7
100
AcDbLine
 10
169.0944807758352
 20
18.97521678776502
 30
0.000000000000000
 11
169.5944801652996
 21
18.97521678776502
 31
0.000000000000000
  0
LINE
  5
317
100
AcDbEntity
  8
A1
  6
CONTINUOUS
 62
7
100
AcDbLine
 10
152.5944813863708
 20
18.97521678776502
 30
0.000000000000000
 11
153.0944807758352
 21
18.97521678776502
 31
0.000000000000000
  0
LINE
  5
318
100
AcDbEntity
  8
A1
  6
CONTINUOUS
 62
7
100
AcDbLine
 10
169.5944801652997
 20
20.66985554845892
 30
0.000000000000000
 11
169.5944801652997
 21
18.34265117691529
 31
0.000000000000000
  0
LINE
  5
319
100
AcDbEntity
  8
A1
  6
CONTINUOUS
 62
7
100
AcDbLine
 10
171.0944801652996
 20
18.34265117691529
 30
0.000000000000000
 11
171.0944801652996
 21
20.66985554845892
 31
0.000000000000000
  0
LINE
  5
31A
100
AcDbEntity
  8
A1
  6
CONTINUOUS
 62
7
100
AcDbLine
 10
152.5944813863708
 20
20.66985554845892
 30
0.000000000000000
 11
152.5944813863708
 21
18.34265117691529
 31
0.000000000000000
  0
LINE
  5
31B
100
AcDbEntity
  8
A1
  6
CONTINUOUS
 62
7
100
AcDbLine
 10
151.0944813863708
 20
18.34265117691529
 30
0.000000000000000
 11
151.0944813863708
 21
20.66985554845892
 31
0.000000000000000
  0
LINE
  5
31C
100
AcDbEntity
  8
A1
  6
CONTINUOUS
 62
7
100
AcDbLine
 10
152.5944813863708
 20
20.66985554845892
 30
0.000000000000000
 11
152.5944813863708
 21
20.82891787143537
 31
0.000000000000000
  0
LINE
  5
31D
100
AcDbEntity
  8
A1
  6
CONTINUOUS
 62
7
100
AcDbLine
 10
151.0944813863708
 20
20.82903832226396
 30
0.000000000000000
 11
151.0944813863708
 21
20.66985554845892
 31
0.000000000000000
  0
LINE
  5
31E
100
AcDbEntity
  8
A1
  6
CONTINUOUS
 62
7
100
AcDbLine
 10
169.5944801652997
 20
20.66985554845892
 30
0.000000000000000
 11
169.5944801652997
 21
20.82891787143537
 31
0.000000000000000
  0
LINE
  5
31F
100
AcDbEntity
  8
A1
  6
CONTINUOUS
 62
7
100
AcDbLine
 10
171.0944801652996
 20
20.82903832226396
 30
0.000000000000000
 11
171.0944801652996
 21
20.66985554845892
 31
0.000000000000000
  0
LINE
  5
320
100
AcDbEntity
  8
A1
  6
CONTINUOUS
 62
7
100
AcDbLine
 10
174.7444801652994
 20
18.37317526270828
 30
0.000000000000000
 11
176.2444801652994
 21
18.37317526270828
 31
0.000000000000000
  0
LINE
  5
321
100
AcDbEntity
  8
A1
  6
CONTINUOUS
 62
7
100
AcDbLine
 10
145.9444813863711
 20
18.37317526270828
 30
0.000000000000000
 11
147.4444813863710
 21
18.37317526270828
 31
0.000000000000000
  0
LINE
  5
322
100
AcDbEntity
  8
A1
  6
CONTINUOUS
 62
7
100
AcDbLine
 10
174.7444801652994
 20
27.87722708807093
 30
0.000000000000000
 11
174.7444801652994
 21
28.37694684160081
 31
0.000000000000000
  0
LINE
  5
323
100
AcDbEntity
  8
A1
  6
CONTINUOUS
 62
7
100
AcDbLine
 10
176.2444801652994
 20
28.37694684160081
 30
0.000000000000000
 11
176.2444801652994
 21
27.87722708807093
 31
0.000000000000000
  0
LINE
  5
324
100
AcDbEntity
  8
A1
  6
CONTINUOUS
 62
7
100
AcDbLine
 10
176.2444801652995
 20
28.37694684160081
 30
0.000000000000000
 11
174.7444801652994
 21
28.37694684160079
 31
0.000000000000000
  0
LINE
  5
325
100
AcDbEntity
  8
A1
  6
CONTINUOUS
 62
7
100
AcDbLine
 10
147.4444813863710
 20
27.87722708807093
 30
0.000000000000000
 11
147.4444813863710
 21
28.37694684160081
 31
0.000000000000000
  0
LINE
  5
326
100
AcDbEntity
  8
A1
  6
CONTINUOUS
 62
7
100
AcDbLine
 10
145.9444813863711
 20
28.37694684160081
 30
0.000000000000000
 11
145.9444813863711
 21
27.87722708807093
 31
0.000000000000000
  0
LINE
  5
327
100
AcDbEntity
  8
A1
  6
CONTINUOUS
 62
7
100
AcDbLine
 10
145.9444813863710
 20
28.37694684160082
 30
0.000000000000000
 11
147.4444813863710
 21
28.37694684160079
 31
0.000000000000000
  0
LINE
  5
328
100
AcDbEntity
  8
A1
  6
CONTINUOUS
 62
7
100
AcDbLine
 10
147.4444813863710
 20
27.87722708807093
 30
0.000000000000000
 11
147.4444813863710
 21
18.87317526270840
 31
0.000000000000000
  0
LINE
  5
329
100
AcDbEntity
  8
A1
  6
CONTINUOUS
 62
7
100
AcDbLine
 10
145.9444813863711
 20
27.87722708807093
 30
0.000000000000000
 11
145.9444813863711
 21
18.87317526270840
 31
0.000000000000000
  0
LINE
  5
32A
100
AcDbEntity
  8
A1
  6
CONTINUOUS
 62
7
100
AcDbLine
 10
176.2444801652994
 20
18.87317526270840
 30
0.000000000000000
 11
176.2444801652994
 21
18.37341345050163
 31
0.000000000000000
  0
LINE
  5
32B
100
AcDbEntity
  8
A1
  6
CONTINUOUS
 62
7
100
AcDbLine
 10
174.7444801652994
 20
18.37341345050163
 30
0.000000000000000
 11
174.7444801652994
 21
18.87317526270840
 31
0.000000000000000
  0
LINE
  5
32C
100
AcDbEntity
  8
A1
  6
CONTINUOUS
 62
7
100
AcDbLine
 10
174.7444801652994
 20
18.37341345050163
 30
0.000000000000000
 11
176.2444801652994
 21
18.37341345050163
 31
0.000000000000000
  0
LINE
  5
32D
100
AcDbEntity
  8
A1
  6
CONTINUOUS
 62
7
100
AcDbLine
 10
176.2444801652994
 20
27.87722708807093
 30
0.000000000000000
 11
176.2444801652994
 21
18.87317526270840
 31
0.000000000000000
  0
LINE
  5
32E
100
AcDbEntity
  8
A1
  6
CONTINUOUS
 62
7
100
AcDbLine
 10
174.7444801652994
 20
27.87722708807093
 30
0.000000000000000
 11
174.7444801652994
 21
18.87317526270840
 31
0.000000000000000
  0
LINE
  5
32F
100
AcDbEntity
  8
A1
  6
CONTINUOUS
 62
7
100
AcDbLine
 10
145.9444813863711
 20
18.87317526270840
 30
0.000000000000000
 11
145.9444813863711
 21
18.37341345050163
 31
0.000000000000000
  0
LINE
  5
330
100
AcDbEntity
  8
A1
  6
CONTINUOUS
 62
7
100
AcDbLine
 10
147.4444813863710
 20
18.37341345050163
 30
0.000000000000000
 11
145.9444813863711
 21
18.37341345050163
 31
0.000000000000000
  0
LINE
  5
331
100
AcDbEntity
  8
A1
  6
CONTINUOUS
 62
7
100
AcDbLine
 10
147.4444813863710
 20
18.37341345050163
 30
0.000000000000000
 11
147.4444813863710
 21
18.87317526270840
 31
0.000000000000000
  0
LINE
  5
332
100
AcDbEntity
  8
A4
  6
CENTER
 62
1
100
AcDbLine
 10
161.0944807758352
 20
15.87517486774715
 30
0.000000000000000
 11
161.0944807758352
 21
30.27517486774694
 31
0.000000000000000
  0
LINE
  5
333
100
AcDbEntity
  8
A4
  6
CENTER
 62
1
100
AcDbLine
 10
161.0944807758349
 20
139.0471768363039
 30
0.000000000000000
 11
161.0944807758349
 21
153.4471768363039
 31
0.000000000000000
  0
LINE
  5
334
100
AcDbEntity
  8
A4
  6
CENTER
 62
1
100
AcDbLine
 10
56.79345064661937
 20
105.9571925035472
 30
0.000000000000000
 11
50.99345064661937
 21
105.9571925035472
 31
0.000000000000000
  0
LINE
  5
335
100
AcDbEntity
  8
A4
  6
CENTER
 62
1
100
AcDbLine
 10
53.89345064661937
 20
108.8571925035472
 30
0.000000000000000
 11
53.89345064661937
 21
103.0571925035472
 31
0.000000000000000
  0
LINE
  5
336
100
AcDbEntity
  8
A4
  6
CENTER
 62
1
100
AcDbLine
 10
273.7964801440696
 20
105.9571925035476
 30
0.000000000000000
 11
267.9964801440696
 21
105.9571925035476
 31
0.000000000000000
  0
LINE
  5
337
100
AcDbEntity
  8
A4
  6
CENTER
 62
1
100
AcDbLine
 10
270.8964801440696
 20
108.8571925035476
 30
0.000000000000000
 11
270.8964801440696
 21
103.0571925035476
 31
0.000000000000000
  0
CIRCLE
  5
338
100
AcDbEntity
  8
A1
  6
CONTINUOUS
 62
7
100
AcDbCircle
 10
196.1625707769114
 20
115.1071925035472
 30
0.000000000000000
 40
1.600000000000000
  0
CIRCLE
  5
339
100
AcDbEntity
  8
A1
  6
CONTINUOUS
 62
7
100
AcDbCircle
 10
212.1625707769114
 20
115.1071925035472
 30
0.000000000000000
 40
1.600000000000000
  0
ELLIPSE
  5
33A
100
AcDbEntity
  8
A1
  6
CONTINUOUS
 62
7
100
AcDbEllipse
 10
209.6625707769114
 20
106.7382095035472
 30
0.000000000000000
 11
1.500000000000000
 21
0.000000000000000
 31
0.000000000000000
210
0.000000000000000
220
0.000000000000000
230
1.000000000000000
 40
0.7459890000000001
 41
0.000000000000000
 42
1.570796326794897
  0
ELLIPSE
  5
33B
100
AcDbEntity
  8
A1
  6
CONTINUOUS
 62
7
100
AcDbEllipse
 10
198.6625707769114
 20
106.7382095035472
 30
0.000000000000000
 11
1.500000000000000
 21
0.000000000000000
 31
0.000000000000000
210
0.000000000000000
220
0.000000000000000
230
1.000000000000000
 40
0.7459890000000001
 41
1.570796326794897
 42
3.141592653589793
  0
ELLIPSE
  5
33C
100
AcDbEntity
  8
A1
  6
CONTINUOUS
 62
7
100
AcDbEllipse
 10
209.6625707769114
 20
105.6726755035472
 30
0.000000000000000
 11
-1.500000000000000
 21
0.000000000000000
 31
0.000000000000000
210
0.000000000000000
220
0.000000000000000
230
1.000000000000000
 40
0.7459890000000001
 41
3.141592653589793
 42
4.712388980384690
  0
ELLIPSE
  5
33D
100
AcDbEntity
  8
A1
  6
CONTINUOUS
 62
7
100
AcDbEllipse
 10
198.6625707769114
 20
105.6726755035472
 30
0.000000000000000
 11
-1.500000000000000
 21
0.000000000000000
 31
0.000000000000000
210
0.000000000000000
220
0.000000000000000
230
1.000000000000000
 40
0.7459890000000001
 41
4.712388980384690
 42
0.000000000000000
  0
ARC
  5
33E
100
AcDbEntity
  8
A1
  6
CONTINUOUS
 62
7
100
AcDbCircle
 10
212.6625707769114
 20
115.1071925035472
 30
0.000000000000000
 40
3.250000000000000
100
AcDbArc
 50
270.0000000000000
 51
450.0000000000000
  0
ARC
  5
33F
100
AcDbEntity
  8
A1
  6
CONTINUOUS
 62
7
100
AcDbCircle
 10
195.6625707769114
 20
115.1071925035472
 30
0.000000000000000
 40
3.250000000000000
100
AcDbArc
 50
90.00000000000000
 51
270.0000000000000
  0
LINE
  5
340
100
AcDbEntity
  8
A1
  6
CONTINUOUS
 62
7
100
AcDbLine
 10
197.1625707769114
 20
106.7382095035472
 30
0.000000000000000
 11
197.1625707769114
 21
111.8571925035472
 31
0.000000000000000
  0
LINE
  5
341
100
AcDbEntity
  8
A1
  6
CONTINUOUS
 62
7
100
AcDbLine
 10
211.1625707769114
 20
106.7382095035472
 30
0.000000000000000
 11
211.1625707769114
 21
111.8571925035472
 31
0.000000000000000
  0
LINE
  5
342
100
AcDbEntity
  8
A1
  6
CONTINUOUS
 62
7
100
AcDbLine
 10
211.1625707769114
 20
111.8571925035472
 30
0.000000000000000
 11
212.6625707769114
 21
111.8571925035472
 31
0.000000000000000
  0
LINE
  5
343
100
AcDbEntity
  8
A1
  6
CONTINUOUS
 62
7
100
AcDbLine
 10
212.6625707769114
 20
118.3571925035472
 30
0.000000000000000
 11
195.6625707769114
 21
118.3571925035472
 31
0.000000000000000
  0
LINE
  5
344
100
AcDbEntity
  8
A1
  6
CONTINUOUS
 62
7
100
AcDbLine
 10
195.6625707769114
 20
111.8571925035472
 30
0.000000000000000
 11
197.1625707769114
 21
111.8571925035472
 31
0.000000000000000
  0
LINE
  5
345
100
AcDbEntity
  8
A1
  6
CONTINUOUS
 62
7
100
AcDbLine
 10
197.1625707769114
 20
102.8571925035472
 30
0.000000000000000
 11
211.1625707769114
 21
102.8571925035472
 31
0.000000000000000
  0
LINE
  5
346
100
AcDbEntity
  8
A1
  6
CONTINUOUS
 62
7
100
AcDbLine
 10
197.1625707769114
 20
102.8571925035472
 30
0.000000000000000
 11
197.1625707769114
 21
103.8927205035472
 31
0.000000000000000
  0
LINE
  5
347
100
AcDbEntity
  8
A1
  6
CONTINUOUS
 62
7
100
AcDbLine
 10
211.1625707769114
 20
102.8571925035472
 30
0.000000000000000
 11
211.1625707769114
 21
103.8927205035472
 31
0.000000000000000
  0
LINE
  5
348
100
AcDbEntity
  8
A1
  6
CONTINUOUS
 62
7
100
AcDbLine
 10
211.1625707769114
 20
106.7382095035472
 30
0.000000000000000
 11
211.1625707769114
 21
105.6726755035472
 31
0.000000000000000
  0
LINE
  5
349
100
AcDbEntity
  8
A1
  6
CONTINUOUS
 62
7
100
AcDbLine
 10
197.1625707769114
 20
105.6726755035472
 30
0.000000000000000
 11
197.1625707769114
 21
106.7382095035472
 31
0.000000000000000
  0
LINE
  5
34A
100
AcDbEntity
  8
A1
  6
CONTINUOUS
 62
7
100
AcDbLine
 10
211.1625707769114
 20
103.8927205035472
 30
0.000000000000000
 11
211.1625707769114
 21
105.6726755035472
 31
0.000000000000000
  0
LINE
  5
34B
100
AcDbEntity
  8
A1
  6
CONTINUOUS
 62
7
100
AcDbLine
 10
197.1625707769114
 20
103.8927205035472
 30
0.000000000000000
 11
197.1625707769114
 21
105.6726755035472
 31
0.000000000000000
  0
LINE
  5
34C
100
AcDbEntity
  8
A1
  6
CONTINUOUS
 62
7
100
AcDbLine
 10
209.6625707769114
 20
106.7916585035472
 30
0.000000000000000
 11
198.6625707769114
 21
106.7916585035472
 31
0.000000000000000
  0
LINE
  5
34D
100
AcDbEntity
  8
A1
  6
CONTINUOUS
 62
7
100
AcDbLine
 10
209.6625707769114
 20
107.8571925035472
 30
0.000000000000000
 11
198.6625707769114
 21
107.8571925035472
 31
0.000000000000000
  0
ARC
  5
34E
100
AcDbEntity
  8
A1
  6
CONTINUOUS
 62
7
100
AcDbCircle
 10
293.7709966670542
 20
105.9571925035472
 30
0.000000000000000
 40
3.100000000000000
100
AcDbArc
 50
221.7559200000000
 51
360.0000000000000
  0
ARC
  5
34F
100
AcDbEntity
  8
A1
  6
CONTINUOUS
 62
7
100
AcDbCircle
 10
293.7709966670542
 20
105.9571925035472
 30
0.000000000000000
 40
1.500000000000000
100
AcDbArc
 50
221.7559200000000
 51
360.0000000000000
  0
LINE
  5
350
100
AcDbEntity
  8
A1
  6
CONTINUOUS
 62
7
100
AcDbLine
 10
290.0640746670542
 20
107.8571925035472
 30
0.000000000000000
 11
291.0630126670542
 21
106.7382095035472
 31
0.000000000000000
  0
LINE
  5
351
100
AcDbEntity
  8
A1
  6
CONTINUOUS
 62
7
100
AcDbLine
 10
289.8694306670542
 20
105.6726755035472
 30
0.000000000000000
 11
288.8704926670542
 21
106.7916585035472
 31
0.000000000000000
  0
LINE
  5
352
100
AcDbEntity
  8
A1
  6
CONTINUOUS
 62
7
100
AcDbLine
 10
288.8704926670542
 20
106.7916585035472
 30
0.000000000000000
 11
290.0640746670542
 21
107.8571925035472
 31
0.000000000000000
  0
LINE
  5
353
100
AcDbEntity
  8
A1
  6
CONTINUOUS
 62
7
100
AcDbLine
 10
296.8709966670542
 20
111.8571925035472
 30
0.000000000000000
 11
296.8709966670542
 21
105.9571925035472
 31
0.000000000000000
  0
LINE
  5
354
100
AcDbEntity
  8
A1
  6
CONTINUOUS
 62
7
100
AcDbLine
 10
295.2709966670542
 20
105.9571925035472
 30
0.000000000000000
 11
295.2709966670542
 21
111.8571925035472
 31
0.000000000000000
  0
LINE
  5
355
100
AcDbEntity
  8
A1
  6
CONTINUOUS
 62
7
100
AcDbLine
 10
291.0630126670542
 20
106.7382095035472
 30
0.000000000000000
 11
292.6520136670541
 21
104.9582545035472
 31
0.000000000000000
  0
LINE
  5
356
100
AcDbEntity
  8
A1
  6
CONTINUOUS
 62
7
100
AcDbLine
 10
291.4584316670542
 20
103.8927205035473
 30
0.000000000000000
 11
289.8694306670542
 21
105.6726755035472
 31
0.000000000000000
  0
LINE
  5
357
100
AcDbEntity
  8
A1
  6
CONTINUOUS
 62
7
100
AcDbLine
 10
295.2709966670542
 20
111.8571925035472
 30
0.000000000000000
 11
295.2709966670542
 21
118.3571925035472
 31
0.000000000000000
  0
LINE
  5
358
100
AcDbEntity
  8
A1
  6
CONTINUOUS
 62
7
100
AcDbLine
 10
296.8709966670542
 20
111.8571925035472
 30
0.000000000000000
 11
295.2709966670542
 21
111.8571925035472
 31
0.000000000000000
  0
LINE
  5
359
100
AcDbEntity
  8
A1
  6
CONTINUOUS
 62
7
100
AcDbLine
 10
296.8709966670542
 20
111.8571925035472
 30
0.000000000000000
 11
296.8709966670542
 21
118.3571925035472
 31
0.000000000000000
  0
LINE
  5
35A
100
AcDbEntity
  8
A1
  6
CONTINUOUS
 62
7
100
AcDbLine
 10
296.8709966670542
 20
118.3571925035472
 30
0.000000000000000
 11
295.2709966670542
 21
118.3571925035472
 31
0.000000000000000
  0
ELLIPSE
  5
35B
100
AcDbEntity
  8
A1
  6
CONTINUOUS
 62
7
100
AcDbEllipse
 10
209.6625707769114
 20
144.9456108363039
 30
0.000000000000000
 11
-1.500000000000000
 21
0.000000000000000
 31
0.000000000000000
210
0.000000000000000
220
0.000000000000000
230
1.000000000000000
 40
0.6659590000000000
 41
1.570796326794897
 42
3.141592653589793
  0
ELLIPSE
  5
35C
100
AcDbEntity
  8
A1
  6
CONTINUOUS
 62
7
100
AcDbEllipse
 10
209.6625707769114
 20
146.1391928363039
 30
0.000000000000000
 11
1.500000000000000
 21
0.000000000000000
 31
0.000000000000000
210
0.000000000000000
220
0.000000000000000
230
1.000000000000000
 40
0.6659590000000000
 41
4.712388980384690
 42
0.000000000000000
  0
ELLIPSE
  5
35D
100
AcDbEntity
  8
A1
  6
CONTINUOUS
 62
7
100
AcDbEllipse
 10
198.6625707769114
 20
144.9456108363039
 30
0.000000000000000
 11
-1.500000000000000
 21
0.000000000000000
 31
0.000000000000000
210
0.000000000000000
220
0.000000000000000
230
1.000000000000000
 40
0.6659590000000000
 41
0.000000000000000
 42
1.570796326794897
  0
ELLIPSE
  5
35E
100
AcDbEntity
  8
A1
  6
CONTINUOUS
 62
7
100
AcDbEllipse
 10
198.6625707769114
 20
146.1391928363039
 30
0.000000000000000
 11
1.500000000000000
 21
0.000000000000000
 31
0.000000000000000
210
0.000000000000000
220
0.000000000000000
230
1.000000000000000
 40
0.6659590000000000
 41
3.141592653589793
 42
4.712388980384690
  0
LINE
  5
35F
100
AcDbEntity
  8
A1
  6
CONTINUOUS
 62
7
100
AcDbLine
 10
211.1625707769114
 20
147.7281938363039
 30
0.000000000000000
 11
211.1625707769114
 21
150.3471768363039
 31
0.000000000000000
  0
LINE
  5
360
100
AcDbEntity
  8
A1
  6
CONTINUOUS
 62
7
100
AcDbLine
 10
197.1625707769114
 20
147.7281938363039
 30
0.000000000000000
 11
197.1625707769114
 21
150.3471768363039
 31
0.000000000000000
  0
LINE
  5
361
100
AcDbEntity
  8
A1
  6
CONTINUOUS
 62
7
100
AcDbLine
 10
209.6625707769114
 20
143.9466728363039
 30
0.000000000000000
 11
198.6625707769114
 21
143.9466728363039
 31
0.000000000000000
  0
LINE
  5
362
100
AcDbEntity
  8
A1
  6
CONTINUOUS
 62
7
100
AcDbLine
 10
211.1625707769114
 20
146.1391928363039
 30
0.000000000000000
 11
211.1625707769114
 21
147.7281938363039
 31
0.000000000000000
  0
LINE
  5
363
100
AcDbEntity
  8
A1
  6
CONTINUOUS
 62
7
100
AcDbLine
 10
197.1625707769114
 20
146.1391928363039
 30
0.000000000000000
 11
197.1625707769114
 21
147.7281938363039
 31
0.000000000000000
  0
LINE
  5
364
100
AcDbEntity
  8
A1
  6
CONTINUOUS
 62
7
100
AcDbLine
 10
209.6625707769114
 20
145.1402548363039
 30
0.000000000000000
 11
198.6625707769114
 21
145.1402548363039
 31
0.000000000000000
  0
LINE
  5
365
100
AcDbEntity
  8
A1
  6
CONTINUOUS
 62
7
100
AcDbLine
 10
211.1625707769114
 20
146.1391928363039
 30
0.000000000000000
 11
211.1625707769114
 21
144.9456108363039
 31
0.000000000000000
  0
LINE
  5
366
100
AcDbEntity
  8
A1
  6
CONTINUOUS
 62
7
100
AcDbLine
 10
197.1625707769114
 20
144.9456108363039
 30
0.000000000000000
 11
197.1625707769114
 21
146.1391928363039
 31
0.000000000000000
  0
LINE
  5
367
100
AcDbEntity
  8
A1
  6
CONTINUOUS
 62
7
100
AcDbLine
 10
195.6625707769114
 20
151.9471768363039
 30
0.000000000000000
 11
192.4125707769114
 21
151.9471768363039
 31
0.000000000000000
  0
LINE
  5
368
100
AcDbEntity
  8
A1
  6
CONTINUOUS
 62
7
100
AcDbLine
 10
195.6625707769114
 20
150.3471768363039
 30
0.000000000000000
 11
192.4125707769114
 21
150.3471768363039
 31
0.000000000000000
  0
LINE
  5
369
100
AcDbEntity
  8
A1
  6
CONTINUOUS
 62
7
100
AcDbLine
 10
192.4125707769114
 20
151.9471768363039
 30
0.000000000000000
 11
192.4125707769114
 21
150.3471768363039
 31
0.000000000000000
  0
LINE
  5
36A
100
AcDbEntity
  8
A1
  6
CONTINUOUS
 62
7
100
AcDbLine
 10
215.9125707769114
 20
150.3471768363039
 30
0.000000000000000
 11
215.9125707769114
 21
151.9471768363039
 31
0.000000000000000
  0
LINE
  5
36B
100
AcDbEntity
  8
A1
  6
CONTINUOUS
 62
7
100
AcDbLine
 10
215.9125707769114
 20
150.3471768363039
 30
0.000000000000000
 11
212.6625707769114
 21
150.3471768363039
 31
0.000000000000000
  0
LINE
  5
36C
100
AcDbEntity
  8
A1
  6
CONTINUOUS
 62
7
100
AcDbLine
 10
215.9125707769114
 20
151.9471768363039
 30
0.000000000000000
 11
212.6625707769114
 21
151.9471768363039
 31
0.000000000000000
  0
LINE
  5
36D
100
AcDbEntity
  8
A1
  6
CONTINUOUS
 62
7
100
AcDbLine
 10
212.6625707769114
 20
151.9471768363039
 30
0.000000000000000
 11
195.6625707769114
 21
151.9471768363039
 31
0.000000000000000
  0
LINE
  5
36E
100
AcDbEntity
  8
A1
  6
CONTINUOUS
 62
7
100
AcDbLine
 10
212.6625707769114
 20
150.3471768363039
 30
0.000000000000000
 11
195.6625707769114
 21
150.3471768363039
 31
0.000000000000000
  0
ARC
  5
36F
100
AcDbEntity
  8
A1
  6
CONTINUOUS
 62
7
100
AcDbCircle
 10
103.4763378570941
 20
105.9571925035472
 30
0.000000000000000
 40
1.500000000000000
100
AcDbArc
 50
180.0000000000000
 51
318.2440800000000
  0
ARC
  5
370
100
AcDbEntity
  8
A1
  6
CONTINUOUS
 62
7
100
AcDbCircle
 10
103.4763378570941
 20
105.9571925035472
 30
0.000000000000000
 40
3.100000000000000
100
AcDbArc
 50
180.0000000000000
 51
318.2440800000000
  0
LINE
  5
371
100
AcDbEntity
  8
A1
  6
CONTINUOUS
 62
7
100
AcDbLine
 10
100.3763378570941
 20
111.8571925035472
 30
0.000000000000000
 11
100.3763378570941
 21
105.9571925035472
 31
0.000000000000000
  0
LINE
  5
372
100
AcDbEntity
  8
A1
  6
CONTINUOUS
 62
7
100
AcDbLine
 10
101.9763378570941
 20
105.9571925035472
 30
0.000000000000000
 11
101.9763378570941
 21
111.8571925035472
 31
0.000000000000000
  0
LINE
  5
373
100
AcDbEntity
  8
A1
  6
CONTINUOUS
 62
7
100
AcDbLine
 10
106.1843218570940
 20
106.7382095035472
 30
0.000000000000000
 11
104.5953208570941
 21
104.9582545035472
 31
0.000000000000000
  0
LINE
  5
374
100
AcDbEntity
  8
A1
  6
CONTINUOUS
 62
7
100
AcDbLine
 10
105.7889028570941
 20
103.8927205035472
 30
0.000000000000000
 11
107.3779038570941
 21
105.6726755035472
 31
0.000000000000000
  0
LINE
  5
375
100
AcDbEntity
  8
A1
  6
CONTINUOUS
 62
7
100
AcDbLine
 10
106.1843218570941
 20
106.7382095035472
 30
0.000000000000000
 11
107.1832598570941
 21
107.8571925035472
 31
0.000000000000000
  0
LINE
  5
376
100
AcDbEntity
  8
A1
  6
CONTINUOUS
 62
7
100
AcDbLine
 10
108.3768418570941
 20
106.7916585035472
 30
0.000000000000000
 11
107.3779038570941
 21
105.6726755035472
 31
0.000000000000000
  0
LINE
  5
377
100
AcDbEntity
  8
A1
  6
CONTINUOUS
 62
7
100
AcDbLine
 10
107.1832598570941
 20
107.8571925035472
 30
0.000000000000000
 11
108.3768418570941
 21
106.7916585035472
 31
0.000000000000000
  0
LINE
  5
378
100
AcDbEntity
  8
A1
  6
CONTINUOUS
 62
7
100
AcDbLine
 10
101.9763378570941
 20
118.3571925035472
 30
0.000000000000000
 11
101.9763378570941
 21
111.8571925035472
 31
0.000000000000000
  0
LINE
  5
379
100
AcDbEntity
  8
A1
  6
CONTINUOUS
 62
7
100
AcDbLine
 10
100.3763378570941
 20
118.3571925035472
 30
0.000000000000000
 11
101.9763378570941
 21
118.3571925035472
 31
0.000000000000000
  0
LINE
  5
37A
100
AcDbEntity
  8
A1
  6
CONTINUOUS
 62
7
100
AcDbLine
 10
100.3763378570941
 20
118.3571925035472
 30
0.000000000000000
 11
100.3763378570941
 21
111.8571925035472
 31
0.000000000000000
  0
LINE
  5
37B
100
AcDbEntity
  8
A1
  6
CONTINUOUS
 62
7
100
AcDbLine
 10
100.3763378570941
 20
111.8571925035472
 30
0.000000000000000
 11
101.9763378570941
 21
111.8571925035472
 31
0.000000000000000
  0
ELLIPSE
  5
37C
100
AcDbEntity
  8
A1
  6
CONTINUOUS
 62
7
100
AcDbEllipse
 10
209.6625707769114
 20
24.37674086774716
 30
0.000000000000000
 11
1.500000000000000
 21
0.000000000000000
 31
0.000000000000000
210
0.000000000000000
220
0.000000000000000
230
1.000000000000000
 40
0.6659590000000000
 41
0.000000000000000
 42
1.570796326794897
  0
ELLIPSE
  5
37D
100
AcDbEntity
  8
A1
  6
CONTINUOUS
 62
7
100
AcDbEllipse
 10
198.6625707769114
 20
24.37674086774716
 30
0.000000000000000
 11
1.500000000000000
 21
0.000000000000000
 31
0.000000000000000
210
0.000000000000000
220
0.000000000000000
230
1.000000000000000
 40
0.6659590000000000
 41
1.570796326794897
 42
3.141592653589793
  0
LINE
  5
37E
100
AcDbEntity
  8
A1
  6
CONTINUOUS
 62
7
100
AcDbLine
 10
211.1625707769114
 20
18.97517486774716
 30
0.000000000000000
 11
212.6625707769114
 21
18.97517486774716
 31
0.000000000000000
  0
LINE
  5
37F
100
AcDbEntity
  8
A1
  6
CONTINUOUS
 62
7
100
AcDbLine
 10
211.1625707769114
 20
17.37517486774715
 30
0.000000000000000
 11
212.6625707769114
 21
17.37517486774715
 31
0.000000000000000
  0
LINE
  5
380
100
AcDbEntity
  8
A1
  6
CONTINUOUS
 62
7
100
AcDbLine
 10
212.6625707769114
 20
18.97517486774716
 30
0.000000000000000
 11
215.9125707769114
 21
18.97517486774716
 31
0.000000000000000
  0
LINE
  5
381
100
AcDbEntity
  8
A1
  6
CONTINUOUS
 62
7
100
AcDbLine
 10
212.6625707769114
 20
17.37517486774715
 30
0.000000000000000
 11
215.9125707769114
 21
17.37517486774715
 31
0.000000000000000
  0
LINE
  5
382
100
AcDbEntity
  8
A1
  6
CONTINUOUS
 62
7
100
AcDbLine
 10
215.9125707769114
 20
17.37517486774715
 30
0.000000000000000
 11
215.9125707769114
 21
18.97517486774716
 31
0.000000000000000
  0
LINE
  5
383
100
AcDbEntity
  8
A1
  6
CONTINUOUS
 62
7
100
AcDbLine
 10
192.4125707769114
 20
18.97517486774716
 30
0.000000000000000
 11
192.4125707769114
 21
17.37517486774715
 31
0.000000000000000
  0
LINE
  5
384
100
AcDbEntity
  8
A1
  6
CONTINUOUS
 62
7
100
AcDbLine
 10
192.4125707769114
 20
18.97517486774716
 30
0.000000000000000
 11
195.6625707769114
 21
18.97517486774716
 31
0.000000000000000
  0
LINE
  5
385
100
AcDbEntity
  8
A1
  6
CONTINUOUS
 62
7
100
AcDbLine
 10
192.4125707769114
 20
17.37517486774715
 30
0.000000000000000
 11
195.6625707769114
 21
17.37517486774715
 31
0.000000000000000
  0
LINE
  5
386
100
AcDbEntity
  8
A1
  6
CONTINUOUS
 62
7
100
AcDbLine
 10
195.6625707769114
 20
18.97517486774716
 30
0.000000000000000
 11
197.1625707769114
 21
18.97517486774716
 31
0.000000000000000
  0
LINE
  5
387
100
AcDbEntity
  8
A1
  6
CONTINUOUS
 62
7
100
AcDbLine
 10
195.6625707769114
 20
17.37517486774715
 30
0.000000000000000
 11
197.1625707769114
 21
17.37517486774715
 31
0.000000000000000
  0
LINE
  5
388
100
AcDbEntity
  8
A1
  6
CONTINUOUS
 62
7
100
AcDbLine
 10
197.1625707769114
 20
22.78773986774715
 30
0.000000000000000
 11
197.1625707769114
 21
24.37674086774716
 31
0.000000000000000
  0
LINE
  5
389
100
AcDbEntity
  8
A1
  6
CONTINUOUS
 62
7
100
AcDbLine
 10
211.1625707769114
 20
22.78773986774715
 30
0.000000000000000
 11
211.1625707769114
 21
24.37674086774716
 31
0.000000000000000
  0
LINE
  5
38A
100
AcDbEntity
  8
A1
  6
CONTINUOUS
 62
7
100
AcDbLine
 10
209.6625707769114
 20
25.37567886774715
 30
0.000000000000000
 11
198.6625707769114
 21
25.37567886774715
 31
0.000000000000000
  0
LINE
  5
38B
100
AcDbEntity
  8
A1
  6
CONTINUOUS
 62
7
100
AcDbLine
 10
197.1625707769114
 20
17.37517486774715
 30
0.000000000000000
 11
197.1625707769114
 21
22.78773986774715
 31
0.000000000000000
  0
LINE
  5
38C
100
AcDbEntity
  8
A1
  6
CONTINUOUS
 62
7
100
AcDbLine
 10
211.1625707769114
 20
17.37517486774715
 30
0.000000000000000
 11
197.1625707769114
 21
17.37517486774715
 31
0.000000000000000
  0
LINE
  5
38D
100
AcDbEntity
  8
A1
  6
CONTINUOUS
 62
7
100
AcDbLine
 10
211.1625707769114
 20
17.37517486774715
 30
0.000000000000000
 11
211.1625707769114
 21
22.78773986774715
 31
0.000000000000000
  0
LINE
  5
38E
100
AcDbEntity
  8
A4
  6
CENTER
 62
1
100
AcDbLine
 10
104.9763378570941
 20
105.9571925035472
 30
0.000000000000000
 11
100.4763378570941
 21
105.9571925035472
 31
0.000000000000000
  0
LINE
  5
38F
100
AcDbEntity
  8
A4
  6
CENTER
 62
1
100
AcDbLine
 10
103.4763378570941
 20
107.4571925035472
 30
0.000000000000000
 11
103.4763378570941
 21
102.9571925035472
 31
0.000000000000000
  0
LINE
  5
390
100
AcDbEntity
  8
A4
  6
CENTER
 62
1
100
AcDbLine
 10
215.2625707769114
 20
115.1071925035472
 30
0.000000000000000
 11
209.0625707769114
 21
115.1071925035472
 31
0.000000000000000
  0
LINE
  5
391
100
AcDbEntity
  8
A4
  6
CENTER
 62
1
100
AcDbLine
 10
212.1625707769114
 20
118.2071925035472
 30
0.000000000000000
 11
212.1625707769114
 21
112.0071925035472
 31
0.000000000000000
  0
LINE
  5
392
100
AcDbEntity
  8
A4
  6
CENTER
 62
1
100
AcDbLine
 10
199.2625707769114
 20
115.1071925035472
 30
0.000000000000000
 11
193.0625707769114
 21
115.1071925035472
 31
0.000000000000000
  0
LINE
  5
393
100
AcDbEntity
  8
A4
  6
CENTER
 62
1
100
AcDbLine
 10
196.1625707769114
 20
118.2071925035472
 30
0.000000000000000
 11
196.1625707769114
 21
112.0071925035472
 31
0.000000000000000
  0
LINE
  5
394
100
AcDbEntity
  8
A4
  6
CENTER
 62
1
100
AcDbLine
 10
298.8431715200436
 20
115.1071925035472
 30
0.000000000000000
 11
291.9175150105144
 21
115.1071925035472
 31
0.000000000000000
  0
LINE
  5
395
100
AcDbEntity
  8
A4
  6
CENTER
 62
1
100
AcDbLine
 10
97.63071201811691
 20
115.1071925035472
 30
0.000000000000000
 11
104.6662993537070
 21
115.1071925035472
 31
0.000000000000000
  0
LINE
  5
396
100
AcDbEntity
  8
A4
  6
CENTER
 62
1
100
AcDbLine
 10
196.1625707769114
 20
19.82914183645740
 30
0.000000000000000
 11
196.1625707769114
 21
16.01820073632650
 31
0.000000000000000
  0
LINE
  5
397
100
AcDbEntity
  8
A4
  6
CENTER
 62
1
100
AcDbLine
 10
212.1625707769114
 20
19.82914183645740
 30
0.000000000000000
 11
212.1625707769114
 21
16.01820073632650
 31
0.000000000000000
  0
LINE
  5
398
100
AcDbEntity
  8
A4
  6
CENTER
 62
1
100
AcDbLine
 10
296.7709966670542
 20
105.9571925035472
 30
0.000000000000000
 11
292.2709966670542
 21
105.9571925035472
 31
0.000000000000000
  0
LINE
  5
399
100
AcDbEntity
  8
A4
  6
CENTER
 62
1
100
AcDbLine
 10
293.7709966670542
 20
107.4571925035472
 30
0.000000000000000
 11
293.7709966670542
 21
102.9571925035472
 31
0.000000000000000
  0
ENDSEC
  0
SECTION
  2
OBJECTS
  0
DICTIONARY
  5
3C7
100
AcDbDictionary
  3
ACAD_GROUP
350
3C8
  3
ACAD_MLINESTYLE
350
3C9
  0
DICTIONARY
  5
3C8
102
{ACAD_REACTORS
330
3C7
102
}
100
AcDbDictionary
  0
DICTIONARY
  5
3C9
102
{ACAD_REACTORS
330
3C7
102
}
100
AcDbDictionary
  3
STANDARD
350
3CA
  0
MLINESTYLE
  5
3CA
102
{ACAD_REACTORS
330
3C9
102
}
100
AcDbMlineStyle
  2
STANDARD
 70
     0
  3

 62
   256
 51
90.00
 52
90.00
 71
     2
 49
0.50
 62
   256
  6
BYLAYER
 49
-0.50
 62
   256
  6
BYLAYER
  0
ENDSEC
  0
EOF
