  0
SECTION
  2
HEADER
  9
$ACADVER
  1
AC1014
  9
$DWGCODEPAGE
  3
ANSI_932
  9
$LTSCALE
 40
20.0
  9
$FILLMODE
 70
     1
  9
$CLAYER
  8
0
  9
$PDMODE
 70
     0
  9
$SPLFRAME
 70
     0
  9
$SPLINETYPE
 70
     6
  9
$SPLINESEGS
 70
     8
  9
$DIMASZ
 40
2.000000
  9
$DIMEXE
 40
1.500000
  9
$DIMEXO
 40
0.800000
  9
$DIMTAD
 70
     1
  9
$DIMTIH
 70
     0
  9
$DIMTOH
 70
     0
  9
$DIMTVP
 40
0.500000
  9
$DIMTXT
 40
3.100000
  9
$EXTMIN
 10
0.000000
 20
0.000000
 30
0.000000
  9
$EXTMAX
 10
297.000000
 20
420.000000
 30
0.000000
  9
$MEASUREMENT
 70
  1
  9
$LIMMIN
 10
0.000000
 20
0.000000
  9
$LIMMAX
 10
297.000000
 20
420.000000
  9
$HANDLING
 70
     1
  9
$HANDSEED
  5
36A
  9
$DIMBLK
  1
_OPEN
  9
$DIMDEC
 70
     2
  9
$DIMAUNIT
 70
     0
  9
$DIMZIN
 70
     8
  9
$DIMTOFL
 70
     1
  0
ENDSEC
  0
SECTION
  2
CLASSES
  0
ENDSEC
  0
SECTION
  2
TABLES
  0
TABLE
  2
VPORT
  5
339
100
AcDbSymbolTable
 70
     1
  0
VPORT
  5
33A
100
AcDbSymbolTableRecord
100
AcDbViewportTableRecord
  2
*ACTIVE
 70
     0
 12
97.517842
 22
75.551867
 40
115.103732
 41
1.520678
  0
ENDTAB
  0
TABLE
  2
LTYPE
  5
33B
100
AcDbSymbolTable
 70
     3
  0
LTYPE
  5
33C
100
AcDbSymbolTableRecord
100
AcDbLinetypeTableRecord
  2
BYBLOCK
 70
     0
  3

 72
    65
 73
     0
 40
0.0
  0
LTYPE
  5
33D
100
AcDbSymbolTableRecord
100
AcDbLinetypeTableRecord
  2
BYLAYER
 70
     0
  3

 72
    65
 73
     0
 40
0.0
  0
LTYPE
  5
33E
100
AcDbSymbolTableRecord
100
AcDbLinetypeTableRecord
  2
CONTINUOUS
 70
     0
  3
Solid line (NEC CAE2D for Win R18.0 : 2025.05.19)
 72
    65
 73
     0
 40
0.0
  0
LTYPE
  5
33F
100
AcDbSymbolTableRecord
100
AcDbLinetypeTableRecord
  2
DASHED
 70
     0
  3
__ __ __ __ __ __ __ __ __ __ __ __ __ _
 72
    65
 73
     2
 40
0.75
 49
0.5
 74
     0
 49
-0.25
 74
     0
  0
LTYPE
  5
340
100
AcDbSymbolTableRecord
100
AcDbLinetypeTableRecord
  2
CENTER
 70
     0
  3
____ _ ____ _ ____ _ ____ _ ____ _ ____
 72
    65
 73
     4
 40
2.0
 49
1.25
 74
     0
 49
-0.25
 74
     0
 49
0.25
 74
     0
 49
-0.25
 74
     0
  0
ENDTAB
  0
TABLE
  2
LAYER
  5
341
100
AcDbSymbolTable
 70
    17
  0
LAYER
  5
342
100
AcDbSymbolTableRecord
100
AcDbLayerTableRecord
  2
0
 70
     0
 62
     7
  6
CONTINUOUS
  0
LAYER
  5
343
100
AcDbSymbolTableRecord
100
AcDbLayerTableRecord
  2
A0
 70
     0
 62
     9
  6
CONTINUOUS
  0
LAYER
  5
344
100
AcDbSymbolTableRecord
100
AcDbLayerTableRecord
  2
A1
 70
     0
 62
     1
  6
CONTINUOUS
  0
LAYER
  5
345
100
AcDbSymbolTableRecord
100
AcDbLayerTableRecord
  2
A2
 70
     0
 62
     9
  6
CONTINUOUS
  0
LAYER
  5
346
100
AcDbSymbolTableRecord
100
AcDbLayerTableRecord
  2
A3
 70
     0
 62
    12
  6
CONTINUOUS
  0
LAYER
  5
347
100
AcDbSymbolTableRecord
100
AcDbLayerTableRecord
  2
A4
 70
     0
 62
     9
  6
CONTINUOUS
  0
LAYER
  5
348
100
AcDbSymbolTableRecord
100
AcDbLayerTableRecord
  2
A5
 70
     0
 62
     8
  6
CONTINUOUS
  0
LAYER
  5
349
100
AcDbSymbolTableRecord
100
AcDbLayerTableRecord
  2
A6
 70
     0
 62
    12
  6
CONTINUOUS
  0
LAYER
  5
34A
100
AcDbSymbolTableRecord
100
AcDbLayerTableRecord
  2
A7
 70
     0
 62
    12
  6
CONTINUOUS
  0
LAYER
  5
34B
100
AcDbSymbolTableRecord
100
AcDbLayerTableRecord
  2
A8
 70
     0
 62
    10
  6
CONTINUOUS
  0
LAYER
  5
34C
100
AcDbSymbolTableRecord
100
AcDbLayerTableRecord
  2
A9
 70
     0
 62
     9
  6
CONTINUOUS
  0
LAYER
  5
34D
100
AcDbSymbolTableRecord
100
AcDbLayerTableRecord
  2
A10
 70
     0
 62
     6
  6
CONTINUOUS
  0
LAYER
  5
34E
100
AcDbSymbolTableRecord
100
AcDbLayerTableRecord
  2
A20
 70
     0
 62
     1
  6
CONTINUOUS
  0
LAYER
  5
34F
100
AcDbSymbolTableRecord
100
AcDbLayerTableRecord
  2
A30
 70
     0
 62
     1
  6
CONTINUOUS
  0
LAYER
  5
350
100
AcDbSymbolTableRecord
100
AcDbLayerTableRecord
  2
A40
 70
     0
 62
     9
  6
CONTINUOUS
  0
LAYER
  5
351
100
AcDbSymbolTableRecord
100
AcDbLayerTableRecord
  2
A50
 70
     0
 62
    12
  6
CONTINUOUS
  0
LAYER
  5
352
100
AcDbSymbolTableRecord
100
AcDbLayerTableRecord
  2
A1023
 70
     0
 62
    16
  6
CONTINUOUS
  0
ENDTAB
  0
TABLE
  2
STYLE
  5
353
100
AcDbSymbolTable
 70
     4
  0
STYLE
  5
354
100
AcDbSymbolTableRecord
100
AcDbTextStyleTableRecord
  2
STANDARD
 70
    64
 40
0.0
 41
1.0
 50
0.0
 71
     0
 42
3.000000000000000
  3
TXT
  4

  0
STYLE
  5
355
100
AcDbSymbolTableRecord
100
AcDbTextStyleTableRecord
  2
ANKTATE
 70
    68
 40
0.0
 41
1.0
 50
0.0
 71
     0
 42
3.000000000000000
  3
TXT
  4

  0
STYLE
  5
356
100
AcDbSymbolTableRecord
100
AcDbTextStyleTableRecord
  2
KNJYOKO
 70
    64
 40
0.0
 41
1.0
 50
0.0
 71
     0
 42
3.000000000000000
  3
TXT
  4
BIGFONT
  0
STYLE
  5
357
100
AcDbSymbolTableRecord
100
AcDbTextStyleTableRecord
  2
KNJTATE
 70
    68
 40
0.0
 41
1.0
 50
0.0
 71
     0
 42
3.000000000000000
  3
TXT
  4
BIGFONT
  0
ENDTAB
  0
TABLE
  2
VIEW
  5
358
100
AcDbSymbolTable
 70
     0
  0
ENDTAB
  0
TABLE
  2
UCS
  5
359
100
AcDbSymbolTable
 70
     0
  0
ENDTAB
  0
TABLE
  2
APPID
  5
35A
100
AcDbSymbolTable
 70
     1
  0
APPID
  5
35B
100
AcDbSymbolTableRecord
100
AcDbRegAppTableRecord
  2
ACAD
 70
     0
  0
ENDTAB
  0
TABLE
  2
DIMSTYLE
  5
35C
100
AcDbSymbolTable
 70
     2
  0
DIMSTYLE
105
35D
100
AcDbSymbolTableRecord
100
AcDbDimStyleTableRecord
  2
STANDARD
 70
     0
 41
2.000000
 44
1.500000
 42
0.800000
145
0.661290
140
3.100000
144
1.000000
146
0.645161
340
354
  0
DIMSTYLE
105
35E
100
AcDbSymbolTableRecord
100
AcDbDimStyleTableRecord
  2
A001
 70
     0
 41
2.000000
 44
1.500000
 42
0.800000
145
0.661290
140
3.100000
144
1.000000
146
0.645161
 77
     1
 73
     0
 74
     0
271
     2
275
     0
 78
     8
172
     1
340
354
  0
ENDTAB
  0
TABLE
  2
BLOCK_RECORD
  5
35F
100
AcDbSymbolTable
 70
    12
  0
BLOCK_RECORD
  5
360
100
AcDbSymbolTableRecord
100
AcDbBlockTableRecord
  2
*MODEL_SPACE
  0
BLOCK_RECORD
  5
361
100
AcDbSymbolTableRecord
100
AcDbBlockTableRecord
  2
*PAPER_SPACE
  0
BLOCK_RECORD
  5
1
100
AcDbSymbolTableRecord
100
AcDbBlockTableRecord
  2
_NONE
  0
BLOCK_RECORD
  5
4
100
AcDbSymbolTableRecord
100
AcDbBlockTableRecord
  2
_CLOSED
  0
BLOCK_RECORD
  5
B
100
AcDbSymbolTableRecord
100
AcDbBlockTableRecord
  2
_DOT
  0
BLOCK_RECORD
  5
13
100
AcDbSymbolTableRecord
100
AcDbBlockTableRecord
  2
_OPEN
  0
BLOCK_RECORD
  5
19
100
AcDbSymbolTableRecord
100
AcDbBlockTableRecord
  2
_ORIGIN
  0
BLOCK_RECORD
  5
1E
100
AcDbSymbolTableRecord
100
AcDbBlockTableRecord
  2
_OPEN30
  0
BLOCK_RECORD
  5
24
100
AcDbSymbolTableRecord
100
AcDbBlockTableRecord
  2
_BOXFILLED
  0
BLOCK_RECORD
  5
29
100
AcDbSymbolTableRecord
100
AcDbBlockTableRecord
  2
_BOXBLANK
  0
BLOCK_RECORD
  5
31
100
AcDbSymbolTableRecord
100
AcDbBlockTableRecord
  2
_OBLIQUE
  0
BLOCK_RECORD
  5
35
100
AcDbSymbolTableRecord
100
AcDbBlockTableRecord
  2
_OPEN90
  0
BLOCK_RECORD
  5
3B
100
AcDbSymbolTableRecord
100
AcDbBlockTableRecord
  2
_CLOSEDBLANK
  0
BLOCK_RECORD
  5
41
100
AcDbSymbolTableRecord
100
AcDbBlockTableRecord
  2
_DOTBLANK
  0
ENDTAB
  0
ENDSEC
  0
SECTION
  2
BLOCKS
  0
BLOCK
  5
362
100
AcDbEntity
  8
0
100
AcDbBlockBegin
  2
*MODEL_SPACE
 70
     0
 10
0.0
 20
0.0
 30
0.0
  3
*MODEL_SPACE
  1

  0
ENDBLK
  5
363
100
AcDbEntity
  8
0
100
AcDbBlockEnd
  0
BLOCK
  5
364
100
AcDbEntity
  8
0
100
AcDbBlockBegin
  2
*PAPER_SPACE
 70
     0
 10
0.0
 20
0.0
 30
0.0
  3
*PAPER_SPACE
  1

  0
ENDBLK
  5
365
100
AcDbEntity
  8
0
100
AcDbBlockEnd
  0
BLOCK
  5
2
100
AcDbEntity
  8
0
100
AcDbBlockBegin
  2
_NONE
 70
     0
 10
0.0
 20
0.0
 30
0.0
  3
_NONE
  1

  0
ENDBLK
  5
3
100
AcDbEntity
  8
0
100
AcDbBlockEnd
  0
BLOCK
  5
5
100
AcDbEntity
  8
0
100
AcDbBlockBegin
  2
_CLOSED
 70
     0
 10
0.0
 20
0.0
 30
0.0
  3
_CLOSED
  1

  0
LINE
  5
6
100
AcDbEntity
  8
0
  6
BYBLOCK
 62
     0
100
AcDbLine
 10
-1.0
 20
0.166667
 30
0.0
 11
0.0
 21
0.0
 31
0.0
  0
LINE
  5
7
100
AcDbEntity
  8
0
  6
BYBLOCK
 62
     0
100
AcDbLine
 10
0.0
 20
0.0
 30
0.0
 11
-1.0
 21
-0.166667
 31
0.0
  0
LINE
  5
8
100
AcDbEntity
  8
0
  6
BYBLOCK
 62
     0
100
AcDbLine
 10
-1.0
 20
0.166667
 30
0.0
 11
-1.0
 21
-0.166667
 31
0.0
  0
LINE
  5
9
100
AcDbEntity
  8
0
  6
BYBLOCK
 62
     0
100
AcDbLine
 10
0.0
 20
0.0
 30
0.0
 11
-1.0
 21
0.0
 31
0.0
  0
ENDBLK
  5
A
100
AcDbEntity
  8
0
100
AcDbBlockEnd
  0
BLOCK
  5
C
100
AcDbEntity
  8
0
100
AcDbBlockBegin
  2
_DOT
 70
     0
 10
0.0
 20
0.0
 30
0.0
  3
_DOT
  1

  0
POLYLINE
  5
D
100
AcDbEntity
  8
0
  6
BYBLOCK
 62
     0
100
AcDb2dPolyline
 66
     1
 10
0.0
 20
0.0
 30
0.0
 70
     1
 40
0.5
 41
0.5
  0
VERTEX
  5
E
100
AcDbEntity
  8
0
  6
BYBLOCK
 62
     0
100
AcDbVertex
100
AcDb2dVertex
 10
-0.25
 20
0.0
 30
0.0
 42
1.0
  0
VERTEX
  5
F
100
AcDbEntity
  8
0
  6
BYBLOCK
 62
     0
100
AcDbVertex
100
AcDb2dVertex
 10
0.25
 20
0.0
 30
0.0
 42
1.0
  0
SEQEND
  5
10
100
AcDbEntity
  8
0
  6
BYBLOCK
 62
     0
  0
LINE
  5
11
100
AcDbEntity
  8
0
  6
BYBLOCK
 62
     0
100
AcDbLine
 10
-0.5
 20
0.0
 30
0.0
 11
-1.0
 21
0.0
 31
0.0
  0
ENDBLK
  5
12
100
AcDbEntity
  8
0
100
AcDbBlockEnd
  0
BLOCK
  5
14
100
AcDbEntity
  8
0
100
AcDbBlockBegin
  2
_OPEN
 70
     0
 10
0.0
 20
0.0
 30
0.0
  3
_OPEN
  1

  0
LINE
  5
15
100
AcDbEntity
  8
0
  6
BYBLOCK
 62
     0
100
AcDbLine
 10
-1.0
 20
0.166667
 30
0.0
 11
0.0
 21
0.0
 31
0.0
  0
LINE
  5
16
100
AcDbEntity
  8
0
  6
BYBLOCK
 62
     0
100
AcDbLine
 10
0.0
 20
0.0
 30
0.0
 11
-1.0
 21
-0.166667
 31
0.0
  0
LINE
  5
17
100
AcDbEntity
  8
0
  6
BYBLOCK
 62
     0
100
AcDbLine
 10
0.0
 20
0.0
 30
0.0
 11
-1.0
 21
0.0
 31
0.0
  0
ENDBLK
  5
18
100
AcDbEntity
  8
0
100
AcDbBlockEnd
  0
BLOCK
  5
1A
100
AcDbEntity
  8
0
100
AcDbBlockBegin
  2
_ORIGIN
 70
     0
 10
0.0
 20
0.0
 30
0.0
  3
_ORIGIN
  1

  0
CIRCLE
  5
1B
100
AcDbEntity
  8
0
  6
BYBLOCK
 62
     0
100
AcDbCircle
 10
0.0
 20
0.0
 30
0.0
 40
0.5
  0
LINE
  5
1C
100
AcDbEntity
  8
0
  6
BYBLOCK
 62
     0
100
AcDbLine
 10
0.0
 20
0.0
 30
0.0
 11
-1.0
 21
0.0
 31
0.0
  0
ENDBLK
  5
1D
100
AcDbEntity
  8
0
100
AcDbBlockEnd
  0
BLOCK
  5
1F
100
AcDbEntity
  8
0
100
AcDbBlockBegin
  2
_OPEN30
 70
     0
 10
0.0
 20
0.0
 30
0.0
  3
_OPEN30
  1

  0
LINE
  5
20
100
AcDbEntity
  8
0
  6
BYBLOCK
 62
     0
100
AcDbLine
 10
-1.0
 20
0.267949
 30
0.0
 11
0.0
 21
0.0
 31
0.0
  0
LINE
  5
21
100
AcDbEntity
  8
0
  6
BYBLOCK
 62
     0
100
AcDbLine
 10
0.0
 20
0.0
 30
0.0
 11
-1.0
 21
-0.267949
 31
0.0
  0
LINE
  5
22
100
AcDbEntity
  8
0
  6
BYBLOCK
 62
     0
100
AcDbLine
 10
0.0
 20
0.0
 30
0.0
 11
-1.0
 21
0.0
 31
0.0
  0
ENDBLK
  5
23
100
AcDbEntity
  8
0
100
AcDbBlockEnd
  0
BLOCK
  5
25
100
AcDbEntity
  8
0
100
AcDbBlockBegin
  2
_BOXFILLED
 70
     0
 10
0.0
 20
0.0
 30
0.0
  3
_BOXFILLED
  1

  0
SOLID
  5
26
100
AcDbEntity
  8
0
  6
BYBLOCK
 62
     0
100
AcDbTrace
 10
-0.5
 20
0.5
 30
0.0
 11
0.5
 21
0.5
 31
0.0
 12
-0.5
 22
-0.5
 32
0.0
 13
0.5
 23
-0.5
 33
0.0
  0
LINE
  5
27
100
AcDbEntity
  8
0
  6
BYBLOCK
 62
     0
100
AcDbLine
 10
-0.5
 20
0.0
 30
0.0
 11
-1.0
 21
0.0
 31
0.0
  0
ENDBLK
  5
28
100
AcDbEntity
  8
0
100
AcDbBlockEnd
  0
BLOCK
  5
2A
100
AcDbEntity
  8
0
100
AcDbBlockBegin
  2
_BOXBLANK
 70
     0
 10
0.0
 20
0.0
 30
0.0
  3
_BOXBLANK
  1

  0
LINE
  5
2B
100
AcDbEntity
  8
0
  6
BYBLOCK
 62
     0
100
AcDbLine
 10
-0.5
 20
-0.5
 30
0.0
 11
0.5
 21
-0.5
 31
0.0
  0
LINE
  5
2C
100
AcDbEntity
  8
0
  6
BYBLOCK
 62
     0
100
AcDbLine
 10
0.5
 20
-0.5
 30
0.0
 11
0.5
 21
0.5
 31
0.0
  0
LINE
  5
2D
100
AcDbEntity
  8
0
  6
BYBLOCK
 62
     0
100
AcDbLine
 10
0.5
 20
0.5
 30
0.0
 11
-0.5
 21
0.5
 31
0.0
  0
LINE
  5
2E
100
AcDbEntity
  8
0
  6
BYBLOCK
 62
     0
100
AcDbLine
 10
-0.5
 20
0.5
 30
0.0
 11
-0.5
 21
-0.5
 31
0.0
  0
LINE
  5
2F
100
AcDbEntity
  8
0
  6
BYBLOCK
 62
     0
100
AcDbLine
 10
-0.5
 20
0.0
 30
0.0
 11
-1.0
 21
0.0
 31
0.0
  0
ENDBLK
  5
30
100
AcDbEntity
  8
0
100
AcDbBlockEnd
  0
BLOCK
  5
32
100
AcDbEntity
  8
0
100
AcDbBlockBegin
  2
_OBLIQUE
 70
     0
 10
0.0
 20
0.0
 30
0.0
  3
_OBLIQUE
  1

  0
LINE
  5
33
100
AcDbEntity
  8
0
  6
BYBLOCK
 62
     0
100
AcDbLine
 10
-0.5
 20
-0.5
 30
0.0
 11
0.5
 21
0.5
 31
0.0
  0
ENDBLK
  5
34
100
AcDbEntity
  8
0
100
AcDbBlockEnd
  0
BLOCK
  5
36
100
AcDbEntity
  8
0
100
AcDbBlockBegin
  2
_OPEN90
 70
     0
 10
0.0
 20
0.0
 30
0.0
  3
_OPEN90
  1

  0
LINE
  5
37
100
AcDbEntity
  8
0
  6
BYBLOCK
 62
     0
100
AcDbLine
 10
-0.5
 20
0.5
 30
0.0
 11
0.0
 21
0.0
 31
0.0
  0
LINE
  5
38
100
AcDbEntity
  8
0
  6
BYBLOCK
 62
     0
100
AcDbLine
 10
0.0
 20
0.0
 30
0.0
 11
-0.5
 21
-0.5
 31
0.0
  0
LINE
  5
39
100
AcDbEntity
  8
0
  6
BYBLOCK
 62
     0
100
AcDbLine
 10
0.0
 20
0.0
 30
0.0
 11
-1.0
 21
0.0
 31
0.0
  0
ENDBLK
  5
3A
100
AcDbEntity
  8
0
100
AcDbBlockEnd
  0
BLOCK
  5
3C
100
AcDbEntity
  8
0
100
AcDbBlockBegin
  2
_CLOSEDBLANK
 70
     0
 10
0.0
 20
0.0
 30
0.0
  3
_CLOSEDBLANK
  1

  0
LINE
  5
3D
100
AcDbEntity
  8
0
  6
BYBLOCK
 62
     0
100
AcDbLine
 10
-1.0
 20
0.1666666666666666
 30
0.0
 11
0.0
 21
0.0
 31
0.0
  0
LINE
  5
3E
100
AcDbEntity
  8
0
  6
BYBLOCK
 62
     0
100
AcDbLine
 10
0.0
 20
0.0
 30
0.0
 11
-1.0
 21
-0.1666666666666666
 31
0.0
  0
LINE
  5
3F
100
AcDbEntity
  8
0
  6
BYBLOCK
 62
     0
100
AcDbLine
 10
-1.0
 20
0.1666666666666666
 30
0.0
 11
-1.0
 21
-0.1666666666666666
 31
0.0
  0
ENDBLK
  5
40
100
AcDbEntity
  8
0
100
AcDbBlockEnd
  0
BLOCK
  5
42
100
AcDbEntity
  8
0
100
AcDbBlockBegin
  2
_DOTBLANK
 70
     0
 10
0.0
 20
0.0
 30
0.0
  3
_DOTBLANK
  1

  0
CIRCLE
  5
43
100
AcDbEntity
  8
0
  6
BYBLOCK
 62
     0
100
AcDbCircle
 10
0.0
 20
0.0
 30
0.0
 40
0.5
  0
LINE
  5
44
100
AcDbEntity
  8
0
  6
BYBLOCK
 62
     0
100
AcDbLine
 10
-0.5
 20
0.0
 30
0.0
 11
-1.0
 21
0.0
 31
0.0
  0
ENDBLK
  5
45
100
AcDbEntity
  8
0
100
AcDbBlockEnd
  0
ENDSEC
  0
SECTION
  2
ENTITIES
  0
MTEXT
  5
46
100
AcDbEntity
  8
A7
  6
CONTINUOUS
 62
3
100
AcDbMText
 10
9.999997526638502
 20
18.00000076076889
 30
0.000000000000000
 40
3.000000000000000
 41
0.000000000000000
 71
     7
 72
     1
  1
{\H0.94x;{TYPE No.TL-207-2-H}}
 11
1.000000000000000
 21
0.000000000000000
 31
0.000000000000000
  7
STANDARD
  0
POINT
  5
47
100
AcDbEntity
  8
A10
  6
CONTINUOUS
 62
3
100
AcDbPoint
 10
9.999997526638502
 20
18.00000076076889
 30
0.000000000000000
  0
LINE
  5
48
100
AcDbEntity
  8
A1
  6
CONTINUOUS
 62
7
100
AcDbLine
 10
99.91456927837662
 20
94.50373233651210
 30
0.000000000000000
 11
107.1145692783767
 21
94.50373233651212
 31
0.000000000000000
  0
LINE
  5
49
100
AcDbEntity
  8
A1
  6
CONTINUOUS
 62
7
100
AcDbLine
 10
99.91456927837662
 20
93.30373233651206
 30
0.000000000000000
 11
107.1145692783767
 21
93.30373233651207
 31
0.000000000000000
  0
ARC
  5
4A
100
AcDbEntity
  8
A1
  6
CONTINUOUS
 62
7
100
AcDbCircle
 10
107.1145692783766
 20
93.90373233651192
 30
0.000000000000000
 40
0.6000000000000000
100
AcDbArc
 50
270.0000000000001
 51
450.0000000000001
  0
ARC
  5
4B
100
AcDbEntity
  8
A1
  6
CONTINUOUS
 62
7
100
AcDbCircle
 10
107.1145692783766
 20
92.70373233651188
 30
0.000000000000000
 40
0.6000000000000000
100
AcDbArc
 50
280.2348027607915
 51
460.2348027607889
  0
ARC
  5
4C
100
AcDbEntity
  8
A1
  6
CONTINUOUS
 62
7
100
AcDbCircle
 10
99.91456927837655
 20
80.90373233651215
 30
0.000000000000000
 40
0.6000000000000000
100
AcDbArc
 50
101.0035408517476
 51
281.0035408517449
  0
LINE
  5
4D
100
AcDbEntity
  8
A1
  6
CONTINUOUS
 62
7
100
AcDbLine
 10
99.91456927837663
 20
80.30373233651217
 30
0.000000000000000
 11
107.1145692783767
 21
80.30373233651218
 31
0.000000000000000
  0
ARC
  5
4E
100
AcDbEntity
  8
A1
  6
CONTINUOUS
 62
7
100
AcDbCircle
 10
99.91456927837655
 20
79.70373233651205
 30
0.000000000000000
 40
0.6000000000000000
100
AcDbArc
 50
90.00000000000000
 51
270.0000000000000
  0
ARC
  5
4F
100
AcDbEntity
  8
A1
  6
CONTINUOUS
 62
7
100
AcDbCircle
 10
107.1145692783766
 20
79.70373233651205
 30
0.000000000000000
 40
0.6000000000000000
100
AcDbArc
 50
270.0000000000000
 51
450.0000000000000
  0
LINE
  5
50
100
AcDbEntity
  8
A1
  6
CONTINUOUS
 62
7
100
AcDbLine
 10
107.1145692783767
 20
79.10373233651214
 30
0.000000000000000
 11
99.91456927837663
 21
79.10373233651212
 31
0.000000000000000
  0
ARC
  5
51
100
AcDbEntity
  8
A1
  6
CONTINUOUS
 62
7
100
AcDbCircle
 10
107.1145692783766
 20
90.10373233651185
 30
0.000000000000000
 40
0.6000000000000000
100
AcDbArc
 50
280.2348027607915
 51
460.2348027607916
  0
ARC
  5
52
100
AcDbEntity
  8
A1
  6
CONTINUOUS
 62
7
100
AcDbCircle
 10
107.1145692783766
 20
87.50373233651183
 30
0.000000000000000
 40
0.6000000000000000
100
AcDbArc
 50
280.2348027607915
 51
460.2348027607916
  0
ARC
  5
53
100
AcDbEntity
  8
A1
  6
CONTINUOUS
 62
7
100
AcDbCircle
 10
107.1145692783766
 20
84.90373233651181
 30
0.000000000000000
 40
0.6000000000000000
100
AcDbArc
 50
280.2348027607915
 51
460.2348027607916
  0
ARC
  5
54
100
AcDbEntity
  8
A1
  6
CONTINUOUS
 62
7
100
AcDbCircle
 10
107.1145692783766
 20
82.30373233651179
 30
0.000000000000000
 40
0.6000000000000000
100
AcDbArc
 50
281.0035408517449
 51
461.0035408517475
  0
ARC
  5
55
100
AcDbEntity
  8
A1
  6
CONTINUOUS
 62
7
100
AcDbCircle
 10
99.91456927837586
 20
91.40373233685332
 30
0.000000000000000
 40
0.6000000000000000
100
AcDbArc
 50
100.2348027607889
 51
280.2348027607915
  0
ARC
  5
56
100
AcDbEntity
  8
A1
  6
CONTINUOUS
 62
7
100
AcDbCircle
 10
99.91456927837586
 20
88.80373233685330
 30
0.000000000000000
 40
0.6000000000000000
100
AcDbArc
 50
100.2348027607916
 51
280.2348027607915
  0
ARC
  5
57
100
AcDbEntity
  8
A1
  6
CONTINUOUS
 62
7
100
AcDbCircle
 10
99.91456927837586
 20
86.20373233685328
 30
0.000000000000000
 40
0.6000000000000000
100
AcDbArc
 50
100.2348027607916
 51
280.2348027607915
  0
ARC
  5
58
100
AcDbEntity
  8
A1
  6
CONTINUOUS
 62
7
100
AcDbCircle
 10
99.91456927837586
 20
83.60373233685326
 30
0.000000000000000
 40
0.6000000000000000
100
AcDbArc
 50
100.2348027607916
 51
280.2348027607915
  0
LINE
  5
59
100
AcDbEntity
  8
A1
  6
CONTINUOUS
 62
7
100
AcDbLine
 10
107.0079597601180
 20
93.29418505317656
 30
0.000000000000000
 11
99.80795976011726
 21
91.99418505351801
 31
0.000000000000000
  0
LINE
  5
5A
100
AcDbEntity
  8
A1
  6
CONTINUOUS
 62
7
100
AcDbLine
 10
100.0211787966346
 20
90.81327962018875
 30
0.000000000000000
 11
107.2211787966353
 21
92.11327961984729
 31
0.000000000000000
  0
LINE
  5
5B
100
AcDbEntity
  8
A1
  6
CONTINUOUS
 62
7
100
AcDbLine
 10
99.80795976011723
 20
89.39418505351793
 30
0.000000000000000
 11
107.0079597601179
 21
90.69418505317648
 31
0.000000000000000
  0
LINE
  5
5C
100
AcDbEntity
  8
A1
  6
CONTINUOUS
 62
7
100
AcDbLine
 10
107.2211787966353
 20
89.51327961984720
 30
0.000000000000000
 11
100.0211787966346
 21
88.21327962018866
 31
0.000000000000000
  0
LINE
  5
5D
100
AcDbEntity
  8
A1
  6
CONTINUOUS
 62
7
100
AcDbLine
 10
99.80795976011728
 20
86.79418505351791
 30
0.000000000000000
 11
107.0079597601180
 21
88.09418505317646
 31
0.000000000000000
  0
LINE
  5
5E
100
AcDbEntity
  8
A1
  6
CONTINUOUS
 62
7
100
AcDbLine
 10
107.2211787966353
 20
86.91327961984723
 30
0.000000000000000
 11
100.0211787966346
 21
85.61327962018869
 31
0.000000000000000
  0
LINE
  5
5F
100
AcDbEntity
  8
A1
  6
CONTINUOUS
 62
7
100
AcDbLine
 10
99.80795976011723
 20
84.19418505351788
 30
0.000000000000000
 11
107.0079597601179
 21
85.49418505317642
 31
0.000000000000000
  0
LINE
  5
60
100
AcDbEntity
  8
A1
  6
CONTINUOUS
 62
7
100
AcDbLine
 10
107.2211787966353
 20
84.31327961984717
 30
0.000000000000000
 11
100.0211787966346
 21
83.01327962018863
 31
0.000000000000000
  0
LINE
  5
61
100
AcDbEntity
  8
A1
  6
CONTINUOUS
 62
7
100
AcDbLine
 10
99.80004748291523
 20
81.49270157031329
 30
0.000000000000000
 11
107.0000474829153
 21
82.89270157031292
 31
0.000000000000000
  0
LINE
  5
62
100
AcDbEntity
  8
A1
  6
CONTINUOUS
 62
7
100
AcDbLine
 10
107.2290910738379
 20
81.71476310271062
 30
0.000000000000000
 11
100.0290910738378
 21
80.31476310271098
 31
0.000000000000000
  0
LINE
  5
63
100
AcDbEntity
  8
A1
  6
CONTINUOUS
 62
7
100
AcDbLine
 10
103.5145692783766
 20
93.30373233651201
 30
0.000000000000000
 11
103.5145692783766
 21
92.66343399413898
 31
0.000000000000000
  0
LINE
  5
64
100
AcDbEntity
  8
A1
  6
CONTINUOUS
 62
7
100
AcDbLine
 10
102.0145692783766
 20
96.00898133651206
 30
0.000000000000000
 11
102.0145692783766
 21
94.50373233651202
 31
0.000000000000000
  0
LINE
  5
65
100
AcDbEntity
  8
A1
  6
CONTINUOUS
 62
7
100
AcDbLine
 10
103.5145692783766
 20
97.00898133651222
 30
0.000000000000000
 11
103.5145692783766
 21
94.50373233651203
 31
0.000000000000000
  0
LINE
  5
66
100
AcDbEntity
  8
A1
  6
CONTINUOUS
 62
7
100
AcDbLine
 10
103.5145692783765
 20
96.00898133651208
 30
0.000000000000000
 11
103.5145692783765
 21
94.50373233651214
 31
0.000000000000000
  0
LINE
  5
67
100
AcDbEntity
  8
A1
  6
CONTINUOUS
 62
7
100
AcDbLine
 10
105.0145692783766
 20
97.00898133651206
 30
0.000000000000000
 11
105.0145692783766
 21
94.50373233651213
 31
0.000000000000000
  0
LINE
  5
68
100
AcDbEntity
  8
A1
  6
CONTINUOUS
 62
7
100
AcDbLine
 10
106.1645692783764
 20
98.50898133651212
 30
0.000000000000000
 11
104.5145692783766
 21
98.50898133651215
 31
0.000000000000000
  0
LINE
  5
69
100
AcDbEntity
  8
A1
  6
CONTINUOUS
 62
7
100
AcDbLine
 10
106.1645692783764
 20
97.00898133651214
 30
0.000000000000000
 11
103.5145692783766
 21
97.00898133651219
 31
0.000000000000000
  0
ARC
  5
6A
100
AcDbEntity
  8
A1
  6
CONTINUOUS
 62
7
100
AcDbCircle
 10
106.1645692783764
 20
99.50898133651205
 30
0.000000000000000
 40
1.000000000000000
100
AcDbArc
 50
270.0000000000002
 51
360.0000000000002
  0
ARC
  5
6B
100
AcDbEntity
  8
A1
  6
CONTINUOUS
 62
7
100
AcDbCircle
 10
106.1645692783764
 20
99.50898133651205
 30
0.000000000000000
 40
2.500000000000000
100
AcDbArc
 50
270.0000000000002
 51
360.0000000000002
  0
ARC
  5
6C
100
AcDbEntity
  8
A1
  6
CONTINUOUS
 62
7
100
AcDbCircle
 10
104.5145692783766
 20
96.00898133651205
 30
0.000000000000000
 40
2.500000000000000
100
AcDbArc
 50
90.00000000000020
 51
180.0000000000002
  0
LINE
  5
6D
100
AcDbEntity
  8
A1
  6
CONTINUOUS
 62
7
100
AcDbLine
 10
107.1645692783766
 20
73.45021404964299
 30
0.000000000000000
 11
107.1645692783766
 21
66.40373233651215
 31
0.000000000000000
  0
LINE
  5
6E
100
AcDbEntity
  8
A1
  6
CONTINUOUS
 62
7
100
AcDbLine
 10
102.0145692783767
 20
76.60373233651215
 30
0.000000000000000
 11
103.5145692783767
 21
76.60373233651215
 31
0.000000000000000
  0
LINE
  5
6F
100
AcDbEntity
  8
A1
  6
CONTINUOUS
 62
7
100
AcDbLine
 10
105.0145692783768
 20
79.10373233651211
 30
0.000000000000000
 11
105.0145692783768
 21
77.82414454262400
 31
0.000000000000000
  0
LINE
  5
70
100
AcDbEntity
  8
A1
  6
CONTINUOUS
 62
7
100
AcDbLine
 10
103.5145692783768
 20
79.10373233651210
 30
0.000000000000000
 11
103.5145692783768
 21
77.82250125126352
 31
0.000000000000000
  0
LINE
  5
71
100
AcDbEntity
  8
A1
  6
CONTINUOUS
 62
7
100
AcDbLine
 10
103.5145692783766
 20
79.10373233651215
 30
0.000000000000000
 11
103.5145692783766
 21
76.60373233651215
 31
0.000000000000000
  0
LINE
  5
72
100
AcDbEntity
  8
A1
  6
CONTINUOUS
 62
7
100
AcDbLine
 10
102.0145692783766
 20
79.10373233651215
 30
0.000000000000000
 11
102.0145692783766
 21
76.60373233651215
 31
0.000000000000000
  0
ARC
  5
73
100
AcDbEntity
  8
A1
  6
CONTINUOUS
 62
7
100
AcDbCircle
 10
107.1645692783765
 20
73.45021404964311
 30
0.000000000000000
 40
1.500000000000000
100
AcDbArc
 50
2.035554996136651e-13
 51
44.10120267838633
  0
ARC
  5
74
100
AcDbEntity
  8
A1
  6
CONTINUOUS
 62
7
100
AcDbCircle
 10
105.0145692783766
 20
77.82250125126362
 30
0.000000000000000
 40
1.500000000000000
100
AcDbArc
 50
180.0000000000002
 51
221.8637235246549
  0
LINE
  5
75
100
AcDbEntity
  8
A1
  6
CONTINUOUS
 62
7
100
AcDbLine
 10
106.6645692783765
 20
72.20373233651216
 30
0.000000000000000
 11
106.6645692783765
 21
69.60373233651214
 31
0.000000000000000
  0
LINE
  5
76
100
AcDbEntity
  8
A1
  6
CONTINUOUS
 62
7
100
AcDbLine
 10
106.6645692783765
 20
72.20373233651216
 30
0.000000000000000
 11
107.1645692783765
 21
72.20373233651216
 31
0.000000000000000
  0
LINE
  5
77
100
AcDbEntity
  8
A1
  6
CONTINUOUS
 62
7
100
AcDbLine
 10
106.6645692783765
 20
69.60373233651214
 30
0.000000000000000
 11
107.1645692783765
 21
69.60373233651214
 31
0.000000000000000
  0
LINE
  5
78
100
AcDbEntity
  8
A1
  6
CONTINUOUS
 62
7
100
AcDbLine
 10
108.6645692783765
 20
73.45021404964311
 30
0.000000000000000
 11
108.6645692783765
 21
66.40373233651215
 31
0.000000000000000
  0
LINE
  5
79
100
AcDbEntity
  8
A1
  6
CONTINUOUS
 62
7
100
AcDbLine
 10
108.6645692783764
 20
108.6037323365121
 30
0.000000000000000
 11
108.6645692783764
 21
99.50898133651205
 31
0.000000000000000
  0
LINE
  5
7A
100
AcDbEntity
  8
A1
  6
CONTINUOUS
 62
7
100
AcDbLine
 10
107.1645692783764
 20
108.6037323365121
 30
0.000000000000000
 11
107.1645692783764
 21
99.50898133651205
 31
0.000000000000000
  0
LINE
  5
7B
100
AcDbEntity
  8
A1
  6
CONTINUOUS
 62
7
100
AcDbLine
 10
107.1645692783764
 20
108.6037323365121
 30
0.000000000000000
 11
108.6645692783764
 21
108.6037323365121
 31
0.000000000000000
  0
LINE
  5
7C
100
AcDbEntity
  8
A4
  6
CENTER
 62
1
100
AcDbLine
 10
105.6355946914203
 20
105.9571925035472
 30
0.000000000000000
 11
128.6979268787367
 21
105.9571925035472
 31
0.000000000000000
  0
LINE
  5
7D
100
AcDbEntity
  8
A1
  6
CONTINUOUS
 62
7
100
AcDbLine
 10
108.6645686678391
 20
104.4571925035472
 30
0.000000000000000
 11
125.6645686678391
 21
104.4571925035472
 31
0.000000000000000
  0
LINE
  5
7E
100
AcDbEntity
  8
A1
  6
CONTINUOUS
 62
7
100
AcDbLine
 10
108.6645686678391
 20
107.4571925035472
 30
0.000000000000000
 11
125.6645686678391
 21
107.4571925035472
 31
0.000000000000000
  0
LINE
  5
7F
100
AcDbEntity
  8
A1
  6
CONTINUOUS
 62
7
100
AcDbLine
 10
125.1645686678408
 20
91.60719250354708
 30
0.000000000000000
 11
125.1645686678409
 21
66.80719250354696
 31
0.000000000000000
  0
LINE
  5
80
100
AcDbEntity
  8
A1
  6
CONTINUOUS
 62
7
100
AcDbLine
 10
109.1645686678408
 20
91.60719250354705
 30
0.000000000000000
 11
109.1645686678409
 21
66.80719250354693
 31
0.000000000000000
  0
LINE
  5
81
100
AcDbEntity
  8
A1
  6
CONTINUOUS
 62
7
100
AcDbLine
 10
120.8816892047607
 20
66.80719250354720
 30
0.000000000000000
 11
113.6568974250505
 21
66.80719250354718
 31
0.000000000000000
  0
LINE
  5
82
100
AcDbEntity
  8
A4
  6
CENTER
 62
1
100
AcDbLine
 10
120.7645686678408
 20
58.60719250354715
 30
0.000000000000000
 11
113.5645686678409
 21
58.60719250354715
 31
0.000000000000000
  0
LINE
  5
83
100
AcDbEntity
  8
A4
  6
CENTER
 62
1
100
AcDbLine
 10
120.7645686678408
 20
72.60719250354715
 30
0.000000000000000
 11
113.5645686678409
 21
72.60719250354715
 31
0.000000000000000
  0
LINE
  5
84
100
AcDbEntity
  8
A3
  6
DASHED
 62
2
100
AcDbLine
 10
123.1645686678424
 20
67.40719250354702
 30
0.000000000000000
 11
125.1645686678408
 21
67.40719250354704
 31
0.000000000000000
  0
LINE
  5
85
100
AcDbEntity
  8
A3
  6
DASHED
 62
2
100
AcDbLine
 10
111.1645686678393
 20
67.40719250354694
 30
0.000000000000000
 11
109.1645686678408
 21
67.40719250354695
 31
0.000000000000000
  0
LINE
  5
86
100
AcDbEntity
  8
A1
  6
CONTINUOUS
 62
7
100
AcDbLine
 10
111.1645686678408
 20
66.80719250354690
 30
0.000000000000000
 11
111.1645686678409
 21
56.80719250354696
 31
0.000000000000000
  0
LINE
  5
87
100
AcDbEntity
  8
A1
  6
CONTINUOUS
 62
7
100
AcDbLine
 10
123.1645686678408
 20
66.80719250354691
 30
0.000000000000000
 11
123.1645686678409
 21
56.80719250354709
 31
0.000000000000000
  0
ARC
  5
88
100
AcDbEntity
  8
A1
  6
CONTINUOUS
 62
7
100
AcDbCircle
 10
117.1645686678408
 20
56.80719250354703
 30
0.000000000000000
 40
6.000000000000000
100
AcDbArc
 50
180.0000000000000
 51
360.0000000000000
  0
ARC
  5
89
100
AcDbEntity
  8
A1
  6
CONTINUOUS
 62
7
100
AcDbCircle
 10
117.1645686678409
 20
57.60457853406713
 30
0.000000000000000
 40
5.999999999999986
100
AcDbArc
 50
180.0000000000000
 51
360.0000000000000
  0
ARC
  5
8A
100
AcDbEntity
  8
A3
  6
DASHED
 62
2
100
AcDbCircle
 10
117.1645686678408
 20
60.10719250354715
 30
0.000000000000000
 40
6.000000000000014
100
AcDbArc
 50
180.0000000000000
 51
360.0000000000000
  0
LINE
  5
8B
100
AcDbEntity
  8
A3
  6
DASHED
 62
2
100
AcDbLine
 10
123.1645686678415
 20
66.80719250354691
 30
0.000000000000000
 11
123.1645686678424
 21
67.40719250354739
 31
0.000000000000000
  0
LINE
  5
8C
100
AcDbEntity
  8
A3
  6
DASHED
 62
2
100
AcDbLine
 10
111.1645686678403
 20
66.80719250354691
 30
0.000000000000000
 11
111.1645686678393
 21
67.40719250354739
 31
0.000000000000000
  0
LINE
  5
8D
100
AcDbEntity
  8
A1
  6
CONTINUOUS
 62
7
100
AcDbLine
 10
125.1645686678408
 20
91.60719250354707
 30
0.000000000000000
 11
109.1645686678408
 21
91.60719250354705
 31
0.000000000000000
  0
LINE
  5
8E
100
AcDbEntity
  8
A1
  6
CONTINUOUS
 62
7
100
AcDbLine
 10
61.29546094695139
 20
94.50372879773204
 30
0.000000000000000
 11
52.29140912158876
 21
94.50372879773204
 31
0.000000000000000
  0
ARC
  5
8F
100
AcDbEntity
  8
A1
  6
CONTINUOUS
 62
7
100
AcDbCircle
 10
61.29541888827461
 20
96.50897950354724
 30
0.000000000000000
 40
0.5000000000000000
100
AcDbArc
 50
1.768599999999876
 51
89.99999999999893
  0
ARC
  5
90
100
AcDbEntity
  8
A1
  6
CONTINUOUS
 62
7
100
AcDbCircle
 10
52.29140912158877
 20
96.50897950354724
 30
0.000000000000000
 40
0.5000000000000000
100
AcDbArc
 50
90.00000000000057
 51
181.7685999999999
  0
ARC
  5
91
100
AcDbEntity
  8
A1
  6
CONTINUOUS
 62
7
100
AcDbCircle
 10
52.29140912158877
 20
95.00372879773218
 30
0.000000000000000
 40
0.5000000000000000
100
AcDbArc
 50
181.7685999999999
 51
270.0000000000006
  0
ARC
  5
92
100
AcDbEntity
  8
A1
  6
CONTINUOUS
 62
7
100
AcDbCircle
 10
61.29546094695138
 20
95.00372879773212
 30
0.000000000000000
 40
0.5000000000000000
100
AcDbArc
 50
270.0000000000006
 51
361.7685999999999
  0
ARC
  5
93
100
AcDbEntity
  8
A1
  6
CONTINUOUS
 62
7
100
AcDbCircle
 10
99.91456927837652
 20
93.90373233651198
 30
0.000000000000000
 40
0.6000000000000000
100
AcDbArc
 50
90.00000000000000
 51
270.0000000000000
  0
LINE
  5
94
100
AcDbEntity
  8
A1
  6
CONTINUOUS
 62
7
100
AcDbLine
 10
63.79345064661925
 20
66.80719250354697
 30
0.000000000000000
 11
58.10900018531490
 21
66.80719250354697
 31
0.000000000000000
  0
LINE
  5
95
100
AcDbEntity
  8
A1
  6
CONTINUOUS
 62
7
100
AcDbLine
 10
50.79345064661929
 20
76.11024754170212
 30
0.000000000000000
 11
50.79345064661932
 21
54.10719250354725
 31
0.000000000000000
  0
LINE
  5
96
100
AcDbEntity
  8
A1
  6
CONTINUOUS
 62
7
100
AcDbLine
 10
50.79345064661931
 20
67.40719250354699
 30
0.000000000000000
 11
52.79345064661931
 21
67.40719250354699
 31
0.000000000000000
  0
LINE
  5
97
100
AcDbEntity
  8
A4
  6
CENTER
 62
1
100
AcDbLine
 10
49.29345064661928
 20
72.60719250354721
 30
0.000000000000000
 11
53.79345064661928
 21
72.60719250354721
 31
0.000000000000000
  0
LINE
  5
98
100
AcDbEntity
  8
A4
  6
CENTER
 62
1
100
AcDbLine
 10
49.29345064661931
 20
58.60719250354721
 30
0.000000000000000
 11
53.79345064661931
 21
58.60719250354722
 31
0.000000000000000
  0
LINE
  5
99
100
AcDbEntity
  8
A1
  6
CONTINUOUS
 62
7
100
AcDbLine
 10
59.24719029598560
 20
76.60373220941233
 30
0.000000000000000
 11
59.24719701191080
 21
68.90373474552234
 31
0.000000000000000
  0
LINE
  5
9A
100
AcDbEntity
  8
A1
  6
CONTINUOUS
 62
7
100
AcDbLine
 10
52.79345064661929
 20
69.90719250354701
 30
0.000000000000000
 11
52.79345064661932
 21
54.10719250354722
 31
0.000000000000000
  0
LINE
  5
9B
100
AcDbEntity
  8
A1
  6
CONTINUOUS
 62
7
100
AcDbLine
 10
59.99345064661934
 20
51.60457853406724
 30
0.000000000000000
 11
58.60630410845859
 21
50.80719250354707
 31
0.000000000000000
  0
ARC
  5
9C
100
AcDbEntity
  8
A1
  6
CONTINUOUS
 62
7
100
AcDbCircle
 10
70.71117627529662
 20
57.00183314621900
 30
0.000000000000000
 40
12.00000000000000
100
AcDbArc
 50
125.2031426751035
 51
206.7290064627833
  0
ARC
  5
9D
100
AcDbEntity
  8
A1
  6
CONTINUOUS
 62
7
100
AcDbCircle
 10
70.71117627529662
 20
57.00183314621900
 30
0.000000000000000
 40
13.60000000000000
100
AcDbArc
 50
133.8643589260834
 51
207.1014342533745
  0
LINE
  5
9E
100
AcDbEntity
  8
A1
  6
CONTINUOUS
 62
7
100
AcDbLine
 10
63.79345064661919
 20
85.90719250354719
 30
0.000000000000000
 11
63.79345064661922
 21
66.80719250354696
 31
0.000000000000000
  0
LINE
  5
9F
100
AcDbEntity
  8
A4
  6
CENTER
 62
1
100
AcDbLine
 10
60.29345064661931
 20
70.90373233651221
 30
0.000000000000000
 11
53.29345064661931
 21
70.90373233651221
 31
0.000000000000000
  0
LINE
  5
A0
100
AcDbEntity
  8
A4
  6
CENTER
 62
1
100
AcDbLine
 10
56.79345064661931
 20
73.90373233651221
 30
0.000000000000000
 11
56.79345064661931
 21
66.90373233651221
 31
0.000000000000000
  0
CIRCLE
  5
A1
100
AcDbEntity
  8
A1
  6
CONTINUOUS
 62
7
100
AcDbCircle
 10
56.79345064661931
 20
70.90373233651221
 30
0.000000000000000
 40
1.300000000000000
  0
LINE
  5
A2
100
AcDbEntity
  8
A1
  6
CONTINUOUS
 62
7
100
AcDbLine
 10
58.44050235761794
 20
98.50898133651211
 30
0.000000000000000
 11
55.00197190426893
 21
98.50898133651211
 31
0.000000000000000
  0
LINE
  5
A3
100
AcDbEntity
  8
A1
  6
CONTINUOUS
 62
7
100
AcDbLine
 10
51.79164730938211
 20
96.49354800783479
 30
0.000000000000000
 11
51.79164730938211
 21
94.98829730201973
 31
0.000000000000000
  0
LINE
  5
A4
100
AcDbEntity
  8
A1
  6
CONTINUOUS
 62
7
100
AcDbLine
 10
61.79518070048127
 20
96.52441099925969
 30
0.000000000000000
 11
61.79518070048127
 21
95.01916029344457
 31
0.000000000000000
  0
LINE
  5
A5
100
AcDbEntity
  8
A1
  6
CONTINUOUS
 62
7
100
AcDbLine
 10
53.19345064661935
 20
93.30373050354696
 30
0.000000000000000
 11
60.39345064661939
 21
93.30373050354697
 31
0.000000000000000
  0
ARC
  5
A6
100
AcDbEntity
  8
A1
  6
CONTINUOUS
 62
7
100
AcDbCircle
 10
60.39345064661933
 20
93.90373050354683
 30
0.000000000000000
 40
0.6000000000000000
100
AcDbArc
 50
270.0000000000001
 51
450.0000000000001
  0
ARC
  5
A7
100
AcDbEntity
  8
A1
  6
CONTINUOUS
 62
7
100
AcDbCircle
 10
60.39345064661933
 20
92.70373050354678
 30
0.000000000000000
 40
0.6000000000000000
100
AcDbArc
 50
280.2348027607915
 51
460.2348027607889
  0
ARC
  5
A8
100
AcDbEntity
  8
A1
  6
CONTINUOUS
 62
7
100
AcDbCircle
 10
53.19345064661928
 20
80.90373050354705
 30
0.000000000000000
 40
0.6000000000000000
100
AcDbArc
 50
101.0035408517476
 51
281.0035408517449
  0
LINE
  5
A9
100
AcDbEntity
  8
A1
  6
CONTINUOUS
 62
7
100
AcDbLine
 10
53.19345064661936
 20
80.30373050354707
 30
0.000000000000000
 11
60.39345064661941
 21
80.30373050354709
 31
0.000000000000000
  0
ARC
  5
AA
100
AcDbEntity
  8
A1
  6
CONTINUOUS
 62
7
100
AcDbCircle
 10
53.19345064661928
 20
79.70373050354695
 30
0.000000000000000
 40
0.6000000000000000
100
AcDbArc
 50
90.00000000000000
 51
270.0000000000000
  0
ARC
  5
AB
100
AcDbEntity
  8
A1
  6
CONTINUOUS
 62
7
100
AcDbCircle
 10
60.39345064661933
 20
79.70373050354695
 30
0.000000000000000
 40
0.6000000000000000
100
AcDbArc
 50
270.0000000000000
 51
450.0000000000000
  0
ARC
  5
AC
100
AcDbEntity
  8
A1
  6
CONTINUOUS
 62
7
100
AcDbCircle
 10
60.39345064661933
 20
90.10373050354676
 30
0.000000000000000
 40
0.6000000000000000
100
AcDbArc
 50
280.2348027607915
 51
460.2348027607916
  0
ARC
  5
AD
100
AcDbEntity
  8
A1
  6
CONTINUOUS
 62
7
100
AcDbCircle
 10
60.39345064661933
 20
87.50373050354673
 30
0.000000000000000
 40
0.6000000000000000
100
AcDbArc
 50
280.2348027607915
 51
460.2348027607916
  0
ARC
  5
AE
100
AcDbEntity
  8
A1
  6
CONTINUOUS
 62
7
100
AcDbCircle
 10
60.39345064661933
 20
84.90373050354671
 30
0.000000000000000
 40
0.6000000000000000
100
AcDbArc
 50
280.2348027607915
 51
460.2348027607916
  0
ARC
  5
AF
100
AcDbEntity
  8
A1
  6
CONTINUOUS
 62
7
100
AcDbCircle
 10
60.39345064661933
 20
82.30373050354669
 30
0.000000000000000
 40
0.6000000000000000
100
AcDbArc
 50
281.0035408517449
 51
461.0035408517475
  0
ARC
  5
B0
100
AcDbEntity
  8
A1
  6
CONTINUOUS
 62
7
100
AcDbCircle
 10
53.19345064661860
 20
91.40373050388823
 30
0.000000000000000
 40
0.6000000000000000
100
AcDbArc
 50
100.2348027607889
 51
280.2348027607915
  0
ARC
  5
B1
100
AcDbEntity
  8
A1
  6
CONTINUOUS
 62
7
100
AcDbCircle
 10
53.19345064661860
 20
88.80373050388820
 30
0.000000000000000
 40
0.6000000000000000
100
AcDbArc
 50
100.2348027607916
 51
280.2348027607915
  0
ARC
  5
B2
100
AcDbEntity
  8
A1
  6
CONTINUOUS
 62
7
100
AcDbCircle
 10
53.19345064661860
 20
86.20373050388818
 30
0.000000000000000
 40
0.6000000000000000
100
AcDbArc
 50
100.2348027607916
 51
280.2348027607915
  0
ARC
  5
B3
100
AcDbEntity
  8
A1
  6
CONTINUOUS
 62
7
100
AcDbCircle
 10
53.19345064661860
 20
83.60373050388816
 30
0.000000000000000
 40
0.6000000000000000
100
AcDbArc
 50
100.2348027607916
 51
280.2348027607915
  0
LINE
  5
B4
100
AcDbEntity
  8
A1
  6
CONTINUOUS
 62
7
100
AcDbLine
 10
60.28684112836071
 20
93.29418322021141
 30
0.000000000000000
 11
53.08684112836001
 21
91.99418322055286
 31
0.000000000000000
  0
LINE
  5
B5
100
AcDbEntity
  8
A1
  6
CONTINUOUS
 62
7
100
AcDbLine
 10
53.30006016487733
 20
90.81327778722361
 30
0.000000000000000
 11
60.50006016487803
 21
92.11327778688216
 31
0.000000000000000
  0
LINE
  5
B6
100
AcDbEntity
  8
A1
  6
CONTINUOUS
 62
7
100
AcDbLine
 10
53.08684112835996
 20
89.39418322055283
 30
0.000000000000000
 11
60.28684112836066
 21
90.69418322021137
 31
0.000000000000000
  0
LINE
  5
B7
100
AcDbEntity
  8
A1
  6
CONTINUOUS
 62
7
100
AcDbLine
 10
60.50006016487804
 20
89.51327778688209
 30
0.000000000000000
 11
53.30006016487734
 21
88.21327778722355
 31
0.000000000000000
  0
LINE
  5
B8
100
AcDbEntity
  8
A1
  6
CONTINUOUS
 62
7
100
AcDbLine
 10
53.08684112836002
 20
86.79418322055280
 30
0.000000000000000
 11
60.28684112836072
 21
88.09418322021133
 31
0.000000000000000
  0
LINE
  5
B9
100
AcDbEntity
  8
A1
  6
CONTINUOUS
 62
7
100
AcDbLine
 10
60.50006016487802
 20
86.91327778688212
 30
0.000000000000000
 11
53.30006016487732
 21
85.61327778722358
 31
0.000000000000000
  0
LINE
  5
BA
100
AcDbEntity
  8
A1
  6
CONTINUOUS
 62
7
100
AcDbLine
 10
53.08684112835996
 20
84.19418322055276
 30
0.000000000000000
 11
60.28684112836066
 21
85.49418322021131
 31
0.000000000000000
  0
LINE
  5
BB
100
AcDbEntity
  8
A1
  6
CONTINUOUS
 62
7
100
AcDbLine
 10
60.50006016487804
 20
84.31327778688205
 30
0.000000000000000
 11
53.30006016487734
 21
83.01327778722350
 31
0.000000000000000
  0
LINE
  5
BC
100
AcDbEntity
  8
A1
  6
CONTINUOUS
 62
7
100
AcDbLine
 10
53.07892885115797
 20
81.49269973734818
 30
0.000000000000000
 11
60.27892885115803
 21
82.89269973734781
 31
0.000000000000000
  0
LINE
  5
BD
100
AcDbEntity
  8
A1
  6
CONTINUOUS
 62
7
100
AcDbLine
 10
60.50797244208064
 20
81.71476126974551
 30
0.000000000000000
 11
53.30797244208058
 21
80.31476126974587
 31
0.000000000000000
  0
LINE
  5
BE
100
AcDbEntity
  8
A1
  6
CONTINUOUS
 62
7
100
AcDbLine
 10
53.08684112830558
 20
90.81327778723346
 30
0.000000000000000
 11
54.24776889873569
 21
90.60366582862856
 31
0.000000000000000
  0
LINE
  5
BF
100
AcDbEntity
  8
A1
  6
CONTINUOUS
 62
7
100
AcDbLine
 10
53.08684112830578
 20
88.21327778723330
 30
0.000000000000000
 11
54.24770024881013
 21
88.00367822375387
 31
0.000000000000000
  0
LINE
  5
C0
100
AcDbEntity
  8
A1
  6
CONTINUOUS
 62
7
100
AcDbLine
 10
53.08684112830562
 20
85.61327778723334
 30
0.000000000000000
 11
54.24763159888457
 21
85.40369061887935
 31
0.000000000000000
  0
LINE
  5
C1
100
AcDbEntity
  8
A1
  6
CONTINUOUS
 62
7
100
AcDbLine
 10
53.08684112830569
 20
83.01327778723339
 30
0.000000000000000
 11
54.24756294895897
 21
82.80370301400484
 31
0.000000000000000
  0
LINE
  5
C2
100
AcDbEntity
  8
A1
  6
CONTINUOUS
 62
7
100
AcDbLine
 10
59.24713332748139
 20
85.72040612146726
 30
0.000000000000000
 11
60.50006016493226
 21
85.49418322020148
 31
0.000000000000000
  0
LINE
  5
C3
100
AcDbEntity
  8
A1
  6
CONTINUOUS
 62
7
100
AcDbLine
 10
59.24713332748517
 20
88.32040612146669
 30
0.000000000000000
 11
60.50006016493217
 21
88.09418322020159
 31
0.000000000000000
  0
LINE
  5
C4
100
AcDbEntity
  8
A1
  6
CONTINUOUS
 62
7
100
AcDbLine
 10
59.24713332748900
 20
90.92040612146599
 30
0.000000000000000
 11
60.69491784190825
 21
90.65900058407166
 31
0.000000000000000
  0
LINE
  5
C5
100
AcDbEntity
  8
A1
  6
CONTINUOUS
 62
7
100
AcDbLine
 10
59.24713332747761
 20
83.12040612146794
 30
0.000000000000000
 11
60.50006016493229
 21
82.89418322020144
 31
0.000000000000000
  0
LINE
  5
C6
100
AcDbEntity
  8
A1
  6
CONTINUOUS
 62
7
100
AcDbLine
 10
59.24713332747380
 20
80.50305964310088
 30
0.000000000000000
 11
60.49209003900279
 21
80.29556685784604
 31
0.000000000000000
  0
ARC
  5
C7
100
AcDbEntity
  8
A1
  6
CONTINUOUS
 62
7
100
AcDbCircle
 10
53.19345064661925
 20
93.90373050354688
 30
0.000000000000000
 40
0.6000000000000000
100
AcDbArc
 50
90.00000000000000
 51
270.0000000000000
  0
LINE
  5
C8
100
AcDbEntity
  8
A1
  6
CONTINUOUS
 62
7
100
AcDbLine
 10
52.29140912156272
 20
79.10373050354659
 30
0.000000000000000
 11
61.29541888824856
 21
79.10373050354659
 31
0.000000000000000
  0
ARC
  5
C9
100
AcDbEntity
  8
A1
  6
CONTINUOUS
 62
7
100
AcDbCircle
 10
61.29541888824858
 20
78.60373050354670
 30
0.000000000000000
 40
0.5000000000000000
100
AcDbArc
 50
1.768599999999876
 51
89.99999999999893
  0
ARC
  5
CA
100
AcDbEntity
  8
A1
  6
CONTINUOUS
 62
7
100
AcDbCircle
 10
52.29140912156274
 20
78.60373050354670
 30
0.000000000000000
 40
0.5000000000000000
100
AcDbArc
 50
90.00000000000057
 51
181.7685999999999
  0
LINE
  5
CB
100
AcDbEntity
  8
A1
  6
CONTINUOUS
 62
7
100
AcDbLine
 10
61.29546094692536
 20
76.60373050359732
 30
0.000000000000000
 11
52.29140912156272
 21
76.60373050359732
 31
0.000000000000000
  0
ARC
  5
CC
100
AcDbEntity
  8
A1
  6
CONTINUOUS
 62
7
100
AcDbCircle
 10
52.29140912156274
 20
77.10373050359746
 30
0.000000000000000
 40
0.5000000000000000
100
AcDbArc
 50
181.7685999999999
 51
270.0000000000006
  0
ARC
  5
CD
100
AcDbEntity
  8
A1
  6
CONTINUOUS
 62
7
100
AcDbCircle
 10
61.29546094692535
 20
77.10373050359740
 30
0.000000000000000
 40
0.5000000000000000
100
AcDbArc
 50
270.0000000000006
 51
361.7685999999999
  0
LINE
  5
CE
100
AcDbEntity
  8
A1
  6
CONTINUOUS
 62
7
100
AcDbLine
 10
53.19345064659331
 20
76.60373220941229
 30
0.000000000000000
 11
60.39345064659335
 21
76.60373220941230
 31
0.000000000000000
  0
LINE
  5
CF
100
AcDbEntity
  8
A1
  6
CONTINUOUS
 62
7
100
AcDbLine
 10
61.79518070045524
 20
78.61916199925915
 30
0.000000000000000
 11
61.79518070045524
 21
77.11916199930985
 31
0.000000000000000
  0
LINE
  5
D0
100
AcDbEntity
  8
A1
  6
CONTINUOUS
 62
7
100
AcDbLine
 10
51.79164730935609
 20
78.58829900783425
 30
0.000000000000000
 11
51.79164730935609
 21
77.08829900788501
 31
0.000000000000000
  0
ARC
  5
D1
100
AcDbEntity
  8
A1
  6
CONTINUOUS
 62
7
100
AcDbCircle
 10
52.79345064661931
 20
76.11024754170208
 30
0.000000000000000
 40
2.000000000000000
100
AcDbArc
 50
120.0596718674171
 51
180.0000000000000
  0
LINE
  5
D2
100
AcDbEntity
  8
A1
  6
CONTINUOUS
 62
7
100
AcDbLine
 10
52.79345064661926
 20
76.60373050359729
 30
0.000000000000000
 11
52.79345064661931
 21
69.90719250354701
 31
0.000000000000000
  0
LINE
  5
D3
100
AcDbEntity
  8
A1
  6
CONTINUOUS
 62
7
100
AcDbLine
 10
52.79345064661931
 20
54.10719250354721
 30
0.000000000000000
 11
50.79345064661931
 21
54.10719250354721
 31
0.000000000000000
  0
LINE
  5
D4
100
AcDbEntity
  8
A1
  6
CONTINUOUS
 62
7
100
AcDbLine
 10
54.24719365030767
 20
68.90373038452198
 30
0.000000000000000
 11
54.24719365031012
 21
76.60373050359158
 31
0.000000000000000
  0
LINE
  5
D5
100
AcDbEntity
  8
A1
  6
CONTINUOUS
 62
7
100
AcDbLine
 10
109.1645686678409
 20
66.80719250354691
 30
0.000000000000000
 11
111.1645686678408
 21
66.80719250354691
 31
0.000000000000000
  0
LINE
  5
D6
100
AcDbEntity
  8
A1
  6
CONTINUOUS
 62
7
100
AcDbLine
 10
123.1645686678408
 20
66.80719250354691
 30
0.000000000000000
 11
125.1645686678409
 21
66.80719250354691
 31
0.000000000000000
  0
LINE
  5
D7
100
AcDbEntity
  8
A1
  6
CONTINUOUS
 62
7
100
AcDbLine
 10
52.29140912158876
 20
97.00897950354712
 30
0.000000000000000
 11
54.24793802427544
 21
97.00897950354712
 31
0.000000000000000
  0
LINE
  5
D8
100
AcDbEntity
  8
A1
  6
CONTINUOUS
 62
7
100
AcDbLine
 10
59.24713332749779
 20
97.00897950354712
 30
0.000000000000000
 11
61.29541888827460
 21
97.00897950354712
 31
0.000000000000000
  0
LINE
  5
D9
100
AcDbEntity
  8
A1
  6
CONTINUOUS
 62
7
100
AcDbLine
 10
59.24713332749415
 20
94.50373050354702
 30
0.000000000000000
 11
60.39345064661940
 21
94.50373050354702
 31
0.000000000000000
  0
LINE
  5
DA
100
AcDbEntity
  8
A1
  6
CONTINUOUS
 62
7
100
AcDbLine
 10
54.24803908470365
 20
100.8364543127217
 30
0.000000000000000
 11
54.24787187577755
 21
94.50372879773205
 31
0.000000000000000
  0
LINE
  5
DB
100
AcDbEntity
  8
A1
  6
CONTINUOUS
 62
7
100
AcDbLine
 10
59.24713332750336
 20
100.8364543127130
 30
0.000000000000000
 11
59.24713332749415
 21
94.50372879773212
 31
0.000000000000000
  0
LINE
  5
DC
100
AcDbEntity
  8
A1
  6
CONTINUOUS
 62
7
100
AcDbLine
 10
59.24713332749243
 20
93.30373050354699
 30
0.000000000000000
 11
59.24713332749214
 21
93.10645820065939
 31
0.000000000000000
  0
LINE
  5
DD
100
AcDbEntity
  8
A1
  6
CONTINUOUS
 62
7
100
AcDbLine
 10
54.24784019109054
 20
93.30373050354694
 30
0.000000000000000
 11
54.24781114866190
 21
92.20380280749667
 31
0.000000000000000
  0
LINE
  5
DE
100
AcDbEntity
  8
A1
  6
CONTINUOUS
 62
7
100
AcDbLine
 10
54.24777895145232
 20
90.98439367919902
 30
0.000000000000000
 11
54.24774249808179
 21
89.60379041225295
 31
0.000000000000000
  0
LINE
  5
DF
100
AcDbEntity
  8
A1
  6
CONTINUOUS
 62
7
100
AcDbLine
 10
59.24713332749035
 20
91.88705488574651
 30
0.000000000000000
 11
59.24713332748835
 21
90.50645820065868
 31
0.000000000000000
  0
LINE
  5
E0
100
AcDbEntity
  8
A1
  6
CONTINUOUS
 62
7
100
AcDbLine
 10
59.24713332748658
 20
89.28705488574580
 30
0.000000000000000
 11
59.24713332748458
 21
87.90645820065798
 31
0.000000000000000
  0
LINE
  5
E1
100
AcDbEntity
  8
A1
  6
CONTINUOUS
 62
7
100
AcDbLine
 10
54.24771030087221
 20
88.38438128395534
 30
0.000000000000000
 11
54.24767384750168
 21
87.00377801700931
 31
0.000000000000000
  0
LINE
  5
E2
100
AcDbEntity
  8
A1
  6
CONTINUOUS
 62
7
100
AcDbLine
 10
59.24713332748279
 20
86.68705488574516
 30
0.000000000000000
 11
59.24713332748079
 21
85.30645820065727
 31
0.000000000000000
  0
LINE
  5
E3
100
AcDbEntity
  8
A1
  6
CONTINUOUS
 62
7
100
AcDbLine
 10
54.24764165029207
 20
85.78436888871173
 30
0.000000000000000
 11
54.24760519692154
 21
84.40376562176567
 31
0.000000000000000
  0
LINE
  5
E4
100
AcDbEntity
  8
A1
  6
CONTINUOUS
 62
7
100
AcDbLine
 10
54.24750205472115
 20
80.49744758331482
 30
0.000000000000000
 11
54.24749693982635
 21
80.30373050354703
 31
0.000000000000000
  0
LINE
  5
E5
100
AcDbEntity
  8
A1
  6
CONTINUOUS
 62
7
100
AcDbLine
 10
54.24757299971193
 20
83.18435649346803
 30
0.000000000000000
 11
54.24753433304022
 21
81.71992858104745
 31
0.000000000000000
  0
LINE
  5
E6
100
AcDbEntity
  8
A1
  6
CONTINUOUS
 62
7
100
AcDbLine
 10
59.24713332747523
 20
81.46959810857238
 30
0.000000000000000
 11
59.24713332747354
 21
80.30373050354713
 31
0.000000000000000
  0
LINE
  5
E7
100
AcDbEntity
  8
A1
  6
CONTINUOUS
 62
7
100
AcDbLine
 10
59.24713332747903
 20
84.08705488574442
 30
0.000000000000000
 11
59.24713332747701
 21
82.69207282996548
 31
0.000000000000000
  0
ARC
  5
E8
100
AcDbEntity
  8
A1
  6
CONTINUOUS
 62
7
100
AcDbCircle
 10
56.74719264727827
 20
68.90373256501678
 30
0.000000000000000
 40
2.500000000000247
100
AcDbArc
 50
180.0000499732594
 51
360.0000499734188
  0
ARC
  5
E9
100
AcDbEntity
  8
A1
  6
CONTINUOUS
 62
7
100
AcDbCircle
 10
55.79345064661939
 20
69.80719250354696
 30
0.000000000000000
 40
3.000000000000000
100
AcDbArc
 50
180.0000000000001
 51
261.1502618797728
  0
ARC
  5
EA
100
AcDbEntity
  8
A1
  6
CONTINUOUS
 62
7
100
AcDbCircle
 10
57.79345064661916
 20
85.90719250354735
 30
0.000000000000000
 40
6.000000000000000
100
AcDbArc
 50
0.000000000000000
 51
75.97882664267524
  0
ARC
  5
EB
100
AcDbEntity
  8
A1
  6
CONTINUOUS
 62
7
100
AcDbCircle
 10
61.25749000787604
 20
86.40762362134782
 30
0.000000000000000
 40
1.000000000000000
100
AcDbArc
 50
268.6262731699549
 51
368.2203413968241
  0
ARC
  5
EC
100
AcDbEntity
  8
A1
  6
CONTINUOUS
 62
7
100
AcDbCircle
 10
57.79345064661916
 20
85.90719250354735
 30
0.000000000000000
 40
4.500000000000000
100
AcDbArc
 50
8.220341396824471
 51
53.21597825535165
  0
ARC
  5
ED
100
AcDbEntity
  8
A1
  6
CONTINUOUS
 62
7
100
AcDbCircle
 10
61.29345064661939
 20
87.90719250354712
 30
0.000000000000000
 40
2.499999999999773
100
AcDbArc
 50
270.0000000000000
 51
341.7955525199615
  0
LINE
  5
EE
100
AcDbEntity
  8
A1
  6
CONTINUOUS
 62
7
100
AcDbLine
 10
61.29345064661939
 20
85.40791103321479
 30
0.000000000000000
 11
60.71872283034189
 21
85.40791103321479
 31
0.000000000000000
  0
LINE
  5
EF
100
AcDbEntity
  8
A1
  6
CONTINUOUS
 62
7
100
AcDbLine
 10
50.79345064661917
 20
85.90719250354712
 30
0.000000000000000
 11
50.79345064661917
 21
79.98319950354713
 31
0.000000000000000
  0
ARC
  5
F0
100
AcDbEntity
  8
A1
  6
CONTINUOUS
 62
7
100
AcDbCircle
 10
55.79345064661916
 20
85.90719250354712
 30
0.000000000000000
 40
5.000000000000000
100
AcDbArc
 50
109.3738472046452
 51
180.0000000000001
  0
LINE
  5
F1
100
AcDbEntity
  8
A1
  6
CONTINUOUS
 62
7
100
AcDbLine
 10
51.79164730935605
 20
78.38731928606853
 30
0.000000000000000
 11
51.25645909531295
 21
78.89938747071128
 31
0.000000000000000
  0
ARC
  5
F2
100
AcDbEntity
  8
A1
  6
CONTINUOUS
 62
7
100
AcDbCircle
 10
52.29345064661916
 20
79.98319950354713
 30
0.000000000000000
 40
1.500000000000000
100
AcDbArc
 50
180.0000000000001
 51
226.2647000000001
  0
LINE
  5
F3
100
AcDbEntity
  8
A4
  6
CENTER
 62
1
100
AcDbLine
 10
105.1645692783765
 20
70.90373233651215
 30
0.000000000000000
 11
108.6645692783765
 21
70.90373233651215
 31
0.000000000000000
  0
LINE
  5
F4
100
AcDbEntity
  8
A1
  6
CONTINUOUS
 62
7
100
AcDbLine
 10
106.6645686678397
 20
107.3571925035471
 30
0.000000000000000
 11
106.6645686678397
 21
104.5571925035471
 31
0.000000000000000
  0
LINE
  5
F5
100
AcDbEntity
  8
A1
  6
CONTINUOUS
 62
7
100
AcDbLine
 10
107.1645686678397
 20
107.3571925035471
 30
0.000000000000000
 11
106.6645686678397
 21
107.3571925035471
 31
0.000000000000000
  0
LINE
  5
F6
100
AcDbEntity
  8
A1
  6
CONTINUOUS
 62
7
100
AcDbLine
 10
107.1645686678397
 20
104.5571925035471
 30
0.000000000000000
 11
106.6645686678397
 21
104.5571925035471
 31
0.000000000000000
  0
LINE
  5
F7
100
AcDbEntity
  8
A1
  6
CONTINUOUS
 62
7
100
AcDbLine
 10
127.1645680573050
 20
73.45021404964299
 30
0.000000000000000
 11
127.1645680573050
 21
66.40373233651221
 31
0.000000000000000
  0
LINE
  5
F8
100
AcDbEntity
  8
A1
  6
CONTINUOUS
 62
7
100
AcDbLine
 10
127.6645680573052
 20
72.20373233651219
 30
0.000000000000000
 11
127.6645680573052
 21
69.60373233651217
 31
0.000000000000000
  0
LINE
  5
F9
100
AcDbEntity
  8
A1
  6
CONTINUOUS
 62
7
100
AcDbLine
 10
127.6645680573052
 20
72.20373233651219
 30
0.000000000000000
 11
127.1645680573052
 21
72.20373233651219
 31
0.000000000000000
  0
LINE
  5
FA
100
AcDbEntity
  8
A1
  6
CONTINUOUS
 62
7
100
AcDbLine
 10
127.6645680573052
 20
69.60373233651217
 30
0.000000000000000
 11
127.1645680573052
 21
69.60373233651217
 31
0.000000000000000
  0
LINE
  5
FB
100
AcDbEntity
  8
A1
  6
CONTINUOUS
 62
7
100
AcDbLine
 10
125.6645680573052
 20
73.45021404964314
 30
0.000000000000000
 11
125.6645680573052
 21
66.40373233651222
 31
0.000000000000000
  0
LINE
  5
FC
100
AcDbEntity
  8
A4
  6
CENTER
 62
1
100
AcDbLine
 10
129.1645680573052
 20
70.90373233651218
 30
0.000000000000000
 11
125.6645680573052
 21
70.90373233651218
 31
0.000000000000000
  0
ARC
  5
FD
100
AcDbEntity
  8
A1
  6
CONTINUOUS
 62
7
100
AcDbCircle
 10
128.1645680573052
 20
99.50898133651211
 30
0.000000000000000
 40
1.000000000000000
100
AcDbArc
 50
180.0000000000000
 51
269.9999999999999
  0
ARC
  5
FE
100
AcDbEntity
  8
A1
  6
CONTINUOUS
 62
7
100
AcDbCircle
 10
128.1645680573052
 20
99.50898133651211
 30
0.000000000000000
 40
2.500000000000000
100
AcDbArc
 50
180.0000000000000
 51
269.9999999999999
  0
LINE
  5
FF
100
AcDbEntity
  8
A1
  6
CONTINUOUS
 62
7
100
AcDbLine
 10
125.6645680573052
 20
108.6037323365122
 30
0.000000000000000
 11
125.6645680573052
 21
99.50898133651212
 31
0.000000000000000
  0
LINE
  5
100
100
AcDbEntity
  8
A1
  6
CONTINUOUS
 62
7
100
AcDbLine
 10
127.1645680573052
 20
108.6037323365122
 30
0.000000000000000
 11
127.1645680573052
 21
99.50898133651212
 31
0.000000000000000
  0
LINE
  5
101
100
AcDbEntity
  8
A1
  6
CONTINUOUS
 62
7
100
AcDbLine
 10
127.1645680573052
 20
108.6037323365122
 30
0.000000000000000
 11
125.6645680573052
 21
108.6037323365122
 31
0.000000000000000
  0
LINE
  5
102
100
AcDbEntity
  8
A1
  6
CONTINUOUS
 62
7
100
AcDbLine
 10
127.6645686678419
 20
107.3571925035471
 30
0.000000000000000
 11
127.6645686678419
 21
104.5571925035471
 31
0.000000000000000
  0
LINE
  5
103
100
AcDbEntity
  8
A1
  6
CONTINUOUS
 62
7
100
AcDbLine
 10
127.1645686678419
 20
107.3571925035472
 30
0.000000000000000
 11
127.6645686678419
 21
107.3571925035472
 31
0.000000000000000
  0
LINE
  5
104
100
AcDbEntity
  8
A1
  6
CONTINUOUS
 62
7
100
AcDbLine
 10
127.1645686678419
 20
104.5571925035471
 30
0.000000000000000
 11
127.6645686678419
 21
104.5571925035471
 31
0.000000000000000
  0
LINE
  5
105
100
AcDbEntity
  8
A1
  6
CONTINUOUS
 62
7
100
AcDbLine
 10
108.6645692783765
 20
72.20373233651068
 30
0.000000000000000
 11
109.1645686678374
 21
72.20373233651019
 31
0.000000000000000
  0
LINE
  5
106
100
AcDbEntity
  8
A1
  6
CONTINUOUS
 62
7
100
AcDbLine
 10
108.6645692783765
 20
69.60373233651177
 30
0.000000000000000
 11
109.1645686678374
 21
69.60373233651164
 31
0.000000000000000
  0
LINE
  5
107
100
AcDbEntity
  8
A1
  6
CONTINUOUS
 62
7
100
AcDbLine
 10
125.6645680573052
 20
72.20373233651071
 30
0.000000000000000
 11
125.1645686678443
 21
72.20373233651021
 31
0.000000000000000
  0
LINE
  5
108
100
AcDbEntity
  8
A1
  6
CONTINUOUS
 62
7
100
AcDbLine
 10
125.6645680573052
 20
69.60373233651180
 30
0.000000000000000
 11
125.1645686678443
 21
69.60373233651167
 31
0.000000000000000
  0
CIRCLE
  5
109
100
AcDbEntity
  8
A3
  6
DASHED
 62
2
100
AcDbCircle
 10
117.1645686678409
 20
72.60719250354715
 30
0.000000000000000
 40
1.650000000000000
  0
CIRCLE
  5
10A
100
AcDbEntity
  8
A3
  6
DASHED
 62
2
100
AcDbCircle
 10
117.1645686678409
 20
58.60719250354715
 30
0.000000000000000
 40
1.650000000000000
  0
LINE
  5
10B
100
AcDbEntity
  8
A1
  6
CONTINUOUS
 62
7
100
AcDbLine
 10
107.1645692783767
 20
66.40373233651215
 30
0.000000000000000
 11
108.6645692783765
 21
66.40373233651215
 31
0.000000000000000
  0
LINE
  5
10C
100
AcDbEntity
  8
A1
  6
CONTINUOUS
 62
7
100
AcDbLine
 10
127.1645680573050
 20
66.40373233651221
 30
0.000000000000000
 11
125.6645680573052
 21
66.40373233651221
 31
0.000000000000000
  0
LINE
  5
10D
100
AcDbEntity
  8
A4
  6
CENTER
 62
1
100
AcDbLine
 10
117.1645686678408
 20
110.1037323365121
 30
0.000000000000000
 11
117.1645686678409
 21
49.41217250354707
 31
0.000000000000000
  0
ARC
  5
10E
100
AcDbEntity
  8
A1
  6
CONTINUOUS
 62
7
100
AcDbCircle
 10
53.79925742710050
 20
106.1037323365122
 30
0.000000000000000
 40
2.500000000000000
100
AcDbArc
 50
35.37811625348954
 51
215.3915740964966
  0
LINE
  5
10F
100
AcDbEntity
  8
A1
  6
CONTINUOUS
 62
7
100
AcDbLine
 10
55.83762989936282
 20
107.5511568299913
 30
0.000000000000000
 11
58.12329435072254
 21
104.3323115503447
 31
0.000000000000000
  0
LINE
  5
110
100
AcDbEntity
  8
A1
  6
CONTINUOUS
 62
7
100
AcDbLine
 10
51.76088495483826
 20
104.6563078430331
 30
0.000000000000000
 11
54.08808940731348
 21
101.3789627969717
 31
0.000000000000000
  0
ARC
  5
111
100
AcDbEntity
  8
A1
  6
CONTINUOUS
 62
7
100
AcDbCircle
 10
53.24803908470375
 20
100.8364543127217
 30
0.000000000000000
 40
5.999094242857485
100
AcDbArc
 50
0.000000000000000
 51
35.64284561617577
  0
ARC
  5
112
100
AcDbEntity
  8
A1
  6
CONTINUOUS
 62
7
100
AcDbCircle
 10
53.24803908470375
 20
100.8364543127217
 30
0.000000000000000
 40
1.000000000000000
100
AcDbArc
 50
0.000000000000000
 51
32.85456605441293
  0
CIRCLE
  5
113
100
AcDbEntity
  8
A1
  6
CONTINUOUS
 62
7
100
AcDbCircle
 10
53.89345064661937
 20
105.9571925035472
 30
0.000000000000000
 40
1.400000000000000
  0
LINE
  5
114
100
AcDbEntity
  8
A1
  6
CONTINUOUS
 62
7
100
AcDbLine
 10
102.0145692783766
 20
93.30373233651201
 30
0.000000000000000
 11
102.0145692783766
 21
92.39260066087681
 31
0.000000000000000
  0
LINE
  5
115
100
AcDbEntity
  8
A1
  6
CONTINUOUS
 62
7
100
AcDbLine
 10
103.5145692783766
 20
93.30373233651201
 30
0.000000000000000
 11
103.5145692783766
 21
92.66343399413898
 31
0.000000000000000
  0
LINE
  5
116
100
AcDbEntity
  8
A1
  6
CONTINUOUS
 62
7
100
AcDbLine
 10
105.0145692783766
 20
93.30373233651201
 30
0.000000000000000
 11
105.0145692783766
 21
92.93426732740116
 31
0.000000000000000
  0
LINE
  5
117
100
AcDbEntity
  8
A1
  6
CONTINUOUS
 62
7
100
AcDbLine
 10
105.0145692783766
 20
91.71486401248862
 30
0.000000000000000
 11
105.0145692783766
 21
90.33426732740108
 31
0.000000000000000
  0
LINE
  5
118
100
AcDbEntity
  8
A1
  6
CONTINUOUS
 62
7
100
AcDbLine
 10
103.5145692783766
 20
91.44403067922644
 30
0.000000000000000
 11
103.5145692783766
 21
90.06343399413893
 31
0.000000000000000
  0
LINE
  5
119
100
AcDbEntity
  8
A1
  6
CONTINUOUS
 62
7
100
AcDbLine
 10
102.0145692783766
 20
91.17319734596427
 30
0.000000000000000
 11
102.0145692783766
 21
89.79260066087673
 31
0.000000000000000
  0
LINE
  5
11A
100
AcDbEntity
  8
A1
  6
CONTINUOUS
 62
7
100
AcDbLine
 10
105.0145692783766
 20
89.11486401248854
 30
0.000000000000000
 11
105.0145692783766
 21
87.73426732740108
 31
0.000000000000000
  0
LINE
  5
11B
100
AcDbEntity
  8
A1
  6
CONTINUOUS
 62
7
100
AcDbLine
 10
103.5145692783766
 20
88.84403067922634
 30
0.000000000000000
 11
103.5145692783766
 21
87.46343399413891
 31
0.000000000000000
  0
LINE
  5
11C
100
AcDbEntity
  8
A1
  6
CONTINUOUS
 62
7
100
AcDbLine
 10
102.0145692783766
 20
88.57319734596419
 30
0.000000000000000
 11
102.0145692783766
 21
87.19260066087674
 31
0.000000000000000
  0
LINE
  5
11D
100
AcDbEntity
  8
A1
  6
CONTINUOUS
 62
7
100
AcDbLine
 10
105.0145692783766
 20
86.51486401248857
 30
0.000000000000000
 11
105.0145692783766
 21
85.13426732740106
 31
0.000000000000000
  0
LINE
  5
11E
100
AcDbEntity
  8
A1
  6
CONTINUOUS
 62
7
100
AcDbLine
 10
103.5145692783766
 20
86.24403067922640
 30
0.000000000000000
 11
103.5145692783766
 21
84.86343399413889
 31
0.000000000000000
  0
LINE
  5
11F
100
AcDbEntity
  8
A1
  6
CONTINUOUS
 62
7
100
AcDbLine
 10
102.0145692783766
 20
85.97319734596422
 30
0.000000000000000
 11
102.0145692783766
 21
84.59260066087671
 31
0.000000000000000
  0
LINE
  5
120
100
AcDbEntity
  8
A1
  6
CONTINUOUS
 62
7
100
AcDbLine
 10
105.0145692783766
 20
81.28416164248216
 30
0.000000000000000
 11
105.0145692783766
 21
80.30373233651235
 31
0.000000000000000
  0
LINE
  5
121
100
AcDbEntity
  8
A1
  6
CONTINUOUS
 62
7
100
AcDbLine
 10
105.0145692783766
 20
83.91486401248849
 30
0.000000000000000
 11
105.0145692783766
 21
82.50663636387495
 31
0.000000000000000
  0
LINE
  5
122
100
AcDbEntity
  8
A1
  6
CONTINUOUS
 62
7
100
AcDbLine
 10
103.5145692783766
 20
80.99249497581556
 30
0.000000000000000
 11
103.5145692783766
 21
80.30373233651218
 31
0.000000000000000
  0
LINE
  5
123
100
AcDbEntity
  8
A1
  6
CONTINUOUS
 62
7
100
AcDbLine
 10
103.5145692783766
 20
83.64403067922632
 30
0.000000000000000
 11
103.5145692783766
 21
82.21496969720837
 31
0.000000000000000
  0
LINE
  5
124
100
AcDbEntity
  8
A1
  6
CONTINUOUS
 62
7
100
AcDbLine
 10
102.0145692783766
 20
80.70082830914896
 30
0.000000000000000
 11
102.0145692783766
 21
80.30373233651235
 31
0.000000000000000
  0
LINE
  5
125
100
AcDbEntity
  8
A1
  6
CONTINUOUS
 62
7
100
AcDbLine
 10
102.0145692783766
 20
83.37319734596414
 30
0.000000000000000
 11
102.0145692783766
 21
81.92330303054177
 31
0.000000000000000
  0
LINE
  5
126
100
AcDbEntity
  8
A1
  6
CONTINUOUS
 62
7
100
AcDbLine
 10
103.2913784581621
 20
91.40373233669831
 30
0.000000000000000
 11
103.5145692783765
 21
91.36343399414901
 31
0.000000000000000
  0
LINE
  5
127
100
AcDbEntity
  8
A1
  6
CONTINUOUS
 62
7
100
AcDbLine
 10
105.0145692783766
 20
91.09260066074452
 30
0.000000000000000
 11
107.2211787966897
 21
90.69418505316668
 31
0.000000000000000
  0
LINE
  5
128
100
AcDbEntity
  8
A1
  6
CONTINUOUS
 62
7
100
AcDbLine
 10
99.80795976006289
 20
90.81327962019860
 30
0.000000000000000
 11
102.0145692783766
 21
90.41486401262073
 31
0.000000000000000
  0
LINE
  5
129
100
AcDbEntity
  8
A1
  6
CONTINUOUS
 62
7
100
AcDbLine
 10
103.5145692783766
 20
90.14403067921631
 30
0.000000000000000
 11
103.7377600985909
 21
90.10373233666704
 31
0.000000000000000
  0
LINE
  5
12A
100
AcDbEntity
  8
A1
  6
CONTINUOUS
 62
7
100
AcDbLine
 10
103.2913784581623
 20
88.80373233669825
 30
0.000000000000000
 11
103.5145692783766
 21
88.76343399414897
 31
0.000000000000000
  0
LINE
  5
12B
100
AcDbEntity
  8
A1
  6
CONTINUOUS
 62
7
100
AcDbLine
 10
105.0145692783766
 20
88.49260066074459
 30
0.000000000000000
 11
107.2211787966895
 21
88.09418505316680
 31
0.000000000000000
  0
LINE
  5
12C
100
AcDbEntity
  8
A1
  6
CONTINUOUS
 62
7
100
AcDbLine
 10
99.80795976006301
 20
88.21327962019838
 30
0.000000000000000
 11
102.0145692783765
 21
87.81486401262052
 31
0.000000000000000
  0
LINE
  5
12D
100
AcDbEntity
  8
A1
  6
CONTINUOUS
 62
7
100
AcDbLine
 10
103.5145692783766
 20
87.54403067921609
 30
0.000000000000000
 11
103.7377600985904
 21
87.50373233666690
 31
0.000000000000000
  0
LINE
  5
12E
100
AcDbEntity
  8
A1
  6
CONTINUOUS
 62
7
100
AcDbLine
 10
103.2913784581616
 20
86.20373233669821
 30
0.000000000000000
 11
103.5145692783766
 21
86.16343399414882
 31
0.000000000000000
  0
LINE
  5
12F
100
AcDbEntity
  8
A1
  6
CONTINUOUS
 62
7
100
AcDbLine
 10
105.0145692783765
 20
85.89260066074441
 30
0.000000000000000
 11
107.2211787966895
 21
85.49418505316663
 31
0.000000000000000
  0
LINE
  5
130
100
AcDbEntity
  8
A1
  6
CONTINUOUS
 62
7
100
AcDbLine
 10
99.80795976006294
 20
85.61327962019850
 30
0.000000000000000
 11
102.0145692783766
 21
85.21486401262065
 31
0.000000000000000
  0
LINE
  5
131
100
AcDbEntity
  8
A1
  6
CONTINUOUS
 62
7
100
AcDbLine
 10
103.5145692783766
 20
84.94403067921624
 30
0.000000000000000
 11
103.7377600985908
 21
84.90373233666699
 31
0.000000000000000
  0
LINE
  5
132
100
AcDbEntity
  8
A1
  6
CONTINUOUS
 62
7
100
AcDbLine
 10
103.2913784581617
 20
83.60373233669809
 30
0.000000000000000
 11
103.5145692783766
 21
83.56343399414872
 31
0.000000000000000
  0
LINE
  5
133
100
AcDbEntity
  8
A1
  6
CONTINUOUS
 62
7
100
AcDbLine
 10
105.0145692783766
 20
83.29260066074434
 30
0.000000000000000
 11
107.2211787966896
 21
82.89418505316658
 31
0.000000000000000
  0
LINE
  5
134
100
AcDbEntity
  8
A1
  6
CONTINUOUS
 62
7
100
AcDbLine
 10
99.80795976006284
 20
83.01327962019843
 30
0.000000000000000
 11
102.0145692783766
 21
82.61486401262047
 31
0.000000000000000
  0
LINE
  5
135
100
AcDbEntity
  8
A1
  6
CONTINUOUS
 62
7
100
AcDbLine
 10
103.5145692783766
 20
82.34403067921602
 30
0.000000000000000
 11
103.8587318970204
 21
82.28189020638902
 31
0.000000000000000
  0
LINE
  5
136
100
AcDbEntity
  8
A1
  6
CONTINUOUS
 62
7
100
AcDbLine
 10
103.2916839010030
 20
80.94915615243738
 30
0.000000000000000
 11
103.5145692783766
 21
80.91200858954178
 31
0.000000000000000
  0
LINE
  5
137
100
AcDbEntity
  8
A1
  6
CONTINUOUS
 62
7
100
AcDbLine
 10
105.0145692783766
 20
80.66200858954174
 30
0.000000000000000
 11
107.2132086707600
 21
80.29556869081115
 31
0.000000000000000
  0
LINE
  5
138
100
AcDbEntity
  8
A1
  6
CONTINUOUS
 62
7
100
AcDbLine
 10
103.8974679316532
 20
76.82145950330876
 30
0.000000000000000
 11
107.1645692783767
 21
73.45021404964304
 31
0.000000000000000
  0
LINE
  5
139
100
AcDbEntity
  8
A1
  6
CONTINUOUS
 62
7
100
AcDbLine
 10
105.0145692783768
 20
77.82414454262403
 30
0.000000000000000
 11
108.2417368132413
 21
74.49410585525963
 31
0.000000000000000
  0
LINE
  5
13A
100
AcDbEntity
  8
A1
  6
CONTINUOUS
 62
7
100
AcDbLine
 10
132.3145680573050
 20
96.00898133651212
 30
0.000000000000000
 11
132.3145680573050
 21
94.50373233651207
 31
0.000000000000000
  0
LINE
  5
13B
100
AcDbEntity
  8
A1
  6
CONTINUOUS
 62
7
100
AcDbLine
 10
130.8145680573050
 20
96.00898133651212
 30
0.000000000000000
 11
130.8145680573050
 21
94.50373233651207
 31
0.000000000000000
  0
LINE
  5
13C
100
AcDbEntity
  8
A1
  6
CONTINUOUS
 62
7
100
AcDbLine
 10
130.8145680573050
 20
97.00898133651225
 30
0.000000000000000
 11
130.8145680573050
 21
94.50373233651220
 31
0.000000000000000
  0
LINE
  5
13D
100
AcDbEntity
  8
A1
  6
CONTINUOUS
 62
7
100
AcDbLine
 10
129.3145680573050
 20
97.00898133651212
 30
0.000000000000000
 11
129.3145680573050
 21
94.50373233651219
 31
0.000000000000000
  0
LINE
  5
13E
100
AcDbEntity
  8
A1
  6
CONTINUOUS
 62
7
100
AcDbLine
 10
128.1645680573051
 20
98.50898133651219
 30
0.000000000000000
 11
129.8145680573049
 21
98.50898133651222
 31
0.000000000000000
  0
LINE
  5
13F
100
AcDbEntity
  8
A1
  6
CONTINUOUS
 62
7
100
AcDbLine
 10
128.1645680573052
 20
97.00898133651221
 30
0.000000000000000
 11
130.8145680573050
 21
97.00898133651226
 31
0.000000000000000
  0
ARC
  5
140
100
AcDbEntity
  8
A1
  6
CONTINUOUS
 62
7
100
AcDbCircle
 10
129.8145680573049
 20
96.00898133651211
 30
0.000000000000000
 40
2.500000000000000
100
AcDbArc
 50
0.000000000000000
 51
90.00000000000000
  0
ARC
  5
141
100
AcDbEntity
  8
A1
  6
CONTINUOUS
 62
7
100
AcDbCircle
 10
127.1645680573051
 20
73.45021404964314
 30
0.000000000000000
 40
1.500000000000000
100
AcDbArc
 50
135.8987973216138
 51
180.0000000000000
  0
ARC
  5
142
100
AcDbEntity
  8
A1
  6
CONTINUOUS
 62
7
100
AcDbCircle
 10
129.3145680573050
 20
77.82250125126367
 30
0.000000000000000
 40
1.500000000000000
100
AcDbArc
 50
318.1362764753453
 51
360.0000000000000
  0
LINE
  5
143
100
AcDbEntity
  8
A1
  6
CONTINUOUS
 62
7
100
AcDbLine
 10
130.4316694040286
 20
76.82145950330876
 30
0.000000000000000
 11
127.1645680573051
 21
73.45021404964302
 31
0.000000000000000
  0
LINE
  5
144
100
AcDbEntity
  8
A1
  6
CONTINUOUS
 62
7
100
AcDbLine
 10
129.3145680573049
 20
77.82414454262407
 30
0.000000000000000
 11
126.0874005224404
 21
74.49410585525965
 31
0.000000000000000
  0
LINE
  5
145
100
AcDbEntity
  8
A1
  6
CONTINUOUS
 62
7
100
AcDbLine
 10
129.3145680573048
 20
79.10373233651218
 30
0.000000000000000
 11
129.3145680573048
 21
77.82414454262407
 31
0.000000000000000
  0
LINE
  5
146
100
AcDbEntity
  8
A1
  6
CONTINUOUS
 62
7
100
AcDbLine
 10
130.8145680573048
 20
79.10373233651215
 30
0.000000000000000
 11
130.8145680573048
 21
77.82250125126357
 31
0.000000000000000
  0
LINE
  5
147
100
AcDbEntity
  8
A1
  6
CONTINUOUS
 62
7
100
AcDbLine
 10
132.3145680573050
 20
79.10373233651221
 30
0.000000000000000
 11
132.3145680573050
 21
76.60373233651221
 31
0.000000000000000
  0
LINE
  5
148
100
AcDbEntity
  8
A1
  6
CONTINUOUS
 62
7
100
AcDbLine
 10
132.3145680573050
 20
76.60373233651221
 30
0.000000000000000
 11
130.8145680573050
 21
76.60373233651221
 31
0.000000000000000
  0
LINE
  5
149
100
AcDbEntity
  8
A1
  6
CONTINUOUS
 62
7
100
AcDbLine
 10
130.8145680573050
 20
79.10373233651221
 30
0.000000000000000
 11
130.8145680573050
 21
76.60373233651221
 31
0.000000000000000
  0
LINE
  5
14A
100
AcDbEntity
  8
A1
  6
CONTINUOUS
 62
7
100
AcDbLine
 10
127.2145680573050
 20
94.50373233651213
 30
0.000000000000000
 11
134.4145680573050
 21
94.50373233651214
 31
0.000000000000000
  0
LINE
  5
14B
100
AcDbEntity
  8
A1
  6
CONTINUOUS
 62
7
100
AcDbLine
 10
127.2145680573050
 20
93.30373233651208
 30
0.000000000000000
 11
134.4145680573050
 21
93.30373233651210
 31
0.000000000000000
  0
ARC
  5
14C
100
AcDbEntity
  8
A1
  6
CONTINUOUS
 62
7
100
AcDbCircle
 10
134.4145680573050
 20
93.90373233651195
 30
0.000000000000000
 40
0.6000000000000000
100
AcDbArc
 50
270.0000000000001
 51
450.0000000000001
  0
ARC
  5
14D
100
AcDbEntity
  8
A1
  6
CONTINUOUS
 62
7
100
AcDbCircle
 10
134.4145680573050
 20
92.70373233651191
 30
0.000000000000000
 40
0.6000000000000000
100
AcDbArc
 50
280.2348027607915
 51
460.2348027607889
  0
ARC
  5
14E
100
AcDbEntity
  8
A1
  6
CONTINUOUS
 62
7
100
AcDbCircle
 10
127.2145680573049
 20
80.90373233651218
 30
0.000000000000000
 40
0.6000000000000000
100
AcDbArc
 50
101.0035408517476
 51
281.0035408517449
  0
LINE
  5
14F
100
AcDbEntity
  8
A1
  6
CONTINUOUS
 62
7
100
AcDbLine
 10
127.2145680573050
 20
80.30373233651220
 30
0.000000000000000
 11
134.4145680573051
 21
80.30373233651221
 31
0.000000000000000
  0
ARC
  5
150
100
AcDbEntity
  8
A1
  6
CONTINUOUS
 62
7
100
AcDbCircle
 10
127.2145680573049
 20
79.70373233651208
 30
0.000000000000000
 40
0.6000000000000000
100
AcDbArc
 50
90.00000000000000
 51
270.0000000000000
  0
ARC
  5
151
100
AcDbEntity
  8
A1
  6
CONTINUOUS
 62
7
100
AcDbCircle
 10
134.4145680573050
 20
79.70373233651208
 30
0.000000000000000
 40
0.6000000000000000
100
AcDbArc
 50
270.0000000000000
 51
450.0000000000000
  0
LINE
  5
152
100
AcDbEntity
  8
A1
  6
CONTINUOUS
 62
7
100
AcDbLine
 10
134.4145680573051
 20
79.10373233651217
 30
0.000000000000000
 11
127.2145680573050
 21
79.10373233651215
 31
0.000000000000000
  0
ARC
  5
153
100
AcDbEntity
  8
A1
  6
CONTINUOUS
 62
7
100
AcDbCircle
 10
134.4145680573050
 20
90.10373233651188
 30
0.000000000000000
 40
0.6000000000000000
100
AcDbArc
 50
280.2348027607915
 51
460.2348027607916
  0
ARC
  5
154
100
AcDbEntity
  8
A1
  6
CONTINUOUS
 62
7
100
AcDbCircle
 10
134.4145680573050
 20
87.50373233651186
 30
0.000000000000000
 40
0.6000000000000000
100
AcDbArc
 50
280.2348027607915
 51
460.2348027607916
  0
ARC
  5
155
100
AcDbEntity
  8
A1
  6
CONTINUOUS
 62
7
100
AcDbCircle
 10
134.4145680573050
 20
84.90373233651184
 30
0.000000000000000
 40
0.6000000000000000
100
AcDbArc
 50
280.2348027607915
 51
460.2348027607916
  0
ARC
  5
156
100
AcDbEntity
  8
A1
  6
CONTINUOUS
 62
7
100
AcDbCircle
 10
134.4145680573050
 20
82.30373233651181
 30
0.000000000000000
 40
0.6000000000000000
100
AcDbArc
 50
281.0035408517449
 51
461.0035408517475
  0
ARC
  5
157
100
AcDbEntity
  8
A1
  6
CONTINUOUS
 62
7
100
AcDbCircle
 10
127.2145680573043
 20
91.40373233685335
 30
0.000000000000000
 40
0.6000000000000000
100
AcDbArc
 50
100.2348027607889
 51
280.2348027607915
  0
ARC
  5
158
100
AcDbEntity
  8
A1
  6
CONTINUOUS
 62
7
100
AcDbCircle
 10
127.2145680573043
 20
88.80373233685333
 30
0.000000000000000
 40
0.6000000000000000
100
AcDbArc
 50
100.2348027607916
 51
280.2348027607915
  0
ARC
  5
159
100
AcDbEntity
  8
A1
  6
CONTINUOUS
 62
7
100
AcDbCircle
 10
127.2145680573043
 20
86.20373233685331
 30
0.000000000000000
 40
0.6000000000000000
100
AcDbArc
 50
100.2348027607916
 51
280.2348027607915
  0
ARC
  5
15A
100
AcDbEntity
  8
A1
  6
CONTINUOUS
 62
7
100
AcDbCircle
 10
127.2145680573043
 20
83.60373233685328
 30
0.000000000000000
 40
0.6000000000000000
100
AcDbArc
 50
100.2348027607916
 51
280.2348027607915
  0
LINE
  5
15B
100
AcDbEntity
  8
A1
  6
CONTINUOUS
 62
7
100
AcDbLine
 10
134.3079585390464
 20
93.29418505317659
 30
0.000000000000000
 11
127.1079585390457
 21
91.99418505351804
 31
0.000000000000000
  0
LINE
  5
15C
100
AcDbEntity
  8
A1
  6
CONTINUOUS
 62
7
100
AcDbLine
 10
127.3211775755630
 20
90.81327962018875
 30
0.000000000000000
 11
134.5211775755637
 21
92.11327961984730
 31
0.000000000000000
  0
LINE
  5
15D
100
AcDbEntity
  8
A1
  6
CONTINUOUS
 62
7
100
AcDbLine
 10
127.1079585390456
 20
89.39418505351796
 30
0.000000000000000
 11
134.3079585390463
 21
90.69418505317651
 31
0.000000000000000
  0
LINE
  5
15E
100
AcDbEntity
  8
A1
  6
CONTINUOUS
 62
7
100
AcDbLine
 10
134.5211775755637
 20
89.51327961984724
 30
0.000000000000000
 11
127.3211775755630
 21
88.21327962018869
 31
0.000000000000000
  0
LINE
  5
15F
100
AcDbEntity
  8
A1
  6
CONTINUOUS
 62
7
100
AcDbLine
 10
127.1079585390457
 20
86.79418505351795
 30
0.000000000000000
 11
134.3079585390464
 21
88.09418505317649
 31
0.000000000000000
  0
LINE
  5
160
100
AcDbEntity
  8
A1
  6
CONTINUOUS
 62
7
100
AcDbLine
 10
134.5211775755637
 20
86.91327961984727
 30
0.000000000000000
 11
127.3211775755630
 21
85.61327962018872
 31
0.000000000000000
  0
LINE
  5
161
100
AcDbEntity
  8
A1
  6
CONTINUOUS
 62
7
100
AcDbLine
 10
127.1079585390456
 20
84.19418505351791
 30
0.000000000000000
 11
134.3079585390463
 21
85.49418505317647
 31
0.000000000000000
  0
LINE
  5
162
100
AcDbEntity
  8
A1
  6
CONTINUOUS
 62
7
100
AcDbLine
 10
134.5211775755637
 20
84.31327961984721
 30
0.000000000000000
 11
127.3211775755630
 21
83.01327962018865
 31
0.000000000000000
  0
LINE
  5
163
100
AcDbEntity
  8
A1
  6
CONTINUOUS
 62
7
100
AcDbLine
 10
127.1000462618436
 20
81.49270157031332
 30
0.000000000000000
 11
134.3000462618437
 21
82.89270157031295
 31
0.000000000000000
  0
LINE
  5
164
100
AcDbEntity
  8
A1
  6
CONTINUOUS
 62
7
100
AcDbLine
 10
134.5290898527663
 20
81.71476310271066
 30
0.000000000000000
 11
127.3290898527663
 21
80.31476310271103
 31
0.000000000000000
  0
LINE
  5
165
100
AcDbEntity
  8
A1
  6
CONTINUOUS
 62
7
100
AcDbLine
 10
130.8145680573050
 20
93.30373233651204
 30
0.000000000000000
 11
130.8145680573050
 21
92.66343399413901
 31
0.000000000000000
  0
ARC
  5
166
100
AcDbEntity
  8
A1
  6
CONTINUOUS
 62
7
100
AcDbCircle
 10
127.2145680573049
 20
93.90373233651201
 30
0.000000000000000
 40
0.6000000000000000
100
AcDbArc
 50
90.00000000000000
 51
270.0000000000000
  0
LINE
  5
167
100
AcDbEntity
  8
A1
  6
CONTINUOUS
 62
7
100
AcDbLine
 10
129.3145680573050
 20
93.30373233651204
 30
0.000000000000000
 11
129.3145680573050
 21
92.39260066087684
 31
0.000000000000000
  0
LINE
  5
168
100
AcDbEntity
  8
A1
  6
CONTINUOUS
 62
7
100
AcDbLine
 10
130.8145680573050
 20
93.30373233651204
 30
0.000000000000000
 11
130.8145680573050
 21
92.66343399413901
 31
0.000000000000000
  0
LINE
  5
169
100
AcDbEntity
  8
A1
  6
CONTINUOUS
 62
7
100
AcDbLine
 10
132.3145680573050
 20
93.30373233651204
 30
0.000000000000000
 11
132.3145680573050
 21
92.93426732740119
 31
0.000000000000000
  0
LINE
  5
16A
100
AcDbEntity
  8
A1
  6
CONTINUOUS
 62
7
100
AcDbLine
 10
132.3145680573050
 20
91.71486401248865
 30
0.000000000000000
 11
132.3145680573050
 21
90.33426732740111
 31
0.000000000000000
  0
LINE
  5
16B
100
AcDbEntity
  8
A1
  6
CONTINUOUS
 62
7
100
AcDbLine
 10
130.8145680573050
 20
91.44403067922647
 30
0.000000000000000
 11
130.8145680573050
 21
90.06343399413896
 31
0.000000000000000
  0
LINE
  5
16C
100
AcDbEntity
  8
A1
  6
CONTINUOUS
 62
7
100
AcDbLine
 10
129.3145680573050
 20
91.17319734596430
 30
0.000000000000000
 11
129.3145680573050
 21
89.79260066087676
 31
0.000000000000000
  0
LINE
  5
16D
100
AcDbEntity
  8
A1
  6
CONTINUOUS
 62
7
100
AcDbLine
 10
132.3145680573050
 20
89.11486401248857
 30
0.000000000000000
 11
132.3145680573050
 21
87.73426732740111
 31
0.000000000000000
  0
LINE
  5
16E
100
AcDbEntity
  8
A1
  6
CONTINUOUS
 62
7
100
AcDbLine
 10
130.8145680573050
 20
88.84403067922636
 30
0.000000000000000
 11
130.8145680573050
 21
87.46343399413894
 31
0.000000000000000
  0
LINE
  5
16F
100
AcDbEntity
  8
A1
  6
CONTINUOUS
 62
7
100
AcDbLine
 10
129.3145680573050
 20
88.57319734596422
 30
0.000000000000000
 11
129.3145680573050
 21
87.19260066087676
 31
0.000000000000000
  0
LINE
  5
170
100
AcDbEntity
  8
A1
  6
CONTINUOUS
 62
7
100
AcDbLine
 10
132.3145680573050
 20
86.51486401248860
 30
0.000000000000000
 11
132.3145680573050
 21
85.13426732740109
 31
0.000000000000000
  0
LINE
  5
171
100
AcDbEntity
  8
A1
  6
CONTINUOUS
 62
7
100
AcDbLine
 10
130.8145680573050
 20
86.24403067922643
 30
0.000000000000000
 11
130.8145680573050
 21
84.86343399413892
 31
0.000000000000000
  0
LINE
  5
172
100
AcDbEntity
  8
A1
  6
CONTINUOUS
 62
7
100
AcDbLine
 10
129.3145680573050
 20
85.97319734596425
 30
0.000000000000000
 11
129.3145680573050
 21
84.59260066087674
 31
0.000000000000000
  0
LINE
  5
173
100
AcDbEntity
  8
A1
  6
CONTINUOUS
 62
7
100
AcDbLine
 10
132.3145680573050
 20
81.28416164248219
 30
0.000000000000000
 11
132.3145680573050
 21
80.30373233651238
 31
0.000000000000000
  0
LINE
  5
174
100
AcDbEntity
  8
A1
  6
CONTINUOUS
 62
7
100
AcDbLine
 10
132.3145680573050
 20
83.91486401248852
 30
0.000000000000000
 11
132.3145680573050
 21
82.50663636387497
 31
0.000000000000000
  0
LINE
  5
175
100
AcDbEntity
  8
A1
  6
CONTINUOUS
 62
7
100
AcDbLine
 10
130.8145680573050
 20
80.99249497581559
 30
0.000000000000000
 11
130.8145680573050
 21
80.30373233651221
 31
0.000000000000000
  0
LINE
  5
176
100
AcDbEntity
  8
A1
  6
CONTINUOUS
 62
7
100
AcDbLine
 10
130.8145680573050
 20
83.64403067922635
 30
0.000000000000000
 11
130.8145680573050
 21
82.21496969720840
 31
0.000000000000000
  0
LINE
  5
177
100
AcDbEntity
  8
A1
  6
CONTINUOUS
 62
7
100
AcDbLine
 10
129.3145680573050
 20
80.70082830914899
 30
0.000000000000000
 11
129.3145680573050
 21
80.30373233651238
 31
0.000000000000000
  0
LINE
  5
178
100
AcDbEntity
  8
A1
  6
CONTINUOUS
 62
7
100
AcDbLine
 10
129.3145680573050
 20
83.37319734596417
 30
0.000000000000000
 11
129.3145680573050
 21
81.92330303054180
 31
0.000000000000000
  0
LINE
  5
179
100
AcDbEntity
  8
A1
  6
CONTINUOUS
 62
7
100
AcDbLine
 10
130.5913772370905
 20
91.40373233669835
 30
0.000000000000000
 11
130.8145680573049
 21
91.36343399414905
 31
0.000000000000000
  0
LINE
  5
17A
100
AcDbEntity
  8
A1
  6
CONTINUOUS
 62
7
100
AcDbLine
 10
132.3145680573050
 20
91.09260066074457
 30
0.000000000000000
 11
134.5211775756181
 21
90.69418505316672
 31
0.000000000000000
  0
LINE
  5
17B
100
AcDbEntity
  8
A1
  6
CONTINUOUS
 62
7
100
AcDbLine
 10
127.1079585389913
 20
90.81327962019863
 30
0.000000000000000
 11
129.3145680573050
 21
90.41486401262074
 31
0.000000000000000
  0
LINE
  5
17C
100
AcDbEntity
  8
A1
  6
CONTINUOUS
 62
7
100
AcDbLine
 10
130.8145680573050
 20
90.14403067921634
 30
0.000000000000000
 11
131.0377588775193
 21
90.10373233666706
 31
0.000000000000000
  0
LINE
  5
17D
100
AcDbEntity
  8
A1
  6
CONTINUOUS
 62
7
100
AcDbLine
 10
130.5913772370907
 20
88.80373233669826
 30
0.000000000000000
 11
130.8145680573050
 21
88.76343399414898
 31
0.000000000000000
  0
LINE
  5
17E
100
AcDbEntity
  8
A1
  6
CONTINUOUS
 62
7
100
AcDbLine
 10
132.3145680573050
 20
88.49260066074460
 30
0.000000000000000
 11
134.5211775756179
 21
88.09418505316681
 31
0.000000000000000
  0
LINE
  5
17F
100
AcDbEntity
  8
A1
  6
CONTINUOUS
 62
7
100
AcDbLine
 10
127.1079585389914
 20
88.21327962019842
 30
0.000000000000000
 11
129.3145680573049
 21
87.81486401262055
 31
0.000000000000000
  0
LINE
  5
180
100
AcDbEntity
  8
A1
  6
CONTINUOUS
 62
7
100
AcDbLine
 10
130.8145680573050
 20
87.54403067921614
 30
0.000000000000000
 11
131.0377588775188
 21
87.50373233666694
 31
0.000000000000000
  0
LINE
  5
181
100
AcDbEntity
  8
A1
  6
CONTINUOUS
 62
7
100
AcDbLine
 10
130.5913772370901
 20
86.20373233669824
 30
0.000000000000000
 11
130.8145680573050
 21
86.16343399414885
 31
0.000000000000000
  0
LINE
  5
182
100
AcDbEntity
  8
A1
  6
CONTINUOUS
 62
7
100
AcDbLine
 10
132.3145680573049
 20
85.89260066074442
 30
0.000000000000000
 11
134.5211775756179
 21
85.49418505316666
 31
0.000000000000000
  0
LINE
  5
183
100
AcDbEntity
  8
A1
  6
CONTINUOUS
 62
7
100
AcDbLine
 10
127.1079585389914
 20
85.61327962019851
 30
0.000000000000000
 11
129.3145680573050
 21
85.21486401262067
 31
0.000000000000000
  0
LINE
  5
184
100
AcDbEntity
  8
A1
  6
CONTINUOUS
 62
7
100
AcDbLine
 10
130.8145680573050
 20
84.94403067921628
 30
0.000000000000000
 11
131.0377588775192
 21
84.90373233666703
 31
0.000000000000000
  0
LINE
  5
185
100
AcDbEntity
  8
A1
  6
CONTINUOUS
 62
7
100
AcDbLine
 10
130.5913772370901
 20
83.60373233669810
 30
0.000000000000000
 11
130.8145680573050
 21
83.56343399414874
 31
0.000000000000000
  0
LINE
  5
186
100
AcDbEntity
  8
A1
  6
CONTINUOUS
 62
7
100
AcDbLine
 10
132.3145680573050
 20
83.29260066074437
 30
0.000000000000000
 11
134.5211775756179
 21
82.89418505316661
 31
0.000000000000000
  0
LINE
  5
187
100
AcDbEntity
  8
A1
  6
CONTINUOUS
 62
7
100
AcDbLine
 10
127.1079585389912
 20
83.01327962019846
 30
0.000000000000000
 11
129.3145680573049
 21
82.61486401262050
 31
0.000000000000000
  0
LINE
  5
188
100
AcDbEntity
  8
A1
  6
CONTINUOUS
 62
7
100
AcDbLine
 10
130.8145680573050
 20
82.34403067921605
 30
0.000000000000000
 11
131.1587306759488
 21
82.28189020638905
 31
0.000000000000000
  0
LINE
  5
189
100
AcDbEntity
  8
A1
  6
CONTINUOUS
 62
7
100
AcDbLine
 10
130.5916826799314
 20
80.94915615243742
 30
0.000000000000000
 11
130.8145680573049
 21
80.91200858954183
 31
0.000000000000000
  0
LINE
  5
18A
100
AcDbEntity
  8
A1
  6
CONTINUOUS
 62
7
100
AcDbLine
 10
132.3145680573049
 20
80.66200858954178
 30
0.000000000000000
 11
134.5132074496884
 21
80.29556869081119
 31
0.000000000000000
  0
LINE
  5
18B
100
AcDbEntity
  8
A1
  6
CONTINUOUS
 62
7
100
AcDbLine
 10
173.0336763887302
 20
94.50372879773218
 30
0.000000000000000
 11
182.0377282140928
 21
94.50372879773221
 31
0.000000000000000
  0
ARC
  5
18C
100
AcDbEntity
  8
A1
  6
CONTINUOUS
 62
7
100
AcDbCircle
 10
173.0337184474070
 20
96.50897950354739
 30
0.000000000000000
 40
0.5000000000000000
100
AcDbArc
 50
90.00000000000121
 51
178.2314000000003
  0
ARC
  5
18D
100
AcDbEntity
  8
A1
  6
CONTINUOUS
 62
7
100
AcDbCircle
 10
182.0377282140929
 20
96.50897950354742
 30
0.000000000000000
 40
0.5000000000000000
100
AcDbArc
 50
358.2314000000003
 51
449.9999999999995
  0
ARC
  5
18E
100
AcDbEntity
  8
A1
  6
CONTINUOUS
 62
7
100
AcDbCircle
 10
182.0377282140929
 20
95.00372879773236
 30
0.000000000000000
 40
0.5000000000000000
100
AcDbArc
 50
269.9999999999995
 51
358.2314000000003
  0
ARC
  5
18F
100
AcDbEntity
  8
A1
  6
CONTINUOUS
 62
7
100
AcDbCircle
 10
173.0336763887302
 20
95.00372879773228
 30
0.000000000000000
 40
0.5000000000000000
100
AcDbArc
 50
178.2314000000003
 51
269.9999999999995
  0
LINE
  5
190
100
AcDbEntity
  8
A1
  6
CONTINUOUS
 62
7
100
AcDbLine
 10
170.5356866890624
 20
66.80719250354713
 30
0.000000000000000
 11
176.2201371503668
 21
66.80719250354714
 31
0.000000000000000
  0
LINE
  5
191
100
AcDbEntity
  8
A1
  6
CONTINUOUS
 62
7
100
AcDbLine
 10
183.5356866890624
 20
76.11024754170231
 30
0.000000000000000
 11
183.5356866890624
 21
54.10719250354743
 31
0.000000000000000
  0
LINE
  5
192
100
AcDbEntity
  8
A1
  6
CONTINUOUS
 62
7
100
AcDbLine
 10
183.5356866890624
 20
67.40719250354718
 30
0.000000000000000
 11
181.5356866890624
 21
67.40719250354718
 31
0.000000000000000
  0
LINE
  5
193
100
AcDbEntity
  8
A4
  6
CENTER
 62
1
100
AcDbLine
 10
185.0356866890624
 20
72.60719250354740
 30
0.000000000000000
 11
180.5356866890624
 21
72.60719250354740
 31
0.000000000000000
  0
LINE
  5
194
100
AcDbEntity
  8
A4
  6
CENTER
 62
1
100
AcDbLine
 10
185.0356866890624
 20
58.60719250354740
 30
0.000000000000000
 11
180.5356866890624
 21
58.60719250354739
 31
0.000000000000000
  0
LINE
  5
195
100
AcDbEntity
  8
A1
  6
CONTINUOUS
 62
7
100
AcDbLine
 10
175.0819470396960
 20
76.60373220941248
 30
0.000000000000000
 11
175.0819403237709
 21
68.90373474552250
 31
0.000000000000000
  0
LINE
  5
196
100
AcDbEntity
  8
A1
  6
CONTINUOUS
 62
7
100
AcDbLine
 10
181.5356866890624
 20
69.90719250354718
 30
0.000000000000000
 11
181.5356866890624
 21
54.10719250354740
 31
0.000000000000000
  0
LINE
  5
197
100
AcDbEntity
  8
A1
  6
CONTINUOUS
 62
7
100
AcDbLine
 10
174.3356866890624
 20
51.60457853406741
 30
0.000000000000000
 11
175.7228332272231
 21
50.80719250354724
 31
0.000000000000000
  0
ARC
  5
198
100
AcDbEntity
  8
A1
  6
CONTINUOUS
 62
7
100
AcDbCircle
 10
163.6179610603851
 20
57.00183314621913
 30
0.000000000000000
 40
12.00000000000000
100
AcDbArc
 50
333.2709935372169
 51
414.7968573248966
  0
ARC
  5
199
100
AcDbEntity
  8
A1
  6
CONTINUOUS
 62
7
100
AcDbCircle
 10
163.6179610603851
 20
57.00183314621913
 30
0.000000000000000
 40
13.60000000000000
100
AcDbArc
 50
332.8985657466256
 51
406.1356410739168
  0
LINE
  5
19A
100
AcDbEntity
  8
A1
  6
CONTINUOUS
 62
7
100
AcDbLine
 10
170.5356866890625
 20
85.90719250354734
 30
0.000000000000000
 11
170.5356866890625
 21
66.80719250354710
 31
0.000000000000000
  0
LINE
  5
19B
100
AcDbEntity
  8
A4
  6
CENTER
 62
1
100
AcDbLine
 10
174.0356866890624
 20
70.90373233651236
 30
0.000000000000000
 11
181.0356866890624
 21
70.90373233651239
 31
0.000000000000000
  0
LINE
  5
19C
100
AcDbEntity
  8
A4
  6
CENTER
 62
1
100
AcDbLine
 10
177.5356866890624
 20
73.90373233651238
 30
0.000000000000000
 11
177.5356866890624
 21
66.90373233651238
 31
0.000000000000000
  0
CIRCLE
  5
19D
100
AcDbEntity
  8
A1
  6
CONTINUOUS
 62
7
100
AcDbCircle
 10
177.5356866890624
 20
70.90373233651238
 30
0.000000000000000
 40
1.300000000000000
  0
LINE
  5
19E
100
AcDbEntity
  8
A1
  6
CONTINUOUS
 62
7
100
AcDbLine
 10
175.8886349780636
 20
98.50898133651228
 30
0.000000000000000
 11
179.3271654314127
 21
98.50898133651228
 31
0.000000000000000
  0
LINE
  5
19F
100
AcDbEntity
  8
A1
  6
CONTINUOUS
 62
7
100
AcDbLine
 10
182.5374900262995
 20
96.49354800783497
 30
0.000000000000000
 11
182.5374900262995
 21
94.98829730201992
 31
0.000000000000000
  0
LINE
  5
1A0
100
AcDbEntity
  8
A1
  6
CONTINUOUS
 62
7
100
AcDbLine
 10
172.5339566352003
 20
96.52441099925984
 30
0.000000000000000
 11
172.5339566352004
 21
95.01916029344473
 31
0.000000000000000
  0
LINE
  5
1A1
100
AcDbEntity
  8
A1
  6
CONTINUOUS
 62
7
100
AcDbLine
 10
181.1356866890623
 20
93.30373050354714
 30
0.000000000000000
 11
173.9356866890622
 21
93.30373050354713
 31
0.000000000000000
  0
ARC
  5
1A2
100
AcDbEntity
  8
A1
  6
CONTINUOUS
 62
7
100
AcDbCircle
 10
173.9356866890623
 20
93.90373050354698
 30
0.000000000000000
 40
0.6000000000000000
100
AcDbArc
 50
90.00000000000010
 51
270.0000000000001
  0
ARC
  5
1A3
100
AcDbEntity
  8
A1
  6
CONTINUOUS
 62
7
100
AcDbCircle
 10
173.9356866890623
 20
92.70373050354694
 30
0.000000000000000
 40
0.6000000000000000
100
AcDbArc
 50
79.76519723921129
 51
259.7651972392086
  0
ARC
  5
1A4
100
AcDbEntity
  8
A1
  6
CONTINUOUS
 62
7
100
AcDbCircle
 10
181.1356866890624
 20
80.90373050354722
 30
0.000000000000000
 40
0.6000000000000000
100
AcDbArc
 50
258.9964591482553
 51
438.9964591482526
  0
LINE
  5
1A5
100
AcDbEntity
  8
A1
  6
CONTINUOUS
 62
7
100
AcDbLine
 10
181.1356866890623
 20
80.30373050354726
 30
0.000000000000000
 11
173.9356866890622
 21
80.30373050354724
 31
0.000000000000000
  0
ARC
  5
1A6
100
AcDbEntity
  8
A1
  6
CONTINUOUS
 62
7
100
AcDbCircle
 10
181.1356866890624
 20
79.70373050354712
 30
0.000000000000000
 40
0.6000000000000000
100
AcDbArc
 50
270.0000000000002
 51
450.0000000000001
  0
ARC
  5
1A7
100
AcDbEntity
  8
A1
  6
CONTINUOUS
 62
7
100
AcDbCircle
 10
173.9356866890623
 20
79.70373050354711
 30
0.000000000000000
 40
0.6000000000000000
100
AcDbArc
 50
90.00000000000010
 51
270.0000000000002
  0
ARC
  5
1A8
100
AcDbEntity
  8
A1
  6
CONTINUOUS
 62
7
100
AcDbCircle
 10
173.9356866890623
 20
90.10373050354691
 30
0.000000000000000
 40
0.6000000000000000
100
AcDbArc
 50
79.76519723920865
 51
259.7651972392086
  0
ARC
  5
1A9
100
AcDbEntity
  8
A1
  6
CONTINUOUS
 62
7
100
AcDbCircle
 10
173.9356866890623
 20
87.50373050354689
 30
0.000000000000000
 40
0.6000000000000000
100
AcDbArc
 50
79.76519723920865
 51
259.7651972392086
  0
ARC
  5
1AA
100
AcDbEntity
  8
A1
  6
CONTINUOUS
 62
7
100
AcDbCircle
 10
173.9356866890623
 20
84.90373050354687
 30
0.000000000000000
 40
0.6000000000000000
100
AcDbArc
 50
79.76519723920865
 51
259.7651972392086
  0
ARC
  5
1AB
100
AcDbEntity
  8
A1
  6
CONTINUOUS
 62
7
100
AcDbCircle
 10
173.9356866890623
 20
82.30373050354684
 30
0.000000000000000
 40
0.6000000000000000
100
AcDbArc
 50
78.99645914825267
 51
258.9964591482553
  0
ARC
  5
1AC
100
AcDbEntity
  8
A1
  6
CONTINUOUS
 62
7
100
AcDbCircle
 10
181.1356866890630
 20
91.40373050388840
 30
0.000000000000000
 40
0.6000000000000000
100
AcDbArc
 50
259.7651972392086
 51
439.7651972392112
  0
ARC
  5
1AD
100
AcDbEntity
  8
A1
  6
CONTINUOUS
 62
7
100
AcDbCircle
 10
181.1356866890630
 20
88.80373050388837
 30
0.000000000000000
 40
0.6000000000000000
100
AcDbArc
 50
259.7651972392086
 51
439.7651972392086
  0
ARC
  5
1AE
100
AcDbEntity
  8
A1
  6
CONTINUOUS
 62
7
100
AcDbCircle
 10
181.1356866890630
 20
86.20373050388835
 30
0.000000000000000
 40
0.6000000000000000
100
AcDbArc
 50
259.7651972392086
 51
439.7651972392086
  0
ARC
  5
1AF
100
AcDbEntity
  8
A1
  6
CONTINUOUS
 62
7
100
AcDbCircle
 10
181.1356866890630
 20
83.60373050388833
 30
0.000000000000000
 40
0.6000000000000000
100
AcDbArc
 50
259.7651972392086
 51
439.7651972392086
  0
LINE
  5
1B0
100
AcDbEntity
  8
A1
  6
CONTINUOUS
 62
7
100
AcDbLine
 10
174.0422962073209
 20
93.29418322021158
 30
0.000000000000000
 11
181.2422962073216
 21
91.99418322055305
 31
0.000000000000000
  0
LINE
  5
1B1
100
AcDbEntity
  8
A1
  6
CONTINUOUS
 62
7
100
AcDbLine
 10
181.0290771708043
 20
90.81327778722380
 30
0.000000000000000
 11
173.8290771708036
 21
92.11327778688232
 31
0.000000000000000
  0
LINE
  5
1B2
100
AcDbEntity
  8
A1
  6
CONTINUOUS
 62
7
100
AcDbLine
 10
181.2422962073217
 20
89.39418322055302
 30
0.000000000000000
 11
174.0422962073210
 21
90.69418322021154
 31
0.000000000000000
  0
LINE
  5
1B3
100
AcDbEntity
  8
A1
  6
CONTINUOUS
 62
7
100
AcDbLine
 10
173.8290771708037
 20
89.51327778688224
 30
0.000000000000000
 11
181.0290771708043
 21
88.21327778722372
 31
0.000000000000000
  0
LINE
  5
1B4
100
AcDbEntity
  8
A1
  6
CONTINUOUS
 62
7
100
AcDbLine
 10
181.2422962073217
 20
86.79418322055298
 30
0.000000000000000
 11
174.0422962073210
 21
88.09418322021151
 31
0.000000000000000
  0
LINE
  5
1B5
100
AcDbEntity
  8
A1
  6
CONTINUOUS
 62
7
100
AcDbLine
 10
173.8290771708037
 20
86.91327778688228
 30
0.000000000000000
 11
181.0290771708044
 21
85.61327778722375
 31
0.000000000000000
  0
LINE
  5
1B6
100
AcDbEntity
  8
A1
  6
CONTINUOUS
 62
7
100
AcDbLine
 10
181.2422962073217
 20
84.19418322055296
 30
0.000000000000000
 11
174.0422962073210
 21
85.49418322021148
 31
0.000000000000000
  0
LINE
  5
1B7
100
AcDbEntity
  8
A1
  6
CONTINUOUS
 62
7
100
AcDbLine
 10
173.8290771708036
 20
84.31327778688220
 30
0.000000000000000
 11
181.0290771708043
 21
83.01327778722367
 31
0.000000000000000
  0
LINE
  5
1B8
100
AcDbEntity
  8
A1
  6
CONTINUOUS
 62
7
100
AcDbLine
 10
181.2502084845236
 20
81.49269973734836
 30
0.000000000000000
 11
174.0502084845236
 21
82.89269973734797
 31
0.000000000000000
  0
LINE
  5
1B9
100
AcDbEntity
  8
A1
  6
CONTINUOUS
 62
7
100
AcDbLine
 10
173.8211648936010
 20
81.71476126974568
 30
0.000000000000000
 11
181.0211648936010
 21
80.31476126974607
 31
0.000000000000000
  0
LINE
  5
1BA
100
AcDbEntity
  8
A1
  6
CONTINUOUS
 62
7
100
AcDbLine
 10
181.2422962073760
 20
90.81327778723363
 30
0.000000000000000
 11
180.0813684369459
 21
90.60366582862873
 31
0.000000000000000
  0
LINE
  5
1BB
100
AcDbEntity
  8
A1
  6
CONTINUOUS
 62
7
100
AcDbLine
 10
181.2422962073759
 20
88.21327778723349
 30
0.000000000000000
 11
180.0814370868715
 21
88.00367822375406
 31
0.000000000000000
  0
LINE
  5
1BC
100
AcDbEntity
  8
A1
  6
CONTINUOUS
 62
7
100
AcDbLine
 10
181.2422962073761
 20
85.61327778723354
 30
0.000000000000000
 11
180.0815057367971
 21
85.40369061887955
 31
0.000000000000000
  0
LINE
  5
1BD
100
AcDbEntity
  8
A1
  6
CONTINUOUS
 62
7
100
AcDbLine
 10
181.2422962073760
 20
83.01327778723356
 30
0.000000000000000
 11
180.0815743867227
 21
82.80370301400501
 31
0.000000000000000
  0
LINE
  5
1BE
100
AcDbEntity
  8
A1
  6
CONTINUOUS
 62
7
100
AcDbLine
 10
175.0820040082002
 20
85.72040612146743
 30
0.000000000000000
 11
173.8290771707494
 21
85.49418322020165
 31
0.000000000000000
  0
LINE
  5
1BF
100
AcDbEntity
  8
A1
  6
CONTINUOUS
 62
7
100
AcDbLine
 10
175.0820040081964
 20
88.32040612146686
 30
0.000000000000000
 11
173.8290771707494
 21
88.09418322020176
 31
0.000000000000000
  0
LINE
  5
1C0
100
AcDbEntity
  8
A1
  6
CONTINUOUS
 62
7
100
AcDbLine
 10
175.0820040081927
 20
90.92040612146616
 30
0.000000000000000
 11
173.6342194937735
 21
90.65900058407183
 31
0.000000000000000
  0
LINE
  5
1C1
100
AcDbEntity
  8
A1
  6
CONTINUOUS
 62
7
100
AcDbLine
 10
175.0820040082041
 20
83.12040612146811
 30
0.000000000000000
 11
173.8290771707494
 21
82.89418322020160
 31
0.000000000000000
  0
LINE
  5
1C2
100
AcDbEntity
  8
A1
  6
CONTINUOUS
 62
7
100
AcDbLine
 10
175.0820040082079
 20
80.50305964310107
 30
0.000000000000000
 11
173.8370472966789
 21
80.29556685784621
 31
0.000000000000000
  0
ARC
  5
1C3
100
AcDbEntity
  8
A1
  6
CONTINUOUS
 62
7
100
AcDbCircle
 10
181.1356866890624
 20
93.90373050354705
 30
0.000000000000000
 40
0.6000000000000000
100
AcDbArc
 50
270.0000000000002
 51
450.0000000000001
  0
LINE
  5
1C4
100
AcDbEntity
  8
A1
  6
CONTINUOUS
 62
7
100
AcDbLine
 10
182.0377282141189
 20
79.10373050354677
 30
0.000000000000000
 11
173.0337184474331
 21
79.10373050354674
 31
0.000000000000000
  0
ARC
  5
1C5
100
AcDbEntity
  8
A1
  6
CONTINUOUS
 62
7
100
AcDbCircle
 10
173.0337184474331
 20
78.60373050354686
 30
0.000000000000000
 40
0.5000000000000000
100
AcDbArc
 50
90.00000000000121
 51
178.2314000000003
  0
ARC
  5
1C6
100
AcDbEntity
  8
A1
  6
CONTINUOUS
 62
7
100
AcDbCircle
 10
182.0377282141189
 20
78.60373050354688
 30
0.000000000000000
 40
0.5000000000000000
100
AcDbArc
 50
358.2314000000003
 51
449.9999999999995
  0
LINE
  5
1C7
100
AcDbEntity
  8
A1
  6
CONTINUOUS
 62
7
100
AcDbLine
 10
173.0336763887562
 20
76.60373050359746
 30
0.000000000000000
 11
182.0377282141189
 21
76.60373050359749
 31
0.000000000000000
  0
ARC
  5
1C8
100
AcDbEntity
  8
A1
  6
CONTINUOUS
 62
7
100
AcDbCircle
 10
182.0377282141189
 20
77.10373050359765
 30
0.000000000000000
 40
0.5000000000000000
100
AcDbArc
 50
269.9999999999995
 51
358.2314000000003
  0
ARC
  5
1C9
100
AcDbEntity
  8
A1
  6
CONTINUOUS
 62
7
100
AcDbCircle
 10
173.0336763887563
 20
77.10373050359756
 30
0.000000000000000
 40
0.5000000000000000
100
AcDbArc
 50
178.2314000000003
 51
269.9999999999995
  0
LINE
  5
1CA
100
AcDbEntity
  8
A1
  6
CONTINUOUS
 62
7
100
AcDbLine
 10
181.1356866890883
 20
76.60373220941247
 30
0.000000000000000
 11
173.9356866890883
 21
76.60373220941246
 31
0.000000000000000
  0
LINE
  5
1CB
100
AcDbEntity
  8
A1
  6
CONTINUOUS
 62
7
100
AcDbLine
 10
172.5339566352264
 20
78.61916199925930
 30
0.000000000000000
 11
172.5339566352264
 21
77.11916199931001
 31
0.000000000000000
  0
LINE
  5
1CC
100
AcDbEntity
  8
A1
  6
CONTINUOUS
 62
7
100
AcDbLine
 10
182.5374900263256
 20
78.58829900783444
 30
0.000000000000000
 11
182.5374900263256
 21
77.08829900788520
 31
0.000000000000000
  0
ARC
  5
1CD
100
AcDbEntity
  8
A1
  6
CONTINUOUS
 62
7
100
AcDbCircle
 10
181.5356866890623
 20
76.11024754170226
 30
0.000000000000000
 40
2.000000000000000
100
AcDbArc
 50
1.526666247102488e-13
 51
59.94032813258309
  0
LINE
  5
1CE
100
AcDbEntity
  8
A1
  6
CONTINUOUS
 62
7
100
AcDbLine
 10
181.5356866890624
 20
76.60373050359748
 30
0.000000000000000
 11
181.5356866890624
 21
69.90719250354719
 31
0.000000000000000
  0
LINE
  5
1CF
100
AcDbEntity
  8
A1
  6
CONTINUOUS
 62
7
100
AcDbLine
 10
181.5356866890624
 20
54.10719250354739
 30
0.000000000000000
 11
183.5356866890624
 21
54.10719250354740
 31
0.000000000000000
  0
LINE
  5
1D0
100
AcDbEntity
  8
A1
  6
CONTINUOUS
 62
7
100
AcDbLine
 10
180.0819436853740
 20
68.90373038452215
 30
0.000000000000000
 11
180.0819436853716
 21
76.60373050359175
 31
0.000000000000000
  0
LINE
  5
1D1
100
AcDbEntity
  8
A1
  6
CONTINUOUS
 62
7
100
AcDbLine
 10
182.0377282140929
 20
97.00897950354731
 30
0.000000000000000
 11
180.0811993114062
 21
97.00897950354731
 31
0.000000000000000
  0
LINE
  5
1D2
100
AcDbEntity
  8
A1
  6
CONTINUOUS
 62
7
100
AcDbLine
 10
175.0820040081838
 20
97.00897950354729
 30
0.000000000000000
 11
173.0337184474070
 21
97.00897950354728
 31
0.000000000000000
  0
LINE
  5
1D3
100
AcDbEntity
  8
A1
  6
CONTINUOUS
 62
7
100
AcDbLine
 10
175.0820040081875
 20
94.50373050354719
 30
0.000000000000000
 11
173.9356866890622
 21
94.50373050354717
 31
0.000000000000000
  0
LINE
  5
1D4
100
AcDbEntity
  8
A1
  6
CONTINUOUS
 62
7
100
AcDbLine
 10
180.0810982509779
 20
100.8364543127219
 30
0.000000000000000
 11
180.0812654599040
 21
94.50372879773224
 31
0.000000000000000
  0
LINE
  5
1D5
100
AcDbEntity
  8
A1
  6
CONTINUOUS
 62
7
100
AcDbLine
 10
175.0820040081782
 20
100.8364543127131
 30
0.000000000000000
 11
175.0820040081875
 21
94.50372879773228
 31
0.000000000000000
  0
LINE
  5
1D6
100
AcDbEntity
  8
A1
  6
CONTINUOUS
 62
7
100
AcDbLine
 10
175.0820040081892
 20
93.30373050354716
 30
0.000000000000000
 11
175.0820040081895
 21
93.10645820065956
 31
0.000000000000000
  0
LINE
  5
1D7
100
AcDbEntity
  8
A1
  6
CONTINUOUS
 62
7
100
AcDbLine
 10
180.0812971445911
 20
93.30373050354713
 30
0.000000000000000
 11
180.0813261870198
 21
92.20380280749686
 31
0.000000000000000
  0
LINE
  5
1D8
100
AcDbEntity
  8
A1
  6
CONTINUOUS
 62
7
100
AcDbLine
 10
180.0813583842293
 20
90.98439367919919
 30
0.000000000000000
 11
180.0813948375998
 21
89.60379041225313
 31
0.000000000000000
  0
LINE
  5
1D9
100
AcDbEntity
  8
A1
  6
CONTINUOUS
 62
7
100
AcDbLine
 10
175.0820040081913
 20
91.88705488574668
 30
0.000000000000000
 11
175.0820040081933
 21
90.50645820065886
 31
0.000000000000000
  0
LINE
  5
1DA
100
AcDbEntity
  8
A1
  6
CONTINUOUS
 62
7
100
AcDbLine
 10
175.0820040081950
 20
89.28705488574597
 30
0.000000000000000
 11
175.0820040081970
 21
87.90645820065815
 31
0.000000000000000
  0
LINE
  5
1DB
100
AcDbEntity
  8
A1
  6
CONTINUOUS
 62
7
100
AcDbLine
 10
180.0814270348094
 20
88.38438128395552
 30
0.000000000000000
 11
180.0814634881799
 21
87.00377801700949
 31
0.000000000000000
  0
LINE
  5
1DC
100
AcDbEntity
  8
A1
  6
CONTINUOUS
 62
7
100
AcDbLine
 10
175.0820040081989
 20
86.68705488574533
 30
0.000000000000000
 11
175.0820040082008
 21
85.30645820065745
 31
0.000000000000000
  0
LINE
  5
1DD
100
AcDbEntity
  8
A1
  6
CONTINUOUS
 62
7
100
AcDbLine
 10
180.0814956853895
 20
85.78436888871191
 30
0.000000000000000
 11
180.0815321387601
 21
84.40376562176584
 31
0.000000000000000
  0
LINE
  5
1DE
100
AcDbEntity
  8
A1
  6
CONTINUOUS
 62
7
100
AcDbLine
 10
180.0816352809605
 20
80.49744758331501
 30
0.000000000000000
 11
180.0816403958553
 21
80.30373050354721
 31
0.000000000000000
  0
LINE
  5
1DF
100
AcDbEntity
  8
A1
  6
CONTINUOUS
 62
7
100
AcDbLine
 10
180.0815643359697
 20
83.18435649346820
 30
0.000000000000000
 11
180.0816030026414
 21
81.71992858104761
 31
0.000000000000000
  0
LINE
  5
1E0
100
AcDbEntity
  8
A1
  6
CONTINUOUS
 62
7
100
AcDbLine
 10
175.0820040082064
 20
81.46959810857254
 30
0.000000000000000
 11
175.0820040082081
 21
80.30373050354729
 31
0.000000000000000
  0
LINE
  5
1E1
100
AcDbEntity
  8
A1
  6
CONTINUOUS
 62
7
100
AcDbLine
 10
175.0820040082026
 20
84.08705488574459
 30
0.000000000000000
 11
175.0820040082046
 21
82.69207282996565
 31
0.000000000000000
  0
ARC
  5
1E2
100
AcDbEntity
  8
A1
  6
CONTINUOUS
 62
7
100
AcDbCircle
 10
177.5819446884034
 20
68.90373256501695
 30
0.000000000000000
 40
2.500000000000247
100
AcDbArc
 50
179.9999500265814
 51
359.9999500267407
  0
ARC
  5
1E3
100
AcDbEntity
  8
A1
  6
CONTINUOUS
 62
7
100
AcDbCircle
 10
178.5356866890623
 20
69.80719250354713
 30
0.000000000000000
 40
3.000000000000000
100
AcDbArc
 50
278.8497381202274
 51
360.0000000000001
  0
ARC
  5
1E4
100
AcDbEntity
  8
A1
  6
CONTINUOUS
 62
7
100
AcDbCircle
 10
176.5356866890625
 20
85.90719250354752
 30
0.000000000000000
 40
6.000000000000000
100
AcDbArc
 50
104.0211733573249
 51
180.0000000000001
  0
ARC
  5
1E5
100
AcDbEntity
  8
A1
  6
CONTINUOUS
 62
7
100
AcDbCircle
 10
173.0716473278056
 20
86.40762362134798
 30
0.000000000000000
 40
1.000000000000000
100
AcDbArc
 50
171.7796586031761
 51
271.3737268300453
  0
ARC
  5
1E6
100
AcDbEntity
  8
A1
  6
CONTINUOUS
 62
7
100
AcDbCircle
 10
176.5356866890625
 20
85.90719250354752
 30
0.000000000000000
 40
4.500000000000000
100
AcDbArc
 50
126.7840217446485
 51
171.7796586031757
  0
ARC
  5
1E7
100
AcDbEntity
  8
A1
  6
CONTINUOUS
 62
7
100
AcDbCircle
 10
173.0356866890622
 20
87.90719250354728
 30
0.000000000000000
 40
2.499999999999773
100
AcDbArc
 50
198.2044474800386
 51
270.0000000000002
  0
LINE
  5
1E8
100
AcDbEntity
  8
A1
  6
CONTINUOUS
 62
7
100
AcDbLine
 10
173.0356866890623
 20
85.40791103321494
 30
0.000000000000000
 11
173.6104145053397
 21
85.40791103321494
 31
0.000000000000000
  0
LINE
  5
1E9
100
AcDbEntity
  8
A1
  6
CONTINUOUS
 62
7
100
AcDbLine
 10
183.5356866890625
 20
85.90719250354731
 30
0.000000000000000
 11
183.5356866890625
 21
79.98319950354731
 31
0.000000000000000
  0
ARC
  5
1EA
100
AcDbEntity
  8
A1
  6
CONTINUOUS
 62
7
100
AcDbCircle
 10
178.5356866890625
 20
85.90719250354729
 30
0.000000000000000
 40
5.000000000000000
100
AcDbArc
 50
1.017777498068325e-13
 51
70.62615279535498
  0
LINE
  5
1EB
100
AcDbEntity
  8
A1
  6
CONTINUOUS
 62
7
100
AcDbLine
 10
182.5374900263255
 20
78.38731928606870
 30
0.000000000000000
 11
183.0726782403686
 21
78.89938747071147
 31
0.000000000000000
  0
ARC
  5
1EC
100
AcDbEntity
  8
A1
  6
CONTINUOUS
 62
7
100
AcDbCircle
 10
182.0356866890625
 20
79.98319950354731
 30
0.000000000000000
 40
1.500000000000000
100
AcDbArc
 50
313.7353000000001
 51
360.0000000000001
  0
ARC
  5
1ED
100
AcDbEntity
  8
A1
  6
CONTINUOUS
 62
7
100
AcDbCircle
 10
180.5298799085811
 20
106.1037323365124
 30
0.000000000000000
 40
2.500000000000000
100
AcDbArc
 50
324.6084259035035
 51
504.6218837465105
  0
LINE
  5
1EE
100
AcDbEntity
  8
A1
  6
CONTINUOUS
 62
7
100
AcDbLine
 10
178.4915074363187
 20
107.5511568299915
 30
0.000000000000000
 11
176.2058429849590
 21
104.3323115503449
 31
0.000000000000000
  0
LINE
  5
1EF
100
AcDbEntity
  8
A1
  6
CONTINUOUS
 62
7
100
AcDbLine
 10
182.5682523808433
 20
104.6563078430333
 30
0.000000000000000
 11
180.2410479283681
 21
101.3789627969719
 31
0.000000000000000
  0
ARC
  5
1F0
100
AcDbEntity
  8
A1
  6
CONTINUOUS
 62
7
100
AcDbCircle
 10
181.0810982509778
 20
100.8364543127219
 30
0.000000000000000
 40
5.999094242857485
100
AcDbArc
 50
144.3571543838244
 51
180.0000000000001
  0
ARC
  5
1F1
100
AcDbEntity
  8
A1
  6
CONTINUOUS
 62
7
100
AcDbCircle
 10
181.0810982509778
 20
100.8364543127219
 30
0.000000000000000
 40
1.000000000000000
100
AcDbArc
 50
147.1454339455872
 51
180.0000000000001
  0
CIRCLE
  5
1F2
100
AcDbEntity
  8
A1
  6
CONTINUOUS
 62
7
100
AcDbCircle
 10
180.4356866890622
 20
105.9571925035474
 30
0.000000000000000
 40
1.400000000000000
  0
SPLINE
  5
1F3
100
AcDbEntity
  8
A1
  6
CONTINUOUS
 62
7
100
AcDbSpline
210
0.000000000000000
220
0.000000000000000
230
1.000000000000000
 70
     8
 71
     3
 72
     9
 73
     5
 74
     0
 42
1.000000000000000e-07
 43
1.000000000000000e-07
 12
-0.9984023324977898
 22
-0.05650471194530837
 32
0.000000000000000
 13
-0.7568033162042411
 23
-0.6536426704115001
 33
0.000000000000000
 40
0.000000000000000
 40
0.000000000000000
 40
0.000000000000000
 40
0.000000000000000
 40
0.02709418349011820
 40
0.05415767634198150
 40
0.05415767634198150
 40
0.05415767634198150
 40
0.05415767634198150
 10
134.4314692897478
 20
125.7252132337518
 30
0.000000000000000
 10
134.4224523244166
 20
125.7247029174073
 30
0.000000000000000
 10
134.4044019946682
 20
125.7209212214321
 30
0.000000000000000
 10
134.3888027837172
 20
125.7110855039224
 30
0.000000000000000
 10
134.3819755366711
 20
125.7051888860096
 30
0.000000000000000
  0
ARC
  5
1F4
100
AcDbEntity
  8
A1
  6
CONTINUOUS
 62
7
100
AcDbCircle
 10
130.8314692897683
 20
125.6429881710260
 30
0.000000000000000
 40
4.199999999979616
100
AcDbArc
 50
0.000000000000000
 51
1.003652346661201
  0
ARC
  5
1F5
100
AcDbEntity
  8
A1
  6
CONTINUOUS
 62
7
100
AcDbCircle
 10
130.8314692897683
 20
125.6429881710260
 30
0.000000000000000
 40
4.199999999979616
100
AcDbArc
 50
269.7694352613614
 51
360.0000000000000
  0
ARC
  5
1F6
100
AcDbEntity
  8
A1
  6
CONTINUOUS
 62
7
100
AcDbCircle
 10
130.8314692897683
 20
125.6429881710260
 30
0.000000000000000
 40
4.199999999979616
100
AcDbArc
 50
216.4105277101522
 51
248.8281196571924
  0
ARC
  5
1F7
100
AcDbEntity
  8
A1
  6
CONTINUOUS
 62
7
100
AcDbCircle
 10
130.8314692897683
 20
125.6429881710260
 30
0.000000000000000
 40
2.999999999979617
100
AcDbArc
 50
236.2009279178109
 51
239.6265692474302
  0
ARC
  5
1F8
100
AcDbEntity
  8
A1
  6
CONTINUOUS
 62
7
100
AcDbCircle
 10
130.8314692897683
 20
125.6429881710260
 30
0.000000000000000
 40
2.999999999979617
100
AcDbArc
 50
269.6772085295569
 51
361.0036523466612
  0
ARC
  5
1F9
100
AcDbEntity
  8
A1
  6
CONTINUOUS
 62
7
100
AcDbCircle
 10
130.8314692897683
 20
125.6429881710260
 30
0.000000000000000
 40
2.999999999979604
100
AcDbArc
 50
1.003652346660946
 51
90.37757161143202
  0
ARC
  5
1FA
100
AcDbEntity
  8
A1
  6
CONTINUOUS
 62
7
100
AcDbCircle
 10
130.8314692897683
 20
125.6429881710260
 30
0.000000000000000
 40
4.199999999979632
100
AcDbArc
 50
111.1721747361201
 51
139.0315444116583
  0
ARC
  5
1FB
100
AcDbEntity
  8
A1
  6
CONTINUOUS
 62
7
100
AcDbCircle
 10
130.8314692897683
 20
125.6429881710260
 30
0.000000000000000
 40
4.199999999979604
100
AcDbArc
 50
1.003652346660946
 51
90.25595149361703
  0
LINE
  5
1FC
100
AcDbEntity
  8
A1
  6
CONTINUOUS
 62
7
100
AcDbLine
 10
134.4314692897478
 20
125.7060559586507
 30
0.000000000000000
 11
134.4314692897478
 21
125.7252132337518
 31
0.000000000000000
  0
LINE
  5
1FD
100
AcDbEntity
  8
A1
  6
CONTINUOUS
 62
7
100
AcDbLine
 10
134.3819755366711
 20
125.7051888860097
 30
0.000000000000000
 11
133.8312195703459
 21
125.6955402859215
 31
0.000000000000000
  0
LINE
  5
1FE
100
AcDbEntity
  8
A1
  6
CONTINUOUS
 62
7
100
AcDbLine
 10
129.1833521596882
 20
128.1497210896702
 30
0.000000000000000
 11
129.3127328706165
 21
128.2301564471572
 31
0.000000000000000
  0
LINE
  5
1FF
100
AcDbEntity
  8
A1
  6
CONTINUOUS
 62
7
100
AcDbLine
 10
133.8314692892311
 20
125.6429324670776
 30
0.000000000000000
 11
133.8308529344656
 21
125.5821790286032
 31
0.000000000000000
  0
LINE
  5
200
100
AcDbEntity
  8
A1
  6
CONTINUOUS
 62
7
100
AcDbLine
 10
135.0308249140126
 20
125.7165559678793
 30
0.000000000000000
 11
134.4314692895138
 21
125.7060559586466
 31
0.000000000000000
  0
ARC
  5
201
100
AcDbEntity
  8
A1
  6
CONTINUOUS
 62
7
100
AcDbCircle
 10
123.5645686678452
 20
120.2037323365079
 30
0.000000000000000
 40
1.599999999995680
100
AcDbArc
 50
269.9999999998437
 51
360.0000000001547
  0
ARC
  5
202
100
AcDbEntity
  8
A1
  6
CONTINUOUS
 62
7
100
AcDbCircle
 10
110.7645459658294
 20
120.2037096345007
 30
0.000000000000000
 40
1.599977298149574
100
AcDbArc
 50
179.9991870325622
 51
270.0008129674395
  0
LINE
  5
203
100
AcDbEntity
  8
A1
  6
CONTINUOUS
 62
7
100
AcDbLine
 10
123.5645686678408
 20
126.6037323365122
 30
0.000000000000000
 11
123.5645686678408
 21
126.2948187506986
 31
0.000000000000000
  0
LINE
  5
204
100
AcDbEntity
  8
A1
  6
CONTINUOUS
 62
7
100
AcDbLine
 10
125.1645686678409
 20
126.6037323365122
 30
0.000000000000000
 11
125.1645686678409
 21
126.2948187506986
 31
0.000000000000000
  0
LINE
  5
205
100
AcDbEntity
  8
A1
  6
CONTINUOUS
 62
7
100
AcDbLine
 10
109.1645686678409
 20
126.2948187506986
 30
0.000000000000000
 11
109.1645686678409
 21
126.6037323365122
 31
0.000000000000000
  0
LINE
  5
206
100
AcDbEntity
  8
A1
  6
CONTINUOUS
 62
7
100
AcDbLine
 10
110.7645686678409
 20
126.2948187506986
 30
0.000000000000000
 11
110.7645686678409
 21
126.6037323365122
 31
0.000000000000000
  0
LINE
  5
207
100
AcDbEntity
  8
A1
  6
CONTINUOUS
 62
7
100
AcDbLine
 10
123.5645686678408
 20
131.6037323365122
 30
0.000000000000000
 11
123.5645686678408
 21
130.0036904164941
 31
0.000000000000000
  0
LINE
  5
208
100
AcDbEntity
  8
A1
  6
CONTINUOUS
 62
7
100
AcDbLine
 10
125.1645686678409
 20
131.6037323365122
 30
0.000000000000000
 11
125.1645686678409
 21
130.0036904164941
 31
0.000000000000000
  0
LINE
  5
209
100
AcDbEntity
  8
A1
  6
CONTINUOUS
 62
7
100
AcDbLine
 10
123.5645686678408
 20
131.6037323365122
 30
0.000000000000000
 11
125.1645686678409
 21
131.6037323365122
 31
0.000000000000000
  0
LINE
  5
20A
100
AcDbEntity
  8
A1
  6
CONTINUOUS
 62
7
100
AcDbLine
 10
109.1645686678409
 20
130.0036904164941
 30
0.000000000000000
 11
109.1645686678409
 21
131.6037323365122
 31
0.000000000000000
  0
LINE
  5
20B
100
AcDbEntity
  8
A1
  6
CONTINUOUS
 62
7
100
AcDbLine
 10
110.7645686678409
 20
130.0036904164941
 30
0.000000000000000
 11
110.7645686678409
 21
131.6037323365122
 31
0.000000000000000
  0
LINE
  5
20C
100
AcDbEntity
  8
A1
  6
CONTINUOUS
 62
7
100
AcDbLine
 10
110.7645686678409
 20
131.6037323365122
 30
0.000000000000000
 11
109.1645686678409
 21
131.6037323365122
 31
0.000000000000000
  0
LINE
  5
20D
100
AcDbEntity
  8
A1
  6
CONTINUOUS
 62
7
100
AcDbLine
 10
123.5645686678408
 20
127.0036904164941
 30
0.000000000000000
 11
123.5645686678408
 21
126.6037323365122
 31
0.000000000000000
  0
LINE
  5
20E
100
AcDbEntity
  8
A1
  6
CONTINUOUS
 62
7
100
AcDbLine
 10
125.1645686678409
 20
127.0036904164941
 30
0.000000000000000
 11
125.1645686678409
 21
126.6037323365122
 31
0.000000000000000
  0
LINE
  5
20F
100
AcDbEntity
  8
A1
  6
CONTINUOUS
 62
7
100
AcDbLine
 10
109.1645686678409
 20
126.6037323365122
 30
0.000000000000000
 11
109.1645686678409
 21
127.0036904164941
 31
0.000000000000000
  0
LINE
  5
210
100
AcDbEntity
  8
A1
  6
CONTINUOUS
 62
7
100
AcDbLine
 10
110.7645686678409
 20
126.6037323365122
 30
0.000000000000000
 11
110.7645686678409
 21
127.0036904164941
 31
0.000000000000000
  0
LINE
  5
211
100
AcDbEntity
  8
A1
  6
CONTINUOUS
 62
7
100
AcDbLine
 10
109.1645686678409
 20
120.2037323365122
 30
0.000000000000000
 11
109.1645686678409
 21
122.7302329369928
 31
0.000000000000000
  0
LINE
  5
212
100
AcDbEntity
  8
A1
  6
CONTINUOUS
 62
7
100
AcDbLine
 10
125.1645686678409
 20
120.2037323365122
 30
0.000000000000000
 11
125.1645686678409
 21
122.7302329369928
 31
0.000000000000000
  0
LINE
  5
213
100
AcDbEntity
  8
A1
  6
CONTINUOUS
 62
7
100
AcDbLine
 10
123.5645686678408
 20
118.6037323365122
 30
0.000000000000000
 11
110.7645686678409
 21
118.6037323365122
 31
0.000000000000000
  0
LINE
  5
214
100
AcDbEntity
  8
A1
  6
CONTINUOUS
 62
7
100
AcDbLine
 10
109.1645686678409
 20
122.7302329369928
 30
0.000000000000000
 11
109.1645686678409
 21
126.2948187506986
 31
0.000000000000000
  0
LINE
  5
215
100
AcDbEntity
  8
A1
  6
CONTINUOUS
 62
7
100
AcDbLine
 10
125.1645686678409
 20
126.2948187506986
 30
0.000000000000000
 11
109.1645686678409
 21
126.2948187506986
 31
0.000000000000000
  0
LINE
  5
216
100
AcDbEntity
  8
A1
  6
CONTINUOUS
 62
7
100
AcDbLine
 10
125.1645686678409
 20
122.7302329369928
 30
0.000000000000000
 11
125.1645686678409
 21
126.2948187506986
 31
0.000000000000000
  0
LINE
  5
217
100
AcDbEntity
  8
A1
  6
CONTINUOUS
 62
7
100
AcDbLine
 10
123.5645686678408
 20
131.6037323365120
 30
0.000000000000000
 11
123.1645686678424
 21
131.6037323365120
 31
0.000000000000000
  0
LINE
  5
218
100
AcDbEntity
  8
A1
  6
CONTINUOUS
 62
7
100
AcDbLine
 10
110.7645686678409
 20
131.6037323365120
 30
0.000000000000000
 11
111.1645686678394
 21
131.6037323365120
 31
0.000000000000000
  0
LINE
  5
219
100
AcDbEntity
  8
A1
  6
CONTINUOUS
 62
7
100
AcDbLine
 10
123.1645686678424
 20
131.6037323365120
 30
0.000000000000000
 11
123.1645686678424
 21
131.0605215003665
 31
0.000000000000000
  0
LINE
  5
21A
100
AcDbEntity
  8
A1
  6
CONTINUOUS
 62
7
100
AcDbLine
 10
111.1645686678392
 20
131.0605215003665
 30
0.000000000000000
 11
111.1645686678392
 21
131.6037323365120
 31
0.000000000000000
  0
LINE
  5
21B
100
AcDbEntity
  8
A1
  6
CONTINUOUS
 62
7
100
AcDbLine
 10
123.1645686678424
 20
131.6037323365120
 30
0.000000000000000
 11
111.1645686678394
 21
131.6037323365120
 31
0.000000000000000
  0
LINE
  5
21C
100
AcDbEntity
  8
A1
  6
CONTINUOUS
 62
7
100
AcDbLine
 10
123.1645686678424
 20
130.0036904164941
 30
0.000000000000000
 11
123.1645686678424
 21
131.0605215003665
 31
0.000000000000000
  0
LINE
  5
21D
100
AcDbEntity
  8
A1
  6
CONTINUOUS
 62
7
100
AcDbLine
 10
123.1645686678424
 20
126.2948187506986
 30
0.000000000000000
 11
123.1645686678424
 21
127.0036904164941
 31
0.000000000000000
  0
LINE
  5
21E
100
AcDbEntity
  8
A1
  6
CONTINUOUS
 62
7
100
AcDbLine
 10
111.1645686678393
 20
127.0036904164941
 30
0.000000000000000
 11
111.1645686678393
 21
126.2948187506986
 31
0.000000000000000
  0
LINE
  5
21F
100
AcDbEntity
  8
A1
  6
CONTINUOUS
 62
7
100
AcDbLine
 10
111.1645686678394
 20
131.0605215003665
 30
0.000000000000000
 11
111.1645686678394
 21
130.0036904164941
 31
0.000000000000000
  0
SPLINE
  5
220
100
AcDbEntity
  8
A1
  6
CONTINUOUS
 62
7
100
AcDbSpline
210
0.000000000000000
220
0.000000000000000
230
1.000000000000000
 70
     8
 71
     3
 72
     9
 73
     5
 74
     0
 42
1.000000000000000e-07
 43
1.000000000000000e-07
 12
0.9984023324941518
 22
-0.05650471194530837
 32
0.000000000000000
 13
0.7568033162024221
 23
-0.6536426704133191
 33
0.000000000000000
 40
0.000000000000000
 40
0.000000000000000
 40
0.000000000000000
 40
0.000000000000000
 40
0.02709418349011970
 40
0.05415767634198810
 40
0.05415767634198810
 40
0.05415767634198810
 40
0.05415767634198810
 10
99.89766804593047
 20
125.7252132337518
 30
0.000000000000000
 10
99.90668501126166
 20
125.7247029174073
 30
0.000000000000000
 10
99.92473534101006
 20
125.7209212214322
 30
0.000000000000000
 10
99.94033455196110
 20
125.7110855039224
 30
0.000000000000000
 10
99.94716179900722
 20
125.7051888860096
 30
0.000000000000000
  0
ARC
  5
221
100
AcDbEntity
  8
A1
  6
CONTINUOUS
 62
7
100
AcDbCircle
 10
103.4976680459100
 20
125.6429881710260
 30
0.000000000000000
 40
4.199999999979616
100
AcDbArc
 50
291.1718803428514
 51
323.5894722898478
  0
ARC
  5
222
100
AcDbEntity
  8
A1
  6
CONTINUOUS
 62
7
100
AcDbCircle
 10
103.4976680459100
 20
125.6429881710260
 30
0.000000000000000
 40
4.199999999979616
100
AcDbArc
 50
178.9963476533389
 51
270.2305647386796
  0
ARC
  5
223
100
AcDbEntity
  8
A1
  6
CONTINUOUS
 62
7
100
AcDbCircle
 10
103.4976680459100
 20
125.6429881710260
 30
0.000000000000000
 40
2.999999999979617
100
AcDbArc
 50
178.9963476533389
 51
180.0000000000000
  0
ARC
  5
224
100
AcDbEntity
  8
A1
  6
CONTINUOUS
 62
7
100
AcDbCircle
 10
103.4976680459100
 20
125.6429881710260
 30
0.000000000000000
 40
2.999999999979617
100
AcDbArc
 50
180.0000000000000
 51
270.3227914705001
  0
ARC
  5
225
100
AcDbEntity
  8
A1
  6
CONTINUOUS
 62
7
100
AcDbCircle
 10
103.4976680459100
 20
125.6429881710260
 30
0.000000000000000
 40
2.999999999979617
100
AcDbArc
 50
300.3734307526360
 51
303.7990720821891
  0
ARC
  5
226
100
AcDbEntity
  8
A1
  6
CONTINUOUS
 62
7
100
AcDbCircle
 10
103.4976680459100
 20
125.6429881710260
 30
0.000000000000000
 40
4.199999999979624
100
AcDbArc
 50
89.73613268556163
 51
178.9963476533387
  0
ARC
  5
227
100
AcDbEntity
  8
A1
  6
CONTINUOUS
 62
7
100
AcDbCircle
 10
103.4976680459100
 20
125.6429881710261
 30
0.000000000000000
 40
4.199999999979569
100
AcDbArc
 50
40.99252770666448
 51
68.72943328022627
  0
ARC
  5
228
100
AcDbEntity
  8
A1
  6
CONTINUOUS
 62
7
100
AcDbCircle
 10
103.4976680459100
 20
125.6429881710260
 30
0.000000000000000
 40
2.999999999979609
100
AcDbArc
 50
89.65424932085354
 51
178.9963476533391
  0
LINE
  5
229
100
AcDbEntity
  8
A1
  6
CONTINUOUS
 62
7
100
AcDbLine
 10
99.89766804593047
 20
125.7060559586507
 30
0.000000000000000
 11
99.89766804593047
 21
125.7252132337518
 31
0.000000000000000
  0
LINE
  5
22A
100
AcDbEntity
  8
A1
  6
CONTINUOUS
 62
7
100
AcDbLine
 10
99.94716179900720
 20
125.7051888860096
 30
0.000000000000000
 11
100.4979177653324
 21
125.6955402859215
 31
0.000000000000000
  0
LINE
  5
22B
100
AcDbEntity
  8
A1
  6
CONTINUOUS
 62
7
100
AcDbLine
 10
100.4995622945775
 20
125.5363959400487
 30
0.000000000000000
 11
100.4998058553459
 21
125.7562237054834
 31
0.000000000000000
  0
LINE
  5
22C
100
AcDbEntity
  8
A1
  6
CONTINUOUS
 62
7
100
AcDbLine
 10
105.0168291714186
 20
128.2299070863810
 30
0.000000000000000
 11
105.1453081910481
 21
128.1500346309081
 31
0.000000000000000
  0
LINE
  5
22D
100
AcDbEntity
  8
A1
  6
CONTINUOUS
 62
7
100
AcDbLine
 10
99.29831242424422
 20
125.7165559678341
 30
0.000000000000000
 11
99.89766804616454
 21
125.7060559586466
 31
0.000000000000000
  0
LINE
  5
22E
100
AcDbEntity
  8
A1
  6
CONTINUOUS
 62
7
100
AcDbLine
 10
109.1645686678409
 20
126.9037323365065
 30
0.000000000000000
 11
108.6645692783764
 21
126.9037323365065
 31
0.000000000000000
  0
LINE
  5
22F
100
AcDbEntity
  8
A1
  6
CONTINUOUS
 62
7
100
AcDbLine
 10
111.1645686678393
 20
126.9037323365065
 30
0.000000000000000
 11
110.7645686678409
 21
126.9037323365065
 31
0.000000000000000
  0
LINE
  5
230
100
AcDbEntity
  8
A1
  6
CONTINUOUS
 62
7
100
AcDbLine
 10
123.5645686678408
 20
126.9037323365065
 30
0.000000000000000
 11
123.1645686678424
 21
126.9037323365065
 31
0.000000000000000
  0
LINE
  5
231
100
AcDbEntity
  8
A1
  6
CONTINUOUS
 62
7
100
AcDbLine
 10
125.6645680573049
 20
126.9037323365065
 30
0.000000000000000
 11
125.1645686678409
 21
126.9037323365065
 31
0.000000000000000
  0
LINE
  5
232
100
AcDbEntity
  8
A1
  6
CONTINUOUS
 62
7
100
AcDbLine
 10
125.1645686678409
 20
124.3037323365179
 30
0.000000000000000
 11
125.6645680573049
 21
124.3037323365179
 31
0.000000000000000
  0
LINE
  5
233
100
AcDbEntity
  8
A1
  6
CONTINUOUS
 62
7
100
AcDbLine
 10
108.6645692783764
 20
124.3037323365179
 30
0.000000000000000
 11
109.1645686678409
 21
124.3037323365179
 31
0.000000000000000
  0
LINE
  5
234
100
AcDbEntity
  8
A1
  6
CONTINUOUS
 62
7
100
AcDbLine
 10
105.0145692783764
 20
128.1497530026498
 30
0.000000000000000
 11
105.1298328365992
 21
128.1497561536899
 31
0.000000000000000
  0
LINE
  5
235
100
AcDbEntity
  8
A1
  6
CONTINUOUS
 62
7
100
AcDbLine
 10
105.1297443262748
 20
128.1498132545674
 30
0.000000000000000
 11
105.0145692783763
 21
128.1498101059469
 31
0.000000000000000
  0
LINE
  5
236
100
AcDbEntity
  8
A1
  6
CONTINUOUS
 62
7
100
AcDbLine
 10
129.1993930094038
 20
128.1498132545675
 30
0.000000000000000
 11
129.3145680573050
 21
128.1498101059470
 31
0.000000000000000
  0
LINE
  5
237
100
AcDbEntity
  8
A1
  6
CONTINUOUS
 62
7
100
AcDbLine
 10
129.3145680573049
 20
128.1497530026498
 30
0.000000000000000
 11
129.1993044990795
 21
128.1497561536899
 31
0.000000000000000
  0
LINE
  5
238
100
AcDbEntity
  8
A1
  6
CONTINUOUS
 62
7
100
AcDbLine
 10
126.0874005224402
 20
123.1500032398410
 30
0.000000000000000
 11
127.1645680573075
 21
123.1500068702269
 31
0.000000000000000
  0
LINE
  5
239
100
AcDbEntity
  8
A1
  6
CONTINUOUS
 62
7
100
AcDbLine
 10
125.6645680572477
 20
123.1500458116260
 30
0.000000000000000
 11
126.0874005223832
 21
123.1500458116260
 31
0.000000000000000
  0
LINE
  5
23A
100
AcDbEntity
  8
A1
  6
CONTINUOUS
 62
7
100
AcDbLine
 10
108.6645692784336
 20
123.1500458116260
 30
0.000000000000000
 11
108.2417368132981
 21
123.1500458116260
 31
0.000000000000000
  0
LINE
  5
23B
100
AcDbEntity
  8
A1
  6
CONTINUOUS
 62
7
100
AcDbLine
 10
108.2417368132412
 20
123.1500032398410
 30
0.000000000000000
 11
107.1645692783742
 21
123.1500068702269
 31
0.000000000000000
  0
LINE
  5
23C
100
AcDbEntity
  8
A1
  6
CONTINUOUS
 62
7
100
AcDbLine
 10
105.0145692783763
 20
130.1057738615427
 30
0.000000000000000
 11
105.0145692783763
 21
130.6055356737494
 31
0.000000000000000
  0
LINE
  5
23D
100
AcDbEntity
  8
A1
  6
CONTINUOUS
 62
7
100
AcDbLine
 10
103.5145692783765
 20
130.1057738615427
 30
0.000000000000000
 11
103.5145692783765
 21
130.6055356737494
 31
0.000000000000000
  0
LINE
  5
23E
100
AcDbEntity
  8
A1
  6
CONTINUOUS
 62
7
100
AcDbLine
 10
105.0145692783764
 20
130.6055356737494
 30
0.000000000000000
 11
103.5145692783765
 21
130.6055356737494
 31
0.000000000000000
  0
LINE
  5
23F
100
AcDbEntity
  8
A1
  6
CONTINUOUS
 62
7
100
AcDbLine
 10
129.3145680573050
 20
130.1057738615427
 30
0.000000000000000
 11
129.3145680573050
 21
130.6055356737494
 31
0.000000000000000
  0
LINE
  5
240
100
AcDbEntity
  8
A1
  6
CONTINUOUS
 62
7
100
AcDbLine
 10
130.8145680573048
 20
130.1057738615427
 30
0.000000000000000
 11
130.8145680573048
 21
130.6055356737494
 31
0.000000000000000
  0
LINE
  5
241
100
AcDbEntity
  8
A1
  6
CONTINUOUS
 62
7
100
AcDbLine
 10
129.3145680573049
 20
130.6055356737494
 30
0.000000000000000
 11
130.8145680573048
 21
130.6055356737494
 31
0.000000000000000
  0
LINE
  5
242
100
AcDbEntity
  8
A1
  6
CONTINUOUS
 62
7
100
AcDbLine
 10
105.0145692783763
 20
120.6020022826501
 30
0.000000000000000
 11
105.0145692783763
 21
121.1017640948569
 31
0.000000000000000
  0
LINE
  5
243
100
AcDbEntity
  8
A1
  6
CONTINUOUS
 62
7
100
AcDbLine
 10
103.5145692783765
 20
120.6020022826502
 30
0.000000000000000
 11
103.5145692783765
 21
121.1017640948569
 31
0.000000000000000
  0
LINE
  5
244
100
AcDbEntity
  8
A1
  6
CONTINUOUS
 62
7
100
AcDbLine
 10
105.0145692783764
 20
120.6020022826502
 30
0.000000000000000
 11
103.5145692783765
 21
120.6020022826502
 31
0.000000000000000
  0
LINE
  5
245
100
AcDbEntity
  8
A1
  6
CONTINUOUS
 62
7
100
AcDbLine
 10
129.3145680573050
 20
128.1492030387896
 30
0.000000000000000
 11
129.3145680573050
 21
130.1057738615427
 31
0.000000000000000
  0
LINE
  5
246
100
AcDbEntity
  8
A1
  6
CONTINUOUS
 62
7
100
AcDbLine
 10
129.3145680573050
 20
121.1017640948569
 30
0.000000000000000
 11
129.3145680573050
 21
123.1500077355557
 31
0.000000000000000
  0
LINE
  5
247
100
AcDbEntity
  8
A1
  6
CONTINUOUS
 62
7
100
AcDbLine
 10
130.8145680573048
 20
128.1492030387896
 30
0.000000000000000
 11
130.8145680573048
 21
130.1057738615427
 31
0.000000000000000
  0
LINE
  5
248
100
AcDbEntity
  8
A1
  6
CONTINUOUS
 62
7
100
AcDbLine
 10
130.8145680573048
 20
121.1017640948569
 30
0.000000000000000
 11
130.8145680573048
 21
123.1500077355838
 31
0.000000000000000
  0
LINE
  5
249
100
AcDbEntity
  8
A1
  6
CONTINUOUS
 62
7
100
AcDbLine
 10
105.0145692783763
 20
128.1492030387896
 30
0.000000000000000
 11
105.0145692783763
 21
130.1057738615427
 31
0.000000000000000
  0
LINE
  5
24A
100
AcDbEntity
  8
A1
  6
CONTINUOUS
 62
7
100
AcDbLine
 10
105.0145692783763
 20
121.1017640948569
 30
0.000000000000000
 11
105.0145692783763
 21
123.1500077355557
 31
0.000000000000000
  0
LINE
  5
24B
100
AcDbEntity
  8
A1
  6
CONTINUOUS
 62
7
100
AcDbLine
 10
103.5145692783766
 20
128.1492030387896
 30
0.000000000000000
 11
103.5145692783765
 21
130.1057738615427
 31
0.000000000000000
  0
LINE
  5
24C
100
AcDbEntity
  8
A1
  6
CONTINUOUS
 62
7
100
AcDbLine
 10
103.5145692783765
 20
121.1017640948569
 30
0.000000000000000
 11
103.5145692783765
 21
123.1500077355838
 31
0.000000000000000
  0
LINE
  5
24D
100
AcDbEntity
  8
A1
  6
CONTINUOUS
 62
7
100
AcDbLine
 10
129.3145680573050
 20
120.6020022826501
 30
0.000000000000000
 11
129.3145680573050
 21
121.1017640948569
 31
0.000000000000000
  0
LINE
  5
24E
100
AcDbEntity
  8
A1
  6
CONTINUOUS
 62
7
100
AcDbLine
 10
129.3145680573048
 20
120.6020022826502
 30
0.000000000000000
 11
130.8145680573048
 21
120.6020022826502
 31
0.000000000000000
  0
LINE
  5
24F
100
AcDbEntity
  8
A1
  6
CONTINUOUS
 62
7
100
AcDbLine
 10
130.8145680573048
 20
120.6020022826502
 30
0.000000000000000
 11
130.8145680573048
 21
121.1017640948569
 31
0.000000000000000
  0
LINE
  5
250
100
AcDbEntity
  8
A1
  6
CONTINUOUS
 62
7
100
AcDbLine
 10
132.3145680573050
 20
130.6057319415509
 30
0.000000000000000
 11
130.8145680573051
 21
130.6057319415509
 31
0.000000000000000
  0
LINE
  5
251
100
AcDbEntity
  8
A1
  6
CONTINUOUS
 62
7
100
AcDbLine
 10
132.3145680573050
 20
130.6057319415509
 30
0.000000000000000
 11
132.3145680573050
 21
130.1057319415509
 31
0.000000000000000
  0
LINE
  5
252
100
AcDbEntity
  8
A1
  6
CONTINUOUS
 62
7
100
AcDbLine
 10
132.3145680573051
 20
129.5712874515738
 30
0.000000000000000
 11
132.3145680573050
 21
130.1057319415509
 31
0.000000000000000
  0
LINE
  5
253
100
AcDbEntity
  8
A1
  6
CONTINUOUS
 62
7
100
AcDbLine
 10
132.3145680573050
 20
128.1496758080193
 30
0.000000000000000
 11
132.3145680573051
 21
128.2450752071134
 31
0.000000000000000
  0
LINE
  5
254
100
AcDbEntity
  8
A1
  6
CONTINUOUS
 62
7
100
AcDbLine
 10
102.0145692783767
 20
129.5705068721845
 30
0.000000000000000
 11
102.0145692783767
 21
130.1057319415509
 31
0.000000000000000
  0
LINE
  5
255
100
AcDbEntity
  8
A1
  6
CONTINUOUS
 62
7
100
AcDbLine
 10
102.0145692783767
 20
128.1496758080192
 30
0.000000000000000
 11
102.0145692783766
 21
128.2467812790520
 31
0.000000000000000
  0
LINE
  5
256
100
AcDbEntity
  8
A1
  6
CONTINUOUS
 62
7
100
AcDbLine
 10
103.5145692783767
 20
130.6057319415509
 30
0.000000000000000
 11
102.0145692783767
 21
130.6057319415509
 31
0.000000000000000
  0
LINE
  5
257
100
AcDbEntity
  8
A1
  6
CONTINUOUS
 62
7
100
AcDbLine
 10
102.0145692783767
 20
130.6057319415509
 30
0.000000000000000
 11
102.0145692783767
 21
130.1057319415509
 31
0.000000000000000
  0
LINE
  5
258
100
AcDbEntity
  8
A1
  6
CONTINUOUS
 62
7
100
AcDbLine
 10
132.3145680573051
 20
123.0443327804729
 30
0.000000000000000
 11
132.3145680573050
 21
123.1500077355838
 31
0.000000000000000
  0
LINE
  5
259
100
AcDbEntity
  8
A1
  6
CONTINUOUS
 62
7
100
AcDbLine
 10
132.3145680573050
 20
121.1017221748650
 30
0.000000000000000
 11
132.3145680573051
 21
121.7135584356115
 31
0.000000000000000
  0
LINE
  5
25A
100
AcDbEntity
  8
A1
  6
CONTINUOUS
 62
7
100
AcDbLine
 10
102.0145692783766
 20
123.0438401359009
 30
0.000000000000000
 11
102.0145692783767
 21
123.1500077355838
 31
0.000000000000000
  0
LINE
  5
25B
100
AcDbEntity
  8
A1
  6
CONTINUOUS
 62
7
100
AcDbLine
 10
102.0145692783767
 20
121.1017221748650
 30
0.000000000000000
 11
102.0145692783767
 21
121.7135584356103
 31
0.000000000000000
  0
LINE
  5
25C
100
AcDbEntity
  8
A1
  6
CONTINUOUS
 62
7
100
AcDbLine
 10
132.3145680573050
 20
121.1017221748651
 30
0.000000000000000
 11
132.3145680573050
 21
120.6019603626583
 31
0.000000000000000
  0
LINE
  5
25D
100
AcDbEntity
  8
A1
  6
CONTINUOUS
 62
7
100
AcDbLine
 10
130.8145680573051
 20
120.6019603626583
 30
0.000000000000000
 11
132.3145680573051
 21
120.6019603626583
 31
0.000000000000000
  0
LINE
  5
25E
100
AcDbEntity
  8
A1
  6
CONTINUOUS
 62
7
100
AcDbLine
 10
102.0145692783767
 20
121.1017221748650
 30
0.000000000000000
 11
102.0145692783767
 21
120.6019603626583
 31
0.000000000000000
  0
LINE
  5
25F
100
AcDbEntity
  8
A1
  6
CONTINUOUS
 62
7
100
AcDbLine
 10
103.5145692783767
 20
120.6019603626583
 30
0.000000000000000
 11
102.0145692783766
 21
120.6019603626583
 31
0.000000000000000
  0
LINE
  5
260
100
AcDbEntity
  8
A1
  6
CONTINUOUS
 62
7
100
AcDbLine
 10
129.8145680573052
 20
123.1500077355557
 30
0.000000000000000
 11
128.1645680573052
 21
123.1500077355556
 31
0.000000000000000
  0
LINE
  5
261
100
AcDbEntity
  8
A1
  6
CONTINUOUS
 62
7
100
AcDbLine
 10
132.3145680573052
 20
123.1500077355657
 30
0.000000000000000
 11
129.8145680573052
 21
123.1500077355657
 31
0.000000000000000
  0
LINE
  5
262
100
AcDbEntity
  8
A1
  6
CONTINUOUS
 62
7
100
AcDbLine
 10
132.3145680573051
 20
123.1500077355593
 30
0.000000000000000
 11
132.3145680573051
 21
128.1492294427330
 31
0.000000000000000
  0
LINE
  5
263
100
AcDbEntity
  8
A1
  6
CONTINUOUS
 62
7
100
AcDbLine
 10
104.5145692783765
 20
123.1500077355557
 30
0.000000000000000
 11
106.1645692783765
 21
123.1500077355556
 31
0.000000000000000
  0
LINE
  5
264
100
AcDbEntity
  8
A1
  6
CONTINUOUS
 62
7
100
AcDbLine
 10
102.0145692783765
 20
123.1500077355657
 30
0.000000000000000
 11
104.5145692783765
 21
123.1500077355657
 31
0.000000000000000
  0
LINE
  5
265
100
AcDbEntity
  8
A1
  6
CONTINUOUS
 62
7
100
AcDbLine
 10
102.0145692783767
 20
123.1500077355593
 30
0.000000000000000
 11
102.0145692783767
 21
128.1492294427330
 31
0.000000000000000
  0
LINE
  5
266
100
AcDbEntity
  8
A1
  6
CONTINUOUS
 62
7
100
AcDbLine
 10
106.1645692783765
 20
123.1500077355656
 30
0.000000000000000
 11
107.1645692783765
 21
123.1500077355656
 31
0.000000000000000
  0
LINE
  5
267
100
AcDbEntity
  8
A1
  6
CONTINUOUS
 62
7
100
AcDbLine
 10
128.1645680573052
 20
123.1500077355656
 30
0.000000000000000
 11
127.1645680573052
 21
123.1500077355656
 31
0.000000000000000
  0
LINE
  5
268
100
AcDbEntity
  8
A1
  6
CONTINUOUS
 62
7
100
AcDbLine
 10
106.1645692783764
 20
128.1492030387896
 30
0.000000000000000
 11
106.6645686678397
 21
128.1492017051229
 31
0.000000000000000
  0
LINE
  5
269
100
AcDbEntity
  8
A1
  6
CONTINUOUS
 62
7
100
AcDbLine
 10
105.0145692783763
 20
128.1492030387896
 30
0.000000000000000
 11
106.1645692783765
 21
128.1492030387896
 31
0.000000000000000
  0
LINE
  5
26A
100
AcDbEntity
  8
A1
  6
CONTINUOUS
 62
7
100
AcDbLine
 10
103.5145692783767
 20
128.1492030387896
 30
0.000000000000000
 11
105.0145692783763
 21
128.1492030387896
 31
0.000000000000000
  0
LINE
  5
26B
100
AcDbEntity
  8
A1
  6
CONTINUOUS
 62
7
100
AcDbLine
 10
103.5145692783767
 20
128.1496758080192
 30
0.000000000000000
 11
102.0145692783767
 21
128.1496758080192
 31
0.000000000000000
  0
LINE
  5
26C
100
AcDbEntity
  8
A1
  6
CONTINUOUS
 62
7
100
AcDbLine
 10
102.0145692783765
 20
128.1492294427330
 30
0.000000000000000
 11
104.5145692783765
 21
128.1491634328746
 31
0.000000000000000
  0
LINE
  5
26D
100
AcDbEntity
  8
A1
  6
CONTINUOUS
 62
7
100
AcDbLine
 10
106.1645692783765
 20
128.1491634328745
 30
0.000000000000000
 11
104.5145692783765
 21
128.1491634328745
 31
0.000000000000000
  0
LINE
  5
26E
100
AcDbEntity
  8
A1
  6
CONTINUOUS
 62
7
100
AcDbLine
 10
106.1645692783765
 20
128.1491634328745
 30
0.000000000000000
 11
106.6645686678398
 21
128.1491598954262
 31
0.000000000000000
  0
LINE
  5
26F
100
AcDbEntity
  8
A1
  6
CONTINUOUS
 62
7
100
AcDbLine
 10
128.1645680573052
 20
128.1491634328746
 30
0.000000000000000
 11
127.6645686678420
 21
128.1491598954262
 31
0.000000000000000
  0
LINE
  5
270
100
AcDbEntity
  8
A1
  6
CONTINUOUS
 62
7
100
AcDbLine
 10
128.1645680573052
 20
128.1491634328745
 30
0.000000000000000
 11
129.8145680573052
 21
128.1491634328745
 31
0.000000000000000
  0
LINE
  5
271
100
AcDbEntity
  8
A1
  6
CONTINUOUS
 62
7
100
AcDbLine
 10
132.3145680573052
 20
128.1492294427330
 30
0.000000000000000
 11
129.8145680573052
 21
128.1491634328746
 31
0.000000000000000
  0
LINE
  5
272
100
AcDbEntity
  8
A1
  6
CONTINUOUS
 62
7
100
AcDbLine
 10
130.8145680573051
 20
128.1496758080193
 30
0.000000000000000
 11
132.3145680573050
 21
128.1496758080193
 31
0.000000000000000
  0
LINE
  5
273
100
AcDbEntity
  8
A1
  6
CONTINUOUS
 62
7
100
AcDbLine
 10
129.3145680573050
 20
128.1492030387896
 30
0.000000000000000
 11
128.1645680573052
 21
128.1492030387896
 31
0.000000000000000
  0
LINE
  5
274
100
AcDbEntity
  8
A1
  6
CONTINUOUS
 62
7
100
AcDbLine
 10
130.8145680573051
 20
128.1492030387896
 30
0.000000000000000
 11
129.3145680573050
 21
128.1492030387896
 31
0.000000000000000
  0
LINE
  5
275
100
AcDbEntity
  8
A1
  6
CONTINUOUS
 62
7
100
AcDbLine
 10
128.1645680573052
 20
128.1492030387896
 30
0.000000000000000
 11
127.6645686678420
 21
128.1492017051230
 31
0.000000000000000
  0
LINE
  5
276
100
AcDbEntity
  8
A1
  6
CONTINUOUS
 62
7
100
AcDbLine
 10
108.6645692783764
 20
123.1500077355524
 30
0.000000000000000
 11
108.6645692783764
 21
124.2738467123910
 31
0.000000000000000
  0
LINE
  5
277
100
AcDbEntity
  8
A1
  6
CONTINUOUS
 62
7
100
AcDbLine
 10
107.1645692783765
 20
124.2738467123910
 30
0.000000000000000
 11
107.1645692783765
 21
123.1500077355524
 31
0.000000000000000
  0
LINE
  5
278
100
AcDbEntity
  8
A1
  6
CONTINUOUS
 62
7
100
AcDbLine
 10
108.6645692783764
 20
123.1500077355524
 30
0.000000000000000
 11
107.1645692783765
 21
123.1500077355524
 31
0.000000000000000
  0
LINE
  5
279
100
AcDbEntity
  8
A1
  6
CONTINUOUS
 62
7
100
AcDbLine
 10
127.1645680573052
 20
124.2738467123910
 30
0.000000000000000
 11
127.1645680573052
 21
123.1500077355524
 31
0.000000000000000
  0
LINE
  5
27A
100
AcDbEntity
  8
A1
  6
CONTINUOUS
 62
7
100
AcDbLine
 10
125.6645680573053
 20
123.1500077355524
 30
0.000000000000000
 11
125.6645680573053
 21
124.2738467123910
 31
0.000000000000000
  0
LINE
  5
27B
100
AcDbEntity
  8
A1
  6
CONTINUOUS
 62
7
100
AcDbLine
 10
125.6645680573053
 20
123.1500077355524
 30
0.000000000000000
 11
127.1645680573052
 21
123.1500077355524
 31
0.000000000000000
  0
LINE
  5
27C
100
AcDbEntity
  8
A1
  6
CONTINUOUS
 62
7
100
AcDbLine
 10
127.6645686678420
 20
128.5036904164941
 30
0.000000000000000
 11
127.6645686678420
 21
129.9036904164942
 31
0.000000000000000
  0
LINE
  5
27D
100
AcDbEntity
  8
A1
  6
CONTINUOUS
 62
7
100
AcDbLine
 10
127.1645680573052
 20
127.1036904164941
 30
0.000000000000000
 11
127.6645686678420
 21
127.1036904164941
 31
0.000000000000000
  0
LINE
  5
27E
100
AcDbEntity
  8
A1
  6
CONTINUOUS
 62
7
100
AcDbLine
 10
127.6645686678420
 20
129.9036904164942
 30
0.000000000000000
 11
127.1645680573052
 21
129.9036904164942
 31
0.000000000000000
  0
LINE
  5
27F
100
AcDbEntity
  8
A1
  6
CONTINUOUS
 62
7
100
AcDbLine
 10
127.6645686678420
 20
127.1036904164941
 30
0.000000000000000
 11
127.6645686678420
 21
128.5036904164941
 31
0.000000000000000
  0
LINE
  5
280
100
AcDbEntity
  8
A1
  6
CONTINUOUS
 62
7
100
AcDbLine
 10
106.6645686678397
 20
128.5036904164941
 30
0.000000000000000
 11
106.6645686678397
 21
129.9036904164941
 31
0.000000000000000
  0
LINE
  5
281
100
AcDbEntity
  8
A1
  6
CONTINUOUS
 62
7
100
AcDbLine
 10
107.1645692783765
 20
129.9036904164941
 30
0.000000000000000
 11
106.6645686678397
 21
129.9036904164941
 31
0.000000000000000
  0
LINE
  5
282
100
AcDbEntity
  8
A1
  6
CONTINUOUS
 62
7
100
AcDbLine
 10
106.6645686678397
 20
127.1036904164941
 30
0.000000000000000
 11
107.1645692783765
 21
127.1036904164941
 31
0.000000000000000
  0
LINE
  5
283
100
AcDbEntity
  8
A1
  6
CONTINUOUS
 62
7
100
AcDbLine
 10
106.6645686678397
 20
127.1036904164941
 30
0.000000000000000
 11
106.6645686678397
 21
128.5036904164941
 31
0.000000000000000
  0
LINE
  5
284
100
AcDbEntity
  8
A1
  6
CONTINUOUS
 62
7
100
AcDbLine
 10
125.6645680573052
 20
130.0036904164941
 30
0.000000000000000
 11
108.6645692783765
 21
130.0036904164941
 31
0.000000000000000
  0
LINE
  5
285
100
AcDbEntity
  8
A1
  6
CONTINUOUS
 62
7
100
AcDbLine
 10
108.6645692783765
 20
127.0036904164941
 30
0.000000000000000
 11
125.6645680573052
 21
127.0036904164941
 31
0.000000000000000
  0
LINE
  5
286
100
AcDbEntity
  8
A1
  6
CONTINUOUS
 62
7
100
AcDbLine
 10
108.6645692783764
 20
126.5595111637507
 30
0.000000000000000
 11
108.6645692783764
 21
124.2738467123910
 31
0.000000000000000
  0
LINE
  5
287
100
AcDbEntity
  8
A1
  6
CONTINUOUS
 62
7
100
AcDbLine
 10
107.1645692783765
 20
124.2738467123910
 30
0.000000000000000
 11
107.1645692783765
 21
126.5595111637507
 31
0.000000000000000
  0
LINE
  5
288
100
AcDbEntity
  8
A1
  6
CONTINUOUS
 62
7
100
AcDbLine
 10
127.1645680573052
 20
124.2738467123910
 30
0.000000000000000
 11
127.1645680573052
 21
126.5595111637507
 31
0.000000000000000
  0
LINE
  5
289
100
AcDbEntity
  8
A1
  6
CONTINUOUS
 62
7
100
AcDbLine
 10
125.6645680573053
 20
126.5595111637507
 30
0.000000000000000
 11
125.6645680573053
 21
124.2738467123910
 31
0.000000000000000
  0
LINE
  5
28A
100
AcDbEntity
  8
A1
  6
CONTINUOUS
 62
7
100
AcDbLine
 10
127.1645680573052
 20
131.0935851560980
 30
0.000000000000000
 11
127.1645680573052
 21
126.5595111637507
 31
0.000000000000000
  0
LINE
  5
28B
100
AcDbEntity
  8
A1
  6
CONTINUOUS
 62
7
100
AcDbLine
 10
125.6645680573052
 20
131.0935851560980
 30
0.000000000000000
 11
127.1645680573052
 21
131.0935851560980
 31
0.000000000000000
  0
LINE
  5
28C
100
AcDbEntity
  8
A1
  6
CONTINUOUS
 62
7
100
AcDbLine
 10
125.6645680573053
 20
126.5595111637507
 30
0.000000000000000
 11
125.6645680573053
 21
131.0935851560980
 31
0.000000000000000
  0
LINE
  5
28D
100
AcDbEntity
  8
A1
  6
CONTINUOUS
 62
7
100
AcDbLine
 10
107.1645692783765
 20
131.0935851560980
 30
0.000000000000000
 11
107.1645692783765
 21
126.5595111637507
 31
0.000000000000000
  0
LINE
  5
28E
100
AcDbEntity
  8
A1
  6
CONTINUOUS
 62
7
100
AcDbLine
 10
108.6645692783764
 20
126.5595111637507
 30
0.000000000000000
 11
108.6645692783764
 21
131.0935851560980
 31
0.000000000000000
  0
LINE
  5
28F
100
AcDbEntity
  8
A1
  6
CONTINUOUS
 62
7
100
AcDbLine
 10
108.6645692783765
 20
131.0935851560980
 30
0.000000000000000
 11
107.1645692783765
 21
131.0935851560980
 31
0.000000000000000
  0
LINE
  5
290
100
AcDbEntity
  8
A1
  6
CONTINUOUS
 62
7
100
AcDbLine
 10
125.1645686678409
 20
132.4071925035475
 30
0.000000000000000
 11
109.1645686678409
 21
132.4071925035475
 31
0.000000000000000
  0
SPLINE
  5
291
100
AcDbEntity
  8
A1
  6
CONTINUOUS
 62
7
100
AcDbSpline
210
0.000000000000000
220
0.000000000000000
230
1.000000000000000
 70
     8
 71
     3
 72
    23
 73
    19
 74
     0
 42
1.000000000000000e-07
 43
1.000000000000000e-07
 12
0.9349329690214745
 22
0.3548243839374550
 32
0.000000000000000
 13
0.01860696275241480
 23
0.9998268754824551
 33
0.000000000000000
 40
0.000000000000000
 40
0.000000000000000
 40
0.000000000000000
 40
0.000000000000000
 40
0.3338815956034490
 40
0.6091629598403870
 40
0.8526631619871298
 40
1.064408532346306
 40
1.244420907227222
 40
1.422064562334344
 40
1.689958291152038
 40
2.008896594963663
 40
2.378662906541086
 40
2.799506661055682
 40
3.108646129596434
 40
3.440653424724813
 40
3.795564326625370
 40
4.173442413416517
 40
4.574465367976801
 40
4.999080465182328
 40
4.999080465182328
 40
4.999080465182328
 40
4.999080465182328
 10
132.3180301787388
 20
29.47081320547981
 30
0.000000000000000
 10
132.4220824825652
 20
29.51030298263583
 30
0.000000000000000
 10
132.6092171530113
 20
29.58976166526762
 30
0.000000000000000
 10
132.8624361875563
 20
29.71923471218136
 30
0.000000000000000
 10
133.0722271077184
 20
29.84313480401106
 30
0.000000000000000
 10
133.2485742550718
 20
29.96051595996362
 30
0.000000000000000
 10
133.4015381028759
 20
30.07298242830857
 30
0.000000000000000
 10
133.5641090528844
 20
30.20365119873952
 30
0.000000000000000
 10
133.7539505606642
 20
30.37392370710920
 30
0.000000000000000
 10
133.9754562641352
 20
30.60375378717854
 30
0.000000000000000
 10
134.2091473467245
 20
30.89104102793100
 30
0.000000000000000
 10
134.4130048301559
 20
31.19649124963128
 30
0.000000000000000
 10
134.5837314180453
 20
31.50691959590224
 30
0.000000000000000
 10
134.7216985840510
 20
31.80928718896676
 30
0.000000000000000
 10
134.8429076518230
 20
32.14331013968852
 30
0.000000000000000
 10
134.9410209994357
 20
32.50881064838079
 30
0.000000000000000
 10
135.0090725338918
 20
32.90476734520816
 30
0.000000000000000
 10
135.0281905028824
 20
33.17989968447064
 30
0.000000000000000
 10
135.0308241019817
 20
33.32141354644453
 30
0.000000000000000
  0
SPLINE
  5
292
100
AcDbEntity
  8
A1
  6
CONTINUOUS
 62
7
100
AcDbSpline
210
0.000000000000000
220
0.000000000000000
230
1.000000000000000
 70
     8
 71
     3
 72
    20
 73
    16
 74
     0
 42
1.000000000000000e-07
 43
1.000000000000000e-07
 12
-0.01927456367684499
 22
-0.9998142283419611
 32
0.000000000000000
 13
-0.8704566541418899
 23
-0.4922450743888476
 33
0.000000000000000
 40
0.000000000000000
 40
0.000000000000000
 40
0.000000000000000
 40
0.000000000000000
 40
0.3881977947385303
 40
0.7394803997991339
 40
1.054348436729666
 40
1.332951140057141
 40
1.575347991710998
 40
1.781589769476245
 40
1.951722021835966
 40
2.109483450676961
 40
2.301901424103321
 40
2.530208263668198
 40
2.794210731837355
 40
3.094051372271917
 40
3.103331069204802
 40
3.103331069204802
 40
3.103331069204802
 40
3.103331069204802
 10
133.8310075137233
 20
33.34245521417887
 30
0.000000000000000
 10
133.8285133993520
 20
33.21307998798201
 30
0.000000000000000
 10
133.8078749351808
 20
32.96659824164359
 30
0.000000000000000
 10
133.7346108512833
 20
32.62208768964915
 30
0.000000000000000
 10
133.6357185936444
 20
32.32250785249239
 30
0.000000000000000
 10
133.5230030502563
 20
32.06728302743357
 30
0.000000000000000
 10
133.4064510483229
 20
31.85443605699186
 30
0.000000000000000
 10
133.2942212345799
 20
31.68119441670612
 30
0.000000000000000
 10
133.1882015132974
 20
31.53803756040294
 30
0.000000000000000
 10
133.0773999517442
 20
31.40450492107181
 30
0.000000000000000
 10
132.9455498160457
 20
31.26360402388908
 30
0.000000000000000
 10
132.7776656888319
 20
31.10861994108437
 30
0.000000000000000
 10
132.5690248268264
 20
30.94624402295610
 30
0.000000000000000
 10
132.4075511445852
 20
30.84344805031108
 30
0.000000000000000
 10
132.3179460107136
 20
30.79257589728048
 30
0.000000000000000
 10
132.3152534860657
 20
30.79105326891147
 30
0.000000000000000
  0
SPLINE
  5
293
100
AcDbEntity
  8
A1
  6
CONTINUOUS
 62
7
100
AcDbSpline
210
0.000000000000000
220
0.000000000000000
230
1.000000000000000
 70
     8
 71
     3
 72
    13
 73
     9
 74
     0
 42
1.000000000000000e-07
 43
1.000000000000000e-07
 12
0.8349039080503644
 22
0.5503957342872354
 32
0.000000000000000
 13
0.9999745401300970
 23
0.007135761439599264
 33
0.000000000000000
 40
0.000000000000000
 40
0.000000000000000
 40
0.000000000000000
 40
0.000000000000000
 40
0.1749898770336107
 40
0.5154705671792936
 40
0.8926481602118139
 40
1.164570675332519
 40
1.452847501383965
 40
1.738303573851751
 40
1.738303573851751
 40
1.738303573851751
 40
1.738303573851751
 10
129.1739114165670
 20
35.88871329191785
 30
0.000000000000000
 10
129.2226113273018
 20
35.92081785253876
 30
0.000000000000000
 10
129.3687900038333
 20
36.01130186389385
 30
0.000000000000000
 10
129.6347415383595
 20
36.14615830115785
 30
0.000000000000000
 10
129.9451487854607
 20
36.26032611781142
 30
0.000000000000000
 10
130.2485734808519
 20
36.33652485224881
 30
0.000000000000000
 10
130.5275841188378
 20
36.37964038881257
 30
0.000000000000000
 10
130.7188923373760
 20
36.39017682785995
 30
0.000000000000000
 10
130.8140419389738
 20
36.39085581000482
 30
0.000000000000000
  0
SPLINE
  5
294
100
AcDbEntity
  8
A1
  6
CONTINUOUS
 62
7
100
AcDbSpline
210
0.000000000000000
220
0.000000000000000
230
1.000000000000000
 70
     8
 71
     3
 72
    13
 73
     9
 74
     0
 42
1.000000000000000e-07
 43
1.000000000000000e-07
 12
-0.9999655288215763
 22
0.008303081888584529
 32
0.000000000000000
 13
-0.8392683084693999
 23
0.5437174876711879
 33
0.000000000000000
 40
0.000000000000000
 40
0.000000000000000
 40
0.000000000000000
 40
0.000000000000000
 40
0.3396181632869678
 40
0.6673095788255512
 40
0.9659277616657720
 40
1.235597798623926
 40
1.554178862249244
 40
1.712610621640457
 40
1.712610621640457
 40
1.712610621640457
 40
1.712610621640457
 10
130.8138452344062
 20
30.39720481544806
 30
0.000000000000000
 10
130.7006430823233
 20
30.39814477458827
 30
0.000000000000000
 10
130.4780901534244
 20
30.41259175639836
 30
0.000000000000000
 10
130.1606325425387
 20
30.46994072495594
 30
0.000000000000000
 10
129.8732827191726
 20
30.55312256759212
 30
0.000000000000000
 10
129.5978401818116
 20
30.66143589866572
 30
0.000000000000000
 10
129.3755339566512
 20
30.77448285320136
 30
0.000000000000000
 10
129.2398397425648
 20
30.85749066151897
 30
0.000000000000000
 10
129.1955174909941
 20
30.88620470091347
 30
0.000000000000000
  0
SPLINE
  5
295
100
AcDbEntity
  8
A1
  6
CONTINUOUS
 62
7
100
AcDbSpline
210
0.000000000000000
220
0.000000000000000
230
1.000000000000000
 70
     8
 71
     3
 72
    20
 73
    16
 74
     0
 42
1.000000000000000e-07
 43
1.000000000000000e-07
 12
0.8695053089795692
 22
-0.4939235949545946
 32
0.000000000000000
 13
0.0003552297121132142
 23
-0.9999999369058514
 33
0.000000000000000
 40
0.000000000000000
 40
0.000000000000000
 40
0.000000000000000
 40
0.000000000000000
 40
0.03260362254822670
 40
0.2414226237273711
 40
0.4142977939355502
 40
0.5730938636698273
 40
0.7668130507628054
 40
0.9972098760713031
 40
1.263982030091009
 40
1.567267524128713
 40
1.907227589756108
 40
2.284005913090491
 40
2.555861600520435
 40
2.844364732816727
 40
3.149886424945748
 40
3.149886424945748
 40
3.149886424945748
 40
3.149886424945748
 10
132.3170489479282
 20
35.99417726388253
 30
0.000000000000000
 10
132.3264986222275
 20
35.98880936439667
 30
0.000000000000000
 10
132.3962540441436
 20
35.94868167799905
 30
0.000000000000000
 10
132.5132480414016
 20
35.87506151847747
 30
0.000000000000000
 10
132.6594063015733
 20
35.76956071061544
 30
0.000000000000000
 10
132.7955281400678
 20
35.65924159981316
 30
0.000000000000000
 10
132.9389636458486
 20
35.52795223077739
 30
0.000000000000000
 10
133.0970908908079
 20
35.36018888616480
 30
0.000000000000000
 10
133.2632138990518
 20
35.15093362032213
 30
0.000000000000000
 10
133.4286119526473
 20
34.89603836167709
 30
0.000000000000000
 10
133.5828002346327
 20
34.59222892444188
 30
0.000000000000000
 10
133.6968737717721
 20
34.28212103125016
 30
0.000000000000000
 10
133.7730042660517
 20
33.97876067224504
 30
0.000000000000000
 10
133.8170677324115
 20
33.69307189984836
 30
0.000000000000000
 10
133.8272823932324
 20
33.49490342529604
 30
0.000000000000000
 10
133.8273185700266
 20
33.39306286767858
 30
0.000000000000000
  0
SPLINE
  5
296
100
AcDbEntity
  8
A1
  6
CONTINUOUS
 62
7
100
AcDbSpline
210
0.000000000000000
220
0.000000000000000
230
1.000000000000000
 70
     8
 71
     3
 72
    10
 73
     6
 74
     0
 42
1.000000000000000e-07
 43
1.000000000000000e-07
 12
0.7133784355373791
 22
-0.06701429877057308
 32
0.000000000000000
 13
1.115700168860258
 23
0.0001625830278726426
 33
0.000000000000000
 40
0.000000000000000
 40
0.000000000000000
 40
0.000000000000000
 40
0.000000000000000
 40
0.08932252600064342
 40
0.2246022532839055
 40
0.4074304205168710
 40
0.4074304205168710
 40
0.4074304205168710
 40
0.4074304205168710
 10
133.8273184356575
 20
33.39305935928145
 30
0.000000000000000
 10
133.8485586902763
 20
33.39106406380000
 30
0.000000000000000
 10
133.9164932091230
 20
33.39377929503343
 30
0.000000000000000
 10
134.0517422599296
 20
33.39089851914244
 30
0.000000000000000
 10
134.1665742516176
 20
33.39163615818924
 30
0.000000000000000
 10
134.2345680573023
 20
33.39164606644157
 30
0.000000000000000
  0
SPLINE
  5
297
100
AcDbEntity
  8
A1
  6
CONTINUOUS
 62
7
100
AcDbSpline
210
0.000000000000000
220
0.000000000000000
230
1.000000000000000
 70
     8
 71
     3
 72
    20
 73
    16
 74
     0
 42
1.000000000000000e-07
 43
1.000000000000000e-07
 12
-0.9999867936223836
 22
-0.005139317167731861
 32
0.000000000000000
 13
-0.5911273020224144
 23
-0.8065782744431544
 33
0.000000000000000
 40
0.000000000000000
 40
0.000000000000000
 40
0.000000000000000
 40
0.000000000000000
 40
0.3506782167608731
 40
0.6974847157472761
 40
1.021798748964347
 40
1.466140312721168
 40
1.860094754301907
 40
2.138980927171843
 40
2.385590830468796
 40
2.599947766527630
 40
2.782077787734254
 40
2.962276531122894
 40
3.233922026420227
 40
3.557081281985327
 40
3.903831444751249
 40
3.903831444751249
 40
3.903831444751249
 40
3.903831444751249
 10
130.8139991205726
 20
37.59452966728929
 30
0.000000000000000
 10
130.6971079253820
 20
37.59392891842938
 30
0.000000000000000
 10
130.4645400235022
 20
37.58290927774105
 30
0.000000000000000
 10
130.1265517674204
 20
37.53776563698309
 30
0.000000000000000
 10
129.7627642286917
 20
37.45927757681743
 30
0.000000000000000
 10
129.3921568530679
 20
37.34348273487360
 30
0.000000000000000
 10
129.0487256644444
 20
37.19814419910787
 30
0.000000000000000
 10
128.7765013412601
 20
37.05688797413391
 30
0.000000000000000
 10
128.5648779304759
 20
36.92998268546110
 30
0.000000000000000
 10
128.3872306499244
 20
36.80984286811960
 30
0.000000000000000
 10
128.2332171729198
 20
36.69471121461389
 30
0.000000000000000
 10
128.0695957843802
 20
36.56087608534537
 30
0.000000000000000
 10
127.8787729151027
 20
36.38643832626337
 30
0.000000000000000
 10
127.6632134340053
 20
36.15788802214981
 30
0.000000000000000
 10
127.5235342685320
 20
35.98326074503186
 30
0.000000000000000
 10
127.4552097724681
 20
35.89003369571632
 30
0.000000000000000
  0
SPLINE
  5
298
100
AcDbEntity
  8
A1
  6
CONTINUOUS
 62
7
100
AcDbSpline
210
0.000000000000000
220
0.000000000000000
230
1.000000000000000
 70
     8
 71
     3
 72
    20
 73
    16
 74
     0
 42
1.000000000000000e-07
 43
1.000000000000000e-07
 12
0.5954497329662445
 22
-0.8033925662531374
 32
0.000000000000000
 13
0.9999880089371800
 23
-0.004897140170669445
 33
0.000000000000000
 40
0.000000000000000
 40
0.000000000000000
 40
0.000000000000000
 40
0.000000000000000
 40
0.1302598468970605
 40
0.3688558646032176
 40
0.6069051115233561
 40
0.8493040766512410
 40
1.158223938730865
 40
1.473921949523497
 40
1.796515625082673
 40
2.134853071230610
 40
2.513359509340519
 40
2.933488915771528
 40
3.236829257319684
 40
3.558842255342409
 40
3.883463425033121
 40
3.883463425033121
 40
3.883463425033121
 40
3.883463425033121
 10
127.4674861339590
 20
30.88322261845803
 30
0.000000000000000
 10
127.4933405309760
 20
30.84833935423191
 30
0.000000000000000
 10
127.5681125754106
 20
30.75071177373846
 30
0.000000000000000
 10
127.6981988382402
 20
30.59562441483941
 30
0.000000000000000
 10
127.8627718988032
 20
30.42118573593063
 30
0.000000000000000
 10
128.0545302479560
 20
30.24079230141862
 30
0.000000000000000
 10
128.2780912327084
 20
30.05720031085204
 30
0.000000000000000
 10
128.5366628858077
 20
29.87549395042580
 30
0.000000000000000
 10
128.8166468223905
 20
29.70878820179301
 30
0.000000000000000
 10
129.1274881755791
 20
29.55492272909717
 30
0.000000000000000
 10
129.4804325504297
 20
29.41553372829362
 30
0.000000000000000
 10
129.8337605273256
 20
29.31280280571685
 30
0.000000000000000
 10
130.1757444583292
 20
29.24432671102354
 30
0.000000000000000
 10
130.4903163685489
 20
29.20539803086037
 30
0.000000000000000
 10
130.7059168039678
 20
29.19590194719917
 30
0.000000000000000
 10
130.8141225630137
 20
29.19537204207573
 30
0.000000000000000
  0
SPLINE
  5
299
100
AcDbEntity
  8
A1
  6
CONTINUOUS
 62
7
100
AcDbSpline
210
0.000000000000000
220
0.000000000000000
230
1.000000000000000
 70
     8
 71
     3
 72
    12
 73
     8
 74
     0
 42
1.000000000000000e-07
 43
1.000000000000000e-07
 12
0.9999998639445948
 22
-0.0005216430661789673
 32
0.000000000000000
 13
0.9998132338641881
 23
0.01932608067909314
 33
0.000000000000000
 40
0.000000000000000
 40
0.000000000000000
 40
0.000000000000000
 40
0.000000000000000
 40
0.2317804707358502
 40
0.4583257180418708
 40
0.6454467941398804
 40
0.7621550933746101
 40
0.7964170070140473
 40
0.7964170070140473
 40
0.7964170070140473
 40
0.7964170070140473
 10
134.2345680573023
 20
33.39164606644157
 30
0.000000000000000
 10
134.3118282037026
 20
33.39160576421642
 30
0.000000000000000
 10
134.4646032372608
 20
33.39163573626511
 30
0.000000000000000
 10
134.6797530797158
 20
33.39182242568624
 30
0.000000000000000
 10
134.8565413984900
 20
33.39245620048692
 30
0.000000000000000
 10
134.9692427182679
 20
33.39254946842648
 30
0.000000000000000
 10
135.0195591806979
 20
33.39342516698090
 30
0.000000000000000
 10
135.0309776855893
 20
33.39364588314996
 30
0.000000000000000
  0
SPLINE
  5
29A
100
AcDbEntity
  8
A1
  6
CONTINUOUS
 62
7
100
AcDbSpline
210
0.000000000000000
220
0.000000000000000
230
1.000000000000000
 70
     8
 71
     3
 72
    24
 73
    20
 74
     0
 42
1.000000000000000e-07
 43
1.000000000000000e-07
 12
-0.0004087395611804823
 22
0.9999999164660380
 32
0.000000000000000
 13
-0.9349935915843162
 23
0.3546646073336888
 33
0.000000000000000
 40
0.000000000000000
 40
0.000000000000000
 40
0.000000000000000
 40
0.000000000000000
 40
0.3703746750756844
 40
0.7175217272126071
 40
1.041838918945595
 40
1.485806854484273
 40
1.879178107353546
 40
2.157562005381542
 40
2.403687451257499
 40
2.617596089655373
 40
2.799315845273165
 40
2.979396836205996
 40
3.250869568089986
 40
3.573857292268904
 40
3.947971600346396
 40
4.373402882552442
 40
4.685703661828550
 40
5.020921740779062
 40
5.074961640759025
 40
5.074961640759025
 40
5.074961640759025
 40
5.074961640759025
 10
135.0309776089790
 20
33.39364252691529
 30
0.000000000000000
 10
135.0309271467183
 20
33.51710074162756
 30
0.000000000000000
 10
135.0201799660192
 20
33.75641851833660
 30
0.000000000000000
 10
134.9742518374339
 20
34.10104251913101
 30
0.000000000000000
 10
134.8958457518441
 20
34.46484018373854
 30
0.000000000000000
 10
134.7801732694469
 20
34.83515453658259
 30
0.000000000000000
 10
134.6349772042493
 20
35.17811943578537
 30
0.000000000000000
 10
134.4938952395798
 20
35.44984453495964
 30
0.000000000000000
 10
134.3671806119638
 20
35.66102406104491
 30
0.000000000000000
 10
134.2472550714790
 20
35.83827526063560
 30
0.000000000000000
 10
134.1323047775763
 20
35.99201710409879
 30
0.000000000000000
 10
133.9986240595686
 20
36.15546354981988
 30
0.000000000000000
 10
133.8243412080947
 20
36.34621023723221
 30
0.000000000000000
 10
133.5893669655696
 20
36.56812650563381
 30
0.000000000000000
 10
133.2960687618654
 20
36.80127638808174
 30
0.000000000000000
 10
132.9847213945516
 20
37.00355833012257
 30
0.000000000000000
 10
132.6688432174540
 20
37.17187757806054
 30
0.000000000000000
 10
132.4544983988184
 20
37.26608934649370
 30
0.000000000000000
 10
132.3334737967672
 20
37.31287283505829
 30
0.000000000000000
 10
132.3166314767101
 20
37.31926151502721
 30
0.000000000000000
  0
ARC
  5
29B
100
AcDbEntity
  8
A1
  6
CONTINUOUS
 62
7
100
AcDbCircle
 10
130.8314692897686
 20
33.39505932657616
 30
0.000000000000000
 40
4.199999999979616
100
AcDbArc
 50
359.9775474511454
 51
360.5949148273164
  0
ARC
  5
29C
100
AcDbEntity
  8
A1
  6
CONTINUOUS
 62
7
100
AcDbCircle
 10
130.8314692897686
 20
33.39505932657616
 30
0.000000000000000
 40
4.199999999979616
100
AcDbArc
 50
358.9963476533389
 51
359.9775474511454
  0
LINE
  5
29D
100
AcDbEntity
  8
A1
  6
CONTINUOUS
 62
7
100
AcDbLine
 10
135.0314619699163
 20
33.39308330792580
 30
0.000000000000000
 11
135.0308129309428
 21
33.32141374827159
 31
0.000000000000000
  0
LINE
  5
29E
100
AcDbEntity
  8
A1
  6
CONTINUOUS
 62
7
100
AcDbLine
 10
135.0306291590439
 20
33.31105699270109
 30
0.000000000000000
 11
135.0308249283229
 21
33.32149152947218
 31
0.000000000000000
  0
LINE
  5
29F
100
AcDbEntity
  8
A1
  6
CONTINUOUS
 62
7
100
AcDbLine
 10
135.0313042295695
 20
33.35782388300321
 30
0.000000000000000
 11
135.0314687329231
 21
33.39289661236992
 31
0.000000000000000
  0
LINE
  5
2A0
100
AcDbEntity
  8
A1
  6
CONTINUOUS
 62
7
100
AcDbLine
 10
135.0314692890245
 20
33.39513731210396
 30
0.000000000000000
 11
135.0313430948661
 21
33.42761729161702
 31
0.000000000000000
  0
LINE
  5
2A1
100
AcDbEntity
  8
A1
  6
CONTINUOUS
 62
7
100
AcDbLine
 10
133.8255976457162
 20
33.58266366551765
 30
0.000000000000000
 11
133.8314692892313
 21
33.39511503052457
 31
0.000000000000000
  0
LINE
  5
2A2
100
AcDbEntity
  8
A1
  6
CONTINUOUS
 62
7
100
AcDbLine
 10
130.7815186000375
 20
36.39464345249646
 30
0.000000000000000
 11
130.8112418293254
 21
36.39499113408808
 31
0.000000000000000
  0
LINE
  5
2A3
100
AcDbEntity
  8
A1
  6
CONTINUOUS
 62
7
100
AcDbLine
 10
130.8145959697120
 20
30.39510677846010
 30
0.000000000000000
 11
130.7781806848677
 21
30.39553264317002
 31
0.000000000000000
  0
LINE
  5
2A4
100
AcDbEntity
  8
A1
  6
CONTINUOUS
 62
7
100
AcDbLine
 10
133.8314652233472
 20
33.39999879935247
 30
0.000000000000000
 11
133.8280242897957
 21
33.25132995695493
 31
0.000000000000000
  0
SPLINE
  5
2A5
100
AcDbEntity
  8
A1
  6
CONTINUOUS
 62
7
100
AcDbSpline
210
0.000000000000000
220
0.000000000000000
230
1.000000000000000
 70
     8
 71
     3
 72
    45
 73
    41
 74
     0
 42
1.000000000000000e-07
 43
1.000000000000000e-07
 12
0.9989442273290479
 22
0.04593942411793250
 32
0.000000000000000
 13
0.9995968291514146
 23
-0.02839329403559532
 33
0.000000000000000
 40
0.000000000000000
 40
0.000000000000000
 40
0.000000000000000
 40
0.000000000000000
 40
0.02496857678692390
 40
0.1129183299090084
 40
0.2450044547705799
 40
0.4156804126278962
 40
0.6302779265942241
 40
0.8936890312831511
 40
1.201799886536134
 40
1.508174766206722
 40
1.845712924730957
 40
2.213645797518277
 40
2.611335895612148
 40
3.017644323031359
 40
3.444177749986693
 40
3.889970586200917
 40
4.354269236869316
 40
4.787698205713659
 40
5.229712789304590
 40
5.680973693919622
 40
6.136957893365774
 40
6.630524483755506
 40
7.128321334245652
 40
7.623984637710459
 40
8.117990586630180
 40
8.583337255746640
 40
9.040882493795145
 40
9.483699875658095
 40
9.911132828067084
 40
10.29474605647727
 40
10.65422336115367
 40
10.98714527306324
 40
11.29064913677256
 40
11.53932935820357
 40
11.75511782172970
 40
11.93670372082540
 40
12.08287892616779
 40
12.18714746436867
 40
12.25831913405865
 40
12.27390868368297
 40
12.27390868368297
 40
12.27390868368297
 40
12.27390868368297
 10
111.2034647187664
 20
35.35204079721444
 30
0.000000000000000
 10
111.2117787906483
 20
35.35242314456065
 30
0.000000000000000
 10
111.2493914491618
 20
35.35520905187528
 30
0.000000000000000
 10
111.3283676607351
 20
35.37823020836421
 30
0.000000000000000
 10
111.4513356444654
 20
35.42036084413097
 30
0.000000000000000
 10
111.6125218721170
 20
35.48203595332779
 30
0.000000000000000
 10
111.8140049294202
 20
35.56038357905808
 30
0.000000000000000
 10
112.0585659409215
 20
35.65453799274800
 30
0.000000000000000
 10
112.3329373963492
 20
35.75631028793779
 30
0.000000000000000
 10
112.6322890393664
 20
35.86169274437557
 30
0.000000000000000
 10
112.9525775389947
 20
35.96748045071567
 30
0.000000000000000
 10
113.3043003419587
 20
36.07488415550829
 30
0.000000000000000
 10
113.6807507650419
 20
36.17940628345332
 30
0.000000000000000
 10
114.0789058070661
 20
36.27821074178360
 30
0.000000000000000
 10
114.4954547604836
 20
36.36875702271097
 30
0.000000000000000
 10
114.9336395007511
 20
36.44980766431072
 30
0.000000000000000
 10
115.3765434687377
 20
36.51670435549337
 30
0.000000000000000
 10
115.8201486792428
 20
36.56881692339785
 30
0.000000000000000
 10
116.2608858598530
 20
36.60614166266070
 30
0.000000000000000
 10
116.7101369165956
 20
36.62913546695729
 30
0.000000000000000
 10
117.1770957178613
 20
36.63713159780391
 30
0.000000000000000
 10
117.6595737711405
 20
36.62818853672547
 30
0.000000000000000
 10
118.1545950779901
 20
36.60058887125624
 30
0.000000000000000
 10
118.6483975921962
 20
36.55465949136254
 30
0.000000000000000
 10
119.1294587688765
 20
36.49209132243646
 30
0.000000000000000
 10
119.5954785290252
 20
36.41478536039081
 30
0.000000000000000
 10
120.0419335923824
 20
36.32538568215404
 30
0.000000000000000
 10
120.4729961103759
 20
36.22468193829192
 30
0.000000000000000
 10
120.8769969821285
 20
36.11735203206264
 30
0.000000000000000
 10
121.2512473816248
 20
36.00687428248500
 30
0.000000000000000
 10
121.5927112153151
 20
35.89701109548676
 30
0.000000000000000
 10
121.9064932567435
 20
35.78857903794626
 30
0.000000000000000
 10
122.1835788083469
 20
35.68719979640289
 30
0.000000000000000
 10
122.4228294165437
 20
35.59615036806450
 30
0.000000000000000
 10
122.6235701893580
 20
35.51814028193611
 30
0.000000000000000
 10
122.7925250748756
 20
35.45281841830982
 30
0.000000000000000
 10
122.9275794305876
 20
35.40249106123893
 30
0.000000000000000
 10
123.0293945767589
 20
35.36950709407502
 30
0.000000000000000
 10
123.0915663515603
 20
35.35364431677841
 30
0.000000000000000
 10
123.1204886592948
 20
35.35218834018387
 30
0.000000000000000
 10
123.1256830807523
 20
35.35204079396175
 30
0.000000000000000
  0
SPLINE
  5
2A6
100
AcDbEntity
  8
A1
  6
CONTINUOUS
 62
7
100
AcDbSpline
210
0.000000000000000
220
0.000000000000000
230
1.000000000000000
 70
     8
 71
     3
 72
     9
 73
     5
 74
     0
 42
1.000000000000000e-07
 43
1.000000000000000e-07
 12
0.9904485269998986
 22
-0.1378829770646917
 32
0.000000000000000
 13
0.2241470556291461
 23
0.9745553331918018
 33
0.000000000000000
 40
0.000000000000000
 40
0.000000000000000
 40
0.000000000000000
 40
0.000000000000000
 40
0.02591774786485240
 40
0.05194991988813250
 40
0.05194991988813250
 40
0.05194991988813250
 40
0.05194991988813250
 10
123.1256830807523
 20
35.35204079396175
 30
0.000000000000000
 10
123.1342398124842
 20
35.35084958855028
 30
0.000000000000000
 10
123.1540565055918
 20
35.35243684817918
 30
0.000000000000000
 10
123.1626236562709
 20
35.37039686623274
 30
0.000000000000000
 10
123.1645686678411
 20
35.37885346359269
 30
0.000000000000000
  0
SPLINE
  5
2A7
100
AcDbEntity
  8
A1
  6
CONTINUOUS
 62
7
100
AcDbSpline
210
0.000000000000000
220
0.000000000000000
230
1.000000000000000
 70
     8
 71
     3
 72
    47
 73
    43
 74
     0
 42
1.000000000000000e-07
 43
1.000000000000000e-07
 12
-0.7314697807305492
 22
0.6818738592110094
 32
0.000000000000000
 13
-0.7105981599743245
 23
-0.7035980777691293
 33
0.000000000000000
 40
0.000000000000000
 40
0.000000000000000
 40
0.000000000000000
 40
0.000000000000000
 40
0.02201085761520990
 40
0.08345110545293410
 40
0.1881906653362084
 40
0.3373921885847608
 40
0.5234955718124553
 40
0.7518732877472150
 40
1.026976946026749
 40
1.344290376340322
 40
1.661718151673846
 40
2.009314860244795
 40
2.390623123288418
 40
2.798440292867790
 40
3.213251431140800
 40
3.647712864381137
 40
4.105720055656944
 40
4.578920853862679
 40
4.985931373815120
 40
5.399912019240131
 40
5.823556839316136
 40
6.251082072899660
 40
6.745322623326486
 40
7.240261941466663
 40
7.740235720838772
 40
8.235071778261567
 40
8.701307973261645
 40
9.156620930922079
 40
9.604143288322485
 40
10.03343644436405
 40
10.41927262977656
 40
10.78177840206903
 40
11.12243871671051
 40
11.43195221302689
 40
11.68834304820675
 40
11.91240264692937
 40
12.10456998014713
 40
12.25975924100888
 40
12.36396819886394
 40
12.43894147438016
 40
12.48509795676846
 40
12.50215851832676
 40
12.50215851832676
 40
12.50215851832676
 40
12.50215851832676
 10
123.1645686678411
 20
33.75269155204175
 30
0.000000000000000
 10
123.1592019087766
 20
33.75769442818397
 30
0.000000000000000
 10
123.1382649984143
 20
33.77611087136765
 30
0.000000000000000
 10
123.0836634652730
 20
33.80762717937894
 30
0.000000000000000
 10
122.9935434708022
 20
33.86143053053988
 30
0.000000000000000
 10
122.8641259760106
 20
33.93073568444672
 30
0.000000000000000
 10
122.6967400119903
 20
34.01603646553694
 30
0.000000000000000
 10
122.4891706107169
 20
34.11488728461873
 30
0.000000000000000
 10
122.2391983222580
 20
34.22616965044682
 30
0.000000000000000
 10
121.9587926594416
 20
34.34183689357381
 30
0.000000000000000
 10
121.6527689734304
 20
34.45843224361916
 30
0.000000000000000
 10
121.3235415641294
 20
34.57370202229325
 30
0.000000000000000
 10
120.9624028584408
 20
34.68855895500911
 30
0.000000000000000
 10
120.5763655405290
 20
34.79846707097830
 30
0.000000000000000
 10
120.1698789710518
 20
34.90050928302588
 30
0.000000000000000
 10
119.7439589662965
 20
34.99296166820009
 30
0.000000000000000
 10
119.2960025857630
 20
35.07448127466001
 30
0.000000000000000
 10
118.8545020437591
 20
35.13886893342908
 30
0.000000000000000
 10
118.4257182005441
 20
35.18688063790890
 30
0.000000000000000
 10
118.0121110767055
 20
35.22020242106041
 30
0.000000000000000
 10
117.5908187587404
 20
35.24069115007111
 30
0.000000000000000
 10
117.1423309875113
 20
35.24798059147734
 30
0.000000000000000
 10
116.6700654617677
 20
35.23910666807742
 30
0.000000000000000
 10
116.1743536279564
 20
35.21113246670873
 30
0.000000000000000
 10
115.6798498016554
 20
35.16445097440736
 30
0.000000000000000
 10
115.1969444822140
 20
35.10043525538715
 30
0.000000000000000
 10
114.7313776500711
 20
35.02141377649911
 30
0.000000000000000
 10
114.2842987084915
 20
34.92941019617253
 30
0.000000000000000
 10
113.8526001918385
 20
34.82507271734973
 30
0.000000000000000
 10
113.4469529012835
 20
34.71256481149405
 30
0.000000000000000
 10
113.0721183073694
 20
34.59578893203408
 30
0.000000000000000
 10
112.7288314817267
 20
34.47763417974490
 30
0.000000000000000
 10
112.4128763973617
 20
34.35868184970334
 30
0.000000000000000
 10
112.1330955173893
 20
34.24438920137354
 30
0.000000000000000
 10
111.8919605879055
 20
34.13852555114352
 30
0.000000000000000
 10
111.6889079480934
 20
34.04342275962485
 30
0.000000000000000
 10
111.5183242198714
 20
33.95860091328204
 30
0.000000000000000
 10
111.3853734283049
 20
33.88808170171707
 30
0.000000000000000
 10
111.2878419387052
 20
33.83393427265143
 30
0.000000000000000
 10
111.2240119003161
 20
33.79460339363028
 30
0.000000000000000
 10
111.1840962482028
 20
33.77107467325234
 30
0.000000000000000
 10
111.1686097357250
 20
33.75669281148112
 30
0.000000000000000
 10
111.1645686678411
 20
33.75269155204175
 30
0.000000000000000
  0
SPLINE
  5
2A8
100
AcDbEntity
  8
A1
  6
CONTINUOUS
 62
7
100
AcDbSpline
210
0.000000000000000
220
0.000000000000000
230
1.000000000000000
 70
     8
 71
     3
 72
     9
 73
     5
 74
     0
 42
1.000000000000000e-07
 43
1.000000000000000e-07
 12
0.2555320565188595
 22
-0.9668005834155338
 32
0.000000000000000
 13
0.9906331209804193
 23
0.1365504288196462
 33
0.000000000000000
 40
0.000000000000000
 40
0.000000000000000
 40
0.000000000000000
 40
0.000000000000000
 40
0.02791796636258250
 40
0.05163632667820260
 40
0.05163632667820260
 40
0.05163632667820260
 40
0.05163632667820260
 10
111.1645686678411
 20
35.37885346359269
 30
0.000000000000000
 10
111.1669466462940
 20
35.36985642820365
 30
0.000000000000000
 10
111.1763739009579
 20
35.35226920171577
 30
0.000000000000000
 10
111.1956326543317
 20
35.35096121312377
 30
0.000000000000000
 10
111.2034647187664
 20
35.35204079721444
 30
0.000000000000000
  0
ARC
  5
2A9
100
AcDbEntity
  8
A1
  6
CONTINUOUS
 62
7
100
AcDbCircle
 10
110.7645686678411
 20
38.83431516108998
 30
0.000000000000000
 40
1.600000000000000
100
AcDbArc
 50
90.00000000000000
 51
180.0000000000000
  0
ARC
  5
2AA
100
AcDbEntity
  8
A1
  6
CONTINUOUS
 62
7
100
AcDbCircle
 10
123.5645686678411
 20
38.83431516108998
 30
0.000000000000000
 40
1.600000000000000
100
AcDbArc
 50
0.000000000000000
 51
90.00000000000000
  0
LINE
  5
2AB
100
AcDbEntity
  8
A1
  6
CONTINUOUS
 62
7
100
AcDbLine
 10
125.1645686678411
 20
32.43431516109018
 30
0.000000000000000
 11
125.1645686678411
 21
29.43431516109018
 31
0.000000000000000
  0
LINE
  5
2AC
100
AcDbEntity
  8
A1
  6
CONTINUOUS
 62
7
100
AcDbLine
 10
123.5645686678411
 20
32.43431516109018
 30
0.000000000000000
 11
123.5645686678411
 21
29.43431516109018
 31
0.000000000000000
  0
LINE
  5
2AD
100
AcDbEntity
  8
A1
  6
CONTINUOUS
 62
7
100
AcDbLine
 10
110.7645686678412
 20
29.43431516109018
 30
0.000000000000000
 11
110.7645686678412
 21
32.43431516109018
 31
0.000000000000000
  0
LINE
  5
2AE
100
AcDbEntity
  8
A1
  6
CONTINUOUS
 62
7
100
AcDbLine
 10
109.1645686678411
 20
29.43431516109018
 30
0.000000000000000
 11
109.1645686678411
 21
32.43431516109018
 31
0.000000000000000
  0
LINE
  5
2AF
100
AcDbEntity
  8
A1
  6
CONTINUOUS
 62
7
100
AcDbLine
 10
110.7645686678411
 20
40.43431516108993
 30
0.000000000000000
 11
111.1645686678411
 21
40.43431516108996
 31
0.000000000000000
  0
LINE
  5
2B0
100
AcDbEntity
  8
A1
  6
CONTINUOUS
 62
7
100
AcDbLine
 10
109.1645686678411
 20
38.83431516108998
 30
0.000000000000000
 11
109.1645686678411
 21
32.43431516109018
 31
0.000000000000000
  0
LINE
  5
2B1
100
AcDbEntity
  8
A1
  6
CONTINUOUS
 62
7
100
AcDbLine
 10
110.7645686678412
 20
37.92787356535683
 30
0.000000000000000
 11
110.7645686678412
 21
32.43431516109018
 31
0.000000000000000
  0
LINE
  5
2B2
100
AcDbEntity
  8
A1
  6
CONTINUOUS
 62
7
100
AcDbLine
 10
123.5645686678411
 20
40.43431516108996
 30
0.000000000000000
 11
123.1645686678411
 21
40.43431516108994
 31
0.000000000000000
  0
LINE
  5
2B3
100
AcDbEntity
  8
A1
  6
CONTINUOUS
 62
7
100
AcDbLine
 10
125.1645686678411
 20
38.83431516108998
 30
0.000000000000000
 11
125.1645686678411
 21
32.43431516109018
 31
0.000000000000000
  0
LINE
  5
2B4
100
AcDbEntity
  8
A1
  6
CONTINUOUS
 62
7
100
AcDbLine
 10
123.5645686678411
 20
37.92787356535683
 30
0.000000000000000
 11
123.5645686678411
 21
32.43431516109018
 31
0.000000000000000
  0
LINE
  5
2B5
100
AcDbEntity
  8
A1
  6
CONTINUOUS
 62
7
100
AcDbLine
 10
123.1645686678411
 20
35.37885346359269
 30
0.000000000000000
 11
123.1645686678411
 21
40.43431516109010
 31
0.000000000000000
  0
LINE
  5
2B6
100
AcDbEntity
  8
A1
  6
CONTINUOUS
 62
7
100
AcDbLine
 10
123.1645686678412
 20
40.43431516108993
 30
0.000000000000000
 11
111.1645686678411
 21
40.43431516108996
 31
0.000000000000000
  0
LINE
  5
2B7
100
AcDbEntity
  8
A1
  6
CONTINUOUS
 62
7
100
AcDbLine
 10
111.1645686678411
 20
40.43431516108996
 30
0.000000000000000
 11
111.1645686678411
 21
35.37885346359269
 31
0.000000000000000
  0
LINE
  5
2B8
100
AcDbEntity
  8
A1
  6
CONTINUOUS
 62
7
100
AcDbLine
 10
111.1645686678412
 20
37.92787356535684
 30
0.000000000000000
 11
110.7645686678412
 21
37.92787356535683
 31
0.000000000000000
  0
LINE
  5
2B9
100
AcDbEntity
  8
A1
  6
CONTINUOUS
 62
7
100
AcDbLine
 10
123.5645686678411
 20
37.92787356535683
 30
0.000000000000000
 11
123.1645686678411
 21
37.92787356535683
 31
0.000000000000000
  0
LINE
  5
2BA
100
AcDbEntity
  8
A1
  6
CONTINUOUS
 62
7
100
AcDbLine
 10
111.1645686678411
 20
33.75204078976738
 30
0.000000000000000
 11
123.1645686678411
 21
33.75204078976738
 31
0.000000000000000
  0
LINE
  5
2BB
100
AcDbEntity
  8
A1
  6
CONTINUOUS
 62
7
100
AcDbLine
 10
111.1645686678411
 20
33.75269155204175
 30
0.000000000000000
 11
111.1645686678411
 21
35.37885346359269
 31
0.000000000000000
  0
LINE
  5
2BC
100
AcDbEntity
  8
A1
  6
CONTINUOUS
 62
7
100
AcDbLine
 10
123.1645686678411
 20
35.37885346359269
 30
0.000000000000000
 11
123.1645686678411
 21
33.75269155204175
 31
0.000000000000000
  0
LINE
  5
2BD
100
AcDbEntity
  8
A1
  6
CONTINUOUS
 62
7
100
AcDbLine
 10
111.1645686678396
 20
35.43431516109012
 30
0.000000000000000
 11
110.7645686678412
 21
35.43431516109013
 31
0.000000000000000
  0
LINE
  5
2BE
100
AcDbEntity
  8
A1
  6
CONTINUOUS
 62
7
100
AcDbLine
 10
111.1645686678395
 20
37.43431516109008
 30
0.000000000000000
 11
110.7645686678412
 21
37.43431516109008
 31
0.000000000000000
  0
LINE
  5
2BF
100
AcDbEntity
  8
A1
  6
CONTINUOUS
 62
7
100
AcDbLine
 10
123.5645686678411
 20
37.43431516109008
 30
0.000000000000000
 11
123.1645686678426
 21
37.43431516109008
 31
0.000000000000000
  0
LINE
  5
2C0
100
AcDbEntity
  8
A1
  6
CONTINUOUS
 62
7
100
AcDbLine
 10
123.5645686678411
 20
35.43431516109018
 30
0.000000000000000
 11
123.1645686678426
 21
35.43431516109020
 31
0.000000000000000
  0
LINE
  5
2C1
100
AcDbEntity
  8
A1
  6
CONTINUOUS
 62
7
100
AcDbLine
 10
111.1645686678396
 20
32.13431516109573
 30
0.000000000000000
 11
111.1645686678397
 21
29.43431516109020
 31
0.000000000000000
  0
LINE
  5
2C2
100
AcDbEntity
  8
A1
  6
CONTINUOUS
 62
7
100
AcDbLine
 10
123.1645686678426
 20
29.43431516109019
 30
0.000000000000000
 11
123.1645686678427
 21
32.13431516109573
 31
0.000000000000000
  0
LINE
  5
2C3
100
AcDbEntity
  8
A1
  6
CONTINUOUS
 62
7
100
AcDbLine
 10
123.1645686678428
 20
29.43431516109020
 30
0.000000000000000
 11
125.1645686678411
 21
29.43431516109020
 31
0.000000000000000
  0
LINE
  5
2C4
100
AcDbEntity
  8
A1
  6
CONTINUOUS
 62
7
100
AcDbLine
 10
125.1645686678411
 20
27.43431516109019
 30
0.000000000000000
 11
123.1645686678428
 21
27.43431516109019
 31
0.000000000000000
  0
LINE
  5
2C5
100
AcDbEntity
  8
A1
  6
CONTINUOUS
 62
7
100
AcDbLine
 10
125.1645686678411
 20
27.43431516109019
 30
0.000000000000000
 11
125.1645686678411
 21
29.43431516109020
 31
0.000000000000000
  0
LINE
  5
2C6
100
AcDbEntity
  8
A1
  6
CONTINUOUS
 62
7
100
AcDbLine
 10
109.1645686678411
 20
29.43431516109021
 30
0.000000000000000
 11
111.1645686678397
 21
29.43431516109020
 31
0.000000000000000
  0
LINE
  5
2C7
100
AcDbEntity
  8
A1
  6
CONTINUOUS
 62
7
100
AcDbLine
 10
111.1645686678397
 20
27.43431516109019
 30
0.000000000000000
 11
109.1645686678411
 21
27.43431516109019
 31
0.000000000000000
  0
LINE
  5
2C8
100
AcDbEntity
  8
A1
  6
CONTINUOUS
 62
7
100
AcDbLine
 10
109.1645686678411
 20
27.43431516109019
 30
0.000000000000000
 11
109.1645686678411
 21
29.43431516109021
 31
0.000000000000000
  0
LINE
  5
2C9
100
AcDbEntity
  8
A1
  6
CONTINUOUS
 62
7
100
AcDbLine
 10
123.1645686678412
 20
29.43431516109009
 30
0.000000000000000
 11
111.1645686678411
 21
29.43431516109009
 31
0.000000000000000
  0
LINE
  5
2CA
100
AcDbEntity
  8
A1
  6
CONTINUOUS
 62
7
100
AcDbLine
 10
111.1645686678411
 20
27.43431516109019
 30
0.000000000000000
 11
111.1645686678411
 21
29.43431516109020
 31
0.000000000000000
  0
LINE
  5
2CB
100
AcDbEntity
  8
A1
  6
CONTINUOUS
 62
7
100
AcDbLine
 10
111.1645686678411
 20
27.43431516109019
 30
0.000000000000000
 11
123.1645686678412
 21
27.43431516109019
 31
0.000000000000000
  0
LINE
  5
2CC
100
AcDbEntity
  8
A1
  6
CONTINUOUS
 62
7
100
AcDbLine
 10
123.1645686678412
 20
27.43431516109019
 30
0.000000000000000
 11
123.1645686678412
 21
29.43431516109020
 31
0.000000000000000
  0
SPLINE
  5
2CD
100
AcDbEntity
  8
A1
  6
CONTINUOUS
 62
7
100
AcDbSpline
210
0.000000000000000
220
0.000000000000000
230
1.000000000000000
 70
     8
 71
     3
 72
    11
 73
     7
 74
     0
 42
1.000000000000000e-07
 43
1.000000000000000e-07
 12
-0.9999997708951014
 22
-0.0006769120062131151
 32
0.000000000000000
 13
-0.9998660630590166
 23
0.01636630501889158
 33
0.000000000000000
 40
0.000000000000000
 40
0.000000000000000
 40
0.000000000000000
 40
0.000000000000000
 40
0.2302397203461217
 40
0.4242928601086771
 40
0.5560148872817605
 40
0.5999135125384355
 40
0.5999135125384355
 40
0.5999135125384355
 40
0.5999135125384355
 10
99.89765370437154
 20
33.39164606644157
 30
0.000000000000000
 10
99.82090714850585
 20
33.39159411576456
 30
0.000000000000000
 10
99.67947556858753
 20
33.39155232787502
 30
0.000000000000000
 10
99.49413940227377
 20
33.39200364700287
 30
0.000000000000000
 10
99.37091126007735
 20
33.39195842914349
 30
0.000000000000000
 10
99.31237644190705
 20
33.39280490033668
 30
0.000000000000000
 10
99.29774552670399
 20
33.39304438643364
 30
0.000000000000000
  0
SPLINE
  5
2CE
100
AcDbEntity
  8
A1
  6
CONTINUOUS
 62
7
100
AcDbSpline
210
0.000000000000000
220
0.000000000000000
230
1.000000000000000
 70
     8
 71
     3
 72
    24
 73
    20
 74
     0
 42
1.000000000000000e-07
 43
1.000000000000000e-07
 12
0.01831915440550347
 22
-0.9998321902107818
 32
0.000000000000000
 13
0.9351426830908167
 23
-0.3542713116535197
 33
0.000000000000000
 40
0.000000000000000
 40
0.000000000000000
 40
0.000000000000000
 40
0.000000000000000
 40
0.3673222752266427
 40
0.7116121597436369
 40
1.033223957727750
 40
1.473352494512286
 40
1.863086210761449
 40
2.138689448562891
 40
2.382157204395038
 40
2.593550110325411
 40
2.772922778399514
 40
2.951471505764757
 40
3.220303300278950
 40
3.539770147502772
 40
3.909559927205874
 40
4.329846053581661
 40
4.638256992620980
 40
4.969227593152887
 40
5.001419413241803
 40
5.001419413241803
 40
5.001419413241803
 40
5.001419413241803
 10
99.29831323369750
 20
33.32141354644453
 30
0.000000000000000
 10
99.30055624485632
 20
33.19899333479351
 30
0.000000000000000
 10
99.31539017608044
 20
32.96187592281409
 30
0.000000000000000
 10
99.36675001142261
 20
32.62093226956725
 30
0.000000000000000
 10
99.45038607160659
 20
32.26152724862456
 30
0.000000000000000
 10
99.57072482097088
 20
31.89629658752617
 30
0.000000000000000
 10
99.71949555660903
 20
31.55861775614646
 30
0.000000000000000
 10
99.86283626770455
 20
31.29151348749644
 30
0.000000000000000
 10
99.99087364014899
 20
31.08424896662575
 30
0.000000000000000
 10
100.1115333450502
 20
30.91054434077025
 30
0.000000000000000
 10
100.2269750178106
 20
30.75985056439449
 30
0.000000000000000
 10
100.3610880829838
 20
30.59958446491019
 30
0.000000000000000
 10
100.5356753151148
 20
30.41261676562125
 30
0.000000000000000
 10
100.7703149821774
 20
30.19547882275760
 30
0.000000000000000
 10
101.0622534127257
 20
29.96763192117185
 30
0.000000000000000
 10
101.3713922838066
 20
29.77018697890528
 30
0.000000000000000
 10
101.6844729970497
 20
29.60607248905483
 30
0.000000000000000
 10
101.8901860592045
 20
29.51711033321117
 30
0.000000000000000
 10
102.0032241872405
 20
29.47379536180257
 30
0.000000000000000
 10
102.0132588355777
 20
29.46999381569343
 30
0.000000000000000
  0
SPLINE
  5
2CF
100
AcDbEntity
  8
A1
  6
CONTINUOUS
 62
7
100
AcDbSpline
210
0.000000000000000
220
0.000000000000000
230
1.000000000000000
 70
     8
 71
     3
 72
    20
 73
    16
 74
     0
 42
1.000000000000000e-07
 43
1.000000000000000e-07
 12
-0.8704045949416468
 22
0.4923371213881182
 32
0.000000000000000
 13
-0.01858664105338903
 23
0.9998272534666057
 33
0.000000000000000
 40
0.000000000000000
 40
0.000000000000000
 40
0.000000000000000
 40
0.000000000000000
 40
0.01151333340464370
 40
0.2184935316658342
 40
0.3903963727724366
 40
0.5468761556083995
 40
0.7376987360446746
 40
0.9652516203776826
 40
1.229310870808997
 40
1.530017147696724
 40
1.867522375042626
 40
2.241940292780567
 40
2.512242777634325
 40
2.799175458273722
 40
3.103064566769270
 40
3.103064566769270
 40
3.103064566769270
 40
3.103064566769270
 10
102.0136080789886
 20
30.79120554419821
 30
0.000000000000000
 10
102.0102676595557
 20
30.79309502467355
 30
0.000000000000000
 10
101.9469484590150
 20
30.82908090020054
 30
0.000000000000000
 10
101.8360745555504
 20
30.89744215452334
 30
0.000000000000000
 10
101.6903074454699
 20
31.00054661521850
 30
0.000000000000000
 10
101.5546829353798
 20
31.10818481946299
 30
0.000000000000000
 10
101.4117918707848
 20
31.23606354054221
 30
0.000000000000000
 10
101.2535834535469
 20
31.39984263639704
 30
0.000000000000000
 10
101.0864492558956
 20
31.60478993316142
 30
0.000000000000000
 10
100.9189318315774
 20
31.85517981150752
 30
0.000000000000000
 10
100.7613721900946
 20
32.15445339084898
 30
0.000000000000000
 10
100.6431528306801
 20
32.46070955469629
 30
0.000000000000000
 10
100.5624436004670
 20
32.76098340081536
 30
0.000000000000000
 10
100.5137039212171
 20
33.04429503512506
 30
0.000000000000000
 10
100.5000125812158
 20
33.24117634327703
 30
0.000000000000000
 10
100.4981298219559
 20
33.34245521417887
 30
0.000000000000000
  0
SPLINE
  5
2D0
100
AcDbEntity
  8
A1
  6
CONTINUOUS
 62
7
100
AcDbSpline
210
0.000000000000000
220
0.000000000000000
230
1.000000000000000
 70
     8
 71
     3
 72
    13
 73
     9
 74
     0
 42
1.000000000000000e-07
 43
1.000000000000000e-07
 12
0.9999683020979546
 22
-0.007962085089900484
 32
0.000000000000000
 13
0.8344725898718934
 23
-0.5510494503690779
 33
0.000000000000000
 40
0.000000000000000
 40
0.000000000000000
 40
0.000000000000000
 40
0.000000000000000
 40
0.3694177053106195
 40
0.7223540604919390
 40
1.039338896491852
 40
1.320378597768197
 40
1.565447042074035
 40
1.740125398618205
 40
1.740125398618205
 40
1.740125398618205
 40
1.740125398618205
 10
103.5154787782839
 20
36.39085344553805
 30
0.000000000000000
 10
103.6386141101320
 20
36.38987300047024
 30
0.000000000000000
 10
103.8795683165240
 20
36.37316249501617
 30
0.000000000000000
 10
104.2203710461588
 20
36.30671054715712
 30
0.000000000000000
 10
104.5235170694561
 20
36.21213413197017
 30
0.000000000000000
 10
104.7827200634639
 20
36.10253178491072
 30
0.000000000000000
 10
104.9895141794529
 20
35.99334721070237
 30
0.000000000000000
 10
105.1084977156204
 20
35.91957089205403
 30
0.000000000000000
 10
105.1570858158137
 20
35.88748542126568
 30
0.000000000000000
  0
SPLINE
  5
2D1
100
AcDbEntity
  8
A1
  6
CONTINUOUS
 62
7
100
AcDbSpline
210
0.000000000000000
220
0.000000000000000
230
1.000000000000000
 70
     8
 71
     3
 72
    13
 73
     9
 74
     0
 42
1.000000000000000e-07
 43
1.000000000000000e-07
 12
-0.8392683084689452
 22
-0.5437174876710742
 32
0.000000000000000
 13
-0.9999655288214626
 23
-0.008303081889778241
 33
0.000000000000000
 40
0.000000000000000
 40
0.000000000000000
 40
0.000000000000000
 40
0.000000000000000
 40
0.1584317593912156
 40
0.4770128230165399
 40
0.7466828599746920
 40
1.045301042814915
 40
1.372992458353502
 40
1.712610621637290
 40
1.712610621637290
 40
1.712610621637290
 40
1.712610621637290
 10
105.1336198446851
 20
30.88620470091347
 30
0.000000000000000
 10
105.0892975931145
 20
30.85749066151897
 30
0.000000000000000
 10
104.9536033790281
 20
30.77448285320136
 30
0.000000000000000
 10
104.7312971538677
 20
30.66143589866573
 30
0.000000000000000
 10
104.4558546165066
 20
30.55312256759212
 30
0.000000000000000
 10
104.1685047931406
 20
30.46994072495594
 30
0.000000000000000
 10
103.8510471822558
 20
30.41259175639855
 30
0.000000000000000
 10
103.6284942533580
 20
30.39814477458841
 30
0.000000000000000
 10
103.5152921012762
 20
30.39720481544808
 30
0.000000000000000
  0
SPLINE
  5
2D2
100
AcDbEntity
  8
A1
  6
CONTINUOUS
 62
7
100
AcDbSpline
210
0.000000000000000
220
0.000000000000000
230
1.000000000000000
 70
     8
 71
     3
 72
    20
 73
    16
 74
     0
 42
1.000000000000000e-07
 43
1.000000000000000e-07
 12
0.001026961442903485
 22
0.9999994726749151
 32
0.000000000000000
 13
0.8695738453134254
 23
0.4938029237941919
 33
0.000000000000000
 40
0.000000000000000
 40
0.000000000000000
 40
0.000000000000000
 40
0.000000000000000
 40
0.3899315783870074
 40
0.7429552874727900
 40
1.059673634028069
 40
1.340297257195777
 40
1.584918920450520
 40
1.793604334363570
 40
1.966402320036815
 40
2.125118508567715
 40
2.318782010560145
 40
2.549195335121329
 40
2.816081412932741
 40
3.119575981300605
 40
3.150246422102835
 40
3.150246422102835
 40
3.150246422102835
 40
3.150246422102835
 10
100.5018187656526
 20
33.39306286767858
 30
0.000000000000000
 10
100.5019522472181
 20
33.52303999193401
 30
0.000000000000000
 10
100.5182478458448
 20
33.77102012386695
 30
0.000000000000000
 10
100.5858965544681
 20
34.11849919070745
 30
0.000000000000000
 10
100.6803942451597
 20
34.42146693204340
 30
0.000000000000000
 10
100.7898817715760
 20
34.68031125717203
 30
0.000000000000000
 10
100.9042955880223
 20
34.89684914548872
 30
0.000000000000000
 10
101.0153831975683
 20
35.07372613782060
 30
0.000000000000000
 10
101.1206924059762
 20
35.21991056418916
 30
0.000000000000000
 10
101.2308295985798
 20
35.35608620986783
 30
0.000000000000000
 10
101.3619165655747
 20
35.49965093331490
 30
0.000000000000000
 10
101.5294939416694
 20
35.65801892998176
 30
0.000000000000000
 10
101.7386602428137
 20
35.82440757350724
 30
0.000000000000000
 10
101.9069711840700
 20
35.93382786875874
 30
0.000000000000000
 10
102.0035466305302
 20
35.98932671884827
 30
0.000000000000000
 10
102.0124367015788
 20
35.99437510329567
 30
0.000000000000000
  0
SPLINE
  5
2D3
100
AcDbEntity
  8
A1
  6
CONTINUOUS
 62
7
100
AcDbSpline
210
0.000000000000000
220
0.000000000000000
230
1.000000000000000
 70
     8
 71
     3
 72
    10
 73
     6
 74
     0
 42
1.000000000000000e-07
 43
1.000000000000000e-07
 12
-0.7133857775170327
 22
-0.06696879390801769
 32
0.000000000000000
 13
-1.115700633675488
 23
0.0001625830956299978
 33
0.000000000000000
 40
0.000000000000000
 40
0.000000000000000
 40
0.000000000000000
 40
0.000000000000000
 40
0.08932218609276046
 40
0.2246020671591777
 40
0.4074301581945029
 40
0.4074301581945029
 40
0.4074301581945029
 40
0.4074301581945029
 10
100.5018189232941
 20
33.39305929193948
 30
0.000000000000000
 10
100.4805785309023
 20
33.39106535891553
 30
0.000000000000000
 10
100.4126442549567
 20
33.39377790992634
 30
0.000000000000000
 10
100.2773950044829
 20
33.39089928740435
 30
0.000000000000000
 10
100.1625630840509
 20
33.39163615818924
 30
0.000000000000000
 10
100.0945692783769
 20
33.39164606644157
 30
0.000000000000000
  0
SPLINE
  5
2D4
100
AcDbEntity
  8
A1
  6
CONTINUOUS
 62
7
100
AcDbSpline
210
0.000000000000000
220
0.000000000000000
230
1.000000000000000
 70
     8
 71
     3
 72
    19
 73
    15
 74
     0
 42
1.000000000000000e-07
 43
1.000000000000000e-07
 12
-0.5916828879676359
 22
0.8061708008148116
 32
0.000000000000000
 13
-0.9999853100409837
 23
0.005420304601784665
 33
0.000000000000000
 40
0.000000000000000
 40
0.000000000000000
 40
0.000000000000000
 40
0.000000000000000
 40
0.1260930329974169
 40
0.3065323205268456
 40
0.5784346641699016
 40
0.9018190945213224
 40
1.276327200699329
 40
1.702150052512484
 40
2.014701991692654
 40
2.350148943119565
 40
2.708468287922944
 40
3.089642502422160
 40
3.493741947335773
 40
3.902266785484453
 40
3.902266785484453
 40
3.902266785484453
 40
3.902266785484453
 10
106.8730790668515
 20
35.89118999306905
 30
0.000000000000000
 10
106.8482100368794
 20
35.92507416686528
 30
0.000000000000000
 10
106.7864948851788
 20
36.00653007599605
 30
0.000000000000000
 10
106.6644368695531
 20
36.15586251785875
 30
0.000000000000000
 10
106.4898886497332
 20
36.34690486905393
 30
0.000000000000000
 10
106.2545358001763
 20
36.56901614283147
 30
0.000000000000000
 10
105.9608148562384
 20
36.80227170910365
 30
0.000000000000000
 10
105.6490617232706
 20
37.00455706399931
 30
0.000000000000000
 10
105.3328079410436
 20
37.17282194009013
 30
0.000000000000000
 10
105.0253233011681
 20
37.30775077939887
 30
0.000000000000000
 10
104.6862880726814
 20
37.42496987682241
 30
0.000000000000000
 10
104.3161048395373
 20
37.51806694479450
 30
0.000000000000000
 10
103.9222646108064
 20
37.57906050666575
 30
0.000000000000000
 10
103.6512624379222
 20
37.59379176965160
 30
0.000000000000000
 10
103.5150894922770
 20
37.59452987933832
 30
0.000000000000000
  0
SPLINE
  5
2D5
100
AcDbEntity
  8
A1
  6
CONTINUOUS
 62
7
100
AcDbSpline
210
0.000000000000000
220
0.000000000000000
230
1.000000000000000
 70
     8
 71
     3
 72
    19
 73
    15
 74
     0
 42
1.000000000000000e-07
 43
1.000000000000000e-07
 12
0.9999880089370663
 22
0.004897140171408410
 32
0.000000000000000
 13
0.5953087937982673
 23
0.8034970068557641
 33
0.000000000000000
 40
0.000000000000000
 40
0.000000000000000
 40
0.000000000000000
 40
0.000000000000000
 40
0.3246211749280452
 40
0.6466341752128193
 40
0.9499745189145974
 40
1.370103927938485
 40
1.748610368607611
 40
2.086947817172442
 40
2.409541495441701
 40
2.725239510023196
 40
3.034159378851037
 40
3.336471859741679
 40
3.631896305044001
 40
3.883442673755694
 40
3.883442673755694
 40
3.883442673755694
 40
3.883442673755694
 10
103.5150147726686
 20
29.19537204207574
 30
0.000000000000000
 10
103.6232205334603
 20
29.19590194720782
 30
0.000000000000000
 10
103.8388209711180
 20
29.20539803451667
 30
0.000000000000000
 10
104.1533928849617
 20
29.24432671593971
 30
0.000000000000000
 10
104.4953768162032
 20
29.31280280710510
 30
0.000000000000000
 10
104.8487048052551
 20
29.41553375239445
 30
0.000000000000000
 10
105.2016491484576
 20
29.55492267718555
 30
0.000000000000000
 10
105.5124906141181
 20
29.70878839633438
 30
0.000000000000000
 10
105.7924741739461
 20
29.87549329672126
 30
0.000000000000000
 10
106.0510471958515
 20
30.05720271317861
 30
0.000000000000000
 10
106.2900519988648
 20
30.25347043695279
 30
0.000000000000000
 10
106.5088502036940
 20
30.46236067369247
 30
0.000000000000000
 10
106.6987157166738
 20
30.67267562415389
 30
0.000000000000000
 10
106.8117612213077
 20
30.81588536078192
 30
0.000000000000000
 10
106.8616771430884
 20
30.88325761223035
 30
0.000000000000000
  0
SPLINE
  5
2D6
100
AcDbEntity
  8
A1
  6
CONTINUOUS
 62
7
100
AcDbSpline
210
0.000000000000000
220
0.000000000000000
230
1.000000000000000
 70
     8
 71
     3
 72
    12
 73
     8
 74
     0
 42
1.000000000000000e-07
 43
1.000000000000000e-07
 12
-0.9999998639441401
 22
-0.0005216430661789673
 32
0.000000000000000
 13
-0.9998132347755018
 23
0.01932603341083450
 33
0.000000000000000
 40
0.000000000000000
 40
0.000000000000000
 40
0.000000000000000
 40
0.000000000000000
 40
0.2317804707358226
 40
0.4583257180418459
 40
0.6454467941398592
 40
0.7621550933745598
 40
0.7964170064782229
 40
0.7964170064782229
 40
0.7964170064782229
 40
0.7964170064782229
 10
100.0945692783769
 20
33.39164606644157
 30
0.000000000000000
 10
100.0173091319767
 20
33.39160576421642
 30
0.000000000000000
 10
99.86453409841693
 20
33.39163573616497
 30
0.000000000000000
 10
99.64938425596826
 20
33.39182242600278
 30
0.000000000000000
 10
99.47259593717718
 20
33.39245619968389
 30
0.000000000000000
 10
99.35989461760917
 20
33.39254946970154
 30
0.000000000000000
 10
99.30957815532683
 20
33.39342516619602
 30
0.000000000000000
 10
99.29815965060358
 20
33.39364588182181
 30
0.000000000000000
  0
SPLINE
  5
2D7
100
AcDbEntity
  8
A1
  6
CONTINUOUS
 62
7
100
AcDbSpline
210
0.000000000000000
220
0.000000000000000
230
1.000000000000000
 70
     8
 71
     3
 72
    23
 73
    19
 74
     0
 42
1.000000000000000e-07
 43
1.000000000000000e-07
 12
-0.9349591563077411
 22
-0.3547553749222061
 32
0.000000000000000
 13
-0.0006842895553518247
 23
-0.9999997658738664
 33
0.000000000000000
 40
0.000000000000000
 40
0.000000000000000
 40
0.000000000000000
 40
0.000000000000000
 40
0.3615247206663605
 40
0.6401112647540242
 40
0.8864043310048759
 40
1.100431476649481
 40
1.282219094443122
 40
1.462399660413720
 40
1.733950451499654
 40
2.056915054689749
 40
2.430869690608975
 40
2.856007813810052
 40
3.168068105153102
 40
3.503056350144686
 40
3.861037178177174
 40
4.242117748148769
 40
4.646534299855935
 40
5.074807197951378
 40
5.074807197951378
 40
5.074807197951378
 40
5.074807197951378
 10
102.0124046381499
 20
37.31922312049674
 30
0.000000000000000
 10
101.8997343555437
 20
37.27647217455553
 30
0.000000000000000
 10
101.7033040279446
 20
37.19235689440292
 30
0.000000000000000
 10
101.4409574362553
 20
37.05603043140800
 30
0.000000000000000
 10
101.2296688255291
 20
36.92917506334977
 30
0.000000000000000
 10
101.0523517721683
 20
36.80913723396365
 30
0.000000000000000
 10
100.8985675321057
 20
36.69408401877003
 30
0.000000000000000
 10
100.7351057693872
 20
36.56029232473811
 30
0.000000000000000
 10
100.5444169582829
 20
36.38586745895354
 30
0.000000000000000
 10
100.3226813290342
 20
36.15077315528590
 30
0.000000000000000
 10
100.0897217807654
 20
35.85752908272286
 30
0.000000000000000
 10
99.88764639115372
 20
35.54632888049289
 30
0.000000000000000
 10
99.71953945228564
 20
35.23060829041557
 30
0.000000000000000
 10
99.58472235165532
 20
34.92354272903943
 30
0.000000000000000
 10
99.46759220289549
 20
34.58478995027229
 30
0.000000000000000
 10
99.37456262255482
 20
34.21462504422516
 30
0.000000000000000
 10
99.31266797429511
 20
33.81418602087734
 30
0.000000000000000
 10
99.29825741425722
 20
33.53640012619047
 30
0.000000000000000
 10
99.29815972670021
 20
33.39364252691529
 30
0.000000000000000
  0
LINE
  5
2D8
100
AcDbEntity
  8
A1
  6
CONTINUOUS
 62
7
100
AcDbLine
 10
99.29767536576313
 20
33.39308330792579
 30
0.000000000000000
 11
99.29832122776621
 21
33.32141368828458
 31
0.000000000000000
  0
LINE
  5
2D9
100
AcDbEntity
  8
A1
  6
CONTINUOUS
 62
7
100
AcDbLine
 10
100.5006131686267
 20
33.26216063422601
 30
0.000000000000000
 11
100.4976689794595
 21
33.39742600614559
 31
0.000000000000000
  0
LINE
  5
2DA
100
AcDbEntity
  8
A1
  6
CONTINUOUS
 62
7
100
AcDbLine
 10
99.29767932502416
 20
33.40479299279655
 30
0.000000000000000
 11
99.29766832002295
 21
33.39354196865845
 31
0.000000000000000
  0
LINE
  5
2DB
100
AcDbEntity
  8
A1
  6
CONTINUOUS
 62
7
100
AcDbLine
 10
105.0145692783766
 20
28.43251182385288
 30
0.000000000000000
 11
105.0145692783766
 21
28.93227363605954
 31
0.000000000000000
  0
LINE
  5
2DC
100
AcDbEntity
  8
A1
  6
CONTINUOUS
 62
7
100
AcDbLine
 10
105.0145692783767
 20
28.43251182385282
 30
0.000000000000000
 11
103.5145692783769
 21
28.43251182385283
 31
0.000000000000000
  0
LINE
  5
2DD
100
AcDbEntity
  8
A1
  6
CONTINUOUS
 62
7
100
AcDbLine
 10
129.3145680573053
 20
28.43251182385288
 30
0.000000000000000
 11
129.3145680573053
 21
28.93227363605954
 31
0.000000000000000
  0
LINE
  5
2DE
100
AcDbEntity
  8
A1
  6
CONTINUOUS
 62
7
100
AcDbLine
 10
129.3145680573052
 20
28.43251182385282
 30
0.000000000000000
 11
130.8145680573050
 21
28.43251182385283
 31
0.000000000000000
  0
LINE
  5
2DF
100
AcDbEntity
  8
A1
  6
CONTINUOUS
 62
7
100
AcDbLine
 10
129.3145680573053
 20
37.93632546142221
 30
0.000000000000000
 11
129.3145680573053
 21
38.43604521495202
 31
0.000000000000000
  0
LINE
  5
2E0
100
AcDbEntity
  8
A1
  6
CONTINUOUS
 62
7
100
AcDbLine
 10
130.8145680573051
 20
38.43604521495202
 30
0.000000000000000
 11
129.3145680573051
 21
38.43604521495202
 31
0.000000000000000
  0
LINE
  5
2E1
100
AcDbEntity
  8
A1
  6
CONTINUOUS
 62
7
100
AcDbLine
 10
129.3145680573052
 20
37.31156422900891
 30
0.000000000000000
 11
129.3145680573053
 21
37.93632546142221
 31
0.000000000000000
  0
LINE
  5
2E2
100
AcDbEntity
  8
A1
  6
CONTINUOUS
 62
7
100
AcDbLine
 10
129.3145680573053
 20
35.88803976204434
 30
0.000000000000000
 11
129.3145680573053
 21
35.97551597879930
 31
0.000000000000000
  0
LINE
  5
2E3
100
AcDbEntity
  8
A1
  6
CONTINUOUS
 62
7
100
AcDbLine
 10
105.0145692783766
 20
37.93632546142221
 30
0.000000000000000
 11
105.0145692783766
 21
38.43604521495202
 31
0.000000000000000
  0
LINE
  5
2E4
100
AcDbEntity
  8
A1
  6
CONTINUOUS
 62
7
100
AcDbLine
 10
103.5145692783768
 20
38.43604521495202
 30
0.000000000000000
 11
105.0145692783767
 21
38.43604521495202
 31
0.000000000000000
  0
LINE
  5
2E5
100
AcDbEntity
  8
A1
  6
CONTINUOUS
 62
7
100
AcDbLine
 10
105.0145692783767
 20
30.81393108846983
 30
0.000000000000000
 11
105.0145692783766
 21
30.88823739165525
 31
0.000000000000000
  0
LINE
  5
2E6
100
AcDbEntity
  8
A1
  6
CONTINUOUS
 62
7
100
AcDbLine
 10
105.0145692783766
 20
28.93227363605954
 30
0.000000000000000
 11
105.0145692783767
 21
29.48566092626645
 31
0.000000000000000
  0
LINE
  5
2E7
100
AcDbEntity
  8
A1
  6
CONTINUOUS
 62
7
100
AcDbLine
 10
129.3145680573052
 20
30.81393108846806
 30
0.000000000000000
 11
129.3145680573053
 21
30.88823739165525
 31
0.000000000000000
  0
LINE
  5
2E8
100
AcDbEntity
  8
A1
  6
CONTINUOUS
 62
7
100
AcDbLine
 10
129.3145680573053
 20
28.93227363605954
 30
0.000000000000000
 11
129.3145680573052
 21
29.47879108288251
 31
0.000000000000000
  0
LINE
  5
2E9
100
AcDbEntity
  8
A1
  6
CONTINUOUS
 62
7
100
AcDbLine
 10
105.0145692783767
 20
37.31156422900779
 30
0.000000000000000
 11
105.0145692783766
 21
37.93632546142221
 31
0.000000000000000
  0
LINE
  5
2EA
100
AcDbEntity
  8
A1
  6
CONTINUOUS
 62
7
100
AcDbLine
 10
105.0145692783766
 20
35.88803976204434
 30
0.000000000000000
 11
105.0145692783767
 21
35.97579142352632
 31
0.000000000000000
  0
LINE
  5
2EB
100
AcDbEntity
  8
A1
  6
CONTINUOUS
 62
7
100
AcDbLine
 10
103.5145692783767
 20
30.88829445141646
 30
0.000000000000000
 11
103.8974679316532
 21
30.88826793063328
 31
0.000000000000000
  0
LINE
  5
2EC
100
AcDbEntity
  8
A1
  6
CONTINUOUS
 62
7
100
AcDbLine
 10
103.5145692784566
 20
35.88800168597618
 30
0.000000000000000
 11
103.8974679317334
 21
35.88800168597618
 31
0.000000000000000
  0
LINE
  5
2ED
100
AcDbEntity
  8
A1
  6
CONTINUOUS
 62
7
100
AcDbLine
 10
130.8145680573051
 20
30.88829445141646
 30
0.000000000000000
 11
130.4316694040286
 21
30.88826793063328
 31
0.000000000000000
  0
LINE
  5
2EE
100
AcDbEntity
  8
A1
  6
CONTINUOUS
 62
7
100
AcDbLine
 10
130.8145680572253
 20
35.88800168597618
 30
0.000000000000000
 11
130.4316694039484
 21
35.88800168597618
 31
0.000000000000000
  0
LINE
  5
2EF
100
AcDbEntity
  8
A1
  6
CONTINUOUS
 62
7
100
AcDbLine
 10
127.1645680573051
 20
30.88817861560690
 30
0.000000000000000
 11
130.4316694040286
 21
30.88826793063327
 31
0.000000000000000
  0
LINE
  5
2F0
100
AcDbEntity
  8
A1
  6
CONTINUOUS
 62
7
100
AcDbLine
 10
130.4316694040287
 20
35.88803846806610
 30
0.000000000000000
 11
127.1645680573051
 21
35.88804685462277
 31
0.000000000000000
  0
LINE
  5
2F1
100
AcDbEntity
  8
A1
  6
CONTINUOUS
 62
7
100
AcDbLine
 10
130.4316694040286
 20
35.88803846806609
 30
0.000000000000000
 11
130.4316694040287
 21
30.88826793063327
 31
0.000000000000000
  0
LINE
  5
2F2
100
AcDbEntity
  8
A1
  6
CONTINUOUS
 62
7
100
AcDbLine
 10
107.1645692783767
 20
30.88817861560690
 30
0.000000000000000
 11
103.8974679316532
 21
30.88826793063327
 31
0.000000000000000
  0
LINE
  5
2F3
100
AcDbEntity
  8
A1
  6
CONTINUOUS
 62
7
100
AcDbLine
 10
103.8974679316532
 20
35.88803846806609
 30
0.000000000000000
 11
107.1645692783767
 21
35.88804685462276
 31
0.000000000000000
  0
LINE
  5
2F4
100
AcDbEntity
  8
A1
  6
CONTINUOUS
 62
7
100
AcDbLine
 10
109.1645686678411
 20
34.73431516108434
 30
0.000000000000000
 11
108.6645692783767
 21
34.73431516108434
 31
0.000000000000000
  0
LINE
  5
2F5
100
AcDbEntity
  8
A1
  6
CONTINUOUS
 62
7
100
AcDbLine
 10
111.1645686678396
 20
34.73431516108434
 30
0.000000000000000
 11
110.7645686678412
 21
34.73431516108434
 31
0.000000000000000
  0
LINE
  5
2F6
100
AcDbEntity
  8
A1
  6
CONTINUOUS
 62
7
100
AcDbLine
 10
123.5645686678411
 20
34.73431516108434
 30
0.000000000000000
 11
123.1645686678427
 21
34.73431516108434
 31
0.000000000000000
  0
LINE
  5
2F7
100
AcDbEntity
  8
A1
  6
CONTINUOUS
 62
7
100
AcDbLine
 10
125.6645680573052
 20
34.73431516108434
 30
0.000000000000000
 11
125.1645686678411
 21
34.73431516108434
 31
0.000000000000000
  0
LINE
  5
2F8
100
AcDbEntity
  8
A1
  6
CONTINUOUS
 62
7
100
AcDbLine
 10
125.1645686678411
 20
32.13431516109573
 30
0.000000000000000
 11
125.6645680573052
 21
32.13431516109573
 31
0.000000000000000
  0
LINE
  5
2F9
100
AcDbEntity
  8
A1
  6
CONTINUOUS
 62
7
100
AcDbLine
 10
110.7645686678412
 20
32.13431516109573
 30
0.000000000000000
 11
123.5645686678411
 21
32.13431516109573
 31
0.000000000000000
  0
LINE
  5
2FA
100
AcDbEntity
  8
A1
  6
CONTINUOUS
 62
7
100
AcDbLine
 10
108.6645692783767
 20
32.13431516109573
 30
0.000000000000000
 11
109.1645686678411
 21
32.13431516109573
 31
0.000000000000000
  0
LINE
  5
2FB
100
AcDbEntity
  8
A1
  6
CONTINUOUS
 62
7
100
AcDbLine
 10
107.1645692783767
 20
34.73431516109002
 30
0.000000000000000
 11
106.6645692783767
 21
34.73431516109002
 31
0.000000000000000
  0
LINE
  5
2FC
100
AcDbEntity
  8
A1
  6
CONTINUOUS
 62
7
100
AcDbLine
 10
106.6645692783767
 20
32.13431516109004
 30
0.000000000000000
 11
107.1645692783767
 21
32.13431516109004
 31
0.000000000000000
  0
LINE
  5
2FD
100
AcDbEntity
  8
A1
  6
CONTINUOUS
 62
7
100
AcDbLine
 10
106.6645692783767
 20
32.13431516109004
 30
0.000000000000000
 11
106.6645692783767
 21
34.73431516109002
 31
0.000000000000000
  0
LINE
  5
2FE
100
AcDbEntity
  8
A1
  6
CONTINUOUS
 62
7
100
AcDbLine
 10
127.1645680573052
 20
32.13431516109004
 30
0.000000000000000
 11
127.6645680573052
 21
32.13431516109004
 31
0.000000000000000
  0
LINE
  5
2FF
100
AcDbEntity
  8
A1
  6
CONTINUOUS
 62
7
100
AcDbLine
 10
127.6645680573052
 20
34.73431516109002
 30
0.000000000000000
 11
127.1645680573052
 21
34.73431516109002
 31
0.000000000000000
  0
LINE
  5
300
100
AcDbEntity
  8
A1
  6
CONTINUOUS
 62
7
100
AcDbLine
 10
127.6645680573052
 20
32.13431516109004
 30
0.000000000000000
 11
127.6645680573052
 21
34.73431516109002
 31
0.000000000000000
  0
LINE
  5
301
100
AcDbEntity
  8
A1
  6
CONTINUOUS
 62
7
100
AcDbLine
 10
107.1645692783765
 20
35.88805816477790
 30
0.000000000000000
 11
107.1645692783765
 21
30.88805816477835
 31
0.000000000000000
  0
LINE
  5
302
100
AcDbEntity
  8
A1
  6
CONTINUOUS
 62
7
100
AcDbLine
 10
108.6645692783767
 20
30.88805816477841
 30
0.000000000000000
 11
107.1645692783768
 21
30.88805816477841
 31
0.000000000000000
  0
LINE
  5
303
100
AcDbEntity
  8
A1
  6
CONTINUOUS
 62
7
100
AcDbLine
 10
108.6645692783767
 20
30.88805816477835
 30
0.000000000000000
 11
108.6645692783767
 21
35.88805816477790
 31
0.000000000000000
  0
LINE
  5
304
100
AcDbEntity
  8
A1
  6
CONTINUOUS
 62
7
100
AcDbLine
 10
108.6645692783767
 20
35.88805816477695
 30
0.000000000000000
 11
107.1645692783768
 21
35.88805816477695
 31
0.000000000000000
  0
LINE
  5
305
100
AcDbEntity
  8
A1
  6
CONTINUOUS
 62
7
100
AcDbLine
 10
127.1645680573054
 20
35.88805816477790
 30
0.000000000000000
 11
127.1645680573054
 21
30.88805816477835
 31
0.000000000000000
  0
LINE
  5
306
100
AcDbEntity
  8
A1
  6
CONTINUOUS
 62
7
100
AcDbLine
 10
125.6645680573052
 20
35.88805816477695
 30
0.000000000000000
 11
127.1645680573050
 21
35.88805816477695
 31
0.000000000000000
  0
LINE
  5
307
100
AcDbEntity
  8
A1
  6
CONTINUOUS
 62
7
100
AcDbLine
 10
125.6645680573052
 20
30.88805816477835
 30
0.000000000000000
 11
125.6645680573052
 21
35.88805816477790
 31
0.000000000000000
  0
LINE
  5
308
100
AcDbEntity
  8
A1
  6
CONTINUOUS
 62
7
100
AcDbLine
 10
125.6645680573052
 20
30.88805816477841
 30
0.000000000000000
 11
127.1645680573050
 21
30.88805816477841
 31
0.000000000000000
  0
LINE
  5
309
100
AcDbEntity
  8
A1
  6
CONTINUOUS
 62
7
100
AcDbLine
 10
125.6645680573056
 20
27.94446234150416
 30
0.000000000000000
 11
125.6645680573056
 21
28.40179147025833
 31
0.000000000000000
  0
LINE
  5
30A
100
AcDbEntity
  8
A1
  6
CONTINUOUS
 62
7
100
AcDbLine
 10
127.1645680573055
 20
28.40179147025833
 30
0.000000000000000
 11
127.1645680573055
 21
27.94446234150416
 31
0.000000000000000
  0
LINE
  5
30B
100
AcDbEntity
  8
A1
  6
CONTINUOUS
 62
7
100
AcDbLine
 10
127.1645680573055
 20
27.94446234150415
 30
0.000000000000000
 11
125.6645680573056
 21
27.94446234150416
 31
0.000000000000000
  0
LINE
  5
30C
100
AcDbEntity
  8
A1
  6
CONTINUOUS
 62
7
100
AcDbLine
 10
108.6645692783767
 20
27.94446234150416
 30
0.000000000000000
 11
108.6645692783767
 21
28.40179147025833
 31
0.000000000000000
  0
LINE
  5
30D
100
AcDbEntity
  8
A1
  6
CONTINUOUS
 62
7
100
AcDbLine
 10
107.1645692783767
 20
28.40179147025833
 30
0.000000000000000
 11
107.1645692783767
 21
27.94446234150416
 31
0.000000000000000
  0
LINE
  5
30E
100
AcDbEntity
  8
A1
  6
CONTINUOUS
 62
7
100
AcDbLine
 10
107.1645692783767
 20
27.94446234150415
 30
0.000000000000000
 11
108.6645692783767
 21
27.94446234150416
 31
0.000000000000000
  0
LINE
  5
30F
100
AcDbEntity
  8
A1
  6
CONTINUOUS
 62
7
100
AcDbLine
 10
106.6645686678400
 20
29.13435708110805
 30
0.000000000000000
 11
107.1645692783767
 21
29.13435708110805
 31
0.000000000000000
  0
LINE
  5
310
100
AcDbEntity
  8
A1
  6
CONTINUOUS
 62
7
100
AcDbLine
 10
106.6645686678400
 20
29.13435708110805
 30
0.000000000000000
 11
106.6645686678400
 21
30.64283014150054
 31
0.000000000000000
  0
LINE
  5
311
100
AcDbEntity
  8
A1
  6
CONTINUOUS
 62
7
100
AcDbLine
 10
127.1645680573055
 20
29.13435708110805
 30
0.000000000000000
 11
127.6645686678422
 21
29.13435708110805
 31
0.000000000000000
  0
LINE
  5
312
100
AcDbEntity
  8
A1
  6
CONTINUOUS
 62
7
100
AcDbLine
 10
127.6645686678422
 20
29.13435708110805
 30
0.000000000000000
 11
127.6645686678422
 21
30.64557091174183
 31
0.000000000000000
  0
LINE
  5
313
100
AcDbEntity
  8
A1
  6
CONTINUOUS
 62
7
100
AcDbLine
 10
109.1645686678411
 20
32.03435708110806
 30
0.000000000000000
 11
108.6645692783767
 21
32.03435708110806
 31
0.000000000000000
  0
LINE
  5
314
100
AcDbEntity
  8
A1
  6
CONTINUOUS
 62
7
100
AcDbLine
 10
111.1645686678396
 20
32.03435708110806
 30
0.000000000000000
 11
110.7645686678412
 21
32.03435708110806
 31
0.000000000000000
  0
LINE
  5
315
100
AcDbEntity
  8
A1
  6
CONTINUOUS
 62
7
100
AcDbLine
 10
123.5645686678411
 20
32.03435708110806
 30
0.000000000000000
 11
123.1645686678427
 21
32.03435708110806
 31
0.000000000000000
  0
LINE
  5
316
100
AcDbEntity
  8
A1
  6
CONTINUOUS
 62
7
100
AcDbLine
 10
125.6645680573055
 20
32.03435708110806
 30
0.000000000000000
 11
125.1645686678411
 21
32.03435708110806
 31
0.000000000000000
  0
LINE
  5
317
100
AcDbEntity
  8
A1
  6
CONTINUOUS
 62
7
100
AcDbLine
 10
125.1645686678411
 20
29.03435708110806
 30
0.000000000000000
 11
125.6645680573055
 21
29.03435708110806
 31
0.000000000000000
  0
LINE
  5
318
100
AcDbEntity
  8
A1
  6
CONTINUOUS
 62
7
100
AcDbLine
 10
108.6645692783767
 20
29.03435708110806
 30
0.000000000000000
 11
109.1645686678411
 21
29.03435708110806
 31
0.000000000000000
  0
LINE
  5
319
100
AcDbEntity
  8
A1
  6
CONTINUOUS
 62
7
100
AcDbLine
 10
125.6645680573056
 20
30.72899584180196
 30
0.000000000000000
 11
125.6645680573056
 21
28.40179147025833
 31
0.000000000000000
  0
LINE
  5
31A
100
AcDbEntity
  8
A1
  6
CONTINUOUS
 62
7
100
AcDbLine
 10
127.1645680573055
 20
28.40179147025833
 30
0.000000000000000
 11
127.1645680573055
 21
30.72899584180196
 31
0.000000000000000
  0
LINE
  5
31B
100
AcDbEntity
  8
A1
  6
CONTINUOUS
 62
7
100
AcDbLine
 10
108.6645692783767
 20
30.72899584180196
 30
0.000000000000000
 11
108.6645692783767
 21
28.40179147025833
 31
0.000000000000000
  0
LINE
  5
31C
100
AcDbEntity
  8
A1
  6
CONTINUOUS
 62
7
100
AcDbLine
 10
107.1645692783767
 20
28.40179147025833
 30
0.000000000000000
 11
107.1645692783767
 21
30.72899584180196
 31
0.000000000000000
  0
LINE
  5
31D
100
AcDbEntity
  8
A1
  6
CONTINUOUS
 62
7
100
AcDbLine
 10
108.6645692783767
 20
30.72899584180196
 30
0.000000000000000
 11
108.6645692783767
 21
30.88805816477841
 31
0.000000000000000
  0
LINE
  5
31E
100
AcDbEntity
  8
A1
  6
CONTINUOUS
 62
7
100
AcDbLine
 10
107.1645692783767
 20
30.88817861560700
 30
0.000000000000000
 11
107.1645692783767
 21
30.72899584180196
 31
0.000000000000000
  0
LINE
  5
31F
100
AcDbEntity
  8
A1
  6
CONTINUOUS
 62
7
100
AcDbLine
 10
125.6645680573056
 20
30.72899584180196
 30
0.000000000000000
 11
125.6645680573056
 21
30.88805816477841
 31
0.000000000000000
  0
LINE
  5
320
100
AcDbEntity
  8
A1
  6
CONTINUOUS
 62
7
100
AcDbLine
 10
127.1645680573055
 20
30.88817861560700
 30
0.000000000000000
 11
127.1645680573055
 21
30.72899584180196
 31
0.000000000000000
  0
LINE
  5
321
100
AcDbEntity
  8
A1
  6
CONTINUOUS
 62
7
100
AcDbLine
 10
130.8145680573053
 20
28.43231555605132
 30
0.000000000000000
 11
132.3145680573053
 21
28.43231555605132
 31
0.000000000000000
  0
LINE
  5
322
100
AcDbEntity
  8
A1
  6
CONTINUOUS
 62
7
100
AcDbLine
 10
102.0145692783770
 20
28.43231555605132
 30
0.000000000000000
 11
103.5145692783769
 21
28.43231555605132
 31
0.000000000000000
  0
LINE
  5
323
100
AcDbEntity
  8
A1
  6
CONTINUOUS
 62
7
100
AcDbLine
 10
130.8145680573053
 20
37.93636738141397
 30
0.000000000000000
 11
130.8145680573053
 21
38.43608713494385
 31
0.000000000000000
  0
LINE
  5
324
100
AcDbEntity
  8
A1
  6
CONTINUOUS
 62
7
100
AcDbLine
 10
132.3145680573053
 20
38.43608713494385
 30
0.000000000000000
 11
132.3145680573053
 21
37.93636738141397
 31
0.000000000000000
  0
LINE
  5
325
100
AcDbEntity
  8
A1
  6
CONTINUOUS
 62
7
100
AcDbLine
 10
132.3145680573054
 20
38.43608713494385
 30
0.000000000000000
 11
130.8145680573053
 21
38.43608713494383
 31
0.000000000000000
  0
LINE
  5
326
100
AcDbEntity
  8
A1
  6
CONTINUOUS
 62
7
100
AcDbLine
 10
103.5145692783769
 20
37.93636738141397
 30
0.000000000000000
 11
103.5145692783769
 21
38.43608713494385
 31
0.000000000000000
  0
LINE
  5
327
100
AcDbEntity
  8
A1
  6
CONTINUOUS
 62
7
100
AcDbLine
 10
102.0145692783770
 20
38.43608713494385
 30
0.000000000000000
 11
102.0145692783770
 21
37.93636738141397
 31
0.000000000000000
  0
LINE
  5
328
100
AcDbEntity
  8
A1
  6
CONTINUOUS
 62
7
100
AcDbLine
 10
102.0145692783769
 20
38.43608713494385
 30
0.000000000000000
 11
103.5145692783769
 21
38.43608713494383
 31
0.000000000000000
  0
LINE
  5
329
100
AcDbEntity
  8
A1
  6
CONTINUOUS
 62
7
100
AcDbLine
 10
103.5145692783769
 20
37.93636738141397
 30
0.000000000000000
 11
103.5145692783769
 21
28.93231555605144
 31
0.000000000000000
  0
LINE
  5
32A
100
AcDbEntity
  8
A1
  6
CONTINUOUS
 62
7
100
AcDbLine
 10
102.0145692783770
 20
37.93636738141397
 30
0.000000000000000
 11
102.0145692783770
 21
28.93231555605144
 31
0.000000000000000
  0
LINE
  5
32B
100
AcDbEntity
  8
A1
  6
CONTINUOUS
 62
7
100
AcDbLine
 10
132.3145680573053
 20
28.93231555605144
 30
0.000000000000000
 11
132.3145680573053
 21
28.43255374384467
 31
0.000000000000000
  0
LINE
  5
32C
100
AcDbEntity
  8
A1
  6
CONTINUOUS
 62
7
100
AcDbLine
 10
130.8145680573053
 20
28.43255374384467
 30
0.000000000000000
 11
130.8145680573053
 21
28.93231555605144
 31
0.000000000000000
  0
LINE
  5
32D
100
AcDbEntity
  8
A1
  6
CONTINUOUS
 62
7
100
AcDbLine
 10
130.8145680573053
 20
28.43255374384467
 30
0.000000000000000
 11
132.3145680573053
 21
28.43255374384467
 31
0.000000000000000
  0
LINE
  5
32E
100
AcDbEntity
  8
A1
  6
CONTINUOUS
 62
7
100
AcDbLine
 10
132.3145680573053
 20
37.93636738141397
 30
0.000000000000000
 11
132.3145680573053
 21
28.93231555605144
 31
0.000000000000000
  0
LINE
  5
32F
100
AcDbEntity
  8
A1
  6
CONTINUOUS
 62
7
100
AcDbLine
 10
130.8145680573053
 20
37.93636738141397
 30
0.000000000000000
 11
130.8145680573053
 21
28.93231555605144
 31
0.000000000000000
  0
LINE
  5
330
100
AcDbEntity
  8
A1
  6
CONTINUOUS
 62
7
100
AcDbLine
 10
102.0145692783770
 20
28.93231555605144
 30
0.000000000000000
 11
102.0145692783770
 21
28.43255374384467
 31
0.000000000000000
  0
LINE
  5
331
100
AcDbEntity
  8
A1
  6
CONTINUOUS
 62
7
100
AcDbLine
 10
103.5145692783769
 20
28.43255374384467
 30
0.000000000000000
 11
102.0145692783770
 21
28.43255374384467
 31
0.000000000000000
  0
LINE
  5
332
100
AcDbEntity
  8
A1
  6
CONTINUOUS
 62
7
100
AcDbLine
 10
103.5145692783769
 20
28.43255374384467
 30
0.000000000000000
 11
103.5145692783769
 21
28.93231555605144
 31
0.000000000000000
  0
LINE
  5
333
100
AcDbEntity
  8
A4
  6
CENTER
 62
1
100
AcDbLine
 10
117.1645686678411
 20
25.93431516109019
 30
0.000000000000000
 11
117.1645686678411
 21
40.33431516108998
 31
0.000000000000000
  0
LINE
  5
334
100
AcDbEntity
  8
A4
  6
CENTER
 62
1
100
AcDbLine
 10
117.1645686678409
 20
118.7037323365122
 30
0.000000000000000
 11
117.1645686678409
 21
133.1037323365122
 31
0.000000000000000
  0
LINE
  5
335
100
AcDbEntity
  8
A4
  6
CENTER
 62
1
100
AcDbLine
 10
56.79345064661937
 20
105.9571925035472
 30
0.000000000000000
 11
50.99345064661937
 21
105.9571925035472
 31
0.000000000000000
  0
LINE
  5
336
100
AcDbEntity
  8
A4
  6
CENTER
 62
1
100
AcDbLine
 10
53.89345064661937
 20
108.8571925035472
 30
0.000000000000000
 11
53.89345064661937
 21
103.0571925035472
 31
0.000000000000000
  0
LINE
  5
337
100
AcDbEntity
  8
A4
  6
CENTER
 62
1
100
AcDbLine
 10
183.3356866890622
 20
105.9571925035474
 30
0.000000000000000
 11
177.5356866890622
 21
105.9571925035474
 31
0.000000000000000
  0
LINE
  5
338
100
AcDbEntity
  8
A4
  6
CENTER
 62
1
100
AcDbLine
 10
180.4356866890622
 20
108.8571925035474
 30
0.000000000000000
 11
180.4356866890622
 21
103.0571925035474
 31
0.000000000000000
  0
ENDSEC
  0
SECTION
  2
OBJECTS
  0
DICTIONARY
  5
366
100
AcDbDictionary
  3
ACAD_GROUP
350
367
  3
ACAD_MLINESTYLE
350
368
  0
DICTIONARY
  5
367
102
{ACAD_REACTORS
330
366
102
}
100
AcDbDictionary
  0
DICTIONARY
  5
368
102
{ACAD_REACTORS
330
366
102
}
100
AcDbDictionary
  3
STANDARD
350
369
  0
MLINESTYLE
  5
369
102
{ACAD_REACTORS
330
368
102
}
100
AcDbMlineStyle
  2
STANDARD
 70
     0
  3

 62
   256
 51
90.00
 52
90.00
 71
     2
 49
0.50
 62
   256
  6
BYLAYER
 49
-0.50
 62
   256
  6
BYLAYER
  0
ENDSEC
  0
EOF
