  0
SECTION
  2
HEADER
  9
$ACADVER
  1
AC1015
  9
$ACADMAINTVER
 70
    20
  9
$DWGCODEPAGE
  3
ANSI_932
  9
$INSBASE
 10
0.0
 20
0.0
 30
0.0
  9
$EXTMIN
 10
10.0
 20
9.999999999999998
 30
0.0
  9
$EXTMAX
 10
353.9924029999999
 20
238.5142359999999
 30
0.0
  9
$LIMMIN
 10
0.0
 20
0.0
  9
$LIMMAX
 10
396.0
 20
273.0
  9
$ORTHOMODE
 70
     1
  9
$REGENMODE
 70
     1
  9
$FILLMODE
 70
     1
  9
$QTEXTMODE
 70
     0
  9
$MIRRTEXT
 70
     1
  9
$LTSCALE
 40
20.0
  9
$ATTMODE
 70
     1
  9
$TEXTSIZE
 40
5.0
  9
$TRACEWID
 40
1.0
  9
$TEXTSTYLE
  7
STANDARD
  9
$CLAYER
  8
0
  9
$CELTYPE
  6
BYLAYER
  9
$CECOLOR
 62
   256
  9
$CELTSCALE
 40
1.0
  9
$DISPSILH
 70
     0
  9
$DIMSCALE
 40
1.0
  9
$DIMASZ
 40
3.0
  9
$DIMEXO
 40
1.0
  9
$DIMDLI
 40
10.0
  9
$DIMRND
 40
0.0
  9
$DIMDLE
 40
0.0
  9
$DIMEXE
 40
1.0
  9
$DIMTP
 40
0.0
  9
$DIMTM
 40
0.0
  9
$DIMTXT
 40
3.2
  9
$DIMCEN
 40
0.0
  9
$DIMTSZ
 40
0.0
  9
$DIMTOL
 70
     0
  9
$DIMLIM
 70
     0
  9
$DIMTIH
 70
     0
  9
$DIMTOH
 70
     0
  9
$DIMSE1
 70
     0
  9
$DIMSE2
 70
     0
  9
$DIMTAD
 70
     3
  9
$DIMZIN
 70
     8
  9
$DIMBLK
  1

  9
$DIMASO
 70
     1
  9
$DIMSHO
 70
     1
  9
$DIMPOST
  1

  9
$DIMAPOST
  1

  9
$DIMALT
 70
     0
  9
$DIMALTD
 70
     2
  9
$DIMALTF
 40
25.4
  9
$DIMLFAC
 40
1.0
  9
$DIMTOFL
 70
     1
  9
$DIMTVP
 40
0.0
  9
$DIMTIX
 70
     0
  9
$DIMSOXD
 70
     0
  9
$DIMSAH
 70
     1
  9
$DIMBLK1
  1

  9
$DIMBLK2
  1

  9
$DIMSTYLE
  2
STANDARD
  9
$DIMCLRD
 70
     0
  9
$DIMCLRE
 70
     0
  9
$DIMCLRT
 70
     0
  9
$DIMTFAC
 40
1.0
  9
$DIMGAP
 40
1.0
  9
$DIMJUST
 70
     0
  9
$DIMSD1
 70
     0
  9
$DIMSD2
 70
     0
  9
$DIMTOLJ
 70
     1
  9
$DIMTZIN
 70
     0
  9
$DIMALTZ
 70
     0
  9
$DIMALTTZ
 70
     0
  9
$DIMUPT
 70
     0
  9
$DIMDEC
 70
     4
  9
$DIMTDEC
 70
     4
  9
$DIMALTU
 70
     2
  9
$DIMALTTD
 70
     2
  9
$DIMTXSTY
  7
STANDARD
  9
$DIMAUNIT
 70
     0
  9
$DIMADEC
 70
     0
  9
$DIMALTRND
 40
0.0
  9
$DIMAZIN
 70
     0
  9
$DIMDSEP
 70
    46
  9
$DIMATFIT
 70
     3
  9
$DIMFRAC
 70
     0
  9
$DIMLDRBLK
  1

  9
$DIMLUNIT
 70
     2
  9
$DIMLWD
 70
    -2
  9
$DIMLWE
 70
    -2
  9
$DIMTMOVE
 70
     0
  9
$LUNITS
 70
     2
  9
$LUPREC
 70
     4
  9
$SKETCHINC
 40
1.0
  9
$FILLETRAD
 40
0.5
  9
$AUNITS
 70
     0
  9
$AUPREC
 70
     2
  9
$MENU
  1
.
  9
$ELEVATION
 40
0.0
  9
$PELEVATION
 40
0.0
  9
$THICKNESS
 40
0.0
  9
$LIMCHECK
 70
     0
  9
$CHAMFERA
 40
10.0
  9
$CHAMFERB
 40
10.0
  9
$CHAMFERC
 40
0.0
  9
$CHAMFERD
 40
0.0
  9
$SKPOLY
 70
     0
  9
$TDCREATE
 40
2450945.564096875
  9
$TDUCREATE
 40
2450945.189096875
  9
$TDUPDATE
 40
2457192.599858171
  9
$TDUUPDATE
 40
2457192.224858172
  9
$TDINDWG
 40
0.0000139120
  9
$TDUSRTIMER
 40
0.0000135880
  9
$USRTIMER
 70
     1
  9
$ANGBASE
 50
0.0
  9
$ANGDIR
 70
     0
  9
$PDMODE
 70
     0
  9
$PDSIZE
 40
0.0
  9
$PLINEWID
 40
0.0
  9
$SPLFRAME
 70
     0
  9
$SPLINETYPE
 70
     6
  9
$SPLINESEGS
 70
     8
  9
$HANDSEED
  5
9AAB
  9
$SURFTAB1
 70
     6
  9
$SURFTAB2
 70
     6
  9
$SURFTYPE
 70
     6
  9
$SURFU
 70
     6
  9
$SURFV
 70
     6
  9
$UCSBASE
  2

  9
$UCSNAME
  2

  9
$UCSORG
 10
0.0
 20
0.0
 30
0.0
  9
$UCSXDIR
 10
1.0
 20
0.0
 30
0.0
  9
$UCSYDIR
 10
0.0
 20
1.0
 30
0.0
  9
$UCSORTHOREF
  2

  9
$UCSORTHOVIEW
 70
     0
  9
$UCSORGTOP
 10
0.0
 20
0.0
 30
0.0
  9
$UCSORGBOTTOM
 10
0.0
 20
0.0
 30
0.0
  9
$UCSORGLEFT
 10
0.0
 20
0.0
 30
0.0
  9
$UCSORGRIGHT
 10
0.0
 20
0.0
 30
0.0
  9
$UCSORGFRONT
 10
0.0
 20
0.0
 30
0.0
  9
$UCSORGBACK
 10
0.0
 20
0.0
 30
0.0
  9
$PUCSBASE
  2

  9
$PUCSNAME
  2

  9
$PUCSORG
 10
0.0
 20
0.0
 30
0.0
  9
$PUCSXDIR
 10
1.0
 20
0.0
 30
0.0
  9
$PUCSYDIR
 10
0.0
 20
1.0
 30
0.0
  9
$PUCSORTHOREF
  2

  9
$PUCSORTHOVIEW
 70
     0
  9
$PUCSORGTOP
 10
0.0
 20
0.0
 30
0.0
  9
$PUCSORGBOTTOM
 10
0.0
 20
0.0
 30
0.0
  9
$PUCSORGLEFT
 10
0.0
 20
0.0
 30
0.0
  9
$PUCSORGRIGHT
 10
0.0
 20
0.0
 30
0.0
  9
$PUCSORGFRONT
 10
0.0
 20
0.0
 30
0.0
  9
$PUCSORGBACK
 10
0.0
 20
0.0
 30
0.0
  9
$USERI1
 70
     0
  9
$USERI2
 70
     0
  9
$USERI3
 70
     0
  9
$USERI4
 70
     0
  9
$USERI5
 70
     0
  9
$USERR1
 40
0.0
  9
$USERR2
 40
0.0
  9
$USERR3
 40
0.0
  9
$USERR4
 40
0.0
  9
$USERR5
 40
0.0
  9
$WORLDVIEW
 70
     1
  9
$SHADEDGE
 70
     3
  9
$SHADEDIF
 70
    70
  9
$TILEMODE
 70
     1
  9
$MAXACTVP
 70
    16
  9
$PINSBASE
 10
0.0
 20
0.0
 30
0.0
  9
$PLIMCHECK
 70
     0
  9
$PEXTMIN
 10
1.000000000000000E+20
 20
1.000000000000000E+20
 30
1.000000000000000E+20
  9
$PEXTMAX
 10
-1.000000000000000E+20
 20
-1.000000000000000E+20
 30
-1.000000000000000E+20
  9
$PLIMMIN
 10
0.0
 20
0.0
  9
$PLIMMAX
 10
420.0
 20
297.0
  9
$UNITMODE
 70
     0
  9
$VISRETAIN
 70
     0
  9
$PLINEGEN
 70
     0
  9
$PSLTSCALE
 70
     0
  9
$TREEDEPTH
 70
  3020
  9
$CMLSTYLE
  2
STANDARD
  9
$CMLJUST
 70
     0
  9
$CMLSCALE
 40
1.0
  9
$PROXYGRAPHICS
 70
     1
  9
$MEASUREMENT
 70
     0
  9
$CELWEIGHT
370
    -1
  9
$ENDCAPS
280
     0
  9
$JOINSTYLE
280
     0
  9
$LWDISPLAY
290
     0
  9
$INSUNITS
 70
     0
  9
$HYPERLINKBASE
  1

  9
$STYLESHEET
  1

  9
$XEDIT
290
     1
  9
$CEPSNTYPE
380
     0
  9
$PSTYLEMODE
290
     1
  9
$FINGERPRINTGUID
  2
{CAC10041-0681-44CF-BBD9-B06EE9E2244E}
  9
$VERSIONGUID
  2
{9CCE08D2-CAE5-465F-8603-5FF24D940EEF}
  9
$EXTNAMES
290
     1
  9
$PSVPSCALE
 40
0.0
  9
$OLESTARTUP
290
     0
  0
ENDSEC
  0
SECTION
  2
CLASSES
  0
CLASS
  1
ACDBDICTIONARYWDFLT
  2
AcDbDictionaryWithDefault
  3
ObjectDBX Classes
 90
        0
280
     0
281
     0
  0
CLASS
  1
ACDBPLACEHOLDER
  2
AcDbPlaceHolder
  3
ObjectDBX Classes
 90
        0
280
     0
281
     0
  0
CLASS
  1
LAYOUT
  2
AcDbLayout
  3
ObjectDBX Classes
 90
        0
280
     0
281
     0
  0
CLASS
  1
DICTIONARYVAR
  2
AcDbDictionaryVar
  3
ObjectDBX Classes
 90
        0
280
     0
281
     0
  0
CLASS
  1
MATERIAL
  2
AcDbMaterial
  3
ObjectDBX Classes
 90
     1153
280
     0
281
     0
  0
CLASS
  1
VISUALSTYLE
  2
AcDbVisualStyle
  3
ObjectDBX Classes
 90
     4095
280
     0
281
     0
  0
CLASS
  1
TABLESTYLE
  2
AcDbTableStyle
  3
ObjectDBX Classes
 90
     4095
280
     0
281
     0
  0
CLASS
  1
SCALE
  2
AcDbScale
  3
ObjectDBX Classes
 90
     1153
280
     0
281
     0
  0
CLASS
  1
MLEADERSTYLE
  2
AcDbMLeaderStyle
  3
ACDB_MLEADERSTYLE_CLASS
 90
     4095
280
     0
281
     0
  0
CLASS
  1
ACDBSECTIONVIEWSTYLE
  2
AcDbSectionViewStyle
  3
ObjectDBX Classes
 90
     1025
280
     0
281
     0
  0
CLASS
  1
ACDBDETAILVIEWSTYLE
  2
AcDbDetailViewStyle
  3
ObjectDBX Classes
 90
     1025
280
     0
281
     0
  0
CLASS
  1
CELLSTYLEMAP
  2
AcDbCellStyleMap
  3
ObjectDBX Classes
 90
     1152
280
     0
281
     0
  0
ENDSEC
  0
SECTION
  2
TABLES
  0
TABLE
  2
VPORT
  5
97D9
330
0
100
AcDbSymbolTable
 70
     1
  0
VPORT
  5
99F4
330
97D9
100
AcDbSymbolTableRecord
100
AcDbViewportTableRecord
  2
*ACTIVE
 70
     0
 10
0.0
 20
0.0
 11
1.0
 21
1.0
 12
251.2193981338446
 22
124.2529913440264
 13
0.0
 23
0.0
 14
10.0
 24
10.0
 15
10.0
 25
10.0
 16
0.0
 26
0.0
 36
1.0
 17
0.0
 27
0.0
 37
0.0
 40
231.0834741150685
 41
1.899603698811096
 42
50.0
 43
0.0
 44
0.0
 50
0.0
 51
0.0
 71
     0
 72
   100
 73
     1
 74
     0
 75
     0
 76
     0
 77
     0
 78
     0
281
     0
 65
     1
110
0.0
120
0.0
130
0.0
111
1.0
121
0.0
131
0.0
112
0.0
122
1.0
132
0.0
 79
     0
146
0.0
1001
ACAD_NAV_VCDISPLAY
1070
     3
  0
ENDTAB
  0
TABLE
  2
LTYPE
  5
97D6
330
0
100
AcDbSymbolTable
 70
     4
  0
LTYPE
  5
97E4
330
97D6
100
AcDbSymbolTableRecord
100
AcDbLinetypeTableRecord
  2
BYBLOCK
 70
     0
  3

 72
    65
 73
     0
 40
0.0
  0
LTYPE
  5
97E5
330
97D6
100
AcDbSymbolTableRecord
100
AcDbLinetypeTableRecord
  2
BYLAYER
 70
     0
  3

 72
    65
 73
     0
 40
0.0
  0
LTYPE
  5
97E6
330
97D6
100
AcDbSymbolTableRecord
100
AcDbLinetypeTableRecord
  2
CONTINUOUS
 70
     0
  3
Solid line
 72
    65
 73
     0
 40
0.0
  0
LTYPE
  5
97F4
330
97D6
100
AcDbSymbolTableRecord
100
AcDbLinetypeTableRecord
  2
DASHED
 70
     0
  3
__ __ __ __ __ __ __ __ __ __ __ __ __ __ __ __
 72
    65
 73
     2
 40
0.75
 49
0.5
 74
     0
 49
-0.25
 74
     0
  0
LTYPE
  5
97F5
330
97D6
100
AcDbSymbolTableRecord
100
AcDbLinetypeTableRecord
  2
CENTER
 70
     0
  3
____ _ ____ _ ____ _ ____ _ ____ _ ____ _ ____ 
 72
    65
 73
     4
 40
2.0
 49
1.25
 74
     0
 49
-0.25
 74
     0
 49
0.25
 74
     0
 49
-0.25
 74
     0
  0
LTYPE
  5
97F6
330
97D6
100
AcDbSymbolTableRecord
100
AcDbLinetypeTableRecord
  2
PHANTOM
 70
     0
  3
______  __  __  ______  __  __  ______  __  __ 
 72
    65
 73
     6
 40
2.5
 49
1.25
 74
     0
 49
-0.25
 74
     0
 49
0.25
 74
     0
 49
-0.25
 74
     0
 49
0.25
 74
     0
 49
-0.25
 74
     0
  0
ENDTAB
  0
TABLE
  2
LAYER
  5
97D3
330
0
100
AcDbSymbolTable
 70
     8
  0
LAYER
  5
97E1
102
{ACAD_XDICTIONARY
360
9A4F
102
}
330
97D3
100
AcDbSymbolTableRecord
100
AcDbLayerTableRecord
  2
0
 70
     0
 62
     7
  6
CONTINUOUS
370
    -3
390
99FD
  0
LAYER
  5
97F7
102
{ACAD_XDICTIONARY
360
9A51
102
}
330
97D3
100
AcDbSymbolTableRecord
100
AcDbLayerTableRecord
  2
4
 70
     0
 62
     1
  6
CENTER
370
    -3
390
99FD
  0
LAYER
  5
97F8
102
{ACAD_XDICTIONARY
360
9A53
102
}
330
97D3
100
AcDbSymbolTableRecord
100
AcDbLayerTableRecord
  2
5
 70
     0
 62
     6
  6
PHANTOM
370
    -3
390
99FD
  0
LAYER
  5
97F9
102
{ACAD_XDICTIONARY
360
9A55
102
}
330
97D3
100
AcDbSymbolTableRecord
100
AcDbLayerTableRecord
  2
1
 70
     0
 62
     7
  6
CONTINUOUS
370
    -3
390
99FD
  0
LAYER
  5
97FA
102
{ACAD_XDICTIONARY
360
9A57
102
}
330
97D3
100
AcDbSymbolTableRecord
100
AcDbLayerTableRecord
  2
2
 70
     0
 62
     4
  6
CONTINUOUS
370
    -3
390
99FD
  0
LAYER
  5
97FB
102
{ACAD_XDICTIONARY
360
9A59
102
}
330
97D3
100
AcDbSymbolTableRecord
100
AcDbLayerTableRecord
  2
3
 70
     0
 62
     2
  6
DASHED
370
    -3
390
99FD
  0
LAYER
  5
97FC
102
{ACAD_XDICTIONARY
360
9A5B
102
}
330
97D3
100
AcDbSymbolTableRecord
100
AcDbLayerTableRecord
  2
6
 70
     0
 62
     5
  6
CONTINUOUS
370
    -3
390
99FD
  0
LAYER
  5
97FD
102
{ACAD_XDICTIONARY
360
9A5D
102
}
330
97D3
100
AcDbSymbolTableRecord
100
AcDbLayerTableRecord
  2
7
 70
     0
 62
     3
  6
CONTINUOUS
370
    -3
390
99FD
  0
ENDTAB
  0
TABLE
  2
STYLE
  5
97D4
330
0
100
AcDbSymbolTable
 70
     1
  0
STYLE
  5
97E2
330
97D4
100
AcDbSymbolTableRecord
100
AcDbTextStyleTableRecord
  2
STANDARD
 70
     0
 40
0.0
 41
1.0
 50
0.0
 71
     0
 42
5.0
  3
txt
  4

  0
ENDTAB
  0
TABLE
  2
VIEW
  5
97D7
330
0
100
AcDbSymbolTable
 70
     0
  0
ENDTAB
  0
TABLE
  2
UCS
  5
97D8
330
0
100
AcDbSymbolTable
 70
     0
  0
ENDTAB
  0
TABLE
  2
APPID
  5
97DA
330
0
100
AcDbSymbolTable
 70
     3
  0
APPID
  5
97E3
330
97DA
100
AcDbSymbolTableRecord
100
AcDbRegAppTableRecord
  2
ACAD
 70
     0
  0
APPID
  5
9A69
330
97DA
100
AcDbSymbolTableRecord
100
AcDbRegAppTableRecord
  2
ACAD_NAV_VCDISPLAY
 70
     0
  0
APPID
  5
9AA2
330
97DA
100
AcDbSymbolTableRecord
100
AcDbRegAppTableRecord
  2
ACAD_MLEADERVER
 70
     0
  0
ENDTAB
  0
TABLE
  2
DIMSTYLE
  5
97DB
330
0
100
AcDbSymbolTable
 70
     1
100
AcDbDimStyleTable
 71
     0
  0
DIMSTYLE
105
97FF
330
97DB
100
AcDbSymbolTableRecord
100
AcDbDimStyleTableRecord
  2
STANDARD
 70
     0
 41
3.0
 42
1.0
 43
10.0
 44
1.0
 73
     0
 74
     0
 77
     3
 78
     8
140
3.2
141
0.0
147
1.0
172
     1
173
     1
284
     8
285
     8
286
     8
340
97E2
  0
ENDTAB
  0
TABLE
  2
BLOCK_RECORD
  5
97D2
330
0
100
AcDbSymbolTable
 70
     0
  0
BLOCK_RECORD
  5
97EF
102
{ACAD_XDICTIONARY
360
99F7
102
}
330
97D2
100
AcDbSymbolTableRecord
100
AcDbBlockTableRecord
  2
*MODEL_SPACE
340
9A4B
  0
BLOCK_RECORD
  5
97EB
102
{ACAD_XDICTIONARY
360
99F5
102
}
330
97D2
100
AcDbSymbolTableRecord
100
AcDbBlockTableRecord
  2
*PAPER_SPACE
340
9A4C
  0
ENDTAB
  0
ENDSEC
  0
SECTION
  2
BLOCKS
  0
BLOCK
  5
97F0
330
97EF
100
AcDbEntity
  8
0
100
AcDbBlockBegin
  2
*MODEL_SPACE
 70
     0
 10
0.0
 20
0.0
 30
0.0
  3
*MODEL_SPACE
  1

  0
ENDBLK
  5
97F1
330
97EF
100
AcDbEntity
  8
0
100
AcDbBlockEnd
  0
BLOCK
  5
97EC
330
97EB
100
AcDbEntity
 67
     1
  8
0
100
AcDbBlockBegin
  2
*PAPER_SPACE
 70
     0
 10
0.0
 20
0.0
 30
0.0
  3
*PAPER_SPACE
  1

  0
ENDBLK
  5
97ED
330
97EB
100
AcDbEntity
 67
     1
  8
0
100
AcDbBlockEnd
  0
ENDSEC
  0
SECTION
  2
ENTITIES
  0
TEXT
  5
9807
330
97EF
100
AcDbEntity
  8
7
  6
Continuous
100
AcDbText
 10
10.0
 20
18.0
 30
0.0
 40
3.0
  1
TYPE No.TL-210-1
100
AcDbText
  0
TEXT
  5
9808
330
97EF
100
AcDbEntity
  8
7
  6
Continuous
100
AcDbText
 10
10.0
 20
26.0
 30
0.0
 40
3.0
  1
CODE No.1451
100
AcDbText
  0
TEXT
  5
9809
330
97EF
100
AcDbEntity
  8
1
  6
Continuous
100
AcDbText
 10
10.0
 20
10.0
 30
0.0
 40
1.399999999999999
  1
LAYER
100
AcDbText
  0
TEXT
  5
980A
330
97EF
100
AcDbEntity
  8
1
  6
Continuous
100
AcDbText
 10
17.97951099999998
 20
10.04873699999998
 30
0.0
 40
1.399999999999999
  1
1
100
AcDbText
  0
TEXT
  5
980B
330
97EF
100
AcDbEntity
  8
7
  6
Continuous
100
AcDbText
 10
29.97951099999999
 20
10.04873699999998
 30
0.0
 40
1.399999999999999
  1
7
100
AcDbText
  0
TEXT
  5
980C
330
97EF
100
AcDbEntity
  8
4
  6
CENTER
100
AcDbText
 10
23.97951099999999
 20
10.04873699999998
 30
0.0
 40
1.399999999999999
  1
4
100
AcDbText
  0
TEXT
  5
980D
330
97EF
100
AcDbEntity
  8
3
  6
DASHED
100
AcDbText
 10
21.979511
 20
10.04873699999998
 30
0.0
 40
1.399999999999999
  1
3
100
AcDbText
  0
TEXT
  5
980E
330
97EF
100
AcDbEntity
  8
2
  6
Continuous
100
AcDbText
 10
19.97951099999999
 20
10.04873699999998
 30
0.0
 40
1.399999999999999
  1
2
100
AcDbText
  0
TEXT
  5
980F
330
97EF
100
AcDbEntity
  8
6
  6
Continuous
100
AcDbText
 10
27.979511
 20
10.04873699999998
 30
0.0
 40
1.399999999999999
  1
6
100
AcDbText
  0
TEXT
  5
9810
330
97EF
100
AcDbEntity
  8
5
  6
PHANTOM
100
AcDbText
 10
25.97951099999999
 20
10.04873699999998
 30
0.0
 40
1.399999999999999
  1
5
100
AcDbText
  0
LINE
  5
9811
330
97EF
100
AcDbEntity
  8
1
  6
Continuous
100
AcDbLine
 10
36.300211
 20
133.3961329999999
 30
0.0
 11
36.300211
 21
129.0961299999999
 31
0.0
  0
LINE
  5
9812
330
97EF
100
AcDbEntity
  8
1
  6
Continuous
100
AcDbLine
 10
37.50021199999999
 20
133.3961329999999
 30
0.0
 11
37.50021199999999
 21
129.0961299999999
 31
0.0
  0
LINE
  5
9813
330
97EF
100
AcDbEntity
  8
1
  6
Continuous
100
AcDbLine
 10
35.80021099999999
 20
129.0961299999999
 30
0.0
 11
35.80021099999999
 21
125.329536
 31
0.0
  0
LINE
  5
9814
330
97EF
100
AcDbEntity
  8
1
  6
Continuous
100
AcDbLine
 10
38.00021199999999
 20
129.0961299999999
 30
0.0
 11
38.00021199999999
 21
125.329536
 31
0.0
  0
LINE
  5
9815
330
97EF
100
AcDbEntity
  8
1
  6
Continuous
100
AcDbLine
 10
35.80021099999999
 20
129.0961299999999
 30
0.0
 11
36.300211
 21
129.0961299999999
 31
0.0
  0
LINE
  5
9816
330
97EF
100
AcDbEntity
  8
1
  6
Continuous
100
AcDbLine
 10
37.50021199999999
 20
129.0961299999999
 30
0.0
 11
38.00021199999999
 21
129.0961299999999
 31
0.0
  0
LINE
  5
9817
330
97EF
100
AcDbEntity
  8
1
  6
Continuous
100
AcDbLine
 10
36.300211
 20
133.3961329999999
 30
0.0
 11
37.50021199999999
 21
133.3961329999999
 31
0.0
  0
LINE
  5
9818
330
97EF
100
AcDbEntity
  8
1
  6
Continuous
100
AcDbLine
 10
156.4296129999999
 20
144.969345
 30
0.0
 11
156.4296129999999
 21
121.875328
 31
0.0
  0
LINE
  5
9819
330
97EF
100
AcDbEntity
  8
1
  6
Continuous
100
AcDbLine
 10
159.429613
 20
144.969345
 30
0.0
 11
159.429613
 21
121.875328
 31
0.0
  0
LINE
  5
981A
330
97EF
100
AcDbEntity
  8
1
  6
Continuous
100
AcDbLine
 10
143.761309
 20
145.422333
 30
0.0
 11
143.761309
 21
121.422333
 31
0.0
  0
LINE
  5
981B
330
97EF
100
AcDbEntity
  8
1
  6
Continuous
100
AcDbLine
 10
143.761309
 20
121.422333
 30
0.0
 11
144.5613119999999
 21
121.422333
 31
0.0
  0
LINE
  5
981C
330
97EF
100
AcDbEntity
  8
1
  6
Continuous
100
AcDbLine
 10
144.5613119999999
 20
121.422333
 30
0.0
 11
144.5613119999999
 21
145.422333
 31
0.0
  0
LINE
  5
981D
330
97EF
100
AcDbEntity
  8
1
  6
Continuous
100
AcDbLine
 10
144.5613119999999
 20
145.422333
 30
0.0
 11
143.761309
 21
145.422333
 31
0.0
  0
LINE
  5
981E
330
97EF
100
AcDbEntity
  8
1
  6
Continuous
100
AcDbLine
 10
115.696312
 20
136.922333
 30
0.0
 11
117.696312
 21
136.922333
 31
0.0
  0
LINE
  5
981F
330
97EF
100
AcDbEntity
  8
1
  6
Continuous
100
AcDbLine
 10
117.696312
 20
136.922333
 30
0.0
 11
117.696312
 21
124.9223329999999
 31
0.0
  0
LINE
  5
9820
330
97EF
100
AcDbEntity
  8
1
  6
Continuous
100
AcDbLine
 10
117.696312
 20
124.9223329999999
 30
0.0
 11
115.696312
 21
124.9223329999999
 31
0.0
  0
LINE
  5
9821
330
97EF
100
AcDbEntity
  8
1
  6
Continuous
100
AcDbLine
 10
115.696312
 20
136.222336
 30
0.0
 11
114.3963089999999
 21
136.222336
 31
0.0
  0
LINE
  5
9822
330
97EF
100
AcDbEntity
  8
1
  6
Continuous
100
AcDbLine
 10
114.3963089999999
 20
136.1187329999999
 30
0.0
 11
114.3963089999999
 21
136.222336
 31
0.0
  0
LINE
  5
9823
330
97EF
100
AcDbEntity
  8
4
  6
CENTER
100
AcDbLine
 10
139.913532
 20
216.5142359999999
 30
0.0
 11
163.3905269999999
 21
216.5142359999999
 31
0.0
  0
LINE
  5
9824
330
97EF
100
AcDbEntity
  8
4
  6
CENTER
100
AcDbLine
 10
18.605719
 20
216.5142359999999
 30
0.0
 11
64.605417
 21
216.5142359999999
 31
0.0
  0
LINE
  5
9825
330
97EF
100
AcDbEntity
  8
1
  6
Continuous
100
AcDbLine
 10
27.88081899999999
 20
204.514236
 30
0.0
 11
32.06681599999999
 21
204.514236
 31
0.0
  0
LINE
  5
9826
330
97EF
100
AcDbEntity
  8
1
  6
Continuous
100
AcDbLine
 10
27.88081899999999
 20
228.514236
 30
0.0
 11
32.06681599999999
 21
228.514236
 31
0.0
  0
LINE
  5
9827
330
97EF
100
AcDbEntity
  8
1
  6
Continuous
100
AcDbLine
 10
21.400213
 20
220.6634369999999
 30
0.0
 11
21.400213
 21
212.3650359999998
 31
0.0
  0
LINE
  5
9828
330
97EF
100
AcDbEntity
  8
1
  6
Continuous
100
AcDbLine
 10
27.09991099999999
 20
228.138931
 30
0.0
 11
21.619316
 21
221.288132
 31
0.0
  0
LINE
  5
9829
330
97EF
100
AcDbEntity
  8
1
  6
Continuous
100
AcDbLine
 10
21.619318
 20
211.740341
 30
0.0
 11
27.09992199999998
 21
204.889526
 31
0.0
  0
LINE
  5
982A
330
97EF
100
AcDbEntity
  8
1
  6
Continuous
100
AcDbLine
 10
42.400221
 20
212.014236
 30
0.0
 11
59.193113
 21
212.014236
 31
0.0
  0
LINE
  5
982B
330
97EF
100
AcDbEntity
  8
1
  6
Continuous
100
AcDbLine
 10
42.400221
 20
221.0142359999999
 30
0.0
 11
48.900221
 21
221.0142359999999
 31
0.0
  0
LINE
  5
982C
330
97EF
100
AcDbEntity
  8
1
  6
Continuous
100
AcDbLine
 10
32.666815
 20
228.31424
 30
0.0
 11
42.400213
 21
221.014252
 31
0.0
  0
LINE
  5
982D
330
97EF
100
AcDbEntity
  8
1
  6
Continuous
100
AcDbLine
 10
42.400206
 20
212.014236
 30
0.0
 11
32.666807
 21
204.714233
 31
0.0
  0
LINE
  5
982E
330
97EF
100
AcDbEntity
  8
1
  6
Continuous
100
AcDbLine
 10
24.400213
 20
220.014236
 30
0.0
 11
24.400213
 21
213.0142359999999
 31
0.0
  0
LINE
  5
982F
330
97EF
100
AcDbEntity
  8
1
  6
Continuous
100
AcDbLine
 10
26.900213
 20
220.014236
 30
0.0
 11
26.900213
 21
213.0142359999999
 31
0.0
  0
LINE
  5
9830
330
97EF
100
AcDbEntity
  8
1
  6
Continuous
100
AcDbLine
 10
24.900213
 20
212.5142359999999
 30
0.0
 11
26.400213
 21
212.5142359999999
 31
0.0
  0
LINE
  5
9831
330
97EF
100
AcDbEntity
  8
1
  6
Continuous
100
AcDbLine
 10
24.900213
 20
220.5142359999999
 30
0.0
 11
26.400213
 21
220.5142359999999
 31
0.0
  0
LINE
  5
9832
330
97EF
100
AcDbEntity
  8
1
  6
Continuous
100
AcDbLine
 10
49.400221
 20
220.5142359999999
 30
0.0
 11
49.400221
 21
219.0142359999999
 31
0.0
  0
LINE
  5
9833
330
97EF
100
AcDbEntity
  8
1
  6
Continuous
100
AcDbLine
 10
49.400221
 20
219.0142359999999
 30
0.0
 11
58.193022
 21
219.0142359999999
 31
0.0
  0
LINE
  5
9834
330
97EF
100
AcDbEntity
  8
1
  6
Continuous
100
AcDbLine
 10
62.046625
 20
214.6606449999999
 30
0.0
 11
59.546621
 21
212.1606449999999
 31
0.0
  0
LINE
  5
9835
330
97EF
100
AcDbEntity
  8
1
  6
Continuous
100
AcDbLine
 10
62.046625
 20
215.367752
 30
0.0
 11
58.546575
 21
218.86779
 31
0.0
  0
LINE
  5
9836
330
97EF
100
AcDbEntity
  8
1
  6
Continuous
100
AcDbLine
 10
45.400221
 20
215.0142359999999
 30
0.0
 11
62.19311
 21
215.0142359999999
 31
0.0
  0
LINE
  5
9837
330
97EF
100
AcDbEntity
  8
1
  6
Continuous
100
AcDbLine
 10
45.400221
 20
219.5142359999999
 30
0.0
 11
49.400221
 21
219.5142359999999
 31
0.0
  0
LINE
  5
9838
330
97EF
100
AcDbEntity
  8
1
  6
Continuous
100
AcDbLine
 10
45.400221
 20
219.5142359999999
 30
0.0
 11
45.400221
 21
215.0142359999999
 31
0.0
  0
LINE
  5
9839
330
97EF
100
AcDbEntity
  8
1
  6
Continuous
100
AcDbLine
 10
119.696312
 20
131.874832
 30
0.0
 11
119.696312
 21
129.9699249999999
 31
0.0
  0
LINE
  5
983A
330
97EF
100
AcDbEntity
  8
1
  6
Continuous
100
AcDbLine
 10
118.196312
 20
132.9223179999999
 30
0.0
 11
118.78341
 21
132.871033
 31
0.0
  0
LINE
  5
983B
330
97EF
100
AcDbEntity
  8
1
  6
Continuous
100
AcDbLine
 10
118.1963279999999
 20
128.922333
 30
0.0
 11
118.78341
 21
128.973724
 31
0.0
  0
LINE
  5
983C
330
97EF
100
AcDbEntity
  8
1
  6
Continuous
100
AcDbLine
 10
117.696312
 20
128.422333
 30
0.0
 11
118.196312
 21
128.422333
 31
0.0
  0
LINE
  5
983D
330
97EF
100
AcDbEntity
  8
1
  6
Continuous
100
AcDbLine
 10
117.696312
 20
133.422333
 30
0.0
 11
118.196312
 21
133.422333
 31
0.0
  0
LINE
  5
983E
330
97EF
100
AcDbEntity
  8
1
  6
Continuous
100
AcDbLine
 10
118.196312
 20
133.422333
 30
0.0
 11
118.196312
 21
128.422333
 31
0.0
  0
LINE
  5
983F
330
97EF
100
AcDbEntity
  8
1
  6
Continuous
100
AcDbLine
 10
103.196306
 20
123.422333
 30
0.0
 11
104.4963089999999
 21
123.422333
 31
0.0
  0
LINE
  5
9840
330
97EF
100
AcDbEntity
  8
1
  6
Continuous
100
AcDbLine
 10
103.196306
 20
143.422333
 30
0.0
 11
104.4963089999999
 21
143.422333
 31
0.0
  0
LINE
  5
9841
330
97EF
100
AcDbEntity
  8
1
  6
Continuous
100
AcDbLine
 10
102.4963089999999
 20
142.722336
 30
0.0
 11
102.4963089999999
 21
124.12233
 31
0.0
  0
LINE
  5
9842
330
97EF
100
AcDbEntity
  8
1
  6
Continuous
100
AcDbLine
 10
104.4963089999999
 20
143.422333
 30
0.0
 11
104.4963089999999
 21
123.422333
 31
0.0
  0
LINE
  5
9843
330
97EF
100
AcDbEntity
  8
1
  6
Continuous
100
AcDbLine
 10
102.4963089999999
 20
142.722321
 30
0.0
 11
103.196306
 21
143.4223179999999
 31
0.0
  0
LINE
  5
9844
330
97EF
100
AcDbEntity
  8
1
  6
Continuous
100
AcDbLine
 10
102.4963019999999
 20
124.1223219999999
 30
0.0
 11
103.196306
 21
123.422325
 31
0.0
  0
LINE
  5
9845
330
97EF
100
AcDbEntity
  8
1
  6
Continuous
100
AcDbLine
 10
104.4963089999999
 20
124.422333
 30
0.0
 11
112.246309
 21
124.422333
 31
0.0
  0
LINE
  5
9846
330
97EF
100
AcDbEntity
  8
1
  6
Continuous
100
AcDbLine
 10
104.4963089999999
 20
142.422333
 30
0.0
 11
112.246309
 21
142.422333
 31
0.0
  0
LINE
  5
9847
330
97EF
100
AcDbEntity
  8
1
  6
Continuous
100
AcDbLine
 10
113.996309
 20
141.672333
 30
0.0
 11
113.996309
 21
133.422333
 31
0.0
  0
LINE
  5
9848
330
97EF
100
AcDbEntity
  8
1
  6
Continuous
100
AcDbLine
 10
115.496309
 20
133.422333
 30
0.0
 11
115.496309
 21
129.922333
 31
0.0
  0
LINE
  5
9849
330
97EF
100
AcDbEntity
  8
1
  6
Continuous
100
AcDbLine
 10
112.996309
 20
125.1723329999999
 30
0.0
 11
113.996309
 21
125.1723329999999
 31
0.0
  0
LINE
  5
984A
330
97EF
100
AcDbEntity
  8
1
  6
Continuous
100
AcDbLine
 10
112.996309
 20
141.672333
 30
0.0
 11
113.996309
 21
141.672333
 31
0.0
  0
LINE
  5
984B
330
97EF
100
AcDbEntity
  8
1
  6
Continuous
100
AcDbLine
 10
112.9963019999999
 20
125.1723249999999
 30
0.0
 11
112.246309
 21
124.422325
 31
0.0
  0
LINE
  5
984C
330
97EF
100
AcDbEntity
  8
1
  6
Continuous
100
AcDbLine
 10
112.996309
 20
141.672333
 30
0.0
 11
112.246309
 21
142.422333
 31
0.0
  0
LINE
  5
984D
330
97EF
100
AcDbEntity
  8
4
  6
CENTER
100
AcDbLine
 10
101.0799119999998
 20
130.922333
 30
0.0
 11
122.828795
 21
130.922333
 31
0.0
  0
LINE
  5
984E
330
97EF
100
AcDbEntity
  8
1
  6
Continuous
100
AcDbLine
 10
113.996309
 20
129.922333
 30
0.0
 11
115.496309
 21
129.922333
 31
0.0
  0
LINE
  5
984F
330
97EF
100
AcDbEntity
  8
1
  6
Continuous
100
AcDbLine
 10
113.996309
 20
133.422333
 30
0.0
 11
115.496309
 21
133.422333
 31
0.0
  0
LINE
  5
9850
330
97EF
100
AcDbEntity
  8
4
  6
CENTER
100
AcDbLine
 10
99.371012
 20
133.422333
 30
0.0
 11
121.709745
 21
133.422333
 31
0.0
  0
LINE
  5
9851
330
97EF
100
AcDbEntity
  8
1
  6
Continuous
100
AcDbLine
 10
114.696312
 20
135.87233
 30
0.0
 11
114.696312
 21
133.422333
 31
0.0
  0
LINE
  5
9852
330
97EF
100
AcDbEntity
  8
1
  6
Continuous
100
AcDbLine
 10
115.696312
 20
136.922333
 30
0.0
 11
115.696312
 21
124.9223329999999
 31
0.0
  0
LINE
  5
9853
330
97EF
100
AcDbEntity
  8
1
  6
Continuous
100
AcDbLine
 10
114.696312
 20
135.87233
 30
0.0
 11
115.696312
 21
135.87233
 31
0.0
  0
LINE
  5
9854
330
97EF
100
AcDbEntity
  8
1
  6
Continuous
100
AcDbLine
 10
114.696312
 20
125.972336
 30
0.0
 11
115.696312
 21
125.972336
 31
0.0
  0
LINE
  5
9855
330
97EF
100
AcDbEntity
  8
1
  6
Continuous
100
AcDbLine
 10
113.996309
 20
129.922333
 30
0.0
 11
113.996309
 21
125.1723329999999
 31
0.0
  0
LINE
  5
9856
330
97EF
100
AcDbEntity
  8
1
  6
Continuous
100
AcDbLine
 10
103.196306
 20
143.422333
 30
0.0
 11
103.196306
 21
123.422333
 31
0.0
  0
LINE
  5
9857
330
97EF
100
AcDbEntity
  8
1
  6
Continuous
100
AcDbLine
 10
114.696312
 20
129.922333
 30
0.0
 11
114.696312
 21
125.972336
 31
0.0
  0
LINE
  5
9858
330
97EF
100
AcDbEntity
  8
1
  6
Continuous
100
AcDbLine
 10
104.4963089999999
 20
137.345322
 30
0.0
 11
112.246309
 21
137.345322
 31
0.0
  0
LINE
  5
9859
330
97EF
100
AcDbEntity
  8
1
  6
Continuous
100
AcDbLine
 10
104.4963089999999
 20
129.4993289999999
 30
0.0
 11
112.246309
 21
129.4993289999999
 31
0.0
  0
LINE
  5
985A
330
97EF
100
AcDbEntity
  8
1
  6
Continuous
100
AcDbLine
 10
104.996309
 20
142.422333
 30
0.0
 11
104.996309
 21
137.345322
 31
0.0
  0
LINE
  5
985B
330
97EF
100
AcDbEntity
  8
1
  6
Continuous
100
AcDbLine
 10
104.996309
 20
124.422333
 30
0.0
 11
104.996309
 21
129.4993289999999
 31
0.0
  0
LINE
  5
985C
330
97EF
100
AcDbEntity
  8
1
  6
Continuous
100
AcDbLine
 10
112.246309
 20
142.422333
 30
0.0
 11
112.246309
 21
137.345322
 31
0.0
  0
LINE
  5
985D
330
97EF
100
AcDbEntity
  8
1
  6
Continuous
100
AcDbLine
 10
112.996309
 20
141.672333
 30
0.0
 11
112.996309
 21
136.595322
 31
0.0
  0
LINE
  5
985E
330
97EF
100
AcDbEntity
  8
1
  6
Continuous
100
AcDbLine
 10
112.996309
 20
136.595322
 30
0.0
 11
112.246309
 21
137.345322
 31
0.0
  0
LINE
  5
985F
330
97EF
100
AcDbEntity
  8
1
  6
Continuous
100
AcDbLine
 10
112.996309
 20
136.595322
 30
0.0
 11
113.996309
 21
136.595322
 31
0.0
  0
LINE
  5
9860
330
97EF
100
AcDbEntity
  8
1
  6
Continuous
100
AcDbLine
 10
112.246309
 20
124.422333
 30
0.0
 11
112.246309
 21
129.4993289999999
 31
0.0
  0
LINE
  5
9861
330
97EF
100
AcDbEntity
  8
1
  6
Continuous
100
AcDbLine
 10
112.996309
 20
125.1723329999999
 30
0.0
 11
112.996309
 21
130.2493289999999
 31
0.0
  0
LINE
  5
9862
330
97EF
100
AcDbEntity
  8
1
  6
Continuous
100
AcDbLine
 10
112.9963019999999
 20
130.2493289999999
 30
0.0
 11
112.246309
 21
129.4993289999999
 31
0.0
  0
LINE
  5
9863
330
97EF
100
AcDbEntity
  8
1
  6
Continuous
100
AcDbLine
 10
112.996309
 20
130.2493289999999
 30
0.0
 11
115.496309
 21
130.2493289999999
 31
0.0
  0
LINE
  5
9864
330
97EF
100
AcDbEntity
  8
2
  6
Continuous
100
AcDbLine
 10
113.9963169999999
 20
136.5953369999998
 30
0.0
 11
104.4963089999999
 21
129.4993289999999
 31
0.0
  0
LINE
  5
9865
330
97EF
100
AcDbEntity
  8
2
  6
Continuous
100
AcDbLine
 10
104.496317
 20
137.345337
 30
0.0
 11
115.496317
 21
130.2493289999999
 31
0.0
  0
LINE
  5
9866
330
97EF
100
AcDbEntity
  8
1
  6
Continuous
100
AcDbLine
 10
234.181704
 20
138.3973239999999
 30
0.0
 11
234.181704
 21
136.922333
 31
0.0
  0
LINE
  5
9867
330
97EF
100
AcDbEntity
  8
1
  6
Continuous
100
AcDbLine
 10
218.5817129999998
 20
137.345322
 30
0.0
 11
218.5817129999998
 21
129.4993289999999
 31
0.0
  0
LINE
  5
9868
330
97EF
100
AcDbEntity
  8
1
  6
Continuous
100
AcDbLine
 10
224.6817039999999
 20
142.197327
 30
0.0
 11
224.6817039999999
 21
140.922333
 31
0.0
  0
LINE
  5
9869
330
97EF
100
AcDbEntity
  8
1
  6
Continuous
100
AcDbLine
 10
228.6817039999998
 20
142.197327
 30
0.0
 11
228.6817039999998
 21
140.922333
 31
0.0
  0
LINE
  5
986A
330
97EF
100
AcDbEntity
  8
1
  6
Continuous
100
AcDbLine
 10
224.6817039999999
 20
140.922333
 30
0.0
 11
228.6817039999998
 21
140.922333
 31
0.0
  0
LINE
  5
986B
330
97EF
100
AcDbEntity
  8
1
  6
Continuous
100
AcDbLine
 10
219.2109089999999
 20
129.922333
 30
0.0
 11
220.681704
 21
129.922333
 31
0.0
  0
LINE
  5
986C
330
97EF
100
AcDbEntity
  8
1
  6
Continuous
100
AcDbLine
 10
218.5817129999998
 20
133.422333
 30
0.0
 11
220.681704
 21
133.422333
 31
0.0
  0
LINE
  5
986D
330
97EF
100
AcDbEntity
  8
1
  6
Continuous
100
AcDbLine
 10
220.681704
 20
133.422333
 30
0.0
 11
220.681704
 21
129.922333
 31
0.0
  0
LINE
  5
986E
330
97EF
100
AcDbEntity
  8
4
  6
CENTER
100
AcDbLine
 10
223.681704
 20
134.045609
 30
0.0
 11
223.681704
 21
127.881561
 31
0.0
  0
LINE
  5
986F
330
97EF
100
AcDbEntity
  8
4
  6
CENTER
100
AcDbLine
 10
229.681704
 20
134.112976
 30
0.0
 11
229.681704
 21
127.645775
 31
0.0
  0
LINE
  5
9870
330
97EF
100
AcDbEntity
  8
1
  6
Continuous
100
AcDbLine
 10
224.6817039999999
 20
141.322327
 30
0.0
 11
228.6817039999998
 21
141.322327
 31
0.0
  0
LINE
  5
9871
330
97EF
100
AcDbEntity
  8
4
  6
CENTER
100
AcDbLine
 10
122.828795
 20
216.5142359999999
 30
0.0
 11
98.62932800000001
 21
216.5142359999999
 31
0.0
  0
LINE
  5
9872
330
97EF
100
AcDbEntity
  8
1
  6
Continuous
100
AcDbLine
 10
102.4963089999999
 20
225.81424
 30
0.0
 11
102.4963089999999
 21
207.214233
 31
0.0
  0
LINE
  5
9873
330
97EF
100
AcDbEntity
  8
1
  6
Continuous
100
AcDbLine
 10
104.4963089999999
 20
226.514236
 30
0.0
 11
103.196306
 21
226.514236
 31
0.0
  0
LINE
  5
9874
330
97EF
100
AcDbEntity
  8
1
  6
Continuous
100
AcDbLine
 10
104.4963089999999
 20
206.514236
 30
0.0
 11
103.196306
 21
206.514236
 31
0.0
  0
LINE
  5
9875
330
97EF
100
AcDbEntity
  8
1
  6
Continuous
100
AcDbLine
 10
104.4963089999999
 20
226.514236
 30
0.0
 11
104.4963089999999
 21
206.514236
 31
0.0
  0
LINE
  5
9876
330
97EF
100
AcDbEntity
  8
1
  6
Continuous
100
AcDbLine
 10
102.4963089999999
 20
225.81424
 30
0.0
 11
103.196299
 21
226.514236
 31
0.0
  0
LINE
  5
9877
330
97EF
100
AcDbEntity
  8
1
  6
Continuous
100
AcDbLine
 10
102.4963019999999
 20
207.214233
 30
0.0
 11
103.196299
 21
206.514236
 31
0.0
  0
LINE
  5
9878
330
97EF
100
AcDbEntity
  8
1
  6
Continuous
100
AcDbLine
 10
115.496309
 20
208.4142299999999
 30
0.0
 11
104.4963089999999
 21
208.4142299999999
 31
0.0
  0
LINE
  5
9879
330
97EF
100
AcDbEntity
  8
1
  6
Continuous
100
AcDbLine
 10
114.3963169999999
 20
224.0142359999999
 30
0.0
 11
104.4963089999999
 21
224.0142359999999
 31
0.0
  0
LINE
  5
987A
330
97EF
100
AcDbEntity
  8
1
  6
Continuous
100
AcDbLine
 10
113.996309
 20
224.0142359999999
 30
0.0
 11
113.996309
 21
208.4142299999999
 31
0.0
  0
LINE
  5
987B
330
97EF
100
AcDbEntity
  8
1
  6
Continuous
100
AcDbLine
 10
114.3963169999999
 20
222.5142359999999
 30
0.0
 11
113.996309
 21
222.5142359999999
 31
0.0
  0
LINE
  5
987C
330
97EF
100
AcDbEntity
  8
1
  6
Continuous
100
AcDbLine
 10
115.496309
 20
210.5142359999999
 30
0.0
 11
113.996309
 21
210.5142359999999
 31
0.0
  0
LINE
  5
987D
330
97EF
100
AcDbEntity
  8
1
  6
Continuous
100
AcDbLine
 10
112.996309
 20
224.0142359999999
 30
0.0
 11
112.996309
 21
218.5142359999999
 31
0.0
  0
LINE
  5
987E
330
97EF
100
AcDbEntity
  8
1
  6
Continuous
100
AcDbLine
 10
112.246309
 20
224.0142359999999
 30
0.0
 11
112.246309
 21
218.5142359999999
 31
0.0
  0
LINE
  5
987F
330
97EF
100
AcDbEntity
  8
1
  6
Continuous
100
AcDbLine
 10
104.996309
 20
224.0142359999999
 30
0.0
 11
104.996309
 21
218.5142359999999
 31
0.0
  0
LINE
  5
9880
330
97EF
100
AcDbEntity
  8
1
  6
Continuous
100
AcDbLine
 10
113.996309
 20
218.5142359999999
 30
0.0
 11
104.4963089999999
 21
218.5142359999999
 31
0.0
  0
LINE
  5
9881
330
97EF
100
AcDbEntity
  8
1
  6
Continuous
100
AcDbLine
 10
113.996309
 20
214.5142359999999
 30
0.0
 11
104.4963089999999
 21
214.5142359999999
 31
0.0
  0
LINE
  5
9882
330
97EF
100
AcDbEntity
  8
1
  6
Continuous
100
AcDbLine
 10
112.996309
 20
214.5142359999999
 30
0.0
 11
112.996309
 21
208.4142299999999
 31
0.0
  0
LINE
  5
9883
330
97EF
100
AcDbEntity
  8
1
  6
Continuous
100
AcDbLine
 10
112.246309
 20
214.5142359999999
 30
0.0
 11
112.246309
 21
208.4142299999999
 31
0.0
  0
LINE
  5
9884
330
97EF
100
AcDbEntity
  8
1
  6
Continuous
100
AcDbLine
 10
104.996309
 20
214.5142359999999
 30
0.0
 11
104.996309
 21
208.4142299999999
 31
0.0
  0
LINE
  5
9885
330
97EF
100
AcDbEntity
  8
1
  6
Continuous
100
AcDbLine
 10
114.696305
 20
221.464233
 30
0.0
 11
114.696305
 21
211.56424
 31
0.0
  0
LINE
  5
9886
330
97EF
100
AcDbEntity
  8
1
  6
Continuous
100
AcDbLine
 10
114.696305
 20
221.464233
 30
0.0
 11
115.696305
 21
221.464233
 31
0.0
  0
LINE
  5
9887
330
97EF
100
AcDbEntity
  8
1
  6
Continuous
100
AcDbLine
 10
114.696305
 20
211.56424
 30
0.0
 11
115.696305
 21
211.56424
 31
0.0
  0
LINE
  5
9888
330
97EF
100
AcDbEntity
  8
1
  6
Continuous
100
AcDbLine
 10
159.429613
 20
226.514236
 30
0.0
 11
156.4296129999999
 21
226.514236
 31
0.0
  0
LINE
  5
9889
330
97EF
100
AcDbEntity
  8
1
  6
Continuous
100
AcDbLine
 10
159.429613
 20
206.514236
 30
0.0
 11
156.4296129999999
 21
206.514236
 31
0.0
  0
LINE
  5
988A
330
97EF
100
AcDbEntity
  8
1
  6
Continuous
100
AcDbLine
 10
156.4296129999999
 20
226.514236
 30
0.0
 11
156.4296129999999
 21
206.514236
 31
0.0
  0
LINE
  5
988B
330
97EF
100
AcDbEntity
  8
1
  6
Continuous
100
AcDbLine
 10
159.429613
 20
226.514236
 30
0.0
 11
159.429613
 21
206.514236
 31
0.0
  0
LINE
  5
988C
330
97EF
100
AcDbEntity
  8
1
  6
Continuous
100
AcDbLine
 10
159.429613
 20
216.5142359999999
 30
0.0
 11
156.4296129999999
 21
216.5142359999999
 31
0.0
  0
LINE
  5
988D
330
97EF
100
AcDbEntity
  8
1
  6
Continuous
100
AcDbLine
 10
143.761309
 20
228.514236
 30
0.0
 11
143.761309
 21
204.514236
 31
0.0
  0
LINE
  5
988E
330
97EF
100
AcDbEntity
  8
1
  6
Continuous
100
AcDbLine
 10
143.761309
 20
204.514236
 30
0.0
 11
144.5613119999999
 21
204.514236
 31
0.0
  0
LINE
  5
988F
330
97EF
100
AcDbEntity
  8
1
  6
Continuous
100
AcDbLine
 10
144.5613119999999
 20
204.514236
 30
0.0
 11
144.5613119999999
 21
228.514236
 31
0.0
  0
LINE
  5
9890
330
97EF
100
AcDbEntity
  8
1
  6
Continuous
100
AcDbLine
 10
144.5613119999999
 20
228.514236
 30
0.0
 11
143.761309
 21
228.514236
 31
0.0
  0
LINE
  5
9891
330
97EF
100
AcDbEntity
  8
1
  6
Continuous
100
AcDbLine
 10
112.496309
 20
218.5142359999999
 30
0.0
 11
112.496309
 21
214.5142359999999
 31
0.0
  0
LINE
  5
9892
330
97EF
100
AcDbEntity
  8
1
  6
Continuous
100
AcDbLine
 10
117.696305
 20
210.5142359999999
 30
0.0
 11
115.696305
 21
210.5142359999999
 31
0.0
  0
LINE
  5
9893
330
97EF
100
AcDbEntity
  8
1
  6
Continuous
100
AcDbLine
 10
117.696305
 20
238.5142359999999
 30
0.0
 11
115.696305
 21
238.5142359999999
 31
0.0
  0
LINE
  5
9894
330
97EF
100
AcDbEntity
  8
1
  6
Continuous
100
AcDbLine
 10
115.696305
 20
238.5142359999999
 30
0.0
 11
115.696305
 21
210.5142359999999
 31
0.0
  0
LINE
  5
9895
330
97EF
100
AcDbEntity
  8
1
  6
Continuous
100
AcDbLine
 10
117.696305
 20
238.5142359999999
 30
0.0
 11
117.696305
 21
210.5142359999999
 31
0.0
  0
LINE
  5
9896
330
97EF
100
AcDbEntity
  8
1
  6
Continuous
100
AcDbLine
 10
117.696305
 20
227.5142359999999
 30
0.0
 11
115.696305
 21
227.5142359999999
 31
0.0
  0
LINE
  5
9897
330
97EF
100
AcDbEntity
  8
1
  6
Continuous
100
AcDbLine
 10
115.696305
 20
224.6142269999999
 30
0.0
 11
114.3963169999999
 21
224.6142269999999
 31
0.0
  0
LINE
  5
9898
330
97EF
100
AcDbEntity
  8
1
  6
Continuous
100
AcDbLine
 10
115.696305
 20
221.81424
 30
0.0
 11
114.3963169999999
 21
221.81424
 31
0.0
  0
LINE
  5
9899
330
97EF
100
AcDbEntity
  8
1
  6
Continuous
100
AcDbLine
 10
114.3963169999999
 20
224.6142269999999
 30
0.0
 11
114.3963169999999
 21
221.81424
 31
0.0
  0
LINE
  5
989A
330
97EF
100
AcDbEntity
  8
1
  6
Continuous
100
AcDbLine
 10
119.696305
 20
214.4666289999999
 30
0.0
 11
119.696305
 21
212.5618289999999
 31
0.0
  0
LINE
  5
989B
330
97EF
100
AcDbEntity
  8
1
  6
Continuous
100
AcDbLine
 10
118.196305
 20
215.5142359999999
 30
0.0
 11
118.783509
 21
215.4628299999999
 31
0.0
  0
LINE
  5
989C
330
97EF
100
AcDbEntity
  8
1
  6
Continuous
100
AcDbLine
 10
118.196305
 20
211.5142359999999
 30
0.0
 11
118.7834939999999
 21
211.565643
 31
0.0
  0
LINE
  5
989D
330
97EF
100
AcDbEntity
  8
1
  6
Continuous
100
AcDbLine
 10
117.696305
 20
211.0142359999999
 30
0.0
 11
118.196305
 21
211.0142359999999
 31
0.0
  0
LINE
  5
989E
330
97EF
100
AcDbEntity
  8
1
  6
Continuous
100
AcDbLine
 10
117.696305
 20
216.014236
 30
0.0
 11
118.196305
 21
216.014236
 31
0.0
  0
LINE
  5
989F
330
97EF
100
AcDbEntity
  8
1
  6
Continuous
100
AcDbLine
 10
118.196305
 20
216.014236
 30
0.0
 11
118.196305
 21
211.0142359999999
 31
0.0
  0
LINE
  5
98A0
330
97EF
100
AcDbEntity
  8
4
  6
CENTER
100
AcDbLine
 10
218.484911
 20
130.922333
 30
0.0
 11
251.1268029999999
 21
130.922333
 31
0.0
  0
LINE
  5
98A1
330
97EF
100
AcDbEntity
  8
1
  6
Continuous
100
AcDbLine
 10
226.6817039999998
 20
124.9223329999999
 30
0.0
 11
237.681704
 21
124.9223329999999
 31
0.0
  0
LINE
  5
98A2
330
97EF
100
AcDbEntity
  8
1
  6
Continuous
100
AcDbLine
 10
226.6817039999998
 20
136.922333
 30
0.0
 11
237.681704
 21
136.922333
 31
0.0
  0
LINE
  5
98A3
330
97EF
100
AcDbEntity
  8
1
  6
Continuous
100
AcDbLine
 10
237.681704
 20
136.922333
 30
0.0
 11
237.681704
 21
136.422333
 31
0.0
  0
LINE
  5
98A4
330
97EF
100
AcDbEntity
  8
1
  6
Continuous
100
AcDbLine
 10
237.681704
 20
125.422333
 30
0.0
 11
247.1411149999999
 21
125.422333
 31
0.0
  0
LINE
  5
98A5
330
97EF
100
AcDbEntity
  8
1
  6
Continuous
100
AcDbLine
 10
237.681704
 20
136.422333
 30
0.0
 11
247.1411149999999
 21
136.422333
 31
0.0
  0
LINE
  5
98A6
330
97EF
100
AcDbEntity
  8
1
  6
Continuous
100
AcDbLine
 10
237.681704
 20
125.422333
 30
0.0
 11
237.681704
 21
124.9223329999999
 31
0.0
  0
LINE
  5
98A7
330
97EF
100
AcDbEntity
  8
4
  6
CENTER
100
AcDbLine
 10
233.381716
 20
136.627426
 30
0.0
 11
233.381716
 21
132.9374389999999
 31
0.0
  0
LINE
  5
98A8
330
97EF
100
AcDbEntity
  8
4
  6
CENTER
100
AcDbLine
 10
231.487108
 20
134.822327
 30
0.0
 11
235.3644119999999
 21
134.822327
 31
0.0
  0
LINE
  5
98A9
330
97EF
100
AcDbEntity
  8
1
  6
Continuous
100
AcDbLine
 10
228.5317099999998
 20
131.222336
 30
0.0
 11
228.5317099999998
 21
130.62233
 31
0.0
  0
LINE
  5
98AA
330
97EF
100
AcDbEntity
  8
1
  6
Continuous
100
AcDbLine
 10
230.8316979999999
 20
131.222336
 30
0.0
 11
230.8316979999999
 21
130.62233
 31
0.0
  0
LINE
  5
98AB
330
97EF
100
AcDbEntity
  8
1
  6
Continuous
100
AcDbLine
 10
229.3817009999999
 20
129.7723389999999
 30
0.0
 11
229.9817069999999
 21
129.7723389999999
 31
0.0
  0
LINE
  5
98AC
330
97EF
100
AcDbEntity
  8
1
  6
Continuous
100
AcDbLine
 10
229.3817009999999
 20
132.072327
 30
0.0
 11
229.9817069999999
 21
132.072327
 31
0.0
  0
LINE
  5
98AD
330
97EF
100
AcDbEntity
  8
1
  6
Continuous
100
AcDbLine
 10
229.3817009999999
 20
132.072327
 30
0.0
 11
229.3817009999999
 21
131.422333
 31
0.0
  0
LINE
  5
98AE
330
97EF
100
AcDbEntity
  8
1
  6
Continuous
100
AcDbLine
 10
229.9817069999999
 20
132.072327
 30
0.0
 11
229.9817069999999
 21
131.422333
 31
0.0
  0
LINE
  5
98AF
330
97EF
100
AcDbEntity
  8
1
  6
Continuous
100
AcDbLine
 10
228.5317099999998
 20
130.62233
 30
0.0
 11
229.181704
 21
130.62233
 31
0.0
  0
LINE
  5
98B0
330
97EF
100
AcDbEntity
  8
1
  6
Continuous
100
AcDbLine
 10
228.5317099999998
 20
131.222336
 30
0.0
 11
229.181704
 21
131.222336
 31
0.0
  0
LINE
  5
98B1
330
97EF
100
AcDbEntity
  8
1
  6
Continuous
100
AcDbLine
 10
230.1817039999999
 20
131.222336
 30
0.0
 11
230.8316979999999
 21
131.222336
 31
0.0
  0
LINE
  5
98B2
330
97EF
100
AcDbEntity
  8
1
  6
Continuous
100
AcDbLine
 10
230.1817039999999
 20
130.62233
 30
0.0
 11
230.8316979999999
 21
130.62233
 31
0.0
  0
LINE
  5
98B3
330
97EF
100
AcDbEntity
  8
1
  6
Continuous
100
AcDbLine
 10
229.3817009999999
 20
130.422333
 30
0.0
 11
229.3817009999999
 21
129.7723389999999
 31
0.0
  0
LINE
  5
98B4
330
97EF
100
AcDbEntity
  8
1
  6
Continuous
100
AcDbLine
 10
229.9817069999999
 20
130.422333
 30
0.0
 11
229.9817069999999
 21
129.7723389999999
 31
0.0
  0
LINE
  5
98B5
330
97EF
100
AcDbEntity
  8
1
  6
Continuous
100
AcDbLine
 10
222.53171
 20
131.222336
 30
0.0
 11
222.53171
 21
130.62233
 31
0.0
  0
LINE
  5
98B6
330
97EF
100
AcDbEntity
  8
1
  6
Continuous
100
AcDbLine
 10
224.8316979999999
 20
131.222336
 30
0.0
 11
224.8316979999999
 21
130.62233
 31
0.0
  0
LINE
  5
98B7
330
97EF
100
AcDbEntity
  8
1
  6
Continuous
100
AcDbLine
 10
223.3817009999999
 20
129.7723389999999
 30
0.0
 11
223.9817069999999
 21
129.7723389999999
 31
0.0
  0
LINE
  5
98B8
330
97EF
100
AcDbEntity
  8
1
  6
Continuous
100
AcDbLine
 10
223.3817009999999
 20
132.072327
 30
0.0
 11
223.9817069999999
 21
132.072327
 31
0.0
  0
LINE
  5
98B9
330
97EF
100
AcDbEntity
  8
1
  6
Continuous
100
AcDbLine
 10
223.3817009999999
 20
132.072327
 30
0.0
 11
223.3817009999999
 21
131.422333
 31
0.0
  0
LINE
  5
98BA
330
97EF
100
AcDbEntity
  8
1
  6
Continuous
100
AcDbLine
 10
223.9817069999999
 20
132.072327
 30
0.0
 11
223.9817069999999
 21
131.422333
 31
0.0
  0
LINE
  5
98BB
330
97EF
100
AcDbEntity
  8
1
  6
Continuous
100
AcDbLine
 10
222.53171
 20
130.62233
 30
0.0
 11
223.181704
 21
130.62233
 31
0.0
  0
LINE
  5
98BC
330
97EF
100
AcDbEntity
  8
1
  6
Continuous
100
AcDbLine
 10
222.53171
 20
131.222336
 30
0.0
 11
223.181704
 21
131.222336
 31
0.0
  0
LINE
  5
98BD
330
97EF
100
AcDbEntity
  8
1
  6
Continuous
100
AcDbLine
 10
224.1817039999999
 20
131.222336
 30
0.0
 11
224.8316979999999
 21
131.222336
 31
0.0
  0
LINE
  5
98BE
330
97EF
100
AcDbEntity
  8
1
  6
Continuous
100
AcDbLine
 10
224.1817039999999
 20
130.62233
 30
0.0
 11
224.8316979999999
 21
130.62233
 31
0.0
  0
LINE
  5
98BF
330
97EF
100
AcDbEntity
  8
1
  6
Continuous
100
AcDbLine
 10
223.3817009999999
 20
130.422333
 30
0.0
 11
223.3817009999999
 21
129.7723389999999
 31
0.0
  0
LINE
  5
98C0
330
97EF
100
AcDbEntity
  8
1
  6
Continuous
100
AcDbLine
 10
223.9817069999999
 20
130.422333
 30
0.0
 11
223.9817069999999
 21
129.7723389999999
 31
0.0
  0
LINE
  5
98C1
330
97EF
100
AcDbEntity
  8
4
  6
CENTER
100
AcDbLine
 10
210.9923119999999
 20
133.422333
 30
0.0
 11
242.26111
 21
133.422333
 31
0.0
  0
LINE
  5
98C2
330
97EF
100
AcDbEntity
  8
4
  6
CENTER
100
AcDbLine
 10
226.6817039999998
 20
147.991028
 30
0.0
 11
226.6817039999998
 21
119.028931
 31
0.0
  0
LINE
  5
98C3
330
97EF
100
AcDbEntity
  8
2
  6
Continuous
100
AcDbLine
 10
104.996309
 20
142.0163269999999
 30
0.0
 11
112.6523149999999
 21
142.0163269999999
 31
0.0
  0
LINE
  5
98C4
330
97EF
100
AcDbEntity
  8
2
  6
Continuous
100
AcDbLine
 10
104.996309
 20
124.828331
 30
0.0
 11
112.652308
 21
124.828331
 31
0.0
  0
LINE
  5
98C5
330
97EF
100
AcDbEntity
  8
4
  6
CENTER
100
AcDbLine
 10
51.900213
 20
133.422333
 30
0.0
 11
21.900213
 21
133.422333
 31
0.0
  0
LINE
  5
98C6
330
97EF
100
AcDbEntity
  8
4
  6
CENTER
100
AcDbLine
 10
36.900213
 20
148.422333
 30
0.0
 11
36.900213
 21
118.422333
 31
0.0
  0
LINE
  5
98C7
330
97EF
100
AcDbEntity
  8
5
  6
PHANTOM
100
AcDbLine
 10
38.83069799999999
 20
145.266037
 30
0.0
 11
42.36677799999998
 21
151.390701
 31
0.0
  0
LINE
  5
98C8
330
97EF
100
AcDbEntity
  8
5
  6
PHANTOM
100
AcDbLine
 10
47.706663
 20
138.6396479999999
 30
0.0
 11
51.893057
 21
145.890701
 31
0.0
  0
LINE
  5
98C9
330
97EF
100
AcDbEntity
  8
4
  6
CENTER
100
AcDbLine
 10
32.80181699999999
 20
123.8237
 30
0.0
 11
49.122763
 21
152.092407
 31
0.0
  0
LINE
  5
98CA
330
97EF
100
AcDbEntity
  8
1
  6
Continuous
100
AcDbLine
 10
117.696305
 20
213.7302249999999
 30
0.0
 11
118.19629
 21
213.864197
 31
0.0
  0
LINE
  5
98CB
330
97EF
100
AcDbEntity
  8
1
  6
Continuous
100
AcDbLine
 10
117.6962899999999
 20
213.0302279999999
 30
0.0
 11
118.196305
 21
213.1642149999999
 31
0.0
  0
LINE
  5
98CC
330
97EF
100
AcDbEntity
  8
1
  6
Continuous
100
AcDbLine
 10
103.196306
 20
226.514236
 30
0.0
 11
103.196306
 21
206.514236
 31
0.0
  0
LINE
  5
98CD
330
97EF
100
AcDbEntity
  8
4
  6
CENTER
100
AcDbLine
 10
139.913532
 20
133.422333
 30
0.0
 11
163.3905269999999
 21
133.422333
 31
0.0
  0
LINE
  5
98CE
330
97EF
100
AcDbEntity
  8
1
  6
Continuous
100
AcDbLine
 10
115.496309
 20
210.5142359999999
 30
0.0
 11
115.496309
 21
208.4142299999999
 31
0.0
  0
LINE
  5
98CF
330
97EF
100
AcDbEntity
  8
4
  6
CENTER
100
AcDbLine
 10
139.913532
 20
50.330425
 30
0.0
 11
163.3905269999999
 21
50.330425
 31
0.0
  0
LINE
  5
98D0
330
97EF
100
AcDbEntity
  8
4
  6
CENTER
100
AcDbLine
 10
122.828795
 20
50.330425
 30
0.0
 11
99.710253
 21
50.330425
 31
0.0
  0
LINE
  5
98D1
330
97EF
100
AcDbEntity
  8
1
  6
Continuous
100
AcDbLine
 10
102.4963089999999
 20
41.030426
 30
0.0
 11
102.4963089999999
 21
59.63042399999999
 31
0.0
  0
LINE
  5
98D2
330
97EF
100
AcDbEntity
  8
1
  6
Continuous
100
AcDbLine
 10
104.4963089999999
 20
40.33042499999999
 30
0.0
 11
103.196306
 21
40.33042499999999
 31
0.0
  0
LINE
  5
98D3
330
97EF
100
AcDbEntity
  8
1
  6
Continuous
100
AcDbLine
 10
104.4963089999999
 20
60.330425
 30
0.0
 11
103.196306
 21
60.330425
 31
0.0
  0
LINE
  5
98D4
330
97EF
100
AcDbEntity
  8
1
  6
Continuous
100
AcDbLine
 10
104.4963089999999
 20
40.33042499999999
 30
0.0
 11
104.4963089999999
 21
60.330425
 31
0.0
  0
LINE
  5
98D5
330
97EF
100
AcDbEntity
  8
1
  6
Continuous
100
AcDbLine
 10
102.4963089999999
 20
41.03042199999999
 30
0.0
 11
103.196306
 21
40.330421
 31
0.0
  0
LINE
  5
98D6
330
97EF
100
AcDbEntity
  8
1
  6
Continuous
100
AcDbLine
 10
102.4963019999999
 20
59.630421
 30
0.0
 11
103.196306
 21
60.33042099999999
 31
0.0
  0
LINE
  5
98D7
330
97EF
100
AcDbEntity
  8
1
  6
Continuous
100
AcDbLine
 10
115.496309
 20
58.430424
 30
0.0
 11
104.4963089999999
 21
58.430424
 31
0.0
  0
LINE
  5
98D8
330
97EF
100
AcDbEntity
  8
1
  6
Continuous
100
AcDbLine
 10
115.496309
 20
42.83042499999999
 30
0.0
 11
104.4963089999999
 21
42.83042499999999
 31
0.0
  0
LINE
  5
98D9
330
97EF
100
AcDbEntity
  8
1
  6
Continuous
100
AcDbLine
 10
113.996309
 20
42.83042499999999
 30
0.0
 11
113.996309
 21
58.430424
 31
0.0
  0
LINE
  5
98DA
330
97EF
100
AcDbEntity
  8
1
  6
Continuous
100
AcDbLine
 10
115.496309
 20
44.33042499999999
 30
0.0
 11
113.996309
 21
44.33042499999999
 31
0.0
  0
LINE
  5
98DB
330
97EF
100
AcDbEntity
  8
1
  6
Continuous
100
AcDbLine
 10
115.496309
 20
56.330425
 30
0.0
 11
113.996309
 21
56.330425
 31
0.0
  0
LINE
  5
98DC
330
97EF
100
AcDbEntity
  8
1
  6
Continuous
100
AcDbLine
 10
115.496309
 20
42.83042499999999
 30
0.0
 11
115.496309
 21
44.33042499999999
 31
0.0
  0
LINE
  5
98DD
330
97EF
100
AcDbEntity
  8
1
  6
Continuous
100
AcDbLine
 10
112.996309
 20
42.83042499999999
 30
0.0
 11
112.996309
 21
58.430424
 31
0.0
  0
LINE
  5
98DE
330
97EF
100
AcDbEntity
  8
1
  6
Continuous
100
AcDbLine
 10
112.246309
 20
42.83042499999999
 30
0.0
 11
112.246309
 21
58.430424
 31
0.0
  0
LINE
  5
98DF
330
97EF
100
AcDbEntity
  8
1
  6
Continuous
100
AcDbLine
 10
104.996309
 20
42.83042499999999
 30
0.0
 11
104.996309
 21
58.430424
 31
0.0
  0
LINE
  5
98E0
330
97EF
100
AcDbEntity
  8
1
  6
Continuous
100
AcDbLine
 10
114.696305
 20
45.380424
 30
0.0
 11
114.696305
 21
55.280426
 31
0.0
  0
LINE
  5
98E1
330
97EF
100
AcDbEntity
  8
1
  6
Continuous
100
AcDbLine
 10
114.696305
 20
45.380424
 30
0.0
 11
115.696305
 21
45.380424
 31
0.0
  0
LINE
  5
98E2
330
97EF
100
AcDbEntity
  8
1
  6
Continuous
100
AcDbLine
 10
114.696305
 20
55.280426
 30
0.0
 11
115.696305
 21
55.280426
 31
0.0
  0
LINE
  5
98E3
330
97EF
100
AcDbEntity
  8
1
  6
Continuous
100
AcDbLine
 10
159.429613
 20
40.33042499999999
 30
0.0
 11
156.4296129999999
 21
40.33042499999999
 31
0.0
  0
LINE
  5
98E4
330
97EF
100
AcDbEntity
  8
1
  6
Continuous
100
AcDbLine
 10
159.429613
 20
60.330425
 30
0.0
 11
156.4296129999999
 21
60.330425
 31
0.0
  0
LINE
  5
98E5
330
97EF
100
AcDbEntity
  8
1
  6
Continuous
100
AcDbLine
 10
156.4296129999999
 20
40.33042499999999
 30
0.0
 11
156.4296129999999
 21
60.330425
 31
0.0
  0
LINE
  5
98E6
330
97EF
100
AcDbEntity
  8
1
  6
Continuous
100
AcDbLine
 10
159.429613
 20
40.33042499999999
 30
0.0
 11
159.429613
 21
60.330425
 31
0.0
  0
LINE
  5
98E7
330
97EF
100
AcDbEntity
  8
1
  6
Continuous
100
AcDbLine
 10
159.429613
 20
50.330425
 30
0.0
 11
156.4296129999999
 21
50.330425
 31
0.0
  0
LINE
  5
98E8
330
97EF
100
AcDbEntity
  8
1
  6
Continuous
100
AcDbLine
 10
143.761309
 20
38.33042499999999
 30
0.0
 11
143.761309
 21
62.33042499999999
 31
0.0
  0
LINE
  5
98E9
330
97EF
100
AcDbEntity
  8
1
  6
Continuous
100
AcDbLine
 10
143.761309
 20
62.33042499999999
 30
0.0
 11
144.5613119999999
 21
62.33042499999999
 31
0.0
  0
LINE
  5
98EA
330
97EF
100
AcDbEntity
  8
1
  6
Continuous
100
AcDbLine
 10
144.5613119999999
 20
62.33042499999999
 30
0.0
 11
144.5613119999999
 21
38.33042499999999
 31
0.0
  0
LINE
  5
98EB
330
97EF
100
AcDbEntity
  8
1
  6
Continuous
100
AcDbLine
 10
144.5613119999999
 20
38.33042499999999
 30
0.0
 11
143.761309
 21
38.33042499999999
 31
0.0
  0
LINE
  5
98EC
330
97EF
100
AcDbEntity
  8
1
  6
Continuous
100
AcDbLine
 10
117.696305
 20
56.330425
 30
0.0
 11
115.696305
 21
56.330425
 31
0.0
  0
LINE
  5
98ED
330
97EF
100
AcDbEntity
  8
1
  6
Continuous
100
AcDbLine
 10
117.696305
 20
28.330427
 30
0.0
 11
115.696305
 21
28.330427
 31
0.0
  0
LINE
  5
98EE
330
97EF
100
AcDbEntity
  8
1
  6
Continuous
100
AcDbLine
 10
115.696305
 20
28.330427
 30
0.0
 11
115.696305
 21
56.330425
 31
0.0
  0
LINE
  5
98EF
330
97EF
100
AcDbEntity
  8
1
  6
Continuous
100
AcDbLine
 10
117.696305
 20
28.330427
 30
0.0
 11
117.696305
 21
56.330425
 31
0.0
  0
LINE
  5
98F0
330
97EF
100
AcDbEntity
  8
1
  6
Continuous
100
AcDbLine
 10
117.696305
 20
39.33042499999999
 30
0.0
 11
115.696305
 21
39.33042499999999
 31
0.0
  0
LINE
  5
98F1
330
97EF
100
AcDbEntity
  8
1
  6
Continuous
100
AcDbLine
 10
115.696305
 20
42.23042699999999
 30
0.0
 11
114.3963169999999
 21
42.23042699999999
 31
0.0
  0
LINE
  5
98F2
330
97EF
100
AcDbEntity
  8
1
  6
Continuous
100
AcDbLine
 10
115.696305
 20
45.03042599999999
 30
0.0
 11
114.3963169999999
 21
45.03042599999999
 31
0.0
  0
LINE
  5
98F3
330
97EF
100
AcDbEntity
  8
1
  6
Continuous
100
AcDbLine
 10
114.3963169999999
 20
42.23042699999999
 30
0.0
 11
114.3963169999999
 21
42.83042499999999
 31
0.0
  0
LINE
  5
98F4
330
97EF
100
AcDbEntity
  8
1
  6
Continuous
100
AcDbLine
 10
103.196306
 20
40.33042499999999
 30
0.0
 11
103.196306
 21
60.330425
 31
0.0
  0
LINE
  5
98F5
330
97EF
100
AcDbEntity
  8
1
  6
Continuous
100
AcDbLine
 10
115.496309
 20
56.330425
 30
0.0
 11
115.496309
 21
58.430424
 31
0.0
  0
LINE
  5
98F6
330
97EF
100
AcDbEntity
  8
1
  6
Continuous
100
AcDbLine
 10
115.696305
 20
49.23042699999999
 30
0.0
 11
114.696305
 21
49.23042699999999
 31
0.0
  0
LINE
  5
98F7
330
97EF
100
AcDbEntity
  8
1
  6
Continuous
100
AcDbLine
 10
115.696305
 20
51.43042799999999
 30
0.0
 11
114.696305
 21
51.43042799999999
 31
0.0
  0
LINE
  5
98F8
330
97EF
100
AcDbEntity
  8
1
  6
Continuous
100
AcDbLine
 10
25.28126199999999
 20
136.422333
 30
0.0
 11
16.44080199999999
 21
136.422333
 31
0.0
  0
LINE
  5
98F9
330
97EF
100
AcDbEntity
  8
4
  6
CENTER
100
AcDbLine
 10
45.097006
 20
130.922333
 30
0.0
 11
12.455114
 21
130.922333
 31
0.0
  0
LINE
  5
98FA
330
97EF
100
AcDbEntity
  8
1
  6
Continuous
100
AcDbLine
 10
25.900213
 20
125.422333
 30
0.0
 11
16.44080199999999
 21
125.422333
 31
0.0
  0
LINE
  5
98FB
330
97EF
100
AcDbEntity
  8
1
  6
Continuous
100
AcDbLine
 10
28.429676
 20
124.9223329999999
 30
0.0
 11
25.900213
 21
124.9223329999999
 31
0.0
  0
LINE
  5
98FC
330
97EF
100
AcDbEntity
  8
1
  6
Continuous
100
AcDbLine
 10
25.900213
 20
125.422333
 30
0.0
 11
25.900213
 21
124.9223329999999
 31
0.0
  0
LINE
  5
98FD
330
97EF
100
AcDbEntity
  8
1
  6
Continuous
100
AcDbLine
 10
117.696312
 20
131.138321
 30
0.0
 11
118.196312
 21
131.2722929999999
 31
0.0
  0
LINE
  5
98FE
330
97EF
100
AcDbEntity
  8
1
  6
Continuous
100
AcDbLine
 10
117.696282
 20
130.4383239999999
 30
0.0
 11
118.196297
 21
130.572311
 31
0.0
  0
LINE
  5
98FF
330
97EF
100
AcDbEntity
  8
1
  6
Continuous
100
AcDbLine
 10
296.933779
 20
144.969345
 30
0.0
 11
296.933779
 21
121.875328
 31
0.0
  0
LINE
  5
9900
330
97EF
100
AcDbEntity
  8
1
  6
Continuous
100
AcDbLine
 10
293.933779
 20
144.969345
 30
0.0
 11
293.933779
 21
121.875328
 31
0.0
  0
LINE
  5
9901
330
97EF
100
AcDbEntity
  8
1
  6
Continuous
100
AcDbLine
 10
309.6021139999999
 20
145.422333
 30
0.0
 11
309.6021139999999
 21
121.422333
 31
0.0
  0
LINE
  5
9902
330
97EF
100
AcDbEntity
  8
1
  6
Continuous
100
AcDbLine
 10
309.6021139999999
 20
121.422333
 30
0.0
 11
308.802096
 21
121.422333
 31
0.0
  0
LINE
  5
9903
330
97EF
100
AcDbEntity
  8
1
  6
Continuous
100
AcDbLine
 10
308.802096
 20
121.422333
 30
0.0
 11
308.802096
 21
145.422333
 31
0.0
  0
LINE
  5
9904
330
97EF
100
AcDbEntity
  8
1
  6
Continuous
100
AcDbLine
 10
308.802096
 20
145.422333
 30
0.0
 11
309.6021139999999
 21
145.422333
 31
0.0
  0
LINE
  5
9905
330
97EF
100
AcDbEntity
  8
1
  6
Continuous
100
AcDbLine
 10
337.6670799999998
 20
136.922333
 30
0.0
 11
335.6670799999998
 21
136.922333
 31
0.0
  0
LINE
  5
9906
330
97EF
100
AcDbEntity
  8
1
  6
Continuous
100
AcDbLine
 10
335.6670799999998
 20
136.922333
 30
0.0
 11
335.6670799999998
 21
124.9223329999999
 31
0.0
  0
LINE
  5
9907
330
97EF
100
AcDbEntity
  8
1
  6
Continuous
100
AcDbLine
 10
335.6670799999998
 20
124.9223329999999
 30
0.0
 11
337.6670799999998
 21
124.9223329999999
 31
0.0
  0
LINE
  5
9908
330
97EF
100
AcDbEntity
  8
1
  6
Continuous
100
AcDbLine
 10
337.6670799999998
 20
124.9223329999999
 30
0.0
 11
337.6670799999998
 21
136.922333
 31
0.0
  0
LINE
  5
9909
330
97EF
100
AcDbEntity
  8
1
  6
Continuous
100
AcDbLine
 10
337.6670799999998
 20
136.222336
 30
0.0
 11
338.967067
 21
136.222336
 31
0.0
  0
LINE
  5
990A
330
97EF
100
AcDbEntity
  8
1
  6
Continuous
100
AcDbLine
 10
338.967067
 20
133.422333
 30
0.0
 11
338.967067
 21
136.222336
 31
0.0
  0
LINE
  5
990B
330
97EF
100
AcDbEntity
  8
1
  6
Continuous
100
AcDbLine
 10
333.66708
 20
131.874832
 30
0.0
 11
333.66708
 21
129.9699249999999
 31
0.0
  0
LINE
  5
990C
330
97EF
100
AcDbEntity
  8
1
  6
Continuous
100
AcDbLine
 10
335.167049
 20
132.922333
 30
0.0
 11
334.5799519999999
 21
132.871033
 31
0.0
  0
LINE
  5
990D
330
97EF
100
AcDbEntity
  8
1
  6
Continuous
100
AcDbLine
 10
335.167049
 20
128.922333
 30
0.0
 11
334.5799519999999
 21
128.9737399999999
 31
0.0
  0
LINE
  5
990E
330
97EF
100
AcDbEntity
  8
1
  6
Continuous
100
AcDbLine
 10
335.6670799999998
 20
128.422333
 30
0.0
 11
335.1670799999999
 21
128.422333
 31
0.0
  0
LINE
  5
990F
330
97EF
100
AcDbEntity
  8
1
  6
Continuous
100
AcDbLine
 10
335.6670799999998
 20
133.422333
 30
0.0
 11
335.1670799999999
 21
133.422333
 31
0.0
  0
LINE
  5
9910
330
97EF
100
AcDbEntity
  8
1
  6
Continuous
100
AcDbLine
 10
335.1670799999999
 20
133.422333
 30
0.0
 11
335.1670799999999
 21
128.422333
 31
0.0
  0
LINE
  5
9911
330
97EF
100
AcDbEntity
  8
1
  6
Continuous
100
AcDbLine
 10
350.167116
 20
123.422333
 30
0.0
 11
348.867098
 21
123.422333
 31
0.0
  0
LINE
  5
9912
330
97EF
100
AcDbEntity
  8
1
  6
Continuous
100
AcDbLine
 10
350.167116
 20
143.422333
 30
0.0
 11
348.867098
 21
143.422333
 31
0.0
  0
LINE
  5
9913
330
97EF
100
AcDbEntity
  8
1
  6
Continuous
100
AcDbLine
 10
350.867098
 20
142.722336
 30
0.0
 11
350.867098
 21
124.12233
 31
0.0
  0
LINE
  5
9914
330
97EF
100
AcDbEntity
  8
1
  6
Continuous
100
AcDbLine
 10
348.867098
 20
143.422333
 30
0.0
 11
348.867098
 21
123.422333
 31
0.0
  0
LINE
  5
9915
330
97EF
100
AcDbEntity
  8
1
  6
Continuous
100
AcDbLine
 10
350.867098
 20
142.722336
 30
0.0
 11
350.167116
 21
143.422333
 31
0.0
  0
LINE
  5
9916
330
97EF
100
AcDbEntity
  8
1
  6
Continuous
100
AcDbLine
 10
350.867098
 20
124.12233
 30
0.0
 11
350.1670859999999
 21
123.4223179999998
 31
0.0
  0
LINE
  5
9917
330
97EF
100
AcDbEntity
  8
1
  6
Continuous
100
AcDbLine
 10
348.867098
 20
124.422333
 30
0.0
 11
341.117098
 21
124.422333
 31
0.0
  0
LINE
  5
9918
330
97EF
100
AcDbEntity
  8
1
  6
Continuous
100
AcDbLine
 10
348.867098
 20
142.422333
 30
0.0
 11
341.117098
 21
142.422333
 31
0.0
  0
LINE
  5
9919
330
97EF
100
AcDbEntity
  8
1
  6
Continuous
100
AcDbLine
 10
339.367098
 20
141.672333
 30
0.0
 11
339.367098
 21
133.422333
 31
0.0
  0
LINE
  5
991A
330
97EF
100
AcDbEntity
  8
1
  6
Continuous
100
AcDbLine
 10
337.8670979999998
 20
133.422333
 30
0.0
 11
337.8670979999998
 21
129.922333
 31
0.0
  0
LINE
  5
991B
330
97EF
100
AcDbEntity
  8
1
  6
Continuous
100
AcDbLine
 10
340.367098
 20
125.1723329999999
 30
0.0
 11
339.367098
 21
125.1723329999999
 31
0.0
  0
LINE
  5
991C
330
97EF
100
AcDbEntity
  8
1
  6
Continuous
100
AcDbLine
 10
340.367098
 20
141.672333
 30
0.0
 11
339.367098
 21
141.672333
 31
0.0
  0
LINE
  5
991D
330
97EF
100
AcDbEntity
  8
1
  6
Continuous
100
AcDbLine
 10
340.367098
 20
125.1723249999999
 30
0.0
 11
341.117098
 21
124.422333
 31
0.0
  0
LINE
  5
991E
330
97EF
100
AcDbEntity
  8
1
  6
Continuous
100
AcDbLine
 10
340.367098
 20
141.672333
 30
0.0
 11
341.117098
 21
142.422333
 31
0.0
  0
LINE
  5
991F
330
97EF
100
AcDbEntity
  8
4
  6
CENTER
100
AcDbLine
 10
352.7742289999998
 20
130.922333
 30
0.0
 11
332.2965919999999
 21
130.922333
 31
0.0
  0
LINE
  5
9920
330
97EF
100
AcDbEntity
  8
1
  6
Continuous
100
AcDbLine
 10
339.367098
 20
129.922333
 30
0.0
 11
337.8670979999998
 21
129.922333
 31
0.0
  0
LINE
  5
9921
330
97EF
100
AcDbEntity
  8
1
  6
Continuous
100
AcDbLine
 10
339.367098
 20
133.422333
 30
0.0
 11
337.6670799999998
 21
133.422333
 31
0.0
  0
LINE
  5
9922
330
97EF
100
AcDbEntity
  8
4
  6
CENTER
100
AcDbLine
 10
353.9924029999999
 20
133.422333
 30
0.0
 11
331.7787009999999
 21
133.422333
 31
0.0
  0
LINE
  5
9923
330
97EF
100
AcDbEntity
  8
1
  6
Continuous
100
AcDbLine
 10
338.66708
 20
125.972336
 30
0.0
 11
337.6670799999998
 21
125.972336
 31
0.0
  0
LINE
  5
9924
330
97EF
100
AcDbEntity
  8
1
  6
Continuous
100
AcDbLine
 10
339.367098
 20
129.922333
 30
0.0
 11
339.367098
 21
125.1723329999999
 31
0.0
  0
LINE
  5
9925
330
97EF
100
AcDbEntity
  8
1
  6
Continuous
100
AcDbLine
 10
350.167116
 20
143.422333
 30
0.0
 11
350.167116
 21
123.422333
 31
0.0
  0
LINE
  5
9926
330
97EF
100
AcDbEntity
  8
1
  6
Continuous
100
AcDbLine
 10
338.66708
 20
129.922333
 30
0.0
 11
338.66708
 21
125.972336
 31
0.0
  0
LINE
  5
9927
330
97EF
100
AcDbEntity
  8
1
  6
Continuous
100
AcDbLine
 10
348.867098
 20
137.345322
 30
0.0
 11
341.117098
 21
137.345322
 31
0.0
  0
LINE
  5
9928
330
97EF
100
AcDbEntity
  8
1
  6
Continuous
100
AcDbLine
 10
348.867098
 20
129.4993289999999
 30
0.0
 11
341.117098
 21
129.4993289999999
 31
0.0
  0
LINE
  5
9929
330
97EF
100
AcDbEntity
  8
1
  6
Continuous
100
AcDbLine
 10
348.3670979999998
 20
142.422333
 30
0.0
 11
348.3670979999998
 21
137.345322
 31
0.0
  0
LINE
  5
992A
330
97EF
100
AcDbEntity
  8
1
  6
Continuous
100
AcDbLine
 10
348.3670979999998
 20
124.422333
 30
0.0
 11
348.3670979999998
 21
129.4993289999999
 31
0.0
  0
LINE
  5
992B
330
97EF
100
AcDbEntity
  8
1
  6
Continuous
100
AcDbLine
 10
341.117098
 20
142.422333
 30
0.0
 11
341.117098
 21
137.345322
 31
0.0
  0
LINE
  5
992C
330
97EF
100
AcDbEntity
  8
1
  6
Continuous
100
AcDbLine
 10
340.367098
 20
141.672333
 30
0.0
 11
340.367098
 21
136.595322
 31
0.0
  0
LINE
  5
992D
330
97EF
100
AcDbEntity
  8
1
  6
Continuous
100
AcDbLine
 10
340.367098
 20
136.595322
 30
0.0
 11
341.117098
 21
137.345322
 31
0.0
  0
LINE
  5
992E
330
97EF
100
AcDbEntity
  8
1
  6
Continuous
100
AcDbLine
 10
340.367098
 20
136.595322
 30
0.0
 11
339.367098
 21
136.595322
 31
0.0
  0
LINE
  5
992F
330
97EF
100
AcDbEntity
  8
1
  6
Continuous
100
AcDbLine
 10
341.117098
 20
124.422333
 30
0.0
 11
341.117098
 21
129.4993289999999
 31
0.0
  0
LINE
  5
9930
330
97EF
100
AcDbEntity
  8
1
  6
Continuous
100
AcDbLine
 10
340.367098
 20
125.1723329999999
 30
0.0
 11
340.367098
 21
130.2493289999999
 31
0.0
  0
LINE
  5
9931
330
97EF
100
AcDbEntity
  8
1
  6
Continuous
100
AcDbLine
 10
340.367098
 20
130.2493129999998
 30
0.0
 11
341.117098
 21
129.4993129999998
 31
0.0
  0
LINE
  5
9932
330
97EF
100
AcDbEntity
  8
1
  6
Continuous
100
AcDbLine
 10
340.367098
 20
130.2493289999999
 30
0.0
 11
337.8670979999998
 21
130.2493289999999
 31
0.0
  0
LINE
  5
9933
330
97EF
100
AcDbEntity
  8
2
  6
Continuous
100
AcDbLine
 10
339.367098
 20
136.5953369999998
 30
0.0
 11
348.867098
 21
129.4993289999999
 31
0.0
  0
LINE
  5
9934
330
97EF
100
AcDbEntity
  8
2
  6
Continuous
100
AcDbLine
 10
348.867098
 20
137.345337
 30
0.0
 11
337.8670979999998
 21
130.2493289999999
 31
0.0
  0
LINE
  5
9935
330
97EF
100
AcDbEntity
  8
2
  6
Continuous
100
AcDbLine
 10
348.3670979999998
 20
142.0163269999999
 30
0.0
 11
340.711092
 21
142.0163269999999
 31
0.0
  0
LINE
  5
9936
330
97EF
100
AcDbEntity
  8
2
  6
Continuous
100
AcDbLine
 10
348.3670979999998
 20
124.828331
 30
0.0
 11
340.711092
 21
124.828331
 31
0.0
  0
LINE
  5
9937
330
97EF
100
AcDbEntity
  8
4
  6
CENTER
100
AcDbLine
 10
313.8219359999999
 20
133.422333
 30
0.0
 11
289.5499029999998
 21
133.422333
 31
0.0
  0
LINE
  5
9938
330
97EF
100
AcDbEntity
  8
1
  6
Continuous
100
AcDbLine
 10
335.6670799999998
 20
130.706345
 30
0.0
 11
335.167049
 21
130.572372
 31
0.0
  0
LINE
  5
9939
330
97EF
100
AcDbEntity
  8
1
  6
Continuous
100
AcDbLine
 10
335.6670799999998
 20
131.4063419999999
 30
0.0
 11
335.1670799999999
 21
131.272354
 31
0.0
  0
LINE
  5
993A
330
97EF
100
AcDbEntity
  8
1
  6
Continuous
100
AcDbLine
 10
337.6670799999998
 20
136.422333
 30
0.0
 11
335.6670799999998
 21
136.422333
 31
0.0
  0
LINE
  5
993B
330
97EF
100
AcDbEntity
  8
1
  6
Continuous
100
AcDbLine
 10
337.6670799999998
 20
125.422333
 30
0.0
 11
335.6670799999998
 21
125.422333
 31
0.0
  0
LINE
  5
993C
330
97EF
100
AcDbEntity
  8
1
  6
Continuous
100
AcDbLine
 10
216.681704
 20
139.1958469999998
 30
0.0
 11
226.6817039999998
 21
144.969345
 31
0.0
  0
LINE
  5
993D
330
97EF
100
AcDbEntity
  8
1
  6
Continuous
100
AcDbLine
 10
226.6817039999998
 20
121.875336
 30
0.0
 11
231.9592609999999
 21
124.9223329999999
 31
0.0
  0
LINE
  5
993E
330
97EF
100
AcDbEntity
  8
1
  6
Continuous
100
AcDbLine
 10
216.681704
 20
139.1958309999999
 30
0.0
 11
216.681704
 21
127.6488269999999
 31
0.0
  0
LINE
  5
993F
330
97EF
100
AcDbEntity
  8
1
  6
Continuous
100
AcDbLine
 10
226.6817039999998
 20
144.969345
 30
0.0
 11
236.6817039999999
 21
139.1958309999999
 31
0.0
  0
LINE
  5
9940
330
97EF
100
AcDbEntity
  8
1
  6
Continuous
100
AcDbLine
 10
216.681704
 20
127.6488339999998
 30
0.0
 11
226.6817039999998
 21
121.875328
 31
0.0
  0
LINE
  5
9941
330
97EF
100
AcDbEntity
  8
1
  6
Continuous
100
AcDbLine
 10
236.6817039999999
 20
139.1958309999999
 30
0.0
 11
236.6817039999999
 21
136.922333
 31
0.0
  0
LINE
  5
9942
330
97EF
100
AcDbEntity
  8
1
  6
Continuous
100
AcDbLine
 10
156.4296129999999
 20
121.875328
 30
0.0
 11
159.429613
 21
121.875328
 31
0.0
  0
LINE
  5
9943
330
97EF
100
AcDbEntity
  8
1
  6
Continuous
100
AcDbLine
 10
156.4296129999999
 20
144.969345
 30
0.0
 11
159.429613
 21
144.969345
 31
0.0
  0
LINE
  5
9944
330
97EF
100
AcDbEntity
  8
1
  6
Continuous
100
AcDbLine
 10
156.4296129999999
 20
139.1958309999999
 30
0.0
 11
159.429613
 21
139.1958309999999
 31
0.0
  0
LINE
  5
9945
330
97EF
100
AcDbEntity
  8
1
  6
Continuous
100
AcDbLine
 10
156.4296129999999
 20
127.6488269999999
 30
0.0
 11
159.429613
 21
127.6488269999999
 31
0.0
  0
LINE
  5
9946
330
97EF
100
AcDbEntity
  8
1
  6
Continuous
100
AcDbLine
 10
293.933779
 20
139.1958309999999
 30
0.0
 11
296.933779
 21
139.1958309999999
 31
0.0
  0
LINE
  5
9947
330
97EF
100
AcDbEntity
  8
1
  6
Continuous
100
AcDbLine
 10
293.933779
 20
144.969345
 30
0.0
 11
296.933779
 21
144.969345
 31
0.0
  0
LINE
  5
9948
330
97EF
100
AcDbEntity
  8
1
  6
Continuous
100
AcDbLine
 10
293.933779
 20
127.6488269999999
 30
0.0
 11
296.933779
 21
127.6488269999999
 31
0.0
  0
LINE
  5
9949
330
97EF
100
AcDbEntity
  8
1
  6
Continuous
100
AcDbLine
 10
293.933779
 20
121.875328
 30
0.0
 11
296.933779
 21
121.875328
 31
0.0
  0
LINE
  5
994A
330
97EF
100
AcDbEntity
  8
2
  6
Continuous
100
AcDbLine
 10
104.590311
 20
124.422333
 30
0.0
 11
104.996309
 21
124.828331
 31
0.0
  0
LINE
  5
994B
330
97EF
100
AcDbEntity
  8
2
  6
Continuous
100
AcDbLine
 10
104.590304
 20
142.422333
 30
0.0
 11
104.996309
 21
142.0163269999999
 31
0.0
  0
LINE
  5
994C
330
97EF
100
AcDbEntity
  8
2
  6
Continuous
100
AcDbLine
 10
348.7731039999999
 20
124.422333
 30
0.0
 11
348.3670979999998
 21
124.828331
 31
0.0
  0
LINE
  5
994D
330
97EF
100
AcDbEntity
  8
2
  6
Continuous
100
AcDbLine
 10
348.7731039999999
 20
142.422333
 30
0.0
 11
348.3670979999998
 21
142.0163269999999
 31
0.0
  0
CIRCLE
  5
994E
330
97EF
100
AcDbEntity
  8
1
  6
Continuous
100
AcDbCircle
 10
36.900213
 20
133.422333
 30
0.0
 40
10.0
  0
ARC
  5
994F
330
97EF
100
AcDbEntity
  8
1
  6
Continuous
100
AcDbCircle
 10
36.900213
 20
130.922333
 30
0.0
 40
5.0
100
AcDbArc
 50
257.290969
 51
282.7089649999999
  0
CIRCLE
  5
9950
330
97EF
100
AcDbEntity
  8
1
  6
Continuous
100
AcDbCircle
 10
36.900213
 20
130.922333
 30
0.0
 40
5.799999999999998
  0
ARC
  5
9951
330
97EF
100
AcDbEntity
  8
1
  6
Continuous
100
AcDbCircle
 10
36.900213
 20
130.922333
 30
0.0
 40
5.7
100
AcDbArc
 50
281.126867
 51
258.8730759999999
  0
ARC
  5
9952
330
97EF
100
AcDbEntity
  8
1
  6
Continuous
100
AcDbCircle
 10
36.900213
 20
128.722336
 30
0.0
 40
2.5
100
AcDbArc
 50
296.1038669999999
 51
76.11349
  0
ARC
  5
9953
330
97EF
100
AcDbEntity
  8
1
  6
Continuous
100
AcDbCircle
 10
36.900213
 20
128.722336
 30
0.0
 40
2.5
100
AcDbArc
 50
103.886487
 51
243.896083
  0
CIRCLE
  5
9954
330
97EF
100
AcDbEntity
  8
1
  6
Continuous
100
AcDbCircle
 10
36.900213
 20
133.422333
 30
0.0
 40
9.3
  0
ARC
  5
9955
330
97EF
100
AcDbEntity
  8
1
  6
Continuous
100
AcDbCircle
 10
24.900213
 20
220.014236
 30
0.0
 40
0.5
100
AcDbArc
 50
89.99998900000001
 51
179.999978
  0
ARC
  5
9956
330
97EF
100
AcDbEntity
  8
1
  6
Continuous
100
AcDbCircle
 10
26.400213
 20
220.014236
 30
0.0
 40
0.5
100
AcDbArc
 50
0.0
 51
89.99998900000001
  0
ARC
  5
9957
330
97EF
100
AcDbEntity
  8
1
  6
Continuous
100
AcDbCircle
 10
24.900213
 20
213.0142359999999
 30
0.0
 40
0.5
100
AcDbArc
 50
179.999978
 51
269.999973
  0
ARC
  5
9958
330
97EF
100
AcDbEntity
  8
1
  6
Continuous
100
AcDbCircle
 10
26.400213
 20
213.0142359999999
 30
0.0
 40
0.5
100
AcDbArc
 50
269.99997
 51
0.0
  0
ARC
  5
9959
330
97EF
100
AcDbEntity
  8
1
  6
Continuous
100
AcDbCircle
 10
32.06681599999999
 20
227.5142359999999
 30
0.0
 40
1.0
100
AcDbArc
 50
53.13009499999999
 51
89.99998900000001
  0
ARC
  5
995A
330
97EF
100
AcDbEntity
  8
1
  6
Continuous
100
AcDbCircle
 10
27.88081899999999
 20
227.5142359999999
 30
0.0
 40
1.0
100
AcDbArc
 50
89.99998900000001
 51
141.340178
  0
ARC
  5
995B
330
97EF
100
AcDbEntity
  8
1
  6
Continuous
100
AcDbCircle
 10
22.40021299999999
 20
220.6634369999999
 30
0.0
 40
1.0
100
AcDbArc
 50
141.340178
 51
179.999978
  0
ARC
  5
995C
330
97EF
100
AcDbEntity
  8
1
  6
Continuous
100
AcDbCircle
 10
22.40021299999999
 20
212.3650359999998
 30
0.0
 40
1.0
100
AcDbArc
 50
179.999978
 51
218.659777
  0
ARC
  5
995D
330
97EF
100
AcDbEntity
  8
1
  6
Continuous
100
AcDbCircle
 10
27.88081899999999
 20
205.514236
 30
0.0
 40
1.0
100
AcDbArc
 50
218.659781
 51
269.99997
  0
ARC
  5
995E
330
97EF
100
AcDbEntity
  8
1
  6
Continuous
100
AcDbCircle
 10
32.06681599999999
 20
205.514236
 30
0.0
 40
1.0
100
AcDbArc
 50
269.99997
 51
306.869864
  0
ARC
  5
995F
330
97EF
100
AcDbEntity
  8
1
  6
Continuous
100
AcDbCircle
 10
48.900221
 20
220.5142359999999
 30
0.0
 40
0.5
100
AcDbArc
 50
0.0
 51
89.99998900000001
  0
ARC
  5
9960
330
97EF
100
AcDbEntity
  8
1
  6
Continuous
100
AcDbCircle
 10
61.69311
 20
215.0142359999999
 30
0.0
 40
0.5
100
AcDbArc
 50
314.9999649999998
 51
44.999994
  0
ARC
  5
9961
330
97EF
100
AcDbEntity
  8
1
  6
Continuous
100
AcDbCircle
 10
59.193113
 20
212.5142359999999
 30
0.0
 40
0.5
100
AcDbArc
 50
269.99997
 51
314.9999649999998
  0
ARC
  5
9962
330
97EF
100
AcDbEntity
  8
1
  6
Continuous
100
AcDbCircle
 10
118.696312
 20
131.874832
 30
0.0
 40
1.0
100
AcDbArc
 50
0.0
 51
84.99998999999998
  0
ARC
  5
9963
330
97EF
100
AcDbEntity
  8
1
  6
Continuous
100
AcDbCircle
 10
118.696312
 20
129.9699249999999
 30
0.0
 40
1.0
100
AcDbArc
 50
274.999969
 51
0.0
  0
ARC
  5
9964
330
97EF
100
AcDbEntity
  8
1
  6
Continuous
100
AcDbCircle
 10
114.346306
 20
135.772324
 30
0.0
 40
0.35
100
AcDbArc
 50
0.0
 51
179.999978
  0
ARC
  5
9965
330
97EF
100
AcDbEntity
  8
1
  6
Continuous
100
AcDbCircle
 10
114.346306
 20
126.072334
 30
0.0
 40
0.35
100
AcDbArc
 50
179.999978
 51
0.00001
  0
ARC
  5
9966
330
97EF
100
AcDbEntity
  8
1
  6
Continuous
100
AcDbCircle
 10
226.6817039999998
 20
133.422333
 30
0.0
 40
8.25
100
AcDbArc
 50
25.10272099999999
 51
75.97028899999997
  0
ARC
  5
9967
330
97EF
100
AcDbEntity
  8
2
  6
Continuous
100
AcDbCircle
 10
226.6817039999998
 20
133.422333
 30
0.0
 40
9.0
100
AcDbArc
 50
22.88537999999999
 51
33.55731
  0
ARC
  5
9968
330
97EF
100
AcDbEntity
  8
1
  6
Continuous
100
AcDbCircle
 10
226.6817039999998
 20
133.422333
 30
0.0
 40
9.0
100
AcDbArc
 50
205.841879
 51
289.188137
  0
ARC
  5
9969
330
97EF
100
AcDbEntity
  8
1
  6
Continuous
100
AcDbCircle
 10
226.6817039999998
 20
133.422333
 30
0.0
 40
8.25
100
AcDbArc
 50
190.942477
 51
248.246651
  0
ARC
  5
996A
330
97EF
100
AcDbEntity
  8
1
  6
Continuous
100
AcDbCircle
 10
226.6817039999998
 20
133.422333
 30
0.0
 40
8.25
100
AcDbArc
 50
104.029689
 51
169.0574819999999
  0
ARC
  5
996B
330
97EF
100
AcDbEntity
  8
2
  6
Continuous
100
AcDbCircle
 10
226.6817039999998
 20
133.422333
 30
0.0
 40
9.0
100
AcDbArc
 50
77.160415
 51
102.83959
  0
ARC
  5
996C
330
97EF
100
AcDbEntity
  8
1
  6
Continuous
100
AcDbCircle
 10
114.346306
 20
211.6642299999998
 30
0.0
 40
0.35
100
AcDbArc
 50
179.9999639999999
 51
0.00001
  0
ARC
  5
996D
330
97EF
100
AcDbEntity
  8
1
  6
Continuous
100
AcDbCircle
 10
114.346306
 20
221.3642429999999
 30
0.0
 40
0.35
100
AcDbArc
 50
359.999989
 51
179.999978
  0
ARC
  5
996E
330
97EF
100
AcDbEntity
  8
1
  6
Continuous
100
AcDbCircle
 10
118.696305
 20
214.4666289999999
 30
0.0
 40
1.0
100
AcDbArc
 50
359.999989
 51
84.999976
  0
ARC
  5
996F
330
97EF
100
AcDbEntity
  8
1
  6
Continuous
100
AcDbCircle
 10
118.696305
 20
212.5618289999999
 30
0.0
 40
1.0
100
AcDbArc
 50
274.999996
 51
359.999989
  0
ARC
  5
9970
330
97EF
100
AcDbEntity
  8
1
  6
Continuous
100
AcDbCircle
 10
226.6817039999998
 20
130.922333
 30
0.0
 40
6.0
100
AcDbArc
 50
89.99998900000001
 51
269.999973
  0
CIRCLE
  5
9971
330
97EF
100
AcDbEntity
  8
1
  6
Continuous
100
AcDbCircle
 10
233.381716
 20
134.822327
 30
0.0
 40
1.3
  0
ARC
  5
9972
330
97EF
100
AcDbEntity
  8
1
  6
Continuous
100
AcDbCircle
 10
228.6817039999998
 20
130.922333
 30
0.0
 40
20.0
100
AcDbArc
 50
346.2997609999999
 51
13.700198
  0
ARC
  5
9973
330
97EF
100
AcDbEntity
  8
1
  6
Continuous
100
AcDbCircle
 10
247.1411149999999
 20
135.422333
 30
0.0
 40
1.0
100
AcDbArc
 50
13.700198
 51
89.99998900000001
  0
ARC
  5
9974
330
97EF
100
AcDbEntity
  8
1
  6
Continuous
100
AcDbCircle
 10
247.1411149999999
 20
126.4223329999999
 30
0.0
 40
1.0
100
AcDbArc
 50
269.99997
 51
346.2997609999999
  0
CIRCLE
  5
9975
330
97EF
100
AcDbEntity
  8
1
  6
Continuous
100
AcDbCircle
 10
223.681704
 20
130.922333
 30
0.0
 40
2.0
  0
CIRCLE
  5
9976
330
97EF
100
AcDbEntity
  8
1
  6
Continuous
100
AcDbCircle
 10
229.681704
 20
130.922333
 30
0.0
 40
2.0
  0
ARC
  5
9977
330
97EF
100
AcDbEntity
  8
1
  6
Continuous
100
AcDbCircle
 10
230.1817039999999
 20
131.422333
 30
0.0
 40
0.2
100
AcDbArc
 50
179.999978
 51
269.999973
  0
ARC
  5
9978
330
97EF
100
AcDbEntity
  8
1
  6
Continuous
100
AcDbCircle
 10
229.181704
 20
131.422333
 30
0.0
 40
0.2
100
AcDbArc
 50
269.99997
 51
0.0
  0
ARC
  5
9979
330
97EF
100
AcDbEntity
  8
1
  6
Continuous
100
AcDbCircle
 10
229.181704
 20
130.422333
 30
0.0
 40
0.2
100
AcDbArc
 50
0.0
 51
89.99998900000001
  0
ARC
  5
997A
330
97EF
100
AcDbEntity
  8
1
  6
Continuous
100
AcDbCircle
 10
230.1817039999999
 20
130.422333
 30
0.0
 40
0.2
100
AcDbArc
 50
89.99998900000001
 51
179.999978
  0
ARC
  5
997B
330
97EF
100
AcDbEntity
  8
1
  6
Continuous
100
AcDbCircle
 10
224.1817039999999
 20
131.422333
 30
0.0
 40
0.2
100
AcDbArc
 50
179.999978
 51
269.999973
  0
ARC
  5
997C
330
97EF
100
AcDbEntity
  8
1
  6
Continuous
100
AcDbCircle
 10
223.181704
 20
131.422333
 30
0.0
 40
0.2
100
AcDbArc
 50
269.99997
 51
0.0
  0
ARC
  5
997D
330
97EF
100
AcDbEntity
  8
1
  6
Continuous
100
AcDbCircle
 10
223.181704
 20
130.422333
 30
0.0
 40
0.2
100
AcDbArc
 50
0.0
 51
89.99998900000001
  0
ARC
  5
997E
330
97EF
100
AcDbEntity
  8
1
  6
Continuous
100
AcDbCircle
 10
224.1817039999999
 20
130.422333
 30
0.0
 40
0.2
100
AcDbArc
 50
89.99998900000001
 51
179.999978
  0
ARC
  5
997F
330
97EF
100
AcDbEntity
  8
2
  6
Continuous
100
AcDbCircle
 10
226.6817039999998
 20
133.422333
 30
0.0
 40
9.0
100
AcDbArc
 50
154.1579299999999
 51
205.842067
  0
ARC
  5
9980
330
97EF
100
AcDbEntity
  8
1
  6
Continuous
100
AcDbCircle
 10
226.6817039999998
 20
133.422333
 30
0.0
 40
9.0
100
AcDbArc
 50
102.83959
 51
154.1579299999999
  0
ARC
  5
9981
330
97EF
100
AcDbEntity
  8
1
  6
Continuous
100
AcDbCircle
 10
226.6817039999998
 20
133.422333
 30
0.0
 40
9.0
100
AcDbArc
 50
33.55731
 51
77.16039399999998
  0
ARC
  5
9982
330
97EF
100
AcDbEntity
  8
1
  6
Continuous
100
AcDbCircle
 10
226.6817039999998
 20
133.422333
 30
0.0
 40
12.0
100
AcDbArc
 50
14.47751099999998
 51
314.9005169999999
  0
ARC
  5
9983
330
97EF
100
AcDbEntity
  8
1
  6
Continuous
100
AcDbCircle
 10
226.6817039999998
 20
133.422333
 30
0.0
 40
8.593999999999997
100
AcDbArc
 50
24.03288299999999
 51
29.22585000000001
  0
ARC
  5
9984
330
97EF
100
AcDbEntity
  8
2
  6
Continuous
100
AcDbCircle
 10
226.6817039999998
 20
133.422333
 30
0.0
 40
8.593999999999997
100
AcDbArc
 50
29.22585000000001
 51
76.54270600000002
  0
ARC
  5
9985
330
97EF
100
AcDbEntity
  8
1
  6
Continuous
100
AcDbCircle
 10
226.6817039999998
 20
133.422333
 30
0.0
 40
8.593999999999997
100
AcDbArc
 50
76.54270600000002
 51
103.457292
  0
ARC
  5
9986
330
97EF
100
AcDbEntity
  8
2
  6
Continuous
100
AcDbCircle
 10
226.6817039999998
 20
133.422333
 30
0.0
 40
8.593999999999997
100
AcDbArc
 50
103.457292
 51
160.4786409999999
  0
ARC
  5
9987
330
97EF
100
AcDbEntity
  8
1
  6
Continuous
100
AcDbCircle
 10
226.6817039999998
 20
133.422333
 30
0.0
 40
8.593999999999997
100
AcDbArc
 50
160.4786409999999
 51
199.5213689999999
  0
ARC
  5
9988
330
97EF
100
AcDbEntity
  8
2
  6
Continuous
100
AcDbCircle
 10
226.6817039999998
 20
133.422333
 30
0.0
 40
8.593999999999997
100
AcDbArc
 50
199.5213589999998
 51
278.482047
  0
CIRCLE
  5
9989
330
97EF
100
AcDbEntity
  8
1
  6
Continuous
100
AcDbCircle
 10
36.900213
 20
133.422333
 30
0.0
 40
12.0
  0
ARC
  5
998A
330
97EF
100
AcDbEntity
  8
5
  6
PHANTOM
100
AcDbCircle
 10
51.027033
 20
146.3907009999998
 30
0.0
 40
1.0
100
AcDbArc
 50
330.0000129999999
 51
46.29980299999998
  0
ARC
  5
998B
330
97EF
100
AcDbEntity
  8
5
  6
PHANTOM
100
AcDbCircle
 10
37.900213
 20
132.6543879999998
 30
0.0
 40
20.0
100
AcDbArc
 50
46.29980299999998
 51
73.70024100000001
  0
ARC
  5
998C
330
97EF
100
AcDbEntity
  8
5
  6
PHANTOM
100
AcDbCircle
 10
43.232805
 20
150.890701
 30
0.0
 40
1.0
100
AcDbArc
 50
73.70024100000001
 51
150.000025
  0
CIRCLE
  5
998D
330
97EF
100
AcDbEntity
  8
1
  6
Continuous
100
AcDbCircle
 10
229.681704
 20
130.922333
 30
0.0
 40
2.5
  0
CIRCLE
  5
998E
330
97EF
100
AcDbEntity
  8
1
  6
Continuous
100
AcDbCircle
 10
223.681704
 20
130.922333
 30
0.0
 40
2.5
  0
ARC
  5
998F
330
97EF
100
AcDbEntity
  8
1
  6
Continuous
100
AcDbCircle
 10
114.346306
 20
55.180424
 30
0.0
 40
0.35
100
AcDbArc
 50
0.000011
 51
180.000032
  0
ARC
  5
9990
330
97EF
100
AcDbEntity
  8
1
  6
Continuous
100
AcDbCircle
 10
114.346306
 20
45.48042299999997
 30
0.0
 40
0.35
100
AcDbArc
 50
180.000022
 51
0.000011
  0
ARC
  5
9991
330
97EF
100
AcDbEntity
  8
1
  6
Continuous
100
AcDbCircle
 10
16.44080199999999
 20
135.422333
 30
0.0
 40
1.0
100
AcDbArc
 50
90.00000900000001
 51
166.2998069999999
  0
ARC
  5
9992
330
97EF
100
AcDbEntity
  8
1
  6
Continuous
100
AcDbCircle
 10
34.900213
 20
130.922333
 30
0.0
 40
20.0
100
AcDbArc
 50
166.2998069999999
 51
193.700244
  0
ARC
  5
9993
330
97EF
100
AcDbEntity
  8
1
  6
Continuous
100
AcDbCircle
 10
16.44080199999999
 20
126.4223329999999
 30
0.0
 40
1.0
100
AcDbArc
 50
193.700234
 51
270.000032
  0
ARC
  5
9994
330
97EF
100
AcDbEntity
  8
1
  6
Continuous
100
AcDbCircle
 10
334.66708
 20
131.874832
 30
0.0
 40
1.0
100
AcDbArc
 50
95.000008
 51
180.000005
  0
ARC
  5
9995
330
97EF
100
AcDbEntity
  8
1
  6
Continuous
100
AcDbCircle
 10
334.66708
 20
129.9699249999999
 30
0.0
 40
1.0
100
AcDbArc
 50
179.9999909999999
 51
265.0000289999999
  0
ARC
  5
9996
330
97EF
100
AcDbEntity
  8
1
  6
Continuous
100
AcDbCircle
 10
339.0171159999998
 20
135.772324
 30
0.0
 40
0.35
100
AcDbArc
 50
0.000022
 51
98.221287
  0
ARC
  5
9997
330
97EF
100
AcDbEntity
  8
1
  6
Continuous
100
AcDbCircle
 10
339.0171159999998
 20
126.072334
 30
0.0
 40
0.35
100
AcDbArc
 50
179.9999909999999
 51
0.00001
  0
ARC
  5
9998
330
97EF
100
AcDbEntity
  8
1
  6
Continuous
100
AcDbCircle
 10
58.193022
 20
218.5142359999999
 30
0.0
 40
0.5
100
AcDbArc
 50
45.00009799999999
 51
90.0
  0
LINE
  5
9999
330
97EF
100
AcDbEntity
  8
4
  6
CENTER
100
AcDbLine
 10
114.7532999999999
 20
219.5142359999999
 30
0.0
 11
121.2205009999999
 21
219.5142359999999
 31
0.0
  0
LINE
  5
999A
330
97EF
100
AcDbEntity
  8
4
  6
CENTER
100
AcDbLine
 10
114.8206679999999
 20
213.5142359999999
 30
0.0
 11
120.9847149999998
 21
213.5142359999999
 31
0.0
  0
LINE
  5
999B
330
97EF
100
AcDbEntity
  8
1
  6
Continuous
100
AcDbLine
 10
118.196305
 20
221.5142359999999
 30
0.0
 11
118.783509
 21
221.4628299999999
 31
0.0
  0
LINE
  5
999C
330
97EF
100
AcDbEntity
  8
1
  6
Continuous
100
AcDbLine
 10
118.196305
 20
217.5142359999999
 30
0.0
 11
118.7834939999999
 21
217.565643
 31
0.0
  0
LINE
  5
999D
330
97EF
100
AcDbEntity
  8
1
  6
Continuous
100
AcDbLine
 10
117.696305
 20
217.0142359999999
 30
0.0
 11
118.196305
 21
217.0142359999999
 31
0.0
  0
LINE
  5
999E
330
97EF
100
AcDbEntity
  8
1
  6
Continuous
100
AcDbLine
 10
117.696305
 20
222.014236
 30
0.0
 11
118.196305
 21
222.014236
 31
0.0
  0
LINE
  5
999F
330
97EF
100
AcDbEntity
  8
1
  6
Continuous
100
AcDbLine
 10
118.196305
 20
222.014236
 30
0.0
 11
118.196305
 21
217.0142359999999
 31
0.0
  0
LINE
  5
99A0
330
97EF
100
AcDbEntity
  8
1
  6
Continuous
100
AcDbLine
 10
117.696305
 20
219.7302249999999
 30
0.0
 11
118.19629
 21
219.864197
 31
0.0
  0
LINE
  5
99A1
330
97EF
100
AcDbEntity
  8
1
  6
Continuous
100
AcDbLine
 10
117.6962899999999
 20
219.030228
 30
0.0
 11
118.196305
 21
219.1642149999999
 31
0.0
  0
LINE
  5
99A2
330
97EF
100
AcDbEntity
  8
1
  6
Continuous
100
AcDbLine
 10
119.696305
 20
220.466629
 30
0.0
 11
119.696305
 21
218.5618289999999
 31
0.0
  0
ARC
  5
99A3
330
97EF
100
AcDbEntity
  8
1
  6
Continuous
100
AcDbCircle
 10
118.696305
 20
220.466629
 30
0.0
 40
1.0
100
AcDbArc
 50
359.999989
 51
84.999976
  0
ARC
  5
99A4
330
97EF
100
AcDbEntity
  8
1
  6
Continuous
100
AcDbCircle
 10
118.696305
 20
218.5618289999999
 30
0.0
 40
1.0
100
AcDbArc
 50
274.999996
 51
359.999989
  0
LINE
  5
99A5
330
97EF
100
AcDbEntity
  8
1
  6
Continuous
100
AcDbLine
 10
114.3963169999999
 20
44.33042499999999
 30
0.0
 11
114.3963169999999
 21
45.03042599999999
 31
0.0
  0
LINE
  5
99A6
330
97EF
100
AcDbEntity
  8
1
  6
Continuous
100
AcDbLine
 10
118.196305
 20
55.830425
 30
0.0
 11
118.196305
 21
50.830425
 31
0.0
  0
LINE
  5
99A7
330
97EF
100
AcDbEntity
  8
1
  6
Continuous
100
AcDbLine
 10
119.696305
 20
54.282818
 30
0.0
 11
119.696305
 21
52.378017
 31
0.0
  0
ARC
  5
99A8
330
97EF
100
AcDbEntity
  8
1
  6
Continuous
100
AcDbCircle
 10
118.696305
 20
52.378017
 30
0.0
 40
1.0
100
AcDbArc
 50
274.999996
 51
359.999989
  0
LINE
  5
99A9
330
97EF
100
AcDbEntity
  8
1
  6
Continuous
100
AcDbLine
 10
117.696305
 20
50.830425
 30
0.0
 11
118.196305
 21
50.830425
 31
0.0
  0
LINE
  5
99AA
330
97EF
100
AcDbEntity
  8
1
  6
Continuous
100
AcDbLine
 10
117.696305
 20
53.546413
 30
0.0
 11
118.19629
 21
53.680386
 31
0.0
  0
LINE
  5
99AB
330
97EF
100
AcDbEntity
  8
1
  6
Continuous
100
AcDbLine
 10
117.6962899999999
 20
52.846416
 30
0.0
 11
118.196305
 21
52.98040400000001
 31
0.0
  0
LINE
  5
99AC
330
97EF
100
AcDbEntity
  8
1
  6
Continuous
100
AcDbLine
 10
118.196305
 20
51.330425
 30
0.0
 11
118.7834939999999
 21
51.381832
 31
0.0
  0
ARC
  5
99AD
330
97EF
100
AcDbEntity
  8
1
  6
Continuous
100
AcDbCircle
 10
118.696305
 20
54.282818
 30
0.0
 40
1.0
100
AcDbArc
 50
359.999989
 51
84.999976
  0
LINE
  5
99AE
330
97EF
100
AcDbEntity
  8
1
  6
Continuous
100
AcDbLine
 10
117.696305
 20
55.830425
 30
0.0
 11
118.196305
 21
55.830425
 31
0.0
  0
LINE
  5
99AF
330
97EF
100
AcDbEntity
  8
1
  6
Continuous
100
AcDbLine
 10
118.196305
 20
55.330425
 30
0.0
 11
118.783509
 21
55.27901800000001
 31
0.0
  0
ARC
  5
99B0
330
97EF
100
AcDbEntity
  8
1
  6
Continuous
100
AcDbCircle
 10
118.696305
 20
46.37801699999999
 30
0.0
 40
1.0
100
AcDbArc
 50
274.999996
 51
359.999989
  0
ARC
  5
99B1
330
97EF
100
AcDbEntity
  8
1
  6
Continuous
100
AcDbCircle
 10
118.696305
 20
48.282818
 30
0.0
 40
1.0
100
AcDbArc
 50
359.999989
 51
84.999976
  0
LINE
  5
99B2
330
97EF
100
AcDbEntity
  8
1
  6
Continuous
100
AcDbLine
 10
119.696305
 20
48.282818
 30
0.0
 11
119.696305
 21
46.37801699999999
 31
0.0
  0
LINE
  5
99B3
330
97EF
100
AcDbEntity
  8
1
  6
Continuous
100
AcDbLine
 10
117.6962899999999
 20
46.84641599999999
 30
0.0
 11
118.196305
 21
46.980404
 31
0.0
  0
LINE
  5
99B4
330
97EF
100
AcDbEntity
  8
1
  6
Continuous
100
AcDbLine
 10
117.696305
 20
47.546413
 30
0.0
 11
118.19629
 21
47.68038599999999
 31
0.0
  0
LINE
  5
99B5
330
97EF
100
AcDbEntity
  8
1
  6
Continuous
100
AcDbLine
 10
118.196305
 20
49.83042499999999
 30
0.0
 11
118.196305
 21
44.83042499999998
 31
0.0
  0
LINE
  5
99B6
330
97EF
100
AcDbEntity
  8
1
  6
Continuous
100
AcDbLine
 10
117.696305
 20
49.83042499999999
 30
0.0
 11
118.196305
 21
49.83042499999999
 31
0.0
  0
LINE
  5
99B7
330
97EF
100
AcDbEntity
  8
1
  6
Continuous
100
AcDbLine
 10
117.696305
 20
44.83042499999998
 30
0.0
 11
118.196305
 21
44.83042499999998
 31
0.0
  0
LINE
  5
99B8
330
97EF
100
AcDbEntity
  8
1
  6
Continuous
100
AcDbLine
 10
118.196305
 20
45.33042499999999
 30
0.0
 11
118.7834939999999
 21
45.381832
 31
0.0
  0
LINE
  5
99B9
330
97EF
100
AcDbEntity
  8
1
  6
Continuous
100
AcDbLine
 10
118.196305
 20
49.33042499999999
 30
0.0
 11
118.783509
 21
49.279018
 31
0.0
  0
LINE
  5
99BA
330
97EF
100
AcDbEntity
  8
4
  6
CENTER
100
AcDbLine
 10
114.8206679999999
 20
47.33042499999998
 30
0.0
 11
120.9847149999998
 21
47.33042499999998
 31
0.0
  0
LINE
  5
99BB
330
97EF
100
AcDbEntity
  8
4
  6
CENTER
100
AcDbLine
 10
114.7532999999999
 20
53.330425
 30
0.0
 11
121.2205009999999
 21
53.330425
 31
0.0
  0
ARC
  5
99BC
330
97EF
100
AcDbEntity
  8
1
  6
Continuous
100
AcDbCircle
 10
32.01102000000001
 20
220.403017
 30
0.0
 40
0.388957
100
AcDbArc
 50
270.0
 51
90.0
  0
LINE
  5
99BD
330
97EF
100
AcDbEntity
  8
1
  6
Continuous
100
AcDbLine
 10
31.46630599999999
 20
218.459416
 30
0.0
 11
30.204781
 21
218.459416
 31
0.0
  0
LINE
  5
99BE
330
97EF
100
AcDbEntity
  8
1
  6
Continuous
100
AcDbLine
 10
32.39942399999999
 20
218.459416
 30
0.0
 11
32.39942399999999
 21
218.071012
 31
0.0
  0
LINE
  5
99BF
330
97EF
100
AcDbEntity
  8
1
  6
Continuous
100
AcDbLine
 10
30.209518
 20
220.0146129999999
 30
0.0
 11
32.01102000000001
 21
220.0146129999999
 31
0.0
  0
ARC
  5
99C0
330
97EF
100
AcDbEntity
  8
1
  6
Continuous
100
AcDbCircle
 10
30.204781
 20
218.071012
 30
0.0
 40
0.388957
100
AcDbArc
 50
90.0
 51
169.896
  0
ARC
  5
99C1
330
97EF
100
AcDbEntity
  8
1
  6
Continuous
100
AcDbCircle
 10
38.932828
 20
216.5142359999999
 30
0.0
 40
9.254918999999999
100
AcDbArc
 50
169.896
 51
172.2069999999999
  0
ARC
  5
99C2
330
97EF
100
AcDbEntity
  8
1
  6
Continuous
100
AcDbCircle
 10
29.84005999999999
 20
217.759973
 30
0.0
 40
0.077791
100
AcDbArc
 50
172.2069999999999
 51
270.0
  0
ARC
  5
99C3
330
97EF
100
AcDbEntity
  8
1
  6
Continuous
100
AcDbCircle
 10
34.595646
 20
218.071012
 30
0.0
 40
0.388957
100
AcDbArc
 50
10.10399999999999
 51
90.0
  0
ARC
  5
99C4
330
97EF
100
AcDbEntity
  8
1
  6
Continuous
100
AcDbCircle
 10
34.96036699999999
 20
217.759973
 30
0.0
 40
0.077791
100
AcDbArc
 50
270.0
 51
7.792999999999999
  0
ARC
  5
99C5
330
97EF
100
AcDbEntity
  8
1
  6
Continuous
100
AcDbCircle
 10
25.867598
 20
216.5142359999999
 30
0.0
 40
9.254918999999999
100
AcDbArc
 50
7.792999999999999
 51
10.10399999999999
  0
LINE
  5
99C6
330
97EF
100
AcDbEntity
  8
1
  6
Continuous
100
AcDbLine
 10
29.686909
 20
216.90422
 30
0.0
 11
35.11351799999999
 21
216.90422
 31
0.0
  0
LINE
  5
99C7
330
97EF
100
AcDbEntity
  8
1
  6
Continuous
100
AcDbLine
 10
29.84005999999999
 20
217.681029
 30
0.0
 11
34.96036699999999
 21
217.681029
 31
0.0
  0
LINE
  5
99C8
330
97EF
100
AcDbEntity
  8
1
  6
Continuous
100
AcDbLine
 10
34.595646
 20
218.459416
 30
0.0
 11
32.39942399999999
 21
218.459416
 31
0.0
  0
LINE
  5
99C9
330
97EF
100
AcDbEntity
  8
1
  6
Continuous
100
AcDbLine
 10
29.843218
 20
219.2362249999999
 30
0.0
 11
34.712483
 21
219.2362249999999
 31
0.0
  0
LINE
  5
99CA
330
97EF
100
AcDbEntity
  8
1
  6
Continuous
100
AcDbLine
 10
32.01102000000001
 20
220.7930009999998
 30
0.0
 11
30.350038
 21
220.7930009999998
 31
0.0
  0
LINE
  5
99CB
330
97EF
100
AcDbEntity
  8
1
  6
Continuous
100
AcDbLine
 10
32.39942399999999
 20
220.403017
 30
0.0
 11
34.26565999999999
 21
220.403017
 31
0.0
  0
LINE
  5
99CC
330
97EF
100
AcDbEntity
  8
1
  6
Continuous
100
AcDbLine
 10
33.855151
 20
221.187721
 30
0.0
 11
30.57739699999999
 21
222.0671569999999
 31
0.0
  0
LINE
  5
99CD
330
97EF
100
AcDbEntity
  8
1
  6
Continuous
100
AcDbLine
 10
32.39942399999999
 20
223.1850029999999
 30
0.0
 11
32.39942399999999
 21
221.577704
 31
0.0
  0
ARC
  5
99CE
330
97EF
100
AcDbEntity
  8
1
  6
Continuous
100
AcDbCircle
 10
32.39942399999999
 20
221.181405
 30
0.0
 40
2.004309
100
AcDbArc
 50
62.24999999999999
 51
144.462
  0
ARC
  5
99CF
330
97EF
100
AcDbEntity
  8
1
  6
Continuous
100
AcDbCircle
 10
32.39942399999999
 20
221.181405
 30
0.0
 40
2.004309
100
AcDbArc
 50
35.53799999999999
 51
45.69899999999999
  0
LINE
  5
99D0
330
97EF
100
AcDbEntity
  8
1
  6
Continuous
100
AcDbLine
 10
30.26635699999999
 20
211.4602419999999
 30
0.0
 11
33.61989799999999
 21
211.4602419999999
 31
0.0
  0
LINE
  5
99D1
330
97EF
100
AcDbEntity
  8
1
  6
Continuous
100
AcDbLine
 10
33.834626
 20
212.2370509999998
 30
0.0
 11
30.96580100000001
 21
212.2370509999998
 31
0.0
  0
LINE
  5
99D2
330
97EF
100
AcDbEntity
  8
1
  6
Continuous
100
AcDbLine
 10
30.48108499999999
 20
213.0154389999999
 30
0.0
 11
34.317763
 21
213.0154389999999
 31
0.0
  0
LINE
  5
99D3
330
97EF
100
AcDbEntity
  8
1
  6
Continuous
100
AcDbLine
 10
31.46630599999999
 20
214.570635
 30
0.0
 11
29.98215899999999
 21
214.570635
 31
0.0
  0
LINE
  5
99D4
330
97EF
100
AcDbEntity
  8
1
  6
Continuous
100
AcDbLine
 10
32.39942399999999
 20
216.1258319999999
 30
0.0
 11
32.39942399999999
 21
215.349023
 31
0.0
  0
ARC
  5
99D5
330
97EF
100
AcDbEntity
  8
1
  6
Continuous
100
AcDbCircle
 10
32.39942399999999
 20
211.848647
 30
0.0
 40
2.004309
100
AcDbArc
 50
215.5377
 51
256.5374
  0
ARC
  5
99D6
330
97EF
100
AcDbEntity
  8
1
  6
Continuous
100
AcDbCircle
 10
32.39942399999999
 20
211.848647
 30
0.0
 40
2.004309
100
AcDbArc
 50
270.0
 51
324.4619999999998
  0
ARC
  5
99D7
330
97EF
100
AcDbEntity
  8
1
  6
Continuous
100
AcDbCircle
 10
30.96580100000001
 20
212.6270349999999
 30
0.0
 40
0.388957
100
AcDbArc
 50
206.0144
 51
270.0
  0
ARC
  5
99D8
330
97EF
100
AcDbEntity
  8
1
  6
Continuous
100
AcDbCircle
 10
38.932828
 20
216.5142359999999
 30
0.0
 40
9.254918999999999
100
AcDbArc
 50
202.944
 51
206.0144
  0
ARC
  5
99D9
330
97EF
100
AcDbEntity
  8
1
  6
Continuous
100
AcDbCircle
 10
30.48108499999999
 20
212.938074
 30
0.0
 40
0.077791
100
AcDbArc
 50
90.0
 51
202.944
  0
ARC
  5
99DA
330
97EF
100
AcDbEntity
  8
1
  6
Continuous
100
AcDbCircle
 10
33.834626
 20
212.6270349999999
 30
0.0
 40
0.388957
100
AcDbArc
 50
270.0
 51
333.9859999999998
  0
ARC
  5
99DB
330
97EF
100
AcDbEntity
  8
1
  6
Continuous
100
AcDbCircle
 10
29.98215899999999
 20
214.49327
 30
0.0
 40
0.077791
100
AcDbArc
 50
90.0
 51
192.7289
  0
ARC
  5
99DC
330
97EF
100
AcDbEntity
  8
1
  6
Continuous
100
AcDbCircle
 10
38.932828
 20
216.5142359999999
 30
0.0
 40
9.254918999999999
100
AcDbArc
 50
192.7289
 51
193.2680999999999
  0
ARC
  5
99DD
330
97EF
100
AcDbEntity
  8
1
  6
Continuous
100
AcDbCircle
 10
38.932828
 20
216.5142359999999
 30
0.0
 40
9.254918999999999
100
AcDbArc
 50
193.2680999999999
 51
195.2574999999999
  0
ARC
  5
99DE
330
97EF
100
AcDbEntity
  8
1
  6
Continuous
100
AcDbCircle
 10
30.38003699999999
 20
214.182231
 30
0.0
 40
0.388957
100
AcDbArc
 50
195.2574999999999
 51
270.0
  0
ARC
  5
99DF
330
97EF
100
AcDbEntity
  8
1
  6
Continuous
100
AcDbCircle
 10
34.42038999999999
 20
214.182231
 30
0.0
 40
0.388957
100
AcDbArc
 50
270.0
 51
344.7419999999998
  0
ARC
  5
99E0
330
97EF
100
AcDbEntity
  8
1
  6
Continuous
100
AcDbCircle
 10
25.867598
 20
216.5142359999999
 30
0.0
 40
9.254918999999999
100
AcDbArc
 50
344.7419999999998
 51
344.794
  0
ARC
  5
99E1
330
97EF
100
AcDbEntity
  8
1
  6
Continuous
100
AcDbCircle
 10
25.867598
 20
216.5142359999999
 30
0.0
 40
9.254918999999999
100
AcDbArc
 50
344.794
 51
347.2709999999998
  0
ARC
  5
99E2
330
97EF
100
AcDbEntity
  8
1
  6
Continuous
100
AcDbCircle
 10
34.81826799999999
 20
214.49327
 30
0.0
 40
0.077791
100
AcDbArc
 50
347.2709999999998
 51
90.0
  0
LINE
  5
99E3
330
97EF
100
AcDbEntity
  8
1
  6
Continuous
100
AcDbLine
 10
30.38003699999999
 20
213.7922479999998
 30
0.0
 11
34.42038999999999
 21
213.7922479999998
 31
0.0
  0
LINE
  5
99E4
330
97EF
100
AcDbEntity
  8
1
  6
Continuous
100
AcDbLine
 10
34.81826799999999
 20
214.570635
 30
0.0
 11
33.33254199999998
 21
214.570635
 31
0.0
  0
LINE
  5
99E5
330
97EF
100
AcDbEntity
  8
1
  6
Continuous
100
AcDbLine
 10
29.75164299999999
 20
215.349023
 30
0.0
 11
35.04878399999999
 21
215.349023
 31
0.0
  0
LINE
  5
99E6
330
97EF
100
AcDbEntity
  8
1
  6
Continuous
100
AcDbLine
 10
29.686909
 20
216.1258319999999
 30
0.0
 11
35.11351799999999
 21
216.1258319999999
 31
0.0
  0
ARC
  5
99E7
330
97EF
100
AcDbEntity
  8
1
  6
Continuous
100
AcDbCircle
 10
34.317763
 20
212.938074
 30
0.0
 40
0.077791
100
AcDbArc
 50
337.0559999999999
 51
90.0
  0
ARC
  5
99E8
330
97EF
100
AcDbEntity
  8
1
  6
Continuous
100
AcDbCircle
 10
25.867598
 20
216.5142359999999
 30
0.0
 40
9.254918999999999
100
AcDbArc
 50
333.9859999999998
 51
337.0559999999999
  0
ARC
  5
99E9
330
97EF
100
AcDbEntity
  8
1
  6
Continuous
100
AcDbCircle
 10
25.867598
 20
216.5142359999999
 30
0.0
 40
10.032628
100
AcDbArc
 50
324.4619999999998
 51
35.53799999999999
  0
ARC
  5
99EA
330
97EF
100
AcDbEntity
  8
1
  6
Continuous
100
AcDbCircle
 10
38.932828
 20
216.5142359999999
 30
0.0
 40
10.032628
100
AcDbArc
 50
144.462
 51
215.5377
  0
ENDSEC
  0
SECTION
  2
OBJECTS
  0
DICTIONARY
  5
97DD
330
0
100
AcDbDictionary
281
     1
  3
ACAD_CIP_PREVIOUS_PRODUCT_INFO
350
9A4E
  3
ACAD_COLOR
350
9A30
  3
ACAD_DETAILVIEWSTYLE
350
9A49
  3
ACAD_GROUP
350
97DE
  3
ACAD_LAYOUT
350
97EA
  3
ACAD_MATERIAL
350
99FE
  3
ACAD_MLEADERSTYLE
350
9A45
  3
ACAD_MLINESTYLE
350
97E7
  3
ACAD_PLOTSETTINGS
350
97E9
  3
ACAD_PLOTSTYLENAME
350
99FC
  3
ACAD_SCALELIST
350
9A33
  3
ACAD_SECTIONVIEWSTYLE
350
9A47
  3
ACAD_TABLESTYLE
350
9A31
  3
ACAD_VISUALSTYLE
350
9A17
  3
ACDB_RECOMPOSE_DATA
350
9A6C
  3
AcDbVariableDictionary
350
9A5F
  3
DWGPROPS
350
9A6D
  0
DICTIONARY
  5
9A4F
330
97E1
100
AcDbDictionary
280
     1
281
     1
  3
ADSK_XREC_LAYER_RECONCILED
360
9A50
  0
DICTIONARY
  5
9A51
330
97F7
100
AcDbDictionary
280
     1
281
     1
  3
ADSK_XREC_LAYER_RECONCILED
360
9A52
  0
DICTIONARY
  5
9A53
330
97F8
100
AcDbDictionary
280
     1
281
     1
  3
ADSK_XREC_LAYER_RECONCILED
360
9A54
  0
DICTIONARY
  5
9A55
330
97F9
100
AcDbDictionary
280
     1
281
     1
  3
ADSK_XREC_LAYER_RECONCILED
360
9A56
  0
DICTIONARY
  5
9A57
330
97FA
100
AcDbDictionary
280
     1
281
     1
  3
ADSK_XREC_LAYER_RECONCILED
360
9A58
  0
DICTIONARY
  5
9A59
330
97FB
100
AcDbDictionary
280
     1
281
     1
  3
ADSK_XREC_LAYER_RECONCILED
360
9A5A
  0
DICTIONARY
  5
9A5B
330
97FC
100
AcDbDictionary
280
     1
281
     1
  3
ADSK_XREC_LAYER_RECONCILED
360
9A5C
  0
DICTIONARY
  5
9A5D
330
97FD
100
AcDbDictionary
280
     1
281
     1
  3
ADSK_XREC_LAYER_RECONCILED
360
9A5E
  0
DICTIONARY
  5
99F7
330
97EF
100
AcDbDictionary
281
     1
  3
ACAD_LAYOUTSELFREF
350
99F8
  0
DICTIONARY
  5
99F5
330
97EB
100
AcDbDictionary
281
     1
  3
ACAD_LAYOUTSELFREF
350
99F6
  0
XRECORD
  5
9A4E
102
{ACAD_REACTORS
330
97DD
102
}
330
97DD
100
AcDbXrecord
280
     1
300
ACDLT
300
2014
300
ACDLT_F_S
  0
DICTIONARY
  5
9A30
102
{ACAD_REACTORS
330
97DD
102
}
330
97DD
100
AcDbDictionary
281
     1
  0
DICTIONARY
  5
9A49
102
{ACAD_REACTORS
330
97DD
102
}
330
97DD
100
AcDbDictionary
281
     1
  3
Imperial24
350
9A4A
  0
DICTIONARY
  5
97DE
102
{ACAD_REACTORS
330
97DD
102
}
330
97DD
100
AcDbDictionary
281
     1
  0
DICTIONARY
  5
97EA
102
{ACAD_REACTORS
330
97DD
102
}
330
97DD
100
AcDbDictionary
281
     1
  3
Model
350
9A4B
  3
レイアウト1
350
9A4C
  0
DICTIONARY
  5
99FE
102
{ACAD_REACTORS
330
97DD
102
}
330
97DD
100
AcDbDictionary
281
     1
  3
ByBlock
350
9A07
  3
ByLayer
350
99FF
  3
Global
350
9A0F
  0
DICTIONARY
  5
9A45
102
{ACAD_REACTORS
330
97DD
102
}
330
97DD
100
AcDbDictionary
281
     1
  3
Standard
350
9A46
  0
DICTIONARY
  5
97E7
102
{ACAD_REACTORS
330
97DD
102
}
330
97DD
100
AcDbDictionary
281
     1
  3
STANDARD
350
97E8
  0
DICTIONARY
  5
97E9
102
{ACAD_REACTORS
330
97DD
102
}
330
97DD
100
AcDbDictionary
281
     1
  0
ACDBDICTIONARYWDFLT
  5
99FC
102
{ACAD_REACTORS
330
97DD
102
}
330
97DD
100
AcDbDictionary
281
     1
  3
Normal
350
99FD
100
AcDbDictionaryWithDefault
340
99FD
  0
DICTIONARY
  5
9A33
102
{ACAD_REACTORS
330
97DD
102
}
330
97DD
100
AcDbDictionary
281
     1
  3
A0
350
9A34
  3
A1
350
9A35
  3
A2
350
9A36
  3
A3
350
9A37
  3
A4
350
9A38
  3
A5
350
9A39
  3
A6
350
9A3A
  3
A7
350
9A3B
  3
A8
350
9A3C
  3
A9
350
9A3D
  3
B0
350
9A3E
  3
B1
350
9A3F
  3
B2
350
9A40
  3
B3
350
9A41
  3
B4
350
9A42
  3
B5
350
9A43
  3
B6
350
9A44
  0
DICTIONARY
  5
9A47
102
{ACAD_REACTORS
330
97DD
102
}
330
97DD
100
AcDbDictionary
281
     1
  3
Imperial24
350
9A48
  0
DICTIONARY
  5
9A31
102
{ACAD_REACTORS
330
97DD
102
}
330
97DD
100
AcDbDictionary
281
     1
  3
Standard
350
9A32
  0
DICTIONARY
  5
9A17
102
{ACAD_REACTORS
330
97DD
102
}
330
97DD
100
AcDbDictionary
281
     1
  3
2dWireframe
350
9A1D
  3
Basic
350
9A1C
  3
Brighten
350
9A23
  3
ColorChange
350
9A27
  3
Conceptual
350
9A20
  3
Dim
350
9A22
  3
EdgeColorOff
350
9A2F
  3
Facepattern
350
9A26
  3
Flat
350
9A18
  3
FlatWithEdges
350
9A19
  3
Gouraud
350
9A1A
  3
GouraudWithEdges
350
9A1B
  3
Hidden
350
9A1F
  3
JitterOff
350
9A2D
  3
Linepattern
350
9A25
  3
OverhangOff
350
9A2E
  3
Realistic
350
9A21
  3
Shaded
350
9A2C
  3
Shaded with edges
350
9A2B
  3
Shades of Gray
350
9A28
  3
Sketchy
350
9A29
  3
Thicken
350
9A24
  3
Wireframe
350
9A1E
  3
X-Ray
350
9A2A
  0
XRECORD
  5
9A6C
102
{ACAD_REACTORS
330
97DD
102
}
330
97DD
100
AcDbXrecord
280
     1
 90
        1
330
9A32
  0
DICTIONARY
  5
9A5F
102
{ACAD_REACTORS
330
97DD
102
}
330
97DD
100
AcDbDictionary
281
     1
  3
CANNOSCALE
350
9A64
  3
CMLEADERSTYLE
350
9A61
  3
CTABLESTYLE
350
9A60
  3
CVIEWDETAILSTYLE
350
9A62
  3
CVIEWSECTIONSTYLE
350
9A63
  3
DIMASSOC
350
9A67
  3
INDEXCTL
350
9A66
  3
SORTENTS
350
9A65
  3
XCLIPFRAME
350
9A68
  0
XRECORD
  5
9A6D
102
{ACAD_REACTORS
330
97DD
102
}
330
97DD
100
AcDbXrecord
280
     1
  1
DWGPROPS COOKIE
  2

  3

  4

  6

  7

  8
Yoshitsune
  9

300
=
301
=
302
=
303
=
304
=
305
=
306
=
307
=
308
=
309
=
 40
0.0000132291666667
 41
2450945.564096875
 42
2457192.599858171
  1

 90
        0
  0
XRECORD
  5
9A50
102
{ACAD_REACTORS
330
9A4F
102
}
330
9A4F
100
AcDbXrecord
280
     1
290
     1
  0
XRECORD
  5
9A52
102
{ACAD_REACTORS
330
9A51
102
}
330
9A51
100
AcDbXrecord
280
     1
290
     1
  0
XRECORD
  5
9A54
102
{ACAD_REACTORS
330
9A53
102
}
330
9A53
100
AcDbXrecord
280
     1
290
     1
  0
XRECORD
  5
9A56
102
{ACAD_REACTORS
330
9A55
102
}
330
9A55
100
AcDbXrecord
280
     1
290
     1
  0
XRECORD
  5
9A58
102
{ACAD_REACTORS
330
9A57
102
}
330
9A57
100
AcDbXrecord
280
     1
290
     1
  0
XRECORD
  5
9A5A
102
{ACAD_REACTORS
330
9A59
102
}
330
9A59
100
AcDbXrecord
280
     1
290
     1
  0
XRECORD
  5
9A5C
102
{ACAD_REACTORS
330
9A5B
102
}
330
9A5B
100
AcDbXrecord
280
     1
290
     1
  0
XRECORD
  5
9A5E
102
{ACAD_REACTORS
330
9A5D
102
}
330
9A5D
100
AcDbXrecord
280
     1
290
     1
  0
XRECORD
  5
99F8
102
{ACAD_REACTORS
330
99F7
102
}
330
99F7
100
AcDbXrecord
280
     1
340
97EF
  0
XRECORD
  5
99F6
102
{ACAD_REACTORS
330
99F5
102
}
330
99F5
100
AcDbXrecord
280
     1
340
97EB
  0
ACDBDETAILVIEWSTYLE
  5
9A4A
102
{ACAD_XDICTIONARY
360
9AA5
102
}
102
{ACAD_REACTORS
330
9A49
102
}
330
9A49
100
AcDbModelDocViewStyle
 70
     0
  3
Imperial24
290
     0
100
AcDbDetailViewStyle
 70
     0
 71
     0
 90
        3
 71
     1
340
97E2
 40
0.24
340
0
 40
0.24
300

 40
0.36
280
     3
 71
     2
340
97E6
 90
       25
 71
     3
340
97E2
 40
0.24
 90
        1
 40
0.75
 90
        1
300
%<\AcVar ViewType \f "%tc1">% %<\AcVar ViewDetailId>%\PSCALE %<\AcVar ViewScale \f "%sn">%
 71
     4
340
97E6
 90
       25
340
97E6
 90
       25
280
     0
  0
LAYOUT
  5
9A4B
102
{ACAD_XDICTIONARY
360
9AA7
102
}
102
{ACAD_REACTORS
330
97EA
102
}
330
97EA
100
AcDbPlotSettings
  1

  2
Canon LBP9100C
  4

  6

 40
0.0
 41
0.0
 42
0.0
 43
0.0
 44
0.0
 45
0.0
 46
0.0
 47
0.0
 48
0.0
 49
0.0
140
0.0
141
0.0
142
1.0
143
1.0
 70
  1712
 72
     0
 73
     0
 74
     0
  7

 75
     0
147
1.0
148
0.0
149
0.0
100
AcDbLayout
  1
Model
 70
     1
 71
     0
 10
0.0
 20
0.0
 11
12.0
 21
9.0
 12
0.0
 22
0.0
 32
0.0
 14
0.0
 24
0.0
 34
0.0
 15
0.0
 25
0.0
 35
0.0
146
0.0
 13
0.0
 23
0.0
 33
0.0
 16
1.0
 26
0.0
 36
0.0
 17
0.0
 27
1.0
 37
0.0
 76
     0
330
97EF
331
99F4
  0
LAYOUT
  5
9A4C
102
{ACAD_XDICTIONARY
360
9AA9
102
}
102
{ACAD_REACTORS
330
97EA
102
}
330
97EA
100
AcDbPlotSettings
  1

  2
Canon LBP9100C
  4

  6

 40
0.0
 41
0.0
 42
0.0
 43
0.0
 44
0.0
 45
0.0
 46
0.0
 47
0.0
 48
0.0
 49
0.0
140
0.0
141
0.0
142
1.0
143
1.0
 70
   688
 72
     0
 73
     0
 74
     5
  7

 75
    16
147
1.0
148
0.0
149
0.0
100
AcDbLayout
  1
レイアウト1
 70
     0
 71
     1
 10
0.0
 20
0.0
 11
420.0
 21
297.0
 12
0.0
 22
0.0
 32
0.0
 14
1.000000000000000E+20
 24
1.000000000000000E+20
 34
1.000000000000000E+20
 15
-1.000000000000000E+20
 25
-1.000000000000000E+20
 35
-1.000000000000000E+20
146
0.0
 13
0.0
 23
0.0
 33
0.0
 16
1.0
 26
0.0
 36
0.0
 17
0.0
 27
1.0
 37
0.0
 76
     0
330
97EB
  0
MATERIAL
  5
9A07
102
{ACAD_XDICTIONARY
360
9A08
102
}
102
{ACAD_REACTORS
330
99FE
102
}
330
99FE
100
AcDbMaterial
  1
ByBlock
 72
     0
 43
0.0208333333333333
 43
0.0
 43
0.0
 43
0.0
 43
0.0
 43
0.0208333333333333
 43
0.0
 43
0.0
 43
0.0
 43
0.0
 43
1.0
 43
0.0
 43
0.0
 43
0.0
 43
0.0
 43
1.0
 77
     0
 47
0.0208333333333333
 47
0.0
 47
0.0
 47
0.0
 47
0.0
 47
0.0208333333333333
 47
0.0
 47
0.0
 47
0.0
 47
0.0
 47
1.0
 47
0.0
 47
0.0
 47
0.0
 47
0.0
 47
1.0
171
     0
 49
0.0208333333333333
 49
0.0
 49
0.0
 49
0.0
 49
0.0
 49
0.0208333333333333
 49
0.0
 49
0.0
 49
0.0
 49
0.0
 49
1.0
 49
0.0
 49
0.0
 49
0.0
 49
0.0
 49
1.0
175
     0
142
0.0208333333333333
142
0.0
142
0.0
142
0.0
142
0.0
142
0.0208333333333333
142
0.0
142
0.0
142
0.0
142
0.0
142
1.0
142
0.0
142
0.0
142
0.0
142
0.0
142
1.0
179
     0
144
0.0208333333333333
144
0.0
144
0.0
144
0.0
144
0.0
144
0.0208333333333333
144
0.0
144
0.0
144
0.0
144
0.0
144
1.0
144
0.0
144
0.0
144
0.0
144
0.0
144
1.0
147
0.0208333333333333
147
0.0
147
0.0
147
0.0
147
0.0
147
0.0208333333333333
147
0.0
147
0.0
147
0.0
147
0.0
147
1.0
147
0.0
147
0.0
147
0.0
147
0.0
147
1.0
  0
MATERIAL
  5
99FF
102
{ACAD_XDICTIONARY
360
9A00
102
}
102
{ACAD_REACTORS
330
99FE
102
}
330
99FE
100
AcDbMaterial
  1
ByLayer
 72
     0
 43
0.0208333333333333
 43
0.0
 43
0.0
 43
0.0
 43
0.0
 43
0.0208333333333333
 43
0.0
 43
0.0
 43
0.0
 43
0.0
 43
1.0
 43
0.0
 43
0.0
 43
0.0
 43
0.0
 43
1.0
 77
     0
 47
0.0208333333333333
 47
0.0
 47
0.0
 47
0.0
 47
0.0
 47
0.0208333333333333
 47
0.0
 47
0.0
 47
0.0
 47
0.0
 47
1.0
 47
0.0
 47
0.0
 47
0.0
 47
0.0
 47
1.0
171
     0
 49
0.0208333333333333
 49
0.0
 49
0.0
 49
0.0
 49
0.0
 49
0.0208333333333333
 49
0.0
 49
0.0
 49
0.0
 49
0.0
 49
1.0
 49
0.0
 49
0.0
 49
0.0
 49
0.0
 49
1.0
175
     0
142
0.0208333333333333
142
0.0
142
0.0
142
0.0
142
0.0
142
0.0208333333333333
142
0.0
142
0.0
142
0.0
142
0.0
142
1.0
142
0.0
142
0.0
142
0.0
142
0.0
142
1.0
179
     0
144
0.0208333333333333
144
0.0
144
0.0
144
0.0
144
0.0
144
0.0208333333333333
144
0.0
144
0.0
144
0.0
144
0.0
144
1.0
144
0.0
144
0.0
144
0.0
144
0.0
144
1.0
147
0.0208333333333333
147
0.0
147
0.0
147
0.0
147
0.0
147
0.0208333333333333
147
0.0
147
0.0
147
0.0
147
0.0
147
1.0
147
0.0
147
0.0
147
0.0
147
0.0
147
1.0
  0
MATERIAL
  5
9A0F
102
{ACAD_XDICTIONARY
360
9A10
102
}
102
{ACAD_REACTORS
330
99FE
102
}
330
99FE
100
AcDbMaterial
  1
Global
 72
     0
 43
0.0208333333333333
 43
0.0
 43
0.0
 43
0.0
 43
0.0
 43
0.0208333333333333
 43
0.0
 43
0.0
 43
0.0
 43
0.0
 43
1.0
 43
0.0
 43
0.0
 43
0.0
 43
0.0
 43
1.0
 77
     0
 47
0.0208333333333333
 47
0.0
 47
0.0
 47
0.0
 47
0.0
 47
0.0208333333333333
 47
0.0
 47
0.0
 47
0.0
 47
0.0
 47
1.0
 47
0.0
 47
0.0
 47
0.0
 47
0.0
 47
1.0
171
     0
 49
0.0208333333333333
 49
0.0
 49
0.0
 49
0.0
 49
0.0
 49
0.0208333333333333
 49
0.0
 49
0.0
 49
0.0
 49
0.0
 49
1.0
 49
0.0
 49
0.0
 49
0.0
 49
0.0
 49
1.0
175
     0
142
0.0208333333333333
142
0.0
142
0.0
142
0.0
142
0.0
142
0.0208333333333333
142
0.0
142
0.0
142
0.0
142
0.0
142
1.0
142
0.0
142
0.0
142
0.0
142
0.0
142
1.0
179
     0
144
0.0208333333333333
144
0.0
144
0.0
144
0.0
144
0.0
144
0.0208333333333333
144
0.0
144
0.0
144
0.0
144
0.0
144
1.0
144
0.0
144
0.0
144
0.0
144
0.0
144
1.0
147
0.0208333333333333
147
0.0
147
0.0
147
0.0
147
0.0
147
0.0208333333333333
147
0.0
147
0.0
147
0.0
147
0.0
147
1.0
147
0.0
147
0.0
147
0.0
147
0.0
147
1.0
  0
MLEADERSTYLE
  5
9A46
102
{ACAD_REACTORS
330
9A45
102
}
330
9A45
100
AcDbMLeaderStyle
170
     2
171
     1
172
     0
 90
        2
 40
0.0
 41
0.0
173
     1
 91
-1056964608
340
97E4
 92
       -2
290
     1
 42
0.09
291
     1
 43
0.36
  3
Standard
 44
0.18
300

342
97E2
174
     1
178
     6
175
     1
176
     0
 93
-1056964608
 45
0.18
292
     0
297
     0
 46
0.18
 94
-1056964608
 47
1.0
 49
1.0
140
1.0
293
     1
141
0.0
294
     1
177
     0
142
1.0
295
     0
296
     0
143
0.125
1001
ACAD_MLEADERVER
1070
     2
  0
MLINESTYLE
  5
97E8
102
{ACAD_REACTORS
330
97E7
102
}
330
97E7
100
AcDbMlineStyle
  2
STANDARD
 70
     0
  3

 62
   256
 51
90.0
 52
90.0
 71
     2
 49
0.5
 62
   256
  6
BYLAYER
 49
-0.5
 62
   256
  6
BYLAYER
  0
ACDBPLACEHOLDER
  5
99FD
102
{ACAD_REACTORS
330
99FC
102
}
330
99FC
  0
SCALE
  5
9A34
102
{ACAD_REACTORS
330
9A33
102
}
330
9A33
100
AcDbScale
 70
     0
300
1:1
140
1.0
141
1.0
290
     1
  0
SCALE
  5
9A35
102
{ACAD_REACTORS
330
9A33
102
}
330
9A33
100
AcDbScale
 70
     0
300
1/128" = 1'-0"
140
0.0078125
141
12.0
290
     0
  0
SCALE
  5
9A36
102
{ACAD_REACTORS
330
9A33
102
}
330
9A33
100
AcDbScale
 70
     0
300
1/64" = 1'-0"
140
0.015625
141
12.0
290
     0
  0
SCALE
  5
9A37
102
{ACAD_REACTORS
330
9A33
102
}
330
9A33
100
AcDbScale
 70
     0
300
1/32" = 1'-0"
140
0.03125
141
12.0
290
     0
  0
SCALE
  5
9A38
102
{ACAD_REACTORS
330
9A33
102
}
330
9A33
100
AcDbScale
 70
     0
300
1/16" = 1'-0"
140
0.0625
141
12.0
290
     0
  0
SCALE
  5
9A39
102
{ACAD_REACTORS
330
9A33
102
}
330
9A33
100
AcDbScale
 70
     0
300
3/32" = 1'-0"
140
0.09375
141
12.0
290
     0
  0
SCALE
  5
9A3A
102
{ACAD_REACTORS
330
9A33
102
}
330
9A33
100
AcDbScale
 70
     0
300
1/8" = 1'-0"
140
0.125
141
12.0
290
     0
  0
SCALE
  5
9A3B
102
{ACAD_REACTORS
330
9A33
102
}
330
9A33
100
AcDbScale
 70
     0
300
3/16" = 1'-0"
140
0.1875
141
12.0
290
     0
  0
SCALE
  5
9A3C
102
{ACAD_REACTORS
330
9A33
102
}
330
9A33
100
AcDbScale
 70
     0
300
1/4" = 1'-0"
140
0.25
141
12.0
290
     0
  0
SCALE
  5
9A3D
102
{ACAD_REACTORS
330
9A33
102
}
330
9A33
100
AcDbScale
 70
     0
300
3/8" = 1'-0"
140
0.375
141
12.0
290
     0
  0
SCALE
  5
9A3E
102
{ACAD_REACTORS
330
9A33
102
}
330
9A33
100
AcDbScale
 70
     0
300
1/2" = 1'-0"
140
0.5
141
12.0
290
     0
  0
SCALE
  5
9A3F
102
{ACAD_REACTORS
330
9A33
102
}
330
9A33
100
AcDbScale
 70
     0
300
3/4" = 1'-0"
140
0.75
141
12.0
290
     0
  0
SCALE
  5
9A40
102
{ACAD_REACTORS
330
9A33
102
}
330
9A33
100
AcDbScale
 70
     0
300
1" = 1'-0"
140
1.0
141
12.0
290
     0
  0
SCALE
  5
9A41
102
{ACAD_REACTORS
330
9A33
102
}
330
9A33
100
AcDbScale
 70
     0
300
1-1/2" = 1'-0"
140
1.5
141
12.0
290
     0
  0
SCALE
  5
9A42
102
{ACAD_REACTORS
330
9A33
102
}
330
9A33
100
AcDbScale
 70
     0
300
3" = 1'-0"
140
3.0
141
12.0
290
     0
  0
SCALE
  5
9A43
102
{ACAD_REACTORS
330
9A33
102
}
330
9A33
100
AcDbScale
 70
     0
300
6" = 1'-0"
140
6.0
141
12.0
290
     0
  0
SCALE
  5
9A44
102
{ACAD_REACTORS
330
9A33
102
}
330
9A33
100
AcDbScale
 70
     0
300
1'-0" = 1'-0"
140
12.0
141
12.0
290
     0
  0
ACDBSECTIONVIEWSTYLE
  5
9A48
102
{ACAD_XDICTIONARY
360
9AA3
102
}
102
{ACAD_REACTORS
330
9A47
102
}
330
9A47
100
AcDbModelDocViewStyle
 70
     0
  3
Imperial24
290
     0
100
AcDbSectionViewStyle
 70
     0
 71
     0
 90
       78
 71
     1
340
97E2
 40
0.24
340
0
340
0
 40
0.24
300
I, O, Q, S, X, Z
 40
0.48
 90
        3
 40
0.18
 90
        1
 71
     2
340
97E6
 90
       25
340
97E6
 90
       50
 40
0.24
 40
0.0
 40
0.24
 71
     3
340
97E2
 40
0.24
 90
        1
 40
0.75
 90
        1
300
%<\AcVar ViewType \f "%tc1">% %<\AcVar ViewSectionStartId>%-%<\AcVar ViewSectionEndId>%\PSCALE %<\AcVar ViewScale \f "%sn">%
 71
     4
300
ANSI31
 40
1.0
 90
        0
290
     0
290
     0
 90
        6
 40
0.0
 40
1.570796326794896
 40
0.2617993877991494
 40
1.308996938995747
 40
-0.2617993877991494
 40
1.832595714594046
  0
TABLESTYLE
  5
9A32
102
{ACAD_XDICTIONARY
360
9A6A
102
}
102
{ACAD_REACTORS
330
9A31
102
}
330
9A31
100
AcDbTableStyle
  3
Standard
 70
     0
 71
     0
 40
0.06
 41
0.06
280
     0
281
     0
  7
STANDARD
140
0.18
170
     2
 62
     0
 63
     7
283
     0
274
    -2
284
     1
 64
     0
275
    -2
285
     1
 65
     0
276
    -2
286
     1
 66
     0
277
    -2
287
     1
 67
     0
278
    -2
288
     1
 68
     0
279
    -2
289
     1
 69
     0
  7
STANDARD
140
0.25
170
     5
 62
     0
 63
     7
283
     0
274
    -2
284
     1
 64
     0
275
    -2
285
     1
 65
     0
276
    -2
286
     1
 66
     0
277
    -2
287
     1
 67
     0
278
    -2
288
     1
 68
     0
279
    -2
289
     1
 69
     0
  7
STANDARD
140
0.18
170
     5
 62
     0
 63
     7
283
     0
274
    -2
284
     1
 64
     0
275
    -2
285
     1
 65
     0
276
    -2
286
     1
 66
     0
277
    -2
287
     1
 67
     0
278
    -2
288
     1
 68
     0
279
    -2
289
     1
 69
     0
  0
VISUALSTYLE
  5
9A1D
102
{ACAD_XDICTIONARY
360
9A7B
102
}
102
{ACAD_REACTORS
330
9A17
102
}
330
9A17
100
AcDbVisualStyle
  2
2dWireframe
 70
     4
 71
     0
 72
     2
 73
     0
 90
        0
 40
-0.6
 41
-30.0
 62
     5
 63
     7
 74
     1
 91
        4
 64
     7
 65
   257
 75
     1
175
     1
 42
1.0
 92
        0
 66
   257
 43
1.0
 76
     1
 77
     6
 78
     2
 67
     7
 79
     5
170
     0
171
     0
290
     0
174
     0
 93
        1
 44
0.0
173
     0
291
     0
 45
0.0
1001
ACAD
1000
AcDbSavedByObjectVersion
1070
     0
  0
VISUALSTYLE
  5
9A1C
102
{ACAD_XDICTIONARY
360
9A79
102
}
102
{ACAD_REACTORS
330
9A17
102
}
330
9A17
100
AcDbVisualStyle
  2
Basic
 70
     7
 71
     1
 72
     0
 73
     1
 90
        0
 40
-0.6
 41
-30.0
 62
     5
 63
     7
 74
     0
 91
        4
 64
     7
 65
   257
 75
     1
175
     1
 42
1.0
 92
        8
 66
     7
 43
1.0
 76
     1
 77
     6
 78
     2
 67
     7
 79
     5
170
     0
171
     0
290
     0
174
     0
 93
        1
 44
0.0
173
     0
291
     1
 45
0.0
1001
ACAD
1000
AcDbSavedByObjectVersion
1070
     0
  0
VISUALSTYLE
  5
9A23
102
{ACAD_XDICTIONARY
360
9A87
102
}
102
{ACAD_REACTORS
330
9A17
102
}
330
9A17
100
AcDbVisualStyle
  2
Brighten
 70
    12
 71
     2
 72
     2
 73
     0
 90
        0
 40
-0.6
 41
-30.0
 62
     5
 63
     7
 74
     1
 91
        4
 64
     7
 65
   257
 75
     1
175
     1
 42
1.0
 92
        8
 66
     7
 43
1.0
 76
     1
 77
     6
 78
     2
 67
     7
 79
     5
170
     0
171
     0
290
     0
174
     0
 93
        1
 44
50.0
173
     0
291
     1
 45
0.0
1001
ACAD
1000
AcDbSavedByObjectVersion
1070
     0
  0
VISUALSTYLE
  5
9A27
102
{ACAD_XDICTIONARY
360
9A8F
102
}
102
{ACAD_REACTORS
330
9A17
102
}
330
9A17
100
AcDbVisualStyle
  2
ColorChange
 70
    16
 71
     2
 72
     2
 73
     3
 90
        0
 40
-0.6
 41
-30.0
 62
     5
 63
     8
 74
     1
 91
        4
 64
     7
 65
   257
 75
     1
175
     1
 42
1.0
 92
        8
 66
     8
 43
1.0
 76
     1
 77
     6
 78
     2
 67
     7
 79
     5
170
     0
171
     0
290
     0
174
     0
 93
        1
 44
0.0
173
     0
291
     1
 45
0.0
1001
ACAD
1000
AcDbSavedByObjectVersion
1070
     0
  0
VISUALSTYLE
  5
9A20
102
{ACAD_XDICTIONARY
360
9A81
102
}
102
{ACAD_REACTORS
330
9A17
102
}
330
9A17
100
AcDbVisualStyle
  2
Conceptual
 70
     9
 71
     3
 72
     2
 73
     0
 90
        0
 40
-0.6
 41
-30.0
 62
     5
 63
     7
 74
     2
 91
        2
 64
     7
 65
   257
 75
     1
175
     1
 42
179.0
 92
        8
 66
     7
 43
1.0
 76
     1
 77
     6
 78
     2
 67
     7
 79
     3
170
     0
171
     0
290
     0
174
     0
 93
        1
 44
0.0
173
     0
291
     0
 45
0.0
1001
ACAD
1000
AcDbSavedByObjectVersion
1070
     0
  0
VISUALSTYLE
  5
9A22
102
{ACAD_XDICTIONARY
360
9A85
102
}
102
{ACAD_REACTORS
330
9A17
102
}
330
9A17
100
AcDbVisualStyle
  2
Dim
 70
    11
 71
     2
 72
     2
 73
     0
 90
        0
 40
-0.6
 41
-30.0
 62
     5
 63
     7
 74
     1
 91
        4
 64
     7
 65
   257
 75
     1
175
     1
 42
1.0
 92
        8
 66
     7
 43
1.0
 76
     1
 77
     6
 78
     2
 67
     7
 79
     5
170
     0
171
     0
290
     0
174
     0
 93
        1
 44
-50.0
173
     0
291
     1
 45
0.0
1001
ACAD
1000
AcDbSavedByObjectVersion
1070
     0
  0
VISUALSTYLE
  5
9A2F
102
{ACAD_XDICTIONARY
360
9A9F
102
}
102
{ACAD_REACTORS
330
9A17
102
}
330
9A17
100
AcDbVisualStyle
  2
EdgeColorOff
 70
    22
 71
     2
 72
     2
 73
     0
 90
        0
 40
-0.6
 41
-30.0
 62
     5
 63
     7
 74
     1
 91
        4
 64
     7
 65
   257
 75
     1
175
     1
 42
1.0
 92
        8
 66
     7
 43
1.0
 76
     1
 77
     6
 78
     2
 67
     7
 79
     5
170
     0
171
     0
290
     0
174
     0
 93
        1
 44
0.0
173
     0
291
     1
 45
0.0
1001
ACAD
1000
AcDbSavedByObjectVersion
1070
     0
  0
VISUALSTYLE
  5
9A26
102
{ACAD_XDICTIONARY
360
9A8D
102
}
102
{ACAD_REACTORS
330
9A17
102
}
330
9A17
100
AcDbVisualStyle
  2
Facepattern
 70
    15
 71
     2
 72
     2
 73
     0
 90
        0
 40
-0.6
 41
-30.0
 62
     5
 63
     7
 74
     1
 91
        4
 64
     7
 65
   257
 75
     1
175
     1
 42
1.0
 92
        8
 66
     7
 43
1.0
 76
     1
 77
     6
 78
     2
 67
     7
 79
     5
170
     0
171
     0
290
     0
174
     0
 93
        1
 44
0.0
173
     0
291
     1
 45
0.0
1001
ACAD
1000
AcDbSavedByObjectVersion
1070
     0
  0
VISUALSTYLE
  5
9A18
102
{ACAD_XDICTIONARY
360
9A71
102
}
102
{ACAD_REACTORS
330
9A17
102
}
330
9A17
100
AcDbVisualStyle
  2
Flat
 70
     0
 71
     2
 72
     1
 73
     1
 90
        2
 40
-0.6
 41
30.0
 62
     5
 63
     7
 74
     0
 91
        0
 64
     7
 65
   257
 75
     1
175
     1
 42
1.0
 92
        8
 66
     7
 43
1.0
 76
     1
 77
     6
 78
     2
 67
     7
 79
     5
170
     0
171
     0
290
     0
174
     0
 93
       13
 44
0.0
173
     0
291
     1
 45
0.0
1001
ACAD
1000
AcDbSavedByObjectVersion
1070
     0
  0
VISUALSTYLE
  5
9A19
102
{ACAD_XDICTIONARY
360
9A73
102
}
102
{ACAD_REACTORS
330
9A17
102
}
330
9A17
100
AcDbVisualStyle
  2
FlatWithEdges
 70
     1
 71
     2
 72
     1
 73
     1
 90
        2
 40
-0.6
 41
30.0
 62
     5
 63
     7
 74
     1
 91
        0
 64
     7
 65
   257
 75
     1
175
     1
 42
1.0
 92
        0
 66
   257
 43
1.0
 76
     1
 77
     6
 78
     2
 67
     7
 79
     5
170
     0
171
     0
290
     0
174
     0
 93
       13
 44
0.0
173
     0
291
     1
 45
0.0
1001
ACAD
1000
AcDbSavedByObjectVersion
1070
     0
  0
VISUALSTYLE
  5
9A1A
102
{ACAD_XDICTIONARY
360
9A75
102
}
102
{ACAD_REACTORS
330
9A17
102
}
330
9A17
100
AcDbVisualStyle
  2
Gouraud
 70
     2
 71
     2
 72
     2
 73
     1
 90
        2
 40
-0.6
 41
30.0
 62
     5
 63
     7
 74
     0
 91
        0
 64
     7
 65
   257
 75
     1
175
     1
 42
1.0
 92
        0
 66
     7
 43
1.0
 76
     1
 77
     6
 78
     2
 67
     7
 79
     5
170
     0
171
     0
290
     0
174
     0
 93
       13
 44
0.0
173
     0
291
     1
 45
0.0
1001
ACAD
1000
AcDbSavedByObjectVersion
1070
     0
  0
VISUALSTYLE
  5
9A1B
102
{ACAD_XDICTIONARY
360
9A77
102
}
102
{ACAD_REACTORS
330
9A17
102
}
330
9A17
100
AcDbVisualStyle
  2
GouraudWithEdges
 70
     3
 71
     2
 72
     2
 73
     1
 90
        2
 40
-0.6
 41
30.0
 62
     5
 63
     7
 74
     1
 91
        0
 64
     7
 65
   257
 75
     1
175
     1
 42
1.0
 92
        0
 66
   257
 43
1.0
 76
     1
 77
     6
 78
     2
 67
     7
 79
     5
170
     0
171
     0
290
     0
174
     0
 93
       13
 44
0.0
173
     0
291
     1
 45
0.0
1001
ACAD
1000
AcDbSavedByObjectVersion
1070
     0
  0
VISUALSTYLE
  5
9A1F
102
{ACAD_XDICTIONARY
360
9A7F
102
}
102
{ACAD_REACTORS
330
9A17
102
}
330
9A17
100
AcDbVisualStyle
  2
Hidden
 70
     6
 71
     1
 72
     2
 73
     2
 90
        0
 40
-0.6
 41
-30.0
 62
     5
 63
     7
 74
     2
 91
        2
 64
     7
 65
   257
 75
     2
175
     1
 42
40.0
 92
        0
 66
   257
 43
1.0
 76
     1
 77
     6
 78
     2
 67
     7
 79
     3
170
     0
171
     0
290
     0
174
     0
 93
        1
 44
0.0
173
     0
291
     0
 45
0.0
1001
ACAD
1000
AcDbSavedByObjectVersion
1070
     0
  0
VISUALSTYLE
  5
9A2D
102
{ACAD_XDICTIONARY
360
9A9B
102
}
102
{ACAD_REACTORS
330
9A17
102
}
330
9A17
100
AcDbVisualStyle
  2
JitterOff
 70
    20
 71
     2
 72
     2
 73
     0
 90
        0
 40
-0.6
 41
-30.0
 62
     5
 63
     7
 74
     1
 91
        4
 64
     7
 65
   257
 75
     1
175
     1
 42
1.0
 92
       10
 66
     7
 43
1.0
 76
     1
 77
     6
 78
     2
 67
     7
 79
     5
170
     0
171
     0
290
     0
174
     0
 93
        1
 44
0.0
173
     0
291
     1
 45
0.0
1001
ACAD
1000
AcDbSavedByObjectVersion
1070
     0
  0
VISUALSTYLE
  5
9A25
102
{ACAD_XDICTIONARY
360
9A8B
102
}
102
{ACAD_REACTORS
330
9A17
102
}
330
9A17
100
AcDbVisualStyle
  2
Linepattern
 70
    14
 71
     2
 72
     2
 73
     0
 90
        0
 40
-0.6
 41
-30.0
 62
     5
 63
     7
 74
     1
 91
        4
 64
     7
 65
   257
 75
     7
175
     7
 42
1.0
 92
        8
 66
     7
 43
1.0
 76
     1
 77
     6
 78
     2
 67
     7
 79
     5
170
     0
171
     0
290
     0
174
     0
 93
        1
 44
0.0
173
     0
291
     1
 45
0.0
1001
ACAD
1000
AcDbSavedByObjectVersion
1070
     0
  0
VISUALSTYLE
  5
9A2E
102
{ACAD_XDICTIONARY
360
9A9D
102
}
102
{ACAD_REACTORS
330
9A17
102
}
330
9A17
100
AcDbVisualStyle
  2
OverhangOff
 70
    21
 71
     2
 72
     2
 73
     0
 90
        0
 40
-0.6
 41
-30.0
 62
     5
 63
     7
 74
     1
 91
        4
 64
     7
 65
   257
 75
     1
175
     1
 42
1.0
 92
        9
 66
     7
 43
1.0
 76
     1
 77
     6
 78
     2
 67
     7
 79
     5
170
     0
171
     0
290
     0
174
     0
 93
        1
 44
0.0
173
     0
291
     1
 45
0.0
1001
ACAD
1000
AcDbSavedByObjectVersion
1070
     0
  0
VISUALSTYLE
  5
9A21
102
{ACAD_XDICTIONARY
360
9A83
102
}
102
{ACAD_REACTORS
330
9A17
102
}
330
9A17
100
AcDbVisualStyle
  2
Realistic
 70
     8
 71
     2
 72
     3
 73
     0
 90
        2
 40
-0.6
 41
30.0
 62
     5
 63
     7
 74
     0
 91
        0
 64
     7
 65
   257
 75
     1
175
     1
 42
1.0
 92
        8
 66
   257
 43
1.0
 76
     1
 77
     6
 78
     2
 67
     7
 79
     3
170
     0
171
     0
290
     0
174
     0
 93
       13
 44
0.0
173
     0
291
     0
 45
0.0
1001
ACAD
1000
AcDbSavedByObjectVersion
1070
     0
  0
VISUALSTYLE
  5
9A2C
102
{ACAD_XDICTIONARY
360
9A99
102
}
102
{ACAD_REACTORS
330
9A17
102
}
330
9A17
100
AcDbVisualStyle
  2
Shaded
 70
    27
 71
     2
 72
     2
 73
     1
 90
        2
 40
-0.6
 41
30.0
 62
     5
 63
     7
 74
     0
 91
        4
 64
     7
 65
   257
 75
     1
175
     1
 42
1.0
 92
        8
 66
   257
 43
1.0
 76
     1
 77
     6
 78
     2
 67
     8
 79
     3
170
     0
171
     0
290
     0
174
     0
 93
        5
 44
0.0
173
     0
291
     0
 45
0.0
1001
ACAD
1000
AcDbSavedByObjectVersion
1070
     0
  0
VISUALSTYLE
  5
9A2B
102
{ACAD_XDICTIONARY
360
9A97
102
}
102
{ACAD_REACTORS
330
9A17
102
}
330
9A17
100
AcDbVisualStyle
  2
Shaded with edges
 70
    26
 71
     2
 72
     2
 73
     1
 90
        2
 40
-0.6
 41
30.0
 62
     5
 63
     7
 74
     1
 91
       10
 64
     7
 65
   257
 75
     2
175
     1
 42
1.0
 92
        8
 66
   257
 43
1.0
 76
     1
 77
     6
 78
     2
 67
     7
 79
     3
170
     0
171
     0
290
     0
174
     0
 93
        5
 44
0.0
173
     0
291
     0
 45
0.0
1001
ACAD
1000
AcDbSavedByObjectVersion
1070
     0
  0
VISUALSTYLE
  5
9A28
102
{ACAD_XDICTIONARY
360
9A91
102
}
102
{ACAD_REACTORS
330
9A17
102
}
330
9A17
100
AcDbVisualStyle
  2
Shades of Gray
 70
    23
 71
     2
 72
     2
 73
     3
 90
        0
 40
-0.6
 41
-30.0
 62
     5
 63
     7
 74
     2
 91
        2
 64
     7
 65
     7
 75
     1
175
     1
 42
40.0
 92
        8
 66
     7
 43
1.0
 76
     1
 77
     6
 78
     2
 67
     7
 79
     3
170
     0
171
     0
290
     0
174
     0
 93
        1
 44
0.0
173
     0
291
     0
 45
0.0
1001
ACAD
1000
AcDbSavedByObjectVersion
1070
     0
  0
VISUALSTYLE
  5
9A29
102
{ACAD_XDICTIONARY
360
9A93
102
}
102
{ACAD_REACTORS
330
9A17
102
}
330
9A17
100
AcDbVisualStyle
  2
Sketchy
 70
    24
 71
     1
 72
     2
 73
     2
 90
        0
 40
-0.6
 41
-30.0
 62
     5
 63
     7
 74
     2
 91
        2
 64
     7
 65
     7
 75
     1
175
     1
 42
40.0
 92
       11
 66
     7
 43
1.0
 76
     1
 77
     6
 78
     2
 67
     7
 79
     6
170
     0
171
     0
290
     0
174
     0
 93
        1
 44
0.0
173
     0
291
     0
 45
0.0
1001
ACAD
1000
AcDbSavedByObjectVersion
1070
     0
  0
VISUALSTYLE
  5
9A24
102
{ACAD_XDICTIONARY
360
9A89
102
}
102
{ACAD_REACTORS
330
9A17
102
}
330
9A17
100
AcDbVisualStyle
  2
Thicken
 70
    13
 71
     2
 72
     2
 73
     0
 90
        0
 40
-0.6
 41
-30.0
 62
     5
 63
     7
 74
     1
 91
        4
 64
     7
 65
   257
 75
     1
175
     1
 42
1.0
 92
       12
 66
     7
 43
1.0
 76
     1
 77
     6
 78
     2
 67
     7
 79
     5
170
     0
171
     0
290
     0
174
     0
 93
        1
 44
0.0
173
     0
291
     1
 45
0.0
1001
ACAD
1000
AcDbSavedByObjectVersion
1070
     0
  0
VISUALSTYLE
  5
9A1E
102
{ACAD_XDICTIONARY
360
9A7D
102
}
102
{ACAD_REACTORS
330
9A17
102
}
330
9A17
100
AcDbVisualStyle
  2
Wireframe
 70
     5
 71
     0
 72
     2
 73
     0
 90
        0
 40
-0.6
 41
-30.0
 62
     5
 63
     7
 74
     1
 91
        4
 64
     7
 65
   257
 75
     1
175
     1
 42
1.0
 92
        0
 66
   257
 43
1.0
 76
     1
 77
     6
 78
     2
 67
     7
 79
     3
170
     0
171
     0
290
     0
174
     0
 93
        1
 44
0.0
173
     0
291
     0
 45
0.0
1001
ACAD
1000
AcDbSavedByObjectVersion
1070
     0
  0
VISUALSTYLE
  5
9A2A
102
{ACAD_XDICTIONARY
360
9A95
102
}
102
{ACAD_REACTORS
330
9A17
102
}
330
9A17
100
AcDbVisualStyle
  2
X-Ray
 70
    25
 71
     2
 72
     2
 73
     1
 90
        1
 40
0.5
 41
-30.0
 62
     5
 63
     7
 74
     1
 91
        0
 64
     7
 65
   257
 75
     1
175
     1
 42
1.0
 92
        8
 66
     7
 43
1.0
 76
     1
 77
     6
 78
     2
 67
     7
 79
     3
170
     0
171
     0
290
     0
174
     0
 93
       13
 44
0.0
173
     0
291
     0
 45
0.0
1001
ACAD
1000
AcDbSavedByObjectVersion
1070
     0
  0
DICTIONARYVAR
  5
9A64
102
{ACAD_REACTORS
330
9A5F
102
}
330
9A5F
100
DictionaryVariables
280
     0
  1
1:1
  0
DICTIONARYVAR
  5
9A61
102
{ACAD_REACTORS
330
9A5F
102
}
330
9A5F
100
DictionaryVariables
280
     0
  1
STANDARD
  0
DICTIONARYVAR
  5
9A60
102
{ACAD_REACTORS
330
9A5F
102
}
330
9A5F
100
DictionaryVariables
280
     0
  1
STANDARD
  0
DICTIONARYVAR
  5
9A62
102
{ACAD_REACTORS
330
9A5F
102
}
330
9A5F
100
DictionaryVariables
280
     0
  1
Imperial24
  0
DICTIONARYVAR
  5
9A63
102
{ACAD_REACTORS
330
9A5F
102
}
330
9A5F
100
DictionaryVariables
280
     0
  1
Imperial24
  0
DICTIONARYVAR
  5
9A67
102
{ACAD_REACTORS
330
9A5F
102
}
330
9A5F
100
DictionaryVariables
280
     0
  1
1
  0
DICTIONARYVAR
  5
9A66
102
{ACAD_REACTORS
330
9A5F
102
}
330
9A5F
100
DictionaryVariables
280
     0
  1
0
  0
DICTIONARYVAR
  5
9A65
102
{ACAD_REACTORS
330
9A5F
102
}
330
9A5F
100
DictionaryVariables
280
     0
  1
127
  0
DICTIONARYVAR
  5
9A68
102
{ACAD_REACTORS
330
9A5F
102
}
330
9A5F
100
DictionaryVariables
280
     0
  1
2
  0
DICTIONARY
  5
9AA5
330
9A4A
100
AcDbDictionary
280
     1
281
     1
  3
ACAD_XREC_ROUNDTRIP
360
9AA6
  0
DICTIONARY
  5
9AA7
330
9A4B
100
AcDbDictionary
280
     1
281
     1
  3
ACAD_XREC_ROUNDTRIP
360
9AA8
  0
DICTIONARY
  5
9AA9
330
9A4C
100
AcDbDictionary
280
     1
281
     1
  3
ACAD_XREC_ROUNDTRIP
360
9AAA
  0
DICTIONARY
  5
9A08
330
9A07
100
AcDbDictionary
280
     1
281
     1
  3
ACAD_XREC_ROUNDTRIP
360
9A6F
  3
BUMPTILE
360
9A0A
  3
DIFFUSETILE
360
9A09
  3
OPACITYTILE
360
9A0D
  3
REFLECTIONTILE
360
9A0C
  3
REFRACTIONTILE
360
9A0E
  3
SPECULARTILE
360
9A0B
  0
DICTIONARY
  5
9A00
330
99FF
100
AcDbDictionary
280
     1
281
     1
  3
ACAD_XREC_ROUNDTRIP
360
9A6E
  3
BUMPTILE
360
9A02
  3
DIFFUSETILE
360
9A01
  3
OPACITYTILE
360
9A05
  3
REFLECTIONTILE
360
9A04
  3
REFRACTIONTILE
360
9A06
  3
SPECULARTILE
360
9A03
  0
DICTIONARY
  5
9A10
330
9A0F
100
AcDbDictionary
280
     1
281
     1
  3
ACAD_XREC_ROUNDTRIP
360
9A70
  3
BUMPTILE
360
9A12
  3
DIFFUSETILE
360
9A11
  3
OPACITYTILE
360
9A15
  3
REFLECTIONTILE
360
9A14
  3
REFRACTIONTILE
360
9A16
  3
SPECULARTILE
360
9A13
  0
DICTIONARY
  5
9AA3
330
9A48
100
AcDbDictionary
280
     1
281
     1
  3
ACAD_XREC_ROUNDTRIP
360
9AA4
  0
DICTIONARY
  5
9A6A
330
9A32
100
AcDbDictionary
280
     1
281
     1
  3
ACAD_ROUNDTRIP_2008_TABLESTYLE_CELLSTYLEMAP
360
9A6B
  3
ACAD_XREC_ROUNDTRIP
360
9AA1
  0
DICTIONARY
  5
9A7B
330
9A1D
100
AcDbDictionary
280
     1
281
     1
  3
ACAD_XREC_ROUNDTRIP
360
9A7C
  0
DICTIONARY
  5
9A79
330
9A1C
100
AcDbDictionary
280
     1
281
     1
  3
ACAD_XREC_ROUNDTRIP
360
9A7A
  0
DICTIONARY
  5
9A87
330
9A23
100
AcDbDictionary
280
     1
281
     1
  3
ACAD_XREC_ROUNDTRIP
360
9A88
  0
DICTIONARY
  5
9A8F
330
9A27
100
AcDbDictionary
280
     1
281
     1
  3
ACAD_XREC_ROUNDTRIP
360
9A90
  0
DICTIONARY
  5
9A81
330
9A20
100
AcDbDictionary
280
     1
281
     1
  3
ACAD_XREC_ROUNDTRIP
360
9A82
  0
DICTIONARY
  5
9A85
330
9A22
100
AcDbDictionary
280
     1
281
     1
  3
ACAD_XREC_ROUNDTRIP
360
9A86
  0
DICTIONARY
  5
9A9F
330
9A2F
100
AcDbDictionary
280
     1
281
     1
  3
ACAD_XREC_ROUNDTRIP
360
9AA0
  0
DICTIONARY
  5
9A8D
330
9A26
100
AcDbDictionary
280
     1
281
     1
  3
ACAD_XREC_ROUNDTRIP
360
9A8E
  0
DICTIONARY
  5
9A71
330
9A18
100
AcDbDictionary
280
     1
281
     1
  3
ACAD_XREC_ROUNDTRIP
360
9A72
  0
DICTIONARY
  5
9A73
330
9A19
100
AcDbDictionary
280
     1
281
     1
  3
ACAD_XREC_ROUNDTRIP
360
9A74
  0
DICTIONARY
  5
9A75
330
9A1A
100
AcDbDictionary
280
     1
281
     1
  3
ACAD_XREC_ROUNDTRIP
360
9A76
  0
DICTIONARY
  5
9A77
330
9A1B
100
AcDbDictionary
280
     1
281
     1
  3
ACAD_XREC_ROUNDTRIP
360
9A78
  0
DICTIONARY
  5
9A7F
330
9A1F
100
AcDbDictionary
280
     1
281
     1
  3
ACAD_XREC_ROUNDTRIP
360
9A80
  0
DICTIONARY
  5
9A9B
330
9A2D
100
AcDbDictionary
280
     1
281
     1
  3
ACAD_XREC_ROUNDTRIP
360
9A9C
  0
DICTIONARY
  5
9A8B
330
9A25
100
AcDbDictionary
280
     1
281
     1
  3
ACAD_XREC_ROUNDTRIP
360
9A8C
  0
DICTIONARY
  5
9A9D
330
9A2E
100
AcDbDictionary
280
     1
281
     1
  3
ACAD_XREC_ROUNDTRIP
360
9A9E
  0
DICTIONARY
  5
9A83
330
9A21
100
AcDbDictionary
280
     1
281
     1
  3
ACAD_XREC_ROUNDTRIP
360
9A84
  0
DICTIONARY
  5
9A99
330
9A2C
100
AcDbDictionary
280
     1
281
     1
  3
ACAD_XREC_ROUNDTRIP
360
9A9A
  0
DICTIONARY
  5
9A97
330
9A2B
100
AcDbDictionary
280
     1
281
     1
  3
ACAD_XREC_ROUNDTRIP
360
9A98
  0
DICTIONARY
  5
9A91
330
9A28
100
AcDbDictionary
280
     1
281
     1
  3
ACAD_XREC_ROUNDTRIP
360
9A92
  0
DICTIONARY
  5
9A93
330
9A29
100
AcDbDictionary
280
     1
281
     1
  3
ACAD_XREC_ROUNDTRIP
360
9A94
  0
DICTIONARY
  5
9A89
330
9A24
100
AcDbDictionary
280
     1
281
     1
  3
ACAD_XREC_ROUNDTRIP
360
9A8A
  0
DICTIONARY
  5
9A7D
330
9A1E
100
AcDbDictionary
280
     1
281
     1
  3
ACAD_XREC_ROUNDTRIP
360
9A7E
  0
DICTIONARY
  5
9A95
330
9A2A
100
AcDbDictionary
280
     1
281
     1
  3
ACAD_XREC_ROUNDTRIP
360
9A96
  0
XRECORD
  5
9AA6
102
{ACAD_REACTORS
330
9AA5
102
}
330
9AA5
100
AcDbXrecord
280
     1
102
DISPLAYNAME
  1
Imperial24
102
FLAGS
 90
        0
  0
XRECORD
  5
9AA8
102
{ACAD_REACTORS
330
9AA7
102
}
330
9AA7
100
AcDbXrecord
280
     1
102
SHADEPLOT
 70
     0
102
SHADEPLOTRESLEVEL
 70
     2
102
SHADEPLOTCUSTOMDPI
 70
   300
  0
XRECORD
  5
9AAA
102
{ACAD_REACTORS
330
9AA9
102
}
330
9AA9
100
AcDbXrecord
280
     1
102
SHADEPLOT
 70
     0
102
SHADEPLOTRESLEVEL
 70
     2
102
SHADEPLOTCUSTOMDPI
 70
   300
  0
XRECORD
  5
9A6F
102
{ACAD_REACTORS
330
9A08
102
}
330
9A08
100
AcDbXrecord
280
     1
102
MATERIAL
148
0.0
149
0.0
149
0.0
 93
        0
 94
      127
282
     0
 72
     0
 77
     0
171
     0
175
     0
179
     0
273
     0
  0
XRECORD
  5
9A0A
102
{ACAD_REACTORS
330
9A08
102
}
330
9A08
100
AcDbXrecord
280
     1
270
     1
271
     1
  0
XRECORD
  5
9A09
102
{ACAD_REACTORS
330
9A08
102
}
330
9A08
100
AcDbXrecord
280
     1
270
     1
271
     1
  0
XRECORD
  5
9A0D
102
{ACAD_REACTORS
330
9A08
102
}
330
9A08
100
AcDbXrecord
280
     1
270
     1
271
     1
  0
XRECORD
  5
9A0C
102
{ACAD_REACTORS
330
9A08
102
}
330
9A08
100
AcDbXrecord
280
     1
270
     1
271
     1
  0
XRECORD
  5
9A0E
102
{ACAD_REACTORS
330
9A08
102
}
330
9A08
100
AcDbXrecord
280
     1
270
     1
271
     1
  0
XRECORD
  5
9A0B
102
{ACAD_REACTORS
330
9A08
102
}
330
9A08
100
AcDbXrecord
280
     1
270
     1
271
     1
  0
XRECORD
  5
9A6E
102
{ACAD_REACTORS
330
9A00
102
}
330
9A00
100
AcDbXrecord
280
     1
102
MATERIAL
148
0.0
149
0.0
149
0.0
 93
        0
 94
      127
282
     0
 72
     0
 77
     0
171
     0
175
     0
179
     0
273
     0
  0
XRECORD
  5
9A02
102
{ACAD_REACTORS
330
9A00
102
}
330
9A00
100
AcDbXrecord
280
     1
270
     1
271
     1
  0
XRECORD
  5
9A01
102
{ACAD_REACTORS
330
9A00
102
}
330
9A00
100
AcDbXrecord
280
     1
270
     1
271
     1
  0
XRECORD
  5
9A05
102
{ACAD_REACTORS
330
9A00
102
}
330
9A00
100
AcDbXrecord
280
     1
270
     1
271
     1
  0
XRECORD
  5
9A04
102
{ACAD_REACTORS
330
9A00
102
}
330
9A00
100
AcDbXrecord
280
     1
270
     1
271
     1
  0
XRECORD
  5
9A06
102
{ACAD_REACTORS
330
9A00
102
}
330
9A00
100
AcDbXrecord
280
     1
270
     1
271
     1
  0
XRECORD
  5
9A03
102
{ACAD_REACTORS
330
9A00
102
}
330
9A00
100
AcDbXrecord
280
     1
270
     1
271
     1
  0
XRECORD
  5
9A70
102
{ACAD_REACTORS
330
9A10
102
}
330
9A10
100
AcDbXrecord
280
     1
102
MATERIAL
148
0.0
149
0.0
149
0.0
 93
        0
 94
      127
282
     0
 72
     0
 77
     0
171
     0
175
     0
179
     0
273
     0
  0
XRECORD
  5
9A12
102
{ACAD_REACTORS
330
9A10
102
}
330
9A10
100
AcDbXrecord
280
     1
270
     1
271
     1
  0
XRECORD
  5
9A11
102
{ACAD_REACTORS
330
9A10
102
}
330
9A10
100
AcDbXrecord
280
     1
270
     1
271
     1
  0
XRECORD
  5
9A15
102
{ACAD_REACTORS
330
9A10
102
}
330
9A10
100
AcDbXrecord
280
     1
270
     1
271
     1
  0
XRECORD
  5
9A14
102
{ACAD_REACTORS
330
9A10
102
}
330
9A10
100
AcDbXrecord
280
     1
270
     1
271
     1
  0
XRECORD
  5
9A16
102
{ACAD_REACTORS
330
9A10
102
}
330
9A10
100
AcDbXrecord
280
     1
270
     1
271
     1
  0
XRECORD
  5
9A13
102
{ACAD_REACTORS
330
9A10
102
}
330
9A10
100
AcDbXrecord
280
     1
270
     1
271
     1
  0
XRECORD
  5
9AA4
102
{ACAD_REACTORS
330
9AA3
102
}
330
9AA3
100
AcDbXrecord
280
     1
102
DISPLAYNAME
  1
Imperial24
102
FLAGS
 90
        0
  0
CELLSTYLEMAP
  5
9A6B
102
{ACAD_REACTORS
330
9A6A
102
}
330
9A6A
100
AcDbCellStyleMap
 90
        3
300
CELLSTYLE
  1
TABLEFORMAT_BEGIN
 90
        5
170
     1
 91
        0
 92
    32768
 62
   257
 93
        1
300
CONTENTFORMAT
  1
CONTENTFORMAT_BEGIN
 90
        0
 91
        0
 92
      512
 93
        0
300

 40
0.0
140
1.0
 94
        5
 62
     0
340
97E2
144
0.25
309
CONTENTFORMAT_END
171
     0
 94
        0
309
TABLEFORMAT_END
  1
CELLSTYLE_BEGIN
 90
        1
 91
        1
300
_TITLE
309
CELLSTYLE_END
300
CELLSTYLE
  1
TABLEFORMAT_BEGIN
 90
        5
170
     1
 91
        0
 92
        0
 62
   257
 93
        1
300
CONTENTFORMAT
  1
CONTENTFORMAT_BEGIN
 90
        0
 91
        0
 92
      512
 93
        0
300

 40
0.0
140
1.0
 94
        5
 62
     0
340
97E2
144
0.18
309
CONTENTFORMAT_END
171
     0
 94
        0
309
TABLEFORMAT_END
  1
CELLSTYLE_BEGIN
 90
        2
 91
        1
300
_HEADER
309
CELLSTYLE_END
300
CELLSTYLE
  1
TABLEFORMAT_BEGIN
 90
        5
170
     1
 91
        0
 92
        0
 62
   257
 93
        1
300
CONTENTFORMAT
  1
CONTENTFORMAT_BEGIN
 90
        0
 91
        0
 92
      512
 93
        0
300

 40
0.0
140
1.0
 94
        2
 62
     0
340
97E2
144
0.18
309
CONTENTFORMAT_END
171
     0
 94
        0
309
TABLEFORMAT_END
  1
CELLSTYLE_BEGIN
 90
        3
 91
        2
300
_DATA
309
CELLSTYLE_END
  0
XRECORD
  5
9AA1
102
{ACAD_REACTORS
330
9A6A
102
}
330
9A6A
100
AcDbXrecord
280
     1
102
ACAD_ROUNDTRIP_PRE2007_TABLESTYLE
 90
      512
 91
        0
  1

 92
      512
 93
        0
  2

 94
      512
 95
        0
  3

  0
XRECORD
  5
9A7C
102
{ACAD_REACTORS
330
9A7B
102
}
330
9A7B
100
AcDbXrecord
280
     1
102
RTVSPost2010Prop28
280
     1
102
RTVSPost2010PropOp28
 70
     1
102
RTVSPost2010Prop29
280
     1
102
RTVSPost2010PropOp29
 70
     1
102
RTVSPost2010Prop30
280
     0
102
RTVSPost2010PropOp30
 70
     1
102
RTVSPost2010Prop31
280
     0
102
RTVSPost2010PropOp31
 70
     1
102
RTVSPost2010Prop32
280
     0
102
RTVSPost2010PropOp32
 70
     1
102
RTVSPost2010Prop33
280
     0
102
RTVSPost2010PropOp33
 70
     1
102
RTVSPost2010Prop34
280
     0
102
RTVSPost2010PropOp34
 70
     1
102
RTVSPost2010Prop35
280
     0
102
RTVSPost2010PropOp35
 70
     1
102
RTVSPost2010Prop36
280
     0
102
RTVSPost2010PropOp36
 70
     1
102
RTVSPost2010Prop37
 90
       50
102
RTVSPost2010PropOp37
 70
     1
102
RTVSPost2010Prop38
140
0.0
102
RTVSPost2010PropOp38
 70
     1
102
RTVSPost2010Prop39
140
1.0
102
RTVSPost2010PropOp39
 70
     1
102
RTVSPost2010Prop40
 90
        0
102
RTVSPost2010PropOp40
 70
     1
102
RTVSPost2010Prop41ColorIndex
 90
       18
102
RTVSPost2010Prop41ColorRGB
 90
        0
102
RTVSPost2010PropOp41
 70
     1
102
RTVSPost2010Prop42
 90
       50
102
RTVSPost2010PropOp42
 70
     1
102
RTVSPost2010Prop43
 90
        3
102
RTVSPost2010PropOp43
 70
     1
102
RTVSPost2010Prop44ColorIndex
 90
        5
102
RTVSPost2010Prop44ColorRGB
 90
      255
102
RTVSPost2010PropOp44
 70
     1
102
RTVSPost2010Prop45
280
     0
102
RTVSPost2010PropOp45
 70
     1
102
RTVSPost2010Prop46
 90
       50
102
RTVSPost2010PropOp46
 70
     1
102
RTVSPost2010Prop47
 90
       50
102
RTVSPost2010PropOp47
 70
     1
102
RTVSPost2010Prop48
 90
       50
102
RTVSPost2010PropOp48
 70
     1
102
RTVSPost2010Prop49
280
     0
102
RTVSPost2010PropOp49
 70
     1
102
RTVSPost2010Prop50
 90
       50
102
RTVSPost2010PropOp50
 70
     1
102
RTVSPost2010Prop51ColorIndex
 90
      256
102
RTVSPost2010Prop51ColorRGB
 90
-16777216
102
RTVSPost2010PropOp51
 70
     0
102
RTVSPost2010Prop52
140
1.0
102
RTVSPost2010PropOp52
 70
     0
102
RTVSPost2010Prop53
 90
        2
102
RTVSPost2010PropOp53
 70
     1
102
RTVSPost2010Prop54
  1
strokes_ogs.tif
102
RTVSPost2010PropOp54
 70
     1
102
RTVSPost2010Prop55
280
     0
102
RTVSPost2010PropOp55
 70
     1
102
RTVSPost2010Prop56
140
1.0
102
RTVSPost2010PropOp56
 70
     1
102
RTVSPost2010Prop57
140
1.0
102
RTVSPost2010PropOp57
 70
     1
102
RTVSPropertyOp0
 70
     1
102
RTVSPropertyOp1
 70
     1
102
RTVSPropertyOp2
 70
     1
102
RTVSPropertyOp3
 70
     1
102
RTVSPropertyOp4
 70
     1
102
RTVSPropertyOp5
 70
     1
102
RTVSPropertyOp6
 70
     1
102
RTVSPropertyOp7
 70
     1
102
RTVSPropertyOp8
 70
     1
102
RTVSPropertyOp9
 70
     1
102
RTVSPropertyOp10
 70
     1
102
RTVSPropertyOp11
 70
     1
102
RTVSPropertyOp12
 70
     1
102
RTVSPropertyOp13
 70
     1
102
RTVSPropertyOp14
 70
     1
102
RTVSPropertyOp15
 70
     1
102
RTVSPropertyOp16
 70
     1
102
RTVSPropertyOp17
 70
     1
102
RTVSPropertyOp18
 70
     1
102
RTVSPropertyOp19
 70
     1
102
RTVSPropertyOp20
 70
     1
102
RTVSPropertyOp21
 70
     1
102
RTVSPropertyOp22
 70
     1
102
RTVSPropertyOp23
 70
     1
102
RTVSPropertyOp24
 70
     1
102
RTVSPropertyOp25
 70
     1
102
RTVSPropertyOp26
 70
     1
102
RTVSPropertyOp27
 70
     1
102
RTVSPropertyOp28
 70
     1
102
RTVSPropertyOp29
 70
     1
102
RTVSPropertyOp30
 70
     1
102
RTVSPropertyOp31
 70
     1
102
RTVSPropertyOp32
 70
     1
102
RTVSPropertyOp33
 70
     1
102
RTVSPropertyOp34
 70
     1
102
RTVSPropertyOp35
 70
     1
102
RTVSPropertyOp36
 70
     1
102
RTVSPropertyOp37
 70
     1
102
RTVSPropertyOp38
 70
     1
102
RTVSPropertyOp39
 70
     1
102
RTVSPropertyOp40
 70
     1
102
RTVSPropertyOp41
 70
     1
102
RTVSPropertyOp42
 70
     1
102
RTVSPropertyOp43
 70
     1
102
RTVSPropertyOp44
 70
     1
102
RTVSPropertyOp45
 70
     1
102
RTVSPropertyOp46
 70
     1
102
RTVSPropertyOp47
 70
     1
102
RTVSPropertyOp48
 70
     1
102
RTVSPropertyOp49
 70
     1
102
RTVSPropertyOp50
 70
     1
102
RTVSPropertyOp51
 70
     0
102
RTVSPropertyOp52
 70
     0
102
RTVSPropertyOp53
 70
     1
102
RTVSPropertyOp54
 70
     1
102
RTVSPropertyOp55
 70
     1
102
RTVSPropertyOp56
 70
     1
102
RTVSPropertyOp57
 70
     1
102
RTVSPropertyOp58
 70
     1
102
RTVSPropertyOp59
 70
     1
102
RTVSPropertyOp60
 70
     1
102
RTVSPropertyOp61
 70
     1
102
RTVSPropertyOp62
 70
     1
  0
XRECORD
  5
9A7A
102
{ACAD_REACTORS
330
9A79
102
}
330
9A79
100
AcDbXrecord
280
     1
102
RTVSPost2010Prop28
280
     0
102
RTVSPost2010PropOp28
 70
     1
102
RTVSPost2010Prop29
280
     1
102
RTVSPost2010PropOp29
 70
     1
102
RTVSPost2010Prop30
280
     1
102
RTVSPost2010PropOp30
 70
     1
102
RTVSPost2010Prop31
280
     0
102
RTVSPost2010PropOp31
 70
     1
102
RTVSPost2010Prop32
280
     0
102
RTVSPost2010PropOp32
 70
     1
102
RTVSPost2010Prop33
280
     0
102
RTVSPost2010PropOp33
 70
     1
102
RTVSPost2010Prop34
280
     0
102
RTVSPost2010PropOp34
 70
     1
102
RTVSPost2010Prop35
280
     0
102
RTVSPost2010PropOp35
 70
     1
102
RTVSPost2010Prop36
280
     0
102
RTVSPost2010PropOp36
 70
     1
102
RTVSPost2010Prop37
 90
       50
102
RTVSPost2010PropOp37
 70
     1
102
RTVSPost2010Prop38
140
0.0
102
RTVSPost2010PropOp38
 70
     1
102
RTVSPost2010Prop39
140
1.0
102
RTVSPost2010PropOp39
 70
     1
102
RTVSPost2010Prop40
 90
        0
102
RTVSPost2010PropOp40
 70
     1
102
RTVSPost2010Prop41ColorIndex
 90
       18
102
RTVSPost2010Prop41ColorRGB
 90
        0
102
RTVSPost2010PropOp41
 70
     1
102
RTVSPost2010Prop42
 90
       50
102
RTVSPost2010PropOp42
 70
     1
102
RTVSPost2010Prop43
 90
        3
102
RTVSPost2010PropOp43
 70
     1
102
RTVSPost2010Prop44ColorIndex
 90
        5
102
RTVSPost2010Prop44ColorRGB
 90
      255
102
RTVSPost2010PropOp44
 70
     1
102
RTVSPost2010Prop45
280
     0
102
RTVSPost2010PropOp45
 70
     1
102
RTVSPost2010Prop46
 90
       50
102
RTVSPost2010PropOp46
 70
     1
102
RTVSPost2010Prop47
 90
       50
102
RTVSPost2010PropOp47
 70
     1
102
RTVSPost2010Prop48
 90
       50
102
RTVSPost2010PropOp48
 70
     1
102
RTVSPost2010Prop49
280
     0
102
RTVSPost2010PropOp49
 70
     1
102
RTVSPost2010Prop50
 90
       50
102
RTVSPost2010PropOp50
 70
     1
102
RTVSPost2010Prop51ColorIndex
 90
      256
102
RTVSPost2010Prop51ColorRGB
 90
-16777216
102
RTVSPost2010PropOp51
 70
     0
102
RTVSPost2010Prop52
140
1.0
102
RTVSPost2010PropOp52
 70
     0
102
RTVSPost2010Prop53
 90
        2
102
RTVSPost2010PropOp53
 70
     1
102
RTVSPost2010Prop54
  1
strokes_ogs.tif
102
RTVSPost2010PropOp54
 70
     1
102
RTVSPost2010Prop55
280
     0
102
RTVSPost2010PropOp55
 70
     1
102
RTVSPost2010Prop56
140
1.0
102
RTVSPost2010PropOp56
 70
     1
102
RTVSPost2010Prop57
140
1.0
102
RTVSPost2010PropOp57
 70
     1
102
RTVSPropertyOp0
 70
     1
102
RTVSPropertyOp1
 70
     1
102
RTVSPropertyOp2
 70
     1
102
RTVSPropertyOp3
 70
     1
102
RTVSPropertyOp4
 70
     1
102
RTVSPropertyOp5
 70
     1
102
RTVSPropertyOp6
 70
     1
102
RTVSPropertyOp7
 70
     1
102
RTVSPropertyOp8
 70
     1
102
RTVSPropertyOp9
 70
     1
102
RTVSPropertyOp10
 70
     1
102
RTVSPropertyOp11
 70
     1
102
RTVSPropertyOp12
 70
     1
102
RTVSPropertyOp13
 70
     1
102
RTVSPropertyOp14
 70
     1
102
RTVSPropertyOp15
 70
     1
102
RTVSPropertyOp16
 70
     1
102
RTVSPropertyOp17
 70
     1
102
RTVSPropertyOp18
 70
     1
102
RTVSPropertyOp19
 70
     1
102
RTVSPropertyOp20
 70
     1
102
RTVSPropertyOp21
 70
     1
102
RTVSPropertyOp22
 70
     1
102
RTVSPropertyOp23
 70
     1
102
RTVSPropertyOp24
 70
     1
102
RTVSPropertyOp25
 70
     1
102
RTVSPropertyOp26
 70
     1
102
RTVSPropertyOp27
 70
     1
102
RTVSPropertyOp28
 70
     1
102
RTVSPropertyOp29
 70
     1
102
RTVSPropertyOp30
 70
     1
102
RTVSPropertyOp31
 70
     1
102
RTVSPropertyOp32
 70
     1
102
RTVSPropertyOp33
 70
     1
102
RTVSPropertyOp34
 70
     1
102
RTVSPropertyOp35
 70
     1
102
RTVSPropertyOp36
 70
     1
102
RTVSPropertyOp37
 70
     1
102
RTVSPropertyOp38
 70
     1
102
RTVSPropertyOp39
 70
     1
102
RTVSPropertyOp40
 70
     1
102
RTVSPropertyOp41
 70
     1
102
RTVSPropertyOp42
 70
     1
102
RTVSPropertyOp43
 70
     1
102
RTVSPropertyOp44
 70
     1
102
RTVSPropertyOp45
 70
     1
102
RTVSPropertyOp46
 70
     1
102
RTVSPropertyOp47
 70
     1
102
RTVSPropertyOp48
 70
     1
102
RTVSPropertyOp49
 70
     1
102
RTVSPropertyOp50
 70
     1
102
RTVSPropertyOp51
 70
     0
102
RTVSPropertyOp52
 70
     0
102
RTVSPropertyOp53
 70
     1
102
RTVSPropertyOp54
 70
     1
102
RTVSPropertyOp55
 70
     1
102
RTVSPropertyOp56
 70
     1
102
RTVSPropertyOp57
 70
     1
102
RTVSPropertyOp58
 70
     1
102
RTVSPropertyOp59
 70
     1
102
RTVSPropertyOp60
 70
     1
102
RTVSPropertyOp61
 70
     1
102
RTVSPropertyOp62
 70
     1
  0
XRECORD
  5
9A88
102
{ACAD_REACTORS
330
9A87
102
}
330
9A87
100
AcDbXrecord
280
     1
102
RTVSPost2010Prop28
280
     0
102
RTVSPost2010PropOp28
 70
     1
102
RTVSPost2010Prop29
280
     1
102
RTVSPost2010PropOp29
 70
     1
102
RTVSPost2010Prop30
280
     1
102
RTVSPost2010PropOp30
 70
     1
102
RTVSPost2010Prop31
280
     0
102
RTVSPost2010PropOp31
 70
     1
102
RTVSPost2010Prop32
280
     0
102
RTVSPost2010PropOp32
 70
     1
102
RTVSPost2010Prop33
280
     0
102
RTVSPost2010PropOp33
 70
     1
102
RTVSPost2010Prop34
280
     0
102
RTVSPost2010PropOp34
 70
     1
102
RTVSPost2010Prop35
280
     0
102
RTVSPost2010PropOp35
 70
     1
102
RTVSPost2010Prop36
280
     0
102
RTVSPost2010PropOp36
 70
     1
102
RTVSPost2010Prop37
 90
       50
102
RTVSPost2010PropOp37
 70
     1
102
RTVSPost2010Prop38
140
0.0
102
RTVSPost2010PropOp38
 70
     1
102
RTVSPost2010Prop39
140
1.0
102
RTVSPost2010PropOp39
 70
     1
102
RTVSPost2010Prop40
 90
        0
102
RTVSPost2010PropOp40
 70
     1
102
RTVSPost2010Prop41ColorIndex
 90
       18
102
RTVSPost2010Prop41ColorRGB
 90
        0
102
RTVSPost2010PropOp41
 70
     1
102
RTVSPost2010Prop42
 90
       50
102
RTVSPost2010PropOp42
 70
     1
102
RTVSPost2010Prop43
 90
        3
102
RTVSPost2010PropOp43
 70
     1
102
RTVSPost2010Prop44ColorIndex
 90
        5
102
RTVSPost2010Prop44ColorRGB
 90
      255
102
RTVSPost2010PropOp44
 70
     1
102
RTVSPost2010Prop45
280
     0
102
RTVSPost2010PropOp45
 70
     1
102
RTVSPost2010Prop46
 90
       50
102
RTVSPost2010PropOp46
 70
     1
102
RTVSPost2010Prop47
 90
       50
102
RTVSPost2010PropOp47
 70
     1
102
RTVSPost2010Prop48
 90
       50
102
RTVSPost2010PropOp48
 70
     1
102
RTVSPost2010Prop49
280
     0
102
RTVSPost2010PropOp49
 70
     1
102
RTVSPost2010Prop50
 90
       50
102
RTVSPost2010PropOp50
 70
     1
102
RTVSPost2010Prop51ColorIndex
 90
      256
102
RTVSPost2010Prop51ColorRGB
 90
-16777216
102
RTVSPost2010PropOp51
 70
     0
102
RTVSPost2010Prop52
140
1.0
102
RTVSPost2010PropOp52
 70
     0
102
RTVSPost2010Prop53
 90
        2
102
RTVSPost2010PropOp53
 70
     1
102
RTVSPost2010Prop54
  1
strokes_ogs.tif
102
RTVSPost2010PropOp54
 70
     1
102
RTVSPost2010Prop55
280
     0
102
RTVSPost2010PropOp55
 70
     1
102
RTVSPost2010Prop56
140
1.0
102
RTVSPost2010PropOp56
 70
     1
102
RTVSPost2010Prop57
140
1.0
102
RTVSPost2010PropOp57
 70
     1
102
RTVSPropertyOp0
 70
     1
102
RTVSPropertyOp1
 70
     1
102
RTVSPropertyOp2
 70
     1
102
RTVSPropertyOp3
 70
     1
102
RTVSPropertyOp4
 70
     1
102
RTVSPropertyOp5
 70
     1
102
RTVSPropertyOp6
 70
     1
102
RTVSPropertyOp7
 70
     1
102
RTVSPropertyOp8
 70
     1
102
RTVSPropertyOp9
 70
     1
102
RTVSPropertyOp10
 70
     1
102
RTVSPropertyOp11
 70
     1
102
RTVSPropertyOp12
 70
     1
102
RTVSPropertyOp13
 70
     1
102
RTVSPropertyOp14
 70
     1
102
RTVSPropertyOp15
 70
     1
102
RTVSPropertyOp16
 70
     1
102
RTVSPropertyOp17
 70
     1
102
RTVSPropertyOp18
 70
     1
102
RTVSPropertyOp19
 70
     1
102
RTVSPropertyOp20
 70
     1
102
RTVSPropertyOp21
 70
     1
102
RTVSPropertyOp22
 70
     1
102
RTVSPropertyOp23
 70
     1
102
RTVSPropertyOp24
 70
     1
102
RTVSPropertyOp25
 70
     1
102
RTVSPropertyOp26
 70
     1
102
RTVSPropertyOp27
 70
     1
102
RTVSPropertyOp28
 70
     1
102
RTVSPropertyOp29
 70
     1
102
RTVSPropertyOp30
 70
     1
102
RTVSPropertyOp31
 70
     1
102
RTVSPropertyOp32
 70
     1
102
RTVSPropertyOp33
 70
     1
102
RTVSPropertyOp34
 70
     1
102
RTVSPropertyOp35
 70
     1
102
RTVSPropertyOp36
 70
     1
102
RTVSPropertyOp37
 70
     1
102
RTVSPropertyOp38
 70
     1
102
RTVSPropertyOp39
 70
     1
102
RTVSPropertyOp40
 70
     1
102
RTVSPropertyOp41
 70
     1
102
RTVSPropertyOp42
 70
     1
102
RTVSPropertyOp43
 70
     1
102
RTVSPropertyOp44
 70
     1
102
RTVSPropertyOp45
 70
     1
102
RTVSPropertyOp46
 70
     1
102
RTVSPropertyOp47
 70
     1
102
RTVSPropertyOp48
 70
     1
102
RTVSPropertyOp49
 70
     1
102
RTVSPropertyOp50
 70
     1
102
RTVSPropertyOp51
 70
     0
102
RTVSPropertyOp52
 70
     0
102
RTVSPropertyOp53
 70
     1
102
RTVSPropertyOp54
 70
     1
102
RTVSPropertyOp55
 70
     1
102
RTVSPropertyOp56
 70
     1
102
RTVSPropertyOp57
 70
     1
102
RTVSPropertyOp58
 70
     1
102
RTVSPropertyOp59
 70
     1
102
RTVSPropertyOp60
 70
     1
102
RTVSPropertyOp61
 70
     1
102
RTVSPropertyOp62
 70
     1
  0
XRECORD
  5
9A90
102
{ACAD_REACTORS
330
9A8F
102
}
330
9A8F
100
AcDbXrecord
280
     1
102
RTVSPost2010Prop28
280
     0
102
RTVSPost2010PropOp28
 70
     1
102
RTVSPost2010Prop29
280
     1
102
RTVSPost2010PropOp29
 70
     1
102
RTVSPost2010Prop30
280
     1
102
RTVSPost2010PropOp30
 70
     1
102
RTVSPost2010Prop31
280
     0
102
RTVSPost2010PropOp31
 70
     1
102
RTVSPost2010Prop32
280
     0
102
RTVSPost2010PropOp32
 70
     1
102
RTVSPost2010Prop33
280
     0
102
RTVSPost2010PropOp33
 70
     1
102
RTVSPost2010Prop34
280
     0
102
RTVSPost2010PropOp34
 70
     1
102
RTVSPost2010Prop35
280
     0
102
RTVSPost2010PropOp35
 70
     1
102
RTVSPost2010Prop36
280
     0
102
RTVSPost2010PropOp36
 70
     1
102
RTVSPost2010Prop37
 90
       50
102
RTVSPost2010PropOp37
 70
     1
102
RTVSPost2010Prop38
140
0.0
102
RTVSPost2010PropOp38
 70
     1
102
RTVSPost2010Prop39
140
1.0
102
RTVSPost2010PropOp39
 70
     1
102
RTVSPost2010Prop40
 90
        0
102
RTVSPost2010PropOp40
 70
     1
102
RTVSPost2010Prop41ColorIndex
 90
       18
102
RTVSPost2010Prop41ColorRGB
 90
        0
102
RTVSPost2010PropOp41
 70
     1
102
RTVSPost2010Prop42
 90
       50
102
RTVSPost2010PropOp42
 70
     1
102
RTVSPost2010Prop43
 90
        3
102
RTVSPost2010PropOp43
 70
     1
102
RTVSPost2010Prop44ColorIndex
 90
        5
102
RTVSPost2010Prop44ColorRGB
 90
      255
102
RTVSPost2010PropOp44
 70
     1
102
RTVSPost2010Prop45
280
     0
102
RTVSPost2010PropOp45
 70
     1
102
RTVSPost2010Prop46
 90
       50
102
RTVSPost2010PropOp46
 70
     1
102
RTVSPost2010Prop47
 90
       50
102
RTVSPost2010PropOp47
 70
     1
102
RTVSPost2010Prop48
 90
       50
102
RTVSPost2010PropOp48
 70
     1
102
RTVSPost2010Prop49
280
     0
102
RTVSPost2010PropOp49
 70
     1
102
RTVSPost2010Prop50
 90
       50
102
RTVSPost2010PropOp50
 70
     1
102
RTVSPost2010Prop51ColorIndex
 90
      256
102
RTVSPost2010Prop51ColorRGB
 90
-16777216
102
RTVSPost2010PropOp51
 70
     0
102
RTVSPost2010Prop52
140
1.0
102
RTVSPost2010PropOp52
 70
     0
102
RTVSPost2010Prop53
 90
        2
102
RTVSPost2010PropOp53
 70
     1
102
RTVSPost2010Prop54
  1
strokes_ogs.tif
102
RTVSPost2010PropOp54
 70
     1
102
RTVSPost2010Prop55
280
     0
102
RTVSPost2010PropOp55
 70
     1
102
RTVSPost2010Prop56
140
1.0
102
RTVSPost2010PropOp56
 70
     1
102
RTVSPost2010Prop57
140
1.0
102
RTVSPost2010PropOp57
 70
     1
102
RTVSPropertyOp0
 70
     1
102
RTVSPropertyOp1
 70
     1
102
RTVSPropertyOp2
 70
     1
102
RTVSPropertyOp3
 70
     1
102
RTVSPropertyOp4
 70
     1
102
RTVSPropertyOp5
 70
     1
102
RTVSPropertyOp6
 70
     1
102
RTVSPropertyOp7
 70
     1
102
RTVSPropertyOp8
 70
     1
102
RTVSPropertyOp9
 70
     1
102
RTVSPropertyOp10
 70
     1
102
RTVSPropertyOp11
 70
     1
102
RTVSPropertyOp12
 70
     1
102
RTVSPropertyOp13
 70
     1
102
RTVSPropertyOp14
 70
     1
102
RTVSPropertyOp15
 70
     1
102
RTVSPropertyOp16
 70
     1
102
RTVSPropertyOp17
 70
     1
102
RTVSPropertyOp18
 70
     1
102
RTVSPropertyOp19
 70
     1
102
RTVSPropertyOp20
 70
     1
102
RTVSPropertyOp21
 70
     1
102
RTVSPropertyOp22
 70
     1
102
RTVSPropertyOp23
 70
     1
102
RTVSPropertyOp24
 70
     1
102
RTVSPropertyOp25
 70
     1
102
RTVSPropertyOp26
 70
     1
102
RTVSPropertyOp27
 70
     1
102
RTVSPropertyOp28
 70
     1
102
RTVSPropertyOp29
 70
     1
102
RTVSPropertyOp30
 70
     1
102
RTVSPropertyOp31
 70
     1
102
RTVSPropertyOp32
 70
     1
102
RTVSPropertyOp33
 70
     1
102
RTVSPropertyOp34
 70
     1
102
RTVSPropertyOp35
 70
     1
102
RTVSPropertyOp36
 70
     1
102
RTVSPropertyOp37
 70
     1
102
RTVSPropertyOp38
 70
     1
102
RTVSPropertyOp39
 70
     1
102
RTVSPropertyOp40
 70
     1
102
RTVSPropertyOp41
 70
     1
102
RTVSPropertyOp42
 70
     1
102
RTVSPropertyOp43
 70
     1
102
RTVSPropertyOp44
 70
     1
102
RTVSPropertyOp45
 70
     1
102
RTVSPropertyOp46
 70
     1
102
RTVSPropertyOp47
 70
     1
102
RTVSPropertyOp48
 70
     1
102
RTVSPropertyOp49
 70
     1
102
RTVSPropertyOp50
 70
     1
102
RTVSPropertyOp51
 70
     0
102
RTVSPropertyOp52
 70
     0
102
RTVSPropertyOp53
 70
     1
102
RTVSPropertyOp54
 70
     1
102
RTVSPropertyOp55
 70
     1
102
RTVSPropertyOp56
 70
     1
102
RTVSPropertyOp57
 70
     1
102
RTVSPropertyOp58
 70
     1
102
RTVSPropertyOp59
 70
     1
102
RTVSPropertyOp60
 70
     1
102
RTVSPropertyOp61
 70
     1
102
RTVSPropertyOp62
 70
     1
  0
XRECORD
  5
9A82
102
{ACAD_REACTORS
330
9A81
102
}
330
9A81
100
AcDbXrecord
280
     1
102
RTVSPost2010Prop28
280
     0
102
RTVSPost2010PropOp28
 70
     1
102
RTVSPost2010Prop29
280
     1
102
RTVSPost2010PropOp29
 70
     1
102
RTVSPost2010Prop30
280
     1
102
RTVSPost2010PropOp30
 70
     1
102
RTVSPost2010Prop31
280
     0
102
RTVSPost2010PropOp31
 70
     1
102
RTVSPost2010Prop32
280
     0
102
RTVSPost2010PropOp32
 70
     1
102
RTVSPost2010Prop33
280
     0
102
RTVSPost2010PropOp33
 70
     1
102
RTVSPost2010Prop34
280
     0
102
RTVSPost2010PropOp34
 70
     1
102
RTVSPost2010Prop35
280
     0
102
RTVSPost2010PropOp35
 70
     1
102
RTVSPost2010Prop36
280
     0
102
RTVSPost2010PropOp36
 70
     1
102
RTVSPost2010Prop37
 90
       50
102
RTVSPost2010PropOp37
 70
     1
102
RTVSPost2010Prop38
140
0.0
102
RTVSPost2010PropOp38
 70
     1
102
RTVSPost2010Prop39
140
1.0
102
RTVSPost2010PropOp39
 70
     1
102
RTVSPost2010Prop40
 90
        0
102
RTVSPost2010PropOp40
 70
     1
102
RTVSPost2010Prop41ColorIndex
 90
       18
102
RTVSPost2010Prop41ColorRGB
 90
        0
102
RTVSPost2010PropOp41
 70
     1
102
RTVSPost2010Prop42
 90
       50
102
RTVSPost2010PropOp42
 70
     1
102
RTVSPost2010Prop43
 90
        3
102
RTVSPost2010PropOp43
 70
     1
102
RTVSPost2010Prop44ColorIndex
 90
        5
102
RTVSPost2010Prop44ColorRGB
 90
      255
102
RTVSPost2010PropOp44
 70
     1
102
RTVSPost2010Prop45
280
     0
102
RTVSPost2010PropOp45
 70
     1
102
RTVSPost2010Prop46
 90
       50
102
RTVSPost2010PropOp46
 70
     1
102
RTVSPost2010Prop47
 90
       50
102
RTVSPost2010PropOp47
 70
     1
102
RTVSPost2010Prop48
 90
       50
102
RTVSPost2010PropOp48
 70
     1
102
RTVSPost2010Prop49
280
     0
102
RTVSPost2010PropOp49
 70
     1
102
RTVSPost2010Prop50
 90
       50
102
RTVSPost2010PropOp50
 70
     1
102
RTVSPost2010Prop51ColorIndex
 90
      256
102
RTVSPost2010Prop51ColorRGB
 90
-16777216
102
RTVSPost2010PropOp51
 70
     0
102
RTVSPost2010Prop52
140
1.0
102
RTVSPost2010PropOp52
 70
     0
102
RTVSPost2010Prop53
 90
        2
102
RTVSPost2010PropOp53
 70
     1
102
RTVSPost2010Prop54
  1
strokes_ogs.tif
102
RTVSPost2010PropOp54
 70
     1
102
RTVSPost2010Prop55
280
     0
102
RTVSPost2010PropOp55
 70
     1
102
RTVSPost2010Prop56
140
1.0
102
RTVSPost2010PropOp56
 70
     1
102
RTVSPost2010Prop57
140
1.0
102
RTVSPost2010PropOp57
 70
     1
102
RTVSPropertyOp0
 70
     1
102
RTVSPropertyOp1
 70
     1
102
RTVSPropertyOp2
 70
     1
102
RTVSPropertyOp3
 70
     1
102
RTVSPropertyOp4
 70
     1
102
RTVSPropertyOp5
 70
     1
102
RTVSPropertyOp6
 70
     1
102
RTVSPropertyOp7
 70
     1
102
RTVSPropertyOp8
 70
     1
102
RTVSPropertyOp9
 70
     1
102
RTVSPropertyOp10
 70
     1
102
RTVSPropertyOp11
 70
     1
102
RTVSPropertyOp12
 70
     1
102
RTVSPropertyOp13
 70
     1
102
RTVSPropertyOp14
 70
     1
102
RTVSPropertyOp15
 70
     1
102
RTVSPropertyOp16
 70
     1
102
RTVSPropertyOp17
 70
     1
102
RTVSPropertyOp18
 70
     1
102
RTVSPropertyOp19
 70
     1
102
RTVSPropertyOp20
 70
     1
102
RTVSPropertyOp21
 70
     1
102
RTVSPropertyOp22
 70
     1
102
RTVSPropertyOp23
 70
     1
102
RTVSPropertyOp24
 70
     1
102
RTVSPropertyOp25
 70
     1
102
RTVSPropertyOp26
 70
     1
102
RTVSPropertyOp27
 70
     1
102
RTVSPropertyOp28
 70
     1
102
RTVSPropertyOp29
 70
     1
102
RTVSPropertyOp30
 70
     1
102
RTVSPropertyOp31
 70
     1
102
RTVSPropertyOp32
 70
     1
102
RTVSPropertyOp33
 70
     1
102
RTVSPropertyOp34
 70
     1
102
RTVSPropertyOp35
 70
     1
102
RTVSPropertyOp36
 70
     1
102
RTVSPropertyOp37
 70
     1
102
RTVSPropertyOp38
 70
     1
102
RTVSPropertyOp39
 70
     1
102
RTVSPropertyOp40
 70
     1
102
RTVSPropertyOp41
 70
     1
102
RTVSPropertyOp42
 70
     1
102
RTVSPropertyOp43
 70
     1
102
RTVSPropertyOp44
 70
     1
102
RTVSPropertyOp45
 70
     1
102
RTVSPropertyOp46
 70
     1
102
RTVSPropertyOp47
 70
     1
102
RTVSPropertyOp48
 70
     1
102
RTVSPropertyOp49
 70
     1
102
RTVSPropertyOp50
 70
     1
102
RTVSPropertyOp51
 70
     0
102
RTVSPropertyOp52
 70
     0
102
RTVSPropertyOp53
 70
     1
102
RTVSPropertyOp54
 70
     1
102
RTVSPropertyOp55
 70
     1
102
RTVSPropertyOp56
 70
     1
102
RTVSPropertyOp57
 70
     1
102
RTVSPropertyOp58
 70
     1
102
RTVSPropertyOp59
 70
     1
102
RTVSPropertyOp60
 70
     1
102
RTVSPropertyOp61
 70
     1
102
RTVSPropertyOp62
 70
     1
  0
XRECORD
  5
9A86
102
{ACAD_REACTORS
330
9A85
102
}
330
9A85
100
AcDbXrecord
280
     1
102
RTVSPost2010Prop28
280
     0
102
RTVSPost2010PropOp28
 70
     1
102
RTVSPost2010Prop29
280
     1
102
RTVSPost2010PropOp29
 70
     1
102
RTVSPost2010Prop30
280
     1
102
RTVSPost2010PropOp30
 70
     1
102
RTVSPost2010Prop31
280
     0
102
RTVSPost2010PropOp31
 70
     1
102
RTVSPost2010Prop32
280
     0
102
RTVSPost2010PropOp32
 70
     1
102
RTVSPost2010Prop33
280
     0
102
RTVSPost2010PropOp33
 70
     1
102
RTVSPost2010Prop34
280
     0
102
RTVSPost2010PropOp34
 70
     1
102
RTVSPost2010Prop35
280
     0
102
RTVSPost2010PropOp35
 70
     1
102
RTVSPost2010Prop36
280
     0
102
RTVSPost2010PropOp36
 70
     1
102
RTVSPost2010Prop37
 90
       50
102
RTVSPost2010PropOp37
 70
     1
102
RTVSPost2010Prop38
140
0.0
102
RTVSPost2010PropOp38
 70
     1
102
RTVSPost2010Prop39
140
1.0
102
RTVSPost2010PropOp39
 70
     1
102
RTVSPost2010Prop40
 90
        0
102
RTVSPost2010PropOp40
 70
     1
102
RTVSPost2010Prop41ColorIndex
 90
       18
102
RTVSPost2010Prop41ColorRGB
 90
        0
102
RTVSPost2010PropOp41
 70
     1
102
RTVSPost2010Prop42
 90
       50
102
RTVSPost2010PropOp42
 70
     1
102
RTVSPost2010Prop43
 90
        3
102
RTVSPost2010PropOp43
 70
     1
102
RTVSPost2010Prop44ColorIndex
 90
        5
102
RTVSPost2010Prop44ColorRGB
 90
      255
102
RTVSPost2010PropOp44
 70
     1
102
RTVSPost2010Prop45
280
     0
102
RTVSPost2010PropOp45
 70
     1
102
RTVSPost2010Prop46
 90
       50
102
RTVSPost2010PropOp46
 70
     1
102
RTVSPost2010Prop47
 90
       50
102
RTVSPost2010PropOp47
 70
     1
102
RTVSPost2010Prop48
 90
       50
102
RTVSPost2010PropOp48
 70
     1
102
RTVSPost2010Prop49
280
     0
102
RTVSPost2010PropOp49
 70
     1
102
RTVSPost2010Prop50
 90
       50
102
RTVSPost2010PropOp50
 70
     1
102
RTVSPost2010Prop51ColorIndex
 90
      256
102
RTVSPost2010Prop51ColorRGB
 90
-16777216
102
RTVSPost2010PropOp51
 70
     0
102
RTVSPost2010Prop52
140
1.0
102
RTVSPost2010PropOp52
 70
     0
102
RTVSPost2010Prop53
 90
        2
102
RTVSPost2010PropOp53
 70
     1
102
RTVSPost2010Prop54
  1
strokes_ogs.tif
102
RTVSPost2010PropOp54
 70
     1
102
RTVSPost2010Prop55
280
     0
102
RTVSPost2010PropOp55
 70
     1
102
RTVSPost2010Prop56
140
1.0
102
RTVSPost2010PropOp56
 70
     1
102
RTVSPost2010Prop57
140
1.0
102
RTVSPost2010PropOp57
 70
     1
102
RTVSPropertyOp0
 70
     1
102
RTVSPropertyOp1
 70
     1
102
RTVSPropertyOp2
 70
     1
102
RTVSPropertyOp3
 70
     1
102
RTVSPropertyOp4
 70
     1
102
RTVSPropertyOp5
 70
     1
102
RTVSPropertyOp6
 70
     1
102
RTVSPropertyOp7
 70
     1
102
RTVSPropertyOp8
 70
     1
102
RTVSPropertyOp9
 70
     1
102
RTVSPropertyOp10
 70
     1
102
RTVSPropertyOp11
 70
     1
102
RTVSPropertyOp12
 70
     1
102
RTVSPropertyOp13
 70
     1
102
RTVSPropertyOp14
 70
     1
102
RTVSPropertyOp15
 70
     1
102
RTVSPropertyOp16
 70
     1
102
RTVSPropertyOp17
 70
     1
102
RTVSPropertyOp18
 70
     1
102
RTVSPropertyOp19
 70
     1
102
RTVSPropertyOp20
 70
     1
102
RTVSPropertyOp21
 70
     1
102
RTVSPropertyOp22
 70
     1
102
RTVSPropertyOp23
 70
     1
102
RTVSPropertyOp24
 70
     1
102
RTVSPropertyOp25
 70
     1
102
RTVSPropertyOp26
 70
     1
102
RTVSPropertyOp27
 70
     1
102
RTVSPropertyOp28
 70
     1
102
RTVSPropertyOp29
 70
     1
102
RTVSPropertyOp30
 70
     1
102
RTVSPropertyOp31
 70
     1
102
RTVSPropertyOp32
 70
     1
102
RTVSPropertyOp33
 70
     1
102
RTVSPropertyOp34
 70
     1
102
RTVSPropertyOp35
 70
     1
102
RTVSPropertyOp36
 70
     1
102
RTVSPropertyOp37
 70
     1
102
RTVSPropertyOp38
 70
     1
102
RTVSPropertyOp39
 70
     1
102
RTVSPropertyOp40
 70
     1
102
RTVSPropertyOp41
 70
     1
102
RTVSPropertyOp42
 70
     1
102
RTVSPropertyOp43
 70
     1
102
RTVSPropertyOp44
 70
     1
102
RTVSPropertyOp45
 70
     1
102
RTVSPropertyOp46
 70
     1
102
RTVSPropertyOp47
 70
     1
102
RTVSPropertyOp48
 70
     1
102
RTVSPropertyOp49
 70
     1
102
RTVSPropertyOp50
 70
     1
102
RTVSPropertyOp51
 70
     0
102
RTVSPropertyOp52
 70
     0
102
RTVSPropertyOp53
 70
     1
102
RTVSPropertyOp54
 70
     1
102
RTVSPropertyOp55
 70
     1
102
RTVSPropertyOp56
 70
     1
102
RTVSPropertyOp57
 70
     1
102
RTVSPropertyOp58
 70
     1
102
RTVSPropertyOp59
 70
     1
102
RTVSPropertyOp60
 70
     1
102
RTVSPropertyOp61
 70
     1
102
RTVSPropertyOp62
 70
     1
  0
XRECORD
  5
9AA0
102
{ACAD_REACTORS
330
9A9F
102
}
330
9A9F
100
AcDbXrecord
280
     1
102
RTVSPost2010Prop28
280
     0
102
RTVSPost2010PropOp28
 70
     1
102
RTVSPost2010Prop29
280
     1
102
RTVSPost2010PropOp29
 70
     1
102
RTVSPost2010Prop30
280
     1
102
RTVSPost2010PropOp30
 70
     1
102
RTVSPost2010Prop31
280
     0
102
RTVSPost2010PropOp31
 70
     1
102
RTVSPost2010Prop32
280
     0
102
RTVSPost2010PropOp32
 70
     1
102
RTVSPost2010Prop33
280
     0
102
RTVSPost2010PropOp33
 70
     1
102
RTVSPost2010Prop34
280
     0
102
RTVSPost2010PropOp34
 70
     1
102
RTVSPost2010Prop35
280
     0
102
RTVSPost2010PropOp35
 70
     1
102
RTVSPost2010Prop36
280
     0
102
RTVSPost2010PropOp36
 70
     1
102
RTVSPost2010Prop37
 90
       50
102
RTVSPost2010PropOp37
 70
     0
102
RTVSPost2010Prop38
140
0.0
102
RTVSPost2010PropOp38
 70
     0
102
RTVSPost2010Prop39
140
1.0
102
RTVSPost2010PropOp39
 70
     0
102
RTVSPost2010Prop40
 90
        0
102
RTVSPost2010PropOp40
 70
     0
102
RTVSPost2010Prop41ColorIndex
 90
       18
102
RTVSPost2010Prop41ColorRGB
 90
        0
102
RTVSPost2010PropOp41
 70
     0
102
RTVSPost2010Prop42
 90
       50
102
RTVSPost2010PropOp42
 70
     0
102
RTVSPost2010Prop43
 90
        3
102
RTVSPost2010PropOp43
 70
     0
102
RTVSPost2010Prop44ColorIndex
 90
        5
102
RTVSPost2010Prop44ColorRGB
 90
      255
102
RTVSPost2010PropOp44
 70
     0
102
RTVSPost2010Prop45
280
     0
102
RTVSPost2010PropOp45
 70
     1
102
RTVSPost2010Prop46
 90
       50
102
RTVSPost2010PropOp46
 70
     0
102
RTVSPost2010Prop47
 90
       50
102
RTVSPost2010PropOp47
 70
     0
102
RTVSPost2010Prop48
 90
       50
102
RTVSPost2010PropOp48
 70
     0
102
RTVSPost2010Prop49
280
     0
102
RTVSPost2010PropOp49
 70
     1
102
RTVSPost2010Prop50
 90
       50
102
RTVSPost2010PropOp50
 70
     0
102
RTVSPost2010Prop51ColorIndex
 90
      256
102
RTVSPost2010Prop51ColorRGB
 90
-16777216
102
RTVSPost2010PropOp51
 70
     0
102
RTVSPost2010Prop52
140
1.0
102
RTVSPost2010PropOp52
 70
     0
102
RTVSPost2010Prop53
 90
        2
102
RTVSPost2010PropOp53
 70
     0
102
RTVSPost2010Prop54
  1
strokes_ogs.tif
102
RTVSPost2010PropOp54
 70
     0
102
RTVSPost2010Prop55
280
     0
102
RTVSPost2010PropOp55
 70
     1
102
RTVSPost2010Prop56
140
1.0
102
RTVSPost2010PropOp56
 70
     0
102
RTVSPost2010Prop57
140
1.0
102
RTVSPost2010PropOp57
 70
     0
102
RTVSPropertyOp0
 70
     0
102
RTVSPropertyOp1
 70
     0
102
RTVSPropertyOp2
 70
     0
102
RTVSPropertyOp3
 70
     0
102
RTVSPropertyOp4
 70
     0
102
RTVSPropertyOp5
 70
     0
102
RTVSPropertyOp6
 70
     0
102
RTVSPropertyOp7
 70
     0
102
RTVSPropertyOp8
 70
     0
102
RTVSPropertyOp9
 70
     0
102
RTVSPropertyOp10
 70
     0
102
RTVSPropertyOp11
 70
     0
102
RTVSPropertyOp12
 70
     0
102
RTVSPropertyOp13
 70
     0
102
RTVSPropertyOp14
 70
     2
102
RTVSPropertyOp15
 70
     0
102
RTVSPropertyOp16
 70
     0
102
RTVSPropertyOp17
 70
     0
102
RTVSPropertyOp18
 70
     0
102
RTVSPropertyOp19
 70
     0
102
RTVSPropertyOp20
 70
     0
102
RTVSPropertyOp21
 70
     0
102
RTVSPropertyOp22
 70
     0
102
RTVSPropertyOp23
 70
     0
102
RTVSPropertyOp24
 70
     0
102
RTVSPropertyOp25
 70
     0
102
RTVSPropertyOp26
 70
     0
102
RTVSPropertyOp27
 70
     0
102
RTVSPropertyOp28
 70
     1
102
RTVSPropertyOp29
 70
     1
102
RTVSPropertyOp30
 70
     1
102
RTVSPropertyOp31
 70
     1
102
RTVSPropertyOp32
 70
     1
102
RTVSPropertyOp33
 70
     1
102
RTVSPropertyOp34
 70
     1
102
RTVSPropertyOp35
 70
     1
102
RTVSPropertyOp36
 70
     1
102
RTVSPropertyOp37
 70
     0
102
RTVSPropertyOp38
 70
     0
102
RTVSPropertyOp39
 70
     0
102
RTVSPropertyOp40
 70
     0
102
RTVSPropertyOp41
 70
     0
102
RTVSPropertyOp42
 70
     0
102
RTVSPropertyOp43
 70
     0
102
RTVSPropertyOp44
 70
     0
102
RTVSPropertyOp45
 70
     1
102
RTVSPropertyOp46
 70
     0
102
RTVSPropertyOp47
 70
     0
102
RTVSPropertyOp48
 70
     0
102
RTVSPropertyOp49
 70
     1
102
RTVSPropertyOp50
 70
     0
102
RTVSPropertyOp51
 70
     0
102
RTVSPropertyOp52
 70
     0
102
RTVSPropertyOp53
 70
     0
102
RTVSPropertyOp54
 70
     0
102
RTVSPropertyOp55
 70
     1
102
RTVSPropertyOp56
 70
     0
102
RTVSPropertyOp57
 70
     0
102
RTVSPropertyOp58
 70
     0
102
RTVSPropertyOp59
 70
     0
102
RTVSPropertyOp60
 70
     0
102
RTVSPropertyOp61
 70
     0
102
RTVSPropertyOp62
 70
     0
  0
XRECORD
  5
9A8E
102
{ACAD_REACTORS
330
9A8D
102
}
330
9A8D
100
AcDbXrecord
280
     1
102
RTVSPost2010Prop28
280
     0
102
RTVSPost2010PropOp28
 70
     1
102
RTVSPost2010Prop29
280
     1
102
RTVSPost2010PropOp29
 70
     1
102
RTVSPost2010Prop30
280
     1
102
RTVSPost2010PropOp30
 70
     1
102
RTVSPost2010Prop31
280
     0
102
RTVSPost2010PropOp31
 70
     1
102
RTVSPost2010Prop32
280
     0
102
RTVSPost2010PropOp32
 70
     1
102
RTVSPost2010Prop33
280
     0
102
RTVSPost2010PropOp33
 70
     1
102
RTVSPost2010Prop34
280
     0
102
RTVSPost2010PropOp34
 70
     1
102
RTVSPost2010Prop35
280
     0
102
RTVSPost2010PropOp35
 70
     1
102
RTVSPost2010Prop36
280
     0
102
RTVSPost2010PropOp36
 70
     1
102
RTVSPost2010Prop37
 90
       50
102
RTVSPost2010PropOp37
 70
     1
102
RTVSPost2010Prop38
140
0.0
102
RTVSPost2010PropOp38
 70
     1
102
RTVSPost2010Prop39
140
1.0
102
RTVSPost2010PropOp39
 70
     1
102
RTVSPost2010Prop40
 90
        0
102
RTVSPost2010PropOp40
 70
     1
102
RTVSPost2010Prop41ColorIndex
 90
       18
102
RTVSPost2010Prop41ColorRGB
 90
        0
102
RTVSPost2010PropOp41
 70
     1
102
RTVSPost2010Prop42
 90
       50
102
RTVSPost2010PropOp42
 70
     1
102
RTVSPost2010Prop43
 90
        3
102
RTVSPost2010PropOp43
 70
     1
102
RTVSPost2010Prop44ColorIndex
 90
        5
102
RTVSPost2010Prop44ColorRGB
 90
      255
102
RTVSPost2010PropOp44
 70
     1
102
RTVSPost2010Prop45
280
     0
102
RTVSPost2010PropOp45
 70
     1
102
RTVSPost2010Prop46
 90
       50
102
RTVSPost2010PropOp46
 70
     1
102
RTVSPost2010Prop47
 90
       50
102
RTVSPost2010PropOp47
 70
     1
102
RTVSPost2010Prop48
 90
       50
102
RTVSPost2010PropOp48
 70
     1
102
RTVSPost2010Prop49
280
     0
102
RTVSPost2010PropOp49
 70
     1
102
RTVSPost2010Prop50
 90
       50
102
RTVSPost2010PropOp50
 70
     1
102
RTVSPost2010Prop51ColorIndex
 90
      256
102
RTVSPost2010Prop51ColorRGB
 90
-16777216
102
RTVSPost2010PropOp51
 70
     0
102
RTVSPost2010Prop52
140
1.0
102
RTVSPost2010PropOp52
 70
     0
102
RTVSPost2010Prop53
 90
        2
102
RTVSPost2010PropOp53
 70
     1
102
RTVSPost2010Prop54
  1
strokes_ogs.tif
102
RTVSPost2010PropOp54
 70
     1
102
RTVSPost2010Prop55
280
     0
102
RTVSPost2010PropOp55
 70
     1
102
RTVSPost2010Prop56
140
1.0
102
RTVSPost2010PropOp56
 70
     1
102
RTVSPost2010Prop57
140
1.0
102
RTVSPost2010PropOp57
 70
     1
102
RTVSPropertyOp0
 70
     1
102
RTVSPropertyOp1
 70
     1
102
RTVSPropertyOp2
 70
     1
102
RTVSPropertyOp3
 70
     1
102
RTVSPropertyOp4
 70
     1
102
RTVSPropertyOp5
 70
     1
102
RTVSPropertyOp6
 70
     1
102
RTVSPropertyOp7
 70
     1
102
RTVSPropertyOp8
 70
     1
102
RTVSPropertyOp9
 70
     1
102
RTVSPropertyOp10
 70
     1
102
RTVSPropertyOp11
 70
     1
102
RTVSPropertyOp12
 70
     1
102
RTVSPropertyOp13
 70
     1
102
RTVSPropertyOp14
 70
     1
102
RTVSPropertyOp15
 70
     1
102
RTVSPropertyOp16
 70
     1
102
RTVSPropertyOp17
 70
     1
102
RTVSPropertyOp18
 70
     1
102
RTVSPropertyOp19
 70
     1
102
RTVSPropertyOp20
 70
     1
102
RTVSPropertyOp21
 70
     1
102
RTVSPropertyOp22
 70
     1
102
RTVSPropertyOp23
 70
     1
102
RTVSPropertyOp24
 70
     1
102
RTVSPropertyOp25
 70
     1
102
RTVSPropertyOp26
 70
     1
102
RTVSPropertyOp27
 70
     1
102
RTVSPropertyOp28
 70
     1
102
RTVSPropertyOp29
 70
     1
102
RTVSPropertyOp30
 70
     1
102
RTVSPropertyOp31
 70
     1
102
RTVSPropertyOp32
 70
     1
102
RTVSPropertyOp33
 70
     1
102
RTVSPropertyOp34
 70
     1
102
RTVSPropertyOp35
 70
     1
102
RTVSPropertyOp36
 70
     1
102
RTVSPropertyOp37
 70
     1
102
RTVSPropertyOp38
 70
     1
102
RTVSPropertyOp39
 70
     1
102
RTVSPropertyOp40
 70
     1
102
RTVSPropertyOp41
 70
     1
102
RTVSPropertyOp42
 70
     1
102
RTVSPropertyOp43
 70
     1
102
RTVSPropertyOp44
 70
     1
102
RTVSPropertyOp45
 70
     1
102
RTVSPropertyOp46
 70
     1
102
RTVSPropertyOp47
 70
     1
102
RTVSPropertyOp48
 70
     1
102
RTVSPropertyOp49
 70
     1
102
RTVSPropertyOp50
 70
     1
102
RTVSPropertyOp51
 70
     0
102
RTVSPropertyOp52
 70
     0
102
RTVSPropertyOp53
 70
     1
102
RTVSPropertyOp54
 70
     1
102
RTVSPropertyOp55
 70
     1
102
RTVSPropertyOp56
 70
     1
102
RTVSPropertyOp57
 70
     1
102
RTVSPropertyOp58
 70
     1
102
RTVSPropertyOp59
 70
     1
102
RTVSPropertyOp60
 70
     1
102
RTVSPropertyOp61
 70
     1
102
RTVSPropertyOp62
 70
     1
  0
XRECORD
  5
9A72
102
{ACAD_REACTORS
330
9A71
102
}
330
9A71
100
AcDbXrecord
280
     1
102
RTVSPost2010Prop28
280
     0
102
RTVSPost2010PropOp28
 70
     1
102
RTVSPost2010Prop29
280
     1
102
RTVSPost2010PropOp29
 70
     1
102
RTVSPost2010Prop30
280
     1
102
RTVSPost2010PropOp30
 70
     1
102
RTVSPost2010Prop31
280
     0
102
RTVSPost2010PropOp31
 70
     1
102
RTVSPost2010Prop32
280
     0
102
RTVSPost2010PropOp32
 70
     1
102
RTVSPost2010Prop33
280
     0
102
RTVSPost2010PropOp33
 70
     1
102
RTVSPost2010Prop34
280
     0
102
RTVSPost2010PropOp34
 70
     1
102
RTVSPost2010Prop35
280
     0
102
RTVSPost2010PropOp35
 70
     1
102
RTVSPost2010Prop36
280
     0
102
RTVSPost2010PropOp36
 70
     1
102
RTVSPost2010Prop37
 90
       50
102
RTVSPost2010PropOp37
 70
     1
102
RTVSPost2010Prop38
140
0.0
102
RTVSPost2010PropOp38
 70
     1
102
RTVSPost2010Prop39
140
1.0
102
RTVSPost2010PropOp39
 70
     1
102
RTVSPost2010Prop40
 90
        0
102
RTVSPost2010PropOp40
 70
     1
102
RTVSPost2010Prop41ColorIndex
 90
       18
102
RTVSPost2010Prop41ColorRGB
 90
        0
102
RTVSPost2010PropOp41
 70
     1
102
RTVSPost2010Prop42
 90
       50
102
RTVSPost2010PropOp42
 70
     1
102
RTVSPost2010Prop43
 90
        3
102
RTVSPost2010PropOp43
 70
     1
102
RTVSPost2010Prop44ColorIndex
 90
        5
102
RTVSPost2010Prop44ColorRGB
 90
      255
102
RTVSPost2010PropOp44
 70
     1
102
RTVSPost2010Prop45
280
     0
102
RTVSPost2010PropOp45
 70
     1
102
RTVSPost2010Prop46
 90
       50
102
RTVSPost2010PropOp46
 70
     1
102
RTVSPost2010Prop47
 90
       50
102
RTVSPost2010PropOp47
 70
     1
102
RTVSPost2010Prop48
 90
       50
102
RTVSPost2010PropOp48
 70
     1
102
RTVSPost2010Prop49
280
     0
102
RTVSPost2010PropOp49
 70
     1
102
RTVSPost2010Prop50
 90
       50
102
RTVSPost2010PropOp50
 70
     1
102
RTVSPost2010Prop51ColorIndex
 90
      256
102
RTVSPost2010Prop51ColorRGB
 90
-16777216
102
RTVSPost2010PropOp51
 70
     0
102
RTVSPost2010Prop52
140
1.0
102
RTVSPost2010PropOp52
 70
     0
102
RTVSPost2010Prop53
 90
        2
102
RTVSPost2010PropOp53
 70
     1
102
RTVSPost2010Prop54
  1
strokes_ogs.tif
102
RTVSPost2010PropOp54
 70
     1
102
RTVSPost2010Prop55
280
     0
102
RTVSPost2010PropOp55
 70
     1
102
RTVSPost2010Prop56
140
1.0
102
RTVSPost2010PropOp56
 70
     1
102
RTVSPost2010Prop57
140
1.0
102
RTVSPost2010PropOp57
 70
     1
102
RTVSPropertyOp0
 70
     1
102
RTVSPropertyOp1
 70
     1
102
RTVSPropertyOp2
 70
     1
102
RTVSPropertyOp3
 70
     1
102
RTVSPropertyOp4
 70
     1
102
RTVSPropertyOp5
 70
     1
102
RTVSPropertyOp6
 70
     1
102
RTVSPropertyOp7
 70
     1
102
RTVSPropertyOp8
 70
     1
102
RTVSPropertyOp9
 70
     1
102
RTVSPropertyOp10
 70
     1
102
RTVSPropertyOp11
 70
     1
102
RTVSPropertyOp12
 70
     1
102
RTVSPropertyOp13
 70
     1
102
RTVSPropertyOp14
 70
     1
102
RTVSPropertyOp15
 70
     1
102
RTVSPropertyOp16
 70
     1
102
RTVSPropertyOp17
 70
     1
102
RTVSPropertyOp18
 70
     1
102
RTVSPropertyOp19
 70
     1
102
RTVSPropertyOp20
 70
     1
102
RTVSPropertyOp21
 70
     1
102
RTVSPropertyOp22
 70
     1
102
RTVSPropertyOp23
 70
     1
102
RTVSPropertyOp24
 70
     1
102
RTVSPropertyOp25
 70
     1
102
RTVSPropertyOp26
 70
     1
102
RTVSPropertyOp27
 70
     1
102
RTVSPropertyOp28
 70
     1
102
RTVSPropertyOp29
 70
     1
102
RTVSPropertyOp30
 70
     1
102
RTVSPropertyOp31
 70
     1
102
RTVSPropertyOp32
 70
     1
102
RTVSPropertyOp33
 70
     1
102
RTVSPropertyOp34
 70
     1
102
RTVSPropertyOp35
 70
     1
102
RTVSPropertyOp36
 70
     1
102
RTVSPropertyOp37
 70
     1
102
RTVSPropertyOp38
 70
     1
102
RTVSPropertyOp39
 70
     1
102
RTVSPropertyOp40
 70
     1
102
RTVSPropertyOp41
 70
     1
102
RTVSPropertyOp42
 70
     1
102
RTVSPropertyOp43
 70
     1
102
RTVSPropertyOp44
 70
     1
102
RTVSPropertyOp45
 70
     1
102
RTVSPropertyOp46
 70
     1
102
RTVSPropertyOp47
 70
     1
102
RTVSPropertyOp48
 70
     1
102
RTVSPropertyOp49
 70
     1
102
RTVSPropertyOp50
 70
     1
102
RTVSPropertyOp51
 70
     0
102
RTVSPropertyOp52
 70
     0
102
RTVSPropertyOp53
 70
     1
102
RTVSPropertyOp54
 70
     1
102
RTVSPropertyOp55
 70
     1
102
RTVSPropertyOp56
 70
     1
102
RTVSPropertyOp57
 70
     1
102
RTVSPropertyOp58
 70
     1
102
RTVSPropertyOp59
 70
     1
102
RTVSPropertyOp60
 70
     1
102
RTVSPropertyOp61
 70
     1
102
RTVSPropertyOp62
 70
     1
  0
XRECORD
  5
9A74
102
{ACAD_REACTORS
330
9A73
102
}
330
9A73
100
AcDbXrecord
280
     1
102
RTVSPost2010Prop28
280
     0
102
RTVSPost2010PropOp28
 70
     1
102
RTVSPost2010Prop29
280
     1
102
RTVSPost2010PropOp29
 70
     1
102
RTVSPost2010Prop30
280
     1
102
RTVSPost2010PropOp30
 70
     1
102
RTVSPost2010Prop31
280
     0
102
RTVSPost2010PropOp31
 70
     1
102
RTVSPost2010Prop32
280
     0
102
RTVSPost2010PropOp32
 70
     1
102
RTVSPost2010Prop33
280
     0
102
RTVSPost2010PropOp33
 70
     1
102
RTVSPost2010Prop34
280
     0
102
RTVSPost2010PropOp34
 70
     1
102
RTVSPost2010Prop35
280
     0
102
RTVSPost2010PropOp35
 70
     1
102
RTVSPost2010Prop36
280
     0
102
RTVSPost2010PropOp36
 70
     1
102
RTVSPost2010Prop37
 90
       50
102
RTVSPost2010PropOp37
 70
     1
102
RTVSPost2010Prop38
140
0.0
102
RTVSPost2010PropOp38
 70
     1
102
RTVSPost2010Prop39
140
1.0
102
RTVSPost2010PropOp39
 70
     1
102
RTVSPost2010Prop40
 90
        0
102
RTVSPost2010PropOp40
 70
     1
102
RTVSPost2010Prop41ColorIndex
 90
       18
102
RTVSPost2010Prop41ColorRGB
 90
        0
102
RTVSPost2010PropOp41
 70
     1
102
RTVSPost2010Prop42
 90
       50
102
RTVSPost2010PropOp42
 70
     1
102
RTVSPost2010Prop43
 90
        3
102
RTVSPost2010PropOp43
 70
     1
102
RTVSPost2010Prop44ColorIndex
 90
        5
102
RTVSPost2010Prop44ColorRGB
 90
      255
102
RTVSPost2010PropOp44
 70
     1
102
RTVSPost2010Prop45
280
     0
102
RTVSPost2010PropOp45
 70
     1
102
RTVSPost2010Prop46
 90
       50
102
RTVSPost2010PropOp46
 70
     1
102
RTVSPost2010Prop47
 90
       50
102
RTVSPost2010PropOp47
 70
     1
102
RTVSPost2010Prop48
 90
       50
102
RTVSPost2010PropOp48
 70
     1
102
RTVSPost2010Prop49
280
     0
102
RTVSPost2010PropOp49
 70
     1
102
RTVSPost2010Prop50
 90
       50
102
RTVSPost2010PropOp50
 70
     1
102
RTVSPost2010Prop51ColorIndex
 90
      256
102
RTVSPost2010Prop51ColorRGB
 90
-16777216
102
RTVSPost2010PropOp51
 70
     0
102
RTVSPost2010Prop52
140
1.0
102
RTVSPost2010PropOp52
 70
     0
102
RTVSPost2010Prop53
 90
        2
102
RTVSPost2010PropOp53
 70
     1
102
RTVSPost2010Prop54
  1
strokes_ogs.tif
102
RTVSPost2010PropOp54
 70
     1
102
RTVSPost2010Prop55
280
     0
102
RTVSPost2010PropOp55
 70
     1
102
RTVSPost2010Prop56
140
1.0
102
RTVSPost2010PropOp56
 70
     1
102
RTVSPost2010Prop57
140
1.0
102
RTVSPost2010PropOp57
 70
     1
102
RTVSPropertyOp0
 70
     1
102
RTVSPropertyOp1
 70
     1
102
RTVSPropertyOp2
 70
     1
102
RTVSPropertyOp3
 70
     1
102
RTVSPropertyOp4
 70
     1
102
RTVSPropertyOp5
 70
     1
102
RTVSPropertyOp6
 70
     1
102
RTVSPropertyOp7
 70
     1
102
RTVSPropertyOp8
 70
     1
102
RTVSPropertyOp9
 70
     1
102
RTVSPropertyOp10
 70
     1
102
RTVSPropertyOp11
 70
     1
102
RTVSPropertyOp12
 70
     1
102
RTVSPropertyOp13
 70
     1
102
RTVSPropertyOp14
 70
     1
102
RTVSPropertyOp15
 70
     1
102
RTVSPropertyOp16
 70
     1
102
RTVSPropertyOp17
 70
     1
102
RTVSPropertyOp18
 70
     1
102
RTVSPropertyOp19
 70
     1
102
RTVSPropertyOp20
 70
     1
102
RTVSPropertyOp21
 70
     1
102
RTVSPropertyOp22
 70
     1
102
RTVSPropertyOp23
 70
     1
102
RTVSPropertyOp24
 70
     1
102
RTVSPropertyOp25
 70
     1
102
RTVSPropertyOp26
 70
     1
102
RTVSPropertyOp27
 70
     1
102
RTVSPropertyOp28
 70
     1
102
RTVSPropertyOp29
 70
     1
102
RTVSPropertyOp30
 70
     1
102
RTVSPropertyOp31
 70
     1
102
RTVSPropertyOp32
 70
     1
102
RTVSPropertyOp33
 70
     1
102
RTVSPropertyOp34
 70
     1
102
RTVSPropertyOp35
 70
     1
102
RTVSPropertyOp36
 70
     1
102
RTVSPropertyOp37
 70
     1
102
RTVSPropertyOp38
 70
     1
102
RTVSPropertyOp39
 70
     1
102
RTVSPropertyOp40
 70
     1
102
RTVSPropertyOp41
 70
     1
102
RTVSPropertyOp42
 70
     1
102
RTVSPropertyOp43
 70
     1
102
RTVSPropertyOp44
 70
     1
102
RTVSPropertyOp45
 70
     1
102
RTVSPropertyOp46
 70
     1
102
RTVSPropertyOp47
 70
     1
102
RTVSPropertyOp48
 70
     1
102
RTVSPropertyOp49
 70
     1
102
RTVSPropertyOp50
 70
     1
102
RTVSPropertyOp51
 70
     0
102
RTVSPropertyOp52
 70
     0
102
RTVSPropertyOp53
 70
     1
102
RTVSPropertyOp54
 70
     1
102
RTVSPropertyOp55
 70
     1
102
RTVSPropertyOp56
 70
     1
102
RTVSPropertyOp57
 70
     1
102
RTVSPropertyOp58
 70
     1
102
RTVSPropertyOp59
 70
     1
102
RTVSPropertyOp60
 70
     1
102
RTVSPropertyOp61
 70
     1
102
RTVSPropertyOp62
 70
     1
  0
XRECORD
  5
9A76
102
{ACAD_REACTORS
330
9A75
102
}
330
9A75
100
AcDbXrecord
280
     1
102
RTVSPost2010Prop28
280
     0
102
RTVSPost2010PropOp28
 70
     1
102
RTVSPost2010Prop29
280
     1
102
RTVSPost2010PropOp29
 70
     1
102
RTVSPost2010Prop30
280
     1
102
RTVSPost2010PropOp30
 70
     1
102
RTVSPost2010Prop31
280
     0
102
RTVSPost2010PropOp31
 70
     1
102
RTVSPost2010Prop32
280
     0
102
RTVSPost2010PropOp32
 70
     1
102
RTVSPost2010Prop33
280
     0
102
RTVSPost2010PropOp33
 70
     1
102
RTVSPost2010Prop34
280
     0
102
RTVSPost2010PropOp34
 70
     1
102
RTVSPost2010Prop35
280
     0
102
RTVSPost2010PropOp35
 70
     1
102
RTVSPost2010Prop36
280
     0
102
RTVSPost2010PropOp36
 70
     1
102
RTVSPost2010Prop37
 90
       50
102
RTVSPost2010PropOp37
 70
     1
102
RTVSPost2010Prop38
140
0.0
102
RTVSPost2010PropOp38
 70
     1
102
RTVSPost2010Prop39
140
1.0
102
RTVSPost2010PropOp39
 70
     1
102
RTVSPost2010Prop40
 90
        0
102
RTVSPost2010PropOp40
 70
     1
102
RTVSPost2010Prop41ColorIndex
 90
       18
102
RTVSPost2010Prop41ColorRGB
 90
        0
102
RTVSPost2010PropOp41
 70
     1
102
RTVSPost2010Prop42
 90
       50
102
RTVSPost2010PropOp42
 70
     1
102
RTVSPost2010Prop43
 90
        3
102
RTVSPost2010PropOp43
 70
     1
102
RTVSPost2010Prop44ColorIndex
 90
        5
102
RTVSPost2010Prop44ColorRGB
 90
      255
102
RTVSPost2010PropOp44
 70
     1
102
RTVSPost2010Prop45
280
     0
102
RTVSPost2010PropOp45
 70
     1
102
RTVSPost2010Prop46
 90
       50
102
RTVSPost2010PropOp46
 70
     1
102
RTVSPost2010Prop47
 90
       50
102
RTVSPost2010PropOp47
 70
     1
102
RTVSPost2010Prop48
 90
       50
102
RTVSPost2010PropOp48
 70
     1
102
RTVSPost2010Prop49
280
     0
102
RTVSPost2010PropOp49
 70
     1
102
RTVSPost2010Prop50
 90
       50
102
RTVSPost2010PropOp50
 70
     1
102
RTVSPost2010Prop51ColorIndex
 90
      256
102
RTVSPost2010Prop51ColorRGB
 90
-16777216
102
RTVSPost2010PropOp51
 70
     0
102
RTVSPost2010Prop52
140
1.0
102
RTVSPost2010PropOp52
 70
     0
102
RTVSPost2010Prop53
 90
        2
102
RTVSPost2010PropOp53
 70
     1
102
RTVSPost2010Prop54
  1
strokes_ogs.tif
102
RTVSPost2010PropOp54
 70
     1
102
RTVSPost2010Prop55
280
     0
102
RTVSPost2010PropOp55
 70
     1
102
RTVSPost2010Prop56
140
1.0
102
RTVSPost2010PropOp56
 70
     1
102
RTVSPost2010Prop57
140
1.0
102
RTVSPost2010PropOp57
 70
     1
102
RTVSPropertyOp0
 70
     1
102
RTVSPropertyOp1
 70
     1
102
RTVSPropertyOp2
 70
     1
102
RTVSPropertyOp3
 70
     1
102
RTVSPropertyOp4
 70
     1
102
RTVSPropertyOp5
 70
     1
102
RTVSPropertyOp6
 70
     1
102
RTVSPropertyOp7
 70
     1
102
RTVSPropertyOp8
 70
     1
102
RTVSPropertyOp9
 70
     1
102
RTVSPropertyOp10
 70
     1
102
RTVSPropertyOp11
 70
     1
102
RTVSPropertyOp12
 70
     1
102
RTVSPropertyOp13
 70
     1
102
RTVSPropertyOp14
 70
     1
102
RTVSPropertyOp15
 70
     1
102
RTVSPropertyOp16
 70
     1
102
RTVSPropertyOp17
 70
     1
102
RTVSPropertyOp18
 70
     1
102
RTVSPropertyOp19
 70
     1
102
RTVSPropertyOp20
 70
     1
102
RTVSPropertyOp21
 70
     1
102
RTVSPropertyOp22
 70
     1
102
RTVSPropertyOp23
 70
     1
102
RTVSPropertyOp24
 70
     1
102
RTVSPropertyOp25
 70
     1
102
RTVSPropertyOp26
 70
     1
102
RTVSPropertyOp27
 70
     1
102
RTVSPropertyOp28
 70
     1
102
RTVSPropertyOp29
 70
     1
102
RTVSPropertyOp30
 70
     1
102
RTVSPropertyOp31
 70
     1
102
RTVSPropertyOp32
 70
     1
102
RTVSPropertyOp33
 70
     1
102
RTVSPropertyOp34
 70
     1
102
RTVSPropertyOp35
 70
     1
102
RTVSPropertyOp36
 70
     1
102
RTVSPropertyOp37
 70
     1
102
RTVSPropertyOp38
 70
     1
102
RTVSPropertyOp39
 70
     1
102
RTVSPropertyOp40
 70
     1
102
RTVSPropertyOp41
 70
     1
102
RTVSPropertyOp42
 70
     1
102
RTVSPropertyOp43
 70
     1
102
RTVSPropertyOp44
 70
     1
102
RTVSPropertyOp45
 70
     1
102
RTVSPropertyOp46
 70
     1
102
RTVSPropertyOp47
 70
     1
102
RTVSPropertyOp48
 70
     1
102
RTVSPropertyOp49
 70
     1
102
RTVSPropertyOp50
 70
     1
102
RTVSPropertyOp51
 70
     0
102
RTVSPropertyOp52
 70
     0
102
RTVSPropertyOp53
 70
     1
102
RTVSPropertyOp54
 70
     1
102
RTVSPropertyOp55
 70
     1
102
RTVSPropertyOp56
 70
     1
102
RTVSPropertyOp57
 70
     1
102
RTVSPropertyOp58
 70
     1
102
RTVSPropertyOp59
 70
     1
102
RTVSPropertyOp60
 70
     1
102
RTVSPropertyOp61
 70
     1
102
RTVSPropertyOp62
 70
     1
  0
XRECORD
  5
9A78
102
{ACAD_REACTORS
330
9A77
102
}
330
9A77
100
AcDbXrecord
280
     1
102
RTVSPost2010Prop28
280
     0
102
RTVSPost2010PropOp28
 70
     1
102
RTVSPost2010Prop29
280
     1
102
RTVSPost2010PropOp29
 70
     1
102
RTVSPost2010Prop30
280
     1
102
RTVSPost2010PropOp30
 70
     1
102
RTVSPost2010Prop31
280
     0
102
RTVSPost2010PropOp31
 70
     1
102
RTVSPost2010Prop32
280
     0
102
RTVSPost2010PropOp32
 70
     1
102
RTVSPost2010Prop33
280
     0
102
RTVSPost2010PropOp33
 70
     1
102
RTVSPost2010Prop34
280
     0
102
RTVSPost2010PropOp34
 70
     1
102
RTVSPost2010Prop35
280
     0
102
RTVSPost2010PropOp35
 70
     1
102
RTVSPost2010Prop36
280
     0
102
RTVSPost2010PropOp36
 70
     1
102
RTVSPost2010Prop37
 90
       50
102
RTVSPost2010PropOp37
 70
     1
102
RTVSPost2010Prop38
140
0.0
102
RTVSPost2010PropOp38
 70
     1
102
RTVSPost2010Prop39
140
1.0
102
RTVSPost2010PropOp39
 70
     1
102
RTVSPost2010Prop40
 90
        0
102
RTVSPost2010PropOp40
 70
     1
102
RTVSPost2010Prop41ColorIndex
 90
       18
102
RTVSPost2010Prop41ColorRGB
 90
        0
102
RTVSPost2010PropOp41
 70
     1
102
RTVSPost2010Prop42
 90
       50
102
RTVSPost2010PropOp42
 70
     1
102
RTVSPost2010Prop43
 90
        3
102
RTVSPost2010PropOp43
 70
     1
102
RTVSPost2010Prop44ColorIndex
 90
        5
102
RTVSPost2010Prop44ColorRGB
 90
      255
102
RTVSPost2010PropOp44
 70
     1
102
RTVSPost2010Prop45
280
     0
102
RTVSPost2010PropOp45
 70
     1
102
RTVSPost2010Prop46
 90
       50
102
RTVSPost2010PropOp46
 70
     1
102
RTVSPost2010Prop47
 90
       50
102
RTVSPost2010PropOp47
 70
     1
102
RTVSPost2010Prop48
 90
       50
102
RTVSPost2010PropOp48
 70
     1
102
RTVSPost2010Prop49
280
     0
102
RTVSPost2010PropOp49
 70
     1
102
RTVSPost2010Prop50
 90
       50
102
RTVSPost2010PropOp50
 70
     1
102
RTVSPost2010Prop51ColorIndex
 90
      256
102
RTVSPost2010Prop51ColorRGB
 90
-16777216
102
RTVSPost2010PropOp51
 70
     0
102
RTVSPost2010Prop52
140
1.0
102
RTVSPost2010PropOp52
 70
     0
102
RTVSPost2010Prop53
 90
        2
102
RTVSPost2010PropOp53
 70
     1
102
RTVSPost2010Prop54
  1
strokes_ogs.tif
102
RTVSPost2010PropOp54
 70
     1
102
RTVSPost2010Prop55
280
     0
102
RTVSPost2010PropOp55
 70
     1
102
RTVSPost2010Prop56
140
1.0
102
RTVSPost2010PropOp56
 70
     1
102
RTVSPost2010Prop57
140
1.0
102
RTVSPost2010PropOp57
 70
     1
102
RTVSPropertyOp0
 70
     1
102
RTVSPropertyOp1
 70
     1
102
RTVSPropertyOp2
 70
     1
102
RTVSPropertyOp3
 70
     1
102
RTVSPropertyOp4
 70
     1
102
RTVSPropertyOp5
 70
     1
102
RTVSPropertyOp6
 70
     1
102
RTVSPropertyOp7
 70
     1
102
RTVSPropertyOp8
 70
     1
102
RTVSPropertyOp9
 70
     1
102
RTVSPropertyOp10
 70
     1
102
RTVSPropertyOp11
 70
     1
102
RTVSPropertyOp12
 70
     1
102
RTVSPropertyOp13
 70
     1
102
RTVSPropertyOp14
 70
     1
102
RTVSPropertyOp15
 70
     1
102
RTVSPropertyOp16
 70
     1
102
RTVSPropertyOp17
 70
     1
102
RTVSPropertyOp18
 70
     1
102
RTVSPropertyOp19
 70
     1
102
RTVSPropertyOp20
 70
     1
102
RTVSPropertyOp21
 70
     1
102
RTVSPropertyOp22
 70
     1
102
RTVSPropertyOp23
 70
     1
102
RTVSPropertyOp24
 70
     1
102
RTVSPropertyOp25
 70
     1
102
RTVSPropertyOp26
 70
     1
102
RTVSPropertyOp27
 70
     1
102
RTVSPropertyOp28
 70
     1
102
RTVSPropertyOp29
 70
     1
102
RTVSPropertyOp30
 70
     1
102
RTVSPropertyOp31
 70
     1
102
RTVSPropertyOp32
 70
     1
102
RTVSPropertyOp33
 70
     1
102
RTVSPropertyOp34
 70
     1
102
RTVSPropertyOp35
 70
     1
102
RTVSPropertyOp36
 70
     1
102
RTVSPropertyOp37
 70
     1
102
RTVSPropertyOp38
 70
     1
102
RTVSPropertyOp39
 70
     1
102
RTVSPropertyOp40
 70
     1
102
RTVSPropertyOp41
 70
     1
102
RTVSPropertyOp42
 70
     1
102
RTVSPropertyOp43
 70
     1
102
RTVSPropertyOp44
 70
     1
102
RTVSPropertyOp45
 70
     1
102
RTVSPropertyOp46
 70
     1
102
RTVSPropertyOp47
 70
     1
102
RTVSPropertyOp48
 70
     1
102
RTVSPropertyOp49
 70
     1
102
RTVSPropertyOp50
 70
     1
102
RTVSPropertyOp51
 70
     0
102
RTVSPropertyOp52
 70
     0
102
RTVSPropertyOp53
 70
     1
102
RTVSPropertyOp54
 70
     1
102
RTVSPropertyOp55
 70
     1
102
RTVSPropertyOp56
 70
     1
102
RTVSPropertyOp57
 70
     1
102
RTVSPropertyOp58
 70
     1
102
RTVSPropertyOp59
 70
     1
102
RTVSPropertyOp60
 70
     1
102
RTVSPropertyOp61
 70
     1
102
RTVSPropertyOp62
 70
     1
  0
XRECORD
  5
9A80
102
{ACAD_REACTORS
330
9A7F
102
}
330
9A7F
100
AcDbXrecord
280
     1
102
RTVSPost2010Prop28
280
     0
102
RTVSPost2010PropOp28
 70
     1
102
RTVSPost2010Prop29
280
     1
102
RTVSPost2010PropOp29
 70
     1
102
RTVSPost2010Prop30
280
     1
102
RTVSPost2010PropOp30
 70
     1
102
RTVSPost2010Prop31
280
     0
102
RTVSPost2010PropOp31
 70
     1
102
RTVSPost2010Prop32
280
     0
102
RTVSPost2010PropOp32
 70
     1
102
RTVSPost2010Prop33
280
     0
102
RTVSPost2010PropOp33
 70
     1
102
RTVSPost2010Prop34
280
     0
102
RTVSPost2010PropOp34
 70
     1
102
RTVSPost2010Prop35
280
     0
102
RTVSPost2010PropOp35
 70
     1
102
RTVSPost2010Prop36
280
     0
102
RTVSPost2010PropOp36
 70
     1
102
RTVSPost2010Prop37
 90
       50
102
RTVSPost2010PropOp37
 70
     1
102
RTVSPost2010Prop38
140
0.0
102
RTVSPost2010PropOp38
 70
     1
102
RTVSPost2010Prop39
140
1.0
102
RTVSPost2010PropOp39
 70
     1
102
RTVSPost2010Prop40
 90
        0
102
RTVSPost2010PropOp40
 70
     1
102
RTVSPost2010Prop41ColorIndex
 90
       18
102
RTVSPost2010Prop41ColorRGB
 90
        0
102
RTVSPost2010PropOp41
 70
     1
102
RTVSPost2010Prop42
 90
       50
102
RTVSPost2010PropOp42
 70
     1
102
RTVSPost2010Prop43
 90
        3
102
RTVSPost2010PropOp43
 70
     1
102
RTVSPost2010Prop44ColorIndex
 90
        5
102
RTVSPost2010Prop44ColorRGB
 90
      255
102
RTVSPost2010PropOp44
 70
     1
102
RTVSPost2010Prop45
280
     0
102
RTVSPost2010PropOp45
 70
     1
102
RTVSPost2010Prop46
 90
       50
102
RTVSPost2010PropOp46
 70
     1
102
RTVSPost2010Prop47
 90
       50
102
RTVSPost2010PropOp47
 70
     1
102
RTVSPost2010Prop48
 90
       50
102
RTVSPost2010PropOp48
 70
     1
102
RTVSPost2010Prop49
280
     0
102
RTVSPost2010PropOp49
 70
     1
102
RTVSPost2010Prop50
 90
       50
102
RTVSPost2010PropOp50
 70
     1
102
RTVSPost2010Prop51ColorIndex
 90
      256
102
RTVSPost2010Prop51ColorRGB
 90
-16777216
102
RTVSPost2010PropOp51
 70
     0
102
RTVSPost2010Prop52
140
1.0
102
RTVSPost2010PropOp52
 70
     0
102
RTVSPost2010Prop53
 90
        2
102
RTVSPost2010PropOp53
 70
     1
102
RTVSPost2010Prop54
  1
strokes_ogs.tif
102
RTVSPost2010PropOp54
 70
     1
102
RTVSPost2010Prop55
280
     0
102
RTVSPost2010PropOp55
 70
     1
102
RTVSPost2010Prop56
140
1.0
102
RTVSPost2010PropOp56
 70
     1
102
RTVSPost2010Prop57
140
1.0
102
RTVSPost2010PropOp57
 70
     1
102
RTVSPropertyOp0
 70
     1
102
RTVSPropertyOp1
 70
     1
102
RTVSPropertyOp2
 70
     1
102
RTVSPropertyOp3
 70
     1
102
RTVSPropertyOp4
 70
     1
102
RTVSPropertyOp5
 70
     1
102
RTVSPropertyOp6
 70
     1
102
RTVSPropertyOp7
 70
     1
102
RTVSPropertyOp8
 70
     1
102
RTVSPropertyOp9
 70
     1
102
RTVSPropertyOp10
 70
     1
102
RTVSPropertyOp11
 70
     1
102
RTVSPropertyOp12
 70
     1
102
RTVSPropertyOp13
 70
     1
102
RTVSPropertyOp14
 70
     1
102
RTVSPropertyOp15
 70
     1
102
RTVSPropertyOp16
 70
     1
102
RTVSPropertyOp17
 70
     1
102
RTVSPropertyOp18
 70
     1
102
RTVSPropertyOp19
 70
     1
102
RTVSPropertyOp20
 70
     1
102
RTVSPropertyOp21
 70
     1
102
RTVSPropertyOp22
 70
     1
102
RTVSPropertyOp23
 70
     1
102
RTVSPropertyOp24
 70
     1
102
RTVSPropertyOp25
 70
     1
102
RTVSPropertyOp26
 70
     1
102
RTVSPropertyOp27
 70
     1
102
RTVSPropertyOp28
 70
     1
102
RTVSPropertyOp29
 70
     1
102
RTVSPropertyOp30
 70
     1
102
RTVSPropertyOp31
 70
     1
102
RTVSPropertyOp32
 70
     1
102
RTVSPropertyOp33
 70
     1
102
RTVSPropertyOp34
 70
     1
102
RTVSPropertyOp35
 70
     1
102
RTVSPropertyOp36
 70
     1
102
RTVSPropertyOp37
 70
     1
102
RTVSPropertyOp38
 70
     1
102
RTVSPropertyOp39
 70
     1
102
RTVSPropertyOp40
 70
     1
102
RTVSPropertyOp41
 70
     1
102
RTVSPropertyOp42
 70
     1
102
RTVSPropertyOp43
 70
     1
102
RTVSPropertyOp44
 70
     1
102
RTVSPropertyOp45
 70
     1
102
RTVSPropertyOp46
 70
     1
102
RTVSPropertyOp47
 70
     1
102
RTVSPropertyOp48
 70
     1
102
RTVSPropertyOp49
 70
     1
102
RTVSPropertyOp50
 70
     1
102
RTVSPropertyOp51
 70
     0
102
RTVSPropertyOp52
 70
     0
102
RTVSPropertyOp53
 70
     1
102
RTVSPropertyOp54
 70
     1
102
RTVSPropertyOp55
 70
     1
102
RTVSPropertyOp56
 70
     1
102
RTVSPropertyOp57
 70
     1
102
RTVSPropertyOp58
 70
     1
102
RTVSPropertyOp59
 70
     1
102
RTVSPropertyOp60
 70
     1
102
RTVSPropertyOp61
 70
     1
102
RTVSPropertyOp62
 70
     1
  0
XRECORD
  5
9A9C
102
{ACAD_REACTORS
330
9A9B
102
}
330
9A9B
100
AcDbXrecord
280
     1
102
RTVSPost2010Prop28
280
     0
102
RTVSPost2010PropOp28
 70
     1
102
RTVSPost2010Prop29
280
     1
102
RTVSPost2010PropOp29
 70
     1
102
RTVSPost2010Prop30
280
     1
102
RTVSPost2010PropOp30
 70
     1
102
RTVSPost2010Prop31
280
     0
102
RTVSPost2010PropOp31
 70
     1
102
RTVSPost2010Prop32
280
     0
102
RTVSPost2010PropOp32
 70
     1
102
RTVSPost2010Prop33
280
     0
102
RTVSPost2010PropOp33
 70
     1
102
RTVSPost2010Prop34
280
     0
102
RTVSPost2010PropOp34
 70
     1
102
RTVSPost2010Prop35
280
     0
102
RTVSPost2010PropOp35
 70
     1
102
RTVSPost2010Prop36
280
     0
102
RTVSPost2010PropOp36
 70
     1
102
RTVSPost2010Prop37
 90
       50
102
RTVSPost2010PropOp37
 70
     0
102
RTVSPost2010Prop38
140
0.0
102
RTVSPost2010PropOp38
 70
     0
102
RTVSPost2010Prop39
140
1.0
102
RTVSPost2010PropOp39
 70
     0
102
RTVSPost2010Prop40
 90
        0
102
RTVSPost2010PropOp40
 70
     0
102
RTVSPost2010Prop41ColorIndex
 90
       18
102
RTVSPost2010Prop41ColorRGB
 90
        0
102
RTVSPost2010PropOp41
 70
     0
102
RTVSPost2010Prop42
 90
       50
102
RTVSPost2010PropOp42
 70
     0
102
RTVSPost2010Prop43
 90
        3
102
RTVSPost2010PropOp43
 70
     0
102
RTVSPost2010Prop44ColorIndex
 90
        5
102
RTVSPost2010Prop44ColorRGB
 90
      255
102
RTVSPost2010PropOp44
 70
     0
102
RTVSPost2010Prop45
280
     0
102
RTVSPost2010PropOp45
 70
     1
102
RTVSPost2010Prop46
 90
       50
102
RTVSPost2010PropOp46
 70
     0
102
RTVSPost2010Prop47
 90
       50
102
RTVSPost2010PropOp47
 70
     0
102
RTVSPost2010Prop48
 90
       50
102
RTVSPost2010PropOp48
 70
     0
102
RTVSPost2010Prop49
280
     0
102
RTVSPost2010PropOp49
 70
     1
102
RTVSPost2010Prop50
 90
       50
102
RTVSPost2010PropOp50
 70
     0
102
RTVSPost2010Prop51ColorIndex
 90
      256
102
RTVSPost2010Prop51ColorRGB
 90
-16777216
102
RTVSPost2010PropOp51
 70
     0
102
RTVSPost2010Prop52
140
1.0
102
RTVSPost2010PropOp52
 70
     0
102
RTVSPost2010Prop53
 90
        2
102
RTVSPost2010PropOp53
 70
     0
102
RTVSPost2010Prop54
  1
strokes_ogs.tif
102
RTVSPost2010PropOp54
 70
     0
102
RTVSPost2010Prop55
280
     0
102
RTVSPost2010PropOp55
 70
     1
102
RTVSPost2010Prop56
140
1.0
102
RTVSPost2010PropOp56
 70
     0
102
RTVSPost2010Prop57
140
1.0
102
RTVSPost2010PropOp57
 70
     0
102
RTVSPropertyOp0
 70
     0
102
RTVSPropertyOp1
 70
     0
102
RTVSPropertyOp2
 70
     0
102
RTVSPropertyOp3
 70
     0
102
RTVSPropertyOp4
 70
     0
102
RTVSPropertyOp5
 70
     0
102
RTVSPropertyOp6
 70
     0
102
RTVSPropertyOp7
 70
     0
102
RTVSPropertyOp8
 70
     0
102
RTVSPropertyOp9
 70
     0
102
RTVSPropertyOp10
 70
     0
102
RTVSPropertyOp11
 70
     0
102
RTVSPropertyOp12
 70
     0
102
RTVSPropertyOp13
 70
     0
102
RTVSPropertyOp14
 70
     2
102
RTVSPropertyOp15
 70
     0
102
RTVSPropertyOp16
 70
     0
102
RTVSPropertyOp17
 70
     0
102
RTVSPropertyOp18
 70
     0
102
RTVSPropertyOp19
 70
     0
102
RTVSPropertyOp20
 70
     0
102
RTVSPropertyOp21
 70
     0
102
RTVSPropertyOp22
 70
     0
102
RTVSPropertyOp23
 70
     0
102
RTVSPropertyOp24
 70
     0
102
RTVSPropertyOp25
 70
     0
102
RTVSPropertyOp26
 70
     0
102
RTVSPropertyOp27
 70
     0
102
RTVSPropertyOp28
 70
     1
102
RTVSPropertyOp29
 70
     1
102
RTVSPropertyOp30
 70
     1
102
RTVSPropertyOp31
 70
     1
102
RTVSPropertyOp32
 70
     1
102
RTVSPropertyOp33
 70
     1
102
RTVSPropertyOp34
 70
     1
102
RTVSPropertyOp35
 70
     1
102
RTVSPropertyOp36
 70
     1
102
RTVSPropertyOp37
 70
     0
102
RTVSPropertyOp38
 70
     0
102
RTVSPropertyOp39
 70
     0
102
RTVSPropertyOp40
 70
     0
102
RTVSPropertyOp41
 70
     0
102
RTVSPropertyOp42
 70
     0
102
RTVSPropertyOp43
 70
     0
102
RTVSPropertyOp44
 70
     0
102
RTVSPropertyOp45
 70
     1
102
RTVSPropertyOp46
 70
     0
102
RTVSPropertyOp47
 70
     0
102
RTVSPropertyOp48
 70
     0
102
RTVSPropertyOp49
 70
     1
102
RTVSPropertyOp50
 70
     0
102
RTVSPropertyOp51
 70
     0
102
RTVSPropertyOp52
 70
     0
102
RTVSPropertyOp53
 70
     0
102
RTVSPropertyOp54
 70
     0
102
RTVSPropertyOp55
 70
     1
102
RTVSPropertyOp56
 70
     0
102
RTVSPropertyOp57
 70
     0
102
RTVSPropertyOp58
 70
     0
102
RTVSPropertyOp59
 70
     0
102
RTVSPropertyOp60
 70
     0
102
RTVSPropertyOp61
 70
     0
102
RTVSPropertyOp62
 70
     0
  0
XRECORD
  5
9A8C
102
{ACAD_REACTORS
330
9A8B
102
}
330
9A8B
100
AcDbXrecord
280
     1
102
RTVSPost2010Prop28
280
     0
102
RTVSPost2010PropOp28
 70
     1
102
RTVSPost2010Prop29
280
     1
102
RTVSPost2010PropOp29
 70
     1
102
RTVSPost2010Prop30
280
     1
102
RTVSPost2010PropOp30
 70
     1
102
RTVSPost2010Prop31
280
     0
102
RTVSPost2010PropOp31
 70
     1
102
RTVSPost2010Prop32
280
     0
102
RTVSPost2010PropOp32
 70
     1
102
RTVSPost2010Prop33
280
     0
102
RTVSPost2010PropOp33
 70
     1
102
RTVSPost2010Prop34
280
     0
102
RTVSPost2010PropOp34
 70
     1
102
RTVSPost2010Prop35
280
     0
102
RTVSPost2010PropOp35
 70
     1
102
RTVSPost2010Prop36
280
     0
102
RTVSPost2010PropOp36
 70
     1
102
RTVSPost2010Prop37
 90
       50
102
RTVSPost2010PropOp37
 70
     1
102
RTVSPost2010Prop38
140
0.0
102
RTVSPost2010PropOp38
 70
     1
102
RTVSPost2010Prop39
140
1.0
102
RTVSPost2010PropOp39
 70
     1
102
RTVSPost2010Prop40
 90
        0
102
RTVSPost2010PropOp40
 70
     1
102
RTVSPost2010Prop41ColorIndex
 90
       18
102
RTVSPost2010Prop41ColorRGB
 90
        0
102
RTVSPost2010PropOp41
 70
     1
102
RTVSPost2010Prop42
 90
       50
102
RTVSPost2010PropOp42
 70
     1
102
RTVSPost2010Prop43
 90
        3
102
RTVSPost2010PropOp43
 70
     1
102
RTVSPost2010Prop44ColorIndex
 90
        5
102
RTVSPost2010Prop44ColorRGB
 90
      255
102
RTVSPost2010PropOp44
 70
     1
102
RTVSPost2010Prop45
280
     0
102
RTVSPost2010PropOp45
 70
     1
102
RTVSPost2010Prop46
 90
       50
102
RTVSPost2010PropOp46
 70
     1
102
RTVSPost2010Prop47
 90
       50
102
RTVSPost2010PropOp47
 70
     1
102
RTVSPost2010Prop48
 90
       50
102
RTVSPost2010PropOp48
 70
     1
102
RTVSPost2010Prop49
280
     0
102
RTVSPost2010PropOp49
 70
     1
102
RTVSPost2010Prop50
 90
       50
102
RTVSPost2010PropOp50
 70
     1
102
RTVSPost2010Prop51ColorIndex
 90
      256
102
RTVSPost2010Prop51ColorRGB
 90
-16777216
102
RTVSPost2010PropOp51
 70
     0
102
RTVSPost2010Prop52
140
1.0
102
RTVSPost2010PropOp52
 70
     0
102
RTVSPost2010Prop53
 90
        2
102
RTVSPost2010PropOp53
 70
     1
102
RTVSPost2010Prop54
  1
strokes_ogs.tif
102
RTVSPost2010PropOp54
 70
     1
102
RTVSPost2010Prop55
280
     0
102
RTVSPost2010PropOp55
 70
     1
102
RTVSPost2010Prop56
140
1.0
102
RTVSPost2010PropOp56
 70
     1
102
RTVSPost2010Prop57
140
1.0
102
RTVSPost2010PropOp57
 70
     1
102
RTVSPropertyOp0
 70
     1
102
RTVSPropertyOp1
 70
     1
102
RTVSPropertyOp2
 70
     1
102
RTVSPropertyOp3
 70
     1
102
RTVSPropertyOp4
 70
     1
102
RTVSPropertyOp5
 70
     1
102
RTVSPropertyOp6
 70
     1
102
RTVSPropertyOp7
 70
     1
102
RTVSPropertyOp8
 70
     1
102
RTVSPropertyOp9
 70
     1
102
RTVSPropertyOp10
 70
     1
102
RTVSPropertyOp11
 70
     1
102
RTVSPropertyOp12
 70
     1
102
RTVSPropertyOp13
 70
     1
102
RTVSPropertyOp14
 70
     1
102
RTVSPropertyOp15
 70
     1
102
RTVSPropertyOp16
 70
     1
102
RTVSPropertyOp17
 70
     1
102
RTVSPropertyOp18
 70
     1
102
RTVSPropertyOp19
 70
     1
102
RTVSPropertyOp20
 70
     1
102
RTVSPropertyOp21
 70
     1
102
RTVSPropertyOp22
 70
     1
102
RTVSPropertyOp23
 70
     1
102
RTVSPropertyOp24
 70
     1
102
RTVSPropertyOp25
 70
     1
102
RTVSPropertyOp26
 70
     1
102
RTVSPropertyOp27
 70
     1
102
RTVSPropertyOp28
 70
     1
102
RTVSPropertyOp29
 70
     1
102
RTVSPropertyOp30
 70
     1
102
RTVSPropertyOp31
 70
     1
102
RTVSPropertyOp32
 70
     1
102
RTVSPropertyOp33
 70
     1
102
RTVSPropertyOp34
 70
     1
102
RTVSPropertyOp35
 70
     1
102
RTVSPropertyOp36
 70
     1
102
RTVSPropertyOp37
 70
     1
102
RTVSPropertyOp38
 70
     1
102
RTVSPropertyOp39
 70
     1
102
RTVSPropertyOp40
 70
     1
102
RTVSPropertyOp41
 70
     1
102
RTVSPropertyOp42
 70
     1
102
RTVSPropertyOp43
 70
     1
102
RTVSPropertyOp44
 70
     1
102
RTVSPropertyOp45
 70
     1
102
RTVSPropertyOp46
 70
     1
102
RTVSPropertyOp47
 70
     1
102
RTVSPropertyOp48
 70
     1
102
RTVSPropertyOp49
 70
     1
102
RTVSPropertyOp50
 70
     1
102
RTVSPropertyOp51
 70
     0
102
RTVSPropertyOp52
 70
     0
102
RTVSPropertyOp53
 70
     1
102
RTVSPropertyOp54
 70
     1
102
RTVSPropertyOp55
 70
     1
102
RTVSPropertyOp56
 70
     1
102
RTVSPropertyOp57
 70
     1
102
RTVSPropertyOp58
 70
     1
102
RTVSPropertyOp59
 70
     1
102
RTVSPropertyOp60
 70
     1
102
RTVSPropertyOp61
 70
     1
102
RTVSPropertyOp62
 70
     1
  0
XRECORD
  5
9A9E
102
{ACAD_REACTORS
330
9A9D
102
}
330
9A9D
100
AcDbXrecord
280
     1
102
RTVSPost2010Prop28
280
     0
102
RTVSPost2010PropOp28
 70
     1
102
RTVSPost2010Prop29
280
     1
102
RTVSPost2010PropOp29
 70
     1
102
RTVSPost2010Prop30
280
     1
102
RTVSPost2010PropOp30
 70
     1
102
RTVSPost2010Prop31
280
     0
102
RTVSPost2010PropOp31
 70
     1
102
RTVSPost2010Prop32
280
     0
102
RTVSPost2010PropOp32
 70
     1
102
RTVSPost2010Prop33
280
     0
102
RTVSPost2010PropOp33
 70
     1
102
RTVSPost2010Prop34
280
     0
102
RTVSPost2010PropOp34
 70
     1
102
RTVSPost2010Prop35
280
     0
102
RTVSPost2010PropOp35
 70
     1
102
RTVSPost2010Prop36
280
     0
102
RTVSPost2010PropOp36
 70
     1
102
RTVSPost2010Prop37
 90
       50
102
RTVSPost2010PropOp37
 70
     0
102
RTVSPost2010Prop38
140
0.0
102
RTVSPost2010PropOp38
 70
     0
102
RTVSPost2010Prop39
140
1.0
102
RTVSPost2010PropOp39
 70
     0
102
RTVSPost2010Prop40
 90
        0
102
RTVSPost2010PropOp40
 70
     0
102
RTVSPost2010Prop41ColorIndex
 90
       18
102
RTVSPost2010Prop41ColorRGB
 90
        0
102
RTVSPost2010PropOp41
 70
     0
102
RTVSPost2010Prop42
 90
       50
102
RTVSPost2010PropOp42
 70
     0
102
RTVSPost2010Prop43
 90
        3
102
RTVSPost2010PropOp43
 70
     0
102
RTVSPost2010Prop44ColorIndex
 90
        5
102
RTVSPost2010Prop44ColorRGB
 90
      255
102
RTVSPost2010PropOp44
 70
     0
102
RTVSPost2010Prop45
280
     0
102
RTVSPost2010PropOp45
 70
     1
102
RTVSPost2010Prop46
 90
       50
102
RTVSPost2010PropOp46
 70
     0
102
RTVSPost2010Prop47
 90
       50
102
RTVSPost2010PropOp47
 70
     0
102
RTVSPost2010Prop48
 90
       50
102
RTVSPost2010PropOp48
 70
     0
102
RTVSPost2010Prop49
280
     0
102
RTVSPost2010PropOp49
 70
     1
102
RTVSPost2010Prop50
 90
       50
102
RTVSPost2010PropOp50
 70
     0
102
RTVSPost2010Prop51ColorIndex
 90
      256
102
RTVSPost2010Prop51ColorRGB
 90
-16777216
102
RTVSPost2010PropOp51
 70
     0
102
RTVSPost2010Prop52
140
1.0
102
RTVSPost2010PropOp52
 70
     0
102
RTVSPost2010Prop53
 90
        2
102
RTVSPost2010PropOp53
 70
     0
102
RTVSPost2010Prop54
  1
strokes_ogs.tif
102
RTVSPost2010PropOp54
 70
     0
102
RTVSPost2010Prop55
280
     0
102
RTVSPost2010PropOp55
 70
     1
102
RTVSPost2010Prop56
140
1.0
102
RTVSPost2010PropOp56
 70
     0
102
RTVSPost2010Prop57
140
1.0
102
RTVSPost2010PropOp57
 70
     0
102
RTVSPropertyOp0
 70
     0
102
RTVSPropertyOp1
 70
     0
102
RTVSPropertyOp2
 70
     0
102
RTVSPropertyOp3
 70
     0
102
RTVSPropertyOp4
 70
     0
102
RTVSPropertyOp5
 70
     0
102
RTVSPropertyOp6
 70
     0
102
RTVSPropertyOp7
 70
     0
102
RTVSPropertyOp8
 70
     0
102
RTVSPropertyOp9
 70
     0
102
RTVSPropertyOp10
 70
     0
102
RTVSPropertyOp11
 70
     0
102
RTVSPropertyOp12
 70
     0
102
RTVSPropertyOp13
 70
     0
102
RTVSPropertyOp14
 70
     2
102
RTVSPropertyOp15
 70
     0
102
RTVSPropertyOp16
 70
     0
102
RTVSPropertyOp17
 70
     0
102
RTVSPropertyOp18
 70
     0
102
RTVSPropertyOp19
 70
     0
102
RTVSPropertyOp20
 70
     0
102
RTVSPropertyOp21
 70
     0
102
RTVSPropertyOp22
 70
     0
102
RTVSPropertyOp23
 70
     0
102
RTVSPropertyOp24
 70
     0
102
RTVSPropertyOp25
 70
     0
102
RTVSPropertyOp26
 70
     0
102
RTVSPropertyOp27
 70
     0
102
RTVSPropertyOp28
 70
     1
102
RTVSPropertyOp29
 70
     1
102
RTVSPropertyOp30
 70
     1
102
RTVSPropertyOp31
 70
     1
102
RTVSPropertyOp32
 70
     1
102
RTVSPropertyOp33
 70
     1
102
RTVSPropertyOp34
 70
     1
102
RTVSPropertyOp35
 70
     1
102
RTVSPropertyOp36
 70
     1
102
RTVSPropertyOp37
 70
     0
102
RTVSPropertyOp38
 70
     0
102
RTVSPropertyOp39
 70
     0
102
RTVSPropertyOp40
 70
     0
102
RTVSPropertyOp41
 70
     0
102
RTVSPropertyOp42
 70
     0
102
RTVSPropertyOp43
 70
     0
102
RTVSPropertyOp44
 70
     0
102
RTVSPropertyOp45
 70
     1
102
RTVSPropertyOp46
 70
     0
102
RTVSPropertyOp47
 70
     0
102
RTVSPropertyOp48
 70
     0
102
RTVSPropertyOp49
 70
     1
102
RTVSPropertyOp50
 70
     0
102
RTVSPropertyOp51
 70
     0
102
RTVSPropertyOp52
 70
     0
102
RTVSPropertyOp53
 70
     0
102
RTVSPropertyOp54
 70
     0
102
RTVSPropertyOp55
 70
     1
102
RTVSPropertyOp56
 70
     0
102
RTVSPropertyOp57
 70
     0
102
RTVSPropertyOp58
 70
     0
102
RTVSPropertyOp59
 70
     0
102
RTVSPropertyOp60
 70
     0
102
RTVSPropertyOp61
 70
     0
102
RTVSPropertyOp62
 70
     0
  0
XRECORD
  5
9A84
102
{ACAD_REACTORS
330
9A83
102
}
330
9A83
100
AcDbXrecord
280
     1
102
RTVSPost2010Prop28
280
     0
102
RTVSPost2010PropOp28
 70
     1
102
RTVSPost2010Prop29
280
     1
102
RTVSPost2010PropOp29
 70
     1
102
RTVSPost2010Prop30
280
     1
102
RTVSPost2010PropOp30
 70
     1
102
RTVSPost2010Prop31
280
     0
102
RTVSPost2010PropOp31
 70
     1
102
RTVSPost2010Prop32
280
     0
102
RTVSPost2010PropOp32
 70
     1
102
RTVSPost2010Prop33
280
     0
102
RTVSPost2010PropOp33
 70
     1
102
RTVSPost2010Prop34
280
     0
102
RTVSPost2010PropOp34
 70
     1
102
RTVSPost2010Prop35
280
     0
102
RTVSPost2010PropOp35
 70
     1
102
RTVSPost2010Prop36
280
     0
102
RTVSPost2010PropOp36
 70
     1
102
RTVSPost2010Prop37
 90
       50
102
RTVSPost2010PropOp37
 70
     1
102
RTVSPost2010Prop38
140
0.0
102
RTVSPost2010PropOp38
 70
     1
102
RTVSPost2010Prop39
140
1.0
102
RTVSPost2010PropOp39
 70
     1
102
RTVSPost2010Prop40
 90
        0
102
RTVSPost2010PropOp40
 70
     1
102
RTVSPost2010Prop41ColorIndex
 90
       18
102
RTVSPost2010Prop41ColorRGB
 90
        0
102
RTVSPost2010PropOp41
 70
     1
102
RTVSPost2010Prop42
 90
       50
102
RTVSPost2010PropOp42
 70
     1
102
RTVSPost2010Prop43
 90
        3
102
RTVSPost2010PropOp43
 70
     1
102
RTVSPost2010Prop44ColorIndex
 90
        5
102
RTVSPost2010Prop44ColorRGB
 90
      255
102
RTVSPost2010PropOp44
 70
     1
102
RTVSPost2010Prop45
280
     0
102
RTVSPost2010PropOp45
 70
     1
102
RTVSPost2010Prop46
 90
       50
102
RTVSPost2010PropOp46
 70
     1
102
RTVSPost2010Prop47
 90
       50
102
RTVSPost2010PropOp47
 70
     1
102
RTVSPost2010Prop48
 90
       50
102
RTVSPost2010PropOp48
 70
     1
102
RTVSPost2010Prop49
280
     0
102
RTVSPost2010PropOp49
 70
     1
102
RTVSPost2010Prop50
 90
       50
102
RTVSPost2010PropOp50
 70
     1
102
RTVSPost2010Prop51ColorIndex
 90
      256
102
RTVSPost2010Prop51ColorRGB
 90
-16777216
102
RTVSPost2010PropOp51
 70
     0
102
RTVSPost2010Prop52
140
1.0
102
RTVSPost2010PropOp52
 70
     0
102
RTVSPost2010Prop53
 90
        2
102
RTVSPost2010PropOp53
 70
     1
102
RTVSPost2010Prop54
  1
strokes_ogs.tif
102
RTVSPost2010PropOp54
 70
     1
102
RTVSPost2010Prop55
280
     0
102
RTVSPost2010PropOp55
 70
     1
102
RTVSPost2010Prop56
140
1.0
102
RTVSPost2010PropOp56
 70
     1
102
RTVSPost2010Prop57
140
1.0
102
RTVSPost2010PropOp57
 70
     1
102
RTVSPropertyOp0
 70
     1
102
RTVSPropertyOp1
 70
     1
102
RTVSPropertyOp2
 70
     1
102
RTVSPropertyOp3
 70
     1
102
RTVSPropertyOp4
 70
     1
102
RTVSPropertyOp5
 70
     1
102
RTVSPropertyOp6
 70
     1
102
RTVSPropertyOp7
 70
     1
102
RTVSPropertyOp8
 70
     1
102
RTVSPropertyOp9
 70
     1
102
RTVSPropertyOp10
 70
     1
102
RTVSPropertyOp11
 70
     1
102
RTVSPropertyOp12
 70
     1
102
RTVSPropertyOp13
 70
     1
102
RTVSPropertyOp14
 70
     1
102
RTVSPropertyOp15
 70
     1
102
RTVSPropertyOp16
 70
     1
102
RTVSPropertyOp17
 70
     1
102
RTVSPropertyOp18
 70
     1
102
RTVSPropertyOp19
 70
     1
102
RTVSPropertyOp20
 70
     1
102
RTVSPropertyOp21
 70
     1
102
RTVSPropertyOp22
 70
     1
102
RTVSPropertyOp23
 70
     1
102
RTVSPropertyOp24
 70
     1
102
RTVSPropertyOp25
 70
     1
102
RTVSPropertyOp26
 70
     1
102
RTVSPropertyOp27
 70
     1
102
RTVSPropertyOp28
 70
     1
102
RTVSPropertyOp29
 70
     1
102
RTVSPropertyOp30
 70
     1
102
RTVSPropertyOp31
 70
     1
102
RTVSPropertyOp32
 70
     1
102
RTVSPropertyOp33
 70
     1
102
RTVSPropertyOp34
 70
     1
102
RTVSPropertyOp35
 70
     1
102
RTVSPropertyOp36
 70
     1
102
RTVSPropertyOp37
 70
     1
102
RTVSPropertyOp38
 70
     1
102
RTVSPropertyOp39
 70
     1
102
RTVSPropertyOp40
 70
     1
102
RTVSPropertyOp41
 70
     1
102
RTVSPropertyOp42
 70
     1
102
RTVSPropertyOp43
 70
     1
102
RTVSPropertyOp44
 70
     1
102
RTVSPropertyOp45
 70
     1
102
RTVSPropertyOp46
 70
     1
102
RTVSPropertyOp47
 70
     1
102
RTVSPropertyOp48
 70
     1
102
RTVSPropertyOp49
 70
     1
102
RTVSPropertyOp50
 70
     1
102
RTVSPropertyOp51
 70
     0
102
RTVSPropertyOp52
 70
     0
102
RTVSPropertyOp53
 70
     1
102
RTVSPropertyOp54
 70
     1
102
RTVSPropertyOp55
 70
     1
102
RTVSPropertyOp56
 70
     1
102
RTVSPropertyOp57
 70
     1
102
RTVSPropertyOp58
 70
     1
102
RTVSPropertyOp59
 70
     1
102
RTVSPropertyOp60
 70
     1
102
RTVSPropertyOp61
 70
     1
102
RTVSPropertyOp62
 70
     1
  0
XRECORD
  5
9A9A
102
{ACAD_REACTORS
330
9A99
102
}
330
9A99
100
AcDbXrecord
280
     1
102
RTVSPost2010Prop28
280
     0
102
RTVSPost2010PropOp28
 70
     1
102
RTVSPost2010Prop29
280
     1
102
RTVSPost2010PropOp29
 70
     1
102
RTVSPost2010Prop30
280
     1
102
RTVSPost2010PropOp30
 70
     1
102
RTVSPost2010Prop31
280
     0
102
RTVSPost2010PropOp31
 70
     1
102
RTVSPost2010Prop32
280
     0
102
RTVSPost2010PropOp32
 70
     1
102
RTVSPost2010Prop33
280
     0
102
RTVSPost2010PropOp33
 70
     1
102
RTVSPost2010Prop34
280
     0
102
RTVSPost2010PropOp34
 70
     1
102
RTVSPost2010Prop35
280
     0
102
RTVSPost2010PropOp35
 70
     1
102
RTVSPost2010Prop36
280
     0
102
RTVSPost2010PropOp36
 70
     1
102
RTVSPost2010Prop37
 90
       50
102
RTVSPost2010PropOp37
 70
     1
102
RTVSPost2010Prop38
140
0.0
102
RTVSPost2010PropOp38
 70
     1
102
RTVSPost2010Prop39
140
1.0
102
RTVSPost2010PropOp39
 70
     1
102
RTVSPost2010Prop40
 90
        0
102
RTVSPost2010PropOp40
 70
     1
102
RTVSPost2010Prop41ColorIndex
 90
       18
102
RTVSPost2010Prop41ColorRGB
 90
        0
102
RTVSPost2010PropOp41
 70
     1
102
RTVSPost2010Prop42
 90
       50
102
RTVSPost2010PropOp42
 70
     1
102
RTVSPost2010Prop43
 90
        3
102
RTVSPost2010PropOp43
 70
     1
102
RTVSPost2010Prop44ColorIndex
 90
        5
102
RTVSPost2010Prop44ColorRGB
 90
      255
102
RTVSPost2010PropOp44
 70
     1
102
RTVSPost2010Prop45
280
     0
102
RTVSPost2010PropOp45
 70
     1
102
RTVSPost2010Prop46
 90
       50
102
RTVSPost2010PropOp46
 70
     1
102
RTVSPost2010Prop47
 90
       50
102
RTVSPost2010PropOp47
 70
     1
102
RTVSPost2010Prop48
 90
       50
102
RTVSPost2010PropOp48
 70
     1
102
RTVSPost2010Prop49
280
     0
102
RTVSPost2010PropOp49
 70
     1
102
RTVSPost2010Prop50
 90
       50
102
RTVSPost2010PropOp50
 70
     1
102
RTVSPost2010Prop51ColorIndex
 90
      256
102
RTVSPost2010Prop51ColorRGB
 90
-16777216
102
RTVSPost2010PropOp51
 70
     0
102
RTVSPost2010Prop52
140
1.0
102
RTVSPost2010PropOp52
 70
     0
102
RTVSPost2010Prop53
 90
        2
102
RTVSPost2010PropOp53
 70
     1
102
RTVSPost2010Prop54
  1
strokes_ogs.tif
102
RTVSPost2010PropOp54
 70
     1
102
RTVSPost2010Prop55
280
     0
102
RTVSPost2010PropOp55
 70
     1
102
RTVSPost2010Prop56
140
1.0
102
RTVSPost2010PropOp56
 70
     1
102
RTVSPost2010Prop57
140
1.0
102
RTVSPost2010PropOp57
 70
     1
102
RTVSPropertyOp0
 70
     1
102
RTVSPropertyOp1
 70
     1
102
RTVSPropertyOp2
 70
     1
102
RTVSPropertyOp3
 70
     1
102
RTVSPropertyOp4
 70
     1
102
RTVSPropertyOp5
 70
     1
102
RTVSPropertyOp6
 70
     1
102
RTVSPropertyOp7
 70
     1
102
RTVSPropertyOp8
 70
     1
102
RTVSPropertyOp9
 70
     1
102
RTVSPropertyOp10
 70
     1
102
RTVSPropertyOp11
 70
     1
102
RTVSPropertyOp12
 70
     1
102
RTVSPropertyOp13
 70
     1
102
RTVSPropertyOp14
 70
     1
102
RTVSPropertyOp15
 70
     1
102
RTVSPropertyOp16
 70
     1
102
RTVSPropertyOp17
 70
     1
102
RTVSPropertyOp18
 70
     1
102
RTVSPropertyOp19
 70
     1
102
RTVSPropertyOp20
 70
     1
102
RTVSPropertyOp21
 70
     1
102
RTVSPropertyOp22
 70
     1
102
RTVSPropertyOp23
 70
     1
102
RTVSPropertyOp24
 70
     1
102
RTVSPropertyOp25
 70
     1
102
RTVSPropertyOp26
 70
     1
102
RTVSPropertyOp27
 70
     1
102
RTVSPropertyOp28
 70
     1
102
RTVSPropertyOp29
 70
     1
102
RTVSPropertyOp30
 70
     1
102
RTVSPropertyOp31
 70
     1
102
RTVSPropertyOp32
 70
     1
102
RTVSPropertyOp33
 70
     1
102
RTVSPropertyOp34
 70
     1
102
RTVSPropertyOp35
 70
     1
102
RTVSPropertyOp36
 70
     1
102
RTVSPropertyOp37
 70
     1
102
RTVSPropertyOp38
 70
     1
102
RTVSPropertyOp39
 70
     1
102
RTVSPropertyOp40
 70
     1
102
RTVSPropertyOp41
 70
     1
102
RTVSPropertyOp42
 70
     1
102
RTVSPropertyOp43
 70
     1
102
RTVSPropertyOp44
 70
     1
102
RTVSPropertyOp45
 70
     1
102
RTVSPropertyOp46
 70
     1
102
RTVSPropertyOp47
 70
     1
102
RTVSPropertyOp48
 70
     1
102
RTVSPropertyOp49
 70
     1
102
RTVSPropertyOp50
 70
     1
102
RTVSPropertyOp51
 70
     0
102
RTVSPropertyOp52
 70
     0
102
RTVSPropertyOp53
 70
     1
102
RTVSPropertyOp54
 70
     1
102
RTVSPropertyOp55
 70
     1
102
RTVSPropertyOp56
 70
     1
102
RTVSPropertyOp57
 70
     1
102
RTVSPropertyOp58
 70
     1
102
RTVSPropertyOp59
 70
     1
102
RTVSPropertyOp60
 70
     1
102
RTVSPropertyOp61
 70
     1
102
RTVSPropertyOp62
 70
     1
  0
XRECORD
  5
9A98
102
{ACAD_REACTORS
330
9A97
102
}
330
9A97
100
AcDbXrecord
280
     1
102
RTVSPost2010Prop28
280
     0
102
RTVSPost2010PropOp28
 70
     1
102
RTVSPost2010Prop29
280
     1
102
RTVSPost2010PropOp29
 70
     1
102
RTVSPost2010Prop30
280
     1
102
RTVSPost2010PropOp30
 70
     1
102
RTVSPost2010Prop31
280
     0
102
RTVSPost2010PropOp31
 70
     1
102
RTVSPost2010Prop32
280
     0
102
RTVSPost2010PropOp32
 70
     1
102
RTVSPost2010Prop33
280
     0
102
RTVSPost2010PropOp33
 70
     1
102
RTVSPost2010Prop34
280
     0
102
RTVSPost2010PropOp34
 70
     1
102
RTVSPost2010Prop35
280
     0
102
RTVSPost2010PropOp35
 70
     1
102
RTVSPost2010Prop36
280
     0
102
RTVSPost2010PropOp36
 70
     1
102
RTVSPost2010Prop37
 90
       50
102
RTVSPost2010PropOp37
 70
     1
102
RTVSPost2010Prop38
140
0.0
102
RTVSPost2010PropOp38
 70
     1
102
RTVSPost2010Prop39
140
1.0
102
RTVSPost2010PropOp39
 70
     1
102
RTVSPost2010Prop40
 90
        0
102
RTVSPost2010PropOp40
 70
     1
102
RTVSPost2010Prop41ColorIndex
 90
       18
102
RTVSPost2010Prop41ColorRGB
 90
        0
102
RTVSPost2010PropOp41
 70
     1
102
RTVSPost2010Prop42
 90
       50
102
RTVSPost2010PropOp42
 70
     1
102
RTVSPost2010Prop43
 90
        3
102
RTVSPost2010PropOp43
 70
     1
102
RTVSPost2010Prop44ColorIndex
 90
        5
102
RTVSPost2010Prop44ColorRGB
 90
      255
102
RTVSPost2010PropOp44
 70
     1
102
RTVSPost2010Prop45
280
     0
102
RTVSPost2010PropOp45
 70
     1
102
RTVSPost2010Prop46
 90
       50
102
RTVSPost2010PropOp46
 70
     1
102
RTVSPost2010Prop47
 90
       50
102
RTVSPost2010PropOp47
 70
     1
102
RTVSPost2010Prop48
 90
       50
102
RTVSPost2010PropOp48
 70
     1
102
RTVSPost2010Prop49
280
     0
102
RTVSPost2010PropOp49
 70
     1
102
RTVSPost2010Prop50
 90
       50
102
RTVSPost2010PropOp50
 70
     1
102
RTVSPost2010Prop51ColorIndex
 90
      256
102
RTVSPost2010Prop51ColorRGB
 90
-16777216
102
RTVSPost2010PropOp51
 70
     0
102
RTVSPost2010Prop52
140
1.0
102
RTVSPost2010PropOp52
 70
     0
102
RTVSPost2010Prop53
 90
        2
102
RTVSPost2010PropOp53
 70
     1
102
RTVSPost2010Prop54
  1
strokes_ogs.tif
102
RTVSPost2010PropOp54
 70
     1
102
RTVSPost2010Prop55
280
     0
102
RTVSPost2010PropOp55
 70
     1
102
RTVSPost2010Prop56
140
1.0
102
RTVSPost2010PropOp56
 70
     1
102
RTVSPost2010Prop57
140
1.0
102
RTVSPost2010PropOp57
 70
     1
102
RTVSPropertyOp0
 70
     1
102
RTVSPropertyOp1
 70
     1
102
RTVSPropertyOp2
 70
     1
102
RTVSPropertyOp3
 70
     1
102
RTVSPropertyOp4
 70
     1
102
RTVSPropertyOp5
 70
     1
102
RTVSPropertyOp6
 70
     1
102
RTVSPropertyOp7
 70
     1
102
RTVSPropertyOp8
 70
     1
102
RTVSPropertyOp9
 70
     1
102
RTVSPropertyOp10
 70
     1
102
RTVSPropertyOp11
 70
     1
102
RTVSPropertyOp12
 70
     1
102
RTVSPropertyOp13
 70
     1
102
RTVSPropertyOp14
 70
     1
102
RTVSPropertyOp15
 70
     1
102
RTVSPropertyOp16
 70
     1
102
RTVSPropertyOp17
 70
     1
102
RTVSPropertyOp18
 70
     1
102
RTVSPropertyOp19
 70
     1
102
RTVSPropertyOp20
 70
     1
102
RTVSPropertyOp21
 70
     1
102
RTVSPropertyOp22
 70
     1
102
RTVSPropertyOp23
 70
     1
102
RTVSPropertyOp24
 70
     1
102
RTVSPropertyOp25
 70
     1
102
RTVSPropertyOp26
 70
     1
102
RTVSPropertyOp27
 70
     1
102
RTVSPropertyOp28
 70
     1
102
RTVSPropertyOp29
 70
     1
102
RTVSPropertyOp30
 70
     1
102
RTVSPropertyOp31
 70
     1
102
RTVSPropertyOp32
 70
     1
102
RTVSPropertyOp33
 70
     1
102
RTVSPropertyOp34
 70
     1
102
RTVSPropertyOp35
 70
     1
102
RTVSPropertyOp36
 70
     1
102
RTVSPropertyOp37
 70
     1
102
RTVSPropertyOp38
 70
     1
102
RTVSPropertyOp39
 70
     1
102
RTVSPropertyOp40
 70
     1
102
RTVSPropertyOp41
 70
     1
102
RTVSPropertyOp42
 70
     1
102
RTVSPropertyOp43
 70
     1
102
RTVSPropertyOp44
 70
     1
102
RTVSPropertyOp45
 70
     1
102
RTVSPropertyOp46
 70
     1
102
RTVSPropertyOp47
 70
     1
102
RTVSPropertyOp48
 70
     1
102
RTVSPropertyOp49
 70
     1
102
RTVSPropertyOp50
 70
     1
102
RTVSPropertyOp51
 70
     0
102
RTVSPropertyOp52
 70
     0
102
RTVSPropertyOp53
 70
     1
102
RTVSPropertyOp54
 70
     1
102
RTVSPropertyOp55
 70
     1
102
RTVSPropertyOp56
 70
     1
102
RTVSPropertyOp57
 70
     1
102
RTVSPropertyOp58
 70
     1
102
RTVSPropertyOp59
 70
     1
102
RTVSPropertyOp60
 70
     1
102
RTVSPropertyOp61
 70
     1
102
RTVSPropertyOp62
 70
     1
  0
XRECORD
  5
9A92
102
{ACAD_REACTORS
330
9A91
102
}
330
9A91
100
AcDbXrecord
280
     1
102
RTVSPost2010Prop28
280
     0
102
RTVSPost2010PropOp28
 70
     1
102
RTVSPost2010Prop29
280
     1
102
RTVSPost2010PropOp29
 70
     1
102
RTVSPost2010Prop30
280
     1
102
RTVSPost2010PropOp30
 70
     1
102
RTVSPost2010Prop31
280
     0
102
RTVSPost2010PropOp31
 70
     1
102
RTVSPost2010Prop32
280
     0
102
RTVSPost2010PropOp32
 70
     1
102
RTVSPost2010Prop33
280
     0
102
RTVSPost2010PropOp33
 70
     1
102
RTVSPost2010Prop34
280
     0
102
RTVSPost2010PropOp34
 70
     1
102
RTVSPost2010Prop35
280
     0
102
RTVSPost2010PropOp35
 70
     1
102
RTVSPost2010Prop36
280
     0
102
RTVSPost2010PropOp36
 70
     1
102
RTVSPost2010Prop37
 90
       50
102
RTVSPost2010PropOp37
 70
     1
102
RTVSPost2010Prop38
140
0.0
102
RTVSPost2010PropOp38
 70
     1
102
RTVSPost2010Prop39
140
1.0
102
RTVSPost2010PropOp39
 70
     1
102
RTVSPost2010Prop40
 90
        0
102
RTVSPost2010PropOp40
 70
     1
102
RTVSPost2010Prop41ColorIndex
 90
       18
102
RTVSPost2010Prop41ColorRGB
 90
        0
102
RTVSPost2010PropOp41
 70
     1
102
RTVSPost2010Prop42
 90
       50
102
RTVSPost2010PropOp42
 70
     1
102
RTVSPost2010Prop43
 90
        3
102
RTVSPost2010PropOp43
 70
     1
102
RTVSPost2010Prop44ColorIndex
 90
        5
102
RTVSPost2010Prop44ColorRGB
 90
      255
102
RTVSPost2010PropOp44
 70
     1
102
RTVSPost2010Prop45
280
     0
102
RTVSPost2010PropOp45
 70
     1
102
RTVSPost2010Prop46
 90
       50
102
RTVSPost2010PropOp46
 70
     1
102
RTVSPost2010Prop47
 90
       50
102
RTVSPost2010PropOp47
 70
     1
102
RTVSPost2010Prop48
 90
       50
102
RTVSPost2010PropOp48
 70
     1
102
RTVSPost2010Prop49
280
     0
102
RTVSPost2010PropOp49
 70
     1
102
RTVSPost2010Prop50
 90
       50
102
RTVSPost2010PropOp50
 70
     1
102
RTVSPost2010Prop51ColorIndex
 90
      256
102
RTVSPost2010Prop51ColorRGB
 90
-16777216
102
RTVSPost2010PropOp51
 70
     0
102
RTVSPost2010Prop52
140
1.0
102
RTVSPost2010PropOp52
 70
     0
102
RTVSPost2010Prop53
 90
        2
102
RTVSPost2010PropOp53
 70
     1
102
RTVSPost2010Prop54
  1
strokes_ogs.tif
102
RTVSPost2010PropOp54
 70
     1
102
RTVSPost2010Prop55
280
     0
102
RTVSPost2010PropOp55
 70
     1
102
RTVSPost2010Prop56
140
1.0
102
RTVSPost2010PropOp56
 70
     1
102
RTVSPost2010Prop57
140
1.0
102
RTVSPost2010PropOp57
 70
     1
102
RTVSPropertyOp0
 70
     1
102
RTVSPropertyOp1
 70
     1
102
RTVSPropertyOp2
 70
     1
102
RTVSPropertyOp3
 70
     1
102
RTVSPropertyOp4
 70
     1
102
RTVSPropertyOp5
 70
     1
102
RTVSPropertyOp6
 70
     1
102
RTVSPropertyOp7
 70
     1
102
RTVSPropertyOp8
 70
     1
102
RTVSPropertyOp9
 70
     1
102
RTVSPropertyOp10
 70
     1
102
RTVSPropertyOp11
 70
     1
102
RTVSPropertyOp12
 70
     1
102
RTVSPropertyOp13
 70
     1
102
RTVSPropertyOp14
 70
     1
102
RTVSPropertyOp15
 70
     1
102
RTVSPropertyOp16
 70
     1
102
RTVSPropertyOp17
 70
     1
102
RTVSPropertyOp18
 70
     1
102
RTVSPropertyOp19
 70
     1
102
RTVSPropertyOp20
 70
     1
102
RTVSPropertyOp21
 70
     1
102
RTVSPropertyOp22
 70
     1
102
RTVSPropertyOp23
 70
     1
102
RTVSPropertyOp24
 70
     1
102
RTVSPropertyOp25
 70
     1
102
RTVSPropertyOp26
 70
     1
102
RTVSPropertyOp27
 70
     1
102
RTVSPropertyOp28
 70
     1
102
RTVSPropertyOp29
 70
     1
102
RTVSPropertyOp30
 70
     1
102
RTVSPropertyOp31
 70
     1
102
RTVSPropertyOp32
 70
     1
102
RTVSPropertyOp33
 70
     1
102
RTVSPropertyOp34
 70
     1
102
RTVSPropertyOp35
 70
     1
102
RTVSPropertyOp36
 70
     1
102
RTVSPropertyOp37
 70
     1
102
RTVSPropertyOp38
 70
     1
102
RTVSPropertyOp39
 70
     1
102
RTVSPropertyOp40
 70
     1
102
RTVSPropertyOp41
 70
     1
102
RTVSPropertyOp42
 70
     1
102
RTVSPropertyOp43
 70
     1
102
RTVSPropertyOp44
 70
     1
102
RTVSPropertyOp45
 70
     1
102
RTVSPropertyOp46
 70
     1
102
RTVSPropertyOp47
 70
     1
102
RTVSPropertyOp48
 70
     1
102
RTVSPropertyOp49
 70
     1
102
RTVSPropertyOp50
 70
     1
102
RTVSPropertyOp51
 70
     0
102
RTVSPropertyOp52
 70
     0
102
RTVSPropertyOp53
 70
     1
102
RTVSPropertyOp54
 70
     1
102
RTVSPropertyOp55
 70
     1
102
RTVSPropertyOp56
 70
     1
102
RTVSPropertyOp57
 70
     1
102
RTVSPropertyOp58
 70
     1
102
RTVSPropertyOp59
 70
     1
102
RTVSPropertyOp60
 70
     1
102
RTVSPropertyOp61
 70
     1
102
RTVSPropertyOp62
 70
     1
  0
XRECORD
  5
9A94
102
{ACAD_REACTORS
330
9A93
102
}
330
9A93
100
AcDbXrecord
280
     1
102
RTVSPost2010Prop28
280
     0
102
RTVSPost2010PropOp28
 70
     1
102
RTVSPost2010Prop29
280
     1
102
RTVSPost2010PropOp29
 70
     1
102
RTVSPost2010Prop30
280
     1
102
RTVSPost2010PropOp30
 70
     1
102
RTVSPost2010Prop31
280
     0
102
RTVSPost2010PropOp31
 70
     1
102
RTVSPost2010Prop32
280
     0
102
RTVSPost2010PropOp32
 70
     1
102
RTVSPost2010Prop33
280
     0
102
RTVSPost2010PropOp33
 70
     1
102
RTVSPost2010Prop34
280
     0
102
RTVSPost2010PropOp34
 70
     1
102
RTVSPost2010Prop35
280
     0
102
RTVSPost2010PropOp35
 70
     1
102
RTVSPost2010Prop36
280
     0
102
RTVSPost2010PropOp36
 70
     1
102
RTVSPost2010Prop37
 90
       50
102
RTVSPost2010PropOp37
 70
     1
102
RTVSPost2010Prop38
140
0.0
102
RTVSPost2010PropOp38
 70
     1
102
RTVSPost2010Prop39
140
1.0
102
RTVSPost2010PropOp39
 70
     1
102
RTVSPost2010Prop40
 90
        0
102
RTVSPost2010PropOp40
 70
     1
102
RTVSPost2010Prop41ColorIndex
 90
       18
102
RTVSPost2010Prop41ColorRGB
 90
        0
102
RTVSPost2010PropOp41
 70
     1
102
RTVSPost2010Prop42
 90
       50
102
RTVSPost2010PropOp42
 70
     1
102
RTVSPost2010Prop43
 90
        3
102
RTVSPost2010PropOp43
 70
     1
102
RTVSPost2010Prop44ColorIndex
 90
        5
102
RTVSPost2010Prop44ColorRGB
 90
      255
102
RTVSPost2010PropOp44
 70
     1
102
RTVSPost2010Prop45
280
     0
102
RTVSPost2010PropOp45
 70
     1
102
RTVSPost2010Prop46
 90
       50
102
RTVSPost2010PropOp46
 70
     1
102
RTVSPost2010Prop47
 90
       50
102
RTVSPost2010PropOp47
 70
     1
102
RTVSPost2010Prop48
 90
       50
102
RTVSPost2010PropOp48
 70
     1
102
RTVSPost2010Prop49
280
     0
102
RTVSPost2010PropOp49
 70
     1
102
RTVSPost2010Prop50
 90
       50
102
RTVSPost2010PropOp50
 70
     1
102
RTVSPost2010Prop51ColorIndex
 90
      256
102
RTVSPost2010Prop51ColorRGB
 90
-16777216
102
RTVSPost2010PropOp51
 70
     0
102
RTVSPost2010Prop52
140
1.0
102
RTVSPost2010PropOp52
 70
     0
102
RTVSPost2010Prop53
 90
        2
102
RTVSPost2010PropOp53
 70
     1
102
RTVSPost2010Prop54
  1
strokes_ogs.tif
102
RTVSPost2010PropOp54
 70
     1
102
RTVSPost2010Prop55
280
     0
102
RTVSPost2010PropOp55
 70
     1
102
RTVSPost2010Prop56
140
1.0
102
RTVSPost2010PropOp56
 70
     1
102
RTVSPost2010Prop57
140
1.0
102
RTVSPost2010PropOp57
 70
     1
102
RTVSPropertyOp0
 70
     1
102
RTVSPropertyOp1
 70
     1
102
RTVSPropertyOp2
 70
     1
102
RTVSPropertyOp3
 70
     1
102
RTVSPropertyOp4
 70
     1
102
RTVSPropertyOp5
 70
     1
102
RTVSPropertyOp6
 70
     1
102
RTVSPropertyOp7
 70
     1
102
RTVSPropertyOp8
 70
     1
102
RTVSPropertyOp9
 70
     1
102
RTVSPropertyOp10
 70
     1
102
RTVSPropertyOp11
 70
     1
102
RTVSPropertyOp12
 70
     1
102
RTVSPropertyOp13
 70
     1
102
RTVSPropertyOp14
 70
     1
102
RTVSPropertyOp15
 70
     1
102
RTVSPropertyOp16
 70
     1
102
RTVSPropertyOp17
 70
     1
102
RTVSPropertyOp18
 70
     1
102
RTVSPropertyOp19
 70
     1
102
RTVSPropertyOp20
 70
     1
102
RTVSPropertyOp21
 70
     1
102
RTVSPropertyOp22
 70
     1
102
RTVSPropertyOp23
 70
     1
102
RTVSPropertyOp24
 70
     1
102
RTVSPropertyOp25
 70
     1
102
RTVSPropertyOp26
 70
     1
102
RTVSPropertyOp27
 70
     1
102
RTVSPropertyOp28
 70
     1
102
RTVSPropertyOp29
 70
     1
102
RTVSPropertyOp30
 70
     1
102
RTVSPropertyOp31
 70
     1
102
RTVSPropertyOp32
 70
     1
102
RTVSPropertyOp33
 70
     1
102
RTVSPropertyOp34
 70
     1
102
RTVSPropertyOp35
 70
     1
102
RTVSPropertyOp36
 70
     1
102
RTVSPropertyOp37
 70
     1
102
RTVSPropertyOp38
 70
     1
102
RTVSPropertyOp39
 70
     1
102
RTVSPropertyOp40
 70
     1
102
RTVSPropertyOp41
 70
     1
102
RTVSPropertyOp42
 70
     1
102
RTVSPropertyOp43
 70
     1
102
RTVSPropertyOp44
 70
     1
102
RTVSPropertyOp45
 70
     1
102
RTVSPropertyOp46
 70
     1
102
RTVSPropertyOp47
 70
     1
102
RTVSPropertyOp48
 70
     1
102
RTVSPropertyOp49
 70
     1
102
RTVSPropertyOp50
 70
     1
102
RTVSPropertyOp51
 70
     0
102
RTVSPropertyOp52
 70
     0
102
RTVSPropertyOp53
 70
     1
102
RTVSPropertyOp54
 70
     1
102
RTVSPropertyOp55
 70
     1
102
RTVSPropertyOp56
 70
     1
102
RTVSPropertyOp57
 70
     1
102
RTVSPropertyOp58
 70
     1
102
RTVSPropertyOp59
 70
     1
102
RTVSPropertyOp60
 70
     1
102
RTVSPropertyOp61
 70
     1
102
RTVSPropertyOp62
 70
     1
  0
XRECORD
  5
9A8A
102
{ACAD_REACTORS
330
9A89
102
}
330
9A89
100
AcDbXrecord
280
     1
102
RTVSPost2010Prop28
280
     0
102
RTVSPost2010PropOp28
 70
     1
102
RTVSPost2010Prop29
280
     1
102
RTVSPost2010PropOp29
 70
     1
102
RTVSPost2010Prop30
280
     1
102
RTVSPost2010PropOp30
 70
     1
102
RTVSPost2010Prop31
280
     0
102
RTVSPost2010PropOp31
 70
     1
102
RTVSPost2010Prop32
280
     0
102
RTVSPost2010PropOp32
 70
     1
102
RTVSPost2010Prop33
280
     0
102
RTVSPost2010PropOp33
 70
     1
102
RTVSPost2010Prop34
280
     0
102
RTVSPost2010PropOp34
 70
     1
102
RTVSPost2010Prop35
280
     0
102
RTVSPost2010PropOp35
 70
     1
102
RTVSPost2010Prop36
280
     0
102
RTVSPost2010PropOp36
 70
     1
102
RTVSPost2010Prop37
 90
       50
102
RTVSPost2010PropOp37
 70
     1
102
RTVSPost2010Prop38
140
0.0
102
RTVSPost2010PropOp38
 70
     1
102
RTVSPost2010Prop39
140
1.0
102
RTVSPost2010PropOp39
 70
     1
102
RTVSPost2010Prop40
 90
        0
102
RTVSPost2010PropOp40
 70
     1
102
RTVSPost2010Prop41ColorIndex
 90
       18
102
RTVSPost2010Prop41ColorRGB
 90
        0
102
RTVSPost2010PropOp41
 70
     1
102
RTVSPost2010Prop42
 90
       50
102
RTVSPost2010PropOp42
 70
     1
102
RTVSPost2010Prop43
 90
        3
102
RTVSPost2010PropOp43
 70
     1
102
RTVSPost2010Prop44ColorIndex
 90
        5
102
RTVSPost2010Prop44ColorRGB
 90
      255
102
RTVSPost2010PropOp44
 70
     1
102
RTVSPost2010Prop45
280
     0
102
RTVSPost2010PropOp45
 70
     1
102
RTVSPost2010Prop46
 90
       50
102
RTVSPost2010PropOp46
 70
     1
102
RTVSPost2010Prop47
 90
       50
102
RTVSPost2010PropOp47
 70
     1
102
RTVSPost2010Prop48
 90
       50
102
RTVSPost2010PropOp48
 70
     1
102
RTVSPost2010Prop49
280
     0
102
RTVSPost2010PropOp49
 70
     1
102
RTVSPost2010Prop50
 90
       50
102
RTVSPost2010PropOp50
 70
     1
102
RTVSPost2010Prop51ColorIndex
 90
      256
102
RTVSPost2010Prop51ColorRGB
 90
-16777216
102
RTVSPost2010PropOp51
 70
     0
102
RTVSPost2010Prop52
140
1.0
102
RTVSPost2010PropOp52
 70
     0
102
RTVSPost2010Prop53
 90
        2
102
RTVSPost2010PropOp53
 70
     1
102
RTVSPost2010Prop54
  1
strokes_ogs.tif
102
RTVSPost2010PropOp54
 70
     1
102
RTVSPost2010Prop55
280
     0
102
RTVSPost2010PropOp55
 70
     1
102
RTVSPost2010Prop56
140
1.0
102
RTVSPost2010PropOp56
 70
     1
102
RTVSPost2010Prop57
140
1.0
102
RTVSPost2010PropOp57
 70
     1
102
RTVSPropertyOp0
 70
     1
102
RTVSPropertyOp1
 70
     1
102
RTVSPropertyOp2
 70
     1
102
RTVSPropertyOp3
 70
     1
102
RTVSPropertyOp4
 70
     1
102
RTVSPropertyOp5
 70
     1
102
RTVSPropertyOp6
 70
     1
102
RTVSPropertyOp7
 70
     1
102
RTVSPropertyOp8
 70
     1
102
RTVSPropertyOp9
 70
     1
102
RTVSPropertyOp10
 70
     1
102
RTVSPropertyOp11
 70
     1
102
RTVSPropertyOp12
 70
     1
102
RTVSPropertyOp13
 70
     1
102
RTVSPropertyOp14
 70
     1
102
RTVSPropertyOp15
 70
     1
102
RTVSPropertyOp16
 70
     1
102
RTVSPropertyOp17
 70
     1
102
RTVSPropertyOp18
 70
     1
102
RTVSPropertyOp19
 70
     1
102
RTVSPropertyOp20
 70
     1
102
RTVSPropertyOp21
 70
     1
102
RTVSPropertyOp22
 70
     1
102
RTVSPropertyOp23
 70
     1
102
RTVSPropertyOp24
 70
     1
102
RTVSPropertyOp25
 70
     1
102
RTVSPropertyOp26
 70
     1
102
RTVSPropertyOp27
 70
     1
102
RTVSPropertyOp28
 70
     1
102
RTVSPropertyOp29
 70
     1
102
RTVSPropertyOp30
 70
     1
102
RTVSPropertyOp31
 70
     1
102
RTVSPropertyOp32
 70
     1
102
RTVSPropertyOp33
 70
     1
102
RTVSPropertyOp34
 70
     1
102
RTVSPropertyOp35
 70
     1
102
RTVSPropertyOp36
 70
     1
102
RTVSPropertyOp37
 70
     1
102
RTVSPropertyOp38
 70
     1
102
RTVSPropertyOp39
 70
     1
102
RTVSPropertyOp40
 70
     1
102
RTVSPropertyOp41
 70
     1
102
RTVSPropertyOp42
 70
     1
102
RTVSPropertyOp43
 70
     1
102
RTVSPropertyOp44
 70
     1
102
RTVSPropertyOp45
 70
     1
102
RTVSPropertyOp46
 70
     1
102
RTVSPropertyOp47
 70
     1
102
RTVSPropertyOp48
 70
     1
102
RTVSPropertyOp49
 70
     1
102
RTVSPropertyOp50
 70
     1
102
RTVSPropertyOp51
 70
     0
102
RTVSPropertyOp52
 70
     0
102
RTVSPropertyOp53
 70
     1
102
RTVSPropertyOp54
 70
     1
102
RTVSPropertyOp55
 70
     1
102
RTVSPropertyOp56
 70
     1
102
RTVSPropertyOp57
 70
     1
102
RTVSPropertyOp58
 70
     1
102
RTVSPropertyOp59
 70
     1
102
RTVSPropertyOp60
 70
     1
102
RTVSPropertyOp61
 70
     1
102
RTVSPropertyOp62
 70
     1
  0
XRECORD
  5
9A7E
102
{ACAD_REACTORS
330
9A7D
102
}
330
9A7D
100
AcDbXrecord
280
     1
102
RTVSPost2010Prop28
280
     0
102
RTVSPost2010PropOp28
 70
     1
102
RTVSPost2010Prop29
280
     1
102
RTVSPost2010PropOp29
 70
     1
102
RTVSPost2010Prop30
280
     1
102
RTVSPost2010PropOp30
 70
     1
102
RTVSPost2010Prop31
280
     0
102
RTVSPost2010PropOp31
 70
     1
102
RTVSPost2010Prop32
280
     0
102
RTVSPost2010PropOp32
 70
     1
102
RTVSPost2010Prop33
280
     0
102
RTVSPost2010PropOp33
 70
     1
102
RTVSPost2010Prop34
280
     0
102
RTVSPost2010PropOp34
 70
     1
102
RTVSPost2010Prop35
280
     0
102
RTVSPost2010PropOp35
 70
     1
102
RTVSPost2010Prop36
280
     0
102
RTVSPost2010PropOp36
 70
     1
102
RTVSPost2010Prop37
 90
       50
102
RTVSPost2010PropOp37
 70
     1
102
RTVSPost2010Prop38
140
0.0
102
RTVSPost2010PropOp38
 70
     1
102
RTVSPost2010Prop39
140
1.0
102
RTVSPost2010PropOp39
 70
     1
102
RTVSPost2010Prop40
 90
        0
102
RTVSPost2010PropOp40
 70
     1
102
RTVSPost2010Prop41ColorIndex
 90
       18
102
RTVSPost2010Prop41ColorRGB
 90
        0
102
RTVSPost2010PropOp41
 70
     1
102
RTVSPost2010Prop42
 90
       50
102
RTVSPost2010PropOp42
 70
     1
102
RTVSPost2010Prop43
 90
        3
102
RTVSPost2010PropOp43
 70
     1
102
RTVSPost2010Prop44ColorIndex
 90
        5
102
RTVSPost2010Prop44ColorRGB
 90
      255
102
RTVSPost2010PropOp44
 70
     1
102
RTVSPost2010Prop45
280
     0
102
RTVSPost2010PropOp45
 70
     1
102
RTVSPost2010Prop46
 90
       50
102
RTVSPost2010PropOp46
 70
     1
102
RTVSPost2010Prop47
 90
       50
102
RTVSPost2010PropOp47
 70
     1
102
RTVSPost2010Prop48
 90
       50
102
RTVSPost2010PropOp48
 70
     1
102
RTVSPost2010Prop49
280
     0
102
RTVSPost2010PropOp49
 70
     1
102
RTVSPost2010Prop50
 90
       50
102
RTVSPost2010PropOp50
 70
     1
102
RTVSPost2010Prop51ColorIndex
 90
      256
102
RTVSPost2010Prop51ColorRGB
 90
-16777216
102
RTVSPost2010PropOp51
 70
     0
102
RTVSPost2010Prop52
140
1.0
102
RTVSPost2010PropOp52
 70
     0
102
RTVSPost2010Prop53
 90
        2
102
RTVSPost2010PropOp53
 70
     1
102
RTVSPost2010Prop54
  1
strokes_ogs.tif
102
RTVSPost2010PropOp54
 70
     1
102
RTVSPost2010Prop55
280
     0
102
RTVSPost2010PropOp55
 70
     1
102
RTVSPost2010Prop56
140
1.0
102
RTVSPost2010PropOp56
 70
     1
102
RTVSPost2010Prop57
140
1.0
102
RTVSPost2010PropOp57
 70
     1
102
RTVSPropertyOp0
 70
     1
102
RTVSPropertyOp1
 70
     1
102
RTVSPropertyOp2
 70
     1
102
RTVSPropertyOp3
 70
     1
102
RTVSPropertyOp4
 70
     1
102
RTVSPropertyOp5
 70
     1
102
RTVSPropertyOp6
 70
     1
102
RTVSPropertyOp7
 70
     1
102
RTVSPropertyOp8
 70
     1
102
RTVSPropertyOp9
 70
     1
102
RTVSPropertyOp10
 70
     1
102
RTVSPropertyOp11
 70
     1
102
RTVSPropertyOp12
 70
     1
102
RTVSPropertyOp13
 70
     1
102
RTVSPropertyOp14
 70
     1
102
RTVSPropertyOp15
 70
     1
102
RTVSPropertyOp16
 70
     1
102
RTVSPropertyOp17
 70
     1
102
RTVSPropertyOp18
 70
     1
102
RTVSPropertyOp19
 70
     1
102
RTVSPropertyOp20
 70
     1
102
RTVSPropertyOp21
 70
     1
102
RTVSPropertyOp22
 70
     1
102
RTVSPropertyOp23
 70
     1
102
RTVSPropertyOp24
 70
     1
102
RTVSPropertyOp25
 70
     1
102
RTVSPropertyOp26
 70
     1
102
RTVSPropertyOp27
 70
     1
102
RTVSPropertyOp28
 70
     1
102
RTVSPropertyOp29
 70
     1
102
RTVSPropertyOp30
 70
     1
102
RTVSPropertyOp31
 70
     1
102
RTVSPropertyOp32
 70
     1
102
RTVSPropertyOp33
 70
     1
102
RTVSPropertyOp34
 70
     1
102
RTVSPropertyOp35
 70
     1
102
RTVSPropertyOp36
 70
     1
102
RTVSPropertyOp37
 70
     1
102
RTVSPropertyOp38
 70
     1
102
RTVSPropertyOp39
 70
     1
102
RTVSPropertyOp40
 70
     1
102
RTVSPropertyOp41
 70
     1
102
RTVSPropertyOp42
 70
     1
102
RTVSPropertyOp43
 70
     1
102
RTVSPropertyOp44
 70
     1
102
RTVSPropertyOp45
 70
     1
102
RTVSPropertyOp46
 70
     1
102
RTVSPropertyOp47
 70
     1
102
RTVSPropertyOp48
 70
     1
102
RTVSPropertyOp49
 70
     1
102
RTVSPropertyOp50
 70
     1
102
RTVSPropertyOp51
 70
     0
102
RTVSPropertyOp52
 70
     0
102
RTVSPropertyOp53
 70
     1
102
RTVSPropertyOp54
 70
     1
102
RTVSPropertyOp55
 70
     1
102
RTVSPropertyOp56
 70
     1
102
RTVSPropertyOp57
 70
     1
102
RTVSPropertyOp58
 70
     1
102
RTVSPropertyOp59
 70
     1
102
RTVSPropertyOp60
 70
     1
102
RTVSPropertyOp61
 70
     1
102
RTVSPropertyOp62
 70
     1
  0
XRECORD
  5
9A96
102
{ACAD_REACTORS
330
9A95
102
}
330
9A95
100
AcDbXrecord
280
     1
102
RTVSPost2010Prop28
280
     0
102
RTVSPost2010PropOp28
 70
     1
102
RTVSPost2010Prop29
280
     1
102
RTVSPost2010PropOp29
 70
     1
102
RTVSPost2010Prop30
280
     1
102
RTVSPost2010PropOp30
 70
     1
102
RTVSPost2010Prop31
280
     0
102
RTVSPost2010PropOp31
 70
     1
102
RTVSPost2010Prop32
280
     0
102
RTVSPost2010PropOp32
 70
     1
102
RTVSPost2010Prop33
280
     0
102
RTVSPost2010PropOp33
 70
     1
102
RTVSPost2010Prop34
280
     0
102
RTVSPost2010PropOp34
 70
     1
102
RTVSPost2010Prop35
280
     0
102
RTVSPost2010PropOp35
 70
     1
102
RTVSPost2010Prop36
280
     0
102
RTVSPost2010PropOp36
 70
     1
102
RTVSPost2010Prop37
 90
       50
102
RTVSPost2010PropOp37
 70
     1
102
RTVSPost2010Prop38
140
0.0
102
RTVSPost2010PropOp38
 70
     1
102
RTVSPost2010Prop39
140
1.0
102
RTVSPost2010PropOp39
 70
     1
102
RTVSPost2010Prop40
 90
        0
102
RTVSPost2010PropOp40
 70
     1
102
RTVSPost2010Prop41ColorIndex
 90
       18
102
RTVSPost2010Prop41ColorRGB
 90
        0
102
RTVSPost2010PropOp41
 70
     1
102
RTVSPost2010Prop42
 90
       50
102
RTVSPost2010PropOp42
 70
     1
102
RTVSPost2010Prop43
 90
        3
102
RTVSPost2010PropOp43
 70
     1
102
RTVSPost2010Prop44ColorIndex
 90
        5
102
RTVSPost2010Prop44ColorRGB
 90
      255
102
RTVSPost2010PropOp44
 70
     1
102
RTVSPost2010Prop45
280
     0
102
RTVSPost2010PropOp45
 70
     1
102
RTVSPost2010Prop46
 90
       50
102
RTVSPost2010PropOp46
 70
     1
102
RTVSPost2010Prop47
 90
       50
102
RTVSPost2010PropOp47
 70
     1
102
RTVSPost2010Prop48
 90
       50
102
RTVSPost2010PropOp48
 70
     1
102
RTVSPost2010Prop49
280
     0
102
RTVSPost2010PropOp49
 70
     1
102
RTVSPost2010Prop50
 90
       50
102
RTVSPost2010PropOp50
 70
     1
102
RTVSPost2010Prop51ColorIndex
 90
      256
102
RTVSPost2010Prop51ColorRGB
 90
-16777216
102
RTVSPost2010PropOp51
 70
     0
102
RTVSPost2010Prop52
140
1.0
102
RTVSPost2010PropOp52
 70
     0
102
RTVSPost2010Prop53
 90
        2
102
RTVSPost2010PropOp53
 70
     1
102
RTVSPost2010Prop54
  1
strokes_ogs.tif
102
RTVSPost2010PropOp54
 70
     1
102
RTVSPost2010Prop55
280
     0
102
RTVSPost2010PropOp55
 70
     1
102
RTVSPost2010Prop56
140
1.0
102
RTVSPost2010PropOp56
 70
     1
102
RTVSPost2010Prop57
140
1.0
102
RTVSPost2010PropOp57
 70
     1
102
RTVSPropertyOp0
 70
     1
102
RTVSPropertyOp1
 70
     1
102
RTVSPropertyOp2
 70
     1
102
RTVSPropertyOp3
 70
     1
102
RTVSPropertyOp4
 70
     1
102
RTVSPropertyOp5
 70
     1
102
RTVSPropertyOp6
 70
     1
102
RTVSPropertyOp7
 70
     1
102
RTVSPropertyOp8
 70
     1
102
RTVSPropertyOp9
 70
     1
102
RTVSPropertyOp10
 70
     1
102
RTVSPropertyOp11
 70
     1
102
RTVSPropertyOp12
 70
     1
102
RTVSPropertyOp13
 70
     1
102
RTVSPropertyOp14
 70
     1
102
RTVSPropertyOp15
 70
     1
102
RTVSPropertyOp16
 70
     1
102
RTVSPropertyOp17
 70
     1
102
RTVSPropertyOp18
 70
     1
102
RTVSPropertyOp19
 70
     1
102
RTVSPropertyOp20
 70
     1
102
RTVSPropertyOp21
 70
     1
102
RTVSPropertyOp22
 70
     1
102
RTVSPropertyOp23
 70
     1
102
RTVSPropertyOp24
 70
     1
102
RTVSPropertyOp25
 70
     1
102
RTVSPropertyOp26
 70
     1
102
RTVSPropertyOp27
 70
     1
102
RTVSPropertyOp28
 70
     1
102
RTVSPropertyOp29
 70
     1
102
RTVSPropertyOp30
 70
     1
102
RTVSPropertyOp31
 70
     1
102
RTVSPropertyOp32
 70
     1
102
RTVSPropertyOp33
 70
     1
102
RTVSPropertyOp34
 70
     1
102
RTVSPropertyOp35
 70
     1
102
RTVSPropertyOp36
 70
     1
102
RTVSPropertyOp37
 70
     1
102
RTVSPropertyOp38
 70
     1
102
RTVSPropertyOp39
 70
     1
102
RTVSPropertyOp40
 70
     1
102
RTVSPropertyOp41
 70
     1
102
RTVSPropertyOp42
 70
     1
102
RTVSPropertyOp43
 70
     1
102
RTVSPropertyOp44
 70
     1
102
RTVSPropertyOp45
 70
     1
102
RTVSPropertyOp46
 70
     1
102
RTVSPropertyOp47
 70
     1
102
RTVSPropertyOp48
 70
     1
102
RTVSPropertyOp49
 70
     1
102
RTVSPropertyOp50
 70
     1
102
RTVSPropertyOp51
 70
     0
102
RTVSPropertyOp52
 70
     0
102
RTVSPropertyOp53
 70
     1
102
RTVSPropertyOp54
 70
     1
102
RTVSPropertyOp55
 70
     1
102
RTVSPropertyOp56
 70
     1
102
RTVSPropertyOp57
 70
     1
102
RTVSPropertyOp58
 70
     1
102
RTVSPropertyOp59
 70
     1
102
RTVSPropertyOp60
 70
     1
102
RTVSPropertyOp61
 70
     1
102
RTVSPropertyOp62
 70
     1
  0
ENDSEC
  0
EOF
