  0
SECTION
  2
HEADER
  9
$ACADVER
  1
AC1015
  9
$ACADMAINTVER
 70
    20
  9
$DWGCODEPAGE
  3
ANSI_932
  9
$INSBASE
 10
0.0
 20
0.0
 30
0.0
  9
$EXTMIN
 10
10.0
 20
9.999999999999998
 30
0.0
  9
$EXTMAX
 10
363.8896869999999
 20
224.635964
 30
0.0
  9
$LIMMIN
 10
0.0
 20
0.0
  9
$LIMMAX
 10
396.0
 20
273.0
  9
$ORTHOMODE
 70
     1
  9
$REGENMODE
 70
     1
  9
$FILLMODE
 70
     1
  9
$QTEXTMODE
 70
     0
  9
$MIRRTEXT
 70
     1
  9
$LTSCALE
 40
20.0
  9
$ATTMODE
 70
     1
  9
$TEXTSIZE
 40
5.0
  9
$TRACEWID
 40
1.0
  9
$TEXTSTYLE
  7
STANDARD
  9
$CLAYER
  8
0
  9
$CELTYPE
  6
BYLAYER
  9
$CECOLOR
 62
   256
  9
$CELTSCALE
 40
1.0
  9
$DISPSILH
 70
     0
  9
$DIMSCALE
 40
1.0
  9
$DIMASZ
 40
3.0
  9
$DIMEXO
 40
1.0
  9
$DIMDLI
 40
10.0
  9
$DIMRND
 40
0.0
  9
$DIMDLE
 40
0.0
  9
$DIMEXE
 40
1.0
  9
$DIMTP
 40
0.0
  9
$DIMTM
 40
0.0
  9
$DIMTXT
 40
3.2
  9
$DIMCEN
 40
0.0
  9
$DIMTSZ
 40
0.0
  9
$DIMTOL
 70
     0
  9
$DIMLIM
 70
     0
  9
$DIMTIH
 70
     0
  9
$DIMTOH
 70
     0
  9
$DIMSE1
 70
     0
  9
$DIMSE2
 70
     0
  9
$DIMTAD
 70
     3
  9
$DIMZIN
 70
     8
  9
$DIMBLK
  1

  9
$DIMASO
 70
     1
  9
$DIMSHO
 70
     1
  9
$DIMPOST
  1

  9
$DIMAPOST
  1

  9
$DIMALT
 70
     0
  9
$DIMALTD
 70
     2
  9
$DIMALTF
 40
25.4
  9
$DIMLFAC
 40
1.0
  9
$DIMTOFL
 70
     1
  9
$DIMTVP
 40
0.0
  9
$DIMTIX
 70
     0
  9
$DIMSOXD
 70
     0
  9
$DIMSAH
 70
     1
  9
$DIMBLK1
  1

  9
$DIMBLK2
  1

  9
$DIMSTYLE
  2
STANDARD
  9
$DIMCLRD
 70
     0
  9
$DIMCLRE
 70
     0
  9
$DIMCLRT
 70
     0
  9
$DIMTFAC
 40
1.0
  9
$DIMGAP
 40
1.0
  9
$DIMJUST
 70
     0
  9
$DIMSD1
 70
     0
  9
$DIMSD2
 70
     0
  9
$DIMTOLJ
 70
     1
  9
$DIMTZIN
 70
     0
  9
$DIMALTZ
 70
     0
  9
$DIMALTTZ
 70
     0
  9
$DIMUPT
 70
     0
  9
$DIMDEC
 70
     4
  9
$DIMTDEC
 70
     4
  9
$DIMALTU
 70
     2
  9
$DIMALTTD
 70
     2
  9
$DIMTXSTY
  7
STANDARD
  9
$DIMAUNIT
 70
     0
  9
$DIMADEC
 70
     0
  9
$DIMALTRND
 40
0.0
  9
$DIMAZIN
 70
     0
  9
$DIMDSEP
 70
    46
  9
$DIMATFIT
 70
     3
  9
$DIMFRAC
 70
     0
  9
$DIMLDRBLK
  1

  9
$DIMLUNIT
 70
     2
  9
$DIMLWD
 70
    -2
  9
$DIMLWE
 70
    -2
  9
$DIMTMOVE
 70
     0
  9
$LUNITS
 70
     2
  9
$LUPREC
 70
     4
  9
$SKETCHINC
 40
1.0
  9
$FILLETRAD
 40
0.5
  9
$AUNITS
 70
     0
  9
$AUPREC
 70
     2
  9
$MENU
  1
.
  9
$ELEVATION
 40
0.0
  9
$PELEVATION
 40
0.0
  9
$THICKNESS
 40
0.0
  9
$LIMCHECK
 70
     0
  9
$CHAMFERA
 40
10.0
  9
$CHAMFERB
 40
10.0
  9
$CHAMFERC
 40
0.0
  9
$CHAMFERD
 40
0.0
  9
$SKPOLY
 70
     0
  9
$TDCREATE
 40
2450945.564599653
  9
$TDUCREATE
 40
2450945.189599653
  9
$TDUPDATE
 40
2457192.599867454
  9
$TDUUPDATE
 40
2457192.224867454
  9
$TDINDWG
 40
0.0000143519
  9
$TDUSRTIMER
 40
0.0000140278
  9
$USRTIMER
 70
     1
  9
$ANGBASE
 50
0.0
  9
$ANGDIR
 70
     0
  9
$PDMODE
 70
     0
  9
$PDSIZE
 40
0.0
  9
$PLINEWID
 40
0.0
  9
$SPLFRAME
 70
     0
  9
$SPLINETYPE
 70
     6
  9
$SPLINESEGS
 70
     8
  9
$HANDSEED
  5
9A74
  9
$SURFTAB1
 70
     6
  9
$SURFTAB2
 70
     6
  9
$SURFTYPE
 70
     6
  9
$SURFU
 70
     6
  9
$SURFV
 70
     6
  9
$UCSBASE
  2

  9
$UCSNAME
  2

  9
$UCSORG
 10
0.0
 20
0.0
 30
0.0
  9
$UCSXDIR
 10
1.0
 20
0.0
 30
0.0
  9
$UCSYDIR
 10
0.0
 20
1.0
 30
0.0
  9
$UCSORTHOREF
  2

  9
$UCSORTHOVIEW
 70
     0
  9
$UCSORGTOP
 10
0.0
 20
0.0
 30
0.0
  9
$UCSORGBOTTOM
 10
0.0
 20
0.0
 30
0.0
  9
$UCSORGLEFT
 10
0.0
 20
0.0
 30
0.0
  9
$UCSORGRIGHT
 10
0.0
 20
0.0
 30
0.0
  9
$UCSORGFRONT
 10
0.0
 20
0.0
 30
0.0
  9
$UCSORGBACK
 10
0.0
 20
0.0
 30
0.0
  9
$PUCSBASE
  2

  9
$PUCSNAME
  2

  9
$PUCSORG
 10
0.0
 20
0.0
 30
0.0
  9
$PUCSXDIR
 10
1.0
 20
0.0
 30
0.0
  9
$PUCSYDIR
 10
0.0
 20
1.0
 30
0.0
  9
$PUCSORTHOREF
  2

  9
$PUCSORTHOVIEW
 70
     0
  9
$PUCSORGTOP
 10
0.0
 20
0.0
 30
0.0
  9
$PUCSORGBOTTOM
 10
0.0
 20
0.0
 30
0.0
  9
$PUCSORGLEFT
 10
0.0
 20
0.0
 30
0.0
  9
$PUCSORGRIGHT
 10
0.0
 20
0.0
 30
0.0
  9
$PUCSORGFRONT
 10
0.0
 20
0.0
 30
0.0
  9
$PUCSORGBACK
 10
0.0
 20
0.0
 30
0.0
  9
$USERI1
 70
     0
  9
$USERI2
 70
     0
  9
$USERI3
 70
     0
  9
$USERI4
 70
     0
  9
$USERI5
 70
     0
  9
$USERR1
 40
0.0
  9
$USERR2
 40
0.0
  9
$USERR3
 40
0.0
  9
$USERR4
 40
0.0
  9
$USERR5
 40
0.0
  9
$WORLDVIEW
 70
     1
  9
$SHADEDGE
 70
     3
  9
$SHADEDIF
 70
    70
  9
$TILEMODE
 70
     1
  9
$MAXACTVP
 70
    16
  9
$PINSBASE
 10
0.0
 20
0.0
 30
0.0
  9
$PLIMCHECK
 70
     0
  9
$PEXTMIN
 10
1.000000000000000E+20
 20
1.000000000000000E+20
 30
1.000000000000000E+20
  9
$PEXTMAX
 10
-1.000000000000000E+20
 20
-1.000000000000000E+20
 30
-1.000000000000000E+20
  9
$PLIMMIN
 10
0.0
 20
0.0
  9
$PLIMMAX
 10
420.0
 20
297.0
  9
$UNITMODE
 70
     0
  9
$VISRETAIN
 70
     0
  9
$PLINEGEN
 70
     0
  9
$PSLTSCALE
 70
     0
  9
$TREEDEPTH
 70
  3020
  9
$CMLSTYLE
  2
STANDARD
  9
$CMLJUST
 70
     0
  9
$CMLSCALE
 40
1.0
  9
$PROXYGRAPHICS
 70
     1
  9
$MEASUREMENT
 70
     0
  9
$CELWEIGHT
370
    -1
  9
$ENDCAPS
280
     0
  9
$JOINSTYLE
280
     0
  9
$LWDISPLAY
290
     0
  9
$INSUNITS
 70
     0
  9
$HYPERLINKBASE
  1

  9
$STYLESHEET
  1

  9
$XEDIT
290
     1
  9
$CEPSNTYPE
380
     0
  9
$PSTYLEMODE
290
     1
  9
$FINGERPRINTGUID
  2
{A58A9670-0D0E-41D5-8EE1-6B4E37DA8488}
  9
$VERSIONGUID
  2
{04E1AEDE-05C2-4978-92EC-63DB8FB5A1F0}
  9
$EXTNAMES
290
     1
  9
$PSVPSCALE
 40
0.0
  9
$OLESTARTUP
290
     0
  0
ENDSEC
  0
SECTION
  2
CLASSES
  0
CLASS
  1
ACDBDICTIONARYWDFLT
  2
AcDbDictionaryWithDefault
  3
ObjectDBX Classes
 90
        0
280
     0
281
     0
  0
CLASS
  1
ACDBPLACEHOLDER
  2
AcDbPlaceHolder
  3
ObjectDBX Classes
 90
        0
280
     0
281
     0
  0
CLASS
  1
LAYOUT
  2
AcDbLayout
  3
ObjectDBX Classes
 90
        0
280
     0
281
     0
  0
CLASS
  1
DICTIONARYVAR
  2
AcDbDictionaryVar
  3
ObjectDBX Classes
 90
        0
280
     0
281
     0
  0
CLASS
  1
MATERIAL
  2
AcDbMaterial
  3
ObjectDBX Classes
 90
     1153
280
     0
281
     0
  0
CLASS
  1
VISUALSTYLE
  2
AcDbVisualStyle
  3
ObjectDBX Classes
 90
     4095
280
     0
281
     0
  0
CLASS
  1
TABLESTYLE
  2
AcDbTableStyle
  3
ObjectDBX Classes
 90
     4095
280
     0
281
     0
  0
CLASS
  1
SCALE
  2
AcDbScale
  3
ObjectDBX Classes
 90
     1153
280
     0
281
     0
  0
CLASS
  1
MLEADERSTYLE
  2
AcDbMLeaderStyle
  3
ACDB_MLEADERSTYLE_CLASS
 90
     4095
280
     0
281
     0
  0
CLASS
  1
ACDBSECTIONVIEWSTYLE
  2
AcDbSectionViewStyle
  3
ObjectDBX Classes
 90
     1025
280
     0
281
     0
  0
CLASS
  1
ACDBDETAILVIEWSTYLE
  2
AcDbDetailViewStyle
  3
ObjectDBX Classes
 90
     1025
280
     0
281
     0
  0
CLASS
  1
CELLSTYLEMAP
  2
AcDbCellStyleMap
  3
ObjectDBX Classes
 90
     1152
280
     0
281
     0
  0
ENDSEC
  0
SECTION
  2
TABLES
  0
TABLE
  2
VPORT
  5
97A6
330
0
100
AcDbSymbolTable
 70
     1
  0
VPORT
  5
99BD
330
97A6
100
AcDbSymbolTableRecord
100
AcDbViewportTableRecord
  2
*ACTIVE
 70
     0
 10
0.0
 20
0.0
 11
1.0
 21
1.0
 12
251.9576647790769
 22
117.317185061538
 13
0.0
 23
0.0
 14
10.0
 24
10.0
 15
10.0
 25
10.0
 16
0.0
 26
0.0
 36
1.0
 17
0.0
 27
0.0
 37
0.0
 40
217.0567156412564
 41
1.899603698811096
 42
50.0
 43
0.0
 44
0.0
 50
0.0
 51
0.0
 71
     0
 72
   100
 73
     1
 74
     0
 75
     0
 76
     0
 77
     0
 78
     0
281
     0
 65
     1
110
0.0
120
0.0
130
0.0
111
1.0
121
0.0
131
0.0
112
0.0
122
1.0
132
0.0
 79
     0
146
0.0
1001
ACAD_NAV_VCDISPLAY
1070
     3
  0
ENDTAB
  0
TABLE
  2
LTYPE
  5
97A3
330
0
100
AcDbSymbolTable
 70
     4
  0
LTYPE
  5
97B1
330
97A3
100
AcDbSymbolTableRecord
100
AcDbLinetypeTableRecord
  2
BYBLOCK
 70
     0
  3

 72
    65
 73
     0
 40
0.0
  0
LTYPE
  5
97B2
330
97A3
100
AcDbSymbolTableRecord
100
AcDbLinetypeTableRecord
  2
BYLAYER
 70
     0
  3

 72
    65
 73
     0
 40
0.0
  0
LTYPE
  5
97B3
330
97A3
100
AcDbSymbolTableRecord
100
AcDbLinetypeTableRecord
  2
CONTINUOUS
 70
     0
  3
Solid line
 72
    65
 73
     0
 40
0.0
  0
LTYPE
  5
97C1
330
97A3
100
AcDbSymbolTableRecord
100
AcDbLinetypeTableRecord
  2
DASHED
 70
     0
  3
__ __ __ __ __ __ __ __ __ __ __ __ __ __ __ __
 72
    65
 73
     2
 40
0.75
 49
0.5
 74
     0
 49
-0.25
 74
     0
  0
LTYPE
  5
97C2
330
97A3
100
AcDbSymbolTableRecord
100
AcDbLinetypeTableRecord
  2
CENTER
 70
     0
  3
____ _ ____ _ ____ _ ____ _ ____ _ ____ _ ____ 
 72
    65
 73
     4
 40
2.0
 49
1.25
 74
     0
 49
-0.25
 74
     0
 49
0.25
 74
     0
 49
-0.25
 74
     0
  0
LTYPE
  5
97C3
330
97A3
100
AcDbSymbolTableRecord
100
AcDbLinetypeTableRecord
  2
PHANTOM
 70
     0
  3
______  __  __  ______  __  __  ______  __  __ 
 72
    65
 73
     6
 40
2.5
 49
1.25
 74
     0
 49
-0.25
 74
     0
 49
0.25
 74
     0
 49
-0.25
 74
     0
 49
0.25
 74
     0
 49
-0.25
 74
     0
  0
ENDTAB
  0
TABLE
  2
LAYER
  5
97A0
330
0
100
AcDbSymbolTable
 70
     8
  0
LAYER
  5
97AE
102
{ACAD_XDICTIONARY
360
9A18
102
}
330
97A0
100
AcDbSymbolTableRecord
100
AcDbLayerTableRecord
  2
0
 70
     0
 62
     7
  6
CONTINUOUS
370
    -3
390
99C6
  0
LAYER
  5
97C4
102
{ACAD_XDICTIONARY
360
9A1A
102
}
330
97A0
100
AcDbSymbolTableRecord
100
AcDbLayerTableRecord
  2
4
 70
     0
 62
     1
  6
CENTER
370
    -3
390
99C6
  0
LAYER
  5
97C5
102
{ACAD_XDICTIONARY
360
9A1C
102
}
330
97A0
100
AcDbSymbolTableRecord
100
AcDbLayerTableRecord
  2
5
 70
     0
 62
     6
  6
PHANTOM
370
    -3
390
99C6
  0
LAYER
  5
97C6
102
{ACAD_XDICTIONARY
360
9A1E
102
}
330
97A0
100
AcDbSymbolTableRecord
100
AcDbLayerTableRecord
  2
1
 70
     0
 62
     7
  6
CONTINUOUS
370
    -3
390
99C6
  0
LAYER
  5
97C7
102
{ACAD_XDICTIONARY
360
9A20
102
}
330
97A0
100
AcDbSymbolTableRecord
100
AcDbLayerTableRecord
  2
2
 70
     0
 62
     4
  6
CONTINUOUS
370
    -3
390
99C6
  0
LAYER
  5
97C8
102
{ACAD_XDICTIONARY
360
9A22
102
}
330
97A0
100
AcDbSymbolTableRecord
100
AcDbLayerTableRecord
  2
3
 70
     0
 62
     2
  6
DASHED
370
    -3
390
99C6
  0
LAYER
  5
97C9
102
{ACAD_XDICTIONARY
360
9A24
102
}
330
97A0
100
AcDbSymbolTableRecord
100
AcDbLayerTableRecord
  2
6
 70
     0
 62
     5
  6
CONTINUOUS
370
    -3
390
99C6
  0
LAYER
  5
97CA
102
{ACAD_XDICTIONARY
360
9A26
102
}
330
97A0
100
AcDbSymbolTableRecord
100
AcDbLayerTableRecord
  2
7
 70
     0
 62
     3
  6
CONTINUOUS
370
    -3
390
99C6
  0
ENDTAB
  0
TABLE
  2
STYLE
  5
97A1
330
0
100
AcDbSymbolTable
 70
     1
  0
STYLE
  5
97AF
330
97A1
100
AcDbSymbolTableRecord
100
AcDbTextStyleTableRecord
  2
STANDARD
 70
     0
 40
0.0
 41
1.0
 50
0.0
 71
     0
 42
5.0
  3
txt
  4

  0
ENDTAB
  0
TABLE
  2
VIEW
  5
97A4
330
0
100
AcDbSymbolTable
 70
     0
  0
ENDTAB
  0
TABLE
  2
UCS
  5
97A5
330
0
100
AcDbSymbolTable
 70
     0
  0
ENDTAB
  0
TABLE
  2
APPID
  5
97A7
330
0
100
AcDbSymbolTable
 70
     3
  0
APPID
  5
97B0
330
97A7
100
AcDbSymbolTableRecord
100
AcDbRegAppTableRecord
  2
ACAD
 70
     0
  0
APPID
  5
9A32
330
97A7
100
AcDbSymbolTableRecord
100
AcDbRegAppTableRecord
  2
ACAD_NAV_VCDISPLAY
 70
     0
  0
APPID
  5
9A6B
330
97A7
100
AcDbSymbolTableRecord
100
AcDbRegAppTableRecord
  2
ACAD_MLEADERVER
 70
     0
  0
ENDTAB
  0
TABLE
  2
DIMSTYLE
  5
97A8
330
0
100
AcDbSymbolTable
 70
     1
100
AcDbDimStyleTable
 71
     0
  0
DIMSTYLE
105
97CC
330
97A8
100
AcDbSymbolTableRecord
100
AcDbDimStyleTableRecord
  2
STANDARD
 70
     0
 41
3.0
 42
1.0
 43
10.0
 44
1.0
 73
     0
 74
     0
 77
     3
 78
     8
140
3.2
141
0.0
147
1.0
172
     1
173
     1
284
     8
285
     8
286
     8
340
97AF
  0
ENDTAB
  0
TABLE
  2
BLOCK_RECORD
  5
979F
330
0
100
AcDbSymbolTable
 70
     0
  0
BLOCK_RECORD
  5
97BC
102
{ACAD_XDICTIONARY
360
99C0
102
}
330
979F
100
AcDbSymbolTableRecord
100
AcDbBlockTableRecord
  2
*MODEL_SPACE
340
9A14
  0
BLOCK_RECORD
  5
97B8
102
{ACAD_XDICTIONARY
360
99BE
102
}
330
979F
100
AcDbSymbolTableRecord
100
AcDbBlockTableRecord
  2
*PAPER_SPACE
340
9A15
  0
ENDTAB
  0
ENDSEC
  0
SECTION
  2
BLOCKS
  0
BLOCK
  5
97BD
330
97BC
100
AcDbEntity
  8
0
100
AcDbBlockBegin
  2
*MODEL_SPACE
 70
     0
 10
0.0
 20
0.0
 30
0.0
  3
*MODEL_SPACE
  1

  0
ENDBLK
  5
97BE
330
97BC
100
AcDbEntity
  8
0
100
AcDbBlockEnd
  0
BLOCK
  5
97B9
330
97B8
100
AcDbEntity
 67
     1
  8
0
100
AcDbBlockBegin
  2
*PAPER_SPACE
 70
     0
 10
0.0
 20
0.0
 30
0.0
  3
*PAPER_SPACE
  1

  0
ENDBLK
  5
97BA
330
97B8
100
AcDbEntity
 67
     1
  8
0
100
AcDbBlockEnd
  0
ENDSEC
  0
SECTION
  2
ENTITIES
  0
TEXT
  5
97D4
330
97BC
100
AcDbEntity
  8
7
  6
Continuous
100
AcDbText
 10
10.0
 20
18.0
 30
0.0
 40
3.0
  1
TYPE No.TL-210-2
100
AcDbText
  0
TEXT
  5
97D5
330
97BC
100
AcDbEntity
  8
7
  6
Continuous
100
AcDbText
 10
10.0
 20
26.0
 30
0.0
 40
3.0
  1
CODE No.1452
100
AcDbText
  0
TEXT
  5
97D6
330
97BC
100
AcDbEntity
  8
1
  6
Continuous
100
AcDbText
 10
10.0
 20
10.0
 30
0.0
 40
1.399999999999999
  1
LAYER
100
AcDbText
  0
TEXT
  5
97D7
330
97BC
100
AcDbEntity
  8
1
  6
Continuous
100
AcDbText
 10
17.97951099999998
 20
10.04873699999998
 30
0.0
 40
1.399999999999999
  1
1
100
AcDbText
  0
TEXT
  5
97D8
330
97BC
100
AcDbEntity
  8
7
  6
Continuous
100
AcDbText
 10
29.97951099999999
 20
10.04873699999998
 30
0.0
 40
1.399999999999999
  1
7
100
AcDbText
  0
TEXT
  5
97D9
330
97BC
100
AcDbEntity
  8
4
  6
CENTER
100
AcDbText
 10
23.97951099999999
 20
10.04873699999998
 30
0.0
 40
1.399999999999999
  1
4
100
AcDbText
  0
TEXT
  5
97DA
330
97BC
100
AcDbEntity
  8
3
  6
DASHED
100
AcDbText
 10
21.979511
 20
10.04873699999998
 30
0.0
 40
1.399999999999999
  1
3
100
AcDbText
  0
TEXT
  5
97DB
330
97BC
100
AcDbEntity
  8
2
  6
Continuous
100
AcDbText
 10
19.97951099999999
 20
10.04873699999998
 30
0.0
 40
1.399999999999999
  1
2
100
AcDbText
  0
TEXT
  5
97DC
330
97BC
100
AcDbEntity
  8
6
  6
Continuous
100
AcDbText
 10
27.979511
 20
10.04873699999998
 30
0.0
 40
1.399999999999999
  1
6
100
AcDbText
  0
TEXT
  5
97DD
330
97BC
100
AcDbEntity
  8
5
  6
PHANTOM
100
AcDbText
 10
25.97951099999999
 20
10.04873699999998
 30
0.0
 40
1.399999999999999
  1
5
100
AcDbText
  0
LINE
  5
97DE
330
97BC
100
AcDbEntity
  8
1
  6
Continuous
100
AcDbLine
 10
32.3975
 20
129.517861
 30
0.0
 11
32.3975
 21
125.217858
 31
0.0
  0
LINE
  5
97DF
330
97BC
100
AcDbEntity
  8
1
  6
Continuous
100
AcDbLine
 10
31.197499
 20
129.517861
 30
0.0
 11
31.197499
 21
125.217858
 31
0.0
  0
LINE
  5
97E0
330
97BC
100
AcDbEntity
  8
1
  6
Continuous
100
AcDbLine
 10
32.8975
 20
125.217858
 30
0.0
 11
32.8975
 21
121.4512639999999
 31
0.0
  0
LINE
  5
97E1
330
97BC
100
AcDbEntity
  8
1
  6
Continuous
100
AcDbLine
 10
30.697499
 20
125.217858
 30
0.0
 11
30.697499
 21
121.4512639999999
 31
0.0
  0
LINE
  5
97E2
330
97BC
100
AcDbEntity
  8
1
  6
Continuous
100
AcDbLine
 10
32.8975
 20
125.217858
 30
0.0
 11
32.3975
 21
125.217858
 31
0.0
  0
LINE
  5
97E3
330
97BC
100
AcDbEntity
  8
1
  6
Continuous
100
AcDbLine
 10
31.197499
 20
125.217858
 30
0.0
 11
30.697499
 21
125.217858
 31
0.0
  0
LINE
  5
97E4
330
97BC
100
AcDbEntity
  8
1
  6
Continuous
100
AcDbLine
 10
32.3975
 20
129.517861
 30
0.0
 11
31.197499
 21
129.517861
 31
0.0
  0
LINE
  5
97E5
330
97BC
100
AcDbEntity
  8
1
  6
Continuous
100
AcDbLine
 10
156.326898
 20
141.0910719999999
 30
0.0
 11
156.326898
 21
117.9970549999999
 31
0.0
  0
LINE
  5
97E6
330
97BC
100
AcDbEntity
  8
1
  6
Continuous
100
AcDbLine
 10
159.3268979999998
 20
141.0910719999999
 30
0.0
 11
159.3268979999998
 21
117.9970549999999
 31
0.0
  0
LINE
  5
97E7
330
97BC
100
AcDbEntity
  8
1
  6
Continuous
100
AcDbLine
 10
143.6585929999999
 20
141.5440599999998
 30
0.0
 11
143.6585929999999
 21
117.54406
 31
0.0
  0
LINE
  5
97E8
330
97BC
100
AcDbEntity
  8
1
  6
Continuous
100
AcDbLine
 10
143.6585929999999
 20
117.54406
 30
0.0
 11
144.4585959999998
 21
117.54406
 31
0.0
  0
LINE
  5
97E9
330
97BC
100
AcDbEntity
  8
1
  6
Continuous
100
AcDbLine
 10
144.4585959999998
 20
117.54406
 30
0.0
 11
144.4585959999998
 21
141.5440599999998
 31
0.0
  0
LINE
  5
97EA
330
97BC
100
AcDbEntity
  8
1
  6
Continuous
100
AcDbLine
 10
144.4585959999998
 20
141.5440599999998
 30
0.0
 11
143.6585929999999
 21
141.5440599999998
 31
0.0
  0
LINE
  5
97EB
330
97BC
100
AcDbEntity
  8
1
  6
Continuous
100
AcDbLine
 10
115.593597
 20
133.0440599999998
 30
0.0
 11
117.593597
 21
133.0440599999998
 31
0.0
  0
LINE
  5
97EC
330
97BC
100
AcDbEntity
  8
1
  6
Continuous
100
AcDbLine
 10
117.593597
 20
133.0440599999998
 30
0.0
 11
117.593597
 21
121.04406
 31
0.0
  0
LINE
  5
97ED
330
97BC
100
AcDbEntity
  8
1
  6
Continuous
100
AcDbLine
 10
117.593597
 20
121.04406
 30
0.0
 11
115.593597
 21
121.04406
 31
0.0
  0
LINE
  5
97EE
330
97BC
100
AcDbEntity
  8
1
  6
Continuous
100
AcDbLine
 10
115.593597
 20
121.04406
 30
0.0
 11
115.593597
 21
133.0440599999998
 31
0.0
  0
LINE
  5
97EF
330
97BC
100
AcDbEntity
  8
1
  6
Continuous
100
AcDbLine
 10
115.593597
 20
129.54406
 30
0.0
 11
113.8935939999998
 21
129.54406
 31
0.0
  0
LINE
  5
97F0
330
97BC
100
AcDbEntity
  8
1
  6
Continuous
100
AcDbLine
 10
115.593597
 20
132.3440629999998
 30
0.0
 11
114.293594
 21
132.3440629999998
 31
0.0
  0
LINE
  5
97F1
330
97BC
100
AcDbEntity
  8
1
  6
Continuous
100
AcDbLine
 10
114.293594
 20
129.54406
 30
0.0
 11
114.293594
 21
132.3440629999998
 31
0.0
  0
LINE
  5
97F2
330
97BC
100
AcDbEntity
  8
4
  6
CENTER
100
AcDbLine
 10
140.864816
 20
212.6359639999999
 30
0.0
 11
162.5815699999999
 21
212.6359639999999
 31
0.0
  0
LINE
  5
97F3
330
97BC
100
AcDbEntity
  8
4
  6
CENTER
100
AcDbLine
 10
13.503003
 20
212.6359639999999
 30
0.0
 11
59.502702
 21
212.6359639999999
 31
0.0
  0
LINE
  5
97F4
330
97BC
100
AcDbEntity
  8
1
  6
Continuous
100
AcDbLine
 10
22.77810399999999
 20
200.6359639999999
 30
0.0
 11
26.964101
 21
200.6359639999999
 31
0.0
  0
LINE
  5
97F5
330
97BC
100
AcDbEntity
  8
1
  6
Continuous
100
AcDbLine
 10
22.77810399999999
 20
224.635964
 30
0.0
 11
26.964101
 21
224.635964
 31
0.0
  0
LINE
  5
97F6
330
97BC
100
AcDbEntity
  8
1
  6
Continuous
100
AcDbLine
 10
16.297498
 20
216.785164
 30
0.0
 11
16.297498
 21
208.486763
 31
0.0
  0
LINE
  5
97F7
330
97BC
100
AcDbEntity
  8
1
  6
Continuous
100
AcDbLine
 10
21.997195
 20
224.2606589999998
 30
0.0
 11
16.5166
 21
217.4098589999999
 31
0.0
  0
LINE
  5
97F8
330
97BC
100
AcDbEntity
  8
1
  6
Continuous
100
AcDbLine
 10
16.516602
 20
207.8620679999999
 30
0.0
 11
21.99720699999998
 21
201.011254
 31
0.0
  0
LINE
  5
97F9
330
97BC
100
AcDbEntity
  8
1
  6
Continuous
100
AcDbLine
 10
37.297505
 20
208.135964
 30
0.0
 11
54.090398
 21
208.135964
 31
0.0
  0
LINE
  5
97FA
330
97BC
100
AcDbEntity
  8
1
  6
Continuous
100
AcDbLine
 10
37.297505
 20
217.1359639999999
 30
0.0
 11
43.797505
 21
217.1359639999999
 31
0.0
  0
LINE
  5
97FB
330
97BC
100
AcDbEntity
  8
1
  6
Continuous
100
AcDbLine
 10
27.56409899999999
 20
224.435967
 30
0.0
 11
37.297498
 21
217.1359789999999
 31
0.0
  0
LINE
  5
97FC
330
97BC
100
AcDbEntity
  8
1
  6
Continuous
100
AcDbLine
 10
37.29749
 20
208.135964
 30
0.0
 11
27.564092
 21
200.8359609999998
 31
0.0
  0
LINE
  5
97FD
330
97BC
100
AcDbEntity
  8
1
  6
Continuous
100
AcDbLine
 10
19.297498
 20
216.135964
 30
0.0
 11
19.297498
 21
209.1359639999998
 31
0.0
  0
LINE
  5
97FE
330
97BC
100
AcDbEntity
  8
1
  6
Continuous
100
AcDbLine
 10
21.797498
 20
216.135964
 30
0.0
 11
21.797498
 21
209.1359639999998
 31
0.0
  0
LINE
  5
97FF
330
97BC
100
AcDbEntity
  8
1
  6
Continuous
100
AcDbLine
 10
19.797498
 20
208.6359639999999
 30
0.0
 11
21.297498
 21
208.6359639999999
 31
0.0
  0
LINE
  5
9800
330
97BC
100
AcDbEntity
  8
1
  6
Continuous
100
AcDbLine
 10
19.797498
 20
216.635964
 30
0.0
 11
21.297498
 21
216.635964
 31
0.0
  0
LINE
  5
9801
330
97BC
100
AcDbEntity
  8
1
  6
Continuous
100
AcDbLine
 10
44.29750499999999
 20
216.635964
 30
0.0
 11
44.29750499999999
 21
215.1359639999999
 31
0.0
  0
LINE
  5
9802
330
97BC
100
AcDbEntity
  8
1
  6
Continuous
100
AcDbLine
 10
44.29750499999999
 20
215.1359639999999
 30
0.0
 11
53.09030599999999
 21
215.1359639999999
 31
0.0
  0
LINE
  5
9803
330
97BC
100
AcDbEntity
  8
1
  6
Continuous
100
AcDbLine
 10
56.94390999999999
 20
210.782372
 30
0.0
 11
54.44390600000001
 21
208.2823719999999
 31
0.0
  0
LINE
  5
9804
330
97BC
100
AcDbEntity
  8
1
  6
Continuous
100
AcDbLine
 10
56.94390999999999
 20
211.489479
 30
0.0
 11
53.44385899999998
 21
214.989518
 31
0.0
  0
LINE
  5
9805
330
97BC
100
AcDbEntity
  8
1
  6
Continuous
100
AcDbLine
 10
40.297505
 20
211.1359639999998
 30
0.0
 11
57.09039399999999
 21
211.1359639999998
 31
0.0
  0
LINE
  5
9806
330
97BC
100
AcDbEntity
  8
1
  6
Continuous
100
AcDbLine
 10
40.297505
 20
215.635964
 30
0.0
 11
44.29750499999999
 21
215.635964
 31
0.0
  0
LINE
  5
9807
330
97BC
100
AcDbEntity
  8
1
  6
Continuous
100
AcDbLine
 10
40.297505
 20
215.635964
 30
0.0
 11
40.297505
 21
211.1359639999998
 31
0.0
  0
LINE
  5
9808
330
97BC
100
AcDbEntity
  8
1
  6
Continuous
100
AcDbLine
 10
119.593597
 20
127.9965589999999
 30
0.0
 11
119.593597
 21
126.091652
 31
0.0
  0
LINE
  5
9809
330
97BC
100
AcDbEntity
  8
1
  6
Continuous
100
AcDbLine
 10
118.0935969999999
 20
129.0440599999998
 30
0.0
 11
118.6806939999998
 21
128.99276
 31
0.0
  0
LINE
  5
980A
330
97BC
100
AcDbEntity
  8
1
  6
Continuous
100
AcDbLine
 10
118.0935969999999
 20
125.04406
 30
0.0
 11
118.6806939999998
 21
125.095452
 31
0.0
  0
LINE
  5
980B
330
97BC
100
AcDbEntity
  8
1
  6
Continuous
100
AcDbLine
 10
117.593597
 20
124.54406
 30
0.0
 11
118.0935969999999
 21
124.54406
 31
0.0
  0
LINE
  5
980C
330
97BC
100
AcDbEntity
  8
1
  6
Continuous
100
AcDbLine
 10
117.593597
 20
129.54406
 30
0.0
 11
118.0935969999999
 21
129.54406
 31
0.0
  0
LINE
  5
980D
330
97BC
100
AcDbEntity
  8
1
  6
Continuous
100
AcDbLine
 10
118.0935969999999
 20
129.54406
 30
0.0
 11
118.0935969999999
 21
124.54406
 31
0.0
  0
LINE
  5
980E
330
97BC
100
AcDbEntity
  8
1
  6
Continuous
100
AcDbLine
 10
103.0935909999999
 20
119.54406
 30
0.0
 11
104.3935939999998
 21
119.54406
 31
0.0
  0
LINE
  5
980F
330
97BC
100
AcDbEntity
  8
1
  6
Continuous
100
AcDbLine
 10
103.0935909999999
 20
139.54406
 30
0.0
 11
104.3935939999998
 21
139.54406
 31
0.0
  0
LINE
  5
9810
330
97BC
100
AcDbEntity
  8
1
  6
Continuous
100
AcDbLine
 10
102.3935939999998
 20
138.8440629999998
 30
0.0
 11
102.3935939999998
 21
120.244057
 31
0.0
  0
LINE
  5
9811
330
97BC
100
AcDbEntity
  8
1
  6
Continuous
100
AcDbLine
 10
104.3935939999998
 20
139.54406
 30
0.0
 11
104.3935939999998
 21
119.54406
 31
0.0
  0
LINE
  5
9812
330
97BC
100
AcDbEntity
  8
1
  6
Continuous
100
AcDbLine
 10
102.3935939999998
 20
138.8440629999998
 30
0.0
 11
103.0935909999999
 21
139.54406
 31
0.0
  0
LINE
  5
9813
330
97BC
100
AcDbEntity
  8
1
  6
Continuous
100
AcDbLine
 10
102.3935939999998
 20
120.244057
 30
0.0
 11
103.0935909999999
 21
119.544052
 31
0.0
  0
LINE
  5
9814
330
97BC
100
AcDbEntity
  8
1
  6
Continuous
100
AcDbLine
 10
104.3935939999998
 20
120.54406
 30
0.0
 11
112.143594
 21
120.54406
 31
0.0
  0
LINE
  5
9815
330
97BC
100
AcDbEntity
  8
1
  6
Continuous
100
AcDbLine
 10
104.3935939999998
 20
138.54406
 30
0.0
 11
112.143594
 21
138.54406
 31
0.0
  0
LINE
  5
9816
330
97BC
100
AcDbEntity
  8
1
  6
Continuous
100
AcDbLine
 10
113.8935939999998
 20
137.79406
 30
0.0
 11
113.8935939999998
 21
129.54406
 31
0.0
  0
LINE
  5
9817
330
97BC
100
AcDbEntity
  8
1
  6
Continuous
100
AcDbLine
 10
115.3935939999998
 20
129.54406
 30
0.0
 11
115.3935939999998
 21
126.04406
 31
0.0
  0
LINE
  5
9818
330
97BC
100
AcDbEntity
  8
1
  6
Continuous
100
AcDbLine
 10
112.8935939999998
 20
121.29406
 30
0.0
 11
113.8935939999998
 21
121.29406
 31
0.0
  0
LINE
  5
9819
330
97BC
100
AcDbEntity
  8
1
  6
Continuous
100
AcDbLine
 10
112.8935939999998
 20
137.79406
 30
0.0
 11
113.8935939999998
 21
137.79406
 31
0.0
  0
LINE
  5
981A
330
97BC
100
AcDbEntity
  8
1
  6
Continuous
100
AcDbLine
 10
112.8935939999998
 20
121.2940519999999
 30
0.0
 11
112.143594
 21
120.54406
 31
0.0
  0
LINE
  5
981B
330
97BC
100
AcDbEntity
  8
1
  6
Continuous
100
AcDbLine
 10
112.8935939999998
 20
137.79406
 30
0.0
 11
112.143594
 21
138.54406
 31
0.0
  0
LINE
  5
981C
330
97BC
100
AcDbEntity
  8
4
  6
CENTER
100
AcDbLine
 10
100.977197
 20
127.04406
 30
0.0
 11
120.828232
 21
127.04406
 31
0.0
  0
LINE
  5
981D
330
97BC
100
AcDbEntity
  8
1
  6
Continuous
100
AcDbLine
 10
113.8935939999998
 20
126.04406
 30
0.0
 11
115.3935939999998
 21
126.04406
 31
0.0
  0
LINE
  5
981E
330
97BC
100
AcDbEntity
  8
4
  6
CENTER
100
AcDbLine
 10
99.26829600000001
 20
129.54406
 30
0.0
 11
122.1994779999999
 21
129.54406
 31
0.0
  0
LINE
  5
981F
330
97BC
100
AcDbEntity
  8
1
  6
Continuous
100
AcDbLine
 10
114.593597
 20
122.0940629999999
 30
0.0
 11
115.593597
 21
122.0940629999999
 31
0.0
  0
LINE
  5
9820
330
97BC
100
AcDbEntity
  8
1
  6
Continuous
100
AcDbLine
 10
113.8935939999998
 20
126.04406
 30
0.0
 11
113.8935939999998
 21
121.29406
 31
0.0
  0
LINE
  5
9821
330
97BC
100
AcDbEntity
  8
1
  6
Continuous
100
AcDbLine
 10
103.0935909999999
 20
139.54406
 30
0.0
 11
103.0935909999999
 21
119.54406
 31
0.0
  0
LINE
  5
9822
330
97BC
100
AcDbEntity
  8
1
  6
Continuous
100
AcDbLine
 10
114.593597
 20
126.04406
 30
0.0
 11
114.593597
 21
122.0940629999999
 31
0.0
  0
LINE
  5
9823
330
97BC
100
AcDbEntity
  8
1
  6
Continuous
100
AcDbLine
 10
104.3935939999998
 20
133.467049
 30
0.0
 11
112.143594
 21
133.467049
 31
0.0
  0
LINE
  5
9824
330
97BC
100
AcDbEntity
  8
1
  6
Continuous
100
AcDbLine
 10
104.3935939999998
 20
125.621056
 30
0.0
 11
112.143594
 21
125.621056
 31
0.0
  0
LINE
  5
9825
330
97BC
100
AcDbEntity
  8
1
  6
Continuous
100
AcDbLine
 10
104.893594
 20
138.54406
 30
0.0
 11
104.893594
 21
133.467049
 31
0.0
  0
LINE
  5
9826
330
97BC
100
AcDbEntity
  8
1
  6
Continuous
100
AcDbLine
 10
104.893594
 20
120.54406
 30
0.0
 11
104.893594
 21
125.621056
 31
0.0
  0
LINE
  5
9827
330
97BC
100
AcDbEntity
  8
1
  6
Continuous
100
AcDbLine
 10
112.143594
 20
138.54406
 30
0.0
 11
112.143594
 21
133.467049
 31
0.0
  0
LINE
  5
9828
330
97BC
100
AcDbEntity
  8
1
  6
Continuous
100
AcDbLine
 10
112.8935939999998
 20
137.79406
 30
0.0
 11
112.8935939999998
 21
132.717049
 31
0.0
  0
LINE
  5
9829
330
97BC
100
AcDbEntity
  8
1
  6
Continuous
100
AcDbLine
 10
112.8935939999998
 20
132.717049
 30
0.0
 11
112.143594
 21
133.4670639999999
 31
0.0
  0
LINE
  5
982A
330
97BC
100
AcDbEntity
  8
1
  6
Continuous
100
AcDbLine
 10
112.8935939999998
 20
132.717049
 30
0.0
 11
113.8935939999998
 21
132.717049
 31
0.0
  0
LINE
  5
982B
330
97BC
100
AcDbEntity
  8
1
  6
Continuous
100
AcDbLine
 10
112.143594
 20
120.54406
 30
0.0
 11
112.143594
 21
125.621056
 31
0.0
  0
LINE
  5
982C
330
97BC
100
AcDbEntity
  8
1
  6
Continuous
100
AcDbLine
 10
112.8935939999998
 20
121.29406
 30
0.0
 11
112.8935939999998
 21
126.371056
 31
0.0
  0
LINE
  5
982D
330
97BC
100
AcDbEntity
  8
1
  6
Continuous
100
AcDbLine
 10
112.8935939999998
 20
126.371056
 30
0.0
 11
112.143594
 21
125.621056
 31
0.0
  0
LINE
  5
982E
330
97BC
100
AcDbEntity
  8
1
  6
Continuous
100
AcDbLine
 10
112.8935939999998
 20
126.371056
 30
0.0
 11
115.3935939999998
 21
126.371056
 31
0.0
  0
LINE
  5
982F
330
97BC
100
AcDbEntity
  8
2
  6
Continuous
100
AcDbLine
 10
113.893601
 20
132.717064
 30
0.0
 11
104.3935859999999
 21
125.621056
 31
0.0
  0
LINE
  5
9830
330
97BC
100
AcDbEntity
  8
2
  6
Continuous
100
AcDbLine
 10
104.393601
 20
133.4670639999999
 30
0.0
 11
115.393601
 21
126.371056
 31
0.0
  0
LINE
  5
9831
330
97BC
100
AcDbEntity
  8
1
  6
Continuous
100
AcDbLine
 10
244.078988
 20
134.5190509999999
 30
0.0
 11
244.078988
 21
124.56913
 31
0.0
  0
LINE
  5
9832
330
97BC
100
AcDbEntity
  8
1
  6
Continuous
100
AcDbLine
 10
228.479012
 20
133.467049
 30
0.0
 11
228.479012
 21
133.0440599999998
 31
0.0
  0
LINE
  5
9833
330
97BC
100
AcDbEntity
  8
1
  6
Continuous
100
AcDbLine
 10
238.5789879999999
 20
138.3190539999999
 30
0.0
 11
238.5789879999999
 21
137.04406
 31
0.0
  0
LINE
  5
9834
330
97BC
100
AcDbEntity
  8
1
  6
Continuous
100
AcDbLine
 10
234.5789879999999
 20
138.3190539999999
 30
0.0
 11
234.5789879999999
 21
137.04406
 31
0.0
  0
LINE
  5
9835
330
97BC
100
AcDbEntity
  8
1
  6
Continuous
100
AcDbLine
 10
238.5789879999999
 20
137.04406
 30
0.0
 11
234.5789879999999
 21
137.04406
 31
0.0
  0
LINE
  5
9836
330
97BC
100
AcDbEntity
  8
1
  6
Continuous
100
AcDbLine
 10
244.078988
 20
126.04406
 30
0.0
 11
242.5789879999999
 21
126.04406
 31
0.0
  0
LINE
  5
9837
330
97BC
100
AcDbEntity
  8
1
  6
Continuous
100
AcDbLine
 10
244.078988
 20
129.54406
 30
0.0
 11
242.5789879999999
 21
129.54406
 31
0.0
  0
LINE
  5
9838
330
97BC
100
AcDbEntity
  8
1
  6
Continuous
100
AcDbLine
 10
242.5789879999999
 20
129.54406
 30
0.0
 11
242.5789879999999
 21
126.04406
 31
0.0
  0
LINE
  5
9839
330
97BC
100
AcDbEntity
  8
4
  6
CENTER
100
AcDbLine
 10
239.5789879999999
 20
130.167336
 30
0.0
 11
239.5789879999999
 21
124.0032889999999
 31
0.0
  0
LINE
  5
983A
330
97BC
100
AcDbEntity
  8
4
  6
CENTER
100
AcDbLine
 10
233.5789879999999
 20
130.2347029999999
 30
0.0
 11
233.5789879999999
 21
123.7675019999999
 31
0.0
  0
LINE
  5
983B
330
97BC
100
AcDbEntity
  8
1
  6
Continuous
100
AcDbLine
 10
238.5789879999999
 20
137.4440539999999
 30
0.0
 11
234.5789879999999
 21
137.4440539999999
 31
0.0
  0
LINE
  5
983C
330
97BC
100
AcDbEntity
  8
4
  6
CENTER
100
AcDbLine
 10
122.079235
 20
212.6359639999999
 30
0.0
 11
98.526612
 21
212.6359639999999
 31
0.0
  0
LINE
  5
983D
330
97BC
100
AcDbEntity
  8
1
  6
Continuous
100
AcDbLine
 10
102.3935939999998
 20
221.935967
 30
0.0
 11
102.3935939999998
 21
203.335961
 31
0.0
  0
LINE
  5
983E
330
97BC
100
AcDbEntity
  8
1
  6
Continuous
100
AcDbLine
 10
104.3935939999998
 20
222.635964
 30
0.0
 11
103.0935909999999
 21
222.635964
 31
0.0
  0
LINE
  5
983F
330
97BC
100
AcDbEntity
  8
1
  6
Continuous
100
AcDbLine
 10
104.3935939999998
 20
202.6359639999999
 30
0.0
 11
103.0935909999999
 21
202.6359639999999
 31
0.0
  0
LINE
  5
9840
330
97BC
100
AcDbEntity
  8
1
  6
Continuous
100
AcDbLine
 10
104.3935939999998
 20
222.635964
 30
0.0
 11
104.3935939999998
 21
202.6359639999999
 31
0.0
  0
LINE
  5
9841
330
97BC
100
AcDbEntity
  8
1
  6
Continuous
100
AcDbLine
 10
102.3935939999998
 20
221.935967
 30
0.0
 11
103.0935909999999
 21
222.635964
 31
0.0
  0
LINE
  5
9842
330
97BC
100
AcDbEntity
  8
1
  6
Continuous
100
AcDbLine
 10
102.3935939999998
 20
203.335961
 30
0.0
 11
103.0935909999999
 21
202.6359639999999
 31
0.0
  0
LINE
  5
9843
330
97BC
100
AcDbEntity
  8
1
  6
Continuous
100
AcDbLine
 10
115.593589
 20
204.5359579999999
 30
0.0
 11
104.3935939999998
 21
204.5359579999999
 31
0.0
  0
LINE
  5
9844
330
97BC
100
AcDbEntity
  8
1
  6
Continuous
100
AcDbLine
 10
115.3935939999998
 20
220.135964
 30
0.0
 11
104.3935939999998
 21
220.135964
 31
0.0
  0
LINE
  5
9845
330
97BC
100
AcDbEntity
  8
1
  6
Continuous
100
AcDbLine
 10
113.8935939999998
 20
220.135964
 30
0.0
 11
113.8935939999998
 21
204.5359579999999
 31
0.0
  0
LINE
  5
9846
330
97BC
100
AcDbEntity
  8
1
  6
Continuous
100
AcDbLine
 10
115.3935939999998
 20
218.635964
 30
0.0
 11
113.8935939999998
 21
218.635964
 31
0.0
  0
LINE
  5
9847
330
97BC
100
AcDbEntity
  8
1
  6
Continuous
100
AcDbLine
 10
114.2936009999999
 20
206.6359639999999
 30
0.0
 11
113.8935939999998
 21
206.6359639999999
 31
0.0
  0
LINE
  5
9848
330
97BC
100
AcDbEntity
  8
1
  6
Continuous
100
AcDbLine
 10
115.3935939999998
 20
220.135964
 30
0.0
 11
115.3935939999998
 21
218.635964
 31
0.0
  0
LINE
  5
9849
330
97BC
100
AcDbEntity
  8
1
  6
Continuous
100
AcDbLine
 10
112.8935939999998
 20
220.135964
 30
0.0
 11
112.8935939999998
 21
214.635964
 31
0.0
  0
LINE
  5
984A
330
97BC
100
AcDbEntity
  8
1
  6
Continuous
100
AcDbLine
 10
112.143594
 20
220.135964
 30
0.0
 11
112.143594
 21
214.635964
 31
0.0
  0
LINE
  5
984B
330
97BC
100
AcDbEntity
  8
1
  6
Continuous
100
AcDbLine
 10
104.893594
 20
220.135964
 30
0.0
 11
104.893594
 21
214.635964
 31
0.0
  0
LINE
  5
984C
330
97BC
100
AcDbEntity
  8
1
  6
Continuous
100
AcDbLine
 10
113.8935939999998
 20
214.635964
 30
0.0
 11
104.3935939999998
 21
214.635964
 31
0.0
  0
LINE
  5
984D
330
97BC
100
AcDbEntity
  8
1
  6
Continuous
100
AcDbLine
 10
113.8935939999998
 20
210.6359639999999
 30
0.0
 11
104.3935939999998
 21
210.6359639999999
 31
0.0
  0
LINE
  5
984E
330
97BC
100
AcDbEntity
  8
1
  6
Continuous
100
AcDbLine
 10
112.8935939999998
 20
210.6359639999999
 30
0.0
 11
112.8935939999998
 21
204.5359579999999
 31
0.0
  0
LINE
  5
984F
330
97BC
100
AcDbEntity
  8
1
  6
Continuous
100
AcDbLine
 10
112.143594
 20
210.6359639999999
 30
0.0
 11
112.143594
 21
204.5359579999999
 31
0.0
  0
LINE
  5
9850
330
97BC
100
AcDbEntity
  8
1
  6
Continuous
100
AcDbLine
 10
104.893594
 20
210.6359639999999
 30
0.0
 11
104.893594
 21
204.5359579999999
 31
0.0
  0
LINE
  5
9851
330
97BC
100
AcDbEntity
  8
1
  6
Continuous
100
AcDbLine
 10
114.593589
 20
217.5859609999999
 30
0.0
 11
114.593589
 21
207.685967
 31
0.0
  0
LINE
  5
9852
330
97BC
100
AcDbEntity
  8
1
  6
Continuous
100
AcDbLine
 10
114.593589
 20
217.5859609999999
 30
0.0
 11
115.593589
 21
217.5859609999999
 31
0.0
  0
LINE
  5
9853
330
97BC
100
AcDbEntity
  8
1
  6
Continuous
100
AcDbLine
 10
114.593589
 20
207.685967
 30
0.0
 11
115.593589
 21
207.685967
 31
0.0
  0
LINE
  5
9854
330
97BC
100
AcDbEntity
  8
1
  6
Continuous
100
AcDbLine
 10
159.3268979999998
 20
222.635964
 30
0.0
 11
156.326898
 21
222.635964
 31
0.0
  0
LINE
  5
9855
330
97BC
100
AcDbEntity
  8
1
  6
Continuous
100
AcDbLine
 10
159.3268979999998
 20
202.6359639999999
 30
0.0
 11
156.326898
 21
202.6359639999999
 31
0.0
  0
LINE
  5
9856
330
97BC
100
AcDbEntity
  8
1
  6
Continuous
100
AcDbLine
 10
156.326898
 20
222.635964
 30
0.0
 11
156.326898
 21
202.6359639999999
 31
0.0
  0
LINE
  5
9857
330
97BC
100
AcDbEntity
  8
1
  6
Continuous
100
AcDbLine
 10
159.3268979999998
 20
222.635964
 30
0.0
 11
159.3268979999998
 21
202.6359639999999
 31
0.0
  0
LINE
  5
9858
330
97BC
100
AcDbEntity
  8
1
  6
Continuous
100
AcDbLine
 10
159.3268979999998
 20
212.6359639999999
 30
0.0
 11
156.326898
 21
212.6359639999999
 31
0.0
  0
LINE
  5
9859
330
97BC
100
AcDbEntity
  8
1
  6
Continuous
100
AcDbLine
 10
143.6585929999999
 20
224.635964
 30
0.0
 11
143.6585929999999
 21
200.6359639999999
 31
0.0
  0
LINE
  5
985A
330
97BC
100
AcDbEntity
  8
1
  6
Continuous
100
AcDbLine
 10
143.6585929999999
 20
200.6359639999999
 30
0.0
 11
144.4585959999998
 21
200.6359639999999
 31
0.0
  0
LINE
  5
985B
330
97BC
100
AcDbEntity
  8
1
  6
Continuous
100
AcDbLine
 10
144.4585959999998
 20
200.6359639999999
 30
0.0
 11
144.4585959999998
 21
224.635964
 31
0.0
  0
LINE
  5
985C
330
97BC
100
AcDbEntity
  8
1
  6
Continuous
100
AcDbLine
 10
144.4585959999998
 20
224.635964
 30
0.0
 11
143.6585929999999
 21
224.635964
 31
0.0
  0
LINE
  5
985D
330
97BC
100
AcDbEntity
  8
1
  6
Continuous
100
AcDbLine
 10
112.3935939999998
 20
214.635964
 30
0.0
 11
112.3935939999998
 21
210.6359639999999
 31
0.0
  0
LINE
  5
985E
330
97BC
100
AcDbEntity
  8
1
  6
Continuous
100
AcDbLine
 10
117.5935889999998
 20
218.635964
 30
0.0
 11
115.593589
 21
218.635964
 31
0.0
  0
LINE
  5
985F
330
97BC
100
AcDbEntity
  8
1
  6
Continuous
100
AcDbLine
 10
117.5935889999998
 20
190.6359639999998
 30
0.0
 11
115.593589
 21
190.6359639999998
 31
0.0
  0
LINE
  5
9860
330
97BC
100
AcDbEntity
  8
1
  6
Continuous
100
AcDbLine
 10
115.593589
 20
190.6359639999998
 30
0.0
 11
115.593589
 21
218.635964
 31
0.0
  0
LINE
  5
9861
330
97BC
100
AcDbEntity
  8
1
  6
Continuous
100
AcDbLine
 10
117.5935889999998
 20
190.6359639999998
 30
0.0
 11
117.5935889999998
 21
218.635964
 31
0.0
  0
LINE
  5
9862
330
97BC
100
AcDbEntity
  8
1
  6
Continuous
100
AcDbLine
 10
117.5935889999998
 20
201.635964
 30
0.0
 11
115.593589
 21
201.635964
 31
0.0
  0
LINE
  5
9863
330
97BC
100
AcDbEntity
  8
1
  6
Continuous
100
AcDbLine
 10
115.593589
 20
207.3359609999999
 30
0.0
 11
114.2936009999999
 21
207.3359609999999
 31
0.0
  0
LINE
  5
9864
330
97BC
100
AcDbEntity
  8
1
  6
Continuous
100
AcDbLine
 10
114.2936009999999
 20
204.5359729999999
 30
0.0
 11
114.2936009999999
 21
207.3359609999999
 31
0.0
  0
LINE
  5
9865
330
97BC
100
AcDbEntity
  8
1
  6
Continuous
100
AcDbLine
 10
119.5935889999998
 20
214.6835709999999
 30
0.0
 11
119.5935889999998
 21
216.588372
 31
0.0
  0
LINE
  5
9866
330
97BC
100
AcDbEntity
  8
1
  6
Continuous
100
AcDbLine
 10
118.0935889999998
 20
213.635964
 30
0.0
 11
118.680793
 21
213.6873709999999
 31
0.0
  0
LINE
  5
9867
330
97BC
100
AcDbEntity
  8
1
  6
Continuous
100
AcDbLine
 10
118.0935889999998
 20
217.635964
 30
0.0
 11
118.680793
 21
217.5845569999999
 31
0.0
  0
LINE
  5
9868
330
97BC
100
AcDbEntity
  8
1
  6
Continuous
100
AcDbLine
 10
117.5935889999998
 20
218.135964
 30
0.0
 11
118.0935889999998
 21
218.135964
 31
0.0
  0
LINE
  5
9869
330
97BC
100
AcDbEntity
  8
1
  6
Continuous
100
AcDbLine
 10
117.5935889999998
 20
213.1359639999999
 30
0.0
 11
118.0935889999998
 21
213.1359639999999
 31
0.0
  0
LINE
  5
986A
330
97BC
100
AcDbEntity
  8
1
  6
Continuous
100
AcDbLine
 10
118.0935889999998
 20
213.1359639999999
 30
0.0
 11
118.0935889999998
 21
218.135964
 31
0.0
  0
LINE
  5
986B
330
97BC
100
AcDbEntity
  8
4
  6
CENTER
100
AcDbLine
 10
244.7757649999998
 20
127.04406
 30
0.0
 11
212.133889
 21
127.04406
 31
0.0
  0
LINE
  5
986C
330
97BC
100
AcDbEntity
  8
1
  6
Continuous
100
AcDbLine
 10
236.5789879999999
 20
121.04406
 30
0.0
 11
225.578988
 21
121.04406
 31
0.0
  0
LINE
  5
986D
330
97BC
100
AcDbEntity
  8
1
  6
Continuous
100
AcDbLine
 10
236.5789879999999
 20
133.0440599999998
 30
0.0
 11
225.578988
 21
133.0440599999998
 31
0.0
  0
LINE
  5
986E
330
97BC
100
AcDbEntity
  8
1
  6
Continuous
100
AcDbLine
 10
225.578988
 20
133.0440599999998
 30
0.0
 11
225.578988
 21
132.54406
 31
0.0
  0
LINE
  5
986F
330
97BC
100
AcDbEntity
  8
1
  6
Continuous
100
AcDbLine
 10
225.578988
 20
121.54406
 30
0.0
 11
216.1195759999999
 21
121.54406
 31
0.0
  0
LINE
  5
9870
330
97BC
100
AcDbEntity
  8
1
  6
Continuous
100
AcDbLine
 10
225.578988
 20
132.54406
 30
0.0
 11
216.1195759999999
 21
132.54406
 31
0.0
  0
LINE
  5
9871
330
97BC
100
AcDbEntity
  8
1
  6
Continuous
100
AcDbLine
 10
225.578988
 20
121.54406
 30
0.0
 11
225.578988
 21
121.04406
 31
0.0
  0
LINE
  5
9872
330
97BC
100
AcDbEntity
  8
4
  6
CENTER
100
AcDbLine
 10
229.878976
 20
132.749153
 30
0.0
 11
229.878976
 21
129.059166
 31
0.0
  0
LINE
  5
9873
330
97BC
100
AcDbEntity
  8
4
  6
CENTER
100
AcDbLine
 10
231.773583
 20
130.9440539999999
 30
0.0
 11
227.896279
 21
130.9440539999999
 31
0.0
  0
LINE
  5
9874
330
97BC
100
AcDbEntity
  8
1
  6
Continuous
100
AcDbLine
 10
234.7289819999998
 20
127.3440629999999
 30
0.0
 11
234.7289819999998
 21
126.744057
 31
0.0
  0
LINE
  5
9875
330
97BC
100
AcDbEntity
  8
1
  6
Continuous
100
AcDbLine
 10
232.4289939999999
 20
127.3440629999999
 30
0.0
 11
232.4289939999999
 21
126.744057
 31
0.0
  0
LINE
  5
9876
330
97BC
100
AcDbEntity
  8
1
  6
Continuous
100
AcDbLine
 10
233.878976
 20
125.8940659999999
 30
0.0
 11
233.279
 21
125.8940659999999
 31
0.0
  0
LINE
  5
9877
330
97BC
100
AcDbEntity
  8
1
  6
Continuous
100
AcDbLine
 10
233.878976
 20
128.1940539999999
 30
0.0
 11
233.279
 21
128.1940539999999
 31
0.0
  0
LINE
  5
9878
330
97BC
100
AcDbEntity
  8
1
  6
Continuous
100
AcDbLine
 10
233.878976
 20
128.1940539999999
 30
0.0
 11
233.878976
 21
127.54406
 31
0.0
  0
LINE
  5
9879
330
97BC
100
AcDbEntity
  8
1
  6
Continuous
100
AcDbLine
 10
233.279
 20
128.1940539999999
 30
0.0
 11
233.279
 21
127.54406
 31
0.0
  0
LINE
  5
987A
330
97BC
100
AcDbEntity
  8
1
  6
Continuous
100
AcDbLine
 10
234.7289819999998
 20
126.744057
 30
0.0
 11
234.0789879999999
 21
126.744057
 31
0.0
  0
LINE
  5
987B
330
97BC
100
AcDbEntity
  8
1
  6
Continuous
100
AcDbLine
 10
234.7289819999998
 20
127.3440629999999
 30
0.0
 11
234.0789879999999
 21
127.3440629999999
 31
0.0
  0
LINE
  5
987C
330
97BC
100
AcDbEntity
  8
1
  6
Continuous
100
AcDbLine
 10
233.0789879999999
 20
127.3440629999999
 30
0.0
 11
232.4289939999999
 21
127.3440629999999
 31
0.0
  0
LINE
  5
987D
330
97BC
100
AcDbEntity
  8
1
  6
Continuous
100
AcDbLine
 10
233.0789879999999
 20
126.744057
 30
0.0
 11
232.4289939999999
 21
126.744057
 31
0.0
  0
LINE
  5
987E
330
97BC
100
AcDbEntity
  8
1
  6
Continuous
100
AcDbLine
 10
233.878976
 20
126.54406
 30
0.0
 11
233.878976
 21
125.8940659999999
 31
0.0
  0
LINE
  5
987F
330
97BC
100
AcDbEntity
  8
1
  6
Continuous
100
AcDbLine
 10
233.279
 20
126.54406
 30
0.0
 11
233.279
 21
125.8940659999999
 31
0.0
  0
LINE
  5
9880
330
97BC
100
AcDbEntity
  8
1
  6
Continuous
100
AcDbLine
 10
240.7289819999999
 20
127.3440629999999
 30
0.0
 11
240.7289819999999
 21
126.744057
 31
0.0
  0
LINE
  5
9881
330
97BC
100
AcDbEntity
  8
1
  6
Continuous
100
AcDbLine
 10
238.4289939999999
 20
127.3440629999999
 30
0.0
 11
238.4289939999999
 21
126.744057
 31
0.0
  0
LINE
  5
9882
330
97BC
100
AcDbEntity
  8
1
  6
Continuous
100
AcDbLine
 10
239.8789759999999
 20
125.8940659999999
 30
0.0
 11
239.279
 21
125.8940659999999
 31
0.0
  0
LINE
  5
9883
330
97BC
100
AcDbEntity
  8
1
  6
Continuous
100
AcDbLine
 10
239.8789759999999
 20
128.1940539999999
 30
0.0
 11
239.279
 21
128.1940539999999
 31
0.0
  0
LINE
  5
9884
330
97BC
100
AcDbEntity
  8
1
  6
Continuous
100
AcDbLine
 10
239.8789759999999
 20
128.1940539999999
 30
0.0
 11
239.8789759999999
 21
127.54406
 31
0.0
  0
LINE
  5
9885
330
97BC
100
AcDbEntity
  8
1
  6
Continuous
100
AcDbLine
 10
239.279
 20
128.1940539999999
 30
0.0
 11
239.279
 21
127.54406
 31
0.0
  0
LINE
  5
9886
330
97BC
100
AcDbEntity
  8
1
  6
Continuous
100
AcDbLine
 10
240.7289819999999
 20
126.744057
 30
0.0
 11
240.078988
 21
126.744057
 31
0.0
  0
LINE
  5
9887
330
97BC
100
AcDbEntity
  8
1
  6
Continuous
100
AcDbLine
 10
240.7289819999999
 20
127.3440629999999
 30
0.0
 11
240.078988
 21
127.3440629999999
 31
0.0
  0
LINE
  5
9888
330
97BC
100
AcDbEntity
  8
1
  6
Continuous
100
AcDbLine
 10
239.0789879999999
 20
127.3440629999999
 30
0.0
 11
238.4289939999999
 21
127.3440629999999
 31
0.0
  0
LINE
  5
9889
330
97BC
100
AcDbEntity
  8
1
  6
Continuous
100
AcDbLine
 10
239.0789879999999
 20
126.744057
 30
0.0
 11
238.4289939999999
 21
126.744057
 31
0.0
  0
LINE
  5
988A
330
97BC
100
AcDbEntity
  8
1
  6
Continuous
100
AcDbLine
 10
239.8789759999999
 20
126.54406
 30
0.0
 11
239.8789759999999
 21
125.8940659999999
 31
0.0
  0
LINE
  5
988B
330
97BC
100
AcDbEntity
  8
1
  6
Continuous
100
AcDbLine
 10
239.279
 20
126.54406
 30
0.0
 11
239.279
 21
125.8940659999999
 31
0.0
  0
LINE
  5
988C
330
97BC
100
AcDbEntity
  8
4
  6
CENTER
100
AcDbLine
 10
252.2683799999998
 20
129.54406
 30
0.0
 11
220.999581
 21
129.54406
 31
0.0
  0
LINE
  5
988D
330
97BC
100
AcDbEntity
  8
4
  6
CENTER
100
AcDbLine
 10
236.5789879999999
 20
144.112755
 30
0.0
 11
236.5789879999999
 21
115.150658
 31
0.0
  0
LINE
  5
988E
330
97BC
100
AcDbEntity
  8
2
  6
Continuous
100
AcDbLine
 10
104.893594
 20
138.138054
 30
0.0
 11
112.5496
 21
138.138054
 31
0.0
  0
LINE
  5
988F
330
97BC
100
AcDbEntity
  8
2
  6
Continuous
100
AcDbLine
 10
104.893594
 20
120.950058
 30
0.0
 11
112.5495919999998
 21
120.950058
 31
0.0
  0
LINE
  5
9890
330
97BC
100
AcDbEntity
  8
4
  6
CENTER
100
AcDbLine
 10
16.797498
 20
129.54406
 30
0.0
 11
46.79749799999998
 21
129.54406
 31
0.0
  0
LINE
  5
9891
330
97BC
100
AcDbEntity
  8
4
  6
CENTER
100
AcDbLine
 10
31.79749799999999
 20
144.5440599999998
 30
0.0
 11
31.79749799999999
 21
114.54406
 31
0.0
  0
LINE
  5
9892
330
97BC
100
AcDbEntity
  8
5
  6
PHANTOM
100
AcDbLine
 10
29.86700900000001
 20
141.3877489999999
 30
0.0
 11
26.330926
 21
147.5124289999999
 31
0.0
  0
LINE
  5
9893
330
97BC
100
AcDbEntity
  8
5
  6
PHANTOM
100
AcDbLine
 10
20.99103599999998
 20
134.7613909999998
 30
0.0
 11
16.80464599999999
 21
142.0124289999999
 31
0.0
  0
LINE
  5
9894
330
97BC
100
AcDbEntity
  8
4
  6
CENTER
100
AcDbLine
 10
35.89589
 20
119.9454269999999
 30
0.0
 11
19.574942
 21
148.214135
 31
0.0
  0
LINE
  5
9895
330
97BC
100
AcDbEntity
  8
1
  6
Continuous
100
AcDbLine
 10
117.593604
 20
215.851952
 30
0.0
 11
118.0935889999998
 21
215.985924
 31
0.0
  0
LINE
  5
9896
330
97BC
100
AcDbEntity
  8
1
  6
Continuous
100
AcDbLine
 10
117.593574
 20
215.1519549999999
 30
0.0
 11
118.0935889999998
 21
215.2859269999999
 31
0.0
  0
LINE
  5
9897
330
97BC
100
AcDbEntity
  8
1
  6
Continuous
100
AcDbLine
 10
103.0935909999999
 20
222.635964
 30
0.0
 11
103.0935909999999
 21
202.6359639999999
 31
0.0
  0
LINE
  5
9898
330
97BC
100
AcDbEntity
  8
4
  6
CENTER
100
AcDbLine
 10
140.864816
 20
129.54406
 30
0.0
 11
162.5815699999999
 21
129.54406
 31
0.0
  0
LINE
  5
9899
330
97BC
100
AcDbEntity
  8
4
  6
CENTER
100
AcDbLine
 10
140.864816
 20
46.452153
 30
0.0
 11
162.5815699999999
 21
46.452153
 31
0.0
  0
LINE
  5
989A
330
97BC
100
AcDbEntity
  8
4
  6
CENTER
100
AcDbLine
 10
121.83461
 20
46.452153
 30
0.0
 11
99.60753699999999
 21
46.452153
 31
0.0
  0
LINE
  5
989B
330
97BC
100
AcDbEntity
  8
1
  6
Continuous
100
AcDbLine
 10
102.3935939999998
 20
37.152153
 30
0.0
 11
102.3935939999998
 21
55.752152
 31
0.0
  0
LINE
  5
989C
330
97BC
100
AcDbEntity
  8
1
  6
Continuous
100
AcDbLine
 10
104.3935939999998
 20
36.452153
 30
0.0
 11
103.0935909999999
 21
36.452153
 31
0.0
  0
LINE
  5
989D
330
97BC
100
AcDbEntity
  8
1
  6
Continuous
100
AcDbLine
 10
104.3935939999998
 20
56.452153
 30
0.0
 11
103.0935909999999
 21
56.452153
 31
0.0
  0
LINE
  5
989E
330
97BC
100
AcDbEntity
  8
1
  6
Continuous
100
AcDbLine
 10
104.3935939999998
 20
36.452153
 30
0.0
 11
104.3935939999998
 21
56.452153
 31
0.0
  0
LINE
  5
989F
330
97BC
100
AcDbEntity
  8
1
  6
Continuous
100
AcDbLine
 10
102.3935939999998
 20
37.152153
 30
0.0
 11
103.0935909999999
 21
36.452153
 31
0.0
  0
LINE
  5
98A0
330
97BC
100
AcDbEntity
  8
1
  6
Continuous
100
AcDbLine
 10
102.3935939999998
 20
55.752152
 30
0.0
 11
103.0935909999999
 21
56.452153
 31
0.0
  0
LINE
  5
98A1
330
97BC
100
AcDbEntity
  8
1
  6
Continuous
100
AcDbLine
 10
115.593589
 20
54.552151
 30
0.0
 11
104.3935939999998
 21
54.552151
 31
0.0
  0
LINE
  5
98A2
330
97BC
100
AcDbEntity
  8
1
  6
Continuous
100
AcDbLine
 10
115.3935939999998
 20
38.952153
 30
0.0
 11
104.3935939999998
 21
38.952153
 31
0.0
  0
LINE
  5
98A3
330
97BC
100
AcDbEntity
  8
1
  6
Continuous
100
AcDbLine
 10
113.8935939999998
 20
38.952153
 30
0.0
 11
113.8935939999998
 21
54.552151
 31
0.0
  0
LINE
  5
98A4
330
97BC
100
AcDbEntity
  8
1
  6
Continuous
100
AcDbLine
 10
115.3935939999998
 20
40.452153
 30
0.0
 11
113.8935939999998
 21
40.452153
 31
0.0
  0
LINE
  5
98A5
330
97BC
100
AcDbEntity
  8
1
  6
Continuous
100
AcDbLine
 10
115.3935939999998
 20
52.452153
 30
0.0
 11
113.8935939999998
 21
52.452153
 31
0.0
  0
LINE
  5
98A6
330
97BC
100
AcDbEntity
  8
1
  6
Continuous
100
AcDbLine
 10
115.3935939999998
 20
38.952153
 30
0.0
 11
115.3935939999998
 21
40.452153
 31
0.0
  0
LINE
  5
98A7
330
97BC
100
AcDbEntity
  8
1
  6
Continuous
100
AcDbLine
 10
112.8935939999998
 20
38.952153
 30
0.0
 11
112.8935939999998
 21
54.552151
 31
0.0
  0
LINE
  5
98A8
330
97BC
100
AcDbEntity
  8
1
  6
Continuous
100
AcDbLine
 10
112.143594
 20
38.952153
 30
0.0
 11
112.143594
 21
54.552151
 31
0.0
  0
LINE
  5
98A9
330
97BC
100
AcDbEntity
  8
1
  6
Continuous
100
AcDbLine
 10
104.893594
 20
38.952153
 30
0.0
 11
104.893594
 21
54.552151
 31
0.0
  0
LINE
  5
98AA
330
97BC
100
AcDbEntity
  8
1
  6
Continuous
100
AcDbLine
 10
114.593589
 20
41.502152
 30
0.0
 11
114.593589
 21
51.40215300000001
 31
0.0
  0
LINE
  5
98AB
330
97BC
100
AcDbEntity
  8
1
  6
Continuous
100
AcDbLine
 10
114.593589
 20
41.502152
 30
0.0
 11
115.593589
 21
41.502152
 31
0.0
  0
LINE
  5
98AC
330
97BC
100
AcDbEntity
  8
1
  6
Continuous
100
AcDbLine
 10
114.593589
 20
51.40215300000001
 30
0.0
 11
115.593589
 21
51.40215300000001
 31
0.0
  0
LINE
  5
98AD
330
97BC
100
AcDbEntity
  8
1
  6
Continuous
100
AcDbLine
 10
159.3268979999998
 20
36.452153
 30
0.0
 11
156.326898
 21
36.452153
 31
0.0
  0
LINE
  5
98AE
330
97BC
100
AcDbEntity
  8
1
  6
Continuous
100
AcDbLine
 10
159.3268979999998
 20
56.452153
 30
0.0
 11
156.326898
 21
56.452153
 31
0.0
  0
LINE
  5
98AF
330
97BC
100
AcDbEntity
  8
1
  6
Continuous
100
AcDbLine
 10
156.326898
 20
36.452153
 30
0.0
 11
156.326898
 21
56.452153
 31
0.0
  0
LINE
  5
98B0
330
97BC
100
AcDbEntity
  8
1
  6
Continuous
100
AcDbLine
 10
159.3268979999998
 20
36.452153
 30
0.0
 11
159.3268979999998
 21
56.452153
 31
0.0
  0
LINE
  5
98B1
330
97BC
100
AcDbEntity
  8
1
  6
Continuous
100
AcDbLine
 10
159.3268979999998
 20
46.452153
 30
0.0
 11
156.326898
 21
46.452153
 31
0.0
  0
LINE
  5
98B2
330
97BC
100
AcDbEntity
  8
1
  6
Continuous
100
AcDbLine
 10
143.6585929999999
 20
34.452153
 30
0.0
 11
143.6585929999999
 21
58.452153
 31
0.0
  0
LINE
  5
98B3
330
97BC
100
AcDbEntity
  8
1
  6
Continuous
100
AcDbLine
 10
143.6585929999999
 20
58.452153
 30
0.0
 11
144.4585959999998
 21
58.452153
 31
0.0
  0
LINE
  5
98B4
330
97BC
100
AcDbEntity
  8
1
  6
Continuous
100
AcDbLine
 10
144.4585959999998
 20
58.452153
 30
0.0
 11
144.4585959999998
 21
34.452153
 31
0.0
  0
LINE
  5
98B5
330
97BC
100
AcDbEntity
  8
1
  6
Continuous
100
AcDbLine
 10
144.4585959999998
 20
34.452153
 30
0.0
 11
143.6585929999999
 21
34.452153
 31
0.0
  0
LINE
  5
98B6
330
97BC
100
AcDbEntity
  8
1
  6
Continuous
100
AcDbLine
 10
117.5935889999998
 20
40.452153
 30
0.0
 11
115.593589
 21
40.452153
 31
0.0
  0
LINE
  5
98B7
330
97BC
100
AcDbEntity
  8
1
  6
Continuous
100
AcDbLine
 10
117.5935889999998
 20
68.45214900000001
 30
0.0
 11
115.593589
 21
68.45214900000001
 31
0.0
  0
LINE
  5
98B8
330
97BC
100
AcDbEntity
  8
1
  6
Continuous
100
AcDbLine
 10
115.593589
 20
68.45214900000001
 30
0.0
 11
115.593589
 21
40.452153
 31
0.0
  0
LINE
  5
98B9
330
97BC
100
AcDbEntity
  8
1
  6
Continuous
100
AcDbLine
 10
117.5935889999998
 20
68.45214900000001
 30
0.0
 11
117.5935889999998
 21
40.452153
 31
0.0
  0
LINE
  5
98BA
330
97BC
100
AcDbEntity
  8
1
  6
Continuous
100
AcDbLine
 10
117.5935889999998
 20
57.452153
 30
0.0
 11
115.593589
 21
57.452153
 31
0.0
  0
LINE
  5
98BB
330
97BC
100
AcDbEntity
  8
1
  6
Continuous
100
AcDbLine
 10
115.593589
 20
51.752152
 30
0.0
 11
114.2936009999999
 21
51.752152
 31
0.0
  0
LINE
  5
98BC
330
97BC
100
AcDbEntity
  8
1
  6
Continuous
100
AcDbLine
 10
114.2936009999999
 20
52.452153
 30
0.0
 11
114.2936009999999
 21
51.752152
 31
0.0
  0
LINE
  5
98BD
330
97BC
100
AcDbEntity
  8
1
  6
Continuous
100
AcDbLine
 10
103.0935909999999
 20
36.452153
 30
0.0
 11
103.0935909999999
 21
56.452153
 31
0.0
  0
LINE
  5
98BE
330
97BC
100
AcDbEntity
  8
1
  6
Continuous
100
AcDbLine
 10
115.3935939999998
 20
52.452153
 30
0.0
 11
115.3935939999998
 21
54.552151
 31
0.0
  0
LINE
  5
98BF
330
97BC
100
AcDbEntity
  8
1
  6
Continuous
100
AcDbLine
 10
115.593589
 20
45.352154
 30
0.0
 11
114.593589
 21
45.352154
 31
0.0
  0
LINE
  5
98C0
330
97BC
100
AcDbEntity
  8
1
  6
Continuous
100
AcDbLine
 10
115.593589
 20
47.552155
 30
0.0
 11
114.593589
 21
47.552155
 31
0.0
  0
LINE
  5
98C1
330
97BC
100
AcDbEntity
  8
1
  6
Continuous
100
AcDbLine
 10
43.416448
 20
132.54406
 30
0.0
 11
52.256909
 21
132.54406
 31
0.0
  0
LINE
  5
98C2
330
97BC
100
AcDbEntity
  8
4
  6
CENTER
100
AcDbLine
 10
23.60070499999999
 20
127.04406
 30
0.0
 11
56.24259300000001
 21
127.04406
 31
0.0
  0
LINE
  5
98C3
330
97BC
100
AcDbEntity
  8
1
  6
Continuous
100
AcDbLine
 10
42.797498
 20
121.54406
 30
0.0
 11
52.256909
 21
121.54406
 31
0.0
  0
LINE
  5
98C4
330
97BC
100
AcDbEntity
  8
1
  6
Continuous
100
AcDbLine
 10
40.268033
 20
121.04406
 30
0.0
 11
42.797498
 21
121.04406
 31
0.0
  0
LINE
  5
98C5
330
97BC
100
AcDbEntity
  8
1
  6
Continuous
100
AcDbLine
 10
42.797498
 20
121.54406
 30
0.0
 11
42.797498
 21
121.04406
 31
0.0
  0
LINE
  5
98C6
330
97BC
100
AcDbEntity
  8
1
  6
Continuous
100
AcDbLine
 10
117.593612
 20
127.2600479999999
 30
0.0
 11
118.0936119999999
 21
127.3940199999999
 31
0.0
  0
LINE
  5
98C7
330
97BC
100
AcDbEntity
  8
1
  6
Continuous
100
AcDbLine
 10
117.593581
 20
126.560051
 30
0.0
 11
118.0935969999999
 21
126.694039
 31
0.0
  0
LINE
  5
98C8
330
97BC
100
AcDbEntity
  8
1
  6
Continuous
100
AcDbLine
 10
115.593597
 20
121.54406
 30
0.0
 11
117.593597
 21
121.54406
 31
0.0
  0
LINE
  5
98C9
330
97BC
100
AcDbEntity
  8
1
  6
Continuous
100
AcDbLine
 10
115.593597
 20
132.54406
 30
0.0
 11
117.593597
 21
132.54406
 31
0.0
  0
LINE
  5
98CA
330
97BC
100
AcDbEntity
  8
1
  6
Continuous
100
AcDbLine
 10
306.8310629999999
 20
141.0910719999999
 30
0.0
 11
306.8310629999999
 21
117.9970549999999
 31
0.0
  0
LINE
  5
98CB
330
97BC
100
AcDbEntity
  8
1
  6
Continuous
100
AcDbLine
 10
303.8310629999998
 20
141.0910719999999
 30
0.0
 11
303.8310629999998
 21
117.9970549999999
 31
0.0
  0
LINE
  5
98CC
330
97BC
100
AcDbEntity
  8
1
  6
Continuous
100
AcDbLine
 10
319.499398
 20
141.5440599999998
 30
0.0
 11
319.499398
 21
117.54406
 31
0.0
  0
LINE
  5
98CD
330
97BC
100
AcDbEntity
  8
1
  6
Continuous
100
AcDbLine
 10
319.499398
 20
117.54406
 30
0.0
 11
318.6993799999999
 21
117.54406
 31
0.0
  0
LINE
  5
98CE
330
97BC
100
AcDbEntity
  8
1
  6
Continuous
100
AcDbLine
 10
318.6993799999999
 20
117.54406
 30
0.0
 11
318.6993799999999
 21
141.5440599999998
 31
0.0
  0
LINE
  5
98CF
330
97BC
100
AcDbEntity
  8
1
  6
Continuous
100
AcDbLine
 10
318.6993799999999
 20
141.5440599999998
 30
0.0
 11
319.499398
 21
141.5440599999998
 31
0.0
  0
LINE
  5
98D0
330
97BC
100
AcDbEntity
  8
1
  6
Continuous
100
AcDbLine
 10
347.564364
 20
133.0440599999998
 30
0.0
 11
345.564364
 21
133.0440599999998
 31
0.0
  0
LINE
  5
98D1
330
97BC
100
AcDbEntity
  8
1
  6
Continuous
100
AcDbLine
 10
345.564364
 20
133.0440599999998
 30
0.0
 11
345.564364
 21
121.04406
 31
0.0
  0
LINE
  5
98D2
330
97BC
100
AcDbEntity
  8
1
  6
Continuous
100
AcDbLine
 10
345.564364
 20
121.04406
 30
0.0
 11
347.564364
 21
121.04406
 31
0.0
  0
LINE
  5
98D3
330
97BC
100
AcDbEntity
  8
1
  6
Continuous
100
AcDbLine
 10
347.564364
 20
121.04406
 30
0.0
 11
347.564364
 21
133.0440599999998
 31
0.0
  0
LINE
  5
98D4
330
97BC
100
AcDbEntity
  8
1
  6
Continuous
100
AcDbLine
 10
347.564364
 20
132.3440629999998
 30
0.0
 11
348.864352
 21
132.3440629999998
 31
0.0
  0
LINE
  5
98D5
330
97BC
100
AcDbEntity
  8
1
  6
Continuous
100
AcDbLine
 10
348.864352
 20
132.2404539999998
 30
0.0
 11
348.864352
 21
132.3440629999998
 31
0.0
  0
LINE
  5
98D6
330
97BC
100
AcDbEntity
  8
1
  6
Continuous
100
AcDbLine
 10
343.564364
 20
127.9965589999999
 30
0.0
 11
343.564364
 21
126.091652
 31
0.0
  0
LINE
  5
98D7
330
97BC
100
AcDbEntity
  8
1
  6
Continuous
100
AcDbLine
 10
345.064364
 20
129.0440599999998
 30
0.0
 11
344.4772669999999
 21
128.99276
 31
0.0
  0
LINE
  5
98D8
330
97BC
100
AcDbEntity
  8
1
  6
Continuous
100
AcDbLine
 10
345.0643329999999
 20
125.04406
 30
0.0
 11
344.4772669999999
 21
125.095452
 31
0.0
  0
LINE
  5
98D9
330
97BC
100
AcDbEntity
  8
1
  6
Continuous
100
AcDbLine
 10
345.564364
 20
124.54406
 30
0.0
 11
345.064364
 21
124.54406
 31
0.0
  0
LINE
  5
98DA
330
97BC
100
AcDbEntity
  8
1
  6
Continuous
100
AcDbLine
 10
345.564364
 20
129.54406
 30
0.0
 11
345.064364
 21
129.54406
 31
0.0
  0
LINE
  5
98DB
330
97BC
100
AcDbEntity
  8
1
  6
Continuous
100
AcDbLine
 10
345.064364
 20
129.54406
 30
0.0
 11
345.064364
 21
124.54406
 31
0.0
  0
LINE
  5
98DC
330
97BC
100
AcDbEntity
  8
1
  6
Continuous
100
AcDbLine
 10
360.0644009999999
 20
119.54406
 30
0.0
 11
358.7643819999998
 21
119.54406
 31
0.0
  0
LINE
  5
98DD
330
97BC
100
AcDbEntity
  8
1
  6
Continuous
100
AcDbLine
 10
360.0644009999999
 20
139.54406
 30
0.0
 11
358.7643819999998
 21
139.54406
 31
0.0
  0
LINE
  5
98DE
330
97BC
100
AcDbEntity
  8
1
  6
Continuous
100
AcDbLine
 10
360.7643819999998
 20
138.8440629999998
 30
0.0
 11
360.7643819999998
 21
120.244057
 31
0.0
  0
LINE
  5
98DF
330
97BC
100
AcDbEntity
  8
1
  6
Continuous
100
AcDbLine
 10
358.7643819999998
 20
139.54406
 30
0.0
 11
358.7643819999998
 21
119.54406
 31
0.0
  0
LINE
  5
98E0
330
97BC
100
AcDbEntity
  8
1
  6
Continuous
100
AcDbLine
 10
360.7643819999998
 20
138.8440629999998
 30
0.0
 11
360.0644009999999
 21
139.54406
 31
0.0
  0
LINE
  5
98E1
330
97BC
100
AcDbEntity
  8
1
  6
Continuous
100
AcDbLine
 10
360.7643819999998
 20
120.244057
 30
0.0
 11
360.06437
 21
119.5440449999999
 31
0.0
  0
LINE
  5
98E2
330
97BC
100
AcDbEntity
  8
1
  6
Continuous
100
AcDbLine
 10
358.7643819999998
 20
120.54406
 30
0.0
 11
351.0143819999998
 21
120.54406
 31
0.0
  0
LINE
  5
98E3
330
97BC
100
AcDbEntity
  8
1
  6
Continuous
100
AcDbLine
 10
358.7643819999998
 20
138.54406
 30
0.0
 11
351.0143819999998
 21
138.54406
 31
0.0
  0
LINE
  5
98E4
330
97BC
100
AcDbEntity
  8
1
  6
Continuous
100
AcDbLine
 10
349.2643819999998
 20
137.79406
 30
0.0
 11
349.2643819999998
 21
129.54406
 31
0.0
  0
LINE
  5
98E5
330
97BC
100
AcDbEntity
  8
1
  6
Continuous
100
AcDbLine
 10
347.7643819999999
 20
129.54406
 30
0.0
 11
347.7643819999999
 21
126.04406
 31
0.0
  0
LINE
  5
98E6
330
97BC
100
AcDbEntity
  8
1
  6
Continuous
100
AcDbLine
 10
350.2643819999998
 20
121.29406
 30
0.0
 11
349.2643819999998
 21
121.29406
 31
0.0
  0
LINE
  5
98E7
330
97BC
100
AcDbEntity
  8
1
  6
Continuous
100
AcDbLine
 10
350.2643819999998
 20
137.79406
 30
0.0
 11
349.2643819999998
 21
137.79406
 31
0.0
  0
LINE
  5
98E8
330
97BC
100
AcDbEntity
  8
1
  6
Continuous
100
AcDbLine
 10
350.2643819999998
 20
121.2940519999999
 30
0.0
 11
351.0143819999998
 21
120.54406
 31
0.0
  0
LINE
  5
98E9
330
97BC
100
AcDbEntity
  8
1
  6
Continuous
100
AcDbLine
 10
350.2643819999998
 20
137.79406
 30
0.0
 11
351.0143819999998
 21
138.54406
 31
0.0
  0
LINE
  5
98EA
330
97BC
100
AcDbEntity
  8
4
  6
CENTER
100
AcDbLine
 10
362.1807949999999
 20
127.04406
 30
0.0
 11
342.3750679999999
 21
127.04406
 31
0.0
  0
LINE
  5
98EB
330
97BC
100
AcDbEntity
  8
1
  6
Continuous
100
AcDbLine
 10
349.2643819999998
 20
126.04406
 30
0.0
 11
347.7643819999999
 21
126.04406
 31
0.0
  0
LINE
  5
98EC
330
97BC
100
AcDbEntity
  8
1
  6
Continuous
100
AcDbLine
 10
349.2643819999998
 20
129.54406
 30
0.0
 11
347.7643819999999
 21
129.54406
 31
0.0
  0
LINE
  5
98ED
330
97BC
100
AcDbEntity
  8
4
  6
CENTER
100
AcDbLine
 10
363.8896869999999
 20
129.54406
 30
0.0
 11
341.9042129999999
 21
129.54406
 31
0.0
  0
LINE
  5
98EE
330
97BC
100
AcDbEntity
  8
1
  6
Continuous
100
AcDbLine
 10
348.564364
 20
131.9940569999999
 30
0.0
 11
348.564364
 21
129.54406
 31
0.0
  0
LINE
  5
98EF
330
97BC
100
AcDbEntity
  8
1
  6
Continuous
100
AcDbLine
 10
348.564364
 20
131.9940569999999
 30
0.0
 11
347.564364
 21
131.9940569999999
 31
0.0
  0
LINE
  5
98F0
330
97BC
100
AcDbEntity
  8
1
  6
Continuous
100
AcDbLine
 10
348.564364
 20
122.0940629999999
 30
0.0
 11
347.564364
 21
122.0940629999999
 31
0.0
  0
LINE
  5
98F1
330
97BC
100
AcDbEntity
  8
1
  6
Continuous
100
AcDbLine
 10
349.2643819999998
 20
126.04406
 30
0.0
 11
349.2643819999998
 21
121.29406
 31
0.0
  0
LINE
  5
98F2
330
97BC
100
AcDbEntity
  8
1
  6
Continuous
100
AcDbLine
 10
360.0644009999999
 20
139.54406
 30
0.0
 11
360.0644009999999
 21
119.54406
 31
0.0
  0
LINE
  5
98F3
330
97BC
100
AcDbEntity
  8
1
  6
Continuous
100
AcDbLine
 10
348.564364
 20
126.04406
 30
0.0
 11
348.564364
 21
122.0940629999999
 31
0.0
  0
LINE
  5
98F4
330
97BC
100
AcDbEntity
  8
1
  6
Continuous
100
AcDbLine
 10
358.7643819999998
 20
133.467049
 30
0.0
 11
351.0143819999998
 21
133.467049
 31
0.0
  0
LINE
  5
98F5
330
97BC
100
AcDbEntity
  8
1
  6
Continuous
100
AcDbLine
 10
358.7643819999998
 20
125.621056
 30
0.0
 11
351.0143819999998
 21
125.621056
 31
0.0
  0
LINE
  5
98F6
330
97BC
100
AcDbEntity
  8
1
  6
Continuous
100
AcDbLine
 10
358.2643819999999
 20
138.54406
 30
0.0
 11
358.2643819999999
 21
133.467049
 31
0.0
  0
LINE
  5
98F7
330
97BC
100
AcDbEntity
  8
1
  6
Continuous
100
AcDbLine
 10
358.2643819999999
 20
120.54406
 30
0.0
 11
358.2643819999999
 21
125.621056
 31
0.0
  0
LINE
  5
98F8
330
97BC
100
AcDbEntity
  8
1
  6
Continuous
100
AcDbLine
 10
351.0143819999998
 20
138.54406
 30
0.0
 11
351.0143819999998
 21
133.467049
 31
0.0
  0
LINE
  5
98F9
330
97BC
100
AcDbEntity
  8
1
  6
Continuous
100
AcDbLine
 10
350.2643819999998
 20
137.79406
 30
0.0
 11
350.2643819999998
 21
132.717049
 31
0.0
  0
LINE
  5
98FA
330
97BC
100
AcDbEntity
  8
1
  6
Continuous
100
AcDbLine
 10
350.2643819999998
 20
132.717049
 30
0.0
 11
351.0143819999998
 21
133.467049
 31
0.0
  0
LINE
  5
98FB
330
97BC
100
AcDbEntity
  8
1
  6
Continuous
100
AcDbLine
 10
350.2643819999998
 20
132.717049
 30
0.0
 11
349.2643819999998
 21
132.717049
 31
0.0
  0
LINE
  5
98FC
330
97BC
100
AcDbEntity
  8
1
  6
Continuous
100
AcDbLine
 10
351.0143819999998
 20
120.54406
 30
0.0
 11
351.0143819999998
 21
125.621056
 31
0.0
  0
LINE
  5
98FD
330
97BC
100
AcDbEntity
  8
1
  6
Continuous
100
AcDbLine
 10
350.2643819999998
 20
121.29406
 30
0.0
 11
350.2643819999998
 21
126.371056
 31
0.0
  0
LINE
  5
98FE
330
97BC
100
AcDbEntity
  8
1
  6
Continuous
100
AcDbLine
 10
350.2643819999998
 20
126.371071
 30
0.0
 11
351.0143819999998
 21
125.6210709999999
 31
0.0
  0
LINE
  5
98FF
330
97BC
100
AcDbEntity
  8
1
  6
Continuous
100
AcDbLine
 10
350.2643819999998
 20
126.371056
 30
0.0
 11
347.7643819999999
 21
126.371056
 31
0.0
  0
LINE
  5
9900
330
97BC
100
AcDbEntity
  8
2
  6
Continuous
100
AcDbLine
 10
349.2643819999998
 20
132.717064
 30
0.0
 11
358.7643819999998
 21
125.621056
 31
0.0
  0
LINE
  5
9901
330
97BC
100
AcDbEntity
  8
2
  6
Continuous
100
AcDbLine
 10
358.7643519999998
 20
133.467049
 30
0.0
 11
347.7643819999999
 21
126.371056
 31
0.0
  0
LINE
  5
9902
330
97BC
100
AcDbEntity
  8
2
  6
Continuous
100
AcDbLine
 10
358.2643819999999
 20
138.138054
 30
0.0
 11
350.6083759999999
 21
138.138054
 31
0.0
  0
LINE
  5
9903
330
97BC
100
AcDbEntity
  8
2
  6
Continuous
100
AcDbLine
 10
358.2643819999999
 20
120.950058
 30
0.0
 11
350.6083759999999
 21
120.950058
 31
0.0
  0
LINE
  5
9904
330
97BC
100
AcDbEntity
  8
4
  6
CENTER
100
AcDbLine
 10
322.2931599999999
 20
129.54406
 30
0.0
 11
300.446699
 21
129.54406
 31
0.0
  0
LINE
  5
9905
330
97BC
100
AcDbEntity
  8
1
  6
Continuous
100
AcDbLine
 10
345.564364
 20
126.828087
 30
0.0
 11
345.064364
 21
126.694115
 31
0.0
  0
LINE
  5
9906
330
97BC
100
AcDbEntity
  8
1
  6
Continuous
100
AcDbLine
 10
345.564364
 20
127.5280689999999
 30
0.0
 11
345.064364
 21
127.3940969999999
 31
0.0
  0
LINE
  5
9907
330
97BC
100
AcDbEntity
  8
1
  6
Continuous
100
AcDbLine
 10
226.5790029999998
 20
135.317574
 30
0.0
 11
236.5789879999999
 21
141.0910719999999
 31
0.0
  0
LINE
  5
9908
330
97BC
100
AcDbEntity
  8
1
  6
Continuous
100
AcDbLine
 10
236.5790029999998
 20
117.9970629999999
 30
0.0
 11
246.5789879999999
 21
123.770562
 31
0.0
  0
LINE
  5
9909
330
97BC
100
AcDbEntity
  8
1
  6
Continuous
100
AcDbLine
 10
226.5789879999999
 20
135.3175589999999
 30
0.0
 11
226.5789879999999
 21
133.0440599999998
 31
0.0
  0
LINE
  5
990A
330
97BC
100
AcDbEntity
  8
1
  6
Continuous
100
AcDbLine
 10
246.5789879999999
 20
135.3175589999999
 30
0.0
 11
246.5789879999999
 21
123.770554
 31
0.0
  0
LINE
  5
990B
330
97BC
100
AcDbEntity
  8
1
  6
Continuous
100
AcDbLine
 10
231.301431
 20
121.04406
 30
0.0
 11
236.5790029999998
 21
117.9970549999999
 31
0.0
  0
LINE
  5
990C
330
97BC
100
AcDbEntity
  8
1
  6
Continuous
100
AcDbLine
 10
236.5789879999999
 20
141.0910719999999
 30
0.0
 11
246.5789879999999
 21
135.3175589999999
 31
0.0
  0
LINE
  5
990D
330
97BC
100
AcDbEntity
  8
1
  6
Continuous
100
AcDbLine
 10
156.326898
 20
117.9970549999999
 30
0.0
 11
159.3268979999998
 21
117.9970549999999
 31
0.0
  0
LINE
  5
990E
330
97BC
100
AcDbEntity
  8
1
  6
Continuous
100
AcDbLine
 10
156.326898
 20
123.770554
 30
0.0
 11
159.3268979999998
 21
123.770554
 31
0.0
  0
LINE
  5
990F
330
97BC
100
AcDbEntity
  8
1
  6
Continuous
100
AcDbLine
 10
156.326898
 20
135.3175589999999
 30
0.0
 11
159.3268979999998
 21
135.3175589999999
 31
0.0
  0
LINE
  5
9910
330
97BC
100
AcDbEntity
  8
1
  6
Continuous
100
AcDbLine
 10
156.326898
 20
141.0910719999999
 30
0.0
 11
159.3268979999998
 21
141.0910719999999
 31
0.0
  0
LINE
  5
9911
330
97BC
100
AcDbEntity
  8
1
  6
Continuous
100
AcDbLine
 10
303.8310629999998
 20
117.9970549999999
 30
0.0
 11
306.8310629999999
 21
117.9970549999999
 31
0.0
  0
LINE
  5
9912
330
97BC
100
AcDbEntity
  8
1
  6
Continuous
100
AcDbLine
 10
303.8310629999998
 20
123.770554
 30
0.0
 11
306.8310629999999
 21
123.770554
 31
0.0
  0
LINE
  5
9913
330
97BC
100
AcDbEntity
  8
1
  6
Continuous
100
AcDbLine
 10
303.8310629999998
 20
135.3175589999999
 30
0.0
 11
306.8310629999999
 21
135.3175589999999
 31
0.0
  0
LINE
  5
9914
330
97BC
100
AcDbEntity
  8
1
  6
Continuous
100
AcDbLine
 10
303.8310629999998
 20
141.0910719999999
 30
0.0
 11
306.8310629999999
 21
141.0910719999999
 31
0.0
  0
LINE
  5
9915
330
97BC
100
AcDbEntity
  8
2
  6
Continuous
100
AcDbLine
 10
104.4875949999999
 20
120.54406
 30
0.0
 11
104.893586
 21
120.950051
 31
0.0
  0
LINE
  5
9916
330
97BC
100
AcDbEntity
  8
2
  6
Continuous
100
AcDbLine
 10
104.4875949999999
 20
138.54406
 30
0.0
 11
104.893601
 21
138.138054
 31
0.0
  0
LINE
  5
9917
330
97BC
100
AcDbEntity
  8
2
  6
Continuous
100
AcDbLine
 10
358.6703879999998
 20
138.54406
 30
0.0
 11
358.2643819999999
 21
138.1380389999999
 31
0.0
  0
LINE
  5
9918
330
97BC
100
AcDbEntity
  8
2
  6
Continuous
100
AcDbLine
 10
358.670358
 20
120.54406
 30
0.0
 11
358.2643819999999
 21
120.950051
 31
0.0
  0
CIRCLE
  5
9919
330
97BC
100
AcDbEntity
  8
1
  6
Continuous
100
AcDbCircle
 10
31.79749799999999
 20
129.54406
 30
0.0
 40
10.0
  0
ARC
  5
991A
330
97BC
100
AcDbEntity
  8
1
  6
Continuous
100
AcDbCircle
 10
31.79749799999999
 20
127.04406
 30
0.0
 40
5.0
100
AcDbArc
 50
257.291037
 51
282.7090329999998
  0
CIRCLE
  5
991B
330
97BC
100
AcDbEntity
  8
1
  6
Continuous
100
AcDbCircle
 10
31.79749799999999
 20
127.04406
 30
0.0
 40
5.799999999999998
  0
ARC
  5
991C
330
97BC
100
AcDbEntity
  8
1
  6
Continuous
100
AcDbCircle
 10
31.79749799999999
 20
127.04406
 30
0.0
 40
5.7
100
AcDbArc
 50
281.1269219999999
 51
258.873131
  0
ARC
  5
991D
330
97BC
100
AcDbEntity
  8
1
  6
Continuous
100
AcDbCircle
 10
31.79749799999999
 20
124.8440629999999
 30
0.0
 40
2.5
100
AcDbArc
 50
103.8865079999999
 51
243.8961379999998
  0
ARC
  5
991E
330
97BC
100
AcDbEntity
  8
1
  6
Continuous
100
AcDbCircle
 10
31.79749799999999
 20
124.8440629999999
 30
0.0
 40
2.5
100
AcDbArc
 50
296.1039149999999
 51
76.113511
  0
CIRCLE
  5
991F
330
97BC
100
AcDbEntity
  8
1
  6
Continuous
100
AcDbCircle
 10
31.79749799999999
 20
129.54406
 30
0.0
 40
9.3
  0
ARC
  5
9920
330
97BC
100
AcDbEntity
  8
1
  6
Continuous
100
AcDbCircle
 10
19.797498
 20
216.135964
 30
0.0
 40
0.5
100
AcDbArc
 50
89.99998900000001
 51
179.999978
  0
ARC
  5
9921
330
97BC
100
AcDbEntity
  8
1
  6
Continuous
100
AcDbCircle
 10
21.297498
 20
216.135964
 30
0.0
 40
0.5
100
AcDbArc
 50
0.0
 51
89.99998900000001
  0
ARC
  5
9922
330
97BC
100
AcDbEntity
  8
1
  6
Continuous
100
AcDbCircle
 10
19.797498
 20
209.1359639999998
 30
0.0
 40
0.5
100
AcDbArc
 50
179.999978
 51
269.999973
  0
ARC
  5
9923
330
97BC
100
AcDbEntity
  8
1
  6
Continuous
100
AcDbCircle
 10
21.297498
 20
209.1359639999998
 30
0.0
 40
0.5
100
AcDbArc
 50
269.99997
 51
0.0
  0
ARC
  5
9924
330
97BC
100
AcDbEntity
  8
1
  6
Continuous
100
AcDbCircle
 10
26.964101
 20
223.6359639999998
 30
0.0
 40
1.0
100
AcDbArc
 50
53.13009499999999
 51
89.99998900000001
  0
ARC
  5
9925
330
97BC
100
AcDbEntity
  8
1
  6
Continuous
100
AcDbCircle
 10
22.77810399999999
 20
223.6359639999998
 30
0.0
 40
1.0
100
AcDbArc
 50
89.99998900000001
 51
141.340178
  0
ARC
  5
9926
330
97BC
100
AcDbEntity
  8
1
  6
Continuous
100
AcDbCircle
 10
17.297498
 20
216.785164
 30
0.0
 40
1.0
100
AcDbArc
 50
141.340178
 51
179.999978
  0
ARC
  5
9927
330
97BC
100
AcDbEntity
  8
1
  6
Continuous
100
AcDbCircle
 10
17.297498
 20
208.486763
 30
0.0
 40
1.0
100
AcDbArc
 50
179.999978
 51
218.659777
  0
ARC
  5
9928
330
97BC
100
AcDbEntity
  8
1
  6
Continuous
100
AcDbCircle
 10
22.77810399999999
 20
201.635964
 30
0.0
 40
1.0
100
AcDbArc
 50
218.659781
 51
269.99997
  0
ARC
  5
9929
330
97BC
100
AcDbEntity
  8
1
  6
Continuous
100
AcDbCircle
 10
26.964101
 20
201.635964
 30
0.0
 40
1.0
100
AcDbArc
 50
269.99997
 51
306.869864
  0
ARC
  5
992A
330
97BC
100
AcDbEntity
  8
1
  6
Continuous
100
AcDbCircle
 10
43.797505
 20
216.635964
 30
0.0
 40
0.5
100
AcDbArc
 50
0.0
 51
89.99998900000001
  0
ARC
  5
992B
330
97BC
100
AcDbEntity
  8
1
  6
Continuous
100
AcDbCircle
 10
56.59039400000001
 20
211.1359639999998
 30
0.0
 40
0.5
100
AcDbArc
 50
314.9999649999998
 51
44.999994
  0
ARC
  5
992C
330
97BC
100
AcDbEntity
  8
1
  6
Continuous
100
AcDbCircle
 10
54.090398
 20
208.6359639999999
 30
0.0
 40
0.5
100
AcDbArc
 50
269.99997
 51
314.9999649999998
  0
ARC
  5
992D
330
97BC
100
AcDbEntity
  8
1
  6
Continuous
100
AcDbCircle
 10
118.593597
 20
127.9965589999999
 30
0.0
 40
1.0
100
AcDbArc
 50
0.0
 51
84.99998999999998
  0
ARC
  5
992E
330
97BC
100
AcDbEntity
  8
1
  6
Continuous
100
AcDbCircle
 10
118.593597
 20
126.091652
 30
0.0
 40
1.0
100
AcDbArc
 50
274.999969
 51
0.0
  0
ARC
  5
992F
330
97BC
100
AcDbEntity
  8
1
  6
Continuous
100
AcDbCircle
 10
114.2435909999999
 20
131.894051
 30
0.0
 40
0.35
100
AcDbArc
 50
81.78628399999999
 51
179.999978
  0
ARC
  5
9930
330
97BC
100
AcDbEntity
  8
1
  6
Continuous
100
AcDbCircle
 10
114.2435909999999
 20
122.194062
 30
0.0
 40
0.35
100
AcDbArc
 50
179.999978
 51
0.00001
  0
ARC
  5
9931
330
97BC
100
AcDbEntity
  8
1
  6
Continuous
100
AcDbCircle
 10
236.5789879999999
 20
129.54406
 30
0.0
 40
8.25
100
AcDbArc
 50
104.0297099999998
 51
154.897284
  0
ARC
  5
9932
330
97BC
100
AcDbEntity
  8
2
  6
Continuous
100
AcDbCircle
 10
236.5789879999999
 20
129.54406
 30
0.0
 40
9.0
100
AcDbArc
 50
154.157711
 51
157.114623
  0
ARC
  5
9933
330
97BC
100
AcDbEntity
  8
1
  6
Continuous
100
AcDbCircle
 10
236.5789879999999
 20
129.54406
 30
0.0
 40
9.0
100
AcDbArc
 50
250.811865
 51
326.4426900000001
  0
ARC
  5
9934
330
97BC
100
AcDbEntity
  8
1
  6
Continuous
100
AcDbCircle
 10
236.5789879999999
 20
129.54406
 30
0.0
 40
8.25
100
AcDbArc
 50
291.7533509999998
 51
335.380023
  0
ARC
  5
9935
330
97BC
100
AcDbEntity
  8
1
  6
Continuous
100
AcDbCircle
 10
236.5789879999999
 20
129.54406
 30
0.0
 40
8.25
100
AcDbArc
 50
24.61997699999999
 51
75.97030900000001
  0
ARC
  5
9936
330
97BC
100
AcDbEntity
  8
2
  6
Continuous
100
AcDbCircle
 10
236.5789879999999
 20
129.54406
 30
0.0
 40
9.0
100
AcDbArc
 50
77.16040799999998
 51
102.839583
  0
ARC
  5
9937
330
97BC
100
AcDbEntity
  8
1
  6
Continuous
100
AcDbCircle
 10
114.2435909999999
 20
207.785958
 30
0.0
 40
0.35
100
AcDbArc
 50
179.9999639999999
 51
0.00001
  0
ARC
  5
9938
330
97BC
100
AcDbEntity
  8
1
  6
Continuous
100
AcDbCircle
 10
114.2435909999999
 20
217.48597
 30
0.0
 40
0.35
100
AcDbArc
 50
359.999989
 51
179.999978
  0
ARC
  5
9939
330
97BC
100
AcDbEntity
  8
1
  6
Continuous
100
AcDbCircle
 10
118.5935889999998
 20
214.6835709999999
 30
0.0
 40
1.0
100
AcDbArc
 50
275.0000239999998
 51
0.000011
  0
ARC
  5
993A
330
97BC
100
AcDbEntity
  8
1
  6
Continuous
100
AcDbCircle
 10
118.5935889999998
 20
216.588372
 30
0.0
 40
1.0
100
AcDbArc
 50
0.000011
 51
85.00000400000002
  0
ARC
  5
993B
330
97BC
100
AcDbEntity
  8
1
  6
Continuous
100
AcDbCircle
 10
236.5789879999999
 20
127.04406
 30
0.0
 40
6.0
100
AcDbArc
 50
270.0000249999998
 51
90.00000900000001
  0
CIRCLE
  5
993C
330
97BC
100
AcDbEntity
  8
1
  6
Continuous
100
AcDbCircle
 10
229.878976
 20
130.9440539999999
 30
0.0
 40
1.3
  0
ARC
  5
993D
330
97BC
100
AcDbEntity
  8
1
  6
Continuous
100
AcDbCircle
 10
234.5789879999999
 20
127.04406
 30
0.0
 40
20.0
100
AcDbArc
 50
166.2998069999999
 51
193.700244
  0
ARC
  5
993E
330
97BC
100
AcDbEntity
  8
1
  6
Continuous
100
AcDbCircle
 10
216.1195759999999
 20
131.54406
 30
0.0
 40
1.0
100
AcDbArc
 50
90.00000900000001
 51
166.2998069999999
  0
ARC
  5
993F
330
97BC
100
AcDbEntity
  8
1
  6
Continuous
100
AcDbCircle
 10
216.1195759999999
 20
122.54406
 30
0.0
 40
1.0
100
AcDbArc
 50
193.700234
 51
270.000032
  0
CIRCLE
  5
9940
330
97BC
100
AcDbEntity
  8
1
  6
Continuous
100
AcDbCircle
 10
239.5789879999999
 20
127.04406
 30
0.0
 40
2.0
  0
CIRCLE
  5
9941
330
97BC
100
AcDbEntity
  8
1
  6
Continuous
100
AcDbCircle
 10
233.5789879999999
 20
127.04406
 30
0.0
 40
2.0
  0
ARC
  5
9942
330
97BC
100
AcDbEntity
  8
1
  6
Continuous
100
AcDbCircle
 10
233.0789879999999
 20
127.54406
 30
0.0
 40
0.2
100
AcDbArc
 50
270.0000249999998
 51
0.000022
  0
ARC
  5
9943
330
97BC
100
AcDbEntity
  8
1
  6
Continuous
100
AcDbCircle
 10
234.0789879999999
 20
127.54406
 30
0.0
 40
0.2
100
AcDbArc
 50
179.9999909999999
 51
270.0000279999998
  0
ARC
  5
9944
330
97BC
100
AcDbEntity
  8
1
  6
Continuous
100
AcDbCircle
 10
234.0789879999999
 20
126.54406
 30
0.0
 40
0.2
100
AcDbArc
 50
90.00000900000001
 51
180.000005
  0
ARC
  5
9945
330
97BC
100
AcDbEntity
  8
1
  6
Continuous
100
AcDbCircle
 10
233.0789879999999
 20
126.54406
 30
0.0
 40
0.2
100
AcDbArc
 50
0.000022
 51
90.00000900000001
  0
ARC
  5
9946
330
97BC
100
AcDbEntity
  8
1
  6
Continuous
100
AcDbCircle
 10
239.0789879999999
 20
127.54406
 30
0.0
 40
0.2
100
AcDbArc
 50
270.0000249999998
 51
0.000022
  0
ARC
  5
9947
330
97BC
100
AcDbEntity
  8
1
  6
Continuous
100
AcDbCircle
 10
240.078988
 20
127.54406
 30
0.0
 40
0.2
100
AcDbArc
 50
179.9999909999999
 51
270.0000279999998
  0
ARC
  5
9948
330
97BC
100
AcDbEntity
  8
1
  6
Continuous
100
AcDbCircle
 10
240.078988
 20
126.54406
 30
0.0
 40
0.2
100
AcDbArc
 50
90.00000900000001
 51
180.000005
  0
ARC
  5
9949
330
97BC
100
AcDbEntity
  8
1
  6
Continuous
100
AcDbCircle
 10
239.0789879999999
 20
126.54406
 30
0.0
 40
0.2
100
AcDbArc
 50
0.000022
 51
90.00000900000001
  0
ARC
  5
994A
330
97BC
100
AcDbEntity
  8
2
  6
Continuous
100
AcDbCircle
 10
236.5789879999999
 20
129.54406
 30
0.0
 40
9.0
100
AcDbArc
 50
326.4426900000001
 51
33.55731
  0
ARC
  5
994B
330
97BC
100
AcDbEntity
  8
1
  6
Continuous
100
AcDbCircle
 10
236.5789879999999
 20
129.54406
 30
0.0
 40
9.0
100
AcDbArc
 50
33.55731
 51
77.16040799999998
  0
ARC
  5
994C
330
97BC
100
AcDbEntity
  8
1
  6
Continuous
100
AcDbCircle
 10
236.5789879999999
 20
129.54406
 30
0.0
 40
9.0
100
AcDbArc
 50
102.839604
 51
154.157711
  0
ARC
  5
994D
330
97BC
100
AcDbEntity
  8
1
  6
Continuous
100
AcDbCircle
 10
236.5789879999999
 20
129.54406
 30
0.0
 40
12.0
100
AcDbArc
 50
225.0994879999999
 51
165.52249
  0
ARC
  5
994E
330
97BC
100
AcDbEntity
  8
2
  6
Continuous
100
AcDbCircle
 10
236.5789879999999
 20
129.54406
 30
0.0
 40
8.593999999999997
100
AcDbArc
 50
103.457292
 51
155.9671099999999
  0
ARC
  5
994F
330
97BC
100
AcDbEntity
  8
1
  6
Continuous
100
AcDbCircle
 10
236.5789879999999
 20
129.54406
 30
0.0
 40
8.593999999999997
100
AcDbArc
 50
76.54270600000002
 51
103.457292
  0
ARC
  5
9950
330
97BC
100
AcDbEntity
  8
2
  6
Continuous
100
AcDbCircle
 10
236.5789879999999
 20
129.54406
 30
0.0
 40
8.593999999999997
100
AcDbArc
 50
29.22584699999999
 51
76.54270600000002
  0
ARC
  5
9951
330
97BC
100
AcDbEntity
  8
1
  6
Continuous
100
AcDbCircle
 10
236.5789879999999
 20
129.54406
 30
0.0
 40
8.593999999999997
100
AcDbArc
 50
330.7741529999999
 51
29.22584699999999
  0
ARC
  5
9952
330
97BC
100
AcDbEntity
  8
2
  6
Continuous
100
AcDbCircle
 10
236.5789879999999
 20
129.54406
 30
0.0
 40
8.593999999999997
100
AcDbArc
 50
261.5179539999999
 51
330.7741529999999
  0
CIRCLE
  5
9953
330
97BC
100
AcDbEntity
  8
1
  6
Continuous
100
AcDbCircle
 10
31.79749799999999
 20
129.54406
 30
0.0
 40
12.0
  0
ARC
  5
9954
330
97BC
100
AcDbEntity
  8
5
  6
PHANTOM
100
AcDbCircle
 10
17.670676
 20
142.512429
 30
0.0
 40
1.0
100
AcDbArc
 50
133.7002019999999
 51
209.999985
  0
ARC
  5
9955
330
97BC
100
AcDbEntity
  8
5
  6
PHANTOM
100
AcDbCircle
 10
30.797498
 20
128.776116
 30
0.0
 40
20.0
100
AcDbArc
 50
106.299764
 51
133.7002019999999
  0
ARC
  5
9956
330
97BC
100
AcDbEntity
  8
5
  6
PHANTOM
100
AcDbCircle
 10
25.464906
 20
147.012429
 30
0.0
 40
1.0
100
AcDbArc
 50
29.99997
 51
106.299764
  0
CIRCLE
  5
9957
330
97BC
100
AcDbEntity
  8
1
  6
Continuous
100
AcDbCircle
 10
233.5789879999999
 20
127.04406
 30
0.0
 40
2.5
  0
CIRCLE
  5
9958
330
97BC
100
AcDbEntity
  8
1
  6
Continuous
100
AcDbCircle
 10
239.5789879999999
 20
127.04406
 30
0.0
 40
2.5
  0
ARC
  5
9959
330
97BC
100
AcDbEntity
  8
1
  6
Continuous
100
AcDbCircle
 10
114.2435909999999
 20
51.302151
 30
0.0
 40
0.35
100
AcDbArc
 50
0.000011
 51
180.000032
  0
ARC
  5
995A
330
97BC
100
AcDbEntity
  8
1
  6
Continuous
100
AcDbCircle
 10
114.2435909999999
 20
41.60214999999999
 30
0.0
 40
0.35
100
AcDbArc
 50
180.000022
 51
0.000011
  0
ARC
  5
995B
330
97BC
100
AcDbEntity
  8
1
  6
Continuous
100
AcDbCircle
 10
52.256909
 20
131.54406
 30
0.0
 40
1.0
100
AcDbArc
 50
13.700198
 51
89.99998900000001
  0
ARC
  5
995C
330
97BC
100
AcDbEntity
  8
1
  6
Continuous
100
AcDbCircle
 10
33.79749799999999
 20
127.04406
 30
0.0
 40
20.0
100
AcDbArc
 50
346.2997609999999
 51
13.700198
  0
ARC
  5
995D
330
97BC
100
AcDbEntity
  8
1
  6
Continuous
100
AcDbCircle
 10
52.256909
 20
122.54406
 30
0.0
 40
1.0
100
AcDbArc
 50
269.99997
 51
346.2997609999999
  0
ARC
  5
995E
330
97BC
100
AcDbEntity
  8
1
  6
Continuous
100
AcDbCircle
 10
344.564364
 20
127.9965589999999
 30
0.0
 40
1.0
100
AcDbArc
 50
95.000008
 51
180.000005
  0
ARC
  5
995F
330
97BC
100
AcDbEntity
  8
1
  6
Continuous
100
AcDbCircle
 10
344.564364
 20
126.091652
 30
0.0
 40
1.0
100
AcDbArc
 50
179.9999909999999
 51
265.0000289999999
  0
ARC
  5
9960
330
97BC
100
AcDbEntity
  8
1
  6
Continuous
100
AcDbCircle
 10
348.9144009999998
 20
131.894051
 30
0.0
 40
0.35
100
AcDbArc
 50
0.000022
 51
180.000005
  0
ARC
  5
9961
330
97BC
100
AcDbEntity
  8
1
  6
Continuous
100
AcDbCircle
 10
348.9144009999998
 20
122.194062
 30
0.0
 40
0.35
100
AcDbArc
 50
179.9999909999999
 51
0.00001
  0
ARC
  5
9962
330
97BC
100
AcDbEntity
  8
1
  6
Continuous
100
AcDbCircle
 10
53.09030599999999
 20
214.635964
 30
0.0
 40
0.5
100
AcDbArc
 50
45.00009799999999
 51
90.0
  0
LINE
  5
9963
330
97BC
100
AcDbEntity
  8
4
  6
CENTER
100
AcDbLine
 10
114.3066939999998
 20
209.635964
 30
0.0
 11
120.7738959999998
 21
209.635964
 31
0.0
  0
LINE
  5
9964
330
97BC
100
AcDbEntity
  8
4
  6
CENTER
100
AcDbLine
 10
114.374062
 20
215.635964
 30
0.0
 11
120.538109
 21
215.635964
 31
0.0
  0
LINE
  5
9965
330
97BC
100
AcDbEntity
  8
1
  6
Continuous
100
AcDbLine
 10
118.0935889999998
 20
207.635964
 30
0.0
 11
118.680793
 21
207.687371
 31
0.0
  0
LINE
  5
9966
330
97BC
100
AcDbEntity
  8
1
  6
Continuous
100
AcDbLine
 10
118.0935889999998
 20
211.635964
 30
0.0
 11
118.680793
 21
211.5845569999999
 31
0.0
  0
LINE
  5
9967
330
97BC
100
AcDbEntity
  8
1
  6
Continuous
100
AcDbLine
 10
117.5935889999998
 20
212.135964
 30
0.0
 11
118.0935889999998
 21
212.135964
 31
0.0
  0
LINE
  5
9968
330
97BC
100
AcDbEntity
  8
1
  6
Continuous
100
AcDbLine
 10
117.5935889999998
 20
207.1359639999998
 30
0.0
 11
118.0935889999998
 21
207.1359639999998
 31
0.0
  0
LINE
  5
9969
330
97BC
100
AcDbEntity
  8
1
  6
Continuous
100
AcDbLine
 10
118.0935889999998
 20
207.1359639999998
 30
0.0
 11
118.0935889999998
 21
212.135964
 31
0.0
  0
LINE
  5
996A
330
97BC
100
AcDbEntity
  8
1
  6
Continuous
100
AcDbLine
 10
117.593604
 20
209.8519519999999
 30
0.0
 11
118.0935889999998
 21
209.985924
 31
0.0
  0
LINE
  5
996B
330
97BC
100
AcDbEntity
  8
1
  6
Continuous
100
AcDbLine
 10
117.593574
 20
209.151955
 30
0.0
 11
118.0935889999998
 21
209.2859269999999
 31
0.0
  0
LINE
  5
996C
330
97BC
100
AcDbEntity
  8
1
  6
Continuous
100
AcDbLine
 10
119.5935889999998
 20
208.6835709999999
 30
0.0
 11
119.5935889999998
 21
210.588372
 31
0.0
  0
ARC
  5
996D
330
97BC
100
AcDbEntity
  8
1
  6
Continuous
100
AcDbCircle
 10
118.5935889999998
 20
208.6835709999999
 30
0.0
 40
1.0
100
AcDbArc
 50
275.0000239999998
 51
0.000011
  0
ARC
  5
996E
330
97BC
100
AcDbEntity
  8
1
  6
Continuous
100
AcDbCircle
 10
118.5935889999998
 20
210.588372
 30
0.0
 40
1.0
100
AcDbArc
 50
0.000011
 51
85.00000400000002
  0
ARC
  5
996F
330
97BC
100
AcDbEntity
  8
1
  6
Continuous
100
AcDbCircle
 10
118.5935889999998
 20
50.40455999999998
 30
0.0
 40
1.0
100
AcDbArc
 50
0.000011
 51
85.00000400000002
  0
ARC
  5
9970
330
97BC
100
AcDbEntity
  8
1
  6
Continuous
100
AcDbCircle
 10
118.5935889999998
 20
48.49975999999998
 30
0.0
 40
1.0
100
AcDbArc
 50
275.0000239999998
 51
0.000011
  0
LINE
  5
9971
330
97BC
100
AcDbEntity
  8
1
  6
Continuous
100
AcDbLine
 10
119.5935889999998
 20
48.49975999999998
 30
0.0
 11
119.5935889999998
 21
50.40455999999998
 31
0.0
  0
LINE
  5
9972
330
97BC
100
AcDbEntity
  8
1
  6
Continuous
100
AcDbLine
 10
117.593574
 20
48.968144
 30
0.0
 11
118.0935889999998
 21
49.102116
 31
0.0
  0
LINE
  5
9973
330
97BC
100
AcDbEntity
  8
1
  6
Continuous
100
AcDbLine
 10
117.593604
 20
49.668141
 30
0.0
 11
118.0935889999998
 21
49.802113
 31
0.0
  0
LINE
  5
9974
330
97BC
100
AcDbEntity
  8
1
  6
Continuous
100
AcDbLine
 10
118.0935889999998
 20
46.952153
 30
0.0
 11
118.0935889999998
 21
51.952153
 31
0.0
  0
LINE
  5
9975
330
97BC
100
AcDbEntity
  8
1
  6
Continuous
100
AcDbLine
 10
117.5935889999998
 20
46.952153
 30
0.0
 11
118.0935889999998
 21
46.952153
 31
0.0
  0
LINE
  5
9976
330
97BC
100
AcDbEntity
  8
1
  6
Continuous
100
AcDbLine
 10
117.5935889999998
 20
51.952153
 30
0.0
 11
118.0935889999998
 21
51.952153
 31
0.0
  0
LINE
  5
9977
330
97BC
100
AcDbEntity
  8
1
  6
Continuous
100
AcDbLine
 10
118.0935889999998
 20
51.452153
 30
0.0
 11
118.680793
 21
51.40074600000001
 31
0.0
  0
LINE
  5
9978
330
97BC
100
AcDbEntity
  8
1
  6
Continuous
100
AcDbLine
 10
118.0935889999998
 20
47.452153
 30
0.0
 11
118.680793
 21
47.503559
 31
0.0
  0
LINE
  5
9979
330
97BC
100
AcDbEntity
  8
1
  6
Continuous
100
AcDbLine
 10
119.5935889999998
 20
42.49975999999999
 30
0.0
 11
119.5935889999998
 21
44.40456
 31
0.0
  0
ARC
  5
997A
330
97BC
100
AcDbEntity
  8
1
  6
Continuous
100
AcDbCircle
 10
118.5935889999998
 20
42.49975999999999
 30
0.0
 40
1.0
100
AcDbArc
 50
275.0000239999998
 51
0.000011
  0
ARC
  5
997B
330
97BC
100
AcDbEntity
  8
1
  6
Continuous
100
AcDbCircle
 10
118.5935889999998
 20
44.40456
 30
0.0
 40
1.0
100
AcDbArc
 50
0.000011
 51
85.00000400000002
  0
LINE
  5
997C
330
97BC
100
AcDbEntity
  8
1
  6
Continuous
100
AcDbLine
 10
117.5935889999998
 20
45.952153
 30
0.0
 11
118.0935889999998
 21
45.952153
 31
0.0
  0
LINE
  5
997D
330
97BC
100
AcDbEntity
  8
1
  6
Continuous
100
AcDbLine
 10
117.5935889999998
 20
40.952153
 30
0.0
 11
118.0935889999998
 21
40.952153
 31
0.0
  0
LINE
  5
997E
330
97BC
100
AcDbEntity
  8
1
  6
Continuous
100
AcDbLine
 10
118.0935889999998
 20
40.952153
 30
0.0
 11
118.0935889999998
 21
45.952153
 31
0.0
  0
LINE
  5
997F
330
97BC
100
AcDbEntity
  8
1
  6
Continuous
100
AcDbLine
 10
117.593604
 20
43.668141
 30
0.0
 11
118.0935889999998
 21
43.802113
 31
0.0
  0
LINE
  5
9980
330
97BC
100
AcDbEntity
  8
1
  6
Continuous
100
AcDbLine
 10
117.593574
 20
42.968144
 30
0.0
 11
118.0935889999998
 21
43.10211599999997
 31
0.0
  0
LINE
  5
9981
330
97BC
100
AcDbEntity
  8
1
  6
Continuous
100
AcDbLine
 10
118.0935889999998
 20
41.452153
 30
0.0
 11
118.680793
 21
41.503559
 31
0.0
  0
LINE
  5
9982
330
97BC
100
AcDbEntity
  8
1
  6
Continuous
100
AcDbLine
 10
118.0935889999998
 20
45.452153
 30
0.0
 11
118.680793
 21
45.40074599999999
 31
0.0
  0
LINE
  5
9983
330
97BC
100
AcDbEntity
  8
4
  6
CENTER
100
AcDbLine
 10
114.3066939999998
 20
43.452153
 30
0.0
 11
120.7738959999998
 21
43.452153
 31
0.0
  0
LINE
  5
9984
330
97BC
100
AcDbEntity
  8
4
  6
CENTER
100
AcDbLine
 10
114.374062
 20
49.452153
 30
0.0
 11
120.538109
 21
49.452153
 31
0.0
  0
ARC
  5
9985
330
97BC
100
AcDbEntity
  8
1
  6
Continuous
100
AcDbCircle
 10
26.90830399999999
 20
216.524745
 30
0.0
 40
0.388957
100
AcDbArc
 50
270.0
 51
90.0
  0
LINE
  5
9986
330
97BC
100
AcDbEntity
  8
1
  6
Continuous
100
AcDbLine
 10
26.36359000000001
 20
214.581144
 30
0.0
 11
25.102065
 21
214.581144
 31
0.0
  0
LINE
  5
9987
330
97BC
100
AcDbEntity
  8
1
  6
Continuous
100
AcDbLine
 10
27.296708
 20
214.581144
 30
0.0
 11
27.296708
 21
214.1927389999999
 31
0.0
  0
LINE
  5
9988
330
97BC
100
AcDbEntity
  8
1
  6
Continuous
100
AcDbLine
 10
25.10680199999999
 20
216.1363399999999
 30
0.0
 11
26.90830399999999
 21
216.1363399999999
 31
0.0
  0
ARC
  5
9989
330
97BC
100
AcDbEntity
  8
1
  6
Continuous
100
AcDbCircle
 10
25.102065
 20
214.1927389999999
 30
0.0
 40
0.388957
100
AcDbArc
 50
90.0
 51
169.896
  0
ARC
  5
998A
330
97BC
100
AcDbEntity
  8
1
  6
Continuous
100
AcDbCircle
 10
33.83011299999999
 20
212.6359639999999
 30
0.0
 40
9.254918999999999
100
AcDbArc
 50
169.896
 51
172.2069999999999
  0
ARC
  5
998B
330
97BC
100
AcDbEntity
  8
1
  6
Continuous
100
AcDbCircle
 10
24.737344
 20
213.8816999999999
 30
0.0
 40
0.077791
100
AcDbArc
 50
172.2069999999999
 51
270.0
  0
ARC
  5
998C
330
97BC
100
AcDbEntity
  8
1
  6
Continuous
100
AcDbCircle
 10
29.49292999999999
 20
214.1927389999999
 30
0.0
 40
0.388957
100
AcDbArc
 50
10.10399999999999
 51
90.0
  0
ARC
  5
998D
330
97BC
100
AcDbEntity
  8
1
  6
Continuous
100
AcDbCircle
 10
29.857651
 20
213.8816999999999
 30
0.0
 40
0.077791
100
AcDbArc
 50
270.0
 51
7.792999999999999
  0
ARC
  5
998E
330
97BC
100
AcDbEntity
  8
1
  6
Continuous
100
AcDbCircle
 10
20.76488299999998
 20
212.6359639999999
 30
0.0
 40
9.254918999999999
100
AcDbArc
 50
7.792999999999999
 51
10.10399999999999
  0
LINE
  5
998F
330
97BC
100
AcDbEntity
  8
1
  6
Continuous
100
AcDbLine
 10
24.584193
 20
213.025947
 30
0.0
 11
30.010802
 21
213.025947
 31
0.0
  0
LINE
  5
9990
330
97BC
100
AcDbEntity
  8
1
  6
Continuous
100
AcDbLine
 10
24.737344
 20
213.8027559999999
 30
0.0
 11
29.857651
 21
213.8027559999999
 31
0.0
  0
LINE
  5
9991
330
97BC
100
AcDbEntity
  8
1
  6
Continuous
100
AcDbLine
 10
29.49292999999999
 20
214.581144
 30
0.0
 11
27.296708
 21
214.581144
 31
0.0
  0
LINE
  5
9992
330
97BC
100
AcDbEntity
  8
1
  6
Continuous
100
AcDbLine
 10
24.740502
 20
215.357952
 30
0.0
 11
29.60976699999999
 21
215.357952
 31
0.0
  0
LINE
  5
9993
330
97BC
100
AcDbEntity
  8
1
  6
Continuous
100
AcDbLine
 10
26.90830399999999
 20
216.9147279999999
 30
0.0
 11
25.247322
 21
216.9147279999999
 31
0.0
  0
LINE
  5
9994
330
97BC
100
AcDbEntity
  8
1
  6
Continuous
100
AcDbLine
 10
27.296708
 20
216.524745
 30
0.0
 11
29.16294399999999
 21
216.524745
 31
0.0
  0
LINE
  5
9995
330
97BC
100
AcDbEntity
  8
1
  6
Continuous
100
AcDbLine
 10
28.75243499999999
 20
217.309448
 30
0.0
 11
25.474681
 21
218.1888839999998
 31
0.0
  0
LINE
  5
9996
330
97BC
100
AcDbEntity
  8
1
  6
Continuous
100
AcDbLine
 10
27.296708
 20
219.3067309999999
 30
0.0
 11
27.296708
 21
217.6994309999999
 31
0.0
  0
ARC
  5
9997
330
97BC
100
AcDbEntity
  8
1
  6
Continuous
100
AcDbCircle
 10
27.296708
 20
217.3031319999998
 30
0.0
 40
2.004309
100
AcDbArc
 50
62.24999999999999
 51
144.462
  0
ARC
  5
9998
330
97BC
100
AcDbEntity
  8
1
  6
Continuous
100
AcDbCircle
 10
27.296708
 20
217.3031319999998
 30
0.0
 40
2.004309
100
AcDbArc
 50
35.53799999999999
 51
45.69899999999999
  0
LINE
  5
9999
330
97BC
100
AcDbEntity
  8
1
  6
Continuous
100
AcDbLine
 10
25.16364199999999
 20
207.5819699999999
 30
0.0
 11
28.517182
 21
207.5819699999999
 31
0.0
  0
LINE
  5
999A
330
97BC
100
AcDbEntity
  8
1
  6
Continuous
100
AcDbLine
 10
28.73191
 20
208.358779
 30
0.0
 11
25.863085
 21
208.358779
 31
0.0
  0
LINE
  5
999B
330
97BC
100
AcDbEntity
  8
1
  6
Continuous
100
AcDbLine
 10
25.378369
 20
209.1371659999999
 30
0.0
 11
29.21504699999999
 21
209.1371659999999
 31
0.0
  0
LINE
  5
999C
330
97BC
100
AcDbEntity
  8
1
  6
Continuous
100
AcDbLine
 10
26.36359000000001
 20
210.6923629999998
 30
0.0
 11
24.879443
 21
210.6923629999998
 31
0.0
  0
LINE
  5
999D
330
97BC
100
AcDbEntity
  8
1
  6
Continuous
100
AcDbLine
 10
27.296708
 20
212.247559
 30
0.0
 11
27.296708
 21
211.4707509999998
 31
0.0
  0
ARC
  5
999E
330
97BC
100
AcDbEntity
  8
1
  6
Continuous
100
AcDbCircle
 10
27.296708
 20
207.9703739999999
 30
0.0
 40
2.004309
100
AcDbArc
 50
215.5377
 51
256.5374
  0
ARC
  5
999F
330
97BC
100
AcDbEntity
  8
1
  6
Continuous
100
AcDbCircle
 10
27.296708
 20
207.9703739999999
 30
0.0
 40
2.004309
100
AcDbArc
 50
270.0
 51
324.4619999999998
  0
ARC
  5
99A0
330
97BC
100
AcDbEntity
  8
1
  6
Continuous
100
AcDbCircle
 10
25.863085
 20
208.748762
 30
0.0
 40
0.388957
100
AcDbArc
 50
206.0144
 51
270.0
  0
ARC
  5
99A1
330
97BC
100
AcDbEntity
  8
1
  6
Continuous
100
AcDbCircle
 10
33.83011299999999
 20
212.6359639999999
 30
0.0
 40
9.254918999999999
100
AcDbArc
 50
202.944
 51
206.0144
  0
ARC
  5
99A2
330
97BC
100
AcDbEntity
  8
1
  6
Continuous
100
AcDbCircle
 10
25.378369
 20
209.0598009999999
 30
0.0
 40
0.077791
100
AcDbArc
 50
90.0
 51
202.944
  0
ARC
  5
99A3
330
97BC
100
AcDbEntity
  8
1
  6
Continuous
100
AcDbCircle
 10
28.73191
 20
208.748762
 30
0.0
 40
0.388957
100
AcDbArc
 50
270.0
 51
333.9859999999998
  0
ARC
  5
99A4
330
97BC
100
AcDbEntity
  8
1
  6
Continuous
100
AcDbCircle
 10
24.879443
 20
210.614998
 30
0.0
 40
0.077791
100
AcDbArc
 50
90.0
 51
192.7289
  0
ARC
  5
99A5
330
97BC
100
AcDbEntity
  8
1
  6
Continuous
100
AcDbCircle
 10
33.83011299999999
 20
212.6359639999999
 30
0.0
 40
9.254918999999999
100
AcDbArc
 50
192.7289
 51
193.2680999999999
  0
ARC
  5
99A6
330
97BC
100
AcDbEntity
  8
1
  6
Continuous
100
AcDbCircle
 10
33.83011299999999
 20
212.6359639999999
 30
0.0
 40
9.254918999999999
100
AcDbArc
 50
193.2680999999999
 51
195.2574999999999
  0
ARC
  5
99A7
330
97BC
100
AcDbEntity
  8
1
  6
Continuous
100
AcDbCircle
 10
25.277321
 20
210.3039579999999
 30
0.0
 40
0.388957
100
AcDbArc
 50
195.2574999999999
 51
270.0
  0
ARC
  5
99A8
330
97BC
100
AcDbEntity
  8
1
  6
Continuous
100
AcDbCircle
 10
29.317674
 20
210.3039579999999
 30
0.0
 40
0.388957
100
AcDbArc
 50
270.0
 51
344.7419999999998
  0
ARC
  5
99A9
330
97BC
100
AcDbEntity
  8
1
  6
Continuous
100
AcDbCircle
 10
20.76488299999998
 20
212.6359639999999
 30
0.0
 40
9.254918999999999
100
AcDbArc
 50
344.7419999999998
 51
344.794
  0
ARC
  5
99AA
330
97BC
100
AcDbEntity
  8
1
  6
Continuous
100
AcDbCircle
 10
20.76488299999998
 20
212.6359639999999
 30
0.0
 40
9.254918999999999
100
AcDbArc
 50
344.794
 51
347.2709999999998
  0
ARC
  5
99AB
330
97BC
100
AcDbEntity
  8
1
  6
Continuous
100
AcDbCircle
 10
29.715552
 20
210.614998
 30
0.0
 40
0.077791
100
AcDbArc
 50
347.2709999999998
 51
90.0
  0
LINE
  5
99AC
330
97BC
100
AcDbEntity
  8
1
  6
Continuous
100
AcDbLine
 10
25.277321
 20
209.9139749999999
 30
0.0
 11
29.317674
 21
209.9139749999999
 31
0.0
  0
LINE
  5
99AD
330
97BC
100
AcDbEntity
  8
1
  6
Continuous
100
AcDbLine
 10
29.715552
 20
210.6923629999998
 30
0.0
 11
28.22982599999999
 21
210.6923629999998
 31
0.0
  0
LINE
  5
99AE
330
97BC
100
AcDbEntity
  8
1
  6
Continuous
100
AcDbLine
 10
24.648927
 20
211.4707509999998
 30
0.0
 11
29.946068
 21
211.4707509999998
 31
0.0
  0
LINE
  5
99AF
330
97BC
100
AcDbEntity
  8
1
  6
Continuous
100
AcDbLine
 10
24.584193
 20
212.247559
 30
0.0
 11
30.010802
 21
212.247559
 31
0.0
  0
ARC
  5
99B0
330
97BC
100
AcDbEntity
  8
1
  6
Continuous
100
AcDbCircle
 10
29.21504699999999
 20
209.0598009999999
 30
0.0
 40
0.077791
100
AcDbArc
 50
337.0559999999999
 51
90.0
  0
ARC
  5
99B1
330
97BC
100
AcDbEntity
  8
1
  6
Continuous
100
AcDbCircle
 10
20.76488299999998
 20
212.6359639999999
 30
0.0
 40
9.254918999999999
100
AcDbArc
 50
333.9859999999998
 51
337.0559999999999
  0
ARC
  5
99B2
330
97BC
100
AcDbEntity
  8
1
  6
Continuous
100
AcDbCircle
 10
20.76488299999998
 20
212.6359639999999
 30
0.0
 40
10.032628
100
AcDbArc
 50
324.4619999999998
 51
35.53799999999999
  0
ARC
  5
99B3
330
97BC
100
AcDbEntity
  8
1
  6
Continuous
100
AcDbCircle
 10
33.83011299999999
 20
212.6359639999999
 30
0.0
 40
10.032628
100
AcDbArc
 50
144.462
 51
215.5377
  0
ENDSEC
  0
SECTION
  2
OBJECTS
  0
DICTIONARY
  5
97AA
330
0
100
AcDbDictionary
281
     1
  3
ACAD_CIP_PREVIOUS_PRODUCT_INFO
350
9A17
  3
ACAD_COLOR
350
99F9
  3
ACAD_DETAILVIEWSTYLE
350
9A12
  3
ACAD_GROUP
350
97AB
  3
ACAD_LAYOUT
350
97B7
  3
ACAD_MATERIAL
350
99C7
  3
ACAD_MLEADERSTYLE
350
9A0E
  3
ACAD_MLINESTYLE
350
97B4
  3
ACAD_PLOTSETTINGS
350
97B6
  3
ACAD_PLOTSTYLENAME
350
99C5
  3
ACAD_SCALELIST
350
99FC
  3
ACAD_SECTIONVIEWSTYLE
350
9A10
  3
ACAD_TABLESTYLE
350
99FA
  3
ACAD_VISUALSTYLE
350
99E0
  3
ACDB_RECOMPOSE_DATA
350
9A35
  3
AcDbVariableDictionary
350
9A28
  3
DWGPROPS
350
9A36
  0
DICTIONARY
  5
9A18
330
97AE
100
AcDbDictionary
280
     1
281
     1
  3
ADSK_XREC_LAYER_RECONCILED
360
9A19
  0
DICTIONARY
  5
9A1A
330
97C4
100
AcDbDictionary
280
     1
281
     1
  3
ADSK_XREC_LAYER_RECONCILED
360
9A1B
  0
DICTIONARY
  5
9A1C
330
97C5
100
AcDbDictionary
280
     1
281
     1
  3
ADSK_XREC_LAYER_RECONCILED
360
9A1D
  0
DICTIONARY
  5
9A1E
330
97C6
100
AcDbDictionary
280
     1
281
     1
  3
ADSK_XREC_LAYER_RECONCILED
360
9A1F
  0
DICTIONARY
  5
9A20
330
97C7
100
AcDbDictionary
280
     1
281
     1
  3
ADSK_XREC_LAYER_RECONCILED
360
9A21
  0
DICTIONARY
  5
9A22
330
97C8
100
AcDbDictionary
280
     1
281
     1
  3
ADSK_XREC_LAYER_RECONCILED
360
9A23
  0
DICTIONARY
  5
9A24
330
97C9
100
AcDbDictionary
280
     1
281
     1
  3
ADSK_XREC_LAYER_RECONCILED
360
9A25
  0
DICTIONARY
  5
9A26
330
97CA
100
AcDbDictionary
280
     1
281
     1
  3
ADSK_XREC_LAYER_RECONCILED
360
9A27
  0
DICTIONARY
  5
99C0
330
97BC
100
AcDbDictionary
281
     1
  3
ACAD_LAYOUTSELFREF
350
99C1
  0
DICTIONARY
  5
99BE
330
97B8
100
AcDbDictionary
281
     1
  3
ACAD_LAYOUTSELFREF
350
99BF
  0
XRECORD
  5
9A17
102
{ACAD_REACTORS
330
97AA
102
}
330
97AA
100
AcDbXrecord
280
     1
300
ACDLT
300
2014
300
ACDLT_F_S
  0
DICTIONARY
  5
99F9
102
{ACAD_REACTORS
330
97AA
102
}
330
97AA
100
AcDbDictionary
281
     1
  0
DICTIONARY
  5
9A12
102
{ACAD_REACTORS
330
97AA
102
}
330
97AA
100
AcDbDictionary
281
     1
  3
Imperial24
350
9A13
  0
DICTIONARY
  5
97AB
102
{ACAD_REACTORS
330
97AA
102
}
330
97AA
100
AcDbDictionary
281
     1
  0
DICTIONARY
  5
97B7
102
{ACAD_REACTORS
330
97AA
102
}
330
97AA
100
AcDbDictionary
281
     1
  3
Model
350
9A14
  3
レイアウト1
350
9A15
  0
DICTIONARY
  5
99C7
102
{ACAD_REACTORS
330
97AA
102
}
330
97AA
100
AcDbDictionary
281
     1
  3
ByBlock
350
99D0
  3
ByLayer
350
99C8
  3
Global
350
99D8
  0
DICTIONARY
  5
9A0E
102
{ACAD_REACTORS
330
97AA
102
}
330
97AA
100
AcDbDictionary
281
     1
  3
Standard
350
9A0F
  0
DICTIONARY
  5
97B4
102
{ACAD_REACTORS
330
97AA
102
}
330
97AA
100
AcDbDictionary
281
     1
  3
STANDARD
350
97B5
  0
DICTIONARY
  5
97B6
102
{ACAD_REACTORS
330
97AA
102
}
330
97AA
100
AcDbDictionary
281
     1
  0
ACDBDICTIONARYWDFLT
  5
99C5
102
{ACAD_REACTORS
330
97AA
102
}
330
97AA
100
AcDbDictionary
281
     1
  3
Normal
350
99C6
100
AcDbDictionaryWithDefault
340
99C6
  0
DICTIONARY
  5
99FC
102
{ACAD_REACTORS
330
97AA
102
}
330
97AA
100
AcDbDictionary
281
     1
  3
A0
350
99FD
  3
A1
350
99FE
  3
A2
350
99FF
  3
A3
350
9A00
  3
A4
350
9A01
  3
A5
350
9A02
  3
A6
350
9A03
  3
A7
350
9A04
  3
A8
350
9A05
  3
A9
350
9A06
  3
B0
350
9A07
  3
B1
350
9A08
  3
B2
350
9A09
  3
B3
350
9A0A
  3
B4
350
9A0B
  3
B5
350
9A0C
  3
B6
350
9A0D
  0
DICTIONARY
  5
9A10
102
{ACAD_REACTORS
330
97AA
102
}
330
97AA
100
AcDbDictionary
281
     1
  3
Imperial24
350
9A11
  0
DICTIONARY
  5
99FA
102
{ACAD_REACTORS
330
97AA
102
}
330
97AA
100
AcDbDictionary
281
     1
  3
Standard
350
99FB
  0
DICTIONARY
  5
99E0
102
{ACAD_REACTORS
330
97AA
102
}
330
97AA
100
AcDbDictionary
281
     1
  3
2dWireframe
350
99E6
  3
Basic
350
99E5
  3
Brighten
350
99EC
  3
ColorChange
350
99F0
  3
Conceptual
350
99E9
  3
Dim
350
99EB
  3
EdgeColorOff
350
99F8
  3
Facepattern
350
99EF
  3
Flat
350
99E1
  3
FlatWithEdges
350
99E2
  3
Gouraud
350
99E3
  3
GouraudWithEdges
350
99E4
  3
Hidden
350
99E8
  3
JitterOff
350
99F6
  3
Linepattern
350
99EE
  3
OverhangOff
350
99F7
  3
Realistic
350
99EA
  3
Shaded
350
99F5
  3
Shaded with edges
350
99F4
  3
Shades of Gray
350
99F1
  3
Sketchy
350
99F2
  3
Thicken
350
99ED
  3
Wireframe
350
99E7
  3
X-Ray
350
99F3
  0
XRECORD
  5
9A35
102
{ACAD_REACTORS
330
97AA
102
}
330
97AA
100
AcDbXrecord
280
     1
 90
        1
330
99FB
  0
DICTIONARY
  5
9A28
102
{ACAD_REACTORS
330
97AA
102
}
330
97AA
100
AcDbDictionary
281
     1
  3
CANNOSCALE
350
9A2D
  3
CMLEADERSTYLE
350
9A2A
  3
CTABLESTYLE
350
9A29
  3
CVIEWDETAILSTYLE
350
9A2B
  3
CVIEWSECTIONSTYLE
350
9A2C
  3
DIMASSOC
350
9A30
  3
INDEXCTL
350
9A2F
  3
SORTENTS
350
9A2E
  3
XCLIPFRAME
350
9A31
  0
XRECORD
  5
9A36
102
{ACAD_REACTORS
330
97AA
102
}
330
97AA
100
AcDbXrecord
280
     1
  1
DWGPROPS COOKIE
  2

  3

  4

  6

  7

  8
Yoshitsune
  9

300
=
301
=
302
=
303
=
304
=
305
=
306
=
307
=
308
=
309
=
 40
0.0000137037037037
 41
2450945.564599653
 42
2457192.599867454
  1

 90
        0
  0
XRECORD
  5
9A19
102
{ACAD_REACTORS
330
9A18
102
}
330
9A18
100
AcDbXrecord
280
     1
290
     1
  0
XRECORD
  5
9A1B
102
{ACAD_REACTORS
330
9A1A
102
}
330
9A1A
100
AcDbXrecord
280
     1
290
     1
  0
XRECORD
  5
9A1D
102
{ACAD_REACTORS
330
9A1C
102
}
330
9A1C
100
AcDbXrecord
280
     1
290
     1
  0
XRECORD
  5
9A1F
102
{ACAD_REACTORS
330
9A1E
102
}
330
9A1E
100
AcDbXrecord
280
     1
290
     1
  0
XRECORD
  5
9A21
102
{ACAD_REACTORS
330
9A20
102
}
330
9A20
100
AcDbXrecord
280
     1
290
     1
  0
XRECORD
  5
9A23
102
{ACAD_REACTORS
330
9A22
102
}
330
9A22
100
AcDbXrecord
280
     1
290
     1
  0
XRECORD
  5
9A25
102
{ACAD_REACTORS
330
9A24
102
}
330
9A24
100
AcDbXrecord
280
     1
290
     1
  0
XRECORD
  5
9A27
102
{ACAD_REACTORS
330
9A26
102
}
330
9A26
100
AcDbXrecord
280
     1
290
     1
  0
XRECORD
  5
99C1
102
{ACAD_REACTORS
330
99C0
102
}
330
99C0
100
AcDbXrecord
280
     1
340
97BC
  0
XRECORD
  5
99BF
102
{ACAD_REACTORS
330
99BE
102
}
330
99BE
100
AcDbXrecord
280
     1
340
97B8
  0
ACDBDETAILVIEWSTYLE
  5
9A13
102
{ACAD_XDICTIONARY
360
9A6E
102
}
102
{ACAD_REACTORS
330
9A12
102
}
330
9A12
100
AcDbModelDocViewStyle
 70
     0
  3
Imperial24
290
     0
100
AcDbDetailViewStyle
 70
     0
 71
     0
 90
        3
 71
     1
340
97AF
 40
0.24
340
0
 40
0.24
300

 40
0.36
280
     3
 71
     2
340
97B3
 90
       25
 71
     3
340
97AF
 40
0.24
 90
        1
 40
0.75
 90
        1
300
%<\AcVar ViewType \f "%tc1">% %<\AcVar ViewDetailId>%\PSCALE %<\AcVar ViewScale \f "%sn">%
 71
     4
340
97B3
 90
       25
340
97B3
 90
       25
280
     0
  0
LAYOUT
  5
9A14
102
{ACAD_XDICTIONARY
360
9A70
102
}
102
{ACAD_REACTORS
330
97B7
102
}
330
97B7
100
AcDbPlotSettings
  1

  2
Canon LBP9100C
  4

  6

 40
0.0
 41
0.0
 42
0.0
 43
0.0
 44
0.0
 45
0.0
 46
0.0
 47
0.0
 48
0.0
 49
0.0
140
0.0
141
0.0
142
1.0
143
1.0
 70
  1712
 72
     0
 73
     0
 74
     0
  7

 75
     0
147
1.0
148
0.0
149
0.0
100
AcDbLayout
  1
Model
 70
     1
 71
     0
 10
0.0
 20
0.0
 11
12.0
 21
9.0
 12
0.0
 22
0.0
 32
0.0
 14
0.0
 24
0.0
 34
0.0
 15
0.0
 25
0.0
 35
0.0
146
0.0
 13
0.0
 23
0.0
 33
0.0
 16
1.0
 26
0.0
 36
0.0
 17
0.0
 27
1.0
 37
0.0
 76
     0
330
97BC
331
99BD
  0
LAYOUT
  5
9A15
102
{ACAD_XDICTIONARY
360
9A72
102
}
102
{ACAD_REACTORS
330
97B7
102
}
330
97B7
100
AcDbPlotSettings
  1

  2
Canon LBP9100C
  4

  6

 40
0.0
 41
0.0
 42
0.0
 43
0.0
 44
0.0
 45
0.0
 46
0.0
 47
0.0
 48
0.0
 49
0.0
140
0.0
141
0.0
142
1.0
143
1.0
 70
   688
 72
     0
 73
     0
 74
     5
  7

 75
    16
147
1.0
148
0.0
149
0.0
100
AcDbLayout
  1
レイアウト1
 70
     0
 71
     1
 10
0.0
 20
0.0
 11
420.0
 21
297.0
 12
0.0
 22
0.0
 32
0.0
 14
1.000000000000000E+20
 24
1.000000000000000E+20
 34
1.000000000000000E+20
 15
-1.000000000000000E+20
 25
-1.000000000000000E+20
 35
-1.000000000000000E+20
146
0.0
 13
0.0
 23
0.0
 33
0.0
 16
1.0
 26
0.0
 36
0.0
 17
0.0
 27
1.0
 37
0.0
 76
     0
330
97B8
  0
MATERIAL
  5
99D0
102
{ACAD_XDICTIONARY
360
99D1
102
}
102
{ACAD_REACTORS
330
99C7
102
}
330
99C7
100
AcDbMaterial
  1
ByBlock
 72
     0
 43
0.0208333333333333
 43
0.0
 43
0.0
 43
0.0
 43
0.0
 43
0.0208333333333333
 43
0.0
 43
0.0
 43
0.0
 43
0.0
 43
1.0
 43
0.0
 43
0.0
 43
0.0
 43
0.0
 43
1.0
 77
     0
 47
0.0208333333333333
 47
0.0
 47
0.0
 47
0.0
 47
0.0
 47
0.0208333333333333
 47
0.0
 47
0.0
 47
0.0
 47
0.0
 47
1.0
 47
0.0
 47
0.0
 47
0.0
 47
0.0
 47
1.0
171
     0
 49
0.0208333333333333
 49
0.0
 49
0.0
 49
0.0
 49
0.0
 49
0.0208333333333333
 49
0.0
 49
0.0
 49
0.0
 49
0.0
 49
1.0
 49
0.0
 49
0.0
 49
0.0
 49
0.0
 49
1.0
175
     0
142
0.0208333333333333
142
0.0
142
0.0
142
0.0
142
0.0
142
0.0208333333333333
142
0.0
142
0.0
142
0.0
142
0.0
142
1.0
142
0.0
142
0.0
142
0.0
142
0.0
142
1.0
179
     0
144
0.0208333333333333
144
0.0
144
0.0
144
0.0
144
0.0
144
0.0208333333333333
144
0.0
144
0.0
144
0.0
144
0.0
144
1.0
144
0.0
144
0.0
144
0.0
144
0.0
144
1.0
147
0.0208333333333333
147
0.0
147
0.0
147
0.0
147
0.0
147
0.0208333333333333
147
0.0
147
0.0
147
0.0
147
0.0
147
1.0
147
0.0
147
0.0
147
0.0
147
0.0
147
1.0
  0
MATERIAL
  5
99C8
102
{ACAD_XDICTIONARY
360
99C9
102
}
102
{ACAD_REACTORS
330
99C7
102
}
330
99C7
100
AcDbMaterial
  1
ByLayer
 72
     0
 43
0.0208333333333333
 43
0.0
 43
0.0
 43
0.0
 43
0.0
 43
0.0208333333333333
 43
0.0
 43
0.0
 43
0.0
 43
0.0
 43
1.0
 43
0.0
 43
0.0
 43
0.0
 43
0.0
 43
1.0
 77
     0
 47
0.0208333333333333
 47
0.0
 47
0.0
 47
0.0
 47
0.0
 47
0.0208333333333333
 47
0.0
 47
0.0
 47
0.0
 47
0.0
 47
1.0
 47
0.0
 47
0.0
 47
0.0
 47
0.0
 47
1.0
171
     0
 49
0.0208333333333333
 49
0.0
 49
0.0
 49
0.0
 49
0.0
 49
0.0208333333333333
 49
0.0
 49
0.0
 49
0.0
 49
0.0
 49
1.0
 49
0.0
 49
0.0
 49
0.0
 49
0.0
 49
1.0
175
     0
142
0.0208333333333333
142
0.0
142
0.0
142
0.0
142
0.0
142
0.0208333333333333
142
0.0
142
0.0
142
0.0
142
0.0
142
1.0
142
0.0
142
0.0
142
0.0
142
0.0
142
1.0
179
     0
144
0.0208333333333333
144
0.0
144
0.0
144
0.0
144
0.0
144
0.0208333333333333
144
0.0
144
0.0
144
0.0
144
0.0
144
1.0
144
0.0
144
0.0
144
0.0
144
0.0
144
1.0
147
0.0208333333333333
147
0.0
147
0.0
147
0.0
147
0.0
147
0.0208333333333333
147
0.0
147
0.0
147
0.0
147
0.0
147
1.0
147
0.0
147
0.0
147
0.0
147
0.0
147
1.0
  0
MATERIAL
  5
99D8
102
{ACAD_XDICTIONARY
360
99D9
102
}
102
{ACAD_REACTORS
330
99C7
102
}
330
99C7
100
AcDbMaterial
  1
Global
 72
     0
 43
0.0208333333333333
 43
0.0
 43
0.0
 43
0.0
 43
0.0
 43
0.0208333333333333
 43
0.0
 43
0.0
 43
0.0
 43
0.0
 43
1.0
 43
0.0
 43
0.0
 43
0.0
 43
0.0
 43
1.0
 77
     0
 47
0.0208333333333333
 47
0.0
 47
0.0
 47
0.0
 47
0.0
 47
0.0208333333333333
 47
0.0
 47
0.0
 47
0.0
 47
0.0
 47
1.0
 47
0.0
 47
0.0
 47
0.0
 47
0.0
 47
1.0
171
     0
 49
0.0208333333333333
 49
0.0
 49
0.0
 49
0.0
 49
0.0
 49
0.0208333333333333
 49
0.0
 49
0.0
 49
0.0
 49
0.0
 49
1.0
 49
0.0
 49
0.0
 49
0.0
 49
0.0
 49
1.0
175
     0
142
0.0208333333333333
142
0.0
142
0.0
142
0.0
142
0.0
142
0.0208333333333333
142
0.0
142
0.0
142
0.0
142
0.0
142
1.0
142
0.0
142
0.0
142
0.0
142
0.0
142
1.0
179
     0
144
0.0208333333333333
144
0.0
144
0.0
144
0.0
144
0.0
144
0.0208333333333333
144
0.0
144
0.0
144
0.0
144
0.0
144
1.0
144
0.0
144
0.0
144
0.0
144
0.0
144
1.0
147
0.0208333333333333
147
0.0
147
0.0
147
0.0
147
0.0
147
0.0208333333333333
147
0.0
147
0.0
147
0.0
147
0.0
147
1.0
147
0.0
147
0.0
147
0.0
147
0.0
147
1.0
  0
MLEADERSTYLE
  5
9A0F
102
{ACAD_REACTORS
330
9A0E
102
}
330
9A0E
100
AcDbMLeaderStyle
170
     2
171
     1
172
     0
 90
        2
 40
0.0
 41
0.0
173
     1
 91
-1056964608
340
97B1
 92
       -2
290
     1
 42
0.09
291
     1
 43
0.36
  3
Standard
 44
0.18
300

342
97AF
174
     1
178
     6
175
     1
176
     0
 93
-1056964608
 45
0.18
292
     0
297
     0
 46
0.18
 94
-1056964608
 47
1.0
 49
1.0
140
1.0
293
     1
141
0.0
294
     1
177
     0
142
1.0
295
     0
296
     0
143
0.125
1001
ACAD_MLEADERVER
1070
     2
  0
MLINESTYLE
  5
97B5
102
{ACAD_REACTORS
330
97B4
102
}
330
97B4
100
AcDbMlineStyle
  2
STANDARD
 70
     0
  3

 62
   256
 51
90.0
 52
90.0
 71
     2
 49
0.5
 62
   256
  6
BYLAYER
 49
-0.5
 62
   256
  6
BYLAYER
  0
ACDBPLACEHOLDER
  5
99C6
102
{ACAD_REACTORS
330
99C5
102
}
330
99C5
  0
SCALE
  5
99FD
102
{ACAD_REACTORS
330
99FC
102
}
330
99FC
100
AcDbScale
 70
     0
300
1:1
140
1.0
141
1.0
290
     1
  0
SCALE
  5
99FE
102
{ACAD_REACTORS
330
99FC
102
}
330
99FC
100
AcDbScale
 70
     0
300
1/128" = 1'-0"
140
0.0078125
141
12.0
290
     0
  0
SCALE
  5
99FF
102
{ACAD_REACTORS
330
99FC
102
}
330
99FC
100
AcDbScale
 70
     0
300
1/64" = 1'-0"
140
0.015625
141
12.0
290
     0
  0
SCALE
  5
9A00
102
{ACAD_REACTORS
330
99FC
102
}
330
99FC
100
AcDbScale
 70
     0
300
1/32" = 1'-0"
140
0.03125
141
12.0
290
     0
  0
SCALE
  5
9A01
102
{ACAD_REACTORS
330
99FC
102
}
330
99FC
100
AcDbScale
 70
     0
300
1/16" = 1'-0"
140
0.0625
141
12.0
290
     0
  0
SCALE
  5
9A02
102
{ACAD_REACTORS
330
99FC
102
}
330
99FC
100
AcDbScale
 70
     0
300
3/32" = 1'-0"
140
0.09375
141
12.0
290
     0
  0
SCALE
  5
9A03
102
{ACAD_REACTORS
330
99FC
102
}
330
99FC
100
AcDbScale
 70
     0
300
1/8" = 1'-0"
140
0.125
141
12.0
290
     0
  0
SCALE
  5
9A04
102
{ACAD_REACTORS
330
99FC
102
}
330
99FC
100
AcDbScale
 70
     0
300
3/16" = 1'-0"
140
0.1875
141
12.0
290
     0
  0
SCALE
  5
9A05
102
{ACAD_REACTORS
330
99FC
102
}
330
99FC
100
AcDbScale
 70
     0
300
1/4" = 1'-0"
140
0.25
141
12.0
290
     0
  0
SCALE
  5
9A06
102
{ACAD_REACTORS
330
99FC
102
}
330
99FC
100
AcDbScale
 70
     0
300
3/8" = 1'-0"
140
0.375
141
12.0
290
     0
  0
SCALE
  5
9A07
102
{ACAD_REACTORS
330
99FC
102
}
330
99FC
100
AcDbScale
 70
     0
300
1/2" = 1'-0"
140
0.5
141
12.0
290
     0
  0
SCALE
  5
9A08
102
{ACAD_REACTORS
330
99FC
102
}
330
99FC
100
AcDbScale
 70
     0
300
3/4" = 1'-0"
140
0.75
141
12.0
290
     0
  0
SCALE
  5
9A09
102
{ACAD_REACTORS
330
99FC
102
}
330
99FC
100
AcDbScale
 70
     0
300
1" = 1'-0"
140
1.0
141
12.0
290
     0
  0
SCALE
  5
9A0A
102
{ACAD_REACTORS
330
99FC
102
}
330
99FC
100
AcDbScale
 70
     0
300
1-1/2" = 1'-0"
140
1.5
141
12.0
290
     0
  0
SCALE
  5
9A0B
102
{ACAD_REACTORS
330
99FC
102
}
330
99FC
100
AcDbScale
 70
     0
300
3" = 1'-0"
140
3.0
141
12.0
290
     0
  0
SCALE
  5
9A0C
102
{ACAD_REACTORS
330
99FC
102
}
330
99FC
100
AcDbScale
 70
     0
300
6" = 1'-0"
140
6.0
141
12.0
290
     0
  0
SCALE
  5
9A0D
102
{ACAD_REACTORS
330
99FC
102
}
330
99FC
100
AcDbScale
 70
     0
300
1'-0" = 1'-0"
140
12.0
141
12.0
290
     0
  0
ACDBSECTIONVIEWSTYLE
  5
9A11
102
{ACAD_XDICTIONARY
360
9A6C
102
}
102
{ACAD_REACTORS
330
9A10
102
}
330
9A10
100
AcDbModelDocViewStyle
 70
     0
  3
Imperial24
290
     0
100
AcDbSectionViewStyle
 70
     0
 71
     0
 90
       78
 71
     1
340
97AF
 40
0.24
340
0
340
0
 40
0.24
300
I, O, Q, S, X, Z
 40
0.48
 90
        3
 40
0.18
 90
        1
 71
     2
340
97B3
 90
       25
340
97B3
 90
       50
 40
0.24
 40
0.0
 40
0.24
 71
     3
340
97AF
 40
0.24
 90
        1
 40
0.75
 90
        1
300
%<\AcVar ViewType \f "%tc1">% %<\AcVar ViewSectionStartId>%-%<\AcVar ViewSectionEndId>%\PSCALE %<\AcVar ViewScale \f "%sn">%
 71
     4
300
ANSI31
 40
1.0
 90
        0
290
     0
290
     0
 90
        6
 40
0.0
 40
1.570796326794896
 40
0.2617993877991494
 40
1.308996938995747
 40
-0.2617993877991494
 40
1.832595714594046
  0
TABLESTYLE
  5
99FB
102
{ACAD_XDICTIONARY
360
9A33
102
}
102
{ACAD_REACTORS
330
99FA
102
}
330
99FA
100
AcDbTableStyle
  3
Standard
 70
     0
 71
     0
 40
0.06
 41
0.06
280
     0
281
     0
  7
STANDARD
140
0.18
170
     2
 62
     0
 63
     7
283
     0
274
    -2
284
     1
 64
     0
275
    -2
285
     1
 65
     0
276
    -2
286
     1
 66
     0
277
    -2
287
     1
 67
     0
278
    -2
288
     1
 68
     0
279
    -2
289
     1
 69
     0
  7
STANDARD
140
0.25
170
     5
 62
     0
 63
     7
283
     0
274
    -2
284
     1
 64
     0
275
    -2
285
     1
 65
     0
276
    -2
286
     1
 66
     0
277
    -2
287
     1
 67
     0
278
    -2
288
     1
 68
     0
279
    -2
289
     1
 69
     0
  7
STANDARD
140
0.18
170
     5
 62
     0
 63
     7
283
     0
274
    -2
284
     1
 64
     0
275
    -2
285
     1
 65
     0
276
    -2
286
     1
 66
     0
277
    -2
287
     1
 67
     0
278
    -2
288
     1
 68
     0
279
    -2
289
     1
 69
     0
  0
VISUALSTYLE
  5
99E6
102
{ACAD_XDICTIONARY
360
9A44
102
}
102
{ACAD_REACTORS
330
99E0
102
}
330
99E0
100
AcDbVisualStyle
  2
2dWireframe
 70
     4
 71
     0
 72
     2
 73
     0
 90
        0
 40
-0.6
 41
-30.0
 62
     5
 63
     7
 74
     1
 91
        4
 64
     7
 65
   257
 75
     1
175
     1
 42
1.0
 92
        0
 66
   257
 43
1.0
 76
     1
 77
     6
 78
     2
 67
     7
 79
     5
170
     0
171
     0
290
     0
174
     0
 93
        1
 44
0.0
173
     0
291
     0
 45
0.0
1001
ACAD
1000
AcDbSavedByObjectVersion
1070
     0
  0
VISUALSTYLE
  5
99E5
102
{ACAD_XDICTIONARY
360
9A42
102
}
102
{ACAD_REACTORS
330
99E0
102
}
330
99E0
100
AcDbVisualStyle
  2
Basic
 70
     7
 71
     1
 72
     0
 73
     1
 90
        0
 40
-0.6
 41
-30.0
 62
     5
 63
     7
 74
     0
 91
        4
 64
     7
 65
   257
 75
     1
175
     1
 42
1.0
 92
        8
 66
     7
 43
1.0
 76
     1
 77
     6
 78
     2
 67
     7
 79
     5
170
     0
171
     0
290
     0
174
     0
 93
        1
 44
0.0
173
     0
291
     1
 45
0.0
1001
ACAD
1000
AcDbSavedByObjectVersion
1070
     0
  0
VISUALSTYLE
  5
99EC
102
{ACAD_XDICTIONARY
360
9A50
102
}
102
{ACAD_REACTORS
330
99E0
102
}
330
99E0
100
AcDbVisualStyle
  2
Brighten
 70
    12
 71
     2
 72
     2
 73
     0
 90
        0
 40
-0.6
 41
-30.0
 62
     5
 63
     7
 74
     1
 91
        4
 64
     7
 65
   257
 75
     1
175
     1
 42
1.0
 92
        8
 66
     7
 43
1.0
 76
     1
 77
     6
 78
     2
 67
     7
 79
     5
170
     0
171
     0
290
     0
174
     0
 93
        1
 44
50.0
173
     0
291
     1
 45
0.0
1001
ACAD
1000
AcDbSavedByObjectVersion
1070
     0
  0
VISUALSTYLE
  5
99F0
102
{ACAD_XDICTIONARY
360
9A58
102
}
102
{ACAD_REACTORS
330
99E0
102
}
330
99E0
100
AcDbVisualStyle
  2
ColorChange
 70
    16
 71
     2
 72
     2
 73
     3
 90
        0
 40
-0.6
 41
-30.0
 62
     5
 63
     8
 74
     1
 91
        4
 64
     7
 65
   257
 75
     1
175
     1
 42
1.0
 92
        8
 66
     8
 43
1.0
 76
     1
 77
     6
 78
     2
 67
     7
 79
     5
170
     0
171
     0
290
     0
174
     0
 93
        1
 44
0.0
173
     0
291
     1
 45
0.0
1001
ACAD
1000
AcDbSavedByObjectVersion
1070
     0
  0
VISUALSTYLE
  5
99E9
102
{ACAD_XDICTIONARY
360
9A4A
102
}
102
{ACAD_REACTORS
330
99E0
102
}
330
99E0
100
AcDbVisualStyle
  2
Conceptual
 70
     9
 71
     3
 72
     2
 73
     0
 90
        0
 40
-0.6
 41
-30.0
 62
     5
 63
     7
 74
     2
 91
        2
 64
     7
 65
   257
 75
     1
175
     1
 42
179.0
 92
        8
 66
     7
 43
1.0
 76
     1
 77
     6
 78
     2
 67
     7
 79
     3
170
     0
171
     0
290
     0
174
     0
 93
        1
 44
0.0
173
     0
291
     0
 45
0.0
1001
ACAD
1000
AcDbSavedByObjectVersion
1070
     0
  0
VISUALSTYLE
  5
99EB
102
{ACAD_XDICTIONARY
360
9A4E
102
}
102
{ACAD_REACTORS
330
99E0
102
}
330
99E0
100
AcDbVisualStyle
  2
Dim
 70
    11
 71
     2
 72
     2
 73
     0
 90
        0
 40
-0.6
 41
-30.0
 62
     5
 63
     7
 74
     1
 91
        4
 64
     7
 65
   257
 75
     1
175
     1
 42
1.0
 92
        8
 66
     7
 43
1.0
 76
     1
 77
     6
 78
     2
 67
     7
 79
     5
170
     0
171
     0
290
     0
174
     0
 93
        1
 44
-50.0
173
     0
291
     1
 45
0.0
1001
ACAD
1000
AcDbSavedByObjectVersion
1070
     0
  0
VISUALSTYLE
  5
99F8
102
{ACAD_XDICTIONARY
360
9A68
102
}
102
{ACAD_REACTORS
330
99E0
102
}
330
99E0
100
AcDbVisualStyle
  2
EdgeColorOff
 70
    22
 71
     2
 72
     2
 73
     0
 90
        0
 40
-0.6
 41
-30.0
 62
     5
 63
     7
 74
     1
 91
        4
 64
     7
 65
   257
 75
     1
175
     1
 42
1.0
 92
        8
 66
     7
 43
1.0
 76
     1
 77
     6
 78
     2
 67
     7
 79
     5
170
     0
171
     0
290
     0
174
     0
 93
        1
 44
0.0
173
     0
291
     1
 45
0.0
1001
ACAD
1000
AcDbSavedByObjectVersion
1070
     0
  0
VISUALSTYLE
  5
99EF
102
{ACAD_XDICTIONARY
360
9A56
102
}
102
{ACAD_REACTORS
330
99E0
102
}
330
99E0
100
AcDbVisualStyle
  2
Facepattern
 70
    15
 71
     2
 72
     2
 73
     0
 90
        0
 40
-0.6
 41
-30.0
 62
     5
 63
     7
 74
     1
 91
        4
 64
     7
 65
   257
 75
     1
175
     1
 42
1.0
 92
        8
 66
     7
 43
1.0
 76
     1
 77
     6
 78
     2
 67
     7
 79
     5
170
     0
171
     0
290
     0
174
     0
 93
        1
 44
0.0
173
     0
291
     1
 45
0.0
1001
ACAD
1000
AcDbSavedByObjectVersion
1070
     0
  0
VISUALSTYLE
  5
99E1
102
{ACAD_XDICTIONARY
360
9A3A
102
}
102
{ACAD_REACTORS
330
99E0
102
}
330
99E0
100
AcDbVisualStyle
  2
Flat
 70
     0
 71
     2
 72
     1
 73
     1
 90
        2
 40
-0.6
 41
30.0
 62
     5
 63
     7
 74
     0
 91
        0
 64
     7
 65
   257
 75
     1
175
     1
 42
1.0
 92
        8
 66
     7
 43
1.0
 76
     1
 77
     6
 78
     2
 67
     7
 79
     5
170
     0
171
     0
290
     0
174
     0
 93
       13
 44
0.0
173
     0
291
     1
 45
0.0
1001
ACAD
1000
AcDbSavedByObjectVersion
1070
     0
  0
VISUALSTYLE
  5
99E2
102
{ACAD_XDICTIONARY
360
9A3C
102
}
102
{ACAD_REACTORS
330
99E0
102
}
330
99E0
100
AcDbVisualStyle
  2
FlatWithEdges
 70
     1
 71
     2
 72
     1
 73
     1
 90
        2
 40
-0.6
 41
30.0
 62
     5
 63
     7
 74
     1
 91
        0
 64
     7
 65
   257
 75
     1
175
     1
 42
1.0
 92
        0
 66
   257
 43
1.0
 76
     1
 77
     6
 78
     2
 67
     7
 79
     5
170
     0
171
     0
290
     0
174
     0
 93
       13
 44
0.0
173
     0
291
     1
 45
0.0
1001
ACAD
1000
AcDbSavedByObjectVersion
1070
     0
  0
VISUALSTYLE
  5
99E3
102
{ACAD_XDICTIONARY
360
9A3E
102
}
102
{ACAD_REACTORS
330
99E0
102
}
330
99E0
100
AcDbVisualStyle
  2
Gouraud
 70
     2
 71
     2
 72
     2
 73
     1
 90
        2
 40
-0.6
 41
30.0
 62
     5
 63
     7
 74
     0
 91
        0
 64
     7
 65
   257
 75
     1
175
     1
 42
1.0
 92
        0
 66
     7
 43
1.0
 76
     1
 77
     6
 78
     2
 67
     7
 79
     5
170
     0
171
     0
290
     0
174
     0
 93
       13
 44
0.0
173
     0
291
     1
 45
0.0
1001
ACAD
1000
AcDbSavedByObjectVersion
1070
     0
  0
VISUALSTYLE
  5
99E4
102
{ACAD_XDICTIONARY
360
9A40
102
}
102
{ACAD_REACTORS
330
99E0
102
}
330
99E0
100
AcDbVisualStyle
  2
GouraudWithEdges
 70
     3
 71
     2
 72
     2
 73
     1
 90
        2
 40
-0.6
 41
30.0
 62
     5
 63
     7
 74
     1
 91
        0
 64
     7
 65
   257
 75
     1
175
     1
 42
1.0
 92
        0
 66
   257
 43
1.0
 76
     1
 77
     6
 78
     2
 67
     7
 79
     5
170
     0
171
     0
290
     0
174
     0
 93
       13
 44
0.0
173
     0
291
     1
 45
0.0
1001
ACAD
1000
AcDbSavedByObjectVersion
1070
     0
  0
VISUALSTYLE
  5
99E8
102
{ACAD_XDICTIONARY
360
9A48
102
}
102
{ACAD_REACTORS
330
99E0
102
}
330
99E0
100
AcDbVisualStyle
  2
Hidden
 70
     6
 71
     1
 72
     2
 73
     2
 90
        0
 40
-0.6
 41
-30.0
 62
     5
 63
     7
 74
     2
 91
        2
 64
     7
 65
   257
 75
     2
175
     1
 42
40.0
 92
        0
 66
   257
 43
1.0
 76
     1
 77
     6
 78
     2
 67
     7
 79
     3
170
     0
171
     0
290
     0
174
     0
 93
        1
 44
0.0
173
     0
291
     0
 45
0.0
1001
ACAD
1000
AcDbSavedByObjectVersion
1070
     0
  0
VISUALSTYLE
  5
99F6
102
{ACAD_XDICTIONARY
360
9A64
102
}
102
{ACAD_REACTORS
330
99E0
102
}
330
99E0
100
AcDbVisualStyle
  2
JitterOff
 70
    20
 71
     2
 72
     2
 73
     0
 90
        0
 40
-0.6
 41
-30.0
 62
     5
 63
     7
 74
     1
 91
        4
 64
     7
 65
   257
 75
     1
175
     1
 42
1.0
 92
       10
 66
     7
 43
1.0
 76
     1
 77
     6
 78
     2
 67
     7
 79
     5
170
     0
171
     0
290
     0
174
     0
 93
        1
 44
0.0
173
     0
291
     1
 45
0.0
1001
ACAD
1000
AcDbSavedByObjectVersion
1070
     0
  0
VISUALSTYLE
  5
99EE
102
{ACAD_XDICTIONARY
360
9A54
102
}
102
{ACAD_REACTORS
330
99E0
102
}
330
99E0
100
AcDbVisualStyle
  2
Linepattern
 70
    14
 71
     2
 72
     2
 73
     0
 90
        0
 40
-0.6
 41
-30.0
 62
     5
 63
     7
 74
     1
 91
        4
 64
     7
 65
   257
 75
     7
175
     7
 42
1.0
 92
        8
 66
     7
 43
1.0
 76
     1
 77
     6
 78
     2
 67
     7
 79
     5
170
     0
171
     0
290
     0
174
     0
 93
        1
 44
0.0
173
     0
291
     1
 45
0.0
1001
ACAD
1000
AcDbSavedByObjectVersion
1070
     0
  0
VISUALSTYLE
  5
99F7
102
{ACAD_XDICTIONARY
360
9A66
102
}
102
{ACAD_REACTORS
330
99E0
102
}
330
99E0
100
AcDbVisualStyle
  2
OverhangOff
 70
    21
 71
     2
 72
     2
 73
     0
 90
        0
 40
-0.6
 41
-30.0
 62
     5
 63
     7
 74
     1
 91
        4
 64
     7
 65
   257
 75
     1
175
     1
 42
1.0
 92
        9
 66
     7
 43
1.0
 76
     1
 77
     6
 78
     2
 67
     7
 79
     5
170
     0
171
     0
290
     0
174
     0
 93
        1
 44
0.0
173
     0
291
     1
 45
0.0
1001
ACAD
1000
AcDbSavedByObjectVersion
1070
     0
  0
VISUALSTYLE
  5
99EA
102
{ACAD_XDICTIONARY
360
9A4C
102
}
102
{ACAD_REACTORS
330
99E0
102
}
330
99E0
100
AcDbVisualStyle
  2
Realistic
 70
     8
 71
     2
 72
     3
 73
     0
 90
        2
 40
-0.6
 41
30.0
 62
     5
 63
     7
 74
     0
 91
        0
 64
     7
 65
   257
 75
     1
175
     1
 42
1.0
 92
        8
 66
   257
 43
1.0
 76
     1
 77
     6
 78
     2
 67
     7
 79
     3
170
     0
171
     0
290
     0
174
     0
 93
       13
 44
0.0
173
     0
291
     0
 45
0.0
1001
ACAD
1000
AcDbSavedByObjectVersion
1070
     0
  0
VISUALSTYLE
  5
99F5
102
{ACAD_XDICTIONARY
360
9A62
102
}
102
{ACAD_REACTORS
330
99E0
102
}
330
99E0
100
AcDbVisualStyle
  2
Shaded
 70
    27
 71
     2
 72
     2
 73
     1
 90
        2
 40
-0.6
 41
30.0
 62
     5
 63
     7
 74
     0
 91
        4
 64
     7
 65
   257
 75
     1
175
     1
 42
1.0
 92
        8
 66
   257
 43
1.0
 76
     1
 77
     6
 78
     2
 67
     8
 79
     3
170
     0
171
     0
290
     0
174
     0
 93
        5
 44
0.0
173
     0
291
     0
 45
0.0
1001
ACAD
1000
AcDbSavedByObjectVersion
1070
     0
  0
VISUALSTYLE
  5
99F4
102
{ACAD_XDICTIONARY
360
9A60
102
}
102
{ACAD_REACTORS
330
99E0
102
}
330
99E0
100
AcDbVisualStyle
  2
Shaded with edges
 70
    26
 71
     2
 72
     2
 73
     1
 90
        2
 40
-0.6
 41
30.0
 62
     5
 63
     7
 74
     1
 91
       10
 64
     7
 65
   257
 75
     2
175
     1
 42
1.0
 92
        8
 66
   257
 43
1.0
 76
     1
 77
     6
 78
     2
 67
     7
 79
     3
170
     0
171
     0
290
     0
174
     0
 93
        5
 44
0.0
173
     0
291
     0
 45
0.0
1001
ACAD
1000
AcDbSavedByObjectVersion
1070
     0
  0
VISUALSTYLE
  5
99F1
102
{ACAD_XDICTIONARY
360
9A5A
102
}
102
{ACAD_REACTORS
330
99E0
102
}
330
99E0
100
AcDbVisualStyle
  2
Shades of Gray
 70
    23
 71
     2
 72
     2
 73
     3
 90
        0
 40
-0.6
 41
-30.0
 62
     5
 63
     7
 74
     2
 91
        2
 64
     7
 65
     7
 75
     1
175
     1
 42
40.0
 92
        8
 66
     7
 43
1.0
 76
     1
 77
     6
 78
     2
 67
     7
 79
     3
170
     0
171
     0
290
     0
174
     0
 93
        1
 44
0.0
173
     0
291
     0
 45
0.0
1001
ACAD
1000
AcDbSavedByObjectVersion
1070
     0
  0
VISUALSTYLE
  5
99F2
102
{ACAD_XDICTIONARY
360
9A5C
102
}
102
{ACAD_REACTORS
330
99E0
102
}
330
99E0
100
AcDbVisualStyle
  2
Sketchy
 70
    24
 71
     1
 72
     2
 73
     2
 90
        0
 40
-0.6
 41
-30.0
 62
     5
 63
     7
 74
     2
 91
        2
 64
     7
 65
     7
 75
     1
175
     1
 42
40.0
 92
       11
 66
     7
 43
1.0
 76
     1
 77
     6
 78
     2
 67
     7
 79
     6
170
     0
171
     0
290
     0
174
     0
 93
        1
 44
0.0
173
     0
291
     0
 45
0.0
1001
ACAD
1000
AcDbSavedByObjectVersion
1070
     0
  0
VISUALSTYLE
  5
99ED
102
{ACAD_XDICTIONARY
360
9A52
102
}
102
{ACAD_REACTORS
330
99E0
102
}
330
99E0
100
AcDbVisualStyle
  2
Thicken
 70
    13
 71
     2
 72
     2
 73
     0
 90
        0
 40
-0.6
 41
-30.0
 62
     5
 63
     7
 74
     1
 91
        4
 64
     7
 65
   257
 75
     1
175
     1
 42
1.0
 92
       12
 66
     7
 43
1.0
 76
     1
 77
     6
 78
     2
 67
     7
 79
     5
170
     0
171
     0
290
     0
174
     0
 93
        1
 44
0.0
173
     0
291
     1
 45
0.0
1001
ACAD
1000
AcDbSavedByObjectVersion
1070
     0
  0
VISUALSTYLE
  5
99E7
102
{ACAD_XDICTIONARY
360
9A46
102
}
102
{ACAD_REACTORS
330
99E0
102
}
330
99E0
100
AcDbVisualStyle
  2
Wireframe
 70
     5
 71
     0
 72
     2
 73
     0
 90
        0
 40
-0.6
 41
-30.0
 62
     5
 63
     7
 74
     1
 91
        4
 64
     7
 65
   257
 75
     1
175
     1
 42
1.0
 92
        0
 66
   257
 43
1.0
 76
     1
 77
     6
 78
     2
 67
     7
 79
     3
170
     0
171
     0
290
     0
174
     0
 93
        1
 44
0.0
173
     0
291
     0
 45
0.0
1001
ACAD
1000
AcDbSavedByObjectVersion
1070
     0
  0
VISUALSTYLE
  5
99F3
102
{ACAD_XDICTIONARY
360
9A5E
102
}
102
{ACAD_REACTORS
330
99E0
102
}
330
99E0
100
AcDbVisualStyle
  2
X-Ray
 70
    25
 71
     2
 72
     2
 73
     1
 90
        1
 40
0.5
 41
-30.0
 62
     5
 63
     7
 74
     1
 91
        0
 64
     7
 65
   257
 75
     1
175
     1
 42
1.0
 92
        8
 66
     7
 43
1.0
 76
     1
 77
     6
 78
     2
 67
     7
 79
     3
170
     0
171
     0
290
     0
174
     0
 93
       13
 44
0.0
173
     0
291
     0
 45
0.0
1001
ACAD
1000
AcDbSavedByObjectVersion
1070
     0
  0
DICTIONARYVAR
  5
9A2D
102
{ACAD_REACTORS
330
9A28
102
}
330
9A28
100
DictionaryVariables
280
     0
  1
1:1
  0
DICTIONARYVAR
  5
9A2A
102
{ACAD_REACTORS
330
9A28
102
}
330
9A28
100
DictionaryVariables
280
     0
  1
STANDARD
  0
DICTIONARYVAR
  5
9A29
102
{ACAD_REACTORS
330
9A28
102
}
330
9A28
100
DictionaryVariables
280
     0
  1
STANDARD
  0
DICTIONARYVAR
  5
9A2B
102
{ACAD_REACTORS
330
9A28
102
}
330
9A28
100
DictionaryVariables
280
     0
  1
Imperial24
  0
DICTIONARYVAR
  5
9A2C
102
{ACAD_REACTORS
330
9A28
102
}
330
9A28
100
DictionaryVariables
280
     0
  1
Imperial24
  0
DICTIONARYVAR
  5
9A30
102
{ACAD_REACTORS
330
9A28
102
}
330
9A28
100
DictionaryVariables
280
     0
  1
1
  0
DICTIONARYVAR
  5
9A2F
102
{ACAD_REACTORS
330
9A28
102
}
330
9A28
100
DictionaryVariables
280
     0
  1
0
  0
DICTIONARYVAR
  5
9A2E
102
{ACAD_REACTORS
330
9A28
102
}
330
9A28
100
DictionaryVariables
280
     0
  1
127
  0
DICTIONARYVAR
  5
9A31
102
{ACAD_REACTORS
330
9A28
102
}
330
9A28
100
DictionaryVariables
280
     0
  1
2
  0
DICTIONARY
  5
9A6E
330
9A13
100
AcDbDictionary
280
     1
281
     1
  3
ACAD_XREC_ROUNDTRIP
360
9A6F
  0
DICTIONARY
  5
9A70
330
9A14
100
AcDbDictionary
280
     1
281
     1
  3
ACAD_XREC_ROUNDTRIP
360
9A71
  0
DICTIONARY
  5
9A72
330
9A15
100
AcDbDictionary
280
     1
281
     1
  3
ACAD_XREC_ROUNDTRIP
360
9A73
  0
DICTIONARY
  5
99D1
330
99D0
100
AcDbDictionary
280
     1
281
     1
  3
ACAD_XREC_ROUNDTRIP
360
9A38
  3
BUMPTILE
360
99D3
  3
DIFFUSETILE
360
99D2
  3
OPACITYTILE
360
99D6
  3
REFLECTIONTILE
360
99D5
  3
REFRACTIONTILE
360
99D7
  3
SPECULARTILE
360
99D4
  0
DICTIONARY
  5
99C9
330
99C8
100
AcDbDictionary
280
     1
281
     1
  3
ACAD_XREC_ROUNDTRIP
360
9A37
  3
BUMPTILE
360
99CB
  3
DIFFUSETILE
360
99CA
  3
OPACITYTILE
360
99CE
  3
REFLECTIONTILE
360
99CD
  3
REFRACTIONTILE
360
99CF
  3
SPECULARTILE
360
99CC
  0
DICTIONARY
  5
99D9
330
99D8
100
AcDbDictionary
280
     1
281
     1
  3
ACAD_XREC_ROUNDTRIP
360
9A39
  3
BUMPTILE
360
99DB
  3
DIFFUSETILE
360
99DA
  3
OPACITYTILE
360
99DE
  3
REFLECTIONTILE
360
99DD
  3
REFRACTIONTILE
360
99DF
  3
SPECULARTILE
360
99DC
  0
DICTIONARY
  5
9A6C
330
9A11
100
AcDbDictionary
280
     1
281
     1
  3
ACAD_XREC_ROUNDTRIP
360
9A6D
  0
DICTIONARY
  5
9A33
330
99FB
100
AcDbDictionary
280
     1
281
     1
  3
ACAD_ROUNDTRIP_2008_TABLESTYLE_CELLSTYLEMAP
360
9A34
  3
ACAD_XREC_ROUNDTRIP
360
9A6A
  0
DICTIONARY
  5
9A44
330
99E6
100
AcDbDictionary
280
     1
281
     1
  3
ACAD_XREC_ROUNDTRIP
360
9A45
  0
DICTIONARY
  5
9A42
330
99E5
100
AcDbDictionary
280
     1
281
     1
  3
ACAD_XREC_ROUNDTRIP
360
9A43
  0
DICTIONARY
  5
9A50
330
99EC
100
AcDbDictionary
280
     1
281
     1
  3
ACAD_XREC_ROUNDTRIP
360
9A51
  0
DICTIONARY
  5
9A58
330
99F0
100
AcDbDictionary
280
     1
281
     1
  3
ACAD_XREC_ROUNDTRIP
360
9A59
  0
DICTIONARY
  5
9A4A
330
99E9
100
AcDbDictionary
280
     1
281
     1
  3
ACAD_XREC_ROUNDTRIP
360
9A4B
  0
DICTIONARY
  5
9A4E
330
99EB
100
AcDbDictionary
280
     1
281
     1
  3
ACAD_XREC_ROUNDTRIP
360
9A4F
  0
DICTIONARY
  5
9A68
330
99F8
100
AcDbDictionary
280
     1
281
     1
  3
ACAD_XREC_ROUNDTRIP
360
9A69
  0
DICTIONARY
  5
9A56
330
99EF
100
AcDbDictionary
280
     1
281
     1
  3
ACAD_XREC_ROUNDTRIP
360
9A57
  0
DICTIONARY
  5
9A3A
330
99E1
100
AcDbDictionary
280
     1
281
     1
  3
ACAD_XREC_ROUNDTRIP
360
9A3B
  0
DICTIONARY
  5
9A3C
330
99E2
100
AcDbDictionary
280
     1
281
     1
  3
ACAD_XREC_ROUNDTRIP
360
9A3D
  0
DICTIONARY
  5
9A3E
330
99E3
100
AcDbDictionary
280
     1
281
     1
  3
ACAD_XREC_ROUNDTRIP
360
9A3F
  0
DICTIONARY
  5
9A40
330
99E4
100
AcDbDictionary
280
     1
281
     1
  3
ACAD_XREC_ROUNDTRIP
360
9A41
  0
DICTIONARY
  5
9A48
330
99E8
100
AcDbDictionary
280
     1
281
     1
  3
ACAD_XREC_ROUNDTRIP
360
9A49
  0
DICTIONARY
  5
9A64
330
99F6
100
AcDbDictionary
280
     1
281
     1
  3
ACAD_XREC_ROUNDTRIP
360
9A65
  0
DICTIONARY
  5
9A54
330
99EE
100
AcDbDictionary
280
     1
281
     1
  3
ACAD_XREC_ROUNDTRIP
360
9A55
  0
DICTIONARY
  5
9A66
330
99F7
100
AcDbDictionary
280
     1
281
     1
  3
ACAD_XREC_ROUNDTRIP
360
9A67
  0
DICTIONARY
  5
9A4C
330
99EA
100
AcDbDictionary
280
     1
281
     1
  3
ACAD_XREC_ROUNDTRIP
360
9A4D
  0
DICTIONARY
  5
9A62
330
99F5
100
AcDbDictionary
280
     1
281
     1
  3
ACAD_XREC_ROUNDTRIP
360
9A63
  0
DICTIONARY
  5
9A60
330
99F4
100
AcDbDictionary
280
     1
281
     1
  3
ACAD_XREC_ROUNDTRIP
360
9A61
  0
DICTIONARY
  5
9A5A
330
99F1
100
AcDbDictionary
280
     1
281
     1
  3
ACAD_XREC_ROUNDTRIP
360
9A5B
  0
DICTIONARY
  5
9A5C
330
99F2
100
AcDbDictionary
280
     1
281
     1
  3
ACAD_XREC_ROUNDTRIP
360
9A5D
  0
DICTIONARY
  5
9A52
330
99ED
100
AcDbDictionary
280
     1
281
     1
  3
ACAD_XREC_ROUNDTRIP
360
9A53
  0
DICTIONARY
  5
9A46
330
99E7
100
AcDbDictionary
280
     1
281
     1
  3
ACAD_XREC_ROUNDTRIP
360
9A47
  0
DICTIONARY
  5
9A5E
330
99F3
100
AcDbDictionary
280
     1
281
     1
  3
ACAD_XREC_ROUNDTRIP
360
9A5F
  0
XRECORD
  5
9A6F
102
{ACAD_REACTORS
330
9A6E
102
}
330
9A6E
100
AcDbXrecord
280
     1
102
DISPLAYNAME
  1
Imperial24
102
FLAGS
 90
        0
  0
XRECORD
  5
9A71
102
{ACAD_REACTORS
330
9A70
102
}
330
9A70
100
AcDbXrecord
280
     1
102
SHADEPLOT
 70
     0
102
SHADEPLOTRESLEVEL
 70
     2
102
SHADEPLOTCUSTOMDPI
 70
   300
  0
XRECORD
  5
9A73
102
{ACAD_REACTORS
330
9A72
102
}
330
9A72
100
AcDbXrecord
280
     1
102
SHADEPLOT
 70
     0
102
SHADEPLOTRESLEVEL
 70
     2
102
SHADEPLOTCUSTOMDPI
 70
   300
  0
XRECORD
  5
9A38
102
{ACAD_REACTORS
330
99D1
102
}
330
99D1
100
AcDbXrecord
280
     1
102
MATERIAL
148
0.0
149
0.0
149
0.0
 93
        0
 94
      127
282
     0
 72
     0
 77
     0
171
     0
175
     0
179
     0
273
     0
  0
XRECORD
  5
99D3
102
{ACAD_REACTORS
330
99D1
102
}
330
99D1
100
AcDbXrecord
280
     1
270
     1
271
     1
  0
XRECORD
  5
99D2
102
{ACAD_REACTORS
330
99D1
102
}
330
99D1
100
AcDbXrecord
280
     1
270
     1
271
     1
  0
XRECORD
  5
99D6
102
{ACAD_REACTORS
330
99D1
102
}
330
99D1
100
AcDbXrecord
280
     1
270
     1
271
     1
  0
XRECORD
  5
99D5
102
{ACAD_REACTORS
330
99D1
102
}
330
99D1
100
AcDbXrecord
280
     1
270
     1
271
     1
  0
XRECORD
  5
99D7
102
{ACAD_REACTORS
330
99D1
102
}
330
99D1
100
AcDbXrecord
280
     1
270
     1
271
     1
  0
XRECORD
  5
99D4
102
{ACAD_REACTORS
330
99D1
102
}
330
99D1
100
AcDbXrecord
280
     1
270
     1
271
     1
  0
XRECORD
  5
9A37
102
{ACAD_REACTORS
330
99C9
102
}
330
99C9
100
AcDbXrecord
280
     1
102
MATERIAL
148
0.0
149
0.0
149
0.0
 93
        0
 94
      127
282
     0
 72
     0
 77
     0
171
     0
175
     0
179
     0
273
     0
  0
XRECORD
  5
99CB
102
{ACAD_REACTORS
330
99C9
102
}
330
99C9
100
AcDbXrecord
280
     1
270
     1
271
     1
  0
XRECORD
  5
99CA
102
{ACAD_REACTORS
330
99C9
102
}
330
99C9
100
AcDbXrecord
280
     1
270
     1
271
     1
  0
XRECORD
  5
99CE
102
{ACAD_REACTORS
330
99C9
102
}
330
99C9
100
AcDbXrecord
280
     1
270
     1
271
     1
  0
XRECORD
  5
99CD
102
{ACAD_REACTORS
330
99C9
102
}
330
99C9
100
AcDbXrecord
280
     1
270
     1
271
     1
  0
XRECORD
  5
99CF
102
{ACAD_REACTORS
330
99C9
102
}
330
99C9
100
AcDbXrecord
280
     1
270
     1
271
     1
  0
XRECORD
  5
99CC
102
{ACAD_REACTORS
330
99C9
102
}
330
99C9
100
AcDbXrecord
280
     1
270
     1
271
     1
  0
XRECORD
  5
9A39
102
{ACAD_REACTORS
330
99D9
102
}
330
99D9
100
AcDbXrecord
280
     1
102
MATERIAL
148
0.0
149
0.0
149
0.0
 93
        0
 94
      127
282
     0
 72
     0
 77
     0
171
     0
175
     0
179
     0
273
     0
  0
XRECORD
  5
99DB
102
{ACAD_REACTORS
330
99D9
102
}
330
99D9
100
AcDbXrecord
280
     1
270
     1
271
     1
  0
XRECORD
  5
99DA
102
{ACAD_REACTORS
330
99D9
102
}
330
99D9
100
AcDbXrecord
280
     1
270
     1
271
     1
  0
XRECORD
  5
99DE
102
{ACAD_REACTORS
330
99D9
102
}
330
99D9
100
AcDbXrecord
280
     1
270
     1
271
     1
  0
XRECORD
  5
99DD
102
{ACAD_REACTORS
330
99D9
102
}
330
99D9
100
AcDbXrecord
280
     1
270
     1
271
     1
  0
XRECORD
  5
99DF
102
{ACAD_REACTORS
330
99D9
102
}
330
99D9
100
AcDbXrecord
280
     1
270
     1
271
     1
  0
XRECORD
  5
99DC
102
{ACAD_REACTORS
330
99D9
102
}
330
99D9
100
AcDbXrecord
280
     1
270
     1
271
     1
  0
XRECORD
  5
9A6D
102
{ACAD_REACTORS
330
9A6C
102
}
330
9A6C
100
AcDbXrecord
280
     1
102
DISPLAYNAME
  1
Imperial24
102
FLAGS
 90
        0
  0
CELLSTYLEMAP
  5
9A34
102
{ACAD_REACTORS
330
9A33
102
}
330
9A33
100
AcDbCellStyleMap
 90
        3
300
CELLSTYLE
  1
TABLEFORMAT_BEGIN
 90
        5
170
     1
 91
        0
 92
    32768
 62
   257
 93
        1
300
CONTENTFORMAT
  1
CONTENTFORMAT_BEGIN
 90
        0
 91
        0
 92
      512
 93
        0
300

 40
0.0
140
1.0
 94
        5
 62
     0
340
97AF
144
0.25
309
CONTENTFORMAT_END
171
     0
 94
        0
309
TABLEFORMAT_END
  1
CELLSTYLE_BEGIN
 90
        1
 91
        1
300
_TITLE
309
CELLSTYLE_END
300
CELLSTYLE
  1
TABLEFORMAT_BEGIN
 90
        5
170
     1
 91
        0
 92
        0
 62
   257
 93
        1
300
CONTENTFORMAT
  1
CONTENTFORMAT_BEGIN
 90
        0
 91
        0
 92
      512
 93
        0
300

 40
0.0
140
1.0
 94
        5
 62
     0
340
97AF
144
0.18
309
CONTENTFORMAT_END
171
     0
 94
        0
309
TABLEFORMAT_END
  1
CELLSTYLE_BEGIN
 90
        2
 91
        1
300
_HEADER
309
CELLSTYLE_END
300
CELLSTYLE
  1
TABLEFORMAT_BEGIN
 90
        5
170
     1
 91
        0
 92
        0
 62
   257
 93
        1
300
CONTENTFORMAT
  1
CONTENTFORMAT_BEGIN
 90
        0
 91
        0
 92
      512
 93
        0
300

 40
0.0
140
1.0
 94
        2
 62
     0
340
97AF
144
0.18
309
CONTENTFORMAT_END
171
     0
 94
        0
309
TABLEFORMAT_END
  1
CELLSTYLE_BEGIN
 90
        3
 91
        2
300
_DATA
309
CELLSTYLE_END
  0
XRECORD
  5
9A6A
102
{ACAD_REACTORS
330
9A33
102
}
330
9A33
100
AcDbXrecord
280
     1
102
ACAD_ROUNDTRIP_PRE2007_TABLESTYLE
 90
      512
 91
        0
  1

 92
      512
 93
        0
  2

 94
      512
 95
        0
  3

  0
XRECORD
  5
9A45
102
{ACAD_REACTORS
330
9A44
102
}
330
9A44
100
AcDbXrecord
280
     1
102
RTVSPost2010Prop28
280
     1
102
RTVSPost2010PropOp28
 70
     1
102
RTVSPost2010Prop29
280
     1
102
RTVSPost2010PropOp29
 70
     1
102
RTVSPost2010Prop30
280
     0
102
RTVSPost2010PropOp30
 70
     1
102
RTVSPost2010Prop31
280
     0
102
RTVSPost2010PropOp31
 70
     1
102
RTVSPost2010Prop32
280
     0
102
RTVSPost2010PropOp32
 70
     1
102
RTVSPost2010Prop33
280
     0
102
RTVSPost2010PropOp33
 70
     1
102
RTVSPost2010Prop34
280
     0
102
RTVSPost2010PropOp34
 70
     1
102
RTVSPost2010Prop35
280
     0
102
RTVSPost2010PropOp35
 70
     1
102
RTVSPost2010Prop36
280
     0
102
RTVSPost2010PropOp36
 70
     1
102
RTVSPost2010Prop37
 90
       50
102
RTVSPost2010PropOp37
 70
     1
102
RTVSPost2010Prop38
140
0.0
102
RTVSPost2010PropOp38
 70
     1
102
RTVSPost2010Prop39
140
1.0
102
RTVSPost2010PropOp39
 70
     1
102
RTVSPost2010Prop40
 90
        0
102
RTVSPost2010PropOp40
 70
     1
102
RTVSPost2010Prop41ColorIndex
 90
       18
102
RTVSPost2010Prop41ColorRGB
 90
        0
102
RTVSPost2010PropOp41
 70
     1
102
RTVSPost2010Prop42
 90
       50
102
RTVSPost2010PropOp42
 70
     1
102
RTVSPost2010Prop43
 90
        3
102
RTVSPost2010PropOp43
 70
     1
102
RTVSPost2010Prop44ColorIndex
 90
        5
102
RTVSPost2010Prop44ColorRGB
 90
      255
102
RTVSPost2010PropOp44
 70
     1
102
RTVSPost2010Prop45
280
     0
102
RTVSPost2010PropOp45
 70
     1
102
RTVSPost2010Prop46
 90
       50
102
RTVSPost2010PropOp46
 70
     1
102
RTVSPost2010Prop47
 90
       50
102
RTVSPost2010PropOp47
 70
     1
102
RTVSPost2010Prop48
 90
       50
102
RTVSPost2010PropOp48
 70
     1
102
RTVSPost2010Prop49
280
     0
102
RTVSPost2010PropOp49
 70
     1
102
RTVSPost2010Prop50
 90
       50
102
RTVSPost2010PropOp50
 70
     1
102
RTVSPost2010Prop51ColorIndex
 90
      256
102
RTVSPost2010Prop51ColorRGB
 90
-16777216
102
RTVSPost2010PropOp51
 70
     0
102
RTVSPost2010Prop52
140
1.0
102
RTVSPost2010PropOp52
 70
     0
102
RTVSPost2010Prop53
 90
        2
102
RTVSPost2010PropOp53
 70
     1
102
RTVSPost2010Prop54
  1
strokes_ogs.tif
102
RTVSPost2010PropOp54
 70
     1
102
RTVSPost2010Prop55
280
     0
102
RTVSPost2010PropOp55
 70
     1
102
RTVSPost2010Prop56
140
1.0
102
RTVSPost2010PropOp56
 70
     1
102
RTVSPost2010Prop57
140
1.0
102
RTVSPost2010PropOp57
 70
     1
102
RTVSPropertyOp0
 70
     1
102
RTVSPropertyOp1
 70
     1
102
RTVSPropertyOp2
 70
     1
102
RTVSPropertyOp3
 70
     1
102
RTVSPropertyOp4
 70
     1
102
RTVSPropertyOp5
 70
     1
102
RTVSPropertyOp6
 70
     1
102
RTVSPropertyOp7
 70
     1
102
RTVSPropertyOp8
 70
     1
102
RTVSPropertyOp9
 70
     1
102
RTVSPropertyOp10
 70
     1
102
RTVSPropertyOp11
 70
     1
102
RTVSPropertyOp12
 70
     1
102
RTVSPropertyOp13
 70
     1
102
RTVSPropertyOp14
 70
     1
102
RTVSPropertyOp15
 70
     1
102
RTVSPropertyOp16
 70
     1
102
RTVSPropertyOp17
 70
     1
102
RTVSPropertyOp18
 70
     1
102
RTVSPropertyOp19
 70
     1
102
RTVSPropertyOp20
 70
     1
102
RTVSPropertyOp21
 70
     1
102
RTVSPropertyOp22
 70
     1
102
RTVSPropertyOp23
 70
     1
102
RTVSPropertyOp24
 70
     1
102
RTVSPropertyOp25
 70
     1
102
RTVSPropertyOp26
 70
     1
102
RTVSPropertyOp27
 70
     1
102
RTVSPropertyOp28
 70
     1
102
RTVSPropertyOp29
 70
     1
102
RTVSPropertyOp30
 70
     1
102
RTVSPropertyOp31
 70
     1
102
RTVSPropertyOp32
 70
     1
102
RTVSPropertyOp33
 70
     1
102
RTVSPropertyOp34
 70
     1
102
RTVSPropertyOp35
 70
     1
102
RTVSPropertyOp36
 70
     1
102
RTVSPropertyOp37
 70
     1
102
RTVSPropertyOp38
 70
     1
102
RTVSPropertyOp39
 70
     1
102
RTVSPropertyOp40
 70
     1
102
RTVSPropertyOp41
 70
     1
102
RTVSPropertyOp42
 70
     1
102
RTVSPropertyOp43
 70
     1
102
RTVSPropertyOp44
 70
     1
102
RTVSPropertyOp45
 70
     1
102
RTVSPropertyOp46
 70
     1
102
RTVSPropertyOp47
 70
     1
102
RTVSPropertyOp48
 70
     1
102
RTVSPropertyOp49
 70
     1
102
RTVSPropertyOp50
 70
     1
102
RTVSPropertyOp51
 70
     0
102
RTVSPropertyOp52
 70
     0
102
RTVSPropertyOp53
 70
     1
102
RTVSPropertyOp54
 70
     1
102
RTVSPropertyOp55
 70
     1
102
RTVSPropertyOp56
 70
     1
102
RTVSPropertyOp57
 70
     1
102
RTVSPropertyOp58
 70
     1
102
RTVSPropertyOp59
 70
     1
102
RTVSPropertyOp60
 70
     1
102
RTVSPropertyOp61
 70
     1
102
RTVSPropertyOp62
 70
     1
  0
XRECORD
  5
9A43
102
{ACAD_REACTORS
330
9A42
102
}
330
9A42
100
AcDbXrecord
280
     1
102
RTVSPost2010Prop28
280
     0
102
RTVSPost2010PropOp28
 70
     1
102
RTVSPost2010Prop29
280
     1
102
RTVSPost2010PropOp29
 70
     1
102
RTVSPost2010Prop30
280
     1
102
RTVSPost2010PropOp30
 70
     1
102
RTVSPost2010Prop31
280
     0
102
RTVSPost2010PropOp31
 70
     1
102
RTVSPost2010Prop32
280
     0
102
RTVSPost2010PropOp32
 70
     1
102
RTVSPost2010Prop33
280
     0
102
RTVSPost2010PropOp33
 70
     1
102
RTVSPost2010Prop34
280
     0
102
RTVSPost2010PropOp34
 70
     1
102
RTVSPost2010Prop35
280
     0
102
RTVSPost2010PropOp35
 70
     1
102
RTVSPost2010Prop36
280
     0
102
RTVSPost2010PropOp36
 70
     1
102
RTVSPost2010Prop37
 90
       50
102
RTVSPost2010PropOp37
 70
     1
102
RTVSPost2010Prop38
140
0.0
102
RTVSPost2010PropOp38
 70
     1
102
RTVSPost2010Prop39
140
1.0
102
RTVSPost2010PropOp39
 70
     1
102
RTVSPost2010Prop40
 90
        0
102
RTVSPost2010PropOp40
 70
     1
102
RTVSPost2010Prop41ColorIndex
 90
       18
102
RTVSPost2010Prop41ColorRGB
 90
        0
102
RTVSPost2010PropOp41
 70
     1
102
RTVSPost2010Prop42
 90
       50
102
RTVSPost2010PropOp42
 70
     1
102
RTVSPost2010Prop43
 90
        3
102
RTVSPost2010PropOp43
 70
     1
102
RTVSPost2010Prop44ColorIndex
 90
        5
102
RTVSPost2010Prop44ColorRGB
 90
      255
102
RTVSPost2010PropOp44
 70
     1
102
RTVSPost2010Prop45
280
     0
102
RTVSPost2010PropOp45
 70
     1
102
RTVSPost2010Prop46
 90
       50
102
RTVSPost2010PropOp46
 70
     1
102
RTVSPost2010Prop47
 90
       50
102
RTVSPost2010PropOp47
 70
     1
102
RTVSPost2010Prop48
 90
       50
102
RTVSPost2010PropOp48
 70
     1
102
RTVSPost2010Prop49
280
     0
102
RTVSPost2010PropOp49
 70
     1
102
RTVSPost2010Prop50
 90
       50
102
RTVSPost2010PropOp50
 70
     1
102
RTVSPost2010Prop51ColorIndex
 90
      256
102
RTVSPost2010Prop51ColorRGB
 90
-16777216
102
RTVSPost2010PropOp51
 70
     0
102
RTVSPost2010Prop52
140
1.0
102
RTVSPost2010PropOp52
 70
     0
102
RTVSPost2010Prop53
 90
        2
102
RTVSPost2010PropOp53
 70
     1
102
RTVSPost2010Prop54
  1
strokes_ogs.tif
102
RTVSPost2010PropOp54
 70
     1
102
RTVSPost2010Prop55
280
     0
102
RTVSPost2010PropOp55
 70
     1
102
RTVSPost2010Prop56
140
1.0
102
RTVSPost2010PropOp56
 70
     1
102
RTVSPost2010Prop57
140
1.0
102
RTVSPost2010PropOp57
 70
     1
102
RTVSPropertyOp0
 70
     1
102
RTVSPropertyOp1
 70
     1
102
RTVSPropertyOp2
 70
     1
102
RTVSPropertyOp3
 70
     1
102
RTVSPropertyOp4
 70
     1
102
RTVSPropertyOp5
 70
     1
102
RTVSPropertyOp6
 70
     1
102
RTVSPropertyOp7
 70
     1
102
RTVSPropertyOp8
 70
     1
102
RTVSPropertyOp9
 70
     1
102
RTVSPropertyOp10
 70
     1
102
RTVSPropertyOp11
 70
     1
102
RTVSPropertyOp12
 70
     1
102
RTVSPropertyOp13
 70
     1
102
RTVSPropertyOp14
 70
     1
102
RTVSPropertyOp15
 70
     1
102
RTVSPropertyOp16
 70
     1
102
RTVSPropertyOp17
 70
     1
102
RTVSPropertyOp18
 70
     1
102
RTVSPropertyOp19
 70
     1
102
RTVSPropertyOp20
 70
     1
102
RTVSPropertyOp21
 70
     1
102
RTVSPropertyOp22
 70
     1
102
RTVSPropertyOp23
 70
     1
102
RTVSPropertyOp24
 70
     1
102
RTVSPropertyOp25
 70
     1
102
RTVSPropertyOp26
 70
     1
102
RTVSPropertyOp27
 70
     1
102
RTVSPropertyOp28
 70
     1
102
RTVSPropertyOp29
 70
     1
102
RTVSPropertyOp30
 70
     1
102
RTVSPropertyOp31
 70
     1
102
RTVSPropertyOp32
 70
     1
102
RTVSPropertyOp33
 70
     1
102
RTVSPropertyOp34
 70
     1
102
RTVSPropertyOp35
 70
     1
102
RTVSPropertyOp36
 70
     1
102
RTVSPropertyOp37
 70
     1
102
RTVSPropertyOp38
 70
     1
102
RTVSPropertyOp39
 70
     1
102
RTVSPropertyOp40
 70
     1
102
RTVSPropertyOp41
 70
     1
102
RTVSPropertyOp42
 70
     1
102
RTVSPropertyOp43
 70
     1
102
RTVSPropertyOp44
 70
     1
102
RTVSPropertyOp45
 70
     1
102
RTVSPropertyOp46
 70
     1
102
RTVSPropertyOp47
 70
     1
102
RTVSPropertyOp48
 70
     1
102
RTVSPropertyOp49
 70
     1
102
RTVSPropertyOp50
 70
     1
102
RTVSPropertyOp51
 70
     0
102
RTVSPropertyOp52
 70
     0
102
RTVSPropertyOp53
 70
     1
102
RTVSPropertyOp54
 70
     1
102
RTVSPropertyOp55
 70
     1
102
RTVSPropertyOp56
 70
     1
102
RTVSPropertyOp57
 70
     1
102
RTVSPropertyOp58
 70
     1
102
RTVSPropertyOp59
 70
     1
102
RTVSPropertyOp60
 70
     1
102
RTVSPropertyOp61
 70
     1
102
RTVSPropertyOp62
 70
     1
  0
XRECORD
  5
9A51
102
{ACAD_REACTORS
330
9A50
102
}
330
9A50
100
AcDbXrecord
280
     1
102
RTVSPost2010Prop28
280
     0
102
RTVSPost2010PropOp28
 70
     1
102
RTVSPost2010Prop29
280
     1
102
RTVSPost2010PropOp29
 70
     1
102
RTVSPost2010Prop30
280
     1
102
RTVSPost2010PropOp30
 70
     1
102
RTVSPost2010Prop31
280
     0
102
RTVSPost2010PropOp31
 70
     1
102
RTVSPost2010Prop32
280
     0
102
RTVSPost2010PropOp32
 70
     1
102
RTVSPost2010Prop33
280
     0
102
RTVSPost2010PropOp33
 70
     1
102
RTVSPost2010Prop34
280
     0
102
RTVSPost2010PropOp34
 70
     1
102
RTVSPost2010Prop35
280
     0
102
RTVSPost2010PropOp35
 70
     1
102
RTVSPost2010Prop36
280
     0
102
RTVSPost2010PropOp36
 70
     1
102
RTVSPost2010Prop37
 90
       50
102
RTVSPost2010PropOp37
 70
     1
102
RTVSPost2010Prop38
140
0.0
102
RTVSPost2010PropOp38
 70
     1
102
RTVSPost2010Prop39
140
1.0
102
RTVSPost2010PropOp39
 70
     1
102
RTVSPost2010Prop40
 90
        0
102
RTVSPost2010PropOp40
 70
     1
102
RTVSPost2010Prop41ColorIndex
 90
       18
102
RTVSPost2010Prop41ColorRGB
 90
        0
102
RTVSPost2010PropOp41
 70
     1
102
RTVSPost2010Prop42
 90
       50
102
RTVSPost2010PropOp42
 70
     1
102
RTVSPost2010Prop43
 90
        3
102
RTVSPost2010PropOp43
 70
     1
102
RTVSPost2010Prop44ColorIndex
 90
        5
102
RTVSPost2010Prop44ColorRGB
 90
      255
102
RTVSPost2010PropOp44
 70
     1
102
RTVSPost2010Prop45
280
     0
102
RTVSPost2010PropOp45
 70
     1
102
RTVSPost2010Prop46
 90
       50
102
RTVSPost2010PropOp46
 70
     1
102
RTVSPost2010Prop47
 90
       50
102
RTVSPost2010PropOp47
 70
     1
102
RTVSPost2010Prop48
 90
       50
102
RTVSPost2010PropOp48
 70
     1
102
RTVSPost2010Prop49
280
     0
102
RTVSPost2010PropOp49
 70
     1
102
RTVSPost2010Prop50
 90
       50
102
RTVSPost2010PropOp50
 70
     1
102
RTVSPost2010Prop51ColorIndex
 90
      256
102
RTVSPost2010Prop51ColorRGB
 90
-16777216
102
RTVSPost2010PropOp51
 70
     0
102
RTVSPost2010Prop52
140
1.0
102
RTVSPost2010PropOp52
 70
     0
102
RTVSPost2010Prop53
 90
        2
102
RTVSPost2010PropOp53
 70
     1
102
RTVSPost2010Prop54
  1
strokes_ogs.tif
102
RTVSPost2010PropOp54
 70
     1
102
RTVSPost2010Prop55
280
     0
102
RTVSPost2010PropOp55
 70
     1
102
RTVSPost2010Prop56
140
1.0
102
RTVSPost2010PropOp56
 70
     1
102
RTVSPost2010Prop57
140
1.0
102
RTVSPost2010PropOp57
 70
     1
102
RTVSPropertyOp0
 70
     1
102
RTVSPropertyOp1
 70
     1
102
RTVSPropertyOp2
 70
     1
102
RTVSPropertyOp3
 70
     1
102
RTVSPropertyOp4
 70
     1
102
RTVSPropertyOp5
 70
     1
102
RTVSPropertyOp6
 70
     1
102
RTVSPropertyOp7
 70
     1
102
RTVSPropertyOp8
 70
     1
102
RTVSPropertyOp9
 70
     1
102
RTVSPropertyOp10
 70
     1
102
RTVSPropertyOp11
 70
     1
102
RTVSPropertyOp12
 70
     1
102
RTVSPropertyOp13
 70
     1
102
RTVSPropertyOp14
 70
     1
102
RTVSPropertyOp15
 70
     1
102
RTVSPropertyOp16
 70
     1
102
RTVSPropertyOp17
 70
     1
102
RTVSPropertyOp18
 70
     1
102
RTVSPropertyOp19
 70
     1
102
RTVSPropertyOp20
 70
     1
102
RTVSPropertyOp21
 70
     1
102
RTVSPropertyOp22
 70
     1
102
RTVSPropertyOp23
 70
     1
102
RTVSPropertyOp24
 70
     1
102
RTVSPropertyOp25
 70
     1
102
RTVSPropertyOp26
 70
     1
102
RTVSPropertyOp27
 70
     1
102
RTVSPropertyOp28
 70
     1
102
RTVSPropertyOp29
 70
     1
102
RTVSPropertyOp30
 70
     1
102
RTVSPropertyOp31
 70
     1
102
RTVSPropertyOp32
 70
     1
102
RTVSPropertyOp33
 70
     1
102
RTVSPropertyOp34
 70
     1
102
RTVSPropertyOp35
 70
     1
102
RTVSPropertyOp36
 70
     1
102
RTVSPropertyOp37
 70
     1
102
RTVSPropertyOp38
 70
     1
102
RTVSPropertyOp39
 70
     1
102
RTVSPropertyOp40
 70
     1
102
RTVSPropertyOp41
 70
     1
102
RTVSPropertyOp42
 70
     1
102
RTVSPropertyOp43
 70
     1
102
RTVSPropertyOp44
 70
     1
102
RTVSPropertyOp45
 70
     1
102
RTVSPropertyOp46
 70
     1
102
RTVSPropertyOp47
 70
     1
102
RTVSPropertyOp48
 70
     1
102
RTVSPropertyOp49
 70
     1
102
RTVSPropertyOp50
 70
     1
102
RTVSPropertyOp51
 70
     0
102
RTVSPropertyOp52
 70
     0
102
RTVSPropertyOp53
 70
     1
102
RTVSPropertyOp54
 70
     1
102
RTVSPropertyOp55
 70
     1
102
RTVSPropertyOp56
 70
     1
102
RTVSPropertyOp57
 70
     1
102
RTVSPropertyOp58
 70
     1
102
RTVSPropertyOp59
 70
     1
102
RTVSPropertyOp60
 70
     1
102
RTVSPropertyOp61
 70
     1
102
RTVSPropertyOp62
 70
     1
  0
XRECORD
  5
9A59
102
{ACAD_REACTORS
330
9A58
102
}
330
9A58
100
AcDbXrecord
280
     1
102
RTVSPost2010Prop28
280
     0
102
RTVSPost2010PropOp28
 70
     1
102
RTVSPost2010Prop29
280
     1
102
RTVSPost2010PropOp29
 70
     1
102
RTVSPost2010Prop30
280
     1
102
RTVSPost2010PropOp30
 70
     1
102
RTVSPost2010Prop31
280
     0
102
RTVSPost2010PropOp31
 70
     1
102
RTVSPost2010Prop32
280
     0
102
RTVSPost2010PropOp32
 70
     1
102
RTVSPost2010Prop33
280
     0
102
RTVSPost2010PropOp33
 70
     1
102
RTVSPost2010Prop34
280
     0
102
RTVSPost2010PropOp34
 70
     1
102
RTVSPost2010Prop35
280
     0
102
RTVSPost2010PropOp35
 70
     1
102
RTVSPost2010Prop36
280
     0
102
RTVSPost2010PropOp36
 70
     1
102
RTVSPost2010Prop37
 90
       50
102
RTVSPost2010PropOp37
 70
     1
102
RTVSPost2010Prop38
140
0.0
102
RTVSPost2010PropOp38
 70
     1
102
RTVSPost2010Prop39
140
1.0
102
RTVSPost2010PropOp39
 70
     1
102
RTVSPost2010Prop40
 90
        0
102
RTVSPost2010PropOp40
 70
     1
102
RTVSPost2010Prop41ColorIndex
 90
       18
102
RTVSPost2010Prop41ColorRGB
 90
        0
102
RTVSPost2010PropOp41
 70
     1
102
RTVSPost2010Prop42
 90
       50
102
RTVSPost2010PropOp42
 70
     1
102
RTVSPost2010Prop43
 90
        3
102
RTVSPost2010PropOp43
 70
     1
102
RTVSPost2010Prop44ColorIndex
 90
        5
102
RTVSPost2010Prop44ColorRGB
 90
      255
102
RTVSPost2010PropOp44
 70
     1
102
RTVSPost2010Prop45
280
     0
102
RTVSPost2010PropOp45
 70
     1
102
RTVSPost2010Prop46
 90
       50
102
RTVSPost2010PropOp46
 70
     1
102
RTVSPost2010Prop47
 90
       50
102
RTVSPost2010PropOp47
 70
     1
102
RTVSPost2010Prop48
 90
       50
102
RTVSPost2010PropOp48
 70
     1
102
RTVSPost2010Prop49
280
     0
102
RTVSPost2010PropOp49
 70
     1
102
RTVSPost2010Prop50
 90
       50
102
RTVSPost2010PropOp50
 70
     1
102
RTVSPost2010Prop51ColorIndex
 90
      256
102
RTVSPost2010Prop51ColorRGB
 90
-16777216
102
RTVSPost2010PropOp51
 70
     0
102
RTVSPost2010Prop52
140
1.0
102
RTVSPost2010PropOp52
 70
     0
102
RTVSPost2010Prop53
 90
        2
102
RTVSPost2010PropOp53
 70
     1
102
RTVSPost2010Prop54
  1
strokes_ogs.tif
102
RTVSPost2010PropOp54
 70
     1
102
RTVSPost2010Prop55
280
     0
102
RTVSPost2010PropOp55
 70
     1
102
RTVSPost2010Prop56
140
1.0
102
RTVSPost2010PropOp56
 70
     1
102
RTVSPost2010Prop57
140
1.0
102
RTVSPost2010PropOp57
 70
     1
102
RTVSPropertyOp0
 70
     1
102
RTVSPropertyOp1
 70
     1
102
RTVSPropertyOp2
 70
     1
102
RTVSPropertyOp3
 70
     1
102
RTVSPropertyOp4
 70
     1
102
RTVSPropertyOp5
 70
     1
102
RTVSPropertyOp6
 70
     1
102
RTVSPropertyOp7
 70
     1
102
RTVSPropertyOp8
 70
     1
102
RTVSPropertyOp9
 70
     1
102
RTVSPropertyOp10
 70
     1
102
RTVSPropertyOp11
 70
     1
102
RTVSPropertyOp12
 70
     1
102
RTVSPropertyOp13
 70
     1
102
RTVSPropertyOp14
 70
     1
102
RTVSPropertyOp15
 70
     1
102
RTVSPropertyOp16
 70
     1
102
RTVSPropertyOp17
 70
     1
102
RTVSPropertyOp18
 70
     1
102
RTVSPropertyOp19
 70
     1
102
RTVSPropertyOp20
 70
     1
102
RTVSPropertyOp21
 70
     1
102
RTVSPropertyOp22
 70
     1
102
RTVSPropertyOp23
 70
     1
102
RTVSPropertyOp24
 70
     1
102
RTVSPropertyOp25
 70
     1
102
RTVSPropertyOp26
 70
     1
102
RTVSPropertyOp27
 70
     1
102
RTVSPropertyOp28
 70
     1
102
RTVSPropertyOp29
 70
     1
102
RTVSPropertyOp30
 70
     1
102
RTVSPropertyOp31
 70
     1
102
RTVSPropertyOp32
 70
     1
102
RTVSPropertyOp33
 70
     1
102
RTVSPropertyOp34
 70
     1
102
RTVSPropertyOp35
 70
     1
102
RTVSPropertyOp36
 70
     1
102
RTVSPropertyOp37
 70
     1
102
RTVSPropertyOp38
 70
     1
102
RTVSPropertyOp39
 70
     1
102
RTVSPropertyOp40
 70
     1
102
RTVSPropertyOp41
 70
     1
102
RTVSPropertyOp42
 70
     1
102
RTVSPropertyOp43
 70
     1
102
RTVSPropertyOp44
 70
     1
102
RTVSPropertyOp45
 70
     1
102
RTVSPropertyOp46
 70
     1
102
RTVSPropertyOp47
 70
     1
102
RTVSPropertyOp48
 70
     1
102
RTVSPropertyOp49
 70
     1
102
RTVSPropertyOp50
 70
     1
102
RTVSPropertyOp51
 70
     0
102
RTVSPropertyOp52
 70
     0
102
RTVSPropertyOp53
 70
     1
102
RTVSPropertyOp54
 70
     1
102
RTVSPropertyOp55
 70
     1
102
RTVSPropertyOp56
 70
     1
102
RTVSPropertyOp57
 70
     1
102
RTVSPropertyOp58
 70
     1
102
RTVSPropertyOp59
 70
     1
102
RTVSPropertyOp60
 70
     1
102
RTVSPropertyOp61
 70
     1
102
RTVSPropertyOp62
 70
     1
  0
XRECORD
  5
9A4B
102
{ACAD_REACTORS
330
9A4A
102
}
330
9A4A
100
AcDbXrecord
280
     1
102
RTVSPost2010Prop28
280
     0
102
RTVSPost2010PropOp28
 70
     1
102
RTVSPost2010Prop29
280
     1
102
RTVSPost2010PropOp29
 70
     1
102
RTVSPost2010Prop30
280
     1
102
RTVSPost2010PropOp30
 70
     1
102
RTVSPost2010Prop31
280
     0
102
RTVSPost2010PropOp31
 70
     1
102
RTVSPost2010Prop32
280
     0
102
RTVSPost2010PropOp32
 70
     1
102
RTVSPost2010Prop33
280
     0
102
RTVSPost2010PropOp33
 70
     1
102
RTVSPost2010Prop34
280
     0
102
RTVSPost2010PropOp34
 70
     1
102
RTVSPost2010Prop35
280
     0
102
RTVSPost2010PropOp35
 70
     1
102
RTVSPost2010Prop36
280
     0
102
RTVSPost2010PropOp36
 70
     1
102
RTVSPost2010Prop37
 90
       50
102
RTVSPost2010PropOp37
 70
     1
102
RTVSPost2010Prop38
140
0.0
102
RTVSPost2010PropOp38
 70
     1
102
RTVSPost2010Prop39
140
1.0
102
RTVSPost2010PropOp39
 70
     1
102
RTVSPost2010Prop40
 90
        0
102
RTVSPost2010PropOp40
 70
     1
102
RTVSPost2010Prop41ColorIndex
 90
       18
102
RTVSPost2010Prop41ColorRGB
 90
        0
102
RTVSPost2010PropOp41
 70
     1
102
RTVSPost2010Prop42
 90
       50
102
RTVSPost2010PropOp42
 70
     1
102
RTVSPost2010Prop43
 90
        3
102
RTVSPost2010PropOp43
 70
     1
102
RTVSPost2010Prop44ColorIndex
 90
        5
102
RTVSPost2010Prop44ColorRGB
 90
      255
102
RTVSPost2010PropOp44
 70
     1
102
RTVSPost2010Prop45
280
     0
102
RTVSPost2010PropOp45
 70
     1
102
RTVSPost2010Prop46
 90
       50
102
RTVSPost2010PropOp46
 70
     1
102
RTVSPost2010Prop47
 90
       50
102
RTVSPost2010PropOp47
 70
     1
102
RTVSPost2010Prop48
 90
       50
102
RTVSPost2010PropOp48
 70
     1
102
RTVSPost2010Prop49
280
     0
102
RTVSPost2010PropOp49
 70
     1
102
RTVSPost2010Prop50
 90
       50
102
RTVSPost2010PropOp50
 70
     1
102
RTVSPost2010Prop51ColorIndex
 90
      256
102
RTVSPost2010Prop51ColorRGB
 90
-16777216
102
RTVSPost2010PropOp51
 70
     0
102
RTVSPost2010Prop52
140
1.0
102
RTVSPost2010PropOp52
 70
     0
102
RTVSPost2010Prop53
 90
        2
102
RTVSPost2010PropOp53
 70
     1
102
RTVSPost2010Prop54
  1
strokes_ogs.tif
102
RTVSPost2010PropOp54
 70
     1
102
RTVSPost2010Prop55
280
     0
102
RTVSPost2010PropOp55
 70
     1
102
RTVSPost2010Prop56
140
1.0
102
RTVSPost2010PropOp56
 70
     1
102
RTVSPost2010Prop57
140
1.0
102
RTVSPost2010PropOp57
 70
     1
102
RTVSPropertyOp0
 70
     1
102
RTVSPropertyOp1
 70
     1
102
RTVSPropertyOp2
 70
     1
102
RTVSPropertyOp3
 70
     1
102
RTVSPropertyOp4
 70
     1
102
RTVSPropertyOp5
 70
     1
102
RTVSPropertyOp6
 70
     1
102
RTVSPropertyOp7
 70
     1
102
RTVSPropertyOp8
 70
     1
102
RTVSPropertyOp9
 70
     1
102
RTVSPropertyOp10
 70
     1
102
RTVSPropertyOp11
 70
     1
102
RTVSPropertyOp12
 70
     1
102
RTVSPropertyOp13
 70
     1
102
RTVSPropertyOp14
 70
     1
102
RTVSPropertyOp15
 70
     1
102
RTVSPropertyOp16
 70
     1
102
RTVSPropertyOp17
 70
     1
102
RTVSPropertyOp18
 70
     1
102
RTVSPropertyOp19
 70
     1
102
RTVSPropertyOp20
 70
     1
102
RTVSPropertyOp21
 70
     1
102
RTVSPropertyOp22
 70
     1
102
RTVSPropertyOp23
 70
     1
102
RTVSPropertyOp24
 70
     1
102
RTVSPropertyOp25
 70
     1
102
RTVSPropertyOp26
 70
     1
102
RTVSPropertyOp27
 70
     1
102
RTVSPropertyOp28
 70
     1
102
RTVSPropertyOp29
 70
     1
102
RTVSPropertyOp30
 70
     1
102
RTVSPropertyOp31
 70
     1
102
RTVSPropertyOp32
 70
     1
102
RTVSPropertyOp33
 70
     1
102
RTVSPropertyOp34
 70
     1
102
RTVSPropertyOp35
 70
     1
102
RTVSPropertyOp36
 70
     1
102
RTVSPropertyOp37
 70
     1
102
RTVSPropertyOp38
 70
     1
102
RTVSPropertyOp39
 70
     1
102
RTVSPropertyOp40
 70
     1
102
RTVSPropertyOp41
 70
     1
102
RTVSPropertyOp42
 70
     1
102
RTVSPropertyOp43
 70
     1
102
RTVSPropertyOp44
 70
     1
102
RTVSPropertyOp45
 70
     1
102
RTVSPropertyOp46
 70
     1
102
RTVSPropertyOp47
 70
     1
102
RTVSPropertyOp48
 70
     1
102
RTVSPropertyOp49
 70
     1
102
RTVSPropertyOp50
 70
     1
102
RTVSPropertyOp51
 70
     0
102
RTVSPropertyOp52
 70
     0
102
RTVSPropertyOp53
 70
     1
102
RTVSPropertyOp54
 70
     1
102
RTVSPropertyOp55
 70
     1
102
RTVSPropertyOp56
 70
     1
102
RTVSPropertyOp57
 70
     1
102
RTVSPropertyOp58
 70
     1
102
RTVSPropertyOp59
 70
     1
102
RTVSPropertyOp60
 70
     1
102
RTVSPropertyOp61
 70
     1
102
RTVSPropertyOp62
 70
     1
  0
XRECORD
  5
9A4F
102
{ACAD_REACTORS
330
9A4E
102
}
330
9A4E
100
AcDbXrecord
280
     1
102
RTVSPost2010Prop28
280
     0
102
RTVSPost2010PropOp28
 70
     1
102
RTVSPost2010Prop29
280
     1
102
RTVSPost2010PropOp29
 70
     1
102
RTVSPost2010Prop30
280
     1
102
RTVSPost2010PropOp30
 70
     1
102
RTVSPost2010Prop31
280
     0
102
RTVSPost2010PropOp31
 70
     1
102
RTVSPost2010Prop32
280
     0
102
RTVSPost2010PropOp32
 70
     1
102
RTVSPost2010Prop33
280
     0
102
RTVSPost2010PropOp33
 70
     1
102
RTVSPost2010Prop34
280
     0
102
RTVSPost2010PropOp34
 70
     1
102
RTVSPost2010Prop35
280
     0
102
RTVSPost2010PropOp35
 70
     1
102
RTVSPost2010Prop36
280
     0
102
RTVSPost2010PropOp36
 70
     1
102
RTVSPost2010Prop37
 90
       50
102
RTVSPost2010PropOp37
 70
     1
102
RTVSPost2010Prop38
140
0.0
102
RTVSPost2010PropOp38
 70
     1
102
RTVSPost2010Prop39
140
1.0
102
RTVSPost2010PropOp39
 70
     1
102
RTVSPost2010Prop40
 90
        0
102
RTVSPost2010PropOp40
 70
     1
102
RTVSPost2010Prop41ColorIndex
 90
       18
102
RTVSPost2010Prop41ColorRGB
 90
        0
102
RTVSPost2010PropOp41
 70
     1
102
RTVSPost2010Prop42
 90
       50
102
RTVSPost2010PropOp42
 70
     1
102
RTVSPost2010Prop43
 90
        3
102
RTVSPost2010PropOp43
 70
     1
102
RTVSPost2010Prop44ColorIndex
 90
        5
102
RTVSPost2010Prop44ColorRGB
 90
      255
102
RTVSPost2010PropOp44
 70
     1
102
RTVSPost2010Prop45
280
     0
102
RTVSPost2010PropOp45
 70
     1
102
RTVSPost2010Prop46
 90
       50
102
RTVSPost2010PropOp46
 70
     1
102
RTVSPost2010Prop47
 90
       50
102
RTVSPost2010PropOp47
 70
     1
102
RTVSPost2010Prop48
 90
       50
102
RTVSPost2010PropOp48
 70
     1
102
RTVSPost2010Prop49
280
     0
102
RTVSPost2010PropOp49
 70
     1
102
RTVSPost2010Prop50
 90
       50
102
RTVSPost2010PropOp50
 70
     1
102
RTVSPost2010Prop51ColorIndex
 90
      256
102
RTVSPost2010Prop51ColorRGB
 90
-16777216
102
RTVSPost2010PropOp51
 70
     0
102
RTVSPost2010Prop52
140
1.0
102
RTVSPost2010PropOp52
 70
     0
102
RTVSPost2010Prop53
 90
        2
102
RTVSPost2010PropOp53
 70
     1
102
RTVSPost2010Prop54
  1
strokes_ogs.tif
102
RTVSPost2010PropOp54
 70
     1
102
RTVSPost2010Prop55
280
     0
102
RTVSPost2010PropOp55
 70
     1
102
RTVSPost2010Prop56
140
1.0
102
RTVSPost2010PropOp56
 70
     1
102
RTVSPost2010Prop57
140
1.0
102
RTVSPost2010PropOp57
 70
     1
102
RTVSPropertyOp0
 70
     1
102
RTVSPropertyOp1
 70
     1
102
RTVSPropertyOp2
 70
     1
102
RTVSPropertyOp3
 70
     1
102
RTVSPropertyOp4
 70
     1
102
RTVSPropertyOp5
 70
     1
102
RTVSPropertyOp6
 70
     1
102
RTVSPropertyOp7
 70
     1
102
RTVSPropertyOp8
 70
     1
102
RTVSPropertyOp9
 70
     1
102
RTVSPropertyOp10
 70
     1
102
RTVSPropertyOp11
 70
     1
102
RTVSPropertyOp12
 70
     1
102
RTVSPropertyOp13
 70
     1
102
RTVSPropertyOp14
 70
     1
102
RTVSPropertyOp15
 70
     1
102
RTVSPropertyOp16
 70
     1
102
RTVSPropertyOp17
 70
     1
102
RTVSPropertyOp18
 70
     1
102
RTVSPropertyOp19
 70
     1
102
RTVSPropertyOp20
 70
     1
102
RTVSPropertyOp21
 70
     1
102
RTVSPropertyOp22
 70
     1
102
RTVSPropertyOp23
 70
     1
102
RTVSPropertyOp24
 70
     1
102
RTVSPropertyOp25
 70
     1
102
RTVSPropertyOp26
 70
     1
102
RTVSPropertyOp27
 70
     1
102
RTVSPropertyOp28
 70
     1
102
RTVSPropertyOp29
 70
     1
102
RTVSPropertyOp30
 70
     1
102
RTVSPropertyOp31
 70
     1
102
RTVSPropertyOp32
 70
     1
102
RTVSPropertyOp33
 70
     1
102
RTVSPropertyOp34
 70
     1
102
RTVSPropertyOp35
 70
     1
102
RTVSPropertyOp36
 70
     1
102
RTVSPropertyOp37
 70
     1
102
RTVSPropertyOp38
 70
     1
102
RTVSPropertyOp39
 70
     1
102
RTVSPropertyOp40
 70
     1
102
RTVSPropertyOp41
 70
     1
102
RTVSPropertyOp42
 70
     1
102
RTVSPropertyOp43
 70
     1
102
RTVSPropertyOp44
 70
     1
102
RTVSPropertyOp45
 70
     1
102
RTVSPropertyOp46
 70
     1
102
RTVSPropertyOp47
 70
     1
102
RTVSPropertyOp48
 70
     1
102
RTVSPropertyOp49
 70
     1
102
RTVSPropertyOp50
 70
     1
102
RTVSPropertyOp51
 70
     0
102
RTVSPropertyOp52
 70
     0
102
RTVSPropertyOp53
 70
     1
102
RTVSPropertyOp54
 70
     1
102
RTVSPropertyOp55
 70
     1
102
RTVSPropertyOp56
 70
     1
102
RTVSPropertyOp57
 70
     1
102
RTVSPropertyOp58
 70
     1
102
RTVSPropertyOp59
 70
     1
102
RTVSPropertyOp60
 70
     1
102
RTVSPropertyOp61
 70
     1
102
RTVSPropertyOp62
 70
     1
  0
XRECORD
  5
9A69
102
{ACAD_REACTORS
330
9A68
102
}
330
9A68
100
AcDbXrecord
280
     1
102
RTVSPost2010Prop28
280
     0
102
RTVSPost2010PropOp28
 70
     1
102
RTVSPost2010Prop29
280
     1
102
RTVSPost2010PropOp29
 70
     1
102
RTVSPost2010Prop30
280
     1
102
RTVSPost2010PropOp30
 70
     1
102
RTVSPost2010Prop31
280
     0
102
RTVSPost2010PropOp31
 70
     1
102
RTVSPost2010Prop32
280
     0
102
RTVSPost2010PropOp32
 70
     1
102
RTVSPost2010Prop33
280
     0
102
RTVSPost2010PropOp33
 70
     1
102
RTVSPost2010Prop34
280
     0
102
RTVSPost2010PropOp34
 70
     1
102
RTVSPost2010Prop35
280
     0
102
RTVSPost2010PropOp35
 70
     1
102
RTVSPost2010Prop36
280
     0
102
RTVSPost2010PropOp36
 70
     1
102
RTVSPost2010Prop37
 90
       50
102
RTVSPost2010PropOp37
 70
     0
102
RTVSPost2010Prop38
140
0.0
102
RTVSPost2010PropOp38
 70
     0
102
RTVSPost2010Prop39
140
1.0
102
RTVSPost2010PropOp39
 70
     0
102
RTVSPost2010Prop40
 90
        0
102
RTVSPost2010PropOp40
 70
     0
102
RTVSPost2010Prop41ColorIndex
 90
       18
102
RTVSPost2010Prop41ColorRGB
 90
        0
102
RTVSPost2010PropOp41
 70
     0
102
RTVSPost2010Prop42
 90
       50
102
RTVSPost2010PropOp42
 70
     0
102
RTVSPost2010Prop43
 90
        3
102
RTVSPost2010PropOp43
 70
     0
102
RTVSPost2010Prop44ColorIndex
 90
        5
102
RTVSPost2010Prop44ColorRGB
 90
      255
102
RTVSPost2010PropOp44
 70
     0
102
RTVSPost2010Prop45
280
     0
102
RTVSPost2010PropOp45
 70
     1
102
RTVSPost2010Prop46
 90
       50
102
RTVSPost2010PropOp46
 70
     0
102
RTVSPost2010Prop47
 90
       50
102
RTVSPost2010PropOp47
 70
     0
102
RTVSPost2010Prop48
 90
       50
102
RTVSPost2010PropOp48
 70
     0
102
RTVSPost2010Prop49
280
     0
102
RTVSPost2010PropOp49
 70
     1
102
RTVSPost2010Prop50
 90
       50
102
RTVSPost2010PropOp50
 70
     0
102
RTVSPost2010Prop51ColorIndex
 90
      256
102
RTVSPost2010Prop51ColorRGB
 90
-16777216
102
RTVSPost2010PropOp51
 70
     0
102
RTVSPost2010Prop52
140
1.0
102
RTVSPost2010PropOp52
 70
     0
102
RTVSPost2010Prop53
 90
        2
102
RTVSPost2010PropOp53
 70
     0
102
RTVSPost2010Prop54
  1
strokes_ogs.tif
102
RTVSPost2010PropOp54
 70
     0
102
RTVSPost2010Prop55
280
     0
102
RTVSPost2010PropOp55
 70
     1
102
RTVSPost2010Prop56
140
1.0
102
RTVSPost2010PropOp56
 70
     0
102
RTVSPost2010Prop57
140
1.0
102
RTVSPost2010PropOp57
 70
     0
102
RTVSPropertyOp0
 70
     0
102
RTVSPropertyOp1
 70
     0
102
RTVSPropertyOp2
 70
     0
102
RTVSPropertyOp3
 70
     0
102
RTVSPropertyOp4
 70
     0
102
RTVSPropertyOp5
 70
     0
102
RTVSPropertyOp6
 70
     0
102
RTVSPropertyOp7
 70
     0
102
RTVSPropertyOp8
 70
     0
102
RTVSPropertyOp9
 70
     0
102
RTVSPropertyOp10
 70
     0
102
RTVSPropertyOp11
 70
     0
102
RTVSPropertyOp12
 70
     0
102
RTVSPropertyOp13
 70
     0
102
RTVSPropertyOp14
 70
     2
102
RTVSPropertyOp15
 70
     0
102
RTVSPropertyOp16
 70
     0
102
RTVSPropertyOp17
 70
     0
102
RTVSPropertyOp18
 70
     0
102
RTVSPropertyOp19
 70
     0
102
RTVSPropertyOp20
 70
     0
102
RTVSPropertyOp21
 70
     0
102
RTVSPropertyOp22
 70
     0
102
RTVSPropertyOp23
 70
     0
102
RTVSPropertyOp24
 70
     0
102
RTVSPropertyOp25
 70
     0
102
RTVSPropertyOp26
 70
     0
102
RTVSPropertyOp27
 70
     0
102
RTVSPropertyOp28
 70
     1
102
RTVSPropertyOp29
 70
     1
102
RTVSPropertyOp30
 70
     1
102
RTVSPropertyOp31
 70
     1
102
RTVSPropertyOp32
 70
     1
102
RTVSPropertyOp33
 70
     1
102
RTVSPropertyOp34
 70
     1
102
RTVSPropertyOp35
 70
     1
102
RTVSPropertyOp36
 70
     1
102
RTVSPropertyOp37
 70
     0
102
RTVSPropertyOp38
 70
     0
102
RTVSPropertyOp39
 70
     0
102
RTVSPropertyOp40
 70
     0
102
RTVSPropertyOp41
 70
     0
102
RTVSPropertyOp42
 70
     0
102
RTVSPropertyOp43
 70
     0
102
RTVSPropertyOp44
 70
     0
102
RTVSPropertyOp45
 70
     1
102
RTVSPropertyOp46
 70
     0
102
RTVSPropertyOp47
 70
     0
102
RTVSPropertyOp48
 70
     0
102
RTVSPropertyOp49
 70
     1
102
RTVSPropertyOp50
 70
     0
102
RTVSPropertyOp51
 70
     0
102
RTVSPropertyOp52
 70
     0
102
RTVSPropertyOp53
 70
     0
102
RTVSPropertyOp54
 70
     0
102
RTVSPropertyOp55
 70
     1
102
RTVSPropertyOp56
 70
     0
102
RTVSPropertyOp57
 70
     0
102
RTVSPropertyOp58
 70
     0
102
RTVSPropertyOp59
 70
     0
102
RTVSPropertyOp60
 70
     0
102
RTVSPropertyOp61
 70
     0
102
RTVSPropertyOp62
 70
     0
  0
XRECORD
  5
9A57
102
{ACAD_REACTORS
330
9A56
102
}
330
9A56
100
AcDbXrecord
280
     1
102
RTVSPost2010Prop28
280
     0
102
RTVSPost2010PropOp28
 70
     1
102
RTVSPost2010Prop29
280
     1
102
RTVSPost2010PropOp29
 70
     1
102
RTVSPost2010Prop30
280
     1
102
RTVSPost2010PropOp30
 70
     1
102
RTVSPost2010Prop31
280
     0
102
RTVSPost2010PropOp31
 70
     1
102
RTVSPost2010Prop32
280
     0
102
RTVSPost2010PropOp32
 70
     1
102
RTVSPost2010Prop33
280
     0
102
RTVSPost2010PropOp33
 70
     1
102
RTVSPost2010Prop34
280
     0
102
RTVSPost2010PropOp34
 70
     1
102
RTVSPost2010Prop35
280
     0
102
RTVSPost2010PropOp35
 70
     1
102
RTVSPost2010Prop36
280
     0
102
RTVSPost2010PropOp36
 70
     1
102
RTVSPost2010Prop37
 90
       50
102
RTVSPost2010PropOp37
 70
     1
102
RTVSPost2010Prop38
140
0.0
102
RTVSPost2010PropOp38
 70
     1
102
RTVSPost2010Prop39
140
1.0
102
RTVSPost2010PropOp39
 70
     1
102
RTVSPost2010Prop40
 90
        0
102
RTVSPost2010PropOp40
 70
     1
102
RTVSPost2010Prop41ColorIndex
 90
       18
102
RTVSPost2010Prop41ColorRGB
 90
        0
102
RTVSPost2010PropOp41
 70
     1
102
RTVSPost2010Prop42
 90
       50
102
RTVSPost2010PropOp42
 70
     1
102
RTVSPost2010Prop43
 90
        3
102
RTVSPost2010PropOp43
 70
     1
102
RTVSPost2010Prop44ColorIndex
 90
        5
102
RTVSPost2010Prop44ColorRGB
 90
      255
102
RTVSPost2010PropOp44
 70
     1
102
RTVSPost2010Prop45
280
     0
102
RTVSPost2010PropOp45
 70
     1
102
RTVSPost2010Prop46
 90
       50
102
RTVSPost2010PropOp46
 70
     1
102
RTVSPost2010Prop47
 90
       50
102
RTVSPost2010PropOp47
 70
     1
102
RTVSPost2010Prop48
 90
       50
102
RTVSPost2010PropOp48
 70
     1
102
RTVSPost2010Prop49
280
     0
102
RTVSPost2010PropOp49
 70
     1
102
RTVSPost2010Prop50
 90
       50
102
RTVSPost2010PropOp50
 70
     1
102
RTVSPost2010Prop51ColorIndex
 90
      256
102
RTVSPost2010Prop51ColorRGB
 90
-16777216
102
RTVSPost2010PropOp51
 70
     0
102
RTVSPost2010Prop52
140
1.0
102
RTVSPost2010PropOp52
 70
     0
102
RTVSPost2010Prop53
 90
        2
102
RTVSPost2010PropOp53
 70
     1
102
RTVSPost2010Prop54
  1
strokes_ogs.tif
102
RTVSPost2010PropOp54
 70
     1
102
RTVSPost2010Prop55
280
     0
102
RTVSPost2010PropOp55
 70
     1
102
RTVSPost2010Prop56
140
1.0
102
RTVSPost2010PropOp56
 70
     1
102
RTVSPost2010Prop57
140
1.0
102
RTVSPost2010PropOp57
 70
     1
102
RTVSPropertyOp0
 70
     1
102
RTVSPropertyOp1
 70
     1
102
RTVSPropertyOp2
 70
     1
102
RTVSPropertyOp3
 70
     1
102
RTVSPropertyOp4
 70
     1
102
RTVSPropertyOp5
 70
     1
102
RTVSPropertyOp6
 70
     1
102
RTVSPropertyOp7
 70
     1
102
RTVSPropertyOp8
 70
     1
102
RTVSPropertyOp9
 70
     1
102
RTVSPropertyOp10
 70
     1
102
RTVSPropertyOp11
 70
     1
102
RTVSPropertyOp12
 70
     1
102
RTVSPropertyOp13
 70
     1
102
RTVSPropertyOp14
 70
     1
102
RTVSPropertyOp15
 70
     1
102
RTVSPropertyOp16
 70
     1
102
RTVSPropertyOp17
 70
     1
102
RTVSPropertyOp18
 70
     1
102
RTVSPropertyOp19
 70
     1
102
RTVSPropertyOp20
 70
     1
102
RTVSPropertyOp21
 70
     1
102
RTVSPropertyOp22
 70
     1
102
RTVSPropertyOp23
 70
     1
102
RTVSPropertyOp24
 70
     1
102
RTVSPropertyOp25
 70
     1
102
RTVSPropertyOp26
 70
     1
102
RTVSPropertyOp27
 70
     1
102
RTVSPropertyOp28
 70
     1
102
RTVSPropertyOp29
 70
     1
102
RTVSPropertyOp30
 70
     1
102
RTVSPropertyOp31
 70
     1
102
RTVSPropertyOp32
 70
     1
102
RTVSPropertyOp33
 70
     1
102
RTVSPropertyOp34
 70
     1
102
RTVSPropertyOp35
 70
     1
102
RTVSPropertyOp36
 70
     1
102
RTVSPropertyOp37
 70
     1
102
RTVSPropertyOp38
 70
     1
102
RTVSPropertyOp39
 70
     1
102
RTVSPropertyOp40
 70
     1
102
RTVSPropertyOp41
 70
     1
102
RTVSPropertyOp42
 70
     1
102
RTVSPropertyOp43
 70
     1
102
RTVSPropertyOp44
 70
     1
102
RTVSPropertyOp45
 70
     1
102
RTVSPropertyOp46
 70
     1
102
RTVSPropertyOp47
 70
     1
102
RTVSPropertyOp48
 70
     1
102
RTVSPropertyOp49
 70
     1
102
RTVSPropertyOp50
 70
     1
102
RTVSPropertyOp51
 70
     0
102
RTVSPropertyOp52
 70
     0
102
RTVSPropertyOp53
 70
     1
102
RTVSPropertyOp54
 70
     1
102
RTVSPropertyOp55
 70
     1
102
RTVSPropertyOp56
 70
     1
102
RTVSPropertyOp57
 70
     1
102
RTVSPropertyOp58
 70
     1
102
RTVSPropertyOp59
 70
     1
102
RTVSPropertyOp60
 70
     1
102
RTVSPropertyOp61
 70
     1
102
RTVSPropertyOp62
 70
     1
  0
XRECORD
  5
9A3B
102
{ACAD_REACTORS
330
9A3A
102
}
330
9A3A
100
AcDbXrecord
280
     1
102
RTVSPost2010Prop28
280
     0
102
RTVSPost2010PropOp28
 70
     1
102
RTVSPost2010Prop29
280
     1
102
RTVSPost2010PropOp29
 70
     1
102
RTVSPost2010Prop30
280
     1
102
RTVSPost2010PropOp30
 70
     1
102
RTVSPost2010Prop31
280
     0
102
RTVSPost2010PropOp31
 70
     1
102
RTVSPost2010Prop32
280
     0
102
RTVSPost2010PropOp32
 70
     1
102
RTVSPost2010Prop33
280
     0
102
RTVSPost2010PropOp33
 70
     1
102
RTVSPost2010Prop34
280
     0
102
RTVSPost2010PropOp34
 70
     1
102
RTVSPost2010Prop35
280
     0
102
RTVSPost2010PropOp35
 70
     1
102
RTVSPost2010Prop36
280
     0
102
RTVSPost2010PropOp36
 70
     1
102
RTVSPost2010Prop37
 90
       50
102
RTVSPost2010PropOp37
 70
     1
102
RTVSPost2010Prop38
140
0.0
102
RTVSPost2010PropOp38
 70
     1
102
RTVSPost2010Prop39
140
1.0
102
RTVSPost2010PropOp39
 70
     1
102
RTVSPost2010Prop40
 90
        0
102
RTVSPost2010PropOp40
 70
     1
102
RTVSPost2010Prop41ColorIndex
 90
       18
102
RTVSPost2010Prop41ColorRGB
 90
        0
102
RTVSPost2010PropOp41
 70
     1
102
RTVSPost2010Prop42
 90
       50
102
RTVSPost2010PropOp42
 70
     1
102
RTVSPost2010Prop43
 90
        3
102
RTVSPost2010PropOp43
 70
     1
102
RTVSPost2010Prop44ColorIndex
 90
        5
102
RTVSPost2010Prop44ColorRGB
 90
      255
102
RTVSPost2010PropOp44
 70
     1
102
RTVSPost2010Prop45
280
     0
102
RTVSPost2010PropOp45
 70
     1
102
RTVSPost2010Prop46
 90
       50
102
RTVSPost2010PropOp46
 70
     1
102
RTVSPost2010Prop47
 90
       50
102
RTVSPost2010PropOp47
 70
     1
102
RTVSPost2010Prop48
 90
       50
102
RTVSPost2010PropOp48
 70
     1
102
RTVSPost2010Prop49
280
     0
102
RTVSPost2010PropOp49
 70
     1
102
RTVSPost2010Prop50
 90
       50
102
RTVSPost2010PropOp50
 70
     1
102
RTVSPost2010Prop51ColorIndex
 90
      256
102
RTVSPost2010Prop51ColorRGB
 90
-16777216
102
RTVSPost2010PropOp51
 70
     0
102
RTVSPost2010Prop52
140
1.0
102
RTVSPost2010PropOp52
 70
     0
102
RTVSPost2010Prop53
 90
        2
102
RTVSPost2010PropOp53
 70
     1
102
RTVSPost2010Prop54
  1
strokes_ogs.tif
102
RTVSPost2010PropOp54
 70
     1
102
RTVSPost2010Prop55
280
     0
102
RTVSPost2010PropOp55
 70
     1
102
RTVSPost2010Prop56
140
1.0
102
RTVSPost2010PropOp56
 70
     1
102
RTVSPost2010Prop57
140
1.0
102
RTVSPost2010PropOp57
 70
     1
102
RTVSPropertyOp0
 70
     1
102
RTVSPropertyOp1
 70
     1
102
RTVSPropertyOp2
 70
     1
102
RTVSPropertyOp3
 70
     1
102
RTVSPropertyOp4
 70
     1
102
RTVSPropertyOp5
 70
     1
102
RTVSPropertyOp6
 70
     1
102
RTVSPropertyOp7
 70
     1
102
RTVSPropertyOp8
 70
     1
102
RTVSPropertyOp9
 70
     1
102
RTVSPropertyOp10
 70
     1
102
RTVSPropertyOp11
 70
     1
102
RTVSPropertyOp12
 70
     1
102
RTVSPropertyOp13
 70
     1
102
RTVSPropertyOp14
 70
     1
102
RTVSPropertyOp15
 70
     1
102
RTVSPropertyOp16
 70
     1
102
RTVSPropertyOp17
 70
     1
102
RTVSPropertyOp18
 70
     1
102
RTVSPropertyOp19
 70
     1
102
RTVSPropertyOp20
 70
     1
102
RTVSPropertyOp21
 70
     1
102
RTVSPropertyOp22
 70
     1
102
RTVSPropertyOp23
 70
     1
102
RTVSPropertyOp24
 70
     1
102
RTVSPropertyOp25
 70
     1
102
RTVSPropertyOp26
 70
     1
102
RTVSPropertyOp27
 70
     1
102
RTVSPropertyOp28
 70
     1
102
RTVSPropertyOp29
 70
     1
102
RTVSPropertyOp30
 70
     1
102
RTVSPropertyOp31
 70
     1
102
RTVSPropertyOp32
 70
     1
102
RTVSPropertyOp33
 70
     1
102
RTVSPropertyOp34
 70
     1
102
RTVSPropertyOp35
 70
     1
102
RTVSPropertyOp36
 70
     1
102
RTVSPropertyOp37
 70
     1
102
RTVSPropertyOp38
 70
     1
102
RTVSPropertyOp39
 70
     1
102
RTVSPropertyOp40
 70
     1
102
RTVSPropertyOp41
 70
     1
102
RTVSPropertyOp42
 70
     1
102
RTVSPropertyOp43
 70
     1
102
RTVSPropertyOp44
 70
     1
102
RTVSPropertyOp45
 70
     1
102
RTVSPropertyOp46
 70
     1
102
RTVSPropertyOp47
 70
     1
102
RTVSPropertyOp48
 70
     1
102
RTVSPropertyOp49
 70
     1
102
RTVSPropertyOp50
 70
     1
102
RTVSPropertyOp51
 70
     0
102
RTVSPropertyOp52
 70
     0
102
RTVSPropertyOp53
 70
     1
102
RTVSPropertyOp54
 70
     1
102
RTVSPropertyOp55
 70
     1
102
RTVSPropertyOp56
 70
     1
102
RTVSPropertyOp57
 70
     1
102
RTVSPropertyOp58
 70
     1
102
RTVSPropertyOp59
 70
     1
102
RTVSPropertyOp60
 70
     1
102
RTVSPropertyOp61
 70
     1
102
RTVSPropertyOp62
 70
     1
  0
XRECORD
  5
9A3D
102
{ACAD_REACTORS
330
9A3C
102
}
330
9A3C
100
AcDbXrecord
280
     1
102
RTVSPost2010Prop28
280
     0
102
RTVSPost2010PropOp28
 70
     1
102
RTVSPost2010Prop29
280
     1
102
RTVSPost2010PropOp29
 70
     1
102
RTVSPost2010Prop30
280
     1
102
RTVSPost2010PropOp30
 70
     1
102
RTVSPost2010Prop31
280
     0
102
RTVSPost2010PropOp31
 70
     1
102
RTVSPost2010Prop32
280
     0
102
RTVSPost2010PropOp32
 70
     1
102
RTVSPost2010Prop33
280
     0
102
RTVSPost2010PropOp33
 70
     1
102
RTVSPost2010Prop34
280
     0
102
RTVSPost2010PropOp34
 70
     1
102
RTVSPost2010Prop35
280
     0
102
RTVSPost2010PropOp35
 70
     1
102
RTVSPost2010Prop36
280
     0
102
RTVSPost2010PropOp36
 70
     1
102
RTVSPost2010Prop37
 90
       50
102
RTVSPost2010PropOp37
 70
     1
102
RTVSPost2010Prop38
140
0.0
102
RTVSPost2010PropOp38
 70
     1
102
RTVSPost2010Prop39
140
1.0
102
RTVSPost2010PropOp39
 70
     1
102
RTVSPost2010Prop40
 90
        0
102
RTVSPost2010PropOp40
 70
     1
102
RTVSPost2010Prop41ColorIndex
 90
       18
102
RTVSPost2010Prop41ColorRGB
 90
        0
102
RTVSPost2010PropOp41
 70
     1
102
RTVSPost2010Prop42
 90
       50
102
RTVSPost2010PropOp42
 70
     1
102
RTVSPost2010Prop43
 90
        3
102
RTVSPost2010PropOp43
 70
     1
102
RTVSPost2010Prop44ColorIndex
 90
        5
102
RTVSPost2010Prop44ColorRGB
 90
      255
102
RTVSPost2010PropOp44
 70
     1
102
RTVSPost2010Prop45
280
     0
102
RTVSPost2010PropOp45
 70
     1
102
RTVSPost2010Prop46
 90
       50
102
RTVSPost2010PropOp46
 70
     1
102
RTVSPost2010Prop47
 90
       50
102
RTVSPost2010PropOp47
 70
     1
102
RTVSPost2010Prop48
 90
       50
102
RTVSPost2010PropOp48
 70
     1
102
RTVSPost2010Prop49
280
     0
102
RTVSPost2010PropOp49
 70
     1
102
RTVSPost2010Prop50
 90
       50
102
RTVSPost2010PropOp50
 70
     1
102
RTVSPost2010Prop51ColorIndex
 90
      256
102
RTVSPost2010Prop51ColorRGB
 90
-16777216
102
RTVSPost2010PropOp51
 70
     0
102
RTVSPost2010Prop52
140
1.0
102
RTVSPost2010PropOp52
 70
     0
102
RTVSPost2010Prop53
 90
        2
102
RTVSPost2010PropOp53
 70
     1
102
RTVSPost2010Prop54
  1
strokes_ogs.tif
102
RTVSPost2010PropOp54
 70
     1
102
RTVSPost2010Prop55
280
     0
102
RTVSPost2010PropOp55
 70
     1
102
RTVSPost2010Prop56
140
1.0
102
RTVSPost2010PropOp56
 70
     1
102
RTVSPost2010Prop57
140
1.0
102
RTVSPost2010PropOp57
 70
     1
102
RTVSPropertyOp0
 70
     1
102
RTVSPropertyOp1
 70
     1
102
RTVSPropertyOp2
 70
     1
102
RTVSPropertyOp3
 70
     1
102
RTVSPropertyOp4
 70
     1
102
RTVSPropertyOp5
 70
     1
102
RTVSPropertyOp6
 70
     1
102
RTVSPropertyOp7
 70
     1
102
RTVSPropertyOp8
 70
     1
102
RTVSPropertyOp9
 70
     1
102
RTVSPropertyOp10
 70
     1
102
RTVSPropertyOp11
 70
     1
102
RTVSPropertyOp12
 70
     1
102
RTVSPropertyOp13
 70
     1
102
RTVSPropertyOp14
 70
     1
102
RTVSPropertyOp15
 70
     1
102
RTVSPropertyOp16
 70
     1
102
RTVSPropertyOp17
 70
     1
102
RTVSPropertyOp18
 70
     1
102
RTVSPropertyOp19
 70
     1
102
RTVSPropertyOp20
 70
     1
102
RTVSPropertyOp21
 70
     1
102
RTVSPropertyOp22
 70
     1
102
RTVSPropertyOp23
 70
     1
102
RTVSPropertyOp24
 70
     1
102
RTVSPropertyOp25
 70
     1
102
RTVSPropertyOp26
 70
     1
102
RTVSPropertyOp27
 70
     1
102
RTVSPropertyOp28
 70
     1
102
RTVSPropertyOp29
 70
     1
102
RTVSPropertyOp30
 70
     1
102
RTVSPropertyOp31
 70
     1
102
RTVSPropertyOp32
 70
     1
102
RTVSPropertyOp33
 70
     1
102
RTVSPropertyOp34
 70
     1
102
RTVSPropertyOp35
 70
     1
102
RTVSPropertyOp36
 70
     1
102
RTVSPropertyOp37
 70
     1
102
RTVSPropertyOp38
 70
     1
102
RTVSPropertyOp39
 70
     1
102
RTVSPropertyOp40
 70
     1
102
RTVSPropertyOp41
 70
     1
102
RTVSPropertyOp42
 70
     1
102
RTVSPropertyOp43
 70
     1
102
RTVSPropertyOp44
 70
     1
102
RTVSPropertyOp45
 70
     1
102
RTVSPropertyOp46
 70
     1
102
RTVSPropertyOp47
 70
     1
102
RTVSPropertyOp48
 70
     1
102
RTVSPropertyOp49
 70
     1
102
RTVSPropertyOp50
 70
     1
102
RTVSPropertyOp51
 70
     0
102
RTVSPropertyOp52
 70
     0
102
RTVSPropertyOp53
 70
     1
102
RTVSPropertyOp54
 70
     1
102
RTVSPropertyOp55
 70
     1
102
RTVSPropertyOp56
 70
     1
102
RTVSPropertyOp57
 70
     1
102
RTVSPropertyOp58
 70
     1
102
RTVSPropertyOp59
 70
     1
102
RTVSPropertyOp60
 70
     1
102
RTVSPropertyOp61
 70
     1
102
RTVSPropertyOp62
 70
     1
  0
XRECORD
  5
9A3F
102
{ACAD_REACTORS
330
9A3E
102
}
330
9A3E
100
AcDbXrecord
280
     1
102
RTVSPost2010Prop28
280
     0
102
RTVSPost2010PropOp28
 70
     1
102
RTVSPost2010Prop29
280
     1
102
RTVSPost2010PropOp29
 70
     1
102
RTVSPost2010Prop30
280
     1
102
RTVSPost2010PropOp30
 70
     1
102
RTVSPost2010Prop31
280
     0
102
RTVSPost2010PropOp31
 70
     1
102
RTVSPost2010Prop32
280
     0
102
RTVSPost2010PropOp32
 70
     1
102
RTVSPost2010Prop33
280
     0
102
RTVSPost2010PropOp33
 70
     1
102
RTVSPost2010Prop34
280
     0
102
RTVSPost2010PropOp34
 70
     1
102
RTVSPost2010Prop35
280
     0
102
RTVSPost2010PropOp35
 70
     1
102
RTVSPost2010Prop36
280
     0
102
RTVSPost2010PropOp36
 70
     1
102
RTVSPost2010Prop37
 90
       50
102
RTVSPost2010PropOp37
 70
     1
102
RTVSPost2010Prop38
140
0.0
102
RTVSPost2010PropOp38
 70
     1
102
RTVSPost2010Prop39
140
1.0
102
RTVSPost2010PropOp39
 70
     1
102
RTVSPost2010Prop40
 90
        0
102
RTVSPost2010PropOp40
 70
     1
102
RTVSPost2010Prop41ColorIndex
 90
       18
102
RTVSPost2010Prop41ColorRGB
 90
        0
102
RTVSPost2010PropOp41
 70
     1
102
RTVSPost2010Prop42
 90
       50
102
RTVSPost2010PropOp42
 70
     1
102
RTVSPost2010Prop43
 90
        3
102
RTVSPost2010PropOp43
 70
     1
102
RTVSPost2010Prop44ColorIndex
 90
        5
102
RTVSPost2010Prop44ColorRGB
 90
      255
102
RTVSPost2010PropOp44
 70
     1
102
RTVSPost2010Prop45
280
     0
102
RTVSPost2010PropOp45
 70
     1
102
RTVSPost2010Prop46
 90
       50
102
RTVSPost2010PropOp46
 70
     1
102
RTVSPost2010Prop47
 90
       50
102
RTVSPost2010PropOp47
 70
     1
102
RTVSPost2010Prop48
 90
       50
102
RTVSPost2010PropOp48
 70
     1
102
RTVSPost2010Prop49
280
     0
102
RTVSPost2010PropOp49
 70
     1
102
RTVSPost2010Prop50
 90
       50
102
RTVSPost2010PropOp50
 70
     1
102
RTVSPost2010Prop51ColorIndex
 90
      256
102
RTVSPost2010Prop51ColorRGB
 90
-16777216
102
RTVSPost2010PropOp51
 70
     0
102
RTVSPost2010Prop52
140
1.0
102
RTVSPost2010PropOp52
 70
     0
102
RTVSPost2010Prop53
 90
        2
102
RTVSPost2010PropOp53
 70
     1
102
RTVSPost2010Prop54
  1
strokes_ogs.tif
102
RTVSPost2010PropOp54
 70
     1
102
RTVSPost2010Prop55
280
     0
102
RTVSPost2010PropOp55
 70
     1
102
RTVSPost2010Prop56
140
1.0
102
RTVSPost2010PropOp56
 70
     1
102
RTVSPost2010Prop57
140
1.0
102
RTVSPost2010PropOp57
 70
     1
102
RTVSPropertyOp0
 70
     1
102
RTVSPropertyOp1
 70
     1
102
RTVSPropertyOp2
 70
     1
102
RTVSPropertyOp3
 70
     1
102
RTVSPropertyOp4
 70
     1
102
RTVSPropertyOp5
 70
     1
102
RTVSPropertyOp6
 70
     1
102
RTVSPropertyOp7
 70
     1
102
RTVSPropertyOp8
 70
     1
102
RTVSPropertyOp9
 70
     1
102
RTVSPropertyOp10
 70
     1
102
RTVSPropertyOp11
 70
     1
102
RTVSPropertyOp12
 70
     1
102
RTVSPropertyOp13
 70
     1
102
RTVSPropertyOp14
 70
     1
102
RTVSPropertyOp15
 70
     1
102
RTVSPropertyOp16
 70
     1
102
RTVSPropertyOp17
 70
     1
102
RTVSPropertyOp18
 70
     1
102
RTVSPropertyOp19
 70
     1
102
RTVSPropertyOp20
 70
     1
102
RTVSPropertyOp21
 70
     1
102
RTVSPropertyOp22
 70
     1
102
RTVSPropertyOp23
 70
     1
102
RTVSPropertyOp24
 70
     1
102
RTVSPropertyOp25
 70
     1
102
RTVSPropertyOp26
 70
     1
102
RTVSPropertyOp27
 70
     1
102
RTVSPropertyOp28
 70
     1
102
RTVSPropertyOp29
 70
     1
102
RTVSPropertyOp30
 70
     1
102
RTVSPropertyOp31
 70
     1
102
RTVSPropertyOp32
 70
     1
102
RTVSPropertyOp33
 70
     1
102
RTVSPropertyOp34
 70
     1
102
RTVSPropertyOp35
 70
     1
102
RTVSPropertyOp36
 70
     1
102
RTVSPropertyOp37
 70
     1
102
RTVSPropertyOp38
 70
     1
102
RTVSPropertyOp39
 70
     1
102
RTVSPropertyOp40
 70
     1
102
RTVSPropertyOp41
 70
     1
102
RTVSPropertyOp42
 70
     1
102
RTVSPropertyOp43
 70
     1
102
RTVSPropertyOp44
 70
     1
102
RTVSPropertyOp45
 70
     1
102
RTVSPropertyOp46
 70
     1
102
RTVSPropertyOp47
 70
     1
102
RTVSPropertyOp48
 70
     1
102
RTVSPropertyOp49
 70
     1
102
RTVSPropertyOp50
 70
     1
102
RTVSPropertyOp51
 70
     0
102
RTVSPropertyOp52
 70
     0
102
RTVSPropertyOp53
 70
     1
102
RTVSPropertyOp54
 70
     1
102
RTVSPropertyOp55
 70
     1
102
RTVSPropertyOp56
 70
     1
102
RTVSPropertyOp57
 70
     1
102
RTVSPropertyOp58
 70
     1
102
RTVSPropertyOp59
 70
     1
102
RTVSPropertyOp60
 70
     1
102
RTVSPropertyOp61
 70
     1
102
RTVSPropertyOp62
 70
     1
  0
XRECORD
  5
9A41
102
{ACAD_REACTORS
330
9A40
102
}
330
9A40
100
AcDbXrecord
280
     1
102
RTVSPost2010Prop28
280
     0
102
RTVSPost2010PropOp28
 70
     1
102
RTVSPost2010Prop29
280
     1
102
RTVSPost2010PropOp29
 70
     1
102
RTVSPost2010Prop30
280
     1
102
RTVSPost2010PropOp30
 70
     1
102
RTVSPost2010Prop31
280
     0
102
RTVSPost2010PropOp31
 70
     1
102
RTVSPost2010Prop32
280
     0
102
RTVSPost2010PropOp32
 70
     1
102
RTVSPost2010Prop33
280
     0
102
RTVSPost2010PropOp33
 70
     1
102
RTVSPost2010Prop34
280
     0
102
RTVSPost2010PropOp34
 70
     1
102
RTVSPost2010Prop35
280
     0
102
RTVSPost2010PropOp35
 70
     1
102
RTVSPost2010Prop36
280
     0
102
RTVSPost2010PropOp36
 70
     1
102
RTVSPost2010Prop37
 90
       50
102
RTVSPost2010PropOp37
 70
     1
102
RTVSPost2010Prop38
140
0.0
102
RTVSPost2010PropOp38
 70
     1
102
RTVSPost2010Prop39
140
1.0
102
RTVSPost2010PropOp39
 70
     1
102
RTVSPost2010Prop40
 90
        0
102
RTVSPost2010PropOp40
 70
     1
102
RTVSPost2010Prop41ColorIndex
 90
       18
102
RTVSPost2010Prop41ColorRGB
 90
        0
102
RTVSPost2010PropOp41
 70
     1
102
RTVSPost2010Prop42
 90
       50
102
RTVSPost2010PropOp42
 70
     1
102
RTVSPost2010Prop43
 90
        3
102
RTVSPost2010PropOp43
 70
     1
102
RTVSPost2010Prop44ColorIndex
 90
        5
102
RTVSPost2010Prop44ColorRGB
 90
      255
102
RTVSPost2010PropOp44
 70
     1
102
RTVSPost2010Prop45
280
     0
102
RTVSPost2010PropOp45
 70
     1
102
RTVSPost2010Prop46
 90
       50
102
RTVSPost2010PropOp46
 70
     1
102
RTVSPost2010Prop47
 90
       50
102
RTVSPost2010PropOp47
 70
     1
102
RTVSPost2010Prop48
 90
       50
102
RTVSPost2010PropOp48
 70
     1
102
RTVSPost2010Prop49
280
     0
102
RTVSPost2010PropOp49
 70
     1
102
RTVSPost2010Prop50
 90
       50
102
RTVSPost2010PropOp50
 70
     1
102
RTVSPost2010Prop51ColorIndex
 90
      256
102
RTVSPost2010Prop51ColorRGB
 90
-16777216
102
RTVSPost2010PropOp51
 70
     0
102
RTVSPost2010Prop52
140
1.0
102
RTVSPost2010PropOp52
 70
     0
102
RTVSPost2010Prop53
 90
        2
102
RTVSPost2010PropOp53
 70
     1
102
RTVSPost2010Prop54
  1
strokes_ogs.tif
102
RTVSPost2010PropOp54
 70
     1
102
RTVSPost2010Prop55
280
     0
102
RTVSPost2010PropOp55
 70
     1
102
RTVSPost2010Prop56
140
1.0
102
RTVSPost2010PropOp56
 70
     1
102
RTVSPost2010Prop57
140
1.0
102
RTVSPost2010PropOp57
 70
     1
102
RTVSPropertyOp0
 70
     1
102
RTVSPropertyOp1
 70
     1
102
RTVSPropertyOp2
 70
     1
102
RTVSPropertyOp3
 70
     1
102
RTVSPropertyOp4
 70
     1
102
RTVSPropertyOp5
 70
     1
102
RTVSPropertyOp6
 70
     1
102
RTVSPropertyOp7
 70
     1
102
RTVSPropertyOp8
 70
     1
102
RTVSPropertyOp9
 70
     1
102
RTVSPropertyOp10
 70
     1
102
RTVSPropertyOp11
 70
     1
102
RTVSPropertyOp12
 70
     1
102
RTVSPropertyOp13
 70
     1
102
RTVSPropertyOp14
 70
     1
102
RTVSPropertyOp15
 70
     1
102
RTVSPropertyOp16
 70
     1
102
RTVSPropertyOp17
 70
     1
102
RTVSPropertyOp18
 70
     1
102
RTVSPropertyOp19
 70
     1
102
RTVSPropertyOp20
 70
     1
102
RTVSPropertyOp21
 70
     1
102
RTVSPropertyOp22
 70
     1
102
RTVSPropertyOp23
 70
     1
102
RTVSPropertyOp24
 70
     1
102
RTVSPropertyOp25
 70
     1
102
RTVSPropertyOp26
 70
     1
102
RTVSPropertyOp27
 70
     1
102
RTVSPropertyOp28
 70
     1
102
RTVSPropertyOp29
 70
     1
102
RTVSPropertyOp30
 70
     1
102
RTVSPropertyOp31
 70
     1
102
RTVSPropertyOp32
 70
     1
102
RTVSPropertyOp33
 70
     1
102
RTVSPropertyOp34
 70
     1
102
RTVSPropertyOp35
 70
     1
102
RTVSPropertyOp36
 70
     1
102
RTVSPropertyOp37
 70
     1
102
RTVSPropertyOp38
 70
     1
102
RTVSPropertyOp39
 70
     1
102
RTVSPropertyOp40
 70
     1
102
RTVSPropertyOp41
 70
     1
102
RTVSPropertyOp42
 70
     1
102
RTVSPropertyOp43
 70
     1
102
RTVSPropertyOp44
 70
     1
102
RTVSPropertyOp45
 70
     1
102
RTVSPropertyOp46
 70
     1
102
RTVSPropertyOp47
 70
     1
102
RTVSPropertyOp48
 70
     1
102
RTVSPropertyOp49
 70
     1
102
RTVSPropertyOp50
 70
     1
102
RTVSPropertyOp51
 70
     0
102
RTVSPropertyOp52
 70
     0
102
RTVSPropertyOp53
 70
     1
102
RTVSPropertyOp54
 70
     1
102
RTVSPropertyOp55
 70
     1
102
RTVSPropertyOp56
 70
     1
102
RTVSPropertyOp57
 70
     1
102
RTVSPropertyOp58
 70
     1
102
RTVSPropertyOp59
 70
     1
102
RTVSPropertyOp60
 70
     1
102
RTVSPropertyOp61
 70
     1
102
RTVSPropertyOp62
 70
     1
  0
XRECORD
  5
9A49
102
{ACAD_REACTORS
330
9A48
102
}
330
9A48
100
AcDbXrecord
280
     1
102
RTVSPost2010Prop28
280
     0
102
RTVSPost2010PropOp28
 70
     1
102
RTVSPost2010Prop29
280
     1
102
RTVSPost2010PropOp29
 70
     1
102
RTVSPost2010Prop30
280
     1
102
RTVSPost2010PropOp30
 70
     1
102
RTVSPost2010Prop31
280
     0
102
RTVSPost2010PropOp31
 70
     1
102
RTVSPost2010Prop32
280
     0
102
RTVSPost2010PropOp32
 70
     1
102
RTVSPost2010Prop33
280
     0
102
RTVSPost2010PropOp33
 70
     1
102
RTVSPost2010Prop34
280
     0
102
RTVSPost2010PropOp34
 70
     1
102
RTVSPost2010Prop35
280
     0
102
RTVSPost2010PropOp35
 70
     1
102
RTVSPost2010Prop36
280
     0
102
RTVSPost2010PropOp36
 70
     1
102
RTVSPost2010Prop37
 90
       50
102
RTVSPost2010PropOp37
 70
     1
102
RTVSPost2010Prop38
140
0.0
102
RTVSPost2010PropOp38
 70
     1
102
RTVSPost2010Prop39
140
1.0
102
RTVSPost2010PropOp39
 70
     1
102
RTVSPost2010Prop40
 90
        0
102
RTVSPost2010PropOp40
 70
     1
102
RTVSPost2010Prop41ColorIndex
 90
       18
102
RTVSPost2010Prop41ColorRGB
 90
        0
102
RTVSPost2010PropOp41
 70
     1
102
RTVSPost2010Prop42
 90
       50
102
RTVSPost2010PropOp42
 70
     1
102
RTVSPost2010Prop43
 90
        3
102
RTVSPost2010PropOp43
 70
     1
102
RTVSPost2010Prop44ColorIndex
 90
        5
102
RTVSPost2010Prop44ColorRGB
 90
      255
102
RTVSPost2010PropOp44
 70
     1
102
RTVSPost2010Prop45
280
     0
102
RTVSPost2010PropOp45
 70
     1
102
RTVSPost2010Prop46
 90
       50
102
RTVSPost2010PropOp46
 70
     1
102
RTVSPost2010Prop47
 90
       50
102
RTVSPost2010PropOp47
 70
     1
102
RTVSPost2010Prop48
 90
       50
102
RTVSPost2010PropOp48
 70
     1
102
RTVSPost2010Prop49
280
     0
102
RTVSPost2010PropOp49
 70
     1
102
RTVSPost2010Prop50
 90
       50
102
RTVSPost2010PropOp50
 70
     1
102
RTVSPost2010Prop51ColorIndex
 90
      256
102
RTVSPost2010Prop51ColorRGB
 90
-16777216
102
RTVSPost2010PropOp51
 70
     0
102
RTVSPost2010Prop52
140
1.0
102
RTVSPost2010PropOp52
 70
     0
102
RTVSPost2010Prop53
 90
        2
102
RTVSPost2010PropOp53
 70
     1
102
RTVSPost2010Prop54
  1
strokes_ogs.tif
102
RTVSPost2010PropOp54
 70
     1
102
RTVSPost2010Prop55
280
     0
102
RTVSPost2010PropOp55
 70
     1
102
RTVSPost2010Prop56
140
1.0
102
RTVSPost2010PropOp56
 70
     1
102
RTVSPost2010Prop57
140
1.0
102
RTVSPost2010PropOp57
 70
     1
102
RTVSPropertyOp0
 70
     1
102
RTVSPropertyOp1
 70
     1
102
RTVSPropertyOp2
 70
     1
102
RTVSPropertyOp3
 70
     1
102
RTVSPropertyOp4
 70
     1
102
RTVSPropertyOp5
 70
     1
102
RTVSPropertyOp6
 70
     1
102
RTVSPropertyOp7
 70
     1
102
RTVSPropertyOp8
 70
     1
102
RTVSPropertyOp9
 70
     1
102
RTVSPropertyOp10
 70
     1
102
RTVSPropertyOp11
 70
     1
102
RTVSPropertyOp12
 70
     1
102
RTVSPropertyOp13
 70
     1
102
RTVSPropertyOp14
 70
     1
102
RTVSPropertyOp15
 70
     1
102
RTVSPropertyOp16
 70
     1
102
RTVSPropertyOp17
 70
     1
102
RTVSPropertyOp18
 70
     1
102
RTVSPropertyOp19
 70
     1
102
RTVSPropertyOp20
 70
     1
102
RTVSPropertyOp21
 70
     1
102
RTVSPropertyOp22
 70
     1
102
RTVSPropertyOp23
 70
     1
102
RTVSPropertyOp24
 70
     1
102
RTVSPropertyOp25
 70
     1
102
RTVSPropertyOp26
 70
     1
102
RTVSPropertyOp27
 70
     1
102
RTVSPropertyOp28
 70
     1
102
RTVSPropertyOp29
 70
     1
102
RTVSPropertyOp30
 70
     1
102
RTVSPropertyOp31
 70
     1
102
RTVSPropertyOp32
 70
     1
102
RTVSPropertyOp33
 70
     1
102
RTVSPropertyOp34
 70
     1
102
RTVSPropertyOp35
 70
     1
102
RTVSPropertyOp36
 70
     1
102
RTVSPropertyOp37
 70
     1
102
RTVSPropertyOp38
 70
     1
102
RTVSPropertyOp39
 70
     1
102
RTVSPropertyOp40
 70
     1
102
RTVSPropertyOp41
 70
     1
102
RTVSPropertyOp42
 70
     1
102
RTVSPropertyOp43
 70
     1
102
RTVSPropertyOp44
 70
     1
102
RTVSPropertyOp45
 70
     1
102
RTVSPropertyOp46
 70
     1
102
RTVSPropertyOp47
 70
     1
102
RTVSPropertyOp48
 70
     1
102
RTVSPropertyOp49
 70
     1
102
RTVSPropertyOp50
 70
     1
102
RTVSPropertyOp51
 70
     0
102
RTVSPropertyOp52
 70
     0
102
RTVSPropertyOp53
 70
     1
102
RTVSPropertyOp54
 70
     1
102
RTVSPropertyOp55
 70
     1
102
RTVSPropertyOp56
 70
     1
102
RTVSPropertyOp57
 70
     1
102
RTVSPropertyOp58
 70
     1
102
RTVSPropertyOp59
 70
     1
102
RTVSPropertyOp60
 70
     1
102
RTVSPropertyOp61
 70
     1
102
RTVSPropertyOp62
 70
     1
  0
XRECORD
  5
9A65
102
{ACAD_REACTORS
330
9A64
102
}
330
9A64
100
AcDbXrecord
280
     1
102
RTVSPost2010Prop28
280
     0
102
RTVSPost2010PropOp28
 70
     1
102
RTVSPost2010Prop29
280
     1
102
RTVSPost2010PropOp29
 70
     1
102
RTVSPost2010Prop30
280
     1
102
RTVSPost2010PropOp30
 70
     1
102
RTVSPost2010Prop31
280
     0
102
RTVSPost2010PropOp31
 70
     1
102
RTVSPost2010Prop32
280
     0
102
RTVSPost2010PropOp32
 70
     1
102
RTVSPost2010Prop33
280
     0
102
RTVSPost2010PropOp33
 70
     1
102
RTVSPost2010Prop34
280
     0
102
RTVSPost2010PropOp34
 70
     1
102
RTVSPost2010Prop35
280
     0
102
RTVSPost2010PropOp35
 70
     1
102
RTVSPost2010Prop36
280
     0
102
RTVSPost2010PropOp36
 70
     1
102
RTVSPost2010Prop37
 90
       50
102
RTVSPost2010PropOp37
 70
     0
102
RTVSPost2010Prop38
140
0.0
102
RTVSPost2010PropOp38
 70
     0
102
RTVSPost2010Prop39
140
1.0
102
RTVSPost2010PropOp39
 70
     0
102
RTVSPost2010Prop40
 90
        0
102
RTVSPost2010PropOp40
 70
     0
102
RTVSPost2010Prop41ColorIndex
 90
       18
102
RTVSPost2010Prop41ColorRGB
 90
        0
102
RTVSPost2010PropOp41
 70
     0
102
RTVSPost2010Prop42
 90
       50
102
RTVSPost2010PropOp42
 70
     0
102
RTVSPost2010Prop43
 90
        3
102
RTVSPost2010PropOp43
 70
     0
102
RTVSPost2010Prop44ColorIndex
 90
        5
102
RTVSPost2010Prop44ColorRGB
 90
      255
102
RTVSPost2010PropOp44
 70
     0
102
RTVSPost2010Prop45
280
     0
102
RTVSPost2010PropOp45
 70
     1
102
RTVSPost2010Prop46
 90
       50
102
RTVSPost2010PropOp46
 70
     0
102
RTVSPost2010Prop47
 90
       50
102
RTVSPost2010PropOp47
 70
     0
102
RTVSPost2010Prop48
 90
       50
102
RTVSPost2010PropOp48
 70
     0
102
RTVSPost2010Prop49
280
     0
102
RTVSPost2010PropOp49
 70
     1
102
RTVSPost2010Prop50
 90
       50
102
RTVSPost2010PropOp50
 70
     0
102
RTVSPost2010Prop51ColorIndex
 90
      256
102
RTVSPost2010Prop51ColorRGB
 90
-16777216
102
RTVSPost2010PropOp51
 70
     0
102
RTVSPost2010Prop52
140
1.0
102
RTVSPost2010PropOp52
 70
     0
102
RTVSPost2010Prop53
 90
        2
102
RTVSPost2010PropOp53
 70
     0
102
RTVSPost2010Prop54
  1
strokes_ogs.tif
102
RTVSPost2010PropOp54
 70
     0
102
RTVSPost2010Prop55
280
     0
102
RTVSPost2010PropOp55
 70
     1
102
RTVSPost2010Prop56
140
1.0
102
RTVSPost2010PropOp56
 70
     0
102
RTVSPost2010Prop57
140
1.0
102
RTVSPost2010PropOp57
 70
     0
102
RTVSPropertyOp0
 70
     0
102
RTVSPropertyOp1
 70
     0
102
RTVSPropertyOp2
 70
     0
102
RTVSPropertyOp3
 70
     0
102
RTVSPropertyOp4
 70
     0
102
RTVSPropertyOp5
 70
     0
102
RTVSPropertyOp6
 70
     0
102
RTVSPropertyOp7
 70
     0
102
RTVSPropertyOp8
 70
     0
102
RTVSPropertyOp9
 70
     0
102
RTVSPropertyOp10
 70
     0
102
RTVSPropertyOp11
 70
     0
102
RTVSPropertyOp12
 70
     0
102
RTVSPropertyOp13
 70
     0
102
RTVSPropertyOp14
 70
     2
102
RTVSPropertyOp15
 70
     0
102
RTVSPropertyOp16
 70
     0
102
RTVSPropertyOp17
 70
     0
102
RTVSPropertyOp18
 70
     0
102
RTVSPropertyOp19
 70
     0
102
RTVSPropertyOp20
 70
     0
102
RTVSPropertyOp21
 70
     0
102
RTVSPropertyOp22
 70
     0
102
RTVSPropertyOp23
 70
     0
102
RTVSPropertyOp24
 70
     0
102
RTVSPropertyOp25
 70
     0
102
RTVSPropertyOp26
 70
     0
102
RTVSPropertyOp27
 70
     0
102
RTVSPropertyOp28
 70
     1
102
RTVSPropertyOp29
 70
     1
102
RTVSPropertyOp30
 70
     1
102
RTVSPropertyOp31
 70
     1
102
RTVSPropertyOp32
 70
     1
102
RTVSPropertyOp33
 70
     1
102
RTVSPropertyOp34
 70
     1
102
RTVSPropertyOp35
 70
     1
102
RTVSPropertyOp36
 70
     1
102
RTVSPropertyOp37
 70
     0
102
RTVSPropertyOp38
 70
     0
102
RTVSPropertyOp39
 70
     0
102
RTVSPropertyOp40
 70
     0
102
RTVSPropertyOp41
 70
     0
102
RTVSPropertyOp42
 70
     0
102
RTVSPropertyOp43
 70
     0
102
RTVSPropertyOp44
 70
     0
102
RTVSPropertyOp45
 70
     1
102
RTVSPropertyOp46
 70
     0
102
RTVSPropertyOp47
 70
     0
102
RTVSPropertyOp48
 70
     0
102
RTVSPropertyOp49
 70
     1
102
RTVSPropertyOp50
 70
     0
102
RTVSPropertyOp51
 70
     0
102
RTVSPropertyOp52
 70
     0
102
RTVSPropertyOp53
 70
     0
102
RTVSPropertyOp54
 70
     0
102
RTVSPropertyOp55
 70
     1
102
RTVSPropertyOp56
 70
     0
102
RTVSPropertyOp57
 70
     0
102
RTVSPropertyOp58
 70
     0
102
RTVSPropertyOp59
 70
     0
102
RTVSPropertyOp60
 70
     0
102
RTVSPropertyOp61
 70
     0
102
RTVSPropertyOp62
 70
     0
  0
XRECORD
  5
9A55
102
{ACAD_REACTORS
330
9A54
102
}
330
9A54
100
AcDbXrecord
280
     1
102
RTVSPost2010Prop28
280
     0
102
RTVSPost2010PropOp28
 70
     1
102
RTVSPost2010Prop29
280
     1
102
RTVSPost2010PropOp29
 70
     1
102
RTVSPost2010Prop30
280
     1
102
RTVSPost2010PropOp30
 70
     1
102
RTVSPost2010Prop31
280
     0
102
RTVSPost2010PropOp31
 70
     1
102
RTVSPost2010Prop32
280
     0
102
RTVSPost2010PropOp32
 70
     1
102
RTVSPost2010Prop33
280
     0
102
RTVSPost2010PropOp33
 70
     1
102
RTVSPost2010Prop34
280
     0
102
RTVSPost2010PropOp34
 70
     1
102
RTVSPost2010Prop35
280
     0
102
RTVSPost2010PropOp35
 70
     1
102
RTVSPost2010Prop36
280
     0
102
RTVSPost2010PropOp36
 70
     1
102
RTVSPost2010Prop37
 90
       50
102
RTVSPost2010PropOp37
 70
     1
102
RTVSPost2010Prop38
140
0.0
102
RTVSPost2010PropOp38
 70
     1
102
RTVSPost2010Prop39
140
1.0
102
RTVSPost2010PropOp39
 70
     1
102
RTVSPost2010Prop40
 90
        0
102
RTVSPost2010PropOp40
 70
     1
102
RTVSPost2010Prop41ColorIndex
 90
       18
102
RTVSPost2010Prop41ColorRGB
 90
        0
102
RTVSPost2010PropOp41
 70
     1
102
RTVSPost2010Prop42
 90
       50
102
RTVSPost2010PropOp42
 70
     1
102
RTVSPost2010Prop43
 90
        3
102
RTVSPost2010PropOp43
 70
     1
102
RTVSPost2010Prop44ColorIndex
 90
        5
102
RTVSPost2010Prop44ColorRGB
 90
      255
102
RTVSPost2010PropOp44
 70
     1
102
RTVSPost2010Prop45
280
     0
102
RTVSPost2010PropOp45
 70
     1
102
RTVSPost2010Prop46
 90
       50
102
RTVSPost2010PropOp46
 70
     1
102
RTVSPost2010Prop47
 90
       50
102
RTVSPost2010PropOp47
 70
     1
102
RTVSPost2010Prop48
 90
       50
102
RTVSPost2010PropOp48
 70
     1
102
RTVSPost2010Prop49
280
     0
102
RTVSPost2010PropOp49
 70
     1
102
RTVSPost2010Prop50
 90
       50
102
RTVSPost2010PropOp50
 70
     1
102
RTVSPost2010Prop51ColorIndex
 90
      256
102
RTVSPost2010Prop51ColorRGB
 90
-16777216
102
RTVSPost2010PropOp51
 70
     0
102
RTVSPost2010Prop52
140
1.0
102
RTVSPost2010PropOp52
 70
     0
102
RTVSPost2010Prop53
 90
        2
102
RTVSPost2010PropOp53
 70
     1
102
RTVSPost2010Prop54
  1
strokes_ogs.tif
102
RTVSPost2010PropOp54
 70
     1
102
RTVSPost2010Prop55
280
     0
102
RTVSPost2010PropOp55
 70
     1
102
RTVSPost2010Prop56
140
1.0
102
RTVSPost2010PropOp56
 70
     1
102
RTVSPost2010Prop57
140
1.0
102
RTVSPost2010PropOp57
 70
     1
102
RTVSPropertyOp0
 70
     1
102
RTVSPropertyOp1
 70
     1
102
RTVSPropertyOp2
 70
     1
102
RTVSPropertyOp3
 70
     1
102
RTVSPropertyOp4
 70
     1
102
RTVSPropertyOp5
 70
     1
102
RTVSPropertyOp6
 70
     1
102
RTVSPropertyOp7
 70
     1
102
RTVSPropertyOp8
 70
     1
102
RTVSPropertyOp9
 70
     1
102
RTVSPropertyOp10
 70
     1
102
RTVSPropertyOp11
 70
     1
102
RTVSPropertyOp12
 70
     1
102
RTVSPropertyOp13
 70
     1
102
RTVSPropertyOp14
 70
     1
102
RTVSPropertyOp15
 70
     1
102
RTVSPropertyOp16
 70
     1
102
RTVSPropertyOp17
 70
     1
102
RTVSPropertyOp18
 70
     1
102
RTVSPropertyOp19
 70
     1
102
RTVSPropertyOp20
 70
     1
102
RTVSPropertyOp21
 70
     1
102
RTVSPropertyOp22
 70
     1
102
RTVSPropertyOp23
 70
     1
102
RTVSPropertyOp24
 70
     1
102
RTVSPropertyOp25
 70
     1
102
RTVSPropertyOp26
 70
     1
102
RTVSPropertyOp27
 70
     1
102
RTVSPropertyOp28
 70
     1
102
RTVSPropertyOp29
 70
     1
102
RTVSPropertyOp30
 70
     1
102
RTVSPropertyOp31
 70
     1
102
RTVSPropertyOp32
 70
     1
102
RTVSPropertyOp33
 70
     1
102
RTVSPropertyOp34
 70
     1
102
RTVSPropertyOp35
 70
     1
102
RTVSPropertyOp36
 70
     1
102
RTVSPropertyOp37
 70
     1
102
RTVSPropertyOp38
 70
     1
102
RTVSPropertyOp39
 70
     1
102
RTVSPropertyOp40
 70
     1
102
RTVSPropertyOp41
 70
     1
102
RTVSPropertyOp42
 70
     1
102
RTVSPropertyOp43
 70
     1
102
RTVSPropertyOp44
 70
     1
102
RTVSPropertyOp45
 70
     1
102
RTVSPropertyOp46
 70
     1
102
RTVSPropertyOp47
 70
     1
102
RTVSPropertyOp48
 70
     1
102
RTVSPropertyOp49
 70
     1
102
RTVSPropertyOp50
 70
     1
102
RTVSPropertyOp51
 70
     0
102
RTVSPropertyOp52
 70
     0
102
RTVSPropertyOp53
 70
     1
102
RTVSPropertyOp54
 70
     1
102
RTVSPropertyOp55
 70
     1
102
RTVSPropertyOp56
 70
     1
102
RTVSPropertyOp57
 70
     1
102
RTVSPropertyOp58
 70
     1
102
RTVSPropertyOp59
 70
     1
102
RTVSPropertyOp60
 70
     1
102
RTVSPropertyOp61
 70
     1
102
RTVSPropertyOp62
 70
     1
  0
XRECORD
  5
9A67
102
{ACAD_REACTORS
330
9A66
102
}
330
9A66
100
AcDbXrecord
280
     1
102
RTVSPost2010Prop28
280
     0
102
RTVSPost2010PropOp28
 70
     1
102
RTVSPost2010Prop29
280
     1
102
RTVSPost2010PropOp29
 70
     1
102
RTVSPost2010Prop30
280
     1
102
RTVSPost2010PropOp30
 70
     1
102
RTVSPost2010Prop31
280
     0
102
RTVSPost2010PropOp31
 70
     1
102
RTVSPost2010Prop32
280
     0
102
RTVSPost2010PropOp32
 70
     1
102
RTVSPost2010Prop33
280
     0
102
RTVSPost2010PropOp33
 70
     1
102
RTVSPost2010Prop34
280
     0
102
RTVSPost2010PropOp34
 70
     1
102
RTVSPost2010Prop35
280
     0
102
RTVSPost2010PropOp35
 70
     1
102
RTVSPost2010Prop36
280
     0
102
RTVSPost2010PropOp36
 70
     1
102
RTVSPost2010Prop37
 90
       50
102
RTVSPost2010PropOp37
 70
     0
102
RTVSPost2010Prop38
140
0.0
102
RTVSPost2010PropOp38
 70
     0
102
RTVSPost2010Prop39
140
1.0
102
RTVSPost2010PropOp39
 70
     0
102
RTVSPost2010Prop40
 90
        0
102
RTVSPost2010PropOp40
 70
     0
102
RTVSPost2010Prop41ColorIndex
 90
       18
102
RTVSPost2010Prop41ColorRGB
 90
        0
102
RTVSPost2010PropOp41
 70
     0
102
RTVSPost2010Prop42
 90
       50
102
RTVSPost2010PropOp42
 70
     0
102
RTVSPost2010Prop43
 90
        3
102
RTVSPost2010PropOp43
 70
     0
102
RTVSPost2010Prop44ColorIndex
 90
        5
102
RTVSPost2010Prop44ColorRGB
 90
      255
102
RTVSPost2010PropOp44
 70
     0
102
RTVSPost2010Prop45
280
     0
102
RTVSPost2010PropOp45
 70
     1
102
RTVSPost2010Prop46
 90
       50
102
RTVSPost2010PropOp46
 70
     0
102
RTVSPost2010Prop47
 90
       50
102
RTVSPost2010PropOp47
 70
     0
102
RTVSPost2010Prop48
 90
       50
102
RTVSPost2010PropOp48
 70
     0
102
RTVSPost2010Prop49
280
     0
102
RTVSPost2010PropOp49
 70
     1
102
RTVSPost2010Prop50
 90
       50
102
RTVSPost2010PropOp50
 70
     0
102
RTVSPost2010Prop51ColorIndex
 90
      256
102
RTVSPost2010Prop51ColorRGB
 90
-16777216
102
RTVSPost2010PropOp51
 70
     0
102
RTVSPost2010Prop52
140
1.0
102
RTVSPost2010PropOp52
 70
     0
102
RTVSPost2010Prop53
 90
        2
102
RTVSPost2010PropOp53
 70
     0
102
RTVSPost2010Prop54
  1
strokes_ogs.tif
102
RTVSPost2010PropOp54
 70
     0
102
RTVSPost2010Prop55
280
     0
102
RTVSPost2010PropOp55
 70
     1
102
RTVSPost2010Prop56
140
1.0
102
RTVSPost2010PropOp56
 70
     0
102
RTVSPost2010Prop57
140
1.0
102
RTVSPost2010PropOp57
 70
     0
102
RTVSPropertyOp0
 70
     0
102
RTVSPropertyOp1
 70
     0
102
RTVSPropertyOp2
 70
     0
102
RTVSPropertyOp3
 70
     0
102
RTVSPropertyOp4
 70
     0
102
RTVSPropertyOp5
 70
     0
102
RTVSPropertyOp6
 70
     0
102
RTVSPropertyOp7
 70
     0
102
RTVSPropertyOp8
 70
     0
102
RTVSPropertyOp9
 70
     0
102
RTVSPropertyOp10
 70
     0
102
RTVSPropertyOp11
 70
     0
102
RTVSPropertyOp12
 70
     0
102
RTVSPropertyOp13
 70
     0
102
RTVSPropertyOp14
 70
     2
102
RTVSPropertyOp15
 70
     0
102
RTVSPropertyOp16
 70
     0
102
RTVSPropertyOp17
 70
     0
102
RTVSPropertyOp18
 70
     0
102
RTVSPropertyOp19
 70
     0
102
RTVSPropertyOp20
 70
     0
102
RTVSPropertyOp21
 70
     0
102
RTVSPropertyOp22
 70
     0
102
RTVSPropertyOp23
 70
     0
102
RTVSPropertyOp24
 70
     0
102
RTVSPropertyOp25
 70
     0
102
RTVSPropertyOp26
 70
     0
102
RTVSPropertyOp27
 70
     0
102
RTVSPropertyOp28
 70
     1
102
RTVSPropertyOp29
 70
     1
102
RTVSPropertyOp30
 70
     1
102
RTVSPropertyOp31
 70
     1
102
RTVSPropertyOp32
 70
     1
102
RTVSPropertyOp33
 70
     1
102
RTVSPropertyOp34
 70
     1
102
RTVSPropertyOp35
 70
     1
102
RTVSPropertyOp36
 70
     1
102
RTVSPropertyOp37
 70
     0
102
RTVSPropertyOp38
 70
     0
102
RTVSPropertyOp39
 70
     0
102
RTVSPropertyOp40
 70
     0
102
RTVSPropertyOp41
 70
     0
102
RTVSPropertyOp42
 70
     0
102
RTVSPropertyOp43
 70
     0
102
RTVSPropertyOp44
 70
     0
102
RTVSPropertyOp45
 70
     1
102
RTVSPropertyOp46
 70
     0
102
RTVSPropertyOp47
 70
     0
102
RTVSPropertyOp48
 70
     0
102
RTVSPropertyOp49
 70
     1
102
RTVSPropertyOp50
 70
     0
102
RTVSPropertyOp51
 70
     0
102
RTVSPropertyOp52
 70
     0
102
RTVSPropertyOp53
 70
     0
102
RTVSPropertyOp54
 70
     0
102
RTVSPropertyOp55
 70
     1
102
RTVSPropertyOp56
 70
     0
102
RTVSPropertyOp57
 70
     0
102
RTVSPropertyOp58
 70
     0
102
RTVSPropertyOp59
 70
     0
102
RTVSPropertyOp60
 70
     0
102
RTVSPropertyOp61
 70
     0
102
RTVSPropertyOp62
 70
     0
  0
XRECORD
  5
9A4D
102
{ACAD_REACTORS
330
9A4C
102
}
330
9A4C
100
AcDbXrecord
280
     1
102
RTVSPost2010Prop28
280
     0
102
RTVSPost2010PropOp28
 70
     1
102
RTVSPost2010Prop29
280
     1
102
RTVSPost2010PropOp29
 70
     1
102
RTVSPost2010Prop30
280
     1
102
RTVSPost2010PropOp30
 70
     1
102
RTVSPost2010Prop31
280
     0
102
RTVSPost2010PropOp31
 70
     1
102
RTVSPost2010Prop32
280
     0
102
RTVSPost2010PropOp32
 70
     1
102
RTVSPost2010Prop33
280
     0
102
RTVSPost2010PropOp33
 70
     1
102
RTVSPost2010Prop34
280
     0
102
RTVSPost2010PropOp34
 70
     1
102
RTVSPost2010Prop35
280
     0
102
RTVSPost2010PropOp35
 70
     1
102
RTVSPost2010Prop36
280
     0
102
RTVSPost2010PropOp36
 70
     1
102
RTVSPost2010Prop37
 90
       50
102
RTVSPost2010PropOp37
 70
     1
102
RTVSPost2010Prop38
140
0.0
102
RTVSPost2010PropOp38
 70
     1
102
RTVSPost2010Prop39
140
1.0
102
RTVSPost2010PropOp39
 70
     1
102
RTVSPost2010Prop40
 90
        0
102
RTVSPost2010PropOp40
 70
     1
102
RTVSPost2010Prop41ColorIndex
 90
       18
102
RTVSPost2010Prop41ColorRGB
 90
        0
102
RTVSPost2010PropOp41
 70
     1
102
RTVSPost2010Prop42
 90
       50
102
RTVSPost2010PropOp42
 70
     1
102
RTVSPost2010Prop43
 90
        3
102
RTVSPost2010PropOp43
 70
     1
102
RTVSPost2010Prop44ColorIndex
 90
        5
102
RTVSPost2010Prop44ColorRGB
 90
      255
102
RTVSPost2010PropOp44
 70
     1
102
RTVSPost2010Prop45
280
     0
102
RTVSPost2010PropOp45
 70
     1
102
RTVSPost2010Prop46
 90
       50
102
RTVSPost2010PropOp46
 70
     1
102
RTVSPost2010Prop47
 90
       50
102
RTVSPost2010PropOp47
 70
     1
102
RTVSPost2010Prop48
 90
       50
102
RTVSPost2010PropOp48
 70
     1
102
RTVSPost2010Prop49
280
     0
102
RTVSPost2010PropOp49
 70
     1
102
RTVSPost2010Prop50
 90
       50
102
RTVSPost2010PropOp50
 70
     1
102
RTVSPost2010Prop51ColorIndex
 90
      256
102
RTVSPost2010Prop51ColorRGB
 90
-16777216
102
RTVSPost2010PropOp51
 70
     0
102
RTVSPost2010Prop52
140
1.0
102
RTVSPost2010PropOp52
 70
     0
102
RTVSPost2010Prop53
 90
        2
102
RTVSPost2010PropOp53
 70
     1
102
RTVSPost2010Prop54
  1
strokes_ogs.tif
102
RTVSPost2010PropOp54
 70
     1
102
RTVSPost2010Prop55
280
     0
102
RTVSPost2010PropOp55
 70
     1
102
RTVSPost2010Prop56
140
1.0
102
RTVSPost2010PropOp56
 70
     1
102
RTVSPost2010Prop57
140
1.0
102
RTVSPost2010PropOp57
 70
     1
102
RTVSPropertyOp0
 70
     1
102
RTVSPropertyOp1
 70
     1
102
RTVSPropertyOp2
 70
     1
102
RTVSPropertyOp3
 70
     1
102
RTVSPropertyOp4
 70
     1
102
RTVSPropertyOp5
 70
     1
102
RTVSPropertyOp6
 70
     1
102
RTVSPropertyOp7
 70
     1
102
RTVSPropertyOp8
 70
     1
102
RTVSPropertyOp9
 70
     1
102
RTVSPropertyOp10
 70
     1
102
RTVSPropertyOp11
 70
     1
102
RTVSPropertyOp12
 70
     1
102
RTVSPropertyOp13
 70
     1
102
RTVSPropertyOp14
 70
     1
102
RTVSPropertyOp15
 70
     1
102
RTVSPropertyOp16
 70
     1
102
RTVSPropertyOp17
 70
     1
102
RTVSPropertyOp18
 70
     1
102
RTVSPropertyOp19
 70
     1
102
RTVSPropertyOp20
 70
     1
102
RTVSPropertyOp21
 70
     1
102
RTVSPropertyOp22
 70
     1
102
RTVSPropertyOp23
 70
     1
102
RTVSPropertyOp24
 70
     1
102
RTVSPropertyOp25
 70
     1
102
RTVSPropertyOp26
 70
     1
102
RTVSPropertyOp27
 70
     1
102
RTVSPropertyOp28
 70
     1
102
RTVSPropertyOp29
 70
     1
102
RTVSPropertyOp30
 70
     1
102
RTVSPropertyOp31
 70
     1
102
RTVSPropertyOp32
 70
     1
102
RTVSPropertyOp33
 70
     1
102
RTVSPropertyOp34
 70
     1
102
RTVSPropertyOp35
 70
     1
102
RTVSPropertyOp36
 70
     1
102
RTVSPropertyOp37
 70
     1
102
RTVSPropertyOp38
 70
     1
102
RTVSPropertyOp39
 70
     1
102
RTVSPropertyOp40
 70
     1
102
RTVSPropertyOp41
 70
     1
102
RTVSPropertyOp42
 70
     1
102
RTVSPropertyOp43
 70
     1
102
RTVSPropertyOp44
 70
     1
102
RTVSPropertyOp45
 70
     1
102
RTVSPropertyOp46
 70
     1
102
RTVSPropertyOp47
 70
     1
102
RTVSPropertyOp48
 70
     1
102
RTVSPropertyOp49
 70
     1
102
RTVSPropertyOp50
 70
     1
102
RTVSPropertyOp51
 70
     0
102
RTVSPropertyOp52
 70
     0
102
RTVSPropertyOp53
 70
     1
102
RTVSPropertyOp54
 70
     1
102
RTVSPropertyOp55
 70
     1
102
RTVSPropertyOp56
 70
     1
102
RTVSPropertyOp57
 70
     1
102
RTVSPropertyOp58
 70
     1
102
RTVSPropertyOp59
 70
     1
102
RTVSPropertyOp60
 70
     1
102
RTVSPropertyOp61
 70
     1
102
RTVSPropertyOp62
 70
     1
  0
XRECORD
  5
9A63
102
{ACAD_REACTORS
330
9A62
102
}
330
9A62
100
AcDbXrecord
280
     1
102
RTVSPost2010Prop28
280
     0
102
RTVSPost2010PropOp28
 70
     1
102
RTVSPost2010Prop29
280
     1
102
RTVSPost2010PropOp29
 70
     1
102
RTVSPost2010Prop30
280
     1
102
RTVSPost2010PropOp30
 70
     1
102
RTVSPost2010Prop31
280
     0
102
RTVSPost2010PropOp31
 70
     1
102
RTVSPost2010Prop32
280
     0
102
RTVSPost2010PropOp32
 70
     1
102
RTVSPost2010Prop33
280
     0
102
RTVSPost2010PropOp33
 70
     1
102
RTVSPost2010Prop34
280
     0
102
RTVSPost2010PropOp34
 70
     1
102
RTVSPost2010Prop35
280
     0
102
RTVSPost2010PropOp35
 70
     1
102
RTVSPost2010Prop36
280
     0
102
RTVSPost2010PropOp36
 70
     1
102
RTVSPost2010Prop37
 90
       50
102
RTVSPost2010PropOp37
 70
     1
102
RTVSPost2010Prop38
140
0.0
102
RTVSPost2010PropOp38
 70
     1
102
RTVSPost2010Prop39
140
1.0
102
RTVSPost2010PropOp39
 70
     1
102
RTVSPost2010Prop40
 90
        0
102
RTVSPost2010PropOp40
 70
     1
102
RTVSPost2010Prop41ColorIndex
 90
       18
102
RTVSPost2010Prop41ColorRGB
 90
        0
102
RTVSPost2010PropOp41
 70
     1
102
RTVSPost2010Prop42
 90
       50
102
RTVSPost2010PropOp42
 70
     1
102
RTVSPost2010Prop43
 90
        3
102
RTVSPost2010PropOp43
 70
     1
102
RTVSPost2010Prop44ColorIndex
 90
        5
102
RTVSPost2010Prop44ColorRGB
 90
      255
102
RTVSPost2010PropOp44
 70
     1
102
RTVSPost2010Prop45
280
     0
102
RTVSPost2010PropOp45
 70
     1
102
RTVSPost2010Prop46
 90
       50
102
RTVSPost2010PropOp46
 70
     1
102
RTVSPost2010Prop47
 90
       50
102
RTVSPost2010PropOp47
 70
     1
102
RTVSPost2010Prop48
 90
       50
102
RTVSPost2010PropOp48
 70
     1
102
RTVSPost2010Prop49
280
     0
102
RTVSPost2010PropOp49
 70
     1
102
RTVSPost2010Prop50
 90
       50
102
RTVSPost2010PropOp50
 70
     1
102
RTVSPost2010Prop51ColorIndex
 90
      256
102
RTVSPost2010Prop51ColorRGB
 90
-16777216
102
RTVSPost2010PropOp51
 70
     0
102
RTVSPost2010Prop52
140
1.0
102
RTVSPost2010PropOp52
 70
     0
102
RTVSPost2010Prop53
 90
        2
102
RTVSPost2010PropOp53
 70
     1
102
RTVSPost2010Prop54
  1
strokes_ogs.tif
102
RTVSPost2010PropOp54
 70
     1
102
RTVSPost2010Prop55
280
     0
102
RTVSPost2010PropOp55
 70
     1
102
RTVSPost2010Prop56
140
1.0
102
RTVSPost2010PropOp56
 70
     1
102
RTVSPost2010Prop57
140
1.0
102
RTVSPost2010PropOp57
 70
     1
102
RTVSPropertyOp0
 70
     1
102
RTVSPropertyOp1
 70
     1
102
RTVSPropertyOp2
 70
     1
102
RTVSPropertyOp3
 70
     1
102
RTVSPropertyOp4
 70
     1
102
RTVSPropertyOp5
 70
     1
102
RTVSPropertyOp6
 70
     1
102
RTVSPropertyOp7
 70
     1
102
RTVSPropertyOp8
 70
     1
102
RTVSPropertyOp9
 70
     1
102
RTVSPropertyOp10
 70
     1
102
RTVSPropertyOp11
 70
     1
102
RTVSPropertyOp12
 70
     1
102
RTVSPropertyOp13
 70
     1
102
RTVSPropertyOp14
 70
     1
102
RTVSPropertyOp15
 70
     1
102
RTVSPropertyOp16
 70
     1
102
RTVSPropertyOp17
 70
     1
102
RTVSPropertyOp18
 70
     1
102
RTVSPropertyOp19
 70
     1
102
RTVSPropertyOp20
 70
     1
102
RTVSPropertyOp21
 70
     1
102
RTVSPropertyOp22
 70
     1
102
RTVSPropertyOp23
 70
     1
102
RTVSPropertyOp24
 70
     1
102
RTVSPropertyOp25
 70
     1
102
RTVSPropertyOp26
 70
     1
102
RTVSPropertyOp27
 70
     1
102
RTVSPropertyOp28
 70
     1
102
RTVSPropertyOp29
 70
     1
102
RTVSPropertyOp30
 70
     1
102
RTVSPropertyOp31
 70
     1
102
RTVSPropertyOp32
 70
     1
102
RTVSPropertyOp33
 70
     1
102
RTVSPropertyOp34
 70
     1
102
RTVSPropertyOp35
 70
     1
102
RTVSPropertyOp36
 70
     1
102
RTVSPropertyOp37
 70
     1
102
RTVSPropertyOp38
 70
     1
102
RTVSPropertyOp39
 70
     1
102
RTVSPropertyOp40
 70
     1
102
RTVSPropertyOp41
 70
     1
102
RTVSPropertyOp42
 70
     1
102
RTVSPropertyOp43
 70
     1
102
RTVSPropertyOp44
 70
     1
102
RTVSPropertyOp45
 70
     1
102
RTVSPropertyOp46
 70
     1
102
RTVSPropertyOp47
 70
     1
102
RTVSPropertyOp48
 70
     1
102
RTVSPropertyOp49
 70
     1
102
RTVSPropertyOp50
 70
     1
102
RTVSPropertyOp51
 70
     0
102
RTVSPropertyOp52
 70
     0
102
RTVSPropertyOp53
 70
     1
102
RTVSPropertyOp54
 70
     1
102
RTVSPropertyOp55
 70
     1
102
RTVSPropertyOp56
 70
     1
102
RTVSPropertyOp57
 70
     1
102
RTVSPropertyOp58
 70
     1
102
RTVSPropertyOp59
 70
     1
102
RTVSPropertyOp60
 70
     1
102
RTVSPropertyOp61
 70
     1
102
RTVSPropertyOp62
 70
     1
  0
XRECORD
  5
9A61
102
{ACAD_REACTORS
330
9A60
102
}
330
9A60
100
AcDbXrecord
280
     1
102
RTVSPost2010Prop28
280
     0
102
RTVSPost2010PropOp28
 70
     1
102
RTVSPost2010Prop29
280
     1
102
RTVSPost2010PropOp29
 70
     1
102
RTVSPost2010Prop30
280
     1
102
RTVSPost2010PropOp30
 70
     1
102
RTVSPost2010Prop31
280
     0
102
RTVSPost2010PropOp31
 70
     1
102
RTVSPost2010Prop32
280
     0
102
RTVSPost2010PropOp32
 70
     1
102
RTVSPost2010Prop33
280
     0
102
RTVSPost2010PropOp33
 70
     1
102
RTVSPost2010Prop34
280
     0
102
RTVSPost2010PropOp34
 70
     1
102
RTVSPost2010Prop35
280
     0
102
RTVSPost2010PropOp35
 70
     1
102
RTVSPost2010Prop36
280
     0
102
RTVSPost2010PropOp36
 70
     1
102
RTVSPost2010Prop37
 90
       50
102
RTVSPost2010PropOp37
 70
     1
102
RTVSPost2010Prop38
140
0.0
102
RTVSPost2010PropOp38
 70
     1
102
RTVSPost2010Prop39
140
1.0
102
RTVSPost2010PropOp39
 70
     1
102
RTVSPost2010Prop40
 90
        0
102
RTVSPost2010PropOp40
 70
     1
102
RTVSPost2010Prop41ColorIndex
 90
       18
102
RTVSPost2010Prop41ColorRGB
 90
        0
102
RTVSPost2010PropOp41
 70
     1
102
RTVSPost2010Prop42
 90
       50
102
RTVSPost2010PropOp42
 70
     1
102
RTVSPost2010Prop43
 90
        3
102
RTVSPost2010PropOp43
 70
     1
102
RTVSPost2010Prop44ColorIndex
 90
        5
102
RTVSPost2010Prop44ColorRGB
 90
      255
102
RTVSPost2010PropOp44
 70
     1
102
RTVSPost2010Prop45
280
     0
102
RTVSPost2010PropOp45
 70
     1
102
RTVSPost2010Prop46
 90
       50
102
RTVSPost2010PropOp46
 70
     1
102
RTVSPost2010Prop47
 90
       50
102
RTVSPost2010PropOp47
 70
     1
102
RTVSPost2010Prop48
 90
       50
102
RTVSPost2010PropOp48
 70
     1
102
RTVSPost2010Prop49
280
     0
102
RTVSPost2010PropOp49
 70
     1
102
RTVSPost2010Prop50
 90
       50
102
RTVSPost2010PropOp50
 70
     1
102
RTVSPost2010Prop51ColorIndex
 90
      256
102
RTVSPost2010Prop51ColorRGB
 90
-16777216
102
RTVSPost2010PropOp51
 70
     0
102
RTVSPost2010Prop52
140
1.0
102
RTVSPost2010PropOp52
 70
     0
102
RTVSPost2010Prop53
 90
        2
102
RTVSPost2010PropOp53
 70
     1
102
RTVSPost2010Prop54
  1
strokes_ogs.tif
102
RTVSPost2010PropOp54
 70
     1
102
RTVSPost2010Prop55
280
     0
102
RTVSPost2010PropOp55
 70
     1
102
RTVSPost2010Prop56
140
1.0
102
RTVSPost2010PropOp56
 70
     1
102
RTVSPost2010Prop57
140
1.0
102
RTVSPost2010PropOp57
 70
     1
102
RTVSPropertyOp0
 70
     1
102
RTVSPropertyOp1
 70
     1
102
RTVSPropertyOp2
 70
     1
102
RTVSPropertyOp3
 70
     1
102
RTVSPropertyOp4
 70
     1
102
RTVSPropertyOp5
 70
     1
102
RTVSPropertyOp6
 70
     1
102
RTVSPropertyOp7
 70
     1
102
RTVSPropertyOp8
 70
     1
102
RTVSPropertyOp9
 70
     1
102
RTVSPropertyOp10
 70
     1
102
RTVSPropertyOp11
 70
     1
102
RTVSPropertyOp12
 70
     1
102
RTVSPropertyOp13
 70
     1
102
RTVSPropertyOp14
 70
     1
102
RTVSPropertyOp15
 70
     1
102
RTVSPropertyOp16
 70
     1
102
RTVSPropertyOp17
 70
     1
102
RTVSPropertyOp18
 70
     1
102
RTVSPropertyOp19
 70
     1
102
RTVSPropertyOp20
 70
     1
102
RTVSPropertyOp21
 70
     1
102
RTVSPropertyOp22
 70
     1
102
RTVSPropertyOp23
 70
     1
102
RTVSPropertyOp24
 70
     1
102
RTVSPropertyOp25
 70
     1
102
RTVSPropertyOp26
 70
     1
102
RTVSPropertyOp27
 70
     1
102
RTVSPropertyOp28
 70
     1
102
RTVSPropertyOp29
 70
     1
102
RTVSPropertyOp30
 70
     1
102
RTVSPropertyOp31
 70
     1
102
RTVSPropertyOp32
 70
     1
102
RTVSPropertyOp33
 70
     1
102
RTVSPropertyOp34
 70
     1
102
RTVSPropertyOp35
 70
     1
102
RTVSPropertyOp36
 70
     1
102
RTVSPropertyOp37
 70
     1
102
RTVSPropertyOp38
 70
     1
102
RTVSPropertyOp39
 70
     1
102
RTVSPropertyOp40
 70
     1
102
RTVSPropertyOp41
 70
     1
102
RTVSPropertyOp42
 70
     1
102
RTVSPropertyOp43
 70
     1
102
RTVSPropertyOp44
 70
     1
102
RTVSPropertyOp45
 70
     1
102
RTVSPropertyOp46
 70
     1
102
RTVSPropertyOp47
 70
     1
102
RTVSPropertyOp48
 70
     1
102
RTVSPropertyOp49
 70
     1
102
RTVSPropertyOp50
 70
     1
102
RTVSPropertyOp51
 70
     0
102
RTVSPropertyOp52
 70
     0
102
RTVSPropertyOp53
 70
     1
102
RTVSPropertyOp54
 70
     1
102
RTVSPropertyOp55
 70
     1
102
RTVSPropertyOp56
 70
     1
102
RTVSPropertyOp57
 70
     1
102
RTVSPropertyOp58
 70
     1
102
RTVSPropertyOp59
 70
     1
102
RTVSPropertyOp60
 70
     1
102
RTVSPropertyOp61
 70
     1
102
RTVSPropertyOp62
 70
     1
  0
XRECORD
  5
9A5B
102
{ACAD_REACTORS
330
9A5A
102
}
330
9A5A
100
AcDbXrecord
280
     1
102
RTVSPost2010Prop28
280
     0
102
RTVSPost2010PropOp28
 70
     1
102
RTVSPost2010Prop29
280
     1
102
RTVSPost2010PropOp29
 70
     1
102
RTVSPost2010Prop30
280
     1
102
RTVSPost2010PropOp30
 70
     1
102
RTVSPost2010Prop31
280
     0
102
RTVSPost2010PropOp31
 70
     1
102
RTVSPost2010Prop32
280
     0
102
RTVSPost2010PropOp32
 70
     1
102
RTVSPost2010Prop33
280
     0
102
RTVSPost2010PropOp33
 70
     1
102
RTVSPost2010Prop34
280
     0
102
RTVSPost2010PropOp34
 70
     1
102
RTVSPost2010Prop35
280
     0
102
RTVSPost2010PropOp35
 70
     1
102
RTVSPost2010Prop36
280
     0
102
RTVSPost2010PropOp36
 70
     1
102
RTVSPost2010Prop37
 90
       50
102
RTVSPost2010PropOp37
 70
     1
102
RTVSPost2010Prop38
140
0.0
102
RTVSPost2010PropOp38
 70
     1
102
RTVSPost2010Prop39
140
1.0
102
RTVSPost2010PropOp39
 70
     1
102
RTVSPost2010Prop40
 90
        0
102
RTVSPost2010PropOp40
 70
     1
102
RTVSPost2010Prop41ColorIndex
 90
       18
102
RTVSPost2010Prop41ColorRGB
 90
        0
102
RTVSPost2010PropOp41
 70
     1
102
RTVSPost2010Prop42
 90
       50
102
RTVSPost2010PropOp42
 70
     1
102
RTVSPost2010Prop43
 90
        3
102
RTVSPost2010PropOp43
 70
     1
102
RTVSPost2010Prop44ColorIndex
 90
        5
102
RTVSPost2010Prop44ColorRGB
 90
      255
102
RTVSPost2010PropOp44
 70
     1
102
RTVSPost2010Prop45
280
     0
102
RTVSPost2010PropOp45
 70
     1
102
RTVSPost2010Prop46
 90
       50
102
RTVSPost2010PropOp46
 70
     1
102
RTVSPost2010Prop47
 90
       50
102
RTVSPost2010PropOp47
 70
     1
102
RTVSPost2010Prop48
 90
       50
102
RTVSPost2010PropOp48
 70
     1
102
RTVSPost2010Prop49
280
     0
102
RTVSPost2010PropOp49
 70
     1
102
RTVSPost2010Prop50
 90
       50
102
RTVSPost2010PropOp50
 70
     1
102
RTVSPost2010Prop51ColorIndex
 90
      256
102
RTVSPost2010Prop51ColorRGB
 90
-16777216
102
RTVSPost2010PropOp51
 70
     0
102
RTVSPost2010Prop52
140
1.0
102
RTVSPost2010PropOp52
 70
     0
102
RTVSPost2010Prop53
 90
        2
102
RTVSPost2010PropOp53
 70
     1
102
RTVSPost2010Prop54
  1
strokes_ogs.tif
102
RTVSPost2010PropOp54
 70
     1
102
RTVSPost2010Prop55
280
     0
102
RTVSPost2010PropOp55
 70
     1
102
RTVSPost2010Prop56
140
1.0
102
RTVSPost2010PropOp56
 70
     1
102
RTVSPost2010Prop57
140
1.0
102
RTVSPost2010PropOp57
 70
     1
102
RTVSPropertyOp0
 70
     1
102
RTVSPropertyOp1
 70
     1
102
RTVSPropertyOp2
 70
     1
102
RTVSPropertyOp3
 70
     1
102
RTVSPropertyOp4
 70
     1
102
RTVSPropertyOp5
 70
     1
102
RTVSPropertyOp6
 70
     1
102
RTVSPropertyOp7
 70
     1
102
RTVSPropertyOp8
 70
     1
102
RTVSPropertyOp9
 70
     1
102
RTVSPropertyOp10
 70
     1
102
RTVSPropertyOp11
 70
     1
102
RTVSPropertyOp12
 70
     1
102
RTVSPropertyOp13
 70
     1
102
RTVSPropertyOp14
 70
     1
102
RTVSPropertyOp15
 70
     1
102
RTVSPropertyOp16
 70
     1
102
RTVSPropertyOp17
 70
     1
102
RTVSPropertyOp18
 70
     1
102
RTVSPropertyOp19
 70
     1
102
RTVSPropertyOp20
 70
     1
102
RTVSPropertyOp21
 70
     1
102
RTVSPropertyOp22
 70
     1
102
RTVSPropertyOp23
 70
     1
102
RTVSPropertyOp24
 70
     1
102
RTVSPropertyOp25
 70
     1
102
RTVSPropertyOp26
 70
     1
102
RTVSPropertyOp27
 70
     1
102
RTVSPropertyOp28
 70
     1
102
RTVSPropertyOp29
 70
     1
102
RTVSPropertyOp30
 70
     1
102
RTVSPropertyOp31
 70
     1
102
RTVSPropertyOp32
 70
     1
102
RTVSPropertyOp33
 70
     1
102
RTVSPropertyOp34
 70
     1
102
RTVSPropertyOp35
 70
     1
102
RTVSPropertyOp36
 70
     1
102
RTVSPropertyOp37
 70
     1
102
RTVSPropertyOp38
 70
     1
102
RTVSPropertyOp39
 70
     1
102
RTVSPropertyOp40
 70
     1
102
RTVSPropertyOp41
 70
     1
102
RTVSPropertyOp42
 70
     1
102
RTVSPropertyOp43
 70
     1
102
RTVSPropertyOp44
 70
     1
102
RTVSPropertyOp45
 70
     1
102
RTVSPropertyOp46
 70
     1
102
RTVSPropertyOp47
 70
     1
102
RTVSPropertyOp48
 70
     1
102
RTVSPropertyOp49
 70
     1
102
RTVSPropertyOp50
 70
     1
102
RTVSPropertyOp51
 70
     0
102
RTVSPropertyOp52
 70
     0
102
RTVSPropertyOp53
 70
     1
102
RTVSPropertyOp54
 70
     1
102
RTVSPropertyOp55
 70
     1
102
RTVSPropertyOp56
 70
     1
102
RTVSPropertyOp57
 70
     1
102
RTVSPropertyOp58
 70
     1
102
RTVSPropertyOp59
 70
     1
102
RTVSPropertyOp60
 70
     1
102
RTVSPropertyOp61
 70
     1
102
RTVSPropertyOp62
 70
     1
  0
XRECORD
  5
9A5D
102
{ACAD_REACTORS
330
9A5C
102
}
330
9A5C
100
AcDbXrecord
280
     1
102
RTVSPost2010Prop28
280
     0
102
RTVSPost2010PropOp28
 70
     1
102
RTVSPost2010Prop29
280
     1
102
RTVSPost2010PropOp29
 70
     1
102
RTVSPost2010Prop30
280
     1
102
RTVSPost2010PropOp30
 70
     1
102
RTVSPost2010Prop31
280
     0
102
RTVSPost2010PropOp31
 70
     1
102
RTVSPost2010Prop32
280
     0
102
RTVSPost2010PropOp32
 70
     1
102
RTVSPost2010Prop33
280
     0
102
RTVSPost2010PropOp33
 70
     1
102
RTVSPost2010Prop34
280
     0
102
RTVSPost2010PropOp34
 70
     1
102
RTVSPost2010Prop35
280
     0
102
RTVSPost2010PropOp35
 70
     1
102
RTVSPost2010Prop36
280
     0
102
RTVSPost2010PropOp36
 70
     1
102
RTVSPost2010Prop37
 90
       50
102
RTVSPost2010PropOp37
 70
     1
102
RTVSPost2010Prop38
140
0.0
102
RTVSPost2010PropOp38
 70
     1
102
RTVSPost2010Prop39
140
1.0
102
RTVSPost2010PropOp39
 70
     1
102
RTVSPost2010Prop40
 90
        0
102
RTVSPost2010PropOp40
 70
     1
102
RTVSPost2010Prop41ColorIndex
 90
       18
102
RTVSPost2010Prop41ColorRGB
 90
        0
102
RTVSPost2010PropOp41
 70
     1
102
RTVSPost2010Prop42
 90
       50
102
RTVSPost2010PropOp42
 70
     1
102
RTVSPost2010Prop43
 90
        3
102
RTVSPost2010PropOp43
 70
     1
102
RTVSPost2010Prop44ColorIndex
 90
        5
102
RTVSPost2010Prop44ColorRGB
 90
      255
102
RTVSPost2010PropOp44
 70
     1
102
RTVSPost2010Prop45
280
     0
102
RTVSPost2010PropOp45
 70
     1
102
RTVSPost2010Prop46
 90
       50
102
RTVSPost2010PropOp46
 70
     1
102
RTVSPost2010Prop47
 90
       50
102
RTVSPost2010PropOp47
 70
     1
102
RTVSPost2010Prop48
 90
       50
102
RTVSPost2010PropOp48
 70
     1
102
RTVSPost2010Prop49
280
     0
102
RTVSPost2010PropOp49
 70
     1
102
RTVSPost2010Prop50
 90
       50
102
RTVSPost2010PropOp50
 70
     1
102
RTVSPost2010Prop51ColorIndex
 90
      256
102
RTVSPost2010Prop51ColorRGB
 90
-16777216
102
RTVSPost2010PropOp51
 70
     0
102
RTVSPost2010Prop52
140
1.0
102
RTVSPost2010PropOp52
 70
     0
102
RTVSPost2010Prop53
 90
        2
102
RTVSPost2010PropOp53
 70
     1
102
RTVSPost2010Prop54
  1
strokes_ogs.tif
102
RTVSPost2010PropOp54
 70
     1
102
RTVSPost2010Prop55
280
     0
102
RTVSPost2010PropOp55
 70
     1
102
RTVSPost2010Prop56
140
1.0
102
RTVSPost2010PropOp56
 70
     1
102
RTVSPost2010Prop57
140
1.0
102
RTVSPost2010PropOp57
 70
     1
102
RTVSPropertyOp0
 70
     1
102
RTVSPropertyOp1
 70
     1
102
RTVSPropertyOp2
 70
     1
102
RTVSPropertyOp3
 70
     1
102
RTVSPropertyOp4
 70
     1
102
RTVSPropertyOp5
 70
     1
102
RTVSPropertyOp6
 70
     1
102
RTVSPropertyOp7
 70
     1
102
RTVSPropertyOp8
 70
     1
102
RTVSPropertyOp9
 70
     1
102
RTVSPropertyOp10
 70
     1
102
RTVSPropertyOp11
 70
     1
102
RTVSPropertyOp12
 70
     1
102
RTVSPropertyOp13
 70
     1
102
RTVSPropertyOp14
 70
     1
102
RTVSPropertyOp15
 70
     1
102
RTVSPropertyOp16
 70
     1
102
RTVSPropertyOp17
 70
     1
102
RTVSPropertyOp18
 70
     1
102
RTVSPropertyOp19
 70
     1
102
RTVSPropertyOp20
 70
     1
102
RTVSPropertyOp21
 70
     1
102
RTVSPropertyOp22
 70
     1
102
RTVSPropertyOp23
 70
     1
102
RTVSPropertyOp24
 70
     1
102
RTVSPropertyOp25
 70
     1
102
RTVSPropertyOp26
 70
     1
102
RTVSPropertyOp27
 70
     1
102
RTVSPropertyOp28
 70
     1
102
RTVSPropertyOp29
 70
     1
102
RTVSPropertyOp30
 70
     1
102
RTVSPropertyOp31
 70
     1
102
RTVSPropertyOp32
 70
     1
102
RTVSPropertyOp33
 70
     1
102
RTVSPropertyOp34
 70
     1
102
RTVSPropertyOp35
 70
     1
102
RTVSPropertyOp36
 70
     1
102
RTVSPropertyOp37
 70
     1
102
RTVSPropertyOp38
 70
     1
102
RTVSPropertyOp39
 70
     1
102
RTVSPropertyOp40
 70
     1
102
RTVSPropertyOp41
 70
     1
102
RTVSPropertyOp42
 70
     1
102
RTVSPropertyOp43
 70
     1
102
RTVSPropertyOp44
 70
     1
102
RTVSPropertyOp45
 70
     1
102
RTVSPropertyOp46
 70
     1
102
RTVSPropertyOp47
 70
     1
102
RTVSPropertyOp48
 70
     1
102
RTVSPropertyOp49
 70
     1
102
RTVSPropertyOp50
 70
     1
102
RTVSPropertyOp51
 70
     0
102
RTVSPropertyOp52
 70
     0
102
RTVSPropertyOp53
 70
     1
102
RTVSPropertyOp54
 70
     1
102
RTVSPropertyOp55
 70
     1
102
RTVSPropertyOp56
 70
     1
102
RTVSPropertyOp57
 70
     1
102
RTVSPropertyOp58
 70
     1
102
RTVSPropertyOp59
 70
     1
102
RTVSPropertyOp60
 70
     1
102
RTVSPropertyOp61
 70
     1
102
RTVSPropertyOp62
 70
     1
  0
XRECORD
  5
9A53
102
{ACAD_REACTORS
330
9A52
102
}
330
9A52
100
AcDbXrecord
280
     1
102
RTVSPost2010Prop28
280
     0
102
RTVSPost2010PropOp28
 70
     1
102
RTVSPost2010Prop29
280
     1
102
RTVSPost2010PropOp29
 70
     1
102
RTVSPost2010Prop30
280
     1
102
RTVSPost2010PropOp30
 70
     1
102
RTVSPost2010Prop31
280
     0
102
RTVSPost2010PropOp31
 70
     1
102
RTVSPost2010Prop32
280
     0
102
RTVSPost2010PropOp32
 70
     1
102
RTVSPost2010Prop33
280
     0
102
RTVSPost2010PropOp33
 70
     1
102
RTVSPost2010Prop34
280
     0
102
RTVSPost2010PropOp34
 70
     1
102
RTVSPost2010Prop35
280
     0
102
RTVSPost2010PropOp35
 70
     1
102
RTVSPost2010Prop36
280
     0
102
RTVSPost2010PropOp36
 70
     1
102
RTVSPost2010Prop37
 90
       50
102
RTVSPost2010PropOp37
 70
     1
102
RTVSPost2010Prop38
140
0.0
102
RTVSPost2010PropOp38
 70
     1
102
RTVSPost2010Prop39
140
1.0
102
RTVSPost2010PropOp39
 70
     1
102
RTVSPost2010Prop40
 90
        0
102
RTVSPost2010PropOp40
 70
     1
102
RTVSPost2010Prop41ColorIndex
 90
       18
102
RTVSPost2010Prop41ColorRGB
 90
        0
102
RTVSPost2010PropOp41
 70
     1
102
RTVSPost2010Prop42
 90
       50
102
RTVSPost2010PropOp42
 70
     1
102
RTVSPost2010Prop43
 90
        3
102
RTVSPost2010PropOp43
 70
     1
102
RTVSPost2010Prop44ColorIndex
 90
        5
102
RTVSPost2010Prop44ColorRGB
 90
      255
102
RTVSPost2010PropOp44
 70
     1
102
RTVSPost2010Prop45
280
     0
102
RTVSPost2010PropOp45
 70
     1
102
RTVSPost2010Prop46
 90
       50
102
RTVSPost2010PropOp46
 70
     1
102
RTVSPost2010Prop47
 90
       50
102
RTVSPost2010PropOp47
 70
     1
102
RTVSPost2010Prop48
 90
       50
102
RTVSPost2010PropOp48
 70
     1
102
RTVSPost2010Prop49
280
     0
102
RTVSPost2010PropOp49
 70
     1
102
RTVSPost2010Prop50
 90
       50
102
RTVSPost2010PropOp50
 70
     1
102
RTVSPost2010Prop51ColorIndex
 90
      256
102
RTVSPost2010Prop51ColorRGB
 90
-16777216
102
RTVSPost2010PropOp51
 70
     0
102
RTVSPost2010Prop52
140
1.0
102
RTVSPost2010PropOp52
 70
     0
102
RTVSPost2010Prop53
 90
        2
102
RTVSPost2010PropOp53
 70
     1
102
RTVSPost2010Prop54
  1
strokes_ogs.tif
102
RTVSPost2010PropOp54
 70
     1
102
RTVSPost2010Prop55
280
     0
102
RTVSPost2010PropOp55
 70
     1
102
RTVSPost2010Prop56
140
1.0
102
RTVSPost2010PropOp56
 70
     1
102
RTVSPost2010Prop57
140
1.0
102
RTVSPost2010PropOp57
 70
     1
102
RTVSPropertyOp0
 70
     1
102
RTVSPropertyOp1
 70
     1
102
RTVSPropertyOp2
 70
     1
102
RTVSPropertyOp3
 70
     1
102
RTVSPropertyOp4
 70
     1
102
RTVSPropertyOp5
 70
     1
102
RTVSPropertyOp6
 70
     1
102
RTVSPropertyOp7
 70
     1
102
RTVSPropertyOp8
 70
     1
102
RTVSPropertyOp9
 70
     1
102
RTVSPropertyOp10
 70
     1
102
RTVSPropertyOp11
 70
     1
102
RTVSPropertyOp12
 70
     1
102
RTVSPropertyOp13
 70
     1
102
RTVSPropertyOp14
 70
     1
102
RTVSPropertyOp15
 70
     1
102
RTVSPropertyOp16
 70
     1
102
RTVSPropertyOp17
 70
     1
102
RTVSPropertyOp18
 70
     1
102
RTVSPropertyOp19
 70
     1
102
RTVSPropertyOp20
 70
     1
102
RTVSPropertyOp21
 70
     1
102
RTVSPropertyOp22
 70
     1
102
RTVSPropertyOp23
 70
     1
102
RTVSPropertyOp24
 70
     1
102
RTVSPropertyOp25
 70
     1
102
RTVSPropertyOp26
 70
     1
102
RTVSPropertyOp27
 70
     1
102
RTVSPropertyOp28
 70
     1
102
RTVSPropertyOp29
 70
     1
102
RTVSPropertyOp30
 70
     1
102
RTVSPropertyOp31
 70
     1
102
RTVSPropertyOp32
 70
     1
102
RTVSPropertyOp33
 70
     1
102
RTVSPropertyOp34
 70
     1
102
RTVSPropertyOp35
 70
     1
102
RTVSPropertyOp36
 70
     1
102
RTVSPropertyOp37
 70
     1
102
RTVSPropertyOp38
 70
     1
102
RTVSPropertyOp39
 70
     1
102
RTVSPropertyOp40
 70
     1
102
RTVSPropertyOp41
 70
     1
102
RTVSPropertyOp42
 70
     1
102
RTVSPropertyOp43
 70
     1
102
RTVSPropertyOp44
 70
     1
102
RTVSPropertyOp45
 70
     1
102
RTVSPropertyOp46
 70
     1
102
RTVSPropertyOp47
 70
     1
102
RTVSPropertyOp48
 70
     1
102
RTVSPropertyOp49
 70
     1
102
RTVSPropertyOp50
 70
     1
102
RTVSPropertyOp51
 70
     0
102
RTVSPropertyOp52
 70
     0
102
RTVSPropertyOp53
 70
     1
102
RTVSPropertyOp54
 70
     1
102
RTVSPropertyOp55
 70
     1
102
RTVSPropertyOp56
 70
     1
102
RTVSPropertyOp57
 70
     1
102
RTVSPropertyOp58
 70
     1
102
RTVSPropertyOp59
 70
     1
102
RTVSPropertyOp60
 70
     1
102
RTVSPropertyOp61
 70
     1
102
RTVSPropertyOp62
 70
     1
  0
XRECORD
  5
9A47
102
{ACAD_REACTORS
330
9A46
102
}
330
9A46
100
AcDbXrecord
280
     1
102
RTVSPost2010Prop28
280
     0
102
RTVSPost2010PropOp28
 70
     1
102
RTVSPost2010Prop29
280
     1
102
RTVSPost2010PropOp29
 70
     1
102
RTVSPost2010Prop30
280
     1
102
RTVSPost2010PropOp30
 70
     1
102
RTVSPost2010Prop31
280
     0
102
RTVSPost2010PropOp31
 70
     1
102
RTVSPost2010Prop32
280
     0
102
RTVSPost2010PropOp32
 70
     1
102
RTVSPost2010Prop33
280
     0
102
RTVSPost2010PropOp33
 70
     1
102
RTVSPost2010Prop34
280
     0
102
RTVSPost2010PropOp34
 70
     1
102
RTVSPost2010Prop35
280
     0
102
RTVSPost2010PropOp35
 70
     1
102
RTVSPost2010Prop36
280
     0
102
RTVSPost2010PropOp36
 70
     1
102
RTVSPost2010Prop37
 90
       50
102
RTVSPost2010PropOp37
 70
     1
102
RTVSPost2010Prop38
140
0.0
102
RTVSPost2010PropOp38
 70
     1
102
RTVSPost2010Prop39
140
1.0
102
RTVSPost2010PropOp39
 70
     1
102
RTVSPost2010Prop40
 90
        0
102
RTVSPost2010PropOp40
 70
     1
102
RTVSPost2010Prop41ColorIndex
 90
       18
102
RTVSPost2010Prop41ColorRGB
 90
        0
102
RTVSPost2010PropOp41
 70
     1
102
RTVSPost2010Prop42
 90
       50
102
RTVSPost2010PropOp42
 70
     1
102
RTVSPost2010Prop43
 90
        3
102
RTVSPost2010PropOp43
 70
     1
102
RTVSPost2010Prop44ColorIndex
 90
        5
102
RTVSPost2010Prop44ColorRGB
 90
      255
102
RTVSPost2010PropOp44
 70
     1
102
RTVSPost2010Prop45
280
     0
102
RTVSPost2010PropOp45
 70
     1
102
RTVSPost2010Prop46
 90
       50
102
RTVSPost2010PropOp46
 70
     1
102
RTVSPost2010Prop47
 90
       50
102
RTVSPost2010PropOp47
 70
     1
102
RTVSPost2010Prop48
 90
       50
102
RTVSPost2010PropOp48
 70
     1
102
RTVSPost2010Prop49
280
     0
102
RTVSPost2010PropOp49
 70
     1
102
RTVSPost2010Prop50
 90
       50
102
RTVSPost2010PropOp50
 70
     1
102
RTVSPost2010Prop51ColorIndex
 90
      256
102
RTVSPost2010Prop51ColorRGB
 90
-16777216
102
RTVSPost2010PropOp51
 70
     0
102
RTVSPost2010Prop52
140
1.0
102
RTVSPost2010PropOp52
 70
     0
102
RTVSPost2010Prop53
 90
        2
102
RTVSPost2010PropOp53
 70
     1
102
RTVSPost2010Prop54
  1
strokes_ogs.tif
102
RTVSPost2010PropOp54
 70
     1
102
RTVSPost2010Prop55
280
     0
102
RTVSPost2010PropOp55
 70
     1
102
RTVSPost2010Prop56
140
1.0
102
RTVSPost2010PropOp56
 70
     1
102
RTVSPost2010Prop57
140
1.0
102
RTVSPost2010PropOp57
 70
     1
102
RTVSPropertyOp0
 70
     1
102
RTVSPropertyOp1
 70
     1
102
RTVSPropertyOp2
 70
     1
102
RTVSPropertyOp3
 70
     1
102
RTVSPropertyOp4
 70
     1
102
RTVSPropertyOp5
 70
     1
102
RTVSPropertyOp6
 70
     1
102
RTVSPropertyOp7
 70
     1
102
RTVSPropertyOp8
 70
     1
102
RTVSPropertyOp9
 70
     1
102
RTVSPropertyOp10
 70
     1
102
RTVSPropertyOp11
 70
     1
102
RTVSPropertyOp12
 70
     1
102
RTVSPropertyOp13
 70
     1
102
RTVSPropertyOp14
 70
     1
102
RTVSPropertyOp15
 70
     1
102
RTVSPropertyOp16
 70
     1
102
RTVSPropertyOp17
 70
     1
102
RTVSPropertyOp18
 70
     1
102
RTVSPropertyOp19
 70
     1
102
RTVSPropertyOp20
 70
     1
102
RTVSPropertyOp21
 70
     1
102
RTVSPropertyOp22
 70
     1
102
RTVSPropertyOp23
 70
     1
102
RTVSPropertyOp24
 70
     1
102
RTVSPropertyOp25
 70
     1
102
RTVSPropertyOp26
 70
     1
102
RTVSPropertyOp27
 70
     1
102
RTVSPropertyOp28
 70
     1
102
RTVSPropertyOp29
 70
     1
102
RTVSPropertyOp30
 70
     1
102
RTVSPropertyOp31
 70
     1
102
RTVSPropertyOp32
 70
     1
102
RTVSPropertyOp33
 70
     1
102
RTVSPropertyOp34
 70
     1
102
RTVSPropertyOp35
 70
     1
102
RTVSPropertyOp36
 70
     1
102
RTVSPropertyOp37
 70
     1
102
RTVSPropertyOp38
 70
     1
102
RTVSPropertyOp39
 70
     1
102
RTVSPropertyOp40
 70
     1
102
RTVSPropertyOp41
 70
     1
102
RTVSPropertyOp42
 70
     1
102
RTVSPropertyOp43
 70
     1
102
RTVSPropertyOp44
 70
     1
102
RTVSPropertyOp45
 70
     1
102
RTVSPropertyOp46
 70
     1
102
RTVSPropertyOp47
 70
     1
102
RTVSPropertyOp48
 70
     1
102
RTVSPropertyOp49
 70
     1
102
RTVSPropertyOp50
 70
     1
102
RTVSPropertyOp51
 70
     0
102
RTVSPropertyOp52
 70
     0
102
RTVSPropertyOp53
 70
     1
102
RTVSPropertyOp54
 70
     1
102
RTVSPropertyOp55
 70
     1
102
RTVSPropertyOp56
 70
     1
102
RTVSPropertyOp57
 70
     1
102
RTVSPropertyOp58
 70
     1
102
RTVSPropertyOp59
 70
     1
102
RTVSPropertyOp60
 70
     1
102
RTVSPropertyOp61
 70
     1
102
RTVSPropertyOp62
 70
     1
  0
XRECORD
  5
9A5F
102
{ACAD_REACTORS
330
9A5E
102
}
330
9A5E
100
AcDbXrecord
280
     1
102
RTVSPost2010Prop28
280
     0
102
RTVSPost2010PropOp28
 70
     1
102
RTVSPost2010Prop29
280
     1
102
RTVSPost2010PropOp29
 70
     1
102
RTVSPost2010Prop30
280
     1
102
RTVSPost2010PropOp30
 70
     1
102
RTVSPost2010Prop31
280
     0
102
RTVSPost2010PropOp31
 70
     1
102
RTVSPost2010Prop32
280
     0
102
RTVSPost2010PropOp32
 70
     1
102
RTVSPost2010Prop33
280
     0
102
RTVSPost2010PropOp33
 70
     1
102
RTVSPost2010Prop34
280
     0
102
RTVSPost2010PropOp34
 70
     1
102
RTVSPost2010Prop35
280
     0
102
RTVSPost2010PropOp35
 70
     1
102
RTVSPost2010Prop36
280
     0
102
RTVSPost2010PropOp36
 70
     1
102
RTVSPost2010Prop37
 90
       50
102
RTVSPost2010PropOp37
 70
     1
102
RTVSPost2010Prop38
140
0.0
102
RTVSPost2010PropOp38
 70
     1
102
RTVSPost2010Prop39
140
1.0
102
RTVSPost2010PropOp39
 70
     1
102
RTVSPost2010Prop40
 90
        0
102
RTVSPost2010PropOp40
 70
     1
102
RTVSPost2010Prop41ColorIndex
 90
       18
102
RTVSPost2010Prop41ColorRGB
 90
        0
102
RTVSPost2010PropOp41
 70
     1
102
RTVSPost2010Prop42
 90
       50
102
RTVSPost2010PropOp42
 70
     1
102
RTVSPost2010Prop43
 90
        3
102
RTVSPost2010PropOp43
 70
     1
102
RTVSPost2010Prop44ColorIndex
 90
        5
102
RTVSPost2010Prop44ColorRGB
 90
      255
102
RTVSPost2010PropOp44
 70
     1
102
RTVSPost2010Prop45
280
     0
102
RTVSPost2010PropOp45
 70
     1
102
RTVSPost2010Prop46
 90
       50
102
RTVSPost2010PropOp46
 70
     1
102
RTVSPost2010Prop47
 90
       50
102
RTVSPost2010PropOp47
 70
     1
102
RTVSPost2010Prop48
 90
       50
102
RTVSPost2010PropOp48
 70
     1
102
RTVSPost2010Prop49
280
     0
102
RTVSPost2010PropOp49
 70
     1
102
RTVSPost2010Prop50
 90
       50
102
RTVSPost2010PropOp50
 70
     1
102
RTVSPost2010Prop51ColorIndex
 90
      256
102
RTVSPost2010Prop51ColorRGB
 90
-16777216
102
RTVSPost2010PropOp51
 70
     0
102
RTVSPost2010Prop52
140
1.0
102
RTVSPost2010PropOp52
 70
     0
102
RTVSPost2010Prop53
 90
        2
102
RTVSPost2010PropOp53
 70
     1
102
RTVSPost2010Prop54
  1
strokes_ogs.tif
102
RTVSPost2010PropOp54
 70
     1
102
RTVSPost2010Prop55
280
     0
102
RTVSPost2010PropOp55
 70
     1
102
RTVSPost2010Prop56
140
1.0
102
RTVSPost2010PropOp56
 70
     1
102
RTVSPost2010Prop57
140
1.0
102
RTVSPost2010PropOp57
 70
     1
102
RTVSPropertyOp0
 70
     1
102
RTVSPropertyOp1
 70
     1
102
RTVSPropertyOp2
 70
     1
102
RTVSPropertyOp3
 70
     1
102
RTVSPropertyOp4
 70
     1
102
RTVSPropertyOp5
 70
     1
102
RTVSPropertyOp6
 70
     1
102
RTVSPropertyOp7
 70
     1
102
RTVSPropertyOp8
 70
     1
102
RTVSPropertyOp9
 70
     1
102
RTVSPropertyOp10
 70
     1
102
RTVSPropertyOp11
 70
     1
102
RTVSPropertyOp12
 70
     1
102
RTVSPropertyOp13
 70
     1
102
RTVSPropertyOp14
 70
     1
102
RTVSPropertyOp15
 70
     1
102
RTVSPropertyOp16
 70
     1
102
RTVSPropertyOp17
 70
     1
102
RTVSPropertyOp18
 70
     1
102
RTVSPropertyOp19
 70
     1
102
RTVSPropertyOp20
 70
     1
102
RTVSPropertyOp21
 70
     1
102
RTVSPropertyOp22
 70
     1
102
RTVSPropertyOp23
 70
     1
102
RTVSPropertyOp24
 70
     1
102
RTVSPropertyOp25
 70
     1
102
RTVSPropertyOp26
 70
     1
102
RTVSPropertyOp27
 70
     1
102
RTVSPropertyOp28
 70
     1
102
RTVSPropertyOp29
 70
     1
102
RTVSPropertyOp30
 70
     1
102
RTVSPropertyOp31
 70
     1
102
RTVSPropertyOp32
 70
     1
102
RTVSPropertyOp33
 70
     1
102
RTVSPropertyOp34
 70
     1
102
RTVSPropertyOp35
 70
     1
102
RTVSPropertyOp36
 70
     1
102
RTVSPropertyOp37
 70
     1
102
RTVSPropertyOp38
 70
     1
102
RTVSPropertyOp39
 70
     1
102
RTVSPropertyOp40
 70
     1
102
RTVSPropertyOp41
 70
     1
102
RTVSPropertyOp42
 70
     1
102
RTVSPropertyOp43
 70
     1
102
RTVSPropertyOp44
 70
     1
102
RTVSPropertyOp45
 70
     1
102
RTVSPropertyOp46
 70
     1
102
RTVSPropertyOp47
 70
     1
102
RTVSPropertyOp48
 70
     1
102
RTVSPropertyOp49
 70
     1
102
RTVSPropertyOp50
 70
     1
102
RTVSPropertyOp51
 70
     0
102
RTVSPropertyOp52
 70
     0
102
RTVSPropertyOp53
 70
     1
102
RTVSPropertyOp54
 70
     1
102
RTVSPropertyOp55
 70
     1
102
RTVSPropertyOp56
 70
     1
102
RTVSPropertyOp57
 70
     1
102
RTVSPropertyOp58
 70
     1
102
RTVSPropertyOp59
 70
     1
102
RTVSPropertyOp60
 70
     1
102
RTVSPropertyOp61
 70
     1
102
RTVSPropertyOp62
 70
     1
  0
ENDSEC
  0
EOF
