  0
SECTION
  2
HEADER
  9
$ACADVER
  1
AC1015
  9
$ACADMAINTVER
 70
    20
  9
$DWGCODEPAGE
  3
ANSI_932
  9
$INSBASE
 10
0.0
 20
0.0
 30
0.0
  9
$EXTMIN
 10
8.866786537608104
 20
9.999999806846744
 30
0.0
  9
$EXTMAX
 10
241.6832262963358
 20
222.2021958122299
 30
0.0
  9
$LIMMIN
 10
0.0000015376081137
 20
-0.0000001931532552
  9
$LIMMAX
 10
396.0000015376081
 20
272.9999998068465
  9
$ORTHOMODE
 70
     0
  9
$REGENMODE
 70
     1
  9
$FILLMODE
 70
     1
  9
$QTEXTMODE
 70
     0
  9
$MIRRTEXT
 70
     1
  9
$LTSCALE
 40
1.0
  9
$ATTMODE
 70
     1
  9
$TEXTSIZE
 40
2.5
  9
$TRACEWID
 40
1.0
  9
$TEXTSTYLE
  7
STANDARD
  9
$CLAYER
  8
0
  9
$CELTYPE
  6
ByLayer
  9
$CECOLOR
 62
   256
  9
$CELTSCALE
 40
1.0
  9
$DISPSILH
 70
     0
  9
$DIMSCALE
 40
1.0
  9
$DIMASZ
 40
3.0
  9
$DIMEXO
 40
1.0
  9
$DIMDLI
 40
10.0
  9
$DIMRND
 40
0.0
  9
$DIMDLE
 40
0.0
  9
$DIMEXE
 40
1.0
  9
$DIMTP
 40
0.0
  9
$DIMTM
 40
0.0
  9
$DIMTXT
 40
3.2
  9
$DIMCEN
 40
0.0
  9
$DIMTSZ
 40
0.0
  9
$DIMTOL
 70
     0
  9
$DIMLIM
 70
     0
  9
$DIMTIH
 70
     0
  9
$DIMTOH
 70
     0
  9
$DIMSE1
 70
     0
  9
$DIMSE2
 70
     0
  9
$DIMTAD
 70
     3
  9
$DIMZIN
 70
     8
  9
$DIMBLK
  1

  9
$DIMASO
 70
     1
  9
$DIMSHO
 70
     1
  9
$DIMPOST
  1

  9
$DIMAPOST
  1

  9
$DIMALT
 70
     0
  9
$DIMALTD
 70
     2
  9
$DIMALTF
 40
25.4
  9
$DIMLFAC
 40
1.0
  9
$DIMTOFL
 70
     1
  9
$DIMTVP
 40
0.0
  9
$DIMTIX
 70
     0
  9
$DIMSOXD
 70
     0
  9
$DIMSAH
 70
     1
  9
$DIMBLK1
  1
OPEN
  9
$DIMBLK2
  1
OPEN
  9
$DIMSTYLE
  2
STANDARD
  9
$DIMCLRD
 70
     0
  9
$DIMCLRE
 70
     0
  9
$DIMCLRT
 70
     0
  9
$DIMTFAC
 40
1.0
  9
$DIMGAP
 40
1.0
  9
$DIMJUST
 70
     0
  9
$DIMSD1
 70
     0
  9
$DIMSD2
 70
     0
  9
$DIMTOLJ
 70
     1
  9
$DIMTZIN
 70
     0
  9
$DIMALTZ
 70
     0
  9
$DIMALTTZ
 70
     0
  9
$DIMUPT
 70
     0
  9
$DIMDEC
 70
     4
  9
$DIMTDEC
 70
     4
  9
$DIMALTU
 70
     2
  9
$DIMALTTD
 70
     2
  9
$DIMTXSTY
  7
STANDARD
  9
$DIMAUNIT
 70
     0
  9
$DIMADEC
 70
     0
  9
$DIMALTRND
 40
0.0
  9
$DIMAZIN
 70
     0
  9
$DIMDSEP
 70
    46
  9
$DIMATFIT
 70
     3
  9
$DIMFRAC
 70
     0
  9
$DIMLDRBLK
  1
OPEN
  9
$DIMLUNIT
 70
     2
  9
$DIMLWD
 70
    -2
  9
$DIMLWE
 70
    -2
  9
$DIMTMOVE
 70
     0
  9
$LUNITS
 70
     2
  9
$LUPREC
 70
     4
  9
$SKETCHINC
 40
1.0
  9
$FILLETRAD
 40
10.0
  9
$AUNITS
 70
     0
  9
$AUPREC
 70
     0
  9
$MENU
  1
.
  9
$ELEVATION
 40
0.0
  9
$PELEVATION
 40
0.0
  9
$THICKNESS
 40
0.0
  9
$LIMCHECK
 70
     0
  9
$CHAMFERA
 40
10.0
  9
$CHAMFERB
 40
10.0
  9
$CHAMFERC
 40
0.0
  9
$CHAMFERD
 40
0.0
  9
$SKPOLY
 70
     0
  9
$TDCREATE
 40
2456276.554532465
  9
$TDUCREATE
 40
2456276.179532465
  9
$TDUPDATE
 40
2457192.599886227
  9
$TDUUPDATE
 40
2457192.224886227
  9
$TDINDWG
 40
0.0852278356
  9
$TDUSRTIMER
 40
0.0852278125
  9
$USRTIMER
 70
     1
  9
$ANGBASE
 50
0.0
  9
$ANGDIR
 70
     0
  9
$PDMODE
 70
     0
  9
$PDSIZE
 40
0.0
  9
$PLINEWID
 40
0.0
  9
$SPLFRAME
 70
     0
  9
$SPLINETYPE
 70
     6
  9
$SPLINESEGS
 70
     8
  9
$HANDSEED
  5
1697
  9
$SURFTAB1
 70
     6
  9
$SURFTAB2
 70
     6
  9
$SURFTYPE
 70
     6
  9
$SURFU
 70
     6
  9
$SURFV
 70
     6
  9
$UCSBASE
  2

  9
$UCSNAME
  2

  9
$UCSORG
 10
0.0
 20
0.0
 30
0.0
  9
$UCSXDIR
 10
1.0
 20
0.0
 30
0.0
  9
$UCSYDIR
 10
0.0
 20
1.0
 30
0.0
  9
$UCSORTHOREF
  2

  9
$UCSORTHOVIEW
 70
     0
  9
$UCSORGTOP
 10
0.0
 20
0.0
 30
0.0
  9
$UCSORGBOTTOM
 10
0.0
 20
0.0
 30
0.0
  9
$UCSORGLEFT
 10
0.0
 20
0.0
 30
0.0
  9
$UCSORGRIGHT
 10
0.0
 20
0.0
 30
0.0
  9
$UCSORGFRONT
 10
0.0
 20
0.0
 30
0.0
  9
$UCSORGBACK
 10
0.0
 20
0.0
 30
0.0
  9
$PUCSBASE
  2

  9
$PUCSNAME
  2

  9
$PUCSORG
 10
0.0
 20
0.0
 30
0.0
  9
$PUCSXDIR
 10
1.0
 20
0.0
 30
0.0
  9
$PUCSYDIR
 10
0.0
 20
1.0
 30
0.0
  9
$PUCSORTHOREF
  2

  9
$PUCSORTHOVIEW
 70
     0
  9
$PUCSORGTOP
 10
0.0
 20
0.0
 30
0.0
  9
$PUCSORGBOTTOM
 10
0.0
 20
0.0
 30
0.0
  9
$PUCSORGLEFT
 10
0.0
 20
0.0
 30
0.0
  9
$PUCSORGRIGHT
 10
0.0
 20
0.0
 30
0.0
  9
$PUCSORGFRONT
 10
0.0
 20
0.0
 30
0.0
  9
$PUCSORGBACK
 10
0.0
 20
0.0
 30
0.0
  9
$USERI1
 70
     0
  9
$USERI2
 70
     0
  9
$USERI3
 70
     0
  9
$USERI4
 70
     0
  9
$USERI5
 70
     0
  9
$USERR1
 40
0.0
  9
$USERR2
 40
0.0
  9
$USERR3
 40
0.0
  9
$USERR4
 40
0.0
  9
$USERR5
 40
0.0
  9
$WORLDVIEW
 70
     1
  9
$SHADEDGE
 70
     3
  9
$SHADEDIF
 70
    70
  9
$TILEMODE
 70
     1
  9
$MAXACTVP
 70
    48
  9
$PINSBASE
 10
0.0
 20
0.0
 30
0.0
  9
$PLIMCHECK
 70
     0
  9
$PEXTMIN
 10
1.000000000000000E+20
 20
1.000000000000000E+20
 30
1.000000000000000E+20
  9
$PEXTMAX
 10
-1.000000000000000E+20
 20
-1.000000000000000E+20
 30
-1.000000000000000E+20
  9
$PLIMMIN
 10
0.0
 20
0.0
  9
$PLIMMAX
 10
420.0
 20
297.0
  9
$UNITMODE
 70
     0
  9
$VISRETAIN
 70
     1
  9
$PLINEGEN
 70
     0
  9
$PSLTSCALE
 70
     1
  9
$TREEDEPTH
 70
  3020
  9
$CMLSTYLE
  2
Standard
  9
$CMLJUST
 70
     0
  9
$CMLSCALE
 40
1.0
  9
$PROXYGRAPHICS
 70
     1
  9
$MEASUREMENT
 70
     0
  9
$CELWEIGHT
370
    -1
  9
$ENDCAPS
280
     0
  9
$JOINSTYLE
280
     0
  9
$LWDISPLAY
290
     0
  9
$INSUNITS
 70
     0
  9
$HYPERLINKBASE
  1

  9
$STYLESHEET
  1

  9
$XEDIT
290
     1
  9
$CEPSNTYPE
380
     0
  9
$PSTYLEMODE
290
     1
  9
$FINGERPRINTGUID
  2
{EA300D61-1B4A-4710-9613-F6447ABD0386}
  9
$VERSIONGUID
  2
{D9F2DFB3-4325-45FB-B496-CBE615B995E1}
  9
$EXTNAMES
290
     1
  9
$PSVPSCALE
 40
0.0
  9
$OLESTARTUP
290
     0
  0
ENDSEC
  0
SECTION
  2
CLASSES
  0
CLASS
  1
ACDBDICTIONARYWDFLT
  2
AcDbDictionaryWithDefault
  3
ObjectDBX Classes
 90
        0
280
     0
281
     0
  0
CLASS
  1
MATERIAL
  2
AcDbMaterial
  3
ObjectDBX Classes
 90
     1153
280
     0
281
     0
  0
CLASS
  1
VISUALSTYLE
  2
AcDbVisualStyle
  3
ObjectDBX Classes
 90
     4095
280
     0
281
     0
  0
CLASS
  1
SCALE
  2
AcDbScale
  3
ObjectDBX Classes
 90
     1153
280
     0
281
     0
  0
CLASS
  1
TABLESTYLE
  2
AcDbTableStyle
  3
ObjectDBX Classes
 90
     4095
280
     0
281
     0
  0
CLASS
  1
MLEADERSTYLE
  2
AcDbMLeaderStyle
  3
ACDB_MLEADERSTYLE_CLASS
 90
     4095
280
     0
281
     0
  0
CLASS
  1
ACDBSECTIONVIEWSTYLE
  2
AcDbSectionViewStyle
  3
ObjectDBX Classes
 90
     1025
280
     0
281
     0
  0
CLASS
  1
ACDBDETAILVIEWSTYLE
  2
AcDbDetailViewStyle
  3
ObjectDBX Classes
 90
     1025
280
     0
281
     0
  0
CLASS
  1
DICTIONARYVAR
  2
AcDbDictionaryVar
  3
ObjectDBX Classes
 90
        0
280
     0
281
     0
  0
CLASS
  1
CELLSTYLEMAP
  2
AcDbCellStyleMap
  3
ObjectDBX Classes
 90
     1152
280
     0
281
     0
  0
CLASS
  1
ACDBPLACEHOLDER
  2
AcDbPlaceHolder
  3
ObjectDBX Classes
 90
        0
280
     0
281
     0
  0
CLASS
  1
LAYOUT
  2
AcDbLayout
  3
ObjectDBX Classes
 90
        0
280
     0
281
     0
  0
ENDSEC
  0
SECTION
  2
TABLES
  0
TABLE
  2
VPORT
  5
15BA
330
0
100
AcDbSymbolTable
 70
     1
  0
VPORT
  5
1625
330
15BA
100
AcDbSymbolTableRecord
100
AcDbViewportTableRecord
  2
*ACTIVE
 70
     0
 10
0.0
 20
0.0
 11
1.0
 21
1.0
 12
213.1646872531285
 22
116.098732413353
 13
0.0
 23
0.0
 14
10.0
 24
10.0
 15
10.0
 25
10.0
 16
0.0
 26
0.0
 36
1.0
 17
0.0
 27
0.0
 37
0.0
 40
213.8613293080247
 41
1.899603698811096
 42
50.0
 43
0.0
 44
0.0
 50
0.0
 51
0.0
 71
     0
 72
   100
 73
     1
 74
     0
 75
     0
 76
     0
 77
     0
 78
     0
281
     0
 65
     1
110
0.0
120
0.0
130
0.0
111
1.0
121
0.0
131
0.0
112
0.0
122
1.0
132
0.0
 79
     0
146
0.0
1001
ACAD_NAV_VCDISPLAY
1070
     3
  0
ENDTAB
  0
TABLE
  2
LTYPE
  5
15B7
330
0
100
AcDbSymbolTable
 70
     4
  0
LTYPE
  5
160C
330
15B7
100
AcDbSymbolTableRecord
100
AcDbLinetypeTableRecord
  2
ByBlock
 70
     0
  3

 72
    65
 73
     0
 40
0.0
  0
LTYPE
  5
160D
330
15B7
100
AcDbSymbolTableRecord
100
AcDbLinetypeTableRecord
  2
ByLayer
 70
     0
  3

 72
    65
 73
     0
 40
0.0
  0
LTYPE
  5
160E
330
15B7
100
AcDbSymbolTableRecord
100
AcDbLinetypeTableRecord
  2
CONTINUOUS
 70
     0
  3
Solid line
 72
    65
 73
     0
 40
0.0
  0
LTYPE
  5
1626
330
15B7
100
AcDbSymbolTableRecord
100
AcDbLinetypeTableRecord
  2
DASHED
 70
     0
  3
Dashed __ __ __ __ __ __ __ __ __ __ __ __ __ _
 72
    65
 73
     2
 40
19.04999999999999
 49
12.7
 74
     0
 49
-6.349999999999998
 74
     0
  0
LTYPE
  5
1627
330
15B7
100
AcDbSymbolTableRecord
100
AcDbLinetypeTableRecord
  2
CENTER
 70
     0
  3
Center ____ _ ____ _ ____ _ ____ _ ____ _ ____
 72
    65
 73
     4
 40
50.8
 49
31.75
 74
     0
 49
-6.349999999999998
 74
     0
 49
6.349999999999998
 74
     0
 49
-6.349999999999998
 74
     0
  0
LTYPE
  5
1628
330
15B7
100
AcDbSymbolTableRecord
100
AcDbLinetypeTableRecord
  2
PHANTOM
 70
     0
  3
Phantom ______  __  __  ______  __  __  ______
 72
    65
 73
     6
 40
63.5
 49
31.75
 74
     0
 49
-6.349999999999998
 74
     0
 49
6.349999999999998
 74
     0
 49
-6.349999999999998
 74
     0
 49
6.349999999999998
 74
     0
 49
-6.349999999999998
 74
     0
  0
ENDTAB
  0
TABLE
  2
LAYER
  5
15B4
330
0
100
AcDbSymbolTable
 70
     8
  0
LAYER
  5
1606
102
{ACAD_XDICTIONARY
360
163B
102
}
330
15B4
100
AcDbSymbolTableRecord
100
AcDbLayerTableRecord
  2
0
 70
     0
 62
     7
  6
CONTINUOUS
370
    -3
390
15C1
  0
LAYER
  5
1629
102
{ACAD_XDICTIONARY
360
163D
102
}
330
15B4
100
AcDbSymbolTableRecord
100
AcDbLayerTableRecord
  2
4
 70
     0
 62
     1
  6
CENTER
370
    -3
390
15C1
  0
LAYER
  5
162A
102
{ACAD_XDICTIONARY
360
163F
102
}
330
15B4
100
AcDbSymbolTableRecord
100
AcDbLayerTableRecord
  2
5
 70
     0
 62
     6
  6
PHANTOM
370
    -3
390
15C1
  0
LAYER
  5
162B
102
{ACAD_XDICTIONARY
360
1641
102
}
330
15B4
100
AcDbSymbolTableRecord
100
AcDbLayerTableRecord
  2
1
 70
     0
 62
     7
  6
CONTINUOUS
370
    -3
390
15C1
  0
LAYER
  5
162C
102
{ACAD_XDICTIONARY
360
1643
102
}
330
15B4
100
AcDbSymbolTableRecord
100
AcDbLayerTableRecord
  2
2
 70
     0
 62
     4
  6
CONTINUOUS
370
    -3
390
15C1
  0
LAYER
  5
162D
102
{ACAD_XDICTIONARY
360
1645
102
}
330
15B4
100
AcDbSymbolTableRecord
100
AcDbLayerTableRecord
  2
3
 70
     0
 62
     2
  6
DASHED
370
    -3
390
15C1
  0
LAYER
  5
162E
102
{ACAD_XDICTIONARY
360
1647
102
}
330
15B4
100
AcDbSymbolTableRecord
100
AcDbLayerTableRecord
  2
6
 70
     0
 62
     5
  6
CONTINUOUS
370
    -3
390
15C1
  0
LAYER
  5
162F
102
{ACAD_XDICTIONARY
360
1649
102
}
330
15B4
100
AcDbSymbolTableRecord
100
AcDbLayerTableRecord
  2
7
 70
     0
 62
     3
  6
CONTINUOUS
370
    -3
390
15C1
  0
ENDTAB
  0
TABLE
  2
STYLE
  5
15B5
330
0
100
AcDbSymbolTable
 70
     2
  0
STYLE
  5
1607
330
15B5
100
AcDbSymbolTableRecord
100
AcDbTextStyleTableRecord
  2
STANDARD
 70
     0
 40
0.0
 41
1.0
 50
0.0
 71
     0
 42
2.5
  3
simplex.shx
  4

  0
STYLE
  5
160B
330
15B5
100
AcDbSymbolTableRecord
100
AcDbTextStyleTableRecord
  2
Annotative
 70
     0
 40
0.0
 41
1.0
 50
0.0
 71
     0
 42
0.2
  3
txt
  4

1001
AcadAnnotative
1000
AnnotativeData
1002
{
1070
     1
1070
     1
1002
}
  0
ENDTAB
  0
TABLE
  2
VIEW
  5
15B8
330
0
100
AcDbSymbolTable
 70
     0
  0
ENDTAB
  0
TABLE
  2
UCS
  5
15B9
330
0
100
AcDbSymbolTable
 70
     0
  0
ENDTAB
  0
TABLE
  2
APPID
  5
15BB
330
0
100
AcDbSymbolTable
 70
     6
  0
APPID
  5
1608
330
15BB
100
AcDbSymbolTableRecord
100
AcDbRegAppTableRecord
  2
ACAD
 70
     0
  0
APPID
  5
160F
330
15BB
100
AcDbSymbolTableRecord
100
AcDbRegAppTableRecord
  2
AcadAnnotative
 70
     0
  0
APPID
  5
1630
330
15BB
100
AcDbSymbolTableRecord
100
AcDbRegAppTableRecord
  2
CONTENTTABDATA
 70
     0
  0
APPID
  5
1631
330
15BB
100
AcDbSymbolTableRecord
100
AcDbRegAppTableRecord
  2
CONTENTCURRENTTAB
 70
     0
  0
APPID
  5
1655
330
15BB
100
AcDbSymbolTableRecord
100
AcDbRegAppTableRecord
  2
ACAD_NAV_VCDISPLAY
 70
     0
  0
APPID
  5
168E
330
15BB
100
AcDbSymbolTableRecord
100
AcDbRegAppTableRecord
  2
ACAD_MLEADERVER
 70
     0
  0
ENDTAB
  0
TABLE
  2
DIMSTYLE
  5
15BC
330
0
100
AcDbSymbolTable
 70
     2
100
AcDbDimStyleTable
 71
     0
  0
DIMSTYLE
105
1609
330
15BC
100
AcDbSymbolTableRecord
100
AcDbDimStyleTableRecord
  2
STANDARD
 70
     0
 41
3.0
 42
1.0
 43
10.0
 44
1.0
 73
     0
 74
     0
 77
     3
 78
     8
140
3.2
141
0.0
147
1.0
172
     1
173
     1
279
     2
284
     8
285
     8
286
     8
340
1607
  0
DIMSTYLE
105
160A
330
15BC
100
AcDbSymbolTableRecord
100
AcDbDimStyleTableRecord
  2
Annotative
 70
     0
340
1607
1001
AcadAnnotative
1000
AnnotativeData
1002
{
1070
     1
1070
     1
1002
}
  0
ENDTAB
  0
TABLE
  2
BLOCK_RECORD
  5
15B3
330
0
100
AcDbSymbolTable
 70
     3
  0
BLOCK_RECORD
  5
1621
330
15B3
100
AcDbSymbolTableRecord
100
AcDbBlockTableRecord
  2
*Model_Space
340
1624
  0
BLOCK_RECORD
  5
161D
330
15B3
100
AcDbSymbolTableRecord
100
AcDbBlockTableRecord
  2
*Paper_Space
340
1620
  0
BLOCK_RECORD
  5
1634
330
15B3
100
AcDbSymbolTableRecord
100
AcDbBlockTableRecord
  2
$MODEL_SPACE
340
0
  0
BLOCK_RECORD
  5
1636
330
15B3
100
AcDbSymbolTableRecord
100
AcDbBlockTableRecord
  2
$PAPER_SPACE
340
0
  0
BLOCK_RECORD
  5
1638
330
15B3
100
AcDbSymbolTableRecord
100
AcDbBlockTableRecord
  2
_OPEN
340
0
  0
ENDTAB
  0
ENDSEC
  0
SECTION
  2
BLOCKS
  0
BLOCK
  5
1622
330
1621
100
AcDbEntity
  8
0
100
AcDbBlockBegin
  2
*Model_Space
 70
     0
 10
0.0
 20
0.0
 30
0.0
  3
*Model_Space
  1

  0
ENDBLK
  5
1623
330
1621
100
AcDbEntity
  8
0
100
AcDbBlockEnd
  0
BLOCK
  5
161E
330
161D
100
AcDbEntity
 67
     1
  8
0
100
AcDbBlockBegin
  2
*Paper_Space
 70
     0
 10
0.0
 20
0.0
 30
0.0
  3
*Paper_Space
  1

  0
ENDBLK
  5
161F
330
161D
100
AcDbEntity
 67
     1
  8
0
100
AcDbBlockEnd
  0
BLOCK
  5
1635
330
1634
100
AcDbEntity
  8
0
100
AcDbBlockBegin
  2
$MODEL_SPACE
 70
     0
 10
0.0
 20
0.0
 30
0.0
  3
$MODEL_SPACE
  1

  0
ENDBLK
  5
1A
330
1634
100
AcDbEntity
  8
0
100
AcDbBlockEnd
  0
BLOCK
  5
1637
330
1636
100
AcDbEntity
  8
0
100
AcDbBlockBegin
  2
$PAPER_SPACE
 70
     0
 10
0.0
 20
0.0
 30
0.0
  3
$PAPER_SPACE
  1

  0
ENDBLK
  5
17
330
1636
100
AcDbEntity
  8
0
100
AcDbBlockEnd
  0
BLOCK
  5
1639
330
1638
100
AcDbEntity
  8
0
100
AcDbBlockBegin
  2
_OPEN
 70
     0
 10
0.0
 20
0.0
 30
0.0
  3
_OPEN
  1

  0
LINE
  5
30
330
1638
100
AcDbEntity
  8
0
  6
ByBlock
 62
     0
100
AcDbLine
 10
-1.0
 20
0.1666666666666666
 30
0.0
 11
0.0
 21
0.0
 31
0.0
  0
LINE
  5
31
330
1638
100
AcDbEntity
  8
0
  6
ByBlock
 62
     0
100
AcDbLine
 10
0.0
 20
0.0
 30
0.0
 11
-1.0
 21
-0.1666666666666666
 31
0.0
  0
LINE
  5
32
330
1638
100
AcDbEntity
  8
0
  6
ByBlock
 62
     0
100
AcDbLine
 10
0.0
 20
0.0
 30
0.0
 11
-1.0
 21
0.0
 31
0.0
  0
ENDBLK
  5
33
330
1638
100
AcDbEntity
  8
0
100
AcDbBlockEnd
  0
ENDSEC
  0
SECTION
  2
ENTITIES
  0
TEXT
  5
3AE
330
1621
100
AcDbEntity
  8
1
  6
Continuous
100
AcDbText
 10
10.00000153760811
 20
9.999999806846744
 30
0.0
 40
1.399999999999999
  1
LAYER
100
AcDbText
  0
TEXT
  5
3AF
330
1621
100
AcDbEntity
  8
7
  6
Continuous
100
AcDbText
 10
10.00000153760811
 20
25.99999980684674
 30
0.0
 40
3.0
  1
CODE No.1480
100
AcDbText
  0
TEXT
  5
3B0
330
1621
100
AcDbEntity
  8
7
  6
Continuous
100
AcDbText
 10
10.00000153760811
 20
17.99999980684674
 30
0.0
 40
3.0
  1
TYPE No.TL-212
100
AcDbText
  0
TEXT
  5
3B4
330
1621
100
AcDbEntity
  8
2
  6
Continuous
100
AcDbText
 10
19.97951253760809
 20
10.04873680684672
 30
0.0
 40
1.399999999999999
  1
2
100
AcDbText
  0
TEXT
  5
3B5
330
1621
100
AcDbEntity
  8
1
  6
Continuous
100
AcDbText
 10
17.97951253760809
 20
10.04873680684672
 30
0.0
 40
1.399999999999999
  1
1
100
AcDbText
  0
TEXT
  5
3B6
330
1621
100
AcDbEntity
  8
3
  6
DASHED
100
AcDbText
 10
21.97951253760811
 20
10.04873680684672
 30
0.0
 40
1.399999999999999
  1
3
100
AcDbText
  0
TEXT
  5
3B7
330
1621
100
AcDbEntity
  8
5
  6
PHANTOM
100
AcDbText
 10
25.97951253760811
 20
10.04873680684672
 30
0.0
 40
1.399999999999999
  1
5
100
AcDbText
  0
TEXT
  5
3B8
330
1621
100
AcDbEntity
  8
4
  6
CENTER
100
AcDbText
 10
23.9795125376081
 20
10.04873680684672
 30
0.0
 40
1.399999999999999
  1
4
100
AcDbText
  0
TEXT
  5
3B9
330
1621
100
AcDbEntity
  8
6
  6
Continuous
100
AcDbText
 10
27.97951253760811
 20
10.04873680684672
 30
0.0
 40
1.399999999999999
  1
6
100
AcDbText
  0
TEXT
  5
3BA
330
1621
100
AcDbEntity
  8
7
  6
Continuous
100
AcDbText
 10
29.97951253760811
 20
10.04873680684672
 30
0.0
 40
1.399999999999999
  1
7
100
AcDbText
  0
LINE
  5
3BB
330
1621
100
AcDbEntity
  8
1
  6
Continuous
100
AcDbLine
 10
23.65522853760811
 20
46.12828214791675
 30
0.0
 11
36.20472453760811
 21
46.12828214791675
 31
0.0
  0
LINE
  5
3BC
330
1621
100
AcDbEntity
  8
1
  6
Continuous
100
AcDbLine
 10
34.18916053760812
 20
40.44339914791675
 30
0.0
 11
25.74441253760813
 21
40.44339914791675
 31
0.0
  0
LINE
  5
3BD
330
1621
100
AcDbEntity
  8
1
  6
Continuous
100
AcDbLine
 10
25.96678653760813
 20
39.12828214791675
 30
0.0
 11
33.9667865376081
 21
39.12828214791675
 31
0.0
  0
ARC
  5
3C1
330
1621
100
AcDbEntity
  8
1
  6
Continuous
100
AcDbCircle
 10
25.74441253760813
 20
44.44339914791674
 30
0.0
 40
4.0
100
AcDbArc
 50
199.194725
 51
269.9999969999999
  0
ARC
  5
3C2
330
1621
100
AcDbEntity
  8
1
  6
Continuous
100
AcDbCircle
 10
25.96678653760813
 20
43.12828214791675
 30
0.0
 40
4.0
100
AcDbArc
 50
179.9999909999999
 51
270.000001
  0
LINE
  5
3CF
330
1621
100
AcDbEntity
  8
1
  6
Continuous
100
AcDbLine
 10
21.96678653760812
 20
43.12828214791675
 30
0.0
 11
21.96678653760812
 21
49.12828214791673
 31
0.0
  0
ARC
  5
3D5
330
1621
100
AcDbEntity
  8
1
  6
Continuous
100
AcDbCircle
 10
34.18916053760812
 20
44.44339914791674
 30
0.0
 40
4.0
100
AcDbArc
 50
269.9999969999999
 51
340.80528
  0
ARC
  5
3D6
330
1621
100
AcDbEntity
  8
1
  6
Continuous
100
AcDbCircle
 10
33.9667865376081
 20
43.12828214791675
 30
0.0
 40
4.0
100
AcDbArc
 50
269.9999969999999
 51
0.0
  0
LINE
  5
3D9
330
1621
100
AcDbEntity
  8
1
  6
Continuous
100
AcDbLine
 10
37.96678653760809
 20
43.12828214791675
 30
0.0
 11
37.96678653760809
 21
49.12828214791673
 31
0.0
  0
LINE
  5
3F9
330
1621
100
AcDbEntity
  8
1
  6
Continuous
100
AcDbLine
 10
21.96678653760811
 20
53.52828214791674
 30
0.0
 11
21.96678653760812
 21
54.12828214791675
 31
0.0
  0
LINE
  5
3FA
330
1621
100
AcDbEntity
  8
1
  6
Continuous
100
AcDbLine
 10
21.96678653760812
 20
54.12828214791675
 30
0.0
 11
22.36678753760811
 21
54.12828214791675
 31
0.0
  0
LINE
  5
3FF
330
1621
100
AcDbEntity
  8
1
  6
Continuous
100
AcDbLine
 10
37.96678653760808
 20
53.52828214791674
 30
0.0
 11
37.96678653760809
 21
54.12828214791675
 31
0.0
  0
LINE
  5
400
330
1621
100
AcDbEntity
  8
1
  6
Continuous
100
AcDbLine
 10
37.56678453760811
 20
54.12828214791675
 30
0.0
 11
37.96678653760809
 21
54.12828214791675
 31
0.0
  0
ARC
  5
826
330
1621
100
AcDbEntity
  8
1
  6
Continuous
100
AcDbCircle
 10
16.46678653760807
 20
207.4530879412197
 30
0.0
 40
3.299999999999998
100
AcDbArc
 50
90.0
 51
270.0
  0
LINE
  5
827
330
1621
100
AcDbEntity
  8
4
  6
CENTER
100
AcDbLine
 10
8.866786537608104
 20
207.4530879412197
 30
0.0
 11
51.06678653760809
 21
207.4530879412197
 31
0.0
  0
ARC
  5
828
330
1621
100
AcDbEntity
  8
1
  6
Continuous
100
AcDbCircle
 10
16.46678653760807
 20
207.4530879412197
 30
0.0
 40
4.7
100
AcDbArc
 50
73.2252999999998
 51
286.775
  0
ARC
  5
82A
330
1621
100
AcDbEntity
  8
1
  6
Continuous
100
AcDbCircle
 10
43.46678653760807
 20
207.4530879412197
 30
0.0
 40
3.299999999999998
100
AcDbArc
 50
270.0
 51
90.0
  0
ARC
  5
82B
330
1621
100
AcDbEntity
  8
1
  6
Continuous
100
AcDbCircle
 10
43.46678653760807
 20
207.4530879412197
 30
0.0
 40
4.7
100
AcDbArc
 50
253.2249999999999
 51
106.7749999999999
  0
LINE
  5
82C
330
1621
100
AcDbEntity
  8
1
  6
Continuous
100
AcDbLine
 10
45.06678653760809
 20
204.5660879412197
 30
0.0
 11
45.06678653760809
 21
210.3390879412198
 31
0.0
  0
LINE
  5
82D
330
1621
100
AcDbEntity
  8
1
  6
Continuous
100
AcDbLine
 10
40.06678653760809
 20
204.8639585207956
 30
0.0
 11
40.06678653760809
 21
211.3530879412198
 31
0.0
  0
LINE
  5
82E
330
1621
100
AcDbEntity
  8
1
  6
Continuous
100
AcDbLine
 10
38.46678653760807
 20
204.8639585207956
 30
0.0
 11
38.46678653760807
 21
211.3530879412198
 31
0.0
  0
LINE
  5
82F
330
1621
100
AcDbEntity
  8
1
  6
Continuous
100
AcDbLine
 10
21.46678653760812
 20
204.8639585207956
 30
0.0
 11
21.46678653760813
 21
211.3530879412198
 31
0.0
  0
LINE
  5
830
330
1621
100
AcDbEntity
  8
1
  6
Continuous
100
AcDbLine
 10
19.8667865376081
 20
204.8639585207956
 30
0.0
 11
19.8667865376081
 21
211.3530879412198
 31
0.0
  0
LINE
  5
831
330
1621
100
AcDbEntity
  8
1
  6
Continuous
100
AcDbLine
 10
14.8667865376081
 20
204.5660879412197
 30
0.0
 11
14.8667865376081
 21
210.3390879412198
 31
0.0
  0
LINE
  5
832
330
1621
100
AcDbEntity
  8
4
  6
CENTER
100
AcDbLine
 10
29.96678653760813
 20
197.8852481872872
 30
0.0
 11
29.96678653760813
 21
222.2021958122299
 31
0.0
  0
LINE
  5
834
330
1621
100
AcDbEntity
  8
1
  6
Continuous
100
AcDbLine
 10
23.96678653760813
 20
200.8530879412198
 30
0.0
 11
35.96678653760808
 21
200.8530879412198
 31
0.0
  0
LINE
  5
835
330
1621
100
AcDbEntity
  8
1
  6
Continuous
100
AcDbLine
 10
21.46678653760813
 20
207.3530879412198
 30
0.0
 11
21.96678653760812
 21
207.3530879412198
 31
0.0
  0
LINE
  5
836
330
1621
100
AcDbEntity
  8
1
  6
Continuous
100
AcDbLine
 10
21.46678653760813
 20
205.9530879412198
 30
0.0
 11
21.96678653760812
 21
205.9530879412198
 31
0.0
  0
LINE
  5
837
330
1621
100
AcDbEntity
  8
1
  6
Continuous
100
AcDbLine
 10
16.46678653760807
 20
202.9530879412197
 30
0.0
 11
16.46678653760807
 21
204.8639585207956
 31
0.0
  0
LINE
  5
838
330
1621
100
AcDbEntity
  8
1
  6
Continuous
100
AcDbLine
 10
18.06678653760809
 20
202.9530879412197
 30
0.0
 11
18.06678653760809
 21
204.8639585207956
 31
0.0
  0
LINE
  5
839
330
1621
100
AcDbEntity
  8
1
  6
Continuous
100
AcDbLine
 10
16.46678653760807
 20
202.9530879412197
 30
0.0
 11
18.06678653760809
 21
202.9530879412197
 31
0.0
  0
ARC
  5
83A
330
1621
100
AcDbEntity
  8
1
  6
Continuous
100
AcDbCircle
 10
16.56678653760809
 20
207.4530879412197
 30
0.0
 40
3.299999999999998
100
AcDbArc
 50
297.0356917894131
 51
308.3177181180918
  0
LINE
  5
83B
330
1621
100
AcDbEntity
  8
1
  6
Continuous
100
AcDbLine
 10
14.8667865376081
 20
202.9530879412197
 30
0.0
 11
14.8667865376081
 21
203.0330879412197
 31
0.0
  0
LINE
  5
83C
330
1621
100
AcDbEntity
  8
1
  6
Continuous
100
AcDbLine
 10
14.8667865376081
 20
202.9530879412197
 30
0.0
 11
15.11038653760806
 21
202.9530879412197
 31
0.0
  0
ARC
  5
83E
330
1621
100
AcDbEntity
  8
1
  6
Continuous
100
AcDbCircle
 10
16.46678653760807
 20
207.4530879412197
 30
0.0
 40
4.7
100
AcDbArc
 50
289.903
 51
326.57269049397
  0
LINE
  5
83F
330
1621
100
AcDbEntity
  8
1
  6
Continuous
100
AcDbLine
 10
21.96678653760812
 20
203.8530879412197
 30
0.0
 11
22.3667865376081
 21
203.8530879412197
 31
0.0
  0
LINE
  5
841
330
1621
100
AcDbEntity
  8
1
  6
Continuous
100
AcDbLine
 10
21.96678653760812
 20
203.8530879412197
 30
0.0
 11
21.96678653760812
 21
205.8530879412197
 31
0.0
  0
ARC
  5
842
330
1621
100
AcDbEntity
  8
1
  6
Continuous
100
AcDbCircle
 10
23.96678653760813
 20
202.4530879412198
 30
0.0
 40
1.6
100
AcDbArc
 50
180.0
 51
270.0
  0
LINE
  5
843
330
1621
100
AcDbEntity
  8
1
  6
Continuous
100
AcDbLine
 10
22.3667865376081
 20
202.4530879412198
 30
0.0
 11
22.36678653760804
 21
205.3530925207957
 31
0.0
  0
ARC
  5
846
330
1621
100
AcDbEntity
  8
1
  6
Continuous
100
AcDbCircle
 10
35.96678653760808
 20
202.4530879412198
 30
0.0
 40
1.6
100
AcDbArc
 50
270.0
 51
0.0
  0
LINE
  5
849
330
1621
100
AcDbEntity
  8
1
  6
Continuous
100
AcDbLine
 10
37.96678653760807
 20
205.9530879412197
 30
0.0
 11
38.46678653760807
 21
205.9530879412198
 31
0.0
  0
LINE
  5
84A
330
1621
100
AcDbEntity
  8
1
  6
Continuous
100
AcDbLine
 10
45.06678653760809
 20
202.9530879412197
 30
0.0
 11
45.06678653760809
 21
203.0330879412197
 31
0.0
  0
LINE
  5
84B
330
1621
100
AcDbEntity
  8
1
  6
Continuous
100
AcDbLine
 10
43.46678653760807
 20
202.9530879412197
 30
0.0
 11
43.46678653760807
 21
204.8639585207956
 31
0.0
  0
LINE
  5
84C
330
1621
100
AcDbEntity
  8
1
  6
Continuous
100
AcDbLine
 10
44.8232865376081
 20
202.9530879412197
 30
0.0
 11
45.06678653760809
 21
202.9530879412197
 31
0.0
  0
LINE
  5
84D
330
1621
100
AcDbEntity
  8
1
  6
Continuous
100
AcDbLine
 10
41.86678653760805
 20
202.9530879412197
 30
0.0
 11
41.86678653760803
 21
204.8639585207956
 31
0.0
  0
ARC
  5
84E
330
1621
100
AcDbEntity
  8
1
  6
Continuous
100
AcDbCircle
 10
43.46678653760807
 20
207.4530879412197
 30
0.0
 40
4.7
100
AcDbArc
 50
213.42730950603
 51
250.0969999999999
  0
ARC
  5
84F
330
1621
100
AcDbEntity
  8
1
  6
Continuous
100
AcDbCircle
 10
43.46678653760807
 20
207.4530879412197
 30
0.0
 40
3.299999999999998
100
AcDbArc
 50
231.6822818819082
 51
240.9969999999997
  0
LINE
  5
850
330
1621
100
AcDbEntity
  8
1
  6
Continuous
100
AcDbLine
 10
37.96678653760807
 20
203.8530879412197
 30
0.0
 11
37.96678653760807
 21
205.8530879412197
 31
0.0
  0
LINE
  5
851
330
1621
100
AcDbEntity
  8
1
  6
Continuous
100
AcDbLine
 10
37.5667865376081
 20
203.8530879412197
 30
0.0
 11
37.96678653760807
 21
203.8530879412197
 31
0.0
  0
LINE
  5
853
330
1621
100
AcDbEntity
  8
1
  6
Continuous
100
AcDbLine
 10
37.5667865376081
 20
202.4530879412198
 30
0.0
 11
37.5667865376081
 21
205.3530925207957
 31
0.0
  0
LINE
  5
855
330
1621
100
AcDbEntity
  8
1
  6
Continuous
100
AcDbLine
 10
41.86678653760805
 20
202.9530879412197
 30
0.0
 11
43.46678653760807
 21
202.9530879412197
 31
0.0
  0
LINE
  5
856
330
1621
100
AcDbEntity
  8
1
  6
Continuous
100
AcDbLine
 10
21.46678653760813
 20
210.3530879412198
 30
0.0
 11
21.96678653760812
 21
210.3530879412198
 31
0.0
  0
LINE
  5
858
330
1621
100
AcDbEntity
  8
4
  6
CENTER
100
AcDbLine
 10
17.38208453760807
 20
208.8530879412198
 30
0.0
 11
43.0406405376081
 21
208.8530879412198
 31
0.0
  0
LINE
  5
859
330
1621
100
AcDbEntity
  8
1
  6
Continuous
100
AcDbLine
 10
19.8667865376081
 20
211.3530879412198
 30
0.0
 11
21.46678653760813
 21
211.3530879412198
 31
0.0
  0
LINE
  5
85A
330
1621
100
AcDbEntity
  8
1
  6
Continuous
100
AcDbLine
 10
18.06678653760809
 20
209.9530879412197
 30
0.0
 11
18.06678653760809
 21
211.9530879412197
 31
0.0
  0
LINE
  5
85B
330
1621
100
AcDbEntity
  8
1
  6
Continuous
100
AcDbLine
 10
16.46678653760807
 20
209.9530879412197
 30
0.0
 11
16.46678653760807
 21
211.9530879412197
 31
0.0
  0
LINE
  5
85C
330
1621
100
AcDbEntity
  8
1
  6
Continuous
100
AcDbLine
 10
16.46678653760807
 20
211.9530879412197
 30
0.0
 11
18.06678653760809
 21
211.9530879412197
 31
0.0
  0
LINE
  5
85D
330
1621
100
AcDbEntity
  8
1
  6
Continuous
100
AcDbLine
 10
18.96678653760813
 20
207.8530879412198
 30
0.0
 11
18.96678653760813
 21
209.8530879412198
 31
0.0
  0
ARC
  5
85E
330
1621
100
AcDbEntity
  8
1
  6
Continuous
100
AcDbCircle
 10
16.56678653760809
 20
207.4530879412197
 30
0.0
 40
3.299999999999998
100
AcDbArc
 50
49.2509000000002
 51
62.96430821058691
  0
LINE
  5
85F
330
1621
100
AcDbEntity
  8
1
  6
Continuous
100
AcDbLine
 10
14.8667865376081
 20
211.9530879412197
 30
0.0
 11
15.11038653760806
 21
211.9530879412197
 31
0.0
  0
LINE
  5
860
330
1621
100
AcDbEntity
  8
1
  6
Continuous
100
AcDbLine
 10
14.8667865376081
 20
211.8720879412198
 30
0.0
 11
14.8667865376081
 21
211.9530879412197
 31
0.0
  0
LINE
  5
861
330
1621
100
AcDbEntity
  8
1
  6
Continuous
100
AcDbLine
 10
18.96678653760813
 20
207.8530879412198
 30
0.0
 11
19.8667865376081
 21
207.8530879412198
 31
0.0
  0
LINE
  5
862
330
1621
100
AcDbEntity
  8
1
  6
Continuous
100
AcDbLine
 10
14.8667865376081
 20
209.9530879412197
 30
0.0
 11
19.8667865376081
 21
209.9530879412197
 31
0.0
  0
ARC
  5
863
330
1621
100
AcDbEntity
  8
1
  6
Continuous
100
AcDbCircle
 10
16.46678653760807
 20
207.4530879412197
 30
0.0
 40
4.7
100
AcDbArc
 50
43.66373793619446
 51
70.09709999999978
  0
LINE
  5
864
330
1621
100
AcDbEntity
  8
1
  6
Continuous
100
AcDbLine
 10
18.96678653760813
 20
209.8530879412198
 30
0.0
 11
19.8667865376081
 21
209.8530879412198
 31
0.0
  0
LINE
  5
868
330
1621
100
AcDbEntity
  8
1
  6
Continuous
100
AcDbLine
 10
21.96678653760812
 20
210.8530879412196
 30
0.0
 11
21.96678653760812
 21
212.8530879412197
 31
0.0
  0
LINE
  5
86D
330
1621
100
AcDbEntity
  8
1
  6
Continuous
100
AcDbLine
 10
43.46678653760807
 20
209.9530879412197
 30
0.0
 11
43.46678653760807
 21
211.9530879412197
 31
0.0
  0
LINE
  5
86E
330
1621
100
AcDbEntity
  8
1
  6
Continuous
100
AcDbLine
 10
44.8232865376081
 20
211.9530879412197
 30
0.0
 11
45.06678653760809
 21
211.9530879412197
 31
0.0
  0
LINE
  5
86F
330
1621
100
AcDbEntity
  8
1
  6
Continuous
100
AcDbLine
 10
45.06678653760809
 20
211.8720879412198
 30
0.0
 11
45.06678653760809
 21
211.9530879412197
 31
0.0
  0
LINE
  5
870
330
1621
100
AcDbEntity
  8
1
  6
Continuous
100
AcDbLine
 10
40.06678653760809
 20
207.8530879412198
 30
0.0
 11
40.96678653760807
 21
207.8530879412198
 31
0.0
  0
LINE
  5
871
330
1621
100
AcDbEntity
  8
1
  6
Continuous
100
AcDbLine
 10
41.86678653760805
 20
209.9530879412197
 30
0.0
 11
41.86678653760805
 21
211.9530879412197
 31
0.0
  0
LINE
  5
872
330
1621
100
AcDbEntity
  8
1
  6
Continuous
100
AcDbLine
 10
40.96678653760807
 20
207.8530879412198
 30
0.0
 11
40.96678653760807
 21
209.8530879412198
 31
0.0
  0
ARC
  5
873
330
1621
100
AcDbEntity
  8
1
  6
Continuous
100
AcDbCircle
 10
43.46678653760807
 20
207.4530879412197
 30
0.0
 40
4.7
100
AcDbArc
 50
109.903
 51
136.3362620638055
  0
ARC
  5
874
330
1621
100
AcDbEntity
  8
1
  6
Continuous
100
AcDbCircle
 10
43.46678653760807
 20
207.4530879412197
 30
0.0
 40
3.299999999999998
100
AcDbArc
 50
119.0030000000001
 51
130.7489999999996
  0
LINE
  5
875
330
1621
100
AcDbEntity
  8
1
  6
Continuous
100
AcDbLine
 10
40.06678653760809
 20
209.8530879412198
 30
0.0
 11
40.96678653760807
 21
209.8530879412198
 31
0.0
  0
LINE
  5
877
330
1621
100
AcDbEntity
  8
1
  6
Continuous
100
AcDbLine
 10
37.96678653760807
 20
210.8530879412196
 30
0.0
 11
37.96678653760807
 21
212.8530879412197
 31
0.0
  0
LINE
  5
878
330
1621
100
AcDbEntity
  8
1
  6
Continuous
100
AcDbLine
 10
40.06678653760809
 20
211.3530879412198
 30
0.0
 11
38.46678653760807
 21
211.3530879412198
 31
0.0
  0
LINE
  5
879
330
1621
100
AcDbEntity
  8
1
  6
Continuous
100
AcDbLine
 10
40.06678653760809
 20
209.9530879412197
 30
0.0
 11
45.06678653760809
 21
209.9530879412197
 31
0.0
  0
LINE
  5
87A
330
1621
100
AcDbEntity
  8
1
  6
Continuous
100
AcDbLine
 10
41.86678653760805
 20
211.9530879412197
 30
0.0
 11
43.46678653760807
 21
211.9530879412197
 31
0.0
  0
LINE
  5
87F
330
1621
100
AcDbEntity
  8
1
  6
Continuous
100
AcDbLine
 10
125.7307773028835
 20
109.5748467487035
 30
0.0
 11
125.7307773028836
 21
86.57771784875155
 31
0.0
  0
LINE
  5
880
330
1621
100
AcDbEntity
  8
1
  6
Continuous
100
AcDbLine
 10
115.2307773028835
 20
85.96871784875142
 30
0.0
 11
116.5427773028836
 21
91.0877178487515
 31
0.0
  0
LINE
  5
881
330
1621
100
AcDbEntity
  8
1
  6
Continuous
100
AcDbLine
 10
116.7817773028836
 20
85.57771784875155
 30
0.0
 11
118.0927773028836
 21
90.6897178487515
 31
0.0
  0
LINE
  5
882
330
1621
100
AcDbEntity
  8
1
  6
Continuous
100
AcDbLine
 10
123.7307773028835
 20
99.57771784875156
 30
0.0
 11
123.7307773028835
 21
86.57771784875155
 31
0.0
  0
LINE
  5
883
330
1621
100
AcDbEntity
  8
1
  6
Continuous
100
AcDbLine
 10
115.2307773028835
 20
85.96871784875142
 30
0.0
 11
116.7817773028836
 21
85.57771784875155
 31
0.0
  0
LINE
  5
884
330
1621
100
AcDbEntity
  8
1
  6
Continuous
100
AcDbLine
 10
123.7307773028835
 20
86.57771784875155
 30
0.0
 11
125.7307773028836
 21
86.57771784875155
 31
0.0
  0
LINE
  5
885
330
1621
100
AcDbEntity
  8
1
  6
Continuous
100
AcDbLine
 10
117.7416478824595
 20
132.0121037486863
 30
0.0
 11
117.7665537653477
 21
124.204793784666
 31
0.0
  0
LINE
  5
886
330
1621
100
AcDbEntity
  8
1
  6
Continuous
100
AcDbLine
 10
122.7416228824594
 20
132.0280537486861
 30
0.0
 11
122.7643982340241
 21
124.8883689579166
 31
0.0
  0
LINE
  5
887
330
1621
100
AcDbEntity
  8
1
  6
Continuous
100
AcDbLine
 10
117.8105528744805
 20
109.9122108833387
 30
0.0
 11
117.8339848824593
 21
102.5668767486864
 31
0.0
  0
LINE
  5
888
330
1621
100
AcDbEntity
  8
1
  6
Continuous
100
AcDbLine
 10
122.8105268727126
 20
109.9281614374708
 30
0.0
 11
122.8339588824595
 21
102.5828267486864
 31
0.0
  0
LINE
  5
889
330
1621
100
AcDbEntity
  8
1
  6
Continuous
100
AcDbLine
 10
113.7307773028835
 20
119.4777178487513
 30
0.0
 11
113.7307773028835
 21
99.57771784875156
 31
0.0
  0
ARC
  5
88A
330
1621
100
AcDbEntity
  8
1
  6
Continuous
100
AcDbCircle
 10
119.7307773028835
 20
109.5748467487034
 30
0.0
 40
6.000000000000026
100
AcDbArc
 50
0.0
 51
28.49105430404241
  0
LINE
  5
88B
330
1621
100
AcDbEntity
  8
1
  6
Continuous
100
AcDbLine
 10
123.7307773028835
 20
106.0777178487515
 30
0.0
 11
123.7307773028835
 21
109.931097153598
 31
0.0
  0
LINE
  5
88C
330
1621
100
AcDbEntity
  8
1
  6
Continuous
100
AcDbLine
 10
113.7307773028835
 20
99.57771784875156
 30
0.0
 11
123.7307773028835
 21
99.57771784875156
 31
0.0
  0
LINE
  5
88D
330
1621
100
AcDbEntity
  8
1
  6
Continuous
100
AcDbLine
 10
113.7307773028836
 20
99.57771784875156
 30
0.0
 11
115.9897773028837
 21
95.46671784875154
 31
0.0
  0
LINE
  5
88E
330
1621
100
AcDbEntity
  8
1
  6
Continuous
100
AcDbLine
 10
115.5567773028836
 20
99.57771784875156
 30
0.0
 11
117.3917773028835
 21
96.23671784875151
 31
0.0
  0
LINE
  5
88F
330
1621
100
AcDbEntity
  8
4
  6
CENTER
100
AcDbLine
 10
122.4506463028836
 20
92.57771784875151
 30
0.0
 11
127.5406653028835
 21
92.57771784875151
 31
0.0
  0
ARC
  5
890
330
1621
100
AcDbEntity
  8
1
  6
Continuous
100
AcDbCircle
 10
110.7307773028835
 20
92.57771784875151
 30
0.0
 40
6.0
100
AcDbArc
 50
345.622
 51
28.78539999999894
  0
ARC
  5
891
330
1621
100
AcDbEntity
  8
1
  6
Continuous
100
AcDbCircle
 10
110.7307773028835
 20
92.57771784875151
 30
0.0
 40
7.599999999999997
100
AcDbArc
 50
345.622
 51
28.78539999999894
  0
LINE
  5
892
330
1621
100
AcDbEntity
  8
4
  6
CENTER
100
AcDbLine
 10
122.3307818824594
 20
103.5748467486864
 30
0.0
 11
126.6406698824594
 21
103.5748467486864
 31
0.0
  0
LINE
  5
893
330
1621
100
AcDbEntity
  8
4
  6
CENTER
100
AcDbLine
 10
118.3307818824594
 20
103.5748467486864
 30
0.0
 11
122.3307818824594
 21
103.5748467486864
 31
0.0
  0
ARC
  5
894
330
1621
100
AcDbEntity
  8
1
  6
Continuous
100
AcDbCircle
 10
120.3339718824595
 20
102.5748517486863
 30
0.0
 40
2.5
100
AcDbArc
 50
180.1827749999995
 51
0.1827850000002722
  0
CIRCLE
  5
895
330
1621
100
AcDbEntity
  8
1
  6
Continuous
100
AcDbCircle
 10
120.3307818824594
 20
103.5748467486864
 30
0.0
 40
1.0
  0
LINE
  5
896
330
1621
100
AcDbEntity
  8
4
  6
CENTER
100
AcDbLine
 10
120.3307818824594
 20
101.5748467486864
 30
0.0
 11
120.3307818824594
 21
105.5748467486864
 31
0.0
  0
LINE
  5
897
330
1621
100
AcDbEntity
  8
1
  6
Continuous
100
AcDbLine
 10
125.2307773028835
 20
105.5777178487515
 30
0.0
 11
125.2307773028835
 21
101.0777178487515
 31
0.0
  0
LINE
  5
898
330
1621
100
AcDbEntity
  8
1
  6
Continuous
100
AcDbLine
 10
123.7307773028835
 20
106.0777178487515
 30
0.0
 11
125.2307773028835
 21
105.5777178487515
 31
0.0
  0
ARC
  5
899
330
1621
100
AcDbEntity
  8
1
  6
Continuous
100
AcDbCircle
 10
123.7307773028835
 20
101.0777178487515
 30
0.0
 40
1.5
100
AcDbArc
 50
270.0
 51
0.0
  0
LINE
  5
89A
330
1621
100
AcDbEntity
  8
1
  6
Continuous
100
AcDbLine
 10
125.7307773028835
 20
109.0777178487515
 30
0.0
 11
123.7307773028835
 21
109.0777178487515
 31
0.0
  0
LINE
  5
89B
330
1621
100
AcDbEntity
  8
1
  6
Continuous
100
AcDbLine
 10
125.7307773028836
 20
106.0777178487515
 30
0.0
 11
123.7307773028835
 21
106.0777178487515
 31
0.0
  0
ARC
  5
89C
330
1621
100
AcDbEntity
  8
1
  6
Continuous
100
AcDbCircle
 10
117.8307773028837
 20
119.4777178487513
 30
0.0
 40
4.099999999999996
100
AcDbArc
 50
122.007813484082
 51
180.0
  0
ARC
  5
89D
330
1621
100
AcDbEntity
  8
1
  6
Continuous
100
AcDbCircle
 10
117.8307773028837
 20
119.4777178487513
 30
0.0
 40
2.5
100
AcDbArc
 50
147.3858302025401
 51
221.9660574091374
  0
LINE
  5
89E
330
1621
100
AcDbEntity
  8
1
  6
Continuous
100
AcDbLine
 10
116.7307773028835
 20
120.5130704720398
 30
0.0
 11
116.7307773028835
 21
119.9869958837158
 31
0.0
  0
LINE
  5
89F
330
1621
100
AcDbEntity
  8
1
  6
Continuous
100
AcDbLine
 10
124.1845239872526
 20
121.0064746236141
 30
0.0
 11
116.1879205660251
 21
119.9127471970522
 31
0.0
  0
LINE
  5
8A0
330
1621
100
AcDbEntity
  8
1
  6
Continuous
100
AcDbLine
 10
116.1858800264133
 20
120.5622689917776
 30
0.0
 11
117.7786324433048
 21
120.4184601224665
 31
0.0
  0
ARC
  5
8A1
330
1621
100
AcDbEntity
  8
1
  6
Continuous
100
AcDbCircle
 10
116.2763798194198
 20
121.2563937301601
 30
0.0
 40
0.7
100
AcDbArc
 50
97.78824800000023
 51
277.7882480000002
  0
ARC
  5
8A2
330
1621
100
AcDbEntity
  8
1
  6
Continuous
100
AcDbCircle
 10
124.2793832826734
 20
120.3129312098926
 30
0.0
 40
0.7
100
AcDbArc
 50
277.7882480000002
 51
97.78824800000023
  0
LINE
  5
8A3
330
1621
100
AcDbEntity
  8
1
  6
Continuous
100
AcDbLine
 10
117.7775582208762
 20
120.7551993381856
 30
0.0
 11
117.7795512454679
 21
120.130440889657
 31
0.0
  0
LINE
  5
8A4
330
1621
100
AcDbEntity
  8
1
  6
Continuous
100
AcDbLine
 10
115.8121578824594
 20
109.9058357486862
 30
0.0
 11
124.8121118824593
 21
109.9345467486864
 31
0.0
  0
LINE
  5
8A5
330
1621
100
AcDbEntity
  8
1
  6
Continuous
100
AcDbLine
 10
122.80414589661
 20
112.4281537455414
 30
0.0
 11
125.0041354927399
 21
112.435171747443
 31
0.0
  0
LINE
  5
8A6
330
1621
100
AcDbEntity
  8
1
  6
Continuous
100
AcDbLine
 10
124.3934437010267
 20
113.5078189588204
 30
0.0
 11
116.3968403583389
 21
112.414066532382
 31
0.0
  0
LINE
  5
8A7
330
1621
100
AcDbEntity
  8
1
  6
Continuous
100
AcDbLine
 10
124.203722113341
 20
114.8949047768431
 30
0.0
 11
116.2071187737949
 21
113.8011513504097
 31
0.0
  0
LINE
  5
8A8
330
1621
100
AcDbEntity
  8
1
  6
Continuous
100
AcDbLine
 10
124.3870416590103
 20
115.5450088993664
 30
0.0
 11
116.3904382377829
 21
114.4512814728047
 31
0.0
  0
LINE
  5
8A9
330
1621
100
AcDbEntity
  8
1
  6
Continuous
100
AcDbLine
 10
124.197324071305
 20
116.9320947299556
 30
0.0
 11
116.2007206500776
 21
115.8383673033936
 31
0.0
  0
LINE
  5
8AA
330
1621
100
AcDbEntity
  8
1
  6
Continuous
100
AcDbLine
 10
124.380641616984
 20
117.5821988461956
 30
0.0
 11
116.3840381957566
 21
116.4884714196338
 31
0.0
  0
LINE
  5
8AB
330
1621
100
AcDbEntity
  8
1
  6
Continuous
100
AcDbLine
 10
124.1909240292789
 20
118.9692846767849
 30
0.0
 11
116.1943211866281
 21
117.8755573293574
 31
0.0
  0
LINE
  5
8AC
330
1621
100
AcDbEntity
  8
1
  6
Continuous
100
AcDbLine
 10
124.3742415749576
 20
119.6193887930249
 30
0.0
 11
116.3776381537303
 21
118.5256613664632
 31
0.0
  0
LINE
  5
8AD
330
1621
100
AcDbEntity
  8
1
  6
Continuous
100
AcDbLine
 10
122.6743149239263
 20
113.2726810050091
 30
0.0
 11
124.3629656589034
 21
113.1302683462486
 31
0.0
  0
LINE
  5
8AE
330
1621
100
AcDbEntity
  8
1
  6
Continuous
100
AcDbLine
 10
122.7828191036501
 20
119.1137400865213
 30
0.0
 11
124.3762821145694
 21
118.9698669982996
 31
0.0
  0
LINE
  5
8AF
330
1621
100
AcDbEntity
  8
1
  6
Continuous
100
AcDbLine
 10
122.7893176986533
 20
117.0765412413865
 30
0.0
 11
124.3826821565957
 21
116.9326770514704
 31
0.0
  0
LINE
  5
8B0
330
1621
100
AcDbEntity
  8
1
  6
Continuous
100
AcDbLine
 10
122.7958162936564
 20
115.0393423962513
 30
0.0
 11
124.389082198622
 21
114.8954871046412
 31
0.0
  0
LINE
  5
8B1
330
1621
100
AcDbEntity
  8
1
  6
Continuous
100
AcDbLine
 10
115.8041828824596
 20
112.4058237486864
 30
0.0
 11
117.8041729796138
 21
112.4122037489963
 31
0.0
  0
LINE
  5
8B2
330
1621
100
AcDbEntity
  8
1
  6
Continuous
100
AcDbLine
 10
115.8041828824595
 20
112.4058237486863
 30
0.0
 11
115.8121578824594
 21
109.9058357486862
 31
0.0
  0
ARC
  5
8B3
330
1621
100
AcDbEntity
  8
1
  6
Continuous
100
AcDbCircle
 10
121.7307773028835
 20
118.5777178487515
 30
0.0
 40
5.0
100
AcDbArc
 50
181.1614904878526
 51
187.1628560517644
  0
LINE
  5
8B4
330
1621
100
AcDbEntity
  8
1
  6
Continuous
100
AcDbLine
 10
116.2050801524921
 20
114.4506991512898
 30
0.0
 11
117.7981288780222
 21
114.3068635284106
 31
0.0
  0
LINE
  5
8B5
330
1621
100
AcDbEntity
  8
1
  6
Continuous
100
AcDbLine
 10
116.1922800684396
 20
118.5250790449485
 30
0.0
 11
117.7851312548774
 21
118.3812612577812
 31
0.0
  0
LINE
  5
8B6
330
1621
100
AcDbEntity
  8
1
  6
Continuous
100
AcDbLine
 10
116.1986801104658
 20
116.4878890981191
 30
0.0
 11
117.7916300664499
 21
116.3440623930959
 31
0.0
  0
ARC
  5
8B7
330
1621
100
AcDbEntity
  8
1
  6
Continuous
100
AcDbCircle
 10
116.282779861446
 20
119.2192037833308
 30
0.0
 40
0.7
100
AcDbArc
 50
97.78824800000023
 51
277.7882480000002
  0
ARC
  5
8B8
330
1621
100
AcDbEntity
  8
1
  6
Continuous
100
AcDbCircle
 10
116.2955799454985
 20
115.1448238896724
 30
0.0
 40
0.7
100
AcDbArc
 50
97.78824800000023
 51
277.7882480000002
  0
ARC
  5
8B9
330
1621
100
AcDbEntity
  8
1
  6
Continuous
100
AcDbCircle
 10
116.3019800660644
 20
113.1076089429664
 30
0.0
 40
0.7
100
AcDbArc
 50
97.78842699999941
 51
277.7884269999994
  0
ARC
  5
8BA
330
1621
100
AcDbEntity
  8
1
  6
Continuous
100
AcDbCircle
 10
116.2891799034722
 20
117.1820138365015
 30
0.0
 40
0.7
100
AcDbArc
 50
97.78824800000023
 51
277.7882480000002
  0
LINE
  5
8BB
330
1621
100
AcDbEntity
  8
1
  6
Continuous
100
AcDbLine
 10
117.7840569609362
 20
118.718022890681
 30
0.0
 11
117.7860499855278
 21
118.0932644421527
 31
0.0
  0
LINE
  5
8BC
330
1621
100
AcDbEntity
  8
1
  6
Continuous
100
AcDbLine
 10
117.7905557009962
 20
116.6808464431765
 30
0.0
 11
117.7925487255879
 21
116.0560879946481
 31
0.0
  0
LINE
  5
8BD
330
1621
100
AcDbEntity
  8
1
  6
Continuous
100
AcDbLine
 10
117.7970544410563
 20
114.643669995672
 30
0.0
 11
117.7990475312251
 21
114.0188909904975
 31
0.0
  0
LINE
  5
8BE
330
1621
100
AcDbEntity
  8
1
  6
Continuous
100
AcDbLine
 10
117.8035532476902
 20
112.6064726791039
 30
0.0
 11
117.8041729796138
 21
112.4122037489963
 31
0.0
  0
LINE
  5
8BF
330
1621
100
AcDbEntity
  8
1
  6
Continuous
100
AcDbLine
 10
122.8013964344294
 20
113.2900633085495
 30
0.0
 11
122.80414589661
 21
112.4281537455414
 31
0.0
  0
LINE
  5
8C0
330
1621
100
AcDbEntity
  8
1
  6
Continuous
100
AcDbLine
 10
122.7948978940502
 20
115.3272450300037
 30
0.0
 11
122.7968908660125
 21
114.7024822654539
 31
0.0
  0
LINE
  5
8C1
330
1621
100
AcDbEntity
  8
1
  6
Continuous
100
AcDbLine
 10
122.7883993704004
 20
117.3644215071073
 30
0.0
 11
122.7903923286236
 21
116.7396630495016
 31
0.0
  0
LINE
  5
8C2
330
1621
100
AcDbEntity
  8
1
  6
Continuous
100
AcDbLine
 10
122.7819008467506
 20
119.4015979842112
 30
0.0
 11
122.7838938049738
 21
118.7768395266054
 31
0.0
  0
ARC
  5
8C3
330
1621
100
AcDbEntity
  8
1
  6
Continuous
100
AcDbCircle
 10
124.2985834087522
 20
114.2013613694049
 30
0.0
 40
0.7
100
AcDbArc
 50
277.7884269999994
 51
97.78842699999941
  0
ARC
  5
8C4
330
1621
100
AcDbEntity
  8
1
  6
Continuous
100
AcDbCircle
 10
124.3041396989194
 20
112.4327450972123
 30
0.0
 40
0.7
100
AcDbArc
 50
0.1986244215064668
 51
85.17935500000014
  0
ARC
  5
8C5
330
1621
100
AcDbEntity
  8
1
  6
Continuous
100
AcDbCircle
 10
124.2921833667258
 20
116.2385513162343
 30
0.0
 40
0.7
100
AcDbArc
 50
277.7882480000002
 51
97.78824800000023
  0
ARC
  5
8C6
330
1621
100
AcDbEntity
  8
1
  6
Continuous
100
AcDbCircle
 10
124.2857833246997
 20
118.2757412630634
 30
0.0
 40
0.7
100
AcDbArc
 50
277.7882480000002
 51
97.78824800000023
  0
LINE
  5
8C7
330
1621
100
AcDbEntity
  8
1
  6
Continuous
100
AcDbLine
 10
124.8121118824593
 20
109.9345467486864
 30
0.0
 11
124.8121118824615
 21
112.4345591890602
 31
0.0
  0
ARC
  5
8C8
330
1621
100
AcDbEntity
  8
1
  6
Continuous
100
AcDbCircle
 10
119.7307773028835
 20
109.5748467487034
 30
0.0
 40
6.000000000000026
100
AcDbArc
 50
35.51154690214509
 51
40.75420563411761
  0
LINE
  5
8C9
330
1621
100
AcDbEntity
  8
1
  6
Continuous
100
AcDbLine
 10
123.7307773028835
 20
113.1835840632015
 30
0.0
 11
123.7307773028835
 21
113.4171813530987
 31
0.0
  0
LINE
  5
8CA
330
1621
100
AcDbEntity
  8
1
  6
Continuous
100
AcDbLine
 10
123.7307773028835
 20
114.954925169844
 30
0.0
 11
123.7307773028835
 21
115.4552489991236
 31
0.0
  0
LINE
  5
8CB
330
1621
100
AcDbEntity
  8
1
  6
Continuous
100
AcDbLine
 10
123.7307773028835
 20
116.9915372596382
 30
0.0
 11
123.7307773028835
 21
117.4933143052931
 31
0.0
  0
LINE
  5
8CC
330
1621
100
AcDbEntity
  8
1
  6
Continuous
100
AcDbLine
 10
123.7307773028835
 20
119.0281493494322
 30
0.0
 11
123.7307773028835
 21
119.5313796114626
 31
0.0
  0
LINE
  5
8CD
330
1621
100
AcDbEntity
  8
1
  6
Continuous
100
AcDbLine
 10
122.7558033942467
 20
127.5827048352068
 30
0.0
 11
124.7541978824594
 21
127.5890797486863
 31
0.0
  0
LINE
  5
8CE
330
1621
100
AcDbEntity
  8
1
  6
Continuous
100
AcDbLine
 10
122.7637782677194
 20
125.0827178348031
 30
0.0
 11
124.7621728824595
 21
125.0890927486863
 31
0.0
  0
LINE
  5
8CF
330
1621
100
AcDbEntity
  8
1
  6
Continuous
100
AcDbLine
 10
124.3678415329315
 20
121.6565787398541
 30
0.0
 11
116.3712381117041
 21
120.5628513132924
 31
0.0
  0
LINE
  5
8D0
330
1621
100
AcDbEntity
  8
1
  6
Continuous
100
AcDbLine
 10
124.1781239452264
 20
123.0436645704434
 30
0.0
 11
116.1815205239989
 21
121.9499371438816
 31
0.0
  0
LINE
  5
8D1
330
1621
100
AcDbEntity
  8
1
  6
Continuous
100
AcDbLine
 10
124.3614414909053
 20
123.6937686866834
 30
0.0
 11
116.364838069678
 21
122.6000412601216
 31
0.0
  0
LINE
  5
8D2
330
1621
100
AcDbEntity
  8
1
  6
Continuous
100
AcDbLine
 10
124.1717239032001
 20
125.0808545172725
 30
0.0
 11
116.1751204819726
 21
123.9871270907107
 31
0.0
  0
LINE
  5
8D3
330
1621
100
AcDbEntity
  8
1
  6
Continuous
100
AcDbLine
 10
122.7698219136439
 20
123.1881377767914
 30
0.0
 11
124.363482030517
 21
123.044246891958
 31
0.0
  0
LINE
  5
8D4
330
1621
100
AcDbEntity
  8
1
  6
Continuous
100
AcDbLine
 10
122.7763205086471
 20
121.1509389316564
 30
0.0
 11
124.3698820725432
 21
121.0070569451288
 31
0.0
  0
ARC
  5
8D5
330
1621
100
AcDbEntity
  8
1
  6
Continuous
100
AcDbCircle
 10
122.2307773028835
 20
120.0777178487515
 30
0.0
 40
1.5
100
AcDbArc
 50
43.02452798079182
 51
65.97805053743903
  0
LINE
  5
8D6
330
1621
100
AcDbEntity
  8
1
  6
Continuous
100
AcDbLine
 10
115.7542438824594
 20
127.5603697486863
 30
0.0
 11
115.7622188824595
 21
125.0603817486862
 31
0.0
  0
LINE
  5
8D7
330
1621
100
AcDbEntity
  8
1
  6
Continuous
100
AcDbLine
 10
115.754243882495
 20
127.560369737521
 30
0.0
 11
117.7558288667048
 21
127.5667548287386
 31
0.0
  0
LINE
  5
8D8
330
1621
100
AcDbEntity
  8
1
  6
Continuous
100
AcDbLine
 10
115.5644270201247
 20
125.0599758380654
 30
0.0
 11
117.7638036307862
 21
125.0668854061995
 31
0.0
  0
LINE
  5
8D9
330
1621
100
AcDbEntity
  8
1
  6
Continuous
100
AcDbLine
 10
116.1794799843871
 20
122.5994589386068
 30
0.0
 11
117.7721336317324
 21
122.4556589871518
 31
0.0
  0
ARC
  5
8DA
330
1621
100
AcDbEntity
  8
1
  6
Continuous
100
AcDbCircle
 10
116.2699797773935
 20
123.2935836769894
 30
0.0
 40
0.7
100
AcDbArc
 50
97.78824800000023
 51
277.7882480000002
  0
ARC
  5
8DB
330
1621
100
AcDbEntity
  8
1
  6
Continuous
100
AcDbCircle
 10
116.264423565766
 20
125.0621749493054
 30
0.0
 40
0.7
100
AcDbArc
 50
180.1800000000002
 51
265.1793550000001
  0
LINE
  5
8DC
330
1621
100
AcDbEntity
  8
1
  6
Continuous
100
AcDbLine
 10
116.2055976057821
 20
124.3646517002693
 30
0.0
 11
117.8941573160755
 21
124.2222467555848
 31
0.0
  0
LINE
  5
8DD
330
1621
100
AcDbEntity
  8
1
  6
Continuous
100
AcDbLine
 10
117.7710594808162
 20
122.7923757856899
 30
0.0
 11
117.7730525054078
 21
122.1676173371616
 31
0.0
  0
LINE
  5
8DE
330
1621
100
AcDbEntity
  8
1
  6
Continuous
100
AcDbLine
 10
122.7754023231006
 20
121.4387744613149
 30
0.0
 11
122.777395281324
 21
120.8140160037092
 31
0.0
  0
LINE
  5
8DF
330
1621
100
AcDbEntity
  8
1
  6
Continuous
100
AcDbLine
 10
122.7689037994507
 20
123.4759509384186
 30
0.0
 11
122.7708967576739
 21
122.851192480813
 31
0.0
  0
LINE
  5
8E0
330
1621
100
AcDbEntity
  8
1
  6
Continuous
100
AcDbLine
 10
124.7541978824595
 20
127.5890797486863
 30
0.0
 11
124.7621728824596
 21
125.0890927486863
 31
0.0
  0
ARC
  5
8E1
330
1621
100
AcDbEntity
  8
1
  6
Continuous
100
AcDbCircle
 10
124.2729832406472
 20
122.3501211567219
 30
0.0
 40
0.7
100
AcDbArc
 50
277.7882480000002
 51
97.78824800000023
  0
ARC
  5
8E2
330
1621
100
AcDbEntity
  8
1
  6
Continuous
100
AcDbCircle
 10
124.266583198621
 20
124.3873111035512
 30
0.0
 40
0.7
100
AcDbArc
 50
277.7882480000002
 51
97.78824800000023
  0
LINE
  5
8E3
330
1621
100
AcDbEntity
  8
1
  6
Continuous
100
AcDbLine
 10
122.7416228824594
 20
132.0280537486861
 30
0.0
 11
123.9325728824595
 21
134.239864748686
 31
0.0
  0
ARC
  5
8E4
330
1621
100
AcDbEntity
  8
1
  6
Continuous
100
AcDbCircle
 10
121.7307818824594
 20
135.4248467486862
 30
0.0
 40
2.5
100
AcDbArc
 50
331.7087750000007
 51
158.9857750000003
  0
LINE
  5
8E5
330
1621
100
AcDbEntity
  8
4
  6
CENTER
100
AcDbLine
 10
118.9669768824594
 20
135.4248467486862
 30
0.0
 11
124.4945868824594
 21
135.4248467486862
 31
0.0
  0
LINE
  5
8E6
330
1621
100
AcDbEntity
  8
1
  6
Continuous
100
AcDbLine
 10
117.7416478824595
 20
132.0121037486863
 30
0.0
 11
119.3969098824593
 21
136.3214057486863
 31
0.0
  0
LINE
  5
8E7
330
1621
100
AcDbEntity
  8
1
  6
Continuous
100
AcDbLine
 10
117.7416478824595
 20
132.0121037486863
 30
0.0
 11
122.7416228824594
 21
132.0280537486861
 31
0.0
  0
CIRCLE
  5
8E8
330
1621
100
AcDbEntity
  8
1
  6
Continuous
100
AcDbCircle
 10
121.7307818824594
 20
135.4248467486862
 30
0.0
 40
1.0
  0
LINE
  5
8E9
330
1621
100
AcDbEntity
  8
4
  6
CENTER
100
AcDbLine
 10
121.7307818824594
 20
132.661041748686
 30
0.0
 11
121.7307818824594
 21
138.1886517486863
 31
0.0
  0
LINE
  5
8EB
330
1621
100
AcDbEntity
  8
4
  6
CENTER
100
AcDbLine
 10
51.06678653760812
 20
52.02828214791675
 30
0.0
 11
8.866786537608104
 21
52.02828214791675
 31
0.0
  0
LINE
  5
8EC
330
1621
100
AcDbEntity
  8
4
  6
CENTER
100
AcDbLine
 10
11.74528653760811
 20
50.62828214791675
 30
0.0
 11
47.96678653760809
 21
50.62828214791675
 31
0.0
  0
ARC
  5
8ED
330
1621
100
AcDbEntity
  8
1
  6
Continuous
100
AcDbCircle
 10
16.4667865376081
 20
52.02828214791675
 30
0.0
 40
3.299999999999998
100
AcDbArc
 50
119.0030000000001
 51
240.9969999999997
  0
ARC
  5
8EE
330
1621
100
AcDbEntity
  8
1
  6
Continuous
100
AcDbCircle
 10
16.4667865376081
 20
52.02828214791675
 30
0.0
 40
4.7
100
AcDbArc
 50
109.903
 51
250.0969999999999
  0
LINE
  5
8F1
330
1621
100
AcDbEntity
  8
4
  6
CENTER
100
AcDbLine
 10
29.9667865376081
 20
62.2441190240494
 30
0.0
 11
29.9667865376081
 21
35.87966899743597
 31
0.0
  0
ARC
  5
8F2
330
1621
100
AcDbEntity
  8
1
  6
Continuous
100
AcDbCircle
 10
43.46678653760808
 20
52.02828214791675
 30
0.0
 40
4.7
100
AcDbArc
 50
289.903
 51
70.09730000000027
  0
ARC
  5
8F3
330
1621
100
AcDbEntity
  8
1
  6
Continuous
100
AcDbCircle
 10
43.46678653760808
 20
52.02828214791675
 30
0.0
 40
3.299999999999998
100
AcDbArc
 50
299.0019999999999
 51
60.99760000000019
  0
LINE
  5
8F4
330
1621
100
AcDbEntity
  8
1
  6
Continuous
100
AcDbLine
 10
23.9667865376081
 20
58.62828214791675
 30
0.0
 11
35.9667865376081
 21
58.62828214791675
 31
0.0
  0
LINE
  5
8F5
330
1621
100
AcDbEntity
  8
1
  6
Continuous
100
AcDbLine
 10
35.9667865376081
 20
54.02828214791675
 30
0.0
 11
23.9667865376081
 21
54.02828214791675
 31
0.0
  0
LINE
  5
8F6
330
1621
100
AcDbEntity
  8
1
  6
Continuous
100
AcDbLine
 10
23.9667865376081
 20
53.62828214791675
 30
0.0
 11
35.9667865376081
 21
53.62828214791675
 31
0.0
  0
LINE
  5
8F7
330
1621
100
AcDbEntity
  8
1
  6
Continuous
100
AcDbLine
 10
35.9667865376081
 20
53.52828214791674
 30
0.0
 11
23.9667865376081
 21
53.52828214791674
 31
0.0
  0
ARC
  5
8F8
330
1621
100
AcDbEntity
  8
1
  6
Continuous
100
AcDbCircle
 10
29.9667865376081
 20
43.18028214791673
 30
0.0
 40
12.3968
100
AcDbArc
 50
61.05320000000014
 51
118.9469999999996
  0
ARC
  5
8F9
330
1621
100
AcDbEntity
  8
1
  6
Continuous
100
AcDbCircle
 10
29.9667865376081
 20
44.37828214791672
 30
0.0
 40
12.75
100
AcDbArc
 50
61.92749999999962
 51
118.0719999999997
  0
LINE
  5
8FA
330
1621
100
AcDbEntity
  8
1
  6
Continuous
100
AcDbLine
 10
22.3667865376081
 20
46.62828214791672
 30
0.0
 11
37.56678653760811
 21
46.62828214791672
 31
0.0
  0
LINE
  5
8FB
330
1621
100
AcDbEntity
  8
1
  6
Continuous
100
AcDbLine
 10
35.9667865376081
 20
50.52828214791674
 30
0.0
 11
23.9667865376081
 21
50.52828214791674
 31
0.0
  0
LINE
  5
8FC
330
1621
100
AcDbEntity
  8
1
  6
Continuous
100
AcDbLine
 10
24.46678653760811
 20
48.62828214791672
 30
0.0
 11
35.4667865376081
 21
48.62828214791672
 31
0.0
  0
LINE
  5
8FD
330
1621
100
AcDbEntity
  8
1
  6
Continuous
100
AcDbLine
 10
18.9667865376081
 20
53.02828214791674
 30
0.0
 11
18.9667865376081
 21
51.02828214791674
 31
0.0
  0
LINE
  5
8FE
330
1621
100
AcDbEntity
  8
1
  6
Continuous
100
AcDbLine
 10
21.4667865376081
 20
54.61741156834081
 30
0.0
 11
21.4667865376081
 21
48.12828214791675
 31
0.0
  0
LINE
  5
8FF
330
1621
100
AcDbEntity
  8
1
  6
Continuous
100
AcDbLine
 10
19.8667865376081
 20
54.52828214791675
 30
0.0
 11
19.8667865376081
 21
49.52828214791672
 31
0.0
  0
LINE
  5
900
330
1621
100
AcDbEntity
  8
1
  6
Continuous
100
AcDbLine
 10
16.4667865376081
 20
56.52828214791675
 30
0.0
 11
16.4667865376081
 21
47.52828214791672
 31
0.0
  0
LINE
  5
901
330
1621
100
AcDbEntity
  8
1
  6
Continuous
100
AcDbLine
 10
22.3667865376081
 20
57.02828214791675
 30
0.0
 11
22.3667865376081
 21
46.62828214791672
 31
0.0
  0
LINE
  5
902
330
1621
100
AcDbEntity
  8
1
  6
Continuous
100
AcDbLine
 10
23.9667865376081
 20
58.62828214791675
 30
0.0
 11
23.9667865376081
 21
47.12828214791673
 31
0.0
  0
LINE
  5
903
330
1621
100
AcDbEntity
  8
1
  6
Continuous
100
AcDbLine
 10
14.8667865376081
 20
56.52828214791675
 30
0.0
 11
14.8667865376081
 21
47.52828214791672
 31
0.0
  0
LINE
  5
904
330
1621
100
AcDbEntity
  8
1
  6
Continuous
100
AcDbLine
 10
21.4667865376081
 20
50.52828214791674
 30
0.0
 11
22.3667865376081
 21
50.52828214791674
 31
0.0
  0
LINE
  5
905
330
1621
100
AcDbEntity
  8
1
  6
Continuous
100
AcDbLine
 10
21.4667865376081
 20
49.12828214791673
 30
0.0
 11
22.3667865376081
 21
49.12828214791673
 31
0.0
  0
LINE
  5
906
330
1621
100
AcDbEntity
  8
1
  6
Continuous
100
AcDbLine
 10
18.9667865376081
 20
51.02828214791674
 30
0.0
 11
19.8667865376081
 21
51.02828214791674
 31
0.0
  0
LINE
  5
907
330
1621
100
AcDbEntity
  8
1
  6
Continuous
100
AcDbLine
 10
19.8667865376081
 20
48.68168214791674
 30
0.0
 11
19.8667865376081
 21
48.12828214791675
 31
0.0
  0
LINE
  5
908
330
1621
100
AcDbEntity
  8
1
  6
Continuous
100
AcDbLine
 10
19.8667865376081
 20
48.12828214791675
 30
0.0
 11
21.4667865376081
 21
48.12828214791675
 31
0.0
  0
LINE
  5
909
330
1621
100
AcDbEntity
  8
1
  6
Continuous
100
AcDbLine
 10
18.06678653760809
 20
49.52828214791672
 30
0.0
 11
18.06678653760809
 21
49.14218214791675
 31
0.0
  0
LINE
  5
90A
330
1621
100
AcDbEntity
  8
1
  6
Continuous
100
AcDbLine
 10
17.82328653760811
 20
47.52828214791672
 30
0.0
 11
18.06678653760809
 21
47.52828214791672
 31
0.0
  0
LINE
  5
90B
330
1621
100
AcDbEntity
  8
1
  6
Continuous
100
AcDbLine
 10
18.06678653760809
 20
47.60908214791674
 30
0.0
 11
18.06678653760809
 21
47.52828214791672
 31
0.0
  0
ARC
  5
90C
330
1621
100
AcDbEntity
  8
1
  6
Continuous
100
AcDbCircle
 10
16.4667865376081
 20
52.02828214791675
 30
0.0
 40
3.299999999999998
100
AcDbArc
 50
270.0
 51
310.7489999999995
  0
LINE
  5
90D
330
1621
100
AcDbEntity
  8
1
  6
Continuous
100
AcDbLine
 10
14.8667865376081
 20
47.52828214791672
 30
0.0
 11
16.4667865376081
 21
47.52828214791672
 31
0.0
  0
LINE
  5
90E
330
1621
100
AcDbEntity
  8
1
  6
Continuous
100
AcDbLine
 10
16.4667865376081
 20
49.52828214791672
 30
0.0
 11
21.4667865376081
 21
49.52828214791672
 31
0.0
  0
ARC
  5
90F
330
1621
100
AcDbEntity
  8
1
  6
Continuous
100
AcDbCircle
 10
16.4667865376081
 20
52.02828214791675
 30
0.0
 40
4.7
100
AcDbArc
 50
253.2249999999999
 51
327.865
  0
LINE
  5
910
330
1621
100
AcDbEntity
  8
1
  6
Continuous
100
AcDbLine
 10
23.9667865376081
 20
48.62828214791672
 30
0.0
 11
24.46678653760811
 21
48.62828214791672
 31
0.0
  0
LINE
  5
911
330
1621
100
AcDbEntity
  8
1
  6
Continuous
100
AcDbLine
 10
24.46678653760811
 20
50.52828214791674
 30
0.0
 11
24.46678653760811
 21
46.62828214791672
 31
0.0
  0
LINE
  5
912
330
1621
100
AcDbEntity
  8
1
  6
Continuous
100
AcDbLine
 10
23.9667865376081
 20
48.22828214791673
 30
0.0
 11
24.46678653760811
 21
48.22828214791673
 31
0.0
  0
LINE
  5
913
330
1621
100
AcDbEntity
  8
1
  6
Continuous
100
AcDbLine
 10
22.3667865376081
 20
47.12828214791673
 30
0.0
 11
23.9667865376081
 21
47.12828214791673
 31
0.0
  0
LINE
  5
914
330
1621
100
AcDbEntity
  8
1
  6
Continuous
100
AcDbLine
 10
21.4667865376081
 20
53.52828214791674
 30
0.0
 11
22.3667865376081
 21
53.52828214791674
 31
0.0
  0
LINE
  5
915
330
1621
100
AcDbEntity
  8
1
  6
Continuous
100
AcDbLine
 10
18.06678653760809
 20
56.52828214791675
 30
0.0
 11
18.06678653760809
 21
56.44758214791675
 31
0.0
  0
LINE
  5
916
330
1621
100
AcDbEntity
  8
1
  6
Continuous
100
AcDbLine
 10
17.82328653760811
 20
56.52828214791675
 30
0.0
 11
18.06678653760809
 21
56.52828214791675
 31
0.0
  0
LINE
  5
917
330
1621
100
AcDbEntity
  8
1
  6
Continuous
100
AcDbLine
 10
14.8667865376081
 20
56.52828214791675
 30
0.0
 11
16.4667865376081
 21
56.52828214791675
 31
0.0
  0
LINE
  5
918
330
1621
100
AcDbEntity
  8
1
  6
Continuous
100
AcDbLine
 10
18.06678653760809
 20
54.91448214791674
 30
0.0
 11
18.06678653760809
 21
54.52828214791675
 31
0.0
  0
ARC
  5
919
330
1621
100
AcDbEntity
  8
1
  6
Continuous
100
AcDbCircle
 10
16.4667865376081
 20
52.02828214791675
 30
0.0
 40
3.299999999999998
100
AcDbArc
 50
49.2509000000002
 51
90.0
  0
LINE
  5
91A
330
1621
100
AcDbEntity
  8
1
  6
Continuous
100
AcDbLine
 10
16.4667865376081
 20
54.52828214791675
 30
0.0
 11
21.4667865376081
 21
54.52828214791675
 31
0.0
  0
LINE
  5
91B
330
1621
100
AcDbEntity
  8
1
  6
Continuous
100
AcDbLine
 10
18.9667865376081
 20
53.02828214791674
 30
0.0
 11
19.8667865376081
 21
53.02828214791674
 31
0.0
  0
ARC
  5
91C
330
1621
100
AcDbEntity
  8
1
  6
Continuous
100
AcDbCircle
 10
16.4667865376081
 20
52.02828214791675
 30
0.0
 40
4.7
100
AcDbArc
 50
32.13490000000001
 51
106.7749999999999
  0
ARC
  5
91D
330
1621
100
AcDbEntity
  8
1
  6
Continuous
100
AcDbCircle
 10
23.9667865376081
 20
57.02828214791675
 30
0.0
 40
1.6
100
AcDbArc
 50
90.0
 51
180.0
  0
LINE
  5
91E
330
1621
100
AcDbEntity
  8
1
  6
Continuous
100
AcDbLine
 10
24.46678653760811
 20
54.02828214791675
 30
0.0
 11
24.46678653760811
 21
53.52828214791674
 31
0.0
  0
LINE
  5
91F
330
1621
100
AcDbEntity
  8
1
  6
Continuous
100
AcDbLine
 10
40.96678653760809
 20
53.02828214791674
 30
0.0
 11
40.96678653760809
 21
51.02828214791674
 31
0.0
  0
LINE
  5
920
330
1621
100
AcDbEntity
  8
1
  6
Continuous
100
AcDbLine
 10
40.06678653760809
 20
54.52828214791675
 30
0.0
 11
40.06678653760809
 21
49.52828214791672
 31
0.0
  0
LINE
  5
921
330
1621
100
AcDbEntity
  8
1
  6
Continuous
100
AcDbLine
 10
38.4667865376081
 20
54.61741156834081
 30
0.0
 11
38.4667865376081
 21
48.12828214791675
 31
0.0
  0
LINE
  5
922
330
1621
100
AcDbEntity
  8
1
  6
Continuous
100
AcDbLine
 10
43.46678653760808
 20
56.52828214791675
 30
0.0
 11
43.46678653760808
 21
47.52828214791672
 31
0.0
  0
LINE
  5
923
330
1621
100
AcDbEntity
  8
1
  6
Continuous
100
AcDbLine
 10
37.56678653760811
 20
57.02828214791675
 30
0.0
 11
37.56678653760811
 21
46.62828214791672
 31
0.0
  0
LINE
  5
924
330
1621
100
AcDbEntity
  8
1
  6
Continuous
100
AcDbLine
 10
35.9667865376081
 20
58.62828214791675
 30
0.0
 11
35.9667865376081
 21
47.12828214791673
 31
0.0
  0
LINE
  5
925
330
1621
100
AcDbEntity
  8
1
  6
Continuous
100
AcDbLine
 10
45.0667865376081
 20
56.52828214791675
 30
0.0
 11
45.0667865376081
 21
47.52828214791672
 31
0.0
  0
LINE
  5
926
330
1621
100
AcDbEntity
  8
1
  6
Continuous
100
AcDbLine
 10
35.9667865376081
 20
47.12828214791673
 30
0.0
 11
37.56678653760811
 21
47.12828214791673
 31
0.0
  0
LINE
  5
927
330
1621
100
AcDbEntity
  8
1
  6
Continuous
100
AcDbLine
 10
35.4667865376081
 20
48.62828214791672
 30
0.0
 11
35.9667865376081
 21
48.62828214791672
 31
0.0
  0
LINE
  5
928
330
1621
100
AcDbEntity
  8
1
  6
Continuous
100
AcDbLine
 10
35.4667865376081
 20
50.52828214791674
 30
0.0
 11
35.4667865376081
 21
46.62828214791672
 31
0.0
  0
LINE
  5
929
330
1621
100
AcDbEntity
  8
1
  6
Continuous
100
AcDbLine
 10
35.9667865376081
 20
48.22828214791673
 30
0.0
 11
35.4667865376081
 21
48.22828214791673
 31
0.0
  0
LINE
  5
92A
330
1621
100
AcDbEntity
  8
1
  6
Continuous
100
AcDbLine
 10
40.06678653760809
 20
51.02828214791674
 30
0.0
 11
40.96678653760809
 21
51.02828214791674
 31
0.0
  0
LINE
  5
92B
330
1621
100
AcDbEntity
  8
1
  6
Continuous
100
AcDbLine
 10
43.46678653760808
 20
47.52828214791672
 30
0.0
 11
45.0667865376081
 21
47.52828214791672
 31
0.0
  0
LINE
  5
92C
330
1621
100
AcDbEntity
  8
1
  6
Continuous
100
AcDbLine
 10
41.86678653760806
 20
49.52828214791672
 30
0.0
 11
41.86678653760806
 21
49.14218214791675
 31
0.0
  0
LINE
  5
92D
330
1621
100
AcDbEntity
  8
1
  6
Continuous
100
AcDbLine
 10
41.86678653760806
 20
47.52828214791672
 30
0.0
 11
42.11038653760808
 21
47.52828214791672
 31
0.0
  0
LINE
  5
92E
330
1621
100
AcDbEntity
  8
1
  6
Continuous
100
AcDbLine
 10
41.86678653760806
 20
47.60908214791674
 30
0.0
 11
41.86678653760806
 21
47.52828214791672
 31
0.0
  0
LINE
  5
92F
330
1621
100
AcDbEntity
  8
1
  6
Continuous
100
AcDbLine
 10
40.06678653760809
 20
48.68168214791674
 30
0.0
 11
40.06678653760809
 21
48.12828214791675
 31
0.0
  0
LINE
  5
930
330
1621
100
AcDbEntity
  8
1
  6
Continuous
100
AcDbLine
 10
37.56678653760811
 20
50.52828214791674
 30
0.0
 11
38.4667865376081
 21
50.52828214791674
 31
0.0
  0
LINE
  5
931
330
1621
100
AcDbEntity
  8
1
  6
Continuous
100
AcDbLine
 10
38.4667865376081
 20
49.12828214791673
 30
0.0
 11
37.56678653760811
 21
49.12828214791673
 31
0.0
  0
LINE
  5
932
330
1621
100
AcDbEntity
  8
1
  6
Continuous
100
AcDbLine
 10
40.06678653760809
 20
48.12828214791675
 30
0.0
 11
38.4667865376081
 21
48.12828214791675
 31
0.0
  0
LINE
  5
933
330
1621
100
AcDbEntity
  8
1
  6
Continuous
100
AcDbLine
 10
38.4667865376081
 20
49.52828214791672
 30
0.0
 11
43.46678653760808
 21
49.52828214791672
 31
0.0
  0
ARC
  5
934
330
1621
100
AcDbEntity
  8
1
  6
Continuous
100
AcDbCircle
 10
43.46678653760808
 20
52.02828214791675
 30
0.0
 40
4.7
100
AcDbArc
 50
212.1349999999999
 51
286.775
  0
ARC
  5
935
330
1621
100
AcDbEntity
  8
1
  6
Continuous
100
AcDbCircle
 10
43.46678653760808
 20
52.02828214791675
 30
0.0
 40
3.299999999999998
100
AcDbArc
 50
229.2509999999995
 51
270.0
  0
ARC
  5
936
330
1621
100
AcDbEntity
  8
1
  6
Continuous
100
AcDbCircle
 10
35.9667865376081
 20
57.02828214791675
 30
0.0
 40
1.6
100
AcDbArc
 50
0.0
 51
90.0
  0
LINE
  5
937
330
1621
100
AcDbEntity
  8
1
  6
Continuous
100
AcDbLine
 10
35.4667865376081
 20
54.02828214791675
 30
0.0
 11
35.4667865376081
 21
53.52828214791674
 31
0.0
  0
LINE
  5
938
330
1621
100
AcDbEntity
  8
1
  6
Continuous
100
AcDbLine
 10
43.46678653760808
 20
56.52828214791675
 30
0.0
 11
45.0667865376081
 21
56.52828214791675
 31
0.0
  0
LINE
  5
939
330
1621
100
AcDbEntity
  8
1
  6
Continuous
100
AcDbLine
 10
41.86678653760806
 20
56.52828214791675
 30
0.0
 11
41.86678653760806
 21
56.44758214791675
 31
0.0
  0
LINE
  5
93A
330
1621
100
AcDbEntity
  8
1
  6
Continuous
100
AcDbLine
 10
41.86678653760806
 20
56.52828214791675
 30
0.0
 11
42.11038653760808
 21
56.52828214791675
 31
0.0
  0
LINE
  5
93B
330
1621
100
AcDbEntity
  8
1
  6
Continuous
100
AcDbLine
 10
41.86678653760806
 20
54.91448214791674
 30
0.0
 11
41.86678653760806
 21
54.52828214791675
 31
0.0
  0
LINE
  5
93C
330
1621
100
AcDbEntity
  8
1
  6
Continuous
100
AcDbLine
 10
40.06678653760809
 20
53.02828214791674
 30
0.0
 11
40.96678653760809
 21
53.02828214791674
 31
0.0
  0
LINE
  5
93D
330
1621
100
AcDbEntity
  8
1
  6
Continuous
100
AcDbLine
 10
37.56678653760811
 20
53.52828214791674
 30
0.0
 11
38.4667865376081
 21
53.52828214791674
 31
0.0
  0
LINE
  5
93E
330
1621
100
AcDbEntity
  8
1
  6
Continuous
100
AcDbLine
 10
38.4667865376081
 20
54.52828214791675
 30
0.0
 11
43.46678653760808
 21
54.52828214791675
 31
0.0
  0
ARC
  5
93F
330
1621
100
AcDbEntity
  8
1
  6
Continuous
100
AcDbCircle
 10
43.46678653760808
 20
52.02828214791675
 30
0.0
 40
4.7
100
AcDbArc
 50
73.2252999999998
 51
147.865
  0
ARC
  5
940
330
1621
100
AcDbEntity
  8
1
  6
Continuous
100
AcDbCircle
 10
43.46678653760808
 20
52.02828214791675
 30
0.0
 40
3.299999999999998
100
AcDbArc
 50
90.0
 51
130.7489999999996
  0
LINE
  5
A3B
330
1621
100
AcDbEntity
  8
1
  6
Continuous
100
AcDbLine
 10
133.2307818824594
 20
168.4316367486864
 30
0.0
 11
131.4955518824594
 21
169.9482997486864
 31
0.0
  0
ARC
  5
A3C
330
1621
100
AcDbEntity
  8
1
  6
Continuous
100
AcDbCircle
 10
126.2307818824595
 20
163.9248467486862
 30
0.0
 40
8.0
100
AcDbArc
 50
48.84517200000001
 51
180.000005
  0
ARC
  5
A3D
330
1621
100
AcDbEntity
  8
1
  6
Continuous
100
AcDbCircle
 10
126.2307818824595
 20
163.9248467486862
 30
0.0
 40
6.0
100
AcDbArc
 50
48.84517200000001
 51
180.000005
  0
ARC
  5
A3E
330
1621
100
AcDbEntity
  8
5
  6
PHANTOM
100
AcDbCircle
 10
126.2307818824595
 20
167.9248467486862
 30
0.0
 40
8.0
100
AcDbArc
 50
48.84517200000001
 51
180.000005
  0
ARC
  5
A3F
330
1621
100
AcDbEntity
  8
5
  6
PHANTOM
100
AcDbCircle
 10
126.2307818824595
 20
167.9248467486862
 30
0.0
 40
6.0
100
AcDbArc
 50
48.84517200000001
 51
180.000005
  0
LINE
  5
A40
330
1621
100
AcDbEntity
  8
1
  6
Continuous
100
AcDbLine
 10
118.2307818824594
 20
163.9248467486862
 30
0.0
 11
118.2307818824594
 21
135.4248467486862
 31
0.0
  0
LINE
  5
A41
330
1621
100
AcDbEntity
  8
1
  6
Continuous
100
AcDbLine
 10
120.2307818824594
 20
163.9248467486862
 30
0.0
 11
120.2307818824594
 21
137.4248467486862
 31
0.0
  0
LINE
  5
A42
330
1621
100
AcDbEntity
  8
5
  6
PHANTOM
100
AcDbLine
 10
120.2307818824595
 20
167.9248460505544
 30
0.0
 11
120.2307818824595
 21
163.9248467486862
 31
0.0
  0
LINE
  5
A43
330
1621
100
AcDbEntity
  8
5
  6
PHANTOM
100
AcDbLine
 10
118.2307818824595
 20
167.9248460505544
 30
0.0
 11
118.2307818824595
 21
163.9248467486862
 31
0.0
  0
LINE
  5
A44
330
1621
100
AcDbEntity
  8
1
  6
Continuous
100
AcDbLine
 10
131.9156568824594
 20
166.9248317486863
 30
0.0
 11
130.1793598824594
 21
168.4424407486862
 31
0.0
  0
LINE
  5
A45
330
1621
100
AcDbEntity
  8
1
  6
Continuous
100
AcDbLine
 10
133.2307818824594
 20
168.4316527486862
 30
0.0
 11
131.9156728824594
 21
166.9248467486862
 31
0.0
  0
LINE
  5
A46
330
1621
100
AcDbEntity
  8
5
  6
PHANTOM
100
AcDbLine
 10
133.2307818824594
 20
172.4316367486864
 30
0.0
 11
131.4955518824594
 21
173.9482997486864
 31
0.0
  0
LINE
  5
A47
330
1621
100
AcDbEntity
  8
5
  6
PHANTOM
100
AcDbLine
 10
131.9156568824594
 20
170.9248317486862
 30
0.0
 11
130.1793598824594
 21
172.4424407486863
 31
0.0
  0
LINE
  5
A48
330
1621
100
AcDbEntity
  8
5
  6
PHANTOM
100
AcDbLine
 10
133.2307818824594
 20
172.4316527486863
 30
0.0
 11
131.9156728824594
 21
170.9248467486862
 31
0.0
  0
ARC
  5
A49
330
1621
100
AcDbEntity
  8
1
  6
Continuous
100
AcDbCircle
 10
121.7307818824594
 20
135.4248467486862
 30
0.0
 40
3.5
100
AcDbArc
 50
179.9999909999999
 51
203.21799
  0
LINE
  5
A4A
330
1621
100
AcDbEntity
  8
1
  6
Continuous
100
AcDbLine
 10
120.2307968824595
 20
138.5871397486864
 30
0.0
 11
120.6593708824595
 21
137.6836207486864
 31
0.0
  0
ARC
  5
A4B
330
1621
100
AcDbEntity
  8
1
  6
Continuous
100
AcDbCircle
 10
121.7307818824594
 20
135.4248467486862
 30
0.0
 40
3.5
100
AcDbArc
 50
287.1111309999997
 51
115.376935
  0
LINE
  5
CE8
330
1621
100
AcDbEntity
  8
1
  6
Continuous
100
AcDbLine
 10
11.76678653760814
 20
125.0632528487514
 30
0.0
 11
14.86678653760816
 21
125.0632528487514
 31
0.0
  0
LINE
  5
CE9
330
1621
100
AcDbEntity
  8
1
  6
Continuous
100
AcDbLine
 10
12.3741065376081
 20
116.4892158487513
 30
0.0
 11
14.86678653760816
 21
116.2562558487512
 31
0.0
  0
LINE
  5
CEA
330
1621
100
AcDbEntity
  8
1
  6
Continuous
100
AcDbLine
 10
12.3741065376081
 20
122.6008158487514
 30
0.0
 11
14.86678653760816
 21
122.3678558487513
 31
0.0
  0
LINE
  5
CEB
330
1621
100
AcDbEntity
  8
1
  6
Continuous
100
AcDbLine
 10
12.3741065376081
 20
120.5636158487515
 30
0.0
 11
14.86678653760816
 21
120.3306558487513
 31
0.0
  0
LINE
  5
CEC
330
1621
100
AcDbEntity
  8
1
  6
Continuous
100
AcDbLine
 10
12.3741065376081
 20
118.5264158487514
 30
0.0
 11
14.86678653760816
 21
118.2934558487511
 31
0.0
  0
LINE
  5
CED
330
1621
100
AcDbEntity
  8
1
  6
Continuous
100
AcDbLine
 10
12.40576953760808
 20
124.3659178487514
 30
0.0
 11
14.09387353760814
 21
124.2182088487515
 31
0.0
  0
LINE
  5
CEE
330
1621
100
AcDbEntity
  8
1
  6
Continuous
100
AcDbLine
 10
12.40576953760808
 20
124.3659178487514
 30
0.0
 11
14.09387353760814
 21
124.2182088487515
 31
0.0
  0
LINE
  5
CEF
330
1621
100
AcDbEntity
  8
1
  6
Continuous
100
AcDbLine
 10
12.3741065376081
 20
118.5264158487514
 30
0.0
 11
14.86678653760816
 21
118.2934558487511
 31
0.0
  0
LINE
  5
CF0
330
1621
100
AcDbEntity
  8
1
  6
Continuous
100
AcDbLine
 10
12.3741065376081
 20
120.5636158487515
 30
0.0
 11
14.86678653760816
 21
120.3306558487513
 31
0.0
  0
LINE
  5
CF1
330
1621
100
AcDbEntity
  8
1
  6
Continuous
100
AcDbLine
 10
12.3741065376081
 20
122.6008158487514
 30
0.0
 11
14.86678653760816
 21
122.3678558487513
 31
0.0
  0
LINE
  5
CF2
330
1621
100
AcDbEntity
  8
1
  6
Continuous
100
AcDbLine
 10
12.3741065376081
 20
116.4892158487513
 30
0.0
 11
14.86678653760816
 21
116.2562558487512
 31
0.0
  0
LINE
  5
CF3
330
1621
100
AcDbEntity
  8
1
  6
Continuous
100
AcDbLine
 10
11.76678653760814
 20
125.0632528487514
 30
0.0
 11
14.86678653760816
 21
125.0632528487514
 31
0.0
  0
LINE
  5
CF4
330
1621
100
AcDbEntity
  8
1
  6
Continuous
100
AcDbLine
 10
20.37410653760808
 20
118.9454908487513
 30
0.0
 11
12.3741065376081
 21
117.8768908487514
 31
0.0
  0
LINE
  5
CF5
330
1621
100
AcDbEntity
  8
1
  6
Continuous
100
AcDbLine
 10
20.55946553760804
 20
117.5578158487513
 30
0.0
 11
12.55946553760816
 21
116.4892158487513
 31
0.0
  0
LINE
  5
CF6
330
1621
100
AcDbEntity
  8
1
  6
Continuous
100
AcDbLine
 10
20.55946553760804
 20
121.6322158487515
 30
0.0
 11
12.55946553760816
 21
120.5636158487515
 31
0.0
  0
LINE
  5
CF7
330
1621
100
AcDbEntity
  8
1
  6
Continuous
100
AcDbLine
 10
20.37410653760808
 20
123.0198908487514
 30
0.0
 11
12.3741065376081
 21
121.9512908487515
 31
0.0
  0
LINE
  5
CF8
330
1621
100
AcDbEntity
  8
1
  6
Continuous
100
AcDbLine
 10
20.55946553760804
 20
123.6694158487514
 30
0.0
 11
12.55946553760816
 21
122.6008158487514
 31
0.0
  0
LINE
  5
CF9
330
1621
100
AcDbEntity
  8
1
  6
Continuous
100
AcDbLine
 10
20.37410653760808
 20
125.0570908487514
 30
0.0
 11
12.3741065376081
 21
123.9884908487513
 31
0.0
  0
LINE
  5
CFA
330
1621
100
AcDbEntity
  8
1
  6
Continuous
100
AcDbLine
 10
20.55946553760804
 20
119.5950158487515
 30
0.0
 11
12.55946553760816
 21
118.5264158487514
 31
0.0
  0
LINE
  5
CFB
330
1621
100
AcDbEntity
  8
1
  6
Continuous
100
AcDbLine
 10
20.37410653760808
 20
120.9826908487514
 30
0.0
 11
12.3741065376081
 21
119.9140908487512
 31
0.0
  0
LINE
  5
CFC
330
1621
100
AcDbEntity
  8
1
  6
Continuous
100
AcDbLine
 10
20.37410653760808
 20
120.9826908487514
 30
0.0
 11
12.3741065376081
 21
119.9140908487512
 31
0.0
  0
LINE
  5
CFD
330
1621
100
AcDbEntity
  8
1
  6
Continuous
100
AcDbLine
 10
20.55946553760816
 20
119.5950158487515
 30
0.0
 11
12.55946553760816
 21
118.5264158487514
 31
0.0
  0
LINE
  5
CFE
330
1621
100
AcDbEntity
  8
1
  6
Continuous
100
AcDbLine
 10
20.37410653760808
 20
125.0570908487514
 30
0.0
 11
12.3741065376081
 21
123.9884908487513
 31
0.0
  0
LINE
  5
CFF
330
1621
100
AcDbEntity
  8
1
  6
Continuous
100
AcDbLine
 10
20.55946553760816
 20
123.6694158487514
 30
0.0
 11
12.55946553760816
 21
122.6008158487514
 31
0.0
  0
LINE
  5
D00
330
1621
100
AcDbEntity
  8
1
  6
Continuous
100
AcDbLine
 10
20.37410653760808
 20
123.0198908487514
 30
0.0
 11
12.3741065376081
 21
121.9512908487515
 31
0.0
  0
LINE
  5
D01
330
1621
100
AcDbEntity
  8
1
  6
Continuous
100
AcDbLine
 10
20.55946553760816
 20
121.6322158487515
 30
0.0
 11
12.55946553760816
 21
120.5636158487515
 31
0.0
  0
LINE
  5
D02
330
1621
100
AcDbEntity
  8
1
  6
Continuous
100
AcDbLine
 10
20.55946553760816
 20
117.5578158487513
 30
0.0
 11
12.55946553760816
 21
116.4892158487513
 31
0.0
  0
LINE
  5
D03
330
1621
100
AcDbEntity
  8
1
  6
Continuous
100
AcDbLine
 10
20.37410653760808
 20
118.9454908487513
 30
0.0
 11
12.3741065376081
 21
117.8768908487514
 31
0.0
  0
LINE
  5
D04
330
1621
100
AcDbEntity
  8
1
  6
Continuous
100
AcDbLine
 10
12.46678653760807
 20
112.4086278487512
 30
0.0
 11
16.46678653760807
 21
112.4086278487512
 31
0.0
  0
LINE
  5
D05
330
1621
100
AcDbEntity
  8
1
  6
Continuous
100
AcDbLine
 10
12.3741065376081
 20
114.4520158487513
 30
0.0
 11
14.86678653760816
 21
114.2190558487512
 31
0.0
  0
LINE
  5
D06
330
1621
100
AcDbEntity
  8
1
  6
Continuous
100
AcDbLine
 10
12.3741065376081
 20
114.4520158487513
 30
0.0
 11
14.86678653760816
 21
114.2190558487512
 31
0.0
  0
LINE
  5
D07
330
1621
100
AcDbEntity
  8
1
  6
Continuous
100
AcDbLine
 10
12.46678653760807
 20
112.4086278487512
 30
0.0
 11
16.46678653760807
 21
112.4086278487512
 31
0.0
  0
LINE
  5
D08
330
1621
100
AcDbEntity
  8
1
  6
Continuous
100
AcDbLine
 10
20.55946753760815
 20
113.4834158487514
 30
0.0
 11
12.55946753760815
 21
112.4147908487514
 31
0.0
  0
LINE
  5
D09
330
1621
100
AcDbEntity
  8
1
  6
Continuous
100
AcDbLine
 10
20.3741045376081
 20
114.8710908487514
 30
0.0
 11
12.3741045376081
 21
113.8024648487513
 31
0.0
  0
LINE
  5
D0A
330
1621
100
AcDbEntity
  8
1
  6
Continuous
100
AcDbLine
 10
20.55946553760804
 20
115.5206158487513
 30
0.0
 11
12.55946553760816
 21
114.4520158487513
 31
0.0
  0
LINE
  5
D0B
330
1621
100
AcDbEntity
  8
1
  6
Continuous
100
AcDbLine
 10
20.55946553760816
 20
115.5206158487513
 30
0.0
 11
12.55946553760816
 21
114.4520158487513
 31
0.0
  0
LINE
  5
D0C
330
1621
100
AcDbEntity
  8
1
  6
Continuous
100
AcDbLine
 10
20.3741045376081
 20
114.8710908487514
 30
0.0
 11
12.3741045376081
 21
113.8024648487513
 31
0.0
  0
LINE
  5
D0D
330
1621
100
AcDbEntity
  8
1
  6
Continuous
100
AcDbLine
 10
20.55946753760815
 20
113.4834158487514
 30
0.0
 11
12.55946753760815
 21
112.4147908487514
 31
0.0
  0
LINE
  5
D0E
330
1621
100
AcDbEntity
  8
1
  6
Continuous
100
AcDbLine
 10
20.37410653760808
 20
116.9082908487514
 30
0.0
 11
12.3741065376081
 21
115.8396908487513
 31
0.0
  0
LINE
  5
D0F
330
1621
100
AcDbEntity
  8
1
  6
Continuous
100
AcDbLine
 10
20.37410653760808
 20
116.9082908487514
 30
0.0
 11
12.3741065376081
 21
115.8396908487513
 31
0.0
  0
ARC
  5
D10
330
1621
100
AcDbEntity
  8
1
  6
Continuous
100
AcDbCircle
 10
12.46678653760807
 20
121.2574528487513
 30
0.0
 40
0.7
100
AcDbArc
 50
97.60824800000015
 51
277.6082480000001
  0
ARC
  5
D11
330
1621
100
AcDbEntity
  8
1
  6
Continuous
100
AcDbCircle
 10
12.46678653760807
 20
121.2574528487513
 30
0.0
 40
0.7
100
AcDbArc
 50
97.60824800000015
 51
277.6082480000001
  0
ARC
  5
D12
330
1621
100
AcDbEntity
  8
1
  6
Continuous
100
AcDbCircle
 10
12.46678653760807
 20
117.1830528487514
 30
0.0
 40
0.7
100
AcDbArc
 50
97.60824800000015
 51
277.6082480000001
  0
ARC
  5
D13
330
1621
100
AcDbEntity
  8
1
  6
Continuous
100
AcDbCircle
 10
12.46678653760807
 20
119.2202528487512
 30
0.0
 40
0.7
100
AcDbArc
 50
97.60824800000015
 51
277.6082480000001
  0
ARC
  5
D14
330
1621
100
AcDbEntity
  8
1
  6
Continuous
100
AcDbCircle
 10
12.46678653760807
 20
117.1830528487514
 30
0.0
 40
0.7
100
AcDbArc
 50
97.60824800000015
 51
277.6082480000001
  0
ARC
  5
D15
330
1621
100
AcDbEntity
  8
1
  6
Continuous
100
AcDbCircle
 10
12.46678653760807
 20
119.2202528487512
 30
0.0
 40
0.7
100
AcDbArc
 50
97.60824800000015
 51
277.6082480000001
  0
ARC
  5
D16
330
1621
100
AcDbEntity
  8
1
  6
Continuous
100
AcDbCircle
 10
12.46678653760807
 20
115.1458528487512
 30
0.0
 40
0.7
100
AcDbArc
 50
97.60824800000015
 51
277.6082480000001
  0
ARC
  5
D17
330
1621
100
AcDbEntity
  8
1
  6
Continuous
100
AcDbCircle
 10
12.46678653760807
 20
113.1086278487512
 30
0.0
 40
0.7
100
AcDbArc
 50
97.60842700000084
 51
277.6084270000008
  0
ARC
  5
D18
330
1621
100
AcDbEntity
  8
1
  6
Continuous
100
AcDbCircle
 10
12.46678653760807
 20
113.1086278487512
 30
0.0
 40
0.7
100
AcDbArc
 50
97.60842700000084
 51
277.6084270000008
  0
ARC
  5
D19
330
1621
100
AcDbEntity
  8
1
  6
Continuous
100
AcDbCircle
 10
12.46678653760807
 20
115.1458528487512
 30
0.0
 40
0.7
100
AcDbArc
 50
97.60824800000015
 51
277.6082480000001
  0
ARC
  5
D1A
330
1621
100
AcDbEntity
  8
1
  6
Continuous
100
AcDbCircle
 10
12.46678653760807
 20
123.2946528487514
 30
0.0
 40
0.7
100
AcDbArc
 50
97.60824800000015
 51
277.6082480000001
  0
ARC
  5
D1B
330
1621
100
AcDbEntity
  8
1
  6
Continuous
100
AcDbCircle
 10
12.46678653760807
 20
125.0632528487514
 30
0.0
 40
0.7
100
AcDbArc
 50
180.0
 51
264.9993550000002
  0
ARC
  5
D1C
330
1621
100
AcDbEntity
  8
1
  6
Continuous
100
AcDbCircle
 10
12.46678653760807
 20
125.0632528487514
 30
0.0
 40
0.7
100
AcDbArc
 50
180.0
 51
264.9993550000002
  0
ARC
  5
D1D
330
1621
100
AcDbEntity
  8
1
  6
Continuous
100
AcDbCircle
 10
12.46678653760807
 20
123.2946528487514
 30
0.0
 40
0.7
100
AcDbArc
 50
97.60824800000015
 51
277.6082480000001
  0
ARC
  5
D1E
330
1621
100
AcDbEntity
  8
1
  6
Continuous
100
AcDbCircle
 10
39.46678653760807
 20
121.2574528487513
 30
0.0
 40
0.7
100
AcDbArc
 50
97.60824800000015
 51
277.6082480000001
  0
ARC
  5
D1F
330
1621
100
AcDbEntity
  8
1
  6
Continuous
100
AcDbCircle
 10
39.46678653760807
 20
121.2574528487513
 30
0.0
 40
0.7
100
AcDbArc
 50
97.60824800000015
 51
277.6082480000001
  0
LINE
  5
D20
330
1621
100
AcDbEntity
  8
1
  6
Continuous
100
AcDbLine
 10
47.55946553760815
 20
121.6322158487515
 30
0.0
 11
39.55946553760816
 21
120.5636158487515
 31
0.0
  0
LINE
  5
D21
330
1621
100
AcDbEntity
  8
1
  6
Continuous
100
AcDbLine
 10
47.55946553760815
 20
121.6322158487515
 30
0.0
 11
39.55946553760816
 21
120.5636158487515
 31
0.0
  0
LINE
  5
D22
330
1621
100
AcDbEntity
  8
1
  6
Continuous
100
AcDbLine
 10
37.5667865376081
 20
123.5777178487515
 30
0.0
 11
37.5667865376081
 21
99.57771784875156
 31
0.0
  0
LINE
  5
D24
330
1621
100
AcDbEntity
  8
4
  6
CENTER
100
AcDbLine
 10
29.96678653760807
 20
174.7136356766745
 30
0.0
 11
29.96678653760807
 21
82.49559457101391
 31
0.0
  0
LINE
  5
D25
330
1621
100
AcDbEntity
  8
1
  6
Continuous
100
AcDbLine
 10
37.5667865376081
 20
123.5777178487515
 30
0.0
 11
37.5667865376081
 21
99.57771784875156
 31
0.0
  0
LINE
  5
D26
330
1621
100
AcDbEntity
  8
1
  6
Continuous
100
AcDbLine
 10
22.36678653760804
 20
123.5777178487515
 30
0.0
 11
22.36678653760804
 21
99.57771784875156
 31
0.0
  0
LINE
  5
D27
330
1621
100
AcDbEntity
  8
1
  6
Continuous
100
AcDbLine
 10
22.36678653760816
 20
123.5777178487515
 30
0.0
 11
22.36678653760816
 21
99.57771784875156
 31
0.0
  0
LINE
  5
D28
330
1621
100
AcDbEntity
  8
1
  6
Continuous
100
AcDbLine
 10
47.3741065376081
 20
120.9826908487514
 30
0.0
 11
39.37410653760811
 21
119.9140908487512
 31
0.0
  0
LINE
  5
D29
330
1621
100
AcDbEntity
  8
1
  6
Continuous
100
AcDbLine
 10
47.55946553760815
 20
119.5950158487515
 30
0.0
 11
39.55946553760816
 21
118.5264158487514
 31
0.0
  0
LINE
  5
D2A
330
1621
100
AcDbEntity
  8
1
  6
Continuous
100
AcDbLine
 10
47.3741065376081
 20
118.9454908487513
 30
0.0
 11
39.37410653760811
 21
117.8768908487514
 31
0.0
  0
LINE
  5
D2B
330
1621
100
AcDbEntity
  8
1
  6
Continuous
100
AcDbLine
 10
47.55946553760815
 20
117.5578158487513
 30
0.0
 11
39.55946553760816
 21
116.4892158487513
 31
0.0
  0
LINE
  5
D2C
330
1621
100
AcDbEntity
  8
1
  6
Continuous
100
AcDbLine
 10
47.55946553760815
 20
117.5578158487513
 30
0.0
 11
39.55946553760816
 21
116.4892158487513
 31
0.0
  0
LINE
  5
D2D
330
1621
100
AcDbEntity
  8
1
  6
Continuous
100
AcDbLine
 10
47.3741065376081
 20
118.9454908487513
 30
0.0
 11
39.37410653760811
 21
117.8768908487514
 31
0.0
  0
LINE
  5
D2E
330
1621
100
AcDbEntity
  8
1
  6
Continuous
100
AcDbLine
 10
47.55946553760815
 20
119.5950158487515
 30
0.0
 11
39.55946553760816
 21
118.5264158487514
 31
0.0
  0
LINE
  5
D2F
330
1621
100
AcDbEntity
  8
1
  6
Continuous
100
AcDbLine
 10
47.3741065376081
 20
120.9826908487514
 30
0.0
 11
39.37410653760811
 21
119.9140908487512
 31
0.0
  0
LINE
  5
D30
330
1621
100
AcDbEntity
  8
1
  6
Continuous
100
AcDbLine
 10
45.06678653760809
 20
109.9086948487513
 30
0.0
 11
43.46678653760807
 21
109.9086948487513
 31
0.0
  0
LINE
  5
D31
330
1621
100
AcDbEntity
  8
1
  6
Continuous
100
AcDbLine
 10
45.06678653760809
 20
109.9086948487513
 30
0.0
 11
43.46678653760807
 21
109.9086948487513
 31
0.0
  0
LINE
  5
D32
330
1621
100
AcDbEntity
  8
1
  6
Continuous
100
AcDbLine
 10
43.46678653760807
 20
112.4086278487512
 30
0.0
 11
48.16678653760812
 21
112.4086278487512
 31
0.0
  0
LINE
  5
D33
330
1621
100
AcDbEntity
  8
1
  6
Continuous
100
AcDbLine
 10
43.46678653760807
 20
112.4086278487512
 30
0.0
 11
48.16678653760812
 21
112.4086278487512
 31
0.0
  0
LINE
  5
D34
330
1621
100
AcDbEntity
  8
1
  6
Continuous
100
AcDbLine
 10
47.55946553760815
 20
115.5206158487513
 30
0.0
 11
39.55946553760816
 21
114.4520158487513
 31
0.0
  0
LINE
  5
D35
330
1621
100
AcDbEntity
  8
1
  6
Continuous
100
AcDbLine
 10
47.37410453760809
 20
114.8710908487514
 30
0.0
 11
39.3741045376081
 21
113.8024648487513
 31
0.0
  0
LINE
  5
D36
330
1621
100
AcDbEntity
  8
1
  6
Continuous
100
AcDbLine
 10
47.55946753760816
 20
113.4834158487514
 30
0.0
 11
39.55946753760816
 21
112.4147908487514
 31
0.0
  0
LINE
  5
D37
330
1621
100
AcDbEntity
  8
1
  6
Continuous
100
AcDbLine
 10
47.55946753760816
 20
113.4834158487514
 30
0.0
 11
39.55946753760816
 21
112.4147908487514
 31
0.0
  0
LINE
  5
D38
330
1621
100
AcDbEntity
  8
1
  6
Continuous
100
AcDbLine
 10
47.37410453760809
 20
114.8710908487514
 30
0.0
 11
39.3741045376081
 21
113.8024648487513
 31
0.0
  0
LINE
  5
D39
330
1621
100
AcDbEntity
  8
1
  6
Continuous
100
AcDbLine
 10
47.55946553760815
 20
115.5206158487513
 30
0.0
 11
39.55946553760816
 21
114.4520158487513
 31
0.0
  0
LINE
  5
D3A
330
1621
100
AcDbEntity
  8
1
  6
Continuous
100
AcDbLine
 10
47.3741065376081
 20
116.9082908487514
 30
0.0
 11
39.37410653760811
 21
115.8396908487513
 31
0.0
  0
LINE
  5
D3B
330
1621
100
AcDbEntity
  8
1
  6
Continuous
100
AcDbLine
 10
47.3741065376081
 20
116.9082908487514
 30
0.0
 11
39.37410653760811
 21
115.8396908487513
 31
0.0
  0
LINE
  5
D3C
330
1621
100
AcDbEntity
  8
1
  6
Continuous
100
AcDbLine
 10
40.06678653760809
 20
106.3186948487515
 30
0.0
 11
40.06678653760809
 21
100.0777178487515
 31
0.0
  0
LINE
  5
D3D
330
1621
100
AcDbEntity
  8
1
  6
Continuous
100
AcDbLine
 10
40.06678653760809
 20
106.3186948487515
 30
0.0
 11
40.06678653760809
 21
100.0777178487515
 31
0.0
  0
LINE
  5
D3E
330
1621
100
AcDbEntity
  8
1
  6
Continuous
100
AcDbLine
 10
38.46678653760807
 20
106.3186948487515
 30
0.0
 11
38.46678653760807
 21
100.0777178487515
 31
0.0
  0
LINE
  5
D3F
330
1621
100
AcDbEntity
  8
1
  6
Continuous
100
AcDbLine
 10
38.46678653760807
 20
106.3186948487515
 30
0.0
 11
38.46678653760807
 21
100.0777178487515
 31
0.0
  0
LINE
  5
D40
330
1621
100
AcDbEntity
  8
1
  6
Continuous
100
AcDbLine
 10
21.46678653760806
 20
106.3186948487515
 30
0.0
 11
21.46678653760806
 21
100.0777178487515
 31
0.0
  0
LINE
  5
D41
330
1621
100
AcDbEntity
  8
1
  6
Continuous
100
AcDbLine
 10
19.86678653760816
 20
106.3186948487515
 30
0.0
 11
19.86678653760816
 21
100.0777178487515
 31
0.0
  0
LINE
  5
D42
330
1621
100
AcDbEntity
  8
1
  6
Continuous
100
AcDbLine
 10
19.86678653760816
 20
106.3186948487515
 30
0.0
 11
19.86678653760816
 21
100.0777178487515
 31
0.0
  0
LINE
  5
D43
330
1621
100
AcDbEntity
  8
1
  6
Continuous
100
AcDbLine
 10
21.46678653760806
 20
106.3186948487515
 30
0.0
 11
21.46678653760806
 21
100.0777178487515
 31
0.0
  0
LINE
  5
D44
330
1621
100
AcDbEntity
  8
1
  6
Continuous
100
AcDbLine
 10
24.96678653760807
 20
99.57771784875156
 30
0.0
 11
34.96678653760807
 21
99.57771784875156
 31
0.0
  0
LINE
  5
D45
330
1621
100
AcDbEntity
  8
1
  6
Continuous
100
AcDbLine
 10
24.96678653760807
 20
99.57771784875156
 30
0.0
 11
34.96678653760807
 21
99.57771784875156
 31
0.0
  0
LINE
  5
D46
330
1621
100
AcDbEntity
  8
1
  6
Continuous
100
AcDbLine
 10
24.96678653760807
 20
92.88671784875143
 30
0.0
 11
34.96678653760807
 21
92.88671784875143
 31
0.0
  0
LINE
  5
D47
330
1621
100
AcDbEntity
  8
4
  6
CENTER
100
AcDbLine
 10
27.46678653760807
 20
93.0777178487515
 30
0.0
 11
32.46678653760807
 21
93.0777178487515
 31
0.0
  0
LINE
  5
D48
330
1621
100
AcDbEntity
  8
4
  6
CENTER
100
AcDbLine
 10
27.46678653760807
 20
93.0777178487515
 30
0.0
 11
32.46678653760807
 21
93.0777178487515
 31
0.0
  0
LINE
  5
D49
330
1621
100
AcDbEntity
  8
1
  6
Continuous
100
AcDbLine
 10
24.96678653760807
 20
92.88671784875143
 30
0.0
 11
34.96678653760807
 21
92.88671784875143
 31
0.0
  0
ARC
  5
D4A
330
1621
100
AcDbEntity
  8
1
  6
Continuous
100
AcDbCircle
 10
29.96678653760807
 20
91.5777178487515
 30
0.0
 40
6.0
100
AcDbArc
 50
180.0
 51
0.0000100000001922
  0
ARC
  5
D4B
330
1621
100
AcDbEntity
  8
1
  6
Continuous
100
AcDbCircle
 10
29.96678653760807
 20
91.5777178487515
 30
0.0
 40
6.0
100
AcDbArc
 50
180.0
 51
0.0000100000001922
  0
LINE
  5
D4C
330
1621
100
AcDbEntity
  8
1
  6
Continuous
100
AcDbLine
 10
19.86678653760816
 20
100.0777178487515
 30
0.0
 11
21.46678653760806
 21
100.0777178487515
 31
0.0
  0
LINE
  5
D4D
330
1621
100
AcDbEntity
  8
1
  6
Continuous
100
AcDbLine
 10
19.86678653760816
 20
100.0777178487515
 30
0.0
 11
21.46678653760806
 21
100.0777178487515
 31
0.0
  0
LINE
  5
D4E
330
1621
100
AcDbEntity
  8
1
  6
Continuous
100
AcDbLine
 10
22.36678653760804
 20
99.57771784875156
 30
0.0
 11
23.96678653760807
 21
99.57771784875156
 31
0.0
  0
LINE
  5
D4F
330
1621
100
AcDbEntity
  8
1
  6
Continuous
100
AcDbLine
 10
22.36678653760816
 20
99.57771784875156
 30
0.0
 11
23.96678653760807
 21
99.57771784875156
 31
0.0
  0
LINE
  5
D50
330
1621
100
AcDbEntity
  8
1
  6
Continuous
100
AcDbLine
 10
23.96678653760807
 20
99.57771784875156
 30
0.0
 11
23.96678653760807
 21
91.5777178487515
 31
0.0
  0
LINE
  5
D51
330
1621
100
AcDbEntity
  8
1
  6
Continuous
100
AcDbLine
 10
23.96678653760807
 20
99.57771784875156
 30
0.0
 11
23.96678653760807
 21
91.5777178487515
 31
0.0
  0
LINE
  5
D52
330
1621
100
AcDbEntity
  8
1
  6
Continuous
100
AcDbLine
 10
35.96678653760808
 20
99.57771784875156
 30
0.0
 11
37.5667865376081
 21
99.57771784875156
 31
0.0
  0
LINE
  5
D53
330
1621
100
AcDbEntity
  8
1
  6
Continuous
100
AcDbLine
 10
35.96678653760808
 20
99.57771784875156
 30
0.0
 11
37.5667865376081
 21
99.57771784875156
 31
0.0
  0
LINE
  5
D54
330
1621
100
AcDbEntity
  8
1
  6
Continuous
100
AcDbLine
 10
35.96678653760808
 20
99.57771784875156
 30
0.0
 11
35.96678653760808
 21
91.5777178487515
 31
0.0
  0
LINE
  5
D55
330
1621
100
AcDbEntity
  8
1
  6
Continuous
100
AcDbLine
 10
35.96678653760808
 20
99.57771784875156
 30
0.0
 11
35.96678653760808
 21
91.5777178487515
 31
0.0
  0
LINE
  5
D56
330
1621
100
AcDbEntity
  8
1
  6
Continuous
100
AcDbLine
 10
40.06678653760809
 20
100.0777178487515
 30
0.0
 11
38.46678653760807
 21
100.0777178487515
 31
0.0
  0
LINE
  5
D57
330
1621
100
AcDbEntity
  8
1
  6
Continuous
100
AcDbLine
 10
40.06678653760809
 20
100.0777178487515
 30
0.0
 11
38.46678653760807
 21
100.0777178487515
 31
0.0
  0
LINE
  5
D58
330
1621
100
AcDbEntity
  8
1
  6
Continuous
100
AcDbLine
 10
24.96678653760807
 20
119.5777178487515
 30
0.0
 11
34.96678653760807
 21
119.5777178487515
 31
0.0
  0
LINE
  5
D59
330
1621
100
AcDbEntity
  8
1
  6
Continuous
100
AcDbLine
 10
24.96678653760807
 20
119.5777178487515
 30
0.0
 11
34.96678653760807
 21
119.5777178487515
 31
0.0
  0
LINE
  5
D5A
330
1621
100
AcDbEntity
  8
4
  6
CENTER
100
AcDbLine
 10
16.96678653760807
 20
103.5777178487515
 30
0.0
 11
42.96678653760807
 21
103.5777178487515
 31
0.0
  0
LINE
  5
D5B
330
1621
100
AcDbEntity
  8
4
  6
CENTER
100
AcDbLine
 10
16.96678653760807
 20
103.5777178487515
 30
0.0
 11
42.96678653760807
 21
103.5777178487515
 31
0.0
  0
LINE
  5
D5C
330
1621
100
AcDbEntity
  8
1
  6
Continuous
100
AcDbLine
 10
18.06678653760809
 20
113.1504481945483
 30
0.0
 11
18.06678653760809
 21
110.2976948487515
 31
0.0
  0
LINE
  5
D5D
330
1621
100
AcDbEntity
  8
1
  6
Continuous
100
AcDbLine
 10
18.06678653760809
 20
113.1504481945483
 30
0.0
 11
18.06678653760809
 21
110.2976948487515
 31
0.0
  0
LINE
  5
D5E
330
1621
100
AcDbEntity
  8
1
  6
Continuous
100
AcDbLine
 10
14.86678653760816
 20
112.7229981945483
 30
0.0
 11
14.86678653760816
 21
109.9086948487513
 31
0.0
  0
LINE
  5
D5F
330
1621
100
AcDbEntity
  8
1
  6
Continuous
100
AcDbLine
 10
16.46678653760807
 20
112.9367231945483
 30
0.0
 11
16.46678653760807
 21
109.9086948487513
 31
0.0
  0
LINE
  5
D60
330
1621
100
AcDbEntity
  8
1
  6
Continuous
100
AcDbLine
 10
16.46678653760807
 20
112.9367231945483
 30
0.0
 11
16.46678653760807
 21
109.9086948487513
 31
0.0
  0
LINE
  5
D61
330
1621
100
AcDbEntity
  8
1
  6
Continuous
100
AcDbLine
 10
14.86678653760816
 20
112.7229981945483
 30
0.0
 11
14.86678653760816
 21
109.9086948487513
 31
0.0
  0
ARC
  5
D62
330
1621
100
AcDbEntity
  8
1
  6
Continuous
100
AcDbCircle
 10
19.36678653760816
 20
106.3186948487515
 30
0.0
 40
2.1
100
AcDbArc
 50
0.0
 51
51.20320000000012
  0
ARC
  5
D63
330
1621
100
AcDbEntity
  8
1
  6
Continuous
100
AcDbCircle
 10
19.36678653760816
 20
106.3186948487515
 30
0.0
 40
2.1
100
AcDbArc
 50
0.0
 51
51.20320000000018
  0
LINE
  5
D64
330
1621
100
AcDbEntity
  8
1
  6
Continuous
100
AcDbLine
 10
19.67978653760815
 20
106.7086948487515
 30
0.0
 11
17.25078653760806
 21
108.6606948487515
 31
0.0
  0
ARC
  5
D65
330
1621
100
AcDbEntity
  8
1
  6
Continuous
100
AcDbCircle
 10
19.36678653760816
 20
106.3186948487515
 30
0.0
 40
0.5
100
AcDbArc
 50
0.0
 51
51.20320000000012
  0
LINE
  5
D66
330
1621
100
AcDbEntity
  8
1
  6
Continuous
100
AcDbLine
 10
18.2537865376081
 20
109.9076948487515
 30
0.0
 11
20.68278653760807
 21
107.9556948487515
 31
0.0
  0
ARC
  5
D67
330
1621
100
AcDbEntity
  8
1
  6
Continuous
100
AcDbCircle
 10
18.56678653760809
 20
110.2976948487515
 30
0.0
 40
0.5
100
AcDbArc
 50
180.0
 51
231.2030000000004
  0
LINE
  5
D68
330
1621
100
AcDbEntity
  8
1
  6
Continuous
100
AcDbLine
 10
18.2537865376081
 20
109.9076948487515
 30
0.0
 11
20.68278653760807
 21
107.9556948487515
 31
0.0
  0
ARC
  5
D69
330
1621
100
AcDbEntity
  8
1
  6
Continuous
100
AcDbCircle
 10
18.56678653760809
 20
110.2976948487515
 30
0.0
 40
0.5
100
AcDbArc
 50
180.0
 51
231.2030000000008
  0
ARC
  5
D6A
330
1621
100
AcDbEntity
  8
1
  6
Continuous
100
AcDbCircle
 10
19.36678653760816
 20
106.3186948487515
 30
0.0
 40
0.5
100
AcDbArc
 50
0.0
 51
51.20320000000018
  0
LINE
  5
D6B
330
1621
100
AcDbEntity
  8
1
  6
Continuous
100
AcDbLine
 10
19.67978653760815
 20
106.7086948487515
 30
0.0
 11
17.25078653760817
 21
108.6606948487515
 31
0.0
  0
LINE
  5
D6C
330
1621
100
AcDbEntity
  8
1
  6
Continuous
100
AcDbLine
 10
14.86678653760816
 20
109.9086948487513
 30
0.0
 11
16.46678653760807
 21
109.9086948487513
 31
0.0
  0
LINE
  5
D6D
330
1621
100
AcDbEntity
  8
1
  6
Continuous
100
AcDbLine
 10
14.86678653760816
 20
109.9086948487513
 30
0.0
 11
16.46678653760807
 21
109.9086948487513
 31
0.0
  0
ARC
  5
D6E
330
1621
100
AcDbEntity
  8
1
  6
Continuous
100
AcDbCircle
 10
18.56678653760809
 20
110.2976948487515
 30
0.0
 40
2.1
100
AcDbArc
 50
180.0
 51
231.2030000000004
  0
ARC
  5
D6F
330
1621
100
AcDbEntity
  8
1
  6
Continuous
100
AcDbCircle
 10
18.56678653760809
 20
110.2976948487515
 30
0.0
 40
2.1
100
AcDbArc
 50
180.0
 51
231.2030000000008
  0
LINE
  5
D70
330
1621
100
AcDbEntity
  8
1
  6
Continuous
100
AcDbLine
 10
19.86678653760816
 20
104.5777178487515
 30
0.0
 11
18.96678653760806
 21
104.5777178487515
 31
0.0
  0
LINE
  5
D71
330
1621
100
AcDbEntity
  8
1
  6
Continuous
100
AcDbLine
 10
19.86678653760816
 20
102.5777178487515
 30
0.0
 11
18.96678653760806
 21
102.5777178487515
 31
0.0
  0
LINE
  5
D72
330
1621
100
AcDbEntity
  8
1
  6
Continuous
100
AcDbLine
 10
18.96678653760806
 20
104.5777178487515
 30
0.0
 11
18.96678653760806
 21
102.5777178487515
 31
0.0
  0
LINE
  5
D73
330
1621
100
AcDbEntity
  8
1
  6
Continuous
100
AcDbLine
 10
18.96678653760806
 20
104.5777178487515
 30
0.0
 11
18.96678653760806
 21
102.5777178487515
 31
0.0
  0
LINE
  5
D74
330
1621
100
AcDbEntity
  8
1
  6
Continuous
100
AcDbLine
 10
19.86678653760816
 20
102.5777178487515
 30
0.0
 11
18.96678653760806
 21
102.5777178487515
 31
0.0
  0
LINE
  5
D75
330
1621
100
AcDbEntity
  8
1
  6
Continuous
100
AcDbLine
 10
19.86678653760816
 20
104.5777178487515
 30
0.0
 11
18.96678653760806
 21
104.5777178487515
 31
0.0
  0
LINE
  5
D76
330
1621
100
AcDbEntity
  8
1
  6
Continuous
100
AcDbLine
 10
21.96678653760807
 20
109.0777178487515
 30
0.0
 11
21.96678653760807
 21
106.0777178487515
 31
0.0
  0
LINE
  5
D77
330
1621
100
AcDbEntity
  8
1
  6
Continuous
100
AcDbLine
 10
21.96678653760807
 20
106.0777178487515
 30
0.0
 11
22.36678653760804
 21
106.0777178487515
 31
0.0
  0
LINE
  5
D78
330
1621
100
AcDbEntity
  8
1
  6
Continuous
100
AcDbLine
 10
21.96678653760807
 20
109.0777178487515
 30
0.0
 11
22.36678653760804
 21
109.0777178487515
 31
0.0
  0
LINE
  5
D79
330
1621
100
AcDbEntity
  8
1
  6
Continuous
100
AcDbLine
 10
21.96678653760807
 20
109.0777178487515
 30
0.0
 11
22.36678653760816
 21
109.0777178487515
 31
0.0
  0
LINE
  5
D7A
330
1621
100
AcDbEntity
  8
1
  6
Continuous
100
AcDbLine
 10
21.96678653760807
 20
106.0777178487515
 30
0.0
 11
22.36678653760816
 21
106.0777178487515
 31
0.0
  0
LINE
  5
D7B
330
1621
100
AcDbEntity
  8
1
  6
Continuous
100
AcDbLine
 10
21.96678653760807
 20
109.0777178487515
 30
0.0
 11
21.96678653760807
 21
106.0777178487515
 31
0.0
  0
LINE
  5
D7C
330
1621
100
AcDbEntity
  8
1
  6
Continuous
100
AcDbLine
 10
22.36678653760804
 20
102.0777178487515
 30
0.0
 11
21.46678653760806
 21
102.0777178487515
 31
0.0
  0
LINE
  5
D7D
330
1621
100
AcDbEntity
  8
1
  6
Continuous
100
AcDbLine
 10
22.36678653760804
 20
105.0777178487515
 30
0.0
 11
21.46678653760806
 21
105.0777178487515
 31
0.0
  0
LINE
  5
D7E
330
1621
100
AcDbEntity
  8
1
  6
Continuous
100
AcDbLine
 10
22.36678653760816
 20
105.0777178487515
 30
0.0
 11
21.46678653760806
 21
105.0777178487515
 31
0.0
  0
LINE
  5
D7F
330
1621
100
AcDbEntity
  8
1
  6
Continuous
100
AcDbLine
 10
22.36678653760816
 20
102.0777178487515
 30
0.0
 11
21.46678653760806
 21
102.0777178487515
 31
0.0
  0
ARC
  5
D80
330
1621
100
AcDbEntity
  8
1
  6
Continuous
100
AcDbCircle
 10
20.46678653760807
 20
118.2516528487513
 30
0.0
 40
0.7
100
AcDbArc
 50
277.6082480000001
 51
97.60824800000015
  0
ARC
  5
D81
330
1621
100
AcDbEntity
  8
1
  6
Continuous
100
AcDbCircle
 10
20.46678653760807
 20
120.2888528487512
 30
0.0
 40
0.7
100
AcDbArc
 50
277.6082480000001
 51
97.60824800000015
  0
ARC
  5
D82
330
1621
100
AcDbEntity
  8
1
  6
Continuous
100
AcDbCircle
 10
20.46678653760807
 20
120.2888528487512
 30
0.0
 40
0.7
100
AcDbArc
 50
277.6082480000001
 51
97.60824800000015
  0
ARC
  5
D83
330
1621
100
AcDbEntity
  8
1
  6
Continuous
100
AcDbCircle
 10
20.46678653760807
 20
118.2516528487513
 30
0.0
 40
0.7
100
AcDbArc
 50
277.6082480000001
 51
97.60824800000015
  0
LINE
  5
D84
330
1621
100
AcDbEntity
  8
1
  6
Continuous
100
AcDbLine
 10
18.06678653760809
 20
112.4086278487512
 30
0.0
 11
21.16678653760811
 21
112.4086278487512
 31
0.0
  0
ARC
  5
D85
330
1621
100
AcDbEntity
  8
1
  6
Continuous
100
AcDbCircle
 10
20.46678653760807
 20
112.4086278487512
 30
0.0
 40
0.7
100
AcDbArc
 50
0.0
 51
84.99935500000029
  0
ARC
  5
D86
330
1621
100
AcDbEntity
  8
1
  6
Continuous
100
AcDbCircle
 10
20.46678653760807
 20
114.1772528487512
 30
0.0
 40
0.7
100
AcDbArc
 50
277.6084270000008
 51
97.60842700000084
  0
ARC
  5
D87
330
1621
100
AcDbEntity
  8
1
  6
Continuous
100
AcDbCircle
 10
20.46678653760807
 20
114.1772528487512
 30
0.0
 40
0.7
100
AcDbArc
 50
277.6084270000008
 51
97.60842700000084
  0
ARC
  5
D88
330
1621
100
AcDbEntity
  8
1
  6
Continuous
100
AcDbCircle
 10
20.46678653760807
 20
112.4086278487512
 30
0.0
 40
0.7
100
AcDbArc
 50
0.0
 51
84.99935500000029
  0
LINE
  5
D89
330
1621
100
AcDbEntity
  8
1
  6
Continuous
100
AcDbLine
 10
18.06678653760809
 20
112.4086278487512
 30
0.0
 11
21.16678653760811
 21
112.4086278487512
 31
0.0
  0
ARC
  5
D8A
330
1621
100
AcDbEntity
  8
1
  6
Continuous
100
AcDbCircle
 10
20.46678653760807
 20
116.2144528487514
 30
0.0
 40
0.7
100
AcDbArc
 50
277.6082480000001
 51
97.60824800000015
  0
ARC
  5
D8B
330
1621
100
AcDbEntity
  8
1
  6
Continuous
100
AcDbCircle
 10
20.46678653760807
 20
116.2144528487514
 30
0.0
 40
0.7
100
AcDbArc
 50
277.6082480000001
 51
97.60824800000015
  0
LINE
  5
D8C
330
1621
100
AcDbEntity
  8
1
  6
Continuous
100
AcDbLine
 10
18.06678653760809
 20
117.1412508487515
 30
0.0
 11
20.55946553760804
 21
116.9082908487514
 31
0.0
  0
LINE
  5
D8D
330
1621
100
AcDbEntity
  8
1
  6
Continuous
100
AcDbLine
 10
18.06678653760809
 20
117.2248558487511
 30
0.0
 11
18.06678653760809
 21
116.6000908487514
 31
0.0
  0
LINE
  5
D8E
330
1621
100
AcDbEntity
  8
1
  6
Continuous
100
AcDbLine
 10
18.06678653760809
 20
121.2156508487513
 30
0.0
 11
20.55946553760804
 21
120.9826908487514
 31
0.0
  0
LINE
  5
D8F
330
1621
100
AcDbEntity
  8
1
  6
Continuous
100
AcDbLine
 10
18.06678653760809
 20
119.1784508487515
 30
0.0
 11
20.55946553760804
 21
118.9454908487513
 31
0.0
  0
LINE
  5
D90
330
1621
100
AcDbEntity
  8
1
  6
Continuous
100
AcDbLine
 10
18.06678653760809
 20
121.2992558487514
 30
0.0
 11
18.06678653760809
 21
120.6744908487514
 31
0.0
  0
LINE
  5
D91
330
1621
100
AcDbEntity
  8
1
  6
Continuous
100
AcDbLine
 10
18.06678653760809
 20
119.2620558487513
 30
0.0
 11
18.06678653760809
 21
118.6372908487513
 31
0.0
  0
LINE
  5
D92
330
1621
100
AcDbEntity
  8
1
  6
Continuous
100
AcDbLine
 10
18.06678653760809
 20
119.2620558487513
 30
0.0
 11
18.06678653760809
 21
118.6372908487513
 31
0.0
  0
LINE
  5
D93
330
1621
100
AcDbEntity
  8
1
  6
Continuous
100
AcDbLine
 10
18.06678653760809
 20
119.1784508487515
 30
0.0
 11
20.55946553760816
 21
118.9454908487513
 31
0.0
  0
LINE
  5
D94
330
1621
100
AcDbEntity
  8
1
  6
Continuous
100
AcDbLine
 10
18.06678653760809
 20
121.2992558487514
 30
0.0
 11
18.06678653760809
 21
120.6744908487514
 31
0.0
  0
LINE
  5
D95
330
1621
100
AcDbEntity
  8
1
  6
Continuous
100
AcDbLine
 10
18.06678653760809
 20
121.2156508487513
 30
0.0
 11
20.55946553760816
 21
120.9826908487514
 31
0.0
  0
LINE
  5
D96
330
1621
100
AcDbEntity
  8
1
  6
Continuous
100
AcDbLine
 10
18.06678653760809
 20
117.2248558487511
 30
0.0
 11
18.06678653760809
 21
116.6000908487514
 31
0.0
  0
LINE
  5
D97
330
1621
100
AcDbEntity
  8
1
  6
Continuous
100
AcDbLine
 10
18.06678653760809
 20
117.1412508487515
 30
0.0
 11
20.55946553760816
 21
116.9082908487514
 31
0.0
  0
LINE
  5
D98
330
1621
100
AcDbEntity
  8
1
  6
Continuous
100
AcDbLine
 10
14.86678653760816
 20
118.8346158487514
 30
0.0
 11
14.86678653760816
 21
118.2098508487514
 31
0.0
  0
LINE
  5
D99
330
1621
100
AcDbEntity
  8
1
  6
Continuous
100
AcDbLine
 10
14.86678653760816
 20
116.7974158487513
 30
0.0
 11
14.86678653760816
 21
116.1726508487514
 31
0.0
  0
LINE
  5
D9A
330
1621
100
AcDbEntity
  8
1
  6
Continuous
100
AcDbLine
 10
16.46678653760807
 20
117.0111358487513
 30
0.0
 11
16.46678653760807
 21
116.3863708487514
 31
0.0
  0
LINE
  5
D9B
330
1621
100
AcDbEntity
  8
1
  6
Continuous
100
AcDbLine
 10
14.86678653760816
 20
120.8718158487514
 30
0.0
 11
14.86678653760816
 21
120.2470508487515
 31
0.0
  0
LINE
  5
D9C
330
1621
100
AcDbEntity
  8
1
  6
Continuous
100
AcDbLine
 10
16.46678653760807
 20
121.0855358487514
 30
0.0
 11
16.46678653760807
 21
120.4607708487514
 31
0.0
  0
LINE
  5
D9D
330
1621
100
AcDbEntity
  8
1
  6
Continuous
100
AcDbLine
 10
16.46678653760807
 20
119.0483358487514
 30
0.0
 11
16.46678653760807
 21
118.4235708487512
 31
0.0
  0
LINE
  5
D9E
330
1621
100
AcDbEntity
  8
1
  6
Continuous
100
AcDbLine
 10
16.46678653760807
 20
121.0855358487514
 30
0.0
 11
16.46678653760807
 21
120.4607708487514
 31
0.0
  0
LINE
  5
D9F
330
1621
100
AcDbEntity
  8
1
  6
Continuous
100
AcDbLine
 10
14.86678653760816
 20
120.8718158487514
 30
0.0
 11
14.86678653760816
 21
120.2470508487515
 31
0.0
  0
LINE
  5
DA0
330
1621
100
AcDbEntity
  8
1
  6
Continuous
100
AcDbLine
 10
16.46678653760807
 20
117.0111358487513
 30
0.0
 11
16.46678653760807
 21
116.3863708487514
 31
0.0
  0
LINE
  5
DA1
330
1621
100
AcDbEntity
  8
1
  6
Continuous
100
AcDbLine
 10
14.86678653760816
 20
116.7974158487513
 30
0.0
 11
14.86678653760816
 21
116.1726508487514
 31
0.0
  0
LINE
  5
DA2
330
1621
100
AcDbEntity
  8
1
  6
Continuous
100
AcDbLine
 10
16.46678653760807
 20
119.0483358487514
 30
0.0
 11
16.46678653760807
 21
118.4235708487512
 31
0.0
  0
LINE
  5
DA3
330
1621
100
AcDbEntity
  8
1
  6
Continuous
100
AcDbLine
 10
14.86678653760816
 20
118.8346158487514
 30
0.0
 11
14.86678653760816
 21
118.2098508487514
 31
0.0
  0
LINE
  5
DA4
330
1621
100
AcDbEntity
  8
1
  6
Continuous
100
AcDbLine
 10
18.06678653760809
 20
115.1040508487513
 30
0.0
 11
20.55946553760804
 21
114.8710908487514
 31
0.0
  0
LINE
  5
DA5
330
1621
100
AcDbEntity
  8
1
  6
Continuous
100
AcDbLine
 10
18.83960853760811
 20
113.2536798487512
 30
0.0
 11
20.52780353760807
 21
113.1059628487514
 31
0.0
  0
LINE
  5
DA6
330
1621
100
AcDbEntity
  8
1
  6
Continuous
100
AcDbLine
 10
18.06678653760809
 20
115.1876558487514
 30
0.0
 11
18.06678653760809
 21
114.5628828487514
 31
0.0
  0
LINE
  5
DA7
330
1621
100
AcDbEntity
  8
1
  6
Continuous
100
AcDbLine
 10
18.06678653760809
 20
115.1876558487514
 30
0.0
 11
18.06678653760809
 21
114.5628828487514
 31
0.0
  0
LINE
  5
DA8
330
1621
100
AcDbEntity
  8
1
  6
Continuous
100
AcDbLine
 10
18.83960853760811
 20
113.2536798487512
 30
0.0
 11
20.52780353760807
 21
113.1059628487514
 31
0.0
  0
LINE
  5
DA9
330
1621
100
AcDbEntity
  8
1
  6
Continuous
100
AcDbLine
 10
18.06678653760809
 20
115.1040508487513
 30
0.0
 11
20.55946553760816
 21
114.8710908487514
 31
0.0
  0
LINE
  5
DAA
330
1621
100
AcDbEntity
  8
1
  6
Continuous
100
AcDbLine
 10
14.86678653760816
 20
114.7602158487515
 30
0.0
 11
14.86678653760816
 21
114.1354328487512
 31
0.0
  0
LINE
  5
DAB
330
1621
100
AcDbEntity
  8
1
  6
Continuous
100
AcDbLine
 10
16.46678653760807
 20
114.9739358487514
 30
0.0
 11
16.46678653760807
 21
114.3491578487513
 31
0.0
  0
LINE
  5
DAC
330
1621
100
AcDbEntity
  8
1
  6
Continuous
100
AcDbLine
 10
16.46678653760807
 20
114.9739358487514
 30
0.0
 11
16.46678653760807
 21
114.3491578487513
 31
0.0
  0
LINE
  5
DAD
330
1621
100
AcDbEntity
  8
1
  6
Continuous
100
AcDbLine
 10
14.86678653760816
 20
114.7602158487515
 30
0.0
 11
14.86678653760816
 21
114.1354328487512
 31
0.0
  0
LINE
  5
DAE
330
1621
100
AcDbEntity
  8
1
  6
Continuous
100
AcDbLine
 10
21.96678653760807
 20
121.0777178487515
 30
0.0
 11
21.96678653760807
 21
118.0777178487515
 31
0.0
  0
LINE
  5
DAF
330
1621
100
AcDbEntity
  8
1
  6
Continuous
100
AcDbLine
 10
21.96678653760807
 20
118.0777178487515
 30
0.0
 11
22.36678653760804
 21
118.0777178487515
 31
0.0
  0
LINE
  5
DB0
330
1621
100
AcDbEntity
  8
1
  6
Continuous
100
AcDbLine
 10
21.96678653760807
 20
121.0777178487515
 30
0.0
 11
22.36678653760804
 21
121.0777178487515
 31
0.0
  0
LINE
  5
DB1
330
1621
100
AcDbEntity
  8
1
  6
Continuous
100
AcDbLine
 10
21.96678653760807
 20
121.0777178487515
 30
0.0
 11
22.36678653760816
 21
121.0777178487515
 31
0.0
  0
LINE
  5
DB2
330
1621
100
AcDbEntity
  8
1
  6
Continuous
100
AcDbLine
 10
21.96678653760807
 20
118.0777178487515
 30
0.0
 11
22.36678653760816
 21
118.0777178487515
 31
0.0
  0
LINE
  5
DB3
330
1621
100
AcDbEntity
  8
1
  6
Continuous
100
AcDbLine
 10
21.96678653760807
 20
121.0777178487515
 30
0.0
 11
21.96678653760807
 21
118.0777178487515
 31
0.0
  0
LINE
  5
DB4
330
1621
100
AcDbEntity
  8
1
  6
Continuous
100
AcDbLine
 10
41.86678653760815
 20
112.7229981945483
 30
0.0
 11
41.86678653760815
 21
110.2976948487515
 31
0.0
  0
LINE
  5
DB5
330
1621
100
AcDbEntity
  8
1
  6
Continuous
100
AcDbLine
 10
43.46678653760807
 20
112.9367231945483
 30
0.0
 11
43.46678653760807
 21
109.9086948487513
 31
0.0
  0
LINE
  5
DB6
330
1621
100
AcDbEntity
  8
1
  6
Continuous
100
AcDbLine
 10
43.46678653760807
 20
112.9367231945483
 30
0.0
 11
43.46678653760807
 21
109.9086948487513
 31
0.0
  0
LINE
  5
DB7
330
1621
100
AcDbEntity
  8
1
  6
Continuous
100
AcDbLine
 10
41.86678653760815
 20
112.7229981945483
 30
0.0
 11
41.86678653760815
 21
110.2976948487515
 31
0.0
  0
LINE
  5
DB8
330
1621
100
AcDbEntity
  8
1
  6
Continuous
100
AcDbLine
 10
40.2537865376081
 20
106.7086948487515
 30
0.0
 11
42.68278653760808
 21
108.6606948487515
 31
0.0
  0
ARC
  5
DB9
330
1621
100
AcDbEntity
  8
1
  6
Continuous
100
AcDbCircle
 10
40.56706667958018
 20
106.3190083688141
 30
0.0
 40
0.5
100
AcDbArc
 50
128.7967999999998
 51
180.0
  0
ARC
  5
DBA
330
1621
100
AcDbEntity
  8
1
  6
Continuous
100
AcDbCircle
 10
41.36678653760816
 20
110.2976948487515
 30
0.0
 40
2.1
100
AcDbArc
 50
308.7969999999994
 51
0.0
  0
ARC
  5
DBB
330
1621
100
AcDbEntity
  8
1
  6
Continuous
100
AcDbCircle
 10
41.36678653760816
 20
110.2976948487515
 30
0.0
 40
0.5
100
AcDbArc
 50
308.7969999999994
 51
0.0
  0
ARC
  5
DBC
330
1621
100
AcDbEntity
  8
1
  6
Continuous
100
AcDbCircle
 10
41.36678653760816
 20
110.2976948487515
 30
0.0
 40
2.1
100
AcDbArc
 50
308.7969999999992
 51
0.0
  0
ARC
  5
DBD
330
1621
100
AcDbEntity
  8
1
  6
Continuous
100
AcDbCircle
 10
41.36678653760816
 20
110.2976948487515
 30
0.0
 40
0.5
100
AcDbArc
 50
308.7969999999992
 51
0.0
  0
ARC
  5
DBE
330
1621
100
AcDbEntity
  8
1
  6
Continuous
100
AcDbCircle
 10
40.56706667958018
 20
106.3190083688141
 30
0.0
 40
0.5
100
AcDbArc
 50
128.7967999999998
 51
180.0
  0
LINE
  5
DBF
330
1621
100
AcDbEntity
  8
1
  6
Continuous
100
AcDbLine
 10
40.2537865376081
 20
106.7086948487515
 30
0.0
 11
42.68278653760808
 21
108.6606948487515
 31
0.0
  0
LINE
  5
DC0
330
1621
100
AcDbEntity
  8
1
  6
Continuous
100
AcDbLine
 10
40.96678653760807
 20
104.5777178487515
 30
0.0
 11
40.06678653760809
 21
104.5777178487515
 31
0.0
  0
LINE
  5
DC1
330
1621
100
AcDbEntity
  8
1
  6
Continuous
100
AcDbLine
 10
40.96678653760807
 20
102.5777178487515
 30
0.0
 11
40.06678653760809
 21
102.5777178487515
 31
0.0
  0
LINE
  5
DC2
330
1621
100
AcDbEntity
  8
1
  6
Continuous
100
AcDbLine
 10
40.96678653760807
 20
104.5777178487515
 30
0.0
 11
40.96678653760807
 21
102.5777178487515
 31
0.0
  0
LINE
  5
DC3
330
1621
100
AcDbEntity
  8
1
  6
Continuous
100
AcDbLine
 10
40.96678653760807
 20
104.5777178487515
 30
0.0
 11
40.96678653760807
 21
102.5777178487515
 31
0.0
  0
LINE
  5
DC4
330
1621
100
AcDbEntity
  8
1
  6
Continuous
100
AcDbLine
 10
40.96678653760807
 20
102.5777178487515
 30
0.0
 11
40.06678653760809
 21
102.5777178487515
 31
0.0
  0
LINE
  5
DC5
330
1621
100
AcDbEntity
  8
1
  6
Continuous
100
AcDbLine
 10
40.96678653760807
 20
104.5777178487515
 30
0.0
 11
40.06678653760809
 21
104.5777178487515
 31
0.0
  0
ARC
  5
DC6
330
1621
100
AcDbEntity
  8
1
  6
Continuous
100
AcDbCircle
 10
40.56678653760809
 20
106.3186948487515
 30
0.0
 40
2.1
100
AcDbArc
 50
128.7967999999998
 51
180.0
  0
LINE
  5
DC7
330
1621
100
AcDbEntity
  8
1
  6
Continuous
100
AcDbLine
 10
37.96678653760807
 20
109.0777178487515
 30
0.0
 11
37.96678653760807
 21
106.0777178487515
 31
0.0
  0
LINE
  5
DC8
330
1621
100
AcDbEntity
  8
1
  6
Continuous
100
AcDbLine
 10
37.5667865376081
 20
106.0777178487515
 30
0.0
 11
37.96678653760807
 21
106.0777178487515
 31
0.0
  0
LINE
  5
DC9
330
1621
100
AcDbEntity
  8
1
  6
Continuous
100
AcDbLine
 10
37.5667865376081
 20
109.0777178487515
 30
0.0
 11
37.96678653760807
 21
109.0777178487515
 31
0.0
  0
LINE
  5
DCA
330
1621
100
AcDbEntity
  8
1
  6
Continuous
100
AcDbLine
 10
37.5667865376081
 20
109.0777178487515
 30
0.0
 11
37.96678653760807
 21
109.0777178487515
 31
0.0
  0
LINE
  5
DCB
330
1621
100
AcDbEntity
  8
1
  6
Continuous
100
AcDbLine
 10
37.5667865376081
 20
106.0777178487515
 30
0.0
 11
37.96678653760807
 21
106.0777178487515
 31
0.0
  0
LINE
  5
DCC
330
1621
100
AcDbEntity
  8
1
  6
Continuous
100
AcDbLine
 10
37.96678653760807
 20
109.0777178487515
 30
0.0
 11
37.96678653760807
 21
106.0777178487515
 31
0.0
  0
ARC
  5
DCD
330
1621
100
AcDbEntity
  8
1
  6
Continuous
100
AcDbCircle
 10
40.56678653760809
 20
106.3186948487515
 30
0.0
 40
2.1
100
AcDbArc
 50
128.7967999999998
 51
180.0
  0
LINE
  5
DCE
330
1621
100
AcDbEntity
  8
1
  6
Continuous
100
AcDbLine
 10
38.46678653760807
 20
102.0777178487515
 30
0.0
 11
37.5667865376081
 21
102.0777178487515
 31
0.0
  0
LINE
  5
DCF
330
1621
100
AcDbEntity
  8
1
  6
Continuous
100
AcDbLine
 10
38.46678653760807
 20
105.0777178487515
 30
0.0
 11
37.5667865376081
 21
105.0777178487515
 31
0.0
  0
LINE
  5
DD0
330
1621
100
AcDbEntity
  8
1
  6
Continuous
100
AcDbLine
 10
38.46678653760807
 20
105.0777178487515
 30
0.0
 11
37.5667865376081
 21
105.0777178487515
 31
0.0
  0
LINE
  5
DD1
330
1621
100
AcDbEntity
  8
1
  6
Continuous
100
AcDbLine
 10
38.46678653760807
 20
102.0777178487515
 30
0.0
 11
37.5667865376081
 21
102.0777178487515
 31
0.0
  0
LINE
  5
DD2
330
1621
100
AcDbEntity
  8
1
  6
Continuous
100
AcDbLine
 10
41.67978653760804
 20
109.9076948487515
 30
0.0
 11
39.25078653760806
 21
107.9556948487515
 31
0.0
  0
LINE
  5
DD3
330
1621
100
AcDbEntity
  8
1
  6
Continuous
100
AcDbLine
 10
41.67978653760804
 20
109.9076948487515
 30
0.0
 11
39.25078653760806
 21
107.9556948487515
 31
0.0
  0
LINE
  5
DD4
330
1621
100
AcDbEntity
  8
1
  6
Continuous
100
AcDbLine
 10
41.86678653760815
 20
118.8346158487514
 30
0.0
 11
41.86678653760815
 21
118.2098508487514
 31
0.0
  0
LINE
  5
DD5
330
1621
100
AcDbEntity
  8
1
  6
Continuous
100
AcDbLine
 10
41.86678653760815
 20
116.7974158487513
 30
0.0
 11
41.86678653760815
 21
116.1726508487514
 31
0.0
  0
LINE
  5
DD6
330
1621
100
AcDbEntity
  8
1
  6
Continuous
100
AcDbLine
 10
41.86678653760815
 20
120.8718158487514
 30
0.0
 11
41.86678653760815
 21
120.2470508487515
 31
0.0
  0
LINE
  5
DD7
330
1621
100
AcDbEntity
  8
1
  6
Continuous
100
AcDbLine
 10
43.46678653760807
 20
117.0111358487513
 30
0.0
 11
43.46678653760807
 21
116.3863708487514
 31
0.0
  0
LINE
  5
DD8
330
1621
100
AcDbEntity
  8
1
  6
Continuous
100
AcDbLine
 10
43.46678653760807
 20
121.0855358487514
 30
0.0
 11
43.46678653760807
 21
120.4607708487514
 31
0.0
  0
LINE
  5
DD9
330
1621
100
AcDbEntity
  8
1
  6
Continuous
100
AcDbLine
 10
43.46678653760807
 20
119.0483358487514
 30
0.0
 11
43.46678653760807
 21
118.4235708487512
 31
0.0
  0
LINE
  5
DDA
330
1621
100
AcDbEntity
  8
1
  6
Continuous
100
AcDbLine
 10
43.46678653760807
 20
121.0855358487514
 30
0.0
 11
43.46678653760807
 21
120.4607708487514
 31
0.0
  0
LINE
  5
DDB
330
1621
100
AcDbEntity
  8
1
  6
Continuous
100
AcDbLine
 10
41.86678653760815
 20
120.8718158487514
 30
0.0
 11
41.86678653760815
 21
120.2470508487515
 31
0.0
  0
LINE
  5
DDC
330
1621
100
AcDbEntity
  8
1
  6
Continuous
100
AcDbLine
 10
43.46678653760807
 20
117.0111358487513
 30
0.0
 11
43.46678653760807
 21
116.3863708487514
 31
0.0
  0
LINE
  5
DDD
330
1621
100
AcDbEntity
  8
1
  6
Continuous
100
AcDbLine
 10
41.86678653760815
 20
116.7974158487513
 30
0.0
 11
41.86678653760815
 21
116.1726508487514
 31
0.0
  0
LINE
  5
DDE
330
1621
100
AcDbEntity
  8
1
  6
Continuous
100
AcDbLine
 10
43.46678653760807
 20
119.0483358487514
 30
0.0
 11
43.46678653760807
 21
118.4235708487512
 31
0.0
  0
LINE
  5
DDF
330
1621
100
AcDbEntity
  8
1
  6
Continuous
100
AcDbLine
 10
41.86678653760815
 20
118.8346158487514
 30
0.0
 11
41.86678653760815
 21
118.2098508487514
 31
0.0
  0
LINE
  5
DE0
330
1621
100
AcDbEntity
  8
1
  6
Continuous
100
AcDbLine
 10
37.96678653760807
 20
121.0777178487515
 30
0.0
 11
37.96678653760807
 21
118.0777178487515
 31
0.0
  0
ARC
  5
DE1
330
1621
100
AcDbEntity
  8
1
  6
Continuous
100
AcDbCircle
 10
39.46678653760807
 20
117.1830528487514
 30
0.0
 40
0.7
100
AcDbArc
 50
97.60824800000015
 51
277.6082480000001
  0
LINE
  5
DE2
330
1621
100
AcDbEntity
  8
1
  6
Continuous
100
AcDbLine
 10
37.5667865376081
 20
118.0777178487515
 30
0.0
 11
37.96678653760807
 21
118.0777178487515
 31
0.0
  0
ARC
  5
DE3
330
1621
100
AcDbEntity
  8
1
  6
Continuous
100
AcDbCircle
 10
39.46678653760807
 20
119.2202528487512
 30
0.0
 40
0.7
100
AcDbArc
 50
97.60824800000015
 51
277.6082480000001
  0
LINE
  5
DE4
330
1621
100
AcDbEntity
  8
1
  6
Continuous
100
AcDbLine
 10
37.5667865376081
 20
121.0777178487515
 30
0.0
 11
37.96678653760807
 21
121.0777178487515
 31
0.0
  0
LINE
  5
DE5
330
1621
100
AcDbEntity
  8
1
  6
Continuous
100
AcDbLine
 10
37.5667865376081
 20
121.0777178487515
 30
0.0
 11
37.96678653760807
 21
121.0777178487515
 31
0.0
  0
LINE
  5
DE6
330
1621
100
AcDbEntity
  8
1
  6
Continuous
100
AcDbLine
 10
37.5667865376081
 20
118.0777178487515
 30
0.0
 11
37.96678653760807
 21
118.0777178487515
 31
0.0
  0
ARC
  5
DE7
330
1621
100
AcDbEntity
  8
1
  6
Continuous
100
AcDbCircle
 10
39.46678653760807
 20
117.1830528487514
 30
0.0
 40
0.7
100
AcDbArc
 50
97.60824800000015
 51
277.6082480000001
  0
LINE
  5
DE8
330
1621
100
AcDbEntity
  8
1
  6
Continuous
100
AcDbLine
 10
37.96678653760807
 20
121.0777178487515
 30
0.0
 11
37.96678653760807
 21
118.0777178487515
 31
0.0
  0
ARC
  5
DE9
330
1621
100
AcDbEntity
  8
1
  6
Continuous
100
AcDbCircle
 10
39.46678653760807
 20
119.2202528487512
 30
0.0
 40
0.7
100
AcDbArc
 50
97.60824800000015
 51
277.6082480000001
  0
LINE
  5
DEA
330
1621
100
AcDbEntity
  8
1
  6
Continuous
100
AcDbLine
 10
39.37410653760811
 20
116.4892158487513
 30
0.0
 11
41.86678653760815
 21
116.2562558487512
 31
0.0
  0
LINE
  5
DEB
330
1621
100
AcDbEntity
  8
1
  6
Continuous
100
AcDbLine
 10
39.37410653760811
 20
120.5636158487515
 30
0.0
 11
41.86678653760815
 21
120.3306558487513
 31
0.0
  0
LINE
  5
DEC
330
1621
100
AcDbEntity
  8
1
  6
Continuous
100
AcDbLine
 10
39.37410653760811
 20
118.5264158487514
 30
0.0
 11
41.86678653760815
 21
118.2934558487511
 31
0.0
  0
LINE
  5
DED
330
1621
100
AcDbEntity
  8
1
  6
Continuous
100
AcDbLine
 10
39.37410653760811
 20
120.5636158487515
 30
0.0
 11
41.86678653760815
 21
120.3306558487513
 31
0.0
  0
LINE
  5
DEE
330
1621
100
AcDbEntity
  8
1
  6
Continuous
100
AcDbLine
 10
39.37410653760811
 20
118.5264158487514
 30
0.0
 11
41.86678653760815
 21
118.2934558487511
 31
0.0
  0
LINE
  5
DEF
330
1621
100
AcDbEntity
  8
1
  6
Continuous
100
AcDbLine
 10
39.37410653760811
 20
116.4892158487513
 30
0.0
 11
41.86678653760815
 21
116.2562558487512
 31
0.0
  0
LINE
  5
DF0
330
1621
100
AcDbEntity
  8
1
  6
Continuous
100
AcDbLine
 10
41.86678653760815
 20
114.7602158487515
 30
0.0
 11
41.86678653760815
 21
114.1354328487512
 31
0.0
  0
LINE
  5
DF1
330
1621
100
AcDbEntity
  8
1
  6
Continuous
100
AcDbLine
 10
43.46678653760807
 20
114.9739358487514
 30
0.0
 11
43.46678653760807
 21
114.3491578487513
 31
0.0
  0
LINE
  5
DF2
330
1621
100
AcDbEntity
  8
1
  6
Continuous
100
AcDbLine
 10
43.46678653760807
 20
114.9739358487514
 30
0.0
 11
43.46678653760807
 21
114.3491578487513
 31
0.0
  0
LINE
  5
DF3
330
1621
100
AcDbEntity
  8
1
  6
Continuous
100
AcDbLine
 10
41.86678653760815
 20
114.7602158487515
 30
0.0
 11
41.86678653760815
 21
114.1354328487512
 31
0.0
  0
ARC
  5
DF4
330
1621
100
AcDbEntity
  8
1
  6
Continuous
100
AcDbCircle
 10
39.46678653760807
 20
113.1086278487512
 30
0.0
 40
0.7
100
AcDbArc
 50
97.60842700000084
 51
277.6084270000008
  0
ARC
  5
DF5
330
1621
100
AcDbEntity
  8
1
  6
Continuous
100
AcDbCircle
 10
39.46678653760807
 20
115.1458528487512
 30
0.0
 40
0.7
100
AcDbArc
 50
97.60824800000015
 51
277.6082480000001
  0
ARC
  5
DF6
330
1621
100
AcDbEntity
  8
1
  6
Continuous
100
AcDbCircle
 10
39.46678653760807
 20
115.1458528487512
 30
0.0
 40
0.7
100
AcDbArc
 50
97.60824800000015
 51
277.6082480000001
  0
ARC
  5
DF7
330
1621
100
AcDbEntity
  8
1
  6
Continuous
100
AcDbCircle
 10
39.46678653760807
 20
113.1086278487512
 30
0.0
 40
0.7
100
AcDbArc
 50
97.60842700000084
 51
277.6084270000008
  0
LINE
  5
DF8
330
1621
100
AcDbEntity
  8
1
  6
Continuous
100
AcDbLine
 10
39.46678653760807
 20
112.4086278487512
 30
0.0
 11
41.86678653760815
 21
112.4086278487512
 31
0.0
  0
LINE
  5
DF9
330
1621
100
AcDbEntity
  8
1
  6
Continuous
100
AcDbLine
 10
39.37410653760811
 20
114.4520158487513
 30
0.0
 11
41.86678653760815
 21
114.2190558487512
 31
0.0
  0
LINE
  5
DFA
330
1621
100
AcDbEntity
  8
1
  6
Continuous
100
AcDbLine
 10
39.37410653760811
 20
114.4520158487513
 30
0.0
 11
41.86678653760815
 21
114.2190558487512
 31
0.0
  0
LINE
  5
DFB
330
1621
100
AcDbEntity
  8
1
  6
Continuous
100
AcDbLine
 10
39.46678653760807
 20
112.4086278487512
 30
0.0
 11
41.86678653760815
 21
112.4086278487512
 31
0.0
  0
LINE
  5
DFC
330
1621
100
AcDbEntity
  8
1
  6
Continuous
100
AcDbLine
 10
45.06678653760809
 20
113.1504481945483
 30
0.0
 11
45.06678653760809
 21
109.9086948487513
 31
0.0
  0
LINE
  5
DFD
330
1621
100
AcDbEntity
  8
1
  6
Continuous
100
AcDbLine
 10
45.06678653760809
 20
113.1504481945483
 30
0.0
 11
45.06678653760809
 21
109.9086948487513
 31
0.0
  0
LINE
  5
DFE
330
1621
100
AcDbEntity
  8
1
  6
Continuous
100
AcDbLine
 10
45.06678653760809
 20
117.2248558487511
 30
0.0
 11
45.06678653760809
 21
116.6000908487514
 31
0.0
  0
LINE
  5
DFF
330
1621
100
AcDbEntity
  8
1
  6
Continuous
100
AcDbLine
 10
45.06678653760809
 20
121.2992558487514
 30
0.0
 11
45.06678653760809
 21
120.6744908487514
 31
0.0
  0
LINE
  5
E00
330
1621
100
AcDbEntity
  8
1
  6
Continuous
100
AcDbLine
 10
45.06678653760809
 20
119.2620558487513
 30
0.0
 11
45.06678653760809
 21
118.6372908487513
 31
0.0
  0
LINE
  5
E01
330
1621
100
AcDbEntity
  8
1
  6
Continuous
100
AcDbLine
 10
45.06678653760809
 20
119.2620558487513
 30
0.0
 11
45.06678653760809
 21
118.6372908487513
 31
0.0
  0
LINE
  5
E02
330
1621
100
AcDbEntity
  8
1
  6
Continuous
100
AcDbLine
 10
45.06678653760809
 20
121.2992558487514
 30
0.0
 11
45.06678653760809
 21
120.6744908487514
 31
0.0
  0
LINE
  5
E03
330
1621
100
AcDbEntity
  8
1
  6
Continuous
100
AcDbLine
 10
45.06678653760809
 20
117.2248558487511
 30
0.0
 11
45.06678653760809
 21
116.6000908487514
 31
0.0
  0
ARC
  5
E04
330
1621
100
AcDbEntity
  8
1
  6
Continuous
100
AcDbCircle
 10
47.46678653760807
 20
118.2516528487513
 30
0.0
 40
0.7
100
AcDbArc
 50
277.6082480000001
 51
97.60824800000015
  0
LINE
  5
E05
330
1621
100
AcDbEntity
  8
1
  6
Continuous
100
AcDbLine
 10
45.06678653760809
 20
117.1412508487515
 30
0.0
 11
47.55946553760815
 21
116.9082908487514
 31
0.0
  0
LINE
  5
E06
330
1621
100
AcDbEntity
  8
1
  6
Continuous
100
AcDbLine
 10
45.06678653760809
 20
121.2156508487513
 30
0.0
 11
47.55946553760815
 21
120.9826908487514
 31
0.0
  0
LINE
  5
E07
330
1621
100
AcDbEntity
  8
1
  6
Continuous
100
AcDbLine
 10
45.06678653760809
 20
119.1784508487515
 30
0.0
 11
47.55946553760815
 21
118.9454908487513
 31
0.0
  0
ARC
  5
E08
330
1621
100
AcDbEntity
  8
1
  6
Continuous
100
AcDbCircle
 10
47.46678653760807
 20
120.2888528487512
 30
0.0
 40
0.7
100
AcDbArc
 50
277.6082480000001
 51
97.60824800000015
  0
ARC
  5
E09
330
1621
100
AcDbEntity
  8
1
  6
Continuous
100
AcDbCircle
 10
47.46678653760807
 20
120.2888528487512
 30
0.0
 40
0.7
100
AcDbArc
 50
277.6082480000001
 51
97.60824800000015
  0
ARC
  5
E0A
330
1621
100
AcDbEntity
  8
1
  6
Continuous
100
AcDbCircle
 10
47.46678653760807
 20
118.2516528487513
 30
0.0
 40
0.7
100
AcDbArc
 50
277.6082480000001
 51
97.60824800000015
  0
LINE
  5
E0B
330
1621
100
AcDbEntity
  8
1
  6
Continuous
100
AcDbLine
 10
45.06678653760809
 20
119.1784508487515
 30
0.0
 11
47.55946553760815
 21
118.9454908487513
 31
0.0
  0
LINE
  5
E0C
330
1621
100
AcDbEntity
  8
1
  6
Continuous
100
AcDbLine
 10
45.06678653760809
 20
121.2156508487513
 30
0.0
 11
47.55946553760815
 21
120.9826908487514
 31
0.0
  0
LINE
  5
E0D
330
1621
100
AcDbEntity
  8
1
  6
Continuous
100
AcDbLine
 10
45.06678653760809
 20
117.1412508487515
 30
0.0
 11
47.55946553760815
 21
116.9082908487514
 31
0.0
  0
ARC
  5
E0E
330
1621
100
AcDbEntity
  8
1
  6
Continuous
100
AcDbCircle
 10
47.46678653760807
 20
112.4086278487512
 30
0.0
 40
0.7
100
AcDbArc
 50
0.0
 51
84.99935500000029
  0
ARC
  5
E0F
330
1621
100
AcDbEntity
  8
1
  6
Continuous
100
AcDbCircle
 10
47.46678653760807
 20
112.4086278487512
 30
0.0
 40
0.7
100
AcDbArc
 50
0.0
 51
84.99935500000029
  0
LINE
  5
E10
330
1621
100
AcDbEntity
  8
1
  6
Continuous
100
AcDbLine
 10
45.06678653760809
 20
115.1876558487514
 30
0.0
 11
45.06678653760809
 21
114.5628828487514
 31
0.0
  0
LINE
  5
E11
330
1621
100
AcDbEntity
  8
1
  6
Continuous
100
AcDbLine
 10
45.06678653760809
 20
115.1876558487514
 30
0.0
 11
45.06678653760809
 21
114.5628828487514
 31
0.0
  0
LINE
  5
E12
330
1621
100
AcDbEntity
  8
1
  6
Continuous
100
AcDbLine
 10
45.83960853760809
 20
113.2536798487512
 30
0.0
 11
47.52780353760817
 21
113.1059628487514
 31
0.0
  0
LINE
  5
E13
330
1621
100
AcDbEntity
  8
1
  6
Continuous
100
AcDbLine
 10
45.06678653760809
 20
115.1040508487513
 30
0.0
 11
47.55946553760815
 21
114.8710908487514
 31
0.0
  0
ARC
  5
E14
330
1621
100
AcDbEntity
  8
1
  6
Continuous
100
AcDbCircle
 10
47.46678653760807
 20
114.1772528487512
 30
0.0
 40
0.7
100
AcDbArc
 50
277.6084270000008
 51
97.60842700000084
  0
ARC
  5
E15
330
1621
100
AcDbEntity
  8
1
  6
Continuous
100
AcDbCircle
 10
47.46678653760807
 20
114.1772528487512
 30
0.0
 40
0.7
100
AcDbArc
 50
277.6084270000008
 51
97.60842700000084
  0
LINE
  5
E16
330
1621
100
AcDbEntity
  8
1
  6
Continuous
100
AcDbLine
 10
45.83960853760809
 20
113.2536798487512
 30
0.0
 11
47.52780353760817
 21
113.1059628487514
 31
0.0
  0
LINE
  5
E17
330
1621
100
AcDbEntity
  8
1
  6
Continuous
100
AcDbLine
 10
45.06678653760809
 20
115.1040508487513
 30
0.0
 11
47.55946553760815
 21
114.8710908487514
 31
0.0
  0
ARC
  5
E18
330
1621
100
AcDbEntity
  8
1
  6
Continuous
100
AcDbCircle
 10
47.46678653760807
 20
116.2144528487514
 30
0.0
 40
0.7
100
AcDbArc
 50
277.6082480000001
 51
97.60824800000015
  0
ARC
  5
E19
330
1621
100
AcDbEntity
  8
1
  6
Continuous
100
AcDbCircle
 10
47.46678653760807
 20
116.2144528487514
 30
0.0
 40
0.7
100
AcDbArc
 50
277.6082480000001
 51
97.60824800000015
  0
ARC
  5
E1A
330
1621
100
AcDbEntity
  8
1
  6
Continuous
100
AcDbCircle
 10
42.96678653760807
 20
129.9149748487515
 30
0.0
 40
2.1
100
AcDbArc
 50
0.0
 51
90.0
  0
ARC
  5
E1B
330
1621
100
AcDbEntity
  8
1
  6
Continuous
100
AcDbCircle
 10
42.96678653760807
 20
129.9149748487515
 30
0.0
 40
2.1
100
AcDbArc
 50
0.0
 51
90.0
  0
LINE
  5
E1C
330
1621
100
AcDbEntity
  8
1
  6
Continuous
100
AcDbLine
 10
47.3741065376081
 20
125.0570908487514
 30
0.0
 11
39.37410653760811
 21
123.9884908487513
 31
0.0
  0
LINE
  5
E1D
330
1621
100
AcDbEntity
  8
1
  6
Continuous
100
AcDbLine
 10
47.55946553760815
 20
123.6694158487514
 30
0.0
 11
39.55946553760816
 21
122.6008158487514
 31
0.0
  0
LINE
  5
E1E
330
1621
100
AcDbEntity
  8
1
  6
Continuous
100
AcDbLine
 10
47.3741065376081
 20
123.0198908487514
 30
0.0
 11
39.37410653760811
 21
121.9512908487515
 31
0.0
  0
LINE
  5
E1F
330
1621
100
AcDbEntity
  8
1
  6
Continuous
100
AcDbLine
 10
47.3741065376081
 20
123.0198908487514
 30
0.0
 11
39.37410653760811
 21
121.9512908487515
 31
0.0
  0
LINE
  5
E20
330
1621
100
AcDbEntity
  8
1
  6
Continuous
100
AcDbLine
 10
47.55946553760815
 20
123.6694158487514
 30
0.0
 11
39.55946553760816
 21
122.6008158487514
 31
0.0
  0
LINE
  5
E21
330
1621
100
AcDbEntity
  8
1
  6
Continuous
100
AcDbLine
 10
47.3741065376081
 20
125.0570908487514
 30
0.0
 11
39.37410653760811
 21
123.9884908487513
 31
0.0
  0
LINE
  5
E22
330
1621
100
AcDbEntity
  8
4
  6
CENTER
100
AcDbLine
 10
42.96678653760807
 20
135.4277178487515
 30
0.0
 11
16.96678653760807
 21
135.4277178487515
 31
0.0
  0
LINE
  5
E23
330
1621
100
AcDbEntity
  8
1
  6
Continuous
100
AcDbLine
 10
22.36678653760804
 20
123.5777178487515
 30
0.0
 11
37.5667865376081
 21
123.5777178487515
 31
0.0
  0
LINE
  5
E24
330
1621
100
AcDbEntity
  8
1
  6
Continuous
100
AcDbLine
 10
38.46678653760807
 20
136.9277178487515
 30
0.0
 11
37.96678653760807
 21
136.9277178487515
 31
0.0
  0
LINE
  5
E25
330
1621
100
AcDbEntity
  8
1
  6
Continuous
100
AcDbLine
 10
38.46678653760807
 20
133.9277178487515
 30
0.0
 11
37.96678653760807
 21
133.9277178487515
 31
0.0
  0
LINE
  5
E26
330
1621
100
AcDbEntity
  8
1
  6
Continuous
100
AcDbLine
 10
38.46678653760807
 20
133.9277178487515
 30
0.0
 11
37.96678653760807
 21
133.9277178487515
 31
0.0
  0
LINE
  5
E27
330
1621
100
AcDbEntity
  8
1
  6
Continuous
100
AcDbLine
 10
38.46678653760807
 20
136.9277178487515
 30
0.0
 11
37.96678653760807
 21
136.9277178487515
 31
0.0
  0
LINE
  5
E28
330
1621
100
AcDbEntity
  8
4
  6
CENTER
100
AcDbLine
 10
42.96678653760807
 20
135.4277178487515
 30
0.0
 11
16.96678653760807
 21
135.4277178487515
 31
0.0
  0
LINE
  5
E29
330
1621
100
AcDbEntity
  8
1
  6
Continuous
100
AcDbLine
 10
22.36678653760816
 20
123.5777178487515
 30
0.0
 11
37.5667865376081
 21
123.5777178487515
 31
0.0
  0
ARC
  5
E2A
330
1621
100
AcDbEntity
  8
1
  6
Continuous
100
AcDbCircle
 10
19.36678653760805
 20
132.5149748487515
 30
0.0
 40
2.1
100
AcDbArc
 50
270.0
 51
0.0
  0
ARC
  5
E2B
330
1621
100
AcDbEntity
  8
1
  6
Continuous
100
AcDbCircle
 10
19.36678653760805
 20
132.5149748487515
 30
0.0
 40
0.5
100
AcDbArc
 50
270.0
 51
0.0
  0
ARC
  5
E2C
330
1621
100
AcDbEntity
  8
1
  6
Continuous
100
AcDbCircle
 10
19.36678653760816
 20
132.5149748487515
 30
0.0
 40
0.5
100
AcDbArc
 50
270.0
 51
0.0
  0
ARC
  5
E2D
330
1621
100
AcDbEntity
  8
1
  6
Continuous
100
AcDbCircle
 10
19.36678653760816
 20
132.5149748487515
 30
0.0
 40
2.1
100
AcDbArc
 50
270.0
 51
0.0
  0
ARC
  5
E2E
330
1621
100
AcDbEntity
  8
1
  6
Continuous
100
AcDbCircle
 10
16.96678653760807
 20
129.9149748487515
 30
0.0
 40
2.1
100
AcDbArc
 50
90.0
 51
180.0
  0
ARC
  5
E2F
330
1621
100
AcDbEntity
  8
1
  6
Continuous
100
AcDbCircle
 10
16.96678653760807
 20
129.9149748487515
 30
0.0
 40
2.1
100
AcDbArc
 50
90.0
 51
180.0
  0
LINE
  5
E30
330
1621
100
AcDbEntity
  8
1
  6
Continuous
100
AcDbLine
 10
21.19975653760809
 20
132.0149748487515
 30
0.0
 11
20.03280853760816
 21
132.0149748487515
 31
0.0
  0
LINE
  5
E31
330
1621
100
AcDbEntity
  8
1
  6
Continuous
100
AcDbLine
 10
21.19975653760809
 20
132.0149748487515
 30
0.0
 11
20.03280853760816
 21
132.0149748487515
 31
0.0
  0
ARC
  5
E32
330
1621
100
AcDbEntity
  8
1
  6
Continuous
100
AcDbCircle
 10
20.46678653760807
 20
122.3260528487513
 30
0.0
 40
0.7
100
AcDbArc
 50
277.6082480000001
 51
97.60824800000015
  0
ARC
  5
E33
330
1621
100
AcDbEntity
  8
1
  6
Continuous
100
AcDbCircle
 10
20.46678653760807
 20
124.3632528487514
 30
0.0
 40
0.7
100
AcDbArc
 50
277.6082480000001
 51
97.60824800000015
  0
ARC
  5
E34
330
1621
100
AcDbEntity
  8
1
  6
Continuous
100
AcDbCircle
 10
20.46678653760807
 20
124.3632528487514
 30
0.0
 40
0.7
100
AcDbArc
 50
277.6082480000001
 51
97.60824800000015
  0
ARC
  5
E35
330
1621
100
AcDbEntity
  8
1
  6
Continuous
100
AcDbCircle
 10
20.46678653760807
 20
122.3260528487513
 30
0.0
 40
0.7
100
AcDbArc
 50
277.6082480000001
 51
97.60824800000015
  0
LINE
  5
E36
330
1621
100
AcDbEntity
  8
1
  6
Continuous
100
AcDbLine
 10
16.96678653760807
 20
130.4149748487515
 30
0.0
 11
19.36678653760805
 21
130.4149748487515
 31
0.0
  0
LINE
  5
E37
330
1621
100
AcDbEntity
  8
1
  6
Continuous
100
AcDbLine
 10
16.96678653760807
 20
132.0149748487515
 30
0.0
 11
19.36678653760805
 21
132.0149748487515
 31
0.0
  0
LINE
  5
E38
330
1621
100
AcDbEntity
  8
1
  6
Continuous
100
AcDbLine
 10
16.96678653760807
 20
130.4149748487515
 30
0.0
 11
19.36678653760816
 21
130.4149748487515
 31
0.0
  0
LINE
  5
E39
330
1621
100
AcDbEntity
  8
1
  6
Continuous
100
AcDbLine
 10
16.96678653760807
 20
132.0149748487515
 30
0.0
 11
19.36678653760816
 21
132.0149748487515
 31
0.0
  0
LINE
  5
E3A
330
1621
100
AcDbEntity
  8
1
  6
Continuous
100
AcDbLine
 10
16.46678653760807
 20
127.5632408487515
 30
0.0
 11
18.06678653760809
 21
127.5632408487515
 31
0.0
  0
ARC
  5
E3B
330
1621
100
AcDbEntity
  8
1
  6
Continuous
100
AcDbCircle
 10
16.96678653760807
 20
129.9149748487515
 30
0.0
 40
0.5
100
AcDbArc
 50
90.0
 51
180.0
  0
ARC
  5
E3C
330
1621
100
AcDbEntity
  8
1
  6
Continuous
100
AcDbCircle
 10
16.96678653760807
 20
129.9149748487515
 30
0.0
 40
0.5
100
AcDbArc
 50
90.0
 51
180.0
  0
LINE
  5
E3D
330
1621
100
AcDbEntity
  8
1
  6
Continuous
100
AcDbLine
 10
16.46678653760807
 20
127.5632408487515
 30
0.0
 11
18.06678653760809
 21
127.5632408487515
 31
0.0
  0
LINE
  5
E3E
330
1621
100
AcDbEntity
  8
1
  6
Continuous
100
AcDbLine
 10
18.06678653760809
 20
123.2528508487514
 30
0.0
 11
20.55946553760804
 21
123.0198908487514
 31
0.0
  0
LINE
  5
E3F
330
1621
100
AcDbEntity
  8
1
  6
Continuous
100
AcDbLine
 10
18.06678653760809
 20
123.3364558487515
 30
0.0
 11
18.06678653760809
 21
122.7116908487515
 31
0.0
  0
LINE
  5
E40
330
1621
100
AcDbEntity
  8
1
  6
Continuous
100
AcDbLine
 10
18.06678653760809
 20
123.3364558487515
 30
0.0
 11
18.06678653760809
 21
122.7116908487515
 31
0.0
  0
LINE
  5
E41
330
1621
100
AcDbEntity
  8
1
  6
Continuous
100
AcDbLine
 10
18.06678653760809
 20
123.2528508487514
 30
0.0
 11
20.55946553760816
 21
123.0198908487514
 31
0.0
  0
LINE
  5
E42
330
1621
100
AcDbEntity
  8
1
  6
Continuous
100
AcDbLine
 10
14.86678653760816
 20
122.9090158487515
 30
0.0
 11
14.86678653760816
 21
122.2842508487514
 31
0.0
  0
LINE
  5
E43
330
1621
100
AcDbEntity
  8
1
  6
Continuous
100
AcDbLine
 10
16.46678653760807
 20
123.1227358487515
 30
0.0
 11
16.46678653760807
 21
122.4979708487514
 31
0.0
  0
LINE
  5
E44
330
1621
100
AcDbEntity
  8
1
  6
Continuous
100
AcDbLine
 10
16.46678653760807
 20
123.1227358487515
 30
0.0
 11
16.46678653760807
 21
122.4979708487514
 31
0.0
  0
LINE
  5
E45
330
1621
100
AcDbEntity
  8
1
  6
Continuous
100
AcDbLine
 10
14.86678653760816
 20
122.9090158487515
 30
0.0
 11
14.86678653760816
 21
122.2842508487514
 31
0.0
  0
LINE
  5
E46
330
1621
100
AcDbEntity
  8
1
  6
Continuous
100
AcDbLine
 10
16.46678653760807
 20
125.0632528487514
 30
0.0
 11
20.46678653760807
 21
125.0632528487514
 31
0.0
  0
LINE
  5
E47
330
1621
100
AcDbEntity
  8
1
  6
Continuous
100
AcDbLine
 10
16.46678653760807
 20
125.0632528487514
 30
0.0
 11
18.06678653760809
 21
125.0632528487514
 31
0.0
  0
LINE
  5
E48
330
1621
100
AcDbEntity
  8
1
  6
Continuous
100
AcDbLine
 10
16.46678653760807
 20
125.0632528487514
 30
0.0
 11
18.06678653760809
 21
125.0632528487514
 31
0.0
  0
LINE
  5
E49
330
1621
100
AcDbEntity
  8
1
  6
Continuous
100
AcDbLine
 10
16.46678653760807
 20
125.0632528487514
 30
0.0
 11
20.46678653760807
 21
125.0632528487514
 31
0.0
  0
LINE
  5
E4A
330
1621
100
AcDbEntity
  8
1
  6
Continuous
100
AcDbLine
 10
16.46678653760807
 20
129.9149748487515
 30
0.0
 11
16.46678653760807
 21
124.5351705797514
 31
0.0
  0
LINE
  5
E4B
330
1621
100
AcDbEntity
  8
1
  6
Continuous
100
AcDbLine
 10
14.86678653760816
 20
129.9149748487515
 30
0.0
 11
14.86678653760816
 21
124.3214505797514
 31
0.0
  0
LINE
  5
E4C
330
1621
100
AcDbEntity
  8
1
  6
Continuous
100
AcDbLine
 10
18.06678653760809
 20
127.5632408487515
 30
0.0
 11
18.06678653760809
 21
124.7488905797514
 31
0.0
  0
LINE
  5
E4D
330
1621
100
AcDbEntity
  8
1
  6
Continuous
100
AcDbLine
 10
18.06678653760809
 20
127.5632408487515
 30
0.0
 11
18.06678653760809
 21
124.7488905797514
 31
0.0
  0
LINE
  5
E4E
330
1621
100
AcDbEntity
  8
1
  6
Continuous
100
AcDbLine
 10
14.86678653760816
 20
129.9149748487515
 30
0.0
 11
14.86678653760816
 21
124.3214505797514
 31
0.0
  0
LINE
  5
E4F
330
1621
100
AcDbEntity
  8
1
  6
Continuous
100
AcDbLine
 10
16.46678653760807
 20
129.9149748487515
 30
0.0
 11
16.46678653760807
 21
124.5351705797514
 31
0.0
  0
LINE
  5
E50
330
1621
100
AcDbEntity
  8
1
  6
Continuous
100
AcDbLine
 10
19.86678653760804
 20
137.9277178487515
 30
0.0
 11
21.46678653760806
 21
137.9277178487515
 31
0.0
  0
LINE
  5
E51
330
1621
100
AcDbEntity
  8
1
  6
Continuous
100
AcDbLine
 10
19.86678653760816
 20
137.9277178487515
 30
0.0
 11
21.46678653760806
 21
137.9277178487515
 31
0.0
  0
LINE
  5
E52
330
1621
100
AcDbEntity
  8
1
  6
Continuous
100
AcDbLine
 10
19.86678653760804
 20
136.4277178487515
 30
0.0
 11
18.96678653760806
 21
136.4277178487515
 31
0.0
  0
LINE
  5
E53
330
1621
100
AcDbEntity
  8
1
  6
Continuous
100
AcDbLine
 10
19.86678653760804
 20
134.4277178487515
 30
0.0
 11
18.96678653760806
 21
134.4277178487515
 31
0.0
  0
LINE
  5
E54
330
1621
100
AcDbEntity
  8
1
  6
Continuous
100
AcDbLine
 10
18.96678653760806
 20
136.4277178487515
 30
0.0
 11
18.96678653760806
 21
134.4277178487515
 31
0.0
  0
LINE
  5
E55
330
1621
100
AcDbEntity
  8
1
  6
Continuous
100
AcDbLine
 10
18.96678653760806
 20
136.4277178487515
 30
0.0
 11
18.96678653760806
 21
134.4277178487515
 31
0.0
  0
LINE
  5
E56
330
1621
100
AcDbEntity
  8
1
  6
Continuous
100
AcDbLine
 10
19.86678653760816
 20
134.4277178487515
 30
0.0
 11
18.96678653760806
 21
134.4277178487515
 31
0.0
  0
LINE
  5
E57
330
1621
100
AcDbEntity
  8
1
  6
Continuous
100
AcDbLine
 10
19.86678653760816
 20
136.4277178487515
 30
0.0
 11
18.96678653760806
 21
136.4277178487515
 31
0.0
  0
LINE
  5
E58
330
1621
100
AcDbEntity
  8
1
  6
Continuous
100
AcDbLine
 10
19.86678653760804
 20
137.9277178487515
 30
0.0
 11
19.86678653760804
 21
132.5149748487515
 31
0.0
  0
LINE
  5
E59
330
1621
100
AcDbEntity
  8
1
  6
Continuous
100
AcDbLine
 10
19.86678653760816
 20
137.9277178487515
 30
0.0
 11
19.86678653760816
 21
132.5149748487515
 31
0.0
  0
LINE
  5
E5A
330
1621
100
AcDbEntity
  8
1
  6
Continuous
100
AcDbLine
 10
21.46678653760806
 20
137.9277178487515
 30
0.0
 11
21.46678653760806
 21
132.5149748487515
 31
0.0
  0
LINE
  5
E5B
330
1621
100
AcDbEntity
  8
1
  6
Continuous
100
AcDbLine
 10
21.46678653760806
 20
137.9277178487515
 30
0.0
 11
21.46678653760806
 21
132.5149748487515
 31
0.0
  0
ARC
  5
E5C
330
1621
100
AcDbEntity
  8
1
  6
Continuous
100
AcDbCircle
 10
40.56678653760809
 20
132.5149748487515
 30
0.0
 40
0.5
100
AcDbArc
 50
180.0
 51
270.0
  0
ARC
  5
E5D
330
1621
100
AcDbEntity
  8
1
  6
Continuous
100
AcDbCircle
 10
40.56678653760809
 20
132.5149748487515
 30
0.0
 40
0.5
100
AcDbArc
 50
180.0
 51
270.0
  0
ARC
  5
E5E
330
1621
100
AcDbEntity
  8
1
  6
Continuous
100
AcDbCircle
 10
40.56678653760809
 20
132.5149748487515
 30
0.0
 40
2.1
100
AcDbArc
 50
180.0
 51
270.0
  0
ARC
  5
E5F
330
1621
100
AcDbEntity
  8
1
  6
Continuous
100
AcDbCircle
 10
40.56678653760809
 20
132.5149748487515
 30
0.0
 40
2.1
100
AcDbArc
 50
180.0
 51
270.0
  0
LINE
  5
E60
330
1621
100
AcDbEntity
  8
1
  6
Continuous
100
AcDbLine
 10
43.46678653760807
 20
127.5632408487515
 30
0.0
 11
41.86678653760815
 21
127.5632408487515
 31
0.0
  0
LINE
  5
E61
330
1621
100
AcDbEntity
  8
1
  6
Continuous
100
AcDbLine
 10
42.96678653760807
 20
132.0149748487515
 30
0.0
 11
40.56678653760809
 21
132.0149748487515
 31
0.0
  0
LINE
  5
E62
330
1621
100
AcDbEntity
  8
1
  6
Continuous
100
AcDbLine
 10
42.96678653760807
 20
130.4149748487515
 30
0.0
 11
40.56678653760809
 21
130.4149748487515
 31
0.0
  0
ARC
  5
E63
330
1621
100
AcDbEntity
  8
1
  6
Continuous
100
AcDbCircle
 10
42.96678653760807
 20
129.9149748487515
 30
0.0
 40
0.5
100
AcDbArc
 50
0.0
 51
90.0
  0
ARC
  5
E64
330
1621
100
AcDbEntity
  8
1
  6
Continuous
100
AcDbCircle
 10
42.96678653760807
 20
129.9149748487515
 30
0.0
 40
0.5
100
AcDbArc
 50
0.0
 51
90.0
  0
LINE
  5
E65
330
1621
100
AcDbEntity
  8
1
  6
Continuous
100
AcDbLine
 10
42.96678653760807
 20
130.4149748487515
 30
0.0
 11
40.56678653760809
 21
130.4149748487515
 31
0.0
  0
LINE
  5
E66
330
1621
100
AcDbEntity
  8
1
  6
Continuous
100
AcDbLine
 10
42.96678653760807
 20
132.0149748487515
 30
0.0
 11
40.56678653760809
 21
132.0149748487515
 31
0.0
  0
LINE
  5
E67
330
1621
100
AcDbEntity
  8
1
  6
Continuous
100
AcDbLine
 10
43.46678653760807
 20
127.5632408487515
 30
0.0
 11
41.86678653760815
 21
127.5632408487515
 31
0.0
  0
LINE
  5
E68
330
1621
100
AcDbEntity
  8
1
  6
Continuous
100
AcDbLine
 10
41.86678653760815
 20
122.9090158487515
 30
0.0
 11
41.86678653760815
 21
122.2842508487514
 31
0.0
  0
LINE
  5
E69
330
1621
100
AcDbEntity
  8
1
  6
Continuous
100
AcDbLine
 10
43.46678653760807
 20
123.1227358487515
 30
0.0
 11
43.46678653760807
 21
122.4979708487514
 31
0.0
  0
LINE
  5
E6A
330
1621
100
AcDbEntity
  8
1
  6
Continuous
100
AcDbLine
 10
43.46678653760807
 20
123.1227358487515
 30
0.0
 11
43.46678653760807
 21
122.4979708487514
 31
0.0
  0
LINE
  5
E6B
330
1621
100
AcDbEntity
  8
1
  6
Continuous
100
AcDbLine
 10
41.86678653760815
 20
122.9090158487515
 30
0.0
 11
41.86678653760815
 21
122.2842508487514
 31
0.0
  0
LINE
  5
E6C
330
1621
100
AcDbEntity
  8
1
  6
Continuous
100
AcDbLine
 10
41.86678653760815
 20
127.5632408487515
 30
0.0
 11
41.86678653760805
 21
124.3214505797513
 31
0.0
  0
LINE
  5
E6D
330
1621
100
AcDbEntity
  8
1
  6
Continuous
100
AcDbLine
 10
43.46678653760807
 20
129.9149748487515
 30
0.0
 11
43.46678653760807
 21
124.5351705797514
 31
0.0
  0
LINE
  5
E6E
330
1621
100
AcDbEntity
  8
1
  6
Continuous
100
AcDbLine
 10
41.86678653760815
 20
127.5632408487515
 30
0.0
 11
41.86678653760805
 21
124.3214505797513
 31
0.0
  0
LINE
  5
E6F
330
1621
100
AcDbEntity
  8
1
  6
Continuous
100
AcDbLine
 10
43.46678653760807
 20
129.9149748487515
 30
0.0
 11
43.46678653760807
 21
124.5351705797514
 31
0.0
  0
ARC
  5
E70
330
1621
100
AcDbEntity
  8
1
  6
Continuous
100
AcDbCircle
 10
39.46678653760807
 20
123.2946528487514
 30
0.0
 40
0.7
100
AcDbArc
 50
97.60824800000015
 51
277.6082480000001
  0
ARC
  5
E71
330
1621
100
AcDbEntity
  8
1
  6
Continuous
100
AcDbCircle
 10
39.46678653760807
 20
125.0632528487514
 30
0.0
 40
0.7
100
AcDbArc
 50
180.0
 51
264.9993550000002
  0
ARC
  5
E72
330
1621
100
AcDbEntity
  8
1
  6
Continuous
100
AcDbCircle
 10
39.46678653760807
 20
125.0632528487514
 30
0.0
 40
0.7
100
AcDbArc
 50
180.0
 51
264.9993550000002
  0
ARC
  5
E73
330
1621
100
AcDbEntity
  8
1
  6
Continuous
100
AcDbCircle
 10
39.46678653760807
 20
123.2946528487514
 30
0.0
 40
0.7
100
AcDbArc
 50
97.60824800000015
 51
277.6082480000001
  0
LINE
  5
E74
330
1621
100
AcDbEntity
  8
1
  6
Continuous
100
AcDbLine
 10
38.76678653760815
 20
125.0632528487514
 30
0.0
 11
43.46678653760807
 21
125.0632528487514
 31
0.0
  0
LINE
  5
E75
330
1621
100
AcDbEntity
  8
1
  6
Continuous
100
AcDbLine
 10
39.37410653760811
 20
122.6008158487514
 30
0.0
 11
41.86678653760815
 21
122.3678558487513
 31
0.0
  0
LINE
  5
E76
330
1621
100
AcDbEntity
  8
1
  6
Continuous
100
AcDbLine
 10
39.40576953760808
 20
124.3659178487514
 30
0.0
 11
41.09387353760815
 21
124.2182088487515
 31
0.0
  0
LINE
  5
E77
330
1621
100
AcDbEntity
  8
1
  6
Continuous
100
AcDbLine
 10
38.73381553760816
 20
132.0149748487515
 30
0.0
 11
39.9007645376081
 21
132.0149748487515
 31
0.0
  0
LINE
  5
E78
330
1621
100
AcDbEntity
  8
1
  6
Continuous
100
AcDbLine
 10
38.73381553760816
 20
132.0149748487515
 30
0.0
 11
39.9007645376081
 21
132.0149748487515
 31
0.0
  0
LINE
  5
E79
330
1621
100
AcDbEntity
  8
1
  6
Continuous
100
AcDbLine
 10
39.40576953760808
 20
124.3659178487514
 30
0.0
 11
41.09387353760815
 21
124.2182088487515
 31
0.0
  0
LINE
  5
E7A
330
1621
100
AcDbEntity
  8
1
  6
Continuous
100
AcDbLine
 10
39.37410653760811
 20
122.6008158487514
 30
0.0
 11
41.86678653760815
 21
122.3678558487513
 31
0.0
  0
LINE
  5
E7B
330
1621
100
AcDbEntity
  8
1
  6
Continuous
100
AcDbLine
 10
38.76678653760815
 20
125.0632528487514
 30
0.0
 11
43.46678653760807
 21
125.0632528487514
 31
0.0
  0
LINE
  5
E7C
330
1621
100
AcDbEntity
  8
1
  6
Continuous
100
AcDbLine
 10
40.06678653760809
 20
137.9277178487515
 30
0.0
 11
38.46678653760807
 21
137.9277178487515
 31
0.0
  0
LINE
  5
E7D
330
1621
100
AcDbEntity
  8
1
  6
Continuous
100
AcDbLine
 10
40.06678653760809
 20
137.9277178487515
 30
0.0
 11
38.46678653760807
 21
137.9277178487515
 31
0.0
  0
LINE
  5
E7E
330
1621
100
AcDbEntity
  8
1
  6
Continuous
100
AcDbLine
 10
40.06678653760809
 20
136.4277178487515
 30
0.0
 11
40.96678653760807
 21
136.4277178487515
 31
0.0
  0
LINE
  5
E7F
330
1621
100
AcDbEntity
  8
1
  6
Continuous
100
AcDbLine
 10
40.06678653760809
 20
134.4277178487515
 30
0.0
 11
40.96678653760807
 21
134.4277178487515
 31
0.0
  0
LINE
  5
E80
330
1621
100
AcDbEntity
  8
1
  6
Continuous
100
AcDbLine
 10
40.96678653760807
 20
136.4277178487515
 30
0.0
 11
40.96678653760807
 21
134.4277178487515
 31
0.0
  0
LINE
  5
E81
330
1621
100
AcDbEntity
  8
1
  6
Continuous
100
AcDbLine
 10
40.96678653760807
 20
136.4277178487515
 30
0.0
 11
40.96678653760807
 21
134.4277178487515
 31
0.0
  0
LINE
  5
E82
330
1621
100
AcDbEntity
  8
1
  6
Continuous
100
AcDbLine
 10
40.06678653760809
 20
134.4277178487515
 30
0.0
 11
40.96678653760807
 21
134.4277178487515
 31
0.0
  0
LINE
  5
E83
330
1621
100
AcDbEntity
  8
1
  6
Continuous
100
AcDbLine
 10
40.06678653760809
 20
136.4277178487515
 30
0.0
 11
40.96678653760807
 21
136.4277178487515
 31
0.0
  0
LINE
  5
E84
330
1621
100
AcDbEntity
  8
1
  6
Continuous
100
AcDbLine
 10
40.06678653760809
 20
137.9277178487515
 30
0.0
 11
40.06678653760809
 21
132.5149748487515
 31
0.0
  0
LINE
  5
E85
330
1621
100
AcDbEntity
  8
1
  6
Continuous
100
AcDbLine
 10
38.46678653760807
 20
137.9277178487515
 30
0.0
 11
38.46678653760807
 21
132.5149748487515
 31
0.0
  0
LINE
  5
E86
330
1621
100
AcDbEntity
  8
1
  6
Continuous
100
AcDbLine
 10
38.46678653760807
 20
137.9277178487515
 30
0.0
 11
38.46678653760807
 21
132.5149748487515
 31
0.0
  0
LINE
  5
E87
330
1621
100
AcDbEntity
  8
1
  6
Continuous
100
AcDbLine
 10
40.06678653760809
 20
137.9277178487515
 30
0.0
 11
40.06678653760809
 21
132.5149748487515
 31
0.0
  0
LINE
  5
E88
330
1621
100
AcDbEntity
  8
1
  6
Continuous
100
AcDbLine
 10
45.06678653760809
 20
123.3364558487515
 30
0.0
 11
45.06678653760809
 21
122.7116908487515
 31
0.0
  0
LINE
  5
E89
330
1621
100
AcDbEntity
  8
1
  6
Continuous
100
AcDbLine
 10
45.06678653760809
 20
123.3364558487515
 30
0.0
 11
45.06678653760809
 21
122.7116908487515
 31
0.0
  0
LINE
  5
E8A
330
1621
100
AcDbEntity
  8
1
  6
Continuous
100
AcDbLine
 10
45.06678653760809
 20
123.2528508487514
 30
0.0
 11
47.55946553760815
 21
123.0198908487514
 31
0.0
  0
ARC
  5
E8B
330
1621
100
AcDbEntity
  8
1
  6
Continuous
100
AcDbCircle
 10
47.46678653760807
 20
122.3260528487513
 30
0.0
 40
0.7
100
AcDbArc
 50
277.6082480000001
 51
97.60824800000015
  0
LINE
  5
E8C
330
1621
100
AcDbEntity
  8
1
  6
Continuous
100
AcDbLine
 10
45.06678653760809
 20
125.0632528487514
 30
0.0
 11
47.46678653760807
 21
125.0632528487514
 31
0.0
  0
ARC
  5
E8D
330
1621
100
AcDbEntity
  8
1
  6
Continuous
100
AcDbCircle
 10
47.46678653760807
 20
124.3632528487514
 30
0.0
 40
0.7
100
AcDbArc
 50
277.6082480000001
 51
97.60824800000015
  0
ARC
  5
E8E
330
1621
100
AcDbEntity
  8
1
  6
Continuous
100
AcDbCircle
 10
47.46678653760807
 20
124.3632528487514
 30
0.0
 40
0.7
100
AcDbArc
 50
277.6082480000001
 51
97.60824800000015
  0
ARC
  5
E8F
330
1621
100
AcDbEntity
  8
1
  6
Continuous
100
AcDbCircle
 10
47.46678653760807
 20
122.3260528487513
 30
0.0
 40
0.7
100
AcDbArc
 50
277.6082480000001
 51
97.60824800000015
  0
LINE
  5
E90
330
1621
100
AcDbEntity
  8
1
  6
Continuous
100
AcDbLine
 10
45.06678653760809
 20
125.0632528487514
 30
0.0
 11
47.46678653760807
 21
125.0632528487514
 31
0.0
  0
LINE
  5
E91
330
1621
100
AcDbEntity
  8
1
  6
Continuous
100
AcDbLine
 10
45.06678653760809
 20
123.2528508487514
 30
0.0
 11
47.55946553760815
 21
123.0198908487514
 31
0.0
  0
LINE
  5
E92
330
1621
100
AcDbEntity
  8
1
  6
Continuous
100
AcDbLine
 10
45.06678653760809
 20
129.9149748487515
 30
0.0
 11
45.06678653760809
 21
124.7488905797514
 31
0.0
  0
LINE
  5
E93
330
1621
100
AcDbEntity
  8
1
  6
Continuous
100
AcDbLine
 10
45.06678653760809
 20
129.9149748487515
 30
0.0
 11
45.06678653760809
 21
124.7488905797514
 31
0.0
  0
ARC
  5
E94
330
1621
100
AcDbEntity
  8
1
  6
Continuous
100
AcDbCircle
 10
232.9832262963358
 20
121.2574528487513
 30
0.0
 40
0.7
100
AcDbArc
 50
97.60824800000015
 51
277.6082480000001
  0
LINE
  5
E95
330
1621
100
AcDbEntity
  8
1
  6
Continuous
100
AcDbLine
 10
214.0759052963358
 20
121.6322158487515
 30
0.0
 11
206.0759052963358
 21
120.5636158487515
 31
0.0
  0
LINE
  5
E96
330
1621
100
AcDbEntity
  8
1
  6
Continuous
100
AcDbLine
 10
241.0759052963358
 20
121.6322158487515
 30
0.0
 11
233.0759052963358
 21
120.5636158487515
 31
0.0
  0
LINE
  5
E97
330
1621
100
AcDbEntity
  8
4
  6
CENTER
100
AcDbLine
 10
223.4832262963359
 20
174.7136356766745
 30
0.0
 11
223.4832262963359
 21
81.57771784875155
 31
0.0
  0
LINE
  5
E98
330
1621
100
AcDbEntity
  8
1
  6
Continuous
100
AcDbLine
 10
217.4832262963358
 20
121.5777178487515
 30
0.0
 11
217.4832262963358
 21
109.0777178487515
 31
0.0
  0
LINE
  5
E99
330
1621
100
AcDbEntity
  8
1
  6
Continuous
100
AcDbLine
 10
215.8832262963357
 20
123.5777178487515
 30
0.0
 11
215.8832262963357
 21
109.0777178487515
 31
0.0
  0
LINE
  5
E9A
330
1621
100
AcDbEntity
  8
1
  6
Continuous
100
AcDbLine
 10
229.4832262963359
 20
121.5777178487515
 30
0.0
 11
229.4832262963359
 21
109.0777178487515
 31
0.0
  0
LINE
  5
E9B
330
1621
100
AcDbEntity
  8
1
  6
Continuous
100
AcDbLine
 10
231.0832262963356
 20
123.5777178487515
 30
0.0
 11
231.0832262963356
 21
109.0777178487515
 31
0.0
  0
ARC
  5
E9C
330
1621
100
AcDbEntity
  8
1
  6
Continuous
100
AcDbCircle
 10
205.9832262963358
 20
121.2574528487513
 30
0.0
 40
0.7
100
AcDbArc
 50
97.60824800000015
 51
277.6082480000001
  0
LINE
  5
E9D
330
1621
100
AcDbEntity
  8
1
  6
Continuous
100
AcDbLine
 10
227.4832262963359
 20
119.5777178487515
 30
0.0
 11
224.9832262963358
 21
119.5777178487515
 31
0.0
  0
LINE
  5
E9E
330
1621
100
AcDbEntity
  8
1
  6
Continuous
100
AcDbLine
 10
217.4832262963358
 20
121.0777178487515
 30
0.0
 11
229.4832262963359
 21
121.0777178487515
 31
0.0
  0
LINE
  5
E9F
330
1621
100
AcDbEntity
  8
1
  6
Continuous
100
AcDbLine
 10
227.4832262963359
 20
110.5777178487515
 30
0.0
 11
224.9832262963358
 21
110.5777178487515
 31
0.0
  0
ARC
  5
EA0
330
1621
100
AcDbEntity
  8
1
  6
Continuous
100
AcDbCircle
 10
223.4832262963359
 20
92.07771784875154
 30
0.0
 40
5.5
100
AcDbArc
 50
180.0
 51
0.0
  0
ARC
  5
EA1
330
1621
100
AcDbEntity
  8
1
  6
Continuous
100
AcDbCircle
 10
223.4832262963359
 20
91.5777178487515
 30
0.0
 40
6.0
100
AcDbArc
 50
180.0
 51
0.0
  0
LINE
  5
EA2
330
1621
100
AcDbEntity
  8
4
  6
CENTER
100
AcDbLine
 10
219.8832262963358
 20
92.57771784875151
 30
0.0
 11
227.0832262963356
 21
92.57771784875151
 31
0.0
  0
LINE
  5
EA3
330
1621
100
AcDbEntity
  8
4
  6
CENTER
100
AcDbLine
 10
236.4832262963358
 20
103.5777178487515
 30
0.0
 11
210.4832262963358
 21
103.5777178487515
 31
0.0
  0
LINE
  5
EA4
330
1621
100
AcDbEntity
  8
1
  6
Continuous
100
AcDbLine
 10
215.8832262963357
 20
106.0777178487515
 30
0.0
 11
215.8832262963357
 21
99.57771784875156
 31
0.0
  0
LINE
  5
EA5
330
1621
100
AcDbEntity
  8
1
  6
Continuous
100
AcDbLine
 10
213.3832262963359
 20
106.3186948487515
 30
0.0
 11
213.3832262963359
 21
100.0777178487515
 31
0.0
  0
LINE
  5
EA6
330
1621
100
AcDbEntity
  8
1
  6
Continuous
100
AcDbLine
 10
214.9832262963356
 20
106.3186948487515
 30
0.0
 11
214.9832262963356
 21
100.0777178487515
 31
0.0
  0
LINE
  5
EA7
330
1621
100
AcDbEntity
  8
1
  6
Continuous
100
AcDbLine
 10
217.4832262963357
 20
106.0777178487515
 30
0.0
 11
217.4832262963358
 21
91.5777178487515
 31
0.0
  0
LINE
  5
EA8
330
1621
100
AcDbEntity
  8
1
  6
Continuous
100
AcDbLine
 10
217.9832262963358
 20
106.0777178487515
 30
0.0
 11
217.9832262963358
 21
92.07771784875154
 31
0.0
  0
LINE
  5
EA9
330
1621
100
AcDbEntity
  8
1
  6
Continuous
100
AcDbLine
 10
217.4832262963358
 20
99.57771784875156
 30
0.0
 11
215.8832262963357
 21
99.57771784875156
 31
0.0
  0
LINE
  5
EAA
330
1621
100
AcDbEntity
  8
1
  6
Continuous
100
AcDbLine
 10
213.3832262963359
 20
100.0777178487515
 30
0.0
 11
214.9832262963356
 21
100.0777178487515
 31
0.0
  0
CIRCLE
  5
EAB
330
1621
100
AcDbEntity
  8
1
  6
Continuous
100
AcDbCircle
 10
223.4832262963359
 20
92.57771784875151
 30
0.0
 40
1.6
  0
LINE
  5
EAC
330
1621
100
AcDbEntity
  8
1
  6
Continuous
100
AcDbLine
 10
213.8905462963358
 20
120.9826908487514
 30
0.0
 11
205.8905462963358
 21
119.9140908487512
 31
0.0
  0
LINE
  5
EAD
330
1621
100
AcDbEntity
  8
1
  6
Continuous
100
AcDbLine
 10
214.0759052963358
 20
119.5950158487515
 30
0.0
 11
206.0759052963358
 21
118.5264158487514
 31
0.0
  0
LINE
  5
EAE
330
1621
100
AcDbEntity
  8
1
  6
Continuous
100
AcDbLine
 10
213.8905462963358
 20
118.9454908487513
 30
0.0
 11
205.8905462963358
 21
117.8768908487514
 31
0.0
  0
LINE
  5
EAF
330
1621
100
AcDbEntity
  8
1
  6
Continuous
100
AcDbLine
 10
214.0759052963358
 20
117.5578158487513
 30
0.0
 11
206.0759052963358
 21
116.4892158487513
 31
0.0
  0
LINE
  5
EB0
330
1621
100
AcDbEntity
  8
1
  6
Continuous
100
AcDbLine
 10
205.9832262963358
 20
112.4086278487512
 30
0.0
 11
209.9832262963358
 21
112.4086278487512
 31
0.0
  0
LINE
  5
EB1
330
1621
100
AcDbEntity
  8
1
  6
Continuous
100
AcDbLine
 10
208.3832262963358
 20
109.9086948487513
 30
0.0
 11
209.9832262963358
 21
109.9086948487513
 31
0.0
  0
ARC
  5
EB2
330
1621
100
AcDbEntity
  8
1
  6
Continuous
100
AcDbCircle
 10
212.0832262963357
 20
110.2976948487515
 30
0.0
 40
2.1
100
AcDbArc
 50
180.0
 51
231.2030000000004
  0
LINE
  5
EB3
330
1621
100
AcDbEntity
  8
1
  6
Continuous
100
AcDbLine
 10
214.0759052963358
 20
115.5206158487513
 30
0.0
 11
206.0759052963358
 21
114.4520158487513
 31
0.0
  0
LINE
  5
EB4
330
1621
100
AcDbEntity
  8
1
  6
Continuous
100
AcDbLine
 10
213.8905442963358
 20
114.8710908487514
 30
0.0
 11
205.8905442963358
 21
113.8024648487513
 31
0.0
  0
LINE
  5
EB5
330
1621
100
AcDbEntity
  8
1
  6
Continuous
100
AcDbLine
 10
214.0759072963358
 20
113.4834158487514
 30
0.0
 11
206.0759072963359
 21
112.4147908487514
 31
0.0
  0
LINE
  5
EB6
330
1621
100
AcDbEntity
  8
1
  6
Continuous
100
AcDbLine
 10
213.8905462963358
 20
116.9082908487514
 30
0.0
 11
205.8905462963358
 21
115.8396908487513
 31
0.0
  0
LINE
  5
EB7
330
1621
100
AcDbEntity
  8
1
  6
Continuous
100
AcDbLine
 10
208.3832262963358
 20
112.7229981945483
 30
0.0
 11
208.3832262963358
 21
109.9086948487513
 31
0.0
  0
LINE
  5
EB8
330
1621
100
AcDbEntity
  8
1
  6
Continuous
100
AcDbLine
 10
205.8905462963358
 20
120.5636158487515
 30
0.0
 11
208.3832262963358
 21
120.3306558487513
 31
0.0
  0
LINE
  5
EB9
330
1621
100
AcDbEntity
  8
1
  6
Continuous
100
AcDbLine
 10
205.8905462963358
 20
116.4892158487513
 30
0.0
 11
208.3832262963358
 21
116.2562558487512
 31
0.0
  0
LINE
  5
EBA
330
1621
100
AcDbEntity
  8
1
  6
Continuous
100
AcDbLine
 10
205.8905462963358
 20
118.5264158487514
 30
0.0
 11
208.3832262963358
 21
118.2934558487511
 31
0.0
  0
LINE
  5
EBB
330
1621
100
AcDbEntity
  8
1
  6
Continuous
100
AcDbLine
 10
208.3832262963358
 20
118.8346158487514
 30
0.0
 11
208.3832262963358
 21
118.2098508487514
 31
0.0
  0
LINE
  5
EBC
330
1621
100
AcDbEntity
  8
1
  6
Continuous
100
AcDbLine
 10
208.3832262963358
 20
116.7974158487513
 30
0.0
 11
208.3832262963358
 21
116.1726508487514
 31
0.0
  0
LINE
  5
EBD
330
1621
100
AcDbEntity
  8
1
  6
Continuous
100
AcDbLine
 10
208.3832262963358
 20
120.8718158487514
 30
0.0
 11
208.3832262963358
 21
120.2470508487515
 31
0.0
  0
LINE
  5
EBE
330
1621
100
AcDbEntity
  8
1
  6
Continuous
100
AcDbLine
 10
205.8905462963358
 20
114.4520158487513
 30
0.0
 11
208.3832262963358
 21
114.2190558487512
 31
0.0
  0
LINE
  5
EBF
330
1621
100
AcDbEntity
  8
1
  6
Continuous
100
AcDbLine
 10
208.3832262963358
 20
114.7602158487515
 30
0.0
 11
208.3832262963358
 21
114.1354328487512
 31
0.0
  0
ARC
  5
EC0
330
1621
100
AcDbEntity
  8
1
  6
Continuous
100
AcDbCircle
 10
205.9832262963358
 20
113.1086278487512
 30
0.0
 40
0.7
100
AcDbArc
 50
97.60842700000084
 51
277.6084270000008
  0
ARC
  5
EC1
330
1621
100
AcDbEntity
  8
1
  6
Continuous
100
AcDbCircle
 10
205.9832262963358
 20
117.1830528487514
 30
0.0
 40
0.7
100
AcDbArc
 50
97.60824800000015
 51
277.6082480000001
  0
ARC
  5
EC2
330
1621
100
AcDbEntity
  8
1
  6
Continuous
100
AcDbCircle
 10
205.9832262963358
 20
115.1458528487512
 30
0.0
 40
0.7
100
AcDbArc
 50
97.60824800000015
 51
277.6082480000001
  0
ARC
  5
EC3
330
1621
100
AcDbEntity
  8
1
  6
Continuous
100
AcDbCircle
 10
205.9832262963358
 20
119.2202528487512
 30
0.0
 40
0.7
100
AcDbArc
 50
97.60824800000015
 51
277.6082480000001
  0
LINE
  5
EC4
330
1621
100
AcDbEntity
  8
1
  6
Continuous
100
AcDbLine
 10
211.5832262963359
 20
113.1504481945483
 30
0.0
 11
211.5832262963359
 21
110.2976948487515
 31
0.0
  0
LINE
  5
EC5
330
1621
100
AcDbEntity
  8
1
  6
Continuous
100
AcDbLine
 10
209.9832262963358
 20
112.9367231945483
 30
0.0
 11
209.9832262963358
 21
109.9086948487513
 31
0.0
  0
LINE
  5
EC6
330
1621
100
AcDbEntity
  8
1
  6
Continuous
100
AcDbLine
 10
219.4832262963357
 20
119.5777178487515
 30
0.0
 11
219.4832262963357
 21
110.5777178487515
 31
0.0
  0
LINE
  5
EC7
330
1621
100
AcDbEntity
  8
1
  6
Continuous
100
AcDbLine
 10
221.9832262963358
 20
119.5777178487515
 30
0.0
 11
221.9832262963358
 21
110.5777178487515
 31
0.0
  0
LINE
  5
EC8
330
1621
100
AcDbEntity
  8
1
  6
Continuous
100
AcDbLine
 10
217.9832262963358
 20
118.0777178487515
 30
0.0
 11
217.9832262963358
 21
109.0777178487515
 31
0.0
  0
LINE
  5
EC9
330
1621
100
AcDbEntity
  8
1
  6
Continuous
100
AcDbLine
 10
224.9832262963358
 20
119.5777178487515
 30
0.0
 11
224.9832262963358
 21
110.5777178487515
 31
0.0
  0
LINE
  5
ECA
330
1621
100
AcDbEntity
  8
1
  6
Continuous
100
AcDbLine
 10
217.9832262963358
 20
106.0777178487515
 30
0.0
 11
215.4832262963358
 21
106.0777178487515
 31
0.0
  0
LINE
  5
ECB
330
1621
100
AcDbEntity
  8
1
  6
Continuous
100
AcDbLine
 10
217.9832262963358
 20
109.0777178487515
 30
0.0
 11
215.4832262963358
 21
109.0777178487515
 31
0.0
  0
ARC
  5
ECC
330
1621
100
AcDbEntity
  8
1
  6
Continuous
100
AcDbCircle
 10
212.8832262963358
 20
106.3186948487515
 30
0.0
 40
2.1
100
AcDbArc
 50
0.0
 51
51.20320000000012
  0
LINE
  5
ECD
330
1621
100
AcDbEntity
  8
1
  6
Continuous
100
AcDbLine
 10
215.4832262963358
 20
109.0777178487515
 30
0.0
 11
215.4832262963358
 21
106.0777178487515
 31
0.0
  0
ARC
  5
ECE
330
1621
100
AcDbEntity
  8
1
  6
Continuous
100
AcDbCircle
 10
212.8832262963358
 20
106.3186948487515
 30
0.0
 40
0.5
100
AcDbArc
 50
0.0
 51
51.20320000000012
  0
ARC
  5
ECF
330
1621
100
AcDbEntity
  8
1
  6
Continuous
100
AcDbCircle
 10
212.0832262963357
 20
110.2976948487515
 30
0.0
 40
0.5
100
AcDbArc
 50
180.0
 51
231.2030000000004
  0
LINE
  5
ED0
330
1621
100
AcDbEntity
  8
1
  6
Continuous
100
AcDbLine
 10
213.1962262963357
 20
106.7086948487515
 30
0.0
 11
210.7672262963356
 21
108.6606948487515
 31
0.0
  0
LINE
  5
ED1
330
1621
100
AcDbEntity
  8
1
  6
Continuous
100
AcDbLine
 10
211.7702262963358
 20
109.9076948487515
 30
0.0
 11
214.1992262963356
 21
107.9556948487515
 31
0.0
  0
LINE
  5
ED2
330
1621
100
AcDbEntity
  8
1
  6
Continuous
100
AcDbLine
 10
215.8832262963357
 20
102.0777178487515
 30
0.0
 11
214.9832262963355
 21
102.0777178487515
 31
0.0
  0
LINE
  5
ED3
330
1621
100
AcDbEntity
  8
1
  6
Continuous
100
AcDbLine
 10
215.8832262963357
 20
105.0777178487515
 30
0.0
 11
214.9832262963355
 21
105.0777178487515
 31
0.0
  0
LINE
  5
ED4
330
1621
100
AcDbEntity
  8
1
  6
Continuous
100
AcDbLine
 10
212.4832262963358
 20
104.5777178487515
 30
0.0
 11
212.4832262963358
 21
102.5777178487515
 31
0.0
  0
LINE
  5
ED5
330
1621
100
AcDbEntity
  8
1
  6
Continuous
100
AcDbLine
 10
213.3832262963359
 20
102.5777178487515
 30
0.0
 11
212.4832262963358
 21
102.5777178487515
 31
0.0
  0
LINE
  5
ED6
330
1621
100
AcDbEntity
  8
1
  6
Continuous
100
AcDbLine
 10
213.3832262963359
 20
104.5777178487515
 30
0.0
 11
212.4832262963358
 21
104.5777178487515
 31
0.0
  0
CIRCLE
  5
ED7
330
1621
100
AcDbEntity
  8
1
  6
Continuous
100
AcDbCircle
 10
223.4832262963359
 20
103.5777178487515
 30
0.0
 40
1.6
  0
LINE
  5
ED8
330
1621
100
AcDbEntity
  8
1
  6
Continuous
100
AcDbLine
 10
221.9832262963358
 20
110.5777178487515
 30
0.0
 11
219.4832262963357
 21
110.5777178487515
 31
0.0
  0
LINE
  5
ED9
330
1621
100
AcDbEntity
  8
1
  6
Continuous
100
AcDbLine
 10
217.9832262963358
 20
118.0777178487515
 30
0.0
 11
217.4832262963358
 21
118.0777178487515
 31
0.0
  0
ARC
  5
EDA
330
1621
100
AcDbEntity
  8
1
  6
Continuous
100
AcDbCircle
 10
213.9832262963358
 20
118.2516528487513
 30
0.0
 40
0.7
100
AcDbArc
 50
277.6082480000001
 51
97.60824800000015
  0
LINE
  5
EDB
330
1621
100
AcDbEntity
  8
1
  6
Continuous
100
AcDbLine
 10
215.4832262963358
 20
121.0777178487515
 30
0.0
 11
215.4832262963358
 21
118.0777178487515
 31
0.0
  0
LINE
  5
EDC
330
1621
100
AcDbEntity
  8
1
  6
Continuous
100
AcDbLine
 10
215.4832262963358
 20
118.0777178487515
 30
0.0
 11
215.8832262963357
 21
118.0777178487515
 31
0.0
  0
ARC
  5
EDD
330
1621
100
AcDbEntity
  8
1
  6
Continuous
100
AcDbCircle
 10
213.9832262963358
 20
120.2888528487512
 30
0.0
 40
0.7
100
AcDbArc
 50
277.6082480000001
 51
97.60824800000015
  0
LINE
  5
EDE
330
1621
100
AcDbEntity
  8
1
  6
Continuous
100
AcDbLine
 10
215.4832262963358
 20
121.0777178487515
 30
0.0
 11
215.8832262963357
 21
121.0777178487515
 31
0.0
  0
LINE
  5
EDF
330
1621
100
AcDbEntity
  8
1
  6
Continuous
100
AcDbLine
 10
211.5832262963359
 20
117.2248558487511
 30
0.0
 11
211.5832262963359
 21
116.6000908487514
 31
0.0
  0
LINE
  5
EE0
330
1621
100
AcDbEntity
  8
1
  6
Continuous
100
AcDbLine
 10
209.9832262963358
 20
117.0111358487513
 30
0.0
 11
209.9832262963358
 21
116.3863708487514
 31
0.0
  0
LINE
  5
EE1
330
1621
100
AcDbEntity
  8
1
  6
Continuous
100
AcDbLine
 10
209.9832262963358
 20
121.0855358487514
 30
0.0
 11
209.9832262963358
 21
120.4607708487514
 31
0.0
  0
LINE
  5
EE2
330
1621
100
AcDbEntity
  8
1
  6
Continuous
100
AcDbLine
 10
211.5832262963359
 20
121.2992558487514
 30
0.0
 11
211.5832262963359
 21
120.6744908487514
 31
0.0
  0
LINE
  5
EE3
330
1621
100
AcDbEntity
  8
1
  6
Continuous
100
AcDbLine
 10
211.5832262963359
 20
119.2620558487513
 30
0.0
 11
211.5832262963359
 21
118.6372908487513
 31
0.0
  0
LINE
  5
EE4
330
1621
100
AcDbEntity
  8
1
  6
Continuous
100
AcDbLine
 10
209.9832262963358
 20
119.0483358487514
 30
0.0
 11
209.9832262963358
 21
118.4235708487512
 31
0.0
  0
LINE
  5
EE5
330
1621
100
AcDbEntity
  8
1
  6
Continuous
100
AcDbLine
 10
211.5832262963359
 20
117.1412508487515
 30
0.0
 11
214.0759052963358
 21
116.9082908487514
 31
0.0
  0
LINE
  5
EE6
330
1621
100
AcDbEntity
  8
1
  6
Continuous
100
AcDbLine
 10
211.5832262963359
 20
121.2156508487513
 30
0.0
 11
214.0759052963358
 21
120.9826908487514
 31
0.0
  0
LINE
  5
EE7
330
1621
100
AcDbEntity
  8
1
  6
Continuous
100
AcDbLine
 10
211.5832262963359
 20
119.1784508487515
 30
0.0
 11
214.0759052963358
 21
118.9454908487513
 31
0.0
  0
ARC
  5
EE8
330
1621
100
AcDbEntity
  8
1
  6
Continuous
100
AcDbCircle
 10
213.9832262963358
 20
112.4086278487512
 30
0.0
 40
0.7
100
AcDbArc
 50
0.0
 51
84.99935500000029
  0
ARC
  5
EE9
330
1621
100
AcDbEntity
  8
1
  6
Continuous
100
AcDbCircle
 10
213.9832262963358
 20
114.1772528487512
 30
0.0
 40
0.7
100
AcDbArc
 50
277.6084270000008
 51
97.60842700000084
  0
LINE
  5
EEA
330
1621
100
AcDbEntity
  8
1
  6
Continuous
100
AcDbLine
 10
211.5832262963359
 20
115.1876558487514
 30
0.0
 11
211.5832262963359
 21
114.5628828487514
 31
0.0
  0
LINE
  5
EEB
330
1621
100
AcDbEntity
  8
1
  6
Continuous
100
AcDbLine
 10
209.9832262963358
 20
114.9739358487514
 30
0.0
 11
209.9832262963358
 21
114.3491578487513
 31
0.0
  0
LINE
  5
EEC
330
1621
100
AcDbEntity
  8
1
  6
Continuous
100
AcDbLine
 10
211.5832262963359
 20
112.4086278487512
 30
0.0
 11
214.6832262963358
 21
112.4086278487512
 31
0.0
  0
LINE
  5
EED
330
1621
100
AcDbEntity
  8
1
  6
Continuous
100
AcDbLine
 10
211.5832262963359
 20
115.1040508487513
 30
0.0
 11
214.0759052963358
 21
114.8710908487514
 31
0.0
  0
LINE
  5
EEE
330
1621
100
AcDbEntity
  8
1
  6
Continuous
100
AcDbLine
 10
212.3560482963358
 20
113.2536798487512
 30
0.0
 11
214.0442432963358
 21
113.1059628487514
 31
0.0
  0
ARC
  5
EEF
330
1621
100
AcDbEntity
  8
1
  6
Continuous
100
AcDbCircle
 10
213.9832262963358
 20
116.2144528487514
 30
0.0
 40
0.7
100
AcDbArc
 50
277.6082480000001
 51
97.60824800000015
  0
LINE
  5
EF0
330
1621
100
AcDbEntity
  8
1
  6
Continuous
100
AcDbLine
 10
221.9832262963358
 20
119.5777178487515
 30
0.0
 11
219.4832262963357
 21
119.5777178487515
 31
0.0
  0
LINE
  5
EF1
330
1621
100
AcDbEntity
  8
1
  6
Continuous
100
AcDbLine
 10
231.0832262963356
 20
106.0777178487515
 30
0.0
 11
231.0832262963356
 21
99.57771784875156
 31
0.0
  0
LINE
  5
EF2
330
1621
100
AcDbEntity
  8
1
  6
Continuous
100
AcDbLine
 10
231.9832262963356
 20
106.3186948487515
 30
0.0
 11
231.9832262963356
 21
100.0777178487515
 31
0.0
  0
LINE
  5
EF3
330
1621
100
AcDbEntity
  8
1
  6
Continuous
100
AcDbLine
 10
233.5832262963358
 20
106.3186948487515
 30
0.0
 11
233.5832262963358
 21
100.0777178487515
 31
0.0
  0
LINE
  5
EF4
330
1621
100
AcDbEntity
  8
1
  6
Continuous
100
AcDbLine
 10
229.4832262963357
 20
106.0777178487515
 30
0.0
 11
229.4832262963359
 21
91.5777178487515
 31
0.0
  0
LINE
  5
EF5
330
1621
100
AcDbEntity
  8
1
  6
Continuous
100
AcDbLine
 10
228.9832262963358
 20
106.0777178487515
 30
0.0
 11
228.9832262963358
 21
92.07771784875154
 31
0.0
  0
LINE
  5
EF6
330
1621
100
AcDbEntity
  8
1
  6
Continuous
100
AcDbLine
 10
233.5832262963358
 20
100.0777178487515
 30
0.0
 11
231.9832262963356
 21
100.0777178487515
 31
0.0
  0
LINE
  5
EF7
330
1621
100
AcDbEntity
  8
1
  6
Continuous
100
AcDbLine
 10
231.0832262963356
 20
99.57771784875156
 30
0.0
 11
229.4832262963359
 21
99.57771784875156
 31
0.0
  0
LINE
  5
EF8
330
1621
100
AcDbEntity
  8
1
  6
Continuous
100
AcDbLine
 10
238.5832262963359
 20
121.2156508487513
 30
0.0
 11
241.0759052963358
 21
120.9826908487514
 31
0.0
  0
LINE
  5
EF9
330
1621
100
AcDbEntity
  8
1
  6
Continuous
100
AcDbLine
 10
238.5832262963359
 20
117.1412508487515
 30
0.0
 11
241.0759052963358
 21
116.9082908487514
 31
0.0
  0
LINE
  5
EFA
330
1621
100
AcDbEntity
  8
1
  6
Continuous
100
AcDbLine
 10
238.5832262963359
 20
119.1784508487515
 30
0.0
 11
241.0759052963358
 21
118.9454908487513
 31
0.0
  0
ARC
  5
EFB
330
1621
100
AcDbEntity
  8
1
  6
Continuous
100
AcDbCircle
 10
240.9832262963358
 20
118.2516528487513
 30
0.0
 40
0.7
100
AcDbArc
 50
277.6082480000001
 51
97.60824800000015
  0
ARC
  5
EFC
330
1621
100
AcDbEntity
  8
1
  6
Continuous
100
AcDbCircle
 10
240.9832262963358
 20
120.2888528487512
 30
0.0
 40
0.7
100
AcDbArc
 50
277.6082480000001
 51
97.60824800000015
  0
LINE
  5
EFD
330
1621
100
AcDbEntity
  8
1
  6
Continuous
100
AcDbLine
 10
240.8905462963358
 20
120.9826908487514
 30
0.0
 11
232.8905462963358
 21
119.9140908487512
 31
0.0
  0
LINE
  5
EFE
330
1621
100
AcDbEntity
  8
1
  6
Continuous
100
AcDbLine
 10
241.0759052963358
 20
119.5950158487515
 30
0.0
 11
233.0759052963358
 21
118.5264158487514
 31
0.0
  0
LINE
  5
EFF
330
1621
100
AcDbEntity
  8
1
  6
Continuous
100
AcDbLine
 10
240.8905462963358
 20
118.9454908487513
 30
0.0
 11
232.8905462963358
 21
117.8768908487514
 31
0.0
  0
LINE
  5
F00
330
1621
100
AcDbEntity
  8
1
  6
Continuous
100
AcDbLine
 10
241.0759052963358
 20
117.5578158487513
 30
0.0
 11
233.0759052963358
 21
116.4892158487513
 31
0.0
  0
LINE
  5
F01
330
1621
100
AcDbEntity
  8
1
  6
Continuous
100
AcDbLine
 10
238.5832262963359
 20
115.1040508487513
 30
0.0
 11
241.0759052963358
 21
114.8710908487514
 31
0.0
  0
LINE
  5
F02
330
1621
100
AcDbEntity
  8
1
  6
Continuous
100
AcDbLine
 10
236.9832262963358
 20
112.4086278487512
 30
0.0
 11
241.6832262963358
 21
112.4086278487512
 31
0.0
  0
LINE
  5
F03
330
1621
100
AcDbEntity
  8
1
  6
Continuous
100
AcDbLine
 10
239.3560482963358
 20
113.2536798487512
 30
0.0
 11
241.0442432963358
 21
113.1059628487514
 31
0.0
  0
LINE
  5
F04
330
1621
100
AcDbEntity
  8
1
  6
Continuous
100
AcDbLine
 10
241.0759052963358
 20
115.5206158487513
 30
0.0
 11
233.0759052963358
 21
114.4520158487513
 31
0.0
  0
LINE
  5
F05
330
1621
100
AcDbEntity
  8
1
  6
Continuous
100
AcDbLine
 10
240.8905442963358
 20
114.8710908487514
 30
0.0
 11
232.8905442963358
 21
113.8024648487513
 31
0.0
  0
LINE
  5
F06
330
1621
100
AcDbEntity
  8
1
  6
Continuous
100
AcDbLine
 10
241.0759072963358
 20
113.4834158487514
 30
0.0
 11
233.0759072963358
 21
112.4147908487514
 31
0.0
  0
LINE
  5
F07
330
1621
100
AcDbEntity
  8
1
  6
Continuous
100
AcDbLine
 10
240.8905462963358
 20
116.9082908487514
 30
0.0
 11
232.8905462963358
 21
115.8396908487513
 31
0.0
  0
ARC
  5
F08
330
1621
100
AcDbEntity
  8
1
  6
Continuous
100
AcDbCircle
 10
240.9832262963358
 20
116.2144528487514
 30
0.0
 40
0.7
100
AcDbArc
 50
277.6082480000001
 51
97.60824800000015
  0
LINE
  5
F09
330
1621
100
AcDbEntity
  8
1
  6
Continuous
100
AcDbLine
 10
238.5832262963359
 20
113.1504481945483
 30
0.0
 11
238.5832262963359
 21
109.9086948487513
 31
0.0
  0
LINE
  5
F0A
330
1621
100
AcDbEntity
  8
1
  6
Continuous
100
AcDbLine
 10
236.9832262963358
 20
112.9367231945483
 30
0.0
 11
236.9832262963358
 21
109.9086948487513
 31
0.0
  0
LINE
  5
F0B
330
1621
100
AcDbEntity
  8
1
  6
Continuous
100
AcDbLine
 10
235.3832262963358
 20
112.7229981945483
 30
0.0
 11
235.3832262963358
 21
110.2976948487515
 31
0.0
  0
LINE
  5
F0C
330
1621
100
AcDbEntity
  8
1
  6
Continuous
100
AcDbLine
 10
227.4832262963359
 20
119.5777178487515
 30
0.0
 11
227.4832262963359
 21
110.5777178487515
 31
0.0
  0
LINE
  5
F0D
330
1621
100
AcDbEntity
  8
1
  6
Continuous
100
AcDbLine
 10
228.9832262963358
 20
118.0777178487515
 30
0.0
 11
228.9832262963358
 21
109.0777178487515
 31
0.0
  0
LINE
  5
F0E
330
1621
100
AcDbEntity
  8
1
  6
Continuous
100
AcDbLine
 10
235.1962262963359
 20
109.9076948487515
 30
0.0
 11
232.7672262963357
 21
107.9556948487515
 31
0.0
  0
ARC
  5
F0F
330
1621
100
AcDbEntity
  8
1
  6
Continuous
100
AcDbCircle
 10
234.0832262963359
 20
106.3186948487515
 30
0.0
 40
2.1
100
AcDbArc
 50
128.7967999999998
 51
180.0
  0
LINE
  5
F10
330
1621
100
AcDbEntity
  8
1
  6
Continuous
100
AcDbLine
 10
231.4832262963359
 20
109.0777178487515
 30
0.0
 11
231.4832262963359
 21
106.0777178487515
 31
0.0
  0
LINE
  5
F11
330
1621
100
AcDbEntity
  8
1
  6
Continuous
100
AcDbLine
 10
231.4832262963359
 20
106.0777178487515
 30
0.0
 11
228.9832262963358
 21
106.0777178487515
 31
0.0
  0
LINE
  5
F12
330
1621
100
AcDbEntity
  8
1
  6
Continuous
100
AcDbLine
 10
231.4832262963359
 20
109.0777178487515
 30
0.0
 11
228.9832262963358
 21
109.0777178487515
 31
0.0
  0
LINE
  5
F13
330
1621
100
AcDbEntity
  8
1
  6
Continuous
100
AcDbLine
 10
231.9832262963355
 20
105.0777178487515
 30
0.0
 11
231.0832262963356
 21
105.0777178487515
 31
0.0
  0
LINE
  5
F14
330
1621
100
AcDbEntity
  8
1
  6
Continuous
100
AcDbLine
 10
231.9832262963355
 20
102.0777178487515
 30
0.0
 11
231.0832262963356
 21
102.0777178487515
 31
0.0
  0
LINE
  5
F15
330
1621
100
AcDbEntity
  8
1
  6
Continuous
100
AcDbLine
 10
238.5832262963359
 20
109.9086948487513
 30
0.0
 11
236.9832262963358
 21
109.9086948487513
 31
0.0
  0
LINE
  5
F16
330
1621
100
AcDbEntity
  8
1
  6
Continuous
100
AcDbLine
 10
233.770226296336
 20
106.7086948487515
 30
0.0
 11
236.1992262963358
 21
108.6606948487515
 31
0.0
  0
ARC
  5
F17
330
1621
100
AcDbEntity
  8
1
  6
Continuous
100
AcDbCircle
 10
234.0832262963359
 20
106.3186948487515
 30
0.0
 40
0.5
100
AcDbArc
 50
128.7967999999998
 51
180.0
  0
ARC
  5
F18
330
1621
100
AcDbEntity
  8
1
  6
Continuous
100
AcDbCircle
 10
234.8832262963359
 20
110.2976948487515
 30
0.0
 40
0.5
100
AcDbArc
 50
308.7969999999994
 51
0.0
  0
LINE
  5
F19
330
1621
100
AcDbEntity
  8
1
  6
Continuous
100
AcDbLine
 10
234.4832262963358
 20
104.5777178487515
 30
0.0
 11
233.5832262963358
 21
104.5777178487515
 31
0.0
  0
LINE
  5
F1A
330
1621
100
AcDbEntity
  8
1
  6
Continuous
100
AcDbLine
 10
234.4832262963358
 20
104.5777178487515
 30
0.0
 11
234.4832262963358
 21
102.5777178487515
 31
0.0
  0
LINE
  5
F1B
330
1621
100
AcDbEntity
  8
1
  6
Continuous
100
AcDbLine
 10
234.4832262963358
 20
102.5777178487515
 30
0.0
 11
233.5832262963358
 21
102.5777178487515
 31
0.0
  0
ARC
  5
F1C
330
1621
100
AcDbEntity
  8
1
  6
Continuous
100
AcDbCircle
 10
234.8832262963359
 20
110.2976948487515
 30
0.0
 40
2.1
100
AcDbArc
 50
308.7969999999994
 51
0.0
  0
LINE
  5
F1D
330
1621
100
AcDbEntity
  8
1
  6
Continuous
100
AcDbLine
 10
232.8905462963358
 20
116.4892158487513
 30
0.0
 11
235.3832262963358
 21
116.2562558487512
 31
0.0
  0
ARC
  5
F1E
330
1621
100
AcDbEntity
  8
1
  6
Continuous
100
AcDbCircle
 10
232.9832262963358
 20
117.1830528487514
 30
0.0
 40
0.7
100
AcDbArc
 50
97.60824800000015
 51
277.6082480000001
  0
LINE
  5
F1F
330
1621
100
AcDbEntity
  8
1
  6
Continuous
100
AcDbLine
 10
232.8905462963358
 20
120.5636158487515
 30
0.0
 11
235.3832262963358
 21
120.3306558487513
 31
0.0
  0
LINE
  5
F20
330
1621
100
AcDbEntity
  8
1
  6
Continuous
100
AcDbLine
 10
232.8905462963358
 20
118.5264158487514
 30
0.0
 11
235.3832262963358
 21
118.2934558487511
 31
0.0
  0
ARC
  5
F21
330
1621
100
AcDbEntity
  8
1
  6
Continuous
100
AcDbCircle
 10
232.9832262963358
 20
119.2202528487512
 30
0.0
 40
0.7
100
AcDbArc
 50
97.60824800000015
 51
277.6082480000001
  0
ARC
  5
F22
330
1621
100
AcDbEntity
  8
1
  6
Continuous
100
AcDbCircle
 10
232.9832262963358
 20
113.1086278487512
 30
0.0
 40
0.7
100
AcDbArc
 50
97.60842700000084
 51
277.6084270000008
  0
LINE
  5
F23
330
1621
100
AcDbEntity
  8
1
  6
Continuous
100
AcDbLine
 10
232.9832262963358
 20
112.4086278487512
 30
0.0
 11
235.3832262963358
 21
112.4086278487512
 31
0.0
  0
LINE
  5
F24
330
1621
100
AcDbEntity
  8
1
  6
Continuous
100
AcDbLine
 10
232.8905462963358
 20
114.4520158487513
 30
0.0
 11
235.3832262963358
 21
114.2190558487512
 31
0.0
  0
ARC
  5
F25
330
1621
100
AcDbEntity
  8
1
  6
Continuous
100
AcDbCircle
 10
232.9832262963358
 20
115.1458528487512
 30
0.0
 40
0.7
100
AcDbArc
 50
97.60824800000015
 51
277.6082480000001
  0
LINE
  5
F26
330
1621
100
AcDbEntity
  8
1
  6
Continuous
100
AcDbLine
 10
231.4832262963359
 20
121.0777178487515
 30
0.0
 11
231.4832262963359
 21
118.0777178487515
 31
0.0
  0
LINE
  5
F27
330
1621
100
AcDbEntity
  8
1
  6
Continuous
100
AcDbLine
 10
231.0832262963356
 20
118.0777178487515
 30
0.0
 11
231.4832262963359
 21
118.0777178487515
 31
0.0
  0
LINE
  5
F28
330
1621
100
AcDbEntity
  8
1
  6
Continuous
100
AcDbLine
 10
229.4832262963359
 20
118.0777178487515
 30
0.0
 11
228.9832262963358
 21
118.0777178487515
 31
0.0
  0
LINE
  5
F29
330
1621
100
AcDbEntity
  8
1
  6
Continuous
100
AcDbLine
 10
231.0832262963356
 20
121.0777178487515
 30
0.0
 11
231.4832262963359
 21
121.0777178487515
 31
0.0
  0
LINE
  5
F2A
330
1621
100
AcDbEntity
  8
1
  6
Continuous
100
AcDbLine
 10
238.5832262963359
 20
117.2248558487511
 30
0.0
 11
238.5832262963359
 21
116.6000908487514
 31
0.0
  0
LINE
  5
F2B
330
1621
100
AcDbEntity
  8
1
  6
Continuous
100
AcDbLine
 10
236.9832262963358
 20
117.0111358487513
 30
0.0
 11
236.9832262963358
 21
116.3863708487514
 31
0.0
  0
LINE
  5
F2C
330
1621
100
AcDbEntity
  8
1
  6
Continuous
100
AcDbLine
 10
238.5832262963359
 20
121.2992558487514
 30
0.0
 11
238.5832262963359
 21
120.6744908487514
 31
0.0
  0
LINE
  5
F2D
330
1621
100
AcDbEntity
  8
1
  6
Continuous
100
AcDbLine
 10
236.9832262963358
 20
121.0855358487514
 30
0.0
 11
236.9832262963358
 21
120.4607708487514
 31
0.0
  0
LINE
  5
F2E
330
1621
100
AcDbEntity
  8
1
  6
Continuous
100
AcDbLine
 10
238.5832262963359
 20
119.2620558487513
 30
0.0
 11
238.5832262963359
 21
118.6372908487513
 31
0.0
  0
LINE
  5
F2F
330
1621
100
AcDbEntity
  8
1
  6
Continuous
100
AcDbLine
 10
236.9832262963358
 20
119.0483358487514
 30
0.0
 11
236.9832262963358
 21
118.4235708487512
 31
0.0
  0
LINE
  5
F30
330
1621
100
AcDbEntity
  8
1
  6
Continuous
100
AcDbLine
 10
235.3832262963358
 20
118.8346158487514
 30
0.0
 11
235.3832262963358
 21
118.2098508487514
 31
0.0
  0
LINE
  5
F31
330
1621
100
AcDbEntity
  8
1
  6
Continuous
100
AcDbLine
 10
235.3832262963358
 20
116.7974158487513
 30
0.0
 11
235.3832262963358
 21
116.1726508487514
 31
0.0
  0
LINE
  5
F32
330
1621
100
AcDbEntity
  8
1
  6
Continuous
100
AcDbLine
 10
235.3832262963358
 20
120.8718158487514
 30
0.0
 11
235.3832262963358
 21
120.2470508487515
 31
0.0
  0
LINE
  5
F33
330
1621
100
AcDbEntity
  8
1
  6
Continuous
100
AcDbLine
 10
238.5832262963359
 20
115.1876558487514
 30
0.0
 11
238.5832262963359
 21
114.5628828487514
 31
0.0
  0
LINE
  5
F34
330
1621
100
AcDbEntity
  8
1
  6
Continuous
100
AcDbLine
 10
236.9832262963358
 20
114.9739358487514
 30
0.0
 11
236.9832262963358
 21
114.3491578487513
 31
0.0
  0
LINE
  5
F35
330
1621
100
AcDbEntity
  8
1
  6
Continuous
100
AcDbLine
 10
235.3832262963358
 20
114.7602158487515
 30
0.0
 11
235.3832262963358
 21
114.1354328487512
 31
0.0
  0
ARC
  5
F36
330
1621
100
AcDbEntity
  8
1
  6
Continuous
100
AcDbCircle
 10
240.9832262963358
 20
112.4086278487512
 30
0.0
 40
0.7
100
AcDbArc
 50
0.0
 51
84.99935500000029
  0
ARC
  5
F37
330
1621
100
AcDbEntity
  8
1
  6
Continuous
100
AcDbCircle
 10
240.9832262963358
 20
114.1772528487512
 30
0.0
 40
0.7
100
AcDbArc
 50
277.6084270000008
 51
97.60842700000084
  0
LINE
  5
F38
330
1621
100
AcDbEntity
  8
1
  6
Continuous
100
AcDbLine
 10
231.9832262963357
 20
133.9277178487515
 30
0.0
 11
231.4832262963359
 21
133.9277178487515
 31
0.0
  0
LINE
  5
F39
330
1621
100
AcDbEntity
  8
1
  6
Continuous
100
AcDbLine
 10
231.9832262963357
 20
136.9277178487515
 30
0.0
 11
231.4832262963359
 21
136.9277178487515
 31
0.0
  0
LINE
  5
F3A
330
1621
100
AcDbEntity
  8
1
  6
Continuous
100
AcDbLine
 10
231.0832262963356
 20
121.9777178487514
 30
0.0
 11
215.8832262963357
 21
121.9777178487514
 31
0.0
  0
LINE
  5
F3B
330
1621
100
AcDbEntity
  8
1
  6
Continuous
100
AcDbLine
 10
231.0832262963356
 20
123.5777178487515
 30
0.0
 11
215.8832262963357
 21
123.5777178487515
 31
0.0
  0
LINE
  5
F3C
330
1621
100
AcDbEntity
  8
4
  6
CENTER
100
AcDbLine
 10
236.4832262963358
 20
135.4277178487515
 30
0.0
 11
210.4832262963358
 21
135.4277178487515
 31
0.0
  0
ARC
  5
F3D
330
1621
100
AcDbEntity
  8
1
  6
Continuous
100
AcDbCircle
 10
210.4832262963356
 20
129.9149748487515
 30
0.0
 40
2.1
100
AcDbArc
 50
90.0
 51
180.0
  0
LINE
  5
F3E
330
1621
100
AcDbEntity
  8
1
  6
Continuous
100
AcDbLine
 10
213.8905462963358
 20
125.0570908487514
 30
0.0
 11
205.8905462963358
 21
123.9884908487513
 31
0.0
  0
LINE
  5
F3F
330
1621
100
AcDbEntity
  8
1
  6
Continuous
100
AcDbLine
 10
214.0759052963358
 20
123.6694158487514
 30
0.0
 11
206.0759052963358
 21
122.6008158487514
 31
0.0
  0
LINE
  5
F40
330
1621
100
AcDbEntity
  8
1
  6
Continuous
100
AcDbLine
 10
213.8905462963358
 20
123.0198908487514
 30
0.0
 11
205.8905462963358
 21
121.9512908487515
 31
0.0
  0
LINE
  5
F41
330
1621
100
AcDbEntity
  8
1
  6
Continuous
100
AcDbLine
 10
205.8905462963358
 20
122.6008158487514
 30
0.0
 11
208.3832262963358
 21
122.3678558487513
 31
0.0
  0
LINE
  5
F42
330
1621
100
AcDbEntity
  8
1
  6
Continuous
100
AcDbLine
 10
205.2832262963359
 20
125.0632528487514
 30
0.0
 11
208.3832262963358
 21
125.0632528487514
 31
0.0
  0
LINE
  5
F43
330
1621
100
AcDbEntity
  8
1
  6
Continuous
100
AcDbLine
 10
205.9222092963358
 20
124.3659178487514
 30
0.0
 11
207.6103132963359
 21
124.2182088487515
 31
0.0
  0
LINE
  5
F44
330
1621
100
AcDbEntity
  8
1
  6
Continuous
100
AcDbLine
 10
208.3832262963358
 20
122.9090158487515
 30
0.0
 11
208.3832262963358
 21
122.2842508487514
 31
0.0
  0
LINE
  5
F45
330
1621
100
AcDbEntity
  8
1
  6
Continuous
100
AcDbLine
 10
208.3832262963356
 20
129.9149748487515
 30
0.0
 11
208.3832262963356
 21
124.3214505797513
 31
0.0
  0
ARC
  5
F46
330
1621
100
AcDbEntity
  8
1
  6
Continuous
100
AcDbCircle
 10
205.9832262963358
 20
123.2946528487514
 30
0.0
 40
0.7
100
AcDbArc
 50
97.60824800000015
 51
277.6082480000001
  0
ARC
  5
F47
330
1621
100
AcDbEntity
  8
1
  6
Continuous
100
AcDbCircle
 10
205.9832262963358
 20
125.0632528487514
 30
0.0
 40
0.7
100
AcDbArc
 50
180.0
 51
264.9993550000002
  0
ARC
  5
F48
330
1621
100
AcDbEntity
  8
1
  6
Continuous
100
AcDbCircle
 10
212.8832262963356
 20
132.5149748487515
 30
0.0
 40
0.5
100
AcDbArc
 50
270.0
 51
0.0
  0
ARC
  5
F49
330
1621
100
AcDbEntity
  8
1
  6
Continuous
100
AcDbCircle
 10
212.8832262963356
 20
132.5149748487515
 30
0.0
 40
2.1
100
AcDbArc
 50
270.0
 51
0.0
  0
LINE
  5
F4A
330
1621
100
AcDbEntity
  8
1
  6
Continuous
100
AcDbLine
 10
214.6434292963356
 20
132.0309248487513
 30
0.0
 11
213.2630192963357
 21
132.0309248487513
 31
0.0
  0
LINE
  5
F4B
330
1621
100
AcDbEntity
  8
1
  6
Continuous
100
AcDbLine
 10
209.9832262963358
 20
127.5632408487515
 30
0.0
 11
211.5832262963359
 21
127.5632408487515
 31
0.0
  0
LINE
  5
F4C
330
1621
100
AcDbEntity
  8
1
  6
Continuous
100
AcDbLine
 10
210.4832262963356
 20
132.0149748487515
 30
0.0
 11
212.8832262963356
 21
132.0149748487515
 31
0.0
  0
LINE
  5
F4D
330
1621
100
AcDbEntity
  8
1
  6
Continuous
100
AcDbLine
 10
210.4832262963356
 20
130.4149748487515
 30
0.0
 11
212.8832262963356
 21
130.4149748487515
 31
0.0
  0
ARC
  5
F4E
330
1621
100
AcDbEntity
  8
1
  6
Continuous
100
AcDbCircle
 10
210.4832262963356
 20
129.9149748487515
 30
0.0
 40
0.5
100
AcDbArc
 50
90.0
 51
180.0
  0
LINE
  5
F4F
330
1621
100
AcDbEntity
  8
1
  6
Continuous
100
AcDbLine
 10
217.4832262963358
 20
121.5777178487515
 30
0.0
 11
215.8832262963357
 21
121.5777178487515
 31
0.0
  0
ARC
  5
F50
330
1621
100
AcDbEntity
  8
1
  6
Continuous
100
AcDbCircle
 10
213.9832262963358
 20
122.3260528487513
 30
0.0
 40
0.7
100
AcDbArc
 50
277.6082480000001
 51
97.60824800000015
  0
ARC
  5
F51
330
1621
100
AcDbEntity
  8
1
  6
Continuous
100
AcDbCircle
 10
213.9832262963358
 20
124.3632528487514
 30
0.0
 40
0.7
100
AcDbArc
 50
277.6082480000001
 51
97.60824800000015
  0
LINE
  5
F52
330
1621
100
AcDbEntity
  8
1
  6
Continuous
100
AcDbLine
 10
211.5832262963359
 20
123.3364558487515
 30
0.0
 11
211.5832262963359
 21
122.7116908487515
 31
0.0
  0
LINE
  5
F53
330
1621
100
AcDbEntity
  8
1
  6
Continuous
100
AcDbLine
 10
209.9832262963358
 20
123.1227358487515
 30
0.0
 11
209.9832262963358
 21
122.4979708487514
 31
0.0
  0
LINE
  5
F54
330
1621
100
AcDbEntity
  8
1
  6
Continuous
100
AcDbLine
 10
209.9832262963358
 20
125.0632528487514
 30
0.0
 11
211.5832262963359
 21
125.0632528487514
 31
0.0
  0
LINE
  5
F55
330
1621
100
AcDbEntity
  8
1
  6
Continuous
100
AcDbLine
 10
211.5832262963359
 20
123.2528508487514
 30
0.0
 11
214.0759052963358
 21
123.0198908487514
 31
0.0
  0
LINE
  5
F56
330
1621
100
AcDbEntity
  8
1
  6
Continuous
100
AcDbLine
 10
209.9832262963358
 20
125.0632528487514
 30
0.0
 11
213.9832262963358
 21
125.0632528487514
 31
0.0
  0
LINE
  5
F57
330
1621
100
AcDbEntity
  8
1
  6
Continuous
100
AcDbLine
 10
209.9832262963356
 20
129.9149748487515
 30
0.0
 11
209.9832262963356
 21
124.5351705797512
 31
0.0
  0
LINE
  5
F58
330
1621
100
AcDbEntity
  8
1
  6
Continuous
100
AcDbLine
 10
211.5832262963359
 20
127.5632408487515
 30
0.0
 11
211.5832262963359
 21
124.7488905797514
 31
0.0
  0
LINE
  5
F59
330
1621
100
AcDbEntity
  8
1
  6
Continuous
100
AcDbLine
 10
213.3832262963356
 20
137.9277178487515
 30
0.0
 11
214.9832262963359
 21
137.9277178487515
 31
0.0
  0
LINE
  5
F5A
330
1621
100
AcDbEntity
  8
1
  6
Continuous
100
AcDbLine
 10
212.4832262963358
 20
136.4277178487515
 30
0.0
 11
212.4832262963358
 21
134.4277178487515
 31
0.0
  0
LINE
  5
F5B
330
1621
100
AcDbEntity
  8
1
  6
Continuous
100
AcDbLine
 10
213.3832262963356
 20
134.4277178487515
 30
0.0
 11
212.4832262963358
 21
134.4277178487515
 31
0.0
  0
LINE
  5
F5C
330
1621
100
AcDbEntity
  8
1
  6
Continuous
100
AcDbLine
 10
213.3832262963356
 20
136.4277178487515
 30
0.0
 11
212.4832262963358
 21
136.4277178487515
 31
0.0
  0
LINE
  5
F5D
330
1621
100
AcDbEntity
  8
1
  6
Continuous
100
AcDbLine
 10
213.3832262963356
 20
137.9277178487515
 30
0.0
 11
213.3832262963356
 21
132.5149748487515
 31
0.0
  0
LINE
  5
F5E
330
1621
100
AcDbEntity
  8
1
  6
Continuous
100
AcDbLine
 10
214.9832262963359
 20
137.9277178487515
 30
0.0
 11
214.9832262963359
 21
132.5149748487515
 31
0.0
  0
LINE
  5
F5F
330
1621
100
AcDbEntity
  8
1
  6
Continuous
100
AcDbLine
 10
238.5832262963359
 20
125.0632528487514
 30
0.0
 11
240.9832262963358
 21
125.0632528487514
 31
0.0
  0
LINE
  5
F60
330
1621
100
AcDbEntity
  8
1
  6
Continuous
100
AcDbLine
 10
238.5832262963359
 20
123.2528508487514
 30
0.0
 11
241.0759052963358
 21
123.0198908487514
 31
0.0
  0
ARC
  5
F61
330
1621
100
AcDbEntity
  8
1
  6
Continuous
100
AcDbCircle
 10
240.9832262963358
 20
122.3260528487513
 30
0.0
 40
0.7
100
AcDbArc
 50
277.6082480000001
 51
97.60824800000015
  0
ARC
  5
F62
330
1621
100
AcDbEntity
  8
1
  6
Continuous
100
AcDbCircle
 10
240.9832262963358
 20
124.3632528487514
 30
0.0
 40
0.7
100
AcDbArc
 50
277.6082480000001
 51
97.60824800000015
  0
LINE
  5
F63
330
1621
100
AcDbEntity
  8
1
  6
Continuous
100
AcDbLine
 10
240.8905462963358
 20
125.0570908487514
 30
0.0
 11
232.8905462963358
 21
123.9884908487513
 31
0.0
  0
LINE
  5
F64
330
1621
100
AcDbEntity
  8
1
  6
Continuous
100
AcDbLine
 10
241.0759052963358
 20
123.6694158487514
 30
0.0
 11
233.0759052963358
 21
122.6008158487514
 31
0.0
  0
LINE
  5
F65
330
1621
100
AcDbEntity
  8
1
  6
Continuous
100
AcDbLine
 10
240.8905462963358
 20
123.0198908487514
 30
0.0
 11
232.8905462963358
 21
121.9512908487515
 31
0.0
  0
ARC
  5
F66
330
1621
100
AcDbEntity
  8
1
  6
Continuous
100
AcDbCircle
 10
236.4832262963356
 20
129.9149748487515
 30
0.0
 40
2.1
100
AcDbArc
 50
0.0
 51
90.0
  0
ARC
  5
F67
330
1621
100
AcDbEntity
  8
1
  6
Continuous
100
AcDbCircle
 10
234.0832262963356
 20
132.5149748487515
 30
0.0
 40
2.1
100
AcDbArc
 50
180.0
 51
270.0
  0
ARC
  5
F68
330
1621
100
AcDbEntity
  8
1
  6
Continuous
100
AcDbCircle
 10
234.0832262963356
 20
132.5149748487515
 30
0.0
 40
0.5
100
AcDbArc
 50
180.0
 51
270.0
  0
LINE
  5
F69
330
1621
100
AcDbEntity
  8
1
  6
Continuous
100
AcDbLine
 10
232.3230222963357
 20
132.0309248487513
 30
0.0
 11
233.7034332963356
 21
132.0309248487513
 31
0.0
  0
ARC
  5
F6A
330
1621
100
AcDbEntity
  8
1
  6
Continuous
100
AcDbCircle
 10
232.9832262963358
 20
123.2946528487514
 30
0.0
 40
0.7
100
AcDbArc
 50
97.60824800000015
 51
277.6082480000001
  0
LINE
  5
F6B
330
1621
100
AcDbEntity
  8
1
  6
Continuous
100
AcDbLine
 10
232.8905462963358
 20
122.6008158487514
 30
0.0
 11
235.3832262963358
 21
122.3678558487513
 31
0.0
  0
LINE
  5
F6C
330
1621
100
AcDbEntity
  8
1
  6
Continuous
100
AcDbLine
 10
232.9222092963358
 20
124.3659178487514
 30
0.0
 11
234.6103132963357
 21
124.2182088487515
 31
0.0
  0
LINE
  5
F6D
330
1621
100
AcDbEntity
  8
1
  6
Continuous
100
AcDbLine
 10
232.2832262963359
 20
125.0632528487514
 30
0.0
 11
236.9832262963358
 21
125.0632528487514
 31
0.0
  0
LINE
  5
F6E
330
1621
100
AcDbEntity
  8
1
  6
Continuous
100
AcDbLine
 10
231.0832262963356
 20
121.5777178487515
 30
0.0
 11
229.4832262963359
 21
121.5777178487515
 31
0.0
  0
ARC
  5
F6F
330
1621
100
AcDbEntity
  8
1
  6
Continuous
100
AcDbCircle
 10
232.9832262963358
 20
125.0632528487514
 30
0.0
 40
0.7
100
AcDbArc
 50
180.0
 51
264.9993550000002
  0
ARC
  5
F70
330
1621
100
AcDbEntity
  8
1
  6
Continuous
100
AcDbCircle
 10
236.4832262963356
 20
129.9149748487515
 30
0.0
 40
0.5
100
AcDbArc
 50
0.0
 51
90.0
  0
LINE
  5
F71
330
1621
100
AcDbEntity
  8
1
  6
Continuous
100
AcDbLine
 10
238.5832262963359
 20
123.3364558487515
 30
0.0
 11
238.5832262963359
 21
122.7116908487515
 31
0.0
  0
LINE
  5
F72
330
1621
100
AcDbEntity
  8
1
  6
Continuous
100
AcDbLine
 10
236.9832262963358
 20
123.1227358487515
 30
0.0
 11
236.9832262963358
 21
122.4979708487514
 31
0.0
  0
LINE
  5
F73
330
1621
100
AcDbEntity
  8
1
  6
Continuous
100
AcDbLine
 10
236.9832262963358
 20
129.9149748487515
 30
0.0
 11
236.9832262963358
 21
124.5351705797514
 31
0.0
  0
LINE
  5
F74
330
1621
100
AcDbEntity
  8
1
  6
Continuous
100
AcDbLine
 10
238.5832262963359
 20
129.9149748487515
 30
0.0
 11
238.5832262963359
 21
124.7488905797514
 31
0.0
  0
LINE
  5
F75
330
1621
100
AcDbEntity
  8
1
  6
Continuous
100
AcDbLine
 10
235.3832262963358
 20
122.9090158487515
 30
0.0
 11
235.3832262963358
 21
122.2842508487514
 31
0.0
  0
LINE
  5
F76
330
1621
100
AcDbEntity
  8
1
  6
Continuous
100
AcDbLine
 10
235.3832262963358
 20
127.5632408487515
 30
0.0
 11
235.3832262963357
 21
124.3214505797513
 31
0.0
  0
LINE
  5
F77
330
1621
100
AcDbEntity
  8
1
  6
Continuous
100
AcDbLine
 10
236.9832262963358
 20
127.5632408487515
 30
0.0
 11
235.3832262963358
 21
127.5632408487515
 31
0.0
  0
LINE
  5
F78
330
1621
100
AcDbEntity
  8
1
  6
Continuous
100
AcDbLine
 10
236.4832262963356
 20
130.4149748487515
 30
0.0
 11
234.0832262963356
 21
130.4149748487515
 31
0.0
  0
LINE
  5
F79
330
1621
100
AcDbEntity
  8
1
  6
Continuous
100
AcDbLine
 10
236.4832262963356
 20
132.0149748487515
 30
0.0
 11
234.0832262963356
 21
132.0149748487515
 31
0.0
  0
LINE
  5
F7A
330
1621
100
AcDbEntity
  8
1
  6
Continuous
100
AcDbLine
 10
233.5832262963356
 20
137.9277178487515
 30
0.0
 11
231.9832262963357
 21
137.9277178487515
 31
0.0
  0
LINE
  5
F7B
330
1621
100
AcDbEntity
  8
1
  6
Continuous
100
AcDbLine
 10
231.9832262963357
 20
137.9277178487515
 30
0.0
 11
231.9832262963357
 21
132.5149748487515
 31
0.0
  0
LINE
  5
F7C
330
1621
100
AcDbEntity
  8
1
  6
Continuous
100
AcDbLine
 10
234.4832262963358
 20
136.4277178487515
 30
0.0
 11
234.4832262963358
 21
134.4277178487515
 31
0.0
  0
LINE
  5
F7D
330
1621
100
AcDbEntity
  8
1
  6
Continuous
100
AcDbLine
 10
233.5832262963356
 20
134.4277178487515
 30
0.0
 11
234.4832262963358
 21
134.4277178487515
 31
0.0
  0
LINE
  5
F7E
330
1621
100
AcDbEntity
  8
1
  6
Continuous
100
AcDbLine
 10
233.5832262963356
 20
136.4277178487515
 30
0.0
 11
234.4832262963358
 21
136.4277178487515
 31
0.0
  0
LINE
  5
F7F
330
1621
100
AcDbEntity
  8
1
  6
Continuous
100
AcDbLine
 10
233.5832262963356
 20
137.9277178487515
 30
0.0
 11
233.5832262963356
 21
132.5149748487515
 31
0.0
  0
LINE
  5
FB4
330
1621
100
AcDbEntity
  8
1
  6
Continuous
100
AcDbLine
 10
21.96678653760812
 20
171.9277178487515
 30
0.0
 11
37.96678653760807
 21
171.9277178487515
 31
0.0
  0
LINE
  5
FB5
330
1621
100
AcDbEntity
  8
1
  6
Continuous
100
AcDbLine
 10
21.96678653760812
 20
171.9277178487515
 30
0.0
 11
21.96678653760812
 21
131.9277178487514
 31
0.0
  0
LINE
  5
FB6
330
1621
100
AcDbEntity
  8
1
  6
Continuous
100
AcDbLine
 10
37.96678653760807
 20
171.9277178487515
 30
0.0
 11
37.96678653760807
 21
131.9277178487514
 31
0.0
  0
LINE
  5
FB7
330
1621
100
AcDbEntity
  8
1
  6
Continuous
100
AcDbLine
 10
21.96678653760812
 20
131.9277178487514
 30
0.0
 11
37.96678653760807
 21
131.9277178487514
 31
0.0
  0
LINE
  5
FBA
330
1621
100
AcDbEntity
  8
1
  6
Continuous
100
AcDbLine
 10
21.96678653760812
 20
136.9277178487515
 30
0.0
 11
21.46678653760806
 21
136.9277178487515
 31
0.0
  0
LINE
  5
FBB
330
1621
100
AcDbEntity
  8
1
  6
Continuous
100
AcDbLine
 10
21.96678653760812
 20
136.9277178487515
 30
0.0
 11
21.46678653760806
 21
136.9277178487515
 31
0.0
  0
LINE
  5
FBC
330
1621
100
AcDbEntity
  8
1
  6
Continuous
100
AcDbLine
 10
21.96678653760812
 20
133.9277178487515
 30
0.0
 11
21.46678653760806
 21
133.9277178487515
 31
0.0
  0
LINE
  5
FBD
330
1621
100
AcDbEntity
  8
1
  6
Continuous
100
AcDbLine
 10
21.96678653760812
 20
133.9277178487515
 30
0.0
 11
21.46678653760806
 21
133.9277178487515
 31
0.0
  0
LINE
  5
FF0
330
1621
100
AcDbEntity
  8
1
  6
Continuous
100
AcDbLine
 10
215.4832262963358
 20
171.9277178487515
 30
0.0
 11
215.4832262963358
 21
131.9277178487514
 31
0.0
  0
LINE
  5
FF1
330
1621
100
AcDbEntity
  8
1
  6
Continuous
100
AcDbLine
 10
215.4832262963358
 20
171.9277178487515
 30
0.0
 11
231.4832262963359
 21
171.9277178487515
 31
0.0
  0
ARC
  5
FF2
330
1621
100
AcDbEntity
  8
1
  6
Continuous
100
AcDbCircle
 10
219.4832262963358
 20
170.9277178487516
 30
0.0
 40
4.0
100
AcDbArc
 50
179.9999909999999
 51
270.000001
  0
ARC
  5
FF3
330
1621
100
AcDbEntity
  8
1
  6
Continuous
100
AcDbCircle
 10
219.1885792963357
 20
172.4345238487514
 30
0.0
 40
4.0
100
AcDbArc
 50
202.1295209999999
 51
269.9999969999999
  0
LINE
  5
FF4
330
1621
100
AcDbEntity
  8
1
  6
Continuous
100
AcDbLine
 10
231.4832262963359
 20
171.9277178487515
 30
0.0
 11
231.4832262963359
 21
131.9277178487514
 31
0.0
  0
LINE
  5
FF5
330
1621
100
AcDbEntity
  8
1
  6
Continuous
100
AcDbLine
 10
219.1885792963357
 20
168.4345238487514
 30
0.0
 11
227.7778732963357
 21
168.4345238487514
 31
0.0
  0
LINE
  5
FF6
330
1621
100
AcDbEntity
  8
1
  6
Continuous
100
AcDbLine
 10
219.4832262963358
 20
166.9277178487515
 30
0.0
 11
227.4832262963359
 21
166.9277178487515
 31
0.0
  0
ARC
  5
FF7
330
1621
100
AcDbEntity
  8
1
  6
Continuous
100
AcDbCircle
 10
227.7778732963357
 20
172.4345238487514
 30
0.0
 40
4.0
100
AcDbArc
 50
269.9999969999999
 51
337.870479
  0
ARC
  5
FF8
330
1621
100
AcDbEntity
  8
1
  6
Continuous
100
AcDbCircle
 10
227.4832262963359
 20
170.9277178487516
 30
0.0
 40
4.0
100
AcDbArc
 50
269.9999969999999
 51
0.0
  0
LINE
  5
FF9
330
1621
100
AcDbEntity
  8
1
  6
Continuous
100
AcDbLine
 10
215.4832262963358
 20
138.9277178487515
 30
0.0
 11
231.4832262963359
 21
138.9277178487515
 31
0.0
  0
LINE
  5
FFA
330
1621
100
AcDbEntity
  8
1
  6
Continuous
100
AcDbLine
 10
215.4832262963358
 20
131.9277178487514
 30
0.0
 11
231.4832262963359
 21
131.9277178487514
 31
0.0
  0
LINE
  5
FFB
330
1621
100
AcDbEntity
  8
1
  6
Continuous
100
AcDbLine
 10
215.4832262963358
 20
136.9277178487515
 30
0.0
 11
214.9832262963359
 21
136.9277178487515
 31
0.0
  0
LINE
  5
FFC
330
1621
100
AcDbEntity
  8
1
  6
Continuous
100
AcDbLine
 10
215.4832262963358
 20
133.9277178487515
 30
0.0
 11
214.9832262963359
 21
133.9277178487515
 31
0.0
  0
LINE
  5
119A
330
1621
100
AcDbEntity
  8
1
  6
Continuous
100
AcDbLine
 10
37.96678653760807
 20
216.3530925207957
 30
0.0
 11
37.96678653760807
 21
205.3530925207957
 31
0.0
  0
ARC
  5
119B
330
1621
100
AcDbEntity
  8
1
  6
Continuous
100
AcDbCircle
 10
33.96678653760807
 20
216.3530925207957
 30
0.0
 40
4.0
100
AcDbArc
 50
0.0
 51
90.00000300000001
  0
LINE
  5
119C
330
1621
100
AcDbEntity
  8
1
  6
Continuous
100
AcDbLine
 10
25.96678653760813
 20
220.3530925207957
 30
0.0
 11
33.96678653760807
 21
220.3530925207957
 31
0.0
  0
ARC
  5
119D
330
1621
100
AcDbEntity
  8
1
  6
Continuous
100
AcDbCircle
 10
25.96678653760813
 20
216.3530925207957
 30
0.0
 40
4.0
100
AcDbArc
 50
90.00000300000001
 51
180.000005
  0
LINE
  5
119E
330
1621
100
AcDbEntity
  8
1
  6
Continuous
100
AcDbLine
 10
21.96678653760812
 20
216.3530925207957
 30
0.0
 11
21.96678653760812
 21
205.3530925207957
 31
0.0
  0
LINE
  5
119F
330
1621
100
AcDbEntity
  8
1
  6
Continuous
100
AcDbLine
 10
21.96678653760812
 20
205.3530925207957
 30
0.0
 11
37.96678653760807
 21
205.3530925207957
 31
0.0
  0
LINE
  5
11A0
330
1621
100
AcDbEntity
  8
1
  6
Continuous
100
AcDbLine
 10
37.96678653760807
 20
207.3530879412198
 30
0.0
 11
38.46678653760807
 21
207.3530879412198
 31
0.0
  0
LINE
  5
11A1
330
1621
100
AcDbEntity
  8
1
  6
Continuous
100
AcDbLine
 10
37.96678653760807
 20
210.3530879412198
 30
0.0
 11
38.46678653760807
 21
210.3530879412198
 31
0.0
  0
LINE
  5
1462
330
1621
100
AcDbEntity
  8
1
  6
Continuous
100
AcDbLine
 10
45.06678653760809
 20
204.8639585207956
 30
0.0
 11
38.46678653760808
 21
204.8639585207956
 31
0.0
  0
LINE
  5
1471
330
1621
100
AcDbEntity
  8
1
  6
Continuous
100
AcDbLine
 10
14.8667865376081
 20
204.8639585207956
 30
0.0
 11
21.46678653760811
 21
204.8639585207956
 31
0.0
  0
LINE
  5
15A4
330
1621
100
AcDbEntity
  8
1
  6
Continuous
100
AcDbLine
 10
41.86678653760806
 20
54.61741156834081
 30
0.0
 11
41.42071497378281
 21
54.61741156834081
 31
0.0
  0
LINE
  5
15A5
330
1621
100
AcDbEntity
  8
1
  6
Continuous
100
AcDbLine
 10
39.54423521935941
 20
54.61741156834081
 30
0.0
 11
38.4667865376081
 21
54.61741156834081
 31
0.0
  0
LINE
  5
15A6
330
1621
100
AcDbEntity
  8
1
  6
Continuous
100
AcDbLine
 10
20.38933785585678
 20
54.61741156834081
 30
0.0
 11
21.4667865376081
 21
54.61741156834081
 31
0.0
  0
LINE
  5
15A7
330
1621
100
AcDbEntity
  8
1
  6
Continuous
100
AcDbLine
 10
18.06678653760812
 20
54.61741156834081
 30
0.0
 11
18.51285810143339
 21
54.61741156834081
 31
0.0
  0
ENDSEC
  0
SECTION
  2
OBJECTS
  0
DICTIONARY
  5
15BE
330
0
100
AcDbDictionary
281
     1
  3
ACAD_CIP_PREVIOUS_PRODUCT_INFO
350
163A
  3
ACAD_COLOR
350
1614
  3
ACAD_DETAILVIEWSTYLE
350
161B
  3
ACAD_GROUP
350
15BF
  3
ACAD_LAYOUT
350
1613
  3
ACAD_MATERIAL
350
15C2
  3
ACAD_MLEADERSTYLE
350
1617
  3
ACAD_MLINESTYLE
350
1610
  3
ACAD_PLOTSETTINGS
350
1612
  3
ACAD_PLOTSTYLENAME
350
15C0
  3
ACAD_SCALELIST
350
15F4
  3
ACAD_SECTIONVIEWSTYLE
350
1619
  3
ACAD_TABLESTYLE
350
1615
  3
ACAD_VISUALSTYLE
350
15DB
  3
ACDB_RECOMPOSE_DATA
350
1658
  3
AcDbVariableDictionary
350
164B
  3
DWGPROPS
350
1659
  0
DICTIONARY
  5
163B
330
1606
100
AcDbDictionary
280
     1
281
     1
  3
ADSK_XREC_LAYER_RECONCILED
360
163C
  0
DICTIONARY
  5
163D
330
1629
100
AcDbDictionary
280
     1
281
     1
  3
ADSK_XREC_LAYER_RECONCILED
360
163E
  0
DICTIONARY
  5
163F
330
162A
100
AcDbDictionary
280
     1
281
     1
  3
ADSK_XREC_LAYER_RECONCILED
360
1640
  0
DICTIONARY
  5
1641
330
162B
100
AcDbDictionary
280
     1
281
     1
  3
ADSK_XREC_LAYER_RECONCILED
360
1642
  0
DICTIONARY
  5
1643
330
162C
100
AcDbDictionary
280
     1
281
     1
  3
ADSK_XREC_LAYER_RECONCILED
360
1644
  0
DICTIONARY
  5
1645
330
162D
100
AcDbDictionary
280
     1
281
     1
  3
ADSK_XREC_LAYER_RECONCILED
360
1646
  0
DICTIONARY
  5
1647
330
162E
100
AcDbDictionary
280
     1
281
     1
  3
ADSK_XREC_LAYER_RECONCILED
360
1648
  0
DICTIONARY
  5
1649
330
162F
100
AcDbDictionary
280
     1
281
     1
  3
ADSK_XREC_LAYER_RECONCILED
360
164A
  0
XRECORD
  5
163A
102
{ACAD_REACTORS
330
15BE
102
}
330
15BE
100
AcDbXrecord
280
     1
300
ACDLT
300
2014
300
ACDLT_F_S
  0
DICTIONARY
  5
1614
102
{ACAD_REACTORS
330
15BE
102
}
330
15BE
100
AcDbDictionary
281
     1
  0
DICTIONARY
  5
161B
102
{ACAD_REACTORS
330
15BE
102
}
330
15BE
100
AcDbDictionary
281
     1
  3
Imperial24
350
161C
  0
DICTIONARY
  5
15BF
102
{ACAD_REACTORS
330
15BE
102
}
330
15BE
100
AcDbDictionary
281
     1
  0
DICTIONARY
  5
1613
102
{ACAD_REACTORS
330
15BE
102
}
330
15BE
100
AcDbDictionary
281
     1
  3
Model
350
1624
  3
レイアウト1
350
1620
  0
DICTIONARY
  5
15C2
102
{ACAD_REACTORS
330
15BE
102
}
330
15BE
100
AcDbDictionary
281
     1
  3
ByBlock
350
15CB
  3
ByLayer
350
15C3
  3
Global
350
15D3
  0
DICTIONARY
  5
1617
102
{ACAD_REACTORS
330
15BE
102
}
330
15BE
100
AcDbDictionary
281
     1
  3
Standard
350
1618
  0
DICTIONARY
  5
1610
102
{ACAD_REACTORS
330
15BE
102
}
330
15BE
100
AcDbDictionary
281
     1
  3
Standard
350
1611
  0
DICTIONARY
  5
1612
102
{ACAD_REACTORS
330
15BE
102
}
330
15BE
100
AcDbDictionary
281
     1
  0
ACDBDICTIONARYWDFLT
  5
15C0
102
{ACAD_REACTORS
330
15BE
102
}
330
15BE
100
AcDbDictionary
281
     1
  3
Normal
350
15C1
100
AcDbDictionaryWithDefault
340
15C1
  0
DICTIONARY
  5
15F4
102
{ACAD_REACTORS
330
15BE
102
}
330
15BE
100
AcDbDictionary
281
     1
  3
A0
350
15F5
  3
A1
350
15F6
  3
A2
350
15F7
  3
A3
350
15F8
  3
A4
350
15F9
  3
A5
350
15FA
  3
A6
350
15FB
  3
A7
350
15FC
  3
A8
350
15FD
  3
A9
350
15FE
  3
B0
350
15FF
  3
B1
350
1600
  3
B2
350
1601
  3
B3
350
1602
  3
B4
350
1603
  3
B5
350
1604
  3
B6
350
1605
  0
DICTIONARY
  5
1619
102
{ACAD_REACTORS
330
15BE
102
}
330
15BE
100
AcDbDictionary
281
     1
  3
Imperial24
350
161A
  0
DICTIONARY
  5
1615
102
{ACAD_REACTORS
330
15BE
102
}
330
15BE
100
AcDbDictionary
281
     1
  3
Standard
350
1616
  0
DICTIONARY
  5
15DB
102
{ACAD_REACTORS
330
15BE
102
}
330
15BE
100
AcDbDictionary
281
     1
  3
2dWireframe
350
15E1
  3
Basic
350
15E0
  3
Brighten
350
15E7
  3
ColorChange
350
15EB
  3
Conceptual
350
15E4
  3
Dim
350
15E6
  3
EdgeColorOff
350
15F3
  3
Facepattern
350
15EA
  3
Flat
350
15DC
  3
FlatWithEdges
350
15DD
  3
Gouraud
350
15DE
  3
GouraudWithEdges
350
15DF
  3
Hidden
350
15E3
  3
JitterOff
350
15F1
  3
Linepattern
350
15E9
  3
OverhangOff
350
15F2
  3
Realistic
350
15E5
  3
Shaded
350
15F0
  3
Shaded with edges
350
15EF
  3
Shades of Gray
350
15EC
  3
Sketchy
350
15ED
  3
Thicken
350
15E8
  3
Wireframe
350
15E2
  3
X-Ray
350
15EE
  0
XRECORD
  5
1658
102
{ACAD_REACTORS
330
15BE
102
}
330
15BE
100
AcDbXrecord
280
     1
 90
        1
330
1616
  0
DICTIONARY
  5
164B
102
{ACAD_REACTORS
330
15BE
102
}
330
15BE
100
AcDbDictionary
281
     1
  3
CANNOSCALE
350
1650
  3
CMLEADERSTYLE
350
164D
  3
CTABLESTYLE
350
164C
  3
CVIEWDETAILSTYLE
350
164E
  3
CVIEWSECTIONSTYLE
350
164F
  3
DIMASSOC
350
1653
  3
INDEXCTL
350
1652
  3
SORTENTS
350
1651
  3
XCLIPFRAME
350
1654
  0
XRECORD
  5
1659
102
{ACAD_REACTORS
330
15BE
102
}
330
15BE
100
AcDbXrecord
280
     1
  1
DWGPROPS COOKIE
  2

  3

  4

  6

  7

  8
Yoshitsune
  9

300
=
301
=
302
=
303
=
304
=
305
=
306
=
307
=
308
=
309
=
 40
0.0852271643518519
 41
2456276.554532465
 42
2457192.599886227
  1

 90
        0
  0
XRECORD
  5
163C
102
{ACAD_REACTORS
330
163B
102
}
330
163B
100
AcDbXrecord
280
     1
290
     1
  0
XRECORD
  5
163E
102
{ACAD_REACTORS
330
163D
102
}
330
163D
100
AcDbXrecord
280
     1
290
     1
  0
XRECORD
  5
1640
102
{ACAD_REACTORS
330
163F
102
}
330
163F
100
AcDbXrecord
280
     1
290
     1
  0
XRECORD
  5
1642
102
{ACAD_REACTORS
330
1641
102
}
330
1641
100
AcDbXrecord
280
     1
290
     1
  0
XRECORD
  5
1644
102
{ACAD_REACTORS
330
1643
102
}
330
1643
100
AcDbXrecord
280
     1
290
     1
  0
XRECORD
  5
1646
102
{ACAD_REACTORS
330
1645
102
}
330
1645
100
AcDbXrecord
280
     1
290
     1
  0
XRECORD
  5
1648
102
{ACAD_REACTORS
330
1647
102
}
330
1647
100
AcDbXrecord
280
     1
290
     1
  0
XRECORD
  5
164A
102
{ACAD_REACTORS
330
1649
102
}
330
1649
100
AcDbXrecord
280
     1
290
     1
  0
ACDBDETAILVIEWSTYLE
  5
161C
102
{ACAD_XDICTIONARY
360
1691
102
}
102
{ACAD_REACTORS
330
161B
102
}
330
161B
100
AcDbModelDocViewStyle
 70
     0
  3
Imperial24
290
     0
100
AcDbDetailViewStyle
 70
     0
 71
     0
 90
        3
 71
     1
340
1607
 40
0.24
340
0
 40
0.24
300

 40
0.36
280
     3
 71
     2
340
160E
 90
       25
 71
     3
340
1607
 40
0.24
 90
        1
 40
0.75
 90
        1
300
%<\AcVar ViewType \f "%tc1">% %<\AcVar ViewDetailId>%\PSCALE %<\AcVar ViewScale \f "%sn">%
 71
     4
340
160E
 90
       25
340
160E
 90
       25
280
     0
  0
LAYOUT
  5
1624
102
{ACAD_XDICTIONARY
360
1695
102
}
102
{ACAD_REACTORS
330
1613
102
}
330
1613
100
AcDbPlotSettings
  1

  2
Canon LBP9100C
  4

  6

 40
0.0
 41
0.0
 42
0.0
 43
0.0
 44
0.0
 45
0.0
 46
0.0
 47
0.0
 48
0.0
 49
0.0
140
0.0
141
0.0
142
1.0
143
1.0
 70
  1712
 72
     0
 73
     0
 74
     0
  7

 75
     0
147
1.0
148
0.0
149
0.0
100
AcDbLayout
  1
Model
 70
     1
 71
     0
 10
0.0
 20
0.0
 11
12.0
 21
9.0
 12
0.0
 22
0.0
 32
0.0
 14
0.0
 24
0.0
 34
0.0
 15
0.0
 25
0.0
 35
0.0
146
0.0
 13
0.0
 23
0.0
 33
0.0
 16
1.0
 26
0.0
 36
0.0
 17
0.0
 27
1.0
 37
0.0
 76
     0
330
1621
331
1625
  0
LAYOUT
  5
1620
102
{ACAD_XDICTIONARY
360
1693
102
}
102
{ACAD_REACTORS
330
1613
102
}
330
1613
100
AcDbPlotSettings
  1

  2
Canon LBP9100C
  4

  6

 40
0.0
 41
0.0
 42
0.0
 43
0.0
 44
0.0
 45
0.0
 46
0.0
 47
0.0
 48
0.0
 49
0.0
140
0.0
141
0.0
142
1.0
143
1.0
 70
   688
 72
     0
 73
     0
 74
     5
  7

 75
    16
147
1.0
148
0.0
149
0.0
100
AcDbLayout
  1
レイアウト1
 70
     1
 71
     1
 10
0.0
 20
0.0
 11
420.0
 21
297.0
 12
0.0
 22
0.0
 32
0.0
 14
1.000000000000000E+20
 24
1.000000000000000E+20
 34
1.000000000000000E+20
 15
-1.000000000000000E+20
 25
-1.000000000000000E+20
 35
-1.000000000000000E+20
146
0.0
 13
0.0
 23
0.0
 33
0.0
 16
1.0
 26
0.0
 36
0.0
 17
0.0
 27
1.0
 37
0.0
 76
     0
330
161D
  0
MATERIAL
  5
15CB
102
{ACAD_XDICTIONARY
360
15CC
102
}
102
{ACAD_REACTORS
330
15C2
102
}
330
15C2
100
AcDbMaterial
  1
ByBlock
 72
     0
 43
0.0208333333333333
 43
0.0
 43
0.0
 43
0.0
 43
0.0
 43
0.0208333333333333
 43
0.0
 43
0.0
 43
0.0
 43
0.0
 43
1.0
 43
0.0
 43
0.0
 43
0.0
 43
0.0
 43
1.0
 77
     0
 47
0.0208333333333333
 47
0.0
 47
0.0
 47
0.0
 47
0.0
 47
0.0208333333333333
 47
0.0
 47
0.0
 47
0.0
 47
0.0
 47
1.0
 47
0.0
 47
0.0
 47
0.0
 47
0.0
 47
1.0
171
     0
 49
0.0208333333333333
 49
0.0
 49
0.0
 49
0.0
 49
0.0
 49
0.0208333333333333
 49
0.0
 49
0.0
 49
0.0
 49
0.0
 49
1.0
 49
0.0
 49
0.0
 49
0.0
 49
0.0
 49
1.0
175
     0
142
0.0208333333333333
142
0.0
142
0.0
142
0.0
142
0.0
142
0.0208333333333333
142
0.0
142
0.0
142
0.0
142
0.0
142
1.0
142
0.0
142
0.0
142
0.0
142
0.0
142
1.0
179
     0
144
0.0208333333333333
144
0.0
144
0.0
144
0.0
144
0.0
144
0.0208333333333333
144
0.0
144
0.0
144
0.0
144
0.0
144
1.0
144
0.0
144
0.0
144
0.0
144
0.0
144
1.0
147
0.0208333333333333
147
0.0
147
0.0
147
0.0
147
0.0
147
0.0208333333333333
147
0.0
147
0.0
147
0.0
147
0.0
147
1.0
147
0.0
147
0.0
147
0.0
147
0.0
147
1.0
  0
MATERIAL
  5
15C3
102
{ACAD_XDICTIONARY
360
15C4
102
}
102
{ACAD_REACTORS
330
15C2
102
}
330
15C2
100
AcDbMaterial
  1
ByLayer
 72
     0
 43
0.0208333333333333
 43
0.0
 43
0.0
 43
0.0
 43
0.0
 43
0.0208333333333333
 43
0.0
 43
0.0
 43
0.0
 43
0.0
 43
1.0
 43
0.0
 43
0.0
 43
0.0
 43
0.0
 43
1.0
 77
     0
 47
0.0208333333333333
 47
0.0
 47
0.0
 47
0.0
 47
0.0
 47
0.0208333333333333
 47
0.0
 47
0.0
 47
0.0
 47
0.0
 47
1.0
 47
0.0
 47
0.0
 47
0.0
 47
0.0
 47
1.0
171
     0
 49
0.0208333333333333
 49
0.0
 49
0.0
 49
0.0
 49
0.0
 49
0.0208333333333333
 49
0.0
 49
0.0
 49
0.0
 49
0.0
 49
1.0
 49
0.0
 49
0.0
 49
0.0
 49
0.0
 49
1.0
175
     0
142
0.0208333333333333
142
0.0
142
0.0
142
0.0
142
0.0
142
0.0208333333333333
142
0.0
142
0.0
142
0.0
142
0.0
142
1.0
142
0.0
142
0.0
142
0.0
142
0.0
142
1.0
179
     0
144
0.0208333333333333
144
0.0
144
0.0
144
0.0
144
0.0
144
0.0208333333333333
144
0.0
144
0.0
144
0.0
144
0.0
144
1.0
144
0.0
144
0.0
144
0.0
144
0.0
144
1.0
147
0.0208333333333333
147
0.0
147
0.0
147
0.0
147
0.0
147
0.0208333333333333
147
0.0
147
0.0
147
0.0
147
0.0
147
1.0
147
0.0
147
0.0
147
0.0
147
0.0
147
1.0
  0
MATERIAL
  5
15D3
102
{ACAD_XDICTIONARY
360
15D4
102
}
102
{ACAD_REACTORS
330
15C2
102
}
330
15C2
100
AcDbMaterial
  1
Global
 72
     0
 43
0.0208333333333333
 43
0.0
 43
0.0
 43
0.0
 43
0.0
 43
0.0208333333333333
 43
0.0
 43
0.0
 43
0.0
 43
0.0
 43
1.0
 43
0.0
 43
0.0
 43
0.0
 43
0.0
 43
1.0
 77
     0
 47
0.0208333333333333
 47
0.0
 47
0.0
 47
0.0
 47
0.0
 47
0.0208333333333333
 47
0.0
 47
0.0
 47
0.0
 47
0.0
 47
1.0
 47
0.0
 47
0.0
 47
0.0
 47
0.0
 47
1.0
171
     0
 49
0.0208333333333333
 49
0.0
 49
0.0
 49
0.0
 49
0.0
 49
0.0208333333333333
 49
0.0
 49
0.0
 49
0.0
 49
0.0
 49
1.0
 49
0.0
 49
0.0
 49
0.0
 49
0.0
 49
1.0
175
     0
142
0.0208333333333333
142
0.0
142
0.0
142
0.0
142
0.0
142
0.0208333333333333
142
0.0
142
0.0
142
0.0
142
0.0
142
1.0
142
0.0
142
0.0
142
0.0
142
0.0
142
1.0
179
     0
144
0.0208333333333333
144
0.0
144
0.0
144
0.0
144
0.0
144
0.0208333333333333
144
0.0
144
0.0
144
0.0
144
0.0
144
1.0
144
0.0
144
0.0
144
0.0
144
0.0
144
1.0
147
0.0208333333333333
147
0.0
147
0.0
147
0.0
147
0.0
147
0.0208333333333333
147
0.0
147
0.0
147
0.0
147
0.0
147
1.0
147
0.0
147
0.0
147
0.0
147
0.0
147
1.0
  0
MLEADERSTYLE
  5
1618
102
{ACAD_REACTORS
330
1617
102
}
330
1617
100
AcDbMLeaderStyle
170
     2
171
     1
172
     0
 90
        2
 40
0.0
 41
0.0
173
     1
 91
-1056964608
340
160C
 92
       -2
290
     1
 42
0.09
291
     1
 43
0.36
  3
Standard
 44
0.18
300

342
1607
174
     1
178
     6
175
     1
176
     0
 93
-1056964608
 45
0.18
292
     0
297
     0
 46
0.18
 94
-1056964608
 47
1.0
 49
1.0
140
1.0
293
     1
141
0.0
294
     1
177
     0
142
1.0
295
     0
296
     0
143
0.125
1001
ACAD_MLEADERVER
1070
     2
  0
MLINESTYLE
  5
1611
102
{ACAD_REACTORS
330
1610
102
}
330
1610
100
AcDbMlineStyle
  2
STANDARD
 70
     0
  3

 62
   256
 51
90.0
 52
90.0
 71
     2
 49
0.5
 62
   256
  6
BYLAYER
 49
-0.5
 62
   256
  6
BYLAYER
  0
ACDBPLACEHOLDER
  5
15C1
102
{ACAD_REACTORS
330
15C0
102
}
330
15C0
  0
SCALE
  5
15F5
102
{ACAD_REACTORS
330
15F4
102
}
330
15F4
100
AcDbScale
 70
     0
300
1:1
140
1.0
141
1.0
290
     1
  0
SCALE
  5
15F6
102
{ACAD_REACTORS
330
15F4
102
}
330
15F4
100
AcDbScale
 70
     0
300
1/128" = 1'-0"
140
0.0078125
141
12.0
290
     0
  0
SCALE
  5
15F7
102
{ACAD_REACTORS
330
15F4
102
}
330
15F4
100
AcDbScale
 70
     0
300
1/64" = 1'-0"
140
0.015625
141
12.0
290
     0
  0
SCALE
  5
15F8
102
{ACAD_REACTORS
330
15F4
102
}
330
15F4
100
AcDbScale
 70
     0
300
1/32" = 1'-0"
140
0.03125
141
12.0
290
     0
  0
SCALE
  5
15F9
102
{ACAD_REACTORS
330
15F4
102
}
330
15F4
100
AcDbScale
 70
     0
300
1/16" = 1'-0"
140
0.0625
141
12.0
290
     0
  0
SCALE
  5
15FA
102
{ACAD_REACTORS
330
15F4
102
}
330
15F4
100
AcDbScale
 70
     0
300
3/32" = 1'-0"
140
0.09375
141
12.0
290
     0
  0
SCALE
  5
15FB
102
{ACAD_REACTORS
330
15F4
102
}
330
15F4
100
AcDbScale
 70
     0
300
1/8" = 1'-0"
140
0.125
141
12.0
290
     0
  0
SCALE
  5
15FC
102
{ACAD_REACTORS
330
15F4
102
}
330
15F4
100
AcDbScale
 70
     0
300
3/16" = 1'-0"
140
0.1875
141
12.0
290
     0
  0
SCALE
  5
15FD
102
{ACAD_REACTORS
330
15F4
102
}
330
15F4
100
AcDbScale
 70
     0
300
1/4" = 1'-0"
140
0.25
141
12.0
290
     0
  0
SCALE
  5
15FE
102
{ACAD_REACTORS
330
15F4
102
}
330
15F4
100
AcDbScale
 70
     0
300
3/8" = 1'-0"
140
0.375
141
12.0
290
     0
  0
SCALE
  5
15FF
102
{ACAD_REACTORS
330
15F4
102
}
330
15F4
100
AcDbScale
 70
     0
300
1/2" = 1'-0"
140
0.5
141
12.0
290
     0
  0
SCALE
  5
1600
102
{ACAD_REACTORS
330
15F4
102
}
330
15F4
100
AcDbScale
 70
     0
300
3/4" = 1'-0"
140
0.75
141
12.0
290
     0
  0
SCALE
  5
1601
102
{ACAD_REACTORS
330
15F4
102
}
330
15F4
100
AcDbScale
 70
     0
300
1" = 1'-0"
140
1.0
141
12.0
290
     0
  0
SCALE
  5
1602
102
{ACAD_REACTORS
330
15F4
102
}
330
15F4
100
AcDbScale
 70
     0
300
1-1/2" = 1'-0"
140
1.5
141
12.0
290
     0
  0
SCALE
  5
1603
102
{ACAD_REACTORS
330
15F4
102
}
330
15F4
100
AcDbScale
 70
     0
300
3" = 1'-0"
140
3.0
141
12.0
290
     0
  0
SCALE
  5
1604
102
{ACAD_REACTORS
330
15F4
102
}
330
15F4
100
AcDbScale
 70
     0
300
6" = 1'-0"
140
6.0
141
12.0
290
     0
  0
SCALE
  5
1605
102
{ACAD_REACTORS
330
15F4
102
}
330
15F4
100
AcDbScale
 70
     0
300
1'-0" = 1'-0"
140
12.0
141
12.0
290
     0
  0
ACDBSECTIONVIEWSTYLE
  5
161A
102
{ACAD_XDICTIONARY
360
168F
102
}
102
{ACAD_REACTORS
330
1619
102
}
330
1619
100
AcDbModelDocViewStyle
 70
     0
  3
Imperial24
290
     0
100
AcDbSectionViewStyle
 70
     0
 71
     0
 90
       78
 71
     1
340
1607
 40
0.24
340
0
340
0
 40
0.24
300
I, O, Q, S, X, Z
 40
0.48
 90
        3
 40
0.18
 90
        1
 71
     2
340
160E
 90
       25
340
160E
 90
       50
 40
0.24
 40
0.0
 40
0.24
 71
     3
340
1607
 40
0.24
 90
        1
 40
0.75
 90
        1
300
%<\AcVar ViewType \f "%tc1">% %<\AcVar ViewSectionStartId>%-%<\AcVar ViewSectionEndId>%\PSCALE %<\AcVar ViewScale \f "%sn">%
 71
     4
300
ANSI31
 40
1.0
 90
        0
290
     0
290
     0
 90
        6
 40
0.0
 40
1.570796326794896
 40
0.2617993877991494
 40
1.308996938995747
 40
-0.2617993877991494
 40
1.832595714594046
  0
TABLESTYLE
  5
1616
102
{ACAD_XDICTIONARY
360
1656
102
}
102
{ACAD_REACTORS
330
1615
102
}
330
1615
100
AcDbTableStyle
  3
Standard
 70
     0
 71
     0
 40
0.06
 41
0.06
280
     0
281
     0
  7
STANDARD
140
0.18
170
     2
 62
     0
 63
     7
283
     0
274
    -2
284
     1
 64
     0
275
    -2
285
     1
 65
     0
276
    -2
286
     1
 66
     0
277
    -2
287
     1
 67
     0
278
    -2
288
     1
 68
     0
279
    -2
289
     1
 69
     0
  7
STANDARD
140
0.25
170
     5
 62
     0
 63
     7
283
     0
274
    -2
284
     1
 64
     0
275
    -2
285
     1
 65
     0
276
    -2
286
     1
 66
     0
277
    -2
287
     1
 67
     0
278
    -2
288
     1
 68
     0
279
    -2
289
     1
 69
     0
  7
STANDARD
140
0.18
170
     5
 62
     0
 63
     7
283
     0
274
    -2
284
     1
 64
     0
275
    -2
285
     1
 65
     0
276
    -2
286
     1
 66
     0
277
    -2
287
     1
 67
     0
278
    -2
288
     1
 68
     0
279
    -2
289
     1
 69
     0
  0
VISUALSTYLE
  5
15E1
102
{ACAD_XDICTIONARY
360
1667
102
}
102
{ACAD_REACTORS
330
15DB
102
}
330
15DB
100
AcDbVisualStyle
  2
2dWireframe
 70
     4
 71
     0
 72
     2
 73
     0
 90
        0
 40
-0.6
 41
-30.0
 62
     5
 63
     7
 74
     1
 91
        4
 64
     7
 65
   257
 75
     1
175
     1
 42
1.0
 92
        0
 66
   257
 43
1.0
 76
     1
 77
     6
 78
     2
 67
     7
 79
     5
170
     0
171
     0
290
     0
174
     0
 93
        1
 44
0.0
173
     0
291
     0
 45
0.0
1001
ACAD
1000
AcDbSavedByObjectVersion
1070
     0
  0
VISUALSTYLE
  5
15E0
102
{ACAD_XDICTIONARY
360
1665
102
}
102
{ACAD_REACTORS
330
15DB
102
}
330
15DB
100
AcDbVisualStyle
  2
Basic
 70
     7
 71
     1
 72
     0
 73
     1
 90
        0
 40
-0.6
 41
-30.0
 62
     5
 63
     7
 74
     0
 91
        4
 64
     7
 65
   257
 75
     1
175
     1
 42
1.0
 92
        8
 66
     7
 43
1.0
 76
     1
 77
     6
 78
     2
 67
     7
 79
     5
170
     0
171
     0
290
     0
174
     0
 93
        1
 44
0.0
173
     0
291
     1
 45
0.0
1001
ACAD
1000
AcDbSavedByObjectVersion
1070
     0
  0
VISUALSTYLE
  5
15E7
102
{ACAD_XDICTIONARY
360
1673
102
}
102
{ACAD_REACTORS
330
15DB
102
}
330
15DB
100
AcDbVisualStyle
  2
Brighten
 70
    12
 71
     2
 72
     2
 73
     0
 90
        0
 40
-0.6
 41
-30.0
 62
     5
 63
     7
 74
     1
 91
        4
 64
     7
 65
   257
 75
     1
175
     1
 42
1.0
 92
        8
 66
     7
 43
1.0
 76
     1
 77
     6
 78
     2
 67
     7
 79
     5
170
     0
171
     0
290
     0
174
     0
 93
        1
 44
50.0
173
     0
291
     1
 45
0.0
1001
ACAD
1000
AcDbSavedByObjectVersion
1070
     0
  0
VISUALSTYLE
  5
15EB
102
{ACAD_XDICTIONARY
360
167B
102
}
102
{ACAD_REACTORS
330
15DB
102
}
330
15DB
100
AcDbVisualStyle
  2
ColorChange
 70
    16
 71
     2
 72
     2
 73
     3
 90
        0
 40
-0.6
 41
-30.0
 62
     5
 63
     8
 74
     1
 91
        4
 64
     7
 65
   257
 75
     1
175
     1
 42
1.0
 92
        8
 66
     8
 43
1.0
 76
     1
 77
     6
 78
     2
 67
     7
 79
     5
170
     0
171
     0
290
     0
174
     0
 93
        1
 44
0.0
173
     0
291
     1
 45
0.0
1001
ACAD
1000
AcDbSavedByObjectVersion
1070
     0
  0
VISUALSTYLE
  5
15E4
102
{ACAD_XDICTIONARY
360
166D
102
}
102
{ACAD_REACTORS
330
15DB
102
}
330
15DB
100
AcDbVisualStyle
  2
Conceptual
 70
     9
 71
     3
 72
     2
 73
     0
 90
        0
 40
-0.6
 41
-30.0
 62
     5
 63
     7
 74
     2
 91
        2
 64
     7
 65
   257
 75
     1
175
     1
 42
179.0
 92
        8
 66
     7
 43
1.0
 76
     1
 77
     6
 78
     2
 67
     7
 79
     3
170
     0
171
     0
290
     0
174
     0
 93
        1
 44
0.0
173
     0
291
     0
 45
0.0
1001
ACAD
1000
AcDbSavedByObjectVersion
1070
     0
  0
VISUALSTYLE
  5
15E6
102
{ACAD_XDICTIONARY
360
1671
102
}
102
{ACAD_REACTORS
330
15DB
102
}
330
15DB
100
AcDbVisualStyle
  2
Dim
 70
    11
 71
     2
 72
     2
 73
     0
 90
        0
 40
-0.6
 41
-30.0
 62
     5
 63
     7
 74
     1
 91
        4
 64
     7
 65
   257
 75
     1
175
     1
 42
1.0
 92
        8
 66
     7
 43
1.0
 76
     1
 77
     6
 78
     2
 67
     7
 79
     5
170
     0
171
     0
290
     0
174
     0
 93
        1
 44
-50.0
173
     0
291
     1
 45
0.0
1001
ACAD
1000
AcDbSavedByObjectVersion
1070
     0
  0
VISUALSTYLE
  5
15F3
102
{ACAD_XDICTIONARY
360
168B
102
}
102
{ACAD_REACTORS
330
15DB
102
}
330
15DB
100
AcDbVisualStyle
  2
EdgeColorOff
 70
    22
 71
     2
 72
     2
 73
     0
 90
        0
 40
-0.6
 41
-30.0
 62
     5
 63
     7
 74
     1
 91
        4
 64
     7
 65
   257
 75
     1
175
     1
 42
1.0
 92
        8
 66
     7
 43
1.0
 76
     1
 77
     6
 78
     2
 67
     7
 79
     5
170
     0
171
     0
290
     0
174
     0
 93
        1
 44
0.0
173
     0
291
     1
 45
0.0
1001
ACAD
1000
AcDbSavedByObjectVersion
1070
     0
  0
VISUALSTYLE
  5
15EA
102
{ACAD_XDICTIONARY
360
1679
102
}
102
{ACAD_REACTORS
330
15DB
102
}
330
15DB
100
AcDbVisualStyle
  2
Facepattern
 70
    15
 71
     2
 72
     2
 73
     0
 90
        0
 40
-0.6
 41
-30.0
 62
     5
 63
     7
 74
     1
 91
        4
 64
     7
 65
   257
 75
     1
175
     1
 42
1.0
 92
        8
 66
     7
 43
1.0
 76
     1
 77
     6
 78
     2
 67
     7
 79
     5
170
     0
171
     0
290
     0
174
     0
 93
        1
 44
0.0
173
     0
291
     1
 45
0.0
1001
ACAD
1000
AcDbSavedByObjectVersion
1070
     0
  0
VISUALSTYLE
  5
15DC
102
{ACAD_XDICTIONARY
360
165D
102
}
102
{ACAD_REACTORS
330
15DB
102
}
330
15DB
100
AcDbVisualStyle
  2
Flat
 70
     0
 71
     2
 72
     1
 73
     1
 90
        2
 40
-0.6
 41
30.0
 62
     5
 63
     7
 74
     0
 91
        0
 64
     7
 65
   257
 75
     1
175
     1
 42
1.0
 92
        8
 66
     7
 43
1.0
 76
     1
 77
     6
 78
     2
 67
     7
 79
     5
170
     0
171
     0
290
     0
174
     0
 93
       13
 44
0.0
173
     0
291
     1
 45
0.0
1001
ACAD
1000
AcDbSavedByObjectVersion
1070
     0
  0
VISUALSTYLE
  5
15DD
102
{ACAD_XDICTIONARY
360
165F
102
}
102
{ACAD_REACTORS
330
15DB
102
}
330
15DB
100
AcDbVisualStyle
  2
FlatWithEdges
 70
     1
 71
     2
 72
     1
 73
     1
 90
        2
 40
-0.6
 41
30.0
 62
     5
 63
     7
 74
     1
 91
        0
 64
     7
 65
   257
 75
     1
175
     1
 42
1.0
 92
        0
 66
   257
 43
1.0
 76
     1
 77
     6
 78
     2
 67
     7
 79
     5
170
     0
171
     0
290
     0
174
     0
 93
       13
 44
0.0
173
     0
291
     1
 45
0.0
1001
ACAD
1000
AcDbSavedByObjectVersion
1070
     0
  0
VISUALSTYLE
  5
15DE
102
{ACAD_XDICTIONARY
360
1661
102
}
102
{ACAD_REACTORS
330
15DB
102
}
330
15DB
100
AcDbVisualStyle
  2
Gouraud
 70
     2
 71
     2
 72
     2
 73
     1
 90
        2
 40
-0.6
 41
30.0
 62
     5
 63
     7
 74
     0
 91
        0
 64
     7
 65
   257
 75
     1
175
     1
 42
1.0
 92
        0
 66
     7
 43
1.0
 76
     1
 77
     6
 78
     2
 67
     7
 79
     5
170
     0
171
     0
290
     0
174
     0
 93
       13
 44
0.0
173
     0
291
     1
 45
0.0
1001
ACAD
1000
AcDbSavedByObjectVersion
1070
     0
  0
VISUALSTYLE
  5
15DF
102
{ACAD_XDICTIONARY
360
1663
102
}
102
{ACAD_REACTORS
330
15DB
102
}
330
15DB
100
AcDbVisualStyle
  2
GouraudWithEdges
 70
     3
 71
     2
 72
     2
 73
     1
 90
        2
 40
-0.6
 41
30.0
 62
     5
 63
     7
 74
     1
 91
        0
 64
     7
 65
   257
 75
     1
175
     1
 42
1.0
 92
        0
 66
   257
 43
1.0
 76
     1
 77
     6
 78
     2
 67
     7
 79
     5
170
     0
171
     0
290
     0
174
     0
 93
       13
 44
0.0
173
     0
291
     1
 45
0.0
1001
ACAD
1000
AcDbSavedByObjectVersion
1070
     0
  0
VISUALSTYLE
  5
15E3
102
{ACAD_XDICTIONARY
360
166B
102
}
102
{ACAD_REACTORS
330
15DB
102
}
330
15DB
100
AcDbVisualStyle
  2
Hidden
 70
     6
 71
     1
 72
     2
 73
     2
 90
        0
 40
-0.6
 41
-30.0
 62
     5
 63
     7
 74
     2
 91
        2
 64
     7
 65
   257
 75
     2
175
     1
 42
40.0
 92
        0
 66
   257
 43
1.0
 76
     1
 77
     6
 78
     2
 67
     7
 79
     3
170
     0
171
     0
290
     0
174
     0
 93
        1
 44
0.0
173
     0
291
     0
 45
0.0
1001
ACAD
1000
AcDbSavedByObjectVersion
1070
     0
  0
VISUALSTYLE
  5
15F1
102
{ACAD_XDICTIONARY
360
1687
102
}
102
{ACAD_REACTORS
330
15DB
102
}
330
15DB
100
AcDbVisualStyle
  2
JitterOff
 70
    20
 71
     2
 72
     2
 73
     0
 90
        0
 40
-0.6
 41
-30.0
 62
     5
 63
     7
 74
     1
 91
        4
 64
     7
 65
   257
 75
     1
175
     1
 42
1.0
 92
       10
 66
     7
 43
1.0
 76
     1
 77
     6
 78
     2
 67
     7
 79
     5
170
     0
171
     0
290
     0
174
     0
 93
        1
 44
0.0
173
     0
291
     1
 45
0.0
1001
ACAD
1000
AcDbSavedByObjectVersion
1070
     0
  0
VISUALSTYLE
  5
15E9
102
{ACAD_XDICTIONARY
360
1677
102
}
102
{ACAD_REACTORS
330
15DB
102
}
330
15DB
100
AcDbVisualStyle
  2
Linepattern
 70
    14
 71
     2
 72
     2
 73
     0
 90
        0
 40
-0.6
 41
-30.0
 62
     5
 63
     7
 74
     1
 91
        4
 64
     7
 65
   257
 75
     7
175
     7
 42
1.0
 92
        8
 66
     7
 43
1.0
 76
     1
 77
     6
 78
     2
 67
     7
 79
     5
170
     0
171
     0
290
     0
174
     0
 93
        1
 44
0.0
173
     0
291
     1
 45
0.0
1001
ACAD
1000
AcDbSavedByObjectVersion
1070
     0
  0
VISUALSTYLE
  5
15F2
102
{ACAD_XDICTIONARY
360
1689
102
}
102
{ACAD_REACTORS
330
15DB
102
}
330
15DB
100
AcDbVisualStyle
  2
OverhangOff
 70
    21
 71
     2
 72
     2
 73
     0
 90
        0
 40
-0.6
 41
-30.0
 62
     5
 63
     7
 74
     1
 91
        4
 64
     7
 65
   257
 75
     1
175
     1
 42
1.0
 92
        9
 66
     7
 43
1.0
 76
     1
 77
     6
 78
     2
 67
     7
 79
     5
170
     0
171
     0
290
     0
174
     0
 93
        1
 44
0.0
173
     0
291
     1
 45
0.0
1001
ACAD
1000
AcDbSavedByObjectVersion
1070
     0
  0
VISUALSTYLE
  5
15E5
102
{ACAD_XDICTIONARY
360
166F
102
}
102
{ACAD_REACTORS
330
15DB
102
}
330
15DB
100
AcDbVisualStyle
  2
Realistic
 70
     8
 71
     2
 72
     3
 73
     0
 90
        2
 40
-0.6
 41
30.0
 62
     5
 63
     7
 74
     0
 91
        0
 64
     7
 65
   257
 75
     1
175
     1
 42
1.0
 92
        8
 66
   257
 43
1.0
 76
     1
 77
     6
 78
     2
 67
     7
 79
     3
170
     0
171
     0
290
     0
174
     0
 93
       13
 44
0.0
173
     0
291
     0
 45
0.0
1001
ACAD
1000
AcDbSavedByObjectVersion
1070
     0
  0
VISUALSTYLE
  5
15F0
102
{ACAD_XDICTIONARY
360
1685
102
}
102
{ACAD_REACTORS
330
15DB
102
}
330
15DB
100
AcDbVisualStyle
  2
Shaded
 70
    27
 71
     2
 72
     2
 73
     1
 90
        2
 40
-0.6
 41
30.0
 62
     5
 63
     7
 74
     0
 91
        4
 64
     7
 65
   257
 75
     1
175
     1
 42
1.0
 92
        8
 66
   257
 43
1.0
 76
     1
 77
     6
 78
     2
 67
     8
 79
     3
170
     0
171
     0
290
     0
174
     0
 93
        5
 44
0.0
173
     0
291
     0
 45
0.0
1001
ACAD
1000
AcDbSavedByObjectVersion
1070
     0
  0
VISUALSTYLE
  5
15EF
102
{ACAD_XDICTIONARY
360
1683
102
}
102
{ACAD_REACTORS
330
15DB
102
}
330
15DB
100
AcDbVisualStyle
  2
Shaded with edges
 70
    26
 71
     2
 72
     2
 73
     1
 90
        2
 40
-0.6
 41
30.0
 62
     5
 63
     7
 74
     1
 91
       10
 64
     7
 65
   257
 75
     2
175
     1
 42
1.0
 92
        8
 66
   257
 43
1.0
 76
     1
 77
     6
 78
     2
 67
     7
 79
     3
170
     0
171
     0
290
     0
174
     0
 93
        5
 44
0.0
173
     0
291
     0
 45
0.0
1001
ACAD
1000
AcDbSavedByObjectVersion
1070
     0
  0
VISUALSTYLE
  5
15EC
102
{ACAD_XDICTIONARY
360
167D
102
}
102
{ACAD_REACTORS
330
15DB
102
}
330
15DB
100
AcDbVisualStyle
  2
Shades of Gray
 70
    23
 71
     2
 72
     2
 73
     3
 90
        0
 40
-0.6
 41
-30.0
 62
     5
 63
     7
 74
     2
 91
        2
 64
     7
 65
     7
 75
     1
175
     1
 42
40.0
 92
        8
 66
     7
 43
1.0
 76
     1
 77
     6
 78
     2
 67
     7
 79
     3
170
     0
171
     0
290
     0
174
     0
 93
        1
 44
0.0
173
     0
291
     0
 45
0.0
1001
ACAD
1000
AcDbSavedByObjectVersion
1070
     0
  0
VISUALSTYLE
  5
15ED
102
{ACAD_XDICTIONARY
360
167F
102
}
102
{ACAD_REACTORS
330
15DB
102
}
330
15DB
100
AcDbVisualStyle
  2
Sketchy
 70
    24
 71
     1
 72
     2
 73
     2
 90
        0
 40
-0.6
 41
-30.0
 62
     5
 63
     7
 74
     2
 91
        2
 64
     7
 65
     7
 75
     1
175
     1
 42
40.0
 92
       11
 66
     7
 43
1.0
 76
     1
 77
     6
 78
     2
 67
     7
 79
     6
170
     0
171
     0
290
     0
174
     0
 93
        1
 44
0.0
173
     0
291
     0
 45
0.0
1001
ACAD
1000
AcDbSavedByObjectVersion
1070
     0
  0
VISUALSTYLE
  5
15E8
102
{ACAD_XDICTIONARY
360
1675
102
}
102
{ACAD_REACTORS
330
15DB
102
}
330
15DB
100
AcDbVisualStyle
  2
Thicken
 70
    13
 71
     2
 72
     2
 73
     0
 90
        0
 40
-0.6
 41
-30.0
 62
     5
 63
     7
 74
     1
 91
        4
 64
     7
 65
   257
 75
     1
175
     1
 42
1.0
 92
       12
 66
     7
 43
1.0
 76
     1
 77
     6
 78
     2
 67
     7
 79
     5
170
     0
171
     0
290
     0
174
     0
 93
        1
 44
0.0
173
     0
291
     1
 45
0.0
1001
ACAD
1000
AcDbSavedByObjectVersion
1070
     0
  0
VISUALSTYLE
  5
15E2
102
{ACAD_XDICTIONARY
360
1669
102
}
102
{ACAD_REACTORS
330
15DB
102
}
330
15DB
100
AcDbVisualStyle
  2
Wireframe
 70
     5
 71
     0
 72
     2
 73
     0
 90
        0
 40
-0.6
 41
-30.0
 62
     5
 63
     7
 74
     1
 91
        4
 64
     7
 65
   257
 75
     1
175
     1
 42
1.0
 92
        0
 66
   257
 43
1.0
 76
     1
 77
     6
 78
     2
 67
     7
 79
     3
170
     0
171
     0
290
     0
174
     0
 93
        1
 44
0.0
173
     0
291
     0
 45
0.0
1001
ACAD
1000
AcDbSavedByObjectVersion
1070
     0
  0
VISUALSTYLE
  5
15EE
102
{ACAD_XDICTIONARY
360
1681
102
}
102
{ACAD_REACTORS
330
15DB
102
}
330
15DB
100
AcDbVisualStyle
  2
X-Ray
 70
    25
 71
     2
 72
     2
 73
     1
 90
        1
 40
0.5
 41
-30.0
 62
     5
 63
     7
 74
     1
 91
        0
 64
     7
 65
   257
 75
     1
175
     1
 42
1.0
 92
        8
 66
     7
 43
1.0
 76
     1
 77
     6
 78
     2
 67
     7
 79
     3
170
     0
171
     0
290
     0
174
     0
 93
       13
 44
0.0
173
     0
291
     0
 45
0.0
1001
ACAD
1000
AcDbSavedByObjectVersion
1070
     0
  0
DICTIONARYVAR
  5
1650
102
{ACAD_REACTORS
330
164B
102
}
330
164B
100
DictionaryVariables
280
     0
  1
1:1
  0
DICTIONARYVAR
  5
164D
102
{ACAD_REACTORS
330
164B
102
}
330
164B
100
DictionaryVariables
280
     0
  1
STANDARD
  0
DICTIONARYVAR
  5
164C
102
{ACAD_REACTORS
330
164B
102
}
330
164B
100
DictionaryVariables
280
     0
  1
STANDARD
  0
DICTIONARYVAR
  5
164E
102
{ACAD_REACTORS
330
164B
102
}
330
164B
100
DictionaryVariables
280
     0
  1
Imperial24
  0
DICTIONARYVAR
  5
164F
102
{ACAD_REACTORS
330
164B
102
}
330
164B
100
DictionaryVariables
280
     0
  1
Imperial24
  0
DICTIONARYVAR
  5
1653
102
{ACAD_REACTORS
330
164B
102
}
330
164B
100
DictionaryVariables
280
     0
  1
1
  0
DICTIONARYVAR
  5
1652
102
{ACAD_REACTORS
330
164B
102
}
330
164B
100
DictionaryVariables
280
     0
  1
0
  0
DICTIONARYVAR
  5
1651
102
{ACAD_REACTORS
330
164B
102
}
330
164B
100
DictionaryVariables
280
     0
  1
127
  0
DICTIONARYVAR
  5
1654
102
{ACAD_REACTORS
330
164B
102
}
330
164B
100
DictionaryVariables
280
     0
  1
2
  0
DICTIONARY
  5
1691
330
161C
100
AcDbDictionary
280
     1
281
     1
  3
ACAD_XREC_ROUNDTRIP
360
1692
  0
DICTIONARY
  5
1695
330
1624
100
AcDbDictionary
280
     1
281
     1
  3
ACAD_XREC_ROUNDTRIP
360
1696
  0
DICTIONARY
  5
1693
330
1620
100
AcDbDictionary
280
     1
281
     1
  3
ACAD_XREC_ROUNDTRIP
360
1694
  0
DICTIONARY
  5
15CC
330
15CB
100
AcDbDictionary
280
     1
281
     1
  3
ACAD_XREC_ROUNDTRIP
360
165B
  3
BUMPTILE
360
15CE
  3
DIFFUSETILE
360
15CD
  3
OPACITYTILE
360
15D1
  3
REFLECTIONTILE
360
15D0
  3
REFRACTIONTILE
360
15D2
  3
SPECULARTILE
360
15CF
  0
DICTIONARY
  5
15C4
330
15C3
100
AcDbDictionary
280
     1
281
     1
  3
ACAD_XREC_ROUNDTRIP
360
165A
  3
BUMPTILE
360
15C6
  3
DIFFUSETILE
360
15C5
  3
OPACITYTILE
360
15C9
  3
REFLECTIONTILE
360
15C8
  3
REFRACTIONTILE
360
15CA
  3
SPECULARTILE
360
15C7
  0
DICTIONARY
  5
15D4
330
15D3
100
AcDbDictionary
280
     1
281
     1
  3
ACAD_XREC_ROUNDTRIP
360
165C
  3
BUMPTILE
360
15D6
  3
DIFFUSETILE
360
15D5
  3
OPACITYTILE
360
15D9
  3
REFLECTIONTILE
360
15D8
  3
REFRACTIONTILE
360
15DA
  3
SPECULARTILE
360
15D7
  0
DICTIONARY
  5
168F
330
161A
100
AcDbDictionary
280
     1
281
     1
  3
ACAD_XREC_ROUNDTRIP
360
1690
  0
DICTIONARY
  5
1656
330
1616
100
AcDbDictionary
280
     1
281
     1
  3
ACAD_ROUNDTRIP_2008_TABLESTYLE_CELLSTYLEMAP
360
1657
  3
ACAD_XREC_ROUNDTRIP
360
168D
  0
DICTIONARY
  5
1667
330
15E1
100
AcDbDictionary
280
     1
281
     1
  3
ACAD_XREC_ROUNDTRIP
360
1668
  0
DICTIONARY
  5
1665
330
15E0
100
AcDbDictionary
280
     1
281
     1
  3
ACAD_XREC_ROUNDTRIP
360
1666
  0
DICTIONARY
  5
1673
330
15E7
100
AcDbDictionary
280
     1
281
     1
  3
ACAD_XREC_ROUNDTRIP
360
1674
  0
DICTIONARY
  5
167B
330
15EB
100
AcDbDictionary
280
     1
281
     1
  3
ACAD_XREC_ROUNDTRIP
360
167C
  0
DICTIONARY
  5
166D
330
15E4
100
AcDbDictionary
280
     1
281
     1
  3
ACAD_XREC_ROUNDTRIP
360
166E
  0
DICTIONARY
  5
1671
330
15E6
100
AcDbDictionary
280
     1
281
     1
  3
ACAD_XREC_ROUNDTRIP
360
1672
  0
DICTIONARY
  5
168B
330
15F3
100
AcDbDictionary
280
     1
281
     1
  3
ACAD_XREC_ROUNDTRIP
360
168C
  0
DICTIONARY
  5
1679
330
15EA
100
AcDbDictionary
280
     1
281
     1
  3
ACAD_XREC_ROUNDTRIP
360
167A
  0
DICTIONARY
  5
165D
330
15DC
100
AcDbDictionary
280
     1
281
     1
  3
ACAD_XREC_ROUNDTRIP
360
165E
  0
DICTIONARY
  5
165F
330
15DD
100
AcDbDictionary
280
     1
281
     1
  3
ACAD_XREC_ROUNDTRIP
360
1660
  0
DICTIONARY
  5
1661
330
15DE
100
AcDbDictionary
280
     1
281
     1
  3
ACAD_XREC_ROUNDTRIP
360
1662
  0
DICTIONARY
  5
1663
330
15DF
100
AcDbDictionary
280
     1
281
     1
  3
ACAD_XREC_ROUNDTRIP
360
1664
  0
DICTIONARY
  5
166B
330
15E3
100
AcDbDictionary
280
     1
281
     1
  3
ACAD_XREC_ROUNDTRIP
360
166C
  0
DICTIONARY
  5
1687
330
15F1
100
AcDbDictionary
280
     1
281
     1
  3
ACAD_XREC_ROUNDTRIP
360
1688
  0
DICTIONARY
  5
1677
330
15E9
100
AcDbDictionary
280
     1
281
     1
  3
ACAD_XREC_ROUNDTRIP
360
1678
  0
DICTIONARY
  5
1689
330
15F2
100
AcDbDictionary
280
     1
281
     1
  3
ACAD_XREC_ROUNDTRIP
360
168A
  0
DICTIONARY
  5
166F
330
15E5
100
AcDbDictionary
280
     1
281
     1
  3
ACAD_XREC_ROUNDTRIP
360
1670
  0
DICTIONARY
  5
1685
330
15F0
100
AcDbDictionary
280
     1
281
     1
  3
ACAD_XREC_ROUNDTRIP
360
1686
  0
DICTIONARY
  5
1683
330
15EF
100
AcDbDictionary
280
     1
281
     1
  3
ACAD_XREC_ROUNDTRIP
360
1684
  0
DICTIONARY
  5
167D
330
15EC
100
AcDbDictionary
280
     1
281
     1
  3
ACAD_XREC_ROUNDTRIP
360
167E
  0
DICTIONARY
  5
167F
330
15ED
100
AcDbDictionary
280
     1
281
     1
  3
ACAD_XREC_ROUNDTRIP
360
1680
  0
DICTIONARY
  5
1675
330
15E8
100
AcDbDictionary
280
     1
281
     1
  3
ACAD_XREC_ROUNDTRIP
360
1676
  0
DICTIONARY
  5
1669
330
15E2
100
AcDbDictionary
280
     1
281
     1
  3
ACAD_XREC_ROUNDTRIP
360
166A
  0
DICTIONARY
  5
1681
330
15EE
100
AcDbDictionary
280
     1
281
     1
  3
ACAD_XREC_ROUNDTRIP
360
1682
  0
XRECORD
  5
1692
102
{ACAD_REACTORS
330
1691
102
}
330
1691
100
AcDbXrecord
280
     1
102
DISPLAYNAME
  1
Imperial24
102
FLAGS
 90
        0
  0
XRECORD
  5
1696
102
{ACAD_REACTORS
330
1695
102
}
330
1695
100
AcDbXrecord
280
     1
102
SHADEPLOT
 70
     0
102
SHADEPLOTRESLEVEL
 70
     2
102
SHADEPLOTCUSTOMDPI
 70
   300
  0
XRECORD
  5
1694
102
{ACAD_REACTORS
330
1693
102
}
330
1693
100
AcDbXrecord
280
     1
102
SHADEPLOT
 70
     0
102
SHADEPLOTRESLEVEL
 70
     2
102
SHADEPLOTCUSTOMDPI
 70
   300
  0
XRECORD
  5
165B
102
{ACAD_REACTORS
330
15CC
102
}
330
15CC
100
AcDbXrecord
280
     1
102
MATERIAL
148
0.0
149
0.0
149
0.0
 93
        0
 94
      127
282
     0
 72
     0
 77
     0
171
     0
175
     0
179
     0
273
     0
  0
XRECORD
  5
15CE
102
{ACAD_REACTORS
330
15CC
102
}
330
15CC
100
AcDbXrecord
280
     1
270
     1
271
     1
  0
XRECORD
  5
15CD
102
{ACAD_REACTORS
330
15CC
102
}
330
15CC
100
AcDbXrecord
280
     1
270
     1
271
     1
  0
XRECORD
  5
15D1
102
{ACAD_REACTORS
330
15CC
102
}
330
15CC
100
AcDbXrecord
280
     1
270
     1
271
     1
  0
XRECORD
  5
15D0
102
{ACAD_REACTORS
330
15CC
102
}
330
15CC
100
AcDbXrecord
280
     1
270
     1
271
     1
  0
XRECORD
  5
15D2
102
{ACAD_REACTORS
330
15CC
102
}
330
15CC
100
AcDbXrecord
280
     1
270
     1
271
     1
  0
XRECORD
  5
15CF
102
{ACAD_REACTORS
330
15CC
102
}
330
15CC
100
AcDbXrecord
280
     1
270
     1
271
     1
  0
XRECORD
  5
165A
102
{ACAD_REACTORS
330
15C4
102
}
330
15C4
100
AcDbXrecord
280
     1
102
MATERIAL
148
0.0
149
0.0
149
0.0
 93
        0
 94
      127
282
     0
 72
     0
 77
     0
171
     0
175
     0
179
     0
273
     0
  0
XRECORD
  5
15C6
102
{ACAD_REACTORS
330
15C4
102
}
330
15C4
100
AcDbXrecord
280
     1
270
     1
271
     1
  0
XRECORD
  5
15C5
102
{ACAD_REACTORS
330
15C4
102
}
330
15C4
100
AcDbXrecord
280
     1
270
     1
271
     1
  0
XRECORD
  5
15C9
102
{ACAD_REACTORS
330
15C4
102
}
330
15C4
100
AcDbXrecord
280
     1
270
     1
271
     1
  0
XRECORD
  5
15C8
102
{ACAD_REACTORS
330
15C4
102
}
330
15C4
100
AcDbXrecord
280
     1
270
     1
271
     1
  0
XRECORD
  5
15CA
102
{ACAD_REACTORS
330
15C4
102
}
330
15C4
100
AcDbXrecord
280
     1
270
     1
271
     1
  0
XRECORD
  5
15C7
102
{ACAD_REACTORS
330
15C4
102
}
330
15C4
100
AcDbXrecord
280
     1
270
     1
271
     1
  0
XRECORD
  5
165C
102
{ACAD_REACTORS
330
15D4
102
}
330
15D4
100
AcDbXrecord
280
     1
102
MATERIAL
148
0.0
149
0.0
149
0.0
 93
        0
 94
      127
282
     0
 72
     0
 77
     0
171
     0
175
     0
179
     0
273
     0
  0
XRECORD
  5
15D6
102
{ACAD_REACTORS
330
15D4
102
}
330
15D4
100
AcDbXrecord
280
     1
270
     1
271
     1
  0
XRECORD
  5
15D5
102
{ACAD_REACTORS
330
15D4
102
}
330
15D4
100
AcDbXrecord
280
     1
270
     1
271
     1
  0
XRECORD
  5
15D9
102
{ACAD_REACTORS
330
15D4
102
}
330
15D4
100
AcDbXrecord
280
     1
270
     1
271
     1
  0
XRECORD
  5
15D8
102
{ACAD_REACTORS
330
15D4
102
}
330
15D4
100
AcDbXrecord
280
     1
270
     1
271
     1
  0
XRECORD
  5
15DA
102
{ACAD_REACTORS
330
15D4
102
}
330
15D4
100
AcDbXrecord
280
     1
270
     1
271
     1
  0
XRECORD
  5
15D7
102
{ACAD_REACTORS
330
15D4
102
}
330
15D4
100
AcDbXrecord
280
     1
270
     1
271
     1
  0
XRECORD
  5
1690
102
{ACAD_REACTORS
330
168F
102
}
330
168F
100
AcDbXrecord
280
     1
102
DISPLAYNAME
  1
Imperial24
102
FLAGS
 90
        0
  0
CELLSTYLEMAP
  5
1657
102
{ACAD_REACTORS
330
1656
102
}
330
1656
100
AcDbCellStyleMap
 90
        3
300
CELLSTYLE
  1
TABLEFORMAT_BEGIN
 90
        5
170
     1
 91
        0
 92
    32768
 62
   257
 93
        1
300
CONTENTFORMAT
  1
CONTENTFORMAT_BEGIN
 90
        0
 91
        0
 92
      512
 93
        0
300

 40
0.0
140
1.0
 94
        5
 62
     0
340
1607
144
0.25
309
CONTENTFORMAT_END
171
     0
 94
        0
309
TABLEFORMAT_END
  1
CELLSTYLE_BEGIN
 90
        1
 91
        1
300
_TITLE
309
CELLSTYLE_END
300
CELLSTYLE
  1
TABLEFORMAT_BEGIN
 90
        5
170
     1
 91
        0
 92
        0
 62
   257
 93
        1
300
CONTENTFORMAT
  1
CONTENTFORMAT_BEGIN
 90
        0
 91
        0
 92
      512
 93
        0
300

 40
0.0
140
1.0
 94
        5
 62
     0
340
1607
144
0.18
309
CONTENTFORMAT_END
171
     0
 94
        0
309
TABLEFORMAT_END
  1
CELLSTYLE_BEGIN
 90
        2
 91
        1
300
_HEADER
309
CELLSTYLE_END
300
CELLSTYLE
  1
TABLEFORMAT_BEGIN
 90
        5
170
     1
 91
        0
 92
        0
 62
   257
 93
        1
300
CONTENTFORMAT
  1
CONTENTFORMAT_BEGIN
 90
        0
 91
        0
 92
      512
 93
        0
300

 40
0.0
140
1.0
 94
        2
 62
     0
340
1607
144
0.18
309
CONTENTFORMAT_END
171
     0
 94
        0
309
TABLEFORMAT_END
  1
CELLSTYLE_BEGIN
 90
        3
 91
        2
300
_DATA
309
CELLSTYLE_END
  0
XRECORD
  5
168D
102
{ACAD_REACTORS
330
1656
102
}
330
1656
100
AcDbXrecord
280
     1
102
ACAD_ROUNDTRIP_PRE2007_TABLESTYLE
 90
      512
 91
        0
  1

 92
      512
 93
        0
  2

 94
      512
 95
        0
  3

  0
XRECORD
  5
1668
102
{ACAD_REACTORS
330
1667
102
}
330
1667
100
AcDbXrecord
280
     1
102
RTVSPost2010Prop28
280
     1
102
RTVSPost2010PropOp28
 70
     1
102
RTVSPost2010Prop29
280
     1
102
RTVSPost2010PropOp29
 70
     1
102
RTVSPost2010Prop30
280
     0
102
RTVSPost2010PropOp30
 70
     1
102
RTVSPost2010Prop31
280
     0
102
RTVSPost2010PropOp31
 70
     1
102
RTVSPost2010Prop32
280
     0
102
RTVSPost2010PropOp32
 70
     1
102
RTVSPost2010Prop33
280
     0
102
RTVSPost2010PropOp33
 70
     1
102
RTVSPost2010Prop34
280
     0
102
RTVSPost2010PropOp34
 70
     1
102
RTVSPost2010Prop35
280
     0
102
RTVSPost2010PropOp35
 70
     1
102
RTVSPost2010Prop36
280
     0
102
RTVSPost2010PropOp36
 70
     1
102
RTVSPost2010Prop37
 90
       50
102
RTVSPost2010PropOp37
 70
     1
102
RTVSPost2010Prop38
140
0.0
102
RTVSPost2010PropOp38
 70
     1
102
RTVSPost2010Prop39
140
1.0
102
RTVSPost2010PropOp39
 70
     1
102
RTVSPost2010Prop40
 90
        0
102
RTVSPost2010PropOp40
 70
     1
102
RTVSPost2010Prop41ColorIndex
 90
       18
102
RTVSPost2010Prop41ColorRGB
 90
        0
102
RTVSPost2010PropOp41
 70
     1
102
RTVSPost2010Prop42
 90
       50
102
RTVSPost2010PropOp42
 70
     1
102
RTVSPost2010Prop43
 90
        3
102
RTVSPost2010PropOp43
 70
     1
102
RTVSPost2010Prop44ColorIndex
 90
        5
102
RTVSPost2010Prop44ColorRGB
 90
      255
102
RTVSPost2010PropOp44
 70
     1
102
RTVSPost2010Prop45
280
     0
102
RTVSPost2010PropOp45
 70
     1
102
RTVSPost2010Prop46
 90
       50
102
RTVSPost2010PropOp46
 70
     1
102
RTVSPost2010Prop47
 90
       50
102
RTVSPost2010PropOp47
 70
     1
102
RTVSPost2010Prop48
 90
       50
102
RTVSPost2010PropOp48
 70
     1
102
RTVSPost2010Prop49
280
     0
102
RTVSPost2010PropOp49
 70
     1
102
RTVSPost2010Prop50
 90
       50
102
RTVSPost2010PropOp50
 70
     1
102
RTVSPost2010Prop51ColorIndex
 90
      256
102
RTVSPost2010Prop51ColorRGB
 90
-16777216
102
RTVSPost2010PropOp51
 70
     0
102
RTVSPost2010Prop52
140
1.0
102
RTVSPost2010PropOp52
 70
     0
102
RTVSPost2010Prop53
 90
        2
102
RTVSPost2010PropOp53
 70
     1
102
RTVSPost2010Prop54
  1
strokes_ogs.tif
102
RTVSPost2010PropOp54
 70
     1
102
RTVSPost2010Prop55
280
     0
102
RTVSPost2010PropOp55
 70
     1
102
RTVSPost2010Prop56
140
1.0
102
RTVSPost2010PropOp56
 70
     1
102
RTVSPost2010Prop57
140
1.0
102
RTVSPost2010PropOp57
 70
     1
102
RTVSPropertyOp0
 70
     1
102
RTVSPropertyOp1
 70
     1
102
RTVSPropertyOp2
 70
     1
102
RTVSPropertyOp3
 70
     1
102
RTVSPropertyOp4
 70
     1
102
RTVSPropertyOp5
 70
     1
102
RTVSPropertyOp6
 70
     1
102
RTVSPropertyOp7
 70
     1
102
RTVSPropertyOp8
 70
     1
102
RTVSPropertyOp9
 70
     1
102
RTVSPropertyOp10
 70
     1
102
RTVSPropertyOp11
 70
     1
102
RTVSPropertyOp12
 70
     1
102
RTVSPropertyOp13
 70
     1
102
RTVSPropertyOp14
 70
     1
102
RTVSPropertyOp15
 70
     1
102
RTVSPropertyOp16
 70
     1
102
RTVSPropertyOp17
 70
     1
102
RTVSPropertyOp18
 70
     1
102
RTVSPropertyOp19
 70
     1
102
RTVSPropertyOp20
 70
     1
102
RTVSPropertyOp21
 70
     1
102
RTVSPropertyOp22
 70
     1
102
RTVSPropertyOp23
 70
     1
102
RTVSPropertyOp24
 70
     1
102
RTVSPropertyOp25
 70
     1
102
RTVSPropertyOp26
 70
     1
102
RTVSPropertyOp27
 70
     1
102
RTVSPropertyOp28
 70
     1
102
RTVSPropertyOp29
 70
     1
102
RTVSPropertyOp30
 70
     1
102
RTVSPropertyOp31
 70
     1
102
RTVSPropertyOp32
 70
     1
102
RTVSPropertyOp33
 70
     1
102
RTVSPropertyOp34
 70
     1
102
RTVSPropertyOp35
 70
     1
102
RTVSPropertyOp36
 70
     1
102
RTVSPropertyOp37
 70
     1
102
RTVSPropertyOp38
 70
     1
102
RTVSPropertyOp39
 70
     1
102
RTVSPropertyOp40
 70
     1
102
RTVSPropertyOp41
 70
     1
102
RTVSPropertyOp42
 70
     1
102
RTVSPropertyOp43
 70
     1
102
RTVSPropertyOp44
 70
     1
102
RTVSPropertyOp45
 70
     1
102
RTVSPropertyOp46
 70
     1
102
RTVSPropertyOp47
 70
     1
102
RTVSPropertyOp48
 70
     1
102
RTVSPropertyOp49
 70
     1
102
RTVSPropertyOp50
 70
     1
102
RTVSPropertyOp51
 70
     0
102
RTVSPropertyOp52
 70
     0
102
RTVSPropertyOp53
 70
     1
102
RTVSPropertyOp54
 70
     1
102
RTVSPropertyOp55
 70
     1
102
RTVSPropertyOp56
 70
     1
102
RTVSPropertyOp57
 70
     1
102
RTVSPropertyOp58
 70
     1
102
RTVSPropertyOp59
 70
     1
102
RTVSPropertyOp60
 70
     1
102
RTVSPropertyOp61
 70
     1
102
RTVSPropertyOp62
 70
     1
  0
XRECORD
  5
1666
102
{ACAD_REACTORS
330
1665
102
}
330
1665
100
AcDbXrecord
280
     1
102
RTVSPost2010Prop28
280
     0
102
RTVSPost2010PropOp28
 70
     1
102
RTVSPost2010Prop29
280
     1
102
RTVSPost2010PropOp29
 70
     1
102
RTVSPost2010Prop30
280
     1
102
RTVSPost2010PropOp30
 70
     1
102
RTVSPost2010Prop31
280
     0
102
RTVSPost2010PropOp31
 70
     1
102
RTVSPost2010Prop32
280
     0
102
RTVSPost2010PropOp32
 70
     1
102
RTVSPost2010Prop33
280
     0
102
RTVSPost2010PropOp33
 70
     1
102
RTVSPost2010Prop34
280
     0
102
RTVSPost2010PropOp34
 70
     1
102
RTVSPost2010Prop35
280
     0
102
RTVSPost2010PropOp35
 70
     1
102
RTVSPost2010Prop36
280
     0
102
RTVSPost2010PropOp36
 70
     1
102
RTVSPost2010Prop37
 90
       50
102
RTVSPost2010PropOp37
 70
     1
102
RTVSPost2010Prop38
140
0.0
102
RTVSPost2010PropOp38
 70
     1
102
RTVSPost2010Prop39
140
1.0
102
RTVSPost2010PropOp39
 70
     1
102
RTVSPost2010Prop40
 90
        0
102
RTVSPost2010PropOp40
 70
     1
102
RTVSPost2010Prop41ColorIndex
 90
       18
102
RTVSPost2010Prop41ColorRGB
 90
        0
102
RTVSPost2010PropOp41
 70
     1
102
RTVSPost2010Prop42
 90
       50
102
RTVSPost2010PropOp42
 70
     1
102
RTVSPost2010Prop43
 90
        3
102
RTVSPost2010PropOp43
 70
     1
102
RTVSPost2010Prop44ColorIndex
 90
        5
102
RTVSPost2010Prop44ColorRGB
 90
      255
102
RTVSPost2010PropOp44
 70
     1
102
RTVSPost2010Prop45
280
     0
102
RTVSPost2010PropOp45
 70
     1
102
RTVSPost2010Prop46
 90
       50
102
RTVSPost2010PropOp46
 70
     1
102
RTVSPost2010Prop47
 90
       50
102
RTVSPost2010PropOp47
 70
     1
102
RTVSPost2010Prop48
 90
       50
102
RTVSPost2010PropOp48
 70
     1
102
RTVSPost2010Prop49
280
     0
102
RTVSPost2010PropOp49
 70
     1
102
RTVSPost2010Prop50
 90
       50
102
RTVSPost2010PropOp50
 70
     1
102
RTVSPost2010Prop51ColorIndex
 90
      256
102
RTVSPost2010Prop51ColorRGB
 90
-16777216
102
RTVSPost2010PropOp51
 70
     0
102
RTVSPost2010Prop52
140
1.0
102
RTVSPost2010PropOp52
 70
     0
102
RTVSPost2010Prop53
 90
        2
102
RTVSPost2010PropOp53
 70
     1
102
RTVSPost2010Prop54
  1
strokes_ogs.tif
102
RTVSPost2010PropOp54
 70
     1
102
RTVSPost2010Prop55
280
     0
102
RTVSPost2010PropOp55
 70
     1
102
RTVSPost2010Prop56
140
1.0
102
RTVSPost2010PropOp56
 70
     1
102
RTVSPost2010Prop57
140
1.0
102
RTVSPost2010PropOp57
 70
     1
102
RTVSPropertyOp0
 70
     1
102
RTVSPropertyOp1
 70
     1
102
RTVSPropertyOp2
 70
     1
102
RTVSPropertyOp3
 70
     1
102
RTVSPropertyOp4
 70
     1
102
RTVSPropertyOp5
 70
     1
102
RTVSPropertyOp6
 70
     1
102
RTVSPropertyOp7
 70
     1
102
RTVSPropertyOp8
 70
     1
102
RTVSPropertyOp9
 70
     1
102
RTVSPropertyOp10
 70
     1
102
RTVSPropertyOp11
 70
     1
102
RTVSPropertyOp12
 70
     1
102
RTVSPropertyOp13
 70
     1
102
RTVSPropertyOp14
 70
     1
102
RTVSPropertyOp15
 70
     1
102
RTVSPropertyOp16
 70
     1
102
RTVSPropertyOp17
 70
     1
102
RTVSPropertyOp18
 70
     1
102
RTVSPropertyOp19
 70
     1
102
RTVSPropertyOp20
 70
     1
102
RTVSPropertyOp21
 70
     1
102
RTVSPropertyOp22
 70
     1
102
RTVSPropertyOp23
 70
     1
102
RTVSPropertyOp24
 70
     1
102
RTVSPropertyOp25
 70
     1
102
RTVSPropertyOp26
 70
     1
102
RTVSPropertyOp27
 70
     1
102
RTVSPropertyOp28
 70
     1
102
RTVSPropertyOp29
 70
     1
102
RTVSPropertyOp30
 70
     1
102
RTVSPropertyOp31
 70
     1
102
RTVSPropertyOp32
 70
     1
102
RTVSPropertyOp33
 70
     1
102
RTVSPropertyOp34
 70
     1
102
RTVSPropertyOp35
 70
     1
102
RTVSPropertyOp36
 70
     1
102
RTVSPropertyOp37
 70
     1
102
RTVSPropertyOp38
 70
     1
102
RTVSPropertyOp39
 70
     1
102
RTVSPropertyOp40
 70
     1
102
RTVSPropertyOp41
 70
     1
102
RTVSPropertyOp42
 70
     1
102
RTVSPropertyOp43
 70
     1
102
RTVSPropertyOp44
 70
     1
102
RTVSPropertyOp45
 70
     1
102
RTVSPropertyOp46
 70
     1
102
RTVSPropertyOp47
 70
     1
102
RTVSPropertyOp48
 70
     1
102
RTVSPropertyOp49
 70
     1
102
RTVSPropertyOp50
 70
     1
102
RTVSPropertyOp51
 70
     0
102
RTVSPropertyOp52
 70
     0
102
RTVSPropertyOp53
 70
     1
102
RTVSPropertyOp54
 70
     1
102
RTVSPropertyOp55
 70
     1
102
RTVSPropertyOp56
 70
     1
102
RTVSPropertyOp57
 70
     1
102
RTVSPropertyOp58
 70
     1
102
RTVSPropertyOp59
 70
     1
102
RTVSPropertyOp60
 70
     1
102
RTVSPropertyOp61
 70
     1
102
RTVSPropertyOp62
 70
     1
  0
XRECORD
  5
1674
102
{ACAD_REACTORS
330
1673
102
}
330
1673
100
AcDbXrecord
280
     1
102
RTVSPost2010Prop28
280
     0
102
RTVSPost2010PropOp28
 70
     1
102
RTVSPost2010Prop29
280
     1
102
RTVSPost2010PropOp29
 70
     1
102
RTVSPost2010Prop30
280
     1
102
RTVSPost2010PropOp30
 70
     1
102
RTVSPost2010Prop31
280
     0
102
RTVSPost2010PropOp31
 70
     1
102
RTVSPost2010Prop32
280
     0
102
RTVSPost2010PropOp32
 70
     1
102
RTVSPost2010Prop33
280
     0
102
RTVSPost2010PropOp33
 70
     1
102
RTVSPost2010Prop34
280
     0
102
RTVSPost2010PropOp34
 70
     1
102
RTVSPost2010Prop35
280
     0
102
RTVSPost2010PropOp35
 70
     1
102
RTVSPost2010Prop36
280
     0
102
RTVSPost2010PropOp36
 70
     1
102
RTVSPost2010Prop37
 90
       50
102
RTVSPost2010PropOp37
 70
     1
102
RTVSPost2010Prop38
140
0.0
102
RTVSPost2010PropOp38
 70
     1
102
RTVSPost2010Prop39
140
1.0
102
RTVSPost2010PropOp39
 70
     1
102
RTVSPost2010Prop40
 90
        0
102
RTVSPost2010PropOp40
 70
     1
102
RTVSPost2010Prop41ColorIndex
 90
       18
102
RTVSPost2010Prop41ColorRGB
 90
        0
102
RTVSPost2010PropOp41
 70
     1
102
RTVSPost2010Prop42
 90
       50
102
RTVSPost2010PropOp42
 70
     1
102
RTVSPost2010Prop43
 90
        3
102
RTVSPost2010PropOp43
 70
     1
102
RTVSPost2010Prop44ColorIndex
 90
        5
102
RTVSPost2010Prop44ColorRGB
 90
      255
102
RTVSPost2010PropOp44
 70
     1
102
RTVSPost2010Prop45
280
     0
102
RTVSPost2010PropOp45
 70
     1
102
RTVSPost2010Prop46
 90
       50
102
RTVSPost2010PropOp46
 70
     1
102
RTVSPost2010Prop47
 90
       50
102
RTVSPost2010PropOp47
 70
     1
102
RTVSPost2010Prop48
 90
       50
102
RTVSPost2010PropOp48
 70
     1
102
RTVSPost2010Prop49
280
     0
102
RTVSPost2010PropOp49
 70
     1
102
RTVSPost2010Prop50
 90
       50
102
RTVSPost2010PropOp50
 70
     1
102
RTVSPost2010Prop51ColorIndex
 90
      256
102
RTVSPost2010Prop51ColorRGB
 90
-16777216
102
RTVSPost2010PropOp51
 70
     0
102
RTVSPost2010Prop52
140
1.0
102
RTVSPost2010PropOp52
 70
     0
102
RTVSPost2010Prop53
 90
        2
102
RTVSPost2010PropOp53
 70
     1
102
RTVSPost2010Prop54
  1
strokes_ogs.tif
102
RTVSPost2010PropOp54
 70
     1
102
RTVSPost2010Prop55
280
     0
102
RTVSPost2010PropOp55
 70
     1
102
RTVSPost2010Prop56
140
1.0
102
RTVSPost2010PropOp56
 70
     1
102
RTVSPost2010Prop57
140
1.0
102
RTVSPost2010PropOp57
 70
     1
102
RTVSPropertyOp0
 70
     1
102
RTVSPropertyOp1
 70
     1
102
RTVSPropertyOp2
 70
     1
102
RTVSPropertyOp3
 70
     1
102
RTVSPropertyOp4
 70
     1
102
RTVSPropertyOp5
 70
     1
102
RTVSPropertyOp6
 70
     1
102
RTVSPropertyOp7
 70
     1
102
RTVSPropertyOp8
 70
     1
102
RTVSPropertyOp9
 70
     1
102
RTVSPropertyOp10
 70
     1
102
RTVSPropertyOp11
 70
     1
102
RTVSPropertyOp12
 70
     1
102
RTVSPropertyOp13
 70
     1
102
RTVSPropertyOp14
 70
     1
102
RTVSPropertyOp15
 70
     1
102
RTVSPropertyOp16
 70
     1
102
RTVSPropertyOp17
 70
     1
102
RTVSPropertyOp18
 70
     1
102
RTVSPropertyOp19
 70
     1
102
RTVSPropertyOp20
 70
     1
102
RTVSPropertyOp21
 70
     1
102
RTVSPropertyOp22
 70
     1
102
RTVSPropertyOp23
 70
     1
102
RTVSPropertyOp24
 70
     1
102
RTVSPropertyOp25
 70
     1
102
RTVSPropertyOp26
 70
     1
102
RTVSPropertyOp27
 70
     1
102
RTVSPropertyOp28
 70
     1
102
RTVSPropertyOp29
 70
     1
102
RTVSPropertyOp30
 70
     1
102
RTVSPropertyOp31
 70
     1
102
RTVSPropertyOp32
 70
     1
102
RTVSPropertyOp33
 70
     1
102
RTVSPropertyOp34
 70
     1
102
RTVSPropertyOp35
 70
     1
102
RTVSPropertyOp36
 70
     1
102
RTVSPropertyOp37
 70
     1
102
RTVSPropertyOp38
 70
     1
102
RTVSPropertyOp39
 70
     1
102
RTVSPropertyOp40
 70
     1
102
RTVSPropertyOp41
 70
     1
102
RTVSPropertyOp42
 70
     1
102
RTVSPropertyOp43
 70
     1
102
RTVSPropertyOp44
 70
     1
102
RTVSPropertyOp45
 70
     1
102
RTVSPropertyOp46
 70
     1
102
RTVSPropertyOp47
 70
     1
102
RTVSPropertyOp48
 70
     1
102
RTVSPropertyOp49
 70
     1
102
RTVSPropertyOp50
 70
     1
102
RTVSPropertyOp51
 70
     0
102
RTVSPropertyOp52
 70
     0
102
RTVSPropertyOp53
 70
     1
102
RTVSPropertyOp54
 70
     1
102
RTVSPropertyOp55
 70
     1
102
RTVSPropertyOp56
 70
     1
102
RTVSPropertyOp57
 70
     1
102
RTVSPropertyOp58
 70
     1
102
RTVSPropertyOp59
 70
     1
102
RTVSPropertyOp60
 70
     1
102
RTVSPropertyOp61
 70
     1
102
RTVSPropertyOp62
 70
     1
  0
XRECORD
  5
167C
102
{ACAD_REACTORS
330
167B
102
}
330
167B
100
AcDbXrecord
280
     1
102
RTVSPost2010Prop28
280
     0
102
RTVSPost2010PropOp28
 70
     1
102
RTVSPost2010Prop29
280
     1
102
RTVSPost2010PropOp29
 70
     1
102
RTVSPost2010Prop30
280
     1
102
RTVSPost2010PropOp30
 70
     1
102
RTVSPost2010Prop31
280
     0
102
RTVSPost2010PropOp31
 70
     1
102
RTVSPost2010Prop32
280
     0
102
RTVSPost2010PropOp32
 70
     1
102
RTVSPost2010Prop33
280
     0
102
RTVSPost2010PropOp33
 70
     1
102
RTVSPost2010Prop34
280
     0
102
RTVSPost2010PropOp34
 70
     1
102
RTVSPost2010Prop35
280
     0
102
RTVSPost2010PropOp35
 70
     1
102
RTVSPost2010Prop36
280
     0
102
RTVSPost2010PropOp36
 70
     1
102
RTVSPost2010Prop37
 90
       50
102
RTVSPost2010PropOp37
 70
     1
102
RTVSPost2010Prop38
140
0.0
102
RTVSPost2010PropOp38
 70
     1
102
RTVSPost2010Prop39
140
1.0
102
RTVSPost2010PropOp39
 70
     1
102
RTVSPost2010Prop40
 90
        0
102
RTVSPost2010PropOp40
 70
     1
102
RTVSPost2010Prop41ColorIndex
 90
       18
102
RTVSPost2010Prop41ColorRGB
 90
        0
102
RTVSPost2010PropOp41
 70
     1
102
RTVSPost2010Prop42
 90
       50
102
RTVSPost2010PropOp42
 70
     1
102
RTVSPost2010Prop43
 90
        3
102
RTVSPost2010PropOp43
 70
     1
102
RTVSPost2010Prop44ColorIndex
 90
        5
102
RTVSPost2010Prop44ColorRGB
 90
      255
102
RTVSPost2010PropOp44
 70
     1
102
RTVSPost2010Prop45
280
     0
102
RTVSPost2010PropOp45
 70
     1
102
RTVSPost2010Prop46
 90
       50
102
RTVSPost2010PropOp46
 70
     1
102
RTVSPost2010Prop47
 90
       50
102
RTVSPost2010PropOp47
 70
     1
102
RTVSPost2010Prop48
 90
       50
102
RTVSPost2010PropOp48
 70
     1
102
RTVSPost2010Prop49
280
     0
102
RTVSPost2010PropOp49
 70
     1
102
RTVSPost2010Prop50
 90
       50
102
RTVSPost2010PropOp50
 70
     1
102
RTVSPost2010Prop51ColorIndex
 90
      256
102
RTVSPost2010Prop51ColorRGB
 90
-16777216
102
RTVSPost2010PropOp51
 70
     0
102
RTVSPost2010Prop52
140
1.0
102
RTVSPost2010PropOp52
 70
     0
102
RTVSPost2010Prop53
 90
        2
102
RTVSPost2010PropOp53
 70
     1
102
RTVSPost2010Prop54
  1
strokes_ogs.tif
102
RTVSPost2010PropOp54
 70
     1
102
RTVSPost2010Prop55
280
     0
102
RTVSPost2010PropOp55
 70
     1
102
RTVSPost2010Prop56
140
1.0
102
RTVSPost2010PropOp56
 70
     1
102
RTVSPost2010Prop57
140
1.0
102
RTVSPost2010PropOp57
 70
     1
102
RTVSPropertyOp0
 70
     1
102
RTVSPropertyOp1
 70
     1
102
RTVSPropertyOp2
 70
     1
102
RTVSPropertyOp3
 70
     1
102
RTVSPropertyOp4
 70
     1
102
RTVSPropertyOp5
 70
     1
102
RTVSPropertyOp6
 70
     1
102
RTVSPropertyOp7
 70
     1
102
RTVSPropertyOp8
 70
     1
102
RTVSPropertyOp9
 70
     1
102
RTVSPropertyOp10
 70
     1
102
RTVSPropertyOp11
 70
     1
102
RTVSPropertyOp12
 70
     1
102
RTVSPropertyOp13
 70
     1
102
RTVSPropertyOp14
 70
     1
102
RTVSPropertyOp15
 70
     1
102
RTVSPropertyOp16
 70
     1
102
RTVSPropertyOp17
 70
     1
102
RTVSPropertyOp18
 70
     1
102
RTVSPropertyOp19
 70
     1
102
RTVSPropertyOp20
 70
     1
102
RTVSPropertyOp21
 70
     1
102
RTVSPropertyOp22
 70
     1
102
RTVSPropertyOp23
 70
     1
102
RTVSPropertyOp24
 70
     1
102
RTVSPropertyOp25
 70
     1
102
RTVSPropertyOp26
 70
     1
102
RTVSPropertyOp27
 70
     1
102
RTVSPropertyOp28
 70
     1
102
RTVSPropertyOp29
 70
     1
102
RTVSPropertyOp30
 70
     1
102
RTVSPropertyOp31
 70
     1
102
RTVSPropertyOp32
 70
     1
102
RTVSPropertyOp33
 70
     1
102
RTVSPropertyOp34
 70
     1
102
RTVSPropertyOp35
 70
     1
102
RTVSPropertyOp36
 70
     1
102
RTVSPropertyOp37
 70
     1
102
RTVSPropertyOp38
 70
     1
102
RTVSPropertyOp39
 70
     1
102
RTVSPropertyOp40
 70
     1
102
RTVSPropertyOp41
 70
     1
102
RTVSPropertyOp42
 70
     1
102
RTVSPropertyOp43
 70
     1
102
RTVSPropertyOp44
 70
     1
102
RTVSPropertyOp45
 70
     1
102
RTVSPropertyOp46
 70
     1
102
RTVSPropertyOp47
 70
     1
102
RTVSPropertyOp48
 70
     1
102
RTVSPropertyOp49
 70
     1
102
RTVSPropertyOp50
 70
     1
102
RTVSPropertyOp51
 70
     0
102
RTVSPropertyOp52
 70
     0
102
RTVSPropertyOp53
 70
     1
102
RTVSPropertyOp54
 70
     1
102
RTVSPropertyOp55
 70
     1
102
RTVSPropertyOp56
 70
     1
102
RTVSPropertyOp57
 70
     1
102
RTVSPropertyOp58
 70
     1
102
RTVSPropertyOp59
 70
     1
102
RTVSPropertyOp60
 70
     1
102
RTVSPropertyOp61
 70
     1
102
RTVSPropertyOp62
 70
     1
  0
XRECORD
  5
166E
102
{ACAD_REACTORS
330
166D
102
}
330
166D
100
AcDbXrecord
280
     1
102
RTVSPost2010Prop28
280
     0
102
RTVSPost2010PropOp28
 70
     1
102
RTVSPost2010Prop29
280
     1
102
RTVSPost2010PropOp29
 70
     1
102
RTVSPost2010Prop30
280
     1
102
RTVSPost2010PropOp30
 70
     1
102
RTVSPost2010Prop31
280
     0
102
RTVSPost2010PropOp31
 70
     1
102
RTVSPost2010Prop32
280
     0
102
RTVSPost2010PropOp32
 70
     1
102
RTVSPost2010Prop33
280
     0
102
RTVSPost2010PropOp33
 70
     1
102
RTVSPost2010Prop34
280
     0
102
RTVSPost2010PropOp34
 70
     1
102
RTVSPost2010Prop35
280
     0
102
RTVSPost2010PropOp35
 70
     1
102
RTVSPost2010Prop36
280
     0
102
RTVSPost2010PropOp36
 70
     1
102
RTVSPost2010Prop37
 90
       50
102
RTVSPost2010PropOp37
 70
     1
102
RTVSPost2010Prop38
140
0.0
102
RTVSPost2010PropOp38
 70
     1
102
RTVSPost2010Prop39
140
1.0
102
RTVSPost2010PropOp39
 70
     1
102
RTVSPost2010Prop40
 90
        0
102
RTVSPost2010PropOp40
 70
     1
102
RTVSPost2010Prop41ColorIndex
 90
       18
102
RTVSPost2010Prop41ColorRGB
 90
        0
102
RTVSPost2010PropOp41
 70
     1
102
RTVSPost2010Prop42
 90
       50
102
RTVSPost2010PropOp42
 70
     1
102
RTVSPost2010Prop43
 90
        3
102
RTVSPost2010PropOp43
 70
     1
102
RTVSPost2010Prop44ColorIndex
 90
        5
102
RTVSPost2010Prop44ColorRGB
 90
      255
102
RTVSPost2010PropOp44
 70
     1
102
RTVSPost2010Prop45
280
     0
102
RTVSPost2010PropOp45
 70
     1
102
RTVSPost2010Prop46
 90
       50
102
RTVSPost2010PropOp46
 70
     1
102
RTVSPost2010Prop47
 90
       50
102
RTVSPost2010PropOp47
 70
     1
102
RTVSPost2010Prop48
 90
       50
102
RTVSPost2010PropOp48
 70
     1
102
RTVSPost2010Prop49
280
     0
102
RTVSPost2010PropOp49
 70
     1
102
RTVSPost2010Prop50
 90
       50
102
RTVSPost2010PropOp50
 70
     1
102
RTVSPost2010Prop51ColorIndex
 90
      256
102
RTVSPost2010Prop51ColorRGB
 90
-16777216
102
RTVSPost2010PropOp51
 70
     0
102
RTVSPost2010Prop52
140
1.0
102
RTVSPost2010PropOp52
 70
     0
102
RTVSPost2010Prop53
 90
        2
102
RTVSPost2010PropOp53
 70
     1
102
RTVSPost2010Prop54
  1
strokes_ogs.tif
102
RTVSPost2010PropOp54
 70
     1
102
RTVSPost2010Prop55
280
     0
102
RTVSPost2010PropOp55
 70
     1
102
RTVSPost2010Prop56
140
1.0
102
RTVSPost2010PropOp56
 70
     1
102
RTVSPost2010Prop57
140
1.0
102
RTVSPost2010PropOp57
 70
     1
102
RTVSPropertyOp0
 70
     1
102
RTVSPropertyOp1
 70
     1
102
RTVSPropertyOp2
 70
     1
102
RTVSPropertyOp3
 70
     1
102
RTVSPropertyOp4
 70
     1
102
RTVSPropertyOp5
 70
     1
102
RTVSPropertyOp6
 70
     1
102
RTVSPropertyOp7
 70
     1
102
RTVSPropertyOp8
 70
     1
102
RTVSPropertyOp9
 70
     1
102
RTVSPropertyOp10
 70
     1
102
RTVSPropertyOp11
 70
     1
102
RTVSPropertyOp12
 70
     1
102
RTVSPropertyOp13
 70
     1
102
RTVSPropertyOp14
 70
     1
102
RTVSPropertyOp15
 70
     1
102
RTVSPropertyOp16
 70
     1
102
RTVSPropertyOp17
 70
     1
102
RTVSPropertyOp18
 70
     1
102
RTVSPropertyOp19
 70
     1
102
RTVSPropertyOp20
 70
     1
102
RTVSPropertyOp21
 70
     1
102
RTVSPropertyOp22
 70
     1
102
RTVSPropertyOp23
 70
     1
102
RTVSPropertyOp24
 70
     1
102
RTVSPropertyOp25
 70
     1
102
RTVSPropertyOp26
 70
     1
102
RTVSPropertyOp27
 70
     1
102
RTVSPropertyOp28
 70
     1
102
RTVSPropertyOp29
 70
     1
102
RTVSPropertyOp30
 70
     1
102
RTVSPropertyOp31
 70
     1
102
RTVSPropertyOp32
 70
     1
102
RTVSPropertyOp33
 70
     1
102
RTVSPropertyOp34
 70
     1
102
RTVSPropertyOp35
 70
     1
102
RTVSPropertyOp36
 70
     1
102
RTVSPropertyOp37
 70
     1
102
RTVSPropertyOp38
 70
     1
102
RTVSPropertyOp39
 70
     1
102
RTVSPropertyOp40
 70
     1
102
RTVSPropertyOp41
 70
     1
102
RTVSPropertyOp42
 70
     1
102
RTVSPropertyOp43
 70
     1
102
RTVSPropertyOp44
 70
     1
102
RTVSPropertyOp45
 70
     1
102
RTVSPropertyOp46
 70
     1
102
RTVSPropertyOp47
 70
     1
102
RTVSPropertyOp48
 70
     1
102
RTVSPropertyOp49
 70
     1
102
RTVSPropertyOp50
 70
     1
102
RTVSPropertyOp51
 70
     0
102
RTVSPropertyOp52
 70
     0
102
RTVSPropertyOp53
 70
     1
102
RTVSPropertyOp54
 70
     1
102
RTVSPropertyOp55
 70
     1
102
RTVSPropertyOp56
 70
     1
102
RTVSPropertyOp57
 70
     1
102
RTVSPropertyOp58
 70
     1
102
RTVSPropertyOp59
 70
     1
102
RTVSPropertyOp60
 70
     1
102
RTVSPropertyOp61
 70
     1
102
RTVSPropertyOp62
 70
     1
  0
XRECORD
  5
1672
102
{ACAD_REACTORS
330
1671
102
}
330
1671
100
AcDbXrecord
280
     1
102
RTVSPost2010Prop28
280
     0
102
RTVSPost2010PropOp28
 70
     1
102
RTVSPost2010Prop29
280
     1
102
RTVSPost2010PropOp29
 70
     1
102
RTVSPost2010Prop30
280
     1
102
RTVSPost2010PropOp30
 70
     1
102
RTVSPost2010Prop31
280
     0
102
RTVSPost2010PropOp31
 70
     1
102
RTVSPost2010Prop32
280
     0
102
RTVSPost2010PropOp32
 70
     1
102
RTVSPost2010Prop33
280
     0
102
RTVSPost2010PropOp33
 70
     1
102
RTVSPost2010Prop34
280
     0
102
RTVSPost2010PropOp34
 70
     1
102
RTVSPost2010Prop35
280
     0
102
RTVSPost2010PropOp35
 70
     1
102
RTVSPost2010Prop36
280
     0
102
RTVSPost2010PropOp36
 70
     1
102
RTVSPost2010Prop37
 90
       50
102
RTVSPost2010PropOp37
 70
     1
102
RTVSPost2010Prop38
140
0.0
102
RTVSPost2010PropOp38
 70
     1
102
RTVSPost2010Prop39
140
1.0
102
RTVSPost2010PropOp39
 70
     1
102
RTVSPost2010Prop40
 90
        0
102
RTVSPost2010PropOp40
 70
     1
102
RTVSPost2010Prop41ColorIndex
 90
       18
102
RTVSPost2010Prop41ColorRGB
 90
        0
102
RTVSPost2010PropOp41
 70
     1
102
RTVSPost2010Prop42
 90
       50
102
RTVSPost2010PropOp42
 70
     1
102
RTVSPost2010Prop43
 90
        3
102
RTVSPost2010PropOp43
 70
     1
102
RTVSPost2010Prop44ColorIndex
 90
        5
102
RTVSPost2010Prop44ColorRGB
 90
      255
102
RTVSPost2010PropOp44
 70
     1
102
RTVSPost2010Prop45
280
     0
102
RTVSPost2010PropOp45
 70
     1
102
RTVSPost2010Prop46
 90
       50
102
RTVSPost2010PropOp46
 70
     1
102
RTVSPost2010Prop47
 90
       50
102
RTVSPost2010PropOp47
 70
     1
102
RTVSPost2010Prop48
 90
       50
102
RTVSPost2010PropOp48
 70
     1
102
RTVSPost2010Prop49
280
     0
102
RTVSPost2010PropOp49
 70
     1
102
RTVSPost2010Prop50
 90
       50
102
RTVSPost2010PropOp50
 70
     1
102
RTVSPost2010Prop51ColorIndex
 90
      256
102
RTVSPost2010Prop51ColorRGB
 90
-16777216
102
RTVSPost2010PropOp51
 70
     0
102
RTVSPost2010Prop52
140
1.0
102
RTVSPost2010PropOp52
 70
     0
102
RTVSPost2010Prop53
 90
        2
102
RTVSPost2010PropOp53
 70
     1
102
RTVSPost2010Prop54
  1
strokes_ogs.tif
102
RTVSPost2010PropOp54
 70
     1
102
RTVSPost2010Prop55
280
     0
102
RTVSPost2010PropOp55
 70
     1
102
RTVSPost2010Prop56
140
1.0
102
RTVSPost2010PropOp56
 70
     1
102
RTVSPost2010Prop57
140
1.0
102
RTVSPost2010PropOp57
 70
     1
102
RTVSPropertyOp0
 70
     1
102
RTVSPropertyOp1
 70
     1
102
RTVSPropertyOp2
 70
     1
102
RTVSPropertyOp3
 70
     1
102
RTVSPropertyOp4
 70
     1
102
RTVSPropertyOp5
 70
     1
102
RTVSPropertyOp6
 70
     1
102
RTVSPropertyOp7
 70
     1
102
RTVSPropertyOp8
 70
     1
102
RTVSPropertyOp9
 70
     1
102
RTVSPropertyOp10
 70
     1
102
RTVSPropertyOp11
 70
     1
102
RTVSPropertyOp12
 70
     1
102
RTVSPropertyOp13
 70
     1
102
RTVSPropertyOp14
 70
     1
102
RTVSPropertyOp15
 70
     1
102
RTVSPropertyOp16
 70
     1
102
RTVSPropertyOp17
 70
     1
102
RTVSPropertyOp18
 70
     1
102
RTVSPropertyOp19
 70
     1
102
RTVSPropertyOp20
 70
     1
102
RTVSPropertyOp21
 70
     1
102
RTVSPropertyOp22
 70
     1
102
RTVSPropertyOp23
 70
     1
102
RTVSPropertyOp24
 70
     1
102
RTVSPropertyOp25
 70
     1
102
RTVSPropertyOp26
 70
     1
102
RTVSPropertyOp27
 70
     1
102
RTVSPropertyOp28
 70
     1
102
RTVSPropertyOp29
 70
     1
102
RTVSPropertyOp30
 70
     1
102
RTVSPropertyOp31
 70
     1
102
RTVSPropertyOp32
 70
     1
102
RTVSPropertyOp33
 70
     1
102
RTVSPropertyOp34
 70
     1
102
RTVSPropertyOp35
 70
     1
102
RTVSPropertyOp36
 70
     1
102
RTVSPropertyOp37
 70
     1
102
RTVSPropertyOp38
 70
     1
102
RTVSPropertyOp39
 70
     1
102
RTVSPropertyOp40
 70
     1
102
RTVSPropertyOp41
 70
     1
102
RTVSPropertyOp42
 70
     1
102
RTVSPropertyOp43
 70
     1
102
RTVSPropertyOp44
 70
     1
102
RTVSPropertyOp45
 70
     1
102
RTVSPropertyOp46
 70
     1
102
RTVSPropertyOp47
 70
     1
102
RTVSPropertyOp48
 70
     1
102
RTVSPropertyOp49
 70
     1
102
RTVSPropertyOp50
 70
     1
102
RTVSPropertyOp51
 70
     0
102
RTVSPropertyOp52
 70
     0
102
RTVSPropertyOp53
 70
     1
102
RTVSPropertyOp54
 70
     1
102
RTVSPropertyOp55
 70
     1
102
RTVSPropertyOp56
 70
     1
102
RTVSPropertyOp57
 70
     1
102
RTVSPropertyOp58
 70
     1
102
RTVSPropertyOp59
 70
     1
102
RTVSPropertyOp60
 70
     1
102
RTVSPropertyOp61
 70
     1
102
RTVSPropertyOp62
 70
     1
  0
XRECORD
  5
168C
102
{ACAD_REACTORS
330
168B
102
}
330
168B
100
AcDbXrecord
280
     1
102
RTVSPost2010Prop28
280
     0
102
RTVSPost2010PropOp28
 70
     1
102
RTVSPost2010Prop29
280
     1
102
RTVSPost2010PropOp29
 70
     1
102
RTVSPost2010Prop30
280
     1
102
RTVSPost2010PropOp30
 70
     1
102
RTVSPost2010Prop31
280
     0
102
RTVSPost2010PropOp31
 70
     1
102
RTVSPost2010Prop32
280
     0
102
RTVSPost2010PropOp32
 70
     1
102
RTVSPost2010Prop33
280
     0
102
RTVSPost2010PropOp33
 70
     1
102
RTVSPost2010Prop34
280
     0
102
RTVSPost2010PropOp34
 70
     1
102
RTVSPost2010Prop35
280
     0
102
RTVSPost2010PropOp35
 70
     1
102
RTVSPost2010Prop36
280
     0
102
RTVSPost2010PropOp36
 70
     1
102
RTVSPost2010Prop37
 90
       50
102
RTVSPost2010PropOp37
 70
     0
102
RTVSPost2010Prop38
140
0.0
102
RTVSPost2010PropOp38
 70
     0
102
RTVSPost2010Prop39
140
1.0
102
RTVSPost2010PropOp39
 70
     0
102
RTVSPost2010Prop40
 90
        0
102
RTVSPost2010PropOp40
 70
     0
102
RTVSPost2010Prop41ColorIndex
 90
       18
102
RTVSPost2010Prop41ColorRGB
 90
        0
102
RTVSPost2010PropOp41
 70
     0
102
RTVSPost2010Prop42
 90
       50
102
RTVSPost2010PropOp42
 70
     0
102
RTVSPost2010Prop43
 90
        3
102
RTVSPost2010PropOp43
 70
     0
102
RTVSPost2010Prop44ColorIndex
 90
        5
102
RTVSPost2010Prop44ColorRGB
 90
      255
102
RTVSPost2010PropOp44
 70
     0
102
RTVSPost2010Prop45
280
     0
102
RTVSPost2010PropOp45
 70
     1
102
RTVSPost2010Prop46
 90
       50
102
RTVSPost2010PropOp46
 70
     0
102
RTVSPost2010Prop47
 90
       50
102
RTVSPost2010PropOp47
 70
     0
102
RTVSPost2010Prop48
 90
       50
102
RTVSPost2010PropOp48
 70
     0
102
RTVSPost2010Prop49
280
     0
102
RTVSPost2010PropOp49
 70
     1
102
RTVSPost2010Prop50
 90
       50
102
RTVSPost2010PropOp50
 70
     0
102
RTVSPost2010Prop51ColorIndex
 90
      256
102
RTVSPost2010Prop51ColorRGB
 90
-16777216
102
RTVSPost2010PropOp51
 70
     0
102
RTVSPost2010Prop52
140
1.0
102
RTVSPost2010PropOp52
 70
     0
102
RTVSPost2010Prop53
 90
        2
102
RTVSPost2010PropOp53
 70
     0
102
RTVSPost2010Prop54
  1
strokes_ogs.tif
102
RTVSPost2010PropOp54
 70
     0
102
RTVSPost2010Prop55
280
     0
102
RTVSPost2010PropOp55
 70
     1
102
RTVSPost2010Prop56
140
1.0
102
RTVSPost2010PropOp56
 70
     0
102
RTVSPost2010Prop57
140
1.0
102
RTVSPost2010PropOp57
 70
     0
102
RTVSPropertyOp0
 70
     0
102
RTVSPropertyOp1
 70
     0
102
RTVSPropertyOp2
 70
     0
102
RTVSPropertyOp3
 70
     0
102
RTVSPropertyOp4
 70
     0
102
RTVSPropertyOp5
 70
     0
102
RTVSPropertyOp6
 70
     0
102
RTVSPropertyOp7
 70
     0
102
RTVSPropertyOp8
 70
     0
102
RTVSPropertyOp9
 70
     0
102
RTVSPropertyOp10
 70
     0
102
RTVSPropertyOp11
 70
     0
102
RTVSPropertyOp12
 70
     0
102
RTVSPropertyOp13
 70
     0
102
RTVSPropertyOp14
 70
     2
102
RTVSPropertyOp15
 70
     0
102
RTVSPropertyOp16
 70
     0
102
RTVSPropertyOp17
 70
     0
102
RTVSPropertyOp18
 70
     0
102
RTVSPropertyOp19
 70
     0
102
RTVSPropertyOp20
 70
     0
102
RTVSPropertyOp21
 70
     0
102
RTVSPropertyOp22
 70
     0
102
RTVSPropertyOp23
 70
     0
102
RTVSPropertyOp24
 70
     0
102
RTVSPropertyOp25
 70
     0
102
RTVSPropertyOp26
 70
     0
102
RTVSPropertyOp27
 70
     0
102
RTVSPropertyOp28
 70
     1
102
RTVSPropertyOp29
 70
     1
102
RTVSPropertyOp30
 70
     1
102
RTVSPropertyOp31
 70
     1
102
RTVSPropertyOp32
 70
     1
102
RTVSPropertyOp33
 70
     1
102
RTVSPropertyOp34
 70
     1
102
RTVSPropertyOp35
 70
     1
102
RTVSPropertyOp36
 70
     1
102
RTVSPropertyOp37
 70
     0
102
RTVSPropertyOp38
 70
     0
102
RTVSPropertyOp39
 70
     0
102
RTVSPropertyOp40
 70
     0
102
RTVSPropertyOp41
 70
     0
102
RTVSPropertyOp42
 70
     0
102
RTVSPropertyOp43
 70
     0
102
RTVSPropertyOp44
 70
     0
102
RTVSPropertyOp45
 70
     1
102
RTVSPropertyOp46
 70
     0
102
RTVSPropertyOp47
 70
     0
102
RTVSPropertyOp48
 70
     0
102
RTVSPropertyOp49
 70
     1
102
RTVSPropertyOp50
 70
     0
102
RTVSPropertyOp51
 70
     0
102
RTVSPropertyOp52
 70
     0
102
RTVSPropertyOp53
 70
     0
102
RTVSPropertyOp54
 70
     0
102
RTVSPropertyOp55
 70
     1
102
RTVSPropertyOp56
 70
     0
102
RTVSPropertyOp57
 70
     0
102
RTVSPropertyOp58
 70
     0
102
RTVSPropertyOp59
 70
     0
102
RTVSPropertyOp60
 70
     0
102
RTVSPropertyOp61
 70
     0
102
RTVSPropertyOp62
 70
     0
  0
XRECORD
  5
167A
102
{ACAD_REACTORS
330
1679
102
}
330
1679
100
AcDbXrecord
280
     1
102
RTVSPost2010Prop28
280
     0
102
RTVSPost2010PropOp28
 70
     1
102
RTVSPost2010Prop29
280
     1
102
RTVSPost2010PropOp29
 70
     1
102
RTVSPost2010Prop30
280
     1
102
RTVSPost2010PropOp30
 70
     1
102
RTVSPost2010Prop31
280
     0
102
RTVSPost2010PropOp31
 70
     1
102
RTVSPost2010Prop32
280
     0
102
RTVSPost2010PropOp32
 70
     1
102
RTVSPost2010Prop33
280
     0
102
RTVSPost2010PropOp33
 70
     1
102
RTVSPost2010Prop34
280
     0
102
RTVSPost2010PropOp34
 70
     1
102
RTVSPost2010Prop35
280
     0
102
RTVSPost2010PropOp35
 70
     1
102
RTVSPost2010Prop36
280
     0
102
RTVSPost2010PropOp36
 70
     1
102
RTVSPost2010Prop37
 90
       50
102
RTVSPost2010PropOp37
 70
     1
102
RTVSPost2010Prop38
140
0.0
102
RTVSPost2010PropOp38
 70
     1
102
RTVSPost2010Prop39
140
1.0
102
RTVSPost2010PropOp39
 70
     1
102
RTVSPost2010Prop40
 90
        0
102
RTVSPost2010PropOp40
 70
     1
102
RTVSPost2010Prop41ColorIndex
 90
       18
102
RTVSPost2010Prop41ColorRGB
 90
        0
102
RTVSPost2010PropOp41
 70
     1
102
RTVSPost2010Prop42
 90
       50
102
RTVSPost2010PropOp42
 70
     1
102
RTVSPost2010Prop43
 90
        3
102
RTVSPost2010PropOp43
 70
     1
102
RTVSPost2010Prop44ColorIndex
 90
        5
102
RTVSPost2010Prop44ColorRGB
 90
      255
102
RTVSPost2010PropOp44
 70
     1
102
RTVSPost2010Prop45
280
     0
102
RTVSPost2010PropOp45
 70
     1
102
RTVSPost2010Prop46
 90
       50
102
RTVSPost2010PropOp46
 70
     1
102
RTVSPost2010Prop47
 90
       50
102
RTVSPost2010PropOp47
 70
     1
102
RTVSPost2010Prop48
 90
       50
102
RTVSPost2010PropOp48
 70
     1
102
RTVSPost2010Prop49
280
     0
102
RTVSPost2010PropOp49
 70
     1
102
RTVSPost2010Prop50
 90
       50
102
RTVSPost2010PropOp50
 70
     1
102
RTVSPost2010Prop51ColorIndex
 90
      256
102
RTVSPost2010Prop51ColorRGB
 90
-16777216
102
RTVSPost2010PropOp51
 70
     0
102
RTVSPost2010Prop52
140
1.0
102
RTVSPost2010PropOp52
 70
     0
102
RTVSPost2010Prop53
 90
        2
102
RTVSPost2010PropOp53
 70
     1
102
RTVSPost2010Prop54
  1
strokes_ogs.tif
102
RTVSPost2010PropOp54
 70
     1
102
RTVSPost2010Prop55
280
     0
102
RTVSPost2010PropOp55
 70
     1
102
RTVSPost2010Prop56
140
1.0
102
RTVSPost2010PropOp56
 70
     1
102
RTVSPost2010Prop57
140
1.0
102
RTVSPost2010PropOp57
 70
     1
102
RTVSPropertyOp0
 70
     1
102
RTVSPropertyOp1
 70
     1
102
RTVSPropertyOp2
 70
     1
102
RTVSPropertyOp3
 70
     1
102
RTVSPropertyOp4
 70
     1
102
RTVSPropertyOp5
 70
     1
102
RTVSPropertyOp6
 70
     1
102
RTVSPropertyOp7
 70
     1
102
RTVSPropertyOp8
 70
     1
102
RTVSPropertyOp9
 70
     1
102
RTVSPropertyOp10
 70
     1
102
RTVSPropertyOp11
 70
     1
102
RTVSPropertyOp12
 70
     1
102
RTVSPropertyOp13
 70
     1
102
RTVSPropertyOp14
 70
     1
102
RTVSPropertyOp15
 70
     1
102
RTVSPropertyOp16
 70
     1
102
RTVSPropertyOp17
 70
     1
102
RTVSPropertyOp18
 70
     1
102
RTVSPropertyOp19
 70
     1
102
RTVSPropertyOp20
 70
     1
102
RTVSPropertyOp21
 70
     1
102
RTVSPropertyOp22
 70
     1
102
RTVSPropertyOp23
 70
     1
102
RTVSPropertyOp24
 70
     1
102
RTVSPropertyOp25
 70
     1
102
RTVSPropertyOp26
 70
     1
102
RTVSPropertyOp27
 70
     1
102
RTVSPropertyOp28
 70
     1
102
RTVSPropertyOp29
 70
     1
102
RTVSPropertyOp30
 70
     1
102
RTVSPropertyOp31
 70
     1
102
RTVSPropertyOp32
 70
     1
102
RTVSPropertyOp33
 70
     1
102
RTVSPropertyOp34
 70
     1
102
RTVSPropertyOp35
 70
     1
102
RTVSPropertyOp36
 70
     1
102
RTVSPropertyOp37
 70
     1
102
RTVSPropertyOp38
 70
     1
102
RTVSPropertyOp39
 70
     1
102
RTVSPropertyOp40
 70
     1
102
RTVSPropertyOp41
 70
     1
102
RTVSPropertyOp42
 70
     1
102
RTVSPropertyOp43
 70
     1
102
RTVSPropertyOp44
 70
     1
102
RTVSPropertyOp45
 70
     1
102
RTVSPropertyOp46
 70
     1
102
RTVSPropertyOp47
 70
     1
102
RTVSPropertyOp48
 70
     1
102
RTVSPropertyOp49
 70
     1
102
RTVSPropertyOp50
 70
     1
102
RTVSPropertyOp51
 70
     0
102
RTVSPropertyOp52
 70
     0
102
RTVSPropertyOp53
 70
     1
102
RTVSPropertyOp54
 70
     1
102
RTVSPropertyOp55
 70
     1
102
RTVSPropertyOp56
 70
     1
102
RTVSPropertyOp57
 70
     1
102
RTVSPropertyOp58
 70
     1
102
RTVSPropertyOp59
 70
     1
102
RTVSPropertyOp60
 70
     1
102
RTVSPropertyOp61
 70
     1
102
RTVSPropertyOp62
 70
     1
  0
XRECORD
  5
165E
102
{ACAD_REACTORS
330
165D
102
}
330
165D
100
AcDbXrecord
280
     1
102
RTVSPost2010Prop28
280
     0
102
RTVSPost2010PropOp28
 70
     1
102
RTVSPost2010Prop29
280
     1
102
RTVSPost2010PropOp29
 70
     1
102
RTVSPost2010Prop30
280
     1
102
RTVSPost2010PropOp30
 70
     1
102
RTVSPost2010Prop31
280
     0
102
RTVSPost2010PropOp31
 70
     1
102
RTVSPost2010Prop32
280
     0
102
RTVSPost2010PropOp32
 70
     1
102
RTVSPost2010Prop33
280
     0
102
RTVSPost2010PropOp33
 70
     1
102
RTVSPost2010Prop34
280
     0
102
RTVSPost2010PropOp34
 70
     1
102
RTVSPost2010Prop35
280
     0
102
RTVSPost2010PropOp35
 70
     1
102
RTVSPost2010Prop36
280
     0
102
RTVSPost2010PropOp36
 70
     1
102
RTVSPost2010Prop37
 90
       50
102
RTVSPost2010PropOp37
 70
     1
102
RTVSPost2010Prop38
140
0.0
102
RTVSPost2010PropOp38
 70
     1
102
RTVSPost2010Prop39
140
1.0
102
RTVSPost2010PropOp39
 70
     1
102
RTVSPost2010Prop40
 90
        0
102
RTVSPost2010PropOp40
 70
     1
102
RTVSPost2010Prop41ColorIndex
 90
       18
102
RTVSPost2010Prop41ColorRGB
 90
        0
102
RTVSPost2010PropOp41
 70
     1
102
RTVSPost2010Prop42
 90
       50
102
RTVSPost2010PropOp42
 70
     1
102
RTVSPost2010Prop43
 90
        3
102
RTVSPost2010PropOp43
 70
     1
102
RTVSPost2010Prop44ColorIndex
 90
        5
102
RTVSPost2010Prop44ColorRGB
 90
      255
102
RTVSPost2010PropOp44
 70
     1
102
RTVSPost2010Prop45
280
     0
102
RTVSPost2010PropOp45
 70
     1
102
RTVSPost2010Prop46
 90
       50
102
RTVSPost2010PropOp46
 70
     1
102
RTVSPost2010Prop47
 90
       50
102
RTVSPost2010PropOp47
 70
     1
102
RTVSPost2010Prop48
 90
       50
102
RTVSPost2010PropOp48
 70
     1
102
RTVSPost2010Prop49
280
     0
102
RTVSPost2010PropOp49
 70
     1
102
RTVSPost2010Prop50
 90
       50
102
RTVSPost2010PropOp50
 70
     1
102
RTVSPost2010Prop51ColorIndex
 90
      256
102
RTVSPost2010Prop51ColorRGB
 90
-16777216
102
RTVSPost2010PropOp51
 70
     0
102
RTVSPost2010Prop52
140
1.0
102
RTVSPost2010PropOp52
 70
     0
102
RTVSPost2010Prop53
 90
        2
102
RTVSPost2010PropOp53
 70
     1
102
RTVSPost2010Prop54
  1
strokes_ogs.tif
102
RTVSPost2010PropOp54
 70
     1
102
RTVSPost2010Prop55
280
     0
102
RTVSPost2010PropOp55
 70
     1
102
RTVSPost2010Prop56
140
1.0
102
RTVSPost2010PropOp56
 70
     1
102
RTVSPost2010Prop57
140
1.0
102
RTVSPost2010PropOp57
 70
     1
102
RTVSPropertyOp0
 70
     1
102
RTVSPropertyOp1
 70
     1
102
RTVSPropertyOp2
 70
     1
102
RTVSPropertyOp3
 70
     1
102
RTVSPropertyOp4
 70
     1
102
RTVSPropertyOp5
 70
     1
102
RTVSPropertyOp6
 70
     1
102
RTVSPropertyOp7
 70
     1
102
RTVSPropertyOp8
 70
     1
102
RTVSPropertyOp9
 70
     1
102
RTVSPropertyOp10
 70
     1
102
RTVSPropertyOp11
 70
     1
102
RTVSPropertyOp12
 70
     1
102
RTVSPropertyOp13
 70
     1
102
RTVSPropertyOp14
 70
     1
102
RTVSPropertyOp15
 70
     1
102
RTVSPropertyOp16
 70
     1
102
RTVSPropertyOp17
 70
     1
102
RTVSPropertyOp18
 70
     1
102
RTVSPropertyOp19
 70
     1
102
RTVSPropertyOp20
 70
     1
102
RTVSPropertyOp21
 70
     1
102
RTVSPropertyOp22
 70
     1
102
RTVSPropertyOp23
 70
     1
102
RTVSPropertyOp24
 70
     1
102
RTVSPropertyOp25
 70
     1
102
RTVSPropertyOp26
 70
     1
102
RTVSPropertyOp27
 70
     1
102
RTVSPropertyOp28
 70
     1
102
RTVSPropertyOp29
 70
     1
102
RTVSPropertyOp30
 70
     1
102
RTVSPropertyOp31
 70
     1
102
RTVSPropertyOp32
 70
     1
102
RTVSPropertyOp33
 70
     1
102
RTVSPropertyOp34
 70
     1
102
RTVSPropertyOp35
 70
     1
102
RTVSPropertyOp36
 70
     1
102
RTVSPropertyOp37
 70
     1
102
RTVSPropertyOp38
 70
     1
102
RTVSPropertyOp39
 70
     1
102
RTVSPropertyOp40
 70
     1
102
RTVSPropertyOp41
 70
     1
102
RTVSPropertyOp42
 70
     1
102
RTVSPropertyOp43
 70
     1
102
RTVSPropertyOp44
 70
     1
102
RTVSPropertyOp45
 70
     1
102
RTVSPropertyOp46
 70
     1
102
RTVSPropertyOp47
 70
     1
102
RTVSPropertyOp48
 70
     1
102
RTVSPropertyOp49
 70
     1
102
RTVSPropertyOp50
 70
     1
102
RTVSPropertyOp51
 70
     0
102
RTVSPropertyOp52
 70
     0
102
RTVSPropertyOp53
 70
     1
102
RTVSPropertyOp54
 70
     1
102
RTVSPropertyOp55
 70
     1
102
RTVSPropertyOp56
 70
     1
102
RTVSPropertyOp57
 70
     1
102
RTVSPropertyOp58
 70
     1
102
RTVSPropertyOp59
 70
     1
102
RTVSPropertyOp60
 70
     1
102
RTVSPropertyOp61
 70
     1
102
RTVSPropertyOp62
 70
     1
  0
XRECORD
  5
1660
102
{ACAD_REACTORS
330
165F
102
}
330
165F
100
AcDbXrecord
280
     1
102
RTVSPost2010Prop28
280
     0
102
RTVSPost2010PropOp28
 70
     1
102
RTVSPost2010Prop29
280
     1
102
RTVSPost2010PropOp29
 70
     1
102
RTVSPost2010Prop30
280
     1
102
RTVSPost2010PropOp30
 70
     1
102
RTVSPost2010Prop31
280
     0
102
RTVSPost2010PropOp31
 70
     1
102
RTVSPost2010Prop32
280
     0
102
RTVSPost2010PropOp32
 70
     1
102
RTVSPost2010Prop33
280
     0
102
RTVSPost2010PropOp33
 70
     1
102
RTVSPost2010Prop34
280
     0
102
RTVSPost2010PropOp34
 70
     1
102
RTVSPost2010Prop35
280
     0
102
RTVSPost2010PropOp35
 70
     1
102
RTVSPost2010Prop36
280
     0
102
RTVSPost2010PropOp36
 70
     1
102
RTVSPost2010Prop37
 90
       50
102
RTVSPost2010PropOp37
 70
     1
102
RTVSPost2010Prop38
140
0.0
102
RTVSPost2010PropOp38
 70
     1
102
RTVSPost2010Prop39
140
1.0
102
RTVSPost2010PropOp39
 70
     1
102
RTVSPost2010Prop40
 90
        0
102
RTVSPost2010PropOp40
 70
     1
102
RTVSPost2010Prop41ColorIndex
 90
       18
102
RTVSPost2010Prop41ColorRGB
 90
        0
102
RTVSPost2010PropOp41
 70
     1
102
RTVSPost2010Prop42
 90
       50
102
RTVSPost2010PropOp42
 70
     1
102
RTVSPost2010Prop43
 90
        3
102
RTVSPost2010PropOp43
 70
     1
102
RTVSPost2010Prop44ColorIndex
 90
        5
102
RTVSPost2010Prop44ColorRGB
 90
      255
102
RTVSPost2010PropOp44
 70
     1
102
RTVSPost2010Prop45
280
     0
102
RTVSPost2010PropOp45
 70
     1
102
RTVSPost2010Prop46
 90
       50
102
RTVSPost2010PropOp46
 70
     1
102
RTVSPost2010Prop47
 90
       50
102
RTVSPost2010PropOp47
 70
     1
102
RTVSPost2010Prop48
 90
       50
102
RTVSPost2010PropOp48
 70
     1
102
RTVSPost2010Prop49
280
     0
102
RTVSPost2010PropOp49
 70
     1
102
RTVSPost2010Prop50
 90
       50
102
RTVSPost2010PropOp50
 70
     1
102
RTVSPost2010Prop51ColorIndex
 90
      256
102
RTVSPost2010Prop51ColorRGB
 90
-16777216
102
RTVSPost2010PropOp51
 70
     0
102
RTVSPost2010Prop52
140
1.0
102
RTVSPost2010PropOp52
 70
     0
102
RTVSPost2010Prop53
 90
        2
102
RTVSPost2010PropOp53
 70
     1
102
RTVSPost2010Prop54
  1
strokes_ogs.tif
102
RTVSPost2010PropOp54
 70
     1
102
RTVSPost2010Prop55
280
     0
102
RTVSPost2010PropOp55
 70
     1
102
RTVSPost2010Prop56
140
1.0
102
RTVSPost2010PropOp56
 70
     1
102
RTVSPost2010Prop57
140
1.0
102
RTVSPost2010PropOp57
 70
     1
102
RTVSPropertyOp0
 70
     1
102
RTVSPropertyOp1
 70
     1
102
RTVSPropertyOp2
 70
     1
102
RTVSPropertyOp3
 70
     1
102
RTVSPropertyOp4
 70
     1
102
RTVSPropertyOp5
 70
     1
102
RTVSPropertyOp6
 70
     1
102
RTVSPropertyOp7
 70
     1
102
RTVSPropertyOp8
 70
     1
102
RTVSPropertyOp9
 70
     1
102
RTVSPropertyOp10
 70
     1
102
RTVSPropertyOp11
 70
     1
102
RTVSPropertyOp12
 70
     1
102
RTVSPropertyOp13
 70
     1
102
RTVSPropertyOp14
 70
     1
102
RTVSPropertyOp15
 70
     1
102
RTVSPropertyOp16
 70
     1
102
RTVSPropertyOp17
 70
     1
102
RTVSPropertyOp18
 70
     1
102
RTVSPropertyOp19
 70
     1
102
RTVSPropertyOp20
 70
     1
102
RTVSPropertyOp21
 70
     1
102
RTVSPropertyOp22
 70
     1
102
RTVSPropertyOp23
 70
     1
102
RTVSPropertyOp24
 70
     1
102
RTVSPropertyOp25
 70
     1
102
RTVSPropertyOp26
 70
     1
102
RTVSPropertyOp27
 70
     1
102
RTVSPropertyOp28
 70
     1
102
RTVSPropertyOp29
 70
     1
102
RTVSPropertyOp30
 70
     1
102
RTVSPropertyOp31
 70
     1
102
RTVSPropertyOp32
 70
     1
102
RTVSPropertyOp33
 70
     1
102
RTVSPropertyOp34
 70
     1
102
RTVSPropertyOp35
 70
     1
102
RTVSPropertyOp36
 70
     1
102
RTVSPropertyOp37
 70
     1
102
RTVSPropertyOp38
 70
     1
102
RTVSPropertyOp39
 70
     1
102
RTVSPropertyOp40
 70
     1
102
RTVSPropertyOp41
 70
     1
102
RTVSPropertyOp42
 70
     1
102
RTVSPropertyOp43
 70
     1
102
RTVSPropertyOp44
 70
     1
102
RTVSPropertyOp45
 70
     1
102
RTVSPropertyOp46
 70
     1
102
RTVSPropertyOp47
 70
     1
102
RTVSPropertyOp48
 70
     1
102
RTVSPropertyOp49
 70
     1
102
RTVSPropertyOp50
 70
     1
102
RTVSPropertyOp51
 70
     0
102
RTVSPropertyOp52
 70
     0
102
RTVSPropertyOp53
 70
     1
102
RTVSPropertyOp54
 70
     1
102
RTVSPropertyOp55
 70
     1
102
RTVSPropertyOp56
 70
     1
102
RTVSPropertyOp57
 70
     1
102
RTVSPropertyOp58
 70
     1
102
RTVSPropertyOp59
 70
     1
102
RTVSPropertyOp60
 70
     1
102
RTVSPropertyOp61
 70
     1
102
RTVSPropertyOp62
 70
     1
  0
XRECORD
  5
1662
102
{ACAD_REACTORS
330
1661
102
}
330
1661
100
AcDbXrecord
280
     1
102
RTVSPost2010Prop28
280
     0
102
RTVSPost2010PropOp28
 70
     1
102
RTVSPost2010Prop29
280
     1
102
RTVSPost2010PropOp29
 70
     1
102
RTVSPost2010Prop30
280
     1
102
RTVSPost2010PropOp30
 70
     1
102
RTVSPost2010Prop31
280
     0
102
RTVSPost2010PropOp31
 70
     1
102
RTVSPost2010Prop32
280
     0
102
RTVSPost2010PropOp32
 70
     1
102
RTVSPost2010Prop33
280
     0
102
RTVSPost2010PropOp33
 70
     1
102
RTVSPost2010Prop34
280
     0
102
RTVSPost2010PropOp34
 70
     1
102
RTVSPost2010Prop35
280
     0
102
RTVSPost2010PropOp35
 70
     1
102
RTVSPost2010Prop36
280
     0
102
RTVSPost2010PropOp36
 70
     1
102
RTVSPost2010Prop37
 90
       50
102
RTVSPost2010PropOp37
 70
     1
102
RTVSPost2010Prop38
140
0.0
102
RTVSPost2010PropOp38
 70
     1
102
RTVSPost2010Prop39
140
1.0
102
RTVSPost2010PropOp39
 70
     1
102
RTVSPost2010Prop40
 90
        0
102
RTVSPost2010PropOp40
 70
     1
102
RTVSPost2010Prop41ColorIndex
 90
       18
102
RTVSPost2010Prop41ColorRGB
 90
        0
102
RTVSPost2010PropOp41
 70
     1
102
RTVSPost2010Prop42
 90
       50
102
RTVSPost2010PropOp42
 70
     1
102
RTVSPost2010Prop43
 90
        3
102
RTVSPost2010PropOp43
 70
     1
102
RTVSPost2010Prop44ColorIndex
 90
        5
102
RTVSPost2010Prop44ColorRGB
 90
      255
102
RTVSPost2010PropOp44
 70
     1
102
RTVSPost2010Prop45
280
     0
102
RTVSPost2010PropOp45
 70
     1
102
RTVSPost2010Prop46
 90
       50
102
RTVSPost2010PropOp46
 70
     1
102
RTVSPost2010Prop47
 90
       50
102
RTVSPost2010PropOp47
 70
     1
102
RTVSPost2010Prop48
 90
       50
102
RTVSPost2010PropOp48
 70
     1
102
RTVSPost2010Prop49
280
     0
102
RTVSPost2010PropOp49
 70
     1
102
RTVSPost2010Prop50
 90
       50
102
RTVSPost2010PropOp50
 70
     1
102
RTVSPost2010Prop51ColorIndex
 90
      256
102
RTVSPost2010Prop51ColorRGB
 90
-16777216
102
RTVSPost2010PropOp51
 70
     0
102
RTVSPost2010Prop52
140
1.0
102
RTVSPost2010PropOp52
 70
     0
102
RTVSPost2010Prop53
 90
        2
102
RTVSPost2010PropOp53
 70
     1
102
RTVSPost2010Prop54
  1
strokes_ogs.tif
102
RTVSPost2010PropOp54
 70
     1
102
RTVSPost2010Prop55
280
     0
102
RTVSPost2010PropOp55
 70
     1
102
RTVSPost2010Prop56
140
1.0
102
RTVSPost2010PropOp56
 70
     1
102
RTVSPost2010Prop57
140
1.0
102
RTVSPost2010PropOp57
 70
     1
102
RTVSPropertyOp0
 70
     1
102
RTVSPropertyOp1
 70
     1
102
RTVSPropertyOp2
 70
     1
102
RTVSPropertyOp3
 70
     1
102
RTVSPropertyOp4
 70
     1
102
RTVSPropertyOp5
 70
     1
102
RTVSPropertyOp6
 70
     1
102
RTVSPropertyOp7
 70
     1
102
RTVSPropertyOp8
 70
     1
102
RTVSPropertyOp9
 70
     1
102
RTVSPropertyOp10
 70
     1
102
RTVSPropertyOp11
 70
     1
102
RTVSPropertyOp12
 70
     1
102
RTVSPropertyOp13
 70
     1
102
RTVSPropertyOp14
 70
     1
102
RTVSPropertyOp15
 70
     1
102
RTVSPropertyOp16
 70
     1
102
RTVSPropertyOp17
 70
     1
102
RTVSPropertyOp18
 70
     1
102
RTVSPropertyOp19
 70
     1
102
RTVSPropertyOp20
 70
     1
102
RTVSPropertyOp21
 70
     1
102
RTVSPropertyOp22
 70
     1
102
RTVSPropertyOp23
 70
     1
102
RTVSPropertyOp24
 70
     1
102
RTVSPropertyOp25
 70
     1
102
RTVSPropertyOp26
 70
     1
102
RTVSPropertyOp27
 70
     1
102
RTVSPropertyOp28
 70
     1
102
RTVSPropertyOp29
 70
     1
102
RTVSPropertyOp30
 70
     1
102
RTVSPropertyOp31
 70
     1
102
RTVSPropertyOp32
 70
     1
102
RTVSPropertyOp33
 70
     1
102
RTVSPropertyOp34
 70
     1
102
RTVSPropertyOp35
 70
     1
102
RTVSPropertyOp36
 70
     1
102
RTVSPropertyOp37
 70
     1
102
RTVSPropertyOp38
 70
     1
102
RTVSPropertyOp39
 70
     1
102
RTVSPropertyOp40
 70
     1
102
RTVSPropertyOp41
 70
     1
102
RTVSPropertyOp42
 70
     1
102
RTVSPropertyOp43
 70
     1
102
RTVSPropertyOp44
 70
     1
102
RTVSPropertyOp45
 70
     1
102
RTVSPropertyOp46
 70
     1
102
RTVSPropertyOp47
 70
     1
102
RTVSPropertyOp48
 70
     1
102
RTVSPropertyOp49
 70
     1
102
RTVSPropertyOp50
 70
     1
102
RTVSPropertyOp51
 70
     0
102
RTVSPropertyOp52
 70
     0
102
RTVSPropertyOp53
 70
     1
102
RTVSPropertyOp54
 70
     1
102
RTVSPropertyOp55
 70
     1
102
RTVSPropertyOp56
 70
     1
102
RTVSPropertyOp57
 70
     1
102
RTVSPropertyOp58
 70
     1
102
RTVSPropertyOp59
 70
     1
102
RTVSPropertyOp60
 70
     1
102
RTVSPropertyOp61
 70
     1
102
RTVSPropertyOp62
 70
     1
  0
XRECORD
  5
1664
102
{ACAD_REACTORS
330
1663
102
}
330
1663
100
AcDbXrecord
280
     1
102
RTVSPost2010Prop28
280
     0
102
RTVSPost2010PropOp28
 70
     1
102
RTVSPost2010Prop29
280
     1
102
RTVSPost2010PropOp29
 70
     1
102
RTVSPost2010Prop30
280
     1
102
RTVSPost2010PropOp30
 70
     1
102
RTVSPost2010Prop31
280
     0
102
RTVSPost2010PropOp31
 70
     1
102
RTVSPost2010Prop32
280
     0
102
RTVSPost2010PropOp32
 70
     1
102
RTVSPost2010Prop33
280
     0
102
RTVSPost2010PropOp33
 70
     1
102
RTVSPost2010Prop34
280
     0
102
RTVSPost2010PropOp34
 70
     1
102
RTVSPost2010Prop35
280
     0
102
RTVSPost2010PropOp35
 70
     1
102
RTVSPost2010Prop36
280
     0
102
RTVSPost2010PropOp36
 70
     1
102
RTVSPost2010Prop37
 90
       50
102
RTVSPost2010PropOp37
 70
     1
102
RTVSPost2010Prop38
140
0.0
102
RTVSPost2010PropOp38
 70
     1
102
RTVSPost2010Prop39
140
1.0
102
RTVSPost2010PropOp39
 70
     1
102
RTVSPost2010Prop40
 90
        0
102
RTVSPost2010PropOp40
 70
     1
102
RTVSPost2010Prop41ColorIndex
 90
       18
102
RTVSPost2010Prop41ColorRGB
 90
        0
102
RTVSPost2010PropOp41
 70
     1
102
RTVSPost2010Prop42
 90
       50
102
RTVSPost2010PropOp42
 70
     1
102
RTVSPost2010Prop43
 90
        3
102
RTVSPost2010PropOp43
 70
     1
102
RTVSPost2010Prop44ColorIndex
 90
        5
102
RTVSPost2010Prop44ColorRGB
 90
      255
102
RTVSPost2010PropOp44
 70
     1
102
RTVSPost2010Prop45
280
     0
102
RTVSPost2010PropOp45
 70
     1
102
RTVSPost2010Prop46
 90
       50
102
RTVSPost2010PropOp46
 70
     1
102
RTVSPost2010Prop47
 90
       50
102
RTVSPost2010PropOp47
 70
     1
102
RTVSPost2010Prop48
 90
       50
102
RTVSPost2010PropOp48
 70
     1
102
RTVSPost2010Prop49
280
     0
102
RTVSPost2010PropOp49
 70
     1
102
RTVSPost2010Prop50
 90
       50
102
RTVSPost2010PropOp50
 70
     1
102
RTVSPost2010Prop51ColorIndex
 90
      256
102
RTVSPost2010Prop51ColorRGB
 90
-16777216
102
RTVSPost2010PropOp51
 70
     0
102
RTVSPost2010Prop52
140
1.0
102
RTVSPost2010PropOp52
 70
     0
102
RTVSPost2010Prop53
 90
        2
102
RTVSPost2010PropOp53
 70
     1
102
RTVSPost2010Prop54
  1
strokes_ogs.tif
102
RTVSPost2010PropOp54
 70
     1
102
RTVSPost2010Prop55
280
     0
102
RTVSPost2010PropOp55
 70
     1
102
RTVSPost2010Prop56
140
1.0
102
RTVSPost2010PropOp56
 70
     1
102
RTVSPost2010Prop57
140
1.0
102
RTVSPost2010PropOp57
 70
     1
102
RTVSPropertyOp0
 70
     1
102
RTVSPropertyOp1
 70
     1
102
RTVSPropertyOp2
 70
     1
102
RTVSPropertyOp3
 70
     1
102
RTVSPropertyOp4
 70
     1
102
RTVSPropertyOp5
 70
     1
102
RTVSPropertyOp6
 70
     1
102
RTVSPropertyOp7
 70
     1
102
RTVSPropertyOp8
 70
     1
102
RTVSPropertyOp9
 70
     1
102
RTVSPropertyOp10
 70
     1
102
RTVSPropertyOp11
 70
     1
102
RTVSPropertyOp12
 70
     1
102
RTVSPropertyOp13
 70
     1
102
RTVSPropertyOp14
 70
     1
102
RTVSPropertyOp15
 70
     1
102
RTVSPropertyOp16
 70
     1
102
RTVSPropertyOp17
 70
     1
102
RTVSPropertyOp18
 70
     1
102
RTVSPropertyOp19
 70
     1
102
RTVSPropertyOp20
 70
     1
102
RTVSPropertyOp21
 70
     1
102
RTVSPropertyOp22
 70
     1
102
RTVSPropertyOp23
 70
     1
102
RTVSPropertyOp24
 70
     1
102
RTVSPropertyOp25
 70
     1
102
RTVSPropertyOp26
 70
     1
102
RTVSPropertyOp27
 70
     1
102
RTVSPropertyOp28
 70
     1
102
RTVSPropertyOp29
 70
     1
102
RTVSPropertyOp30
 70
     1
102
RTVSPropertyOp31
 70
     1
102
RTVSPropertyOp32
 70
     1
102
RTVSPropertyOp33
 70
     1
102
RTVSPropertyOp34
 70
     1
102
RTVSPropertyOp35
 70
     1
102
RTVSPropertyOp36
 70
     1
102
RTVSPropertyOp37
 70
     1
102
RTVSPropertyOp38
 70
     1
102
RTVSPropertyOp39
 70
     1
102
RTVSPropertyOp40
 70
     1
102
RTVSPropertyOp41
 70
     1
102
RTVSPropertyOp42
 70
     1
102
RTVSPropertyOp43
 70
     1
102
RTVSPropertyOp44
 70
     1
102
RTVSPropertyOp45
 70
     1
102
RTVSPropertyOp46
 70
     1
102
RTVSPropertyOp47
 70
     1
102
RTVSPropertyOp48
 70
     1
102
RTVSPropertyOp49
 70
     1
102
RTVSPropertyOp50
 70
     1
102
RTVSPropertyOp51
 70
     0
102
RTVSPropertyOp52
 70
     0
102
RTVSPropertyOp53
 70
     1
102
RTVSPropertyOp54
 70
     1
102
RTVSPropertyOp55
 70
     1
102
RTVSPropertyOp56
 70
     1
102
RTVSPropertyOp57
 70
     1
102
RTVSPropertyOp58
 70
     1
102
RTVSPropertyOp59
 70
     1
102
RTVSPropertyOp60
 70
     1
102
RTVSPropertyOp61
 70
     1
102
RTVSPropertyOp62
 70
     1
  0
XRECORD
  5
166C
102
{ACAD_REACTORS
330
166B
102
}
330
166B
100
AcDbXrecord
280
     1
102
RTVSPost2010Prop28
280
     0
102
RTVSPost2010PropOp28
 70
     1
102
RTVSPost2010Prop29
280
     1
102
RTVSPost2010PropOp29
 70
     1
102
RTVSPost2010Prop30
280
     1
102
RTVSPost2010PropOp30
 70
     1
102
RTVSPost2010Prop31
280
     0
102
RTVSPost2010PropOp31
 70
     1
102
RTVSPost2010Prop32
280
     0
102
RTVSPost2010PropOp32
 70
     1
102
RTVSPost2010Prop33
280
     0
102
RTVSPost2010PropOp33
 70
     1
102
RTVSPost2010Prop34
280
     0
102
RTVSPost2010PropOp34
 70
     1
102
RTVSPost2010Prop35
280
     0
102
RTVSPost2010PropOp35
 70
     1
102
RTVSPost2010Prop36
280
     0
102
RTVSPost2010PropOp36
 70
     1
102
RTVSPost2010Prop37
 90
       50
102
RTVSPost2010PropOp37
 70
     1
102
RTVSPost2010Prop38
140
0.0
102
RTVSPost2010PropOp38
 70
     1
102
RTVSPost2010Prop39
140
1.0
102
RTVSPost2010PropOp39
 70
     1
102
RTVSPost2010Prop40
 90
        0
102
RTVSPost2010PropOp40
 70
     1
102
RTVSPost2010Prop41ColorIndex
 90
       18
102
RTVSPost2010Prop41ColorRGB
 90
        0
102
RTVSPost2010PropOp41
 70
     1
102
RTVSPost2010Prop42
 90
       50
102
RTVSPost2010PropOp42
 70
     1
102
RTVSPost2010Prop43
 90
        3
102
RTVSPost2010PropOp43
 70
     1
102
RTVSPost2010Prop44ColorIndex
 90
        5
102
RTVSPost2010Prop44ColorRGB
 90
      255
102
RTVSPost2010PropOp44
 70
     1
102
RTVSPost2010Prop45
280
     0
102
RTVSPost2010PropOp45
 70
     1
102
RTVSPost2010Prop46
 90
       50
102
RTVSPost2010PropOp46
 70
     1
102
RTVSPost2010Prop47
 90
       50
102
RTVSPost2010PropOp47
 70
     1
102
RTVSPost2010Prop48
 90
       50
102
RTVSPost2010PropOp48
 70
     1
102
RTVSPost2010Prop49
280
     0
102
RTVSPost2010PropOp49
 70
     1
102
RTVSPost2010Prop50
 90
       50
102
RTVSPost2010PropOp50
 70
     1
102
RTVSPost2010Prop51ColorIndex
 90
      256
102
RTVSPost2010Prop51ColorRGB
 90
-16777216
102
RTVSPost2010PropOp51
 70
     0
102
RTVSPost2010Prop52
140
1.0
102
RTVSPost2010PropOp52
 70
     0
102
RTVSPost2010Prop53
 90
        2
102
RTVSPost2010PropOp53
 70
     1
102
RTVSPost2010Prop54
  1
strokes_ogs.tif
102
RTVSPost2010PropOp54
 70
     1
102
RTVSPost2010Prop55
280
     0
102
RTVSPost2010PropOp55
 70
     1
102
RTVSPost2010Prop56
140
1.0
102
RTVSPost2010PropOp56
 70
     1
102
RTVSPost2010Prop57
140
1.0
102
RTVSPost2010PropOp57
 70
     1
102
RTVSPropertyOp0
 70
     1
102
RTVSPropertyOp1
 70
     1
102
RTVSPropertyOp2
 70
     1
102
RTVSPropertyOp3
 70
     1
102
RTVSPropertyOp4
 70
     1
102
RTVSPropertyOp5
 70
     1
102
RTVSPropertyOp6
 70
     1
102
RTVSPropertyOp7
 70
     1
102
RTVSPropertyOp8
 70
     1
102
RTVSPropertyOp9
 70
     1
102
RTVSPropertyOp10
 70
     1
102
RTVSPropertyOp11
 70
     1
102
RTVSPropertyOp12
 70
     1
102
RTVSPropertyOp13
 70
     1
102
RTVSPropertyOp14
 70
     1
102
RTVSPropertyOp15
 70
     1
102
RTVSPropertyOp16
 70
     1
102
RTVSPropertyOp17
 70
     1
102
RTVSPropertyOp18
 70
     1
102
RTVSPropertyOp19
 70
     1
102
RTVSPropertyOp20
 70
     1
102
RTVSPropertyOp21
 70
     1
102
RTVSPropertyOp22
 70
     1
102
RTVSPropertyOp23
 70
     1
102
RTVSPropertyOp24
 70
     1
102
RTVSPropertyOp25
 70
     1
102
RTVSPropertyOp26
 70
     1
102
RTVSPropertyOp27
 70
     1
102
RTVSPropertyOp28
 70
     1
102
RTVSPropertyOp29
 70
     1
102
RTVSPropertyOp30
 70
     1
102
RTVSPropertyOp31
 70
     1
102
RTVSPropertyOp32
 70
     1
102
RTVSPropertyOp33
 70
     1
102
RTVSPropertyOp34
 70
     1
102
RTVSPropertyOp35
 70
     1
102
RTVSPropertyOp36
 70
     1
102
RTVSPropertyOp37
 70
     1
102
RTVSPropertyOp38
 70
     1
102
RTVSPropertyOp39
 70
     1
102
RTVSPropertyOp40
 70
     1
102
RTVSPropertyOp41
 70
     1
102
RTVSPropertyOp42
 70
     1
102
RTVSPropertyOp43
 70
     1
102
RTVSPropertyOp44
 70
     1
102
RTVSPropertyOp45
 70
     1
102
RTVSPropertyOp46
 70
     1
102
RTVSPropertyOp47
 70
     1
102
RTVSPropertyOp48
 70
     1
102
RTVSPropertyOp49
 70
     1
102
RTVSPropertyOp50
 70
     1
102
RTVSPropertyOp51
 70
     0
102
RTVSPropertyOp52
 70
     0
102
RTVSPropertyOp53
 70
     1
102
RTVSPropertyOp54
 70
     1
102
RTVSPropertyOp55
 70
     1
102
RTVSPropertyOp56
 70
     1
102
RTVSPropertyOp57
 70
     1
102
RTVSPropertyOp58
 70
     1
102
RTVSPropertyOp59
 70
     1
102
RTVSPropertyOp60
 70
     1
102
RTVSPropertyOp61
 70
     1
102
RTVSPropertyOp62
 70
     1
  0
XRECORD
  5
1688
102
{ACAD_REACTORS
330
1687
102
}
330
1687
100
AcDbXrecord
280
     1
102
RTVSPost2010Prop28
280
     0
102
RTVSPost2010PropOp28
 70
     1
102
RTVSPost2010Prop29
280
     1
102
RTVSPost2010PropOp29
 70
     1
102
RTVSPost2010Prop30
280
     1
102
RTVSPost2010PropOp30
 70
     1
102
RTVSPost2010Prop31
280
     0
102
RTVSPost2010PropOp31
 70
     1
102
RTVSPost2010Prop32
280
     0
102
RTVSPost2010PropOp32
 70
     1
102
RTVSPost2010Prop33
280
     0
102
RTVSPost2010PropOp33
 70
     1
102
RTVSPost2010Prop34
280
     0
102
RTVSPost2010PropOp34
 70
     1
102
RTVSPost2010Prop35
280
     0
102
RTVSPost2010PropOp35
 70
     1
102
RTVSPost2010Prop36
280
     0
102
RTVSPost2010PropOp36
 70
     1
102
RTVSPost2010Prop37
 90
       50
102
RTVSPost2010PropOp37
 70
     0
102
RTVSPost2010Prop38
140
0.0
102
RTVSPost2010PropOp38
 70
     0
102
RTVSPost2010Prop39
140
1.0
102
RTVSPost2010PropOp39
 70
     0
102
RTVSPost2010Prop40
 90
        0
102
RTVSPost2010PropOp40
 70
     0
102
RTVSPost2010Prop41ColorIndex
 90
       18
102
RTVSPost2010Prop41ColorRGB
 90
        0
102
RTVSPost2010PropOp41
 70
     0
102
RTVSPost2010Prop42
 90
       50
102
RTVSPost2010PropOp42
 70
     0
102
RTVSPost2010Prop43
 90
        3
102
RTVSPost2010PropOp43
 70
     0
102
RTVSPost2010Prop44ColorIndex
 90
        5
102
RTVSPost2010Prop44ColorRGB
 90
      255
102
RTVSPost2010PropOp44
 70
     0
102
RTVSPost2010Prop45
280
     0
102
RTVSPost2010PropOp45
 70
     1
102
RTVSPost2010Prop46
 90
       50
102
RTVSPost2010PropOp46
 70
     0
102
RTVSPost2010Prop47
 90
       50
102
RTVSPost2010PropOp47
 70
     0
102
RTVSPost2010Prop48
 90
       50
102
RTVSPost2010PropOp48
 70
     0
102
RTVSPost2010Prop49
280
     0
102
RTVSPost2010PropOp49
 70
     1
102
RTVSPost2010Prop50
 90
       50
102
RTVSPost2010PropOp50
 70
     0
102
RTVSPost2010Prop51ColorIndex
 90
      256
102
RTVSPost2010Prop51ColorRGB
 90
-16777216
102
RTVSPost2010PropOp51
 70
     0
102
RTVSPost2010Prop52
140
1.0
102
RTVSPost2010PropOp52
 70
     0
102
RTVSPost2010Prop53
 90
        2
102
RTVSPost2010PropOp53
 70
     0
102
RTVSPost2010Prop54
  1
strokes_ogs.tif
102
RTVSPost2010PropOp54
 70
     0
102
RTVSPost2010Prop55
280
     0
102
RTVSPost2010PropOp55
 70
     1
102
RTVSPost2010Prop56
140
1.0
102
RTVSPost2010PropOp56
 70
     0
102
RTVSPost2010Prop57
140
1.0
102
RTVSPost2010PropOp57
 70
     0
102
RTVSPropertyOp0
 70
     0
102
RTVSPropertyOp1
 70
     0
102
RTVSPropertyOp2
 70
     0
102
RTVSPropertyOp3
 70
     0
102
RTVSPropertyOp4
 70
     0
102
RTVSPropertyOp5
 70
     0
102
RTVSPropertyOp6
 70
     0
102
RTVSPropertyOp7
 70
     0
102
RTVSPropertyOp8
 70
     0
102
RTVSPropertyOp9
 70
     0
102
RTVSPropertyOp10
 70
     0
102
RTVSPropertyOp11
 70
     0
102
RTVSPropertyOp12
 70
     0
102
RTVSPropertyOp13
 70
     0
102
RTVSPropertyOp14
 70
     2
102
RTVSPropertyOp15
 70
     0
102
RTVSPropertyOp16
 70
     0
102
RTVSPropertyOp17
 70
     0
102
RTVSPropertyOp18
 70
     0
102
RTVSPropertyOp19
 70
     0
102
RTVSPropertyOp20
 70
     0
102
RTVSPropertyOp21
 70
     0
102
RTVSPropertyOp22
 70
     0
102
RTVSPropertyOp23
 70
     0
102
RTVSPropertyOp24
 70
     0
102
RTVSPropertyOp25
 70
     0
102
RTVSPropertyOp26
 70
     0
102
RTVSPropertyOp27
 70
     0
102
RTVSPropertyOp28
 70
     1
102
RTVSPropertyOp29
 70
     1
102
RTVSPropertyOp30
 70
     1
102
RTVSPropertyOp31
 70
     1
102
RTVSPropertyOp32
 70
     1
102
RTVSPropertyOp33
 70
     1
102
RTVSPropertyOp34
 70
     1
102
RTVSPropertyOp35
 70
     1
102
RTVSPropertyOp36
 70
     1
102
RTVSPropertyOp37
 70
     0
102
RTVSPropertyOp38
 70
     0
102
RTVSPropertyOp39
 70
     0
102
RTVSPropertyOp40
 70
     0
102
RTVSPropertyOp41
 70
     0
102
RTVSPropertyOp42
 70
     0
102
RTVSPropertyOp43
 70
     0
102
RTVSPropertyOp44
 70
     0
102
RTVSPropertyOp45
 70
     1
102
RTVSPropertyOp46
 70
     0
102
RTVSPropertyOp47
 70
     0
102
RTVSPropertyOp48
 70
     0
102
RTVSPropertyOp49
 70
     1
102
RTVSPropertyOp50
 70
     0
102
RTVSPropertyOp51
 70
     0
102
RTVSPropertyOp52
 70
     0
102
RTVSPropertyOp53
 70
     0
102
RTVSPropertyOp54
 70
     0
102
RTVSPropertyOp55
 70
     1
102
RTVSPropertyOp56
 70
     0
102
RTVSPropertyOp57
 70
     0
102
RTVSPropertyOp58
 70
     0
102
RTVSPropertyOp59
 70
     0
102
RTVSPropertyOp60
 70
     0
102
RTVSPropertyOp61
 70
     0
102
RTVSPropertyOp62
 70
     0
  0
XRECORD
  5
1678
102
{ACAD_REACTORS
330
1677
102
}
330
1677
100
AcDbXrecord
280
     1
102
RTVSPost2010Prop28
280
     0
102
RTVSPost2010PropOp28
 70
     1
102
RTVSPost2010Prop29
280
     1
102
RTVSPost2010PropOp29
 70
     1
102
RTVSPost2010Prop30
280
     1
102
RTVSPost2010PropOp30
 70
     1
102
RTVSPost2010Prop31
280
     0
102
RTVSPost2010PropOp31
 70
     1
102
RTVSPost2010Prop32
280
     0
102
RTVSPost2010PropOp32
 70
     1
102
RTVSPost2010Prop33
280
     0
102
RTVSPost2010PropOp33
 70
     1
102
RTVSPost2010Prop34
280
     0
102
RTVSPost2010PropOp34
 70
     1
102
RTVSPost2010Prop35
280
     0
102
RTVSPost2010PropOp35
 70
     1
102
RTVSPost2010Prop36
280
     0
102
RTVSPost2010PropOp36
 70
     1
102
RTVSPost2010Prop37
 90
       50
102
RTVSPost2010PropOp37
 70
     1
102
RTVSPost2010Prop38
140
0.0
102
RTVSPost2010PropOp38
 70
     1
102
RTVSPost2010Prop39
140
1.0
102
RTVSPost2010PropOp39
 70
     1
102
RTVSPost2010Prop40
 90
        0
102
RTVSPost2010PropOp40
 70
     1
102
RTVSPost2010Prop41ColorIndex
 90
       18
102
RTVSPost2010Prop41ColorRGB
 90
        0
102
RTVSPost2010PropOp41
 70
     1
102
RTVSPost2010Prop42
 90
       50
102
RTVSPost2010PropOp42
 70
     1
102
RTVSPost2010Prop43
 90
        3
102
RTVSPost2010PropOp43
 70
     1
102
RTVSPost2010Prop44ColorIndex
 90
        5
102
RTVSPost2010Prop44ColorRGB
 90
      255
102
RTVSPost2010PropOp44
 70
     1
102
RTVSPost2010Prop45
280
     0
102
RTVSPost2010PropOp45
 70
     1
102
RTVSPost2010Prop46
 90
       50
102
RTVSPost2010PropOp46
 70
     1
102
RTVSPost2010Prop47
 90
       50
102
RTVSPost2010PropOp47
 70
     1
102
RTVSPost2010Prop48
 90
       50
102
RTVSPost2010PropOp48
 70
     1
102
RTVSPost2010Prop49
280
     0
102
RTVSPost2010PropOp49
 70
     1
102
RTVSPost2010Prop50
 90
       50
102
RTVSPost2010PropOp50
 70
     1
102
RTVSPost2010Prop51ColorIndex
 90
      256
102
RTVSPost2010Prop51ColorRGB
 90
-16777216
102
RTVSPost2010PropOp51
 70
     0
102
RTVSPost2010Prop52
140
1.0
102
RTVSPost2010PropOp52
 70
     0
102
RTVSPost2010Prop53
 90
        2
102
RTVSPost2010PropOp53
 70
     1
102
RTVSPost2010Prop54
  1
strokes_ogs.tif
102
RTVSPost2010PropOp54
 70
     1
102
RTVSPost2010Prop55
280
     0
102
RTVSPost2010PropOp55
 70
     1
102
RTVSPost2010Prop56
140
1.0
102
RTVSPost2010PropOp56
 70
     1
102
RTVSPost2010Prop57
140
1.0
102
RTVSPost2010PropOp57
 70
     1
102
RTVSPropertyOp0
 70
     1
102
RTVSPropertyOp1
 70
     1
102
RTVSPropertyOp2
 70
     1
102
RTVSPropertyOp3
 70
     1
102
RTVSPropertyOp4
 70
     1
102
RTVSPropertyOp5
 70
     1
102
RTVSPropertyOp6
 70
     1
102
RTVSPropertyOp7
 70
     1
102
RTVSPropertyOp8
 70
     1
102
RTVSPropertyOp9
 70
     1
102
RTVSPropertyOp10
 70
     1
102
RTVSPropertyOp11
 70
     1
102
RTVSPropertyOp12
 70
     1
102
RTVSPropertyOp13
 70
     1
102
RTVSPropertyOp14
 70
     1
102
RTVSPropertyOp15
 70
     1
102
RTVSPropertyOp16
 70
     1
102
RTVSPropertyOp17
 70
     1
102
RTVSPropertyOp18
 70
     1
102
RTVSPropertyOp19
 70
     1
102
RTVSPropertyOp20
 70
     1
102
RTVSPropertyOp21
 70
     1
102
RTVSPropertyOp22
 70
     1
102
RTVSPropertyOp23
 70
     1
102
RTVSPropertyOp24
 70
     1
102
RTVSPropertyOp25
 70
     1
102
RTVSPropertyOp26
 70
     1
102
RTVSPropertyOp27
 70
     1
102
RTVSPropertyOp28
 70
     1
102
RTVSPropertyOp29
 70
     1
102
RTVSPropertyOp30
 70
     1
102
RTVSPropertyOp31
 70
     1
102
RTVSPropertyOp32
 70
     1
102
RTVSPropertyOp33
 70
     1
102
RTVSPropertyOp34
 70
     1
102
RTVSPropertyOp35
 70
     1
102
RTVSPropertyOp36
 70
     1
102
RTVSPropertyOp37
 70
     1
102
RTVSPropertyOp38
 70
     1
102
RTVSPropertyOp39
 70
     1
102
RTVSPropertyOp40
 70
     1
102
RTVSPropertyOp41
 70
     1
102
RTVSPropertyOp42
 70
     1
102
RTVSPropertyOp43
 70
     1
102
RTVSPropertyOp44
 70
     1
102
RTVSPropertyOp45
 70
     1
102
RTVSPropertyOp46
 70
     1
102
RTVSPropertyOp47
 70
     1
102
RTVSPropertyOp48
 70
     1
102
RTVSPropertyOp49
 70
     1
102
RTVSPropertyOp50
 70
     1
102
RTVSPropertyOp51
 70
     0
102
RTVSPropertyOp52
 70
     0
102
RTVSPropertyOp53
 70
     1
102
RTVSPropertyOp54
 70
     1
102
RTVSPropertyOp55
 70
     1
102
RTVSPropertyOp56
 70
     1
102
RTVSPropertyOp57
 70
     1
102
RTVSPropertyOp58
 70
     1
102
RTVSPropertyOp59
 70
     1
102
RTVSPropertyOp60
 70
     1
102
RTVSPropertyOp61
 70
     1
102
RTVSPropertyOp62
 70
     1
  0
XRECORD
  5
168A
102
{ACAD_REACTORS
330
1689
102
}
330
1689
100
AcDbXrecord
280
     1
102
RTVSPost2010Prop28
280
     0
102
RTVSPost2010PropOp28
 70
     1
102
RTVSPost2010Prop29
280
     1
102
RTVSPost2010PropOp29
 70
     1
102
RTVSPost2010Prop30
280
     1
102
RTVSPost2010PropOp30
 70
     1
102
RTVSPost2010Prop31
280
     0
102
RTVSPost2010PropOp31
 70
     1
102
RTVSPost2010Prop32
280
     0
102
RTVSPost2010PropOp32
 70
     1
102
RTVSPost2010Prop33
280
     0
102
RTVSPost2010PropOp33
 70
     1
102
RTVSPost2010Prop34
280
     0
102
RTVSPost2010PropOp34
 70
     1
102
RTVSPost2010Prop35
280
     0
102
RTVSPost2010PropOp35
 70
     1
102
RTVSPost2010Prop36
280
     0
102
RTVSPost2010PropOp36
 70
     1
102
RTVSPost2010Prop37
 90
       50
102
RTVSPost2010PropOp37
 70
     0
102
RTVSPost2010Prop38
140
0.0
102
RTVSPost2010PropOp38
 70
     0
102
RTVSPost2010Prop39
140
1.0
102
RTVSPost2010PropOp39
 70
     0
102
RTVSPost2010Prop40
 90
        0
102
RTVSPost2010PropOp40
 70
     0
102
RTVSPost2010Prop41ColorIndex
 90
       18
102
RTVSPost2010Prop41ColorRGB
 90
        0
102
RTVSPost2010PropOp41
 70
     0
102
RTVSPost2010Prop42
 90
       50
102
RTVSPost2010PropOp42
 70
     0
102
RTVSPost2010Prop43
 90
        3
102
RTVSPost2010PropOp43
 70
     0
102
RTVSPost2010Prop44ColorIndex
 90
        5
102
RTVSPost2010Prop44ColorRGB
 90
      255
102
RTVSPost2010PropOp44
 70
     0
102
RTVSPost2010Prop45
280
     0
102
RTVSPost2010PropOp45
 70
     1
102
RTVSPost2010Prop46
 90
       50
102
RTVSPost2010PropOp46
 70
     0
102
RTVSPost2010Prop47
 90
       50
102
RTVSPost2010PropOp47
 70
     0
102
RTVSPost2010Prop48
 90
       50
102
RTVSPost2010PropOp48
 70
     0
102
RTVSPost2010Prop49
280
     0
102
RTVSPost2010PropOp49
 70
     1
102
RTVSPost2010Prop50
 90
       50
102
RTVSPost2010PropOp50
 70
     0
102
RTVSPost2010Prop51ColorIndex
 90
      256
102
RTVSPost2010Prop51ColorRGB
 90
-16777216
102
RTVSPost2010PropOp51
 70
     0
102
RTVSPost2010Prop52
140
1.0
102
RTVSPost2010PropOp52
 70
     0
102
RTVSPost2010Prop53
 90
        2
102
RTVSPost2010PropOp53
 70
     0
102
RTVSPost2010Prop54
  1
strokes_ogs.tif
102
RTVSPost2010PropOp54
 70
     0
102
RTVSPost2010Prop55
280
     0
102
RTVSPost2010PropOp55
 70
     1
102
RTVSPost2010Prop56
140
1.0
102
RTVSPost2010PropOp56
 70
     0
102
RTVSPost2010Prop57
140
1.0
102
RTVSPost2010PropOp57
 70
     0
102
RTVSPropertyOp0
 70
     0
102
RTVSPropertyOp1
 70
     0
102
RTVSPropertyOp2
 70
     0
102
RTVSPropertyOp3
 70
     0
102
RTVSPropertyOp4
 70
     0
102
RTVSPropertyOp5
 70
     0
102
RTVSPropertyOp6
 70
     0
102
RTVSPropertyOp7
 70
     0
102
RTVSPropertyOp8
 70
     0
102
RTVSPropertyOp9
 70
     0
102
RTVSPropertyOp10
 70
     0
102
RTVSPropertyOp11
 70
     0
102
RTVSPropertyOp12
 70
     0
102
RTVSPropertyOp13
 70
     0
102
RTVSPropertyOp14
 70
     2
102
RTVSPropertyOp15
 70
     0
102
RTVSPropertyOp16
 70
     0
102
RTVSPropertyOp17
 70
     0
102
RTVSPropertyOp18
 70
     0
102
RTVSPropertyOp19
 70
     0
102
RTVSPropertyOp20
 70
     0
102
RTVSPropertyOp21
 70
     0
102
RTVSPropertyOp22
 70
     0
102
RTVSPropertyOp23
 70
     0
102
RTVSPropertyOp24
 70
     0
102
RTVSPropertyOp25
 70
     0
102
RTVSPropertyOp26
 70
     0
102
RTVSPropertyOp27
 70
     0
102
RTVSPropertyOp28
 70
     1
102
RTVSPropertyOp29
 70
     1
102
RTVSPropertyOp30
 70
     1
102
RTVSPropertyOp31
 70
     1
102
RTVSPropertyOp32
 70
     1
102
RTVSPropertyOp33
 70
     1
102
RTVSPropertyOp34
 70
     1
102
RTVSPropertyOp35
 70
     1
102
RTVSPropertyOp36
 70
     1
102
RTVSPropertyOp37
 70
     0
102
RTVSPropertyOp38
 70
     0
102
RTVSPropertyOp39
 70
     0
102
RTVSPropertyOp40
 70
     0
102
RTVSPropertyOp41
 70
     0
102
RTVSPropertyOp42
 70
     0
102
RTVSPropertyOp43
 70
     0
102
RTVSPropertyOp44
 70
     0
102
RTVSPropertyOp45
 70
     1
102
RTVSPropertyOp46
 70
     0
102
RTVSPropertyOp47
 70
     0
102
RTVSPropertyOp48
 70
     0
102
RTVSPropertyOp49
 70
     1
102
RTVSPropertyOp50
 70
     0
102
RTVSPropertyOp51
 70
     0
102
RTVSPropertyOp52
 70
     0
102
RTVSPropertyOp53
 70
     0
102
RTVSPropertyOp54
 70
     0
102
RTVSPropertyOp55
 70
     1
102
RTVSPropertyOp56
 70
     0
102
RTVSPropertyOp57
 70
     0
102
RTVSPropertyOp58
 70
     0
102
RTVSPropertyOp59
 70
     0
102
RTVSPropertyOp60
 70
     0
102
RTVSPropertyOp61
 70
     0
102
RTVSPropertyOp62
 70
     0
  0
XRECORD
  5
1670
102
{ACAD_REACTORS
330
166F
102
}
330
166F
100
AcDbXrecord
280
     1
102
RTVSPost2010Prop28
280
     0
102
RTVSPost2010PropOp28
 70
     1
102
RTVSPost2010Prop29
280
     1
102
RTVSPost2010PropOp29
 70
     1
102
RTVSPost2010Prop30
280
     1
102
RTVSPost2010PropOp30
 70
     1
102
RTVSPost2010Prop31
280
     0
102
RTVSPost2010PropOp31
 70
     1
102
RTVSPost2010Prop32
280
     0
102
RTVSPost2010PropOp32
 70
     1
102
RTVSPost2010Prop33
280
     0
102
RTVSPost2010PropOp33
 70
     1
102
RTVSPost2010Prop34
280
     0
102
RTVSPost2010PropOp34
 70
     1
102
RTVSPost2010Prop35
280
     0
102
RTVSPost2010PropOp35
 70
     1
102
RTVSPost2010Prop36
280
     0
102
RTVSPost2010PropOp36
 70
     1
102
RTVSPost2010Prop37
 90
       50
102
RTVSPost2010PropOp37
 70
     1
102
RTVSPost2010Prop38
140
0.0
102
RTVSPost2010PropOp38
 70
     1
102
RTVSPost2010Prop39
140
1.0
102
RTVSPost2010PropOp39
 70
     1
102
RTVSPost2010Prop40
 90
        0
102
RTVSPost2010PropOp40
 70
     1
102
RTVSPost2010Prop41ColorIndex
 90
       18
102
RTVSPost2010Prop41ColorRGB
 90
        0
102
RTVSPost2010PropOp41
 70
     1
102
RTVSPost2010Prop42
 90
       50
102
RTVSPost2010PropOp42
 70
     1
102
RTVSPost2010Prop43
 90
        3
102
RTVSPost2010PropOp43
 70
     1
102
RTVSPost2010Prop44ColorIndex
 90
        5
102
RTVSPost2010Prop44ColorRGB
 90
      255
102
RTVSPost2010PropOp44
 70
     1
102
RTVSPost2010Prop45
280
     0
102
RTVSPost2010PropOp45
 70
     1
102
RTVSPost2010Prop46
 90
       50
102
RTVSPost2010PropOp46
 70
     1
102
RTVSPost2010Prop47
 90
       50
102
RTVSPost2010PropOp47
 70
     1
102
RTVSPost2010Prop48
 90
       50
102
RTVSPost2010PropOp48
 70
     1
102
RTVSPost2010Prop49
280
     0
102
RTVSPost2010PropOp49
 70
     1
102
RTVSPost2010Prop50
 90
       50
102
RTVSPost2010PropOp50
 70
     1
102
RTVSPost2010Prop51ColorIndex
 90
      256
102
RTVSPost2010Prop51ColorRGB
 90
-16777216
102
RTVSPost2010PropOp51
 70
     0
102
RTVSPost2010Prop52
140
1.0
102
RTVSPost2010PropOp52
 70
     0
102
RTVSPost2010Prop53
 90
        2
102
RTVSPost2010PropOp53
 70
     1
102
RTVSPost2010Prop54
  1
strokes_ogs.tif
102
RTVSPost2010PropOp54
 70
     1
102
RTVSPost2010Prop55
280
     0
102
RTVSPost2010PropOp55
 70
     1
102
RTVSPost2010Prop56
140
1.0
102
RTVSPost2010PropOp56
 70
     1
102
RTVSPost2010Prop57
140
1.0
102
RTVSPost2010PropOp57
 70
     1
102
RTVSPropertyOp0
 70
     1
102
RTVSPropertyOp1
 70
     1
102
RTVSPropertyOp2
 70
     1
102
RTVSPropertyOp3
 70
     1
102
RTVSPropertyOp4
 70
     1
102
RTVSPropertyOp5
 70
     1
102
RTVSPropertyOp6
 70
     1
102
RTVSPropertyOp7
 70
     1
102
RTVSPropertyOp8
 70
     1
102
RTVSPropertyOp9
 70
     1
102
RTVSPropertyOp10
 70
     1
102
RTVSPropertyOp11
 70
     1
102
RTVSPropertyOp12
 70
     1
102
RTVSPropertyOp13
 70
     1
102
RTVSPropertyOp14
 70
     1
102
RTVSPropertyOp15
 70
     1
102
RTVSPropertyOp16
 70
     1
102
RTVSPropertyOp17
 70
     1
102
RTVSPropertyOp18
 70
     1
102
RTVSPropertyOp19
 70
     1
102
RTVSPropertyOp20
 70
     1
102
RTVSPropertyOp21
 70
     1
102
RTVSPropertyOp22
 70
     1
102
RTVSPropertyOp23
 70
     1
102
RTVSPropertyOp24
 70
     1
102
RTVSPropertyOp25
 70
     1
102
RTVSPropertyOp26
 70
     1
102
RTVSPropertyOp27
 70
     1
102
RTVSPropertyOp28
 70
     1
102
RTVSPropertyOp29
 70
     1
102
RTVSPropertyOp30
 70
     1
102
RTVSPropertyOp31
 70
     1
102
RTVSPropertyOp32
 70
     1
102
RTVSPropertyOp33
 70
     1
102
RTVSPropertyOp34
 70
     1
102
RTVSPropertyOp35
 70
     1
102
RTVSPropertyOp36
 70
     1
102
RTVSPropertyOp37
 70
     1
102
RTVSPropertyOp38
 70
     1
102
RTVSPropertyOp39
 70
     1
102
RTVSPropertyOp40
 70
     1
102
RTVSPropertyOp41
 70
     1
102
RTVSPropertyOp42
 70
     1
102
RTVSPropertyOp43
 70
     1
102
RTVSPropertyOp44
 70
     1
102
RTVSPropertyOp45
 70
     1
102
RTVSPropertyOp46
 70
     1
102
RTVSPropertyOp47
 70
     1
102
RTVSPropertyOp48
 70
     1
102
RTVSPropertyOp49
 70
     1
102
RTVSPropertyOp50
 70
     1
102
RTVSPropertyOp51
 70
     0
102
RTVSPropertyOp52
 70
     0
102
RTVSPropertyOp53
 70
     1
102
RTVSPropertyOp54
 70
     1
102
RTVSPropertyOp55
 70
     1
102
RTVSPropertyOp56
 70
     1
102
RTVSPropertyOp57
 70
     1
102
RTVSPropertyOp58
 70
     1
102
RTVSPropertyOp59
 70
     1
102
RTVSPropertyOp60
 70
     1
102
RTVSPropertyOp61
 70
     1
102
RTVSPropertyOp62
 70
     1
  0
XRECORD
  5
1686
102
{ACAD_REACTORS
330
1685
102
}
330
1685
100
AcDbXrecord
280
     1
102
RTVSPost2010Prop28
280
     0
102
RTVSPost2010PropOp28
 70
     1
102
RTVSPost2010Prop29
280
     1
102
RTVSPost2010PropOp29
 70
     1
102
RTVSPost2010Prop30
280
     1
102
RTVSPost2010PropOp30
 70
     1
102
RTVSPost2010Prop31
280
     0
102
RTVSPost2010PropOp31
 70
     1
102
RTVSPost2010Prop32
280
     0
102
RTVSPost2010PropOp32
 70
     1
102
RTVSPost2010Prop33
280
     0
102
RTVSPost2010PropOp33
 70
     1
102
RTVSPost2010Prop34
280
     0
102
RTVSPost2010PropOp34
 70
     1
102
RTVSPost2010Prop35
280
     0
102
RTVSPost2010PropOp35
 70
     1
102
RTVSPost2010Prop36
280
     0
102
RTVSPost2010PropOp36
 70
     1
102
RTVSPost2010Prop37
 90
       50
102
RTVSPost2010PropOp37
 70
     1
102
RTVSPost2010Prop38
140
0.0
102
RTVSPost2010PropOp38
 70
     1
102
RTVSPost2010Prop39
140
1.0
102
RTVSPost2010PropOp39
 70
     1
102
RTVSPost2010Prop40
 90
        0
102
RTVSPost2010PropOp40
 70
     1
102
RTVSPost2010Prop41ColorIndex
 90
       18
102
RTVSPost2010Prop41ColorRGB
 90
        0
102
RTVSPost2010PropOp41
 70
     1
102
RTVSPost2010Prop42
 90
       50
102
RTVSPost2010PropOp42
 70
     1
102
RTVSPost2010Prop43
 90
        3
102
RTVSPost2010PropOp43
 70
     1
102
RTVSPost2010Prop44ColorIndex
 90
        5
102
RTVSPost2010Prop44ColorRGB
 90
      255
102
RTVSPost2010PropOp44
 70
     1
102
RTVSPost2010Prop45
280
     0
102
RTVSPost2010PropOp45
 70
     1
102
RTVSPost2010Prop46
 90
       50
102
RTVSPost2010PropOp46
 70
     1
102
RTVSPost2010Prop47
 90
       50
102
RTVSPost2010PropOp47
 70
     1
102
RTVSPost2010Prop48
 90
       50
102
RTVSPost2010PropOp48
 70
     1
102
RTVSPost2010Prop49
280
     0
102
RTVSPost2010PropOp49
 70
     1
102
RTVSPost2010Prop50
 90
       50
102
RTVSPost2010PropOp50
 70
     1
102
RTVSPost2010Prop51ColorIndex
 90
      256
102
RTVSPost2010Prop51ColorRGB
 90
-16777216
102
RTVSPost2010PropOp51
 70
     0
102
RTVSPost2010Prop52
140
1.0
102
RTVSPost2010PropOp52
 70
     0
102
RTVSPost2010Prop53
 90
        2
102
RTVSPost2010PropOp53
 70
     1
102
RTVSPost2010Prop54
  1
strokes_ogs.tif
102
RTVSPost2010PropOp54
 70
     1
102
RTVSPost2010Prop55
280
     0
102
RTVSPost2010PropOp55
 70
     1
102
RTVSPost2010Prop56
140
1.0
102
RTVSPost2010PropOp56
 70
     1
102
RTVSPost2010Prop57
140
1.0
102
RTVSPost2010PropOp57
 70
     1
102
RTVSPropertyOp0
 70
     1
102
RTVSPropertyOp1
 70
     1
102
RTVSPropertyOp2
 70
     1
102
RTVSPropertyOp3
 70
     1
102
RTVSPropertyOp4
 70
     1
102
RTVSPropertyOp5
 70
     1
102
RTVSPropertyOp6
 70
     1
102
RTVSPropertyOp7
 70
     1
102
RTVSPropertyOp8
 70
     1
102
RTVSPropertyOp9
 70
     1
102
RTVSPropertyOp10
 70
     1
102
RTVSPropertyOp11
 70
     1
102
RTVSPropertyOp12
 70
     1
102
RTVSPropertyOp13
 70
     1
102
RTVSPropertyOp14
 70
     1
102
RTVSPropertyOp15
 70
     1
102
RTVSPropertyOp16
 70
     1
102
RTVSPropertyOp17
 70
     1
102
RTVSPropertyOp18
 70
     1
102
RTVSPropertyOp19
 70
     1
102
RTVSPropertyOp20
 70
     1
102
RTVSPropertyOp21
 70
     1
102
RTVSPropertyOp22
 70
     1
102
RTVSPropertyOp23
 70
     1
102
RTVSPropertyOp24
 70
     1
102
RTVSPropertyOp25
 70
     1
102
RTVSPropertyOp26
 70
     1
102
RTVSPropertyOp27
 70
     1
102
RTVSPropertyOp28
 70
     1
102
RTVSPropertyOp29
 70
     1
102
RTVSPropertyOp30
 70
     1
102
RTVSPropertyOp31
 70
     1
102
RTVSPropertyOp32
 70
     1
102
RTVSPropertyOp33
 70
     1
102
RTVSPropertyOp34
 70
     1
102
RTVSPropertyOp35
 70
     1
102
RTVSPropertyOp36
 70
     1
102
RTVSPropertyOp37
 70
     1
102
RTVSPropertyOp38
 70
     1
102
RTVSPropertyOp39
 70
     1
102
RTVSPropertyOp40
 70
     1
102
RTVSPropertyOp41
 70
     1
102
RTVSPropertyOp42
 70
     1
102
RTVSPropertyOp43
 70
     1
102
RTVSPropertyOp44
 70
     1
102
RTVSPropertyOp45
 70
     1
102
RTVSPropertyOp46
 70
     1
102
RTVSPropertyOp47
 70
     1
102
RTVSPropertyOp48
 70
     1
102
RTVSPropertyOp49
 70
     1
102
RTVSPropertyOp50
 70
     1
102
RTVSPropertyOp51
 70
     0
102
RTVSPropertyOp52
 70
     0
102
RTVSPropertyOp53
 70
     1
102
RTVSPropertyOp54
 70
     1
102
RTVSPropertyOp55
 70
     1
102
RTVSPropertyOp56
 70
     1
102
RTVSPropertyOp57
 70
     1
102
RTVSPropertyOp58
 70
     1
102
RTVSPropertyOp59
 70
     1
102
RTVSPropertyOp60
 70
     1
102
RTVSPropertyOp61
 70
     1
102
RTVSPropertyOp62
 70
     1
  0
XRECORD
  5
1684
102
{ACAD_REACTORS
330
1683
102
}
330
1683
100
AcDbXrecord
280
     1
102
RTVSPost2010Prop28
280
     0
102
RTVSPost2010PropOp28
 70
     1
102
RTVSPost2010Prop29
280
     1
102
RTVSPost2010PropOp29
 70
     1
102
RTVSPost2010Prop30
280
     1
102
RTVSPost2010PropOp30
 70
     1
102
RTVSPost2010Prop31
280
     0
102
RTVSPost2010PropOp31
 70
     1
102
RTVSPost2010Prop32
280
     0
102
RTVSPost2010PropOp32
 70
     1
102
RTVSPost2010Prop33
280
     0
102
RTVSPost2010PropOp33
 70
     1
102
RTVSPost2010Prop34
280
     0
102
RTVSPost2010PropOp34
 70
     1
102
RTVSPost2010Prop35
280
     0
102
RTVSPost2010PropOp35
 70
     1
102
RTVSPost2010Prop36
280
     0
102
RTVSPost2010PropOp36
 70
     1
102
RTVSPost2010Prop37
 90
       50
102
RTVSPost2010PropOp37
 70
     1
102
RTVSPost2010Prop38
140
0.0
102
RTVSPost2010PropOp38
 70
     1
102
RTVSPost2010Prop39
140
1.0
102
RTVSPost2010PropOp39
 70
     1
102
RTVSPost2010Prop40
 90
        0
102
RTVSPost2010PropOp40
 70
     1
102
RTVSPost2010Prop41ColorIndex
 90
       18
102
RTVSPost2010Prop41ColorRGB
 90
        0
102
RTVSPost2010PropOp41
 70
     1
102
RTVSPost2010Prop42
 90
       50
102
RTVSPost2010PropOp42
 70
     1
102
RTVSPost2010Prop43
 90
        3
102
RTVSPost2010PropOp43
 70
     1
102
RTVSPost2010Prop44ColorIndex
 90
        5
102
RTVSPost2010Prop44ColorRGB
 90
      255
102
RTVSPost2010PropOp44
 70
     1
102
RTVSPost2010Prop45
280
     0
102
RTVSPost2010PropOp45
 70
     1
102
RTVSPost2010Prop46
 90
       50
102
RTVSPost2010PropOp46
 70
     1
102
RTVSPost2010Prop47
 90
       50
102
RTVSPost2010PropOp47
 70
     1
102
RTVSPost2010Prop48
 90
       50
102
RTVSPost2010PropOp48
 70
     1
102
RTVSPost2010Prop49
280
     0
102
RTVSPost2010PropOp49
 70
     1
102
RTVSPost2010Prop50
 90
       50
102
RTVSPost2010PropOp50
 70
     1
102
RTVSPost2010Prop51ColorIndex
 90
      256
102
RTVSPost2010Prop51ColorRGB
 90
-16777216
102
RTVSPost2010PropOp51
 70
     0
102
RTVSPost2010Prop52
140
1.0
102
RTVSPost2010PropOp52
 70
     0
102
RTVSPost2010Prop53
 90
        2
102
RTVSPost2010PropOp53
 70
     1
102
RTVSPost2010Prop54
  1
strokes_ogs.tif
102
RTVSPost2010PropOp54
 70
     1
102
RTVSPost2010Prop55
280
     0
102
RTVSPost2010PropOp55
 70
     1
102
RTVSPost2010Prop56
140
1.0
102
RTVSPost2010PropOp56
 70
     1
102
RTVSPost2010Prop57
140
1.0
102
RTVSPost2010PropOp57
 70
     1
102
RTVSPropertyOp0
 70
     1
102
RTVSPropertyOp1
 70
     1
102
RTVSPropertyOp2
 70
     1
102
RTVSPropertyOp3
 70
     1
102
RTVSPropertyOp4
 70
     1
102
RTVSPropertyOp5
 70
     1
102
RTVSPropertyOp6
 70
     1
102
RTVSPropertyOp7
 70
     1
102
RTVSPropertyOp8
 70
     1
102
RTVSPropertyOp9
 70
     1
102
RTVSPropertyOp10
 70
     1
102
RTVSPropertyOp11
 70
     1
102
RTVSPropertyOp12
 70
     1
102
RTVSPropertyOp13
 70
     1
102
RTVSPropertyOp14
 70
     1
102
RTVSPropertyOp15
 70
     1
102
RTVSPropertyOp16
 70
     1
102
RTVSPropertyOp17
 70
     1
102
RTVSPropertyOp18
 70
     1
102
RTVSPropertyOp19
 70
     1
102
RTVSPropertyOp20
 70
     1
102
RTVSPropertyOp21
 70
     1
102
RTVSPropertyOp22
 70
     1
102
RTVSPropertyOp23
 70
     1
102
RTVSPropertyOp24
 70
     1
102
RTVSPropertyOp25
 70
     1
102
RTVSPropertyOp26
 70
     1
102
RTVSPropertyOp27
 70
     1
102
RTVSPropertyOp28
 70
     1
102
RTVSPropertyOp29
 70
     1
102
RTVSPropertyOp30
 70
     1
102
RTVSPropertyOp31
 70
     1
102
RTVSPropertyOp32
 70
     1
102
RTVSPropertyOp33
 70
     1
102
RTVSPropertyOp34
 70
     1
102
RTVSPropertyOp35
 70
     1
102
RTVSPropertyOp36
 70
     1
102
RTVSPropertyOp37
 70
     1
102
RTVSPropertyOp38
 70
     1
102
RTVSPropertyOp39
 70
     1
102
RTVSPropertyOp40
 70
     1
102
RTVSPropertyOp41
 70
     1
102
RTVSPropertyOp42
 70
     1
102
RTVSPropertyOp43
 70
     1
102
RTVSPropertyOp44
 70
     1
102
RTVSPropertyOp45
 70
     1
102
RTVSPropertyOp46
 70
     1
102
RTVSPropertyOp47
 70
     1
102
RTVSPropertyOp48
 70
     1
102
RTVSPropertyOp49
 70
     1
102
RTVSPropertyOp50
 70
     1
102
RTVSPropertyOp51
 70
     0
102
RTVSPropertyOp52
 70
     0
102
RTVSPropertyOp53
 70
     1
102
RTVSPropertyOp54
 70
     1
102
RTVSPropertyOp55
 70
     1
102
RTVSPropertyOp56
 70
     1
102
RTVSPropertyOp57
 70
     1
102
RTVSPropertyOp58
 70
     1
102
RTVSPropertyOp59
 70
     1
102
RTVSPropertyOp60
 70
     1
102
RTVSPropertyOp61
 70
     1
102
RTVSPropertyOp62
 70
     1
  0
XRECORD
  5
167E
102
{ACAD_REACTORS
330
167D
102
}
330
167D
100
AcDbXrecord
280
     1
102
RTVSPost2010Prop28
280
     0
102
RTVSPost2010PropOp28
 70
     1
102
RTVSPost2010Prop29
280
     1
102
RTVSPost2010PropOp29
 70
     1
102
RTVSPost2010Prop30
280
     1
102
RTVSPost2010PropOp30
 70
     1
102
RTVSPost2010Prop31
280
     0
102
RTVSPost2010PropOp31
 70
     1
102
RTVSPost2010Prop32
280
     0
102
RTVSPost2010PropOp32
 70
     1
102
RTVSPost2010Prop33
280
     0
102
RTVSPost2010PropOp33
 70
     1
102
RTVSPost2010Prop34
280
     0
102
RTVSPost2010PropOp34
 70
     1
102
RTVSPost2010Prop35
280
     0
102
RTVSPost2010PropOp35
 70
     1
102
RTVSPost2010Prop36
280
     0
102
RTVSPost2010PropOp36
 70
     1
102
RTVSPost2010Prop37
 90
       50
102
RTVSPost2010PropOp37
 70
     1
102
RTVSPost2010Prop38
140
0.0
102
RTVSPost2010PropOp38
 70
     1
102
RTVSPost2010Prop39
140
1.0
102
RTVSPost2010PropOp39
 70
     1
102
RTVSPost2010Prop40
 90
        0
102
RTVSPost2010PropOp40
 70
     1
102
RTVSPost2010Prop41ColorIndex
 90
       18
102
RTVSPost2010Prop41ColorRGB
 90
        0
102
RTVSPost2010PropOp41
 70
     1
102
RTVSPost2010Prop42
 90
       50
102
RTVSPost2010PropOp42
 70
     1
102
RTVSPost2010Prop43
 90
        3
102
RTVSPost2010PropOp43
 70
     1
102
RTVSPost2010Prop44ColorIndex
 90
        5
102
RTVSPost2010Prop44ColorRGB
 90
      255
102
RTVSPost2010PropOp44
 70
     1
102
RTVSPost2010Prop45
280
     0
102
RTVSPost2010PropOp45
 70
     1
102
RTVSPost2010Prop46
 90
       50
102
RTVSPost2010PropOp46
 70
     1
102
RTVSPost2010Prop47
 90
       50
102
RTVSPost2010PropOp47
 70
     1
102
RTVSPost2010Prop48
 90
       50
102
RTVSPost2010PropOp48
 70
     1
102
RTVSPost2010Prop49
280
     0
102
RTVSPost2010PropOp49
 70
     1
102
RTVSPost2010Prop50
 90
       50
102
RTVSPost2010PropOp50
 70
     1
102
RTVSPost2010Prop51ColorIndex
 90
      256
102
RTVSPost2010Prop51ColorRGB
 90
-16777216
102
RTVSPost2010PropOp51
 70
     0
102
RTVSPost2010Prop52
140
1.0
102
RTVSPost2010PropOp52
 70
     0
102
RTVSPost2010Prop53
 90
        2
102
RTVSPost2010PropOp53
 70
     1
102
RTVSPost2010Prop54
  1
strokes_ogs.tif
102
RTVSPost2010PropOp54
 70
     1
102
RTVSPost2010Prop55
280
     0
102
RTVSPost2010PropOp55
 70
     1
102
RTVSPost2010Prop56
140
1.0
102
RTVSPost2010PropOp56
 70
     1
102
RTVSPost2010Prop57
140
1.0
102
RTVSPost2010PropOp57
 70
     1
102
RTVSPropertyOp0
 70
     1
102
RTVSPropertyOp1
 70
     1
102
RTVSPropertyOp2
 70
     1
102
RTVSPropertyOp3
 70
     1
102
RTVSPropertyOp4
 70
     1
102
RTVSPropertyOp5
 70
     1
102
RTVSPropertyOp6
 70
     1
102
RTVSPropertyOp7
 70
     1
102
RTVSPropertyOp8
 70
     1
102
RTVSPropertyOp9
 70
     1
102
RTVSPropertyOp10
 70
     1
102
RTVSPropertyOp11
 70
     1
102
RTVSPropertyOp12
 70
     1
102
RTVSPropertyOp13
 70
     1
102
RTVSPropertyOp14
 70
     1
102
RTVSPropertyOp15
 70
     1
102
RTVSPropertyOp16
 70
     1
102
RTVSPropertyOp17
 70
     1
102
RTVSPropertyOp18
 70
     1
102
RTVSPropertyOp19
 70
     1
102
RTVSPropertyOp20
 70
     1
102
RTVSPropertyOp21
 70
     1
102
RTVSPropertyOp22
 70
     1
102
RTVSPropertyOp23
 70
     1
102
RTVSPropertyOp24
 70
     1
102
RTVSPropertyOp25
 70
     1
102
RTVSPropertyOp26
 70
     1
102
RTVSPropertyOp27
 70
     1
102
RTVSPropertyOp28
 70
     1
102
RTVSPropertyOp29
 70
     1
102
RTVSPropertyOp30
 70
     1
102
RTVSPropertyOp31
 70
     1
102
RTVSPropertyOp32
 70
     1
102
RTVSPropertyOp33
 70
     1
102
RTVSPropertyOp34
 70
     1
102
RTVSPropertyOp35
 70
     1
102
RTVSPropertyOp36
 70
     1
102
RTVSPropertyOp37
 70
     1
102
RTVSPropertyOp38
 70
     1
102
RTVSPropertyOp39
 70
     1
102
RTVSPropertyOp40
 70
     1
102
RTVSPropertyOp41
 70
     1
102
RTVSPropertyOp42
 70
     1
102
RTVSPropertyOp43
 70
     1
102
RTVSPropertyOp44
 70
     1
102
RTVSPropertyOp45
 70
     1
102
RTVSPropertyOp46
 70
     1
102
RTVSPropertyOp47
 70
     1
102
RTVSPropertyOp48
 70
     1
102
RTVSPropertyOp49
 70
     1
102
RTVSPropertyOp50
 70
     1
102
RTVSPropertyOp51
 70
     0
102
RTVSPropertyOp52
 70
     0
102
RTVSPropertyOp53
 70
     1
102
RTVSPropertyOp54
 70
     1
102
RTVSPropertyOp55
 70
     1
102
RTVSPropertyOp56
 70
     1
102
RTVSPropertyOp57
 70
     1
102
RTVSPropertyOp58
 70
     1
102
RTVSPropertyOp59
 70
     1
102
RTVSPropertyOp60
 70
     1
102
RTVSPropertyOp61
 70
     1
102
RTVSPropertyOp62
 70
     1
  0
XRECORD
  5
1680
102
{ACAD_REACTORS
330
167F
102
}
330
167F
100
AcDbXrecord
280
     1
102
RTVSPost2010Prop28
280
     0
102
RTVSPost2010PropOp28
 70
     1
102
RTVSPost2010Prop29
280
     1
102
RTVSPost2010PropOp29
 70
     1
102
RTVSPost2010Prop30
280
     1
102
RTVSPost2010PropOp30
 70
     1
102
RTVSPost2010Prop31
280
     0
102
RTVSPost2010PropOp31
 70
     1
102
RTVSPost2010Prop32
280
     0
102
RTVSPost2010PropOp32
 70
     1
102
RTVSPost2010Prop33
280
     0
102
RTVSPost2010PropOp33
 70
     1
102
RTVSPost2010Prop34
280
     0
102
RTVSPost2010PropOp34
 70
     1
102
RTVSPost2010Prop35
280
     0
102
RTVSPost2010PropOp35
 70
     1
102
RTVSPost2010Prop36
280
     0
102
RTVSPost2010PropOp36
 70
     1
102
RTVSPost2010Prop37
 90
       50
102
RTVSPost2010PropOp37
 70
     1
102
RTVSPost2010Prop38
140
0.0
102
RTVSPost2010PropOp38
 70
     1
102
RTVSPost2010Prop39
140
1.0
102
RTVSPost2010PropOp39
 70
     1
102
RTVSPost2010Prop40
 90
        0
102
RTVSPost2010PropOp40
 70
     1
102
RTVSPost2010Prop41ColorIndex
 90
       18
102
RTVSPost2010Prop41ColorRGB
 90
        0
102
RTVSPost2010PropOp41
 70
     1
102
RTVSPost2010Prop42
 90
       50
102
RTVSPost2010PropOp42
 70
     1
102
RTVSPost2010Prop43
 90
        3
102
RTVSPost2010PropOp43
 70
     1
102
RTVSPost2010Prop44ColorIndex
 90
        5
102
RTVSPost2010Prop44ColorRGB
 90
      255
102
RTVSPost2010PropOp44
 70
     1
102
RTVSPost2010Prop45
280
     0
102
RTVSPost2010PropOp45
 70
     1
102
RTVSPost2010Prop46
 90
       50
102
RTVSPost2010PropOp46
 70
     1
102
RTVSPost2010Prop47
 90
       50
102
RTVSPost2010PropOp47
 70
     1
102
RTVSPost2010Prop48
 90
       50
102
RTVSPost2010PropOp48
 70
     1
102
RTVSPost2010Prop49
280
     0
102
RTVSPost2010PropOp49
 70
     1
102
RTVSPost2010Prop50
 90
       50
102
RTVSPost2010PropOp50
 70
     1
102
RTVSPost2010Prop51ColorIndex
 90
      256
102
RTVSPost2010Prop51ColorRGB
 90
-16777216
102
RTVSPost2010PropOp51
 70
     0
102
RTVSPost2010Prop52
140
1.0
102
RTVSPost2010PropOp52
 70
     0
102
RTVSPost2010Prop53
 90
        2
102
RTVSPost2010PropOp53
 70
     1
102
RTVSPost2010Prop54
  1
strokes_ogs.tif
102
RTVSPost2010PropOp54
 70
     1
102
RTVSPost2010Prop55
280
     0
102
RTVSPost2010PropOp55
 70
     1
102
RTVSPost2010Prop56
140
1.0
102
RTVSPost2010PropOp56
 70
     1
102
RTVSPost2010Prop57
140
1.0
102
RTVSPost2010PropOp57
 70
     1
102
RTVSPropertyOp0
 70
     1
102
RTVSPropertyOp1
 70
     1
102
RTVSPropertyOp2
 70
     1
102
RTVSPropertyOp3
 70
     1
102
RTVSPropertyOp4
 70
     1
102
RTVSPropertyOp5
 70
     1
102
RTVSPropertyOp6
 70
     1
102
RTVSPropertyOp7
 70
     1
102
RTVSPropertyOp8
 70
     1
102
RTVSPropertyOp9
 70
     1
102
RTVSPropertyOp10
 70
     1
102
RTVSPropertyOp11
 70
     1
102
RTVSPropertyOp12
 70
     1
102
RTVSPropertyOp13
 70
     1
102
RTVSPropertyOp14
 70
     1
102
RTVSPropertyOp15
 70
     1
102
RTVSPropertyOp16
 70
     1
102
RTVSPropertyOp17
 70
     1
102
RTVSPropertyOp18
 70
     1
102
RTVSPropertyOp19
 70
     1
102
RTVSPropertyOp20
 70
     1
102
RTVSPropertyOp21
 70
     1
102
RTVSPropertyOp22
 70
     1
102
RTVSPropertyOp23
 70
     1
102
RTVSPropertyOp24
 70
     1
102
RTVSPropertyOp25
 70
     1
102
RTVSPropertyOp26
 70
     1
102
RTVSPropertyOp27
 70
     1
102
RTVSPropertyOp28
 70
     1
102
RTVSPropertyOp29
 70
     1
102
RTVSPropertyOp30
 70
     1
102
RTVSPropertyOp31
 70
     1
102
RTVSPropertyOp32
 70
     1
102
RTVSPropertyOp33
 70
     1
102
RTVSPropertyOp34
 70
     1
102
RTVSPropertyOp35
 70
     1
102
RTVSPropertyOp36
 70
     1
102
RTVSPropertyOp37
 70
     1
102
RTVSPropertyOp38
 70
     1
102
RTVSPropertyOp39
 70
     1
102
RTVSPropertyOp40
 70
     1
102
RTVSPropertyOp41
 70
     1
102
RTVSPropertyOp42
 70
     1
102
RTVSPropertyOp43
 70
     1
102
RTVSPropertyOp44
 70
     1
102
RTVSPropertyOp45
 70
     1
102
RTVSPropertyOp46
 70
     1
102
RTVSPropertyOp47
 70
     1
102
RTVSPropertyOp48
 70
     1
102
RTVSPropertyOp49
 70
     1
102
RTVSPropertyOp50
 70
     1
102
RTVSPropertyOp51
 70
     0
102
RTVSPropertyOp52
 70
     0
102
RTVSPropertyOp53
 70
     1
102
RTVSPropertyOp54
 70
     1
102
RTVSPropertyOp55
 70
     1
102
RTVSPropertyOp56
 70
     1
102
RTVSPropertyOp57
 70
     1
102
RTVSPropertyOp58
 70
     1
102
RTVSPropertyOp59
 70
     1
102
RTVSPropertyOp60
 70
     1
102
RTVSPropertyOp61
 70
     1
102
RTVSPropertyOp62
 70
     1
  0
XRECORD
  5
1676
102
{ACAD_REACTORS
330
1675
102
}
330
1675
100
AcDbXrecord
280
     1
102
RTVSPost2010Prop28
280
     0
102
RTVSPost2010PropOp28
 70
     1
102
RTVSPost2010Prop29
280
     1
102
RTVSPost2010PropOp29
 70
     1
102
RTVSPost2010Prop30
280
     1
102
RTVSPost2010PropOp30
 70
     1
102
RTVSPost2010Prop31
280
     0
102
RTVSPost2010PropOp31
 70
     1
102
RTVSPost2010Prop32
280
     0
102
RTVSPost2010PropOp32
 70
     1
102
RTVSPost2010Prop33
280
     0
102
RTVSPost2010PropOp33
 70
     1
102
RTVSPost2010Prop34
280
     0
102
RTVSPost2010PropOp34
 70
     1
102
RTVSPost2010Prop35
280
     0
102
RTVSPost2010PropOp35
 70
     1
102
RTVSPost2010Prop36
280
     0
102
RTVSPost2010PropOp36
 70
     1
102
RTVSPost2010Prop37
 90
       50
102
RTVSPost2010PropOp37
 70
     1
102
RTVSPost2010Prop38
140
0.0
102
RTVSPost2010PropOp38
 70
     1
102
RTVSPost2010Prop39
140
1.0
102
RTVSPost2010PropOp39
 70
     1
102
RTVSPost2010Prop40
 90
        0
102
RTVSPost2010PropOp40
 70
     1
102
RTVSPost2010Prop41ColorIndex
 90
       18
102
RTVSPost2010Prop41ColorRGB
 90
        0
102
RTVSPost2010PropOp41
 70
     1
102
RTVSPost2010Prop42
 90
       50
102
RTVSPost2010PropOp42
 70
     1
102
RTVSPost2010Prop43
 90
        3
102
RTVSPost2010PropOp43
 70
     1
102
RTVSPost2010Prop44ColorIndex
 90
        5
102
RTVSPost2010Prop44ColorRGB
 90
      255
102
RTVSPost2010PropOp44
 70
     1
102
RTVSPost2010Prop45
280
     0
102
RTVSPost2010PropOp45
 70
     1
102
RTVSPost2010Prop46
 90
       50
102
RTVSPost2010PropOp46
 70
     1
102
RTVSPost2010Prop47
 90
       50
102
RTVSPost2010PropOp47
 70
     1
102
RTVSPost2010Prop48
 90
       50
102
RTVSPost2010PropOp48
 70
     1
102
RTVSPost2010Prop49
280
     0
102
RTVSPost2010PropOp49
 70
     1
102
RTVSPost2010Prop50
 90
       50
102
RTVSPost2010PropOp50
 70
     1
102
RTVSPost2010Prop51ColorIndex
 90
      256
102
RTVSPost2010Prop51ColorRGB
 90
-16777216
102
RTVSPost2010PropOp51
 70
     0
102
RTVSPost2010Prop52
140
1.0
102
RTVSPost2010PropOp52
 70
     0
102
RTVSPost2010Prop53
 90
        2
102
RTVSPost2010PropOp53
 70
     1
102
RTVSPost2010Prop54
  1
strokes_ogs.tif
102
RTVSPost2010PropOp54
 70
     1
102
RTVSPost2010Prop55
280
     0
102
RTVSPost2010PropOp55
 70
     1
102
RTVSPost2010Prop56
140
1.0
102
RTVSPost2010PropOp56
 70
     1
102
RTVSPost2010Prop57
140
1.0
102
RTVSPost2010PropOp57
 70
     1
102
RTVSPropertyOp0
 70
     1
102
RTVSPropertyOp1
 70
     1
102
RTVSPropertyOp2
 70
     1
102
RTVSPropertyOp3
 70
     1
102
RTVSPropertyOp4
 70
     1
102
RTVSPropertyOp5
 70
     1
102
RTVSPropertyOp6
 70
     1
102
RTVSPropertyOp7
 70
     1
102
RTVSPropertyOp8
 70
     1
102
RTVSPropertyOp9
 70
     1
102
RTVSPropertyOp10
 70
     1
102
RTVSPropertyOp11
 70
     1
102
RTVSPropertyOp12
 70
     1
102
RTVSPropertyOp13
 70
     1
102
RTVSPropertyOp14
 70
     1
102
RTVSPropertyOp15
 70
     1
102
RTVSPropertyOp16
 70
     1
102
RTVSPropertyOp17
 70
     1
102
RTVSPropertyOp18
 70
     1
102
RTVSPropertyOp19
 70
     1
102
RTVSPropertyOp20
 70
     1
102
RTVSPropertyOp21
 70
     1
102
RTVSPropertyOp22
 70
     1
102
RTVSPropertyOp23
 70
     1
102
RTVSPropertyOp24
 70
     1
102
RTVSPropertyOp25
 70
     1
102
RTVSPropertyOp26
 70
     1
102
RTVSPropertyOp27
 70
     1
102
RTVSPropertyOp28
 70
     1
102
RTVSPropertyOp29
 70
     1
102
RTVSPropertyOp30
 70
     1
102
RTVSPropertyOp31
 70
     1
102
RTVSPropertyOp32
 70
     1
102
RTVSPropertyOp33
 70
     1
102
RTVSPropertyOp34
 70
     1
102
RTVSPropertyOp35
 70
     1
102
RTVSPropertyOp36
 70
     1
102
RTVSPropertyOp37
 70
     1
102
RTVSPropertyOp38
 70
     1
102
RTVSPropertyOp39
 70
     1
102
RTVSPropertyOp40
 70
     1
102
RTVSPropertyOp41
 70
     1
102
RTVSPropertyOp42
 70
     1
102
RTVSPropertyOp43
 70
     1
102
RTVSPropertyOp44
 70
     1
102
RTVSPropertyOp45
 70
     1
102
RTVSPropertyOp46
 70
     1
102
RTVSPropertyOp47
 70
     1
102
RTVSPropertyOp48
 70
     1
102
RTVSPropertyOp49
 70
     1
102
RTVSPropertyOp50
 70
     1
102
RTVSPropertyOp51
 70
     0
102
RTVSPropertyOp52
 70
     0
102
RTVSPropertyOp53
 70
     1
102
RTVSPropertyOp54
 70
     1
102
RTVSPropertyOp55
 70
     1
102
RTVSPropertyOp56
 70
     1
102
RTVSPropertyOp57
 70
     1
102
RTVSPropertyOp58
 70
     1
102
RTVSPropertyOp59
 70
     1
102
RTVSPropertyOp60
 70
     1
102
RTVSPropertyOp61
 70
     1
102
RTVSPropertyOp62
 70
     1
  0
XRECORD
  5
166A
102
{ACAD_REACTORS
330
1669
102
}
330
1669
100
AcDbXrecord
280
     1
102
RTVSPost2010Prop28
280
     0
102
RTVSPost2010PropOp28
 70
     1
102
RTVSPost2010Prop29
280
     1
102
RTVSPost2010PropOp29
 70
     1
102
RTVSPost2010Prop30
280
     1
102
RTVSPost2010PropOp30
 70
     1
102
RTVSPost2010Prop31
280
     0
102
RTVSPost2010PropOp31
 70
     1
102
RTVSPost2010Prop32
280
     0
102
RTVSPost2010PropOp32
 70
     1
102
RTVSPost2010Prop33
280
     0
102
RTVSPost2010PropOp33
 70
     1
102
RTVSPost2010Prop34
280
     0
102
RTVSPost2010PropOp34
 70
     1
102
RTVSPost2010Prop35
280
     0
102
RTVSPost2010PropOp35
 70
     1
102
RTVSPost2010Prop36
280
     0
102
RTVSPost2010PropOp36
 70
     1
102
RTVSPost2010Prop37
 90
       50
102
RTVSPost2010PropOp37
 70
     1
102
RTVSPost2010Prop38
140
0.0
102
RTVSPost2010PropOp38
 70
     1
102
RTVSPost2010Prop39
140
1.0
102
RTVSPost2010PropOp39
 70
     1
102
RTVSPost2010Prop40
 90
        0
102
RTVSPost2010PropOp40
 70
     1
102
RTVSPost2010Prop41ColorIndex
 90
       18
102
RTVSPost2010Prop41ColorRGB
 90
        0
102
RTVSPost2010PropOp41
 70
     1
102
RTVSPost2010Prop42
 90
       50
102
RTVSPost2010PropOp42
 70
     1
102
RTVSPost2010Prop43
 90
        3
102
RTVSPost2010PropOp43
 70
     1
102
RTVSPost2010Prop44ColorIndex
 90
        5
102
RTVSPost2010Prop44ColorRGB
 90
      255
102
RTVSPost2010PropOp44
 70
     1
102
RTVSPost2010Prop45
280
     0
102
RTVSPost2010PropOp45
 70
     1
102
RTVSPost2010Prop46
 90
       50
102
RTVSPost2010PropOp46
 70
     1
102
RTVSPost2010Prop47
 90
       50
102
RTVSPost2010PropOp47
 70
     1
102
RTVSPost2010Prop48
 90
       50
102
RTVSPost2010PropOp48
 70
     1
102
RTVSPost2010Prop49
280
     0
102
RTVSPost2010PropOp49
 70
     1
102
RTVSPost2010Prop50
 90
       50
102
RTVSPost2010PropOp50
 70
     1
102
RTVSPost2010Prop51ColorIndex
 90
      256
102
RTVSPost2010Prop51ColorRGB
 90
-16777216
102
RTVSPost2010PropOp51
 70
     0
102
RTVSPost2010Prop52
140
1.0
102
RTVSPost2010PropOp52
 70
     0
102
RTVSPost2010Prop53
 90
        2
102
RTVSPost2010PropOp53
 70
     1
102
RTVSPost2010Prop54
  1
strokes_ogs.tif
102
RTVSPost2010PropOp54
 70
     1
102
RTVSPost2010Prop55
280
     0
102
RTVSPost2010PropOp55
 70
     1
102
RTVSPost2010Prop56
140
1.0
102
RTVSPost2010PropOp56
 70
     1
102
RTVSPost2010Prop57
140
1.0
102
RTVSPost2010PropOp57
 70
     1
102
RTVSPropertyOp0
 70
     1
102
RTVSPropertyOp1
 70
     1
102
RTVSPropertyOp2
 70
     1
102
RTVSPropertyOp3
 70
     1
102
RTVSPropertyOp4
 70
     1
102
RTVSPropertyOp5
 70
     1
102
RTVSPropertyOp6
 70
     1
102
RTVSPropertyOp7
 70
     1
102
RTVSPropertyOp8
 70
     1
102
RTVSPropertyOp9
 70
     1
102
RTVSPropertyOp10
 70
     1
102
RTVSPropertyOp11
 70
     1
102
RTVSPropertyOp12
 70
     1
102
RTVSPropertyOp13
 70
     1
102
RTVSPropertyOp14
 70
     1
102
RTVSPropertyOp15
 70
     1
102
RTVSPropertyOp16
 70
     1
102
RTVSPropertyOp17
 70
     1
102
RTVSPropertyOp18
 70
     1
102
RTVSPropertyOp19
 70
     1
102
RTVSPropertyOp20
 70
     1
102
RTVSPropertyOp21
 70
     1
102
RTVSPropertyOp22
 70
     1
102
RTVSPropertyOp23
 70
     1
102
RTVSPropertyOp24
 70
     1
102
RTVSPropertyOp25
 70
     1
102
RTVSPropertyOp26
 70
     1
102
RTVSPropertyOp27
 70
     1
102
RTVSPropertyOp28
 70
     1
102
RTVSPropertyOp29
 70
     1
102
RTVSPropertyOp30
 70
     1
102
RTVSPropertyOp31
 70
     1
102
RTVSPropertyOp32
 70
     1
102
RTVSPropertyOp33
 70
     1
102
RTVSPropertyOp34
 70
     1
102
RTVSPropertyOp35
 70
     1
102
RTVSPropertyOp36
 70
     1
102
RTVSPropertyOp37
 70
     1
102
RTVSPropertyOp38
 70
     1
102
RTVSPropertyOp39
 70
     1
102
RTVSPropertyOp40
 70
     1
102
RTVSPropertyOp41
 70
     1
102
RTVSPropertyOp42
 70
     1
102
RTVSPropertyOp43
 70
     1
102
RTVSPropertyOp44
 70
     1
102
RTVSPropertyOp45
 70
     1
102
RTVSPropertyOp46
 70
     1
102
RTVSPropertyOp47
 70
     1
102
RTVSPropertyOp48
 70
     1
102
RTVSPropertyOp49
 70
     1
102
RTVSPropertyOp50
 70
     1
102
RTVSPropertyOp51
 70
     0
102
RTVSPropertyOp52
 70
     0
102
RTVSPropertyOp53
 70
     1
102
RTVSPropertyOp54
 70
     1
102
RTVSPropertyOp55
 70
     1
102
RTVSPropertyOp56
 70
     1
102
RTVSPropertyOp57
 70
     1
102
RTVSPropertyOp58
 70
     1
102
RTVSPropertyOp59
 70
     1
102
RTVSPropertyOp60
 70
     1
102
RTVSPropertyOp61
 70
     1
102
RTVSPropertyOp62
 70
     1
  0
XRECORD
  5
1682
102
{ACAD_REACTORS
330
1681
102
}
330
1681
100
AcDbXrecord
280
     1
102
RTVSPost2010Prop28
280
     0
102
RTVSPost2010PropOp28
 70
     1
102
RTVSPost2010Prop29
280
     1
102
RTVSPost2010PropOp29
 70
     1
102
RTVSPost2010Prop30
280
     1
102
RTVSPost2010PropOp30
 70
     1
102
RTVSPost2010Prop31
280
     0
102
RTVSPost2010PropOp31
 70
     1
102
RTVSPost2010Prop32
280
     0
102
RTVSPost2010PropOp32
 70
     1
102
RTVSPost2010Prop33
280
     0
102
RTVSPost2010PropOp33
 70
     1
102
RTVSPost2010Prop34
280
     0
102
RTVSPost2010PropOp34
 70
     1
102
RTVSPost2010Prop35
280
     0
102
RTVSPost2010PropOp35
 70
     1
102
RTVSPost2010Prop36
280
     0
102
RTVSPost2010PropOp36
 70
     1
102
RTVSPost2010Prop37
 90
       50
102
RTVSPost2010PropOp37
 70
     1
102
RTVSPost2010Prop38
140
0.0
102
RTVSPost2010PropOp38
 70
     1
102
RTVSPost2010Prop39
140
1.0
102
RTVSPost2010PropOp39
 70
     1
102
RTVSPost2010Prop40
 90
        0
102
RTVSPost2010PropOp40
 70
     1
102
RTVSPost2010Prop41ColorIndex
 90
       18
102
RTVSPost2010Prop41ColorRGB
 90
        0
102
RTVSPost2010PropOp41
 70
     1
102
RTVSPost2010Prop42
 90
       50
102
RTVSPost2010PropOp42
 70
     1
102
RTVSPost2010Prop43
 90
        3
102
RTVSPost2010PropOp43
 70
     1
102
RTVSPost2010Prop44ColorIndex
 90
        5
102
RTVSPost2010Prop44ColorRGB
 90
      255
102
RTVSPost2010PropOp44
 70
     1
102
RTVSPost2010Prop45
280
     0
102
RTVSPost2010PropOp45
 70
     1
102
RTVSPost2010Prop46
 90
       50
102
RTVSPost2010PropOp46
 70
     1
102
RTVSPost2010Prop47
 90
       50
102
RTVSPost2010PropOp47
 70
     1
102
RTVSPost2010Prop48
 90
       50
102
RTVSPost2010PropOp48
 70
     1
102
RTVSPost2010Prop49
280
     0
102
RTVSPost2010PropOp49
 70
     1
102
RTVSPost2010Prop50
 90
       50
102
RTVSPost2010PropOp50
 70
     1
102
RTVSPost2010Prop51ColorIndex
 90
      256
102
RTVSPost2010Prop51ColorRGB
 90
-16777216
102
RTVSPost2010PropOp51
 70
     0
102
RTVSPost2010Prop52
140
1.0
102
RTVSPost2010PropOp52
 70
     0
102
RTVSPost2010Prop53
 90
        2
102
RTVSPost2010PropOp53
 70
     1
102
RTVSPost2010Prop54
  1
strokes_ogs.tif
102
RTVSPost2010PropOp54
 70
     1
102
RTVSPost2010Prop55
280
     0
102
RTVSPost2010PropOp55
 70
     1
102
RTVSPost2010Prop56
140
1.0
102
RTVSPost2010PropOp56
 70
     1
102
RTVSPost2010Prop57
140
1.0
102
RTVSPost2010PropOp57
 70
     1
102
RTVSPropertyOp0
 70
     1
102
RTVSPropertyOp1
 70
     1
102
RTVSPropertyOp2
 70
     1
102
RTVSPropertyOp3
 70
     1
102
RTVSPropertyOp4
 70
     1
102
RTVSPropertyOp5
 70
     1
102
RTVSPropertyOp6
 70
     1
102
RTVSPropertyOp7
 70
     1
102
RTVSPropertyOp8
 70
     1
102
RTVSPropertyOp9
 70
     1
102
RTVSPropertyOp10
 70
     1
102
RTVSPropertyOp11
 70
     1
102
RTVSPropertyOp12
 70
     1
102
RTVSPropertyOp13
 70
     1
102
RTVSPropertyOp14
 70
     1
102
RTVSPropertyOp15
 70
     1
102
RTVSPropertyOp16
 70
     1
102
RTVSPropertyOp17
 70
     1
102
RTVSPropertyOp18
 70
     1
102
RTVSPropertyOp19
 70
     1
102
RTVSPropertyOp20
 70
     1
102
RTVSPropertyOp21
 70
     1
102
RTVSPropertyOp22
 70
     1
102
RTVSPropertyOp23
 70
     1
102
RTVSPropertyOp24
 70
     1
102
RTVSPropertyOp25
 70
     1
102
RTVSPropertyOp26
 70
     1
102
RTVSPropertyOp27
 70
     1
102
RTVSPropertyOp28
 70
     1
102
RTVSPropertyOp29
 70
     1
102
RTVSPropertyOp30
 70
     1
102
RTVSPropertyOp31
 70
     1
102
RTVSPropertyOp32
 70
     1
102
RTVSPropertyOp33
 70
     1
102
RTVSPropertyOp34
 70
     1
102
RTVSPropertyOp35
 70
     1
102
RTVSPropertyOp36
 70
     1
102
RTVSPropertyOp37
 70
     1
102
RTVSPropertyOp38
 70
     1
102
RTVSPropertyOp39
 70
     1
102
RTVSPropertyOp40
 70
     1
102
RTVSPropertyOp41
 70
     1
102
RTVSPropertyOp42
 70
     1
102
RTVSPropertyOp43
 70
     1
102
RTVSPropertyOp44
 70
     1
102
RTVSPropertyOp45
 70
     1
102
RTVSPropertyOp46
 70
     1
102
RTVSPropertyOp47
 70
     1
102
RTVSPropertyOp48
 70
     1
102
RTVSPropertyOp49
 70
     1
102
RTVSPropertyOp50
 70
     1
102
RTVSPropertyOp51
 70
     0
102
RTVSPropertyOp52
 70
     0
102
RTVSPropertyOp53
 70
     1
102
RTVSPropertyOp54
 70
     1
102
RTVSPropertyOp55
 70
     1
102
RTVSPropertyOp56
 70
     1
102
RTVSPropertyOp57
 70
     1
102
RTVSPropertyOp58
 70
     1
102
RTVSPropertyOp59
 70
     1
102
RTVSPropertyOp60
 70
     1
102
RTVSPropertyOp61
 70
     1
102
RTVSPropertyOp62
 70
     1
  0
ENDSEC
  0
EOF
