  0
SECTION
  2
HEADER
  9
$ACADVER
  1
AC1015
  9
$ACADMAINTVER
 70
    20
  9
$DWGCODEPAGE
  3
ANSI_932
  9
$INSBASE
 10
0.0
 20
0.0
 30
0.0
  9
$EXTMIN
 10
7.330419999999997
 20
9.999999999999998
 30
0.0
  9
$EXTMAX
 10
368.42992
 20
253.0042149999999
 30
0.0
  9
$LIMMIN
 10
0.0
 20
0.0
  9
$LIMMAX
 10
396.0
 20
273.0
  9
$ORTHOMODE
 70
     1
  9
$REGENMODE
 70
     1
  9
$FILLMODE
 70
     1
  9
$QTEXTMODE
 70
     0
  9
$MIRRTEXT
 70
     1
  9
$LTSCALE
 40
20.0
  9
$ATTMODE
 70
     1
  9
$TEXTSIZE
 40
5.0
  9
$TRACEWID
 40
1.0
  9
$TEXTSTYLE
  7
STANDARD
  9
$CLAYER
  8
0
  9
$CELTYPE
  6
BYLAYER
  9
$CECOLOR
 62
   256
  9
$CELTSCALE
 40
1.0
  9
$DISPSILH
 70
     0
  9
$DIMSCALE
 40
1.0
  9
$DIMASZ
 40
3.0
  9
$DIMEXO
 40
1.0
  9
$DIMDLI
 40
10.0
  9
$DIMRND
 40
0.0
  9
$DIMDLE
 40
0.0
  9
$DIMEXE
 40
1.0
  9
$DIMTP
 40
0.0
  9
$DIMTM
 40
0.0
  9
$DIMTXT
 40
3.2
  9
$DIMCEN
 40
0.0
  9
$DIMTSZ
 40
0.0
  9
$DIMTOL
 70
     0
  9
$DIMLIM
 70
     0
  9
$DIMTIH
 70
     0
  9
$DIMTOH
 70
     0
  9
$DIMSE1
 70
     0
  9
$DIMSE2
 70
     0
  9
$DIMTAD
 70
     3
  9
$DIMZIN
 70
     9
  9
$DIMBLK
  1

  9
$DIMASO
 70
     1
  9
$DIMSHO
 70
     1
  9
$DIMPOST
  1

  9
$DIMAPOST
  1

  9
$DIMALT
 70
     0
  9
$DIMALTD
 70
     2
  9
$DIMALTF
 40
25.4
  9
$DIMLFAC
 40
1.0
  9
$DIMTOFL
 70
     1
  9
$DIMTVP
 40
0.0
  9
$DIMTIX
 70
     0
  9
$DIMSOXD
 70
     0
  9
$DIMSAH
 70
     1
  9
$DIMBLK1
  1

  9
$DIMBLK2
  1

  9
$DIMSTYLE
  2
STANDARD
  9
$DIMCLRD
 70
     0
  9
$DIMCLRE
 70
     0
  9
$DIMCLRT
 70
     0
  9
$DIMTFAC
 40
1.0
  9
$DIMGAP
 40
1.0
  9
$DIMJUST
 70
     0
  9
$DIMSD1
 70
     0
  9
$DIMSD2
 70
     0
  9
$DIMTOLJ
 70
     1
  9
$DIMTZIN
 70
     0
  9
$DIMALTZ
 70
     0
  9
$DIMALTTZ
 70
     0
  9
$DIMUPT
 70
     0
  9
$DIMDEC
 70
     4
  9
$DIMTDEC
 70
     4
  9
$DIMALTU
 70
     2
  9
$DIMALTTD
 70
     2
  9
$DIMTXSTY
  7
STANDARD
  9
$DIMAUNIT
 70
     0
  9
$DIMADEC
 70
     0
  9
$DIMALTRND
 40
0.0
  9
$DIMAZIN
 70
     0
  9
$DIMDSEP
 70
    46
  9
$DIMATFIT
 70
     3
  9
$DIMFRAC
 70
     0
  9
$DIMLDRBLK
  1

  9
$DIMLUNIT
 70
     2
  9
$DIMLWD
 70
    -2
  9
$DIMLWE
 70
    -2
  9
$DIMTMOVE
 70
     0
  9
$LUNITS
 70
     2
  9
$LUPREC
 70
     4
  9
$SKETCHINC
 40
1.0
  9
$FILLETRAD
 40
0.0
  9
$AUNITS
 70
     0
  9
$AUPREC
 70
     2
  9
$MENU
  1
.
  9
$ELEVATION
 40
0.0
  9
$PELEVATION
 40
0.0
  9
$THICKNESS
 40
0.0
  9
$LIMCHECK
 70
     0
  9
$CHAMFERA
 40
10.0
  9
$CHAMFERB
 40
10.0
  9
$CHAMFERC
 40
0.0
  9
$CHAMFERD
 40
0.0
  9
$SKPOLY
 70
     0
  9
$TDCREATE
 40
2450964.478659722
  9
$TDUCREATE
 40
2450964.103659722
  9
$TDUPDATE
 40
2457192.600034213
  9
$TDUUPDATE
 40
2457192.225034213
  9
$TDINDWG
 40
0.0357440278
  9
$TDUSRTIMER
 40
0.0357435417
  9
$USRTIMER
 70
     1
  9
$ANGBASE
 50
0.0
  9
$ANGDIR
 70
     0
  9
$PDMODE
 70
     0
  9
$PDSIZE
 40
0.0
  9
$PLINEWID
 40
0.0
  9
$SPLFRAME
 70
     0
  9
$SPLINETYPE
 70
     6
  9
$SPLINESEGS
 70
     8
  9
$HANDSEED
  5
A15F
  9
$SURFTAB1
 70
     6
  9
$SURFTAB2
 70
     6
  9
$SURFTYPE
 70
     6
  9
$SURFU
 70
     6
  9
$SURFV
 70
     6
  9
$UCSBASE
  2

  9
$UCSNAME
  2

  9
$UCSORG
 10
0.0
 20
0.0
 30
0.0
  9
$UCSXDIR
 10
1.0
 20
0.0
 30
0.0
  9
$UCSYDIR
 10
0.0
 20
1.0
 30
0.0
  9
$UCSORTHOREF
  2

  9
$UCSORTHOVIEW
 70
     0
  9
$UCSORGTOP
 10
0.0
 20
0.0
 30
0.0
  9
$UCSORGBOTTOM
 10
0.0
 20
0.0
 30
0.0
  9
$UCSORGLEFT
 10
0.0
 20
0.0
 30
0.0
  9
$UCSORGRIGHT
 10
0.0
 20
0.0
 30
0.0
  9
$UCSORGFRONT
 10
0.0
 20
0.0
 30
0.0
  9
$UCSORGBACK
 10
0.0
 20
0.0
 30
0.0
  9
$PUCSBASE
  2

  9
$PUCSNAME
  2

  9
$PUCSORG
 10
0.0
 20
0.0
 30
0.0
  9
$PUCSXDIR
 10
1.0
 20
0.0
 30
0.0
  9
$PUCSYDIR
 10
0.0
 20
1.0
 30
0.0
  9
$PUCSORTHOREF
  2

  9
$PUCSORTHOVIEW
 70
     0
  9
$PUCSORGTOP
 10
0.0
 20
0.0
 30
0.0
  9
$PUCSORGBOTTOM
 10
0.0
 20
0.0
 30
0.0
  9
$PUCSORGLEFT
 10
0.0
 20
0.0
 30
0.0
  9
$PUCSORGRIGHT
 10
0.0
 20
0.0
 30
0.0
  9
$PUCSORGFRONT
 10
0.0
 20
0.0
 30
0.0
  9
$PUCSORGBACK
 10
0.0
 20
0.0
 30
0.0
  9
$USERI1
 70
     0
  9
$USERI2
 70
     0
  9
$USERI3
 70
     0
  9
$USERI4
 70
     0
  9
$USERI5
 70
     0
  9
$USERR1
 40
0.0
  9
$USERR2
 40
0.0
  9
$USERR3
 40
0.0
  9
$USERR4
 40
0.0
  9
$USERR5
 40
0.0
  9
$WORLDVIEW
 70
     1
  9
$SHADEDGE
 70
     3
  9
$SHADEDIF
 70
    70
  9
$TILEMODE
 70
     1
  9
$MAXACTVP
 70
    16
  9
$PINSBASE
 10
0.0
 20
0.0
 30
0.0
  9
$PLIMCHECK
 70
     0
  9
$PEXTMIN
 10
1.000000000000000E+20
 20
1.000000000000000E+20
 30
1.000000000000000E+20
  9
$PEXTMAX
 10
-1.000000000000000E+20
 20
-1.000000000000000E+20
 30
-1.000000000000000E+20
  9
$PLIMMIN
 10
0.0
 20
0.0
  9
$PLIMMAX
 10
420.0
 20
297.0
  9
$UNITMODE
 70
     0
  9
$VISRETAIN
 70
     0
  9
$PLINEGEN
 70
     0
  9
$PSLTSCALE
 70
     0
  9
$TREEDEPTH
 70
  3020
  9
$CMLSTYLE
  2
STANDARD
  9
$CMLJUST
 70
     0
  9
$CMLSCALE
 40
1.0
  9
$PROXYGRAPHICS
 70
     1
  9
$MEASUREMENT
 70
     0
  9
$CELWEIGHT
370
    -1
  9
$ENDCAPS
280
     0
  9
$JOINSTYLE
280
     0
  9
$LWDISPLAY
290
     0
  9
$INSUNITS
 70
     0
  9
$HYPERLINKBASE
  1

  9
$STYLESHEET
  1

  9
$XEDIT
290
     1
  9
$CEPSNTYPE
380
     0
  9
$PSTYLEMODE
290
     1
  9
$FINGERPRINTGUID
  2
{EB9342BC-49CB-4174-A708-97040AAA9344}
  9
$VERSIONGUID
  2
{4D75D884-AEB7-4988-A084-916E5BAE2557}
  9
$EXTNAMES
290
     1
  9
$PSVPSCALE
 40
0.0
  9
$OLESTARTUP
290
     0
  0
ENDSEC
  0
SECTION
  2
CLASSES
  0
CLASS
  1
ACDBDICTIONARYWDFLT
  2
AcDbDictionaryWithDefault
  3
ObjectDBX Classes
 90
        0
280
     0
281
     0
  0
CLASS
  1
ACDBPLACEHOLDER
  2
AcDbPlaceHolder
  3
ObjectDBX Classes
 90
        0
280
     0
281
     0
  0
CLASS
  1
LAYOUT
  2
AcDbLayout
  3
ObjectDBX Classes
 90
        0
280
     0
281
     0
  0
CLASS
  1
DICTIONARYVAR
  2
AcDbDictionaryVar
  3
ObjectDBX Classes
 90
        0
280
     0
281
     0
  0
CLASS
  1
MATERIAL
  2
AcDbMaterial
  3
ObjectDBX Classes
 90
     1153
280
     0
281
     0
  0
CLASS
  1
VISUALSTYLE
  2
AcDbVisualStyle
  3
ObjectDBX Classes
 90
     4095
280
     0
281
     0
  0
CLASS
  1
TABLESTYLE
  2
AcDbTableStyle
  3
ObjectDBX Classes
 90
     4095
280
     0
281
     0
  0
CLASS
  1
SCALE
  2
AcDbScale
  3
ObjectDBX Classes
 90
     1153
280
     0
281
     0
  0
CLASS
  1
MLEADERSTYLE
  2
AcDbMLeaderStyle
  3
ACDB_MLEADERSTYLE_CLASS
 90
     4095
280
     0
281
     0
  0
CLASS
  1
ACDBSECTIONVIEWSTYLE
  2
AcDbSectionViewStyle
  3
ObjectDBX Classes
 90
     1025
280
     0
281
     0
  0
CLASS
  1
ACDBDETAILVIEWSTYLE
  2
AcDbDetailViewStyle
  3
ObjectDBX Classes
 90
     1025
280
     0
281
     0
  0
CLASS
  1
CELLSTYLEMAP
  2
AcDbCellStyleMap
  3
ObjectDBX Classes
 90
     1152
280
     0
281
     0
  0
ENDSEC
  0
SECTION
  2
TABLES
  0
TABLE
  2
VPORT
  5
98D7
330
0
100
AcDbSymbolTable
 70
     1
  0
VPORT
  5
A0AA
330
98D7
100
AcDbSymbolTableRecord
100
AcDbViewportTableRecord
  2
*ACTIVE
 70
     0
 10
0.0
 20
0.0
 11
1.0
 21
1.0
 12
265.9974399747373
 22
131.5012213329332
 13
0.0
 23
0.0
 14
10.0
 24
10.0
 15
10.0
 25
10.0
 16
0.0
 26
0.0
 36
1.0
 17
0.0
 27
0.0
 37
0.0
 40
245.3748655555556
 41
1.899603698811096
 42
50.0
 43
0.0
 44
0.0
 50
0.0
 51
0.0
 71
     0
 72
   100
 73
     1
 74
     0
 75
     0
 76
     0
 77
     0
 78
     0
281
     0
 65
     1
110
0.0
120
0.0
130
0.0
111
1.0
121
0.0
131
0.0
112
0.0
122
1.0
132
0.0
 79
     0
146
0.0
1001
ACAD_NAV_VCDISPLAY
1070
     3
  0
ENDTAB
  0
TABLE
  2
LTYPE
  5
98D4
330
0
100
AcDbSymbolTable
 70
     4
  0
LTYPE
  5
98E2
330
98D4
100
AcDbSymbolTableRecord
100
AcDbLinetypeTableRecord
  2
BYBLOCK
 70
     0
  3

 72
    65
 73
     0
 40
0.0
  0
LTYPE
  5
98E3
330
98D4
100
AcDbSymbolTableRecord
100
AcDbLinetypeTableRecord
  2
BYLAYER
 70
     0
  3

 72
    65
 73
     0
 40
0.0
  0
LTYPE
  5
98E4
330
98D4
100
AcDbSymbolTableRecord
100
AcDbLinetypeTableRecord
  2
CONTINUOUS
 70
     0
  3
Solid line
 72
    65
 73
     0
 40
0.0
  0
LTYPE
  5
98F2
330
98D4
100
AcDbSymbolTableRecord
100
AcDbLinetypeTableRecord
  2
DASHED
 70
     0
  3
__ __ __ __ __ __ __ __ __ __ __ __ __ __ __ __
 72
    65
 73
     2
 40
0.75
 49
0.5
 74
     0
 49
-0.25
 74
     0
  0
LTYPE
  5
98F3
330
98D4
100
AcDbSymbolTableRecord
100
AcDbLinetypeTableRecord
  2
CENTER
 70
     0
  3
____ _ ____ _ ____ _ ____ _ ____ _ ____ _ ____ 
 72
    65
 73
     4
 40
2.0
 49
1.25
 74
     0
 49
-0.25
 74
     0
 49
0.25
 74
     0
 49
-0.25
 74
     0
  0
LTYPE
  5
98F4
330
98D4
100
AcDbSymbolTableRecord
100
AcDbLinetypeTableRecord
  2
PHANTOM
 70
     0
  3
______  __  __  ______  __  __  ______  __  __ 
 72
    65
 73
     6
 40
2.5
 49
1.25
 74
     0
 49
-0.25
 74
     0
 49
0.25
 74
     0
 49
-0.25
 74
     0
 49
0.25
 74
     0
 49
-0.25
 74
     0
  0
ENDTAB
  0
TABLE
  2
LAYER
  5
98D1
330
0
100
AcDbSymbolTable
 70
     8
  0
LAYER
  5
98DF
102
{ACAD_XDICTIONARY
360
A103
102
}
330
98D1
100
AcDbSymbolTableRecord
100
AcDbLayerTableRecord
  2
0
 70
     0
 62
     7
  6
CONTINUOUS
370
    -3
390
A0B1
  0
LAYER
  5
98F5
102
{ACAD_XDICTIONARY
360
A105
102
}
330
98D1
100
AcDbSymbolTableRecord
100
AcDbLayerTableRecord
  2
4
 70
     0
 62
     1
  6
CENTER
370
    -3
390
A0B1
  0
LAYER
  5
98F6
102
{ACAD_XDICTIONARY
360
A107
102
}
330
98D1
100
AcDbSymbolTableRecord
100
AcDbLayerTableRecord
  2
5
 70
     0
 62
     6
  6
PHANTOM
370
    -3
390
A0B1
  0
LAYER
  5
98F7
102
{ACAD_XDICTIONARY
360
A109
102
}
330
98D1
100
AcDbSymbolTableRecord
100
AcDbLayerTableRecord
  2
1
 70
     0
 62
     7
  6
CONTINUOUS
370
    -3
390
A0B1
  0
LAYER
  5
98F8
102
{ACAD_XDICTIONARY
360
A10B
102
}
330
98D1
100
AcDbSymbolTableRecord
100
AcDbLayerTableRecord
  2
2
 70
     0
 62
     4
  6
CONTINUOUS
370
    -3
390
A0B1
  0
LAYER
  5
98F9
102
{ACAD_XDICTIONARY
360
A10D
102
}
330
98D1
100
AcDbSymbolTableRecord
100
AcDbLayerTableRecord
  2
3
 70
     0
 62
     2
  6
DASHED
370
    -3
390
A0B1
  0
LAYER
  5
98FA
102
{ACAD_XDICTIONARY
360
A10F
102
}
330
98D1
100
AcDbSymbolTableRecord
100
AcDbLayerTableRecord
  2
6
 70
     0
 62
     5
  6
CONTINUOUS
370
    -3
390
A0B1
  0
LAYER
  5
98FB
102
{ACAD_XDICTIONARY
360
A111
102
}
330
98D1
100
AcDbSymbolTableRecord
100
AcDbLayerTableRecord
  2
7
 70
     0
 62
     3
  6
CONTINUOUS
370
    -3
390
A0B1
  0
ENDTAB
  0
TABLE
  2
STYLE
  5
98D2
330
0
100
AcDbSymbolTable
 70
     1
  0
STYLE
  5
98E0
330
98D2
100
AcDbSymbolTableRecord
100
AcDbTextStyleTableRecord
  2
STANDARD
 70
     0
 40
0.0
 41
1.0
 50
0.0
 71
     0
 42
5.0
  3
txt
  4

  0
ENDTAB
  0
TABLE
  2
VIEW
  5
98D5
330
0
100
AcDbSymbolTable
 70
     0
  0
ENDTAB
  0
TABLE
  2
UCS
  5
98D6
330
0
100
AcDbSymbolTable
 70
     0
  0
ENDTAB
  0
TABLE
  2
APPID
  5
98D8
330
0
100
AcDbSymbolTable
 70
     3
  0
APPID
  5
98E1
330
98D8
100
AcDbSymbolTableRecord
100
AcDbRegAppTableRecord
  2
ACAD
 70
     0
  0
APPID
  5
A11D
330
98D8
100
AcDbSymbolTableRecord
100
AcDbRegAppTableRecord
  2
ACAD_NAV_VCDISPLAY
 70
     0
  0
APPID
  5
A156
330
98D8
100
AcDbSymbolTableRecord
100
AcDbRegAppTableRecord
  2
ACAD_MLEADERVER
 70
     0
  0
ENDTAB
  0
TABLE
  2
DIMSTYLE
  5
98D9
330
0
100
AcDbSymbolTable
 70
     1
100
AcDbDimStyleTable
 71
     0
  0
DIMSTYLE
105
98FD
330
98D9
100
AcDbSymbolTableRecord
100
AcDbDimStyleTableRecord
  2
STANDARD
 70
     0
 41
3.0
 42
1.0
 43
10.0
 44
1.0
 73
     0
 74
     0
 77
     3
 78
     9
140
3.2
141
0.0
147
1.0
172
     1
173
     1
284
     9
285
     9
286
     9
340
98E0
  0
ENDTAB
  0
TABLE
  2
BLOCK_RECORD
  5
98D0
330
0
100
AcDbSymbolTable
 70
     0
  0
BLOCK_RECORD
  5
98ED
102
{ACAD_XDICTIONARY
360
9A94
102
}
330
98D0
100
AcDbSymbolTableRecord
100
AcDbBlockTableRecord
  2
*MODEL_SPACE
340
A0FF
  0
BLOCK_RECORD
  5
98E9
102
{ACAD_XDICTIONARY
360
9A92
102
}
330
98D0
100
AcDbSymbolTableRecord
100
AcDbBlockTableRecord
  2
*PAPER_SPACE
340
A100
  0
ENDTAB
  0
ENDSEC
  0
SECTION
  2
BLOCKS
  0
BLOCK
  5
98EE
330
98ED
100
AcDbEntity
  8
0
100
AcDbBlockBegin
  2
*MODEL_SPACE
 70
     0
 10
0.0
 20
0.0
 30
0.0
  3
*MODEL_SPACE
  1

  0
ENDBLK
  5
98EF
330
98ED
100
AcDbEntity
  8
0
100
AcDbBlockEnd
  0
BLOCK
  5
98EA
330
98E9
100
AcDbEntity
 67
     1
  8
0
100
AcDbBlockBegin
  2
*PAPER_SPACE
 70
     0
 10
0.0
 20
0.0
 30
0.0
  3
*PAPER_SPACE
  1

  0
ENDBLK
  5
98EB
330
98E9
100
AcDbEntity
 67
     1
  8
0
100
AcDbBlockEnd
  0
ENDSEC
  0
SECTION
  2
ENTITIES
  0
TEXT
  5
9905
330
98ED
100
AcDbEntity
  8
7
  6
Continuous
100
AcDbText
 10
10.0
 20
18.0
 30
0.0
 40
3.0
  1
TYPE No.TL-217-1
100
AcDbText
  0
TEXT
  5
9906
330
98ED
100
AcDbEntity
  8
7
  6
Continuous
100
AcDbText
 10
10.0
 20
26.0
 30
0.0
 40
3.0
  1
CODE No.1091
100
AcDbText
  0
TEXT
  5
9907
330
98ED
100
AcDbEntity
  8
1
  6
Continuous
100
AcDbText
 10
10.0
 20
10.0
 30
0.0
 40
1.399999999999999
  1
LAYER
100
AcDbText
  0
TEXT
  5
9908
330
98ED
100
AcDbEntity
  8
1
  6
Continuous
100
AcDbText
 10
17.97951099999998
 20
10.04873699999998
 30
0.0
 40
1.399999999999999
  1
1
100
AcDbText
  0
TEXT
  5
9909
330
98ED
100
AcDbEntity
  8
7
  6
Continuous
100
AcDbText
 10
29.97951099999999
 20
10.04873699999998
 30
0.0
 40
1.399999999999999
  1
7
100
AcDbText
  0
TEXT
  5
990A
330
98ED
100
AcDbEntity
  8
4
  6
CENTER
100
AcDbText
 10
23.97951099999999
 20
10.04873699999998
 30
0.0
 40
1.399999999999999
  1
4
100
AcDbText
  0
TEXT
  5
990B
330
98ED
100
AcDbEntity
  8
3
  6
DASHED
100
AcDbText
 10
21.979511
 20
10.04873699999998
 30
0.0
 40
1.399999999999999
  1
3
100
AcDbText
  0
TEXT
  5
990C
330
98ED
100
AcDbEntity
  8
2
  6
Continuous
100
AcDbText
 10
19.97951099999998
 20
10.04873699999998
 30
0.0
 40
1.399999999999999
  1
2
100
AcDbText
  0
TEXT
  5
990D
330
98ED
100
AcDbEntity
  8
6
  6
Continuous
100
AcDbText
 10
27.979511
 20
10.04873699999998
 30
0.0
 40
1.399999999999999
  1
6
100
AcDbText
  0
TEXT
  5
990E
330
98ED
100
AcDbEntity
  8
5
  6
PHANTOM
100
AcDbText
 10
25.97951099999999
 20
10.04873699999998
 30
0.0
 40
1.399999999999999
  1
5
100
AcDbText
  0
LINE
  5
990F
330
98ED
100
AcDbEntity
  8
1
  6
Continuous
100
AcDbLine
 10
209.85292
 20
164.7782149999999
 30
0.0
 11
211.05292
 21
164.7782149999999
 31
0.0
  0
LINE
  5
9910
330
98ED
100
AcDbEntity
  8
1
  6
Continuous
100
AcDbLine
 10
211.05292
 20
164.7782149999999
 30
0.0
 11
211.05292
 21
153.7282149999998
 31
0.0
  0
LINE
  5
9911
330
98ED
100
AcDbEntity
  8
1
  6
Continuous
100
AcDbLine
 10
209.85292
 20
164.7782149999999
 30
0.0
 11
209.85292
 21
153.7282149999998
 31
0.0
  0
LINE
  5
9912
330
98ED
100
AcDbEntity
  8
1
  6
Continuous
100
AcDbLine
 10
80.77592
 20
150.7782149999998
 30
0.0
 11
98.77591999999999
 21
150.7782149999998
 31
0.0
  0
LINE
  5
9913
330
98ED
100
AcDbEntity
  8
1
  6
Continuous
100
AcDbLine
 10
204.0529199999999
 20
154.6422149999999
 30
0.0
 11
205.60092
 21
152.1642149999999
 31
0.0
  0
LINE
  5
9914
330
98ED
100
AcDbEntity
  8
1
  6
Continuous
100
AcDbLine
 10
205.0699199999999
 20
155.2782149999998
 30
0.0
 11
204.0529199999999
 21
154.6422149999999
 31
0.0
  0
LINE
  5
9915
330
98ED
100
AcDbEntity
  8
4
  6
CENTER
100
AcDbLine
 10
208.1659199999998
 20
158.7782149999999
 30
0.0
 11
213.0489199999999
 21
158.7782149999999
 31
0.0
  0
LINE
  5
9916
330
98ED
100
AcDbEntity
  8
1
  6
Continuous
100
AcDbLine
 10
74.27592
 20
164.7782149999999
 30
0.0
 11
105.27592
 21
164.7782149999999
 31
0.0
  0
LINE
  5
9917
330
98ED
100
AcDbEntity
  8
1
  6
Continuous
100
AcDbLine
 10
83.27592
 20
155.2782149999998
 30
0.0
 11
96.27591999999999
 21
155.2782149999998
 31
0.0
  0
LINE
  5
9918
330
98ED
100
AcDbEntity
  8
4
  6
CENTER
100
AcDbLine
 10
89.77591999999999
 20
168.3732149999999
 30
0.0
 11
89.77591999999999
 21
146.5082149999998
 31
0.0
  0
LINE
  5
9919
330
98ED
100
AcDbEntity
  8
1
  6
Continuous
100
AcDbLine
 10
108.2759199999999
 20
161.778215
 30
0.0
 11
108.2759199999999
 21
156.778215
 31
0.0
  0
LINE
  5
991A
330
98ED
100
AcDbEntity
  8
1
  6
Continuous
100
AcDbLine
 10
71.27591999999999
 20
161.778215
 30
0.0
 11
71.27591999999999
 21
156.778215
 31
0.0
  0
LINE
  5
991B
330
98ED
100
AcDbEntity
  8
1
  6
Continuous
100
AcDbLine
 10
74.27592
 20
153.7782149999999
 30
0.0
 11
80.27592
 21
153.7782149999999
 31
0.0
  0
LINE
  5
991C
330
98ED
100
AcDbEntity
  8
1
  6
Continuous
100
AcDbLine
 10
80.77592
 20
153.2782149999999
 30
0.0
 11
80.77592
 21
150.7782149999998
 31
0.0
  0
LINE
  5
991D
330
98ED
100
AcDbEntity
  8
1
  6
Continuous
100
AcDbLine
 10
98.77591999999999
 20
153.2782149999999
 30
0.0
 11
98.77591999999999
 21
150.7782149999998
 31
0.0
  0
LINE
  5
991E
330
98ED
100
AcDbEntity
  8
1
  6
Continuous
100
AcDbLine
 10
99.27592000000002
 20
153.7782149999999
 30
0.0
 11
105.27592
 21
153.7782149999999
 31
0.0
  0
LINE
  5
991F
330
98ED
100
AcDbEntity
  8
1
  6
Continuous
100
AcDbLine
 10
83.27592
 20
154.6422149999999
 30
0.0
 11
96.27591999999999
 21
154.6422149999999
 31
0.0
  0
LINE
  5
9920
330
98ED
100
AcDbEntity
  8
4
  6
CENTER
100
AcDbLine
 10
104.27592
 20
161.2782149999999
 30
0.0
 11
104.27592
 21
156.2782149999998
 31
0.0
  0
LINE
  5
9921
330
98ED
100
AcDbEntity
  8
4
  6
CENTER
100
AcDbLine
 10
101.7759199999999
 20
158.7782149999999
 30
0.0
 11
106.77592
 21
158.7782149999999
 31
0.0
  0
LINE
  5
9922
330
98ED
100
AcDbEntity
  8
4
  6
CENTER
100
AcDbLine
 10
75.27592
 20
161.2782149999999
 30
0.0
 11
75.27592
 21
156.2782149999998
 31
0.0
  0
LINE
  5
9923
330
98ED
100
AcDbEntity
  8
4
  6
CENTER
100
AcDbLine
 10
72.77592
 20
158.7782149999999
 30
0.0
 11
77.77592
 21
158.7782149999999
 31
0.0
  0
LINE
  5
9924
330
98ED
100
AcDbEntity
  8
1
  6
Continuous
100
AcDbLine
 10
209.85292
 20
153.7782149999999
 30
0.0
 11
211.05292
 21
153.7782149999999
 31
0.0
  0
LINE
  5
9925
330
98ED
100
AcDbEntity
  8
1
  6
Continuous
100
AcDbLine
 10
153.7265826596985
 20
137.7265935571826
 30
0.0
 11
151.2459199999999
 21
137.3702149999997
 31
0.0
  0
LINE
  5
9926
330
98ED
100
AcDbEntity
  8
1
  6
Continuous
100
AcDbLine
 10
150.2289199999998
 20
136.012215
 30
0.0
 11
152.82992
 21
117.8982149999997
 31
0.0
  0
LINE
  5
9927
330
98ED
100
AcDbEntity
  8
1
  6
Continuous
100
AcDbLine
 10
153.796925371855
 20
136.2208515226199
 30
0.0
 11
151.45892
 21
135.8852149999999
 31
0.0
  0
LINE
  5
9928
330
98ED
100
AcDbEntity
  8
1
  6
Continuous
100
AcDbLine
 10
151.4169199999997
 20
136.1822149999997
 30
0.0
 11
151.45892
 21
135.8852149999999
 31
0.0
  0
LINE
  5
9929
330
98ED
100
AcDbEntity
  8
1
  6
Continuous
100
AcDbLine
 10
153.7828577276243
 20
136.5219807028308
 30
0.0
 11
151.4169199999997
 21
136.1822149999997
 31
0.0
  0
LINE
  5
992A
330
98ED
100
AcDbEntity
  8
1
  6
Continuous
100
AcDbLine
 10
158.68792
 20
133.3872149999999
 30
0.0
 11
159.82192
 21
125.4862149999999
 31
0.0
  0
LINE
  5
992B
330
98ED
100
AcDbEntity
  8
1
  6
Continuous
100
AcDbLine
 10
158.9549199999999
 20
122.9202149999997
 30
0.0
 11
154.01792
 21
118.0682149999999
 31
0.0
  0
LINE
  5
992C
330
98ED
100
AcDbEntity
  8
1
  6
Continuous
100
AcDbLine
 10
151.03492
 20
109.2912149999998
 30
0.0
 11
152.1459199999999
 21
108.707215
 31
0.0
  0
LINE
  5
992D
330
98ED
100
AcDbEntity
  8
4
  6
CENTER
100
AcDbLine
 10
152.05292
 20
134.078215
 30
0.0
 11
158.0529199999998
 21
134.078215
 31
0.0
  0
LINE
  5
992E
330
98ED
100
AcDbEntity
  8
4
  6
CENTER
100
AcDbLine
 10
155.0529199999997
 20
137.0782149999998
 30
0.0
 11
155.0529199999997
 21
131.078215
 31
0.0
  0
LINE
  5
992F
330
98ED
100
AcDbEntity
  8
1
  6
Continuous
100
AcDbLine
 10
161.05292
 20
148.578215
 30
0.0
 11
161.05292
 21
108.5782149999999
 31
0.0
  0
LINE
  5
9930
330
98ED
100
AcDbEntity
  8
1
  6
Continuous
100
AcDbLine
 10
159.8529199999999
 20
148.578215
 30
0.0
 11
159.8529199999999
 21
108.5782149999999
 31
0.0
  0
LINE
  5
9931
330
98ED
100
AcDbEntity
  8
1
  6
Continuous
100
AcDbLine
 10
159.8529199999999
 20
148.578215
 30
0.0
 11
161.05292
 21
148.578215
 31
0.0
  0
LINE
  5
9932
330
98ED
100
AcDbEntity
  8
1
  6
Continuous
100
AcDbLine
 10
159.8529199999999
 20
108.5782149999999
 30
0.0
 11
161.05292
 21
108.5782149999999
 31
0.0
  0
LINE
  5
9934
330
98ED
100
AcDbEntity
  8
1
  6
Continuous
100
AcDbLine
 10
159.8529199999999
 20
130.078215
 30
0.0
 11
159.1329199999998
 21
130.287215
 31
0.0
  0
LINE
  5
9935
330
98ED
100
AcDbEntity
  8
4
  6
CENTER
100
AcDbLine
 10
158.30892
 20
125.2962149999997
 30
0.0
 11
153.30892
 21
125.2962149999997
 31
0.0
  0
LINE
  5
9936
330
98ED
100
AcDbEntity
  8
4
  6
CENTER
100
AcDbLine
 10
155.8089199999997
 20
127.796215
 30
0.0
 11
155.8089199999997
 21
122.7962149999999
 31
0.0
  0
LINE
  5
9938
330
98ED
100
AcDbEntity
  8
1
  6
Continuous
100
AcDbLine
 10
159.4019199999999
 20
130.209215
 30
0.0
 11
159.3039199999997
 21
129.0932149999999
 31
0.0
  0
LINE
  5
9939
330
98ED
100
AcDbEntity
  8
4
  6
CENTER
100
AcDbLine
 10
155.06492
 20
115.0782149999999
 30
0.0
 11
162.4859199999999
 21
115.0782149999999
 31
0.0
  0
LINE
  5
993A
330
98ED
100
AcDbEntity
  8
1
  6
Continuous
100
AcDbLine
 10
274.9299199999999
 20
148.578215
 30
0.0
 11
304.92992
 21
148.578215
 31
0.0
  0
LINE
  5
993B
330
98ED
100
AcDbEntity
  8
4
  6
CENTER
100
AcDbLine
 10
289.9299199999998
 20
159.084215
 30
0.0
 11
289.9299199999998
 21
103.244215
 31
0.0
  0
LINE
  5
993C
330
98ED
100
AcDbEntity
  8
1
  6
Continuous
100
AcDbLine
 10
271.4299199999999
 20
145.078215
 30
0.0
 11
271.4299199999999
 21
118.5492149999999
 31
0.0
  0
LINE
  5
993D
330
98ED
100
AcDbEntity
  8
1
  6
Continuous
100
AcDbLine
 10
308.4299199999998
 20
145.078215
 30
0.0
 11
308.4299199999998
 21
118.5492149999999
 31
0.0
  0
LINE
  5
993E
330
98ED
100
AcDbEntity
  8
1
  6
Continuous
100
AcDbLine
 10
273.23892
 20
115.7952149999997
 30
0.0
 11
289.9299199999998
 21
108.5782149999999
 31
0.0
  0
LINE
  5
993F
330
98ED
100
AcDbEntity
  8
1
  6
Continuous
100
AcDbLine
 10
306.62092
 20
115.7952149999997
 30
0.0
 11
289.9299199999998
 21
108.5782149999999
 31
0.0
  0
LINE
  5
9940
330
98ED
100
AcDbEntity
  8
4
  6
CENTER
100
AcDbLine
 10
306.9299199999998
 20
119.7782149999997
 30
0.0
 11
301.9299199999998
 21
119.7782149999997
 31
0.0
  0
LINE
  5
9941
330
98ED
100
AcDbEntity
  8
4
  6
CENTER
100
AcDbLine
 10
304.4299199999998
 20
122.278215
 30
0.0
 11
304.4299199999998
 21
117.2782149999999
 31
0.0
  0
LINE
  5
9942
330
98ED
100
AcDbEntity
  8
4
  6
CENTER
100
AcDbLine
 10
306.9299199999998
 20
143.7782149999998
 30
0.0
 11
301.9299199999998
 21
143.7782149999998
 31
0.0
  0
LINE
  5
9943
330
98ED
100
AcDbEntity
  8
4
  6
CENTER
100
AcDbLine
 10
304.4299199999998
 20
146.2782149999999
 30
0.0
 11
304.4299199999998
 21
141.2782149999999
 31
0.0
  0
LINE
  5
9944
330
98ED
100
AcDbEntity
  8
4
  6
CENTER
100
AcDbLine
 10
277.92992
 20
143.7782149999998
 30
0.0
 11
272.9299199999999
 21
143.7782149999998
 31
0.0
  0
LINE
  5
9945
330
98ED
100
AcDbEntity
  8
4
  6
CENTER
100
AcDbLine
 10
275.4299199999999
 20
146.2782149999999
 30
0.0
 11
275.4299199999999
 21
141.2782149999999
 31
0.0
  0
LINE
  5
9946
330
98ED
100
AcDbEntity
  8
4
  6
CENTER
100
AcDbLine
 10
277.92992
 20
119.7782149999997
 30
0.0
 11
272.9299199999999
 21
119.7782149999997
 31
0.0
  0
LINE
  5
9947
330
98ED
100
AcDbEntity
  8
4
  6
CENTER
100
AcDbLine
 10
275.4299199999999
 20
122.278215
 30
0.0
 11
275.4299199999999
 21
117.2782149999999
 31
0.0
  0
LINE
  5
9948
330
98ED
100
AcDbEntity
  8
1
  6
Continuous
100
AcDbLine
 10
282.87992
 20
137.578215
 30
0.0
 11
282.87992
 21
129.5782149999997
 31
0.0
  0
LINE
  5
9949
330
98ED
100
AcDbEntity
  8
1
  6
Continuous
100
AcDbLine
 10
296.97992
 20
137.578215
 30
0.0
 11
296.97992
 21
129.5782149999997
 31
0.0
  0
LINE
  5
994A
330
98ED
100
AcDbEntity
  8
1
  6
Continuous
100
AcDbLine
 10
281.6799199999998
 20
137.578215
 30
0.0
 11
282.87992
 21
137.578215
 31
0.0
  0
LINE
  5
994B
330
98ED
100
AcDbEntity
  8
1
  6
Continuous
100
AcDbLine
 10
282.17992
 20
129.5782149999997
 30
0.0
 11
282.87992
 21
129.5782149999997
 31
0.0
  0
LINE
  5
994C
330
98ED
100
AcDbEntity
  8
1
  6
Continuous
100
AcDbLine
 10
296.97992
 20
137.578215
 30
0.0
 11
298.1799199999998
 21
137.578215
 31
0.0
  0
LINE
  5
994D
330
98ED
100
AcDbEntity
  8
1
  6
Continuous
100
AcDbLine
 10
296.97992
 20
129.5782149999997
 30
0.0
 11
297.6799199999998
 21
129.5782149999997
 31
0.0
  0
LINE
  5
994E
330
98ED
100
AcDbEntity
  8
1
  6
Continuous
100
AcDbLine
 10
281.6799199999998
 20
140.578215
 30
0.0
 11
298.1799199999998
 21
140.578215
 31
0.0
  0
LINE
  5
994F
330
98ED
100
AcDbEntity
  8
1
  6
Continuous
100
AcDbLine
 10
282.17992
 20
125.5782149999999
 30
0.0
 11
297.6799199999998
 21
125.5782149999999
 31
0.0
  0
LINE
  5
9950
330
98ED
100
AcDbEntity
  8
4
  6
CENTER
100
AcDbLine
 10
267.3649199999999
 20
134.078215
 30
0.0
 11
312.3749199999998
 21
134.078215
 31
0.0
  0
LINE
  5
9951
330
98ED
100
AcDbEntity
  8
1
  6
Continuous
100
AcDbLine
 10
294.92992
 20
118.3282149999999
 30
0.0
 11
294.92992
 21
114.8942149999997
 31
0.0
  0
LINE
  5
9952
330
98ED
100
AcDbEntity
  8
1
  6
Continuous
100
AcDbLine
 10
284.9299199999998
 20
118.3282149999999
 30
0.0
 11
284.9299199999998
 21
114.8942149999997
 31
0.0
  0
LINE
  5
9953
330
98ED
100
AcDbEntity
  8
1
  6
Continuous
100
AcDbLine
 10
285.9299199999998
 20
119.3282149999999
 30
0.0
 11
293.9299199999998
 21
119.3282149999999
 31
0.0
  0
LINE
  5
9954
330
98ED
100
AcDbEntity
  8
1
  6
Continuous
100
AcDbLine
 10
285.41492
 20
114.0362149999997
 30
0.0
 11
289.41492
 21
111.636215
 31
0.0
  0
LINE
  5
9955
330
98ED
100
AcDbEntity
  8
1
  6
Continuous
100
AcDbLine
 10
294.44392
 20
114.0362149999997
 30
0.0
 11
290.44392
 21
111.636215
 31
0.0
  0
LINE
  5
9956
330
98ED
100
AcDbEntity
  8
1
  6
Continuous
100
AcDbLine
 10
44.77541999999998
 20
148.578215
 30
0.0
 11
42.51894194258444
 21
148.578215
 31
0.0
  0
LINE
  5
9957
330
98ED
100
AcDbEntity
  8
4
  6
CENTER
100
AcDbLine
 10
29.77542
 20
158.3392149999999
 30
0.0
 11
29.77542
 21
103.244215
 31
0.0
  0
LINE
  5
9958
330
98ED
100
AcDbEntity
  8
1
  6
Continuous
100
AcDbLine
 10
48.27542000000001
 20
145.078215
 30
0.0
 11
48.27542000000001
 21
118.5492149999999
 31
0.0
  0
LINE
  5
9959
330
98ED
100
AcDbEntity
  8
1
  6
Continuous
100
AcDbLine
 10
11.27542
 20
145.078215
 30
0.0
 11
11.27542
 21
118.5492149999999
 31
0.0
  0
LINE
  5
995A
330
98ED
100
AcDbEntity
  8
1
  6
Continuous
100
AcDbLine
 10
46.46612
 20
115.7952149999997
 30
0.0
 11
36.34942000000001
 21
111.4212149999999
 31
0.0
  0
LINE
  5
995B
330
98ED
100
AcDbEntity
  8
1
  6
Continuous
100
AcDbLine
 10
13.08472
 20
115.7952149999997
 30
0.0
 11
23.20142
 21
111.4212149999999
 31
0.0
  0
LINE
  5
995C
330
98ED
100
AcDbEntity
  8
4
  6
CENTER
100
AcDbLine
 10
12.77542
 20
119.7782149999997
 30
0.0
 11
17.77542
 21
119.7782149999997
 31
0.0
  0
LINE
  5
995D
330
98ED
100
AcDbEntity
  8
4
  6
CENTER
100
AcDbLine
 10
15.27542
 20
122.278215
 30
0.0
 11
15.27542
 21
117.2782149999999
 31
0.0
  0
LINE
  5
995E
330
98ED
100
AcDbEntity
  8
4
  6
CENTER
100
AcDbLine
 10
12.77542
 20
143.7782149999998
 30
0.0
 11
17.77542
 21
143.7782149999998
 31
0.0
  0
LINE
  5
995F
330
98ED
100
AcDbEntity
  8
4
  6
CENTER
100
AcDbLine
 10
15.27542
 20
146.2782149999999
 30
0.0
 11
15.27542
 21
141.2782149999999
 31
0.0
  0
LINE
  5
9960
330
98ED
100
AcDbEntity
  8
4
  6
CENTER
100
AcDbLine
 10
41.77541999999998
 20
143.7782149999998
 30
0.0
 11
46.77541999999998
 21
143.7782149999998
 31
0.0
  0
LINE
  5
9961
330
98ED
100
AcDbEntity
  8
4
  6
CENTER
100
AcDbLine
 10
44.27541999999998
 20
146.2782149999999
 30
0.0
 11
44.27541999999998
 21
141.2782149999999
 31
0.0
  0
LINE
  5
9962
330
98ED
100
AcDbEntity
  8
4
  6
CENTER
100
AcDbLine
 10
41.77541999999998
 20
119.7782149999997
 30
0.0
 11
46.77541999999998
 21
119.7782149999997
 31
0.0
  0
LINE
  5
9963
330
98ED
100
AcDbEntity
  8
4
  6
CENTER
100
AcDbLine
 10
44.27541999999998
 20
122.278215
 30
0.0
 11
44.27541999999998
 21
117.2782149999999
 31
0.0
  0
LINE
  5
9964
330
98ED
100
AcDbEntity
  8
1
  6
Continuous
100
AcDbLine
 10
36.82542
 20
137.578215
 30
0.0
 11
36.82542
 21
136.3902149999999
 31
0.0
  0
LINE
  5
9965
330
98ED
100
AcDbEntity
  8
1
  6
Continuous
100
AcDbLine
 10
22.72542
 20
137.578215
 30
0.0
 11
22.72542
 21
136.3902149999999
 31
0.0
  0
LINE
  5
9966
330
98ED
100
AcDbEntity
  8
1
  6
Continuous
100
AcDbLine
 10
38.02541999999998
 20
137.578215
 30
0.0
 11
36.82542
 21
137.578215
 31
0.0
  0
LINE
  5
9967
330
98ED
100
AcDbEntity
  8
1
  6
Continuous
100
AcDbLine
 10
22.72542
 20
137.578215
 30
0.0
 11
21.52541999999999
 21
137.578215
 31
0.0
  0
LINE
  5
9968
330
98ED
100
AcDbEntity
  8
1
  6
Continuous
100
AcDbLine
 10
38.02541999999998
 20
140.578215
 30
0.0
 11
21.52541999999999
 21
140.578215
 31
0.0
  0
LINE
  5
9969
330
98ED
100
AcDbEntity
  8
4
  6
CENTER
100
AcDbLine
 10
52.34062
 20
134.078215
 30
0.0
 11
7.330419999999997
 21
134.078215
 31
0.0
  0
LINE
  5
996A
330
98ED
100
AcDbEntity
  8
1
  6
Continuous
100
AcDbLine
 10
21.52541999999999
 20
137.578215
 30
0.0
 11
21.52541999999999
 21
136.3902149999999
 31
0.0
  0
LINE
  5
996B
330
98ED
100
AcDbEntity
  8
1
  6
Continuous
100
AcDbLine
 10
38.02541999999998
 20
137.578215
 30
0.0
 11
38.02541999999998
 21
136.3902149999999
 31
0.0
  0
LINE
  5
996C
330
98ED
100
AcDbEntity
  8
1
  6
Continuous
100
AcDbLine
 10
24.17542
 20
138.3372149999999
 30
0.0
 11
35.37542
 21
138.3372149999999
 31
0.0
  0
LINE
  5
996D
330
98ED
100
AcDbEntity
  8
1
  6
Continuous
100
AcDbLine
 10
35.37542
 20
138.3372149999999
 30
0.0
 11
35.37542
 21
136.3902149999999
 31
0.0
  0
LINE
  5
996E
330
98ED
100
AcDbEntity
  8
1
  6
Continuous
100
AcDbLine
 10
24.17542
 20
138.3372149999999
 30
0.0
 11
24.17542
 21
136.3902149999999
 31
0.0
  0
LINE
  5
996F
330
98ED
100
AcDbEntity
  8
1
  6
Continuous
100
AcDbLine
 10
20.27541999999999
 20
136.3902149999999
 30
0.0
 11
24.17542
 21
136.3902149999999
 31
0.0
  0
LINE
  5
9970
330
98ED
100
AcDbEntity
  8
1
  6
Continuous
100
AcDbLine
 10
20.27541999999999
 20
136.3902149999999
 30
0.0
 11
20.27541999999999
 21
118.0682149999999
 31
0.0
  0
LINE
  5
9971
330
98ED
100
AcDbEntity
  8
1
  6
Continuous
100
AcDbLine
 10
39.27541999999998
 20
136.3902149999999
 30
0.0
 11
39.27541999999998
 21
118.0682149999999
 31
0.0
  0
LINE
  5
9972
330
98ED
100
AcDbEntity
  8
1
  6
Continuous
100
AcDbLine
 10
35.37542
 20
136.3902149999999
 30
0.0
 11
39.27541999999998
 21
136.3902149999999
 31
0.0
  0
LINE
  5
9973
330
98ED
100
AcDbEntity
  8
1
  6
Continuous
100
AcDbLine
 10
28.97541999999999
 20
109.2912149999998
 30
0.0
 11
30.57542
 21
109.2912149999998
 31
0.0
  0
LINE
  5
9974
330
98ED
100
AcDbEntity
  8
1
  6
Continuous
100
AcDbLine
 10
28.97541999999999
 20
108.707215
 30
0.0
 11
30.57542
 21
108.707215
 31
0.0
  0
LINE
  5
9975
330
98ED
100
AcDbEntity
  8
1
  6
Continuous
100
AcDbLine
 10
20.27541999999999
 20
118.0682149999999
 30
0.0
 11
21.94892
 21
113.5842149999999
 31
0.0
  0
LINE
  5
9976
330
98ED
100
AcDbEntity
  8
1
  6
Continuous
100
AcDbLine
 10
39.27541999999998
 20
118.0682149999999
 30
0.0
 11
37.60191999999999
 21
113.5842149999999
 31
0.0
  0
LINE
  5
9977
330
98ED
100
AcDbEntity
  8
1
  6
Continuous
100
AcDbLine
 10
39.27541999999998
 20
118.0682149999999
 30
0.0
 11
37.47312
 21
113.8462149999997
 31
0.0
  0
LINE
  5
9978
330
98ED
100
AcDbEntity
  8
1
  6
Continuous
100
AcDbLine
 10
20.27541999999999
 20
118.0682149999999
 30
0.0
 11
22.07771999999998
 21
113.8462149999997
 31
0.0
  0
LINE
  5
997A
330
98ED
100
AcDbEntity
  8
1
  6
Continuous
100
AcDbLine
 10
30.10822
 20
108.7222149999998
 30
0.0
 11
29.97391999999999
 21
108.6642149999997
 31
0.0
  0
LINE
  5
997B
330
98ED
100
AcDbEntity
  8
1
  6
Continuous
100
AcDbLine
 10
29.47632
 20
108.707215
 30
0.0
 11
29.57692
 21
108.6642149999997
 31
0.0
  0
LINE
  5
9983
330
98ED
100
AcDbEntity
  8
1
  6
Continuous
100
AcDbLine
 10
17.03189805712577
 20
148.578215
 30
0.0
 11
14.77542
 21
148.578215
 31
0.0
  0
LINE
  5
9984
330
98ED
100
AcDbEntity
  8
1
  6
Continuous
100
AcDbLine
 10
39.51172211539044
 20
148.578215
 30
0.0
 11
20.03911788431956
 21
148.578215
 31
0.0
  0
LINE
  5
9985
330
98ED
100
AcDbEntity
  8
1
  6
Continuous
100
AcDbLine
 10
290.72992
 20
108.707215
 30
0.0
 11
289.12992
 21
108.707215
 31
0.0
  0
LINE
  5
9986
330
98ED
100
AcDbEntity
  8
1
  6
Continuous
100
AcDbLine
 10
280.4299199999999
 20
128.5462149999997
 30
0.0
 11
280.4299199999999
 21
126.6092149999999
 31
0.0
  0
LINE
  5
9987
330
98ED
100
AcDbEntity
  8
1
  6
Continuous
100
AcDbLine
 10
299.42992
 20
128.5462149999997
 30
0.0
 11
299.42992
 21
126.6092149999999
 31
0.0
  0
LINE
  5
9988
330
98ED
100
AcDbEntity
  8
4
  6
CENTER
100
AcDbLine
 10
305.17392
 20
125.2962149999997
 30
0.0
 11
274.7689199999999
 21
125.2962149999997
 31
0.0
  0
LINE
  5
9989
330
98ED
100
AcDbEntity
  8
1
  6
Continuous
100
AcDbLine
 10
284.32992
 20
136.3902149999999
 30
0.0
 11
282.87992
 21
136.3902149999999
 31
0.0
  0
LINE
  5
998A
330
98ED
100
AcDbEntity
  8
1
  6
Continuous
100
AcDbLine
 10
284.32992
 20
138.3372149999999
 30
0.0
 11
284.32992
 21
136.3902149999999
 31
0.0
  0
LINE
  5
998B
330
98ED
100
AcDbEntity
  8
1
  6
Continuous
100
AcDbLine
 10
295.52992
 20
138.3372149999999
 30
0.0
 11
284.32992
 21
138.3372149999999
 31
0.0
  0
LINE
  5
998C
330
98ED
100
AcDbEntity
  8
1
  6
Continuous
100
AcDbLine
 10
295.52992
 20
138.3372149999999
 30
0.0
 11
295.52992
 21
136.3902149999999
 31
0.0
  0
LINE
  5
998D
330
98ED
100
AcDbEntity
  8
1
  6
Continuous
100
AcDbLine
 10
296.97992
 20
136.3902149999999
 30
0.0
 11
295.52992
 21
136.3902149999999
 31
0.0
  0
LINE
  5
998E
330
98ED
100
AcDbEntity
  8
1
  6
Continuous
100
AcDbLine
 10
24.17542
 20
137.2002149999999
 30
0.0
 11
35.37542
 21
137.2002149999999
 31
0.0
  0
LINE
  5
998F
330
98ED
100
AcDbEntity
  8
1
  6
Continuous
100
AcDbLine
 10
11.27542
 20
248.196215
 30
0.0
 11
48.27542000000001
 21
248.196215
 31
0.0
  0
LINE
  5
9990
330
98ED
100
AcDbEntity
  8
1
  6
Continuous
100
AcDbLine
 10
11.27542
 20
246.9962149999997
 30
0.0
 11
48.27542000000001
 21
246.9962149999997
 31
0.0
  0
LINE
  5
9991
330
98ED
100
AcDbEntity
  8
4
  6
CENTER
100
AcDbLine
 10
29.77542
 20
233.185215
 30
0.0
 11
29.77542
 21
253.0042149999999
 31
0.0
  0
LINE
  5
9992
330
98ED
100
AcDbEntity
  8
1
  6
Continuous
100
AcDbLine
 10
48.27542000000001
 20
246.9962149999997
 30
0.0
 11
48.27542000000001
 21
248.196215
 31
0.0
  0
LINE
  5
9993
330
98ED
100
AcDbEntity
  8
1
  6
Continuous
100
AcDbLine
 10
11.27542
 20
246.9962149999997
 30
0.0
 11
11.27542
 21
248.196215
 31
0.0
  0
LINE
  5
9994
330
98ED
100
AcDbEntity
  8
1
  6
Continuous
100
AcDbLine
 10
21.47542
 20
238.5722149999998
 30
0.0
 11
21.47542
 21
243.8228887629406
 31
0.0
  0
LINE
  5
9995
330
98ED
100
AcDbEntity
  8
1
  6
Continuous
100
AcDbLine
 10
38.07542
 20
238.5722149999998
 30
0.0
 11
38.07542000000001
 21
243.8228887629406
 31
0.0
  0
LINE
  5
9996
330
98ED
100
AcDbEntity
  8
1
  6
Continuous
100
AcDbLine
 10
20.27541999999999
 20
238.5722149999998
 30
0.0
 11
20.27541999999999
 21
243.7462149999999
 31
0.0
  0
LINE
  5
9997
330
98ED
100
AcDbEntity
  8
1
  6
Continuous
100
AcDbLine
 10
39.27541999999998
 20
238.5722149999998
 30
0.0
 11
39.27541999999998
 21
243.7462149999999
 31
0.0
  0
LINE
  5
9998
330
98ED
100
AcDbEntity
  8
1
  6
Continuous
100
AcDbLine
 10
21.52541999999999
 20
239.6962149999999
 30
0.0
 11
22.72542
 21
239.6962149999999
 31
0.0
  0
LINE
  5
9999
330
98ED
100
AcDbEntity
  8
1
  6
Continuous
100
AcDbLine
 10
35.37542
 20
237.3722149999999
 30
0.0
 11
35.37542
 21
243.8228887629406
 31
0.0
  0
LINE
  5
999A
330
98ED
100
AcDbEntity
  8
1
  6
Continuous
100
AcDbLine
 10
24.17542
 20
237.3722149999999
 30
0.0
 11
24.17542
 21
243.8228887629406
 31
0.0
  0
LINE
  5
999B
330
98ED
100
AcDbEntity
  8
1
  6
Continuous
100
AcDbLine
 10
38.02541999999998
 20
239.6962149999999
 30
0.0
 11
38.02541999999999
 21
243.8228887629406
 31
0.0
  0
LINE
  5
999C
330
98ED
100
AcDbEntity
  8
1
  6
Continuous
100
AcDbLine
 10
21.52541999999999
 20
239.6962149999999
 30
0.0
 11
21.52541999999999
 21
243.8228887629406
 31
0.0
  0
LINE
  5
999D
330
98ED
100
AcDbEntity
  8
1
  6
Continuous
100
AcDbLine
 10
22.72542
 20
239.6962149999999
 30
0.0
 11
22.72542
 21
243.8228887629406
 31
0.0
  0
LINE
  5
999E
330
98ED
100
AcDbEntity
  8
1
  6
Continuous
100
AcDbLine
 10
36.82542
 20
239.6962149999999
 30
0.0
 11
36.82542
 21
243.8228887629406
 31
0.0
  0
LINE
  5
999F
330
98ED
100
AcDbEntity
  8
1
  6
Continuous
100
AcDbLine
 10
36.82542
 20
239.6962149999999
 30
0.0
 11
38.02541999999998
 21
239.6962149999999
 31
0.0
  0
LINE
  5
99A0
330
98ED
100
AcDbEntity
  8
4
  6
CENTER
100
AcDbLine
 10
16.75992
 20
242.196215
 30
0.0
 11
43.40962
 21
242.196215
 31
0.0
  0
LINE
  5
99A3
330
98ED
100
AcDbEntity
  8
1
  6
Continuous
100
AcDbLine
 10
22.72542
 20
240.9462149999999
 30
0.0
 11
24.17542
 21
240.9462149999999
 31
0.0
  0
LINE
  5
99A4
330
98ED
100
AcDbEntity
  8
1
  6
Continuous
100
AcDbLine
 10
35.37542
 20
240.9462149999999
 30
0.0
 11
36.82542
 21
240.9462149999999
 31
0.0
  0
LINE
  5
99A5
330
98ED
100
AcDbEntity
  8
4
  6
CENTER
100
AcDbLine
 10
13.48362
 20
242.9522149999999
 30
0.0
 11
46.49772
 21
242.9522149999999
 31
0.0
  0
LINE
  5
99A6
330
98ED
100
AcDbEntity
  8
1
  6
Continuous
100
AcDbLine
 10
358.9299199999999
 20
150.7782149999998
 30
0.0
 11
340.9299199999998
 21
150.7782149999998
 31
0.0
  0
LINE
  5
99A7
330
98ED
100
AcDbEntity
  8
1
  6
Continuous
100
AcDbLine
 10
365.42992
 20
164.7782149999999
 30
0.0
 11
334.42992
 21
164.7782149999999
 31
0.0
  0
LINE
  5
99A8
330
98ED
100
AcDbEntity
  8
4
  6
CENTER
100
AcDbLine
 10
349.9299199999999
 20
168.3732149999999
 30
0.0
 11
349.9299199999999
 21
146.5082149999998
 31
0.0
  0
LINE
  5
99A9
330
98ED
100
AcDbEntity
  8
1
  6
Continuous
100
AcDbLine
 10
331.4299199999998
 20
161.778215
 30
0.0
 11
331.4299199999998
 21
156.778215
 31
0.0
  0
LINE
  5
99AA
330
98ED
100
AcDbEntity
  8
1
  6
Continuous
100
AcDbLine
 10
368.4299199999998
 20
161.778215
 30
0.0
 11
368.4299199999998
 21
156.778215
 31
0.0
  0
LINE
  5
99AB
330
98ED
100
AcDbEntity
  8
1
  6
Continuous
100
AcDbLine
 10
365.42992
 20
153.7782149999999
 30
0.0
 11
359.42992
 21
153.7782149999999
 31
0.0
  0
LINE
  5
99AC
330
98ED
100
AcDbEntity
  8
1
  6
Continuous
100
AcDbLine
 10
358.9299199999999
 20
153.2782149999999
 30
0.0
 11
358.9299199999999
 21
150.7782149999998
 31
0.0
  0
LINE
  5
99AD
330
98ED
100
AcDbEntity
  8
1
  6
Continuous
100
AcDbLine
 10
340.9299199999998
 20
153.2782149999999
 30
0.0
 11
340.9299199999998
 21
150.7782149999998
 31
0.0
  0
LINE
  5
99AE
330
98ED
100
AcDbEntity
  8
1
  6
Continuous
100
AcDbLine
 10
340.42992
 20
153.7782149999999
 30
0.0
 11
334.42992
 21
153.7782149999999
 31
0.0
  0
LINE
  5
99AF
330
98ED
100
AcDbEntity
  8
4
  6
CENTER
100
AcDbLine
 10
335.4299199999998
 20
161.2782149999999
 30
0.0
 11
335.4299199999998
 21
156.2782149999998
 31
0.0
  0
LINE
  5
99B0
330
98ED
100
AcDbEntity
  8
4
  6
CENTER
100
AcDbLine
 10
337.9299199999998
 20
158.7782149999999
 30
0.0
 11
332.9299199999998
 21
158.7782149999999
 31
0.0
  0
LINE
  5
99B1
330
98ED
100
AcDbEntity
  8
4
  6
CENTER
100
AcDbLine
 10
364.4299199999999
 20
161.2782149999999
 30
0.0
 11
364.4299199999999
 21
156.2782149999998
 31
0.0
  0
LINE
  5
99B2
330
98ED
100
AcDbEntity
  8
4
  6
CENTER
100
AcDbLine
 10
366.9299199999999
 20
158.7782149999999
 30
0.0
 11
361.9299199999999
 21
158.7782149999999
 31
0.0
  0
LINE
  5
99B4
330
98ED
100
AcDbEntity
  8
1
  6
Continuous
100
AcDbLine
 10
22.72542
 20
246.8228887629404
 30
0.0
 11
22.72542
 21
246.9962149999997
 31
0.0
  0
LINE
  5
99B5
330
98ED
100
AcDbEntity
  8
1
  6
Continuous
100
AcDbLine
 10
21.47542
 20
246.8228887629404
 30
0.0
 11
21.47542
 21
246.9962149999997
 31
0.0
  0
LINE
  5
99B6
330
98ED
100
AcDbEntity
  8
1
  6
Continuous
100
AcDbLine
 10
21.52541999999999
 20
246.8228887629404
 30
0.0
 11
21.52541999999999
 21
246.9962149999997
 31
0.0
  0
LINE
  5
99B7
330
98ED
100
AcDbEntity
  8
1
  6
Continuous
100
AcDbLine
 10
20.27541999999999
 20
246.8228887629404
 30
0.0
 11
20.27541999999999
 21
246.9962149999997
 31
0.0
  0
LINE
  5
99B9
330
98ED
100
AcDbEntity
  8
4
  6
CENTER
100
AcDbLine
 10
157.47092
 20
119.7782149999997
 30
0.0
 11
163.13392
 21
119.7782149999997
 31
0.0
  0
LINE
  5
99BA
330
98ED
100
AcDbEntity
  8
4
  6
CENTER
100
AcDbLine
 10
157.9429199999998
 20
143.7782149999998
 30
0.0
 11
163.4479199999999
 21
143.7782149999998
 31
0.0
  0
LINE
  5
99BB
330
98ED
100
AcDbEntity
  8
1
  6
Continuous
100
AcDbLine
 10
205.0699199999999
 20
155.2782149999998
 30
0.0
 11
206.61892
 21
152.8002149999998
 31
0.0
  0
LINE
  5
99BE
330
98ED
100
AcDbEntity
  8
1
  6
Continuous
100
AcDbLine
 10
20.74164350318401
 20
243.8228887629406
 30
0.0
 11
38.80919649681598
 21
243.8228887629406
 31
0.0
  0
LINE
  5
99C0
330
98ED
100
AcDbEntity
  8
1
  6
Continuous
100
AcDbLine
 10
39.27541999999998
 20
246.8228887629404
 30
0.0
 11
39.27541999999998
 21
246.9962149999997
 31
0.0
  0
LINE
  5
99C1
330
98ED
100
AcDbEntity
  8
1
  6
Continuous
100
AcDbLine
 10
38.07542
 20
246.8228887629404
 30
0.0
 11
38.07542
 21
246.9962149999997
 31
0.0
  0
LINE
  5
99C2
330
98ED
100
AcDbEntity
  8
1
  6
Continuous
100
AcDbLine
 10
38.02541999999998
 20
246.8228887629404
 30
0.0
 11
38.02541999999998
 21
246.9962149999997
 31
0.0
  0
LINE
  5
99C3
330
98ED
100
AcDbEntity
  8
1
  6
Continuous
100
AcDbLine
 10
36.82542
 20
246.8228887629404
 30
0.0
 11
36.82542
 21
246.9962149999997
 31
0.0
  0
LINE
  5
99C4
330
98ED
100
AcDbEntity
  8
1
  6
Continuous
100
AcDbLine
 10
18.71111999999999
 20
246.8228887629404
 30
0.0
 11
39.47774879435808
 21
246.8228887629404
 31
0.0
  0
LINE
  5
99C5
330
98ED
100
AcDbEntity
  8
1
  6
Continuous
100
AcDbLine
 10
157.85292
 20
109.5782149999999
 30
0.0
 11
158.55292
 21
109.5782149999999
 31
0.0
  0
LINE
  5
99C6
330
98ED
100
AcDbEntity
  8
1
  6
Continuous
100
AcDbLine
 10
157.9739199999998
 20
121.9562149999999
 30
0.0
 11
157.85292
 21
120.5782149999997
 31
0.0
  0
LINE
  5
99C7
330
98ED
100
AcDbEntity
  8
1
  6
Continuous
100
AcDbLine
 10
157.85292
 20
120.5782149999997
 30
0.0
 11
157.85292
 21
109.5782149999999
 31
0.0
  0
LINE
  5
99C8
330
98ED
100
AcDbEntity
  8
1
  6
Continuous
100
AcDbLine
 10
158.55292
 20
120.547215
 30
0.0
 11
158.55292
 21
109.5782149999999
 31
0.0
  0
LINE
  5
99C9
330
98ED
100
AcDbEntity
  8
1
  6
Continuous
100
AcDbLine
 10
158.74292
 20
122.7112149999999
 30
0.0
 11
158.55292
 21
120.547215
 31
0.0
  0
LINE
  5
99CA
330
98ED
100
AcDbEntity
  8
1
  6
Continuous
100
AcDbLine
 10
11.27542
 20
41.176215
 30
0.0
 11
48.27542000000001
 21
41.176215
 31
0.0
  0
LINE
  5
99CB
330
98ED
100
AcDbEntity
  8
1
  6
Continuous
100
AcDbLine
 10
11.27542
 20
42.376215
 30
0.0
 11
48.27542000000001
 21
42.376215
 31
0.0
  0
LINE
  5
99CC
330
98ED
100
AcDbEntity
  8
4
  6
CENTER
100
AcDbLine
 10
29.77542
 20
56.187415
 30
0.0
 11
29.77542
 21
36.368115
 31
0.0
  0
LINE
  5
99CD
330
98ED
100
AcDbEntity
  8
1
  6
Continuous
100
AcDbLine
 10
48.27542000000001
 20
42.376215
 30
0.0
 11
48.27542000000001
 21
41.176215
 31
0.0
  0
LINE
  5
99CE
330
98ED
100
AcDbEntity
  8
1
  6
Continuous
100
AcDbLine
 10
11.27542
 20
42.376215
 30
0.0
 11
11.27542
 21
41.176215
 31
0.0
  0
LINE
  5
99CF
330
98ED
100
AcDbEntity
  8
1
  6
Continuous
100
AcDbLine
 10
21.47542
 20
48.15071500000001
 30
0.0
 11
21.47542
 21
42.376215
 31
0.0
  0
LINE
  5
99D0
330
98ED
100
AcDbEntity
  8
1
  6
Continuous
100
AcDbLine
 10
38.07542
 20
48.15071500000001
 30
0.0
 11
38.07542
 21
42.376215
 31
0.0
  0
LINE
  5
99D1
330
98ED
100
AcDbEntity
  8
1
  6
Continuous
100
AcDbLine
 10
20.27541999999999
 20
50.80011500000001
 30
0.0
 11
20.27541999999999
 21
42.376215
 31
0.0
  0
LINE
  5
99D2
330
98ED
100
AcDbEntity
  8
1
  6
Continuous
100
AcDbLine
 10
39.27541999999998
 20
50.80011500000001
 30
0.0
 11
39.27541999999998
 21
42.376215
 31
0.0
  0
LINE
  5
99D3
330
98ED
100
AcDbEntity
  8
1
  6
Continuous
100
AcDbLine
 10
38.02541999999998
 20
48.15071500000001
 30
0.0
 11
38.02541999999998
 21
42.376215
 31
0.0
  0
LINE
  5
99D4
330
98ED
100
AcDbEntity
  8
1
  6
Continuous
100
AcDbLine
 10
21.52541999999999
 20
48.15071500000001
 30
0.0
 11
21.52541999999999
 21
42.376215
 31
0.0
  0
LINE
  5
99D5
330
98ED
100
AcDbEntity
  8
1
  6
Continuous
100
AcDbLine
 10
22.72542
 20
48.15071500000001
 30
0.0
 11
22.72542
 21
42.376215
 31
0.0
  0
LINE
  5
99D6
330
98ED
100
AcDbEntity
  8
1
  6
Continuous
100
AcDbLine
 10
36.82542
 20
48.15071500000001
 30
0.0
 11
36.82542
 21
42.376215
 31
0.0
  0
LINE
  5
99D7
330
98ED
100
AcDbEntity
  8
4
  6
CENTER
100
AcDbLine
 10
16.75992
 20
47.17621499999999
 30
0.0
 11
43.40962
 21
47.17621499999999
 31
0.0
  0
LINE
  5
99DC
330
98ED
100
AcDbEntity
  8
4
  6
CENTER
100
AcDbLine
 10
13.48362
 20
46.420415
 30
0.0
 11
46.49772
 21
46.420415
 31
0.0
  0
LINE
  5
99DD
330
98ED
100
AcDbEntity
  8
1
  6
Continuous
100
AcDbLine
 10
33.77542
 20
47.92041499999998
 30
0.0
 11
36.82542
 21
47.92041499999998
 31
0.0
  0
LINE
  5
99DE
330
98ED
100
AcDbEntity
  8
1
  6
Continuous
100
AcDbLine
 10
21.47542
 20
237.3722149999999
 30
0.0
 11
38.07542
 21
237.3722149999999
 31
0.0
  0
LINE
  5
99DF
330
98ED
100
AcDbEntity
  8
1
  6
Continuous
100
AcDbLine
 10
21.47542
 20
238.5722149999998
 30
0.0
 11
24.17542
 21
238.5722149999998
 31
0.0
  0
LINE
  5
99E0
330
98ED
100
AcDbEntity
  8
1
  6
Continuous
100
AcDbLine
 10
35.37542
 20
238.5722149999998
 30
0.0
 11
38.07542
 21
238.5722149999998
 31
0.0
  0
LINE
  5
99E1
330
98ED
100
AcDbEntity
  8
1
  6
Continuous
100
AcDbLine
 10
38.07542
 20
52.00001499999999
 30
0.0
 11
21.47542
 21
52.00001499999999
 31
0.0
  0
LINE
  5
99E2
330
98ED
100
AcDbEntity
  8
1
  6
Continuous
100
AcDbLine
 10
33.77542
 20
44.920415
 30
0.0
 11
36.82542
 21
44.920415
 31
0.0
  0
LINE
  5
99E3
330
98ED
100
AcDbEntity
  8
1
  6
Continuous
100
AcDbLine
 10
33.77542
 20
47.92041499999998
 30
0.0
 11
33.77542
 21
44.920415
 31
0.0
  0
LINE
  5
99E4
330
98ED
100
AcDbEntity
  8
1
  6
Continuous
100
AcDbLine
 10
25.77542
 20
47.92041499999998
 30
0.0
 11
25.77542
 21
44.920415
 31
0.0
  0
LINE
  5
99E5
330
98ED
100
AcDbEntity
  8
1
  6
Continuous
100
AcDbLine
 10
22.72542
 20
47.92041499999998
 30
0.0
 11
25.77542
 21
47.92041499999998
 31
0.0
  0
LINE
  5
99E6
330
98ED
100
AcDbEntity
  8
1
  6
Continuous
100
AcDbLine
 10
22.72542
 20
44.920415
 30
0.0
 11
25.77542
 21
44.920415
 31
0.0
  0
LINE
  5
99E7
330
98ED
100
AcDbEntity
  8
1
  6
Continuous
100
AcDbLine
 10
24.17542
 20
48.15071500000001
 30
0.0
 11
24.17542
 21
47.92041499999998
 31
0.0
  0
LINE
  5
99E8
330
98ED
100
AcDbEntity
  8
1
  6
Continuous
100
AcDbLine
 10
35.37542
 20
48.15071500000001
 30
0.0
 11
35.37542
 21
47.92041499999998
 31
0.0
  0
LINE
  5
99E9
330
98ED
100
AcDbEntity
  8
1
  6
Continuous
100
AcDbLine
 10
35.37542
 20
44.920415
 30
0.0
 11
35.37542
 21
44.376215
 31
0.0
  0
LINE
  5
99EA
330
98ED
100
AcDbEntity
  8
1
  6
Continuous
100
AcDbLine
 10
24.17542
 20
44.920415
 30
0.0
 11
24.17542
 21
44.376215
 31
0.0
  0
LINE
  5
99EB
330
98ED
100
AcDbEntity
  8
1
  6
Continuous
100
AcDbLine
 10
35.42542
 20
43.676215
 30
0.0
 11
24.12542
 21
43.676215
 31
0.0
  0
LINE
  5
99EC
330
98ED
100
AcDbEntity
  8
1
  6
Continuous
100
AcDbLine
 10
35.42542
 20
44.376215
 30
0.0
 11
24.12542
 21
44.376215
 31
0.0
  0
LINE
  5
99ED
330
98ED
100
AcDbEntity
  8
1
  6
Continuous
100
AcDbLine
 10
24.12542
 20
44.376215
 30
0.0
 11
24.12542
 21
43.471615
 31
0.0
  0
LINE
  5
99EE
330
98ED
100
AcDbEntity
  8
1
  6
Continuous
100
AcDbLine
 10
35.42542
 20
44.376215
 30
0.0
 11
35.42542
 21
43.471615
 31
0.0
  0
LINE
  5
99EF
330
98ED
100
AcDbEntity
  8
1
  6
Continuous
100
AcDbLine
 10
29.77542
 20
44.376215
 30
0.0
 11
29.77542
 21
43.676215
 31
0.0
  0
LINE
  5
99F0
330
98ED
100
AcDbEntity
  8
1
  6
Continuous
100
AcDbLine
 10
71.27591999999999
 20
248.196215
 30
0.0
 11
108.2759199999999
 21
248.196215
 31
0.0
  0
LINE
  5
99F1
330
98ED
100
AcDbEntity
  8
1
  6
Continuous
100
AcDbLine
 10
71.27591999999999
 20
246.9962149999997
 30
0.0
 11
108.2759199999999
 21
246.9962149999997
 31
0.0
  0
LINE
  5
99F2
330
98ED
100
AcDbEntity
  8
1
  6
Continuous
100
AcDbLine
 10
80.77592
 20
241.1962149999999
 30
0.0
 11
98.77591999999999
 21
241.1962149999999
 31
0.0
  0
LINE
  5
99F3
330
98ED
100
AcDbEntity
  8
1
  6
Continuous
100
AcDbLine
 10
80.77592
 20
242.2142149999999
 30
0.0
 11
98.77591999999999
 21
242.2142149999999
 31
0.0
  0
LINE
  5
99F4
330
98ED
100
AcDbEntity
  8
4
  6
CENTER
100
AcDbLine
 10
89.77591999999999
 20
238.4602149999998
 30
0.0
 11
89.77591999999999
 21
251.3172149999999
 31
0.0
  0
LINE
  5
99F5
330
98ED
100
AcDbEntity
  8
1
  6
Continuous
100
AcDbLine
 10
108.2759199999999
 20
246.9962149999997
 30
0.0
 11
108.2759199999999
 21
248.196215
 31
0.0
  0
LINE
  5
99F6
330
98ED
100
AcDbEntity
  8
1
  6
Continuous
100
AcDbLine
 10
71.27591999999999
 20
246.9962149999997
 30
0.0
 11
71.27591999999999
 21
248.196215
 31
0.0
  0
LINE
  5
99F7
330
98ED
100
AcDbEntity
  8
4
  6
CENTER
100
AcDbLine
 10
104.27592
 20
245.3832149999997
 30
0.0
 11
104.27592
 21
251.3172149999999
 31
0.0
  0
LINE
  5
99F8
330
98ED
100
AcDbEntity
  8
4
  6
CENTER
100
AcDbLine
 10
75.27592
 20
245.5812149999999
 30
0.0
 11
75.27592
 21
251.3172149999999
 31
0.0
  0
LINE
  5
99F9
330
98ED
100
AcDbEntity
  8
1
  6
Continuous
100
AcDbLine
 10
98.77591999999999
 20
241.1962149999999
 30
0.0
 11
98.77591999999999
 21
246.9962149999997
 31
0.0
  0
LINE
  5
99FA
330
98ED
100
AcDbEntity
  8
1
  6
Continuous
100
AcDbLine
 10
80.77592
 20
241.1962149999999
 30
0.0
 11
80.77592
 21
246.9962149999997
 31
0.0
  0
LINE
  5
99FB
330
98ED
100
AcDbEntity
  8
1
  6
Continuous
100
AcDbLine
 10
39.27541999999998
 20
48.15071500000001
 30
0.0
 11
20.27541999999999
 21
48.15071500000001
 31
0.0
  0
LINE
  5
9A01
330
98ED
100
AcDbEntity
  8
4
  6
CENTER
100
AcDbLine
 10
15.27542
 20
244.6032149999997
 30
0.0
 11
15.27542
 21
251.031215
 31
0.0
  0
LINE
  5
9A02
330
98ED
100
AcDbEntity
  8
4
  6
CENTER
100
AcDbLine
 10
44.27541999999998
 20
244.4022149999999
 30
0.0
 11
44.27541999999998
 21
250.6292149999999
 31
0.0
  0
LINE
  5
9A03
330
98ED
100
AcDbEntity
  8
4
  6
CENTER
100
AcDbLine
 10
15.27542
 20
44.651715
 30
0.0
 11
15.27542
 21
38.67301499999999
 31
0.0
  0
LINE
  5
9A04
330
98ED
100
AcDbEntity
  8
4
  6
CENTER
100
AcDbLine
 10
44.27541999999998
 20
44.426115
 30
0.0
 11
44.27541999999998
 21
38.898615
 31
0.0
  0
ARC
  5
9A05
330
98ED
100
AcDbEntity
  8
1
  6
Continuous
100
AcDbCircle
 10
74.27592
 20
161.778215
 30
0.0
 40
3.0
100
AcDbArc
 50
90.0
 51
180.0
  0
ARC
  5
9A06
330
98ED
100
AcDbEntity
  8
1
  6
Continuous
100
AcDbCircle
 10
74.27592
 20
156.778215
 30
0.0
 40
3.0
100
AcDbArc
 50
180.0
 51
270.0
  0
ARC
  5
9A07
330
98ED
100
AcDbEntity
  8
1
  6
Continuous
100
AcDbCircle
 10
105.27592
 20
156.778215
 30
0.0
 40
3.0
100
AcDbArc
 50
270.0
 51
0.0
  0
ARC
  5
9A08
330
98ED
100
AcDbEntity
  8
1
  6
Continuous
100
AcDbCircle
 10
105.27592
 20
161.778215
 30
0.0
 40
3.0
100
AcDbArc
 50
0.0
 51
90.0
  0
CIRCLE
  5
9A09
330
98ED
100
AcDbEntity
  8
1
  6
Continuous
100
AcDbCircle
 10
75.27592
 20
158.7782149999999
 30
0.0
 40
1.6
  0
CIRCLE
  5
9A0A
330
98ED
100
AcDbEntity
  8
1
  6
Continuous
100
AcDbCircle
 10
104.27592
 20
158.7782149999999
 30
0.0
 40
1.6
  0
ARC
  5
9A0B
330
98ED
100
AcDbEntity
  8
1
  6
Continuous
100
AcDbCircle
 10
151.4169199999997
 20
136.1822149999997
 30
0.0
 40
1.199999999999999
100
AcDbArc
 50
98.17120000000002
 51
188.1709999999999
  0
ARC
  5
9A0C
330
98ED
100
AcDbEntity
  8
1
  6
Continuous
100
AcDbCircle
 10
155.22292
 20
132.8902149999999
 30
0.0
 40
3.5
100
AcDbArc
 50
8.1712
 51
63.03350230964756
  0
ARC
  5
9A0D
330
98ED
100
AcDbEntity
  8
1
  6
Continuous
100
AcDbCircle
 10
156.8529199999999
 20
125.0602149999999
 30
0.0
 40
3.0
100
AcDbArc
 50
314.4979999999999
 51
8.1712
  0
ARC
  5
9A0E
330
98ED
100
AcDbEntity
  8
1
  6
Continuous
100
AcDbCircle
 10
136.8719199999999
 20
116.7352149999999
 30
0.0
 40
16.0
100
AcDbArc
 50
332.273
 51
4.165049999999999
  0
ARC
  5
9A0F
330
98ED
100
AcDbEntity
  8
1
  6
Continuous
100
AcDbCircle
 10
136.8779199999997
 20
116.6272149999997
 30
0.0
 40
17.19999999999998
100
AcDbArc
 50
332.583
 51
4.806029999999998
  0
ARC
  5
9A10
330
98ED
100
AcDbEntity
  8
1
  6
Continuous
100
AcDbCircle
 10
155.0529199999997
 20
134.078215
 30
0.0
 40
2.25
100
AcDbArc
 50
123.5501177903321
 51
241.7992877654342
  0
ARC
  5
9A12
330
98ED
100
AcDbEntity
  8
1
  6
Continuous
100
AcDbCircle
 10
34.72542
 20
42.376215
 30
0.0
 40
1.3
100
AcDbArc
 50
0.000003
 51
90.0
  0
ARC
  5
9A13
330
98ED
100
AcDbEntity
  8
1
  6
Continuous
100
AcDbCircle
 10
24.82542
 20
42.376215
 30
0.0
 40
1.3
100
AcDbArc
 50
90.0
 51
180.0
  0
ARC
  5
9A14
330
98ED
100
AcDbEntity
  8
1
  6
Continuous
100
AcDbCircle
 10
274.9299199999999
 20
145.078215
 30
0.0
 40
3.5
100
AcDbArc
 50
90.0
 51
180.0
  0
ARC
  5
9A15
330
98ED
100
AcDbEntity
  8
1
  6
Continuous
100
AcDbCircle
 10
304.92992
 20
145.078215
 30
0.0
 40
3.5
100
AcDbArc
 50
0.0
 51
90.0
  0
ARC
  5
9A16
330
98ED
100
AcDbEntity
  8
1
  6
Continuous
100
AcDbCircle
 10
274.4299199999999
 20
118.5492149999999
 30
0.0
 40
3.0
100
AcDbArc
 50
180.0
 51
246.615
  0
ARC
  5
9A17
330
98ED
100
AcDbEntity
  8
1
  6
Continuous
100
AcDbCircle
 10
305.4299199999998
 20
118.5492149999999
 30
0.0
 40
3.0
100
AcDbArc
 50
293.3849999999998
 51
0.0
  0
CIRCLE
  5
9A18
330
98ED
100
AcDbEntity
  8
1
  6
Continuous
100
AcDbCircle
 10
275.4299199999999
 20
143.7782149999998
 30
0.0
 40
1.6
  0
CIRCLE
  5
9A19
330
98ED
100
AcDbEntity
  8
1
  6
Continuous
100
AcDbCircle
 10
275.4299199999999
 20
119.7782149999997
 30
0.0
 40
1.6
  0
CIRCLE
  5
9A1A
330
98ED
100
AcDbEntity
  8
1
  6
Continuous
100
AcDbCircle
 10
304.4299199999998
 20
119.7782149999997
 30
0.0
 40
1.6
  0
CIRCLE
  5
9A1B
330
98ED
100
AcDbEntity
  8
1
  6
Continuous
100
AcDbCircle
 10
304.4299199999998
 20
143.7782149999998
 30
0.0
 40
1.6
  0
ARC
  5
9A1C
330
98ED
100
AcDbEntity
  8
1
  6
Continuous
100
AcDbCircle
 10
298.1799199999998
 20
139.0782149999997
 30
0.0
 40
1.5
100
AcDbArc
 50
270.0
 51
90.0
  0
ARC
  5
9A1D
330
98ED
100
AcDbEntity
  8
1
  6
Continuous
100
AcDbCircle
 10
297.6799199999998
 20
127.5782149999999
 30
0.0
 40
2.0
100
AcDbArc
 50
270.0
 51
90.0
  0
ARC
  5
9A1E
330
98ED
100
AcDbEntity
  8
1
  6
Continuous
100
AcDbCircle
 10
281.6799199999998
 20
139.0782149999997
 30
0.0
 40
1.5
100
AcDbArc
 50
90.0
 51
270.0
  0
ARC
  5
9A1F
330
98ED
100
AcDbEntity
  8
1
  6
Continuous
100
AcDbCircle
 10
282.17992
 20
127.5782149999999
 30
0.0
 40
2.0
100
AcDbArc
 50
90.0
 51
270.0
  0
ARC
  5
9A20
330
98ED
100
AcDbEntity
  8
1
  6
Continuous
100
AcDbCircle
 10
285.9299199999998
 20
118.3282149999999
 30
0.0
 40
1.0
100
AcDbArc
 50
90.0
 51
180.0
  0
ARC
  5
9A21
330
98ED
100
AcDbEntity
  8
1
  6
Continuous
100
AcDbCircle
 10
285.9299199999998
 20
114.8942149999997
 30
0.0
 40
1.0
100
AcDbArc
 50
180.0
 51
239.0359999999999
  0
ARC
  5
9A22
330
98ED
100
AcDbEntity
  8
1
  6
Continuous
100
AcDbCircle
 10
289.9299199999998
 20
112.494215
 30
0.0
 40
1.0
100
AcDbArc
 50
239.0359999999999
 51
300.964
  0
ARC
  5
9A23
330
98ED
100
AcDbEntity
  8
1
  6
Continuous
100
AcDbCircle
 10
293.9299199999998
 20
114.8942149999997
 30
0.0
 40
1.0
100
AcDbArc
 50
300.964
 51
0.0
  0
ARC
  5
9A24
330
98ED
100
AcDbEntity
  8
1
  6
Continuous
100
AcDbCircle
 10
293.9299199999998
 20
118.3282149999999
 30
0.0
 40
1.0
100
AcDbArc
 50
0.0
 51
90.0
  0
ARC
  5
9A25
330
98ED
100
AcDbEntity
  8
1
  6
Continuous
100
AcDbCircle
 10
44.77541999999998
 20
145.078215
 30
0.0
 40
3.5
100
AcDbArc
 50
0.0
 51
90.0
  0
ARC
  5
9A26
330
98ED
100
AcDbEntity
  8
1
  6
Continuous
100
AcDbCircle
 10
14.77542
 20
145.078215
 30
0.0
 40
3.5
100
AcDbArc
 50
90.0
 51
180.0
  0
ARC
  5
9A27
330
98ED
100
AcDbEntity
  8
1
  6
Continuous
100
AcDbCircle
 10
45.27541999999999
 20
118.5492149999999
 30
0.0
 40
3.0
100
AcDbArc
 50
293.3849999999998
 51
0.0
  0
ARC
  5
9A28
330
98ED
100
AcDbEntity
  8
1
  6
Continuous
100
AcDbCircle
 10
14.27542
 20
118.5492149999999
 30
0.0
 40
3.0
100
AcDbArc
 50
180.0
 51
246.615
  0
ARC
  5
9A29
330
98ED
100
AcDbEntity
  8
1
  6
Continuous
100
AcDbCircle
 10
44.27541999999998
 20
143.7782149999998
 30
0.0
 40
1.6
100
AcDbArc
 50
217.07
 51
152.113
  0
CIRCLE
  5
9A2A
330
98ED
100
AcDbEntity
  8
1
  6
Continuous
100
AcDbCircle
 10
44.27541999999998
 20
119.7782149999997
 30
0.0
 40
1.6
  0
CIRCLE
  5
9A2B
330
98ED
100
AcDbEntity
  8
1
  6
Continuous
100
AcDbCircle
 10
15.27542
 20
119.7782149999997
 30
0.0
 40
1.6
  0
ARC
  5
9A2C
330
98ED
100
AcDbEntity
  8
1
  6
Continuous
100
AcDbCircle
 10
15.27542
 20
143.7782149999998
 30
0.0
 40
1.6
100
AcDbArc
 50
27.8872
 51
322.93
  0
ARC
  5
9A2D
330
98ED
100
AcDbEntity
  8
1
  6
Continuous
100
AcDbCircle
 10
21.52541999999999
 20
139.0782149999997
 30
0.0
 40
1.5
100
AcDbArc
 50
90.0
 51
270.0
  0
ARC
  5
9A2E
330
98ED
100
AcDbEntity
  8
1
  6
Continuous
100
AcDbCircle
 10
22.02542
 20
127.5782149999999
 30
0.0
 40
2.0
100
AcDbArc
 50
151.0449999999999
 51
203.5781784773337
  0
ARC
  5
9A2F
330
98ED
100
AcDbEntity
  8
1
  6
Continuous
100
AcDbCircle
 10
38.02541999999998
 20
139.0782149999997
 30
0.0
 40
1.5
100
AcDbArc
 50
270.0
 51
90.0
  0
ARC
  5
9A30
330
98ED
100
AcDbEntity
  8
1
  6
Continuous
100
AcDbCircle
 10
37.52542
 20
127.5782149999999
 30
0.0
 40
2.0
100
AcDbArc
 50
336.421821522664
 51
28.955
  0
ARC
  5
9A31
330
98ED
100
AcDbEntity
  8
1
  6
Continuous
100
AcDbCircle
 10
28.97541999999999
 20
116.791215
 30
0.0
 40
7.5
100
AcDbArc
 50
203.119
 51
270.0
  0
ARC
  5
9A32
330
98ED
100
AcDbEntity
  8
1
  6
Continuous
100
AcDbCircle
 10
30.57542
 20
116.791215
 30
0.0
 40
7.5
100
AcDbArc
 50
270.0
 51
336.8809999999998
  0
ARC
  5
9A33
330
98ED
100
AcDbEntity
  8
1
  6
Continuous
100
AcDbCircle
 10
30.57542
 20
116.2072149999999
 30
0.0
 40
7.5
100
AcDbArc
 50
270.0
 51
339.5319999999998
  0
ARC
  5
9A34
330
98ED
100
AcDbEntity
  8
1
  6
Continuous
100
AcDbCircle
 10
28.97541999999999
 20
116.2072149999999
 30
0.0
 40
7.5
100
AcDbArc
 50
200.468
 51
270.0
  0
ARC
  5
9A35
330
98ED
100
AcDbEntity
  8
1
  6
Continuous
100
AcDbCircle
 10
29.77542
 20
109.1222149999999
 30
0.0
 40
0.5
100
AcDbArc
 50
246.615
 51
293.3849999999998
  0
ARC
  5
9A36
330
98ED
100
AcDbEntity
  8
1
  6
Continuous
100
AcDbCircle
 10
290.72992
 20
116.2072149999999
 30
0.0
 40
7.5
100
AcDbArc
 50
270.0
 51
320.3419999999998
  0
ARC
  5
9A37
330
98ED
100
AcDbEntity
  8
1
  6
Continuous
100
AcDbCircle
 10
289.12992
 20
116.2072149999999
 30
0.0
 40
7.5
100
AcDbArc
 50
219.6579999999999
 51
270.0
  0
ARC
  5
9A38
330
98ED
100
AcDbEntity
  8
1
  6
Continuous
100
AcDbCircle
 10
365.42992
 20
161.778215
 30
0.0
 40
3.0
100
AcDbArc
 50
0.0
 51
90.0
  0
ARC
  5
9A39
330
98ED
100
AcDbEntity
  8
1
  6
Continuous
100
AcDbCircle
 10
365.42992
 20
156.778215
 30
0.0
 40
3.0
100
AcDbArc
 50
270.0
 51
0.000005
  0
ARC
  5
9A3A
330
98ED
100
AcDbEntity
  8
1
  6
Continuous
100
AcDbCircle
 10
334.42992
 20
156.778215
 30
0.0
 40
3.0
100
AcDbArc
 50
180.0
 51
270.0
  0
ARC
  5
9A3B
330
98ED
100
AcDbEntity
  8
1
  6
Continuous
100
AcDbCircle
 10
334.42992
 20
161.778215
 30
0.0
 40
3.0
100
AcDbArc
 50
90.0
 51
180.0
  0
CIRCLE
  5
9A3C
330
98ED
100
AcDbEntity
  8
1
  6
Continuous
100
AcDbCircle
 10
364.4299199999999
 20
158.7782149999999
 30
0.0
 40
1.6
  0
CIRCLE
  5
9A3D
330
98ED
100
AcDbEntity
  8
1
  6
Continuous
100
AcDbCircle
 10
335.4299199999998
 20
158.7782149999999
 30
0.0
 40
1.6
  0
ARC
  5
9A40
330
98ED
100
AcDbEntity
  8
1
  6
Continuous
100
AcDbCircle
 10
208.1029199999999
 20
153.7282149999998
 30
0.0
 40
1.75
100
AcDbArc
 50
212.0039999999999
 51
0.0
  0
ARC
  5
9A41
330
98ED
100
AcDbEntity
  8
1
  6
Continuous
100
AcDbCircle
 10
208.1029199999999
 20
153.7282149999998
 30
0.0
 40
2.95
100
AcDbArc
 50
212.0039999999999
 51
0.0
  0
ARC
  5
9A42
330
98ED
100
AcDbEntity
  8
1
  6
Continuous
100
AcDbCircle
 10
155.8089199999997
 20
125.2962149999997
 30
0.0
 40
1.7
100
AcDbArc
 50
154.6022158420514
 51
30.7471897137432
  0
ARC
  5
9A49
330
98ED
100
AcDbEntity
  8
1
  6
Continuous
100
AcDbCircle
 10
21.47542
 20
238.5722149999998
 30
0.0
 40
1.199999999999999
100
AcDbArc
 50
180.0
 51
270.0
  0
ARC
  5
9A4A
330
98ED
100
AcDbEntity
  8
1
  6
Continuous
100
AcDbCircle
 10
38.07542
 20
238.5722149999998
 30
0.0
 40
1.199999999999999
100
AcDbArc
 50
270.0
 51
0.0
  0
ARC
  5
9A4B
330
98ED
100
AcDbEntity
  8
1
  6
Continuous
100
AcDbCircle
 10
21.47542
 20
50.80011500000001
 30
0.0
 40
1.199999999999999
100
AcDbArc
 50
90.0
 51
180.0
  0
ARC
  5
9A4C
330
98ED
100
AcDbEntity
  8
1
  6
Continuous
100
AcDbCircle
 10
38.07542
 20
50.80011500000001
 30
0.0
 40
1.199999999999999
100
AcDbArc
 50
0.0
 51
90.0
  0
ARC
  5
9A4D
330
98ED
100
AcDbEntity
  8
1
  6
Continuous
100
AcDbCircle
 10
159.8529199999999
 20
119.2782149999999
 30
0.0
 40
1.3
100
AcDbArc
 50
90.0
 51
180.0
  0
ARC
  5
9A4E
330
98ED
100
AcDbEntity
  8
1
  6
Continuous
100
AcDbCircle
 10
159.8529199999999
 20
111.378215
 30
0.0
 40
1.3
100
AcDbArc
 50
180.0
 51
270.0
  0
ARC
  5
9A4F
330
98ED
100
AcDbEntity
  8
1
  6
Continuous
100
AcDbCircle
 10
29.77542
 20
25.03481499999999
 30
0.0
 40
25.04789999999999
100
AcDbArc
 50
67.71129999999999
 51
112.2889999999999
  0
ARC
  5
9A50
330
98ED
100
AcDbEntity
  8
1
  6
Continuous
100
AcDbCircle
 10
29.77542
 20
25.157115
 30
0.0
 40
26.0369
100
AcDbArc
 50
68.6006
 51
111.399
  0
ARC
  5
9A51
330
98ED
100
AcDbEntity
  8
1
  6
Continuous
100
AcDbCircle
 10
158.89892
 20
115.0782149999999
 30
0.0
 40
2.34615
100
AcDbArc
 50
116.4809999999999
 51
243.519
  0
ARC
  5
9A52
330
98ED
100
AcDbEntity
  8
1
  6
Continuous
100
AcDbCircle
 10
99.27592000000002
 20
153.2782149999999
 30
0.0
 40
0.5
100
AcDbArc
 50
90.0
 51
180.0
  0
ARC
  5
9A53
330
98ED
100
AcDbEntity
  8
1
  6
Continuous
100
AcDbCircle
 10
80.27592
 20
153.2782149999999
 30
0.0
 40
0.5
100
AcDbArc
 50
0.0
 51
90.0
  0
ARC
  5
9A54
330
98ED
100
AcDbEntity
  8
1
  6
Continuous
100
AcDbCircle
 10
340.42992
 20
153.2782149999999
 30
0.0
 40
0.5
100
AcDbArc
 50
0.0
 51
90.0
  0
ARC
  5
9A55
330
98ED
100
AcDbEntity
  8
1
  6
Continuous
100
AcDbCircle
 10
359.42992
 20
153.2782149999999
 30
0.0
 40
0.5
100
AcDbArc
 50
90.0
 51
180.0
  0
ARC
  5
9A56
330
98ED
100
AcDbEntity
  8
1
  6
Continuous
100
AcDbCircle
 10
29.77542
 20
43.330015
 30
0.0
 40
2.34615
100
AcDbArc
 50
26.48099999999999
 51
153.519
  0
ARC
  5
9A5C
330
98ED
100
AcDbEntity
  8
1
  6
Continuous
100
AcDbCircle
 10
83.27592
 20
152.142215
 30
0.0
 40
2.5
100
AcDbArc
 50
90.0
 51
180.0
  0
ARC
  5
9A5D
330
98ED
100
AcDbEntity
  8
1
  6
Continuous
100
AcDbCircle
 10
96.27591999999999
 20
152.142215
 30
0.0
 40
2.5
100
AcDbArc
 50
0.0
 51
90.0
  0
ARC
  5
9A5E
330
98ED
100
AcDbEntity
  8
1
  6
Continuous
100
AcDbCircle
 10
96.27591999999999
 20
152.7782149999999
 30
0.0
 40
2.5
100
AcDbArc
 50
0.0
 51
90.0
  0
ARC
  5
9A5F
330
98ED
100
AcDbEntity
  8
1
  6
Continuous
100
AcDbCircle
 10
83.27592
 20
152.7782149999999
 30
0.0
 40
2.5
100
AcDbArc
 50
90.0
 51
180.0
  0
LINE
  5
9A76
330
98ED
100
AcDbEntity
  8
4
  6
CENTER
100
AcDbLine
 10
15.789426
 20
245.2462149999998
 30
0.0
 11
43.751201
 21
245.2462149999998
 31
0.0
  0
LINE
  5
9A84
330
98ED
100
AcDbEntity
  8
4
  6
CENTER
100
AcDbLine
 10
15.789426
 20
44.126215
 30
0.0
 11
43.751201
 21
44.126215
 31
0.0
  0
ARC
  5
9BD0
330
98ED
100
AcDbEntity
  8
1
  6
Continuous
100
AcDbCircle
 10
155.8089199999997
 20
125.2962149999949
 30
0.0
 40
1.5
100
AcDbArc
 50
182.6747027778841
 51
2.674702777884272
  0
LINE
  5
9BEE
330
98ED
100
AcDbEntity
  8
1
  6
Continuous
100
AcDbLine
 10
154.310554135953
 20
125.2262168753091
 30
0.0
 11
153.3242626947848
 21
146.3385743003432
 31
0.0
  0
LINE
  5
9BEF
330
98ED
100
AcDbEntity
  8
1
  6
Continuous
100
AcDbLine
 10
157.3072858640465
 20
125.3662131246805
 30
0.0
 11
156.3209944228783
 21
146.4785705497146
 31
0.0
  0
LINE
  5
9C0A
330
98ED
100
AcDbEntity
  8
1
  6
Continuous
100
AcDbLine
 10
159.4679269616261
 20
152.7279718292753
 30
0.0
 11
156.7410597536004
 21
148.1550531402743
 31
0.0
  0
ARC
  5
9C0E
330
98ED
100
AcDbEntity
  8
1
  6
Continuous
100
AcDbCircle
 10
159.3177261509717
 20
146.6185667990862
 30
0.0
 40
6.0
100
AcDbArc
 50
149.192045333999
 51
182.6747027778841
  0
ARC
  5
9C0F
330
98ED
100
AcDbEntity
  8
1
  6
Continuous
100
AcDbCircle
 10
159.3177261509718
 20
146.6185667990863
 30
0.0
 40
3.0
100
AcDbArc
 50
149.192045333999
 51
182.6747027778841
  0
LINE
  5
9C10
330
98ED
100
AcDbEntity
  8
1
  6
Continuous
100
AcDbLine
 10
156.8912605642547
 20
154.2644581704633
 30
0.0
 11
154.164393356229
 21
149.6915394814623
 31
0.0
  0
LINE
  5
9C45
330
98ED
100
AcDbEntity
  8
1
  6
Continuous
100
AcDbLine
 10
20.27542000000002
 20
135.3282150000001
 30
0.0
 11
19.77542000000002
 21
135.578215
 31
0.0
  0
LINE
  5
9C46
330
98ED
100
AcDbEntity
  8
1
  6
Continuous
100
AcDbLine
 10
20.27542000000002
 20
132.8282149999999
 30
0.0
 11
19.77542000000002
 21
132.5782149999999
 31
0.0
  0
LINE
  5
9C4F
330
98ED
100
AcDbEntity
  8
1
  6
Continuous
100
AcDbLine
 10
19.77542000000002
 20
132.5782149999999
 30
0.0
 11
19.77542000000002
 21
135.578215
 31
0.0
  0
LINE
  5
9C87
330
98ED
100
AcDbEntity
  8
1
  6
Continuous
100
AcDbLine
 10
40.27541999999999
 20
135.8282149999999
 30
0.0
 11
40.27541999999999
 21
132.328215
 31
0.0
  0
ARC
  5
9C89
330
98ED
100
AcDbEntity
  8
1
  6
Continuous
100
AcDbCircle
 10
39.77541999999999
 20
132.328215
 30
0.0
 40
0.5
100
AcDbArc
 50
180.0
 51
0.0
  0
ARC
  5
9C8C
330
98ED
100
AcDbEntity
  8
1
  6
Continuous
100
AcDbCircle
 10
39.77541999999999
 20
135.8282149999999
 30
0.0
 40
0.5
100
AcDbArc
 50
0.0
 51
180.0
  0
LINE
  5
9CD0
330
98ED
100
AcDbEntity
  8
4
  6
CENTER
100
AcDbLine
 10
160.6795937629404
 20
153.4962149998693
 30
0.0
 11
155.6795937629404
 21
153.4962149998693
 31
0.0
  0
LINE
  5
9CD1
330
98ED
100
AcDbEntity
  8
4
  6
CENTER
100
AcDbLine
 10
158.1795937629404
 20
155.9962149998693
 30
0.0
 11
158.1795937629404
 21
150.9962149998693
 31
0.0
  0
ARC
  5
9CD3
330
98ED
100
AcDbEntity
  8
1
  6
Continuous
100
AcDbCircle
 10
158.1795937629404
 20
153.4962149998693
 30
0.0
 40
1.5
100
AcDbArc
 50
329.1920453339983
 51
149.1920453339983
  0
LINE
  5
9CD5
330
98ED
100
AcDbEntity
  8
1
  6
Continuous
100
AcDbLine
 10
40.98797598038538
 20
127.3131295638775
 30
0.0
 11
39.30797598038537
 21
151.5131295637475
 31
0.0
  0
LINE
  5
9CD6
330
98ED
100
AcDbEntity
  8
1
  6
Continuous
100
AcDbLine
 10
43.98065288181027
 20
127.5226169469772
 30
0.0
 11
42.30065288181044
 21
151.7226169468472
 31
0.0
  0
LINE
  5
9CD7
330
98ED
100
AcDbEntity
  8
1
  6
Continuous
100
AcDbLine
 10
20.74164350289553
 20
154.9782149998975
 30
0.0
 11
38.80919649681476
 21
154.9782149998975
 31
0.0
  0
LINE
  5
9CD8
330
98ED
100
AcDbEntity
  8
1
  6
Continuous
100
AcDbLine
 10
20.74164350289533
 20
151.9782149998975
 30
0.0
 11
38.80919649681476
 21
151.9782149998975
 31
0.0
  0
ARC
  5
9CD9
330
98ED
100
AcDbEntity
  8
1
  6
Continuous
100
AcDbCircle
 10
38.80919649681476
 20
151.4782149998975
 30
0.0
 40
0.5
100
AcDbArc
 50
4.004172940708834
 51
90.0
  0
ARC
  5
9CDA
330
98ED
100
AcDbEntity
  8
1
  6
Continuous
100
AcDbCircle
 10
38.80919649681476
 20
151.4782149998975
 30
0.0
 40
3.5
100
AcDbArc
 50
4.004172940708834
 51
90.0
  0
LINE
  5
9CDB
330
98ED
100
AcDbEntity
  8
1
  6
Continuous
100
AcDbLine
 10
40.24993903565359
 20
148.2890391340385
 30
0.0
 11
41.61550697012835
 21
148.2890391340385
 31
0.0
  0
LINE
  5
9CDC
330
98ED
100
AcDbEntity
  8
1
  6
Continuous
100
AcDbLine
 10
18.56286401932453
 20
127.3131295638775
 30
0.0
 11
20.24286401932462
 21
151.5131295637475
 31
0.0
  0
LINE
  5
9CDD
330
98ED
100
AcDbEntity
  8
1
  6
Continuous
100
AcDbLine
 10
15.57018711789973
 20
127.5226169469773
 30
0.0
 11
17.25018711789982
 21
151.7226169468472
 31
0.0
  0
ARC
  5
9CDE
330
98ED
100
AcDbEntity
  8
1
  6
Continuous
100
AcDbCircle
 10
20.74164350289541
 20
151.4782149998975
 30
0.0
 40
3.5
100
AcDbArc
 50
90.0
 51
175.9958270592911
  0
ARC
  5
9CDF
330
98ED
100
AcDbEntity
  8
1
  6
Continuous
100
AcDbCircle
 10
20.74164350289541
 20
151.4782149998975
 30
0.0
 40
0.5
100
AcDbArc
 50
90.0
 51
175.9958270592911
  0
LINE
  5
9CE0
330
98ED
100
AcDbEntity
  8
1
  6
Continuous
100
AcDbLine
 10
18.01069130541503
 20
148.2890391340385
 30
0.0
 11
19.18117810639341
 21
148.2890391340385
 31
0.0
  0
LINE
  5
9CE1
330
98ED
100
AcDbEntity
  8
1
  6
Continuous
100
AcDbLine
 10
19.0616435028952
 20
126.7782150000276
 30
0.0
 11
20.27542000000002
 21
126.7782150000276
 31
0.0
  0
ARC
  5
9CE2
330
98ED
100
AcDbEntity
  8
1
  6
Continuous
100
AcDbCircle
 10
19.0616435028952
 20
127.2782150000276
 30
0.0
 40
0.5
100
AcDbArc
 50
175.9958270592911
 51
270.0
  0
LINE
  5
9CE3
330
98ED
100
AcDbEntity
  8
1
  6
Continuous
100
AcDbLine
 10
19.0616435028952
 20
123.7782150000276
 30
0.0
 11
20.27541999999991
 21
123.7782150000276
 31
0.0
  0
ARC
  5
9CE4
330
98ED
100
AcDbEntity
  8
1
  6
Continuous
100
AcDbCircle
 10
19.06164350289532
 20
127.2782150000276
 30
0.0
 40
3.5
100
AcDbArc
 50
175.9958270592911
 51
270.0
  0
ARC
  5
9CE5
330
98ED
100
AcDbEntity
  8
1
  6
Continuous
100
AcDbCircle
 10
40.48919649681461
 20
127.2782150000276
 30
0.0
 40
3.5
100
AcDbArc
 50
270.0
 51
4.004172940708834
  0
LINE
  5
9CE6
330
98ED
100
AcDbEntity
  8
1
  6
Continuous
100
AcDbLine
 10
39.27541999999999
 20
123.7782150000276
 30
0.0
 11
40.48919649681461
 21
123.7782150000276
 31
0.0
  0
LINE
  5
9CE7
330
98ED
100
AcDbEntity
  8
1
  6
Continuous
100
AcDbLine
 10
39.27541999999999
 20
126.7782150000276
 30
0.0
 11
40.48919649681461
 21
126.7782150000276
 31
0.0
  0
ARC
  5
9CE8
330
98ED
100
AcDbEntity
  8
1
  6
Continuous
100
AcDbCircle
 10
40.48919649681461
 20
127.2782150000276
 30
0.0
 40
0.5
100
AcDbArc
 50
270.0
 51
4.004172940708834
  0
LINE
  5
9CE9
330
98ED
100
AcDbEntity
  8
1
  6
Continuous
100
AcDbLine
 10
20.27542000000002
 20
240.9462149999999
 30
0.0
 11
19.77542000000002
 21
240.696215
 31
0.0
  0
LINE
  5
9CEA
330
98ED
100
AcDbEntity
  8
1
  6
Continuous
100
AcDbLine
 10
20.27542000000002
 20
243.4462150000001
 30
0.0
 11
20.10747906398761
 21
243.5301854680063
 31
0.0
  0
LINE
  5
9CEB
330
98ED
100
AcDbEntity
  8
1
  6
Continuous
100
AcDbLine
 10
19.77542000000002
 20
240.696215
 30
0.0
 11
19.77542000000002
 21
241.1527373403814
 31
0.0
  0
LINE
  5
9CED
330
98ED
100
AcDbEntity
  8
1
  6
Continuous
100
AcDbLine
 10
40.27541999999999
 20
240.6699287142613
 30
0.0
 11
40.27541999999999
 21
240.446215
 31
0.0
  0
ARC
  5
9CEE
330
98ED
100
AcDbEntity
  8
1
  6
Continuous
100
AcDbCircle
 10
39.77541999999999
 20
240.446215
 30
0.0
 40
0.5
100
AcDbArc
 50
180.0
 51
0.0
  0
LINE
  5
9CF0
330
98ED
100
AcDbEntity
  8
1
  6
Continuous
100
AcDbLine
 10
302.6734419425843
 20
148.578215
 30
0.0
 11
302.4551528818103
 21
151.7226169468472
 31
0.0
  0
LINE
  5
9CF1
330
98ED
100
AcDbEntity
  8
1
  6
Continuous
100
AcDbLine
 10
299.6662221153903
 20
148.578215
 30
0.0
 11
299.4624759803852
 21
151.5131295637475
 31
0.0
  0
LINE
  5
9CF2
330
98ED
100
AcDbEntity
  8
1
  6
Continuous
100
AcDbLine
 10
280.8961435028951
 20
151.9782149998975
 30
0.0
 11
298.9636964968146
 21
151.9782149998975
 31
0.0
  0
LINE
  5
9CF3
330
98ED
100
AcDbEntity
  8
1
  6
Continuous
100
AcDbLine
 10
280.8961435028953
 20
154.9782149998975
 30
0.0
 11
298.9636964968146
 21
154.9782149998975
 31
0.0
  0
ARC
  5
9CF4
330
98ED
100
AcDbEntity
  8
1
  6
Continuous
100
AcDbCircle
 10
298.9636964968146
 20
151.4782149998975
 30
0.0
 40
3.5
100
AcDbArc
 50
4.004172940708834
 51
90.0
  0
ARC
  5
9CF5
330
98ED
100
AcDbEntity
  8
1
  6
Continuous
100
AcDbCircle
 10
298.9636964968146
 20
151.4782149998975
 30
0.0
 40
0.5
100
AcDbArc
 50
4.004172940708834
 51
90.0
  0
LINE
  5
9CF7
330
98ED
100
AcDbEntity
  8
1
  6
Continuous
100
AcDbLine
 10
280.1936178843194
 20
148.578215
 30
0.0
 11
280.3973640193245
 21
151.5131295637475
 31
0.0
  0
LINE
  5
9CF8
330
98ED
100
AcDbEntity
  8
1
  6
Continuous
100
AcDbLine
 10
277.1863980571256
 20
148.578215
 30
0.0
 11
277.4046871178997
 21
151.7226169468472
 31
0.0
  0
ARC
  5
9CF9
330
98ED
100
AcDbEntity
  8
1
  6
Continuous
100
AcDbCircle
 10
280.8961435028952
 20
151.4782149998975
 30
0.0
 40
3.5
100
AcDbArc
 50
90.0
 51
175.9958270592911
  0
ARC
  5
9CFA
330
98ED
100
AcDbEntity
  8
1
  6
Continuous
100
AcDbCircle
 10
280.8961435028952
 20
151.4782149998975
 30
0.0
 40
0.5
100
AcDbArc
 50
90.0
 51
175.9958270592911
  0
ARC
  5
9E18
330
98ED
100
AcDbEntity
  8
1
  6
Continuous
100
AcDbCircle
 10
153.6528712039523
 20
134.9326527392668
 30
0.0
 40
6.2
100
AcDbArc
 50
24.1631494511007
 51
41.57931384814999
  0
LINE
  5
9E19
330
98ED
100
AcDbEntity
  8
1
  6
Continuous
100
AcDbLine
 10
159.8529199999998
 20
137.578215
 30
0.0
 11
156.7862906701173
 21
136.9704038769822
 31
0.0
  0
ARC
  5
9E27
330
98ED
100
AcDbEntity
  8
1
  6
Continuous
100
AcDbCircle
 10
153.6528712039523
 20
134.9326527392668
 30
0.0
 40
5.5
100
AcDbArc
 50
25.84622119436794
 51
41.57931384814999
  0
LINE
  5
9E28
330
98ED
100
AcDbEntity
  8
1
  6
Continuous
100
AcDbLine
 10
156.7305512425868
 20
138.1635509201095
 30
0.0
 11
157.9670075839645
 21
138.3441373566518
 31
0.0
  0
LINE
  5
9E29
330
98ED
100
AcDbEntity
  8
1
  6
Continuous
100
AcDbLine
 10
157.7670788104941
 20
138.5827617472656
 30
0.0
 11
158.2907052331449
 21
139.0473210755563
 31
0.0
  0
LINE
  5
9E2A
330
98ED
100
AcDbEntity
  8
1
  6
Continuous
100
AcDbLine
 10
157.9670075839645
 20
138.3441373566519
 30
0.0
 11
158.1287815757274
 21
137.2364878464496
 31
0.0
  0
ARC
  5
9ECA
330
98ED
100
AcDbEntity
  8
1
  6
Continuous
100
AcDbCircle
 10
155.0529199999997
 20
134.078215
 30
0.0
 40
2.25
100
AcDbArc
 50
327.7755478704238
 51
37.57385768534252
  0
ARC
  5
9F58
330
98ED
100
AcDbEntity
  8
1
  6
Continuous
100
AcDbCircle
 10
41.03901696166832
 20
241.9610211509717
 30
0.0
 40
1.49999999999998
100
AcDbArc
 50
183.3926161687038
 51
304.3525025071677
  0
ARC
  5
9F5F
330
98ED
100
AcDbEntity
  8
1
  6
Continuous
100
AcDbCircle
 10
42.48919649710468
 20
242.9522149999999
 30
0.0
 40
1.5
100
AcDbArc
 50
304.3525025071677
 51
98.5563578595126
  0
LINE
  5
9F62
330
98ED
100
AcDbEntity
  8
1
  6
Continuous
100
AcDbLine
 10
39.54164576780545
 20
241.8722545593415
 30
0.0
 11
39.43375466526428
 21
243.6922301385801
 31
0.0
  0
LINE
  5
9F63
330
98ED
100
AcDbEntity
  8
1
  6
Continuous
100
AcDbLine
 10
43.33562069783393
 20
241.7138426519479
 30
0.0
 11
41.88544116239756
 21
240.7226488029198
 31
0.0
  0
LINE
  5
A017
330
98ED
100
AcDbEntity
  8
1
  6
Continuous
100
AcDbLine
 10
42.46333891896417
 20
242.7888850718799
 30
0.0
 11
42.27627737901864
 21
244.3956823952036
 31
0.0
  0
ARC
  5
A02D
330
98ED
100
AcDbEntity
  8
1
  6
Continuous
100
AcDbCircle
 10
39.14347264558678
 20
243.6105422741872
 30
0.0
 40
3.229692014332468
100
AcDbArc
 50
14.06961383036647
 51
84.0591940203193
  0
ARC
  5
A02E
330
98ED
100
AcDbEntity
  8
1
  6
Continuous
100
AcDbCircle
 10
38.89105768634615
 20
242.6561443777627
 30
0.0
 40
1.16961263446296
100
AcDbArc
 50
61.42254090947027
 51
94.013412912632
  0
LINE
  5
A031
330
98ED
100
AcDbEntity
  8
1
  6
Continuous
100
AcDbLine
 10
42.50133715631696
 20
242.524602068876
 30
0.0
 11
42.46333891896417
 21
242.7888850718799
 31
0.0
  0
ARC
  5
A032
330
98ED
100
AcDbEntity
  8
1
  6
Continuous
100
AcDbCircle
 10
20.40736735441321
 20
243.6105422741872
 30
0.0
 40
3.229692014332468
100
AcDbArc
 50
95.94080597968071
 51
165.9303861696335
  0
LINE
  5
A033
330
98ED
100
AcDbEntity
  8
1
  6
Continuous
100
AcDbLine
 10
17.08750108103582
 20
242.7888850718799
 30
0.0
 11
17.27456262098134
 21
244.3956823952036
 31
0.0
  0
ARC
  5
A034
330
98ED
100
AcDbEntity
  8
1
  6
Continuous
100
AcDbCircle
 10
17.06164350289532
 20
242.9522149999999
 30
0.0
 40
1.5
100
AcDbArc
 50
81.4436421404874
 51
235.6474974928322
  0
LINE
  5
A035
330
98ED
100
AcDbEntity
  8
1
  6
Continuous
100
AcDbLine
 10
17.04950284368304
 20
242.524602068876
 30
0.0
 11
17.08750108103582
 21
242.7888850718799
 31
0.0
  0
LINE
  5
A036
330
98ED
100
AcDbEntity
  8
1
  6
Continuous
100
AcDbLine
 10
16.21521930216605
 20
241.7138426519479
 30
0.0
 11
17.66539883760243
 21
240.7226488029198
 31
0.0
  0
ARC
  5
A037
330
98ED
100
AcDbEntity
  8
1
  6
Continuous
100
AcDbCircle
 10
18.51182303833168
 20
241.9610211509717
 30
0.0
 40
1.49999999999998
100
AcDbArc
 50
235.6474974928322
 51
356.6073838312961
  0
LINE
  5
A038
330
98ED
100
AcDbEntity
  8
1
  6
Continuous
100
AcDbLine
 10
20.00919423219454
 20
241.8722545593415
 30
0.0
 11
20.11708533473572
 21
243.6922301385801
 31
0.0
  0
ARC
  5
A039
330
98ED
100
AcDbEntity
  8
1
  6
Continuous
100
AcDbCircle
 10
20.65978231365383
 20
242.6561443777627
 30
0.0
 40
1.16961263446296
100
AcDbArc
 50
85.98658708736799
 51
118.5774590905297
  0
LINE
  5
A052
330
98ED
100
AcDbEntity
  8
1
  6
Continuous
100
AcDbLine
 10
19.77542000000002
 20
48.676215
 30
0.0
 11
19.77542000000002
 21
48.21969265961858
 31
0.0
  0
LINE
  5
A053
330
98ED
100
AcDbEntity
  8
1
  6
Continuous
100
AcDbLine
 10
20.27542000000002
 20
48.42621499999999
 30
0.0
 11
19.77542000000002
 21
48.676215
 31
0.0
  0
ARC
  5
A062
330
98ED
100
AcDbEntity
  8
1
  6
Continuous
100
AcDbCircle
 10
42.48919649710468
 20
46.42021500000008
 30
0.0
 40
1.5
100
AcDbArc
 50
269.0643534358244
 51
55.64749749283225
  0
LINE
  5
A06A
330
98ED
100
AcDbEntity
  8
1
  6
Continuous
100
AcDbLine
 10
43.33562069783393
 20
47.65858734805208
 30
0.0
 11
41.88544116239756
 21
48.6497811970802
 31
0.0
  0
ARC
  5
A06B
330
98ED
100
AcDbEntity
  8
1
  6
Continuous
100
AcDbCircle
 10
41.03901696166832
 20
47.4114088490282
 30
0.0
 40
1.49999999999998
100
AcDbArc
 50
55.64749749283225
 51
160.1634878816674
  0
LINE
  5
A06C
330
98ED
100
AcDbEntity
  8
1
  6
Continuous
100
AcDbLine
 10
40.27541999999999
 20
48.70250128573862
 30
0.0
 11
40.27541999999999
 21
48.926215
 31
0.0
  0
ARC
  5
A06D
330
98ED
100
AcDbEntity
  8
1
  6
Continuous
100
AcDbCircle
 10
39.77541999999999
 20
48.926215
 30
0.0
 40
0.5
100
AcDbArc
 50
0.0
 51
180.0
  0
ARC
  5
A072
330
98ED
100
AcDbEntity
  8
1
  6
Continuous
100
AcDbCircle
 10
39.14347264558678
 20
45.76188772581279
 30
0.0
 40
3.229692014332468
100
AcDbArc
 50
275.9408059796807
 51
344.8977326432882
  0
LINE
  5
A078
330
98ED
100
AcDbEntity
  8
1
  6
Continuous
100
AcDbLine
 10
40.48919649680993
 20
47.92041500000109
 30
0.0
 11
39.27541999999998
 21
47.920415
 31
0.0
  0
LINE
  5
A079
330
98ED
100
AcDbEntity
  8
1
  6
Continuous
100
AcDbLine
 10
39.27541999999998
 20
44.920415
 30
0.0
 11
42.46470241601854
 21
44.92041500000283
 31
0.0
  0
LINE
  5
A07A
330
98ED
100
AcDbEntity
  8
1
  6
Continuous
100
AcDbLine
 10
42.12136042454607
 20
47.96408618899586
 30
0.0
 11
40.48919649680993
 21
47.92041500000109
 31
0.0
  0
LINE
  5
A07B
330
98ED
100
AcDbEntity
  8
1
  6
Continuous
100
AcDbLine
 10
17.42947957545392
 20
47.96408618899586
 30
0.0
 11
19.06164350319007
 21
47.92041500000109
 31
0.0
  0
ARC
  5
A07C
330
98ED
100
AcDbEntity
  8
1
  6
Continuous
100
AcDbCircle
 10
18.51182303833168
 20
47.4114088490282
 30
0.0
 40
1.49999999999998
100
AcDbArc
 50
19.8365121183326
 51
124.3525025071677
  0
LINE
  5
A07D
330
98ED
100
AcDbEntity
  8
1
  6
Continuous
100
AcDbLine
 10
16.21521930216605
 20
47.65858734805208
 30
0.0
 11
17.66539883760243
 21
48.6497811970802
 31
0.0
  0
LINE
  5
A07E
330
98ED
100
AcDbEntity
  8
1
  6
Continuous
100
AcDbLine
 10
19.06164350319007
 20
47.92041500000109
 30
0.0
 11
20.27542000000001
 21
47.920415
 31
0.0
  0
ARC
  5
A07F
330
98ED
100
AcDbEntity
  8
1
  6
Continuous
100
AcDbCircle
 10
17.06164350289532
 20
46.42021500000008
 30
0.0
 40
1.5
100
AcDbArc
 50
124.3525025071677
 51
270.9356465641755
  0
LINE
  5
A080
330
98ED
100
AcDbEntity
  8
1
  6
Continuous
100
AcDbLine
 10
20.27542000000001
 20
44.920415
 30
0.0
 11
17.08613758398145
 21
44.92041500000283
 31
0.0
  0
ARC
  5
A081
330
98ED
100
AcDbEntity
  8
1
  6
Continuous
100
AcDbCircle
 10
20.40736735441321
 20
45.76188772581279
 30
0.0
 40
3.229692014332468
100
AcDbArc
 50
195.1022673567117
 51
264.0591940203194
  0
LINE
  5
A082
330
98ED
100
AcDbEntity
  8
1
  6
Continuous
100
AcDbLine
 10
39.4777487943581
 20
42.5495412370595
 30
0.0
 11
39.27541999999998
 21
42.5495412370595
 31
0.0
  0
LINE
  5
A083
330
98ED
100
AcDbEntity
  8
1
  6
Continuous
100
AcDbLine
 10
20.27541999999998
 20
42.5495412370595
 30
0.0
 11
20.07309120564192
 21
42.5495412370595
 31
0.0
  0
ENDSEC
  0
SECTION
  2
OBJECTS
  0
DICTIONARY
  5
98DB
330
0
100
AcDbDictionary
281
     1
  3
ACAD_CIP_PREVIOUS_PRODUCT_INFO
350
A102
  3
ACAD_COLOR
350
A0E4
  3
ACAD_DETAILVIEWSTYLE
350
A0FD
  3
ACAD_GROUP
350
98DC
  3
ACAD_LAYOUT
350
98E8
  3
ACAD_MATERIAL
350
A0B2
  3
ACAD_MLEADERSTYLE
350
A0F9
  3
ACAD_MLINESTYLE
350
98E5
  3
ACAD_PLOTSETTINGS
350
98E7
  3
ACAD_PLOTSTYLENAME
350
A0B0
  3
ACAD_SCALELIST
350
A0E7
  3
ACAD_SECTIONVIEWSTYLE
350
A0FB
  3
ACAD_TABLESTYLE
350
A0E5
  3
ACAD_VISUALSTYLE
350
A0CB
  3
ACDB_RECOMPOSE_DATA
350
A120
  3
AcDbVariableDictionary
350
A113
  3
DWGPROPS
350
A121
  0
DICTIONARY
  5
A103
330
98DF
100
AcDbDictionary
280
     1
281
     1
  3
ADSK_XREC_LAYER_RECONCILED
360
A104
  0
DICTIONARY
  5
A105
330
98F5
100
AcDbDictionary
280
     1
281
     1
  3
ADSK_XREC_LAYER_RECONCILED
360
A106
  0
DICTIONARY
  5
A107
330
98F6
100
AcDbDictionary
280
     1
281
     1
  3
ADSK_XREC_LAYER_RECONCILED
360
A108
  0
DICTIONARY
  5
A109
330
98F7
100
AcDbDictionary
280
     1
281
     1
  3
ADSK_XREC_LAYER_RECONCILED
360
A10A
  0
DICTIONARY
  5
A10B
330
98F8
100
AcDbDictionary
280
     1
281
     1
  3
ADSK_XREC_LAYER_RECONCILED
360
A10C
  0
DICTIONARY
  5
A10D
330
98F9
100
AcDbDictionary
280
     1
281
     1
  3
ADSK_XREC_LAYER_RECONCILED
360
A10E
  0
DICTIONARY
  5
A10F
330
98FA
100
AcDbDictionary
280
     1
281
     1
  3
ADSK_XREC_LAYER_RECONCILED
360
A110
  0
DICTIONARY
  5
A111
330
98FB
100
AcDbDictionary
280
     1
281
     1
  3
ADSK_XREC_LAYER_RECONCILED
360
A112
  0
DICTIONARY
  5
9A94
330
98ED
100
AcDbDictionary
281
     1
  3
ACAD_LAYOUTSELFREF
350
A0AC
  0
DICTIONARY
  5
9A92
330
98E9
100
AcDbDictionary
281
     1
  3
ACAD_LAYOUTSELFREF
350
A0AB
  0
XRECORD
  5
A102
102
{ACAD_REACTORS
330
98DB
102
}
330
98DB
100
AcDbXrecord
280
     1
300
ACDLT
300
2014
300
ACDLT_F_S
  0
DICTIONARY
  5
A0E4
102
{ACAD_REACTORS
330
98DB
102
}
330
98DB
100
AcDbDictionary
281
     1
  0
DICTIONARY
  5
A0FD
102
{ACAD_REACTORS
330
98DB
102
}
330
98DB
100
AcDbDictionary
281
     1
  3
Imperial24
350
A0FE
  0
DICTIONARY
  5
98DC
102
{ACAD_REACTORS
330
98DB
102
}
330
98DB
100
AcDbDictionary
281
     1
  0
DICTIONARY
  5
98E8
102
{ACAD_REACTORS
330
98DB
102
}
330
98DB
100
AcDbDictionary
281
     1
  3
Model
350
A0FF
  3
レイアウト1
350
A100
  0
DICTIONARY
  5
A0B2
102
{ACAD_REACTORS
330
98DB
102
}
330
98DB
100
AcDbDictionary
281
     1
  3
ByBlock
350
A0BB
  3
ByLayer
350
A0B3
  3
Global
350
A0C3
  0
DICTIONARY
  5
A0F9
102
{ACAD_REACTORS
330
98DB
102
}
330
98DB
100
AcDbDictionary
281
     1
  3
Standard
350
A0FA
  0
DICTIONARY
  5
98E5
102
{ACAD_REACTORS
330
98DB
102
}
330
98DB
100
AcDbDictionary
281
     1
  3
STANDARD
350
98E6
  0
DICTIONARY
  5
98E7
102
{ACAD_REACTORS
330
98DB
102
}
330
98DB
100
AcDbDictionary
281
     1
  0
ACDBDICTIONARYWDFLT
  5
A0B0
102
{ACAD_REACTORS
330
98DB
102
}
330
98DB
100
AcDbDictionary
281
     1
  3
Normal
350
A0B1
100
AcDbDictionaryWithDefault
340
A0B1
  0
DICTIONARY
  5
A0E7
102
{ACAD_REACTORS
330
98DB
102
}
330
98DB
100
AcDbDictionary
281
     1
  3
A0
350
A0E8
  3
A1
350
A0E9
  3
A2
350
A0EA
  3
A3
350
A0EB
  3
A4
350
A0EC
  3
A5
350
A0ED
  3
A6
350
A0EE
  3
A7
350
A0EF
  3
A8
350
A0F0
  3
A9
350
A0F1
  3
B0
350
A0F2
  3
B1
350
A0F3
  3
B2
350
A0F4
  3
B3
350
A0F5
  3
B4
350
A0F6
  3
B5
350
A0F7
  3
B6
350
A0F8
  0
DICTIONARY
  5
A0FB
102
{ACAD_REACTORS
330
98DB
102
}
330
98DB
100
AcDbDictionary
281
     1
  3
Imperial24
350
A0FC
  0
DICTIONARY
  5
A0E5
102
{ACAD_REACTORS
330
98DB
102
}
330
98DB
100
AcDbDictionary
281
     1
  3
Standard
350
A0E6
  0
DICTIONARY
  5
A0CB
102
{ACAD_REACTORS
330
98DB
102
}
330
98DB
100
AcDbDictionary
281
     1
  3
2dWireframe
350
A0D1
  3
Basic
350
A0D0
  3
Brighten
350
A0D7
  3
ColorChange
350
A0DB
  3
Conceptual
350
A0D4
  3
Dim
350
A0D6
  3
EdgeColorOff
350
A0E3
  3
Facepattern
350
A0DA
  3
Flat
350
A0CC
  3
FlatWithEdges
350
A0CD
  3
Gouraud
350
A0CE
  3
GouraudWithEdges
350
A0CF
  3
Hidden
350
A0D3
  3
JitterOff
350
A0E1
  3
Linepattern
350
A0D9
  3
OverhangOff
350
A0E2
  3
Realistic
350
A0D5
  3
Shaded
350
A0E0
  3
Shaded with edges
350
A0DF
  3
Shades of Gray
350
A0DC
  3
Sketchy
350
A0DD
  3
Thicken
350
A0D8
  3
Wireframe
350
A0D2
  3
X-Ray
350
A0DE
  0
XRECORD
  5
A120
102
{ACAD_REACTORS
330
98DB
102
}
330
98DB
100
AcDbXrecord
280
     1
 90
        1
330
A0E6
  0
DICTIONARY
  5
A113
102
{ACAD_REACTORS
330
98DB
102
}
330
98DB
100
AcDbDictionary
281
     1
  3
CANNOSCALE
350
A118
  3
CMLEADERSTYLE
350
A115
  3
CTABLESTYLE
350
A114
  3
CVIEWDETAILSTYLE
350
A116
  3
CVIEWSECTIONSTYLE
350
A117
  3
DIMASSOC
350
A11B
  3
INDEXCTL
350
A11A
  3
SORTENTS
350
A119
  3
XCLIPFRAME
350
A11C
  0
XRECORD
  5
A121
102
{ACAD_REACTORS
330
98DB
102
}
330
98DB
100
AcDbXrecord
280
     1
  1
DWGPROPS COOKIE
  2

  3

  4

  6

  7

  8
Yoshitsune
  9

300
=
301
=
302
=
303
=
304
=
305
=
306
=
307
=
308
=
309
=
 40
0.0357432986111111
 41
2450964.478659722
 42
2457192.600034213
  1

 90
        0
  0
XRECORD
  5
A104
102
{ACAD_REACTORS
330
A103
102
}
330
A103
100
AcDbXrecord
280
     1
290
     1
  0
XRECORD
  5
A106
102
{ACAD_REACTORS
330
A105
102
}
330
A105
100
AcDbXrecord
280
     1
290
     1
  0
XRECORD
  5
A108
102
{ACAD_REACTORS
330
A107
102
}
330
A107
100
AcDbXrecord
280
     1
290
     1
  0
XRECORD
  5
A10A
102
{ACAD_REACTORS
330
A109
102
}
330
A109
100
AcDbXrecord
280
     1
290
     1
  0
XRECORD
  5
A10C
102
{ACAD_REACTORS
330
A10B
102
}
330
A10B
100
AcDbXrecord
280
     1
290
     1
  0
XRECORD
  5
A10E
102
{ACAD_REACTORS
330
A10D
102
}
330
A10D
100
AcDbXrecord
280
     1
290
     1
  0
XRECORD
  5
A110
102
{ACAD_REACTORS
330
A10F
102
}
330
A10F
100
AcDbXrecord
280
     1
290
     1
  0
XRECORD
  5
A112
102
{ACAD_REACTORS
330
A111
102
}
330
A111
100
AcDbXrecord
280
     1
290
     1
  0
XRECORD
  5
A0AC
102
{ACAD_REACTORS
330
9A94
102
}
330
9A94
100
AcDbXrecord
280
     1
340
98ED
  0
XRECORD
  5
A0AB
102
{ACAD_REACTORS
330
9A92
102
}
330
9A92
100
AcDbXrecord
280
     1
340
98E9
  0
ACDBDETAILVIEWSTYLE
  5
A0FE
102
{ACAD_XDICTIONARY
360
A159
102
}
102
{ACAD_REACTORS
330
A0FD
102
}
330
A0FD
100
AcDbModelDocViewStyle
 70
     0
  3
Imperial24
290
     0
100
AcDbDetailViewStyle
 70
     0
 71
     0
 90
        3
 71
     1
340
98E0
 40
0.24
340
0
 40
0.24
300

 40
0.36
280
     3
 71
     2
340
98E4
 90
       25
 71
     3
340
98E0
 40
0.24
 90
        1
 40
0.75
 90
        1
300
%<\AcVar ViewType \f "%tc1">% %<\AcVar ViewDetailId>%\PSCALE %<\AcVar ViewScale \f "%sn">%
 71
     4
340
98E4
 90
       25
340
98E4
 90
       25
280
     0
  0
LAYOUT
  5
A0FF
102
{ACAD_XDICTIONARY
360
A15B
102
}
102
{ACAD_REACTORS
330
98E8
102
}
330
98E8
100
AcDbPlotSettings
  1

  2
Canon LBP9100C
  4

  6

 40
0.0
 41
0.0
 42
0.0
 43
0.0
 44
0.0
 45
0.0
 46
0.0
 47
0.0
 48
0.0
 49
0.0
140
0.0
141
0.0
142
1.0
143
1.0
 70
  1712
 72
     0
 73
     0
 74
     0
  7

 75
     0
147
1.0
148
0.0
149
0.0
100
AcDbLayout
  1
Model
 70
     1
 71
     0
 10
0.0
 20
0.0
 11
12.0
 21
9.0
 12
0.0
 22
0.0
 32
0.0
 14
0.0
 24
0.0
 34
0.0
 15
0.0
 25
0.0
 35
0.0
146
0.0
 13
0.0
 23
0.0
 33
0.0
 16
1.0
 26
0.0
 36
0.0
 17
0.0
 27
1.0
 37
0.0
 76
     0
330
98ED
331
A0AA
  0
LAYOUT
  5
A100
102
{ACAD_XDICTIONARY
360
A15D
102
}
102
{ACAD_REACTORS
330
98E8
102
}
330
98E8
100
AcDbPlotSettings
  1

  2
Canon LBP9100C
  4

  6

 40
0.0
 41
0.0
 42
0.0
 43
0.0
 44
0.0
 45
0.0
 46
0.0
 47
0.0
 48
0.0
 49
0.0
140
0.0
141
0.0
142
1.0
143
1.0
 70
   688
 72
     0
 73
     0
 74
     5
  7

 75
    16
147
1.0
148
0.0
149
0.0
100
AcDbLayout
  1
レイアウト1
 70
     0
 71
     1
 10
0.0
 20
0.0
 11
420.0
 21
297.0
 12
0.0
 22
0.0
 32
0.0
 14
1.000000000000000E+20
 24
1.000000000000000E+20
 34
1.000000000000000E+20
 15
-1.000000000000000E+20
 25
-1.000000000000000E+20
 35
-1.000000000000000E+20
146
0.0
 13
0.0
 23
0.0
 33
0.0
 16
1.0
 26
0.0
 36
0.0
 17
0.0
 27
1.0
 37
0.0
 76
     0
330
98E9
  0
MATERIAL
  5
A0BB
102
{ACAD_XDICTIONARY
360
A0BC
102
}
102
{ACAD_REACTORS
330
A0B2
102
}
330
A0B2
100
AcDbMaterial
  1
ByBlock
 72
     0
 43
0.0208333333333333
 43
0.0
 43
0.0
 43
0.0
 43
0.0
 43
0.0208333333333333
 43
0.0
 43
0.0
 43
0.0
 43
0.0
 43
1.0
 43
0.0
 43
0.0
 43
0.0
 43
0.0
 43
1.0
 77
     0
 47
0.0208333333333333
 47
0.0
 47
0.0
 47
0.0
 47
0.0
 47
0.0208333333333333
 47
0.0
 47
0.0
 47
0.0
 47
0.0
 47
1.0
 47
0.0
 47
0.0
 47
0.0
 47
0.0
 47
1.0
171
     0
 49
0.0208333333333333
 49
0.0
 49
0.0
 49
0.0
 49
0.0
 49
0.0208333333333333
 49
0.0
 49
0.0
 49
0.0
 49
0.0
 49
1.0
 49
0.0
 49
0.0
 49
0.0
 49
0.0
 49
1.0
175
     0
142
0.0208333333333333
142
0.0
142
0.0
142
0.0
142
0.0
142
0.0208333333333333
142
0.0
142
0.0
142
0.0
142
0.0
142
1.0
142
0.0
142
0.0
142
0.0
142
0.0
142
1.0
179
     0
144
0.0208333333333333
144
0.0
144
0.0
144
0.0
144
0.0
144
0.0208333333333333
144
0.0
144
0.0
144
0.0
144
0.0
144
1.0
144
0.0
144
0.0
144
0.0
144
0.0
144
1.0
147
0.0208333333333333
147
0.0
147
0.0
147
0.0
147
0.0
147
0.0208333333333333
147
0.0
147
0.0
147
0.0
147
0.0
147
1.0
147
0.0
147
0.0
147
0.0
147
0.0
147
1.0
  0
MATERIAL
  5
A0B3
102
{ACAD_XDICTIONARY
360
A0B4
102
}
102
{ACAD_REACTORS
330
A0B2
102
}
330
A0B2
100
AcDbMaterial
  1
ByLayer
 72
     0
 43
0.0208333333333333
 43
0.0
 43
0.0
 43
0.0
 43
0.0
 43
0.0208333333333333
 43
0.0
 43
0.0
 43
0.0
 43
0.0
 43
1.0
 43
0.0
 43
0.0
 43
0.0
 43
0.0
 43
1.0
 77
     0
 47
0.0208333333333333
 47
0.0
 47
0.0
 47
0.0
 47
0.0
 47
0.0208333333333333
 47
0.0
 47
0.0
 47
0.0
 47
0.0
 47
1.0
 47
0.0
 47
0.0
 47
0.0
 47
0.0
 47
1.0
171
     0
 49
0.0208333333333333
 49
0.0
 49
0.0
 49
0.0
 49
0.0
 49
0.0208333333333333
 49
0.0
 49
0.0
 49
0.0
 49
0.0
 49
1.0
 49
0.0
 49
0.0
 49
0.0
 49
0.0
 49
1.0
175
     0
142
0.0208333333333333
142
0.0
142
0.0
142
0.0
142
0.0
142
0.0208333333333333
142
0.0
142
0.0
142
0.0
142
0.0
142
1.0
142
0.0
142
0.0
142
0.0
142
0.0
142
1.0
179
     0
144
0.0208333333333333
144
0.0
144
0.0
144
0.0
144
0.0
144
0.0208333333333333
144
0.0
144
0.0
144
0.0
144
0.0
144
1.0
144
0.0
144
0.0
144
0.0
144
0.0
144
1.0
147
0.0208333333333333
147
0.0
147
0.0
147
0.0
147
0.0
147
0.0208333333333333
147
0.0
147
0.0
147
0.0
147
0.0
147
1.0
147
0.0
147
0.0
147
0.0
147
0.0
147
1.0
  0
MATERIAL
  5
A0C3
102
{ACAD_XDICTIONARY
360
A0C4
102
}
102
{ACAD_REACTORS
330
A0B2
102
}
330
A0B2
100
AcDbMaterial
  1
Global
 72
     0
 43
0.0208333333333333
 43
0.0
 43
0.0
 43
0.0
 43
0.0
 43
0.0208333333333333
 43
0.0
 43
0.0
 43
0.0
 43
0.0
 43
1.0
 43
0.0
 43
0.0
 43
0.0
 43
0.0
 43
1.0
 77
     0
 47
0.0208333333333333
 47
0.0
 47
0.0
 47
0.0
 47
0.0
 47
0.0208333333333333
 47
0.0
 47
0.0
 47
0.0
 47
0.0
 47
1.0
 47
0.0
 47
0.0
 47
0.0
 47
0.0
 47
1.0
171
     0
 49
0.0208333333333333
 49
0.0
 49
0.0
 49
0.0
 49
0.0
 49
0.0208333333333333
 49
0.0
 49
0.0
 49
0.0
 49
0.0
 49
1.0
 49
0.0
 49
0.0
 49
0.0
 49
0.0
 49
1.0
175
     0
142
0.0208333333333333
142
0.0
142
0.0
142
0.0
142
0.0
142
0.0208333333333333
142
0.0
142
0.0
142
0.0
142
0.0
142
1.0
142
0.0
142
0.0
142
0.0
142
0.0
142
1.0
179
     0
144
0.0208333333333333
144
0.0
144
0.0
144
0.0
144
0.0
144
0.0208333333333333
144
0.0
144
0.0
144
0.0
144
0.0
144
1.0
144
0.0
144
0.0
144
0.0
144
0.0
144
1.0
147
0.0208333333333333
147
0.0
147
0.0
147
0.0
147
0.0
147
0.0208333333333333
147
0.0
147
0.0
147
0.0
147
0.0
147
1.0
147
0.0
147
0.0
147
0.0
147
0.0
147
1.0
  0
MLEADERSTYLE
  5
A0FA
102
{ACAD_REACTORS
330
A0F9
102
}
330
A0F9
100
AcDbMLeaderStyle
170
     2
171
     1
172
     0
 90
        2
 40
0.0
 41
0.0
173
     1
 91
-1056964608
340
98E2
 92
       -2
290
     1
 42
0.09
291
     1
 43
0.36
  3
Standard
 44
0.18
300

342
98E0
174
     1
178
     6
175
     1
176
     0
 93
-1056964608
 45
0.18
292
     0
297
     0
 46
0.18
 94
-1056964608
 47
1.0
 49
1.0
140
1.0
293
     1
141
0.0
294
     1
177
     0
142
1.0
295
     0
296
     0
143
0.125
1001
ACAD_MLEADERVER
1070
     2
  0
MLINESTYLE
  5
98E6
102
{ACAD_REACTORS
330
98E5
102
}
330
98E5
100
AcDbMlineStyle
  2
STANDARD
 70
     0
  3

 62
   256
 51
90.0
 52
90.0
 71
     2
 49
0.5
 62
   256
  6
BYLAYER
 49
-0.5
 62
   256
  6
BYLAYER
  0
ACDBPLACEHOLDER
  5
A0B1
102
{ACAD_REACTORS
330
A0B0
102
}
330
A0B0
  0
SCALE
  5
A0E8
102
{ACAD_REACTORS
330
A0E7
102
}
330
A0E7
100
AcDbScale
 70
     0
300
1:1
140
1.0
141
1.0
290
     1
  0
SCALE
  5
A0E9
102
{ACAD_REACTORS
330
A0E7
102
}
330
A0E7
100
AcDbScale
 70
     0
300
1/128" = 1'-0"
140
0.0078125
141
12.0
290
     0
  0
SCALE
  5
A0EA
102
{ACAD_REACTORS
330
A0E7
102
}
330
A0E7
100
AcDbScale
 70
     0
300
1/64" = 1'-0"
140
0.015625
141
12.0
290
     0
  0
SCALE
  5
A0EB
102
{ACAD_REACTORS
330
A0E7
102
}
330
A0E7
100
AcDbScale
 70
     0
300
1/32" = 1'-0"
140
0.03125
141
12.0
290
     0
  0
SCALE
  5
A0EC
102
{ACAD_REACTORS
330
A0E7
102
}
330
A0E7
100
AcDbScale
 70
     0
300
1/16" = 1'-0"
140
0.0625
141
12.0
290
     0
  0
SCALE
  5
A0ED
102
{ACAD_REACTORS
330
A0E7
102
}
330
A0E7
100
AcDbScale
 70
     0
300
3/32" = 1'-0"
140
0.09375
141
12.0
290
     0
  0
SCALE
  5
A0EE
102
{ACAD_REACTORS
330
A0E7
102
}
330
A0E7
100
AcDbScale
 70
     0
300
1/8" = 1'-0"
140
0.125
141
12.0
290
     0
  0
SCALE
  5
A0EF
102
{ACAD_REACTORS
330
A0E7
102
}
330
A0E7
100
AcDbScale
 70
     0
300
3/16" = 1'-0"
140
0.1875
141
12.0
290
     0
  0
SCALE
  5
A0F0
102
{ACAD_REACTORS
330
A0E7
102
}
330
A0E7
100
AcDbScale
 70
     0
300
1/4" = 1'-0"
140
0.25
141
12.0
290
     0
  0
SCALE
  5
A0F1
102
{ACAD_REACTORS
330
A0E7
102
}
330
A0E7
100
AcDbScale
 70
     0
300
3/8" = 1'-0"
140
0.375
141
12.0
290
     0
  0
SCALE
  5
A0F2
102
{ACAD_REACTORS
330
A0E7
102
}
330
A0E7
100
AcDbScale
 70
     0
300
1/2" = 1'-0"
140
0.5
141
12.0
290
     0
  0
SCALE
  5
A0F3
102
{ACAD_REACTORS
330
A0E7
102
}
330
A0E7
100
AcDbScale
 70
     0
300
3/4" = 1'-0"
140
0.75
141
12.0
290
     0
  0
SCALE
  5
A0F4
102
{ACAD_REACTORS
330
A0E7
102
}
330
A0E7
100
AcDbScale
 70
     0
300
1" = 1'-0"
140
1.0
141
12.0
290
     0
  0
SCALE
  5
A0F5
102
{ACAD_REACTORS
330
A0E7
102
}
330
A0E7
100
AcDbScale
 70
     0
300
1-1/2" = 1'-0"
140
1.5
141
12.0
290
     0
  0
SCALE
  5
A0F6
102
{ACAD_REACTORS
330
A0E7
102
}
330
A0E7
100
AcDbScale
 70
     0
300
3" = 1'-0"
140
3.0
141
12.0
290
     0
  0
SCALE
  5
A0F7
102
{ACAD_REACTORS
330
A0E7
102
}
330
A0E7
100
AcDbScale
 70
     0
300
6" = 1'-0"
140
6.0
141
12.0
290
     0
  0
SCALE
  5
A0F8
102
{ACAD_REACTORS
330
A0E7
102
}
330
A0E7
100
AcDbScale
 70
     0
300
1'-0" = 1'-0"
140
12.0
141
12.0
290
     0
  0
ACDBSECTIONVIEWSTYLE
  5
A0FC
102
{ACAD_XDICTIONARY
360
A157
102
}
102
{ACAD_REACTORS
330
A0FB
102
}
330
A0FB
100
AcDbModelDocViewStyle
 70
     0
  3
Imperial24
290
     0
100
AcDbSectionViewStyle
 70
     0
 71
     0
 90
       78
 71
     1
340
98E0
 40
0.24
340
0
340
0
 40
0.24
300
I, O, Q, S, X, Z
 40
0.48
 90
        3
 40
0.18
 90
        1
 71
     2
340
98E4
 90
       25
340
98E4
 90
       50
 40
0.24
 40
0.0
 40
0.24
 71
     3
340
98E0
 40
0.24
 90
        1
 40
0.75
 90
        1
300
%<\AcVar ViewType \f "%tc1">% %<\AcVar ViewSectionStartId>%-%<\AcVar ViewSectionEndId>%\PSCALE %<\AcVar ViewScale \f "%sn">%
 71
     4
300
ANSI31
 40
1.0
 90
        0
290
     0
290
     0
 90
        6
 40
0.0
 40
1.570796326794896
 40
0.2617993877991494
 40
1.308996938995747
 40
-0.2617993877991494
 40
1.832595714594046
  0
TABLESTYLE
  5
A0E6
102
{ACAD_XDICTIONARY
360
A11E
102
}
102
{ACAD_REACTORS
330
A0E5
102
}
330
A0E5
100
AcDbTableStyle
  3
Standard
 70
     0
 71
     0
 40
0.06
 41
0.06
280
     0
281
     0
  7
STANDARD
140
0.18
170
     2
 62
     0
 63
     7
283
     0
274
    -2
284
     1
 64
     0
275
    -2
285
     1
 65
     0
276
    -2
286
     1
 66
     0
277
    -2
287
     1
 67
     0
278
    -2
288
     1
 68
     0
279
    -2
289
     1
 69
     0
  7
STANDARD
140
0.25
170
     5
 62
     0
 63
     7
283
     0
274
    -2
284
     1
 64
     0
275
    -2
285
     1
 65
     0
276
    -2
286
     1
 66
     0
277
    -2
287
     1
 67
     0
278
    -2
288
     1
 68
     0
279
    -2
289
     1
 69
     0
  7
STANDARD
140
0.18
170
     5
 62
     0
 63
     7
283
     0
274
    -2
284
     1
 64
     0
275
    -2
285
     1
 65
     0
276
    -2
286
     1
 66
     0
277
    -2
287
     1
 67
     0
278
    -2
288
     1
 68
     0
279
    -2
289
     1
 69
     0
  0
VISUALSTYLE
  5
A0D1
102
{ACAD_XDICTIONARY
360
A12F
102
}
102
{ACAD_REACTORS
330
A0CB
102
}
330
A0CB
100
AcDbVisualStyle
  2
2dWireframe
 70
     4
 71
     0
 72
     2
 73
     0
 90
        0
 40
-0.6
 41
-30.0
 62
     5
 63
     7
 74
     1
 91
        4
 64
     7
 65
   257
 75
     1
175
     1
 42
1.0
 92
        0
 66
   257
 43
1.0
 76
     1
 77
     6
 78
     2
 67
     7
 79
     5
170
     0
171
     0
290
     0
174
     0
 93
        1
 44
0.0
173
     0
291
     0
 45
0.0
1001
ACAD
1000
AcDbSavedByObjectVersion
1070
     0
  0
VISUALSTYLE
  5
A0D0
102
{ACAD_XDICTIONARY
360
A12D
102
}
102
{ACAD_REACTORS
330
A0CB
102
}
330
A0CB
100
AcDbVisualStyle
  2
Basic
 70
     7
 71
     1
 72
     0
 73
     1
 90
        0
 40
-0.6
 41
-30.0
 62
     5
 63
     7
 74
     0
 91
        4
 64
     7
 65
   257
 75
     1
175
     1
 42
1.0
 92
        8
 66
     7
 43
1.0
 76
     1
 77
     6
 78
     2
 67
     7
 79
     5
170
     0
171
     0
290
     0
174
     0
 93
        1
 44
0.0
173
     0
291
     1
 45
0.0
1001
ACAD
1000
AcDbSavedByObjectVersion
1070
     0
  0
VISUALSTYLE
  5
A0D7
102
{ACAD_XDICTIONARY
360
A13B
102
}
102
{ACAD_REACTORS
330
A0CB
102
}
330
A0CB
100
AcDbVisualStyle
  2
Brighten
 70
    12
 71
     2
 72
     2
 73
     0
 90
        0
 40
-0.6
 41
-30.0
 62
     5
 63
     7
 74
     1
 91
        4
 64
     7
 65
   257
 75
     1
175
     1
 42
1.0
 92
        8
 66
     7
 43
1.0
 76
     1
 77
     6
 78
     2
 67
     7
 79
     5
170
     0
171
     0
290
     0
174
     0
 93
        1
 44
50.0
173
     0
291
     1
 45
0.0
1001
ACAD
1000
AcDbSavedByObjectVersion
1070
     0
  0
VISUALSTYLE
  5
A0DB
102
{ACAD_XDICTIONARY
360
A143
102
}
102
{ACAD_REACTORS
330
A0CB
102
}
330
A0CB
100
AcDbVisualStyle
  2
ColorChange
 70
    16
 71
     2
 72
     2
 73
     3
 90
        0
 40
-0.6
 41
-30.0
 62
     5
 63
     8
 74
     1
 91
        4
 64
     7
 65
   257
 75
     1
175
     1
 42
1.0
 92
        8
 66
     8
 43
1.0
 76
     1
 77
     6
 78
     2
 67
     7
 79
     5
170
     0
171
     0
290
     0
174
     0
 93
        1
 44
0.0
173
     0
291
     1
 45
0.0
1001
ACAD
1000
AcDbSavedByObjectVersion
1070
     0
  0
VISUALSTYLE
  5
A0D4
102
{ACAD_XDICTIONARY
360
A135
102
}
102
{ACAD_REACTORS
330
A0CB
102
}
330
A0CB
100
AcDbVisualStyle
  2
Conceptual
 70
     9
 71
     3
 72
     2
 73
     0
 90
        0
 40
-0.6
 41
-30.0
 62
     5
 63
     7
 74
     2
 91
        2
 64
     7
 65
   257
 75
     1
175
     1
 42
179.0
 92
        8
 66
     7
 43
1.0
 76
     1
 77
     6
 78
     2
 67
     7
 79
     3
170
     0
171
     0
290
     0
174
     0
 93
        1
 44
0.0
173
     0
291
     0
 45
0.0
1001
ACAD
1000
AcDbSavedByObjectVersion
1070
     0
  0
VISUALSTYLE
  5
A0D6
102
{ACAD_XDICTIONARY
360
A139
102
}
102
{ACAD_REACTORS
330
A0CB
102
}
330
A0CB
100
AcDbVisualStyle
  2
Dim
 70
    11
 71
     2
 72
     2
 73
     0
 90
        0
 40
-0.6
 41
-30.0
 62
     5
 63
     7
 74
     1
 91
        4
 64
     7
 65
   257
 75
     1
175
     1
 42
1.0
 92
        8
 66
     7
 43
1.0
 76
     1
 77
     6
 78
     2
 67
     7
 79
     5
170
     0
171
     0
290
     0
174
     0
 93
        1
 44
-50.0
173
     0
291
     1
 45
0.0
1001
ACAD
1000
AcDbSavedByObjectVersion
1070
     0
  0
VISUALSTYLE
  5
A0E3
102
{ACAD_XDICTIONARY
360
A153
102
}
102
{ACAD_REACTORS
330
A0CB
102
}
330
A0CB
100
AcDbVisualStyle
  2
EdgeColorOff
 70
    22
 71
     2
 72
     2
 73
     0
 90
        0
 40
-0.6
 41
-30.0
 62
     5
 63
     7
 74
     1
 91
        4
 64
     7
 65
   257
 75
     1
175
     1
 42
1.0
 92
        8
 66
     7
 43
1.0
 76
     1
 77
     6
 78
     2
 67
     7
 79
     5
170
     0
171
     0
290
     0
174
     0
 93
        1
 44
0.0
173
     0
291
     1
 45
0.0
1001
ACAD
1000
AcDbSavedByObjectVersion
1070
     0
  0
VISUALSTYLE
  5
A0DA
102
{ACAD_XDICTIONARY
360
A141
102
}
102
{ACAD_REACTORS
330
A0CB
102
}
330
A0CB
100
AcDbVisualStyle
  2
Facepattern
 70
    15
 71
     2
 72
     2
 73
     0
 90
        0
 40
-0.6
 41
-30.0
 62
     5
 63
     7
 74
     1
 91
        4
 64
     7
 65
   257
 75
     1
175
     1
 42
1.0
 92
        8
 66
     7
 43
1.0
 76
     1
 77
     6
 78
     2
 67
     7
 79
     5
170
     0
171
     0
290
     0
174
     0
 93
        1
 44
0.0
173
     0
291
     1
 45
0.0
1001
ACAD
1000
AcDbSavedByObjectVersion
1070
     0
  0
VISUALSTYLE
  5
A0CC
102
{ACAD_XDICTIONARY
360
A125
102
}
102
{ACAD_REACTORS
330
A0CB
102
}
330
A0CB
100
AcDbVisualStyle
  2
Flat
 70
     0
 71
     2
 72
     1
 73
     1
 90
        2
 40
-0.6
 41
30.0
 62
     5
 63
     7
 74
     0
 91
        0
 64
     7
 65
   257
 75
     1
175
     1
 42
1.0
 92
        8
 66
     7
 43
1.0
 76
     1
 77
     6
 78
     2
 67
     7
 79
     5
170
     0
171
     0
290
     0
174
     0
 93
       13
 44
0.0
173
     0
291
     1
 45
0.0
1001
ACAD
1000
AcDbSavedByObjectVersion
1070
     0
  0
VISUALSTYLE
  5
A0CD
102
{ACAD_XDICTIONARY
360
A127
102
}
102
{ACAD_REACTORS
330
A0CB
102
}
330
A0CB
100
AcDbVisualStyle
  2
FlatWithEdges
 70
     1
 71
     2
 72
     1
 73
     1
 90
        2
 40
-0.6
 41
30.0
 62
     5
 63
     7
 74
     1
 91
        0
 64
     7
 65
   257
 75
     1
175
     1
 42
1.0
 92
        0
 66
   257
 43
1.0
 76
     1
 77
     6
 78
     2
 67
     7
 79
     5
170
     0
171
     0
290
     0
174
     0
 93
       13
 44
0.0
173
     0
291
     1
 45
0.0
1001
ACAD
1000
AcDbSavedByObjectVersion
1070
     0
  0
VISUALSTYLE
  5
A0CE
102
{ACAD_XDICTIONARY
360
A129
102
}
102
{ACAD_REACTORS
330
A0CB
102
}
330
A0CB
100
AcDbVisualStyle
  2
Gouraud
 70
     2
 71
     2
 72
     2
 73
     1
 90
        2
 40
-0.6
 41
30.0
 62
     5
 63
     7
 74
     0
 91
        0
 64
     7
 65
   257
 75
     1
175
     1
 42
1.0
 92
        0
 66
     7
 43
1.0
 76
     1
 77
     6
 78
     2
 67
     7
 79
     5
170
     0
171
     0
290
     0
174
     0
 93
       13
 44
0.0
173
     0
291
     1
 45
0.0
1001
ACAD
1000
AcDbSavedByObjectVersion
1070
     0
  0
VISUALSTYLE
  5
A0CF
102
{ACAD_XDICTIONARY
360
A12B
102
}
102
{ACAD_REACTORS
330
A0CB
102
}
330
A0CB
100
AcDbVisualStyle
  2
GouraudWithEdges
 70
     3
 71
     2
 72
     2
 73
     1
 90
        2
 40
-0.6
 41
30.0
 62
     5
 63
     7
 74
     1
 91
        0
 64
     7
 65
   257
 75
     1
175
     1
 42
1.0
 92
        0
 66
   257
 43
1.0
 76
     1
 77
     6
 78
     2
 67
     7
 79
     5
170
     0
171
     0
290
     0
174
     0
 93
       13
 44
0.0
173
     0
291
     1
 45
0.0
1001
ACAD
1000
AcDbSavedByObjectVersion
1070
     0
  0
VISUALSTYLE
  5
A0D3
102
{ACAD_XDICTIONARY
360
A133
102
}
102
{ACAD_REACTORS
330
A0CB
102
}
330
A0CB
100
AcDbVisualStyle
  2
Hidden
 70
     6
 71
     1
 72
     2
 73
     2
 90
        0
 40
-0.6
 41
-30.0
 62
     5
 63
     7
 74
     2
 91
        2
 64
     7
 65
   257
 75
     2
175
     1
 42
40.0
 92
        0
 66
   257
 43
1.0
 76
     1
 77
     6
 78
     2
 67
     7
 79
     3
170
     0
171
     0
290
     0
174
     0
 93
        1
 44
0.0
173
     0
291
     0
 45
0.0
1001
ACAD
1000
AcDbSavedByObjectVersion
1070
     0
  0
VISUALSTYLE
  5
A0E1
102
{ACAD_XDICTIONARY
360
A14F
102
}
102
{ACAD_REACTORS
330
A0CB
102
}
330
A0CB
100
AcDbVisualStyle
  2
JitterOff
 70
    20
 71
     2
 72
     2
 73
     0
 90
        0
 40
-0.6
 41
-30.0
 62
     5
 63
     7
 74
     1
 91
        4
 64
     7
 65
   257
 75
     1
175
     1
 42
1.0
 92
       10
 66
     7
 43
1.0
 76
     1
 77
     6
 78
     2
 67
     7
 79
     5
170
     0
171
     0
290
     0
174
     0
 93
        1
 44
0.0
173
     0
291
     1
 45
0.0
1001
ACAD
1000
AcDbSavedByObjectVersion
1070
     0
  0
VISUALSTYLE
  5
A0D9
102
{ACAD_XDICTIONARY
360
A13F
102
}
102
{ACAD_REACTORS
330
A0CB
102
}
330
A0CB
100
AcDbVisualStyle
  2
Linepattern
 70
    14
 71
     2
 72
     2
 73
     0
 90
        0
 40
-0.6
 41
-30.0
 62
     5
 63
     7
 74
     1
 91
        4
 64
     7
 65
   257
 75
     7
175
     7
 42
1.0
 92
        8
 66
     7
 43
1.0
 76
     1
 77
     6
 78
     2
 67
     7
 79
     5
170
     0
171
     0
290
     0
174
     0
 93
        1
 44
0.0
173
     0
291
     1
 45
0.0
1001
ACAD
1000
AcDbSavedByObjectVersion
1070
     0
  0
VISUALSTYLE
  5
A0E2
102
{ACAD_XDICTIONARY
360
A151
102
}
102
{ACAD_REACTORS
330
A0CB
102
}
330
A0CB
100
AcDbVisualStyle
  2
OverhangOff
 70
    21
 71
     2
 72
     2
 73
     0
 90
        0
 40
-0.6
 41
-30.0
 62
     5
 63
     7
 74
     1
 91
        4
 64
     7
 65
   257
 75
     1
175
     1
 42
1.0
 92
        9
 66
     7
 43
1.0
 76
     1
 77
     6
 78
     2
 67
     7
 79
     5
170
     0
171
     0
290
     0
174
     0
 93
        1
 44
0.0
173
     0
291
     1
 45
0.0
1001
ACAD
1000
AcDbSavedByObjectVersion
1070
     0
  0
VISUALSTYLE
  5
A0D5
102
{ACAD_XDICTIONARY
360
A137
102
}
102
{ACAD_REACTORS
330
A0CB
102
}
330
A0CB
100
AcDbVisualStyle
  2
Realistic
 70
     8
 71
     2
 72
     3
 73
     0
 90
        2
 40
-0.6
 41
30.0
 62
     5
 63
     7
 74
     0
 91
        0
 64
     7
 65
   257
 75
     1
175
     1
 42
1.0
 92
        8
 66
   257
 43
1.0
 76
     1
 77
     6
 78
     2
 67
     7
 79
     3
170
     0
171
     0
290
     0
174
     0
 93
       13
 44
0.0
173
     0
291
     0
 45
0.0
1001
ACAD
1000
AcDbSavedByObjectVersion
1070
     0
  0
VISUALSTYLE
  5
A0E0
102
{ACAD_XDICTIONARY
360
A14D
102
}
102
{ACAD_REACTORS
330
A0CB
102
}
330
A0CB
100
AcDbVisualStyle
  2
Shaded
 70
    27
 71
     2
 72
     2
 73
     1
 90
        2
 40
-0.6
 41
30.0
 62
     5
 63
     7
 74
     0
 91
        4
 64
     7
 65
   257
 75
     1
175
     1
 42
1.0
 92
        8
 66
   257
 43
1.0
 76
     1
 77
     6
 78
     2
 67
     8
 79
     3
170
     0
171
     0
290
     0
174
     0
 93
        5
 44
0.0
173
     0
291
     0
 45
0.0
1001
ACAD
1000
AcDbSavedByObjectVersion
1070
     0
  0
VISUALSTYLE
  5
A0DF
102
{ACAD_XDICTIONARY
360
A14B
102
}
102
{ACAD_REACTORS
330
A0CB
102
}
330
A0CB
100
AcDbVisualStyle
  2
Shaded with edges
 70
    26
 71
     2
 72
     2
 73
     1
 90
        2
 40
-0.6
 41
30.0
 62
     5
 63
     7
 74
     1
 91
       10
 64
     7
 65
   257
 75
     2
175
     1
 42
1.0
 92
        8
 66
   257
 43
1.0
 76
     1
 77
     6
 78
     2
 67
     7
 79
     3
170
     0
171
     0
290
     0
174
     0
 93
        5
 44
0.0
173
     0
291
     0
 45
0.0
1001
ACAD
1000
AcDbSavedByObjectVersion
1070
     0
  0
VISUALSTYLE
  5
A0DC
102
{ACAD_XDICTIONARY
360
A145
102
}
102
{ACAD_REACTORS
330
A0CB
102
}
330
A0CB
100
AcDbVisualStyle
  2
Shades of Gray
 70
    23
 71
     2
 72
     2
 73
     3
 90
        0
 40
-0.6
 41
-30.0
 62
     5
 63
     7
 74
     2
 91
        2
 64
     7
 65
     7
 75
     1
175
     1
 42
40.0
 92
        8
 66
     7
 43
1.0
 76
     1
 77
     6
 78
     2
 67
     7
 79
     3
170
     0
171
     0
290
     0
174
     0
 93
        1
 44
0.0
173
     0
291
     0
 45
0.0
1001
ACAD
1000
AcDbSavedByObjectVersion
1070
     0
  0
VISUALSTYLE
  5
A0DD
102
{ACAD_XDICTIONARY
360
A147
102
}
102
{ACAD_REACTORS
330
A0CB
102
}
330
A0CB
100
AcDbVisualStyle
  2
Sketchy
 70
    24
 71
     1
 72
     2
 73
     2
 90
        0
 40
-0.6
 41
-30.0
 62
     5
 63
     7
 74
     2
 91
        2
 64
     7
 65
     7
 75
     1
175
     1
 42
40.0
 92
       11
 66
     7
 43
1.0
 76
     1
 77
     6
 78
     2
 67
     7
 79
     6
170
     0
171
     0
290
     0
174
     0
 93
        1
 44
0.0
173
     0
291
     0
 45
0.0
1001
ACAD
1000
AcDbSavedByObjectVersion
1070
     0
  0
VISUALSTYLE
  5
A0D8
102
{ACAD_XDICTIONARY
360
A13D
102
}
102
{ACAD_REACTORS
330
A0CB
102
}
330
A0CB
100
AcDbVisualStyle
  2
Thicken
 70
    13
 71
     2
 72
     2
 73
     0
 90
        0
 40
-0.6
 41
-30.0
 62
     5
 63
     7
 74
     1
 91
        4
 64
     7
 65
   257
 75
     1
175
     1
 42
1.0
 92
       12
 66
     7
 43
1.0
 76
     1
 77
     6
 78
     2
 67
     7
 79
     5
170
     0
171
     0
290
     0
174
     0
 93
        1
 44
0.0
173
     0
291
     1
 45
0.0
1001
ACAD
1000
AcDbSavedByObjectVersion
1070
     0
  0
VISUALSTYLE
  5
A0D2
102
{ACAD_XDICTIONARY
360
A131
102
}
102
{ACAD_REACTORS
330
A0CB
102
}
330
A0CB
100
AcDbVisualStyle
  2
Wireframe
 70
     5
 71
     0
 72
     2
 73
     0
 90
        0
 40
-0.6
 41
-30.0
 62
     5
 63
     7
 74
     1
 91
        4
 64
     7
 65
   257
 75
     1
175
     1
 42
1.0
 92
        0
 66
   257
 43
1.0
 76
     1
 77
     6
 78
     2
 67
     7
 79
     3
170
     0
171
     0
290
     0
174
     0
 93
        1
 44
0.0
173
     0
291
     0
 45
0.0
1001
ACAD
1000
AcDbSavedByObjectVersion
1070
     0
  0
VISUALSTYLE
  5
A0DE
102
{ACAD_XDICTIONARY
360
A149
102
}
102
{ACAD_REACTORS
330
A0CB
102
}
330
A0CB
100
AcDbVisualStyle
  2
X-Ray
 70
    25
 71
     2
 72
     2
 73
     1
 90
        1
 40
0.5
 41
-30.0
 62
     5
 63
     7
 74
     1
 91
        0
 64
     7
 65
   257
 75
     1
175
     1
 42
1.0
 92
        8
 66
     7
 43
1.0
 76
     1
 77
     6
 78
     2
 67
     7
 79
     3
170
     0
171
     0
290
     0
174
     0
 93
       13
 44
0.0
173
     0
291
     0
 45
0.0
1001
ACAD
1000
AcDbSavedByObjectVersion
1070
     0
  0
DICTIONARYVAR
  5
A118
102
{ACAD_REACTORS
330
A113
102
}
330
A113
100
DictionaryVariables
280
     0
  1
1:1
  0
DICTIONARYVAR
  5
A115
102
{ACAD_REACTORS
330
A113
102
}
330
A113
100
DictionaryVariables
280
     0
  1
STANDARD
  0
DICTIONARYVAR
  5
A114
102
{ACAD_REACTORS
330
A113
102
}
330
A113
100
DictionaryVariables
280
     0
  1
STANDARD
  0
DICTIONARYVAR
  5
A116
102
{ACAD_REACTORS
330
A113
102
}
330
A113
100
DictionaryVariables
280
     0
  1
Imperial24
  0
DICTIONARYVAR
  5
A117
102
{ACAD_REACTORS
330
A113
102
}
330
A113
100
DictionaryVariables
280
     0
  1
Imperial24
  0
DICTIONARYVAR
  5
A11B
102
{ACAD_REACTORS
330
A113
102
}
330
A113
100
DictionaryVariables
280
     0
  1
1
  0
DICTIONARYVAR
  5
A11A
102
{ACAD_REACTORS
330
A113
102
}
330
A113
100
DictionaryVariables
280
     0
  1
0
  0
DICTIONARYVAR
  5
A119
102
{ACAD_REACTORS
330
A113
102
}
330
A113
100
DictionaryVariables
280
     0
  1
127
  0
DICTIONARYVAR
  5
A11C
102
{ACAD_REACTORS
330
A113
102
}
330
A113
100
DictionaryVariables
280
     0
  1
2
  0
DICTIONARY
  5
A159
330
A0FE
100
AcDbDictionary
280
     1
281
     1
  3
ACAD_XREC_ROUNDTRIP
360
A15A
  0
DICTIONARY
  5
A15B
330
A0FF
100
AcDbDictionary
280
     1
281
     1
  3
ACAD_XREC_ROUNDTRIP
360
A15C
  0
DICTIONARY
  5
A15D
330
A100
100
AcDbDictionary
280
     1
281
     1
  3
ACAD_XREC_ROUNDTRIP
360
A15E
  0
DICTIONARY
  5
A0BC
330
A0BB
100
AcDbDictionary
280
     1
281
     1
  3
ACAD_XREC_ROUNDTRIP
360
A123
  3
BUMPTILE
360
A0BE
  3
DIFFUSETILE
360
A0BD
  3
OPACITYTILE
360
A0C1
  3
REFLECTIONTILE
360
A0C0
  3
REFRACTIONTILE
360
A0C2
  3
SPECULARTILE
360
A0BF
  0
DICTIONARY
  5
A0B4
330
A0B3
100
AcDbDictionary
280
     1
281
     1
  3
ACAD_XREC_ROUNDTRIP
360
A122
  3
BUMPTILE
360
A0B6
  3
DIFFUSETILE
360
A0B5
  3
OPACITYTILE
360
A0B9
  3
REFLECTIONTILE
360
A0B8
  3
REFRACTIONTILE
360
A0BA
  3
SPECULARTILE
360
A0B7
  0
DICTIONARY
  5
A0C4
330
A0C3
100
AcDbDictionary
280
     1
281
     1
  3
ACAD_XREC_ROUNDTRIP
360
A124
  3
BUMPTILE
360
A0C6
  3
DIFFUSETILE
360
A0C5
  3
OPACITYTILE
360
A0C9
  3
REFLECTIONTILE
360
A0C8
  3
REFRACTIONTILE
360
A0CA
  3
SPECULARTILE
360
A0C7
  0
DICTIONARY
  5
A157
330
A0FC
100
AcDbDictionary
280
     1
281
     1
  3
ACAD_XREC_ROUNDTRIP
360
A158
  0
DICTIONARY
  5
A11E
330
A0E6
100
AcDbDictionary
280
     1
281
     1
  3
ACAD_ROUNDTRIP_2008_TABLESTYLE_CELLSTYLEMAP
360
A11F
  3
ACAD_XREC_ROUNDTRIP
360
A155
  0
DICTIONARY
  5
A12F
330
A0D1
100
AcDbDictionary
280
     1
281
     1
  3
ACAD_XREC_ROUNDTRIP
360
A130
  0
DICTIONARY
  5
A12D
330
A0D0
100
AcDbDictionary
280
     1
281
     1
  3
ACAD_XREC_ROUNDTRIP
360
A12E
  0
DICTIONARY
  5
A13B
330
A0D7
100
AcDbDictionary
280
     1
281
     1
  3
ACAD_XREC_ROUNDTRIP
360
A13C
  0
DICTIONARY
  5
A143
330
A0DB
100
AcDbDictionary
280
     1
281
     1
  3
ACAD_XREC_ROUNDTRIP
360
A144
  0
DICTIONARY
  5
A135
330
A0D4
100
AcDbDictionary
280
     1
281
     1
  3
ACAD_XREC_ROUNDTRIP
360
A136
  0
DICTIONARY
  5
A139
330
A0D6
100
AcDbDictionary
280
     1
281
     1
  3
ACAD_XREC_ROUNDTRIP
360
A13A
  0
DICTIONARY
  5
A153
330
A0E3
100
AcDbDictionary
280
     1
281
     1
  3
ACAD_XREC_ROUNDTRIP
360
A154
  0
DICTIONARY
  5
A141
330
A0DA
100
AcDbDictionary
280
     1
281
     1
  3
ACAD_XREC_ROUNDTRIP
360
A142
  0
DICTIONARY
  5
A125
330
A0CC
100
AcDbDictionary
280
     1
281
     1
  3
ACAD_XREC_ROUNDTRIP
360
A126
  0
DICTIONARY
  5
A127
330
A0CD
100
AcDbDictionary
280
     1
281
     1
  3
ACAD_XREC_ROUNDTRIP
360
A128
  0
DICTIONARY
  5
A129
330
A0CE
100
AcDbDictionary
280
     1
281
     1
  3
ACAD_XREC_ROUNDTRIP
360
A12A
  0
DICTIONARY
  5
A12B
330
A0CF
100
AcDbDictionary
280
     1
281
     1
  3
ACAD_XREC_ROUNDTRIP
360
A12C
  0
DICTIONARY
  5
A133
330
A0D3
100
AcDbDictionary
280
     1
281
     1
  3
ACAD_XREC_ROUNDTRIP
360
A134
  0
DICTIONARY
  5
A14F
330
A0E1
100
AcDbDictionary
280
     1
281
     1
  3
ACAD_XREC_ROUNDTRIP
360
A150
  0
DICTIONARY
  5
A13F
330
A0D9
100
AcDbDictionary
280
     1
281
     1
  3
ACAD_XREC_ROUNDTRIP
360
A140
  0
DICTIONARY
  5
A151
330
A0E2
100
AcDbDictionary
280
     1
281
     1
  3
ACAD_XREC_ROUNDTRIP
360
A152
  0
DICTIONARY
  5
A137
330
A0D5
100
AcDbDictionary
280
     1
281
     1
  3
ACAD_XREC_ROUNDTRIP
360
A138
  0
DICTIONARY
  5
A14D
330
A0E0
100
AcDbDictionary
280
     1
281
     1
  3
ACAD_XREC_ROUNDTRIP
360
A14E
  0
DICTIONARY
  5
A14B
330
A0DF
100
AcDbDictionary
280
     1
281
     1
  3
ACAD_XREC_ROUNDTRIP
360
A14C
  0
DICTIONARY
  5
A145
330
A0DC
100
AcDbDictionary
280
     1
281
     1
  3
ACAD_XREC_ROUNDTRIP
360
A146
  0
DICTIONARY
  5
A147
330
A0DD
100
AcDbDictionary
280
     1
281
     1
  3
ACAD_XREC_ROUNDTRIP
360
A148
  0
DICTIONARY
  5
A13D
330
A0D8
100
AcDbDictionary
280
     1
281
     1
  3
ACAD_XREC_ROUNDTRIP
360
A13E
  0
DICTIONARY
  5
A131
330
A0D2
100
AcDbDictionary
280
     1
281
     1
  3
ACAD_XREC_ROUNDTRIP
360
A132
  0
DICTIONARY
  5
A149
330
A0DE
100
AcDbDictionary
280
     1
281
     1
  3
ACAD_XREC_ROUNDTRIP
360
A14A
  0
XRECORD
  5
A15A
102
{ACAD_REACTORS
330
A159
102
}
330
A159
100
AcDbXrecord
280
     1
102
DISPLAYNAME
  1
Imperial24
102
FLAGS
 90
        0
  0
XRECORD
  5
A15C
102
{ACAD_REACTORS
330
A15B
102
}
330
A15B
100
AcDbXrecord
280
     1
102
SHADEPLOT
 70
     0
102
SHADEPLOTRESLEVEL
 70
     2
102
SHADEPLOTCUSTOMDPI
 70
   300
  0
XRECORD
  5
A15E
102
{ACAD_REACTORS
330
A15D
102
}
330
A15D
100
AcDbXrecord
280
     1
102
SHADEPLOT
 70
     0
102
SHADEPLOTRESLEVEL
 70
     2
102
SHADEPLOTCUSTOMDPI
 70
   300
  0
XRECORD
  5
A123
102
{ACAD_REACTORS
330
A0BC
102
}
330
A0BC
100
AcDbXrecord
280
     1
102
MATERIAL
148
0.0
149
0.0
149
0.0
 93
        0
 94
      127
282
     0
 72
     0
 77
     0
171
     0
175
     0
179
     0
273
     0
  0
XRECORD
  5
A0BE
102
{ACAD_REACTORS
330
A0BC
102
}
330
A0BC
100
AcDbXrecord
280
     1
270
     1
271
     1
  0
XRECORD
  5
A0BD
102
{ACAD_REACTORS
330
A0BC
102
}
330
A0BC
100
AcDbXrecord
280
     1
270
     1
271
     1
  0
XRECORD
  5
A0C1
102
{ACAD_REACTORS
330
A0BC
102
}
330
A0BC
100
AcDbXrecord
280
     1
270
     1
271
     1
  0
XRECORD
  5
A0C0
102
{ACAD_REACTORS
330
A0BC
102
}
330
A0BC
100
AcDbXrecord
280
     1
270
     1
271
     1
  0
XRECORD
  5
A0C2
102
{ACAD_REACTORS
330
A0BC
102
}
330
A0BC
100
AcDbXrecord
280
     1
270
     1
271
     1
  0
XRECORD
  5
A0BF
102
{ACAD_REACTORS
330
A0BC
102
}
330
A0BC
100
AcDbXrecord
280
     1
270
     1
271
     1
  0
XRECORD
  5
A122
102
{ACAD_REACTORS
330
A0B4
102
}
330
A0B4
100
AcDbXrecord
280
     1
102
MATERIAL
148
0.0
149
0.0
149
0.0
 93
        0
 94
      127
282
     0
 72
     0
 77
     0
171
     0
175
     0
179
     0
273
     0
  0
XRECORD
  5
A0B6
102
{ACAD_REACTORS
330
A0B4
102
}
330
A0B4
100
AcDbXrecord
280
     1
270
     1
271
     1
  0
XRECORD
  5
A0B5
102
{ACAD_REACTORS
330
A0B4
102
}
330
A0B4
100
AcDbXrecord
280
     1
270
     1
271
     1
  0
XRECORD
  5
A0B9
102
{ACAD_REACTORS
330
A0B4
102
}
330
A0B4
100
AcDbXrecord
280
     1
270
     1
271
     1
  0
XRECORD
  5
A0B8
102
{ACAD_REACTORS
330
A0B4
102
}
330
A0B4
100
AcDbXrecord
280
     1
270
     1
271
     1
  0
XRECORD
  5
A0BA
102
{ACAD_REACTORS
330
A0B4
102
}
330
A0B4
100
AcDbXrecord
280
     1
270
     1
271
     1
  0
XRECORD
  5
A0B7
102
{ACAD_REACTORS
330
A0B4
102
}
330
A0B4
100
AcDbXrecord
280
     1
270
     1
271
     1
  0
XRECORD
  5
A124
102
{ACAD_REACTORS
330
A0C4
102
}
330
A0C4
100
AcDbXrecord
280
     1
102
MATERIAL
148
0.0
149
0.0
149
0.0
 93
        0
 94
      127
282
     0
 72
     0
 77
     0
171
     0
175
     0
179
     0
273
     0
  0
XRECORD
  5
A0C6
102
{ACAD_REACTORS
330
A0C4
102
}
330
A0C4
100
AcDbXrecord
280
     1
270
     1
271
     1
  0
XRECORD
  5
A0C5
102
{ACAD_REACTORS
330
A0C4
102
}
330
A0C4
100
AcDbXrecord
280
     1
270
     1
271
     1
  0
XRECORD
  5
A0C9
102
{ACAD_REACTORS
330
A0C4
102
}
330
A0C4
100
AcDbXrecord
280
     1
270
     1
271
     1
  0
XRECORD
  5
A0C8
102
{ACAD_REACTORS
330
A0C4
102
}
330
A0C4
100
AcDbXrecord
280
     1
270
     1
271
     1
  0
XRECORD
  5
A0CA
102
{ACAD_REACTORS
330
A0C4
102
}
330
A0C4
100
AcDbXrecord
280
     1
270
     1
271
     1
  0
XRECORD
  5
A0C7
102
{ACAD_REACTORS
330
A0C4
102
}
330
A0C4
100
AcDbXrecord
280
     1
270
     1
271
     1
  0
XRECORD
  5
A158
102
{ACAD_REACTORS
330
A157
102
}
330
A157
100
AcDbXrecord
280
     1
102
DISPLAYNAME
  1
Imperial24
102
FLAGS
 90
        0
  0
CELLSTYLEMAP
  5
A11F
102
{ACAD_REACTORS
330
A11E
102
}
330
A11E
100
AcDbCellStyleMap
 90
        3
300
CELLSTYLE
  1
TABLEFORMAT_BEGIN
 90
        5
170
     1
 91
        0
 92
    32768
 62
   257
 93
        1
300
CONTENTFORMAT
  1
CONTENTFORMAT_BEGIN
 90
        0
 91
        0
 92
      512
 93
        0
300

 40
0.0
140
1.0
 94
        5
 62
     0
340
98E0
144
0.25
309
CONTENTFORMAT_END
171
     0
 94
        0
309
TABLEFORMAT_END
  1
CELLSTYLE_BEGIN
 90
        1
 91
        1
300
_TITLE
309
CELLSTYLE_END
300
CELLSTYLE
  1
TABLEFORMAT_BEGIN
 90
        5
170
     1
 91
        0
 92
        0
 62
   257
 93
        1
300
CONTENTFORMAT
  1
CONTENTFORMAT_BEGIN
 90
        0
 91
        0
 92
      512
 93
        0
300

 40
0.0
140
1.0
 94
        5
 62
     0
340
98E0
144
0.18
309
CONTENTFORMAT_END
171
     0
 94
        0
309
TABLEFORMAT_END
  1
CELLSTYLE_BEGIN
 90
        2
 91
        1
300
_HEADER
309
CELLSTYLE_END
300
CELLSTYLE
  1
TABLEFORMAT_BEGIN
 90
        5
170
     1
 91
        0
 92
        0
 62
   257
 93
        1
300
CONTENTFORMAT
  1
CONTENTFORMAT_BEGIN
 90
        0
 91
        0
 92
      512
 93
        0
300

 40
0.0
140
1.0
 94
        2
 62
     0
340
98E0
144
0.18
309
CONTENTFORMAT_END
171
     0
 94
        0
309
TABLEFORMAT_END
  1
CELLSTYLE_BEGIN
 90
        3
 91
        2
300
_DATA
309
CELLSTYLE_END
  0
XRECORD
  5
A155
102
{ACAD_REACTORS
330
A11E
102
}
330
A11E
100
AcDbXrecord
280
     1
102
ACAD_ROUNDTRIP_PRE2007_TABLESTYLE
 90
      512
 91
        0
  1

 92
      512
 93
        0
  2

 94
      512
 95
        0
  3

  0
XRECORD
  5
A130
102
{ACAD_REACTORS
330
A12F
102
}
330
A12F
100
AcDbXrecord
280
     1
102
RTVSPost2010Prop28
280
     1
102
RTVSPost2010PropOp28
 70
     1
102
RTVSPost2010Prop29
280
     1
102
RTVSPost2010PropOp29
 70
     1
102
RTVSPost2010Prop30
280
     0
102
RTVSPost2010PropOp30
 70
     1
102
RTVSPost2010Prop31
280
     0
102
RTVSPost2010PropOp31
 70
     1
102
RTVSPost2010Prop32
280
     0
102
RTVSPost2010PropOp32
 70
     1
102
RTVSPost2010Prop33
280
     0
102
RTVSPost2010PropOp33
 70
     1
102
RTVSPost2010Prop34
280
     0
102
RTVSPost2010PropOp34
 70
     1
102
RTVSPost2010Prop35
280
     0
102
RTVSPost2010PropOp35
 70
     1
102
RTVSPost2010Prop36
280
     0
102
RTVSPost2010PropOp36
 70
     1
102
RTVSPost2010Prop37
 90
       50
102
RTVSPost2010PropOp37
 70
     1
102
RTVSPost2010Prop38
140
0.0
102
RTVSPost2010PropOp38
 70
     1
102
RTVSPost2010Prop39
140
1.0
102
RTVSPost2010PropOp39
 70
     1
102
RTVSPost2010Prop40
 90
        0
102
RTVSPost2010PropOp40
 70
     1
102
RTVSPost2010Prop41ColorIndex
 90
       18
102
RTVSPost2010Prop41ColorRGB
 90
        0
102
RTVSPost2010PropOp41
 70
     1
102
RTVSPost2010Prop42
 90
       50
102
RTVSPost2010PropOp42
 70
     1
102
RTVSPost2010Prop43
 90
        3
102
RTVSPost2010PropOp43
 70
     1
102
RTVSPost2010Prop44ColorIndex
 90
        5
102
RTVSPost2010Prop44ColorRGB
 90
      255
102
RTVSPost2010PropOp44
 70
     1
102
RTVSPost2010Prop45
280
     0
102
RTVSPost2010PropOp45
 70
     1
102
RTVSPost2010Prop46
 90
       50
102
RTVSPost2010PropOp46
 70
     1
102
RTVSPost2010Prop47
 90
       50
102
RTVSPost2010PropOp47
 70
     1
102
RTVSPost2010Prop48
 90
       50
102
RTVSPost2010PropOp48
 70
     1
102
RTVSPost2010Prop49
280
     0
102
RTVSPost2010PropOp49
 70
     1
102
RTVSPost2010Prop50
 90
       50
102
RTVSPost2010PropOp50
 70
     1
102
RTVSPost2010Prop51ColorIndex
 90
      256
102
RTVSPost2010Prop51ColorRGB
 90
-16777216
102
RTVSPost2010PropOp51
 70
     0
102
RTVSPost2010Prop52
140
1.0
102
RTVSPost2010PropOp52
 70
     0
102
RTVSPost2010Prop53
 90
        2
102
RTVSPost2010PropOp53
 70
     1
102
RTVSPost2010Prop54
  1
strokes_ogs.tif
102
RTVSPost2010PropOp54
 70
     1
102
RTVSPost2010Prop55
280
     0
102
RTVSPost2010PropOp55
 70
     1
102
RTVSPost2010Prop56
140
1.0
102
RTVSPost2010PropOp56
 70
     1
102
RTVSPost2010Prop57
140
1.0
102
RTVSPost2010PropOp57
 70
     1
102
RTVSPropertyOp0
 70
     1
102
RTVSPropertyOp1
 70
     1
102
RTVSPropertyOp2
 70
     1
102
RTVSPropertyOp3
 70
     1
102
RTVSPropertyOp4
 70
     1
102
RTVSPropertyOp5
 70
     1
102
RTVSPropertyOp6
 70
     1
102
RTVSPropertyOp7
 70
     1
102
RTVSPropertyOp8
 70
     1
102
RTVSPropertyOp9
 70
     1
102
RTVSPropertyOp10
 70
     1
102
RTVSPropertyOp11
 70
     1
102
RTVSPropertyOp12
 70
     1
102
RTVSPropertyOp13
 70
     1
102
RTVSPropertyOp14
 70
     1
102
RTVSPropertyOp15
 70
     1
102
RTVSPropertyOp16
 70
     1
102
RTVSPropertyOp17
 70
     1
102
RTVSPropertyOp18
 70
     1
102
RTVSPropertyOp19
 70
     1
102
RTVSPropertyOp20
 70
     1
102
RTVSPropertyOp21
 70
     1
102
RTVSPropertyOp22
 70
     1
102
RTVSPropertyOp23
 70
     1
102
RTVSPropertyOp24
 70
     1
102
RTVSPropertyOp25
 70
     1
102
RTVSPropertyOp26
 70
     1
102
RTVSPropertyOp27
 70
     1
102
RTVSPropertyOp28
 70
     1
102
RTVSPropertyOp29
 70
     1
102
RTVSPropertyOp30
 70
     1
102
RTVSPropertyOp31
 70
     1
102
RTVSPropertyOp32
 70
     1
102
RTVSPropertyOp33
 70
     1
102
RTVSPropertyOp34
 70
     1
102
RTVSPropertyOp35
 70
     1
102
RTVSPropertyOp36
 70
     1
102
RTVSPropertyOp37
 70
     1
102
RTVSPropertyOp38
 70
     1
102
RTVSPropertyOp39
 70
     1
102
RTVSPropertyOp40
 70
     1
102
RTVSPropertyOp41
 70
     1
102
RTVSPropertyOp42
 70
     1
102
RTVSPropertyOp43
 70
     1
102
RTVSPropertyOp44
 70
     1
102
RTVSPropertyOp45
 70
     1
102
RTVSPropertyOp46
 70
     1
102
RTVSPropertyOp47
 70
     1
102
RTVSPropertyOp48
 70
     1
102
RTVSPropertyOp49
 70
     1
102
RTVSPropertyOp50
 70
     1
102
RTVSPropertyOp51
 70
     0
102
RTVSPropertyOp52
 70
     0
102
RTVSPropertyOp53
 70
     1
102
RTVSPropertyOp54
 70
     1
102
RTVSPropertyOp55
 70
     1
102
RTVSPropertyOp56
 70
     1
102
RTVSPropertyOp57
 70
     1
102
RTVSPropertyOp58
 70
     1
102
RTVSPropertyOp59
 70
     1
102
RTVSPropertyOp60
 70
     1
102
RTVSPropertyOp61
 70
     1
102
RTVSPropertyOp62
 70
     1
  0
XRECORD
  5
A12E
102
{ACAD_REACTORS
330
A12D
102
}
330
A12D
100
AcDbXrecord
280
     1
102
RTVSPost2010Prop28
280
     0
102
RTVSPost2010PropOp28
 70
     1
102
RTVSPost2010Prop29
280
     1
102
RTVSPost2010PropOp29
 70
     1
102
RTVSPost2010Prop30
280
     1
102
RTVSPost2010PropOp30
 70
     1
102
RTVSPost2010Prop31
280
     0
102
RTVSPost2010PropOp31
 70
     1
102
RTVSPost2010Prop32
280
     0
102
RTVSPost2010PropOp32
 70
     1
102
RTVSPost2010Prop33
280
     0
102
RTVSPost2010PropOp33
 70
     1
102
RTVSPost2010Prop34
280
     0
102
RTVSPost2010PropOp34
 70
     1
102
RTVSPost2010Prop35
280
     0
102
RTVSPost2010PropOp35
 70
     1
102
RTVSPost2010Prop36
280
     0
102
RTVSPost2010PropOp36
 70
     1
102
RTVSPost2010Prop37
 90
       50
102
RTVSPost2010PropOp37
 70
     1
102
RTVSPost2010Prop38
140
0.0
102
RTVSPost2010PropOp38
 70
     1
102
RTVSPost2010Prop39
140
1.0
102
RTVSPost2010PropOp39
 70
     1
102
RTVSPost2010Prop40
 90
        0
102
RTVSPost2010PropOp40
 70
     1
102
RTVSPost2010Prop41ColorIndex
 90
       18
102
RTVSPost2010Prop41ColorRGB
 90
        0
102
RTVSPost2010PropOp41
 70
     1
102
RTVSPost2010Prop42
 90
       50
102
RTVSPost2010PropOp42
 70
     1
102
RTVSPost2010Prop43
 90
        3
102
RTVSPost2010PropOp43
 70
     1
102
RTVSPost2010Prop44ColorIndex
 90
        5
102
RTVSPost2010Prop44ColorRGB
 90
      255
102
RTVSPost2010PropOp44
 70
     1
102
RTVSPost2010Prop45
280
     0
102
RTVSPost2010PropOp45
 70
     1
102
RTVSPost2010Prop46
 90
       50
102
RTVSPost2010PropOp46
 70
     1
102
RTVSPost2010Prop47
 90
       50
102
RTVSPost2010PropOp47
 70
     1
102
RTVSPost2010Prop48
 90
       50
102
RTVSPost2010PropOp48
 70
     1
102
RTVSPost2010Prop49
280
     0
102
RTVSPost2010PropOp49
 70
     1
102
RTVSPost2010Prop50
 90
       50
102
RTVSPost2010PropOp50
 70
     1
102
RTVSPost2010Prop51ColorIndex
 90
      256
102
RTVSPost2010Prop51ColorRGB
 90
-16777216
102
RTVSPost2010PropOp51
 70
     0
102
RTVSPost2010Prop52
140
1.0
102
RTVSPost2010PropOp52
 70
     0
102
RTVSPost2010Prop53
 90
        2
102
RTVSPost2010PropOp53
 70
     1
102
RTVSPost2010Prop54
  1
strokes_ogs.tif
102
RTVSPost2010PropOp54
 70
     1
102
RTVSPost2010Prop55
280
     0
102
RTVSPost2010PropOp55
 70
     1
102
RTVSPost2010Prop56
140
1.0
102
RTVSPost2010PropOp56
 70
     1
102
RTVSPost2010Prop57
140
1.0
102
RTVSPost2010PropOp57
 70
     1
102
RTVSPropertyOp0
 70
     1
102
RTVSPropertyOp1
 70
     1
102
RTVSPropertyOp2
 70
     1
102
RTVSPropertyOp3
 70
     1
102
RTVSPropertyOp4
 70
     1
102
RTVSPropertyOp5
 70
     1
102
RTVSPropertyOp6
 70
     1
102
RTVSPropertyOp7
 70
     1
102
RTVSPropertyOp8
 70
     1
102
RTVSPropertyOp9
 70
     1
102
RTVSPropertyOp10
 70
     1
102
RTVSPropertyOp11
 70
     1
102
RTVSPropertyOp12
 70
     1
102
RTVSPropertyOp13
 70
     1
102
RTVSPropertyOp14
 70
     1
102
RTVSPropertyOp15
 70
     1
102
RTVSPropertyOp16
 70
     1
102
RTVSPropertyOp17
 70
     1
102
RTVSPropertyOp18
 70
     1
102
RTVSPropertyOp19
 70
     1
102
RTVSPropertyOp20
 70
     1
102
RTVSPropertyOp21
 70
     1
102
RTVSPropertyOp22
 70
     1
102
RTVSPropertyOp23
 70
     1
102
RTVSPropertyOp24
 70
     1
102
RTVSPropertyOp25
 70
     1
102
RTVSPropertyOp26
 70
     1
102
RTVSPropertyOp27
 70
     1
102
RTVSPropertyOp28
 70
     1
102
RTVSPropertyOp29
 70
     1
102
RTVSPropertyOp30
 70
     1
102
RTVSPropertyOp31
 70
     1
102
RTVSPropertyOp32
 70
     1
102
RTVSPropertyOp33
 70
     1
102
RTVSPropertyOp34
 70
     1
102
RTVSPropertyOp35
 70
     1
102
RTVSPropertyOp36
 70
     1
102
RTVSPropertyOp37
 70
     1
102
RTVSPropertyOp38
 70
     1
102
RTVSPropertyOp39
 70
     1
102
RTVSPropertyOp40
 70
     1
102
RTVSPropertyOp41
 70
     1
102
RTVSPropertyOp42
 70
     1
102
RTVSPropertyOp43
 70
     1
102
RTVSPropertyOp44
 70
     1
102
RTVSPropertyOp45
 70
     1
102
RTVSPropertyOp46
 70
     1
102
RTVSPropertyOp47
 70
     1
102
RTVSPropertyOp48
 70
     1
102
RTVSPropertyOp49
 70
     1
102
RTVSPropertyOp50
 70
     1
102
RTVSPropertyOp51
 70
     0
102
RTVSPropertyOp52
 70
     0
102
RTVSPropertyOp53
 70
     1
102
RTVSPropertyOp54
 70
     1
102
RTVSPropertyOp55
 70
     1
102
RTVSPropertyOp56
 70
     1
102
RTVSPropertyOp57
 70
     1
102
RTVSPropertyOp58
 70
     1
102
RTVSPropertyOp59
 70
     1
102
RTVSPropertyOp60
 70
     1
102
RTVSPropertyOp61
 70
     1
102
RTVSPropertyOp62
 70
     1
  0
XRECORD
  5
A13C
102
{ACAD_REACTORS
330
A13B
102
}
330
A13B
100
AcDbXrecord
280
     1
102
RTVSPost2010Prop28
280
     0
102
RTVSPost2010PropOp28
 70
     1
102
RTVSPost2010Prop29
280
     1
102
RTVSPost2010PropOp29
 70
     1
102
RTVSPost2010Prop30
280
     1
102
RTVSPost2010PropOp30
 70
     1
102
RTVSPost2010Prop31
280
     0
102
RTVSPost2010PropOp31
 70
     1
102
RTVSPost2010Prop32
280
     0
102
RTVSPost2010PropOp32
 70
     1
102
RTVSPost2010Prop33
280
     0
102
RTVSPost2010PropOp33
 70
     1
102
RTVSPost2010Prop34
280
     0
102
RTVSPost2010PropOp34
 70
     1
102
RTVSPost2010Prop35
280
     0
102
RTVSPost2010PropOp35
 70
     1
102
RTVSPost2010Prop36
280
     0
102
RTVSPost2010PropOp36
 70
     1
102
RTVSPost2010Prop37
 90
       50
102
RTVSPost2010PropOp37
 70
     1
102
RTVSPost2010Prop38
140
0.0
102
RTVSPost2010PropOp38
 70
     1
102
RTVSPost2010Prop39
140
1.0
102
RTVSPost2010PropOp39
 70
     1
102
RTVSPost2010Prop40
 90
        0
102
RTVSPost2010PropOp40
 70
     1
102
RTVSPost2010Prop41ColorIndex
 90
       18
102
RTVSPost2010Prop41ColorRGB
 90
        0
102
RTVSPost2010PropOp41
 70
     1
102
RTVSPost2010Prop42
 90
       50
102
RTVSPost2010PropOp42
 70
     1
102
RTVSPost2010Prop43
 90
        3
102
RTVSPost2010PropOp43
 70
     1
102
RTVSPost2010Prop44ColorIndex
 90
        5
102
RTVSPost2010Prop44ColorRGB
 90
      255
102
RTVSPost2010PropOp44
 70
     1
102
RTVSPost2010Prop45
280
     0
102
RTVSPost2010PropOp45
 70
     1
102
RTVSPost2010Prop46
 90
       50
102
RTVSPost2010PropOp46
 70
     1
102
RTVSPost2010Prop47
 90
       50
102
RTVSPost2010PropOp47
 70
     1
102
RTVSPost2010Prop48
 90
       50
102
RTVSPost2010PropOp48
 70
     1
102
RTVSPost2010Prop49
280
     0
102
RTVSPost2010PropOp49
 70
     1
102
RTVSPost2010Prop50
 90
       50
102
RTVSPost2010PropOp50
 70
     1
102
RTVSPost2010Prop51ColorIndex
 90
      256
102
RTVSPost2010Prop51ColorRGB
 90
-16777216
102
RTVSPost2010PropOp51
 70
     0
102
RTVSPost2010Prop52
140
1.0
102
RTVSPost2010PropOp52
 70
     0
102
RTVSPost2010Prop53
 90
        2
102
RTVSPost2010PropOp53
 70
     1
102
RTVSPost2010Prop54
  1
strokes_ogs.tif
102
RTVSPost2010PropOp54
 70
     1
102
RTVSPost2010Prop55
280
     0
102
RTVSPost2010PropOp55
 70
     1
102
RTVSPost2010Prop56
140
1.0
102
RTVSPost2010PropOp56
 70
     1
102
RTVSPost2010Prop57
140
1.0
102
RTVSPost2010PropOp57
 70
     1
102
RTVSPropertyOp0
 70
     1
102
RTVSPropertyOp1
 70
     1
102
RTVSPropertyOp2
 70
     1
102
RTVSPropertyOp3
 70
     1
102
RTVSPropertyOp4
 70
     1
102
RTVSPropertyOp5
 70
     1
102
RTVSPropertyOp6
 70
     1
102
RTVSPropertyOp7
 70
     1
102
RTVSPropertyOp8
 70
     1
102
RTVSPropertyOp9
 70
     1
102
RTVSPropertyOp10
 70
     1
102
RTVSPropertyOp11
 70
     1
102
RTVSPropertyOp12
 70
     1
102
RTVSPropertyOp13
 70
     1
102
RTVSPropertyOp14
 70
     1
102
RTVSPropertyOp15
 70
     1
102
RTVSPropertyOp16
 70
     1
102
RTVSPropertyOp17
 70
     1
102
RTVSPropertyOp18
 70
     1
102
RTVSPropertyOp19
 70
     1
102
RTVSPropertyOp20
 70
     1
102
RTVSPropertyOp21
 70
     1
102
RTVSPropertyOp22
 70
     1
102
RTVSPropertyOp23
 70
     1
102
RTVSPropertyOp24
 70
     1
102
RTVSPropertyOp25
 70
     1
102
RTVSPropertyOp26
 70
     1
102
RTVSPropertyOp27
 70
     1
102
RTVSPropertyOp28
 70
     1
102
RTVSPropertyOp29
 70
     1
102
RTVSPropertyOp30
 70
     1
102
RTVSPropertyOp31
 70
     1
102
RTVSPropertyOp32
 70
     1
102
RTVSPropertyOp33
 70
     1
102
RTVSPropertyOp34
 70
     1
102
RTVSPropertyOp35
 70
     1
102
RTVSPropertyOp36
 70
     1
102
RTVSPropertyOp37
 70
     1
102
RTVSPropertyOp38
 70
     1
102
RTVSPropertyOp39
 70
     1
102
RTVSPropertyOp40
 70
     1
102
RTVSPropertyOp41
 70
     1
102
RTVSPropertyOp42
 70
     1
102
RTVSPropertyOp43
 70
     1
102
RTVSPropertyOp44
 70
     1
102
RTVSPropertyOp45
 70
     1
102
RTVSPropertyOp46
 70
     1
102
RTVSPropertyOp47
 70
     1
102
RTVSPropertyOp48
 70
     1
102
RTVSPropertyOp49
 70
     1
102
RTVSPropertyOp50
 70
     1
102
RTVSPropertyOp51
 70
     0
102
RTVSPropertyOp52
 70
     0
102
RTVSPropertyOp53
 70
     1
102
RTVSPropertyOp54
 70
     1
102
RTVSPropertyOp55
 70
     1
102
RTVSPropertyOp56
 70
     1
102
RTVSPropertyOp57
 70
     1
102
RTVSPropertyOp58
 70
     1
102
RTVSPropertyOp59
 70
     1
102
RTVSPropertyOp60
 70
     1
102
RTVSPropertyOp61
 70
     1
102
RTVSPropertyOp62
 70
     1
  0
XRECORD
  5
A144
102
{ACAD_REACTORS
330
A143
102
}
330
A143
100
AcDbXrecord
280
     1
102
RTVSPost2010Prop28
280
     0
102
RTVSPost2010PropOp28
 70
     1
102
RTVSPost2010Prop29
280
     1
102
RTVSPost2010PropOp29
 70
     1
102
RTVSPost2010Prop30
280
     1
102
RTVSPost2010PropOp30
 70
     1
102
RTVSPost2010Prop31
280
     0
102
RTVSPost2010PropOp31
 70
     1
102
RTVSPost2010Prop32
280
     0
102
RTVSPost2010PropOp32
 70
     1
102
RTVSPost2010Prop33
280
     0
102
RTVSPost2010PropOp33
 70
     1
102
RTVSPost2010Prop34
280
     0
102
RTVSPost2010PropOp34
 70
     1
102
RTVSPost2010Prop35
280
     0
102
RTVSPost2010PropOp35
 70
     1
102
RTVSPost2010Prop36
280
     0
102
RTVSPost2010PropOp36
 70
     1
102
RTVSPost2010Prop37
 90
       50
102
RTVSPost2010PropOp37
 70
     1
102
RTVSPost2010Prop38
140
0.0
102
RTVSPost2010PropOp38
 70
     1
102
RTVSPost2010Prop39
140
1.0
102
RTVSPost2010PropOp39
 70
     1
102
RTVSPost2010Prop40
 90
        0
102
RTVSPost2010PropOp40
 70
     1
102
RTVSPost2010Prop41ColorIndex
 90
       18
102
RTVSPost2010Prop41ColorRGB
 90
        0
102
RTVSPost2010PropOp41
 70
     1
102
RTVSPost2010Prop42
 90
       50
102
RTVSPost2010PropOp42
 70
     1
102
RTVSPost2010Prop43
 90
        3
102
RTVSPost2010PropOp43
 70
     1
102
RTVSPost2010Prop44ColorIndex
 90
        5
102
RTVSPost2010Prop44ColorRGB
 90
      255
102
RTVSPost2010PropOp44
 70
     1
102
RTVSPost2010Prop45
280
     0
102
RTVSPost2010PropOp45
 70
     1
102
RTVSPost2010Prop46
 90
       50
102
RTVSPost2010PropOp46
 70
     1
102
RTVSPost2010Prop47
 90
       50
102
RTVSPost2010PropOp47
 70
     1
102
RTVSPost2010Prop48
 90
       50
102
RTVSPost2010PropOp48
 70
     1
102
RTVSPost2010Prop49
280
     0
102
RTVSPost2010PropOp49
 70
     1
102
RTVSPost2010Prop50
 90
       50
102
RTVSPost2010PropOp50
 70
     1
102
RTVSPost2010Prop51ColorIndex
 90
      256
102
RTVSPost2010Prop51ColorRGB
 90
-16777216
102
RTVSPost2010PropOp51
 70
     0
102
RTVSPost2010Prop52
140
1.0
102
RTVSPost2010PropOp52
 70
     0
102
RTVSPost2010Prop53
 90
        2
102
RTVSPost2010PropOp53
 70
     1
102
RTVSPost2010Prop54
  1
strokes_ogs.tif
102
RTVSPost2010PropOp54
 70
     1
102
RTVSPost2010Prop55
280
     0
102
RTVSPost2010PropOp55
 70
     1
102
RTVSPost2010Prop56
140
1.0
102
RTVSPost2010PropOp56
 70
     1
102
RTVSPost2010Prop57
140
1.0
102
RTVSPost2010PropOp57
 70
     1
102
RTVSPropertyOp0
 70
     1
102
RTVSPropertyOp1
 70
     1
102
RTVSPropertyOp2
 70
     1
102
RTVSPropertyOp3
 70
     1
102
RTVSPropertyOp4
 70
     1
102
RTVSPropertyOp5
 70
     1
102
RTVSPropertyOp6
 70
     1
102
RTVSPropertyOp7
 70
     1
102
RTVSPropertyOp8
 70
     1
102
RTVSPropertyOp9
 70
     1
102
RTVSPropertyOp10
 70
     1
102
RTVSPropertyOp11
 70
     1
102
RTVSPropertyOp12
 70
     1
102
RTVSPropertyOp13
 70
     1
102
RTVSPropertyOp14
 70
     1
102
RTVSPropertyOp15
 70
     1
102
RTVSPropertyOp16
 70
     1
102
RTVSPropertyOp17
 70
     1
102
RTVSPropertyOp18
 70
     1
102
RTVSPropertyOp19
 70
     1
102
RTVSPropertyOp20
 70
     1
102
RTVSPropertyOp21
 70
     1
102
RTVSPropertyOp22
 70
     1
102
RTVSPropertyOp23
 70
     1
102
RTVSPropertyOp24
 70
     1
102
RTVSPropertyOp25
 70
     1
102
RTVSPropertyOp26
 70
     1
102
RTVSPropertyOp27
 70
     1
102
RTVSPropertyOp28
 70
     1
102
RTVSPropertyOp29
 70
     1
102
RTVSPropertyOp30
 70
     1
102
RTVSPropertyOp31
 70
     1
102
RTVSPropertyOp32
 70
     1
102
RTVSPropertyOp33
 70
     1
102
RTVSPropertyOp34
 70
     1
102
RTVSPropertyOp35
 70
     1
102
RTVSPropertyOp36
 70
     1
102
RTVSPropertyOp37
 70
     1
102
RTVSPropertyOp38
 70
     1
102
RTVSPropertyOp39
 70
     1
102
RTVSPropertyOp40
 70
     1
102
RTVSPropertyOp41
 70
     1
102
RTVSPropertyOp42
 70
     1
102
RTVSPropertyOp43
 70
     1
102
RTVSPropertyOp44
 70
     1
102
RTVSPropertyOp45
 70
     1
102
RTVSPropertyOp46
 70
     1
102
RTVSPropertyOp47
 70
     1
102
RTVSPropertyOp48
 70
     1
102
RTVSPropertyOp49
 70
     1
102
RTVSPropertyOp50
 70
     1
102
RTVSPropertyOp51
 70
     0
102
RTVSPropertyOp52
 70
     0
102
RTVSPropertyOp53
 70
     1
102
RTVSPropertyOp54
 70
     1
102
RTVSPropertyOp55
 70
     1
102
RTVSPropertyOp56
 70
     1
102
RTVSPropertyOp57
 70
     1
102
RTVSPropertyOp58
 70
     1
102
RTVSPropertyOp59
 70
     1
102
RTVSPropertyOp60
 70
     1
102
RTVSPropertyOp61
 70
     1
102
RTVSPropertyOp62
 70
     1
  0
XRECORD
  5
A136
102
{ACAD_REACTORS
330
A135
102
}
330
A135
100
AcDbXrecord
280
     1
102
RTVSPost2010Prop28
280
     0
102
RTVSPost2010PropOp28
 70
     1
102
RTVSPost2010Prop29
280
     1
102
RTVSPost2010PropOp29
 70
     1
102
RTVSPost2010Prop30
280
     1
102
RTVSPost2010PropOp30
 70
     1
102
RTVSPost2010Prop31
280
     0
102
RTVSPost2010PropOp31
 70
     1
102
RTVSPost2010Prop32
280
     0
102
RTVSPost2010PropOp32
 70
     1
102
RTVSPost2010Prop33
280
     0
102
RTVSPost2010PropOp33
 70
     1
102
RTVSPost2010Prop34
280
     0
102
RTVSPost2010PropOp34
 70
     1
102
RTVSPost2010Prop35
280
     0
102
RTVSPost2010PropOp35
 70
     1
102
RTVSPost2010Prop36
280
     0
102
RTVSPost2010PropOp36
 70
     1
102
RTVSPost2010Prop37
 90
       50
102
RTVSPost2010PropOp37
 70
     1
102
RTVSPost2010Prop38
140
0.0
102
RTVSPost2010PropOp38
 70
     1
102
RTVSPost2010Prop39
140
1.0
102
RTVSPost2010PropOp39
 70
     1
102
RTVSPost2010Prop40
 90
        0
102
RTVSPost2010PropOp40
 70
     1
102
RTVSPost2010Prop41ColorIndex
 90
       18
102
RTVSPost2010Prop41ColorRGB
 90
        0
102
RTVSPost2010PropOp41
 70
     1
102
RTVSPost2010Prop42
 90
       50
102
RTVSPost2010PropOp42
 70
     1
102
RTVSPost2010Prop43
 90
        3
102
RTVSPost2010PropOp43
 70
     1
102
RTVSPost2010Prop44ColorIndex
 90
        5
102
RTVSPost2010Prop44ColorRGB
 90
      255
102
RTVSPost2010PropOp44
 70
     1
102
RTVSPost2010Prop45
280
     0
102
RTVSPost2010PropOp45
 70
     1
102
RTVSPost2010Prop46
 90
       50
102
RTVSPost2010PropOp46
 70
     1
102
RTVSPost2010Prop47
 90
       50
102
RTVSPost2010PropOp47
 70
     1
102
RTVSPost2010Prop48
 90
       50
102
RTVSPost2010PropOp48
 70
     1
102
RTVSPost2010Prop49
280
     0
102
RTVSPost2010PropOp49
 70
     1
102
RTVSPost2010Prop50
 90
       50
102
RTVSPost2010PropOp50
 70
     1
102
RTVSPost2010Prop51ColorIndex
 90
      256
102
RTVSPost2010Prop51ColorRGB
 90
-16777216
102
RTVSPost2010PropOp51
 70
     0
102
RTVSPost2010Prop52
140
1.0
102
RTVSPost2010PropOp52
 70
     0
102
RTVSPost2010Prop53
 90
        2
102
RTVSPost2010PropOp53
 70
     1
102
RTVSPost2010Prop54
  1
strokes_ogs.tif
102
RTVSPost2010PropOp54
 70
     1
102
RTVSPost2010Prop55
280
     0
102
RTVSPost2010PropOp55
 70
     1
102
RTVSPost2010Prop56
140
1.0
102
RTVSPost2010PropOp56
 70
     1
102
RTVSPost2010Prop57
140
1.0
102
RTVSPost2010PropOp57
 70
     1
102
RTVSPropertyOp0
 70
     1
102
RTVSPropertyOp1
 70
     1
102
RTVSPropertyOp2
 70
     1
102
RTVSPropertyOp3
 70
     1
102
RTVSPropertyOp4
 70
     1
102
RTVSPropertyOp5
 70
     1
102
RTVSPropertyOp6
 70
     1
102
RTVSPropertyOp7
 70
     1
102
RTVSPropertyOp8
 70
     1
102
RTVSPropertyOp9
 70
     1
102
RTVSPropertyOp10
 70
     1
102
RTVSPropertyOp11
 70
     1
102
RTVSPropertyOp12
 70
     1
102
RTVSPropertyOp13
 70
     1
102
RTVSPropertyOp14
 70
     1
102
RTVSPropertyOp15
 70
     1
102
RTVSPropertyOp16
 70
     1
102
RTVSPropertyOp17
 70
     1
102
RTVSPropertyOp18
 70
     1
102
RTVSPropertyOp19
 70
     1
102
RTVSPropertyOp20
 70
     1
102
RTVSPropertyOp21
 70
     1
102
RTVSPropertyOp22
 70
     1
102
RTVSPropertyOp23
 70
     1
102
RTVSPropertyOp24
 70
     1
102
RTVSPropertyOp25
 70
     1
102
RTVSPropertyOp26
 70
     1
102
RTVSPropertyOp27
 70
     1
102
RTVSPropertyOp28
 70
     1
102
RTVSPropertyOp29
 70
     1
102
RTVSPropertyOp30
 70
     1
102
RTVSPropertyOp31
 70
     1
102
RTVSPropertyOp32
 70
     1
102
RTVSPropertyOp33
 70
     1
102
RTVSPropertyOp34
 70
     1
102
RTVSPropertyOp35
 70
     1
102
RTVSPropertyOp36
 70
     1
102
RTVSPropertyOp37
 70
     1
102
RTVSPropertyOp38
 70
     1
102
RTVSPropertyOp39
 70
     1
102
RTVSPropertyOp40
 70
     1
102
RTVSPropertyOp41
 70
     1
102
RTVSPropertyOp42
 70
     1
102
RTVSPropertyOp43
 70
     1
102
RTVSPropertyOp44
 70
     1
102
RTVSPropertyOp45
 70
     1
102
RTVSPropertyOp46
 70
     1
102
RTVSPropertyOp47
 70
     1
102
RTVSPropertyOp48
 70
     1
102
RTVSPropertyOp49
 70
     1
102
RTVSPropertyOp50
 70
     1
102
RTVSPropertyOp51
 70
     0
102
RTVSPropertyOp52
 70
     0
102
RTVSPropertyOp53
 70
     1
102
RTVSPropertyOp54
 70
     1
102
RTVSPropertyOp55
 70
     1
102
RTVSPropertyOp56
 70
     1
102
RTVSPropertyOp57
 70
     1
102
RTVSPropertyOp58
 70
     1
102
RTVSPropertyOp59
 70
     1
102
RTVSPropertyOp60
 70
     1
102
RTVSPropertyOp61
 70
     1
102
RTVSPropertyOp62
 70
     1
  0
XRECORD
  5
A13A
102
{ACAD_REACTORS
330
A139
102
}
330
A139
100
AcDbXrecord
280
     1
102
RTVSPost2010Prop28
280
     0
102
RTVSPost2010PropOp28
 70
     1
102
RTVSPost2010Prop29
280
     1
102
RTVSPost2010PropOp29
 70
     1
102
RTVSPost2010Prop30
280
     1
102
RTVSPost2010PropOp30
 70
     1
102
RTVSPost2010Prop31
280
     0
102
RTVSPost2010PropOp31
 70
     1
102
RTVSPost2010Prop32
280
     0
102
RTVSPost2010PropOp32
 70
     1
102
RTVSPost2010Prop33
280
     0
102
RTVSPost2010PropOp33
 70
     1
102
RTVSPost2010Prop34
280
     0
102
RTVSPost2010PropOp34
 70
     1
102
RTVSPost2010Prop35
280
     0
102
RTVSPost2010PropOp35
 70
     1
102
RTVSPost2010Prop36
280
     0
102
RTVSPost2010PropOp36
 70
     1
102
RTVSPost2010Prop37
 90
       50
102
RTVSPost2010PropOp37
 70
     1
102
RTVSPost2010Prop38
140
0.0
102
RTVSPost2010PropOp38
 70
     1
102
RTVSPost2010Prop39
140
1.0
102
RTVSPost2010PropOp39
 70
     1
102
RTVSPost2010Prop40
 90
        0
102
RTVSPost2010PropOp40
 70
     1
102
RTVSPost2010Prop41ColorIndex
 90
       18
102
RTVSPost2010Prop41ColorRGB
 90
        0
102
RTVSPost2010PropOp41
 70
     1
102
RTVSPost2010Prop42
 90
       50
102
RTVSPost2010PropOp42
 70
     1
102
RTVSPost2010Prop43
 90
        3
102
RTVSPost2010PropOp43
 70
     1
102
RTVSPost2010Prop44ColorIndex
 90
        5
102
RTVSPost2010Prop44ColorRGB
 90
      255
102
RTVSPost2010PropOp44
 70
     1
102
RTVSPost2010Prop45
280
     0
102
RTVSPost2010PropOp45
 70
     1
102
RTVSPost2010Prop46
 90
       50
102
RTVSPost2010PropOp46
 70
     1
102
RTVSPost2010Prop47
 90
       50
102
RTVSPost2010PropOp47
 70
     1
102
RTVSPost2010Prop48
 90
       50
102
RTVSPost2010PropOp48
 70
     1
102
RTVSPost2010Prop49
280
     0
102
RTVSPost2010PropOp49
 70
     1
102
RTVSPost2010Prop50
 90
       50
102
RTVSPost2010PropOp50
 70
     1
102
RTVSPost2010Prop51ColorIndex
 90
      256
102
RTVSPost2010Prop51ColorRGB
 90
-16777216
102
RTVSPost2010PropOp51
 70
     0
102
RTVSPost2010Prop52
140
1.0
102
RTVSPost2010PropOp52
 70
     0
102
RTVSPost2010Prop53
 90
        2
102
RTVSPost2010PropOp53
 70
     1
102
RTVSPost2010Prop54
  1
strokes_ogs.tif
102
RTVSPost2010PropOp54
 70
     1
102
RTVSPost2010Prop55
280
     0
102
RTVSPost2010PropOp55
 70
     1
102
RTVSPost2010Prop56
140
1.0
102
RTVSPost2010PropOp56
 70
     1
102
RTVSPost2010Prop57
140
1.0
102
RTVSPost2010PropOp57
 70
     1
102
RTVSPropertyOp0
 70
     1
102
RTVSPropertyOp1
 70
     1
102
RTVSPropertyOp2
 70
     1
102
RTVSPropertyOp3
 70
     1
102
RTVSPropertyOp4
 70
     1
102
RTVSPropertyOp5
 70
     1
102
RTVSPropertyOp6
 70
     1
102
RTVSPropertyOp7
 70
     1
102
RTVSPropertyOp8
 70
     1
102
RTVSPropertyOp9
 70
     1
102
RTVSPropertyOp10
 70
     1
102
RTVSPropertyOp11
 70
     1
102
RTVSPropertyOp12
 70
     1
102
RTVSPropertyOp13
 70
     1
102
RTVSPropertyOp14
 70
     1
102
RTVSPropertyOp15
 70
     1
102
RTVSPropertyOp16
 70
     1
102
RTVSPropertyOp17
 70
     1
102
RTVSPropertyOp18
 70
     1
102
RTVSPropertyOp19
 70
     1
102
RTVSPropertyOp20
 70
     1
102
RTVSPropertyOp21
 70
     1
102
RTVSPropertyOp22
 70
     1
102
RTVSPropertyOp23
 70
     1
102
RTVSPropertyOp24
 70
     1
102
RTVSPropertyOp25
 70
     1
102
RTVSPropertyOp26
 70
     1
102
RTVSPropertyOp27
 70
     1
102
RTVSPropertyOp28
 70
     1
102
RTVSPropertyOp29
 70
     1
102
RTVSPropertyOp30
 70
     1
102
RTVSPropertyOp31
 70
     1
102
RTVSPropertyOp32
 70
     1
102
RTVSPropertyOp33
 70
     1
102
RTVSPropertyOp34
 70
     1
102
RTVSPropertyOp35
 70
     1
102
RTVSPropertyOp36
 70
     1
102
RTVSPropertyOp37
 70
     1
102
RTVSPropertyOp38
 70
     1
102
RTVSPropertyOp39
 70
     1
102
RTVSPropertyOp40
 70
     1
102
RTVSPropertyOp41
 70
     1
102
RTVSPropertyOp42
 70
     1
102
RTVSPropertyOp43
 70
     1
102
RTVSPropertyOp44
 70
     1
102
RTVSPropertyOp45
 70
     1
102
RTVSPropertyOp46
 70
     1
102
RTVSPropertyOp47
 70
     1
102
RTVSPropertyOp48
 70
     1
102
RTVSPropertyOp49
 70
     1
102
RTVSPropertyOp50
 70
     1
102
RTVSPropertyOp51
 70
     0
102
RTVSPropertyOp52
 70
     0
102
RTVSPropertyOp53
 70
     1
102
RTVSPropertyOp54
 70
     1
102
RTVSPropertyOp55
 70
     1
102
RTVSPropertyOp56
 70
     1
102
RTVSPropertyOp57
 70
     1
102
RTVSPropertyOp58
 70
     1
102
RTVSPropertyOp59
 70
     1
102
RTVSPropertyOp60
 70
     1
102
RTVSPropertyOp61
 70
     1
102
RTVSPropertyOp62
 70
     1
  0
XRECORD
  5
A154
102
{ACAD_REACTORS
330
A153
102
}
330
A153
100
AcDbXrecord
280
     1
102
RTVSPost2010Prop28
280
     0
102
RTVSPost2010PropOp28
 70
     1
102
RTVSPost2010Prop29
280
     1
102
RTVSPost2010PropOp29
 70
     1
102
RTVSPost2010Prop30
280
     1
102
RTVSPost2010PropOp30
 70
     1
102
RTVSPost2010Prop31
280
     0
102
RTVSPost2010PropOp31
 70
     1
102
RTVSPost2010Prop32
280
     0
102
RTVSPost2010PropOp32
 70
     1
102
RTVSPost2010Prop33
280
     0
102
RTVSPost2010PropOp33
 70
     1
102
RTVSPost2010Prop34
280
     0
102
RTVSPost2010PropOp34
 70
     1
102
RTVSPost2010Prop35
280
     0
102
RTVSPost2010PropOp35
 70
     1
102
RTVSPost2010Prop36
280
     0
102
RTVSPost2010PropOp36
 70
     1
102
RTVSPost2010Prop37
 90
       50
102
RTVSPost2010PropOp37
 70
     0
102
RTVSPost2010Prop38
140
0.0
102
RTVSPost2010PropOp38
 70
     0
102
RTVSPost2010Prop39
140
1.0
102
RTVSPost2010PropOp39
 70
     0
102
RTVSPost2010Prop40
 90
        0
102
RTVSPost2010PropOp40
 70
     0
102
RTVSPost2010Prop41ColorIndex
 90
       18
102
RTVSPost2010Prop41ColorRGB
 90
        0
102
RTVSPost2010PropOp41
 70
     0
102
RTVSPost2010Prop42
 90
       50
102
RTVSPost2010PropOp42
 70
     0
102
RTVSPost2010Prop43
 90
        3
102
RTVSPost2010PropOp43
 70
     0
102
RTVSPost2010Prop44ColorIndex
 90
        5
102
RTVSPost2010Prop44ColorRGB
 90
      255
102
RTVSPost2010PropOp44
 70
     0
102
RTVSPost2010Prop45
280
     0
102
RTVSPost2010PropOp45
 70
     1
102
RTVSPost2010Prop46
 90
       50
102
RTVSPost2010PropOp46
 70
     0
102
RTVSPost2010Prop47
 90
       50
102
RTVSPost2010PropOp47
 70
     0
102
RTVSPost2010Prop48
 90
       50
102
RTVSPost2010PropOp48
 70
     0
102
RTVSPost2010Prop49
280
     0
102
RTVSPost2010PropOp49
 70
     1
102
RTVSPost2010Prop50
 90
       50
102
RTVSPost2010PropOp50
 70
     0
102
RTVSPost2010Prop51ColorIndex
 90
      256
102
RTVSPost2010Prop51ColorRGB
 90
-16777216
102
RTVSPost2010PropOp51
 70
     0
102
RTVSPost2010Prop52
140
1.0
102
RTVSPost2010PropOp52
 70
     0
102
RTVSPost2010Prop53
 90
        2
102
RTVSPost2010PropOp53
 70
     0
102
RTVSPost2010Prop54
  1
strokes_ogs.tif
102
RTVSPost2010PropOp54
 70
     0
102
RTVSPost2010Prop55
280
     0
102
RTVSPost2010PropOp55
 70
     1
102
RTVSPost2010Prop56
140
1.0
102
RTVSPost2010PropOp56
 70
     0
102
RTVSPost2010Prop57
140
1.0
102
RTVSPost2010PropOp57
 70
     0
102
RTVSPropertyOp0
 70
     0
102
RTVSPropertyOp1
 70
     0
102
RTVSPropertyOp2
 70
     0
102
RTVSPropertyOp3
 70
     0
102
RTVSPropertyOp4
 70
     0
102
RTVSPropertyOp5
 70
     0
102
RTVSPropertyOp6
 70
     0
102
RTVSPropertyOp7
 70
     0
102
RTVSPropertyOp8
 70
     0
102
RTVSPropertyOp9
 70
     0
102
RTVSPropertyOp10
 70
     0
102
RTVSPropertyOp11
 70
     0
102
RTVSPropertyOp12
 70
     0
102
RTVSPropertyOp13
 70
     0
102
RTVSPropertyOp14
 70
     2
102
RTVSPropertyOp15
 70
     0
102
RTVSPropertyOp16
 70
     0
102
RTVSPropertyOp17
 70
     0
102
RTVSPropertyOp18
 70
     0
102
RTVSPropertyOp19
 70
     0
102
RTVSPropertyOp20
 70
     0
102
RTVSPropertyOp21
 70
     0
102
RTVSPropertyOp22
 70
     0
102
RTVSPropertyOp23
 70
     0
102
RTVSPropertyOp24
 70
     0
102
RTVSPropertyOp25
 70
     0
102
RTVSPropertyOp26
 70
     0
102
RTVSPropertyOp27
 70
     0
102
RTVSPropertyOp28
 70
     1
102
RTVSPropertyOp29
 70
     1
102
RTVSPropertyOp30
 70
     1
102
RTVSPropertyOp31
 70
     1
102
RTVSPropertyOp32
 70
     1
102
RTVSPropertyOp33
 70
     1
102
RTVSPropertyOp34
 70
     1
102
RTVSPropertyOp35
 70
     1
102
RTVSPropertyOp36
 70
     1
102
RTVSPropertyOp37
 70
     0
102
RTVSPropertyOp38
 70
     0
102
RTVSPropertyOp39
 70
     0
102
RTVSPropertyOp40
 70
     0
102
RTVSPropertyOp41
 70
     0
102
RTVSPropertyOp42
 70
     0
102
RTVSPropertyOp43
 70
     0
102
RTVSPropertyOp44
 70
     0
102
RTVSPropertyOp45
 70
     1
102
RTVSPropertyOp46
 70
     0
102
RTVSPropertyOp47
 70
     0
102
RTVSPropertyOp48
 70
     0
102
RTVSPropertyOp49
 70
     1
102
RTVSPropertyOp50
 70
     0
102
RTVSPropertyOp51
 70
     0
102
RTVSPropertyOp52
 70
     0
102
RTVSPropertyOp53
 70
     0
102
RTVSPropertyOp54
 70
     0
102
RTVSPropertyOp55
 70
     1
102
RTVSPropertyOp56
 70
     0
102
RTVSPropertyOp57
 70
     0
102
RTVSPropertyOp58
 70
     0
102
RTVSPropertyOp59
 70
     0
102
RTVSPropertyOp60
 70
     0
102
RTVSPropertyOp61
 70
     0
102
RTVSPropertyOp62
 70
     0
  0
XRECORD
  5
A142
102
{ACAD_REACTORS
330
A141
102
}
330
A141
100
AcDbXrecord
280
     1
102
RTVSPost2010Prop28
280
     0
102
RTVSPost2010PropOp28
 70
     1
102
RTVSPost2010Prop29
280
     1
102
RTVSPost2010PropOp29
 70
     1
102
RTVSPost2010Prop30
280
     1
102
RTVSPost2010PropOp30
 70
     1
102
RTVSPost2010Prop31
280
     0
102
RTVSPost2010PropOp31
 70
     1
102
RTVSPost2010Prop32
280
     0
102
RTVSPost2010PropOp32
 70
     1
102
RTVSPost2010Prop33
280
     0
102
RTVSPost2010PropOp33
 70
     1
102
RTVSPost2010Prop34
280
     0
102
RTVSPost2010PropOp34
 70
     1
102
RTVSPost2010Prop35
280
     0
102
RTVSPost2010PropOp35
 70
     1
102
RTVSPost2010Prop36
280
     0
102
RTVSPost2010PropOp36
 70
     1
102
RTVSPost2010Prop37
 90
       50
102
RTVSPost2010PropOp37
 70
     1
102
RTVSPost2010Prop38
140
0.0
102
RTVSPost2010PropOp38
 70
     1
102
RTVSPost2010Prop39
140
1.0
102
RTVSPost2010PropOp39
 70
     1
102
RTVSPost2010Prop40
 90
        0
102
RTVSPost2010PropOp40
 70
     1
102
RTVSPost2010Prop41ColorIndex
 90
       18
102
RTVSPost2010Prop41ColorRGB
 90
        0
102
RTVSPost2010PropOp41
 70
     1
102
RTVSPost2010Prop42
 90
       50
102
RTVSPost2010PropOp42
 70
     1
102
RTVSPost2010Prop43
 90
        3
102
RTVSPost2010PropOp43
 70
     1
102
RTVSPost2010Prop44ColorIndex
 90
        5
102
RTVSPost2010Prop44ColorRGB
 90
      255
102
RTVSPost2010PropOp44
 70
     1
102
RTVSPost2010Prop45
280
     0
102
RTVSPost2010PropOp45
 70
     1
102
RTVSPost2010Prop46
 90
       50
102
RTVSPost2010PropOp46
 70
     1
102
RTVSPost2010Prop47
 90
       50
102
RTVSPost2010PropOp47
 70
     1
102
RTVSPost2010Prop48
 90
       50
102
RTVSPost2010PropOp48
 70
     1
102
RTVSPost2010Prop49
280
     0
102
RTVSPost2010PropOp49
 70
     1
102
RTVSPost2010Prop50
 90
       50
102
RTVSPost2010PropOp50
 70
     1
102
RTVSPost2010Prop51ColorIndex
 90
      256
102
RTVSPost2010Prop51ColorRGB
 90
-16777216
102
RTVSPost2010PropOp51
 70
     0
102
RTVSPost2010Prop52
140
1.0
102
RTVSPost2010PropOp52
 70
     0
102
RTVSPost2010Prop53
 90
        2
102
RTVSPost2010PropOp53
 70
     1
102
RTVSPost2010Prop54
  1
strokes_ogs.tif
102
RTVSPost2010PropOp54
 70
     1
102
RTVSPost2010Prop55
280
     0
102
RTVSPost2010PropOp55
 70
     1
102
RTVSPost2010Prop56
140
1.0
102
RTVSPost2010PropOp56
 70
     1
102
RTVSPost2010Prop57
140
1.0
102
RTVSPost2010PropOp57
 70
     1
102
RTVSPropertyOp0
 70
     1
102
RTVSPropertyOp1
 70
     1
102
RTVSPropertyOp2
 70
     1
102
RTVSPropertyOp3
 70
     1
102
RTVSPropertyOp4
 70
     1
102
RTVSPropertyOp5
 70
     1
102
RTVSPropertyOp6
 70
     1
102
RTVSPropertyOp7
 70
     1
102
RTVSPropertyOp8
 70
     1
102
RTVSPropertyOp9
 70
     1
102
RTVSPropertyOp10
 70
     1
102
RTVSPropertyOp11
 70
     1
102
RTVSPropertyOp12
 70
     1
102
RTVSPropertyOp13
 70
     1
102
RTVSPropertyOp14
 70
     1
102
RTVSPropertyOp15
 70
     1
102
RTVSPropertyOp16
 70
     1
102
RTVSPropertyOp17
 70
     1
102
RTVSPropertyOp18
 70
     1
102
RTVSPropertyOp19
 70
     1
102
RTVSPropertyOp20
 70
     1
102
RTVSPropertyOp21
 70
     1
102
RTVSPropertyOp22
 70
     1
102
RTVSPropertyOp23
 70
     1
102
RTVSPropertyOp24
 70
     1
102
RTVSPropertyOp25
 70
     1
102
RTVSPropertyOp26
 70
     1
102
RTVSPropertyOp27
 70
     1
102
RTVSPropertyOp28
 70
     1
102
RTVSPropertyOp29
 70
     1
102
RTVSPropertyOp30
 70
     1
102
RTVSPropertyOp31
 70
     1
102
RTVSPropertyOp32
 70
     1
102
RTVSPropertyOp33
 70
     1
102
RTVSPropertyOp34
 70
     1
102
RTVSPropertyOp35
 70
     1
102
RTVSPropertyOp36
 70
     1
102
RTVSPropertyOp37
 70
     1
102
RTVSPropertyOp38
 70
     1
102
RTVSPropertyOp39
 70
     1
102
RTVSPropertyOp40
 70
     1
102
RTVSPropertyOp41
 70
     1
102
RTVSPropertyOp42
 70
     1
102
RTVSPropertyOp43
 70
     1
102
RTVSPropertyOp44
 70
     1
102
RTVSPropertyOp45
 70
     1
102
RTVSPropertyOp46
 70
     1
102
RTVSPropertyOp47
 70
     1
102
RTVSPropertyOp48
 70
     1
102
RTVSPropertyOp49
 70
     1
102
RTVSPropertyOp50
 70
     1
102
RTVSPropertyOp51
 70
     0
102
RTVSPropertyOp52
 70
     0
102
RTVSPropertyOp53
 70
     1
102
RTVSPropertyOp54
 70
     1
102
RTVSPropertyOp55
 70
     1
102
RTVSPropertyOp56
 70
     1
102
RTVSPropertyOp57
 70
     1
102
RTVSPropertyOp58
 70
     1
102
RTVSPropertyOp59
 70
     1
102
RTVSPropertyOp60
 70
     1
102
RTVSPropertyOp61
 70
     1
102
RTVSPropertyOp62
 70
     1
  0
XRECORD
  5
A126
102
{ACAD_REACTORS
330
A125
102
}
330
A125
100
AcDbXrecord
280
     1
102
RTVSPost2010Prop28
280
     0
102
RTVSPost2010PropOp28
 70
     1
102
RTVSPost2010Prop29
280
     1
102
RTVSPost2010PropOp29
 70
     1
102
RTVSPost2010Prop30
280
     1
102
RTVSPost2010PropOp30
 70
     1
102
RTVSPost2010Prop31
280
     0
102
RTVSPost2010PropOp31
 70
     1
102
RTVSPost2010Prop32
280
     0
102
RTVSPost2010PropOp32
 70
     1
102
RTVSPost2010Prop33
280
     0
102
RTVSPost2010PropOp33
 70
     1
102
RTVSPost2010Prop34
280
     0
102
RTVSPost2010PropOp34
 70
     1
102
RTVSPost2010Prop35
280
     0
102
RTVSPost2010PropOp35
 70
     1
102
RTVSPost2010Prop36
280
     0
102
RTVSPost2010PropOp36
 70
     1
102
RTVSPost2010Prop37
 90
       50
102
RTVSPost2010PropOp37
 70
     1
102
RTVSPost2010Prop38
140
0.0
102
RTVSPost2010PropOp38
 70
     1
102
RTVSPost2010Prop39
140
1.0
102
RTVSPost2010PropOp39
 70
     1
102
RTVSPost2010Prop40
 90
        0
102
RTVSPost2010PropOp40
 70
     1
102
RTVSPost2010Prop41ColorIndex
 90
       18
102
RTVSPost2010Prop41ColorRGB
 90
        0
102
RTVSPost2010PropOp41
 70
     1
102
RTVSPost2010Prop42
 90
       50
102
RTVSPost2010PropOp42
 70
     1
102
RTVSPost2010Prop43
 90
        3
102
RTVSPost2010PropOp43
 70
     1
102
RTVSPost2010Prop44ColorIndex
 90
        5
102
RTVSPost2010Prop44ColorRGB
 90
      255
102
RTVSPost2010PropOp44
 70
     1
102
RTVSPost2010Prop45
280
     0
102
RTVSPost2010PropOp45
 70
     1
102
RTVSPost2010Prop46
 90
       50
102
RTVSPost2010PropOp46
 70
     1
102
RTVSPost2010Prop47
 90
       50
102
RTVSPost2010PropOp47
 70
     1
102
RTVSPost2010Prop48
 90
       50
102
RTVSPost2010PropOp48
 70
     1
102
RTVSPost2010Prop49
280
     0
102
RTVSPost2010PropOp49
 70
     1
102
RTVSPost2010Prop50
 90
       50
102
RTVSPost2010PropOp50
 70
     1
102
RTVSPost2010Prop51ColorIndex
 90
      256
102
RTVSPost2010Prop51ColorRGB
 90
-16777216
102
RTVSPost2010PropOp51
 70
     0
102
RTVSPost2010Prop52
140
1.0
102
RTVSPost2010PropOp52
 70
     0
102
RTVSPost2010Prop53
 90
        2
102
RTVSPost2010PropOp53
 70
     1
102
RTVSPost2010Prop54
  1
strokes_ogs.tif
102
RTVSPost2010PropOp54
 70
     1
102
RTVSPost2010Prop55
280
     0
102
RTVSPost2010PropOp55
 70
     1
102
RTVSPost2010Prop56
140
1.0
102
RTVSPost2010PropOp56
 70
     1
102
RTVSPost2010Prop57
140
1.0
102
RTVSPost2010PropOp57
 70
     1
102
RTVSPropertyOp0
 70
     1
102
RTVSPropertyOp1
 70
     1
102
RTVSPropertyOp2
 70
     1
102
RTVSPropertyOp3
 70
     1
102
RTVSPropertyOp4
 70
     1
102
RTVSPropertyOp5
 70
     1
102
RTVSPropertyOp6
 70
     1
102
RTVSPropertyOp7
 70
     1
102
RTVSPropertyOp8
 70
     1
102
RTVSPropertyOp9
 70
     1
102
RTVSPropertyOp10
 70
     1
102
RTVSPropertyOp11
 70
     1
102
RTVSPropertyOp12
 70
     1
102
RTVSPropertyOp13
 70
     1
102
RTVSPropertyOp14
 70
     1
102
RTVSPropertyOp15
 70
     1
102
RTVSPropertyOp16
 70
     1
102
RTVSPropertyOp17
 70
     1
102
RTVSPropertyOp18
 70
     1
102
RTVSPropertyOp19
 70
     1
102
RTVSPropertyOp20
 70
     1
102
RTVSPropertyOp21
 70
     1
102
RTVSPropertyOp22
 70
     1
102
RTVSPropertyOp23
 70
     1
102
RTVSPropertyOp24
 70
     1
102
RTVSPropertyOp25
 70
     1
102
RTVSPropertyOp26
 70
     1
102
RTVSPropertyOp27
 70
     1
102
RTVSPropertyOp28
 70
     1
102
RTVSPropertyOp29
 70
     1
102
RTVSPropertyOp30
 70
     1
102
RTVSPropertyOp31
 70
     1
102
RTVSPropertyOp32
 70
     1
102
RTVSPropertyOp33
 70
     1
102
RTVSPropertyOp34
 70
     1
102
RTVSPropertyOp35
 70
     1
102
RTVSPropertyOp36
 70
     1
102
RTVSPropertyOp37
 70
     1
102
RTVSPropertyOp38
 70
     1
102
RTVSPropertyOp39
 70
     1
102
RTVSPropertyOp40
 70
     1
102
RTVSPropertyOp41
 70
     1
102
RTVSPropertyOp42
 70
     1
102
RTVSPropertyOp43
 70
     1
102
RTVSPropertyOp44
 70
     1
102
RTVSPropertyOp45
 70
     1
102
RTVSPropertyOp46
 70
     1
102
RTVSPropertyOp47
 70
     1
102
RTVSPropertyOp48
 70
     1
102
RTVSPropertyOp49
 70
     1
102
RTVSPropertyOp50
 70
     1
102
RTVSPropertyOp51
 70
     0
102
RTVSPropertyOp52
 70
     0
102
RTVSPropertyOp53
 70
     1
102
RTVSPropertyOp54
 70
     1
102
RTVSPropertyOp55
 70
     1
102
RTVSPropertyOp56
 70
     1
102
RTVSPropertyOp57
 70
     1
102
RTVSPropertyOp58
 70
     1
102
RTVSPropertyOp59
 70
     1
102
RTVSPropertyOp60
 70
     1
102
RTVSPropertyOp61
 70
     1
102
RTVSPropertyOp62
 70
     1
  0
XRECORD
  5
A128
102
{ACAD_REACTORS
330
A127
102
}
330
A127
100
AcDbXrecord
280
     1
102
RTVSPost2010Prop28
280
     0
102
RTVSPost2010PropOp28
 70
     1
102
RTVSPost2010Prop29
280
     1
102
RTVSPost2010PropOp29
 70
     1
102
RTVSPost2010Prop30
280
     1
102
RTVSPost2010PropOp30
 70
     1
102
RTVSPost2010Prop31
280
     0
102
RTVSPost2010PropOp31
 70
     1
102
RTVSPost2010Prop32
280
     0
102
RTVSPost2010PropOp32
 70
     1
102
RTVSPost2010Prop33
280
     0
102
RTVSPost2010PropOp33
 70
     1
102
RTVSPost2010Prop34
280
     0
102
RTVSPost2010PropOp34
 70
     1
102
RTVSPost2010Prop35
280
     0
102
RTVSPost2010PropOp35
 70
     1
102
RTVSPost2010Prop36
280
     0
102
RTVSPost2010PropOp36
 70
     1
102
RTVSPost2010Prop37
 90
       50
102
RTVSPost2010PropOp37
 70
     1
102
RTVSPost2010Prop38
140
0.0
102
RTVSPost2010PropOp38
 70
     1
102
RTVSPost2010Prop39
140
1.0
102
RTVSPost2010PropOp39
 70
     1
102
RTVSPost2010Prop40
 90
        0
102
RTVSPost2010PropOp40
 70
     1
102
RTVSPost2010Prop41ColorIndex
 90
       18
102
RTVSPost2010Prop41ColorRGB
 90
        0
102
RTVSPost2010PropOp41
 70
     1
102
RTVSPost2010Prop42
 90
       50
102
RTVSPost2010PropOp42
 70
     1
102
RTVSPost2010Prop43
 90
        3
102
RTVSPost2010PropOp43
 70
     1
102
RTVSPost2010Prop44ColorIndex
 90
        5
102
RTVSPost2010Prop44ColorRGB
 90
      255
102
RTVSPost2010PropOp44
 70
     1
102
RTVSPost2010Prop45
280
     0
102
RTVSPost2010PropOp45
 70
     1
102
RTVSPost2010Prop46
 90
       50
102
RTVSPost2010PropOp46
 70
     1
102
RTVSPost2010Prop47
 90
       50
102
RTVSPost2010PropOp47
 70
     1
102
RTVSPost2010Prop48
 90
       50
102
RTVSPost2010PropOp48
 70
     1
102
RTVSPost2010Prop49
280
     0
102
RTVSPost2010PropOp49
 70
     1
102
RTVSPost2010Prop50
 90
       50
102
RTVSPost2010PropOp50
 70
     1
102
RTVSPost2010Prop51ColorIndex
 90
      256
102
RTVSPost2010Prop51ColorRGB
 90
-16777216
102
RTVSPost2010PropOp51
 70
     0
102
RTVSPost2010Prop52
140
1.0
102
RTVSPost2010PropOp52
 70
     0
102
RTVSPost2010Prop53
 90
        2
102
RTVSPost2010PropOp53
 70
     1
102
RTVSPost2010Prop54
  1
strokes_ogs.tif
102
RTVSPost2010PropOp54
 70
     1
102
RTVSPost2010Prop55
280
     0
102
RTVSPost2010PropOp55
 70
     1
102
RTVSPost2010Prop56
140
1.0
102
RTVSPost2010PropOp56
 70
     1
102
RTVSPost2010Prop57
140
1.0
102
RTVSPost2010PropOp57
 70
     1
102
RTVSPropertyOp0
 70
     1
102
RTVSPropertyOp1
 70
     1
102
RTVSPropertyOp2
 70
     1
102
RTVSPropertyOp3
 70
     1
102
RTVSPropertyOp4
 70
     1
102
RTVSPropertyOp5
 70
     1
102
RTVSPropertyOp6
 70
     1
102
RTVSPropertyOp7
 70
     1
102
RTVSPropertyOp8
 70
     1
102
RTVSPropertyOp9
 70
     1
102
RTVSPropertyOp10
 70
     1
102
RTVSPropertyOp11
 70
     1
102
RTVSPropertyOp12
 70
     1
102
RTVSPropertyOp13
 70
     1
102
RTVSPropertyOp14
 70
     1
102
RTVSPropertyOp15
 70
     1
102
RTVSPropertyOp16
 70
     1
102
RTVSPropertyOp17
 70
     1
102
RTVSPropertyOp18
 70
     1
102
RTVSPropertyOp19
 70
     1
102
RTVSPropertyOp20
 70
     1
102
RTVSPropertyOp21
 70
     1
102
RTVSPropertyOp22
 70
     1
102
RTVSPropertyOp23
 70
     1
102
RTVSPropertyOp24
 70
     1
102
RTVSPropertyOp25
 70
     1
102
RTVSPropertyOp26
 70
     1
102
RTVSPropertyOp27
 70
     1
102
RTVSPropertyOp28
 70
     1
102
RTVSPropertyOp29
 70
     1
102
RTVSPropertyOp30
 70
     1
102
RTVSPropertyOp31
 70
     1
102
RTVSPropertyOp32
 70
     1
102
RTVSPropertyOp33
 70
     1
102
RTVSPropertyOp34
 70
     1
102
RTVSPropertyOp35
 70
     1
102
RTVSPropertyOp36
 70
     1
102
RTVSPropertyOp37
 70
     1
102
RTVSPropertyOp38
 70
     1
102
RTVSPropertyOp39
 70
     1
102
RTVSPropertyOp40
 70
     1
102
RTVSPropertyOp41
 70
     1
102
RTVSPropertyOp42
 70
     1
102
RTVSPropertyOp43
 70
     1
102
RTVSPropertyOp44
 70
     1
102
RTVSPropertyOp45
 70
     1
102
RTVSPropertyOp46
 70
     1
102
RTVSPropertyOp47
 70
     1
102
RTVSPropertyOp48
 70
     1
102
RTVSPropertyOp49
 70
     1
102
RTVSPropertyOp50
 70
     1
102
RTVSPropertyOp51
 70
     0
102
RTVSPropertyOp52
 70
     0
102
RTVSPropertyOp53
 70
     1
102
RTVSPropertyOp54
 70
     1
102
RTVSPropertyOp55
 70
     1
102
RTVSPropertyOp56
 70
     1
102
RTVSPropertyOp57
 70
     1
102
RTVSPropertyOp58
 70
     1
102
RTVSPropertyOp59
 70
     1
102
RTVSPropertyOp60
 70
     1
102
RTVSPropertyOp61
 70
     1
102
RTVSPropertyOp62
 70
     1
  0
XRECORD
  5
A12A
102
{ACAD_REACTORS
330
A129
102
}
330
A129
100
AcDbXrecord
280
     1
102
RTVSPost2010Prop28
280
     0
102
RTVSPost2010PropOp28
 70
     1
102
RTVSPost2010Prop29
280
     1
102
RTVSPost2010PropOp29
 70
     1
102
RTVSPost2010Prop30
280
     1
102
RTVSPost2010PropOp30
 70
     1
102
RTVSPost2010Prop31
280
     0
102
RTVSPost2010PropOp31
 70
     1
102
RTVSPost2010Prop32
280
     0
102
RTVSPost2010PropOp32
 70
     1
102
RTVSPost2010Prop33
280
     0
102
RTVSPost2010PropOp33
 70
     1
102
RTVSPost2010Prop34
280
     0
102
RTVSPost2010PropOp34
 70
     1
102
RTVSPost2010Prop35
280
     0
102
RTVSPost2010PropOp35
 70
     1
102
RTVSPost2010Prop36
280
     0
102
RTVSPost2010PropOp36
 70
     1
102
RTVSPost2010Prop37
 90
       50
102
RTVSPost2010PropOp37
 70
     1
102
RTVSPost2010Prop38
140
0.0
102
RTVSPost2010PropOp38
 70
     1
102
RTVSPost2010Prop39
140
1.0
102
RTVSPost2010PropOp39
 70
     1
102
RTVSPost2010Prop40
 90
        0
102
RTVSPost2010PropOp40
 70
     1
102
RTVSPost2010Prop41ColorIndex
 90
       18
102
RTVSPost2010Prop41ColorRGB
 90
        0
102
RTVSPost2010PropOp41
 70
     1
102
RTVSPost2010Prop42
 90
       50
102
RTVSPost2010PropOp42
 70
     1
102
RTVSPost2010Prop43
 90
        3
102
RTVSPost2010PropOp43
 70
     1
102
RTVSPost2010Prop44ColorIndex
 90
        5
102
RTVSPost2010Prop44ColorRGB
 90
      255
102
RTVSPost2010PropOp44
 70
     1
102
RTVSPost2010Prop45
280
     0
102
RTVSPost2010PropOp45
 70
     1
102
RTVSPost2010Prop46
 90
       50
102
RTVSPost2010PropOp46
 70
     1
102
RTVSPost2010Prop47
 90
       50
102
RTVSPost2010PropOp47
 70
     1
102
RTVSPost2010Prop48
 90
       50
102
RTVSPost2010PropOp48
 70
     1
102
RTVSPost2010Prop49
280
     0
102
RTVSPost2010PropOp49
 70
     1
102
RTVSPost2010Prop50
 90
       50
102
RTVSPost2010PropOp50
 70
     1
102
RTVSPost2010Prop51ColorIndex
 90
      256
102
RTVSPost2010Prop51ColorRGB
 90
-16777216
102
RTVSPost2010PropOp51
 70
     0
102
RTVSPost2010Prop52
140
1.0
102
RTVSPost2010PropOp52
 70
     0
102
RTVSPost2010Prop53
 90
        2
102
RTVSPost2010PropOp53
 70
     1
102
RTVSPost2010Prop54
  1
strokes_ogs.tif
102
RTVSPost2010PropOp54
 70
     1
102
RTVSPost2010Prop55
280
     0
102
RTVSPost2010PropOp55
 70
     1
102
RTVSPost2010Prop56
140
1.0
102
RTVSPost2010PropOp56
 70
     1
102
RTVSPost2010Prop57
140
1.0
102
RTVSPost2010PropOp57
 70
     1
102
RTVSPropertyOp0
 70
     1
102
RTVSPropertyOp1
 70
     1
102
RTVSPropertyOp2
 70
     1
102
RTVSPropertyOp3
 70
     1
102
RTVSPropertyOp4
 70
     1
102
RTVSPropertyOp5
 70
     1
102
RTVSPropertyOp6
 70
     1
102
RTVSPropertyOp7
 70
     1
102
RTVSPropertyOp8
 70
     1
102
RTVSPropertyOp9
 70
     1
102
RTVSPropertyOp10
 70
     1
102
RTVSPropertyOp11
 70
     1
102
RTVSPropertyOp12
 70
     1
102
RTVSPropertyOp13
 70
     1
102
RTVSPropertyOp14
 70
     1
102
RTVSPropertyOp15
 70
     1
102
RTVSPropertyOp16
 70
     1
102
RTVSPropertyOp17
 70
     1
102
RTVSPropertyOp18
 70
     1
102
RTVSPropertyOp19
 70
     1
102
RTVSPropertyOp20
 70
     1
102
RTVSPropertyOp21
 70
     1
102
RTVSPropertyOp22
 70
     1
102
RTVSPropertyOp23
 70
     1
102
RTVSPropertyOp24
 70
     1
102
RTVSPropertyOp25
 70
     1
102
RTVSPropertyOp26
 70
     1
102
RTVSPropertyOp27
 70
     1
102
RTVSPropertyOp28
 70
     1
102
RTVSPropertyOp29
 70
     1
102
RTVSPropertyOp30
 70
     1
102
RTVSPropertyOp31
 70
     1
102
RTVSPropertyOp32
 70
     1
102
RTVSPropertyOp33
 70
     1
102
RTVSPropertyOp34
 70
     1
102
RTVSPropertyOp35
 70
     1
102
RTVSPropertyOp36
 70
     1
102
RTVSPropertyOp37
 70
     1
102
RTVSPropertyOp38
 70
     1
102
RTVSPropertyOp39
 70
     1
102
RTVSPropertyOp40
 70
     1
102
RTVSPropertyOp41
 70
     1
102
RTVSPropertyOp42
 70
     1
102
RTVSPropertyOp43
 70
     1
102
RTVSPropertyOp44
 70
     1
102
RTVSPropertyOp45
 70
     1
102
RTVSPropertyOp46
 70
     1
102
RTVSPropertyOp47
 70
     1
102
RTVSPropertyOp48
 70
     1
102
RTVSPropertyOp49
 70
     1
102
RTVSPropertyOp50
 70
     1
102
RTVSPropertyOp51
 70
     0
102
RTVSPropertyOp52
 70
     0
102
RTVSPropertyOp53
 70
     1
102
RTVSPropertyOp54
 70
     1
102
RTVSPropertyOp55
 70
     1
102
RTVSPropertyOp56
 70
     1
102
RTVSPropertyOp57
 70
     1
102
RTVSPropertyOp58
 70
     1
102
RTVSPropertyOp59
 70
     1
102
RTVSPropertyOp60
 70
     1
102
RTVSPropertyOp61
 70
     1
102
RTVSPropertyOp62
 70
     1
  0
XRECORD
  5
A12C
102
{ACAD_REACTORS
330
A12B
102
}
330
A12B
100
AcDbXrecord
280
     1
102
RTVSPost2010Prop28
280
     0
102
RTVSPost2010PropOp28
 70
     1
102
RTVSPost2010Prop29
280
     1
102
RTVSPost2010PropOp29
 70
     1
102
RTVSPost2010Prop30
280
     1
102
RTVSPost2010PropOp30
 70
     1
102
RTVSPost2010Prop31
280
     0
102
RTVSPost2010PropOp31
 70
     1
102
RTVSPost2010Prop32
280
     0
102
RTVSPost2010PropOp32
 70
     1
102
RTVSPost2010Prop33
280
     0
102
RTVSPost2010PropOp33
 70
     1
102
RTVSPost2010Prop34
280
     0
102
RTVSPost2010PropOp34
 70
     1
102
RTVSPost2010Prop35
280
     0
102
RTVSPost2010PropOp35
 70
     1
102
RTVSPost2010Prop36
280
     0
102
RTVSPost2010PropOp36
 70
     1
102
RTVSPost2010Prop37
 90
       50
102
RTVSPost2010PropOp37
 70
     1
102
RTVSPost2010Prop38
140
0.0
102
RTVSPost2010PropOp38
 70
     1
102
RTVSPost2010Prop39
140
1.0
102
RTVSPost2010PropOp39
 70
     1
102
RTVSPost2010Prop40
 90
        0
102
RTVSPost2010PropOp40
 70
     1
102
RTVSPost2010Prop41ColorIndex
 90
       18
102
RTVSPost2010Prop41ColorRGB
 90
        0
102
RTVSPost2010PropOp41
 70
     1
102
RTVSPost2010Prop42
 90
       50
102
RTVSPost2010PropOp42
 70
     1
102
RTVSPost2010Prop43
 90
        3
102
RTVSPost2010PropOp43
 70
     1
102
RTVSPost2010Prop44ColorIndex
 90
        5
102
RTVSPost2010Prop44ColorRGB
 90
      255
102
RTVSPost2010PropOp44
 70
     1
102
RTVSPost2010Prop45
280
     0
102
RTVSPost2010PropOp45
 70
     1
102
RTVSPost2010Prop46
 90
       50
102
RTVSPost2010PropOp46
 70
     1
102
RTVSPost2010Prop47
 90
       50
102
RTVSPost2010PropOp47
 70
     1
102
RTVSPost2010Prop48
 90
       50
102
RTVSPost2010PropOp48
 70
     1
102
RTVSPost2010Prop49
280
     0
102
RTVSPost2010PropOp49
 70
     1
102
RTVSPost2010Prop50
 90
       50
102
RTVSPost2010PropOp50
 70
     1
102
RTVSPost2010Prop51ColorIndex
 90
      256
102
RTVSPost2010Prop51ColorRGB
 90
-16777216
102
RTVSPost2010PropOp51
 70
     0
102
RTVSPost2010Prop52
140
1.0
102
RTVSPost2010PropOp52
 70
     0
102
RTVSPost2010Prop53
 90
        2
102
RTVSPost2010PropOp53
 70
     1
102
RTVSPost2010Prop54
  1
strokes_ogs.tif
102
RTVSPost2010PropOp54
 70
     1
102
RTVSPost2010Prop55
280
     0
102
RTVSPost2010PropOp55
 70
     1
102
RTVSPost2010Prop56
140
1.0
102
RTVSPost2010PropOp56
 70
     1
102
RTVSPost2010Prop57
140
1.0
102
RTVSPost2010PropOp57
 70
     1
102
RTVSPropertyOp0
 70
     1
102
RTVSPropertyOp1
 70
     1
102
RTVSPropertyOp2
 70
     1
102
RTVSPropertyOp3
 70
     1
102
RTVSPropertyOp4
 70
     1
102
RTVSPropertyOp5
 70
     1
102
RTVSPropertyOp6
 70
     1
102
RTVSPropertyOp7
 70
     1
102
RTVSPropertyOp8
 70
     1
102
RTVSPropertyOp9
 70
     1
102
RTVSPropertyOp10
 70
     1
102
RTVSPropertyOp11
 70
     1
102
RTVSPropertyOp12
 70
     1
102
RTVSPropertyOp13
 70
     1
102
RTVSPropertyOp14
 70
     1
102
RTVSPropertyOp15
 70
     1
102
RTVSPropertyOp16
 70
     1
102
RTVSPropertyOp17
 70
     1
102
RTVSPropertyOp18
 70
     1
102
RTVSPropertyOp19
 70
     1
102
RTVSPropertyOp20
 70
     1
102
RTVSPropertyOp21
 70
     1
102
RTVSPropertyOp22
 70
     1
102
RTVSPropertyOp23
 70
     1
102
RTVSPropertyOp24
 70
     1
102
RTVSPropertyOp25
 70
     1
102
RTVSPropertyOp26
 70
     1
102
RTVSPropertyOp27
 70
     1
102
RTVSPropertyOp28
 70
     1
102
RTVSPropertyOp29
 70
     1
102
RTVSPropertyOp30
 70
     1
102
RTVSPropertyOp31
 70
     1
102
RTVSPropertyOp32
 70
     1
102
RTVSPropertyOp33
 70
     1
102
RTVSPropertyOp34
 70
     1
102
RTVSPropertyOp35
 70
     1
102
RTVSPropertyOp36
 70
     1
102
RTVSPropertyOp37
 70
     1
102
RTVSPropertyOp38
 70
     1
102
RTVSPropertyOp39
 70
     1
102
RTVSPropertyOp40
 70
     1
102
RTVSPropertyOp41
 70
     1
102
RTVSPropertyOp42
 70
     1
102
RTVSPropertyOp43
 70
     1
102
RTVSPropertyOp44
 70
     1
102
RTVSPropertyOp45
 70
     1
102
RTVSPropertyOp46
 70
     1
102
RTVSPropertyOp47
 70
     1
102
RTVSPropertyOp48
 70
     1
102
RTVSPropertyOp49
 70
     1
102
RTVSPropertyOp50
 70
     1
102
RTVSPropertyOp51
 70
     0
102
RTVSPropertyOp52
 70
     0
102
RTVSPropertyOp53
 70
     1
102
RTVSPropertyOp54
 70
     1
102
RTVSPropertyOp55
 70
     1
102
RTVSPropertyOp56
 70
     1
102
RTVSPropertyOp57
 70
     1
102
RTVSPropertyOp58
 70
     1
102
RTVSPropertyOp59
 70
     1
102
RTVSPropertyOp60
 70
     1
102
RTVSPropertyOp61
 70
     1
102
RTVSPropertyOp62
 70
     1
  0
XRECORD
  5
A134
102
{ACAD_REACTORS
330
A133
102
}
330
A133
100
AcDbXrecord
280
     1
102
RTVSPost2010Prop28
280
     0
102
RTVSPost2010PropOp28
 70
     1
102
RTVSPost2010Prop29
280
     1
102
RTVSPost2010PropOp29
 70
     1
102
RTVSPost2010Prop30
280
     1
102
RTVSPost2010PropOp30
 70
     1
102
RTVSPost2010Prop31
280
     0
102
RTVSPost2010PropOp31
 70
     1
102
RTVSPost2010Prop32
280
     0
102
RTVSPost2010PropOp32
 70
     1
102
RTVSPost2010Prop33
280
     0
102
RTVSPost2010PropOp33
 70
     1
102
RTVSPost2010Prop34
280
     0
102
RTVSPost2010PropOp34
 70
     1
102
RTVSPost2010Prop35
280
     0
102
RTVSPost2010PropOp35
 70
     1
102
RTVSPost2010Prop36
280
     0
102
RTVSPost2010PropOp36
 70
     1
102
RTVSPost2010Prop37
 90
       50
102
RTVSPost2010PropOp37
 70
     1
102
RTVSPost2010Prop38
140
0.0
102
RTVSPost2010PropOp38
 70
     1
102
RTVSPost2010Prop39
140
1.0
102
RTVSPost2010PropOp39
 70
     1
102
RTVSPost2010Prop40
 90
        0
102
RTVSPost2010PropOp40
 70
     1
102
RTVSPost2010Prop41ColorIndex
 90
       18
102
RTVSPost2010Prop41ColorRGB
 90
        0
102
RTVSPost2010PropOp41
 70
     1
102
RTVSPost2010Prop42
 90
       50
102
RTVSPost2010PropOp42
 70
     1
102
RTVSPost2010Prop43
 90
        3
102
RTVSPost2010PropOp43
 70
     1
102
RTVSPost2010Prop44ColorIndex
 90
        5
102
RTVSPost2010Prop44ColorRGB
 90
      255
102
RTVSPost2010PropOp44
 70
     1
102
RTVSPost2010Prop45
280
     0
102
RTVSPost2010PropOp45
 70
     1
102
RTVSPost2010Prop46
 90
       50
102
RTVSPost2010PropOp46
 70
     1
102
RTVSPost2010Prop47
 90
       50
102
RTVSPost2010PropOp47
 70
     1
102
RTVSPost2010Prop48
 90
       50
102
RTVSPost2010PropOp48
 70
     1
102
RTVSPost2010Prop49
280
     0
102
RTVSPost2010PropOp49
 70
     1
102
RTVSPost2010Prop50
 90
       50
102
RTVSPost2010PropOp50
 70
     1
102
RTVSPost2010Prop51ColorIndex
 90
      256
102
RTVSPost2010Prop51ColorRGB
 90
-16777216
102
RTVSPost2010PropOp51
 70
     0
102
RTVSPost2010Prop52
140
1.0
102
RTVSPost2010PropOp52
 70
     0
102
RTVSPost2010Prop53
 90
        2
102
RTVSPost2010PropOp53
 70
     1
102
RTVSPost2010Prop54
  1
strokes_ogs.tif
102
RTVSPost2010PropOp54
 70
     1
102
RTVSPost2010Prop55
280
     0
102
RTVSPost2010PropOp55
 70
     1
102
RTVSPost2010Prop56
140
1.0
102
RTVSPost2010PropOp56
 70
     1
102
RTVSPost2010Prop57
140
1.0
102
RTVSPost2010PropOp57
 70
     1
102
RTVSPropertyOp0
 70
     1
102
RTVSPropertyOp1
 70
     1
102
RTVSPropertyOp2
 70
     1
102
RTVSPropertyOp3
 70
     1
102
RTVSPropertyOp4
 70
     1
102
RTVSPropertyOp5
 70
     1
102
RTVSPropertyOp6
 70
     1
102
RTVSPropertyOp7
 70
     1
102
RTVSPropertyOp8
 70
     1
102
RTVSPropertyOp9
 70
     1
102
RTVSPropertyOp10
 70
     1
102
RTVSPropertyOp11
 70
     1
102
RTVSPropertyOp12
 70
     1
102
RTVSPropertyOp13
 70
     1
102
RTVSPropertyOp14
 70
     1
102
RTVSPropertyOp15
 70
     1
102
RTVSPropertyOp16
 70
     1
102
RTVSPropertyOp17
 70
     1
102
RTVSPropertyOp18
 70
     1
102
RTVSPropertyOp19
 70
     1
102
RTVSPropertyOp20
 70
     1
102
RTVSPropertyOp21
 70
     1
102
RTVSPropertyOp22
 70
     1
102
RTVSPropertyOp23
 70
     1
102
RTVSPropertyOp24
 70
     1
102
RTVSPropertyOp25
 70
     1
102
RTVSPropertyOp26
 70
     1
102
RTVSPropertyOp27
 70
     1
102
RTVSPropertyOp28
 70
     1
102
RTVSPropertyOp29
 70
     1
102
RTVSPropertyOp30
 70
     1
102
RTVSPropertyOp31
 70
     1
102
RTVSPropertyOp32
 70
     1
102
RTVSPropertyOp33
 70
     1
102
RTVSPropertyOp34
 70
     1
102
RTVSPropertyOp35
 70
     1
102
RTVSPropertyOp36
 70
     1
102
RTVSPropertyOp37
 70
     1
102
RTVSPropertyOp38
 70
     1
102
RTVSPropertyOp39
 70
     1
102
RTVSPropertyOp40
 70
     1
102
RTVSPropertyOp41
 70
     1
102
RTVSPropertyOp42
 70
     1
102
RTVSPropertyOp43
 70
     1
102
RTVSPropertyOp44
 70
     1
102
RTVSPropertyOp45
 70
     1
102
RTVSPropertyOp46
 70
     1
102
RTVSPropertyOp47
 70
     1
102
RTVSPropertyOp48
 70
     1
102
RTVSPropertyOp49
 70
     1
102
RTVSPropertyOp50
 70
     1
102
RTVSPropertyOp51
 70
     0
102
RTVSPropertyOp52
 70
     0
102
RTVSPropertyOp53
 70
     1
102
RTVSPropertyOp54
 70
     1
102
RTVSPropertyOp55
 70
     1
102
RTVSPropertyOp56
 70
     1
102
RTVSPropertyOp57
 70
     1
102
RTVSPropertyOp58
 70
     1
102
RTVSPropertyOp59
 70
     1
102
RTVSPropertyOp60
 70
     1
102
RTVSPropertyOp61
 70
     1
102
RTVSPropertyOp62
 70
     1
  0
XRECORD
  5
A150
102
{ACAD_REACTORS
330
A14F
102
}
330
A14F
100
AcDbXrecord
280
     1
102
RTVSPost2010Prop28
280
     0
102
RTVSPost2010PropOp28
 70
     1
102
RTVSPost2010Prop29
280
     1
102
RTVSPost2010PropOp29
 70
     1
102
RTVSPost2010Prop30
280
     1
102
RTVSPost2010PropOp30
 70
     1
102
RTVSPost2010Prop31
280
     0
102
RTVSPost2010PropOp31
 70
     1
102
RTVSPost2010Prop32
280
     0
102
RTVSPost2010PropOp32
 70
     1
102
RTVSPost2010Prop33
280
     0
102
RTVSPost2010PropOp33
 70
     1
102
RTVSPost2010Prop34
280
     0
102
RTVSPost2010PropOp34
 70
     1
102
RTVSPost2010Prop35
280
     0
102
RTVSPost2010PropOp35
 70
     1
102
RTVSPost2010Prop36
280
     0
102
RTVSPost2010PropOp36
 70
     1
102
RTVSPost2010Prop37
 90
       50
102
RTVSPost2010PropOp37
 70
     0
102
RTVSPost2010Prop38
140
0.0
102
RTVSPost2010PropOp38
 70
     0
102
RTVSPost2010Prop39
140
1.0
102
RTVSPost2010PropOp39
 70
     0
102
RTVSPost2010Prop40
 90
        0
102
RTVSPost2010PropOp40
 70
     0
102
RTVSPost2010Prop41ColorIndex
 90
       18
102
RTVSPost2010Prop41ColorRGB
 90
        0
102
RTVSPost2010PropOp41
 70
     0
102
RTVSPost2010Prop42
 90
       50
102
RTVSPost2010PropOp42
 70
     0
102
RTVSPost2010Prop43
 90
        3
102
RTVSPost2010PropOp43
 70
     0
102
RTVSPost2010Prop44ColorIndex
 90
        5
102
RTVSPost2010Prop44ColorRGB
 90
      255
102
RTVSPost2010PropOp44
 70
     0
102
RTVSPost2010Prop45
280
     0
102
RTVSPost2010PropOp45
 70
     1
102
RTVSPost2010Prop46
 90
       50
102
RTVSPost2010PropOp46
 70
     0
102
RTVSPost2010Prop47
 90
       50
102
RTVSPost2010PropOp47
 70
     0
102
RTVSPost2010Prop48
 90
       50
102
RTVSPost2010PropOp48
 70
     0
102
RTVSPost2010Prop49
280
     0
102
RTVSPost2010PropOp49
 70
     1
102
RTVSPost2010Prop50
 90
       50
102
RTVSPost2010PropOp50
 70
     0
102
RTVSPost2010Prop51ColorIndex
 90
      256
102
RTVSPost2010Prop51ColorRGB
 90
-16777216
102
RTVSPost2010PropOp51
 70
     0
102
RTVSPost2010Prop52
140
1.0
102
RTVSPost2010PropOp52
 70
     0
102
RTVSPost2010Prop53
 90
        2
102
RTVSPost2010PropOp53
 70
     0
102
RTVSPost2010Prop54
  1
strokes_ogs.tif
102
RTVSPost2010PropOp54
 70
     0
102
RTVSPost2010Prop55
280
     0
102
RTVSPost2010PropOp55
 70
     1
102
RTVSPost2010Prop56
140
1.0
102
RTVSPost2010PropOp56
 70
     0
102
RTVSPost2010Prop57
140
1.0
102
RTVSPost2010PropOp57
 70
     0
102
RTVSPropertyOp0
 70
     0
102
RTVSPropertyOp1
 70
     0
102
RTVSPropertyOp2
 70
     0
102
RTVSPropertyOp3
 70
     0
102
RTVSPropertyOp4
 70
     0
102
RTVSPropertyOp5
 70
     0
102
RTVSPropertyOp6
 70
     0
102
RTVSPropertyOp7
 70
     0
102
RTVSPropertyOp8
 70
     0
102
RTVSPropertyOp9
 70
     0
102
RTVSPropertyOp10
 70
     0
102
RTVSPropertyOp11
 70
     0
102
RTVSPropertyOp12
 70
     0
102
RTVSPropertyOp13
 70
     0
102
RTVSPropertyOp14
 70
     2
102
RTVSPropertyOp15
 70
     0
102
RTVSPropertyOp16
 70
     0
102
RTVSPropertyOp17
 70
     0
102
RTVSPropertyOp18
 70
     0
102
RTVSPropertyOp19
 70
     0
102
RTVSPropertyOp20
 70
     0
102
RTVSPropertyOp21
 70
     0
102
RTVSPropertyOp22
 70
     0
102
RTVSPropertyOp23
 70
     0
102
RTVSPropertyOp24
 70
     0
102
RTVSPropertyOp25
 70
     0
102
RTVSPropertyOp26
 70
     0
102
RTVSPropertyOp27
 70
     0
102
RTVSPropertyOp28
 70
     1
102
RTVSPropertyOp29
 70
     1
102
RTVSPropertyOp30
 70
     1
102
RTVSPropertyOp31
 70
     1
102
RTVSPropertyOp32
 70
     1
102
RTVSPropertyOp33
 70
     1
102
RTVSPropertyOp34
 70
     1
102
RTVSPropertyOp35
 70
     1
102
RTVSPropertyOp36
 70
     1
102
RTVSPropertyOp37
 70
     0
102
RTVSPropertyOp38
 70
     0
102
RTVSPropertyOp39
 70
     0
102
RTVSPropertyOp40
 70
     0
102
RTVSPropertyOp41
 70
     0
102
RTVSPropertyOp42
 70
     0
102
RTVSPropertyOp43
 70
     0
102
RTVSPropertyOp44
 70
     0
102
RTVSPropertyOp45
 70
     1
102
RTVSPropertyOp46
 70
     0
102
RTVSPropertyOp47
 70
     0
102
RTVSPropertyOp48
 70
     0
102
RTVSPropertyOp49
 70
     1
102
RTVSPropertyOp50
 70
     0
102
RTVSPropertyOp51
 70
     0
102
RTVSPropertyOp52
 70
     0
102
RTVSPropertyOp53
 70
     0
102
RTVSPropertyOp54
 70
     0
102
RTVSPropertyOp55
 70
     1
102
RTVSPropertyOp56
 70
     0
102
RTVSPropertyOp57
 70
     0
102
RTVSPropertyOp58
 70
     0
102
RTVSPropertyOp59
 70
     0
102
RTVSPropertyOp60
 70
     0
102
RTVSPropertyOp61
 70
     0
102
RTVSPropertyOp62
 70
     0
  0
XRECORD
  5
A140
102
{ACAD_REACTORS
330
A13F
102
}
330
A13F
100
AcDbXrecord
280
     1
102
RTVSPost2010Prop28
280
     0
102
RTVSPost2010PropOp28
 70
     1
102
RTVSPost2010Prop29
280
     1
102
RTVSPost2010PropOp29
 70
     1
102
RTVSPost2010Prop30
280
     1
102
RTVSPost2010PropOp30
 70
     1
102
RTVSPost2010Prop31
280
     0
102
RTVSPost2010PropOp31
 70
     1
102
RTVSPost2010Prop32
280
     0
102
RTVSPost2010PropOp32
 70
     1
102
RTVSPost2010Prop33
280
     0
102
RTVSPost2010PropOp33
 70
     1
102
RTVSPost2010Prop34
280
     0
102
RTVSPost2010PropOp34
 70
     1
102
RTVSPost2010Prop35
280
     0
102
RTVSPost2010PropOp35
 70
     1
102
RTVSPost2010Prop36
280
     0
102
RTVSPost2010PropOp36
 70
     1
102
RTVSPost2010Prop37
 90
       50
102
RTVSPost2010PropOp37
 70
     1
102
RTVSPost2010Prop38
140
0.0
102
RTVSPost2010PropOp38
 70
     1
102
RTVSPost2010Prop39
140
1.0
102
RTVSPost2010PropOp39
 70
     1
102
RTVSPost2010Prop40
 90
        0
102
RTVSPost2010PropOp40
 70
     1
102
RTVSPost2010Prop41ColorIndex
 90
       18
102
RTVSPost2010Prop41ColorRGB
 90
        0
102
RTVSPost2010PropOp41
 70
     1
102
RTVSPost2010Prop42
 90
       50
102
RTVSPost2010PropOp42
 70
     1
102
RTVSPost2010Prop43
 90
        3
102
RTVSPost2010PropOp43
 70
     1
102
RTVSPost2010Prop44ColorIndex
 90
        5
102
RTVSPost2010Prop44ColorRGB
 90
      255
102
RTVSPost2010PropOp44
 70
     1
102
RTVSPost2010Prop45
280
     0
102
RTVSPost2010PropOp45
 70
     1
102
RTVSPost2010Prop46
 90
       50
102
RTVSPost2010PropOp46
 70
     1
102
RTVSPost2010Prop47
 90
       50
102
RTVSPost2010PropOp47
 70
     1
102
RTVSPost2010Prop48
 90
       50
102
RTVSPost2010PropOp48
 70
     1
102
RTVSPost2010Prop49
280
     0
102
RTVSPost2010PropOp49
 70
     1
102
RTVSPost2010Prop50
 90
       50
102
RTVSPost2010PropOp50
 70
     1
102
RTVSPost2010Prop51ColorIndex
 90
      256
102
RTVSPost2010Prop51ColorRGB
 90
-16777216
102
RTVSPost2010PropOp51
 70
     0
102
RTVSPost2010Prop52
140
1.0
102
RTVSPost2010PropOp52
 70
     0
102
RTVSPost2010Prop53
 90
        2
102
RTVSPost2010PropOp53
 70
     1
102
RTVSPost2010Prop54
  1
strokes_ogs.tif
102
RTVSPost2010PropOp54
 70
     1
102
RTVSPost2010Prop55
280
     0
102
RTVSPost2010PropOp55
 70
     1
102
RTVSPost2010Prop56
140
1.0
102
RTVSPost2010PropOp56
 70
     1
102
RTVSPost2010Prop57
140
1.0
102
RTVSPost2010PropOp57
 70
     1
102
RTVSPropertyOp0
 70
     1
102
RTVSPropertyOp1
 70
     1
102
RTVSPropertyOp2
 70
     1
102
RTVSPropertyOp3
 70
     1
102
RTVSPropertyOp4
 70
     1
102
RTVSPropertyOp5
 70
     1
102
RTVSPropertyOp6
 70
     1
102
RTVSPropertyOp7
 70
     1
102
RTVSPropertyOp8
 70
     1
102
RTVSPropertyOp9
 70
     1
102
RTVSPropertyOp10
 70
     1
102
RTVSPropertyOp11
 70
     1
102
RTVSPropertyOp12
 70
     1
102
RTVSPropertyOp13
 70
     1
102
RTVSPropertyOp14
 70
     1
102
RTVSPropertyOp15
 70
     1
102
RTVSPropertyOp16
 70
     1
102
RTVSPropertyOp17
 70
     1
102
RTVSPropertyOp18
 70
     1
102
RTVSPropertyOp19
 70
     1
102
RTVSPropertyOp20
 70
     1
102
RTVSPropertyOp21
 70
     1
102
RTVSPropertyOp22
 70
     1
102
RTVSPropertyOp23
 70
     1
102
RTVSPropertyOp24
 70
     1
102
RTVSPropertyOp25
 70
     1
102
RTVSPropertyOp26
 70
     1
102
RTVSPropertyOp27
 70
     1
102
RTVSPropertyOp28
 70
     1
102
RTVSPropertyOp29
 70
     1
102
RTVSPropertyOp30
 70
     1
102
RTVSPropertyOp31
 70
     1
102
RTVSPropertyOp32
 70
     1
102
RTVSPropertyOp33
 70
     1
102
RTVSPropertyOp34
 70
     1
102
RTVSPropertyOp35
 70
     1
102
RTVSPropertyOp36
 70
     1
102
RTVSPropertyOp37
 70
     1
102
RTVSPropertyOp38
 70
     1
102
RTVSPropertyOp39
 70
     1
102
RTVSPropertyOp40
 70
     1
102
RTVSPropertyOp41
 70
     1
102
RTVSPropertyOp42
 70
     1
102
RTVSPropertyOp43
 70
     1
102
RTVSPropertyOp44
 70
     1
102
RTVSPropertyOp45
 70
     1
102
RTVSPropertyOp46
 70
     1
102
RTVSPropertyOp47
 70
     1
102
RTVSPropertyOp48
 70
     1
102
RTVSPropertyOp49
 70
     1
102
RTVSPropertyOp50
 70
     1
102
RTVSPropertyOp51
 70
     0
102
RTVSPropertyOp52
 70
     0
102
RTVSPropertyOp53
 70
     1
102
RTVSPropertyOp54
 70
     1
102
RTVSPropertyOp55
 70
     1
102
RTVSPropertyOp56
 70
     1
102
RTVSPropertyOp57
 70
     1
102
RTVSPropertyOp58
 70
     1
102
RTVSPropertyOp59
 70
     1
102
RTVSPropertyOp60
 70
     1
102
RTVSPropertyOp61
 70
     1
102
RTVSPropertyOp62
 70
     1
  0
XRECORD
  5
A152
102
{ACAD_REACTORS
330
A151
102
}
330
A151
100
AcDbXrecord
280
     1
102
RTVSPost2010Prop28
280
     0
102
RTVSPost2010PropOp28
 70
     1
102
RTVSPost2010Prop29
280
     1
102
RTVSPost2010PropOp29
 70
     1
102
RTVSPost2010Prop30
280
     1
102
RTVSPost2010PropOp30
 70
     1
102
RTVSPost2010Prop31
280
     0
102
RTVSPost2010PropOp31
 70
     1
102
RTVSPost2010Prop32
280
     0
102
RTVSPost2010PropOp32
 70
     1
102
RTVSPost2010Prop33
280
     0
102
RTVSPost2010PropOp33
 70
     1
102
RTVSPost2010Prop34
280
     0
102
RTVSPost2010PropOp34
 70
     1
102
RTVSPost2010Prop35
280
     0
102
RTVSPost2010PropOp35
 70
     1
102
RTVSPost2010Prop36
280
     0
102
RTVSPost2010PropOp36
 70
     1
102
RTVSPost2010Prop37
 90
       50
102
RTVSPost2010PropOp37
 70
     0
102
RTVSPost2010Prop38
140
0.0
102
RTVSPost2010PropOp38
 70
     0
102
RTVSPost2010Prop39
140
1.0
102
RTVSPost2010PropOp39
 70
     0
102
RTVSPost2010Prop40
 90
        0
102
RTVSPost2010PropOp40
 70
     0
102
RTVSPost2010Prop41ColorIndex
 90
       18
102
RTVSPost2010Prop41ColorRGB
 90
        0
102
RTVSPost2010PropOp41
 70
     0
102
RTVSPost2010Prop42
 90
       50
102
RTVSPost2010PropOp42
 70
     0
102
RTVSPost2010Prop43
 90
        3
102
RTVSPost2010PropOp43
 70
     0
102
RTVSPost2010Prop44ColorIndex
 90
        5
102
RTVSPost2010Prop44ColorRGB
 90
      255
102
RTVSPost2010PropOp44
 70
     0
102
RTVSPost2010Prop45
280
     0
102
RTVSPost2010PropOp45
 70
     1
102
RTVSPost2010Prop46
 90
       50
102
RTVSPost2010PropOp46
 70
     0
102
RTVSPost2010Prop47
 90
       50
102
RTVSPost2010PropOp47
 70
     0
102
RTVSPost2010Prop48
 90
       50
102
RTVSPost2010PropOp48
 70
     0
102
RTVSPost2010Prop49
280
     0
102
RTVSPost2010PropOp49
 70
     1
102
RTVSPost2010Prop50
 90
       50
102
RTVSPost2010PropOp50
 70
     0
102
RTVSPost2010Prop51ColorIndex
 90
      256
102
RTVSPost2010Prop51ColorRGB
 90
-16777216
102
RTVSPost2010PropOp51
 70
     0
102
RTVSPost2010Prop52
140
1.0
102
RTVSPost2010PropOp52
 70
     0
102
RTVSPost2010Prop53
 90
        2
102
RTVSPost2010PropOp53
 70
     0
102
RTVSPost2010Prop54
  1
strokes_ogs.tif
102
RTVSPost2010PropOp54
 70
     0
102
RTVSPost2010Prop55
280
     0
102
RTVSPost2010PropOp55
 70
     1
102
RTVSPost2010Prop56
140
1.0
102
RTVSPost2010PropOp56
 70
     0
102
RTVSPost2010Prop57
140
1.0
102
RTVSPost2010PropOp57
 70
     0
102
RTVSPropertyOp0
 70
     0
102
RTVSPropertyOp1
 70
     0
102
RTVSPropertyOp2
 70
     0
102
RTVSPropertyOp3
 70
     0
102
RTVSPropertyOp4
 70
     0
102
RTVSPropertyOp5
 70
     0
102
RTVSPropertyOp6
 70
     0
102
RTVSPropertyOp7
 70
     0
102
RTVSPropertyOp8
 70
     0
102
RTVSPropertyOp9
 70
     0
102
RTVSPropertyOp10
 70
     0
102
RTVSPropertyOp11
 70
     0
102
RTVSPropertyOp12
 70
     0
102
RTVSPropertyOp13
 70
     0
102
RTVSPropertyOp14
 70
     2
102
RTVSPropertyOp15
 70
     0
102
RTVSPropertyOp16
 70
     0
102
RTVSPropertyOp17
 70
     0
102
RTVSPropertyOp18
 70
     0
102
RTVSPropertyOp19
 70
     0
102
RTVSPropertyOp20
 70
     0
102
RTVSPropertyOp21
 70
     0
102
RTVSPropertyOp22
 70
     0
102
RTVSPropertyOp23
 70
     0
102
RTVSPropertyOp24
 70
     0
102
RTVSPropertyOp25
 70
     0
102
RTVSPropertyOp26
 70
     0
102
RTVSPropertyOp27
 70
     0
102
RTVSPropertyOp28
 70
     1
102
RTVSPropertyOp29
 70
     1
102
RTVSPropertyOp30
 70
     1
102
RTVSPropertyOp31
 70
     1
102
RTVSPropertyOp32
 70
     1
102
RTVSPropertyOp33
 70
     1
102
RTVSPropertyOp34
 70
     1
102
RTVSPropertyOp35
 70
     1
102
RTVSPropertyOp36
 70
     1
102
RTVSPropertyOp37
 70
     0
102
RTVSPropertyOp38
 70
     0
102
RTVSPropertyOp39
 70
     0
102
RTVSPropertyOp40
 70
     0
102
RTVSPropertyOp41
 70
     0
102
RTVSPropertyOp42
 70
     0
102
RTVSPropertyOp43
 70
     0
102
RTVSPropertyOp44
 70
     0
102
RTVSPropertyOp45
 70
     1
102
RTVSPropertyOp46
 70
     0
102
RTVSPropertyOp47
 70
     0
102
RTVSPropertyOp48
 70
     0
102
RTVSPropertyOp49
 70
     1
102
RTVSPropertyOp50
 70
     0
102
RTVSPropertyOp51
 70
     0
102
RTVSPropertyOp52
 70
     0
102
RTVSPropertyOp53
 70
     0
102
RTVSPropertyOp54
 70
     0
102
RTVSPropertyOp55
 70
     1
102
RTVSPropertyOp56
 70
     0
102
RTVSPropertyOp57
 70
     0
102
RTVSPropertyOp58
 70
     0
102
RTVSPropertyOp59
 70
     0
102
RTVSPropertyOp60
 70
     0
102
RTVSPropertyOp61
 70
     0
102
RTVSPropertyOp62
 70
     0
  0
XRECORD
  5
A138
102
{ACAD_REACTORS
330
A137
102
}
330
A137
100
AcDbXrecord
280
     1
102
RTVSPost2010Prop28
280
     0
102
RTVSPost2010PropOp28
 70
     1
102
RTVSPost2010Prop29
280
     1
102
RTVSPost2010PropOp29
 70
     1
102
RTVSPost2010Prop30
280
     1
102
RTVSPost2010PropOp30
 70
     1
102
RTVSPost2010Prop31
280
     0
102
RTVSPost2010PropOp31
 70
     1
102
RTVSPost2010Prop32
280
     0
102
RTVSPost2010PropOp32
 70
     1
102
RTVSPost2010Prop33
280
     0
102
RTVSPost2010PropOp33
 70
     1
102
RTVSPost2010Prop34
280
     0
102
RTVSPost2010PropOp34
 70
     1
102
RTVSPost2010Prop35
280
     0
102
RTVSPost2010PropOp35
 70
     1
102
RTVSPost2010Prop36
280
     0
102
RTVSPost2010PropOp36
 70
     1
102
RTVSPost2010Prop37
 90
       50
102
RTVSPost2010PropOp37
 70
     1
102
RTVSPost2010Prop38
140
0.0
102
RTVSPost2010PropOp38
 70
     1
102
RTVSPost2010Prop39
140
1.0
102
RTVSPost2010PropOp39
 70
     1
102
RTVSPost2010Prop40
 90
        0
102
RTVSPost2010PropOp40
 70
     1
102
RTVSPost2010Prop41ColorIndex
 90
       18
102
RTVSPost2010Prop41ColorRGB
 90
        0
102
RTVSPost2010PropOp41
 70
     1
102
RTVSPost2010Prop42
 90
       50
102
RTVSPost2010PropOp42
 70
     1
102
RTVSPost2010Prop43
 90
        3
102
RTVSPost2010PropOp43
 70
     1
102
RTVSPost2010Prop44ColorIndex
 90
        5
102
RTVSPost2010Prop44ColorRGB
 90
      255
102
RTVSPost2010PropOp44
 70
     1
102
RTVSPost2010Prop45
280
     0
102
RTVSPost2010PropOp45
 70
     1
102
RTVSPost2010Prop46
 90
       50
102
RTVSPost2010PropOp46
 70
     1
102
RTVSPost2010Prop47
 90
       50
102
RTVSPost2010PropOp47
 70
     1
102
RTVSPost2010Prop48
 90
       50
102
RTVSPost2010PropOp48
 70
     1
102
RTVSPost2010Prop49
280
     0
102
RTVSPost2010PropOp49
 70
     1
102
RTVSPost2010Prop50
 90
       50
102
RTVSPost2010PropOp50
 70
     1
102
RTVSPost2010Prop51ColorIndex
 90
      256
102
RTVSPost2010Prop51ColorRGB
 90
-16777216
102
RTVSPost2010PropOp51
 70
     0
102
RTVSPost2010Prop52
140
1.0
102
RTVSPost2010PropOp52
 70
     0
102
RTVSPost2010Prop53
 90
        2
102
RTVSPost2010PropOp53
 70
     1
102
RTVSPost2010Prop54
  1
strokes_ogs.tif
102
RTVSPost2010PropOp54
 70
     1
102
RTVSPost2010Prop55
280
     0
102
RTVSPost2010PropOp55
 70
     1
102
RTVSPost2010Prop56
140
1.0
102
RTVSPost2010PropOp56
 70
     1
102
RTVSPost2010Prop57
140
1.0
102
RTVSPost2010PropOp57
 70
     1
102
RTVSPropertyOp0
 70
     1
102
RTVSPropertyOp1
 70
     1
102
RTVSPropertyOp2
 70
     1
102
RTVSPropertyOp3
 70
     1
102
RTVSPropertyOp4
 70
     1
102
RTVSPropertyOp5
 70
     1
102
RTVSPropertyOp6
 70
     1
102
RTVSPropertyOp7
 70
     1
102
RTVSPropertyOp8
 70
     1
102
RTVSPropertyOp9
 70
     1
102
RTVSPropertyOp10
 70
     1
102
RTVSPropertyOp11
 70
     1
102
RTVSPropertyOp12
 70
     1
102
RTVSPropertyOp13
 70
     1
102
RTVSPropertyOp14
 70
     1
102
RTVSPropertyOp15
 70
     1
102
RTVSPropertyOp16
 70
     1
102
RTVSPropertyOp17
 70
     1
102
RTVSPropertyOp18
 70
     1
102
RTVSPropertyOp19
 70
     1
102
RTVSPropertyOp20
 70
     1
102
RTVSPropertyOp21
 70
     1
102
RTVSPropertyOp22
 70
     1
102
RTVSPropertyOp23
 70
     1
102
RTVSPropertyOp24
 70
     1
102
RTVSPropertyOp25
 70
     1
102
RTVSPropertyOp26
 70
     1
102
RTVSPropertyOp27
 70
     1
102
RTVSPropertyOp28
 70
     1
102
RTVSPropertyOp29
 70
     1
102
RTVSPropertyOp30
 70
     1
102
RTVSPropertyOp31
 70
     1
102
RTVSPropertyOp32
 70
     1
102
RTVSPropertyOp33
 70
     1
102
RTVSPropertyOp34
 70
     1
102
RTVSPropertyOp35
 70
     1
102
RTVSPropertyOp36
 70
     1
102
RTVSPropertyOp37
 70
     1
102
RTVSPropertyOp38
 70
     1
102
RTVSPropertyOp39
 70
     1
102
RTVSPropertyOp40
 70
     1
102
RTVSPropertyOp41
 70
     1
102
RTVSPropertyOp42
 70
     1
102
RTVSPropertyOp43
 70
     1
102
RTVSPropertyOp44
 70
     1
102
RTVSPropertyOp45
 70
     1
102
RTVSPropertyOp46
 70
     1
102
RTVSPropertyOp47
 70
     1
102
RTVSPropertyOp48
 70
     1
102
RTVSPropertyOp49
 70
     1
102
RTVSPropertyOp50
 70
     1
102
RTVSPropertyOp51
 70
     0
102
RTVSPropertyOp52
 70
     0
102
RTVSPropertyOp53
 70
     1
102
RTVSPropertyOp54
 70
     1
102
RTVSPropertyOp55
 70
     1
102
RTVSPropertyOp56
 70
     1
102
RTVSPropertyOp57
 70
     1
102
RTVSPropertyOp58
 70
     1
102
RTVSPropertyOp59
 70
     1
102
RTVSPropertyOp60
 70
     1
102
RTVSPropertyOp61
 70
     1
102
RTVSPropertyOp62
 70
     1
  0
XRECORD
  5
A14E
102
{ACAD_REACTORS
330
A14D
102
}
330
A14D
100
AcDbXrecord
280
     1
102
RTVSPost2010Prop28
280
     0
102
RTVSPost2010PropOp28
 70
     1
102
RTVSPost2010Prop29
280
     1
102
RTVSPost2010PropOp29
 70
     1
102
RTVSPost2010Prop30
280
     1
102
RTVSPost2010PropOp30
 70
     1
102
RTVSPost2010Prop31
280
     0
102
RTVSPost2010PropOp31
 70
     1
102
RTVSPost2010Prop32
280
     0
102
RTVSPost2010PropOp32
 70
     1
102
RTVSPost2010Prop33
280
     0
102
RTVSPost2010PropOp33
 70
     1
102
RTVSPost2010Prop34
280
     0
102
RTVSPost2010PropOp34
 70
     1
102
RTVSPost2010Prop35
280
     0
102
RTVSPost2010PropOp35
 70
     1
102
RTVSPost2010Prop36
280
     0
102
RTVSPost2010PropOp36
 70
     1
102
RTVSPost2010Prop37
 90
       50
102
RTVSPost2010PropOp37
 70
     1
102
RTVSPost2010Prop38
140
0.0
102
RTVSPost2010PropOp38
 70
     1
102
RTVSPost2010Prop39
140
1.0
102
RTVSPost2010PropOp39
 70
     1
102
RTVSPost2010Prop40
 90
        0
102
RTVSPost2010PropOp40
 70
     1
102
RTVSPost2010Prop41ColorIndex
 90
       18
102
RTVSPost2010Prop41ColorRGB
 90
        0
102
RTVSPost2010PropOp41
 70
     1
102
RTVSPost2010Prop42
 90
       50
102
RTVSPost2010PropOp42
 70
     1
102
RTVSPost2010Prop43
 90
        3
102
RTVSPost2010PropOp43
 70
     1
102
RTVSPost2010Prop44ColorIndex
 90
        5
102
RTVSPost2010Prop44ColorRGB
 90
      255
102
RTVSPost2010PropOp44
 70
     1
102
RTVSPost2010Prop45
280
     0
102
RTVSPost2010PropOp45
 70
     1
102
RTVSPost2010Prop46
 90
       50
102
RTVSPost2010PropOp46
 70
     1
102
RTVSPost2010Prop47
 90
       50
102
RTVSPost2010PropOp47
 70
     1
102
RTVSPost2010Prop48
 90
       50
102
RTVSPost2010PropOp48
 70
     1
102
RTVSPost2010Prop49
280
     0
102
RTVSPost2010PropOp49
 70
     1
102
RTVSPost2010Prop50
 90
       50
102
RTVSPost2010PropOp50
 70
     1
102
RTVSPost2010Prop51ColorIndex
 90
      256
102
RTVSPost2010Prop51ColorRGB
 90
-16777216
102
RTVSPost2010PropOp51
 70
     0
102
RTVSPost2010Prop52
140
1.0
102
RTVSPost2010PropOp52
 70
     0
102
RTVSPost2010Prop53
 90
        2
102
RTVSPost2010PropOp53
 70
     1
102
RTVSPost2010Prop54
  1
strokes_ogs.tif
102
RTVSPost2010PropOp54
 70
     1
102
RTVSPost2010Prop55
280
     0
102
RTVSPost2010PropOp55
 70
     1
102
RTVSPost2010Prop56
140
1.0
102
RTVSPost2010PropOp56
 70
     1
102
RTVSPost2010Prop57
140
1.0
102
RTVSPost2010PropOp57
 70
     1
102
RTVSPropertyOp0
 70
     1
102
RTVSPropertyOp1
 70
     1
102
RTVSPropertyOp2
 70
     1
102
RTVSPropertyOp3
 70
     1
102
RTVSPropertyOp4
 70
     1
102
RTVSPropertyOp5
 70
     1
102
RTVSPropertyOp6
 70
     1
102
RTVSPropertyOp7
 70
     1
102
RTVSPropertyOp8
 70
     1
102
RTVSPropertyOp9
 70
     1
102
RTVSPropertyOp10
 70
     1
102
RTVSPropertyOp11
 70
     1
102
RTVSPropertyOp12
 70
     1
102
RTVSPropertyOp13
 70
     1
102
RTVSPropertyOp14
 70
     1
102
RTVSPropertyOp15
 70
     1
102
RTVSPropertyOp16
 70
     1
102
RTVSPropertyOp17
 70
     1
102
RTVSPropertyOp18
 70
     1
102
RTVSPropertyOp19
 70
     1
102
RTVSPropertyOp20
 70
     1
102
RTVSPropertyOp21
 70
     1
102
RTVSPropertyOp22
 70
     1
102
RTVSPropertyOp23
 70
     1
102
RTVSPropertyOp24
 70
     1
102
RTVSPropertyOp25
 70
     1
102
RTVSPropertyOp26
 70
     1
102
RTVSPropertyOp27
 70
     1
102
RTVSPropertyOp28
 70
     1
102
RTVSPropertyOp29
 70
     1
102
RTVSPropertyOp30
 70
     1
102
RTVSPropertyOp31
 70
     1
102
RTVSPropertyOp32
 70
     1
102
RTVSPropertyOp33
 70
     1
102
RTVSPropertyOp34
 70
     1
102
RTVSPropertyOp35
 70
     1
102
RTVSPropertyOp36
 70
     1
102
RTVSPropertyOp37
 70
     1
102
RTVSPropertyOp38
 70
     1
102
RTVSPropertyOp39
 70
     1
102
RTVSPropertyOp40
 70
     1
102
RTVSPropertyOp41
 70
     1
102
RTVSPropertyOp42
 70
     1
102
RTVSPropertyOp43
 70
     1
102
RTVSPropertyOp44
 70
     1
102
RTVSPropertyOp45
 70
     1
102
RTVSPropertyOp46
 70
     1
102
RTVSPropertyOp47
 70
     1
102
RTVSPropertyOp48
 70
     1
102
RTVSPropertyOp49
 70
     1
102
RTVSPropertyOp50
 70
     1
102
RTVSPropertyOp51
 70
     0
102
RTVSPropertyOp52
 70
     0
102
RTVSPropertyOp53
 70
     1
102
RTVSPropertyOp54
 70
     1
102
RTVSPropertyOp55
 70
     1
102
RTVSPropertyOp56
 70
     1
102
RTVSPropertyOp57
 70
     1
102
RTVSPropertyOp58
 70
     1
102
RTVSPropertyOp59
 70
     1
102
RTVSPropertyOp60
 70
     1
102
RTVSPropertyOp61
 70
     1
102
RTVSPropertyOp62
 70
     1
  0
XRECORD
  5
A14C
102
{ACAD_REACTORS
330
A14B
102
}
330
A14B
100
AcDbXrecord
280
     1
102
RTVSPost2010Prop28
280
     0
102
RTVSPost2010PropOp28
 70
     1
102
RTVSPost2010Prop29
280
     1
102
RTVSPost2010PropOp29
 70
     1
102
RTVSPost2010Prop30
280
     1
102
RTVSPost2010PropOp30
 70
     1
102
RTVSPost2010Prop31
280
     0
102
RTVSPost2010PropOp31
 70
     1
102
RTVSPost2010Prop32
280
     0
102
RTVSPost2010PropOp32
 70
     1
102
RTVSPost2010Prop33
280
     0
102
RTVSPost2010PropOp33
 70
     1
102
RTVSPost2010Prop34
280
     0
102
RTVSPost2010PropOp34
 70
     1
102
RTVSPost2010Prop35
280
     0
102
RTVSPost2010PropOp35
 70
     1
102
RTVSPost2010Prop36
280
     0
102
RTVSPost2010PropOp36
 70
     1
102
RTVSPost2010Prop37
 90
       50
102
RTVSPost2010PropOp37
 70
     1
102
RTVSPost2010Prop38
140
0.0
102
RTVSPost2010PropOp38
 70
     1
102
RTVSPost2010Prop39
140
1.0
102
RTVSPost2010PropOp39
 70
     1
102
RTVSPost2010Prop40
 90
        0
102
RTVSPost2010PropOp40
 70
     1
102
RTVSPost2010Prop41ColorIndex
 90
       18
102
RTVSPost2010Prop41ColorRGB
 90
        0
102
RTVSPost2010PropOp41
 70
     1
102
RTVSPost2010Prop42
 90
       50
102
RTVSPost2010PropOp42
 70
     1
102
RTVSPost2010Prop43
 90
        3
102
RTVSPost2010PropOp43
 70
     1
102
RTVSPost2010Prop44ColorIndex
 90
        5
102
RTVSPost2010Prop44ColorRGB
 90
      255
102
RTVSPost2010PropOp44
 70
     1
102
RTVSPost2010Prop45
280
     0
102
RTVSPost2010PropOp45
 70
     1
102
RTVSPost2010Prop46
 90
       50
102
RTVSPost2010PropOp46
 70
     1
102
RTVSPost2010Prop47
 90
       50
102
RTVSPost2010PropOp47
 70
     1
102
RTVSPost2010Prop48
 90
       50
102
RTVSPost2010PropOp48
 70
     1
102
RTVSPost2010Prop49
280
     0
102
RTVSPost2010PropOp49
 70
     1
102
RTVSPost2010Prop50
 90
       50
102
RTVSPost2010PropOp50
 70
     1
102
RTVSPost2010Prop51ColorIndex
 90
      256
102
RTVSPost2010Prop51ColorRGB
 90
-16777216
102
RTVSPost2010PropOp51
 70
     0
102
RTVSPost2010Prop52
140
1.0
102
RTVSPost2010PropOp52
 70
     0
102
RTVSPost2010Prop53
 90
        2
102
RTVSPost2010PropOp53
 70
     1
102
RTVSPost2010Prop54
  1
strokes_ogs.tif
102
RTVSPost2010PropOp54
 70
     1
102
RTVSPost2010Prop55
280
     0
102
RTVSPost2010PropOp55
 70
     1
102
RTVSPost2010Prop56
140
1.0
102
RTVSPost2010PropOp56
 70
     1
102
RTVSPost2010Prop57
140
1.0
102
RTVSPost2010PropOp57
 70
     1
102
RTVSPropertyOp0
 70
     1
102
RTVSPropertyOp1
 70
     1
102
RTVSPropertyOp2
 70
     1
102
RTVSPropertyOp3
 70
     1
102
RTVSPropertyOp4
 70
     1
102
RTVSPropertyOp5
 70
     1
102
RTVSPropertyOp6
 70
     1
102
RTVSPropertyOp7
 70
     1
102
RTVSPropertyOp8
 70
     1
102
RTVSPropertyOp9
 70
     1
102
RTVSPropertyOp10
 70
     1
102
RTVSPropertyOp11
 70
     1
102
RTVSPropertyOp12
 70
     1
102
RTVSPropertyOp13
 70
     1
102
RTVSPropertyOp14
 70
     1
102
RTVSPropertyOp15
 70
     1
102
RTVSPropertyOp16
 70
     1
102
RTVSPropertyOp17
 70
     1
102
RTVSPropertyOp18
 70
     1
102
RTVSPropertyOp19
 70
     1
102
RTVSPropertyOp20
 70
     1
102
RTVSPropertyOp21
 70
     1
102
RTVSPropertyOp22
 70
     1
102
RTVSPropertyOp23
 70
     1
102
RTVSPropertyOp24
 70
     1
102
RTVSPropertyOp25
 70
     1
102
RTVSPropertyOp26
 70
     1
102
RTVSPropertyOp27
 70
     1
102
RTVSPropertyOp28
 70
     1
102
RTVSPropertyOp29
 70
     1
102
RTVSPropertyOp30
 70
     1
102
RTVSPropertyOp31
 70
     1
102
RTVSPropertyOp32
 70
     1
102
RTVSPropertyOp33
 70
     1
102
RTVSPropertyOp34
 70
     1
102
RTVSPropertyOp35
 70
     1
102
RTVSPropertyOp36
 70
     1
102
RTVSPropertyOp37
 70
     1
102
RTVSPropertyOp38
 70
     1
102
RTVSPropertyOp39
 70
     1
102
RTVSPropertyOp40
 70
     1
102
RTVSPropertyOp41
 70
     1
102
RTVSPropertyOp42
 70
     1
102
RTVSPropertyOp43
 70
     1
102
RTVSPropertyOp44
 70
     1
102
RTVSPropertyOp45
 70
     1
102
RTVSPropertyOp46
 70
     1
102
RTVSPropertyOp47
 70
     1
102
RTVSPropertyOp48
 70
     1
102
RTVSPropertyOp49
 70
     1
102
RTVSPropertyOp50
 70
     1
102
RTVSPropertyOp51
 70
     0
102
RTVSPropertyOp52
 70
     0
102
RTVSPropertyOp53
 70
     1
102
RTVSPropertyOp54
 70
     1
102
RTVSPropertyOp55
 70
     1
102
RTVSPropertyOp56
 70
     1
102
RTVSPropertyOp57
 70
     1
102
RTVSPropertyOp58
 70
     1
102
RTVSPropertyOp59
 70
     1
102
RTVSPropertyOp60
 70
     1
102
RTVSPropertyOp61
 70
     1
102
RTVSPropertyOp62
 70
     1
  0
XRECORD
  5
A146
102
{ACAD_REACTORS
330
A145
102
}
330
A145
100
AcDbXrecord
280
     1
102
RTVSPost2010Prop28
280
     0
102
RTVSPost2010PropOp28
 70
     1
102
RTVSPost2010Prop29
280
     1
102
RTVSPost2010PropOp29
 70
     1
102
RTVSPost2010Prop30
280
     1
102
RTVSPost2010PropOp30
 70
     1
102
RTVSPost2010Prop31
280
     0
102
RTVSPost2010PropOp31
 70
     1
102
RTVSPost2010Prop32
280
     0
102
RTVSPost2010PropOp32
 70
     1
102
RTVSPost2010Prop33
280
     0
102
RTVSPost2010PropOp33
 70
     1
102
RTVSPost2010Prop34
280
     0
102
RTVSPost2010PropOp34
 70
     1
102
RTVSPost2010Prop35
280
     0
102
RTVSPost2010PropOp35
 70
     1
102
RTVSPost2010Prop36
280
     0
102
RTVSPost2010PropOp36
 70
     1
102
RTVSPost2010Prop37
 90
       50
102
RTVSPost2010PropOp37
 70
     1
102
RTVSPost2010Prop38
140
0.0
102
RTVSPost2010PropOp38
 70
     1
102
RTVSPost2010Prop39
140
1.0
102
RTVSPost2010PropOp39
 70
     1
102
RTVSPost2010Prop40
 90
        0
102
RTVSPost2010PropOp40
 70
     1
102
RTVSPost2010Prop41ColorIndex
 90
       18
102
RTVSPost2010Prop41ColorRGB
 90
        0
102
RTVSPost2010PropOp41
 70
     1
102
RTVSPost2010Prop42
 90
       50
102
RTVSPost2010PropOp42
 70
     1
102
RTVSPost2010Prop43
 90
        3
102
RTVSPost2010PropOp43
 70
     1
102
RTVSPost2010Prop44ColorIndex
 90
        5
102
RTVSPost2010Prop44ColorRGB
 90
      255
102
RTVSPost2010PropOp44
 70
     1
102
RTVSPost2010Prop45
280
     0
102
RTVSPost2010PropOp45
 70
     1
102
RTVSPost2010Prop46
 90
       50
102
RTVSPost2010PropOp46
 70
     1
102
RTVSPost2010Prop47
 90
       50
102
RTVSPost2010PropOp47
 70
     1
102
RTVSPost2010Prop48
 90
       50
102
RTVSPost2010PropOp48
 70
     1
102
RTVSPost2010Prop49
280
     0
102
RTVSPost2010PropOp49
 70
     1
102
RTVSPost2010Prop50
 90
       50
102
RTVSPost2010PropOp50
 70
     1
102
RTVSPost2010Prop51ColorIndex
 90
      256
102
RTVSPost2010Prop51ColorRGB
 90
-16777216
102
RTVSPost2010PropOp51
 70
     0
102
RTVSPost2010Prop52
140
1.0
102
RTVSPost2010PropOp52
 70
     0
102
RTVSPost2010Prop53
 90
        2
102
RTVSPost2010PropOp53
 70
     1
102
RTVSPost2010Prop54
  1
strokes_ogs.tif
102
RTVSPost2010PropOp54
 70
     1
102
RTVSPost2010Prop55
280
     0
102
RTVSPost2010PropOp55
 70
     1
102
RTVSPost2010Prop56
140
1.0
102
RTVSPost2010PropOp56
 70
     1
102
RTVSPost2010Prop57
140
1.0
102
RTVSPost2010PropOp57
 70
     1
102
RTVSPropertyOp0
 70
     1
102
RTVSPropertyOp1
 70
     1
102
RTVSPropertyOp2
 70
     1
102
RTVSPropertyOp3
 70
     1
102
RTVSPropertyOp4
 70
     1
102
RTVSPropertyOp5
 70
     1
102
RTVSPropertyOp6
 70
     1
102
RTVSPropertyOp7
 70
     1
102
RTVSPropertyOp8
 70
     1
102
RTVSPropertyOp9
 70
     1
102
RTVSPropertyOp10
 70
     1
102
RTVSPropertyOp11
 70
     1
102
RTVSPropertyOp12
 70
     1
102
RTVSPropertyOp13
 70
     1
102
RTVSPropertyOp14
 70
     1
102
RTVSPropertyOp15
 70
     1
102
RTVSPropertyOp16
 70
     1
102
RTVSPropertyOp17
 70
     1
102
RTVSPropertyOp18
 70
     1
102
RTVSPropertyOp19
 70
     1
102
RTVSPropertyOp20
 70
     1
102
RTVSPropertyOp21
 70
     1
102
RTVSPropertyOp22
 70
     1
102
RTVSPropertyOp23
 70
     1
102
RTVSPropertyOp24
 70
     1
102
RTVSPropertyOp25
 70
     1
102
RTVSPropertyOp26
 70
     1
102
RTVSPropertyOp27
 70
     1
102
RTVSPropertyOp28
 70
     1
102
RTVSPropertyOp29
 70
     1
102
RTVSPropertyOp30
 70
     1
102
RTVSPropertyOp31
 70
     1
102
RTVSPropertyOp32
 70
     1
102
RTVSPropertyOp33
 70
     1
102
RTVSPropertyOp34
 70
     1
102
RTVSPropertyOp35
 70
     1
102
RTVSPropertyOp36
 70
     1
102
RTVSPropertyOp37
 70
     1
102
RTVSPropertyOp38
 70
     1
102
RTVSPropertyOp39
 70
     1
102
RTVSPropertyOp40
 70
     1
102
RTVSPropertyOp41
 70
     1
102
RTVSPropertyOp42
 70
     1
102
RTVSPropertyOp43
 70
     1
102
RTVSPropertyOp44
 70
     1
102
RTVSPropertyOp45
 70
     1
102
RTVSPropertyOp46
 70
     1
102
RTVSPropertyOp47
 70
     1
102
RTVSPropertyOp48
 70
     1
102
RTVSPropertyOp49
 70
     1
102
RTVSPropertyOp50
 70
     1
102
RTVSPropertyOp51
 70
     0
102
RTVSPropertyOp52
 70
     0
102
RTVSPropertyOp53
 70
     1
102
RTVSPropertyOp54
 70
     1
102
RTVSPropertyOp55
 70
     1
102
RTVSPropertyOp56
 70
     1
102
RTVSPropertyOp57
 70
     1
102
RTVSPropertyOp58
 70
     1
102
RTVSPropertyOp59
 70
     1
102
RTVSPropertyOp60
 70
     1
102
RTVSPropertyOp61
 70
     1
102
RTVSPropertyOp62
 70
     1
  0
XRECORD
  5
A148
102
{ACAD_REACTORS
330
A147
102
}
330
A147
100
AcDbXrecord
280
     1
102
RTVSPost2010Prop28
280
     0
102
RTVSPost2010PropOp28
 70
     1
102
RTVSPost2010Prop29
280
     1
102
RTVSPost2010PropOp29
 70
     1
102
RTVSPost2010Prop30
280
     1
102
RTVSPost2010PropOp30
 70
     1
102
RTVSPost2010Prop31
280
     0
102
RTVSPost2010PropOp31
 70
     1
102
RTVSPost2010Prop32
280
     0
102
RTVSPost2010PropOp32
 70
     1
102
RTVSPost2010Prop33
280
     0
102
RTVSPost2010PropOp33
 70
     1
102
RTVSPost2010Prop34
280
     0
102
RTVSPost2010PropOp34
 70
     1
102
RTVSPost2010Prop35
280
     0
102
RTVSPost2010PropOp35
 70
     1
102
RTVSPost2010Prop36
280
     0
102
RTVSPost2010PropOp36
 70
     1
102
RTVSPost2010Prop37
 90
       50
102
RTVSPost2010PropOp37
 70
     1
102
RTVSPost2010Prop38
140
0.0
102
RTVSPost2010PropOp38
 70
     1
102
RTVSPost2010Prop39
140
1.0
102
RTVSPost2010PropOp39
 70
     1
102
RTVSPost2010Prop40
 90
        0
102
RTVSPost2010PropOp40
 70
     1
102
RTVSPost2010Prop41ColorIndex
 90
       18
102
RTVSPost2010Prop41ColorRGB
 90
        0
102
RTVSPost2010PropOp41
 70
     1
102
RTVSPost2010Prop42
 90
       50
102
RTVSPost2010PropOp42
 70
     1
102
RTVSPost2010Prop43
 90
        3
102
RTVSPost2010PropOp43
 70
     1
102
RTVSPost2010Prop44ColorIndex
 90
        5
102
RTVSPost2010Prop44ColorRGB
 90
      255
102
RTVSPost2010PropOp44
 70
     1
102
RTVSPost2010Prop45
280
     0
102
RTVSPost2010PropOp45
 70
     1
102
RTVSPost2010Prop46
 90
       50
102
RTVSPost2010PropOp46
 70
     1
102
RTVSPost2010Prop47
 90
       50
102
RTVSPost2010PropOp47
 70
     1
102
RTVSPost2010Prop48
 90
       50
102
RTVSPost2010PropOp48
 70
     1
102
RTVSPost2010Prop49
280
     0
102
RTVSPost2010PropOp49
 70
     1
102
RTVSPost2010Prop50
 90
       50
102
RTVSPost2010PropOp50
 70
     1
102
RTVSPost2010Prop51ColorIndex
 90
      256
102
RTVSPost2010Prop51ColorRGB
 90
-16777216
102
RTVSPost2010PropOp51
 70
     0
102
RTVSPost2010Prop52
140
1.0
102
RTVSPost2010PropOp52
 70
     0
102
RTVSPost2010Prop53
 90
        2
102
RTVSPost2010PropOp53
 70
     1
102
RTVSPost2010Prop54
  1
strokes_ogs.tif
102
RTVSPost2010PropOp54
 70
     1
102
RTVSPost2010Prop55
280
     0
102
RTVSPost2010PropOp55
 70
     1
102
RTVSPost2010Prop56
140
1.0
102
RTVSPost2010PropOp56
 70
     1
102
RTVSPost2010Prop57
140
1.0
102
RTVSPost2010PropOp57
 70
     1
102
RTVSPropertyOp0
 70
     1
102
RTVSPropertyOp1
 70
     1
102
RTVSPropertyOp2
 70
     1
102
RTVSPropertyOp3
 70
     1
102
RTVSPropertyOp4
 70
     1
102
RTVSPropertyOp5
 70
     1
102
RTVSPropertyOp6
 70
     1
102
RTVSPropertyOp7
 70
     1
102
RTVSPropertyOp8
 70
     1
102
RTVSPropertyOp9
 70
     1
102
RTVSPropertyOp10
 70
     1
102
RTVSPropertyOp11
 70
     1
102
RTVSPropertyOp12
 70
     1
102
RTVSPropertyOp13
 70
     1
102
RTVSPropertyOp14
 70
     1
102
RTVSPropertyOp15
 70
     1
102
RTVSPropertyOp16
 70
     1
102
RTVSPropertyOp17
 70
     1
102
RTVSPropertyOp18
 70
     1
102
RTVSPropertyOp19
 70
     1
102
RTVSPropertyOp20
 70
     1
102
RTVSPropertyOp21
 70
     1
102
RTVSPropertyOp22
 70
     1
102
RTVSPropertyOp23
 70
     1
102
RTVSPropertyOp24
 70
     1
102
RTVSPropertyOp25
 70
     1
102
RTVSPropertyOp26
 70
     1
102
RTVSPropertyOp27
 70
     1
102
RTVSPropertyOp28
 70
     1
102
RTVSPropertyOp29
 70
     1
102
RTVSPropertyOp30
 70
     1
102
RTVSPropertyOp31
 70
     1
102
RTVSPropertyOp32
 70
     1
102
RTVSPropertyOp33
 70
     1
102
RTVSPropertyOp34
 70
     1
102
RTVSPropertyOp35
 70
     1
102
RTVSPropertyOp36
 70
     1
102
RTVSPropertyOp37
 70
     1
102
RTVSPropertyOp38
 70
     1
102
RTVSPropertyOp39
 70
     1
102
RTVSPropertyOp40
 70
     1
102
RTVSPropertyOp41
 70
     1
102
RTVSPropertyOp42
 70
     1
102
RTVSPropertyOp43
 70
     1
102
RTVSPropertyOp44
 70
     1
102
RTVSPropertyOp45
 70
     1
102
RTVSPropertyOp46
 70
     1
102
RTVSPropertyOp47
 70
     1
102
RTVSPropertyOp48
 70
     1
102
RTVSPropertyOp49
 70
     1
102
RTVSPropertyOp50
 70
     1
102
RTVSPropertyOp51
 70
     0
102
RTVSPropertyOp52
 70
     0
102
RTVSPropertyOp53
 70
     1
102
RTVSPropertyOp54
 70
     1
102
RTVSPropertyOp55
 70
     1
102
RTVSPropertyOp56
 70
     1
102
RTVSPropertyOp57
 70
     1
102
RTVSPropertyOp58
 70
     1
102
RTVSPropertyOp59
 70
     1
102
RTVSPropertyOp60
 70
     1
102
RTVSPropertyOp61
 70
     1
102
RTVSPropertyOp62
 70
     1
  0
XRECORD
  5
A13E
102
{ACAD_REACTORS
330
A13D
102
}
330
A13D
100
AcDbXrecord
280
     1
102
RTVSPost2010Prop28
280
     0
102
RTVSPost2010PropOp28
 70
     1
102
RTVSPost2010Prop29
280
     1
102
RTVSPost2010PropOp29
 70
     1
102
RTVSPost2010Prop30
280
     1
102
RTVSPost2010PropOp30
 70
     1
102
RTVSPost2010Prop31
280
     0
102
RTVSPost2010PropOp31
 70
     1
102
RTVSPost2010Prop32
280
     0
102
RTVSPost2010PropOp32
 70
     1
102
RTVSPost2010Prop33
280
     0
102
RTVSPost2010PropOp33
 70
     1
102
RTVSPost2010Prop34
280
     0
102
RTVSPost2010PropOp34
 70
     1
102
RTVSPost2010Prop35
280
     0
102
RTVSPost2010PropOp35
 70
     1
102
RTVSPost2010Prop36
280
     0
102
RTVSPost2010PropOp36
 70
     1
102
RTVSPost2010Prop37
 90
       50
102
RTVSPost2010PropOp37
 70
     1
102
RTVSPost2010Prop38
140
0.0
102
RTVSPost2010PropOp38
 70
     1
102
RTVSPost2010Prop39
140
1.0
102
RTVSPost2010PropOp39
 70
     1
102
RTVSPost2010Prop40
 90
        0
102
RTVSPost2010PropOp40
 70
     1
102
RTVSPost2010Prop41ColorIndex
 90
       18
102
RTVSPost2010Prop41ColorRGB
 90
        0
102
RTVSPost2010PropOp41
 70
     1
102
RTVSPost2010Prop42
 90
       50
102
RTVSPost2010PropOp42
 70
     1
102
RTVSPost2010Prop43
 90
        3
102
RTVSPost2010PropOp43
 70
     1
102
RTVSPost2010Prop44ColorIndex
 90
        5
102
RTVSPost2010Prop44ColorRGB
 90
      255
102
RTVSPost2010PropOp44
 70
     1
102
RTVSPost2010Prop45
280
     0
102
RTVSPost2010PropOp45
 70
     1
102
RTVSPost2010Prop46
 90
       50
102
RTVSPost2010PropOp46
 70
     1
102
RTVSPost2010Prop47
 90
       50
102
RTVSPost2010PropOp47
 70
     1
102
RTVSPost2010Prop48
 90
       50
102
RTVSPost2010PropOp48
 70
     1
102
RTVSPost2010Prop49
280
     0
102
RTVSPost2010PropOp49
 70
     1
102
RTVSPost2010Prop50
 90
       50
102
RTVSPost2010PropOp50
 70
     1
102
RTVSPost2010Prop51ColorIndex
 90
      256
102
RTVSPost2010Prop51ColorRGB
 90
-16777216
102
RTVSPost2010PropOp51
 70
     0
102
RTVSPost2010Prop52
140
1.0
102
RTVSPost2010PropOp52
 70
     0
102
RTVSPost2010Prop53
 90
        2
102
RTVSPost2010PropOp53
 70
     1
102
RTVSPost2010Prop54
  1
strokes_ogs.tif
102
RTVSPost2010PropOp54
 70
     1
102
RTVSPost2010Prop55
280
     0
102
RTVSPost2010PropOp55
 70
     1
102
RTVSPost2010Prop56
140
1.0
102
RTVSPost2010PropOp56
 70
     1
102
RTVSPost2010Prop57
140
1.0
102
RTVSPost2010PropOp57
 70
     1
102
RTVSPropertyOp0
 70
     1
102
RTVSPropertyOp1
 70
     1
102
RTVSPropertyOp2
 70
     1
102
RTVSPropertyOp3
 70
     1
102
RTVSPropertyOp4
 70
     1
102
RTVSPropertyOp5
 70
     1
102
RTVSPropertyOp6
 70
     1
102
RTVSPropertyOp7
 70
     1
102
RTVSPropertyOp8
 70
     1
102
RTVSPropertyOp9
 70
     1
102
RTVSPropertyOp10
 70
     1
102
RTVSPropertyOp11
 70
     1
102
RTVSPropertyOp12
 70
     1
102
RTVSPropertyOp13
 70
     1
102
RTVSPropertyOp14
 70
     1
102
RTVSPropertyOp15
 70
     1
102
RTVSPropertyOp16
 70
     1
102
RTVSPropertyOp17
 70
     1
102
RTVSPropertyOp18
 70
     1
102
RTVSPropertyOp19
 70
     1
102
RTVSPropertyOp20
 70
     1
102
RTVSPropertyOp21
 70
     1
102
RTVSPropertyOp22
 70
     1
102
RTVSPropertyOp23
 70
     1
102
RTVSPropertyOp24
 70
     1
102
RTVSPropertyOp25
 70
     1
102
RTVSPropertyOp26
 70
     1
102
RTVSPropertyOp27
 70
     1
102
RTVSPropertyOp28
 70
     1
102
RTVSPropertyOp29
 70
     1
102
RTVSPropertyOp30
 70
     1
102
RTVSPropertyOp31
 70
     1
102
RTVSPropertyOp32
 70
     1
102
RTVSPropertyOp33
 70
     1
102
RTVSPropertyOp34
 70
     1
102
RTVSPropertyOp35
 70
     1
102
RTVSPropertyOp36
 70
     1
102
RTVSPropertyOp37
 70
     1
102
RTVSPropertyOp38
 70
     1
102
RTVSPropertyOp39
 70
     1
102
RTVSPropertyOp40
 70
     1
102
RTVSPropertyOp41
 70
     1
102
RTVSPropertyOp42
 70
     1
102
RTVSPropertyOp43
 70
     1
102
RTVSPropertyOp44
 70
     1
102
RTVSPropertyOp45
 70
     1
102
RTVSPropertyOp46
 70
     1
102
RTVSPropertyOp47
 70
     1
102
RTVSPropertyOp48
 70
     1
102
RTVSPropertyOp49
 70
     1
102
RTVSPropertyOp50
 70
     1
102
RTVSPropertyOp51
 70
     0
102
RTVSPropertyOp52
 70
     0
102
RTVSPropertyOp53
 70
     1
102
RTVSPropertyOp54
 70
     1
102
RTVSPropertyOp55
 70
     1
102
RTVSPropertyOp56
 70
     1
102
RTVSPropertyOp57
 70
     1
102
RTVSPropertyOp58
 70
     1
102
RTVSPropertyOp59
 70
     1
102
RTVSPropertyOp60
 70
     1
102
RTVSPropertyOp61
 70
     1
102
RTVSPropertyOp62
 70
     1
  0
XRECORD
  5
A132
102
{ACAD_REACTORS
330
A131
102
}
330
A131
100
AcDbXrecord
280
     1
102
RTVSPost2010Prop28
280
     0
102
RTVSPost2010PropOp28
 70
     1
102
RTVSPost2010Prop29
280
     1
102
RTVSPost2010PropOp29
 70
     1
102
RTVSPost2010Prop30
280
     1
102
RTVSPost2010PropOp30
 70
     1
102
RTVSPost2010Prop31
280
     0
102
RTVSPost2010PropOp31
 70
     1
102
RTVSPost2010Prop32
280
     0
102
RTVSPost2010PropOp32
 70
     1
102
RTVSPost2010Prop33
280
     0
102
RTVSPost2010PropOp33
 70
     1
102
RTVSPost2010Prop34
280
     0
102
RTVSPost2010PropOp34
 70
     1
102
RTVSPost2010Prop35
280
     0
102
RTVSPost2010PropOp35
 70
     1
102
RTVSPost2010Prop36
280
     0
102
RTVSPost2010PropOp36
 70
     1
102
RTVSPost2010Prop37
 90
       50
102
RTVSPost2010PropOp37
 70
     1
102
RTVSPost2010Prop38
140
0.0
102
RTVSPost2010PropOp38
 70
     1
102
RTVSPost2010Prop39
140
1.0
102
RTVSPost2010PropOp39
 70
     1
102
RTVSPost2010Prop40
 90
        0
102
RTVSPost2010PropOp40
 70
     1
102
RTVSPost2010Prop41ColorIndex
 90
       18
102
RTVSPost2010Prop41ColorRGB
 90
        0
102
RTVSPost2010PropOp41
 70
     1
102
RTVSPost2010Prop42
 90
       50
102
RTVSPost2010PropOp42
 70
     1
102
RTVSPost2010Prop43
 90
        3
102
RTVSPost2010PropOp43
 70
     1
102
RTVSPost2010Prop44ColorIndex
 90
        5
102
RTVSPost2010Prop44ColorRGB
 90
      255
102
RTVSPost2010PropOp44
 70
     1
102
RTVSPost2010Prop45
280
     0
102
RTVSPost2010PropOp45
 70
     1
102
RTVSPost2010Prop46
 90
       50
102
RTVSPost2010PropOp46
 70
     1
102
RTVSPost2010Prop47
 90
       50
102
RTVSPost2010PropOp47
 70
     1
102
RTVSPost2010Prop48
 90
       50
102
RTVSPost2010PropOp48
 70
     1
102
RTVSPost2010Prop49
280
     0
102
RTVSPost2010PropOp49
 70
     1
102
RTVSPost2010Prop50
 90
       50
102
RTVSPost2010PropOp50
 70
     1
102
RTVSPost2010Prop51ColorIndex
 90
      256
102
RTVSPost2010Prop51ColorRGB
 90
-16777216
102
RTVSPost2010PropOp51
 70
     0
102
RTVSPost2010Prop52
140
1.0
102
RTVSPost2010PropOp52
 70
     0
102
RTVSPost2010Prop53
 90
        2
102
RTVSPost2010PropOp53
 70
     1
102
RTVSPost2010Prop54
  1
strokes_ogs.tif
102
RTVSPost2010PropOp54
 70
     1
102
RTVSPost2010Prop55
280
     0
102
RTVSPost2010PropOp55
 70
     1
102
RTVSPost2010Prop56
140
1.0
102
RTVSPost2010PropOp56
 70
     1
102
RTVSPost2010Prop57
140
1.0
102
RTVSPost2010PropOp57
 70
     1
102
RTVSPropertyOp0
 70
     1
102
RTVSPropertyOp1
 70
     1
102
RTVSPropertyOp2
 70
     1
102
RTVSPropertyOp3
 70
     1
102
RTVSPropertyOp4
 70
     1
102
RTVSPropertyOp5
 70
     1
102
RTVSPropertyOp6
 70
     1
102
RTVSPropertyOp7
 70
     1
102
RTVSPropertyOp8
 70
     1
102
RTVSPropertyOp9
 70
     1
102
RTVSPropertyOp10
 70
     1
102
RTVSPropertyOp11
 70
     1
102
RTVSPropertyOp12
 70
     1
102
RTVSPropertyOp13
 70
     1
102
RTVSPropertyOp14
 70
     1
102
RTVSPropertyOp15
 70
     1
102
RTVSPropertyOp16
 70
     1
102
RTVSPropertyOp17
 70
     1
102
RTVSPropertyOp18
 70
     1
102
RTVSPropertyOp19
 70
     1
102
RTVSPropertyOp20
 70
     1
102
RTVSPropertyOp21
 70
     1
102
RTVSPropertyOp22
 70
     1
102
RTVSPropertyOp23
 70
     1
102
RTVSPropertyOp24
 70
     1
102
RTVSPropertyOp25
 70
     1
102
RTVSPropertyOp26
 70
     1
102
RTVSPropertyOp27
 70
     1
102
RTVSPropertyOp28
 70
     1
102
RTVSPropertyOp29
 70
     1
102
RTVSPropertyOp30
 70
     1
102
RTVSPropertyOp31
 70
     1
102
RTVSPropertyOp32
 70
     1
102
RTVSPropertyOp33
 70
     1
102
RTVSPropertyOp34
 70
     1
102
RTVSPropertyOp35
 70
     1
102
RTVSPropertyOp36
 70
     1
102
RTVSPropertyOp37
 70
     1
102
RTVSPropertyOp38
 70
     1
102
RTVSPropertyOp39
 70
     1
102
RTVSPropertyOp40
 70
     1
102
RTVSPropertyOp41
 70
     1
102
RTVSPropertyOp42
 70
     1
102
RTVSPropertyOp43
 70
     1
102
RTVSPropertyOp44
 70
     1
102
RTVSPropertyOp45
 70
     1
102
RTVSPropertyOp46
 70
     1
102
RTVSPropertyOp47
 70
     1
102
RTVSPropertyOp48
 70
     1
102
RTVSPropertyOp49
 70
     1
102
RTVSPropertyOp50
 70
     1
102
RTVSPropertyOp51
 70
     0
102
RTVSPropertyOp52
 70
     0
102
RTVSPropertyOp53
 70
     1
102
RTVSPropertyOp54
 70
     1
102
RTVSPropertyOp55
 70
     1
102
RTVSPropertyOp56
 70
     1
102
RTVSPropertyOp57
 70
     1
102
RTVSPropertyOp58
 70
     1
102
RTVSPropertyOp59
 70
     1
102
RTVSPropertyOp60
 70
     1
102
RTVSPropertyOp61
 70
     1
102
RTVSPropertyOp62
 70
     1
  0
XRECORD
  5
A14A
102
{ACAD_REACTORS
330
A149
102
}
330
A149
100
AcDbXrecord
280
     1
102
RTVSPost2010Prop28
280
     0
102
RTVSPost2010PropOp28
 70
     1
102
RTVSPost2010Prop29
280
     1
102
RTVSPost2010PropOp29
 70
     1
102
RTVSPost2010Prop30
280
     1
102
RTVSPost2010PropOp30
 70
     1
102
RTVSPost2010Prop31
280
     0
102
RTVSPost2010PropOp31
 70
     1
102
RTVSPost2010Prop32
280
     0
102
RTVSPost2010PropOp32
 70
     1
102
RTVSPost2010Prop33
280
     0
102
RTVSPost2010PropOp33
 70
     1
102
RTVSPost2010Prop34
280
     0
102
RTVSPost2010PropOp34
 70
     1
102
RTVSPost2010Prop35
280
     0
102
RTVSPost2010PropOp35
 70
     1
102
RTVSPost2010Prop36
280
     0
102
RTVSPost2010PropOp36
 70
     1
102
RTVSPost2010Prop37
 90
       50
102
RTVSPost2010PropOp37
 70
     1
102
RTVSPost2010Prop38
140
0.0
102
RTVSPost2010PropOp38
 70
     1
102
RTVSPost2010Prop39
140
1.0
102
RTVSPost2010PropOp39
 70
     1
102
RTVSPost2010Prop40
 90
        0
102
RTVSPost2010PropOp40
 70
     1
102
RTVSPost2010Prop41ColorIndex
 90
       18
102
RTVSPost2010Prop41ColorRGB
 90
        0
102
RTVSPost2010PropOp41
 70
     1
102
RTVSPost2010Prop42
 90
       50
102
RTVSPost2010PropOp42
 70
     1
102
RTVSPost2010Prop43
 90
        3
102
RTVSPost2010PropOp43
 70
     1
102
RTVSPost2010Prop44ColorIndex
 90
        5
102
RTVSPost2010Prop44ColorRGB
 90
      255
102
RTVSPost2010PropOp44
 70
     1
102
RTVSPost2010Prop45
280
     0
102
RTVSPost2010PropOp45
 70
     1
102
RTVSPost2010Prop46
 90
       50
102
RTVSPost2010PropOp46
 70
     1
102
RTVSPost2010Prop47
 90
       50
102
RTVSPost2010PropOp47
 70
     1
102
RTVSPost2010Prop48
 90
       50
102
RTVSPost2010PropOp48
 70
     1
102
RTVSPost2010Prop49
280
     0
102
RTVSPost2010PropOp49
 70
     1
102
RTVSPost2010Prop50
 90
       50
102
RTVSPost2010PropOp50
 70
     1
102
RTVSPost2010Prop51ColorIndex
 90
      256
102
RTVSPost2010Prop51ColorRGB
 90
-16777216
102
RTVSPost2010PropOp51
 70
     0
102
RTVSPost2010Prop52
140
1.0
102
RTVSPost2010PropOp52
 70
     0
102
RTVSPost2010Prop53
 90
        2
102
RTVSPost2010PropOp53
 70
     1
102
RTVSPost2010Prop54
  1
strokes_ogs.tif
102
RTVSPost2010PropOp54
 70
     1
102
RTVSPost2010Prop55
280
     0
102
RTVSPost2010PropOp55
 70
     1
102
RTVSPost2010Prop56
140
1.0
102
RTVSPost2010PropOp56
 70
     1
102
RTVSPost2010Prop57
140
1.0
102
RTVSPost2010PropOp57
 70
     1
102
RTVSPropertyOp0
 70
     1
102
RTVSPropertyOp1
 70
     1
102
RTVSPropertyOp2
 70
     1
102
RTVSPropertyOp3
 70
     1
102
RTVSPropertyOp4
 70
     1
102
RTVSPropertyOp5
 70
     1
102
RTVSPropertyOp6
 70
     1
102
RTVSPropertyOp7
 70
     1
102
RTVSPropertyOp8
 70
     1
102
RTVSPropertyOp9
 70
     1
102
RTVSPropertyOp10
 70
     1
102
RTVSPropertyOp11
 70
     1
102
RTVSPropertyOp12
 70
     1
102
RTVSPropertyOp13
 70
     1
102
RTVSPropertyOp14
 70
     1
102
RTVSPropertyOp15
 70
     1
102
RTVSPropertyOp16
 70
     1
102
RTVSPropertyOp17
 70
     1
102
RTVSPropertyOp18
 70
     1
102
RTVSPropertyOp19
 70
     1
102
RTVSPropertyOp20
 70
     1
102
RTVSPropertyOp21
 70
     1
102
RTVSPropertyOp22
 70
     1
102
RTVSPropertyOp23
 70
     1
102
RTVSPropertyOp24
 70
     1
102
RTVSPropertyOp25
 70
     1
102
RTVSPropertyOp26
 70
     1
102
RTVSPropertyOp27
 70
     1
102
RTVSPropertyOp28
 70
     1
102
RTVSPropertyOp29
 70
     1
102
RTVSPropertyOp30
 70
     1
102
RTVSPropertyOp31
 70
     1
102
RTVSPropertyOp32
 70
     1
102
RTVSPropertyOp33
 70
     1
102
RTVSPropertyOp34
 70
     1
102
RTVSPropertyOp35
 70
     1
102
RTVSPropertyOp36
 70
     1
102
RTVSPropertyOp37
 70
     1
102
RTVSPropertyOp38
 70
     1
102
RTVSPropertyOp39
 70
     1
102
RTVSPropertyOp40
 70
     1
102
RTVSPropertyOp41
 70
     1
102
RTVSPropertyOp42
 70
     1
102
RTVSPropertyOp43
 70
     1
102
RTVSPropertyOp44
 70
     1
102
RTVSPropertyOp45
 70
     1
102
RTVSPropertyOp46
 70
     1
102
RTVSPropertyOp47
 70
     1
102
RTVSPropertyOp48
 70
     1
102
RTVSPropertyOp49
 70
     1
102
RTVSPropertyOp50
 70
     1
102
RTVSPropertyOp51
 70
     0
102
RTVSPropertyOp52
 70
     0
102
RTVSPropertyOp53
 70
     1
102
RTVSPropertyOp54
 70
     1
102
RTVSPropertyOp55
 70
     1
102
RTVSPropertyOp56
 70
     1
102
RTVSPropertyOp57
 70
     1
102
RTVSPropertyOp58
 70
     1
102
RTVSPropertyOp59
 70
     1
102
RTVSPropertyOp60
 70
     1
102
RTVSPropertyOp61
 70
     1
102
RTVSPropertyOp62
 70
     1
  0
ENDSEC
  0
EOF
