  0
SECTION
  2
HEADER
  9
$ACADVER
  1
AC1015
  9
$ACADMAINTVER
 70
    20
  9
$DWGCODEPAGE
  3
ANSI_932
  9
$INSBASE
 10
0.0
 20
0.0
 30
0.0
  9
$EXTMIN
 10
10.0
 20
9.999999999999998
 30
0.0
  9
$EXTMAX
 10
609.6714679999998
 20
240.7163029999999
 30
0.0
  9
$LIMMIN
 10
0.0
 20
0.0
  9
$LIMMAX
 10
660.0
 20
455.0
  9
$ORTHOMODE
 70
     1
  9
$REGENMODE
 70
     1
  9
$FILLMODE
 70
     1
  9
$QTEXTMODE
 70
     0
  9
$MIRRTEXT
 70
     1
  9
$LTSCALE
 40
20.0
  9
$ATTMODE
 70
     1
  9
$TEXTSIZE
 40
5.0
  9
$TRACEWID
 40
1.0
  9
$TEXTSTYLE
  7
STANDARD
  9
$CLAYER
  8
0
  9
$CELTYPE
  6
BYLAYER
  9
$CECOLOR
 62
   256
  9
$CELTSCALE
 40
1.0
  9
$DISPSILH
 70
     0
  9
$DIMSCALE
 40
1.0
  9
$DIMASZ
 40
3.0
  9
$DIMEXO
 40
1.0
  9
$DIMDLI
 40
10.0
  9
$DIMRND
 40
0.0
  9
$DIMDLE
 40
0.0
  9
$DIMEXE
 40
1.0
  9
$DIMTP
 40
0.0
  9
$DIMTM
 40
0.0
  9
$DIMTXT
 40
3.2
  9
$DIMCEN
 40
0.0
  9
$DIMTSZ
 40
0.0
  9
$DIMTOL
 70
     0
  9
$DIMLIM
 70
     0
  9
$DIMTIH
 70
     0
  9
$DIMTOH
 70
     0
  9
$DIMSE1
 70
     0
  9
$DIMSE2
 70
     0
  9
$DIMTAD
 70
     3
  9
$DIMZIN
 70
     8
  9
$DIMBLK
  1

  9
$DIMASO
 70
     1
  9
$DIMSHO
 70
     1
  9
$DIMPOST
  1

  9
$DIMAPOST
  1

  9
$DIMALT
 70
     0
  9
$DIMALTD
 70
     2
  9
$DIMALTF
 40
25.4
  9
$DIMLFAC
 40
1.0
  9
$DIMTOFL
 70
     1
  9
$DIMTVP
 40
0.0
  9
$DIMTIX
 70
     0
  9
$DIMSOXD
 70
     0
  9
$DIMSAH
 70
     1
  9
$DIMBLK1
  1

  9
$DIMBLK2
  1

  9
$DIMSTYLE
  2
STANDARD
  9
$DIMCLRD
 70
     0
  9
$DIMCLRE
 70
     0
  9
$DIMCLRT
 70
     0
  9
$DIMTFAC
 40
1.0
  9
$DIMGAP
 40
1.0
  9
$DIMJUST
 70
     0
  9
$DIMSD1
 70
     0
  9
$DIMSD2
 70
     0
  9
$DIMTOLJ
 70
     1
  9
$DIMTZIN
 70
     0
  9
$DIMALTZ
 70
     0
  9
$DIMALTTZ
 70
     0
  9
$DIMUPT
 70
     0
  9
$DIMDEC
 70
     4
  9
$DIMTDEC
 70
     4
  9
$DIMALTU
 70
     2
  9
$DIMALTTD
 70
     2
  9
$DIMTXSTY
  7
STANDARD
  9
$DIMAUNIT
 70
     0
  9
$DIMADEC
 70
     0
  9
$DIMALTRND
 40
0.0
  9
$DIMAZIN
 70
     0
  9
$DIMDSEP
 70
    46
  9
$DIMATFIT
 70
     3
  9
$DIMFRAC
 70
     0
  9
$DIMLDRBLK
  1

  9
$DIMLUNIT
 70
     2
  9
$DIMLWD
 70
    -2
  9
$DIMLWE
 70
    -2
  9
$DIMTMOVE
 70
     0
  9
$LUNITS
 70
     2
  9
$LUPREC
 70
     4
  9
$SKETCHINC
 40
1.0
  9
$FILLETRAD
 40
0.0
  9
$AUNITS
 70
     0
  9
$AUPREC
 70
     2
  9
$MENU
  1
.
  9
$ELEVATION
 40
0.0
  9
$PELEVATION
 40
0.0
  9
$THICKNESS
 40
0.0
  9
$LIMCHECK
 70
     0
  9
$CHAMFERA
 40
10.0
  9
$CHAMFERB
 40
10.0
  9
$CHAMFERC
 40
0.0
  9
$CHAMFERD
 40
0.0
  9
$SKPOLY
 70
     0
  9
$TDCREATE
 40
2450955.643828472
  9
$TDUCREATE
 40
2450955.268828472
  9
$TDUPDATE
 40
2457192.600080880
  9
$TDUUPDATE
 40
2457192.225080879
  9
$TDINDWG
 40
0.0000150000
  9
$TDUSRTIMER
 40
0.0000145139
  9
$USRTIMER
 70
     1
  9
$ANGBASE
 50
0.0
  9
$ANGDIR
 70
     0
  9
$PDMODE
 70
     0
  9
$PDSIZE
 40
0.0
  9
$PLINEWID
 40
0.0
  9
$SPLFRAME
 70
     0
  9
$SPLINETYPE
 70
     6
  9
$SPLINESEGS
 70
     8
  9
$HANDSEED
  5
4A5
  9
$SURFTAB1
 70
     6
  9
$SURFTAB2
 70
     6
  9
$SURFTYPE
 70
     6
  9
$SURFU
 70
     6
  9
$SURFV
 70
     6
  9
$UCSBASE
  2

  9
$UCSNAME
  2

  9
$UCSORG
 10
0.0
 20
0.0
 30
0.0
  9
$UCSXDIR
 10
1.0
 20
0.0
 30
0.0
  9
$UCSYDIR
 10
0.0
 20
1.0
 30
0.0
  9
$UCSORTHOREF
  2

  9
$UCSORTHOVIEW
 70
     0
  9
$UCSORGTOP
 10
0.0
 20
0.0
 30
0.0
  9
$UCSORGBOTTOM
 10
0.0
 20
0.0
 30
0.0
  9
$UCSORGLEFT
 10
0.0
 20
0.0
 30
0.0
  9
$UCSORGRIGHT
 10
0.0
 20
0.0
 30
0.0
  9
$UCSORGFRONT
 10
0.0
 20
0.0
 30
0.0
  9
$UCSORGBACK
 10
0.0
 20
0.0
 30
0.0
  9
$PUCSBASE
  2

  9
$PUCSNAME
  2

  9
$PUCSORG
 10
0.0
 20
0.0
 30
0.0
  9
$PUCSXDIR
 10
1.0
 20
0.0
 30
0.0
  9
$PUCSYDIR
 10
0.0
 20
1.0
 30
0.0
  9
$PUCSORTHOREF
  2

  9
$PUCSORTHOVIEW
 70
     0
  9
$PUCSORGTOP
 10
0.0
 20
0.0
 30
0.0
  9
$PUCSORGBOTTOM
 10
0.0
 20
0.0
 30
0.0
  9
$PUCSORGLEFT
 10
0.0
 20
0.0
 30
0.0
  9
$PUCSORGRIGHT
 10
0.0
 20
0.0
 30
0.0
  9
$PUCSORGFRONT
 10
0.0
 20
0.0
 30
0.0
  9
$PUCSORGBACK
 10
0.0
 20
0.0
 30
0.0
  9
$USERI1
 70
     0
  9
$USERI2
 70
     0
  9
$USERI3
 70
     0
  9
$USERI4
 70
     0
  9
$USERI5
 70
     0
  9
$USERR1
 40
0.0
  9
$USERR2
 40
0.0
  9
$USERR3
 40
0.0
  9
$USERR4
 40
0.0
  9
$USERR5
 40
0.0
  9
$WORLDVIEW
 70
     1
  9
$SHADEDGE
 70
     3
  9
$SHADEDIF
 70
    70
  9
$TILEMODE
 70
     1
  9
$MAXACTVP
 70
    16
  9
$PINSBASE
 10
0.0
 20
0.0
 30
0.0
  9
$PLIMCHECK
 70
     0
  9
$PEXTMIN
 10
1.000000000000000E+20
 20
1.000000000000000E+20
 30
1.000000000000000E+20
  9
$PEXTMAX
 10
-1.000000000000000E+20
 20
-1.000000000000000E+20
 30
-1.000000000000000E+20
  9
$PLIMMIN
 10
0.0
 20
0.0
  9
$PLIMMAX
 10
420.0
 20
297.0
  9
$UNITMODE
 70
     0
  9
$VISRETAIN
 70
     0
  9
$PLINEGEN
 70
     0
  9
$PSLTSCALE
 70
     0
  9
$TREEDEPTH
 70
  3020
  9
$CMLSTYLE
  2
STANDARD
  9
$CMLJUST
 70
     0
  9
$CMLSCALE
 40
1.0
  9
$PROXYGRAPHICS
 70
     1
  9
$MEASUREMENT
 70
     0
  9
$CELWEIGHT
370
    -1
  9
$ENDCAPS
280
     0
  9
$JOINSTYLE
280
     0
  9
$LWDISPLAY
290
     0
  9
$INSUNITS
 70
     0
  9
$HYPERLINKBASE
  1

  9
$STYLESHEET
  1

  9
$XEDIT
290
     1
  9
$CEPSNTYPE
380
     0
  9
$PSTYLEMODE
290
     1
  9
$FINGERPRINTGUID
  2
{F8B0D57B-3F7D-4D98-89B7-415992FF7C1C}
  9
$VERSIONGUID
  2
{9F19AD4F-F9E0-4AC8-97B8-7013E74B990F}
  9
$EXTNAMES
290
     1
  9
$PSVPSCALE
 40
0.0
  9
$OLESTARTUP
290
     0
  0
ENDSEC
  0
SECTION
  2
CLASSES
  0
CLASS
  1
ACDBDICTIONARYWDFLT
  2
AcDbDictionaryWithDefault
  3
ObjectDBX Classes
 90
        0
280
     0
281
     0
  0
CLASS
  1
ACDBPLACEHOLDER
  2
AcDbPlaceHolder
  3
ObjectDBX Classes
 90
        0
280
     0
281
     0
  0
CLASS
  1
LAYOUT
  2
AcDbLayout
  3
ObjectDBX Classes
 90
        0
280
     0
281
     0
  0
CLASS
  1
DICTIONARYVAR
  2
AcDbDictionaryVar
  3
ObjectDBX Classes
 90
        0
280
     0
281
     0
  0
CLASS
  1
MATERIAL
  2
AcDbMaterial
  3
ObjectDBX Classes
 90
     1153
280
     0
281
     0
  0
CLASS
  1
VISUALSTYLE
  2
AcDbVisualStyle
  3
ObjectDBX Classes
 90
     4095
280
     0
281
     0
  0
CLASS
  1
TABLESTYLE
  2
AcDbTableStyle
  3
ObjectDBX Classes
 90
     4095
280
     0
281
     0
  0
CLASS
  1
SCALE
  2
AcDbScale
  3
ObjectDBX Classes
 90
     1153
280
     0
281
     0
  0
CLASS
  1
MLEADERSTYLE
  2
AcDbMLeaderStyle
  3
ACDB_MLEADERSTYLE_CLASS
 90
     4095
280
     0
281
     0
  0
CLASS
  1
ACDBSECTIONVIEWSTYLE
  2
AcDbSectionViewStyle
  3
ObjectDBX Classes
 90
     1025
280
     0
281
     0
  0
CLASS
  1
ACDBDETAILVIEWSTYLE
  2
AcDbDetailViewStyle
  3
ObjectDBX Classes
 90
     1025
280
     0
281
     0
  0
CLASS
  1
CELLSTYLEMAP
  2
AcDbCellStyleMap
  3
ObjectDBX Classes
 90
     1152
280
     0
281
     0
  0
ENDSEC
  0
SECTION
  2
TABLES
  0
TABLE
  2
VPORT
  5
1FA
330
0
100
AcDbSymbolTable
 70
     1
  0
VPORT
  5
3EE
330
1FA
100
AcDbSymbolTableRecord
100
AcDbViewportTableRecord
  2
*ACTIVE
 70
     0
 10
0.0
 20
0.0
 11
1.0
 21
1.0
 12
413.0970766075978
 22
125.3548059331425
 13
0.0
 23
0.0
 14
10.0
 24
10.0
 15
10.0
 25
10.0
 16
0.0
 26
0.0
 36
1.0
 17
0.0
 27
0.0
 37
0.0
 40
344.7508104441884
 41
1.899603698811096
 42
50.0
 43
0.0
 44
0.0
 50
0.0
 51
0.0
 71
     0
 72
   100
 73
     1
 74
     0
 75
     0
 76
     0
 77
     0
 78
     0
281
     0
 65
     1
110
0.0
120
0.0
130
0.0
111
1.0
121
0.0
131
0.0
112
0.0
122
1.0
132
0.0
 79
     0
146
0.0
1001
ACAD_NAV_VCDISPLAY
1070
     3
  0
ENDTAB
  0
TABLE
  2
LTYPE
  5
1F7
330
0
100
AcDbSymbolTable
 70
     4
  0
LTYPE
  5
205
330
1F7
100
AcDbSymbolTableRecord
100
AcDbLinetypeTableRecord
  2
BYBLOCK
 70
     0
  3

 72
    65
 73
     0
 40
0.0
  0
LTYPE
  5
206
330
1F7
100
AcDbSymbolTableRecord
100
AcDbLinetypeTableRecord
  2
BYLAYER
 70
     0
  3

 72
    65
 73
     0
 40
0.0
  0
LTYPE
  5
207
330
1F7
100
AcDbSymbolTableRecord
100
AcDbLinetypeTableRecord
  2
CONTINUOUS
 70
     0
  3
Solid line
 72
    65
 73
     0
 40
0.0
  0
LTYPE
  5
215
330
1F7
100
AcDbSymbolTableRecord
100
AcDbLinetypeTableRecord
  2
DASHED
 70
     0
  3
__ __ __ __ __ __ __ __ __ __ __ __ __ __ __ __
 72
    65
 73
     2
 40
0.75
 49
0.5
 74
     0
 49
-0.25
 74
     0
  0
LTYPE
  5
216
330
1F7
100
AcDbSymbolTableRecord
100
AcDbLinetypeTableRecord
  2
CENTER
 70
     0
  3
____ _ ____ _ ____ _ ____ _ ____ _ ____ _ ____ 
 72
    65
 73
     4
 40
2.0
 49
1.25
 74
     0
 49
-0.25
 74
     0
 49
0.25
 74
     0
 49
-0.25
 74
     0
  0
LTYPE
  5
217
330
1F7
100
AcDbSymbolTableRecord
100
AcDbLinetypeTableRecord
  2
PHANTOM
 70
     0
  3
______  __  __  ______  __  __  ______  __  __ 
 72
    65
 73
     6
 40
2.5
 49
1.25
 74
     0
 49
-0.25
 74
     0
 49
0.25
 74
     0
 49
-0.25
 74
     0
 49
0.25
 74
     0
 49
-0.25
 74
     0
  0
ENDTAB
  0
TABLE
  2
LAYER
  5
1F4
330
0
100
AcDbSymbolTable
 70
     8
  0
LAYER
  5
202
102
{ACAD_XDICTIONARY
360
449
102
}
330
1F4
100
AcDbSymbolTableRecord
100
AcDbLayerTableRecord
  2
0
 70
     0
 62
     7
  6
CONTINUOUS
370
    -3
390
3F7
  0
LAYER
  5
218
102
{ACAD_XDICTIONARY
360
44B
102
}
330
1F4
100
AcDbSymbolTableRecord
100
AcDbLayerTableRecord
  2
4
 70
     0
 62
     1
  6
CENTER
370
    -3
390
3F7
  0
LAYER
  5
219
102
{ACAD_XDICTIONARY
360
44D
102
}
330
1F4
100
AcDbSymbolTableRecord
100
AcDbLayerTableRecord
  2
5
 70
     0
 62
     6
  6
PHANTOM
370
    -3
390
3F7
  0
LAYER
  5
21A
102
{ACAD_XDICTIONARY
360
44F
102
}
330
1F4
100
AcDbSymbolTableRecord
100
AcDbLayerTableRecord
  2
1
 70
     0
 62
     7
  6
CONTINUOUS
370
    -3
390
3F7
  0
LAYER
  5
21B
102
{ACAD_XDICTIONARY
360
451
102
}
330
1F4
100
AcDbSymbolTableRecord
100
AcDbLayerTableRecord
  2
2
 70
     0
 62
     4
  6
CONTINUOUS
370
    -3
390
3F7
  0
LAYER
  5
21C
102
{ACAD_XDICTIONARY
360
453
102
}
330
1F4
100
AcDbSymbolTableRecord
100
AcDbLayerTableRecord
  2
3
 70
     0
 62
     2
  6
DASHED
370
    -3
390
3F7
  0
LAYER
  5
21D
102
{ACAD_XDICTIONARY
360
455
102
}
330
1F4
100
AcDbSymbolTableRecord
100
AcDbLayerTableRecord
  2
6
 70
     0
 62
     5
  6
CONTINUOUS
370
    -3
390
3F7
  0
LAYER
  5
21E
102
{ACAD_XDICTIONARY
360
457
102
}
330
1F4
100
AcDbSymbolTableRecord
100
AcDbLayerTableRecord
  2
7
 70
     0
 62
     3
  6
CONTINUOUS
370
    -3
390
3F7
  0
ENDTAB
  0
TABLE
  2
STYLE
  5
1F5
330
0
100
AcDbSymbolTable
 70
     1
  0
STYLE
  5
203
330
1F5
100
AcDbSymbolTableRecord
100
AcDbTextStyleTableRecord
  2
STANDARD
 70
     0
 40
0.0
 41
1.0
 50
0.0
 71
     0
 42
5.0
  3
txt
  4

  0
ENDTAB
  0
TABLE
  2
VIEW
  5
1F8
330
0
100
AcDbSymbolTable
 70
     0
  0
ENDTAB
  0
TABLE
  2
UCS
  5
1F9
330
0
100
AcDbSymbolTable
 70
     0
  0
ENDTAB
  0
TABLE
  2
APPID
  5
1FB
330
0
100
AcDbSymbolTable
 70
     3
  0
APPID
  5
204
330
1FB
100
AcDbSymbolTableRecord
100
AcDbRegAppTableRecord
  2
ACAD
 70
     0
  0
APPID
  5
463
330
1FB
100
AcDbSymbolTableRecord
100
AcDbRegAppTableRecord
  2
ACAD_NAV_VCDISPLAY
 70
     0
  0
APPID
  5
49C
330
1FB
100
AcDbSymbolTableRecord
100
AcDbRegAppTableRecord
  2
ACAD_MLEADERVER
 70
     0
  0
ENDTAB
  0
TABLE
  2
DIMSTYLE
  5
1FC
330
0
100
AcDbSymbolTable
 70
     1
100
AcDbDimStyleTable
 71
     0
  0
DIMSTYLE
105
220
330
1FC
100
AcDbSymbolTableRecord
100
AcDbDimStyleTableRecord
  2
STANDARD
 70
     0
 41
3.0
 42
1.0
 43
10.0
 44
1.0
 73
     0
 74
     0
 77
     3
 78
     8
140
3.2
141
0.0
147
1.0
172
     1
173
     1
284
     8
285
     8
286
     8
340
203
  0
ENDTAB
  0
TABLE
  2
BLOCK_RECORD
  5
1F3
330
0
100
AcDbSymbolTable
 70
     0
  0
BLOCK_RECORD
  5
210
102
{ACAD_XDICTIONARY
360
3F1
102
}
330
1F3
100
AcDbSymbolTableRecord
100
AcDbBlockTableRecord
  2
*MODEL_SPACE
340
445
  0
BLOCK_RECORD
  5
20C
102
{ACAD_XDICTIONARY
360
3EF
102
}
330
1F3
100
AcDbSymbolTableRecord
100
AcDbBlockTableRecord
  2
*PAPER_SPACE
340
446
  0
ENDTAB
  0
ENDSEC
  0
SECTION
  2
BLOCKS
  0
BLOCK
  5
211
330
210
100
AcDbEntity
  8
0
100
AcDbBlockBegin
  2
*MODEL_SPACE
 70
     0
 10
0.0
 20
0.0
 30
0.0
  3
*MODEL_SPACE
  1

  0
ENDBLK
  5
212
330
210
100
AcDbEntity
  8
0
100
AcDbBlockEnd
  0
BLOCK
  5
20D
330
20C
100
AcDbEntity
 67
     1
  8
0
100
AcDbBlockBegin
  2
*PAPER_SPACE
 70
     0
 10
0.0
 20
0.0
 30
0.0
  3
*PAPER_SPACE
  1

  0
ENDBLK
  5
20E
330
20C
100
AcDbEntity
 67
     1
  8
0
100
AcDbBlockEnd
  0
ENDSEC
  0
SECTION
  2
ENTITIES
  0
TEXT
  5
228
330
210
100
AcDbEntity
  8
7
  6
Continuous
100
AcDbText
 10
10.0
 20
18.0
 30
0.0
 40
3.0
  1
TYPE No.TL-222
100
AcDbText
  0
TEXT
  5
229
330
210
100
AcDbEntity
  8
7
  6
Continuous
100
AcDbText
 10
10.0
 20
26.0
 30
0.0
 40
3.0
  1
CODE No.1538
100
AcDbText
  0
TEXT
  5
22A
330
210
100
AcDbEntity
  8
1
  6
Continuous
100
AcDbText
 10
10.0
 20
10.0
 30
0.0
 40
1.399999999999999
  1
LAYER
100
AcDbText
  0
TEXT
  5
22B
330
210
100
AcDbEntity
  8
1
  6
Continuous
100
AcDbText
 10
17.97951099999998
 20
10.04873699999998
 30
0.0
 40
1.399999999999999
  1
1
100
AcDbText
  0
TEXT
  5
22C
330
210
100
AcDbEntity
  8
7
  6
Continuous
100
AcDbText
 10
29.97951099999999
 20
10.04873699999998
 30
0.0
 40
1.399999999999999
  1
7
100
AcDbText
  0
TEXT
  5
22D
330
210
100
AcDbEntity
  8
4
  6
CENTER
100
AcDbText
 10
23.97951099999999
 20
10.04873699999998
 30
0.0
 40
1.399999999999999
  1
4
100
AcDbText
  0
TEXT
  5
22E
330
210
100
AcDbEntity
  8
3
  6
DASHED
100
AcDbText
 10
21.979511
 20
10.04873699999998
 30
0.0
 40
1.399999999999999
  1
3
100
AcDbText
  0
TEXT
  5
22F
330
210
100
AcDbEntity
  8
2
  6
Continuous
100
AcDbText
 10
19.97951099999999
 20
10.04873699999998
 30
0.0
 40
1.399999999999999
  1
2
100
AcDbText
  0
TEXT
  5
230
330
210
100
AcDbEntity
  8
6
  6
Continuous
100
AcDbText
 10
27.979511
 20
10.04873699999998
 30
0.0
 40
1.399999999999999
  1
6
100
AcDbText
  0
TEXT
  5
231
330
210
100
AcDbEntity
  8
5
  6
PHANTOM
100
AcDbText
 10
25.97951099999999
 20
10.04873699999998
 30
0.0
 40
1.399999999999999
  1
5
100
AcDbText
  0
LINE
  5
232
330
210
100
AcDbEntity
  8
1
  6
Continuous
100
AcDbLine
 10
84.85712799999998
 20
132.616297
 30
0.0
 11
91.85712800000001
 21
132.616297
 31
0.0
  0
LINE
  5
233
330
210
100
AcDbEntity
  8
1
  6
Continuous
100
AcDbLine
 10
94.657131
 20
145.616297
 30
0.0
 11
123.557125
 21
145.616297
 31
0.0
  0
LINE
  5
234
330
210
100
AcDbEntity
  8
4
  6
CENTER
100
AcDbLine
 10
109.1071279999999
 20
240.7163029999999
 30
0.0
 11
109.1071279999999
 21
215.216303
 31
0.0
  0
LINE
  5
235
330
210
100
AcDbEntity
  8
1
  6
Continuous
100
AcDbLine
 10
124.357128
 20
144.816294
 30
0.0
 11
124.357128
 21
135.6162969999998
 31
0.0
  0
LINE
  5
236
330
210
100
AcDbEntity
  8
1
  6
Continuous
100
AcDbLine
 10
93.857128
 20
144.816294
 30
0.0
 11
93.857128
 21
135.6162969999998
 31
0.0
  0
LINE
  5
237
330
210
100
AcDbEntity
  8
1
  6
Continuous
100
AcDbLine
 10
84.85712799999998
 20
133.4162999999997
 30
0.0
 11
91.85712800000001
 21
133.4162999999997
 31
0.0
  0
LINE
  5
238
330
210
100
AcDbEntity
  8
1
  6
Continuous
100
AcDbLine
 10
84.85712799999998
 20
133.4162999999997
 30
0.0
 11
84.85712799999998
 21
132.616297
 31
0.0
  0
LINE
  5
239
330
210
100
AcDbEntity
  8
1
  6
Continuous
100
AcDbLine
 10
133.3571279999999
 20
133.4162999999997
 30
0.0
 11
133.3571279999999
 21
132.616297
 31
0.0
  0
LINE
  5
23A
330
210
100
AcDbEntity
  8
1
  6
Continuous
100
AcDbLine
 10
126.357128
 20
132.616297
 30
0.0
 11
133.3571279999999
 21
132.616297
 31
0.0
  0
LINE
  5
23B
330
210
100
AcDbEntity
  8
1
  6
Continuous
100
AcDbLine
 10
93.857128
 20
135.6162969999998
 30
0.0
 11
124.357128
 21
135.6162969999998
 31
0.0
  0
LINE
  5
23C
330
210
100
AcDbEntity
  8
1
  6
Continuous
100
AcDbLine
 10
126.357128
 20
133.4162999999997
 30
0.0
 11
133.3571279999999
 21
133.4162999999997
 31
0.0
  0
LINE
  5
23D
330
210
100
AcDbEntity
  8
1
  6
Continuous
100
AcDbLine
 10
93.857128
 20
134.8162939999999
 30
0.0
 11
124.357128
 21
134.8162939999999
 31
0.0
  0
LINE
  5
23E
330
210
100
AcDbEntity
  8
1
  6
Continuous
100
AcDbLine
 10
91.85712800000001
 20
233.2163029999999
 30
0.0
 11
91.85712800000001
 21
221.2163029999999
 31
0.0
  0
LINE
  5
23F
330
210
100
AcDbEntity
  8
1
  6
Continuous
100
AcDbLine
 10
126.357128
 20
233.2163029999999
 30
0.0
 11
126.357128
 21
221.2163029999999
 31
0.0
  0
LINE
  5
240
330
210
100
AcDbEntity
  8
1
  6
Continuous
100
AcDbLine
 10
91.85712800000001
 20
133.4162999999997
 30
0.0
 11
93.20892699999999
 21
135.285166
 31
0.0
  0
LINE
  5
241
330
210
100
AcDbEntity
  8
1
  6
Continuous
100
AcDbLine
 10
93.857128
 20
134.8163089999999
 30
0.0
 11
92.50532900000001
 21
132.947428
 31
0.0
  0
LINE
  5
242
330
210
100
AcDbEntity
  8
1
  6
Continuous
100
AcDbLine
 10
124.357128
 20
134.8162939999999
 30
0.0
 11
125.708919
 21
132.9474429999999
 31
0.0
  0
LINE
  5
243
330
210
100
AcDbEntity
  8
1
  6
Continuous
100
AcDbLine
 10
126.3571129999998
 20
133.416285
 30
0.0
 11
125.0053209999999
 21
135.285151
 31
0.0
  0
LINE
  5
244
330
210
100
AcDbEntity
  8
1
  6
Continuous
100
AcDbLine
 10
94.657131
 20
134.0162909999999
 30
0.0
 11
97.857128
 21
134.0162909999999
 31
0.0
  0
LINE
  5
245
330
210
100
AcDbEntity
  8
1
  6
Continuous
100
AcDbLine
 10
97.857128
 20
134.8162939999999
 30
0.0
 11
97.857128
 21
134.0162909999999
 31
0.0
  0
LINE
  5
246
330
210
100
AcDbEntity
  8
1
  6
Continuous
100
AcDbLine
 10
120.357128
 20
134.8162939999999
 30
0.0
 11
120.357128
 21
134.0162909999999
 31
0.0
  0
LINE
  5
247
330
210
100
AcDbEntity
  8
1
  6
Continuous
100
AcDbLine
 10
120.357128
 20
134.0162909999999
 30
0.0
 11
123.557125
 21
134.0162909999999
 31
0.0
  0
LINE
  5
248
330
210
100
AcDbEntity
  8
1
  6
Continuous
100
AcDbLine
 10
94.657131
 20
144.816294
 30
0.0
 11
123.557125
 21
144.816294
 31
0.0
  0
LINE
  5
249
330
210
100
AcDbEntity
  8
1
  6
Continuous
100
AcDbLine
 10
94.657131
 20
144.816294
 30
0.0
 11
94.657131
 21
135.6162969999998
 31
0.0
  0
LINE
  5
24A
330
210
100
AcDbEntity
  8
1
  6
Continuous
100
AcDbLine
 10
123.557125
 20
144.816294
 30
0.0
 11
123.557125
 21
135.6162969999998
 31
0.0
  0
LINE
  5
24B
330
210
100
AcDbEntity
  8
4
  6
CENTER
100
AcDbLine
 10
97.50713000000001
 20
149.216303
 30
0.0
 11
97.50713000000001
 21
132.016291
 31
0.0
  0
LINE
  5
24C
330
210
100
AcDbEntity
  8
4
  6
CENTER
100
AcDbLine
 10
193.9071309999999
 20
149.216303
 30
0.0
 11
193.9071309999999
 21
132.016291
 31
0.0
  0
LINE
  5
24D
330
210
100
AcDbEntity
  8
1
  6
Continuous
100
AcDbLine
 10
100.607128
 20
144.516291
 30
0.0
 11
100.607128
 21
140.716303
 31
0.0
  0
LINE
  5
24E
330
210
100
AcDbEntity
  8
1
  6
Continuous
100
AcDbLine
 10
117.607128
 20
144.516291
 30
0.0
 11
117.607128
 21
140.716303
 31
0.0
  0
LINE
  5
24F
330
210
100
AcDbEntity
  8
4
  6
CENTER
100
AcDbLine
 10
88.857128
 20
140.216303
 30
0.0
 11
129.3571279999998
 21
140.216303
 31
0.0
  0
LINE
  5
250
330
210
100
AcDbEntity
  8
1
  6
Continuous
100
AcDbLine
 10
100.607128
 20
144.516291
 30
0.0
 11
117.607128
 21
144.516291
 31
0.0
  0
LINE
  5
251
330
210
100
AcDbEntity
  8
1
  6
Continuous
100
AcDbLine
 10
100.607128
 20
135.9163
 30
0.0
 11
117.607128
 21
135.9163
 31
0.0
  0
LINE
  5
252
330
210
100
AcDbEntity
  8
1
  6
Continuous
100
AcDbLine
 10
100.607128
 20
140.716303
 30
0.0
 11
117.607128
 21
140.716303
 31
0.0
  0
LINE
  5
253
330
210
100
AcDbEntity
  8
1
  6
Continuous
100
AcDbLine
 10
100.607128
 20
139.716303
 30
0.0
 11
117.607128
 21
139.716303
 31
0.0
  0
LINE
  5
254
330
210
100
AcDbEntity
  8
1
  6
Continuous
100
AcDbLine
 10
109.1071279999999
 20
144.516291
 30
0.0
 11
109.1071279999999
 21
135.9163
 31
0.0
  0
LINE
  5
255
330
210
100
AcDbEntity
  8
1
  6
Continuous
100
AcDbLine
 10
100.607128
 20
139.716303
 30
0.0
 11
100.607128
 21
135.9163
 31
0.0
  0
LINE
  5
256
330
210
100
AcDbEntity
  8
1
  6
Continuous
100
AcDbLine
 10
117.607128
 20
139.716303
 30
0.0
 11
117.607128
 21
135.9163
 31
0.0
  0
LINE
  5
257
330
210
100
AcDbEntity
  8
4
  6
CENTER
100
AcDbLine
 10
113.3571279999999
 20
149.616297
 30
0.0
 11
113.3571279999999
 21
130.816294
 31
0.0
  0
LINE
  5
258
330
210
100
AcDbEntity
  8
4
  6
CENTER
100
AcDbLine
 10
104.8571279999999
 20
149.616297
 30
0.0
 11
104.8571279999999
 21
130.816294
 31
0.0
  0
LINE
  5
259
330
210
100
AcDbEntity
  8
1
  6
Continuous
100
AcDbLine
 10
110.3071249999999
 20
140.716303
 30
0.0
 11
110.3071249999999
 21
139.716303
 31
0.0
  0
LINE
  5
25A
330
210
100
AcDbEntity
  8
1
  6
Continuous
100
AcDbLine
 10
107.907131
 20
140.716303
 30
0.0
 11
107.907131
 21
139.716303
 31
0.0
  0
LINE
  5
25B
330
210
100
AcDbEntity
  8
1
  6
Continuous
100
AcDbLine
 10
103.2571219999999
 20
147.616297
 30
0.0
 11
106.457134
 21
147.616297
 31
0.0
  0
LINE
  5
25C
330
210
100
AcDbEntity
  8
1
  6
Continuous
100
AcDbLine
 10
106.457134
 20
147.616297
 30
0.0
 11
106.457134
 21
145.616297
 31
0.0
  0
LINE
  5
25D
330
210
100
AcDbEntity
  8
1
  6
Continuous
100
AcDbLine
 10
103.2571219999999
 20
147.616297
 30
0.0
 11
103.2571219999999
 21
145.616297
 31
0.0
  0
LINE
  5
25E
330
210
100
AcDbEntity
  8
1
  6
Continuous
100
AcDbLine
 10
185.757122
 20
146.816294
 30
0.0
 11
185.757122
 21
145.616297
 31
0.0
  0
LINE
  5
25F
330
210
100
AcDbEntity
  8
1
  6
Continuous
100
AcDbLine
 10
188.9571339999999
 20
146.816294
 30
0.0
 11
188.9571339999999
 21
145.616297
 31
0.0
  0
LINE
  5
260
330
210
100
AcDbEntity
  8
1
  6
Continuous
100
AcDbLine
 10
186.557125
 20
147.616297
 30
0.0
 11
188.1571309999999
 21
147.616297
 31
0.0
  0
LINE
  5
261
330
210
100
AcDbEntity
  8
1
  6
Continuous
100
AcDbLine
 10
103.2571219999999
 20
132.816294
 30
0.0
 11
103.2571219999999
 21
134.8162939999999
 31
0.0
  0
LINE
  5
262
330
210
100
AcDbEntity
  8
1
  6
Continuous
100
AcDbLine
 10
103.2571219999999
 20
132.816294
 30
0.0
 11
106.457134
 21
132.816294
 31
0.0
  0
LINE
  5
263
330
210
100
AcDbEntity
  8
1
  6
Continuous
100
AcDbLine
 10
106.457134
 20
132.816294
 30
0.0
 11
106.457134
 21
134.8162939999999
 31
0.0
  0
LINE
  5
264
330
210
100
AcDbEntity
  8
1
  6
Continuous
100
AcDbLine
 10
111.757122
 20
132.816294
 30
0.0
 11
111.757122
 21
134.8162939999999
 31
0.0
  0
LINE
  5
265
330
210
100
AcDbEntity
  8
1
  6
Continuous
100
AcDbLine
 10
111.757122
 20
132.816294
 30
0.0
 11
114.957134
 21
132.816294
 31
0.0
  0
LINE
  5
266
330
210
100
AcDbEntity
  8
1
  6
Continuous
100
AcDbLine
 10
114.957134
 20
132.816294
 30
0.0
 11
114.957134
 21
134.8162939999999
 31
0.0
  0
LINE
  5
267
330
210
100
AcDbEntity
  8
1
  6
Continuous
100
AcDbLine
 10
103.2571219999999
 20
144.816294
 30
0.0
 11
103.2571219999999
 21
144.516291
 31
0.0
  0
LINE
  5
268
330
210
100
AcDbEntity
  8
1
  6
Continuous
100
AcDbLine
 10
106.457134
 20
144.816294
 30
0.0
 11
106.457134
 21
144.516291
 31
0.0
  0
LINE
  5
269
330
210
100
AcDbEntity
  8
1
  6
Continuous
100
AcDbLine
 10
111.757122
 20
144.816294
 30
0.0
 11
111.757122
 21
144.516291
 31
0.0
  0
LINE
  5
26A
330
210
100
AcDbEntity
  8
1
  6
Continuous
100
AcDbLine
 10
114.957134
 20
144.816294
 30
0.0
 11
114.957134
 21
144.516291
 31
0.0
  0
LINE
  5
26B
330
210
100
AcDbEntity
  8
1
  6
Continuous
100
AcDbLine
 10
103.2571219999999
 20
135.9163
 30
0.0
 11
103.2571219999999
 21
135.6162969999998
 31
0.0
  0
LINE
  5
26C
330
210
100
AcDbEntity
  8
1
  6
Continuous
100
AcDbLine
 10
106.457134
 20
135.9163
 30
0.0
 11
106.457134
 21
135.6162969999998
 31
0.0
  0
LINE
  5
26D
330
210
100
AcDbEntity
  8
1
  6
Continuous
100
AcDbLine
 10
111.757122
 20
135.9163
 30
0.0
 11
111.757122
 21
135.6162969999998
 31
0.0
  0
LINE
  5
26E
330
210
100
AcDbEntity
  8
1
  6
Continuous
100
AcDbLine
 10
114.957134
 20
135.9163
 30
0.0
 11
114.957134
 21
135.6162969999998
 31
0.0
  0
LINE
  5
26F
330
210
100
AcDbEntity
  8
1
  6
Continuous
100
AcDbLine
 10
84.85712799999998
 20
234.7163029999999
 30
0.0
 11
84.85712799999998
 21
220.2163029999999
 31
0.0
  0
LINE
  5
270
330
210
100
AcDbEntity
  8
1
  6
Continuous
100
AcDbLine
 10
133.3571279999999
 20
234.7163029999999
 30
0.0
 11
133.3571279999999
 21
220.2163029999999
 31
0.0
  0
LINE
  5
271
330
210
100
AcDbEntity
  8
1
  6
Continuous
100
AcDbLine
 10
84.85712799999998
 20
220.2163029999999
 30
0.0
 11
133.3571279999999
 21
220.2163029999999
 31
0.0
  0
LINE
  5
272
330
210
100
AcDbEntity
  8
1
  6
Continuous
100
AcDbLine
 10
93.857128
 20
235.7163029999999
 30
0.0
 11
124.357128
 21
235.7163029999999
 31
0.0
  0
LINE
  5
273
330
210
100
AcDbEntity
  8
1
  6
Continuous
100
AcDbLine
 10
93.857128
 20
235.7163029999999
 30
0.0
 11
93.857128
 21
220.2163029999999
 31
0.0
  0
LINE
  5
274
330
210
100
AcDbEntity
  8
1
  6
Continuous
100
AcDbLine
 10
124.357128
 20
235.7163029999999
 30
0.0
 11
124.357128
 21
220.2163029999999
 31
0.0
  0
LINE
  5
275
330
210
100
AcDbEntity
  8
1
  6
Continuous
100
AcDbLine
 10
94.85712799999999
 20
235.7163029999999
 30
0.0
 11
94.85712799999999
 21
234.7163029999999
 31
0.0
  0
LINE
  5
276
330
210
100
AcDbEntity
  8
1
  6
Continuous
100
AcDbLine
 10
123.357128
 20
235.7163029999999
 30
0.0
 11
123.357128
 21
234.7163029999999
 31
0.0
  0
LINE
  5
277
330
210
100
AcDbEntity
  8
1
  6
Continuous
100
AcDbLine
 10
124.8571279999999
 20
225.2163029999999
 30
0.0
 11
124.8571279999999
 21
222.2163029999999
 31
0.0
  0
LINE
  5
278
330
210
100
AcDbEntity
  8
1
  6
Continuous
100
AcDbLine
 10
93.35712800000001
 20
225.2163029999999
 30
0.0
 11
93.35712800000001
 21
222.2163029999999
 31
0.0
  0
LINE
  5
279
330
210
100
AcDbEntity
  8
1
  6
Continuous
100
AcDbLine
 10
93.35712800000001
 20
222.2163029999999
 30
0.0
 11
93.857128
 21
222.2163029999999
 31
0.0
  0
LINE
  5
27A
330
210
100
AcDbEntity
  8
1
  6
Continuous
100
AcDbLine
 10
93.35712800000001
 20
225.2163029999999
 30
0.0
 11
93.857128
 21
225.2163029999999
 31
0.0
  0
LINE
  5
27B
330
210
100
AcDbEntity
  8
1
  6
Continuous
100
AcDbLine
 10
124.357128
 20
225.2163029999999
 30
0.0
 11
124.8571279999999
 21
225.2163029999999
 31
0.0
  0
LINE
  5
27C
330
210
100
AcDbEntity
  8
1
  6
Continuous
100
AcDbLine
 10
124.357128
 20
222.2163029999999
 30
0.0
 11
124.8571279999999
 21
222.2163029999999
 31
0.0
  0
LINE
  5
27D
330
210
100
AcDbEntity
  8
4
  6
CENTER
100
AcDbLine
 10
97.30712500000002
 20
223.4663029999999
 30
0.0
 11
120.907131
 21
223.4663029999999
 31
0.0
  0
LINE
  5
27E
330
210
100
AcDbEntity
  8
1
  6
Continuous
100
AcDbLine
 10
112.857128
 20
225.2163029999999
 30
0.0
 11
117.157131
 21
225.2163029999999
 31
0.0
  0
LINE
  5
27F
330
210
100
AcDbEntity
  8
1
  6
Continuous
100
AcDbLine
 10
112.857128
 20
221.716303
 30
0.0
 11
117.157131
 21
221.716303
 31
0.0
  0
LINE
  5
280
330
210
100
AcDbEntity
  8
1
  6
Continuous
100
AcDbLine
 10
101.0571249999999
 20
225.2163029999999
 30
0.0
 11
105.357128
 21
225.2163029999999
 31
0.0
  0
LINE
  5
281
330
210
100
AcDbEntity
  8
1
  6
Continuous
100
AcDbLine
 10
101.0571249999999
 20
221.716303
 30
0.0
 11
105.357128
 21
221.716303
 31
0.0
  0
LINE
  5
282
330
210
100
AcDbEntity
  8
1
  6
Continuous
100
AcDbLine
 10
84.85712799999998
 20
234.7163029999999
 30
0.0
 11
94.85712799999999
 21
234.7163029999999
 31
0.0
  0
LINE
  5
283
330
210
100
AcDbEntity
  8
1
  6
Continuous
100
AcDbLine
 10
123.357128
 20
234.7163029999999
 30
0.0
 11
133.3571279999999
 21
234.7163029999999
 31
0.0
  0
LINE
  5
284
330
210
100
AcDbEntity
  8
4
  6
CENTER
100
AcDbLine
 10
124.607128
 20
230.016306
 30
0.0
 11
116.807125
 21
230.016306
 31
0.0
  0
LINE
  5
285
330
210
100
AcDbEntity
  8
4
  6
CENTER
100
AcDbLine
 10
120.707134
 20
233.916285
 30
0.0
 11
120.707134
 21
226.116297
 31
0.0
  0
LINE
  5
286
330
210
100
AcDbEntity
  8
4
  6
CENTER
100
AcDbLine
 10
113.3571279999999
 20
227.066294
 30
0.0
 11
113.3571279999999
 21
219.866297
 31
0.0
  0
LINE
  5
287
330
210
100
AcDbEntity
  8
4
  6
CENTER
100
AcDbLine
 10
104.8571279999999
 20
227.066294
 30
0.0
 11
104.8571279999999
 21
219.866297
 31
0.0
  0
LINE
  5
288
330
210
100
AcDbEntity
  8
4
  6
CENTER
100
AcDbLine
 10
101.0571249999999
 20
227.2163029999999
 30
0.0
 11
101.0571249999999
 21
219.716303
 31
0.0
  0
LINE
  5
289
330
210
100
AcDbEntity
  8
4
  6
CENTER
100
AcDbLine
 10
117.157131
 20
227.2163029999999
 30
0.0
 11
117.157131
 21
219.716303
 31
0.0
  0
LINE
  5
28A
330
210
100
AcDbEntity
  8
4
  6
CENTER
100
AcDbLine
 10
97.50713000000001
 20
233.916285
 30
0.0
 11
97.50713000000001
 21
226.116297
 31
0.0
  0
LINE
  5
28B
330
210
100
AcDbEntity
  8
4
  6
CENTER
100
AcDbLine
 10
93.60712799999999
 20
230.016306
 30
0.0
 11
101.407131
 21
230.016306
 31
0.0
  0
LINE
  5
28C
330
210
100
AcDbEntity
  8
4
  6
CENTER
100
AcDbLine
 10
109.1071279999999
 20
150.616297
 30
0.0
 11
109.1071279999999
 21
129.816294
 31
0.0
  0
LINE
  5
28D
330
210
100
AcDbEntity
  8
4
  6
CENTER
100
AcDbLine
 10
88.60712799999998
 20
135.4163
 30
0.0
 11
88.60712799999998
 21
130.616297
 31
0.0
  0
LINE
  5
28E
330
210
100
AcDbEntity
  8
4
  6
CENTER
100
AcDbLine
 10
129.6071279999999
 20
135.4163
 30
0.0
 11
129.6071279999999
 21
130.616297
 31
0.0
  0
LINE
  5
28F
330
210
100
AcDbEntity
  8
1
  6
Continuous
100
AcDbLine
 10
184.1071279999999
 20
145.616297
 30
0.0
 11
198.8071279999998
 21
145.616297
 31
0.0
  0
LINE
  5
290
330
210
100
AcDbEntity
  8
1
  6
Continuous
100
AcDbLine
 10
184.1071279999999
 20
132.616297
 30
0.0
 11
198.6071279999999
 21
132.616297
 31
0.0
  0
LINE
  5
291
330
210
100
AcDbEntity
  8
1
  6
Continuous
100
AcDbLine
 10
184.1071279999999
 20
145.616297
 30
0.0
 11
184.1071279999999
 21
132.616297
 31
0.0
  0
LINE
  5
292
330
210
100
AcDbEntity
  8
1
  6
Continuous
100
AcDbLine
 10
199.6071279999999
 20
144.816297
 30
0.0
 11
199.6071279999999
 21
135.6162939999999
 31
0.0
  0
LINE
  5
293
330
210
100
AcDbEntity
  8
1
  6
Continuous
100
AcDbLine
 10
198.6071279999999
 20
145.616297
 30
0.0
 11
198.6071279999999
 21
132.616297
 31
0.0
  0
LINE
  5
294
330
210
100
AcDbEntity
  8
1
  6
Continuous
100
AcDbLine
 10
198.6071279999999
 20
134.8162939999999
 30
0.0
 11
198.8071279999998
 21
134.8162939999999
 31
0.0
  0
LINE
  5
295
330
210
100
AcDbEntity
  8
1
  6
Continuous
100
AcDbLine
 10
184.1071279999999
 20
133.4162999999997
 30
0.0
 11
198.6071279999999
 21
133.4162999999997
 31
0.0
  0
LINE
  5
296
330
210
100
AcDbEntity
  8
1
  6
Continuous
100
AcDbLine
 10
184.1071279999999
 20
135.6162969999998
 30
0.0
 11
198.6071279999999
 21
135.6162969999998
 31
0.0
  0
LINE
  5
297
330
210
100
AcDbEntity
  8
1
  6
Continuous
100
AcDbLine
 10
186.1071279999999
 20
135.6162969999998
 30
0.0
 11
186.1071279999999
 21
135.4407909999999
 31
0.0
  0
LINE
  5
298
330
210
100
AcDbEntity
  8
1
  6
Continuous
100
AcDbLine
 10
189.107128
 20
135.6162969999998
 30
0.0
 11
189.107128
 21
135.4407909999999
 31
0.0
  0
LINE
  5
299
330
210
100
AcDbEntity
  8
1
  6
Continuous
100
AcDbLine
 10
186.1071279999999
 20
135.4407909999999
 30
0.0
 11
189.107128
 21
135.4407909999999
 31
0.0
  0
LINE
  5
29A
330
210
100
AcDbEntity
  8
1
  6
Continuous
100
AcDbLine
 10
84.85712799999998
 20
50.216296
 30
0.0
 11
84.85712799999998
 21
35.716296
 31
0.0
  0
LINE
  5
29B
330
210
100
AcDbEntity
  8
1
  6
Continuous
100
AcDbLine
 10
133.3571279999999
 20
50.216296
 30
0.0
 11
133.3571279999999
 21
35.716296
 31
0.0
  0
LINE
  5
29C
330
210
100
AcDbEntity
  8
1
  6
Continuous
100
AcDbLine
 10
84.85712799999998
 20
35.716296
 30
0.0
 11
93.857128
 21
35.716296
 31
0.0
  0
LINE
  5
29D
330
210
100
AcDbEntity
  8
1
  6
Continuous
100
AcDbLine
 10
84.85712799999998
 20
50.216296
 30
0.0
 11
133.3571279999999
 21
50.216296
 31
0.0
  0
LINE
  5
29E
330
210
100
AcDbEntity
  8
1
  6
Continuous
100
AcDbLine
 10
93.857128
 20
34.71629599999999
 30
0.0
 11
124.357128
 21
34.71629599999999
 31
0.0
  0
LINE
  5
29F
330
210
100
AcDbEntity
  8
1
  6
Continuous
100
AcDbLine
 10
93.857128
 20
45.21629599999999
 30
0.0
 11
93.857128
 21
34.71629599999999
 31
0.0
  0
LINE
  5
2A0
330
210
100
AcDbEntity
  8
1
  6
Continuous
100
AcDbLine
 10
124.357128
 20
45.21629599999999
 30
0.0
 11
124.357128
 21
34.71629599999999
 31
0.0
  0
LINE
  5
2A1
330
210
100
AcDbEntity
  8
1
  6
Continuous
100
AcDbLine
 10
124.8571279999999
 20
48.216296
 30
0.0
 11
124.8571279999999
 21
45.21629599999999
 31
0.0
  0
LINE
  5
2A2
330
210
100
AcDbEntity
  8
1
  6
Continuous
100
AcDbLine
 10
93.35712800000001
 20
48.216296
 30
0.0
 11
93.35712800000001
 21
45.21629599999999
 31
0.0
  0
LINE
  5
2A3
330
210
100
AcDbEntity
  8
1
  6
Continuous
100
AcDbLine
 10
93.35712800000001
 20
48.216296
 30
0.0
 11
97.857128
 21
46.716296
 31
0.0
  0
LINE
  5
2A4
330
210
100
AcDbEntity
  8
1
  6
Continuous
100
AcDbLine
 10
120.357128
 20
46.716296
 30
0.0
 11
124.8571279999999
 21
48.216296
 31
0.0
  0
LINE
  5
2A5
330
210
100
AcDbEntity
  8
1
  6
Continuous
100
AcDbLine
 10
120.357128
 20
45.21629599999999
 30
0.0
 11
124.8571279999999
 21
45.21629599999999
 31
0.0
  0
LINE
  5
2A6
330
210
100
AcDbEntity
  8
1
  6
Continuous
100
AcDbLine
 10
93.35712800000001
 20
45.21629599999999
 30
0.0
 11
97.857128
 21
45.21629599999999
 31
0.0
  0
LINE
  5
2A7
330
210
100
AcDbEntity
  8
1
  6
Continuous
100
AcDbLine
 10
97.857128
 20
46.716296
 30
0.0
 11
97.857128
 21
45.21629599999999
 31
0.0
  0
LINE
  5
2A8
330
210
100
AcDbEntity
  8
1
  6
Continuous
100
AcDbLine
 10
120.357128
 20
46.716296
 30
0.0
 11
120.357128
 21
45.21629599999999
 31
0.0
  0
LINE
  5
2A9
330
210
100
AcDbEntity
  8
1
  6
Continuous
100
AcDbLine
 10
93.857128
 20
50.216296
 30
0.0
 11
93.857128
 21
48.216296
 31
0.0
  0
LINE
  5
2AA
330
210
100
AcDbEntity
  8
1
  6
Continuous
100
AcDbLine
 10
124.357128
 20
50.216296
 30
0.0
 11
124.357128
 21
48.216296
 31
0.0
  0
LINE
  5
2AB
330
210
100
AcDbEntity
  8
1
  6
Continuous
100
AcDbLine
 10
92.65713100000001
 20
49.216296
 30
0.0
 11
92.65713100000001
 21
36.716296
 31
0.0
  0
LINE
  5
2AC
330
210
100
AcDbEntity
  8
1
  6
Continuous
100
AcDbLine
 10
125.557125
 20
49.216296
 30
0.0
 11
125.557125
 21
36.716296
 31
0.0
  0
LINE
  5
2AD
330
210
100
AcDbEntity
  8
4
  6
CENTER
100
AcDbLine
 10
109.1071279999999
 20
55.216296
 30
0.0
 11
109.1071279999999
 21
29.716296
 31
0.0
  0
LINE
  5
2AE
330
210
100
AcDbEntity
  8
1
  6
Continuous
100
AcDbLine
 10
293.3571279999998
 20
132.616297
 30
0.0
 11
286.357128
 21
132.616297
 31
0.0
  0
LINE
  5
2AF
330
210
100
AcDbEntity
  8
1
  6
Continuous
100
AcDbLine
 10
283.55714
 20
145.616297
 30
0.0
 11
254.657116
 21
145.616297
 31
0.0
  0
LINE
  5
2B0
330
210
100
AcDbEntity
  8
1
  6
Continuous
100
AcDbLine
 10
253.8571279999999
 20
144.816294
 30
0.0
 11
253.8571279999999
 21
134.8162939999999
 31
0.0
  0
LINE
  5
2B1
330
210
100
AcDbEntity
  8
1
  6
Continuous
100
AcDbLine
 10
284.3571279999998
 20
144.816294
 30
0.0
 11
284.3571279999998
 21
134.8162939999999
 31
0.0
  0
LINE
  5
2B2
330
210
100
AcDbEntity
  8
1
  6
Continuous
100
AcDbLine
 10
293.3571279999998
 20
133.4162999999997
 30
0.0
 11
286.357128
 21
133.4162999999997
 31
0.0
  0
LINE
  5
2B3
330
210
100
AcDbEntity
  8
1
  6
Continuous
100
AcDbLine
 10
293.3571279999998
 20
133.4162999999997
 30
0.0
 11
293.3571279999998
 21
132.616297
 31
0.0
  0
LINE
  5
2B4
330
210
100
AcDbEntity
  8
1
  6
Continuous
100
AcDbLine
 10
244.8571279999999
 20
133.4162999999997
 30
0.0
 11
244.8571279999999
 21
132.616297
 31
0.0
  0
LINE
  5
2B5
330
210
100
AcDbEntity
  8
1
  6
Continuous
100
AcDbLine
 10
251.8571279999999
 20
132.616297
 30
0.0
 11
244.8571279999999
 21
132.616297
 31
0.0
  0
LINE
  5
2B6
330
210
100
AcDbEntity
  8
1
  6
Continuous
100
AcDbLine
 10
251.8571279999999
 20
133.4162999999997
 30
0.0
 11
244.8571279999999
 21
133.4162999999997
 31
0.0
  0
LINE
  5
2B7
330
210
100
AcDbEntity
  8
1
  6
Continuous
100
AcDbLine
 10
284.3571279999998
 20
134.8162939999999
 30
0.0
 11
253.8571279999999
 21
134.8162939999999
 31
0.0
  0
LINE
  5
2B8
330
210
100
AcDbEntity
  8
1
  6
Continuous
100
AcDbLine
 10
286.357128
 20
133.416285
 30
0.0
 11
285.005321
 21
135.285151
 31
0.0
  0
LINE
  5
2B9
330
210
100
AcDbEntity
  8
1
  6
Continuous
100
AcDbLine
 10
284.3571279999998
 20
134.8162939999999
 30
0.0
 11
285.7089349999998
 21
132.947428
 31
0.0
  0
LINE
  5
2BA
330
210
100
AcDbEntity
  8
1
  6
Continuous
100
AcDbLine
 10
253.857098
 20
134.8162639999999
 30
0.0
 11
252.505291
 21
132.9473979999999
 31
0.0
  0
LINE
  5
2BB
330
210
100
AcDbEntity
  8
1
  6
Continuous
100
AcDbLine
 10
251.857098
 20
133.416254
 30
0.0
 11
253.2089039999999
 21
135.28512
 31
0.0
  0
LINE
  5
2BC
330
210
100
AcDbEntity
  8
1
  6
Continuous
100
AcDbLine
 10
283.55714
 20
134.0162909999999
 30
0.0
 11
280.3571279999998
 21
134.0162909999999
 31
0.0
  0
LINE
  5
2BD
330
210
100
AcDbEntity
  8
1
  6
Continuous
100
AcDbLine
 10
280.3571279999998
 20
134.8162939999999
 30
0.0
 11
280.3571279999998
 21
134.0162909999999
 31
0.0
  0
LINE
  5
2BE
330
210
100
AcDbEntity
  8
1
  6
Continuous
100
AcDbLine
 10
257.8571279999998
 20
134.8162939999999
 30
0.0
 11
257.8571279999998
 21
134.0162909999999
 31
0.0
  0
LINE
  5
2BF
330
210
100
AcDbEntity
  8
1
  6
Continuous
100
AcDbLine
 10
257.8571279999998
 20
134.0162909999999
 30
0.0
 11
254.657116
 21
134.0162909999999
 31
0.0
  0
LINE
  5
2C0
330
210
100
AcDbEntity
  8
4
  6
CENTER
100
AcDbLine
 10
280.7071339999998
 20
149.216303
 30
0.0
 11
280.7071339999998
 21
132.016291
 31
0.0
  0
LINE
  5
2C1
330
210
100
AcDbEntity
  8
4
  6
CENTER
100
AcDbLine
 10
257.5071219999999
 20
149.216303
 30
0.0
 11
257.5071219999999
 21
132.016291
 31
0.0
  0
LINE
  5
2C2
330
210
100
AcDbEntity
  8
4
  6
CENTER
100
AcDbLine
 10
289.3571279999998
 20
140.216303
 30
0.0
 11
248.8571279999999
 21
140.216303
 31
0.0
  0
LINE
  5
2C3
330
210
100
AcDbEntity
  8
4
  6
CENTER
100
AcDbLine
 10
264.857128
 20
149.616297
 30
0.0
 11
264.857128
 21
130.816294
 31
0.0
  0
LINE
  5
2C4
330
210
100
AcDbEntity
  8
4
  6
CENTER
100
AcDbLine
 10
273.357128
 20
149.616297
 30
0.0
 11
273.357128
 21
130.816294
 31
0.0
  0
LINE
  5
2C5
330
210
100
AcDbEntity
  8
1
  6
Continuous
100
AcDbLine
 10
274.957134
 20
147.616297
 30
0.0
 11
271.7571219999999
 21
147.616297
 31
0.0
  0
LINE
  5
2C6
330
210
100
AcDbEntity
  8
1
  6
Continuous
100
AcDbLine
 10
271.7571219999999
 20
147.616297
 30
0.0
 11
271.7571219999999
 21
145.616297
 31
0.0
  0
LINE
  5
2C7
330
210
100
AcDbEntity
  8
1
  6
Continuous
100
AcDbLine
 10
274.957134
 20
147.616297
 30
0.0
 11
274.957134
 21
145.616297
 31
0.0
  0
LINE
  5
2C8
330
210
100
AcDbEntity
  8
1
  6
Continuous
100
AcDbLine
 10
266.457134
 20
147.616297
 30
0.0
 11
266.457134
 21
145.616297
 31
0.0
  0
LINE
  5
2C9
330
210
100
AcDbEntity
  8
1
  6
Continuous
100
AcDbLine
 10
263.2571219999999
 20
147.616297
 30
0.0
 11
263.2571219999999
 21
145.616297
 31
0.0
  0
LINE
  5
2CA
330
210
100
AcDbEntity
  8
1
  6
Continuous
100
AcDbLine
 10
266.457134
 20
147.616297
 30
0.0
 11
263.2571219999999
 21
147.616297
 31
0.0
  0
LINE
  5
2CB
330
210
100
AcDbEntity
  8
1
  6
Continuous
100
AcDbLine
 10
274.957134
 20
132.816294
 30
0.0
 11
274.957134
 21
134.8162939999999
 31
0.0
  0
LINE
  5
2CC
330
210
100
AcDbEntity
  8
1
  6
Continuous
100
AcDbLine
 10
274.957134
 20
132.816294
 30
0.0
 11
271.7571219999999
 21
132.816294
 31
0.0
  0
LINE
  5
2CD
330
210
100
AcDbEntity
  8
1
  6
Continuous
100
AcDbLine
 10
271.7571219999999
 20
132.816294
 30
0.0
 11
271.7571219999999
 21
134.8162939999999
 31
0.0
  0
LINE
  5
2CE
330
210
100
AcDbEntity
  8
1
  6
Continuous
100
AcDbLine
 10
266.457134
 20
132.816294
 30
0.0
 11
266.457134
 21
134.8162939999999
 31
0.0
  0
LINE
  5
2CF
330
210
100
AcDbEntity
  8
1
  6
Continuous
100
AcDbLine
 10
266.457134
 20
132.816294
 30
0.0
 11
263.2571219999999
 21
132.816294
 31
0.0
  0
LINE
  5
2D0
330
210
100
AcDbEntity
  8
1
  6
Continuous
100
AcDbLine
 10
263.2571219999999
 20
132.816294
 30
0.0
 11
263.2571219999999
 21
134.8162939999999
 31
0.0
  0
LINE
  5
2D1
330
210
100
AcDbEntity
  8
4
  6
CENTER
100
AcDbLine
 10
289.607128
 20
135.4163
 30
0.0
 11
289.607128
 21
130.616297
 31
0.0
  0
LINE
  5
2D2
330
210
100
AcDbEntity
  8
4
  6
CENTER
100
AcDbLine
 10
248.6071279999999
 20
135.4163
 30
0.0
 11
248.6071279999999
 21
130.616297
 31
0.0
  0
LINE
  5
2D3
330
210
100
AcDbEntity
  8
4
  6
CENTER
100
AcDbLine
 10
269.107128
 20
150.616297
 30
0.0
 11
269.107128
 21
129.816294
 31
0.0
  0
LINE
  5
2D4
330
210
100
AcDbEntity
  8
4
  6
CENTER
100
AcDbLine
 10
179.1071279999999
 20
140.216303
 30
0.0
 11
204.607128
 21
140.216303
 31
0.0
  0
LINE
  5
2D5
330
210
100
AcDbEntity
  8
4
  6
CENTER
100
AcDbLine
 10
187.3571279999999
 20
149.616297
 30
0.0
 11
187.3571279999999
 21
130.816294
 31
0.0
  0
LINE
  5
2D6
330
210
100
AcDbEntity
  8
1
  6
Continuous
100
AcDbLine
 10
111.757122
 20
147.616297
 30
0.0
 11
111.757122
 21
145.616297
 31
0.0
  0
LINE
  5
2D7
330
210
100
AcDbEntity
  8
1
  6
Continuous
100
AcDbLine
 10
111.757122
 20
147.616297
 30
0.0
 11
114.957134
 21
147.616297
 31
0.0
  0
LINE
  5
2D8
330
210
100
AcDbEntity
  8
1
  6
Continuous
100
AcDbLine
 10
114.957134
 20
147.616297
 30
0.0
 11
114.957134
 21
145.616297
 31
0.0
  0
LINE
  5
2D9
330
210
100
AcDbEntity
  8
4
  6
CENTER
100
AcDbLine
 10
120.707134
 20
149.216303
 30
0.0
 11
120.707134
 21
132.016291
 31
0.0
  0
LINE
  5
2DA
330
210
100
AcDbEntity
  8
4
  6
CENTER
100
AcDbLine
 10
191.1071279999999
 20
135.4163
 30
0.0
 11
191.1071279999999
 21
130.616297
 31
0.0
  0
LINE
  5
2DB
330
210
100
AcDbEntity
  8
4
  6
CENTER
100
AcDbLine
 10
129.6071279999999
 20
230.9663029999999
 30
0.0
 11
129.6071279999999
 21
223.4663029999999
 31
0.0
  0
LINE
  5
2DC
330
210
100
AcDbEntity
  8
4
  6
CENTER
100
AcDbLine
 10
125.8571279999999
 20
227.2163029999999
 30
0.0
 11
133.3571279999999
 21
227.2163029999999
 31
0.0
  0
LINE
  5
2DD
330
210
100
AcDbEntity
  8
4
  6
CENTER
100
AcDbLine
 10
88.60712799999998
 20
230.9663029999999
 30
0.0
 11
88.60712799999998
 21
223.4663029999999
 31
0.0
  0
LINE
  5
2DE
330
210
100
AcDbEntity
  8
4
  6
CENTER
100
AcDbLine
 10
84.85712799999998
 20
227.2163029999999
 30
0.0
 11
92.35712799999999
 21
227.2163029999999
 31
0.0
  0
LINE
  5
2DF
330
210
100
AcDbEntity
  8
4
  6
CENTER
100
AcDbLine
 10
129.6071279999999
 20
46.966296
 30
0.0
 11
129.6071279999999
 21
39.46629599999999
 31
0.0
  0
LINE
  5
2E0
330
210
100
AcDbEntity
  8
4
  6
CENTER
100
AcDbLine
 10
125.8571279999999
 20
43.216296
 30
0.0
 11
133.3571279999999
 21
43.216296
 31
0.0
  0
LINE
  5
2E1
330
210
100
AcDbEntity
  8
4
  6
CENTER
100
AcDbLine
 10
88.60712799999998
 20
46.966296
 30
0.0
 11
88.60712799999998
 21
39.46629599999999
 31
0.0
  0
LINE
  5
2E2
330
210
100
AcDbEntity
  8
4
  6
CENTER
100
AcDbLine
 10
84.85712799999998
 20
43.216296
 30
0.0
 11
92.35712799999999
 21
43.216296
 31
0.0
  0
LINE
  5
2E3
330
210
100
AcDbEntity
  8
4
  6
CENTER
100
AcDbLine
 10
24.307125
 20
149.216303
 30
0.0
 11
24.307125
 21
132.016291
 31
0.0
  0
LINE
  5
2E4
330
210
100
AcDbEntity
  8
1
  6
Continuous
100
AcDbLine
 10
32.457134
 20
146.816294
 30
0.0
 11
32.457134
 21
145.616297
 31
0.0
  0
LINE
  5
2E5
330
210
100
AcDbEntity
  8
1
  6
Continuous
100
AcDbLine
 10
29.25712199999999
 20
146.816294
 30
0.0
 11
29.25712199999999
 21
145.616297
 31
0.0
  0
LINE
  5
2E6
330
210
100
AcDbEntity
  8
1
  6
Continuous
100
AcDbLine
 10
31.657131
 20
147.616297
 30
0.0
 11
30.057125
 21
147.616297
 31
0.0
  0
LINE
  5
2E7
330
210
100
AcDbEntity
  8
1
  6
Continuous
100
AcDbLine
 10
34.10712800000001
 20
145.616297
 30
0.0
 11
19.407128
 21
145.616297
 31
0.0
  0
LINE
  5
2E8
330
210
100
AcDbEntity
  8
1
  6
Continuous
100
AcDbLine
 10
34.10712800000001
 20
132.616297
 30
0.0
 11
19.60712799999998
 21
132.616297
 31
0.0
  0
LINE
  5
2E9
330
210
100
AcDbEntity
  8
1
  6
Continuous
100
AcDbLine
 10
34.10712800000001
 20
145.616297
 30
0.0
 11
34.10712800000001
 21
132.616297
 31
0.0
  0
LINE
  5
2EA
330
210
100
AcDbEntity
  8
1
  6
Continuous
100
AcDbLine
 10
18.60712799999999
 20
144.816297
 30
0.0
 11
18.60712799999999
 21
135.6162939999999
 31
0.0
  0
LINE
  5
2EB
330
210
100
AcDbEntity
  8
1
  6
Continuous
100
AcDbLine
 10
19.60712799999998
 20
145.616297
 30
0.0
 11
19.60712799999998
 21
132.616297
 31
0.0
  0
LINE
  5
2EC
330
210
100
AcDbEntity
  8
1
  6
Continuous
100
AcDbLine
 10
19.60712799999998
 20
134.8162939999999
 30
0.0
 11
19.407128
 21
134.8162939999999
 31
0.0
  0
LINE
  5
2ED
330
210
100
AcDbEntity
  8
1
  6
Continuous
100
AcDbLine
 10
34.10712800000001
 20
133.4162999999997
 30
0.0
 11
19.60712799999998
 21
133.4162999999997
 31
0.0
  0
LINE
  5
2EE
330
210
100
AcDbEntity
  8
1
  6
Continuous
100
AcDbLine
 10
34.10712800000001
 20
135.6162969999998
 30
0.0
 11
19.60712799999998
 21
135.6162969999998
 31
0.0
  0
LINE
  5
2EF
330
210
100
AcDbEntity
  8
1
  6
Continuous
100
AcDbLine
 10
32.107128
 20
135.6162969999998
 30
0.0
 11
32.107128
 21
135.4407909999999
 31
0.0
  0
LINE
  5
2F0
330
210
100
AcDbEntity
  8
1
  6
Continuous
100
AcDbLine
 10
29.10712800000001
 20
135.6162969999998
 30
0.0
 11
29.10712800000001
 21
135.4407909999999
 31
0.0
  0
LINE
  5
2F1
330
210
100
AcDbEntity
  8
1
  6
Continuous
100
AcDbLine
 10
32.107128
 20
135.4407909999999
 30
0.0
 11
29.10712800000001
 21
135.4407909999999
 31
0.0
  0
LINE
  5
2F2
330
210
100
AcDbEntity
  8
4
  6
CENTER
100
AcDbLine
 10
39.10712800000001
 20
140.216303
 30
0.0
 11
13.60712799999999
 21
140.216303
 31
0.0
  0
LINE
  5
2F3
330
210
100
AcDbEntity
  8
4
  6
CENTER
100
AcDbLine
 10
30.857128
 20
149.616297
 30
0.0
 11
30.857128
 21
130.816294
 31
0.0
  0
LINE
  5
2F4
330
210
100
AcDbEntity
  8
4
  6
CENTER
100
AcDbLine
 10
27.107128
 20
135.4163
 30
0.0
 11
27.107128
 21
130.616297
 31
0.0
  0
ARC
  5
2F5
330
210
100
AcDbEntity
  8
1
  6
Continuous
100
AcDbCircle
 10
93.857128
 20
134.8162939999999
 30
0.0
 40
0.8
100
AcDbArc
 50
90.00000300000001
 51
144.1208159999999
  0
ARC
  5
2F6
330
210
100
AcDbEntity
  8
1
  6
Continuous
100
AcDbCircle
 10
91.85712800000001
 20
133.4162999999997
 30
0.0
 40
0.8
100
AcDbArc
 50
269.9999969999999
 51
324.120808
  0
ARC
  5
2F7
330
210
100
AcDbEntity
  8
1
  6
Continuous
100
AcDbCircle
 10
124.357128
 20
134.8162939999999
 30
0.0
 40
0.8
100
AcDbArc
 50
35.879185
 51
90.00000300000001
  0
ARC
  5
2F8
330
210
100
AcDbEntity
  8
1
  6
Continuous
100
AcDbCircle
 10
126.357128
 20
133.4162999999997
 30
0.0
 40
0.8
100
AcDbArc
 50
215.8791839999999
 51
269.9999969999999
  0
ARC
  5
2F9
330
210
100
AcDbEntity
  8
1
  6
Continuous
100
AcDbCircle
 10
94.657131
 20
144.816294
 30
0.0
 40
0.8
100
AcDbArc
 50
90.00000300000001
 51
180.000005
  0
ARC
  5
2FA
330
210
100
AcDbEntity
  8
1
  6
Continuous
100
AcDbCircle
 10
123.557125
 20
144.816294
 30
0.0
 40
0.8
100
AcDbArc
 50
0.0
 51
90.00000300000001
  0
ARC
  5
2FB
330
210
100
AcDbEntity
  8
1
  6
Continuous
100
AcDbCircle
 10
94.657131
 20
134.8162939999999
 30
0.0
 40
0.8
100
AcDbArc
 50
179.9999909999999
 51
270.000001
  0
ARC
  5
2FC
330
210
100
AcDbEntity
  8
1
  6
Continuous
100
AcDbCircle
 10
123.557125
 20
134.8162939999999
 30
0.0
 40
0.8
100
AcDbArc
 50
269.9999969999999
 51
0.0
  0
ARC
  5
2FD
330
210
100
AcDbEntity
  8
1
  6
Continuous
100
AcDbCircle
 10
186.557125
 20
146.816294
 30
0.0
 40
0.8
100
AcDbArc
 50
90.00000300000001
 51
180.000005
  0
ARC
  5
2FE
330
210
100
AcDbEntity
  8
1
  6
Continuous
100
AcDbCircle
 10
188.1571309999999
 20
146.816294
 30
0.0
 40
0.8
100
AcDbArc
 50
0.0
 51
90.00000300000001
  0
ARC
  5
2FF
330
210
100
AcDbEntity
  8
1
  6
Continuous
100
AcDbCircle
 10
97.50713000000001
 20
145.288172
 30
0.0
 40
1.928125
100
AcDbArc
 50
9.798185
 51
170.2018119999999
  0
ARC
  5
300
330
210
100
AcDbEntity
  8
1
  6
Continuous
100
AcDbCircle
 10
193.9071309999999
 20
145.288172
 30
0.0
 40
1.928125
100
AcDbArc
 50
9.798185
 51
170.2018119999999
  0
ARC
  5
301
330
210
100
AcDbEntity
  8
1
  6
Continuous
100
AcDbCircle
 10
101.0571249999999
 20
223.4663029999999
 30
0.0
 40
1.75
100
AcDbArc
 50
90.00000300000001
 51
270.000001
  0
ARC
  5
302
330
210
100
AcDbEntity
  8
1
  6
Continuous
100
AcDbCircle
 10
105.357128
 20
223.4663029999999
 30
0.0
 40
1.75
100
AcDbArc
 50
269.9999969999999
 51
89.99998900000001
  0
ARC
  5
303
330
210
100
AcDbEntity
  8
1
  6
Continuous
100
AcDbCircle
 10
112.857128
 20
223.4663029999999
 30
0.0
 40
1.75
100
AcDbArc
 50
90.00000300000001
 51
270.000001
  0
ARC
  5
304
330
210
100
AcDbEntity
  8
1
  6
Continuous
100
AcDbCircle
 10
117.157131
 20
223.4663029999999
 30
0.0
 40
1.75
100
AcDbArc
 50
269.9999969999999
 51
89.99998900000001
  0
CIRCLE
  5
305
330
210
100
AcDbEntity
  8
1
  6
Continuous
100
AcDbCircle
 10
113.3571279999999
 20
223.4663029999999
 30
0.0
 40
1.6
  0
CIRCLE
  5
306
330
210
100
AcDbEntity
  8
1
  6
Continuous
100
AcDbCircle
 10
104.8571279999999
 20
223.4663029999999
 30
0.0
 40
1.6
  0
CIRCLE
  5
307
330
210
100
AcDbEntity
  8
1
  6
Continuous
100
AcDbCircle
 10
97.50713000000001
 20
230.016306
 30
0.0
 40
1.9
  0
CIRCLE
  5
308
330
210
100
AcDbEntity
  8
1
  6
Continuous
100
AcDbCircle
 10
120.707134
 20
230.016306
 30
0.0
 40
1.9
  0
ARC
  5
309
330
210
100
AcDbEntity
  8
1
  6
Continuous
100
AcDbCircle
 10
284.3571279999998
 20
134.8162939999999
 30
0.0
 40
0.8
100
AcDbArc
 50
35.879185
 51
89.99999599999998
  0
ARC
  5
30A
330
210
100
AcDbEntity
  8
1
  6
Continuous
100
AcDbCircle
 10
286.357128
 20
133.4162999999997
 30
0.0
 40
0.8
100
AcDbArc
 50
215.879197
 51
269.9999969999999
  0
ARC
  5
30B
330
210
100
AcDbEntity
  8
1
  6
Continuous
100
AcDbCircle
 10
253.8571279999999
 20
134.8162939999999
 30
0.0
 40
0.8
100
AcDbArc
 50
89.99999599999998
 51
144.1208159999999
  0
ARC
  5
30C
330
210
100
AcDbEntity
  8
1
  6
Continuous
100
AcDbCircle
 10
251.8571279999999
 20
133.4162999999997
 30
0.0
 40
0.8
100
AcDbArc
 50
269.9999969999999
 51
324.1208219999998
  0
ARC
  5
30D
330
210
100
AcDbEntity
  8
1
  6
Continuous
100
AcDbCircle
 10
283.55714
 20
144.816294
 30
0.0
 40
0.8
100
AcDbArc
 50
359.999995
 51
89.99999599999998
  0
ARC
  5
30E
330
210
100
AcDbEntity
  8
1
  6
Continuous
100
AcDbCircle
 10
254.657116
 20
144.816294
 30
0.0
 40
0.8
100
AcDbArc
 50
89.99999599999998
 51
180.000005
  0
ARC
  5
30F
330
210
100
AcDbEntity
  8
1
  6
Continuous
100
AcDbCircle
 10
283.55714
 20
134.8162939999999
 30
0.0
 40
0.8
100
AcDbArc
 50
270.0000039999998
 51
0.000005
  0
ARC
  5
310
330
210
100
AcDbEntity
  8
1
  6
Continuous
100
AcDbCircle
 10
254.657116
 20
134.8162939999999
 30
0.0
 40
0.8
100
AcDbArc
 50
180.000009
 51
269.9999969999999
  0
ARC
  5
311
330
210
100
AcDbEntity
  8
1
  6
Continuous
100
AcDbCircle
 10
280.7071339999998
 20
145.288172
 30
0.0
 40
1.928125
100
AcDbArc
 50
9.798187999999999
 51
170.2018119999999
  0
ARC
  5
312
330
210
100
AcDbEntity
  8
1
  6
Continuous
100
AcDbCircle
 10
257.5071219999999
 20
145.288172
 30
0.0
 40
1.928125
100
AcDbArc
 50
9.798187999999999
 51
170.2018119999999
  0
ARC
  5
313
330
210
100
AcDbEntity
  8
1
  6
Continuous
100
AcDbCircle
 10
120.707134
 20
145.288172
 30
0.0
 40
1.928125
100
AcDbArc
 50
9.798185
 51
170.2018119999999
  0
CIRCLE
  5
314
330
210
100
AcDbEntity
  8
1
  6
Continuous
100
AcDbCircle
 10
88.60712799999998
 20
227.2163029999999
 30
0.0
 40
1.75
  0
CIRCLE
  5
315
330
210
100
AcDbEntity
  8
1
  6
Continuous
100
AcDbCircle
 10
129.6071279999999
 20
227.2163029999999
 30
0.0
 40
1.75
  0
CIRCLE
  5
316
330
210
100
AcDbEntity
  8
1
  6
Continuous
100
AcDbCircle
 10
129.6071279999999
 20
43.216296
 30
0.0
 40
1.75
  0
CIRCLE
  5
317
330
210
100
AcDbEntity
  8
1
  6
Continuous
100
AcDbCircle
 10
88.60712799999998
 20
43.216296
 30
0.0
 40
1.75
  0
ARC
  5
318
330
210
100
AcDbEntity
  8
1
  6
Continuous
100
AcDbCircle
 10
31.657131
 20
146.816294
 30
0.0
 40
0.8
100
AcDbArc
 50
359.999995
 51
89.99999599999998
  0
ARC
  5
319
330
210
100
AcDbEntity
  8
1
  6
Continuous
100
AcDbCircle
 10
30.057125
 20
146.816294
 30
0.0
 40
0.8
100
AcDbArc
 50
89.99999599999998
 51
180.000005
  0
ARC
  5
31A
330
210
100
AcDbEntity
  8
1
  6
Continuous
100
AcDbCircle
 10
24.307125
 20
145.288172
 30
0.0
 40
1.928125
100
AcDbArc
 50
9.798187999999999
 51
170.2018119999999
  0
LINE
  5
31B
330
210
100
AcDbEntity
  8
1
  6
Continuous
100
AcDbLine
 10
517.089863
 20
143.716303
 30
0.0
 11
506.059704
 21
143.716303
 31
0.0
  0
LINE
  5
31C
330
210
100
AcDbEntity
  8
4
  6
CENTER
100
AcDbLine
 10
523.059704
 20
140.216303
 30
0.0
 11
504.059704
 21
140.216303
 31
0.0
  0
LINE
  5
31D
330
210
100
AcDbEntity
  8
1
  6
Continuous
100
AcDbLine
 10
517.089803
 20
136.716303
 30
0.0
 11
506.059704
 21
136.716303
 31
0.0
  0
LINE
  5
31E
330
210
100
AcDbEntity
  8
1
  6
Continuous
100
AcDbLine
 10
349.2357819999999
 20
136.716303
 30
0.0
 11
360.2658809999998
 21
136.716303
 31
0.0
  0
LINE
  5
31F
330
210
100
AcDbEntity
  8
1
  6
Continuous
100
AcDbLine
 10
349.235721
 20
143.716303
 30
0.0
 11
360.2658809999998
 21
143.716303
 31
0.0
  0
LINE
  5
320
330
210
100
AcDbEntity
  8
4
  6
CENTER
100
AcDbLine
 10
343.2658809999999
 20
140.216303
 30
0.0
 11
362.2658809999999
 21
140.216303
 31
0.0
  0
LINE
  5
321
330
210
100
AcDbEntity
  8
1
  6
Continuous
100
AcDbLine
 10
345.2658809999999
 20
142.8163089999999
 30
0.0
 11
349.235721
 21
143.716303
 31
0.0
  0
LINE
  5
322
330
210
100
AcDbEntity
  8
1
  6
Continuous
100
AcDbLine
 10
345.2658809999999
 20
137.616328
 30
0.0
 11
349.2357819999999
 21
136.716303
 31
0.0
  0
LINE
  5
323
330
210
100
AcDbEntity
  8
1
  6
Continuous
100
AcDbLine
 10
345.2658809999999
 20
137.6162969999998
 30
0.0
 11
345.2658809999999
 21
142.8163089999999
 31
0.0
  0
LINE
  5
324
330
210
100
AcDbEntity
  8
1
  6
Continuous
100
AcDbLine
 10
349.235775
 20
142.716303
 30
0.0
 11
349.235775
 21
137.716303
 31
0.0
  0
LINE
  5
325
330
210
100
AcDbEntity
  8
1
  6
Continuous
100
AcDbLine
 10
360.2658809999998
 20
136.716303
 30
0.0
 11
360.2658809999998
 21
143.716303
 31
0.0
  0
LINE
  5
326
330
210
100
AcDbEntity
  8
1
  6
Continuous
100
AcDbLine
 10
359.2658809999999
 20
136.716303
 30
0.0
 11
359.2658809999999
 21
143.716303
 31
0.0
  0
LINE
  5
327
330
210
100
AcDbEntity
  8
1
  6
Continuous
100
AcDbLine
 10
353.4127459999999
 20
142.716303
 30
0.0
 11
353.4127459999999
 21
137.716303
 31
0.0
  0
LINE
  5
328
330
210
100
AcDbEntity
  8
4
  6
CENTER
100
AcDbLine
 10
430.6627919999998
 20
40.81939199999999
 30
0.0
 11
430.6627919999998
 21
59.81939200000001
 31
0.0
  0
LINE
  5
329
330
210
100
AcDbEntity
  8
1
  6
Continuous
100
AcDbLine
 10
427.1627919999998
 20
57.819392
 30
0.0
 11
414.6627919999998
 21
57.819392
 31
0.0
  0
LINE
  5
32A
330
210
100
AcDbEntity
  8
1
  6
Continuous
100
AcDbLine
 10
427.1627919999998
 20
56.81939200000001
 30
0.0
 11
414.6627919999998
 21
56.81939200000001
 31
0.0
  0
LINE
  5
32B
330
210
100
AcDbEntity
  8
1
  6
Continuous
100
AcDbLine
 10
414.6627919999998
 20
56.81939200000001
 30
0.0
 11
414.6627919999998
 21
57.819392
 31
0.0
  0
ARC
  5
32C
330
210
100
AcDbEntity
  8
1
  6
Continuous
100
AcDbCircle
 10
427.1627919999998
 20
54.31939200000001
 30
0.0
 40
3.5
100
AcDbArc
 50
359.999999
 51
90.00000900000001
  0
ARC
  5
32D
330
210
100
AcDbEntity
  8
1
  6
Continuous
100
AcDbCircle
 10
434.1627919999998
 20
54.31939200000001
 30
0.0
 40
3.5
100
AcDbArc
 50
89.99999499999999
 51
179.999997
  0
ARC
  5
32E
330
210
100
AcDbEntity
  8
1
  6
Continuous
100
AcDbCircle
 10
430.6627919999998
 20
44.319392
 30
0.0
 40
1.5
100
AcDbArc
 50
210.9637589999999
 51
329.036241
  0
ARC
  5
32F
330
210
100
AcDbEntity
  8
1
  6
Continuous
100
AcDbCircle
 10
434.6627919999998
 20
51.594416
 30
0.0
 40
4.0
100
AcDbArc
 50
179.999997
 51
208.9704629999999
  0
ARC
  5
330
330
210
100
AcDbEntity
  8
1
  6
Continuous
100
AcDbCircle
 10
430.6627919999998
 20
44.319392
 30
0.0
 40
0.5
100
AcDbArc
 50
210.9637589999999
 51
329.036241
  0
ARC
  5
331
330
210
100
AcDbEntity
  8
1
  6
Continuous
100
AcDbCircle
 10
427.1627919999998
 20
54.31939200000001
 30
0.0
 40
2.5
100
AcDbArc
 50
359.999999
 51
90.00000900000001
  0
LINE
  5
332
330
210
100
AcDbEntity
  8
4
  6
CENTER
100
AcDbLine
 10
418.1627919999998
 20
54.81939200000001
 30
0.0
 11
418.1627919999998
 21
59.81939200000001
 31
0.0
  0
LINE
  5
333
330
210
100
AcDbEntity
  8
1
  6
Continuous
100
AcDbLine
 10
430.6627919999998
 20
54.31939200000001
 30
0.0
 11
430.6627919999998
 21
51.594416
 31
0.0
  0
ARC
  5
334
330
210
100
AcDbEntity
  8
1
  6
Continuous
100
AcDbCircle
 10
429.1627919999998
 20
46.819392
 30
0.0
 40
0.5
100
AcDbArc
 50
151.029538
 51
210.9637589999999
  0
ARC
  5
335
330
210
100
AcDbEntity
  8
1
  6
Continuous
100
AcDbCircle
 10
426.6627919999998
 20
51.594416
 30
0.0
 40
3.0
100
AcDbArc
 50
331.0295369999999
 51
0.000003
  0
ARC
  5
336
330
210
100
AcDbEntity
  8
1
  6
Continuous
100
AcDbCircle
 10
429.1627919999998
 20
46.819392
 30
0.0
 40
1.5
100
AcDbArc
 50
151.029538
 51
210.9637589999999
  0
ARC
  5
337
330
210
100
AcDbEntity
  8
1
  6
Continuous
100
AcDbCircle
 10
426.6627919999998
 20
51.594416
 30
0.0
 40
4.0
100
AcDbArc
 50
331.0295369999999
 51
0.000003
  0
LINE
  5
338
330
210
100
AcDbEntity
  8
1
  6
Continuous
100
AcDbLine
 10
429.6627919999998
 20
51.594416
 30
0.0
 11
429.6627919999998
 21
54.31939200000001
 31
0.0
  0
LINE
  5
339
330
210
100
AcDbEntity
  8
1
  6
Continuous
100
AcDbLine
 10
429.376537
 20
43.547663
 30
0.0
 11
427.876537
 21
46.04763300000001
 31
0.0
  0
LINE
  5
33A
330
210
100
AcDbEntity
  8
1
  6
Continuous
100
AcDbLine
 10
429.287396
 20
50.14135200000001
 30
0.0
 11
427.850475
 21
47.545893
 31
0.0
  0
LINE
  5
33B
330
210
100
AcDbEntity
  8
1
  6
Continuous
100
AcDbLine
 10
430.162273
 20
49.657008
 30
0.0
 11
428.725353
 21
47.061549
 31
0.0
  0
LINE
  5
33C
330
210
100
AcDbEntity
  8
1
  6
Continuous
100
AcDbLine
 10
430.2340199999998
 20
44.062159
 30
0.0
 11
428.73402
 21
46.562128
 31
0.0
  0
LINE
  5
33D
330
210
100
AcDbEntity
  8
1
  6
Continuous
100
AcDbLine
 10
446.6627919999998
 20
56.81939200000001
 30
0.0
 11
434.1627919999998
 21
56.81939200000001
 31
0.0
  0
LINE
  5
33E
330
210
100
AcDbEntity
  8
1
  6
Continuous
100
AcDbLine
 10
446.6627919999998
 20
57.819392
 30
0.0
 11
434.1627919999998
 21
57.819392
 31
0.0
  0
LINE
  5
33F
330
210
100
AcDbEntity
  8
4
  6
CENTER
100
AcDbLine
 10
443.1627919999998
 20
54.81939200000001
 30
0.0
 11
443.1627919999998
 21
59.81939200000001
 31
0.0
  0
LINE
  5
340
330
210
100
AcDbEntity
  8
1
  6
Continuous
100
AcDbLine
 10
446.6627919999998
 20
56.81939200000001
 30
0.0
 11
446.6627919999998
 21
57.819392
 31
0.0
  0
ARC
  5
341
330
210
100
AcDbEntity
  8
1
  6
Continuous
100
AcDbCircle
 10
434.1627919999998
 20
54.31939200000001
 30
0.0
 40
2.5
100
AcDbArc
 50
89.99999499999999
 51
179.999997
  0
ARC
  5
342
330
210
100
AcDbEntity
  8
1
  6
Continuous
100
AcDbCircle
 10
432.162792
 20
46.819392
 30
0.0
 40
1.5
100
AcDbArc
 50
329.036241
 51
28.970462
  0
ARC
  5
343
330
210
100
AcDbEntity
  8
1
  6
Continuous
100
AcDbCircle
 10
434.6627919999998
 20
51.594416
 30
0.0
 40
3.0
100
AcDbArc
 50
179.999997
 51
208.9704629999999
  0
ARC
  5
344
330
210
100
AcDbEntity
  8
1
  6
Continuous
100
AcDbCircle
 10
432.162792
 20
46.819392
 30
0.0
 40
0.5
100
AcDbArc
 50
329.036241
 51
28.970462
  0
LINE
  5
345
330
210
100
AcDbEntity
  8
1
  6
Continuous
100
AcDbLine
 10
431.662792
 20
51.594416
 30
0.0
 11
431.662792
 21
54.31939200000001
 31
0.0
  0
LINE
  5
346
330
210
100
AcDbEntity
  8
1
  6
Continuous
100
AcDbLine
 10
431.9490169999999
 20
43.54763300000001
 30
0.0
 11
433.4490169999998
 21
46.047602
 31
0.0
  0
LINE
  5
347
330
210
100
AcDbEntity
  8
1
  6
Continuous
100
AcDbLine
 10
432.038158
 20
50.14132199999998
 30
0.0
 11
433.475079
 21
47.54592399999999
 31
0.0
  0
LINE
  5
348
330
210
100
AcDbEntity
  8
1
  6
Continuous
100
AcDbLine
 10
431.163311
 20
49.65697699999999
 30
0.0
 11
432.6002009999998
 21
47.061549
 31
0.0
  0
LINE
  5
349
330
210
100
AcDbEntity
  8
1
  6
Continuous
100
AcDbLine
 10
431.091534
 20
44.062128
 30
0.0
 11
432.5915339999998
 21
46.562098
 31
0.0
  0
ARC
  5
34A
330
210
100
AcDbEntity
  8
1
  6
Continuous
100
AcDbCircle
 10
445.6627919999998
 20
142.716303
 30
0.0
 40
1.0
100
AcDbArc
 50
359.999997
 51
90.0
  0
ARC
  5
34B
330
210
100
AcDbEntity
  8
1
  6
Continuous
100
AcDbCircle
 10
445.6627919999998
 20
137.716303
 30
0.0
 40
1.0
100
AcDbArc
 50
270.0000049999998
 51
0.000001
  0
LINE
  5
34C
330
210
100
AcDbEntity
  8
4
  6
CENTER
100
AcDbLine
 10
448.662792
 20
140.216303
 30
0.0
 11
412.6627919999998
 21
140.216303
 31
0.0
  0
ARC
  5
34D
330
210
100
AcDbEntity
  8
1
  6
Continuous
100
AcDbCircle
 10
415.662792
 20
142.716303
 30
0.0
 40
1.0
100
AcDbArc
 50
90.0
 51
180.0000029999999
  0
ARC
  5
34E
330
210
100
AcDbEntity
  8
1
  6
Continuous
100
AcDbCircle
 10
415.662792
 20
137.716303
 30
0.0
 40
1.0
100
AcDbArc
 50
180.0000029999999
 51
270.0000049999998
  0
LINE
  5
34F
330
210
100
AcDbEntity
  8
1
  6
Continuous
100
AcDbLine
 10
414.6627919999998
 20
142.716303
 30
0.0
 11
414.6627919999998
 21
137.716303
 31
0.0
  0
LINE
  5
350
330
210
100
AcDbEntity
  8
1
  6
Continuous
100
AcDbLine
 10
445.6627919999998
 20
143.716303
 30
0.0
 11
415.662792
 21
143.716303
 31
0.0
  0
LINE
  5
351
330
210
100
AcDbEntity
  8
1
  6
Continuous
100
AcDbLine
 10
445.6627919999998
 20
136.716303
 30
0.0
 11
415.662792
 21
136.716303
 31
0.0
  0
LINE
  5
352
330
210
100
AcDbEntity
  8
4
  6
CENTER
100
AcDbLine
 10
418.1627919999998
 20
143.716303
 30
0.0
 11
418.1627919999998
 21
136.716303
 31
0.0
  0
LINE
  5
353
330
210
100
AcDbEntity
  8
4
  6
CENTER
100
AcDbLine
 10
430.6627919999998
 20
145.716303
 30
0.0
 11
430.6627919999998
 21
134.716303
 31
0.0
  0
CIRCLE
  5
354
330
210
100
AcDbEntity
  8
1
  6
Continuous
100
AcDbCircle
 10
418.1627919999998
 20
140.216303
 30
0.0
 40
1.55
  0
LINE
  5
355
330
210
100
AcDbEntity
  8
1
  6
Continuous
100
AcDbLine
 10
430.6627919999998
 20
136.716303
 30
0.0
 11
430.6627919999998
 21
143.716303
 31
0.0
  0
LINE
  5
356
330
210
100
AcDbEntity
  8
4
  6
CENTER
100
AcDbLine
 10
443.1627919999998
 20
143.716303
 30
0.0
 11
443.1627919999998
 21
136.716303
 31
0.0
  0
LINE
  5
357
330
210
100
AcDbEntity
  8
1
  6
Continuous
100
AcDbLine
 10
446.6627919999998
 20
142.716303
 30
0.0
 11
446.6627919999998
 21
137.716303
 31
0.0
  0
CIRCLE
  5
358
330
210
100
AcDbEntity
  8
1
  6
Continuous
100
AcDbCircle
 10
443.1627919999998
 20
140.216303
 30
0.0
 40
1.55
  0
LINE
  5
359
330
210
100
AcDbEntity
  8
1
  6
Continuous
100
AcDbLine
 10
506.059704
 20
136.716303
 30
0.0
 11
506.059704
 21
143.716303
 31
0.0
  0
LINE
  5
35A
330
210
100
AcDbEntity
  8
1
  6
Continuous
100
AcDbLine
 10
507.0597039999998
 20
136.716303
 30
0.0
 11
507.0597039999998
 21
143.716303
 31
0.0
  0
LINE
  5
35B
330
210
100
AcDbEntity
  8
1
  6
Continuous
100
AcDbLine
 10
427.1627919999998
 20
223.6132149999999
 30
0.0
 11
414.6627919999998
 21
223.6132149999999
 31
0.0
  0
LINE
  5
35C
330
210
100
AcDbEntity
  8
1
  6
Continuous
100
AcDbLine
 10
427.1627919999998
 20
222.613215
 30
0.0
 11
414.6627919999998
 21
222.613215
 31
0.0
  0
LINE
  5
35D
330
210
100
AcDbEntity
  8
1
  6
Continuous
100
AcDbLine
 10
414.6627919999998
 20
223.6132149999999
 30
0.0
 11
414.6627919999998
 21
222.613215
 31
0.0
  0
ARC
  5
35E
330
210
100
AcDbEntity
  8
1
  6
Continuous
100
AcDbCircle
 10
430.6627919999998
 20
236.1132149999999
 30
0.0
 40
0.5
100
AcDbArc
 50
30.96375900000001
 51
149.0362409999999
  0
ARC
  5
35F
330
210
100
AcDbEntity
  8
1
  6
Continuous
100
AcDbCircle
 10
434.6627919999998
 20
228.83819
 30
0.0
 40
4.0
100
AcDbArc
 50
151.029537
 51
180.0000029999999
  0
ARC
  5
360
330
210
100
AcDbEntity
  8
1
  6
Continuous
100
AcDbCircle
 10
430.6627919999998
 20
236.1132149999999
 30
0.0
 40
1.5
100
AcDbArc
 50
30.96375900000001
 51
149.0362409999999
  0
ARC
  5
361
330
210
100
AcDbEntity
  8
1
  6
Continuous
100
AcDbCircle
 10
434.1627919999998
 20
226.1132149999999
 30
0.0
 40
3.5
100
AcDbArc
 50
180.0000029999999
 51
270.0000049999998
  0
ARC
  5
362
330
210
100
AcDbEntity
  8
1
  6
Continuous
100
AcDbCircle
 10
427.1627919999998
 20
226.1132149999999
 30
0.0
 40
3.5
100
AcDbArc
 50
269.999991
 51
0.000001
  0
LINE
  5
363
330
210
100
AcDbEntity
  8
1
  6
Continuous
100
AcDbLine
 10
430.2340199999998
 20
236.3704479999999
 30
0.0
 11
428.73402
 21
233.870478
 31
0.0
  0
LINE
  5
364
330
210
100
AcDbEntity
  8
1
  6
Continuous
100
AcDbLine
 10
430.162273
 20
230.775599
 30
0.0
 11
428.725353
 21
233.3710579999999
 31
0.0
  0
LINE
  5
365
330
210
100
AcDbEntity
  8
1
  6
Continuous
100
AcDbLine
 10
429.287396
 20
230.291254
 30
0.0
 11
427.850475
 21
232.8867129999999
 31
0.0
  0
LINE
  5
366
330
210
100
AcDbEntity
  8
1
  6
Continuous
100
AcDbLine
 10
429.376537
 20
236.884943
 30
0.0
 11
427.876537
 21
234.384974
 31
0.0
  0
LINE
  5
367
330
210
100
AcDbEntity
  8
1
  6
Continuous
100
AcDbLine
 10
429.6627919999998
 20
228.83819
 30
0.0
 11
429.6627919999998
 21
226.1132149999999
 31
0.0
  0
ARC
  5
368
330
210
100
AcDbEntity
  8
1
  6
Continuous
100
AcDbCircle
 10
426.6627919999998
 20
228.83819
 30
0.0
 40
4.0
100
AcDbArc
 50
359.999997
 51
28.97046299999999
  0
ARC
  5
369
330
210
100
AcDbEntity
  8
1
  6
Continuous
100
AcDbCircle
 10
429.1627919999998
 20
233.613215
 30
0.0
 40
1.5
100
AcDbArc
 50
149.0362409999999
 51
208.970462
  0
ARC
  5
36A
330
210
100
AcDbEntity
  8
1
  6
Continuous
100
AcDbCircle
 10
426.6627919999998
 20
228.83819
 30
0.0
 40
3.0
100
AcDbArc
 50
359.999997
 51
28.97046299999999
  0
ARC
  5
36B
330
210
100
AcDbEntity
  8
1
  6
Continuous
100
AcDbCircle
 10
429.1627919999998
 20
233.613215
 30
0.0
 40
0.5
100
AcDbArc
 50
149.0362409999999
 51
208.970462
  0
LINE
  5
36C
330
210
100
AcDbEntity
  8
1
  6
Continuous
100
AcDbLine
 10
430.6627919999998
 20
226.1132149999999
 30
0.0
 11
430.6627919999998
 21
228.83819
 31
0.0
  0
LINE
  5
36D
330
210
100
AcDbEntity
  8
4
  6
CENTER
100
AcDbLine
 10
430.6627919999998
 20
239.613215
 30
0.0
 11
430.6627919999998
 21
220.613215
 31
0.0
  0
LINE
  5
36E
330
210
100
AcDbEntity
  8
4
  6
CENTER
100
AcDbLine
 10
418.1627919999998
 20
225.613215
 30
0.0
 11
418.1627919999998
 21
220.613215
 31
0.0
  0
ARC
  5
36F
330
210
100
AcDbEntity
  8
1
  6
Continuous
100
AcDbCircle
 10
427.1627919999998
 20
226.1132149999999
 30
0.0
 40
2.5
100
AcDbArc
 50
269.999991
 51
0.000001
  0
LINE
  5
370
330
210
100
AcDbEntity
  8
1
  6
Continuous
100
AcDbLine
 10
431.091534
 20
236.3704779999999
 30
0.0
 11
432.5915339999998
 21
233.8705089999999
 31
0.0
  0
LINE
  5
371
330
210
100
AcDbEntity
  8
1
  6
Continuous
100
AcDbLine
 10
431.163311
 20
230.7756289999999
 30
0.0
 11
432.6002009999998
 21
233.3710579999999
 31
0.0
  0
LINE
  5
372
330
210
100
AcDbEntity
  8
1
  6
Continuous
100
AcDbLine
 10
432.038158
 20
230.2912849999999
 30
0.0
 11
433.475079
 21
232.8866829999999
 31
0.0
  0
LINE
  5
373
330
210
100
AcDbEntity
  8
1
  6
Continuous
100
AcDbLine
 10
431.9490169999999
 20
236.884974
 30
0.0
 11
433.4490169999998
 21
234.3850039999999
 31
0.0
  0
LINE
  5
374
330
210
100
AcDbEntity
  8
1
  6
Continuous
100
AcDbLine
 10
431.662792
 20
228.83819
 30
0.0
 11
431.662792
 21
226.1132149999999
 31
0.0
  0
ARC
  5
375
330
210
100
AcDbEntity
  8
1
  6
Continuous
100
AcDbCircle
 10
432.162792
 20
233.613215
 30
0.0
 40
0.5
100
AcDbArc
 50
331.0295379999999
 51
30.96375900000001
  0
ARC
  5
376
330
210
100
AcDbEntity
  8
1
  6
Continuous
100
AcDbCircle
 10
434.6627919999998
 20
228.83819
 30
0.0
 40
3.0
100
AcDbArc
 50
151.029537
 51
180.0000029999999
  0
ARC
  5
377
330
210
100
AcDbEntity
  8
1
  6
Continuous
100
AcDbCircle
 10
432.162792
 20
233.613215
 30
0.0
 40
1.5
100
AcDbArc
 50
331.0295379999999
 51
30.96375900000001
  0
ARC
  5
378
330
210
100
AcDbEntity
  8
1
  6
Continuous
100
AcDbCircle
 10
434.1627919999998
 20
226.1132149999999
 30
0.0
 40
2.5
100
AcDbArc
 50
180.0000029999999
 51
270.0000049999998
  0
LINE
  5
379
330
210
100
AcDbEntity
  8
1
  6
Continuous
100
AcDbLine
 10
446.6627919999998
 20
223.6132149999999
 30
0.0
 11
446.6627919999998
 21
222.613215
 31
0.0
  0
LINE
  5
37A
330
210
100
AcDbEntity
  8
4
  6
CENTER
100
AcDbLine
 10
443.1627919999998
 20
225.613215
 30
0.0
 11
443.1627919999998
 21
220.613215
 31
0.0
  0
LINE
  5
37B
330
210
100
AcDbEntity
  8
1
  6
Continuous
100
AcDbLine
 10
446.6627919999998
 20
222.613215
 30
0.0
 11
434.1627919999998
 21
222.613215
 31
0.0
  0
LINE
  5
37C
330
210
100
AcDbEntity
  8
1
  6
Continuous
100
AcDbLine
 10
446.6627919999998
 20
223.6132149999999
 30
0.0
 11
434.1627919999998
 21
223.6132149999999
 31
0.0
  0
LINE
  5
37D
330
210
100
AcDbEntity
  8
4
  6
CENTER
100
AcDbLine
 10
609.6714679999998
 20
140.216303
 30
0.0
 11
573.671468
 21
140.216303
 31
0.0
  0
LINE
  5
37E
330
210
100
AcDbEntity
  8
1
  6
Continuous
100
AcDbLine
 10
521.059704
 20
142.8163089999999
 30
0.0
 11
517.089863
 21
143.716303
 31
0.0
  0
LINE
  5
37F
330
210
100
AcDbEntity
  8
1
  6
Continuous
100
AcDbLine
 10
521.059704
 20
137.6162969999998
 30
0.0
 11
521.059704
 21
142.8163089999999
 31
0.0
  0
LINE
  5
380
330
210
100
AcDbEntity
  8
1
  6
Continuous
100
AcDbLine
 10
517.0898089999998
 20
142.716303
 30
0.0
 11
517.0898089999998
 21
137.716303
 31
0.0
  0
LINE
  5
381
330
210
100
AcDbEntity
  8
1
  6
Continuous
100
AcDbLine
 10
512.912838
 20
142.716303
 30
0.0
 11
512.912838
 21
137.716303
 31
0.0
  0
LINE
  5
382
330
210
100
AcDbEntity
  8
1
  6
Continuous
100
AcDbLine
 10
521.059704
 20
137.616328
 30
0.0
 11
517.089803
 21
136.716303
 31
0.0
  0
LINE
  5
383
330
210
100
AcDbEntity
  8
1
  6
Continuous
100
AcDbLine
 10
606.671468
 20
136.716303
 30
0.0
 11
576.6714679999997
 21
136.716303
 31
0.0
  0
LINE
  5
384
330
210
100
AcDbEntity
  8
1
  6
Continuous
100
AcDbLine
 10
606.671468
 20
143.716303
 30
0.0
 11
576.6714679999997
 21
143.716303
 31
0.0
  0
LINE
  5
385
330
210
100
AcDbEntity
  8
1
  6
Continuous
100
AcDbLine
 10
591.671468
 20
142.8163089999999
 30
0.0
 11
588.6714379999999
 21
143.7163189999999
 31
0.0
  0
LINE
  5
386
330
210
100
AcDbEntity
  8
1
  6
Continuous
100
AcDbLine
 10
588.6714679999998
 20
136.716303
 30
0.0
 11
591.671468
 21
137.6162969999998
 31
0.0
  0
CIRCLE
  5
387
330
210
100
AcDbEntity
  8
1
  6
Continuous
100
AcDbCircle
 10
579.171468
 20
140.216303
 30
0.0
 40
1.55
  0
ARC
  5
388
330
210
100
AcDbEntity
  8
1
  6
Continuous
100
AcDbCircle
 10
576.6714679999997
 20
142.716303
 30
0.0
 40
1.0
100
AcDbArc
 50
90.0
 51
180.0000029999999
  0
ARC
  5
389
330
210
100
AcDbEntity
  8
1
  6
Continuous
100
AcDbCircle
 10
576.6714679999997
 20
137.716303
 30
0.0
 40
1.0
100
AcDbArc
 50
180.0000029999999
 51
270.0000049999998
  0
LINE
  5
38A
330
210
100
AcDbEntity
  8
1
  6
Continuous
100
AcDbLine
 10
575.6714679999999
 20
137.716303
 30
0.0
 11
575.6714679999999
 21
142.716303
 31
0.0
  0
LINE
  5
38B
330
210
100
AcDbEntity
  8
1
  6
Continuous
100
AcDbLine
 10
588.6714679999998
 20
136.716303
 30
0.0
 11
588.6714679999998
 21
143.716303
 31
0.0
  0
LINE
  5
38C
330
210
100
AcDbEntity
  8
4
  6
CENTER
100
AcDbLine
 10
579.171468
 20
136.716303
 30
0.0
 11
579.171468
 21
143.716303
 31
0.0
  0
LINE
  5
38D
330
210
100
AcDbEntity
  8
1
  6
Continuous
100
AcDbLine
 10
594.671468
 20
143.716303
 30
0.0
 11
591.671438
 21
142.8162939999999
 31
0.0
  0
LINE
  5
38E
330
210
100
AcDbEntity
  8
1
  6
Continuous
100
AcDbLine
 10
591.671438
 20
137.6163119999999
 30
0.0
 11
594.671468
 21
136.716303
 31
0.0
  0
LINE
  5
38F
330
210
100
AcDbEntity
  8
1
  6
Continuous
100
AcDbLine
 10
594.671468
 20
136.716303
 30
0.0
 11
594.671468
 21
143.716303
 31
0.0
  0
LINE
  5
390
330
210
100
AcDbEntity
  8
4
  6
CENTER
100
AcDbLine
 10
591.671468
 20
145.716303
 30
0.0
 11
591.671468
 21
134.716303
 31
0.0
  0
CIRCLE
  5
391
330
210
100
AcDbEntity
  8
1
  6
Continuous
100
AcDbCircle
 10
604.171468
 20
140.216303
 30
0.0
 40
1.55
  0
LINE
  5
392
330
210
100
AcDbEntity
  8
4
  6
CENTER
100
AcDbLine
 10
604.171468
 20
136.716303
 30
0.0
 11
604.171468
 21
143.716303
 31
0.0
  0
ARC
  5
393
330
210
100
AcDbEntity
  8
1
  6
Continuous
100
AcDbCircle
 10
606.671468
 20
142.716303
 30
0.0
 40
1.0
100
AcDbArc
 50
359.999997
 51
90.0
  0
ARC
  5
394
330
210
100
AcDbEntity
  8
1
  6
Continuous
100
AcDbCircle
 10
606.671468
 20
137.716303
 30
0.0
 40
1.0
100
AcDbArc
 50
270.0000049999998
 51
0.000001
  0
LINE
  5
395
330
210
100
AcDbEntity
  8
1
  6
Continuous
100
AcDbLine
 10
607.671468
 20
137.716303
 30
0.0
 11
607.671468
 21
142.716303
 31
0.0
  0
ARC
  5
396
330
210
100
AcDbEntity
  8
1
  6
Continuous
100
AcDbCircle
 10
198.8071279999998
 20
144.816297
 30
0.0
 40
0.8
100
AcDbArc
 50
0.0
 51
90.0
  0
ARC
  5
397
330
210
100
AcDbEntity
  8
1
  6
Continuous
100
AcDbCircle
 10
198.8071279999998
 20
135.6162939999999
 30
0.0
 40
0.8
100
AcDbArc
 50
270.0
 51
0.0
  0
ARC
  5
398
330
210
100
AcDbEntity
  8
1
  6
Continuous
100
AcDbCircle
 10
19.407128
 20
144.816297
 30
0.0
 40
0.8
100
AcDbArc
 50
90.0
 51
180.0
  0
ARC
  5
399
330
210
100
AcDbEntity
  8
1
  6
Continuous
100
AcDbCircle
 10
19.407128
 20
135.6162939999999
 30
0.0
 40
0.8
100
AcDbArc
 50
180.0
 51
270.0
  0
LINE
  5
39A
330
210
100
AcDbEntity
  8
4
  6
CENTER
100
AcDbLine
 10
97.30712500000002
 20
46.966296
 30
0.0
 11
120.907131
 21
46.966296
 31
0.0
  0
ARC
  5
39B
330
210
100
AcDbEntity
  8
1
  6
Continuous
100
AcDbCircle
 10
112.857128
 20
46.966296
 30
0.0
 40
1.75
100
AcDbArc
 50
89.999999
 51
269.9999969999999
  0
LINE
  5
39C
330
210
100
AcDbEntity
  8
1
  6
Continuous
100
AcDbLine
 10
112.857128
 20
45.21629599999999
 30
0.0
 11
117.157131
 21
45.21629599999999
 31
0.0
  0
LINE
  5
39D
330
210
100
AcDbEntity
  8
1
  6
Continuous
100
AcDbLine
 10
112.857128
 20
48.716296
 30
0.0
 11
117.157131
 21
48.716296
 31
0.0
  0
ARC
  5
39E
330
210
100
AcDbEntity
  8
1
  6
Continuous
100
AcDbCircle
 10
117.157131
 20
46.966296
 30
0.0
 40
1.75
100
AcDbArc
 50
270.0000109999999
 51
90.00000300000001
  0
CIRCLE
  5
39F
330
210
100
AcDbEntity
  8
1
  6
Continuous
100
AcDbCircle
 10
113.3571279999999
 20
46.966296
 30
0.0
 40
1.6
  0
LINE
  5
3A0
330
210
100
AcDbEntity
  8
4
  6
CENTER
100
AcDbLine
 10
113.3571279999999
 20
43.366305
 30
0.0
 11
113.3571279999999
 21
50.566302
 31
0.0
  0
LINE
  5
3A1
330
210
100
AcDbEntity
  8
4
  6
CENTER
100
AcDbLine
 10
117.157131
 20
43.216296
 30
0.0
 11
117.157131
 21
50.716296
 31
0.0
  0
LINE
  5
3A2
330
210
100
AcDbEntity
  8
1
  6
Continuous
100
AcDbLine
 10
101.0571249999999
 20
45.21629599999999
 30
0.0
 11
105.357128
 21
45.21629599999999
 31
0.0
  0
LINE
  5
3A3
330
210
100
AcDbEntity
  8
1
  6
Continuous
100
AcDbLine
 10
101.0571249999999
 20
48.716296
 30
0.0
 11
105.357128
 21
48.716296
 31
0.0
  0
ARC
  5
3A4
330
210
100
AcDbEntity
  8
1
  6
Continuous
100
AcDbCircle
 10
101.0571249999999
 20
46.966296
 30
0.0
 40
1.75
100
AcDbArc
 50
89.999999
 51
269.9999969999999
  0
ARC
  5
3A5
330
210
100
AcDbEntity
  8
1
  6
Continuous
100
AcDbCircle
 10
105.357128
 20
46.966296
 30
0.0
 40
1.75
100
AcDbArc
 50
270.0000109999999
 51
90.00000300000001
  0
CIRCLE
  5
3A6
330
210
100
AcDbEntity
  8
1
  6
Continuous
100
AcDbCircle
 10
104.8571279999999
 20
46.966296
 30
0.0
 40
1.6
  0
LINE
  5
3A7
330
210
100
AcDbEntity
  8
4
  6
CENTER
100
AcDbLine
 10
104.8571279999999
 20
43.366305
 30
0.0
 11
104.8571279999999
 21
50.566302
 31
0.0
  0
LINE
  5
3A8
330
210
100
AcDbEntity
  8
4
  6
CENTER
100
AcDbLine
 10
101.0571249999999
 20
43.216296
 30
0.0
 11
101.0571249999999
 21
50.716296
 31
0.0
  0
LINE
  5
3A9
330
210
100
AcDbEntity
  8
4
  6
CENTER
100
AcDbLine
 10
124.607128
 20
40.41629299999999
 30
0.0
 11
116.807125
 21
40.41629299999999
 31
0.0
  0
LINE
  5
3AA
330
210
100
AcDbEntity
  8
4
  6
CENTER
100
AcDbLine
 10
120.707134
 20
36.516314
 30
0.0
 11
120.707134
 21
44.31630199999999
 31
0.0
  0
LINE
  5
3AB
330
210
100
AcDbEntity
  8
4
  6
CENTER
100
AcDbLine
 10
93.60712799999999
 20
40.41629299999999
 30
0.0
 11
101.407131
 21
40.41629299999999
 31
0.0
  0
LINE
  5
3AC
330
210
100
AcDbEntity
  8
4
  6
CENTER
100
AcDbLine
 10
97.50713000000001
 20
36.516314
 30
0.0
 11
97.50713000000001
 21
44.31630199999999
 31
0.0
  0
CIRCLE
  5
3AD
330
210
100
AcDbEntity
  8
1
  6
Continuous
100
AcDbCircle
 10
97.50713000000001
 20
40.41629299999999
 30
0.0
 40
1.199999999999999
  0
CIRCLE
  5
3AE
330
210
100
AcDbEntity
  8
1
  6
Continuous
100
AcDbCircle
 10
120.707134
 20
40.41629299999999
 30
0.0
 40
1.199999999999999
  0
LINE
  5
3AF
330
210
100
AcDbEntity
  8
1
  6
Continuous
100
AcDbLine
 10
124.357128
 20
35.716296
 30
0.0
 11
133.3571279999999
 21
35.716296
 31
0.0
  0
LINE
  5
3B0
330
210
100
AcDbEntity
  8
1
  6
Continuous
100
AcDbLine
 10
119.5071219999999
 20
144.816294
 30
0.0
 11
119.5071219999999
 21
143.9737329999998
 31
0.0
  0
LINE
  5
3B1
330
210
100
AcDbEntity
  8
1
  6
Continuous
100
AcDbLine
 10
121.907131
 20
144.816294
 30
0.0
 11
121.907131
 21
143.761974
 31
0.0
  0
CIRCLE
  5
3B2
330
210
100
AcDbEntity
  8
1
  6
Continuous
100
AcDbCircle
 10
123.157125
 20
144.416294
 30
0.0
 40
0.4
  0
LINE
  5
3B3
330
210
100
AcDbEntity
  8
1
  6
Continuous
100
AcDbLine
 10
116.407131
 20
140.716303
 30
0.0
 11
116.407131
 21
140.5163029999999
 31
0.0
  0
LINE
  5
3B4
330
210
100
AcDbEntity
  8
1
  6
Continuous
100
AcDbLine
 10
119.5071219999999
 20
144.1200419999999
 30
0.0
 11
118.9314199999998
 21
144.009063
 31
0.0
  0
ARC
  5
3B5
330
210
100
AcDbEntity
  8
1
  6
Continuous
100
AcDbCircle
 10
119.007134
 20
143.6162939999998
 30
0.0
 40
0.4
100
AcDbArc
 50
84.957702
 51
264.9577019999999
  0
ARC
  5
3B6
330
210
100
AcDbEntity
  8
1
  6
Continuous
100
AcDbCircle
 10
119.007134
 20
141.2069699999999
 30
0.0
 40
0.4
100
AcDbArc
 50
84.957702
 51
264.9577019999999
  0
ARC
  5
3B7
330
210
100
AcDbEntity
  8
1
  6
Continuous
100
AcDbCircle
 10
119.007134
 20
142.010078
 30
0.0
 40
0.4
100
AcDbArc
 50
84.957702
 51
264.9577019999999
  0
ARC
  5
3B8
330
210
100
AcDbEntity
  8
1
  6
Continuous
100
AcDbCircle
 10
119.007134
 20
142.813186
 30
0.0
 40
0.4
100
AcDbArc
 50
84.957702
 51
264.9577019999999
  0
LINE
  5
3B9
330
210
100
AcDbEntity
  8
1
  6
Continuous
100
AcDbLine
 10
118.8454889999998
 20
140.8410869999999
 30
0.0
 11
116.354871
 21
140.512875
 31
0.0
  0
LINE
  5
3BA
330
210
100
AcDbEntity
  8
1
  6
Continuous
100
AcDbLine
 10
116.459391
 20
139.7197319999999
 30
0.0
 11
119.5071219999999
 21
140.12136
 31
0.0
  0
CIRCLE
  5
3BB
330
210
100
AcDbEntity
  8
1
  6
Continuous
100
AcDbCircle
 10
116.407131
 20
140.116303
 30
0.0
 40
0.4
  0
LINE
  5
3BC
330
210
100
AcDbEntity
  8
1
  6
Continuous
100
AcDbLine
 10
122.4422909999999
 20
142.9116469999998
 30
0.0
 11
118.9719779999999
 21
143.2178419999999
 31
0.0
  0
LINE
  5
3BD
330
210
100
AcDbEntity
  8
1
  6
Continuous
100
AcDbLine
 10
122.4422909999999
 20
142.1085389999998
 30
0.0
 11
118.9719779999999
 21
142.414734
 31
0.0
  0
LINE
  5
3BE
330
210
100
AcDbEntity
  8
1
  6
Continuous
100
AcDbLine
 10
122.4422909999999
 20
141.3054309999999
 30
0.0
 11
118.9719779999999
 21
141.611626
 31
0.0
  0
LINE
  5
3BF
330
210
100
AcDbEntity
  8
1
  6
Continuous
100
AcDbLine
 10
122.3719779999999
 20
140.5085269999999
 30
0.0
 11
118.9719779999999
 21
140.808518
 31
0.0
  0
LINE
  5
3C0
330
210
100
AcDbEntity
  8
1
  6
Continuous
100
AcDbLine
 10
119.0422909999999
 20
144.014746
 30
0.0
 11
122.4422909999999
 21
143.7147549999999
 31
0.0
  0
LINE
  5
3C1
330
210
100
AcDbEntity
  8
1
  6
Continuous
100
AcDbLine
 10
121.907131
 20
140.437631
 30
0.0
 11
122.4593939999998
 21
140.510408
 31
0.0
  0
ARC
  5
3C2
330
210
100
AcDbEntity
  8
1
  6
Continuous
100
AcDbCircle
 10
122.407134
 20
140.906979
 30
0.0
 40
0.4
100
AcDbArc
 50
264.9577019999999
 51
84.957702
  0
ARC
  5
3C3
330
210
100
AcDbEntity
  8
1
  6
Continuous
100
AcDbCircle
 10
122.407134
 20
141.7100869999999
 30
0.0
 40
0.4
100
AcDbArc
 50
264.9577019999999
 51
84.957702
  0
ARC
  5
3C4
330
210
100
AcDbEntity
  8
1
  6
Continuous
100
AcDbCircle
 10
122.407134
 20
142.5131949999999
 30
0.0
 40
0.4
100
AcDbArc
 50
264.9577019999999
 51
84.957702
  0
ARC
  5
3C5
330
210
100
AcDbEntity
  8
1
  6
Continuous
100
AcDbCircle
 10
122.407134
 20
143.316303
 30
0.0
 40
0.4
100
AcDbArc
 50
264.9577019999999
 51
84.957702
  0
LINE
  5
3C6
330
210
100
AcDbEntity
  8
1
  6
Continuous
100
AcDbLine
 10
123.2328399999999
 20
144.023525
 30
0.0
 11
121.907131
 21
143.767966
 31
0.0
  0
LINE
  5
3C7
330
210
100
AcDbEntity
  8
1
  6
Continuous
100
AcDbLine
 10
121.907131
 20
140.549542
 30
0.0
 11
121.907131
 21
135.6162969999998
 31
0.0
  0
LINE
  5
3C8
330
210
100
AcDbEntity
  8
1
  6
Continuous
100
AcDbLine
 10
119.5071219999999
 20
140.761301
 30
0.0
 11
119.5071219999999
 21
135.6162969999998
 31
0.0
  0
LINE
  5
3C9
330
210
100
AcDbEntity
  8
1
  6
Continuous
100
AcDbLine
 10
120.707134
 20
143.8678529999999
 30
0.0
 11
120.707134
 21
143.8678529999999
 31
0.0
  0
LINE
  5
3CA
330
210
100
AcDbEntity
  8
1
  6
Continuous
100
AcDbLine
 10
123.08141
 20
144.8090629999998
 30
0.0
 11
121.907131
 21
144.582695
 31
0.0
  0
ARC
  5
3CB
330
210
100
AcDbEntity
  8
1
  6
Continuous
100
AcDbCircle
 10
95.80712199999997
 20
143.316303
 30
0.0
 40
0.4
100
AcDbArc
 50
95.04229800000002
 51
275.042298
  0
ARC
  5
3CC
330
210
100
AcDbEntity
  8
1
  6
Continuous
100
AcDbCircle
 10
95.80712199999997
 20
142.5131949999999
 30
0.0
 40
0.4
100
AcDbArc
 50
95.04229800000002
 51
275.042298
  0
ARC
  5
3CD
330
210
100
AcDbEntity
  8
1
  6
Continuous
100
AcDbCircle
 10
95.80712199999997
 20
141.7100869999999
 30
0.0
 40
0.4
100
AcDbArc
 50
95.04229800000002
 51
275.042298
  0
ARC
  5
3CE
330
210
100
AcDbEntity
  8
1
  6
Continuous
100
AcDbCircle
 10
95.80712199999997
 20
140.906979
 30
0.0
 40
0.4
100
AcDbArc
 50
95.04229800000002
 51
275.042298
  0
LINE
  5
3CF
330
210
100
AcDbEntity
  8
1
  6
Continuous
100
AcDbLine
 10
95.132846
 20
144.8090629999998
 30
0.0
 11
96.30712500000001
 21
144.582695
 31
0.0
  0
LINE
  5
3D0
330
210
100
AcDbEntity
  8
1
  6
Continuous
100
AcDbLine
 10
94.98141600000002
 20
144.023525
 30
0.0
 11
96.30712500000001
 21
143.767966
 31
0.0
  0
CIRCLE
  5
3D1
330
210
100
AcDbEntity
  8
1
  6
Continuous
100
AcDbCircle
 10
95.05713099999999
 20
144.416294
 30
0.0
 40
0.4
  0
LINE
  5
3D2
330
210
100
AcDbEntity
  8
1
  6
Continuous
100
AcDbLine
 10
98.70713399999999
 20
144.816294
 30
0.0
 11
98.70713399999999
 21
143.9737329999998
 31
0.0
  0
LINE
  5
3D3
330
210
100
AcDbEntity
  8
1
  6
Continuous
100
AcDbLine
 10
96.30712500000001
 20
144.816294
 30
0.0
 11
96.30712500000001
 21
143.761974
 31
0.0
  0
LINE
  5
3D4
330
210
100
AcDbEntity
  8
1
  6
Continuous
100
AcDbLine
 10
101.8071249999999
 20
140.716303
 30
0.0
 11
101.8071249999999
 21
140.5163029999999
 31
0.0
  0
CIRCLE
  5
3D5
330
210
100
AcDbEntity
  8
1
  6
Continuous
100
AcDbCircle
 10
101.8071249999999
 20
140.116303
 30
0.0
 40
0.4
  0
ARC
  5
3D6
330
210
100
AcDbEntity
  8
1
  6
Continuous
100
AcDbCircle
 10
99.207122
 20
143.6162939999998
 30
0.0
 40
0.4
100
AcDbArc
 50
275.042298
 51
95.04229800000002
  0
ARC
  5
3D7
330
210
100
AcDbEntity
  8
1
  6
Continuous
100
AcDbCircle
 10
99.207122
 20
142.813186
 30
0.0
 40
0.4
100
AcDbArc
 50
275.042298
 51
95.04229800000002
  0
ARC
  5
3D8
330
210
100
AcDbEntity
  8
1
  6
Continuous
100
AcDbCircle
 10
99.207122
 20
142.010078
 30
0.0
 40
0.4
100
AcDbArc
 50
275.042298
 51
95.04229800000002
  0
ARC
  5
3D9
330
210
100
AcDbEntity
  8
1
  6
Continuous
100
AcDbCircle
 10
99.207122
 20
141.2069699999999
 30
0.0
 40
0.4
100
AcDbArc
 50
275.042298
 51
95.04229800000002
  0
LINE
  5
3DA
330
210
100
AcDbEntity
  8
1
  6
Continuous
100
AcDbLine
 10
99.368767
 20
140.8410869999999
 30
0.0
 11
101.859385
 21
140.512875
 31
0.0
  0
LINE
  5
3DB
330
210
100
AcDbEntity
  8
1
  6
Continuous
100
AcDbLine
 10
101.7548649999999
 20
139.7197319999999
 30
0.0
 11
98.70713399999999
 21
140.12136
 31
0.0
  0
LINE
  5
3DC
330
210
100
AcDbEntity
  8
1
  6
Continuous
100
AcDbLine
 10
98.70713399999999
 20
144.1200419999999
 30
0.0
 11
99.28283700000001
 21
144.009063
 31
0.0
  0
LINE
  5
3DD
330
210
100
AcDbEntity
  8
1
  6
Continuous
100
AcDbLine
 10
98.70713399999999
 20
140.761301
 30
0.0
 11
98.70713399999999
 21
135.6162969999998
 31
0.0
  0
LINE
  5
3DE
330
210
100
AcDbEntity
  8
1
  6
Continuous
100
AcDbLine
 10
96.30712500000001
 20
140.549542
 30
0.0
 11
96.30712500000001
 21
135.6162969999998
 31
0.0
  0
LINE
  5
3DF
330
210
100
AcDbEntity
  8
1
  6
Continuous
100
AcDbLine
 10
96.30712500000001
 20
140.437631
 30
0.0
 11
95.754862
 21
140.510408
 31
0.0
  0
LINE
  5
3E0
330
210
100
AcDbEntity
  8
1
  6
Continuous
100
AcDbLine
 10
99.17196500000001
 20
144.014746
 30
0.0
 11
95.77196500000002
 21
143.7147549999999
 31
0.0
  0
LINE
  5
3E1
330
210
100
AcDbEntity
  8
1
  6
Continuous
100
AcDbLine
 10
95.77196500000002
 20
142.9116469999998
 30
0.0
 11
99.24227800000002
 21
143.2178419999999
 31
0.0
  0
LINE
  5
3E2
330
210
100
AcDbEntity
  8
1
  6
Continuous
100
AcDbLine
 10
95.77196500000002
 20
142.1085389999998
 30
0.0
 11
99.24227800000002
 21
142.414734
 31
0.0
  0
LINE
  5
3E3
330
210
100
AcDbEntity
  8
1
  6
Continuous
100
AcDbLine
 10
95.77196500000002
 20
141.3054309999999
 30
0.0
 11
99.24227800000002
 21
141.611626
 31
0.0
  0
LINE
  5
3E4
330
210
100
AcDbEntity
  8
1
  6
Continuous
100
AcDbLine
 10
95.84227799999998
 20
140.5085269999999
 30
0.0
 11
99.24227800000002
 21
140.808518
 31
0.0
  0
ENDSEC
  0
SECTION
  2
OBJECTS
  0
DICTIONARY
  5
1FE
330
0
100
AcDbDictionary
281
     1
  3
ACAD_CIP_PREVIOUS_PRODUCT_INFO
350
448
  3
ACAD_COLOR
350
42A
  3
ACAD_DETAILVIEWSTYLE
350
443
  3
ACAD_GROUP
350
1FF
  3
ACAD_LAYOUT
350
20B
  3
ACAD_MATERIAL
350
3F8
  3
ACAD_MLEADERSTYLE
350
43F
  3
ACAD_MLINESTYLE
350
208
  3
ACAD_PLOTSETTINGS
350
20A
  3
ACAD_PLOTSTYLENAME
350
3F6
  3
ACAD_SCALELIST
350
42D
  3
ACAD_SECTIONVIEWSTYLE
350
441
  3
ACAD_TABLESTYLE
350
42B
  3
ACAD_VISUALSTYLE
350
411
  3
ACDB_RECOMPOSE_DATA
350
466
  3
AcDbVariableDictionary
350
459
  3
DWGPROPS
350
467
  0
DICTIONARY
  5
449
330
202
100
AcDbDictionary
280
     1
281
     1
  3
ADSK_XREC_LAYER_RECONCILED
360
44A
  0
DICTIONARY
  5
44B
330
218
100
AcDbDictionary
280
     1
281
     1
  3
ADSK_XREC_LAYER_RECONCILED
360
44C
  0
DICTIONARY
  5
44D
330
219
100
AcDbDictionary
280
     1
281
     1
  3
ADSK_XREC_LAYER_RECONCILED
360
44E
  0
DICTIONARY
  5
44F
330
21A
100
AcDbDictionary
280
     1
281
     1
  3
ADSK_XREC_LAYER_RECONCILED
360
450
  0
DICTIONARY
  5
451
330
21B
100
AcDbDictionary
280
     1
281
     1
  3
ADSK_XREC_LAYER_RECONCILED
360
452
  0
DICTIONARY
  5
453
330
21C
100
AcDbDictionary
280
     1
281
     1
  3
ADSK_XREC_LAYER_RECONCILED
360
454
  0
DICTIONARY
  5
455
330
21D
100
AcDbDictionary
280
     1
281
     1
  3
ADSK_XREC_LAYER_RECONCILED
360
456
  0
DICTIONARY
  5
457
330
21E
100
AcDbDictionary
280
     1
281
     1
  3
ADSK_XREC_LAYER_RECONCILED
360
458
  0
DICTIONARY
  5
3F1
330
210
100
AcDbDictionary
281
     1
  3
ACAD_LAYOUTSELFREF
350
3F2
  0
DICTIONARY
  5
3EF
330
20C
100
AcDbDictionary
281
     1
  3
ACAD_LAYOUTSELFREF
350
3F0
  0
XRECORD
  5
448
102
{ACAD_REACTORS
330
1FE
102
}
330
1FE
100
AcDbXrecord
280
     1
300
ACDLT
300
2014
300
ACDLT_F_S
  0
DICTIONARY
  5
42A
102
{ACAD_REACTORS
330
1FE
102
}
330
1FE
100
AcDbDictionary
281
     1
  0
DICTIONARY
  5
443
102
{ACAD_REACTORS
330
1FE
102
}
330
1FE
100
AcDbDictionary
281
     1
  3
Imperial24
350
444
  0
DICTIONARY
  5
1FF
102
{ACAD_REACTORS
330
1FE
102
}
330
1FE
100
AcDbDictionary
281
     1
  0
DICTIONARY
  5
20B
102
{ACAD_REACTORS
330
1FE
102
}
330
1FE
100
AcDbDictionary
281
     1
  3
Model
350
445
  3
レイアウト1
350
446
  0
DICTIONARY
  5
3F8
102
{ACAD_REACTORS
330
1FE
102
}
330
1FE
100
AcDbDictionary
281
     1
  3
ByBlock
350
401
  3
ByLayer
350
3F9
  3
Global
350
409
  0
DICTIONARY
  5
43F
102
{ACAD_REACTORS
330
1FE
102
}
330
1FE
100
AcDbDictionary
281
     1
  3
Standard
350
440
  0
DICTIONARY
  5
208
102
{ACAD_REACTORS
330
1FE
102
}
330
1FE
100
AcDbDictionary
281
     1
  3
STANDARD
350
209
  0
DICTIONARY
  5
20A
102
{ACAD_REACTORS
330
1FE
102
}
330
1FE
100
AcDbDictionary
281
     1
  0
ACDBDICTIONARYWDFLT
  5
3F6
102
{ACAD_REACTORS
330
1FE
102
}
330
1FE
100
AcDbDictionary
281
     1
  3
Normal
350
3F7
100
AcDbDictionaryWithDefault
340
3F7
  0
DICTIONARY
  5
42D
102
{ACAD_REACTORS
330
1FE
102
}
330
1FE
100
AcDbDictionary
281
     1
  3
A0
350
42E
  3
A1
350
42F
  3
A2
350
430
  3
A3
350
431
  3
A4
350
432
  3
A5
350
433
  3
A6
350
434
  3
A7
350
435
  3
A8
350
436
  3
A9
350
437
  3
B0
350
438
  3
B1
350
439
  3
B2
350
43A
  3
B3
350
43B
  3
B4
350
43C
  3
B5
350
43D
  3
B6
350
43E
  0
DICTIONARY
  5
441
102
{ACAD_REACTORS
330
1FE
102
}
330
1FE
100
AcDbDictionary
281
     1
  3
Imperial24
350
442
  0
DICTIONARY
  5
42B
102
{ACAD_REACTORS
330
1FE
102
}
330
1FE
100
AcDbDictionary
281
     1
  3
Standard
350
42C
  0
DICTIONARY
  5
411
102
{ACAD_REACTORS
330
1FE
102
}
330
1FE
100
AcDbDictionary
281
     1
  3
2dWireframe
350
417
  3
Basic
350
416
  3
Brighten
350
41D
  3
ColorChange
350
421
  3
Conceptual
350
41A
  3
Dim
350
41C
  3
EdgeColorOff
350
429
  3
Facepattern
350
420
  3
Flat
350
412
  3
FlatWithEdges
350
413
  3
Gouraud
350
414
  3
GouraudWithEdges
350
415
  3
Hidden
350
419
  3
JitterOff
350
427
  3
Linepattern
350
41F
  3
OverhangOff
350
428
  3
Realistic
350
41B
  3
Shaded
350
426
  3
Shaded with edges
350
425
  3
Shades of Gray
350
422
  3
Sketchy
350
423
  3
Thicken
350
41E
  3
Wireframe
350
418
  3
X-Ray
350
424
  0
XRECORD
  5
466
102
{ACAD_REACTORS
330
1FE
102
}
330
1FE
100
AcDbXrecord
280
     1
 90
        1
330
42C
  0
DICTIONARY
  5
459
102
{ACAD_REACTORS
330
1FE
102
}
330
1FE
100
AcDbDictionary
281
     1
  3
CANNOSCALE
350
45E
  3
CMLEADERSTYLE
350
45B
  3
CTABLESTYLE
350
45A
  3
CVIEWDETAILSTYLE
350
45C
  3
CVIEWSECTIONSTYLE
350
45D
  3
DIMASSOC
350
461
  3
INDEXCTL
350
460
  3
SORTENTS
350
45F
  3
XCLIPFRAME
350
462
  0
XRECORD
  5
467
102
{ACAD_REACTORS
330
1FE
102
}
330
1FE
100
AcDbXrecord
280
     1
  1
DWGPROPS COOKIE
  2

  3

  4

  6

  7

  8
Yoshitsune
  9

300
=
301
=
302
=
303
=
304
=
305
=
306
=
307
=
308
=
309
=
 40
0.0000142708333333
 41
2450955.643828472
 42
2457192.60008088
  1

 90
        0
  0
XRECORD
  5
44A
102
{ACAD_REACTORS
330
449
102
}
330
449
100
AcDbXrecord
280
     1
290
     1
  0
XRECORD
  5
44C
102
{ACAD_REACTORS
330
44B
102
}
330
44B
100
AcDbXrecord
280
     1
290
     1
  0
XRECORD
  5
44E
102
{ACAD_REACTORS
330
44D
102
}
330
44D
100
AcDbXrecord
280
     1
290
     1
  0
XRECORD
  5
450
102
{ACAD_REACTORS
330
44F
102
}
330
44F
100
AcDbXrecord
280
     1
290
     1
  0
XRECORD
  5
452
102
{ACAD_REACTORS
330
451
102
}
330
451
100
AcDbXrecord
280
     1
290
     1
  0
XRECORD
  5
454
102
{ACAD_REACTORS
330
453
102
}
330
453
100
AcDbXrecord
280
     1
290
     1
  0
XRECORD
  5
456
102
{ACAD_REACTORS
330
455
102
}
330
455
100
AcDbXrecord
280
     1
290
     1
  0
XRECORD
  5
458
102
{ACAD_REACTORS
330
457
102
}
330
457
100
AcDbXrecord
280
     1
290
     1
  0
XRECORD
  5
3F2
102
{ACAD_REACTORS
330
3F1
102
}
330
3F1
100
AcDbXrecord
280
     1
340
210
  0
XRECORD
  5
3F0
102
{ACAD_REACTORS
330
3EF
102
}
330
3EF
100
AcDbXrecord
280
     1
340
20C
  0
ACDBDETAILVIEWSTYLE
  5
444
102
{ACAD_XDICTIONARY
360
49F
102
}
102
{ACAD_REACTORS
330
443
102
}
330
443
100
AcDbModelDocViewStyle
 70
     0
  3
Imperial24
290
     0
100
AcDbDetailViewStyle
 70
     0
 71
     0
 90
        3
 71
     1
340
203
 40
0.24
340
0
 40
0.24
300

 40
0.36
280
     3
 71
     2
340
207
 90
       25
 71
     3
340
203
 40
0.24
 90
        1
 40
0.75
 90
        1
300
%<\AcVar ViewType \f "%tc1">% %<\AcVar ViewDetailId>%\PSCALE %<\AcVar ViewScale \f "%sn">%
 71
     4
340
207
 90
       25
340
207
 90
       25
280
     0
  0
LAYOUT
  5
445
102
{ACAD_XDICTIONARY
360
4A1
102
}
102
{ACAD_REACTORS
330
20B
102
}
330
20B
100
AcDbPlotSettings
  1

  2
Canon LBP9100C
  4

  6

 40
0.0
 41
0.0
 42
0.0
 43
0.0
 44
0.0
 45
0.0
 46
0.0
 47
0.0
 48
0.0
 49
0.0
140
0.0
141
0.0
142
1.0
143
1.0
 70
  1712
 72
     0
 73
     0
 74
     0
  7

 75
     0
147
1.0
148
0.0
149
0.0
100
AcDbLayout
  1
Model
 70
     1
 71
     0
 10
0.0
 20
0.0
 11
12.0
 21
9.0
 12
0.0
 22
0.0
 32
0.0
 14
0.0
 24
0.0
 34
0.0
 15
0.0
 25
0.0
 35
0.0
146
0.0
 13
0.0
 23
0.0
 33
0.0
 16
1.0
 26
0.0
 36
0.0
 17
0.0
 27
1.0
 37
0.0
 76
     0
330
210
331
3EE
  0
LAYOUT
  5
446
102
{ACAD_XDICTIONARY
360
4A3
102
}
102
{ACAD_REACTORS
330
20B
102
}
330
20B
100
AcDbPlotSettings
  1

  2
Canon LBP9100C
  4

  6

 40
0.0
 41
0.0
 42
0.0
 43
0.0
 44
0.0
 45
0.0
 46
0.0
 47
0.0
 48
0.0
 49
0.0
140
0.0
141
0.0
142
1.0
143
1.0
 70
   688
 72
     0
 73
     0
 74
     5
  7

 75
    16
147
1.0
148
0.0
149
0.0
100
AcDbLayout
  1
レイアウト1
 70
     0
 71
     1
 10
0.0
 20
0.0
 11
420.0
 21
297.0
 12
0.0
 22
0.0
 32
0.0
 14
1.000000000000000E+20
 24
1.000000000000000E+20
 34
1.000000000000000E+20
 15
-1.000000000000000E+20
 25
-1.000000000000000E+20
 35
-1.000000000000000E+20
146
0.0
 13
0.0
 23
0.0
 33
0.0
 16
1.0
 26
0.0
 36
0.0
 17
0.0
 27
1.0
 37
0.0
 76
     0
330
20C
  0
MATERIAL
  5
401
102
{ACAD_XDICTIONARY
360
402
102
}
102
{ACAD_REACTORS
330
3F8
102
}
330
3F8
100
AcDbMaterial
  1
ByBlock
 72
     0
 43
0.0208333333333333
 43
0.0
 43
0.0
 43
0.0
 43
0.0
 43
0.0208333333333333
 43
0.0
 43
0.0
 43
0.0
 43
0.0
 43
1.0
 43
0.0
 43
0.0
 43
0.0
 43
0.0
 43
1.0
 77
     0
 47
0.0208333333333333
 47
0.0
 47
0.0
 47
0.0
 47
0.0
 47
0.0208333333333333
 47
0.0
 47
0.0
 47
0.0
 47
0.0
 47
1.0
 47
0.0
 47
0.0
 47
0.0
 47
0.0
 47
1.0
171
     0
 49
0.0208333333333333
 49
0.0
 49
0.0
 49
0.0
 49
0.0
 49
0.0208333333333333
 49
0.0
 49
0.0
 49
0.0
 49
0.0
 49
1.0
 49
0.0
 49
0.0
 49
0.0
 49
0.0
 49
1.0
175
     0
142
0.0208333333333333
142
0.0
142
0.0
142
0.0
142
0.0
142
0.0208333333333333
142
0.0
142
0.0
142
0.0
142
0.0
142
1.0
142
0.0
142
0.0
142
0.0
142
0.0
142
1.0
179
     0
144
0.0208333333333333
144
0.0
144
0.0
144
0.0
144
0.0
144
0.0208333333333333
144
0.0
144
0.0
144
0.0
144
0.0
144
1.0
144
0.0
144
0.0
144
0.0
144
0.0
144
1.0
147
0.0208333333333333
147
0.0
147
0.0
147
0.0
147
0.0
147
0.0208333333333333
147
0.0
147
0.0
147
0.0
147
0.0
147
1.0
147
0.0
147
0.0
147
0.0
147
0.0
147
1.0
  0
MATERIAL
  5
3F9
102
{ACAD_XDICTIONARY
360
3FA
102
}
102
{ACAD_REACTORS
330
3F8
102
}
330
3F8
100
AcDbMaterial
  1
ByLayer
 72
     0
 43
0.0208333333333333
 43
0.0
 43
0.0
 43
0.0
 43
0.0
 43
0.0208333333333333
 43
0.0
 43
0.0
 43
0.0
 43
0.0
 43
1.0
 43
0.0
 43
0.0
 43
0.0
 43
0.0
 43
1.0
 77
     0
 47
0.0208333333333333
 47
0.0
 47
0.0
 47
0.0
 47
0.0
 47
0.0208333333333333
 47
0.0
 47
0.0
 47
0.0
 47
0.0
 47
1.0
 47
0.0
 47
0.0
 47
0.0
 47
0.0
 47
1.0
171
     0
 49
0.0208333333333333
 49
0.0
 49
0.0
 49
0.0
 49
0.0
 49
0.0208333333333333
 49
0.0
 49
0.0
 49
0.0
 49
0.0
 49
1.0
 49
0.0
 49
0.0
 49
0.0
 49
0.0
 49
1.0
175
     0
142
0.0208333333333333
142
0.0
142
0.0
142
0.0
142
0.0
142
0.0208333333333333
142
0.0
142
0.0
142
0.0
142
0.0
142
1.0
142
0.0
142
0.0
142
0.0
142
0.0
142
1.0
179
     0
144
0.0208333333333333
144
0.0
144
0.0
144
0.0
144
0.0
144
0.0208333333333333
144
0.0
144
0.0
144
0.0
144
0.0
144
1.0
144
0.0
144
0.0
144
0.0
144
0.0
144
1.0
147
0.0208333333333333
147
0.0
147
0.0
147
0.0
147
0.0
147
0.0208333333333333
147
0.0
147
0.0
147
0.0
147
0.0
147
1.0
147
0.0
147
0.0
147
0.0
147
0.0
147
1.0
  0
MATERIAL
  5
409
102
{ACAD_XDICTIONARY
360
40A
102
}
102
{ACAD_REACTORS
330
3F8
102
}
330
3F8
100
AcDbMaterial
  1
Global
 72
     0
 43
0.0208333333333333
 43
0.0
 43
0.0
 43
0.0
 43
0.0
 43
0.0208333333333333
 43
0.0
 43
0.0
 43
0.0
 43
0.0
 43
1.0
 43
0.0
 43
0.0
 43
0.0
 43
0.0
 43
1.0
 77
     0
 47
0.0208333333333333
 47
0.0
 47
0.0
 47
0.0
 47
0.0
 47
0.0208333333333333
 47
0.0
 47
0.0
 47
0.0
 47
0.0
 47
1.0
 47
0.0
 47
0.0
 47
0.0
 47
0.0
 47
1.0
171
     0
 49
0.0208333333333333
 49
0.0
 49
0.0
 49
0.0
 49
0.0
 49
0.0208333333333333
 49
0.0
 49
0.0
 49
0.0
 49
0.0
 49
1.0
 49
0.0
 49
0.0
 49
0.0
 49
0.0
 49
1.0
175
     0
142
0.0208333333333333
142
0.0
142
0.0
142
0.0
142
0.0
142
0.0208333333333333
142
0.0
142
0.0
142
0.0
142
0.0
142
1.0
142
0.0
142
0.0
142
0.0
142
0.0
142
1.0
179
     0
144
0.0208333333333333
144
0.0
144
0.0
144
0.0
144
0.0
144
0.0208333333333333
144
0.0
144
0.0
144
0.0
144
0.0
144
1.0
144
0.0
144
0.0
144
0.0
144
0.0
144
1.0
147
0.0208333333333333
147
0.0
147
0.0
147
0.0
147
0.0
147
0.0208333333333333
147
0.0
147
0.0
147
0.0
147
0.0
147
1.0
147
0.0
147
0.0
147
0.0
147
0.0
147
1.0
  0
MLEADERSTYLE
  5
440
102
{ACAD_REACTORS
330
43F
102
}
330
43F
100
AcDbMLeaderStyle
170
     2
171
     1
172
     0
 90
        2
 40
0.0
 41
0.0
173
     1
 91
-1056964608
340
205
 92
       -2
290
     1
 42
0.09
291
     1
 43
0.36
  3
Standard
 44
0.18
300

342
203
174
     1
178
     6
175
     1
176
     0
 93
-1056964608
 45
0.18
292
     0
297
     0
 46
0.18
 94
-1056964608
 47
1.0
 49
1.0
140
1.0
293
     1
141
0.0
294
     1
177
     0
142
1.0
295
     0
296
     0
143
0.125
1001
ACAD_MLEADERVER
1070
     2
  0
MLINESTYLE
  5
209
102
{ACAD_REACTORS
330
208
102
}
330
208
100
AcDbMlineStyle
  2
STANDARD
 70
     0
  3

 62
   256
 51
90.0
 52
90.0
 71
     2
 49
0.5
 62
   256
  6
BYLAYER
 49
-0.5
 62
   256
  6
BYLAYER
  0
ACDBPLACEHOLDER
  5
3F7
102
{ACAD_REACTORS
330
3F6
102
}
330
3F6
  0
SCALE
  5
42E
102
{ACAD_REACTORS
330
42D
102
}
330
42D
100
AcDbScale
 70
     0
300
1:1
140
1.0
141
1.0
290
     1
  0
SCALE
  5
42F
102
{ACAD_REACTORS
330
42D
102
}
330
42D
100
AcDbScale
 70
     0
300
1/128" = 1'-0"
140
0.0078125
141
12.0
290
     0
  0
SCALE
  5
430
102
{ACAD_REACTORS
330
42D
102
}
330
42D
100
AcDbScale
 70
     0
300
1/64" = 1'-0"
140
0.015625
141
12.0
290
     0
  0
SCALE
  5
431
102
{ACAD_REACTORS
330
42D
102
}
330
42D
100
AcDbScale
 70
     0
300
1/32" = 1'-0"
140
0.03125
141
12.0
290
     0
  0
SCALE
  5
432
102
{ACAD_REACTORS
330
42D
102
}
330
42D
100
AcDbScale
 70
     0
300
1/16" = 1'-0"
140
0.0625
141
12.0
290
     0
  0
SCALE
  5
433
102
{ACAD_REACTORS
330
42D
102
}
330
42D
100
AcDbScale
 70
     0
300
3/32" = 1'-0"
140
0.09375
141
12.0
290
     0
  0
SCALE
  5
434
102
{ACAD_REACTORS
330
42D
102
}
330
42D
100
AcDbScale
 70
     0
300
1/8" = 1'-0"
140
0.125
141
12.0
290
     0
  0
SCALE
  5
435
102
{ACAD_REACTORS
330
42D
102
}
330
42D
100
AcDbScale
 70
     0
300
3/16" = 1'-0"
140
0.1875
141
12.0
290
     0
  0
SCALE
  5
436
102
{ACAD_REACTORS
330
42D
102
}
330
42D
100
AcDbScale
 70
     0
300
1/4" = 1'-0"
140
0.25
141
12.0
290
     0
  0
SCALE
  5
437
102
{ACAD_REACTORS
330
42D
102
}
330
42D
100
AcDbScale
 70
     0
300
3/8" = 1'-0"
140
0.375
141
12.0
290
     0
  0
SCALE
  5
438
102
{ACAD_REACTORS
330
42D
102
}
330
42D
100
AcDbScale
 70
     0
300
1/2" = 1'-0"
140
0.5
141
12.0
290
     0
  0
SCALE
  5
439
102
{ACAD_REACTORS
330
42D
102
}
330
42D
100
AcDbScale
 70
     0
300
3/4" = 1'-0"
140
0.75
141
12.0
290
     0
  0
SCALE
  5
43A
102
{ACAD_REACTORS
330
42D
102
}
330
42D
100
AcDbScale
 70
     0
300
1" = 1'-0"
140
1.0
141
12.0
290
     0
  0
SCALE
  5
43B
102
{ACAD_REACTORS
330
42D
102
}
330
42D
100
AcDbScale
 70
     0
300
1-1/2" = 1'-0"
140
1.5
141
12.0
290
     0
  0
SCALE
  5
43C
102
{ACAD_REACTORS
330
42D
102
}
330
42D
100
AcDbScale
 70
     0
300
3" = 1'-0"
140
3.0
141
12.0
290
     0
  0
SCALE
  5
43D
102
{ACAD_REACTORS
330
42D
102
}
330
42D
100
AcDbScale
 70
     0
300
6" = 1'-0"
140
6.0
141
12.0
290
     0
  0
SCALE
  5
43E
102
{ACAD_REACTORS
330
42D
102
}
330
42D
100
AcDbScale
 70
     0
300
1'-0" = 1'-0"
140
12.0
141
12.0
290
     0
  0
ACDBSECTIONVIEWSTYLE
  5
442
102
{ACAD_XDICTIONARY
360
49D
102
}
102
{ACAD_REACTORS
330
441
102
}
330
441
100
AcDbModelDocViewStyle
 70
     0
  3
Imperial24
290
     0
100
AcDbSectionViewStyle
 70
     0
 71
     0
 90
       78
 71
     1
340
203
 40
0.24
340
0
340
0
 40
0.24
300
I, O, Q, S, X, Z
 40
0.48
 90
        3
 40
0.18
 90
        1
 71
     2
340
207
 90
       25
340
207
 90
       50
 40
0.24
 40
0.0
 40
0.24
 71
     3
340
203
 40
0.24
 90
        1
 40
0.75
 90
        1
300
%<\AcVar ViewType \f "%tc1">% %<\AcVar ViewSectionStartId>%-%<\AcVar ViewSectionEndId>%\PSCALE %<\AcVar ViewScale \f "%sn">%
 71
     4
300
ANSI31
 40
1.0
 90
        0
290
     0
290
     0
 90
        6
 40
0.0
 40
1.570796326794896
 40
0.2617993877991494
 40
1.308996938995747
 40
-0.2617993877991494
 40
1.832595714594046
  0
TABLESTYLE
  5
42C
102
{ACAD_XDICTIONARY
360
464
102
}
102
{ACAD_REACTORS
330
42B
102
}
330
42B
100
AcDbTableStyle
  3
Standard
 70
     0
 71
     0
 40
0.06
 41
0.06
280
     0
281
     0
  7
STANDARD
140
0.18
170
     2
 62
     0
 63
     7
283
     0
274
    -2
284
     1
 64
     0
275
    -2
285
     1
 65
     0
276
    -2
286
     1
 66
     0
277
    -2
287
     1
 67
     0
278
    -2
288
     1
 68
     0
279
    -2
289
     1
 69
     0
  7
STANDARD
140
0.25
170
     5
 62
     0
 63
     7
283
     0
274
    -2
284
     1
 64
     0
275
    -2
285
     1
 65
     0
276
    -2
286
     1
 66
     0
277
    -2
287
     1
 67
     0
278
    -2
288
     1
 68
     0
279
    -2
289
     1
 69
     0
  7
STANDARD
140
0.18
170
     5
 62
     0
 63
     7
283
     0
274
    -2
284
     1
 64
     0
275
    -2
285
     1
 65
     0
276
    -2
286
     1
 66
     0
277
    -2
287
     1
 67
     0
278
    -2
288
     1
 68
     0
279
    -2
289
     1
 69
     0
  0
VISUALSTYLE
  5
417
102
{ACAD_XDICTIONARY
360
475
102
}
102
{ACAD_REACTORS
330
411
102
}
330
411
100
AcDbVisualStyle
  2
2dWireframe
 70
     4
 71
     0
 72
     2
 73
     0
 90
        0
 40
-0.6
 41
-30.0
 62
     5
 63
     7
 74
     1
 91
        4
 64
     7
 65
   257
 75
     1
175
     1
 42
1.0
 92
        0
 66
   257
 43
1.0
 76
     1
 77
     6
 78
     2
 67
     7
 79
     5
170
     0
171
     0
290
     0
174
     0
 93
        1
 44
0.0
173
     0
291
     0
 45
0.0
1001
ACAD
1000
AcDbSavedByObjectVersion
1070
     0
  0
VISUALSTYLE
  5
416
102
{ACAD_XDICTIONARY
360
473
102
}
102
{ACAD_REACTORS
330
411
102
}
330
411
100
AcDbVisualStyle
  2
Basic
 70
     7
 71
     1
 72
     0
 73
     1
 90
        0
 40
-0.6
 41
-30.0
 62
     5
 63
     7
 74
     0
 91
        4
 64
     7
 65
   257
 75
     1
175
     1
 42
1.0
 92
        8
 66
     7
 43
1.0
 76
     1
 77
     6
 78
     2
 67
     7
 79
     5
170
     0
171
     0
290
     0
174
     0
 93
        1
 44
0.0
173
     0
291
     1
 45
0.0
1001
ACAD
1000
AcDbSavedByObjectVersion
1070
     0
  0
VISUALSTYLE
  5
41D
102
{ACAD_XDICTIONARY
360
481
102
}
102
{ACAD_REACTORS
330
411
102
}
330
411
100
AcDbVisualStyle
  2
Brighten
 70
    12
 71
     2
 72
     2
 73
     0
 90
        0
 40
-0.6
 41
-30.0
 62
     5
 63
     7
 74
     1
 91
        4
 64
     7
 65
   257
 75
     1
175
     1
 42
1.0
 92
        8
 66
     7
 43
1.0
 76
     1
 77
     6
 78
     2
 67
     7
 79
     5
170
     0
171
     0
290
     0
174
     0
 93
        1
 44
50.0
173
     0
291
     1
 45
0.0
1001
ACAD
1000
AcDbSavedByObjectVersion
1070
     0
  0
VISUALSTYLE
  5
421
102
{ACAD_XDICTIONARY
360
489
102
}
102
{ACAD_REACTORS
330
411
102
}
330
411
100
AcDbVisualStyle
  2
ColorChange
 70
    16
 71
     2
 72
     2
 73
     3
 90
        0
 40
-0.6
 41
-30.0
 62
     5
 63
     8
 74
     1
 91
        4
 64
     7
 65
   257
 75
     1
175
     1
 42
1.0
 92
        8
 66
     8
 43
1.0
 76
     1
 77
     6
 78
     2
 67
     7
 79
     5
170
     0
171
     0
290
     0
174
     0
 93
        1
 44
0.0
173
     0
291
     1
 45
0.0
1001
ACAD
1000
AcDbSavedByObjectVersion
1070
     0
  0
VISUALSTYLE
  5
41A
102
{ACAD_XDICTIONARY
360
47B
102
}
102
{ACAD_REACTORS
330
411
102
}
330
411
100
AcDbVisualStyle
  2
Conceptual
 70
     9
 71
     3
 72
     2
 73
     0
 90
        0
 40
-0.6
 41
-30.0
 62
     5
 63
     7
 74
     2
 91
        2
 64
     7
 65
   257
 75
     1
175
     1
 42
179.0
 92
        8
 66
     7
 43
1.0
 76
     1
 77
     6
 78
     2
 67
     7
 79
     3
170
     0
171
     0
290
     0
174
     0
 93
        1
 44
0.0
173
     0
291
     0
 45
0.0
1001
ACAD
1000
AcDbSavedByObjectVersion
1070
     0
  0
VISUALSTYLE
  5
41C
102
{ACAD_XDICTIONARY
360
47F
102
}
102
{ACAD_REACTORS
330
411
102
}
330
411
100
AcDbVisualStyle
  2
Dim
 70
    11
 71
     2
 72
     2
 73
     0
 90
        0
 40
-0.6
 41
-30.0
 62
     5
 63
     7
 74
     1
 91
        4
 64
     7
 65
   257
 75
     1
175
     1
 42
1.0
 92
        8
 66
     7
 43
1.0
 76
     1
 77
     6
 78
     2
 67
     7
 79
     5
170
     0
171
     0
290
     0
174
     0
 93
        1
 44
-50.0
173
     0
291
     1
 45
0.0
1001
ACAD
1000
AcDbSavedByObjectVersion
1070
     0
  0
VISUALSTYLE
  5
429
102
{ACAD_XDICTIONARY
360
499
102
}
102
{ACAD_REACTORS
330
411
102
}
330
411
100
AcDbVisualStyle
  2
EdgeColorOff
 70
    22
 71
     2
 72
     2
 73
     0
 90
        0
 40
-0.6
 41
-30.0
 62
     5
 63
     7
 74
     1
 91
        4
 64
     7
 65
   257
 75
     1
175
     1
 42
1.0
 92
        8
 66
     7
 43
1.0
 76
     1
 77
     6
 78
     2
 67
     7
 79
     5
170
     0
171
     0
290
     0
174
     0
 93
        1
 44
0.0
173
     0
291
     1
 45
0.0
1001
ACAD
1000
AcDbSavedByObjectVersion
1070
     0
  0
VISUALSTYLE
  5
420
102
{ACAD_XDICTIONARY
360
487
102
}
102
{ACAD_REACTORS
330
411
102
}
330
411
100
AcDbVisualStyle
  2
Facepattern
 70
    15
 71
     2
 72
     2
 73
     0
 90
        0
 40
-0.6
 41
-30.0
 62
     5
 63
     7
 74
     1
 91
        4
 64
     7
 65
   257
 75
     1
175
     1
 42
1.0
 92
        8
 66
     7
 43
1.0
 76
     1
 77
     6
 78
     2
 67
     7
 79
     5
170
     0
171
     0
290
     0
174
     0
 93
        1
 44
0.0
173
     0
291
     1
 45
0.0
1001
ACAD
1000
AcDbSavedByObjectVersion
1070
     0
  0
VISUALSTYLE
  5
412
102
{ACAD_XDICTIONARY
360
46B
102
}
102
{ACAD_REACTORS
330
411
102
}
330
411
100
AcDbVisualStyle
  2
Flat
 70
     0
 71
     2
 72
     1
 73
     1
 90
        2
 40
-0.6
 41
30.0
 62
     5
 63
     7
 74
     0
 91
        0
 64
     7
 65
   257
 75
     1
175
     1
 42
1.0
 92
        8
 66
     7
 43
1.0
 76
     1
 77
     6
 78
     2
 67
     7
 79
     5
170
     0
171
     0
290
     0
174
     0
 93
       13
 44
0.0
173
     0
291
     1
 45
0.0
1001
ACAD
1000
AcDbSavedByObjectVersion
1070
     0
  0
VISUALSTYLE
  5
413
102
{ACAD_XDICTIONARY
360
46D
102
}
102
{ACAD_REACTORS
330
411
102
}
330
411
100
AcDbVisualStyle
  2
FlatWithEdges
 70
     1
 71
     2
 72
     1
 73
     1
 90
        2
 40
-0.6
 41
30.0
 62
     5
 63
     7
 74
     1
 91
        0
 64
     7
 65
   257
 75
     1
175
     1
 42
1.0
 92
        0
 66
   257
 43
1.0
 76
     1
 77
     6
 78
     2
 67
     7
 79
     5
170
     0
171
     0
290
     0
174
     0
 93
       13
 44
0.0
173
     0
291
     1
 45
0.0
1001
ACAD
1000
AcDbSavedByObjectVersion
1070
     0
  0
VISUALSTYLE
  5
414
102
{ACAD_XDICTIONARY
360
46F
102
}
102
{ACAD_REACTORS
330
411
102
}
330
411
100
AcDbVisualStyle
  2
Gouraud
 70
     2
 71
     2
 72
     2
 73
     1
 90
        2
 40
-0.6
 41
30.0
 62
     5
 63
     7
 74
     0
 91
        0
 64
     7
 65
   257
 75
     1
175
     1
 42
1.0
 92
        0
 66
     7
 43
1.0
 76
     1
 77
     6
 78
     2
 67
     7
 79
     5
170
     0
171
     0
290
     0
174
     0
 93
       13
 44
0.0
173
     0
291
     1
 45
0.0
1001
ACAD
1000
AcDbSavedByObjectVersion
1070
     0
  0
VISUALSTYLE
  5
415
102
{ACAD_XDICTIONARY
360
471
102
}
102
{ACAD_REACTORS
330
411
102
}
330
411
100
AcDbVisualStyle
  2
GouraudWithEdges
 70
     3
 71
     2
 72
     2
 73
     1
 90
        2
 40
-0.6
 41
30.0
 62
     5
 63
     7
 74
     1
 91
        0
 64
     7
 65
   257
 75
     1
175
     1
 42
1.0
 92
        0
 66
   257
 43
1.0
 76
     1
 77
     6
 78
     2
 67
     7
 79
     5
170
     0
171
     0
290
     0
174
     0
 93
       13
 44
0.0
173
     0
291
     1
 45
0.0
1001
ACAD
1000
AcDbSavedByObjectVersion
1070
     0
  0
VISUALSTYLE
  5
419
102
{ACAD_XDICTIONARY
360
479
102
}
102
{ACAD_REACTORS
330
411
102
}
330
411
100
AcDbVisualStyle
  2
Hidden
 70
     6
 71
     1
 72
     2
 73
     2
 90
        0
 40
-0.6
 41
-30.0
 62
     5
 63
     7
 74
     2
 91
        2
 64
     7
 65
   257
 75
     2
175
     1
 42
40.0
 92
        0
 66
   257
 43
1.0
 76
     1
 77
     6
 78
     2
 67
     7
 79
     3
170
     0
171
     0
290
     0
174
     0
 93
        1
 44
0.0
173
     0
291
     0
 45
0.0
1001
ACAD
1000
AcDbSavedByObjectVersion
1070
     0
  0
VISUALSTYLE
  5
427
102
{ACAD_XDICTIONARY
360
495
102
}
102
{ACAD_REACTORS
330
411
102
}
330
411
100
AcDbVisualStyle
  2
JitterOff
 70
    20
 71
     2
 72
     2
 73
     0
 90
        0
 40
-0.6
 41
-30.0
 62
     5
 63
     7
 74
     1
 91
        4
 64
     7
 65
   257
 75
     1
175
     1
 42
1.0
 92
       10
 66
     7
 43
1.0
 76
     1
 77
     6
 78
     2
 67
     7
 79
     5
170
     0
171
     0
290
     0
174
     0
 93
        1
 44
0.0
173
     0
291
     1
 45
0.0
1001
ACAD
1000
AcDbSavedByObjectVersion
1070
     0
  0
VISUALSTYLE
  5
41F
102
{ACAD_XDICTIONARY
360
485
102
}
102
{ACAD_REACTORS
330
411
102
}
330
411
100
AcDbVisualStyle
  2
Linepattern
 70
    14
 71
     2
 72
     2
 73
     0
 90
        0
 40
-0.6
 41
-30.0
 62
     5
 63
     7
 74
     1
 91
        4
 64
     7
 65
   257
 75
     7
175
     7
 42
1.0
 92
        8
 66
     7
 43
1.0
 76
     1
 77
     6
 78
     2
 67
     7
 79
     5
170
     0
171
     0
290
     0
174
     0
 93
        1
 44
0.0
173
     0
291
     1
 45
0.0
1001
ACAD
1000
AcDbSavedByObjectVersion
1070
     0
  0
VISUALSTYLE
  5
428
102
{ACAD_XDICTIONARY
360
497
102
}
102
{ACAD_REACTORS
330
411
102
}
330
411
100
AcDbVisualStyle
  2
OverhangOff
 70
    21
 71
     2
 72
     2
 73
     0
 90
        0
 40
-0.6
 41
-30.0
 62
     5
 63
     7
 74
     1
 91
        4
 64
     7
 65
   257
 75
     1
175
     1
 42
1.0
 92
        9
 66
     7
 43
1.0
 76
     1
 77
     6
 78
     2
 67
     7
 79
     5
170
     0
171
     0
290
     0
174
     0
 93
        1
 44
0.0
173
     0
291
     1
 45
0.0
1001
ACAD
1000
AcDbSavedByObjectVersion
1070
     0
  0
VISUALSTYLE
  5
41B
102
{ACAD_XDICTIONARY
360
47D
102
}
102
{ACAD_REACTORS
330
411
102
}
330
411
100
AcDbVisualStyle
  2
Realistic
 70
     8
 71
     2
 72
     3
 73
     0
 90
        2
 40
-0.6
 41
30.0
 62
     5
 63
     7
 74
     0
 91
        0
 64
     7
 65
   257
 75
     1
175
     1
 42
1.0
 92
        8
 66
   257
 43
1.0
 76
     1
 77
     6
 78
     2
 67
     7
 79
     3
170
     0
171
     0
290
     0
174
     0
 93
       13
 44
0.0
173
     0
291
     0
 45
0.0
1001
ACAD
1000
AcDbSavedByObjectVersion
1070
     0
  0
VISUALSTYLE
  5
426
102
{ACAD_XDICTIONARY
360
493
102
}
102
{ACAD_REACTORS
330
411
102
}
330
411
100
AcDbVisualStyle
  2
Shaded
 70
    27
 71
     2
 72
     2
 73
     1
 90
        2
 40
-0.6
 41
30.0
 62
     5
 63
     7
 74
     0
 91
        4
 64
     7
 65
   257
 75
     1
175
     1
 42
1.0
 92
        8
 66
   257
 43
1.0
 76
     1
 77
     6
 78
     2
 67
     8
 79
     3
170
     0
171
     0
290
     0
174
     0
 93
        5
 44
0.0
173
     0
291
     0
 45
0.0
1001
ACAD
1000
AcDbSavedByObjectVersion
1070
     0
  0
VISUALSTYLE
  5
425
102
{ACAD_XDICTIONARY
360
491
102
}
102
{ACAD_REACTORS
330
411
102
}
330
411
100
AcDbVisualStyle
  2
Shaded with edges
 70
    26
 71
     2
 72
     2
 73
     1
 90
        2
 40
-0.6
 41
30.0
 62
     5
 63
     7
 74
     1
 91
       10
 64
     7
 65
   257
 75
     2
175
     1
 42
1.0
 92
        8
 66
   257
 43
1.0
 76
     1
 77
     6
 78
     2
 67
     7
 79
     3
170
     0
171
     0
290
     0
174
     0
 93
        5
 44
0.0
173
     0
291
     0
 45
0.0
1001
ACAD
1000
AcDbSavedByObjectVersion
1070
     0
  0
VISUALSTYLE
  5
422
102
{ACAD_XDICTIONARY
360
48B
102
}
102
{ACAD_REACTORS
330
411
102
}
330
411
100
AcDbVisualStyle
  2
Shades of Gray
 70
    23
 71
     2
 72
     2
 73
     3
 90
        0
 40
-0.6
 41
-30.0
 62
     5
 63
     7
 74
     2
 91
        2
 64
     7
 65
     7
 75
     1
175
     1
 42
40.0
 92
        8
 66
     7
 43
1.0
 76
     1
 77
     6
 78
     2
 67
     7
 79
     3
170
     0
171
     0
290
     0
174
     0
 93
        1
 44
0.0
173
     0
291
     0
 45
0.0
1001
ACAD
1000
AcDbSavedByObjectVersion
1070
     0
  0
VISUALSTYLE
  5
423
102
{ACAD_XDICTIONARY
360
48D
102
}
102
{ACAD_REACTORS
330
411
102
}
330
411
100
AcDbVisualStyle
  2
Sketchy
 70
    24
 71
     1
 72
     2
 73
     2
 90
        0
 40
-0.6
 41
-30.0
 62
     5
 63
     7
 74
     2
 91
        2
 64
     7
 65
     7
 75
     1
175
     1
 42
40.0
 92
       11
 66
     7
 43
1.0
 76
     1
 77
     6
 78
     2
 67
     7
 79
     6
170
     0
171
     0
290
     0
174
     0
 93
        1
 44
0.0
173
     0
291
     0
 45
0.0
1001
ACAD
1000
AcDbSavedByObjectVersion
1070
     0
  0
VISUALSTYLE
  5
41E
102
{ACAD_XDICTIONARY
360
483
102
}
102
{ACAD_REACTORS
330
411
102
}
330
411
100
AcDbVisualStyle
  2
Thicken
 70
    13
 71
     2
 72
     2
 73
     0
 90
        0
 40
-0.6
 41
-30.0
 62
     5
 63
     7
 74
     1
 91
        4
 64
     7
 65
   257
 75
     1
175
     1
 42
1.0
 92
       12
 66
     7
 43
1.0
 76
     1
 77
     6
 78
     2
 67
     7
 79
     5
170
     0
171
     0
290
     0
174
     0
 93
        1
 44
0.0
173
     0
291
     1
 45
0.0
1001
ACAD
1000
AcDbSavedByObjectVersion
1070
     0
  0
VISUALSTYLE
  5
418
102
{ACAD_XDICTIONARY
360
477
102
}
102
{ACAD_REACTORS
330
411
102
}
330
411
100
AcDbVisualStyle
  2
Wireframe
 70
     5
 71
     0
 72
     2
 73
     0
 90
        0
 40
-0.6
 41
-30.0
 62
     5
 63
     7
 74
     1
 91
        4
 64
     7
 65
   257
 75
     1
175
     1
 42
1.0
 92
        0
 66
   257
 43
1.0
 76
     1
 77
     6
 78
     2
 67
     7
 79
     3
170
     0
171
     0
290
     0
174
     0
 93
        1
 44
0.0
173
     0
291
     0
 45
0.0
1001
ACAD
1000
AcDbSavedByObjectVersion
1070
     0
  0
VISUALSTYLE
  5
424
102
{ACAD_XDICTIONARY
360
48F
102
}
102
{ACAD_REACTORS
330
411
102
}
330
411
100
AcDbVisualStyle
  2
X-Ray
 70
    25
 71
     2
 72
     2
 73
     1
 90
        1
 40
0.5
 41
-30.0
 62
     5
 63
     7
 74
     1
 91
        0
 64
     7
 65
   257
 75
     1
175
     1
 42
1.0
 92
        8
 66
     7
 43
1.0
 76
     1
 77
     6
 78
     2
 67
     7
 79
     3
170
     0
171
     0
290
     0
174
     0
 93
       13
 44
0.0
173
     0
291
     0
 45
0.0
1001
ACAD
1000
AcDbSavedByObjectVersion
1070
     0
  0
DICTIONARYVAR
  5
45E
102
{ACAD_REACTORS
330
459
102
}
330
459
100
DictionaryVariables
280
     0
  1
1:1
  0
DICTIONARYVAR
  5
45B
102
{ACAD_REACTORS
330
459
102
}
330
459
100
DictionaryVariables
280
     0
  1
STANDARD
  0
DICTIONARYVAR
  5
45A
102
{ACAD_REACTORS
330
459
102
}
330
459
100
DictionaryVariables
280
     0
  1
STANDARD
  0
DICTIONARYVAR
  5
45C
102
{ACAD_REACTORS
330
459
102
}
330
459
100
DictionaryVariables
280
     0
  1
Imperial24
  0
DICTIONARYVAR
  5
45D
102
{ACAD_REACTORS
330
459
102
}
330
459
100
DictionaryVariables
280
     0
  1
Imperial24
  0
DICTIONARYVAR
  5
461
102
{ACAD_REACTORS
330
459
102
}
330
459
100
DictionaryVariables
280
     0
  1
1
  0
DICTIONARYVAR
  5
460
102
{ACAD_REACTORS
330
459
102
}
330
459
100
DictionaryVariables
280
     0
  1
0
  0
DICTIONARYVAR
  5
45F
102
{ACAD_REACTORS
330
459
102
}
330
459
100
DictionaryVariables
280
     0
  1
127
  0
DICTIONARYVAR
  5
462
102
{ACAD_REACTORS
330
459
102
}
330
459
100
DictionaryVariables
280
     0
  1
2
  0
DICTIONARY
  5
49F
330
444
100
AcDbDictionary
280
     1
281
     1
  3
ACAD_XREC_ROUNDTRIP
360
4A0
  0
DICTIONARY
  5
4A1
330
445
100
AcDbDictionary
280
     1
281
     1
  3
ACAD_XREC_ROUNDTRIP
360
4A2
  0
DICTIONARY
  5
4A3
330
446
100
AcDbDictionary
280
     1
281
     1
  3
ACAD_XREC_ROUNDTRIP
360
4A4
  0
DICTIONARY
  5
402
330
401
100
AcDbDictionary
280
     1
281
     1
  3
ACAD_XREC_ROUNDTRIP
360
469
  3
BUMPTILE
360
404
  3
DIFFUSETILE
360
403
  3
OPACITYTILE
360
407
  3
REFLECTIONTILE
360
406
  3
REFRACTIONTILE
360
408
  3
SPECULARTILE
360
405
  0
DICTIONARY
  5
3FA
330
3F9
100
AcDbDictionary
280
     1
281
     1
  3
ACAD_XREC_ROUNDTRIP
360
468
  3
BUMPTILE
360
3FC
  3
DIFFUSETILE
360
3FB
  3
OPACITYTILE
360
3FF
  3
REFLECTIONTILE
360
3FE
  3
REFRACTIONTILE
360
400
  3
SPECULARTILE
360
3FD
  0
DICTIONARY
  5
40A
330
409
100
AcDbDictionary
280
     1
281
     1
  3
ACAD_XREC_ROUNDTRIP
360
46A
  3
BUMPTILE
360
40C
  3
DIFFUSETILE
360
40B
  3
OPACITYTILE
360
40F
  3
REFLECTIONTILE
360
40E
  3
REFRACTIONTILE
360
410
  3
SPECULARTILE
360
40D
  0
DICTIONARY
  5
49D
330
442
100
AcDbDictionary
280
     1
281
     1
  3
ACAD_XREC_ROUNDTRIP
360
49E
  0
DICTIONARY
  5
464
330
42C
100
AcDbDictionary
280
     1
281
     1
  3
ACAD_ROUNDTRIP_2008_TABLESTYLE_CELLSTYLEMAP
360
465
  3
ACAD_XREC_ROUNDTRIP
360
49B
  0
DICTIONARY
  5
475
330
417
100
AcDbDictionary
280
     1
281
     1
  3
ACAD_XREC_ROUNDTRIP
360
476
  0
DICTIONARY
  5
473
330
416
100
AcDbDictionary
280
     1
281
     1
  3
ACAD_XREC_ROUNDTRIP
360
474
  0
DICTIONARY
  5
481
330
41D
100
AcDbDictionary
280
     1
281
     1
  3
ACAD_XREC_ROUNDTRIP
360
482
  0
DICTIONARY
  5
489
330
421
100
AcDbDictionary
280
     1
281
     1
  3
ACAD_XREC_ROUNDTRIP
360
48A
  0
DICTIONARY
  5
47B
330
41A
100
AcDbDictionary
280
     1
281
     1
  3
ACAD_XREC_ROUNDTRIP
360
47C
  0
DICTIONARY
  5
47F
330
41C
100
AcDbDictionary
280
     1
281
     1
  3
ACAD_XREC_ROUNDTRIP
360
480
  0
DICTIONARY
  5
499
330
429
100
AcDbDictionary
280
     1
281
     1
  3
ACAD_XREC_ROUNDTRIP
360
49A
  0
DICTIONARY
  5
487
330
420
100
AcDbDictionary
280
     1
281
     1
  3
ACAD_XREC_ROUNDTRIP
360
488
  0
DICTIONARY
  5
46B
330
412
100
AcDbDictionary
280
     1
281
     1
  3
ACAD_XREC_ROUNDTRIP
360
46C
  0
DICTIONARY
  5
46D
330
413
100
AcDbDictionary
280
     1
281
     1
  3
ACAD_XREC_ROUNDTRIP
360
46E
  0
DICTIONARY
  5
46F
330
414
100
AcDbDictionary
280
     1
281
     1
  3
ACAD_XREC_ROUNDTRIP
360
470
  0
DICTIONARY
  5
471
330
415
100
AcDbDictionary
280
     1
281
     1
  3
ACAD_XREC_ROUNDTRIP
360
472
  0
DICTIONARY
  5
479
330
419
100
AcDbDictionary
280
     1
281
     1
  3
ACAD_XREC_ROUNDTRIP
360
47A
  0
DICTIONARY
  5
495
330
427
100
AcDbDictionary
280
     1
281
     1
  3
ACAD_XREC_ROUNDTRIP
360
496
  0
DICTIONARY
  5
485
330
41F
100
AcDbDictionary
280
     1
281
     1
  3
ACAD_XREC_ROUNDTRIP
360
486
  0
DICTIONARY
  5
497
330
428
100
AcDbDictionary
280
     1
281
     1
  3
ACAD_XREC_ROUNDTRIP
360
498
  0
DICTIONARY
  5
47D
330
41B
100
AcDbDictionary
280
     1
281
     1
  3
ACAD_XREC_ROUNDTRIP
360
47E
  0
DICTIONARY
  5
493
330
426
100
AcDbDictionary
280
     1
281
     1
  3
ACAD_XREC_ROUNDTRIP
360
494
  0
DICTIONARY
  5
491
330
425
100
AcDbDictionary
280
     1
281
     1
  3
ACAD_XREC_ROUNDTRIP
360
492
  0
DICTIONARY
  5
48B
330
422
100
AcDbDictionary
280
     1
281
     1
  3
ACAD_XREC_ROUNDTRIP
360
48C
  0
DICTIONARY
  5
48D
330
423
100
AcDbDictionary
280
     1
281
     1
  3
ACAD_XREC_ROUNDTRIP
360
48E
  0
DICTIONARY
  5
483
330
41E
100
AcDbDictionary
280
     1
281
     1
  3
ACAD_XREC_ROUNDTRIP
360
484
  0
DICTIONARY
  5
477
330
418
100
AcDbDictionary
280
     1
281
     1
  3
ACAD_XREC_ROUNDTRIP
360
478
  0
DICTIONARY
  5
48F
330
424
100
AcDbDictionary
280
     1
281
     1
  3
ACAD_XREC_ROUNDTRIP
360
490
  0
XRECORD
  5
4A0
102
{ACAD_REACTORS
330
49F
102
}
330
49F
100
AcDbXrecord
280
     1
102
DISPLAYNAME
  1
Imperial24
102
FLAGS
 90
        0
  0
XRECORD
  5
4A2
102
{ACAD_REACTORS
330
4A1
102
}
330
4A1
100
AcDbXrecord
280
     1
102
SHADEPLOT
 70
     0
102
SHADEPLOTRESLEVEL
 70
     2
102
SHADEPLOTCUSTOMDPI
 70
   300
  0
XRECORD
  5
4A4
102
{ACAD_REACTORS
330
4A3
102
}
330
4A3
100
AcDbXrecord
280
     1
102
SHADEPLOT
 70
     0
102
SHADEPLOTRESLEVEL
 70
     2
102
SHADEPLOTCUSTOMDPI
 70
   300
  0
XRECORD
  5
469
102
{ACAD_REACTORS
330
402
102
}
330
402
100
AcDbXrecord
280
     1
102
MATERIAL
148
0.0
149
0.0
149
0.0
 93
        0
 94
      127
282
     0
 72
     0
 77
     0
171
     0
175
     0
179
     0
273
     0
  0
XRECORD
  5
404
102
{ACAD_REACTORS
330
402
102
}
330
402
100
AcDbXrecord
280
     1
270
     1
271
     1
  0
XRECORD
  5
403
102
{ACAD_REACTORS
330
402
102
}
330
402
100
AcDbXrecord
280
     1
270
     1
271
     1
  0
XRECORD
  5
407
102
{ACAD_REACTORS
330
402
102
}
330
402
100
AcDbXrecord
280
     1
270
     1
271
     1
  0
XRECORD
  5
406
102
{ACAD_REACTORS
330
402
102
}
330
402
100
AcDbXrecord
280
     1
270
     1
271
     1
  0
XRECORD
  5
408
102
{ACAD_REACTORS
330
402
102
}
330
402
100
AcDbXrecord
280
     1
270
     1
271
     1
  0
XRECORD
  5
405
102
{ACAD_REACTORS
330
402
102
}
330
402
100
AcDbXrecord
280
     1
270
     1
271
     1
  0
XRECORD
  5
468
102
{ACAD_REACTORS
330
3FA
102
}
330
3FA
100
AcDbXrecord
280
     1
102
MATERIAL
148
0.0
149
0.0
149
0.0
 93
        0
 94
      127
282
     0
 72
     0
 77
     0
171
     0
175
     0
179
     0
273
     0
  0
XRECORD
  5
3FC
102
{ACAD_REACTORS
330
3FA
102
}
330
3FA
100
AcDbXrecord
280
     1
270
     1
271
     1
  0
XRECORD
  5
3FB
102
{ACAD_REACTORS
330
3FA
102
}
330
3FA
100
AcDbXrecord
280
     1
270
     1
271
     1
  0
XRECORD
  5
3FF
102
{ACAD_REACTORS
330
3FA
102
}
330
3FA
100
AcDbXrecord
280
     1
270
     1
271
     1
  0
XRECORD
  5
3FE
102
{ACAD_REACTORS
330
3FA
102
}
330
3FA
100
AcDbXrecord
280
     1
270
     1
271
     1
  0
XRECORD
  5
400
102
{ACAD_REACTORS
330
3FA
102
}
330
3FA
100
AcDbXrecord
280
     1
270
     1
271
     1
  0
XRECORD
  5
3FD
102
{ACAD_REACTORS
330
3FA
102
}
330
3FA
100
AcDbXrecord
280
     1
270
     1
271
     1
  0
XRECORD
  5
46A
102
{ACAD_REACTORS
330
40A
102
}
330
40A
100
AcDbXrecord
280
     1
102
MATERIAL
148
0.0
149
0.0
149
0.0
 93
        0
 94
      127
282
     0
 72
     0
 77
     0
171
     0
175
     0
179
     0
273
     0
  0
XRECORD
  5
40C
102
{ACAD_REACTORS
330
40A
102
}
330
40A
100
AcDbXrecord
280
     1
270
     1
271
     1
  0
XRECORD
  5
40B
102
{ACAD_REACTORS
330
40A
102
}
330
40A
100
AcDbXrecord
280
     1
270
     1
271
     1
  0
XRECORD
  5
40F
102
{ACAD_REACTORS
330
40A
102
}
330
40A
100
AcDbXrecord
280
     1
270
     1
271
     1
  0
XRECORD
  5
40E
102
{ACAD_REACTORS
330
40A
102
}
330
40A
100
AcDbXrecord
280
     1
270
     1
271
     1
  0
XRECORD
  5
410
102
{ACAD_REACTORS
330
40A
102
}
330
40A
100
AcDbXrecord
280
     1
270
     1
271
     1
  0
XRECORD
  5
40D
102
{ACAD_REACTORS
330
40A
102
}
330
40A
100
AcDbXrecord
280
     1
270
     1
271
     1
  0
XRECORD
  5
49E
102
{ACAD_REACTORS
330
49D
102
}
330
49D
100
AcDbXrecord
280
     1
102
DISPLAYNAME
  1
Imperial24
102
FLAGS
 90
        0
  0
CELLSTYLEMAP
  5
465
102
{ACAD_REACTORS
330
464
102
}
330
464
100
AcDbCellStyleMap
 90
        3
300
CELLSTYLE
  1
TABLEFORMAT_BEGIN
 90
        5
170
     1
 91
        0
 92
    32768
 62
   257
 93
        1
300
CONTENTFORMAT
  1
CONTENTFORMAT_BEGIN
 90
        0
 91
        0
 92
      512
 93
        0
300

 40
0.0
140
1.0
 94
        5
 62
     0
340
203
144
0.25
309
CONTENTFORMAT_END
171
     0
 94
        0
309
TABLEFORMAT_END
  1
CELLSTYLE_BEGIN
 90
        1
 91
        1
300
_TITLE
309
CELLSTYLE_END
300
CELLSTYLE
  1
TABLEFORMAT_BEGIN
 90
        5
170
     1
 91
        0
 92
        0
 62
   257
 93
        1
300
CONTENTFORMAT
  1
CONTENTFORMAT_BEGIN
 90
        0
 91
        0
 92
      512
 93
        0
300

 40
0.0
140
1.0
 94
        5
 62
     0
340
203
144
0.18
309
CONTENTFORMAT_END
171
     0
 94
        0
309
TABLEFORMAT_END
  1
CELLSTYLE_BEGIN
 90
        2
 91
        1
300
_HEADER
309
CELLSTYLE_END
300
CELLSTYLE
  1
TABLEFORMAT_BEGIN
 90
        5
170
     1
 91
        0
 92
        0
 62
   257
 93
        1
300
CONTENTFORMAT
  1
CONTENTFORMAT_BEGIN
 90
        0
 91
        0
 92
      512
 93
        0
300

 40
0.0
140
1.0
 94
        2
 62
     0
340
203
144
0.18
309
CONTENTFORMAT_END
171
     0
 94
        0
309
TABLEFORMAT_END
  1
CELLSTYLE_BEGIN
 90
        3
 91
        2
300
_DATA
309
CELLSTYLE_END
  0
XRECORD
  5
49B
102
{ACAD_REACTORS
330
464
102
}
330
464
100
AcDbXrecord
280
     1
102
ACAD_ROUNDTRIP_PRE2007_TABLESTYLE
 90
      512
 91
        0
  1

 92
      512
 93
        0
  2

 94
      512
 95
        0
  3

  0
XRECORD
  5
476
102
{ACAD_REACTORS
330
475
102
}
330
475
100
AcDbXrecord
280
     1
102
RTVSPost2010Prop28
280
     1
102
RTVSPost2010PropOp28
 70
     1
102
RTVSPost2010Prop29
280
     1
102
RTVSPost2010PropOp29
 70
     1
102
RTVSPost2010Prop30
280
     0
102
RTVSPost2010PropOp30
 70
     1
102
RTVSPost2010Prop31
280
     0
102
RTVSPost2010PropOp31
 70
     1
102
RTVSPost2010Prop32
280
     0
102
RTVSPost2010PropOp32
 70
     1
102
RTVSPost2010Prop33
280
     0
102
RTVSPost2010PropOp33
 70
     1
102
RTVSPost2010Prop34
280
     0
102
RTVSPost2010PropOp34
 70
     1
102
RTVSPost2010Prop35
280
     0
102
RTVSPost2010PropOp35
 70
     1
102
RTVSPost2010Prop36
280
     0
102
RTVSPost2010PropOp36
 70
     1
102
RTVSPost2010Prop37
 90
       50
102
RTVSPost2010PropOp37
 70
     1
102
RTVSPost2010Prop38
140
0.0
102
RTVSPost2010PropOp38
 70
     1
102
RTVSPost2010Prop39
140
1.0
102
RTVSPost2010PropOp39
 70
     1
102
RTVSPost2010Prop40
 90
        0
102
RTVSPost2010PropOp40
 70
     1
102
RTVSPost2010Prop41ColorIndex
 90
       18
102
RTVSPost2010Prop41ColorRGB
 90
        0
102
RTVSPost2010PropOp41
 70
     1
102
RTVSPost2010Prop42
 90
       50
102
RTVSPost2010PropOp42
 70
     1
102
RTVSPost2010Prop43
 90
        3
102
RTVSPost2010PropOp43
 70
     1
102
RTVSPost2010Prop44ColorIndex
 90
        5
102
RTVSPost2010Prop44ColorRGB
 90
      255
102
RTVSPost2010PropOp44
 70
     1
102
RTVSPost2010Prop45
280
     0
102
RTVSPost2010PropOp45
 70
     1
102
RTVSPost2010Prop46
 90
       50
102
RTVSPost2010PropOp46
 70
     1
102
RTVSPost2010Prop47
 90
       50
102
RTVSPost2010PropOp47
 70
     1
102
RTVSPost2010Prop48
 90
       50
102
RTVSPost2010PropOp48
 70
     1
102
RTVSPost2010Prop49
280
     0
102
RTVSPost2010PropOp49
 70
     1
102
RTVSPost2010Prop50
 90
       50
102
RTVSPost2010PropOp50
 70
     1
102
RTVSPost2010Prop51ColorIndex
 90
      256
102
RTVSPost2010Prop51ColorRGB
 90
-16777216
102
RTVSPost2010PropOp51
 70
     0
102
RTVSPost2010Prop52
140
1.0
102
RTVSPost2010PropOp52
 70
     0
102
RTVSPost2010Prop53
 90
        2
102
RTVSPost2010PropOp53
 70
     1
102
RTVSPost2010Prop54
  1
strokes_ogs.tif
102
RTVSPost2010PropOp54
 70
     1
102
RTVSPost2010Prop55
280
     0
102
RTVSPost2010PropOp55
 70
     1
102
RTVSPost2010Prop56
140
1.0
102
RTVSPost2010PropOp56
 70
     1
102
RTVSPost2010Prop57
140
1.0
102
RTVSPost2010PropOp57
 70
     1
102
RTVSPropertyOp0
 70
     1
102
RTVSPropertyOp1
 70
     1
102
RTVSPropertyOp2
 70
     1
102
RTVSPropertyOp3
 70
     1
102
RTVSPropertyOp4
 70
     1
102
RTVSPropertyOp5
 70
     1
102
RTVSPropertyOp6
 70
     1
102
RTVSPropertyOp7
 70
     1
102
RTVSPropertyOp8
 70
     1
102
RTVSPropertyOp9
 70
     1
102
RTVSPropertyOp10
 70
     1
102
RTVSPropertyOp11
 70
     1
102
RTVSPropertyOp12
 70
     1
102
RTVSPropertyOp13
 70
     1
102
RTVSPropertyOp14
 70
     1
102
RTVSPropertyOp15
 70
     1
102
RTVSPropertyOp16
 70
     1
102
RTVSPropertyOp17
 70
     1
102
RTVSPropertyOp18
 70
     1
102
RTVSPropertyOp19
 70
     1
102
RTVSPropertyOp20
 70
     1
102
RTVSPropertyOp21
 70
     1
102
RTVSPropertyOp22
 70
     1
102
RTVSPropertyOp23
 70
     1
102
RTVSPropertyOp24
 70
     1
102
RTVSPropertyOp25
 70
     1
102
RTVSPropertyOp26
 70
     1
102
RTVSPropertyOp27
 70
     1
102
RTVSPropertyOp28
 70
     1
102
RTVSPropertyOp29
 70
     1
102
RTVSPropertyOp30
 70
     1
102
RTVSPropertyOp31
 70
     1
102
RTVSPropertyOp32
 70
     1
102
RTVSPropertyOp33
 70
     1
102
RTVSPropertyOp34
 70
     1
102
RTVSPropertyOp35
 70
     1
102
RTVSPropertyOp36
 70
     1
102
RTVSPropertyOp37
 70
     1
102
RTVSPropertyOp38
 70
     1
102
RTVSPropertyOp39
 70
     1
102
RTVSPropertyOp40
 70
     1
102
RTVSPropertyOp41
 70
     1
102
RTVSPropertyOp42
 70
     1
102
RTVSPropertyOp43
 70
     1
102
RTVSPropertyOp44
 70
     1
102
RTVSPropertyOp45
 70
     1
102
RTVSPropertyOp46
 70
     1
102
RTVSPropertyOp47
 70
     1
102
RTVSPropertyOp48
 70
     1
102
RTVSPropertyOp49
 70
     1
102
RTVSPropertyOp50
 70
     1
102
RTVSPropertyOp51
 70
     0
102
RTVSPropertyOp52
 70
     0
102
RTVSPropertyOp53
 70
     1
102
RTVSPropertyOp54
 70
     1
102
RTVSPropertyOp55
 70
     1
102
RTVSPropertyOp56
 70
     1
102
RTVSPropertyOp57
 70
     1
102
RTVSPropertyOp58
 70
     1
102
RTVSPropertyOp59
 70
     1
102
RTVSPropertyOp60
 70
     1
102
RTVSPropertyOp61
 70
     1
102
RTVSPropertyOp62
 70
     1
  0
XRECORD
  5
474
102
{ACAD_REACTORS
330
473
102
}
330
473
100
AcDbXrecord
280
     1
102
RTVSPost2010Prop28
280
     0
102
RTVSPost2010PropOp28
 70
     1
102
RTVSPost2010Prop29
280
     1
102
RTVSPost2010PropOp29
 70
     1
102
RTVSPost2010Prop30
280
     1
102
RTVSPost2010PropOp30
 70
     1
102
RTVSPost2010Prop31
280
     0
102
RTVSPost2010PropOp31
 70
     1
102
RTVSPost2010Prop32
280
     0
102
RTVSPost2010PropOp32
 70
     1
102
RTVSPost2010Prop33
280
     0
102
RTVSPost2010PropOp33
 70
     1
102
RTVSPost2010Prop34
280
     0
102
RTVSPost2010PropOp34
 70
     1
102
RTVSPost2010Prop35
280
     0
102
RTVSPost2010PropOp35
 70
     1
102
RTVSPost2010Prop36
280
     0
102
RTVSPost2010PropOp36
 70
     1
102
RTVSPost2010Prop37
 90
       50
102
RTVSPost2010PropOp37
 70
     1
102
RTVSPost2010Prop38
140
0.0
102
RTVSPost2010PropOp38
 70
     1
102
RTVSPost2010Prop39
140
1.0
102
RTVSPost2010PropOp39
 70
     1
102
RTVSPost2010Prop40
 90
        0
102
RTVSPost2010PropOp40
 70
     1
102
RTVSPost2010Prop41ColorIndex
 90
       18
102
RTVSPost2010Prop41ColorRGB
 90
        0
102
RTVSPost2010PropOp41
 70
     1
102
RTVSPost2010Prop42
 90
       50
102
RTVSPost2010PropOp42
 70
     1
102
RTVSPost2010Prop43
 90
        3
102
RTVSPost2010PropOp43
 70
     1
102
RTVSPost2010Prop44ColorIndex
 90
        5
102
RTVSPost2010Prop44ColorRGB
 90
      255
102
RTVSPost2010PropOp44
 70
     1
102
RTVSPost2010Prop45
280
     0
102
RTVSPost2010PropOp45
 70
     1
102
RTVSPost2010Prop46
 90
       50
102
RTVSPost2010PropOp46
 70
     1
102
RTVSPost2010Prop47
 90
       50
102
RTVSPost2010PropOp47
 70
     1
102
RTVSPost2010Prop48
 90
       50
102
RTVSPost2010PropOp48
 70
     1
102
RTVSPost2010Prop49
280
     0
102
RTVSPost2010PropOp49
 70
     1
102
RTVSPost2010Prop50
 90
       50
102
RTVSPost2010PropOp50
 70
     1
102
RTVSPost2010Prop51ColorIndex
 90
      256
102
RTVSPost2010Prop51ColorRGB
 90
-16777216
102
RTVSPost2010PropOp51
 70
     0
102
RTVSPost2010Prop52
140
1.0
102
RTVSPost2010PropOp52
 70
     0
102
RTVSPost2010Prop53
 90
        2
102
RTVSPost2010PropOp53
 70
     1
102
RTVSPost2010Prop54
  1
strokes_ogs.tif
102
RTVSPost2010PropOp54
 70
     1
102
RTVSPost2010Prop55
280
     0
102
RTVSPost2010PropOp55
 70
     1
102
RTVSPost2010Prop56
140
1.0
102
RTVSPost2010PropOp56
 70
     1
102
RTVSPost2010Prop57
140
1.0
102
RTVSPost2010PropOp57
 70
     1
102
RTVSPropertyOp0
 70
     1
102
RTVSPropertyOp1
 70
     1
102
RTVSPropertyOp2
 70
     1
102
RTVSPropertyOp3
 70
     1
102
RTVSPropertyOp4
 70
     1
102
RTVSPropertyOp5
 70
     1
102
RTVSPropertyOp6
 70
     1
102
RTVSPropertyOp7
 70
     1
102
RTVSPropertyOp8
 70
     1
102
RTVSPropertyOp9
 70
     1
102
RTVSPropertyOp10
 70
     1
102
RTVSPropertyOp11
 70
     1
102
RTVSPropertyOp12
 70
     1
102
RTVSPropertyOp13
 70
     1
102
RTVSPropertyOp14
 70
     1
102
RTVSPropertyOp15
 70
     1
102
RTVSPropertyOp16
 70
     1
102
RTVSPropertyOp17
 70
     1
102
RTVSPropertyOp18
 70
     1
102
RTVSPropertyOp19
 70
     1
102
RTVSPropertyOp20
 70
     1
102
RTVSPropertyOp21
 70
     1
102
RTVSPropertyOp22
 70
     1
102
RTVSPropertyOp23
 70
     1
102
RTVSPropertyOp24
 70
     1
102
RTVSPropertyOp25
 70
     1
102
RTVSPropertyOp26
 70
     1
102
RTVSPropertyOp27
 70
     1
102
RTVSPropertyOp28
 70
     1
102
RTVSPropertyOp29
 70
     1
102
RTVSPropertyOp30
 70
     1
102
RTVSPropertyOp31
 70
     1
102
RTVSPropertyOp32
 70
     1
102
RTVSPropertyOp33
 70
     1
102
RTVSPropertyOp34
 70
     1
102
RTVSPropertyOp35
 70
     1
102
RTVSPropertyOp36
 70
     1
102
RTVSPropertyOp37
 70
     1
102
RTVSPropertyOp38
 70
     1
102
RTVSPropertyOp39
 70
     1
102
RTVSPropertyOp40
 70
     1
102
RTVSPropertyOp41
 70
     1
102
RTVSPropertyOp42
 70
     1
102
RTVSPropertyOp43
 70
     1
102
RTVSPropertyOp44
 70
     1
102
RTVSPropertyOp45
 70
     1
102
RTVSPropertyOp46
 70
     1
102
RTVSPropertyOp47
 70
     1
102
RTVSPropertyOp48
 70
     1
102
RTVSPropertyOp49
 70
     1
102
RTVSPropertyOp50
 70
     1
102
RTVSPropertyOp51
 70
     0
102
RTVSPropertyOp52
 70
     0
102
RTVSPropertyOp53
 70
     1
102
RTVSPropertyOp54
 70
     1
102
RTVSPropertyOp55
 70
     1
102
RTVSPropertyOp56
 70
     1
102
RTVSPropertyOp57
 70
     1
102
RTVSPropertyOp58
 70
     1
102
RTVSPropertyOp59
 70
     1
102
RTVSPropertyOp60
 70
     1
102
RTVSPropertyOp61
 70
     1
102
RTVSPropertyOp62
 70
     1
  0
XRECORD
  5
482
102
{ACAD_REACTORS
330
481
102
}
330
481
100
AcDbXrecord
280
     1
102
RTVSPost2010Prop28
280
     0
102
RTVSPost2010PropOp28
 70
     1
102
RTVSPost2010Prop29
280
     1
102
RTVSPost2010PropOp29
 70
     1
102
RTVSPost2010Prop30
280
     1
102
RTVSPost2010PropOp30
 70
     1
102
RTVSPost2010Prop31
280
     0
102
RTVSPost2010PropOp31
 70
     1
102
RTVSPost2010Prop32
280
     0
102
RTVSPost2010PropOp32
 70
     1
102
RTVSPost2010Prop33
280
     0
102
RTVSPost2010PropOp33
 70
     1
102
RTVSPost2010Prop34
280
     0
102
RTVSPost2010PropOp34
 70
     1
102
RTVSPost2010Prop35
280
     0
102
RTVSPost2010PropOp35
 70
     1
102
RTVSPost2010Prop36
280
     0
102
RTVSPost2010PropOp36
 70
     1
102
RTVSPost2010Prop37
 90
       50
102
RTVSPost2010PropOp37
 70
     1
102
RTVSPost2010Prop38
140
0.0
102
RTVSPost2010PropOp38
 70
     1
102
RTVSPost2010Prop39
140
1.0
102
RTVSPost2010PropOp39
 70
     1
102
RTVSPost2010Prop40
 90
        0
102
RTVSPost2010PropOp40
 70
     1
102
RTVSPost2010Prop41ColorIndex
 90
       18
102
RTVSPost2010Prop41ColorRGB
 90
        0
102
RTVSPost2010PropOp41
 70
     1
102
RTVSPost2010Prop42
 90
       50
102
RTVSPost2010PropOp42
 70
     1
102
RTVSPost2010Prop43
 90
        3
102
RTVSPost2010PropOp43
 70
     1
102
RTVSPost2010Prop44ColorIndex
 90
        5
102
RTVSPost2010Prop44ColorRGB
 90
      255
102
RTVSPost2010PropOp44
 70
     1
102
RTVSPost2010Prop45
280
     0
102
RTVSPost2010PropOp45
 70
     1
102
RTVSPost2010Prop46
 90
       50
102
RTVSPost2010PropOp46
 70
     1
102
RTVSPost2010Prop47
 90
       50
102
RTVSPost2010PropOp47
 70
     1
102
RTVSPost2010Prop48
 90
       50
102
RTVSPost2010PropOp48
 70
     1
102
RTVSPost2010Prop49
280
     0
102
RTVSPost2010PropOp49
 70
     1
102
RTVSPost2010Prop50
 90
       50
102
RTVSPost2010PropOp50
 70
     1
102
RTVSPost2010Prop51ColorIndex
 90
      256
102
RTVSPost2010Prop51ColorRGB
 90
-16777216
102
RTVSPost2010PropOp51
 70
     0
102
RTVSPost2010Prop52
140
1.0
102
RTVSPost2010PropOp52
 70
     0
102
RTVSPost2010Prop53
 90
        2
102
RTVSPost2010PropOp53
 70
     1
102
RTVSPost2010Prop54
  1
strokes_ogs.tif
102
RTVSPost2010PropOp54
 70
     1
102
RTVSPost2010Prop55
280
     0
102
RTVSPost2010PropOp55
 70
     1
102
RTVSPost2010Prop56
140
1.0
102
RTVSPost2010PropOp56
 70
     1
102
RTVSPost2010Prop57
140
1.0
102
RTVSPost2010PropOp57
 70
     1
102
RTVSPropertyOp0
 70
     1
102
RTVSPropertyOp1
 70
     1
102
RTVSPropertyOp2
 70
     1
102
RTVSPropertyOp3
 70
     1
102
RTVSPropertyOp4
 70
     1
102
RTVSPropertyOp5
 70
     1
102
RTVSPropertyOp6
 70
     1
102
RTVSPropertyOp7
 70
     1
102
RTVSPropertyOp8
 70
     1
102
RTVSPropertyOp9
 70
     1
102
RTVSPropertyOp10
 70
     1
102
RTVSPropertyOp11
 70
     1
102
RTVSPropertyOp12
 70
     1
102
RTVSPropertyOp13
 70
     1
102
RTVSPropertyOp14
 70
     1
102
RTVSPropertyOp15
 70
     1
102
RTVSPropertyOp16
 70
     1
102
RTVSPropertyOp17
 70
     1
102
RTVSPropertyOp18
 70
     1
102
RTVSPropertyOp19
 70
     1
102
RTVSPropertyOp20
 70
     1
102
RTVSPropertyOp21
 70
     1
102
RTVSPropertyOp22
 70
     1
102
RTVSPropertyOp23
 70
     1
102
RTVSPropertyOp24
 70
     1
102
RTVSPropertyOp25
 70
     1
102
RTVSPropertyOp26
 70
     1
102
RTVSPropertyOp27
 70
     1
102
RTVSPropertyOp28
 70
     1
102
RTVSPropertyOp29
 70
     1
102
RTVSPropertyOp30
 70
     1
102
RTVSPropertyOp31
 70
     1
102
RTVSPropertyOp32
 70
     1
102
RTVSPropertyOp33
 70
     1
102
RTVSPropertyOp34
 70
     1
102
RTVSPropertyOp35
 70
     1
102
RTVSPropertyOp36
 70
     1
102
RTVSPropertyOp37
 70
     1
102
RTVSPropertyOp38
 70
     1
102
RTVSPropertyOp39
 70
     1
102
RTVSPropertyOp40
 70
     1
102
RTVSPropertyOp41
 70
     1
102
RTVSPropertyOp42
 70
     1
102
RTVSPropertyOp43
 70
     1
102
RTVSPropertyOp44
 70
     1
102
RTVSPropertyOp45
 70
     1
102
RTVSPropertyOp46
 70
     1
102
RTVSPropertyOp47
 70
     1
102
RTVSPropertyOp48
 70
     1
102
RTVSPropertyOp49
 70
     1
102
RTVSPropertyOp50
 70
     1
102
RTVSPropertyOp51
 70
     0
102
RTVSPropertyOp52
 70
     0
102
RTVSPropertyOp53
 70
     1
102
RTVSPropertyOp54
 70
     1
102
RTVSPropertyOp55
 70
     1
102
RTVSPropertyOp56
 70
     1
102
RTVSPropertyOp57
 70
     1
102
RTVSPropertyOp58
 70
     1
102
RTVSPropertyOp59
 70
     1
102
RTVSPropertyOp60
 70
     1
102
RTVSPropertyOp61
 70
     1
102
RTVSPropertyOp62
 70
     1
  0
XRECORD
  5
48A
102
{ACAD_REACTORS
330
489
102
}
330
489
100
AcDbXrecord
280
     1
102
RTVSPost2010Prop28
280
     0
102
RTVSPost2010PropOp28
 70
     1
102
RTVSPost2010Prop29
280
     1
102
RTVSPost2010PropOp29
 70
     1
102
RTVSPost2010Prop30
280
     1
102
RTVSPost2010PropOp30
 70
     1
102
RTVSPost2010Prop31
280
     0
102
RTVSPost2010PropOp31
 70
     1
102
RTVSPost2010Prop32
280
     0
102
RTVSPost2010PropOp32
 70
     1
102
RTVSPost2010Prop33
280
     0
102
RTVSPost2010PropOp33
 70
     1
102
RTVSPost2010Prop34
280
     0
102
RTVSPost2010PropOp34
 70
     1
102
RTVSPost2010Prop35
280
     0
102
RTVSPost2010PropOp35
 70
     1
102
RTVSPost2010Prop36
280
     0
102
RTVSPost2010PropOp36
 70
     1
102
RTVSPost2010Prop37
 90
       50
102
RTVSPost2010PropOp37
 70
     1
102
RTVSPost2010Prop38
140
0.0
102
RTVSPost2010PropOp38
 70
     1
102
RTVSPost2010Prop39
140
1.0
102
RTVSPost2010PropOp39
 70
     1
102
RTVSPost2010Prop40
 90
        0
102
RTVSPost2010PropOp40
 70
     1
102
RTVSPost2010Prop41ColorIndex
 90
       18
102
RTVSPost2010Prop41ColorRGB
 90
        0
102
RTVSPost2010PropOp41
 70
     1
102
RTVSPost2010Prop42
 90
       50
102
RTVSPost2010PropOp42
 70
     1
102
RTVSPost2010Prop43
 90
        3
102
RTVSPost2010PropOp43
 70
     1
102
RTVSPost2010Prop44ColorIndex
 90
        5
102
RTVSPost2010Prop44ColorRGB
 90
      255
102
RTVSPost2010PropOp44
 70
     1
102
RTVSPost2010Prop45
280
     0
102
RTVSPost2010PropOp45
 70
     1
102
RTVSPost2010Prop46
 90
       50
102
RTVSPost2010PropOp46
 70
     1
102
RTVSPost2010Prop47
 90
       50
102
RTVSPost2010PropOp47
 70
     1
102
RTVSPost2010Prop48
 90
       50
102
RTVSPost2010PropOp48
 70
     1
102
RTVSPost2010Prop49
280
     0
102
RTVSPost2010PropOp49
 70
     1
102
RTVSPost2010Prop50
 90
       50
102
RTVSPost2010PropOp50
 70
     1
102
RTVSPost2010Prop51ColorIndex
 90
      256
102
RTVSPost2010Prop51ColorRGB
 90
-16777216
102
RTVSPost2010PropOp51
 70
     0
102
RTVSPost2010Prop52
140
1.0
102
RTVSPost2010PropOp52
 70
     0
102
RTVSPost2010Prop53
 90
        2
102
RTVSPost2010PropOp53
 70
     1
102
RTVSPost2010Prop54
  1
strokes_ogs.tif
102
RTVSPost2010PropOp54
 70
     1
102
RTVSPost2010Prop55
280
     0
102
RTVSPost2010PropOp55
 70
     1
102
RTVSPost2010Prop56
140
1.0
102
RTVSPost2010PropOp56
 70
     1
102
RTVSPost2010Prop57
140
1.0
102
RTVSPost2010PropOp57
 70
     1
102
RTVSPropertyOp0
 70
     1
102
RTVSPropertyOp1
 70
     1
102
RTVSPropertyOp2
 70
     1
102
RTVSPropertyOp3
 70
     1
102
RTVSPropertyOp4
 70
     1
102
RTVSPropertyOp5
 70
     1
102
RTVSPropertyOp6
 70
     1
102
RTVSPropertyOp7
 70
     1
102
RTVSPropertyOp8
 70
     1
102
RTVSPropertyOp9
 70
     1
102
RTVSPropertyOp10
 70
     1
102
RTVSPropertyOp11
 70
     1
102
RTVSPropertyOp12
 70
     1
102
RTVSPropertyOp13
 70
     1
102
RTVSPropertyOp14
 70
     1
102
RTVSPropertyOp15
 70
     1
102
RTVSPropertyOp16
 70
     1
102
RTVSPropertyOp17
 70
     1
102
RTVSPropertyOp18
 70
     1
102
RTVSPropertyOp19
 70
     1
102
RTVSPropertyOp20
 70
     1
102
RTVSPropertyOp21
 70
     1
102
RTVSPropertyOp22
 70
     1
102
RTVSPropertyOp23
 70
     1
102
RTVSPropertyOp24
 70
     1
102
RTVSPropertyOp25
 70
     1
102
RTVSPropertyOp26
 70
     1
102
RTVSPropertyOp27
 70
     1
102
RTVSPropertyOp28
 70
     1
102
RTVSPropertyOp29
 70
     1
102
RTVSPropertyOp30
 70
     1
102
RTVSPropertyOp31
 70
     1
102
RTVSPropertyOp32
 70
     1
102
RTVSPropertyOp33
 70
     1
102
RTVSPropertyOp34
 70
     1
102
RTVSPropertyOp35
 70
     1
102
RTVSPropertyOp36
 70
     1
102
RTVSPropertyOp37
 70
     1
102
RTVSPropertyOp38
 70
     1
102
RTVSPropertyOp39
 70
     1
102
RTVSPropertyOp40
 70
     1
102
RTVSPropertyOp41
 70
     1
102
RTVSPropertyOp42
 70
     1
102
RTVSPropertyOp43
 70
     1
102
RTVSPropertyOp44
 70
     1
102
RTVSPropertyOp45
 70
     1
102
RTVSPropertyOp46
 70
     1
102
RTVSPropertyOp47
 70
     1
102
RTVSPropertyOp48
 70
     1
102
RTVSPropertyOp49
 70
     1
102
RTVSPropertyOp50
 70
     1
102
RTVSPropertyOp51
 70
     0
102
RTVSPropertyOp52
 70
     0
102
RTVSPropertyOp53
 70
     1
102
RTVSPropertyOp54
 70
     1
102
RTVSPropertyOp55
 70
     1
102
RTVSPropertyOp56
 70
     1
102
RTVSPropertyOp57
 70
     1
102
RTVSPropertyOp58
 70
     1
102
RTVSPropertyOp59
 70
     1
102
RTVSPropertyOp60
 70
     1
102
RTVSPropertyOp61
 70
     1
102
RTVSPropertyOp62
 70
     1
  0
XRECORD
  5
47C
102
{ACAD_REACTORS
330
47B
102
}
330
47B
100
AcDbXrecord
280
     1
102
RTVSPost2010Prop28
280
     0
102
RTVSPost2010PropOp28
 70
     1
102
RTVSPost2010Prop29
280
     1
102
RTVSPost2010PropOp29
 70
     1
102
RTVSPost2010Prop30
280
     1
102
RTVSPost2010PropOp30
 70
     1
102
RTVSPost2010Prop31
280
     0
102
RTVSPost2010PropOp31
 70
     1
102
RTVSPost2010Prop32
280
     0
102
RTVSPost2010PropOp32
 70
     1
102
RTVSPost2010Prop33
280
     0
102
RTVSPost2010PropOp33
 70
     1
102
RTVSPost2010Prop34
280
     0
102
RTVSPost2010PropOp34
 70
     1
102
RTVSPost2010Prop35
280
     0
102
RTVSPost2010PropOp35
 70
     1
102
RTVSPost2010Prop36
280
     0
102
RTVSPost2010PropOp36
 70
     1
102
RTVSPost2010Prop37
 90
       50
102
RTVSPost2010PropOp37
 70
     1
102
RTVSPost2010Prop38
140
0.0
102
RTVSPost2010PropOp38
 70
     1
102
RTVSPost2010Prop39
140
1.0
102
RTVSPost2010PropOp39
 70
     1
102
RTVSPost2010Prop40
 90
        0
102
RTVSPost2010PropOp40
 70
     1
102
RTVSPost2010Prop41ColorIndex
 90
       18
102
RTVSPost2010Prop41ColorRGB
 90
        0
102
RTVSPost2010PropOp41
 70
     1
102
RTVSPost2010Prop42
 90
       50
102
RTVSPost2010PropOp42
 70
     1
102
RTVSPost2010Prop43
 90
        3
102
RTVSPost2010PropOp43
 70
     1
102
RTVSPost2010Prop44ColorIndex
 90
        5
102
RTVSPost2010Prop44ColorRGB
 90
      255
102
RTVSPost2010PropOp44
 70
     1
102
RTVSPost2010Prop45
280
     0
102
RTVSPost2010PropOp45
 70
     1
102
RTVSPost2010Prop46
 90
       50
102
RTVSPost2010PropOp46
 70
     1
102
RTVSPost2010Prop47
 90
       50
102
RTVSPost2010PropOp47
 70
     1
102
RTVSPost2010Prop48
 90
       50
102
RTVSPost2010PropOp48
 70
     1
102
RTVSPost2010Prop49
280
     0
102
RTVSPost2010PropOp49
 70
     1
102
RTVSPost2010Prop50
 90
       50
102
RTVSPost2010PropOp50
 70
     1
102
RTVSPost2010Prop51ColorIndex
 90
      256
102
RTVSPost2010Prop51ColorRGB
 90
-16777216
102
RTVSPost2010PropOp51
 70
     0
102
RTVSPost2010Prop52
140
1.0
102
RTVSPost2010PropOp52
 70
     0
102
RTVSPost2010Prop53
 90
        2
102
RTVSPost2010PropOp53
 70
     1
102
RTVSPost2010Prop54
  1
strokes_ogs.tif
102
RTVSPost2010PropOp54
 70
     1
102
RTVSPost2010Prop55
280
     0
102
RTVSPost2010PropOp55
 70
     1
102
RTVSPost2010Prop56
140
1.0
102
RTVSPost2010PropOp56
 70
     1
102
RTVSPost2010Prop57
140
1.0
102
RTVSPost2010PropOp57
 70
     1
102
RTVSPropertyOp0
 70
     1
102
RTVSPropertyOp1
 70
     1
102
RTVSPropertyOp2
 70
     1
102
RTVSPropertyOp3
 70
     1
102
RTVSPropertyOp4
 70
     1
102
RTVSPropertyOp5
 70
     1
102
RTVSPropertyOp6
 70
     1
102
RTVSPropertyOp7
 70
     1
102
RTVSPropertyOp8
 70
     1
102
RTVSPropertyOp9
 70
     1
102
RTVSPropertyOp10
 70
     1
102
RTVSPropertyOp11
 70
     1
102
RTVSPropertyOp12
 70
     1
102
RTVSPropertyOp13
 70
     1
102
RTVSPropertyOp14
 70
     1
102
RTVSPropertyOp15
 70
     1
102
RTVSPropertyOp16
 70
     1
102
RTVSPropertyOp17
 70
     1
102
RTVSPropertyOp18
 70
     1
102
RTVSPropertyOp19
 70
     1
102
RTVSPropertyOp20
 70
     1
102
RTVSPropertyOp21
 70
     1
102
RTVSPropertyOp22
 70
     1
102
RTVSPropertyOp23
 70
     1
102
RTVSPropertyOp24
 70
     1
102
RTVSPropertyOp25
 70
     1
102
RTVSPropertyOp26
 70
     1
102
RTVSPropertyOp27
 70
     1
102
RTVSPropertyOp28
 70
     1
102
RTVSPropertyOp29
 70
     1
102
RTVSPropertyOp30
 70
     1
102
RTVSPropertyOp31
 70
     1
102
RTVSPropertyOp32
 70
     1
102
RTVSPropertyOp33
 70
     1
102
RTVSPropertyOp34
 70
     1
102
RTVSPropertyOp35
 70
     1
102
RTVSPropertyOp36
 70
     1
102
RTVSPropertyOp37
 70
     1
102
RTVSPropertyOp38
 70
     1
102
RTVSPropertyOp39
 70
     1
102
RTVSPropertyOp40
 70
     1
102
RTVSPropertyOp41
 70
     1
102
RTVSPropertyOp42
 70
     1
102
RTVSPropertyOp43
 70
     1
102
RTVSPropertyOp44
 70
     1
102
RTVSPropertyOp45
 70
     1
102
RTVSPropertyOp46
 70
     1
102
RTVSPropertyOp47
 70
     1
102
RTVSPropertyOp48
 70
     1
102
RTVSPropertyOp49
 70
     1
102
RTVSPropertyOp50
 70
     1
102
RTVSPropertyOp51
 70
     0
102
RTVSPropertyOp52
 70
     0
102
RTVSPropertyOp53
 70
     1
102
RTVSPropertyOp54
 70
     1
102
RTVSPropertyOp55
 70
     1
102
RTVSPropertyOp56
 70
     1
102
RTVSPropertyOp57
 70
     1
102
RTVSPropertyOp58
 70
     1
102
RTVSPropertyOp59
 70
     1
102
RTVSPropertyOp60
 70
     1
102
RTVSPropertyOp61
 70
     1
102
RTVSPropertyOp62
 70
     1
  0
XRECORD
  5
480
102
{ACAD_REACTORS
330
47F
102
}
330
47F
100
AcDbXrecord
280
     1
102
RTVSPost2010Prop28
280
     0
102
RTVSPost2010PropOp28
 70
     1
102
RTVSPost2010Prop29
280
     1
102
RTVSPost2010PropOp29
 70
     1
102
RTVSPost2010Prop30
280
     1
102
RTVSPost2010PropOp30
 70
     1
102
RTVSPost2010Prop31
280
     0
102
RTVSPost2010PropOp31
 70
     1
102
RTVSPost2010Prop32
280
     0
102
RTVSPost2010PropOp32
 70
     1
102
RTVSPost2010Prop33
280
     0
102
RTVSPost2010PropOp33
 70
     1
102
RTVSPost2010Prop34
280
     0
102
RTVSPost2010PropOp34
 70
     1
102
RTVSPost2010Prop35
280
     0
102
RTVSPost2010PropOp35
 70
     1
102
RTVSPost2010Prop36
280
     0
102
RTVSPost2010PropOp36
 70
     1
102
RTVSPost2010Prop37
 90
       50
102
RTVSPost2010PropOp37
 70
     1
102
RTVSPost2010Prop38
140
0.0
102
RTVSPost2010PropOp38
 70
     1
102
RTVSPost2010Prop39
140
1.0
102
RTVSPost2010PropOp39
 70
     1
102
RTVSPost2010Prop40
 90
        0
102
RTVSPost2010PropOp40
 70
     1
102
RTVSPost2010Prop41ColorIndex
 90
       18
102
RTVSPost2010Prop41ColorRGB
 90
        0
102
RTVSPost2010PropOp41
 70
     1
102
RTVSPost2010Prop42
 90
       50
102
RTVSPost2010PropOp42
 70
     1
102
RTVSPost2010Prop43
 90
        3
102
RTVSPost2010PropOp43
 70
     1
102
RTVSPost2010Prop44ColorIndex
 90
        5
102
RTVSPost2010Prop44ColorRGB
 90
      255
102
RTVSPost2010PropOp44
 70
     1
102
RTVSPost2010Prop45
280
     0
102
RTVSPost2010PropOp45
 70
     1
102
RTVSPost2010Prop46
 90
       50
102
RTVSPost2010PropOp46
 70
     1
102
RTVSPost2010Prop47
 90
       50
102
RTVSPost2010PropOp47
 70
     1
102
RTVSPost2010Prop48
 90
       50
102
RTVSPost2010PropOp48
 70
     1
102
RTVSPost2010Prop49
280
     0
102
RTVSPost2010PropOp49
 70
     1
102
RTVSPost2010Prop50
 90
       50
102
RTVSPost2010PropOp50
 70
     1
102
RTVSPost2010Prop51ColorIndex
 90
      256
102
RTVSPost2010Prop51ColorRGB
 90
-16777216
102
RTVSPost2010PropOp51
 70
     0
102
RTVSPost2010Prop52
140
1.0
102
RTVSPost2010PropOp52
 70
     0
102
RTVSPost2010Prop53
 90
        2
102
RTVSPost2010PropOp53
 70
     1
102
RTVSPost2010Prop54
  1
strokes_ogs.tif
102
RTVSPost2010PropOp54
 70
     1
102
RTVSPost2010Prop55
280
     0
102
RTVSPost2010PropOp55
 70
     1
102
RTVSPost2010Prop56
140
1.0
102
RTVSPost2010PropOp56
 70
     1
102
RTVSPost2010Prop57
140
1.0
102
RTVSPost2010PropOp57
 70
     1
102
RTVSPropertyOp0
 70
     1
102
RTVSPropertyOp1
 70
     1
102
RTVSPropertyOp2
 70
     1
102
RTVSPropertyOp3
 70
     1
102
RTVSPropertyOp4
 70
     1
102
RTVSPropertyOp5
 70
     1
102
RTVSPropertyOp6
 70
     1
102
RTVSPropertyOp7
 70
     1
102
RTVSPropertyOp8
 70
     1
102
RTVSPropertyOp9
 70
     1
102
RTVSPropertyOp10
 70
     1
102
RTVSPropertyOp11
 70
     1
102
RTVSPropertyOp12
 70
     1
102
RTVSPropertyOp13
 70
     1
102
RTVSPropertyOp14
 70
     1
102
RTVSPropertyOp15
 70
     1
102
RTVSPropertyOp16
 70
     1
102
RTVSPropertyOp17
 70
     1
102
RTVSPropertyOp18
 70
     1
102
RTVSPropertyOp19
 70
     1
102
RTVSPropertyOp20
 70
     1
102
RTVSPropertyOp21
 70
     1
102
RTVSPropertyOp22
 70
     1
102
RTVSPropertyOp23
 70
     1
102
RTVSPropertyOp24
 70
     1
102
RTVSPropertyOp25
 70
     1
102
RTVSPropertyOp26
 70
     1
102
RTVSPropertyOp27
 70
     1
102
RTVSPropertyOp28
 70
     1
102
RTVSPropertyOp29
 70
     1
102
RTVSPropertyOp30
 70
     1
102
RTVSPropertyOp31
 70
     1
102
RTVSPropertyOp32
 70
     1
102
RTVSPropertyOp33
 70
     1
102
RTVSPropertyOp34
 70
     1
102
RTVSPropertyOp35
 70
     1
102
RTVSPropertyOp36
 70
     1
102
RTVSPropertyOp37
 70
     1
102
RTVSPropertyOp38
 70
     1
102
RTVSPropertyOp39
 70
     1
102
RTVSPropertyOp40
 70
     1
102
RTVSPropertyOp41
 70
     1
102
RTVSPropertyOp42
 70
     1
102
RTVSPropertyOp43
 70
     1
102
RTVSPropertyOp44
 70
     1
102
RTVSPropertyOp45
 70
     1
102
RTVSPropertyOp46
 70
     1
102
RTVSPropertyOp47
 70
     1
102
RTVSPropertyOp48
 70
     1
102
RTVSPropertyOp49
 70
     1
102
RTVSPropertyOp50
 70
     1
102
RTVSPropertyOp51
 70
     0
102
RTVSPropertyOp52
 70
     0
102
RTVSPropertyOp53
 70
     1
102
RTVSPropertyOp54
 70
     1
102
RTVSPropertyOp55
 70
     1
102
RTVSPropertyOp56
 70
     1
102
RTVSPropertyOp57
 70
     1
102
RTVSPropertyOp58
 70
     1
102
RTVSPropertyOp59
 70
     1
102
RTVSPropertyOp60
 70
     1
102
RTVSPropertyOp61
 70
     1
102
RTVSPropertyOp62
 70
     1
  0
XRECORD
  5
49A
102
{ACAD_REACTORS
330
499
102
}
330
499
100
AcDbXrecord
280
     1
102
RTVSPost2010Prop28
280
     0
102
RTVSPost2010PropOp28
 70
     1
102
RTVSPost2010Prop29
280
     1
102
RTVSPost2010PropOp29
 70
     1
102
RTVSPost2010Prop30
280
     1
102
RTVSPost2010PropOp30
 70
     1
102
RTVSPost2010Prop31
280
     0
102
RTVSPost2010PropOp31
 70
     1
102
RTVSPost2010Prop32
280
     0
102
RTVSPost2010PropOp32
 70
     1
102
RTVSPost2010Prop33
280
     0
102
RTVSPost2010PropOp33
 70
     1
102
RTVSPost2010Prop34
280
     0
102
RTVSPost2010PropOp34
 70
     1
102
RTVSPost2010Prop35
280
     0
102
RTVSPost2010PropOp35
 70
     1
102
RTVSPost2010Prop36
280
     0
102
RTVSPost2010PropOp36
 70
     1
102
RTVSPost2010Prop37
 90
       50
102
RTVSPost2010PropOp37
 70
     0
102
RTVSPost2010Prop38
140
0.0
102
RTVSPost2010PropOp38
 70
     0
102
RTVSPost2010Prop39
140
1.0
102
RTVSPost2010PropOp39
 70
     0
102
RTVSPost2010Prop40
 90
        0
102
RTVSPost2010PropOp40
 70
     0
102
RTVSPost2010Prop41ColorIndex
 90
       18
102
RTVSPost2010Prop41ColorRGB
 90
        0
102
RTVSPost2010PropOp41
 70
     0
102
RTVSPost2010Prop42
 90
       50
102
RTVSPost2010PropOp42
 70
     0
102
RTVSPost2010Prop43
 90
        3
102
RTVSPost2010PropOp43
 70
     0
102
RTVSPost2010Prop44ColorIndex
 90
        5
102
RTVSPost2010Prop44ColorRGB
 90
      255
102
RTVSPost2010PropOp44
 70
     0
102
RTVSPost2010Prop45
280
     0
102
RTVSPost2010PropOp45
 70
     1
102
RTVSPost2010Prop46
 90
       50
102
RTVSPost2010PropOp46
 70
     0
102
RTVSPost2010Prop47
 90
       50
102
RTVSPost2010PropOp47
 70
     0
102
RTVSPost2010Prop48
 90
       50
102
RTVSPost2010PropOp48
 70
     0
102
RTVSPost2010Prop49
280
     0
102
RTVSPost2010PropOp49
 70
     1
102
RTVSPost2010Prop50
 90
       50
102
RTVSPost2010PropOp50
 70
     0
102
RTVSPost2010Prop51ColorIndex
 90
      256
102
RTVSPost2010Prop51ColorRGB
 90
-16777216
102
RTVSPost2010PropOp51
 70
     0
102
RTVSPost2010Prop52
140
1.0
102
RTVSPost2010PropOp52
 70
     0
102
RTVSPost2010Prop53
 90
        2
102
RTVSPost2010PropOp53
 70
     0
102
RTVSPost2010Prop54
  1
strokes_ogs.tif
102
RTVSPost2010PropOp54
 70
     0
102
RTVSPost2010Prop55
280
     0
102
RTVSPost2010PropOp55
 70
     1
102
RTVSPost2010Prop56
140
1.0
102
RTVSPost2010PropOp56
 70
     0
102
RTVSPost2010Prop57
140
1.0
102
RTVSPost2010PropOp57
 70
     0
102
RTVSPropertyOp0
 70
     0
102
RTVSPropertyOp1
 70
     0
102
RTVSPropertyOp2
 70
     0
102
RTVSPropertyOp3
 70
     0
102
RTVSPropertyOp4
 70
     0
102
RTVSPropertyOp5
 70
     0
102
RTVSPropertyOp6
 70
     0
102
RTVSPropertyOp7
 70
     0
102
RTVSPropertyOp8
 70
     0
102
RTVSPropertyOp9
 70
     0
102
RTVSPropertyOp10
 70
     0
102
RTVSPropertyOp11
 70
     0
102
RTVSPropertyOp12
 70
     0
102
RTVSPropertyOp13
 70
     0
102
RTVSPropertyOp14
 70
     2
102
RTVSPropertyOp15
 70
     0
102
RTVSPropertyOp16
 70
     0
102
RTVSPropertyOp17
 70
     0
102
RTVSPropertyOp18
 70
     0
102
RTVSPropertyOp19
 70
     0
102
RTVSPropertyOp20
 70
     0
102
RTVSPropertyOp21
 70
     0
102
RTVSPropertyOp22
 70
     0
102
RTVSPropertyOp23
 70
     0
102
RTVSPropertyOp24
 70
     0
102
RTVSPropertyOp25
 70
     0
102
RTVSPropertyOp26
 70
     0
102
RTVSPropertyOp27
 70
     0
102
RTVSPropertyOp28
 70
     1
102
RTVSPropertyOp29
 70
     1
102
RTVSPropertyOp30
 70
     1
102
RTVSPropertyOp31
 70
     1
102
RTVSPropertyOp32
 70
     1
102
RTVSPropertyOp33
 70
     1
102
RTVSPropertyOp34
 70
     1
102
RTVSPropertyOp35
 70
     1
102
RTVSPropertyOp36
 70
     1
102
RTVSPropertyOp37
 70
     0
102
RTVSPropertyOp38
 70
     0
102
RTVSPropertyOp39
 70
     0
102
RTVSPropertyOp40
 70
     0
102
RTVSPropertyOp41
 70
     0
102
RTVSPropertyOp42
 70
     0
102
RTVSPropertyOp43
 70
     0
102
RTVSPropertyOp44
 70
     0
102
RTVSPropertyOp45
 70
     1
102
RTVSPropertyOp46
 70
     0
102
RTVSPropertyOp47
 70
     0
102
RTVSPropertyOp48
 70
     0
102
RTVSPropertyOp49
 70
     1
102
RTVSPropertyOp50
 70
     0
102
RTVSPropertyOp51
 70
     0
102
RTVSPropertyOp52
 70
     0
102
RTVSPropertyOp53
 70
     0
102
RTVSPropertyOp54
 70
     0
102
RTVSPropertyOp55
 70
     1
102
RTVSPropertyOp56
 70
     0
102
RTVSPropertyOp57
 70
     0
102
RTVSPropertyOp58
 70
     0
102
RTVSPropertyOp59
 70
     0
102
RTVSPropertyOp60
 70
     0
102
RTVSPropertyOp61
 70
     0
102
RTVSPropertyOp62
 70
     0
  0
XRECORD
  5
488
102
{ACAD_REACTORS
330
487
102
}
330
487
100
AcDbXrecord
280
     1
102
RTVSPost2010Prop28
280
     0
102
RTVSPost2010PropOp28
 70
     1
102
RTVSPost2010Prop29
280
     1
102
RTVSPost2010PropOp29
 70
     1
102
RTVSPost2010Prop30
280
     1
102
RTVSPost2010PropOp30
 70
     1
102
RTVSPost2010Prop31
280
     0
102
RTVSPost2010PropOp31
 70
     1
102
RTVSPost2010Prop32
280
     0
102
RTVSPost2010PropOp32
 70
     1
102
RTVSPost2010Prop33
280
     0
102
RTVSPost2010PropOp33
 70
     1
102
RTVSPost2010Prop34
280
     0
102
RTVSPost2010PropOp34
 70
     1
102
RTVSPost2010Prop35
280
     0
102
RTVSPost2010PropOp35
 70
     1
102
RTVSPost2010Prop36
280
     0
102
RTVSPost2010PropOp36
 70
     1
102
RTVSPost2010Prop37
 90
       50
102
RTVSPost2010PropOp37
 70
     1
102
RTVSPost2010Prop38
140
0.0
102
RTVSPost2010PropOp38
 70
     1
102
RTVSPost2010Prop39
140
1.0
102
RTVSPost2010PropOp39
 70
     1
102
RTVSPost2010Prop40
 90
        0
102
RTVSPost2010PropOp40
 70
     1
102
RTVSPost2010Prop41ColorIndex
 90
       18
102
RTVSPost2010Prop41ColorRGB
 90
        0
102
RTVSPost2010PropOp41
 70
     1
102
RTVSPost2010Prop42
 90
       50
102
RTVSPost2010PropOp42
 70
     1
102
RTVSPost2010Prop43
 90
        3
102
RTVSPost2010PropOp43
 70
     1
102
RTVSPost2010Prop44ColorIndex
 90
        5
102
RTVSPost2010Prop44ColorRGB
 90
      255
102
RTVSPost2010PropOp44
 70
     1
102
RTVSPost2010Prop45
280
     0
102
RTVSPost2010PropOp45
 70
     1
102
RTVSPost2010Prop46
 90
       50
102
RTVSPost2010PropOp46
 70
     1
102
RTVSPost2010Prop47
 90
       50
102
RTVSPost2010PropOp47
 70
     1
102
RTVSPost2010Prop48
 90
       50
102
RTVSPost2010PropOp48
 70
     1
102
RTVSPost2010Prop49
280
     0
102
RTVSPost2010PropOp49
 70
     1
102
RTVSPost2010Prop50
 90
       50
102
RTVSPost2010PropOp50
 70
     1
102
RTVSPost2010Prop51ColorIndex
 90
      256
102
RTVSPost2010Prop51ColorRGB
 90
-16777216
102
RTVSPost2010PropOp51
 70
     0
102
RTVSPost2010Prop52
140
1.0
102
RTVSPost2010PropOp52
 70
     0
102
RTVSPost2010Prop53
 90
        2
102
RTVSPost2010PropOp53
 70
     1
102
RTVSPost2010Prop54
  1
strokes_ogs.tif
102
RTVSPost2010PropOp54
 70
     1
102
RTVSPost2010Prop55
280
     0
102
RTVSPost2010PropOp55
 70
     1
102
RTVSPost2010Prop56
140
1.0
102
RTVSPost2010PropOp56
 70
     1
102
RTVSPost2010Prop57
140
1.0
102
RTVSPost2010PropOp57
 70
     1
102
RTVSPropertyOp0
 70
     1
102
RTVSPropertyOp1
 70
     1
102
RTVSPropertyOp2
 70
     1
102
RTVSPropertyOp3
 70
     1
102
RTVSPropertyOp4
 70
     1
102
RTVSPropertyOp5
 70
     1
102
RTVSPropertyOp6
 70
     1
102
RTVSPropertyOp7
 70
     1
102
RTVSPropertyOp8
 70
     1
102
RTVSPropertyOp9
 70
     1
102
RTVSPropertyOp10
 70
     1
102
RTVSPropertyOp11
 70
     1
102
RTVSPropertyOp12
 70
     1
102
RTVSPropertyOp13
 70
     1
102
RTVSPropertyOp14
 70
     1
102
RTVSPropertyOp15
 70
     1
102
RTVSPropertyOp16
 70
     1
102
RTVSPropertyOp17
 70
     1
102
RTVSPropertyOp18
 70
     1
102
RTVSPropertyOp19
 70
     1
102
RTVSPropertyOp20
 70
     1
102
RTVSPropertyOp21
 70
     1
102
RTVSPropertyOp22
 70
     1
102
RTVSPropertyOp23
 70
     1
102
RTVSPropertyOp24
 70
     1
102
RTVSPropertyOp25
 70
     1
102
RTVSPropertyOp26
 70
     1
102
RTVSPropertyOp27
 70
     1
102
RTVSPropertyOp28
 70
     1
102
RTVSPropertyOp29
 70
     1
102
RTVSPropertyOp30
 70
     1
102
RTVSPropertyOp31
 70
     1
102
RTVSPropertyOp32
 70
     1
102
RTVSPropertyOp33
 70
     1
102
RTVSPropertyOp34
 70
     1
102
RTVSPropertyOp35
 70
     1
102
RTVSPropertyOp36
 70
     1
102
RTVSPropertyOp37
 70
     1
102
RTVSPropertyOp38
 70
     1
102
RTVSPropertyOp39
 70
     1
102
RTVSPropertyOp40
 70
     1
102
RTVSPropertyOp41
 70
     1
102
RTVSPropertyOp42
 70
     1
102
RTVSPropertyOp43
 70
     1
102
RTVSPropertyOp44
 70
     1
102
RTVSPropertyOp45
 70
     1
102
RTVSPropertyOp46
 70
     1
102
RTVSPropertyOp47
 70
     1
102
RTVSPropertyOp48
 70
     1
102
RTVSPropertyOp49
 70
     1
102
RTVSPropertyOp50
 70
     1
102
RTVSPropertyOp51
 70
     0
102
RTVSPropertyOp52
 70
     0
102
RTVSPropertyOp53
 70
     1
102
RTVSPropertyOp54
 70
     1
102
RTVSPropertyOp55
 70
     1
102
RTVSPropertyOp56
 70
     1
102
RTVSPropertyOp57
 70
     1
102
RTVSPropertyOp58
 70
     1
102
RTVSPropertyOp59
 70
     1
102
RTVSPropertyOp60
 70
     1
102
RTVSPropertyOp61
 70
     1
102
RTVSPropertyOp62
 70
     1
  0
XRECORD
  5
46C
102
{ACAD_REACTORS
330
46B
102
}
330
46B
100
AcDbXrecord
280
     1
102
RTVSPost2010Prop28
280
     0
102
RTVSPost2010PropOp28
 70
     1
102
RTVSPost2010Prop29
280
     1
102
RTVSPost2010PropOp29
 70
     1
102
RTVSPost2010Prop30
280
     1
102
RTVSPost2010PropOp30
 70
     1
102
RTVSPost2010Prop31
280
     0
102
RTVSPost2010PropOp31
 70
     1
102
RTVSPost2010Prop32
280
     0
102
RTVSPost2010PropOp32
 70
     1
102
RTVSPost2010Prop33
280
     0
102
RTVSPost2010PropOp33
 70
     1
102
RTVSPost2010Prop34
280
     0
102
RTVSPost2010PropOp34
 70
     1
102
RTVSPost2010Prop35
280
     0
102
RTVSPost2010PropOp35
 70
     1
102
RTVSPost2010Prop36
280
     0
102
RTVSPost2010PropOp36
 70
     1
102
RTVSPost2010Prop37
 90
       50
102
RTVSPost2010PropOp37
 70
     1
102
RTVSPost2010Prop38
140
0.0
102
RTVSPost2010PropOp38
 70
     1
102
RTVSPost2010Prop39
140
1.0
102
RTVSPost2010PropOp39
 70
     1
102
RTVSPost2010Prop40
 90
        0
102
RTVSPost2010PropOp40
 70
     1
102
RTVSPost2010Prop41ColorIndex
 90
       18
102
RTVSPost2010Prop41ColorRGB
 90
        0
102
RTVSPost2010PropOp41
 70
     1
102
RTVSPost2010Prop42
 90
       50
102
RTVSPost2010PropOp42
 70
     1
102
RTVSPost2010Prop43
 90
        3
102
RTVSPost2010PropOp43
 70
     1
102
RTVSPost2010Prop44ColorIndex
 90
        5
102
RTVSPost2010Prop44ColorRGB
 90
      255
102
RTVSPost2010PropOp44
 70
     1
102
RTVSPost2010Prop45
280
     0
102
RTVSPost2010PropOp45
 70
     1
102
RTVSPost2010Prop46
 90
       50
102
RTVSPost2010PropOp46
 70
     1
102
RTVSPost2010Prop47
 90
       50
102
RTVSPost2010PropOp47
 70
     1
102
RTVSPost2010Prop48
 90
       50
102
RTVSPost2010PropOp48
 70
     1
102
RTVSPost2010Prop49
280
     0
102
RTVSPost2010PropOp49
 70
     1
102
RTVSPost2010Prop50
 90
       50
102
RTVSPost2010PropOp50
 70
     1
102
RTVSPost2010Prop51ColorIndex
 90
      256
102
RTVSPost2010Prop51ColorRGB
 90
-16777216
102
RTVSPost2010PropOp51
 70
     0
102
RTVSPost2010Prop52
140
1.0
102
RTVSPost2010PropOp52
 70
     0
102
RTVSPost2010Prop53
 90
        2
102
RTVSPost2010PropOp53
 70
     1
102
RTVSPost2010Prop54
  1
strokes_ogs.tif
102
RTVSPost2010PropOp54
 70
     1
102
RTVSPost2010Prop55
280
     0
102
RTVSPost2010PropOp55
 70
     1
102
RTVSPost2010Prop56
140
1.0
102
RTVSPost2010PropOp56
 70
     1
102
RTVSPost2010Prop57
140
1.0
102
RTVSPost2010PropOp57
 70
     1
102
RTVSPropertyOp0
 70
     1
102
RTVSPropertyOp1
 70
     1
102
RTVSPropertyOp2
 70
     1
102
RTVSPropertyOp3
 70
     1
102
RTVSPropertyOp4
 70
     1
102
RTVSPropertyOp5
 70
     1
102
RTVSPropertyOp6
 70
     1
102
RTVSPropertyOp7
 70
     1
102
RTVSPropertyOp8
 70
     1
102
RTVSPropertyOp9
 70
     1
102
RTVSPropertyOp10
 70
     1
102
RTVSPropertyOp11
 70
     1
102
RTVSPropertyOp12
 70
     1
102
RTVSPropertyOp13
 70
     1
102
RTVSPropertyOp14
 70
     1
102
RTVSPropertyOp15
 70
     1
102
RTVSPropertyOp16
 70
     1
102
RTVSPropertyOp17
 70
     1
102
RTVSPropertyOp18
 70
     1
102
RTVSPropertyOp19
 70
     1
102
RTVSPropertyOp20
 70
     1
102
RTVSPropertyOp21
 70
     1
102
RTVSPropertyOp22
 70
     1
102
RTVSPropertyOp23
 70
     1
102
RTVSPropertyOp24
 70
     1
102
RTVSPropertyOp25
 70
     1
102
RTVSPropertyOp26
 70
     1
102
RTVSPropertyOp27
 70
     1
102
RTVSPropertyOp28
 70
     1
102
RTVSPropertyOp29
 70
     1
102
RTVSPropertyOp30
 70
     1
102
RTVSPropertyOp31
 70
     1
102
RTVSPropertyOp32
 70
     1
102
RTVSPropertyOp33
 70
     1
102
RTVSPropertyOp34
 70
     1
102
RTVSPropertyOp35
 70
     1
102
RTVSPropertyOp36
 70
     1
102
RTVSPropertyOp37
 70
     1
102
RTVSPropertyOp38
 70
     1
102
RTVSPropertyOp39
 70
     1
102
RTVSPropertyOp40
 70
     1
102
RTVSPropertyOp41
 70
     1
102
RTVSPropertyOp42
 70
     1
102
RTVSPropertyOp43
 70
     1
102
RTVSPropertyOp44
 70
     1
102
RTVSPropertyOp45
 70
     1
102
RTVSPropertyOp46
 70
     1
102
RTVSPropertyOp47
 70
     1
102
RTVSPropertyOp48
 70
     1
102
RTVSPropertyOp49
 70
     1
102
RTVSPropertyOp50
 70
     1
102
RTVSPropertyOp51
 70
     0
102
RTVSPropertyOp52
 70
     0
102
RTVSPropertyOp53
 70
     1
102
RTVSPropertyOp54
 70
     1
102
RTVSPropertyOp55
 70
     1
102
RTVSPropertyOp56
 70
     1
102
RTVSPropertyOp57
 70
     1
102
RTVSPropertyOp58
 70
     1
102
RTVSPropertyOp59
 70
     1
102
RTVSPropertyOp60
 70
     1
102
RTVSPropertyOp61
 70
     1
102
RTVSPropertyOp62
 70
     1
  0
XRECORD
  5
46E
102
{ACAD_REACTORS
330
46D
102
}
330
46D
100
AcDbXrecord
280
     1
102
RTVSPost2010Prop28
280
     0
102
RTVSPost2010PropOp28
 70
     1
102
RTVSPost2010Prop29
280
     1
102
RTVSPost2010PropOp29
 70
     1
102
RTVSPost2010Prop30
280
     1
102
RTVSPost2010PropOp30
 70
     1
102
RTVSPost2010Prop31
280
     0
102
RTVSPost2010PropOp31
 70
     1
102
RTVSPost2010Prop32
280
     0
102
RTVSPost2010PropOp32
 70
     1
102
RTVSPost2010Prop33
280
     0
102
RTVSPost2010PropOp33
 70
     1
102
RTVSPost2010Prop34
280
     0
102
RTVSPost2010PropOp34
 70
     1
102
RTVSPost2010Prop35
280
     0
102
RTVSPost2010PropOp35
 70
     1
102
RTVSPost2010Prop36
280
     0
102
RTVSPost2010PropOp36
 70
     1
102
RTVSPost2010Prop37
 90
       50
102
RTVSPost2010PropOp37
 70
     1
102
RTVSPost2010Prop38
140
0.0
102
RTVSPost2010PropOp38
 70
     1
102
RTVSPost2010Prop39
140
1.0
102
RTVSPost2010PropOp39
 70
     1
102
RTVSPost2010Prop40
 90
        0
102
RTVSPost2010PropOp40
 70
     1
102
RTVSPost2010Prop41ColorIndex
 90
       18
102
RTVSPost2010Prop41ColorRGB
 90
        0
102
RTVSPost2010PropOp41
 70
     1
102
RTVSPost2010Prop42
 90
       50
102
RTVSPost2010PropOp42
 70
     1
102
RTVSPost2010Prop43
 90
        3
102
RTVSPost2010PropOp43
 70
     1
102
RTVSPost2010Prop44ColorIndex
 90
        5
102
RTVSPost2010Prop44ColorRGB
 90
      255
102
RTVSPost2010PropOp44
 70
     1
102
RTVSPost2010Prop45
280
     0
102
RTVSPost2010PropOp45
 70
     1
102
RTVSPost2010Prop46
 90
       50
102
RTVSPost2010PropOp46
 70
     1
102
RTVSPost2010Prop47
 90
       50
102
RTVSPost2010PropOp47
 70
     1
102
RTVSPost2010Prop48
 90
       50
102
RTVSPost2010PropOp48
 70
     1
102
RTVSPost2010Prop49
280
     0
102
RTVSPost2010PropOp49
 70
     1
102
RTVSPost2010Prop50
 90
       50
102
RTVSPost2010PropOp50
 70
     1
102
RTVSPost2010Prop51ColorIndex
 90
      256
102
RTVSPost2010Prop51ColorRGB
 90
-16777216
102
RTVSPost2010PropOp51
 70
     0
102
RTVSPost2010Prop52
140
1.0
102
RTVSPost2010PropOp52
 70
     0
102
RTVSPost2010Prop53
 90
        2
102
RTVSPost2010PropOp53
 70
     1
102
RTVSPost2010Prop54
  1
strokes_ogs.tif
102
RTVSPost2010PropOp54
 70
     1
102
RTVSPost2010Prop55
280
     0
102
RTVSPost2010PropOp55
 70
     1
102
RTVSPost2010Prop56
140
1.0
102
RTVSPost2010PropOp56
 70
     1
102
RTVSPost2010Prop57
140
1.0
102
RTVSPost2010PropOp57
 70
     1
102
RTVSPropertyOp0
 70
     1
102
RTVSPropertyOp1
 70
     1
102
RTVSPropertyOp2
 70
     1
102
RTVSPropertyOp3
 70
     1
102
RTVSPropertyOp4
 70
     1
102
RTVSPropertyOp5
 70
     1
102
RTVSPropertyOp6
 70
     1
102
RTVSPropertyOp7
 70
     1
102
RTVSPropertyOp8
 70
     1
102
RTVSPropertyOp9
 70
     1
102
RTVSPropertyOp10
 70
     1
102
RTVSPropertyOp11
 70
     1
102
RTVSPropertyOp12
 70
     1
102
RTVSPropertyOp13
 70
     1
102
RTVSPropertyOp14
 70
     1
102
RTVSPropertyOp15
 70
     1
102
RTVSPropertyOp16
 70
     1
102
RTVSPropertyOp17
 70
     1
102
RTVSPropertyOp18
 70
     1
102
RTVSPropertyOp19
 70
     1
102
RTVSPropertyOp20
 70
     1
102
RTVSPropertyOp21
 70
     1
102
RTVSPropertyOp22
 70
     1
102
RTVSPropertyOp23
 70
     1
102
RTVSPropertyOp24
 70
     1
102
RTVSPropertyOp25
 70
     1
102
RTVSPropertyOp26
 70
     1
102
RTVSPropertyOp27
 70
     1
102
RTVSPropertyOp28
 70
     1
102
RTVSPropertyOp29
 70
     1
102
RTVSPropertyOp30
 70
     1
102
RTVSPropertyOp31
 70
     1
102
RTVSPropertyOp32
 70
     1
102
RTVSPropertyOp33
 70
     1
102
RTVSPropertyOp34
 70
     1
102
RTVSPropertyOp35
 70
     1
102
RTVSPropertyOp36
 70
     1
102
RTVSPropertyOp37
 70
     1
102
RTVSPropertyOp38
 70
     1
102
RTVSPropertyOp39
 70
     1
102
RTVSPropertyOp40
 70
     1
102
RTVSPropertyOp41
 70
     1
102
RTVSPropertyOp42
 70
     1
102
RTVSPropertyOp43
 70
     1
102
RTVSPropertyOp44
 70
     1
102
RTVSPropertyOp45
 70
     1
102
RTVSPropertyOp46
 70
     1
102
RTVSPropertyOp47
 70
     1
102
RTVSPropertyOp48
 70
     1
102
RTVSPropertyOp49
 70
     1
102
RTVSPropertyOp50
 70
     1
102
RTVSPropertyOp51
 70
     0
102
RTVSPropertyOp52
 70
     0
102
RTVSPropertyOp53
 70
     1
102
RTVSPropertyOp54
 70
     1
102
RTVSPropertyOp55
 70
     1
102
RTVSPropertyOp56
 70
     1
102
RTVSPropertyOp57
 70
     1
102
RTVSPropertyOp58
 70
     1
102
RTVSPropertyOp59
 70
     1
102
RTVSPropertyOp60
 70
     1
102
RTVSPropertyOp61
 70
     1
102
RTVSPropertyOp62
 70
     1
  0
XRECORD
  5
470
102
{ACAD_REACTORS
330
46F
102
}
330
46F
100
AcDbXrecord
280
     1
102
RTVSPost2010Prop28
280
     0
102
RTVSPost2010PropOp28
 70
     1
102
RTVSPost2010Prop29
280
     1
102
RTVSPost2010PropOp29
 70
     1
102
RTVSPost2010Prop30
280
     1
102
RTVSPost2010PropOp30
 70
     1
102
RTVSPost2010Prop31
280
     0
102
RTVSPost2010PropOp31
 70
     1
102
RTVSPost2010Prop32
280
     0
102
RTVSPost2010PropOp32
 70
     1
102
RTVSPost2010Prop33
280
     0
102
RTVSPost2010PropOp33
 70
     1
102
RTVSPost2010Prop34
280
     0
102
RTVSPost2010PropOp34
 70
     1
102
RTVSPost2010Prop35
280
     0
102
RTVSPost2010PropOp35
 70
     1
102
RTVSPost2010Prop36
280
     0
102
RTVSPost2010PropOp36
 70
     1
102
RTVSPost2010Prop37
 90
       50
102
RTVSPost2010PropOp37
 70
     1
102
RTVSPost2010Prop38
140
0.0
102
RTVSPost2010PropOp38
 70
     1
102
RTVSPost2010Prop39
140
1.0
102
RTVSPost2010PropOp39
 70
     1
102
RTVSPost2010Prop40
 90
        0
102
RTVSPost2010PropOp40
 70
     1
102
RTVSPost2010Prop41ColorIndex
 90
       18
102
RTVSPost2010Prop41ColorRGB
 90
        0
102
RTVSPost2010PropOp41
 70
     1
102
RTVSPost2010Prop42
 90
       50
102
RTVSPost2010PropOp42
 70
     1
102
RTVSPost2010Prop43
 90
        3
102
RTVSPost2010PropOp43
 70
     1
102
RTVSPost2010Prop44ColorIndex
 90
        5
102
RTVSPost2010Prop44ColorRGB
 90
      255
102
RTVSPost2010PropOp44
 70
     1
102
RTVSPost2010Prop45
280
     0
102
RTVSPost2010PropOp45
 70
     1
102
RTVSPost2010Prop46
 90
       50
102
RTVSPost2010PropOp46
 70
     1
102
RTVSPost2010Prop47
 90
       50
102
RTVSPost2010PropOp47
 70
     1
102
RTVSPost2010Prop48
 90
       50
102
RTVSPost2010PropOp48
 70
     1
102
RTVSPost2010Prop49
280
     0
102
RTVSPost2010PropOp49
 70
     1
102
RTVSPost2010Prop50
 90
       50
102
RTVSPost2010PropOp50
 70
     1
102
RTVSPost2010Prop51ColorIndex
 90
      256
102
RTVSPost2010Prop51ColorRGB
 90
-16777216
102
RTVSPost2010PropOp51
 70
     0
102
RTVSPost2010Prop52
140
1.0
102
RTVSPost2010PropOp52
 70
     0
102
RTVSPost2010Prop53
 90
        2
102
RTVSPost2010PropOp53
 70
     1
102
RTVSPost2010Prop54
  1
strokes_ogs.tif
102
RTVSPost2010PropOp54
 70
     1
102
RTVSPost2010Prop55
280
     0
102
RTVSPost2010PropOp55
 70
     1
102
RTVSPost2010Prop56
140
1.0
102
RTVSPost2010PropOp56
 70
     1
102
RTVSPost2010Prop57
140
1.0
102
RTVSPost2010PropOp57
 70
     1
102
RTVSPropertyOp0
 70
     1
102
RTVSPropertyOp1
 70
     1
102
RTVSPropertyOp2
 70
     1
102
RTVSPropertyOp3
 70
     1
102
RTVSPropertyOp4
 70
     1
102
RTVSPropertyOp5
 70
     1
102
RTVSPropertyOp6
 70
     1
102
RTVSPropertyOp7
 70
     1
102
RTVSPropertyOp8
 70
     1
102
RTVSPropertyOp9
 70
     1
102
RTVSPropertyOp10
 70
     1
102
RTVSPropertyOp11
 70
     1
102
RTVSPropertyOp12
 70
     1
102
RTVSPropertyOp13
 70
     1
102
RTVSPropertyOp14
 70
     1
102
RTVSPropertyOp15
 70
     1
102
RTVSPropertyOp16
 70
     1
102
RTVSPropertyOp17
 70
     1
102
RTVSPropertyOp18
 70
     1
102
RTVSPropertyOp19
 70
     1
102
RTVSPropertyOp20
 70
     1
102
RTVSPropertyOp21
 70
     1
102
RTVSPropertyOp22
 70
     1
102
RTVSPropertyOp23
 70
     1
102
RTVSPropertyOp24
 70
     1
102
RTVSPropertyOp25
 70
     1
102
RTVSPropertyOp26
 70
     1
102
RTVSPropertyOp27
 70
     1
102
RTVSPropertyOp28
 70
     1
102
RTVSPropertyOp29
 70
     1
102
RTVSPropertyOp30
 70
     1
102
RTVSPropertyOp31
 70
     1
102
RTVSPropertyOp32
 70
     1
102
RTVSPropertyOp33
 70
     1
102
RTVSPropertyOp34
 70
     1
102
RTVSPropertyOp35
 70
     1
102
RTVSPropertyOp36
 70
     1
102
RTVSPropertyOp37
 70
     1
102
RTVSPropertyOp38
 70
     1
102
RTVSPropertyOp39
 70
     1
102
RTVSPropertyOp40
 70
     1
102
RTVSPropertyOp41
 70
     1
102
RTVSPropertyOp42
 70
     1
102
RTVSPropertyOp43
 70
     1
102
RTVSPropertyOp44
 70
     1
102
RTVSPropertyOp45
 70
     1
102
RTVSPropertyOp46
 70
     1
102
RTVSPropertyOp47
 70
     1
102
RTVSPropertyOp48
 70
     1
102
RTVSPropertyOp49
 70
     1
102
RTVSPropertyOp50
 70
     1
102
RTVSPropertyOp51
 70
     0
102
RTVSPropertyOp52
 70
     0
102
RTVSPropertyOp53
 70
     1
102
RTVSPropertyOp54
 70
     1
102
RTVSPropertyOp55
 70
     1
102
RTVSPropertyOp56
 70
     1
102
RTVSPropertyOp57
 70
     1
102
RTVSPropertyOp58
 70
     1
102
RTVSPropertyOp59
 70
     1
102
RTVSPropertyOp60
 70
     1
102
RTVSPropertyOp61
 70
     1
102
RTVSPropertyOp62
 70
     1
  0
XRECORD
  5
472
102
{ACAD_REACTORS
330
471
102
}
330
471
100
AcDbXrecord
280
     1
102
RTVSPost2010Prop28
280
     0
102
RTVSPost2010PropOp28
 70
     1
102
RTVSPost2010Prop29
280
     1
102
RTVSPost2010PropOp29
 70
     1
102
RTVSPost2010Prop30
280
     1
102
RTVSPost2010PropOp30
 70
     1
102
RTVSPost2010Prop31
280
     0
102
RTVSPost2010PropOp31
 70
     1
102
RTVSPost2010Prop32
280
     0
102
RTVSPost2010PropOp32
 70
     1
102
RTVSPost2010Prop33
280
     0
102
RTVSPost2010PropOp33
 70
     1
102
RTVSPost2010Prop34
280
     0
102
RTVSPost2010PropOp34
 70
     1
102
RTVSPost2010Prop35
280
     0
102
RTVSPost2010PropOp35
 70
     1
102
RTVSPost2010Prop36
280
     0
102
RTVSPost2010PropOp36
 70
     1
102
RTVSPost2010Prop37
 90
       50
102
RTVSPost2010PropOp37
 70
     1
102
RTVSPost2010Prop38
140
0.0
102
RTVSPost2010PropOp38
 70
     1
102
RTVSPost2010Prop39
140
1.0
102
RTVSPost2010PropOp39
 70
     1
102
RTVSPost2010Prop40
 90
        0
102
RTVSPost2010PropOp40
 70
     1
102
RTVSPost2010Prop41ColorIndex
 90
       18
102
RTVSPost2010Prop41ColorRGB
 90
        0
102
RTVSPost2010PropOp41
 70
     1
102
RTVSPost2010Prop42
 90
       50
102
RTVSPost2010PropOp42
 70
     1
102
RTVSPost2010Prop43
 90
        3
102
RTVSPost2010PropOp43
 70
     1
102
RTVSPost2010Prop44ColorIndex
 90
        5
102
RTVSPost2010Prop44ColorRGB
 90
      255
102
RTVSPost2010PropOp44
 70
     1
102
RTVSPost2010Prop45
280
     0
102
RTVSPost2010PropOp45
 70
     1
102
RTVSPost2010Prop46
 90
       50
102
RTVSPost2010PropOp46
 70
     1
102
RTVSPost2010Prop47
 90
       50
102
RTVSPost2010PropOp47
 70
     1
102
RTVSPost2010Prop48
 90
       50
102
RTVSPost2010PropOp48
 70
     1
102
RTVSPost2010Prop49
280
     0
102
RTVSPost2010PropOp49
 70
     1
102
RTVSPost2010Prop50
 90
       50
102
RTVSPost2010PropOp50
 70
     1
102
RTVSPost2010Prop51ColorIndex
 90
      256
102
RTVSPost2010Prop51ColorRGB
 90
-16777216
102
RTVSPost2010PropOp51
 70
     0
102
RTVSPost2010Prop52
140
1.0
102
RTVSPost2010PropOp52
 70
     0
102
RTVSPost2010Prop53
 90
        2
102
RTVSPost2010PropOp53
 70
     1
102
RTVSPost2010Prop54
  1
strokes_ogs.tif
102
RTVSPost2010PropOp54
 70
     1
102
RTVSPost2010Prop55
280
     0
102
RTVSPost2010PropOp55
 70
     1
102
RTVSPost2010Prop56
140
1.0
102
RTVSPost2010PropOp56
 70
     1
102
RTVSPost2010Prop57
140
1.0
102
RTVSPost2010PropOp57
 70
     1
102
RTVSPropertyOp0
 70
     1
102
RTVSPropertyOp1
 70
     1
102
RTVSPropertyOp2
 70
     1
102
RTVSPropertyOp3
 70
     1
102
RTVSPropertyOp4
 70
     1
102
RTVSPropertyOp5
 70
     1
102
RTVSPropertyOp6
 70
     1
102
RTVSPropertyOp7
 70
     1
102
RTVSPropertyOp8
 70
     1
102
RTVSPropertyOp9
 70
     1
102
RTVSPropertyOp10
 70
     1
102
RTVSPropertyOp11
 70
     1
102
RTVSPropertyOp12
 70
     1
102
RTVSPropertyOp13
 70
     1
102
RTVSPropertyOp14
 70
     1
102
RTVSPropertyOp15
 70
     1
102
RTVSPropertyOp16
 70
     1
102
RTVSPropertyOp17
 70
     1
102
RTVSPropertyOp18
 70
     1
102
RTVSPropertyOp19
 70
     1
102
RTVSPropertyOp20
 70
     1
102
RTVSPropertyOp21
 70
     1
102
RTVSPropertyOp22
 70
     1
102
RTVSPropertyOp23
 70
     1
102
RTVSPropertyOp24
 70
     1
102
RTVSPropertyOp25
 70
     1
102
RTVSPropertyOp26
 70
     1
102
RTVSPropertyOp27
 70
     1
102
RTVSPropertyOp28
 70
     1
102
RTVSPropertyOp29
 70
     1
102
RTVSPropertyOp30
 70
     1
102
RTVSPropertyOp31
 70
     1
102
RTVSPropertyOp32
 70
     1
102
RTVSPropertyOp33
 70
     1
102
RTVSPropertyOp34
 70
     1
102
RTVSPropertyOp35
 70
     1
102
RTVSPropertyOp36
 70
     1
102
RTVSPropertyOp37
 70
     1
102
RTVSPropertyOp38
 70
     1
102
RTVSPropertyOp39
 70
     1
102
RTVSPropertyOp40
 70
     1
102
RTVSPropertyOp41
 70
     1
102
RTVSPropertyOp42
 70
     1
102
RTVSPropertyOp43
 70
     1
102
RTVSPropertyOp44
 70
     1
102
RTVSPropertyOp45
 70
     1
102
RTVSPropertyOp46
 70
     1
102
RTVSPropertyOp47
 70
     1
102
RTVSPropertyOp48
 70
     1
102
RTVSPropertyOp49
 70
     1
102
RTVSPropertyOp50
 70
     1
102
RTVSPropertyOp51
 70
     0
102
RTVSPropertyOp52
 70
     0
102
RTVSPropertyOp53
 70
     1
102
RTVSPropertyOp54
 70
     1
102
RTVSPropertyOp55
 70
     1
102
RTVSPropertyOp56
 70
     1
102
RTVSPropertyOp57
 70
     1
102
RTVSPropertyOp58
 70
     1
102
RTVSPropertyOp59
 70
     1
102
RTVSPropertyOp60
 70
     1
102
RTVSPropertyOp61
 70
     1
102
RTVSPropertyOp62
 70
     1
  0
XRECORD
  5
47A
102
{ACAD_REACTORS
330
479
102
}
330
479
100
AcDbXrecord
280
     1
102
RTVSPost2010Prop28
280
     0
102
RTVSPost2010PropOp28
 70
     1
102
RTVSPost2010Prop29
280
     1
102
RTVSPost2010PropOp29
 70
     1
102
RTVSPost2010Prop30
280
     1
102
RTVSPost2010PropOp30
 70
     1
102
RTVSPost2010Prop31
280
     0
102
RTVSPost2010PropOp31
 70
     1
102
RTVSPost2010Prop32
280
     0
102
RTVSPost2010PropOp32
 70
     1
102
RTVSPost2010Prop33
280
     0
102
RTVSPost2010PropOp33
 70
     1
102
RTVSPost2010Prop34
280
     0
102
RTVSPost2010PropOp34
 70
     1
102
RTVSPost2010Prop35
280
     0
102
RTVSPost2010PropOp35
 70
     1
102
RTVSPost2010Prop36
280
     0
102
RTVSPost2010PropOp36
 70
     1
102
RTVSPost2010Prop37
 90
       50
102
RTVSPost2010PropOp37
 70
     1
102
RTVSPost2010Prop38
140
0.0
102
RTVSPost2010PropOp38
 70
     1
102
RTVSPost2010Prop39
140
1.0
102
RTVSPost2010PropOp39
 70
     1
102
RTVSPost2010Prop40
 90
        0
102
RTVSPost2010PropOp40
 70
     1
102
RTVSPost2010Prop41ColorIndex
 90
       18
102
RTVSPost2010Prop41ColorRGB
 90
        0
102
RTVSPost2010PropOp41
 70
     1
102
RTVSPost2010Prop42
 90
       50
102
RTVSPost2010PropOp42
 70
     1
102
RTVSPost2010Prop43
 90
        3
102
RTVSPost2010PropOp43
 70
     1
102
RTVSPost2010Prop44ColorIndex
 90
        5
102
RTVSPost2010Prop44ColorRGB
 90
      255
102
RTVSPost2010PropOp44
 70
     1
102
RTVSPost2010Prop45
280
     0
102
RTVSPost2010PropOp45
 70
     1
102
RTVSPost2010Prop46
 90
       50
102
RTVSPost2010PropOp46
 70
     1
102
RTVSPost2010Prop47
 90
       50
102
RTVSPost2010PropOp47
 70
     1
102
RTVSPost2010Prop48
 90
       50
102
RTVSPost2010PropOp48
 70
     1
102
RTVSPost2010Prop49
280
     0
102
RTVSPost2010PropOp49
 70
     1
102
RTVSPost2010Prop50
 90
       50
102
RTVSPost2010PropOp50
 70
     1
102
RTVSPost2010Prop51ColorIndex
 90
      256
102
RTVSPost2010Prop51ColorRGB
 90
-16777216
102
RTVSPost2010PropOp51
 70
     0
102
RTVSPost2010Prop52
140
1.0
102
RTVSPost2010PropOp52
 70
     0
102
RTVSPost2010Prop53
 90
        2
102
RTVSPost2010PropOp53
 70
     1
102
RTVSPost2010Prop54
  1
strokes_ogs.tif
102
RTVSPost2010PropOp54
 70
     1
102
RTVSPost2010Prop55
280
     0
102
RTVSPost2010PropOp55
 70
     1
102
RTVSPost2010Prop56
140
1.0
102
RTVSPost2010PropOp56
 70
     1
102
RTVSPost2010Prop57
140
1.0
102
RTVSPost2010PropOp57
 70
     1
102
RTVSPropertyOp0
 70
     1
102
RTVSPropertyOp1
 70
     1
102
RTVSPropertyOp2
 70
     1
102
RTVSPropertyOp3
 70
     1
102
RTVSPropertyOp4
 70
     1
102
RTVSPropertyOp5
 70
     1
102
RTVSPropertyOp6
 70
     1
102
RTVSPropertyOp7
 70
     1
102
RTVSPropertyOp8
 70
     1
102
RTVSPropertyOp9
 70
     1
102
RTVSPropertyOp10
 70
     1
102
RTVSPropertyOp11
 70
     1
102
RTVSPropertyOp12
 70
     1
102
RTVSPropertyOp13
 70
     1
102
RTVSPropertyOp14
 70
     1
102
RTVSPropertyOp15
 70
     1
102
RTVSPropertyOp16
 70
     1
102
RTVSPropertyOp17
 70
     1
102
RTVSPropertyOp18
 70
     1
102
RTVSPropertyOp19
 70
     1
102
RTVSPropertyOp20
 70
     1
102
RTVSPropertyOp21
 70
     1
102
RTVSPropertyOp22
 70
     1
102
RTVSPropertyOp23
 70
     1
102
RTVSPropertyOp24
 70
     1
102
RTVSPropertyOp25
 70
     1
102
RTVSPropertyOp26
 70
     1
102
RTVSPropertyOp27
 70
     1
102
RTVSPropertyOp28
 70
     1
102
RTVSPropertyOp29
 70
     1
102
RTVSPropertyOp30
 70
     1
102
RTVSPropertyOp31
 70
     1
102
RTVSPropertyOp32
 70
     1
102
RTVSPropertyOp33
 70
     1
102
RTVSPropertyOp34
 70
     1
102
RTVSPropertyOp35
 70
     1
102
RTVSPropertyOp36
 70
     1
102
RTVSPropertyOp37
 70
     1
102
RTVSPropertyOp38
 70
     1
102
RTVSPropertyOp39
 70
     1
102
RTVSPropertyOp40
 70
     1
102
RTVSPropertyOp41
 70
     1
102
RTVSPropertyOp42
 70
     1
102
RTVSPropertyOp43
 70
     1
102
RTVSPropertyOp44
 70
     1
102
RTVSPropertyOp45
 70
     1
102
RTVSPropertyOp46
 70
     1
102
RTVSPropertyOp47
 70
     1
102
RTVSPropertyOp48
 70
     1
102
RTVSPropertyOp49
 70
     1
102
RTVSPropertyOp50
 70
     1
102
RTVSPropertyOp51
 70
     0
102
RTVSPropertyOp52
 70
     0
102
RTVSPropertyOp53
 70
     1
102
RTVSPropertyOp54
 70
     1
102
RTVSPropertyOp55
 70
     1
102
RTVSPropertyOp56
 70
     1
102
RTVSPropertyOp57
 70
     1
102
RTVSPropertyOp58
 70
     1
102
RTVSPropertyOp59
 70
     1
102
RTVSPropertyOp60
 70
     1
102
RTVSPropertyOp61
 70
     1
102
RTVSPropertyOp62
 70
     1
  0
XRECORD
  5
496
102
{ACAD_REACTORS
330
495
102
}
330
495
100
AcDbXrecord
280
     1
102
RTVSPost2010Prop28
280
     0
102
RTVSPost2010PropOp28
 70
     1
102
RTVSPost2010Prop29
280
     1
102
RTVSPost2010PropOp29
 70
     1
102
RTVSPost2010Prop30
280
     1
102
RTVSPost2010PropOp30
 70
     1
102
RTVSPost2010Prop31
280
     0
102
RTVSPost2010PropOp31
 70
     1
102
RTVSPost2010Prop32
280
     0
102
RTVSPost2010PropOp32
 70
     1
102
RTVSPost2010Prop33
280
     0
102
RTVSPost2010PropOp33
 70
     1
102
RTVSPost2010Prop34
280
     0
102
RTVSPost2010PropOp34
 70
     1
102
RTVSPost2010Prop35
280
     0
102
RTVSPost2010PropOp35
 70
     1
102
RTVSPost2010Prop36
280
     0
102
RTVSPost2010PropOp36
 70
     1
102
RTVSPost2010Prop37
 90
       50
102
RTVSPost2010PropOp37
 70
     0
102
RTVSPost2010Prop38
140
0.0
102
RTVSPost2010PropOp38
 70
     0
102
RTVSPost2010Prop39
140
1.0
102
RTVSPost2010PropOp39
 70
     0
102
RTVSPost2010Prop40
 90
        0
102
RTVSPost2010PropOp40
 70
     0
102
RTVSPost2010Prop41ColorIndex
 90
       18
102
RTVSPost2010Prop41ColorRGB
 90
        0
102
RTVSPost2010PropOp41
 70
     0
102
RTVSPost2010Prop42
 90
       50
102
RTVSPost2010PropOp42
 70
     0
102
RTVSPost2010Prop43
 90
        3
102
RTVSPost2010PropOp43
 70
     0
102
RTVSPost2010Prop44ColorIndex
 90
        5
102
RTVSPost2010Prop44ColorRGB
 90
      255
102
RTVSPost2010PropOp44
 70
     0
102
RTVSPost2010Prop45
280
     0
102
RTVSPost2010PropOp45
 70
     1
102
RTVSPost2010Prop46
 90
       50
102
RTVSPost2010PropOp46
 70
     0
102
RTVSPost2010Prop47
 90
       50
102
RTVSPost2010PropOp47
 70
     0
102
RTVSPost2010Prop48
 90
       50
102
RTVSPost2010PropOp48
 70
     0
102
RTVSPost2010Prop49
280
     0
102
RTVSPost2010PropOp49
 70
     1
102
RTVSPost2010Prop50
 90
       50
102
RTVSPost2010PropOp50
 70
     0
102
RTVSPost2010Prop51ColorIndex
 90
      256
102
RTVSPost2010Prop51ColorRGB
 90
-16777216
102
RTVSPost2010PropOp51
 70
     0
102
RTVSPost2010Prop52
140
1.0
102
RTVSPost2010PropOp52
 70
     0
102
RTVSPost2010Prop53
 90
        2
102
RTVSPost2010PropOp53
 70
     0
102
RTVSPost2010Prop54
  1
strokes_ogs.tif
102
RTVSPost2010PropOp54
 70
     0
102
RTVSPost2010Prop55
280
     0
102
RTVSPost2010PropOp55
 70
     1
102
RTVSPost2010Prop56
140
1.0
102
RTVSPost2010PropOp56
 70
     0
102
RTVSPost2010Prop57
140
1.0
102
RTVSPost2010PropOp57
 70
     0
102
RTVSPropertyOp0
 70
     0
102
RTVSPropertyOp1
 70
     0
102
RTVSPropertyOp2
 70
     0
102
RTVSPropertyOp3
 70
     0
102
RTVSPropertyOp4
 70
     0
102
RTVSPropertyOp5
 70
     0
102
RTVSPropertyOp6
 70
     0
102
RTVSPropertyOp7
 70
     0
102
RTVSPropertyOp8
 70
     0
102
RTVSPropertyOp9
 70
     0
102
RTVSPropertyOp10
 70
     0
102
RTVSPropertyOp11
 70
     0
102
RTVSPropertyOp12
 70
     0
102
RTVSPropertyOp13
 70
     0
102
RTVSPropertyOp14
 70
     2
102
RTVSPropertyOp15
 70
     0
102
RTVSPropertyOp16
 70
     0
102
RTVSPropertyOp17
 70
     0
102
RTVSPropertyOp18
 70
     0
102
RTVSPropertyOp19
 70
     0
102
RTVSPropertyOp20
 70
     0
102
RTVSPropertyOp21
 70
     0
102
RTVSPropertyOp22
 70
     0
102
RTVSPropertyOp23
 70
     0
102
RTVSPropertyOp24
 70
     0
102
RTVSPropertyOp25
 70
     0
102
RTVSPropertyOp26
 70
     0
102
RTVSPropertyOp27
 70
     0
102
RTVSPropertyOp28
 70
     1
102
RTVSPropertyOp29
 70
     1
102
RTVSPropertyOp30
 70
     1
102
RTVSPropertyOp31
 70
     1
102
RTVSPropertyOp32
 70
     1
102
RTVSPropertyOp33
 70
     1
102
RTVSPropertyOp34
 70
     1
102
RTVSPropertyOp35
 70
     1
102
RTVSPropertyOp36
 70
     1
102
RTVSPropertyOp37
 70
     0
102
RTVSPropertyOp38
 70
     0
102
RTVSPropertyOp39
 70
     0
102
RTVSPropertyOp40
 70
     0
102
RTVSPropertyOp41
 70
     0
102
RTVSPropertyOp42
 70
     0
102
RTVSPropertyOp43
 70
     0
102
RTVSPropertyOp44
 70
     0
102
RTVSPropertyOp45
 70
     1
102
RTVSPropertyOp46
 70
     0
102
RTVSPropertyOp47
 70
     0
102
RTVSPropertyOp48
 70
     0
102
RTVSPropertyOp49
 70
     1
102
RTVSPropertyOp50
 70
     0
102
RTVSPropertyOp51
 70
     0
102
RTVSPropertyOp52
 70
     0
102
RTVSPropertyOp53
 70
     0
102
RTVSPropertyOp54
 70
     0
102
RTVSPropertyOp55
 70
     1
102
RTVSPropertyOp56
 70
     0
102
RTVSPropertyOp57
 70
     0
102
RTVSPropertyOp58
 70
     0
102
RTVSPropertyOp59
 70
     0
102
RTVSPropertyOp60
 70
     0
102
RTVSPropertyOp61
 70
     0
102
RTVSPropertyOp62
 70
     0
  0
XRECORD
  5
486
102
{ACAD_REACTORS
330
485
102
}
330
485
100
AcDbXrecord
280
     1
102
RTVSPost2010Prop28
280
     0
102
RTVSPost2010PropOp28
 70
     1
102
RTVSPost2010Prop29
280
     1
102
RTVSPost2010PropOp29
 70
     1
102
RTVSPost2010Prop30
280
     1
102
RTVSPost2010PropOp30
 70
     1
102
RTVSPost2010Prop31
280
     0
102
RTVSPost2010PropOp31
 70
     1
102
RTVSPost2010Prop32
280
     0
102
RTVSPost2010PropOp32
 70
     1
102
RTVSPost2010Prop33
280
     0
102
RTVSPost2010PropOp33
 70
     1
102
RTVSPost2010Prop34
280
     0
102
RTVSPost2010PropOp34
 70
     1
102
RTVSPost2010Prop35
280
     0
102
RTVSPost2010PropOp35
 70
     1
102
RTVSPost2010Prop36
280
     0
102
RTVSPost2010PropOp36
 70
     1
102
RTVSPost2010Prop37
 90
       50
102
RTVSPost2010PropOp37
 70
     1
102
RTVSPost2010Prop38
140
0.0
102
RTVSPost2010PropOp38
 70
     1
102
RTVSPost2010Prop39
140
1.0
102
RTVSPost2010PropOp39
 70
     1
102
RTVSPost2010Prop40
 90
        0
102
RTVSPost2010PropOp40
 70
     1
102
RTVSPost2010Prop41ColorIndex
 90
       18
102
RTVSPost2010Prop41ColorRGB
 90
        0
102
RTVSPost2010PropOp41
 70
     1
102
RTVSPost2010Prop42
 90
       50
102
RTVSPost2010PropOp42
 70
     1
102
RTVSPost2010Prop43
 90
        3
102
RTVSPost2010PropOp43
 70
     1
102
RTVSPost2010Prop44ColorIndex
 90
        5
102
RTVSPost2010Prop44ColorRGB
 90
      255
102
RTVSPost2010PropOp44
 70
     1
102
RTVSPost2010Prop45
280
     0
102
RTVSPost2010PropOp45
 70
     1
102
RTVSPost2010Prop46
 90
       50
102
RTVSPost2010PropOp46
 70
     1
102
RTVSPost2010Prop47
 90
       50
102
RTVSPost2010PropOp47
 70
     1
102
RTVSPost2010Prop48
 90
       50
102
RTVSPost2010PropOp48
 70
     1
102
RTVSPost2010Prop49
280
     0
102
RTVSPost2010PropOp49
 70
     1
102
RTVSPost2010Prop50
 90
       50
102
RTVSPost2010PropOp50
 70
     1
102
RTVSPost2010Prop51ColorIndex
 90
      256
102
RTVSPost2010Prop51ColorRGB
 90
-16777216
102
RTVSPost2010PropOp51
 70
     0
102
RTVSPost2010Prop52
140
1.0
102
RTVSPost2010PropOp52
 70
     0
102
RTVSPost2010Prop53
 90
        2
102
RTVSPost2010PropOp53
 70
     1
102
RTVSPost2010Prop54
  1
strokes_ogs.tif
102
RTVSPost2010PropOp54
 70
     1
102
RTVSPost2010Prop55
280
     0
102
RTVSPost2010PropOp55
 70
     1
102
RTVSPost2010Prop56
140
1.0
102
RTVSPost2010PropOp56
 70
     1
102
RTVSPost2010Prop57
140
1.0
102
RTVSPost2010PropOp57
 70
     1
102
RTVSPropertyOp0
 70
     1
102
RTVSPropertyOp1
 70
     1
102
RTVSPropertyOp2
 70
     1
102
RTVSPropertyOp3
 70
     1
102
RTVSPropertyOp4
 70
     1
102
RTVSPropertyOp5
 70
     1
102
RTVSPropertyOp6
 70
     1
102
RTVSPropertyOp7
 70
     1
102
RTVSPropertyOp8
 70
     1
102
RTVSPropertyOp9
 70
     1
102
RTVSPropertyOp10
 70
     1
102
RTVSPropertyOp11
 70
     1
102
RTVSPropertyOp12
 70
     1
102
RTVSPropertyOp13
 70
     1
102
RTVSPropertyOp14
 70
     1
102
RTVSPropertyOp15
 70
     1
102
RTVSPropertyOp16
 70
     1
102
RTVSPropertyOp17
 70
     1
102
RTVSPropertyOp18
 70
     1
102
RTVSPropertyOp19
 70
     1
102
RTVSPropertyOp20
 70
     1
102
RTVSPropertyOp21
 70
     1
102
RTVSPropertyOp22
 70
     1
102
RTVSPropertyOp23
 70
     1
102
RTVSPropertyOp24
 70
     1
102
RTVSPropertyOp25
 70
     1
102
RTVSPropertyOp26
 70
     1
102
RTVSPropertyOp27
 70
     1
102
RTVSPropertyOp28
 70
     1
102
RTVSPropertyOp29
 70
     1
102
RTVSPropertyOp30
 70
     1
102
RTVSPropertyOp31
 70
     1
102
RTVSPropertyOp32
 70
     1
102
RTVSPropertyOp33
 70
     1
102
RTVSPropertyOp34
 70
     1
102
RTVSPropertyOp35
 70
     1
102
RTVSPropertyOp36
 70
     1
102
RTVSPropertyOp37
 70
     1
102
RTVSPropertyOp38
 70
     1
102
RTVSPropertyOp39
 70
     1
102
RTVSPropertyOp40
 70
     1
102
RTVSPropertyOp41
 70
     1
102
RTVSPropertyOp42
 70
     1
102
RTVSPropertyOp43
 70
     1
102
RTVSPropertyOp44
 70
     1
102
RTVSPropertyOp45
 70
     1
102
RTVSPropertyOp46
 70
     1
102
RTVSPropertyOp47
 70
     1
102
RTVSPropertyOp48
 70
     1
102
RTVSPropertyOp49
 70
     1
102
RTVSPropertyOp50
 70
     1
102
RTVSPropertyOp51
 70
     0
102
RTVSPropertyOp52
 70
     0
102
RTVSPropertyOp53
 70
     1
102
RTVSPropertyOp54
 70
     1
102
RTVSPropertyOp55
 70
     1
102
RTVSPropertyOp56
 70
     1
102
RTVSPropertyOp57
 70
     1
102
RTVSPropertyOp58
 70
     1
102
RTVSPropertyOp59
 70
     1
102
RTVSPropertyOp60
 70
     1
102
RTVSPropertyOp61
 70
     1
102
RTVSPropertyOp62
 70
     1
  0
XRECORD
  5
498
102
{ACAD_REACTORS
330
497
102
}
330
497
100
AcDbXrecord
280
     1
102
RTVSPost2010Prop28
280
     0
102
RTVSPost2010PropOp28
 70
     1
102
RTVSPost2010Prop29
280
     1
102
RTVSPost2010PropOp29
 70
     1
102
RTVSPost2010Prop30
280
     1
102
RTVSPost2010PropOp30
 70
     1
102
RTVSPost2010Prop31
280
     0
102
RTVSPost2010PropOp31
 70
     1
102
RTVSPost2010Prop32
280
     0
102
RTVSPost2010PropOp32
 70
     1
102
RTVSPost2010Prop33
280
     0
102
RTVSPost2010PropOp33
 70
     1
102
RTVSPost2010Prop34
280
     0
102
RTVSPost2010PropOp34
 70
     1
102
RTVSPost2010Prop35
280
     0
102
RTVSPost2010PropOp35
 70
     1
102
RTVSPost2010Prop36
280
     0
102
RTVSPost2010PropOp36
 70
     1
102
RTVSPost2010Prop37
 90
       50
102
RTVSPost2010PropOp37
 70
     0
102
RTVSPost2010Prop38
140
0.0
102
RTVSPost2010PropOp38
 70
     0
102
RTVSPost2010Prop39
140
1.0
102
RTVSPost2010PropOp39
 70
     0
102
RTVSPost2010Prop40
 90
        0
102
RTVSPost2010PropOp40
 70
     0
102
RTVSPost2010Prop41ColorIndex
 90
       18
102
RTVSPost2010Prop41ColorRGB
 90
        0
102
RTVSPost2010PropOp41
 70
     0
102
RTVSPost2010Prop42
 90
       50
102
RTVSPost2010PropOp42
 70
     0
102
RTVSPost2010Prop43
 90
        3
102
RTVSPost2010PropOp43
 70
     0
102
RTVSPost2010Prop44ColorIndex
 90
        5
102
RTVSPost2010Prop44ColorRGB
 90
      255
102
RTVSPost2010PropOp44
 70
     0
102
RTVSPost2010Prop45
280
     0
102
RTVSPost2010PropOp45
 70
     1
102
RTVSPost2010Prop46
 90
       50
102
RTVSPost2010PropOp46
 70
     0
102
RTVSPost2010Prop47
 90
       50
102
RTVSPost2010PropOp47
 70
     0
102
RTVSPost2010Prop48
 90
       50
102
RTVSPost2010PropOp48
 70
     0
102
RTVSPost2010Prop49
280
     0
102
RTVSPost2010PropOp49
 70
     1
102
RTVSPost2010Prop50
 90
       50
102
RTVSPost2010PropOp50
 70
     0
102
RTVSPost2010Prop51ColorIndex
 90
      256
102
RTVSPost2010Prop51ColorRGB
 90
-16777216
102
RTVSPost2010PropOp51
 70
     0
102
RTVSPost2010Prop52
140
1.0
102
RTVSPost2010PropOp52
 70
     0
102
RTVSPost2010Prop53
 90
        2
102
RTVSPost2010PropOp53
 70
     0
102
RTVSPost2010Prop54
  1
strokes_ogs.tif
102
RTVSPost2010PropOp54
 70
     0
102
RTVSPost2010Prop55
280
     0
102
RTVSPost2010PropOp55
 70
     1
102
RTVSPost2010Prop56
140
1.0
102
RTVSPost2010PropOp56
 70
     0
102
RTVSPost2010Prop57
140
1.0
102
RTVSPost2010PropOp57
 70
     0
102
RTVSPropertyOp0
 70
     0
102
RTVSPropertyOp1
 70
     0
102
RTVSPropertyOp2
 70
     0
102
RTVSPropertyOp3
 70
     0
102
RTVSPropertyOp4
 70
     0
102
RTVSPropertyOp5
 70
     0
102
RTVSPropertyOp6
 70
     0
102
RTVSPropertyOp7
 70
     0
102
RTVSPropertyOp8
 70
     0
102
RTVSPropertyOp9
 70
     0
102
RTVSPropertyOp10
 70
     0
102
RTVSPropertyOp11
 70
     0
102
RTVSPropertyOp12
 70
     0
102
RTVSPropertyOp13
 70
     0
102
RTVSPropertyOp14
 70
     2
102
RTVSPropertyOp15
 70
     0
102
RTVSPropertyOp16
 70
     0
102
RTVSPropertyOp17
 70
     0
102
RTVSPropertyOp18
 70
     0
102
RTVSPropertyOp19
 70
     0
102
RTVSPropertyOp20
 70
     0
102
RTVSPropertyOp21
 70
     0
102
RTVSPropertyOp22
 70
     0
102
RTVSPropertyOp23
 70
     0
102
RTVSPropertyOp24
 70
     0
102
RTVSPropertyOp25
 70
     0
102
RTVSPropertyOp26
 70
     0
102
RTVSPropertyOp27
 70
     0
102
RTVSPropertyOp28
 70
     1
102
RTVSPropertyOp29
 70
     1
102
RTVSPropertyOp30
 70
     1
102
RTVSPropertyOp31
 70
     1
102
RTVSPropertyOp32
 70
     1
102
RTVSPropertyOp33
 70
     1
102
RTVSPropertyOp34
 70
     1
102
RTVSPropertyOp35
 70
     1
102
RTVSPropertyOp36
 70
     1
102
RTVSPropertyOp37
 70
     0
102
RTVSPropertyOp38
 70
     0
102
RTVSPropertyOp39
 70
     0
102
RTVSPropertyOp40
 70
     0
102
RTVSPropertyOp41
 70
     0
102
RTVSPropertyOp42
 70
     0
102
RTVSPropertyOp43
 70
     0
102
RTVSPropertyOp44
 70
     0
102
RTVSPropertyOp45
 70
     1
102
RTVSPropertyOp46
 70
     0
102
RTVSPropertyOp47
 70
     0
102
RTVSPropertyOp48
 70
     0
102
RTVSPropertyOp49
 70
     1
102
RTVSPropertyOp50
 70
     0
102
RTVSPropertyOp51
 70
     0
102
RTVSPropertyOp52
 70
     0
102
RTVSPropertyOp53
 70
     0
102
RTVSPropertyOp54
 70
     0
102
RTVSPropertyOp55
 70
     1
102
RTVSPropertyOp56
 70
     0
102
RTVSPropertyOp57
 70
     0
102
RTVSPropertyOp58
 70
     0
102
RTVSPropertyOp59
 70
     0
102
RTVSPropertyOp60
 70
     0
102
RTVSPropertyOp61
 70
     0
102
RTVSPropertyOp62
 70
     0
  0
XRECORD
  5
47E
102
{ACAD_REACTORS
330
47D
102
}
330
47D
100
AcDbXrecord
280
     1
102
RTVSPost2010Prop28
280
     0
102
RTVSPost2010PropOp28
 70
     1
102
RTVSPost2010Prop29
280
     1
102
RTVSPost2010PropOp29
 70
     1
102
RTVSPost2010Prop30
280
     1
102
RTVSPost2010PropOp30
 70
     1
102
RTVSPost2010Prop31
280
     0
102
RTVSPost2010PropOp31
 70
     1
102
RTVSPost2010Prop32
280
     0
102
RTVSPost2010PropOp32
 70
     1
102
RTVSPost2010Prop33
280
     0
102
RTVSPost2010PropOp33
 70
     1
102
RTVSPost2010Prop34
280
     0
102
RTVSPost2010PropOp34
 70
     1
102
RTVSPost2010Prop35
280
     0
102
RTVSPost2010PropOp35
 70
     1
102
RTVSPost2010Prop36
280
     0
102
RTVSPost2010PropOp36
 70
     1
102
RTVSPost2010Prop37
 90
       50
102
RTVSPost2010PropOp37
 70
     1
102
RTVSPost2010Prop38
140
0.0
102
RTVSPost2010PropOp38
 70
     1
102
RTVSPost2010Prop39
140
1.0
102
RTVSPost2010PropOp39
 70
     1
102
RTVSPost2010Prop40
 90
        0
102
RTVSPost2010PropOp40
 70
     1
102
RTVSPost2010Prop41ColorIndex
 90
       18
102
RTVSPost2010Prop41ColorRGB
 90
        0
102
RTVSPost2010PropOp41
 70
     1
102
RTVSPost2010Prop42
 90
       50
102
RTVSPost2010PropOp42
 70
     1
102
RTVSPost2010Prop43
 90
        3
102
RTVSPost2010PropOp43
 70
     1
102
RTVSPost2010Prop44ColorIndex
 90
        5
102
RTVSPost2010Prop44ColorRGB
 90
      255
102
RTVSPost2010PropOp44
 70
     1
102
RTVSPost2010Prop45
280
     0
102
RTVSPost2010PropOp45
 70
     1
102
RTVSPost2010Prop46
 90
       50
102
RTVSPost2010PropOp46
 70
     1
102
RTVSPost2010Prop47
 90
       50
102
RTVSPost2010PropOp47
 70
     1
102
RTVSPost2010Prop48
 90
       50
102
RTVSPost2010PropOp48
 70
     1
102
RTVSPost2010Prop49
280
     0
102
RTVSPost2010PropOp49
 70
     1
102
RTVSPost2010Prop50
 90
       50
102
RTVSPost2010PropOp50
 70
     1
102
RTVSPost2010Prop51ColorIndex
 90
      256
102
RTVSPost2010Prop51ColorRGB
 90
-16777216
102
RTVSPost2010PropOp51
 70
     0
102
RTVSPost2010Prop52
140
1.0
102
RTVSPost2010PropOp52
 70
     0
102
RTVSPost2010Prop53
 90
        2
102
RTVSPost2010PropOp53
 70
     1
102
RTVSPost2010Prop54
  1
strokes_ogs.tif
102
RTVSPost2010PropOp54
 70
     1
102
RTVSPost2010Prop55
280
     0
102
RTVSPost2010PropOp55
 70
     1
102
RTVSPost2010Prop56
140
1.0
102
RTVSPost2010PropOp56
 70
     1
102
RTVSPost2010Prop57
140
1.0
102
RTVSPost2010PropOp57
 70
     1
102
RTVSPropertyOp0
 70
     1
102
RTVSPropertyOp1
 70
     1
102
RTVSPropertyOp2
 70
     1
102
RTVSPropertyOp3
 70
     1
102
RTVSPropertyOp4
 70
     1
102
RTVSPropertyOp5
 70
     1
102
RTVSPropertyOp6
 70
     1
102
RTVSPropertyOp7
 70
     1
102
RTVSPropertyOp8
 70
     1
102
RTVSPropertyOp9
 70
     1
102
RTVSPropertyOp10
 70
     1
102
RTVSPropertyOp11
 70
     1
102
RTVSPropertyOp12
 70
     1
102
RTVSPropertyOp13
 70
     1
102
RTVSPropertyOp14
 70
     1
102
RTVSPropertyOp15
 70
     1
102
RTVSPropertyOp16
 70
     1
102
RTVSPropertyOp17
 70
     1
102
RTVSPropertyOp18
 70
     1
102
RTVSPropertyOp19
 70
     1
102
RTVSPropertyOp20
 70
     1
102
RTVSPropertyOp21
 70
     1
102
RTVSPropertyOp22
 70
     1
102
RTVSPropertyOp23
 70
     1
102
RTVSPropertyOp24
 70
     1
102
RTVSPropertyOp25
 70
     1
102
RTVSPropertyOp26
 70
     1
102
RTVSPropertyOp27
 70
     1
102
RTVSPropertyOp28
 70
     1
102
RTVSPropertyOp29
 70
     1
102
RTVSPropertyOp30
 70
     1
102
RTVSPropertyOp31
 70
     1
102
RTVSPropertyOp32
 70
     1
102
RTVSPropertyOp33
 70
     1
102
RTVSPropertyOp34
 70
     1
102
RTVSPropertyOp35
 70
     1
102
RTVSPropertyOp36
 70
     1
102
RTVSPropertyOp37
 70
     1
102
RTVSPropertyOp38
 70
     1
102
RTVSPropertyOp39
 70
     1
102
RTVSPropertyOp40
 70
     1
102
RTVSPropertyOp41
 70
     1
102
RTVSPropertyOp42
 70
     1
102
RTVSPropertyOp43
 70
     1
102
RTVSPropertyOp44
 70
     1
102
RTVSPropertyOp45
 70
     1
102
RTVSPropertyOp46
 70
     1
102
RTVSPropertyOp47
 70
     1
102
RTVSPropertyOp48
 70
     1
102
RTVSPropertyOp49
 70
     1
102
RTVSPropertyOp50
 70
     1
102
RTVSPropertyOp51
 70
     0
102
RTVSPropertyOp52
 70
     0
102
RTVSPropertyOp53
 70
     1
102
RTVSPropertyOp54
 70
     1
102
RTVSPropertyOp55
 70
     1
102
RTVSPropertyOp56
 70
     1
102
RTVSPropertyOp57
 70
     1
102
RTVSPropertyOp58
 70
     1
102
RTVSPropertyOp59
 70
     1
102
RTVSPropertyOp60
 70
     1
102
RTVSPropertyOp61
 70
     1
102
RTVSPropertyOp62
 70
     1
  0
XRECORD
  5
494
102
{ACAD_REACTORS
330
493
102
}
330
493
100
AcDbXrecord
280
     1
102
RTVSPost2010Prop28
280
     0
102
RTVSPost2010PropOp28
 70
     1
102
RTVSPost2010Prop29
280
     1
102
RTVSPost2010PropOp29
 70
     1
102
RTVSPost2010Prop30
280
     1
102
RTVSPost2010PropOp30
 70
     1
102
RTVSPost2010Prop31
280
     0
102
RTVSPost2010PropOp31
 70
     1
102
RTVSPost2010Prop32
280
     0
102
RTVSPost2010PropOp32
 70
     1
102
RTVSPost2010Prop33
280
     0
102
RTVSPost2010PropOp33
 70
     1
102
RTVSPost2010Prop34
280
     0
102
RTVSPost2010PropOp34
 70
     1
102
RTVSPost2010Prop35
280
     0
102
RTVSPost2010PropOp35
 70
     1
102
RTVSPost2010Prop36
280
     0
102
RTVSPost2010PropOp36
 70
     1
102
RTVSPost2010Prop37
 90
       50
102
RTVSPost2010PropOp37
 70
     1
102
RTVSPost2010Prop38
140
0.0
102
RTVSPost2010PropOp38
 70
     1
102
RTVSPost2010Prop39
140
1.0
102
RTVSPost2010PropOp39
 70
     1
102
RTVSPost2010Prop40
 90
        0
102
RTVSPost2010PropOp40
 70
     1
102
RTVSPost2010Prop41ColorIndex
 90
       18
102
RTVSPost2010Prop41ColorRGB
 90
        0
102
RTVSPost2010PropOp41
 70
     1
102
RTVSPost2010Prop42
 90
       50
102
RTVSPost2010PropOp42
 70
     1
102
RTVSPost2010Prop43
 90
        3
102
RTVSPost2010PropOp43
 70
     1
102
RTVSPost2010Prop44ColorIndex
 90
        5
102
RTVSPost2010Prop44ColorRGB
 90
      255
102
RTVSPost2010PropOp44
 70
     1
102
RTVSPost2010Prop45
280
     0
102
RTVSPost2010PropOp45
 70
     1
102
RTVSPost2010Prop46
 90
       50
102
RTVSPost2010PropOp46
 70
     1
102
RTVSPost2010Prop47
 90
       50
102
RTVSPost2010PropOp47
 70
     1
102
RTVSPost2010Prop48
 90
       50
102
RTVSPost2010PropOp48
 70
     1
102
RTVSPost2010Prop49
280
     0
102
RTVSPost2010PropOp49
 70
     1
102
RTVSPost2010Prop50
 90
       50
102
RTVSPost2010PropOp50
 70
     1
102
RTVSPost2010Prop51ColorIndex
 90
      256
102
RTVSPost2010Prop51ColorRGB
 90
-16777216
102
RTVSPost2010PropOp51
 70
     0
102
RTVSPost2010Prop52
140
1.0
102
RTVSPost2010PropOp52
 70
     0
102
RTVSPost2010Prop53
 90
        2
102
RTVSPost2010PropOp53
 70
     1
102
RTVSPost2010Prop54
  1
strokes_ogs.tif
102
RTVSPost2010PropOp54
 70
     1
102
RTVSPost2010Prop55
280
     0
102
RTVSPost2010PropOp55
 70
     1
102
RTVSPost2010Prop56
140
1.0
102
RTVSPost2010PropOp56
 70
     1
102
RTVSPost2010Prop57
140
1.0
102
RTVSPost2010PropOp57
 70
     1
102
RTVSPropertyOp0
 70
     1
102
RTVSPropertyOp1
 70
     1
102
RTVSPropertyOp2
 70
     1
102
RTVSPropertyOp3
 70
     1
102
RTVSPropertyOp4
 70
     1
102
RTVSPropertyOp5
 70
     1
102
RTVSPropertyOp6
 70
     1
102
RTVSPropertyOp7
 70
     1
102
RTVSPropertyOp8
 70
     1
102
RTVSPropertyOp9
 70
     1
102
RTVSPropertyOp10
 70
     1
102
RTVSPropertyOp11
 70
     1
102
RTVSPropertyOp12
 70
     1
102
RTVSPropertyOp13
 70
     1
102
RTVSPropertyOp14
 70
     1
102
RTVSPropertyOp15
 70
     1
102
RTVSPropertyOp16
 70
     1
102
RTVSPropertyOp17
 70
     1
102
RTVSPropertyOp18
 70
     1
102
RTVSPropertyOp19
 70
     1
102
RTVSPropertyOp20
 70
     1
102
RTVSPropertyOp21
 70
     1
102
RTVSPropertyOp22
 70
     1
102
RTVSPropertyOp23
 70
     1
102
RTVSPropertyOp24
 70
     1
102
RTVSPropertyOp25
 70
     1
102
RTVSPropertyOp26
 70
     1
102
RTVSPropertyOp27
 70
     1
102
RTVSPropertyOp28
 70
     1
102
RTVSPropertyOp29
 70
     1
102
RTVSPropertyOp30
 70
     1
102
RTVSPropertyOp31
 70
     1
102
RTVSPropertyOp32
 70
     1
102
RTVSPropertyOp33
 70
     1
102
RTVSPropertyOp34
 70
     1
102
RTVSPropertyOp35
 70
     1
102
RTVSPropertyOp36
 70
     1
102
RTVSPropertyOp37
 70
     1
102
RTVSPropertyOp38
 70
     1
102
RTVSPropertyOp39
 70
     1
102
RTVSPropertyOp40
 70
     1
102
RTVSPropertyOp41
 70
     1
102
RTVSPropertyOp42
 70
     1
102
RTVSPropertyOp43
 70
     1
102
RTVSPropertyOp44
 70
     1
102
RTVSPropertyOp45
 70
     1
102
RTVSPropertyOp46
 70
     1
102
RTVSPropertyOp47
 70
     1
102
RTVSPropertyOp48
 70
     1
102
RTVSPropertyOp49
 70
     1
102
RTVSPropertyOp50
 70
     1
102
RTVSPropertyOp51
 70
     0
102
RTVSPropertyOp52
 70
     0
102
RTVSPropertyOp53
 70
     1
102
RTVSPropertyOp54
 70
     1
102
RTVSPropertyOp55
 70
     1
102
RTVSPropertyOp56
 70
     1
102
RTVSPropertyOp57
 70
     1
102
RTVSPropertyOp58
 70
     1
102
RTVSPropertyOp59
 70
     1
102
RTVSPropertyOp60
 70
     1
102
RTVSPropertyOp61
 70
     1
102
RTVSPropertyOp62
 70
     1
  0
XRECORD
  5
492
102
{ACAD_REACTORS
330
491
102
}
330
491
100
AcDbXrecord
280
     1
102
RTVSPost2010Prop28
280
     0
102
RTVSPost2010PropOp28
 70
     1
102
RTVSPost2010Prop29
280
     1
102
RTVSPost2010PropOp29
 70
     1
102
RTVSPost2010Prop30
280
     1
102
RTVSPost2010PropOp30
 70
     1
102
RTVSPost2010Prop31
280
     0
102
RTVSPost2010PropOp31
 70
     1
102
RTVSPost2010Prop32
280
     0
102
RTVSPost2010PropOp32
 70
     1
102
RTVSPost2010Prop33
280
     0
102
RTVSPost2010PropOp33
 70
     1
102
RTVSPost2010Prop34
280
     0
102
RTVSPost2010PropOp34
 70
     1
102
RTVSPost2010Prop35
280
     0
102
RTVSPost2010PropOp35
 70
     1
102
RTVSPost2010Prop36
280
     0
102
RTVSPost2010PropOp36
 70
     1
102
RTVSPost2010Prop37
 90
       50
102
RTVSPost2010PropOp37
 70
     1
102
RTVSPost2010Prop38
140
0.0
102
RTVSPost2010PropOp38
 70
     1
102
RTVSPost2010Prop39
140
1.0
102
RTVSPost2010PropOp39
 70
     1
102
RTVSPost2010Prop40
 90
        0
102
RTVSPost2010PropOp40
 70
     1
102
RTVSPost2010Prop41ColorIndex
 90
       18
102
RTVSPost2010Prop41ColorRGB
 90
        0
102
RTVSPost2010PropOp41
 70
     1
102
RTVSPost2010Prop42
 90
       50
102
RTVSPost2010PropOp42
 70
     1
102
RTVSPost2010Prop43
 90
        3
102
RTVSPost2010PropOp43
 70
     1
102
RTVSPost2010Prop44ColorIndex
 90
        5
102
RTVSPost2010Prop44ColorRGB
 90
      255
102
RTVSPost2010PropOp44
 70
     1
102
RTVSPost2010Prop45
280
     0
102
RTVSPost2010PropOp45
 70
     1
102
RTVSPost2010Prop46
 90
       50
102
RTVSPost2010PropOp46
 70
     1
102
RTVSPost2010Prop47
 90
       50
102
RTVSPost2010PropOp47
 70
     1
102
RTVSPost2010Prop48
 90
       50
102
RTVSPost2010PropOp48
 70
     1
102
RTVSPost2010Prop49
280
     0
102
RTVSPost2010PropOp49
 70
     1
102
RTVSPost2010Prop50
 90
       50
102
RTVSPost2010PropOp50
 70
     1
102
RTVSPost2010Prop51ColorIndex
 90
      256
102
RTVSPost2010Prop51ColorRGB
 90
-16777216
102
RTVSPost2010PropOp51
 70
     0
102
RTVSPost2010Prop52
140
1.0
102
RTVSPost2010PropOp52
 70
     0
102
RTVSPost2010Prop53
 90
        2
102
RTVSPost2010PropOp53
 70
     1
102
RTVSPost2010Prop54
  1
strokes_ogs.tif
102
RTVSPost2010PropOp54
 70
     1
102
RTVSPost2010Prop55
280
     0
102
RTVSPost2010PropOp55
 70
     1
102
RTVSPost2010Prop56
140
1.0
102
RTVSPost2010PropOp56
 70
     1
102
RTVSPost2010Prop57
140
1.0
102
RTVSPost2010PropOp57
 70
     1
102
RTVSPropertyOp0
 70
     1
102
RTVSPropertyOp1
 70
     1
102
RTVSPropertyOp2
 70
     1
102
RTVSPropertyOp3
 70
     1
102
RTVSPropertyOp4
 70
     1
102
RTVSPropertyOp5
 70
     1
102
RTVSPropertyOp6
 70
     1
102
RTVSPropertyOp7
 70
     1
102
RTVSPropertyOp8
 70
     1
102
RTVSPropertyOp9
 70
     1
102
RTVSPropertyOp10
 70
     1
102
RTVSPropertyOp11
 70
     1
102
RTVSPropertyOp12
 70
     1
102
RTVSPropertyOp13
 70
     1
102
RTVSPropertyOp14
 70
     1
102
RTVSPropertyOp15
 70
     1
102
RTVSPropertyOp16
 70
     1
102
RTVSPropertyOp17
 70
     1
102
RTVSPropertyOp18
 70
     1
102
RTVSPropertyOp19
 70
     1
102
RTVSPropertyOp20
 70
     1
102
RTVSPropertyOp21
 70
     1
102
RTVSPropertyOp22
 70
     1
102
RTVSPropertyOp23
 70
     1
102
RTVSPropertyOp24
 70
     1
102
RTVSPropertyOp25
 70
     1
102
RTVSPropertyOp26
 70
     1
102
RTVSPropertyOp27
 70
     1
102
RTVSPropertyOp28
 70
     1
102
RTVSPropertyOp29
 70
     1
102
RTVSPropertyOp30
 70
     1
102
RTVSPropertyOp31
 70
     1
102
RTVSPropertyOp32
 70
     1
102
RTVSPropertyOp33
 70
     1
102
RTVSPropertyOp34
 70
     1
102
RTVSPropertyOp35
 70
     1
102
RTVSPropertyOp36
 70
     1
102
RTVSPropertyOp37
 70
     1
102
RTVSPropertyOp38
 70
     1
102
RTVSPropertyOp39
 70
     1
102
RTVSPropertyOp40
 70
     1
102
RTVSPropertyOp41
 70
     1
102
RTVSPropertyOp42
 70
     1
102
RTVSPropertyOp43
 70
     1
102
RTVSPropertyOp44
 70
     1
102
RTVSPropertyOp45
 70
     1
102
RTVSPropertyOp46
 70
     1
102
RTVSPropertyOp47
 70
     1
102
RTVSPropertyOp48
 70
     1
102
RTVSPropertyOp49
 70
     1
102
RTVSPropertyOp50
 70
     1
102
RTVSPropertyOp51
 70
     0
102
RTVSPropertyOp52
 70
     0
102
RTVSPropertyOp53
 70
     1
102
RTVSPropertyOp54
 70
     1
102
RTVSPropertyOp55
 70
     1
102
RTVSPropertyOp56
 70
     1
102
RTVSPropertyOp57
 70
     1
102
RTVSPropertyOp58
 70
     1
102
RTVSPropertyOp59
 70
     1
102
RTVSPropertyOp60
 70
     1
102
RTVSPropertyOp61
 70
     1
102
RTVSPropertyOp62
 70
     1
  0
XRECORD
  5
48C
102
{ACAD_REACTORS
330
48B
102
}
330
48B
100
AcDbXrecord
280
     1
102
RTVSPost2010Prop28
280
     0
102
RTVSPost2010PropOp28
 70
     1
102
RTVSPost2010Prop29
280
     1
102
RTVSPost2010PropOp29
 70
     1
102
RTVSPost2010Prop30
280
     1
102
RTVSPost2010PropOp30
 70
     1
102
RTVSPost2010Prop31
280
     0
102
RTVSPost2010PropOp31
 70
     1
102
RTVSPost2010Prop32
280
     0
102
RTVSPost2010PropOp32
 70
     1
102
RTVSPost2010Prop33
280
     0
102
RTVSPost2010PropOp33
 70
     1
102
RTVSPost2010Prop34
280
     0
102
RTVSPost2010PropOp34
 70
     1
102
RTVSPost2010Prop35
280
     0
102
RTVSPost2010PropOp35
 70
     1
102
RTVSPost2010Prop36
280
     0
102
RTVSPost2010PropOp36
 70
     1
102
RTVSPost2010Prop37
 90
       50
102
RTVSPost2010PropOp37
 70
     1
102
RTVSPost2010Prop38
140
0.0
102
RTVSPost2010PropOp38
 70
     1
102
RTVSPost2010Prop39
140
1.0
102
RTVSPost2010PropOp39
 70
     1
102
RTVSPost2010Prop40
 90
        0
102
RTVSPost2010PropOp40
 70
     1
102
RTVSPost2010Prop41ColorIndex
 90
       18
102
RTVSPost2010Prop41ColorRGB
 90
        0
102
RTVSPost2010PropOp41
 70
     1
102
RTVSPost2010Prop42
 90
       50
102
RTVSPost2010PropOp42
 70
     1
102
RTVSPost2010Prop43
 90
        3
102
RTVSPost2010PropOp43
 70
     1
102
RTVSPost2010Prop44ColorIndex
 90
        5
102
RTVSPost2010Prop44ColorRGB
 90
      255
102
RTVSPost2010PropOp44
 70
     1
102
RTVSPost2010Prop45
280
     0
102
RTVSPost2010PropOp45
 70
     1
102
RTVSPost2010Prop46
 90
       50
102
RTVSPost2010PropOp46
 70
     1
102
RTVSPost2010Prop47
 90
       50
102
RTVSPost2010PropOp47
 70
     1
102
RTVSPost2010Prop48
 90
       50
102
RTVSPost2010PropOp48
 70
     1
102
RTVSPost2010Prop49
280
     0
102
RTVSPost2010PropOp49
 70
     1
102
RTVSPost2010Prop50
 90
       50
102
RTVSPost2010PropOp50
 70
     1
102
RTVSPost2010Prop51ColorIndex
 90
      256
102
RTVSPost2010Prop51ColorRGB
 90
-16777216
102
RTVSPost2010PropOp51
 70
     0
102
RTVSPost2010Prop52
140
1.0
102
RTVSPost2010PropOp52
 70
     0
102
RTVSPost2010Prop53
 90
        2
102
RTVSPost2010PropOp53
 70
     1
102
RTVSPost2010Prop54
  1
strokes_ogs.tif
102
RTVSPost2010PropOp54
 70
     1
102
RTVSPost2010Prop55
280
     0
102
RTVSPost2010PropOp55
 70
     1
102
RTVSPost2010Prop56
140
1.0
102
RTVSPost2010PropOp56
 70
     1
102
RTVSPost2010Prop57
140
1.0
102
RTVSPost2010PropOp57
 70
     1
102
RTVSPropertyOp0
 70
     1
102
RTVSPropertyOp1
 70
     1
102
RTVSPropertyOp2
 70
     1
102
RTVSPropertyOp3
 70
     1
102
RTVSPropertyOp4
 70
     1
102
RTVSPropertyOp5
 70
     1
102
RTVSPropertyOp6
 70
     1
102
RTVSPropertyOp7
 70
     1
102
RTVSPropertyOp8
 70
     1
102
RTVSPropertyOp9
 70
     1
102
RTVSPropertyOp10
 70
     1
102
RTVSPropertyOp11
 70
     1
102
RTVSPropertyOp12
 70
     1
102
RTVSPropertyOp13
 70
     1
102
RTVSPropertyOp14
 70
     1
102
RTVSPropertyOp15
 70
     1
102
RTVSPropertyOp16
 70
     1
102
RTVSPropertyOp17
 70
     1
102
RTVSPropertyOp18
 70
     1
102
RTVSPropertyOp19
 70
     1
102
RTVSPropertyOp20
 70
     1
102
RTVSPropertyOp21
 70
     1
102
RTVSPropertyOp22
 70
     1
102
RTVSPropertyOp23
 70
     1
102
RTVSPropertyOp24
 70
     1
102
RTVSPropertyOp25
 70
     1
102
RTVSPropertyOp26
 70
     1
102
RTVSPropertyOp27
 70
     1
102
RTVSPropertyOp28
 70
     1
102
RTVSPropertyOp29
 70
     1
102
RTVSPropertyOp30
 70
     1
102
RTVSPropertyOp31
 70
     1
102
RTVSPropertyOp32
 70
     1
102
RTVSPropertyOp33
 70
     1
102
RTVSPropertyOp34
 70
     1
102
RTVSPropertyOp35
 70
     1
102
RTVSPropertyOp36
 70
     1
102
RTVSPropertyOp37
 70
     1
102
RTVSPropertyOp38
 70
     1
102
RTVSPropertyOp39
 70
     1
102
RTVSPropertyOp40
 70
     1
102
RTVSPropertyOp41
 70
     1
102
RTVSPropertyOp42
 70
     1
102
RTVSPropertyOp43
 70
     1
102
RTVSPropertyOp44
 70
     1
102
RTVSPropertyOp45
 70
     1
102
RTVSPropertyOp46
 70
     1
102
RTVSPropertyOp47
 70
     1
102
RTVSPropertyOp48
 70
     1
102
RTVSPropertyOp49
 70
     1
102
RTVSPropertyOp50
 70
     1
102
RTVSPropertyOp51
 70
     0
102
RTVSPropertyOp52
 70
     0
102
RTVSPropertyOp53
 70
     1
102
RTVSPropertyOp54
 70
     1
102
RTVSPropertyOp55
 70
     1
102
RTVSPropertyOp56
 70
     1
102
RTVSPropertyOp57
 70
     1
102
RTVSPropertyOp58
 70
     1
102
RTVSPropertyOp59
 70
     1
102
RTVSPropertyOp60
 70
     1
102
RTVSPropertyOp61
 70
     1
102
RTVSPropertyOp62
 70
     1
  0
XRECORD
  5
48E
102
{ACAD_REACTORS
330
48D
102
}
330
48D
100
AcDbXrecord
280
     1
102
RTVSPost2010Prop28
280
     0
102
RTVSPost2010PropOp28
 70
     1
102
RTVSPost2010Prop29
280
     1
102
RTVSPost2010PropOp29
 70
     1
102
RTVSPost2010Prop30
280
     1
102
RTVSPost2010PropOp30
 70
     1
102
RTVSPost2010Prop31
280
     0
102
RTVSPost2010PropOp31
 70
     1
102
RTVSPost2010Prop32
280
     0
102
RTVSPost2010PropOp32
 70
     1
102
RTVSPost2010Prop33
280
     0
102
RTVSPost2010PropOp33
 70
     1
102
RTVSPost2010Prop34
280
     0
102
RTVSPost2010PropOp34
 70
     1
102
RTVSPost2010Prop35
280
     0
102
RTVSPost2010PropOp35
 70
     1
102
RTVSPost2010Prop36
280
     0
102
RTVSPost2010PropOp36
 70
     1
102
RTVSPost2010Prop37
 90
       50
102
RTVSPost2010PropOp37
 70
     1
102
RTVSPost2010Prop38
140
0.0
102
RTVSPost2010PropOp38
 70
     1
102
RTVSPost2010Prop39
140
1.0
102
RTVSPost2010PropOp39
 70
     1
102
RTVSPost2010Prop40
 90
        0
102
RTVSPost2010PropOp40
 70
     1
102
RTVSPost2010Prop41ColorIndex
 90
       18
102
RTVSPost2010Prop41ColorRGB
 90
        0
102
RTVSPost2010PropOp41
 70
     1
102
RTVSPost2010Prop42
 90
       50
102
RTVSPost2010PropOp42
 70
     1
102
RTVSPost2010Prop43
 90
        3
102
RTVSPost2010PropOp43
 70
     1
102
RTVSPost2010Prop44ColorIndex
 90
        5
102
RTVSPost2010Prop44ColorRGB
 90
      255
102
RTVSPost2010PropOp44
 70
     1
102
RTVSPost2010Prop45
280
     0
102
RTVSPost2010PropOp45
 70
     1
102
RTVSPost2010Prop46
 90
       50
102
RTVSPost2010PropOp46
 70
     1
102
RTVSPost2010Prop47
 90
       50
102
RTVSPost2010PropOp47
 70
     1
102
RTVSPost2010Prop48
 90
       50
102
RTVSPost2010PropOp48
 70
     1
102
RTVSPost2010Prop49
280
     0
102
RTVSPost2010PropOp49
 70
     1
102
RTVSPost2010Prop50
 90
       50
102
RTVSPost2010PropOp50
 70
     1
102
RTVSPost2010Prop51ColorIndex
 90
      256
102
RTVSPost2010Prop51ColorRGB
 90
-16777216
102
RTVSPost2010PropOp51
 70
     0
102
RTVSPost2010Prop52
140
1.0
102
RTVSPost2010PropOp52
 70
     0
102
RTVSPost2010Prop53
 90
        2
102
RTVSPost2010PropOp53
 70
     1
102
RTVSPost2010Prop54
  1
strokes_ogs.tif
102
RTVSPost2010PropOp54
 70
     1
102
RTVSPost2010Prop55
280
     0
102
RTVSPost2010PropOp55
 70
     1
102
RTVSPost2010Prop56
140
1.0
102
RTVSPost2010PropOp56
 70
     1
102
RTVSPost2010Prop57
140
1.0
102
RTVSPost2010PropOp57
 70
     1
102
RTVSPropertyOp0
 70
     1
102
RTVSPropertyOp1
 70
     1
102
RTVSPropertyOp2
 70
     1
102
RTVSPropertyOp3
 70
     1
102
RTVSPropertyOp4
 70
     1
102
RTVSPropertyOp5
 70
     1
102
RTVSPropertyOp6
 70
     1
102
RTVSPropertyOp7
 70
     1
102
RTVSPropertyOp8
 70
     1
102
RTVSPropertyOp9
 70
     1
102
RTVSPropertyOp10
 70
     1
102
RTVSPropertyOp11
 70
     1
102
RTVSPropertyOp12
 70
     1
102
RTVSPropertyOp13
 70
     1
102
RTVSPropertyOp14
 70
     1
102
RTVSPropertyOp15
 70
     1
102
RTVSPropertyOp16
 70
     1
102
RTVSPropertyOp17
 70
     1
102
RTVSPropertyOp18
 70
     1
102
RTVSPropertyOp19
 70
     1
102
RTVSPropertyOp20
 70
     1
102
RTVSPropertyOp21
 70
     1
102
RTVSPropertyOp22
 70
     1
102
RTVSPropertyOp23
 70
     1
102
RTVSPropertyOp24
 70
     1
102
RTVSPropertyOp25
 70
     1
102
RTVSPropertyOp26
 70
     1
102
RTVSPropertyOp27
 70
     1
102
RTVSPropertyOp28
 70
     1
102
RTVSPropertyOp29
 70
     1
102
RTVSPropertyOp30
 70
     1
102
RTVSPropertyOp31
 70
     1
102
RTVSPropertyOp32
 70
     1
102
RTVSPropertyOp33
 70
     1
102
RTVSPropertyOp34
 70
     1
102
RTVSPropertyOp35
 70
     1
102
RTVSPropertyOp36
 70
     1
102
RTVSPropertyOp37
 70
     1
102
RTVSPropertyOp38
 70
     1
102
RTVSPropertyOp39
 70
     1
102
RTVSPropertyOp40
 70
     1
102
RTVSPropertyOp41
 70
     1
102
RTVSPropertyOp42
 70
     1
102
RTVSPropertyOp43
 70
     1
102
RTVSPropertyOp44
 70
     1
102
RTVSPropertyOp45
 70
     1
102
RTVSPropertyOp46
 70
     1
102
RTVSPropertyOp47
 70
     1
102
RTVSPropertyOp48
 70
     1
102
RTVSPropertyOp49
 70
     1
102
RTVSPropertyOp50
 70
     1
102
RTVSPropertyOp51
 70
     0
102
RTVSPropertyOp52
 70
     0
102
RTVSPropertyOp53
 70
     1
102
RTVSPropertyOp54
 70
     1
102
RTVSPropertyOp55
 70
     1
102
RTVSPropertyOp56
 70
     1
102
RTVSPropertyOp57
 70
     1
102
RTVSPropertyOp58
 70
     1
102
RTVSPropertyOp59
 70
     1
102
RTVSPropertyOp60
 70
     1
102
RTVSPropertyOp61
 70
     1
102
RTVSPropertyOp62
 70
     1
  0
XRECORD
  5
484
102
{ACAD_REACTORS
330
483
102
}
330
483
100
AcDbXrecord
280
     1
102
RTVSPost2010Prop28
280
     0
102
RTVSPost2010PropOp28
 70
     1
102
RTVSPost2010Prop29
280
     1
102
RTVSPost2010PropOp29
 70
     1
102
RTVSPost2010Prop30
280
     1
102
RTVSPost2010PropOp30
 70
     1
102
RTVSPost2010Prop31
280
     0
102
RTVSPost2010PropOp31
 70
     1
102
RTVSPost2010Prop32
280
     0
102
RTVSPost2010PropOp32
 70
     1
102
RTVSPost2010Prop33
280
     0
102
RTVSPost2010PropOp33
 70
     1
102
RTVSPost2010Prop34
280
     0
102
RTVSPost2010PropOp34
 70
     1
102
RTVSPost2010Prop35
280
     0
102
RTVSPost2010PropOp35
 70
     1
102
RTVSPost2010Prop36
280
     0
102
RTVSPost2010PropOp36
 70
     1
102
RTVSPost2010Prop37
 90
       50
102
RTVSPost2010PropOp37
 70
     1
102
RTVSPost2010Prop38
140
0.0
102
RTVSPost2010PropOp38
 70
     1
102
RTVSPost2010Prop39
140
1.0
102
RTVSPost2010PropOp39
 70
     1
102
RTVSPost2010Prop40
 90
        0
102
RTVSPost2010PropOp40
 70
     1
102
RTVSPost2010Prop41ColorIndex
 90
       18
102
RTVSPost2010Prop41ColorRGB
 90
        0
102
RTVSPost2010PropOp41
 70
     1
102
RTVSPost2010Prop42
 90
       50
102
RTVSPost2010PropOp42
 70
     1
102
RTVSPost2010Prop43
 90
        3
102
RTVSPost2010PropOp43
 70
     1
102
RTVSPost2010Prop44ColorIndex
 90
        5
102
RTVSPost2010Prop44ColorRGB
 90
      255
102
RTVSPost2010PropOp44
 70
     1
102
RTVSPost2010Prop45
280
     0
102
RTVSPost2010PropOp45
 70
     1
102
RTVSPost2010Prop46
 90
       50
102
RTVSPost2010PropOp46
 70
     1
102
RTVSPost2010Prop47
 90
       50
102
RTVSPost2010PropOp47
 70
     1
102
RTVSPost2010Prop48
 90
       50
102
RTVSPost2010PropOp48
 70
     1
102
RTVSPost2010Prop49
280
     0
102
RTVSPost2010PropOp49
 70
     1
102
RTVSPost2010Prop50
 90
       50
102
RTVSPost2010PropOp50
 70
     1
102
RTVSPost2010Prop51ColorIndex
 90
      256
102
RTVSPost2010Prop51ColorRGB
 90
-16777216
102
RTVSPost2010PropOp51
 70
     0
102
RTVSPost2010Prop52
140
1.0
102
RTVSPost2010PropOp52
 70
     0
102
RTVSPost2010Prop53
 90
        2
102
RTVSPost2010PropOp53
 70
     1
102
RTVSPost2010Prop54
  1
strokes_ogs.tif
102
RTVSPost2010PropOp54
 70
     1
102
RTVSPost2010Prop55
280
     0
102
RTVSPost2010PropOp55
 70
     1
102
RTVSPost2010Prop56
140
1.0
102
RTVSPost2010PropOp56
 70
     1
102
RTVSPost2010Prop57
140
1.0
102
RTVSPost2010PropOp57
 70
     1
102
RTVSPropertyOp0
 70
     1
102
RTVSPropertyOp1
 70
     1
102
RTVSPropertyOp2
 70
     1
102
RTVSPropertyOp3
 70
     1
102
RTVSPropertyOp4
 70
     1
102
RTVSPropertyOp5
 70
     1
102
RTVSPropertyOp6
 70
     1
102
RTVSPropertyOp7
 70
     1
102
RTVSPropertyOp8
 70
     1
102
RTVSPropertyOp9
 70
     1
102
RTVSPropertyOp10
 70
     1
102
RTVSPropertyOp11
 70
     1
102
RTVSPropertyOp12
 70
     1
102
RTVSPropertyOp13
 70
     1
102
RTVSPropertyOp14
 70
     1
102
RTVSPropertyOp15
 70
     1
102
RTVSPropertyOp16
 70
     1
102
RTVSPropertyOp17
 70
     1
102
RTVSPropertyOp18
 70
     1
102
RTVSPropertyOp19
 70
     1
102
RTVSPropertyOp20
 70
     1
102
RTVSPropertyOp21
 70
     1
102
RTVSPropertyOp22
 70
     1
102
RTVSPropertyOp23
 70
     1
102
RTVSPropertyOp24
 70
     1
102
RTVSPropertyOp25
 70
     1
102
RTVSPropertyOp26
 70
     1
102
RTVSPropertyOp27
 70
     1
102
RTVSPropertyOp28
 70
     1
102
RTVSPropertyOp29
 70
     1
102
RTVSPropertyOp30
 70
     1
102
RTVSPropertyOp31
 70
     1
102
RTVSPropertyOp32
 70
     1
102
RTVSPropertyOp33
 70
     1
102
RTVSPropertyOp34
 70
     1
102
RTVSPropertyOp35
 70
     1
102
RTVSPropertyOp36
 70
     1
102
RTVSPropertyOp37
 70
     1
102
RTVSPropertyOp38
 70
     1
102
RTVSPropertyOp39
 70
     1
102
RTVSPropertyOp40
 70
     1
102
RTVSPropertyOp41
 70
     1
102
RTVSPropertyOp42
 70
     1
102
RTVSPropertyOp43
 70
     1
102
RTVSPropertyOp44
 70
     1
102
RTVSPropertyOp45
 70
     1
102
RTVSPropertyOp46
 70
     1
102
RTVSPropertyOp47
 70
     1
102
RTVSPropertyOp48
 70
     1
102
RTVSPropertyOp49
 70
     1
102
RTVSPropertyOp50
 70
     1
102
RTVSPropertyOp51
 70
     0
102
RTVSPropertyOp52
 70
     0
102
RTVSPropertyOp53
 70
     1
102
RTVSPropertyOp54
 70
     1
102
RTVSPropertyOp55
 70
     1
102
RTVSPropertyOp56
 70
     1
102
RTVSPropertyOp57
 70
     1
102
RTVSPropertyOp58
 70
     1
102
RTVSPropertyOp59
 70
     1
102
RTVSPropertyOp60
 70
     1
102
RTVSPropertyOp61
 70
     1
102
RTVSPropertyOp62
 70
     1
  0
XRECORD
  5
478
102
{ACAD_REACTORS
330
477
102
}
330
477
100
AcDbXrecord
280
     1
102
RTVSPost2010Prop28
280
     0
102
RTVSPost2010PropOp28
 70
     1
102
RTVSPost2010Prop29
280
     1
102
RTVSPost2010PropOp29
 70
     1
102
RTVSPost2010Prop30
280
     1
102
RTVSPost2010PropOp30
 70
     1
102
RTVSPost2010Prop31
280
     0
102
RTVSPost2010PropOp31
 70
     1
102
RTVSPost2010Prop32
280
     0
102
RTVSPost2010PropOp32
 70
     1
102
RTVSPost2010Prop33
280
     0
102
RTVSPost2010PropOp33
 70
     1
102
RTVSPost2010Prop34
280
     0
102
RTVSPost2010PropOp34
 70
     1
102
RTVSPost2010Prop35
280
     0
102
RTVSPost2010PropOp35
 70
     1
102
RTVSPost2010Prop36
280
     0
102
RTVSPost2010PropOp36
 70
     1
102
RTVSPost2010Prop37
 90
       50
102
RTVSPost2010PropOp37
 70
     1
102
RTVSPost2010Prop38
140
0.0
102
RTVSPost2010PropOp38
 70
     1
102
RTVSPost2010Prop39
140
1.0
102
RTVSPost2010PropOp39
 70
     1
102
RTVSPost2010Prop40
 90
        0
102
RTVSPost2010PropOp40
 70
     1
102
RTVSPost2010Prop41ColorIndex
 90
       18
102
RTVSPost2010Prop41ColorRGB
 90
        0
102
RTVSPost2010PropOp41
 70
     1
102
RTVSPost2010Prop42
 90
       50
102
RTVSPost2010PropOp42
 70
     1
102
RTVSPost2010Prop43
 90
        3
102
RTVSPost2010PropOp43
 70
     1
102
RTVSPost2010Prop44ColorIndex
 90
        5
102
RTVSPost2010Prop44ColorRGB
 90
      255
102
RTVSPost2010PropOp44
 70
     1
102
RTVSPost2010Prop45
280
     0
102
RTVSPost2010PropOp45
 70
     1
102
RTVSPost2010Prop46
 90
       50
102
RTVSPost2010PropOp46
 70
     1
102
RTVSPost2010Prop47
 90
       50
102
RTVSPost2010PropOp47
 70
     1
102
RTVSPost2010Prop48
 90
       50
102
RTVSPost2010PropOp48
 70
     1
102
RTVSPost2010Prop49
280
     0
102
RTVSPost2010PropOp49
 70
     1
102
RTVSPost2010Prop50
 90
       50
102
RTVSPost2010PropOp50
 70
     1
102
RTVSPost2010Prop51ColorIndex
 90
      256
102
RTVSPost2010Prop51ColorRGB
 90
-16777216
102
RTVSPost2010PropOp51
 70
     0
102
RTVSPost2010Prop52
140
1.0
102
RTVSPost2010PropOp52
 70
     0
102
RTVSPost2010Prop53
 90
        2
102
RTVSPost2010PropOp53
 70
     1
102
RTVSPost2010Prop54
  1
strokes_ogs.tif
102
RTVSPost2010PropOp54
 70
     1
102
RTVSPost2010Prop55
280
     0
102
RTVSPost2010PropOp55
 70
     1
102
RTVSPost2010Prop56
140
1.0
102
RTVSPost2010PropOp56
 70
     1
102
RTVSPost2010Prop57
140
1.0
102
RTVSPost2010PropOp57
 70
     1
102
RTVSPropertyOp0
 70
     1
102
RTVSPropertyOp1
 70
     1
102
RTVSPropertyOp2
 70
     1
102
RTVSPropertyOp3
 70
     1
102
RTVSPropertyOp4
 70
     1
102
RTVSPropertyOp5
 70
     1
102
RTVSPropertyOp6
 70
     1
102
RTVSPropertyOp7
 70
     1
102
RTVSPropertyOp8
 70
     1
102
RTVSPropertyOp9
 70
     1
102
RTVSPropertyOp10
 70
     1
102
RTVSPropertyOp11
 70
     1
102
RTVSPropertyOp12
 70
     1
102
RTVSPropertyOp13
 70
     1
102
RTVSPropertyOp14
 70
     1
102
RTVSPropertyOp15
 70
     1
102
RTVSPropertyOp16
 70
     1
102
RTVSPropertyOp17
 70
     1
102
RTVSPropertyOp18
 70
     1
102
RTVSPropertyOp19
 70
     1
102
RTVSPropertyOp20
 70
     1
102
RTVSPropertyOp21
 70
     1
102
RTVSPropertyOp22
 70
     1
102
RTVSPropertyOp23
 70
     1
102
RTVSPropertyOp24
 70
     1
102
RTVSPropertyOp25
 70
     1
102
RTVSPropertyOp26
 70
     1
102
RTVSPropertyOp27
 70
     1
102
RTVSPropertyOp28
 70
     1
102
RTVSPropertyOp29
 70
     1
102
RTVSPropertyOp30
 70
     1
102
RTVSPropertyOp31
 70
     1
102
RTVSPropertyOp32
 70
     1
102
RTVSPropertyOp33
 70
     1
102
RTVSPropertyOp34
 70
     1
102
RTVSPropertyOp35
 70
     1
102
RTVSPropertyOp36
 70
     1
102
RTVSPropertyOp37
 70
     1
102
RTVSPropertyOp38
 70
     1
102
RTVSPropertyOp39
 70
     1
102
RTVSPropertyOp40
 70
     1
102
RTVSPropertyOp41
 70
     1
102
RTVSPropertyOp42
 70
     1
102
RTVSPropertyOp43
 70
     1
102
RTVSPropertyOp44
 70
     1
102
RTVSPropertyOp45
 70
     1
102
RTVSPropertyOp46
 70
     1
102
RTVSPropertyOp47
 70
     1
102
RTVSPropertyOp48
 70
     1
102
RTVSPropertyOp49
 70
     1
102
RTVSPropertyOp50
 70
     1
102
RTVSPropertyOp51
 70
     0
102
RTVSPropertyOp52
 70
     0
102
RTVSPropertyOp53
 70
     1
102
RTVSPropertyOp54
 70
     1
102
RTVSPropertyOp55
 70
     1
102
RTVSPropertyOp56
 70
     1
102
RTVSPropertyOp57
 70
     1
102
RTVSPropertyOp58
 70
     1
102
RTVSPropertyOp59
 70
     1
102
RTVSPropertyOp60
 70
     1
102
RTVSPropertyOp61
 70
     1
102
RTVSPropertyOp62
 70
     1
  0
XRECORD
  5
490
102
{ACAD_REACTORS
330
48F
102
}
330
48F
100
AcDbXrecord
280
     1
102
RTVSPost2010Prop28
280
     0
102
RTVSPost2010PropOp28
 70
     1
102
RTVSPost2010Prop29
280
     1
102
RTVSPost2010PropOp29
 70
     1
102
RTVSPost2010Prop30
280
     1
102
RTVSPost2010PropOp30
 70
     1
102
RTVSPost2010Prop31
280
     0
102
RTVSPost2010PropOp31
 70
     1
102
RTVSPost2010Prop32
280
     0
102
RTVSPost2010PropOp32
 70
     1
102
RTVSPost2010Prop33
280
     0
102
RTVSPost2010PropOp33
 70
     1
102
RTVSPost2010Prop34
280
     0
102
RTVSPost2010PropOp34
 70
     1
102
RTVSPost2010Prop35
280
     0
102
RTVSPost2010PropOp35
 70
     1
102
RTVSPost2010Prop36
280
     0
102
RTVSPost2010PropOp36
 70
     1
102
RTVSPost2010Prop37
 90
       50
102
RTVSPost2010PropOp37
 70
     1
102
RTVSPost2010Prop38
140
0.0
102
RTVSPost2010PropOp38
 70
     1
102
RTVSPost2010Prop39
140
1.0
102
RTVSPost2010PropOp39
 70
     1
102
RTVSPost2010Prop40
 90
        0
102
RTVSPost2010PropOp40
 70
     1
102
RTVSPost2010Prop41ColorIndex
 90
       18
102
RTVSPost2010Prop41ColorRGB
 90
        0
102
RTVSPost2010PropOp41
 70
     1
102
RTVSPost2010Prop42
 90
       50
102
RTVSPost2010PropOp42
 70
     1
102
RTVSPost2010Prop43
 90
        3
102
RTVSPost2010PropOp43
 70
     1
102
RTVSPost2010Prop44ColorIndex
 90
        5
102
RTVSPost2010Prop44ColorRGB
 90
      255
102
RTVSPost2010PropOp44
 70
     1
102
RTVSPost2010Prop45
280
     0
102
RTVSPost2010PropOp45
 70
     1
102
RTVSPost2010Prop46
 90
       50
102
RTVSPost2010PropOp46
 70
     1
102
RTVSPost2010Prop47
 90
       50
102
RTVSPost2010PropOp47
 70
     1
102
RTVSPost2010Prop48
 90
       50
102
RTVSPost2010PropOp48
 70
     1
102
RTVSPost2010Prop49
280
     0
102
RTVSPost2010PropOp49
 70
     1
102
RTVSPost2010Prop50
 90
       50
102
RTVSPost2010PropOp50
 70
     1
102
RTVSPost2010Prop51ColorIndex
 90
      256
102
RTVSPost2010Prop51ColorRGB
 90
-16777216
102
RTVSPost2010PropOp51
 70
     0
102
RTVSPost2010Prop52
140
1.0
102
RTVSPost2010PropOp52
 70
     0
102
RTVSPost2010Prop53
 90
        2
102
RTVSPost2010PropOp53
 70
     1
102
RTVSPost2010Prop54
  1
strokes_ogs.tif
102
RTVSPost2010PropOp54
 70
     1
102
RTVSPost2010Prop55
280
     0
102
RTVSPost2010PropOp55
 70
     1
102
RTVSPost2010Prop56
140
1.0
102
RTVSPost2010PropOp56
 70
     1
102
RTVSPost2010Prop57
140
1.0
102
RTVSPost2010PropOp57
 70
     1
102
RTVSPropertyOp0
 70
     1
102
RTVSPropertyOp1
 70
     1
102
RTVSPropertyOp2
 70
     1
102
RTVSPropertyOp3
 70
     1
102
RTVSPropertyOp4
 70
     1
102
RTVSPropertyOp5
 70
     1
102
RTVSPropertyOp6
 70
     1
102
RTVSPropertyOp7
 70
     1
102
RTVSPropertyOp8
 70
     1
102
RTVSPropertyOp9
 70
     1
102
RTVSPropertyOp10
 70
     1
102
RTVSPropertyOp11
 70
     1
102
RTVSPropertyOp12
 70
     1
102
RTVSPropertyOp13
 70
     1
102
RTVSPropertyOp14
 70
     1
102
RTVSPropertyOp15
 70
     1
102
RTVSPropertyOp16
 70
     1
102
RTVSPropertyOp17
 70
     1
102
RTVSPropertyOp18
 70
     1
102
RTVSPropertyOp19
 70
     1
102
RTVSPropertyOp20
 70
     1
102
RTVSPropertyOp21
 70
     1
102
RTVSPropertyOp22
 70
     1
102
RTVSPropertyOp23
 70
     1
102
RTVSPropertyOp24
 70
     1
102
RTVSPropertyOp25
 70
     1
102
RTVSPropertyOp26
 70
     1
102
RTVSPropertyOp27
 70
     1
102
RTVSPropertyOp28
 70
     1
102
RTVSPropertyOp29
 70
     1
102
RTVSPropertyOp30
 70
     1
102
RTVSPropertyOp31
 70
     1
102
RTVSPropertyOp32
 70
     1
102
RTVSPropertyOp33
 70
     1
102
RTVSPropertyOp34
 70
     1
102
RTVSPropertyOp35
 70
     1
102
RTVSPropertyOp36
 70
     1
102
RTVSPropertyOp37
 70
     1
102
RTVSPropertyOp38
 70
     1
102
RTVSPropertyOp39
 70
     1
102
RTVSPropertyOp40
 70
     1
102
RTVSPropertyOp41
 70
     1
102
RTVSPropertyOp42
 70
     1
102
RTVSPropertyOp43
 70
     1
102
RTVSPropertyOp44
 70
     1
102
RTVSPropertyOp45
 70
     1
102
RTVSPropertyOp46
 70
     1
102
RTVSPropertyOp47
 70
     1
102
RTVSPropertyOp48
 70
     1
102
RTVSPropertyOp49
 70
     1
102
RTVSPropertyOp50
 70
     1
102
RTVSPropertyOp51
 70
     0
102
RTVSPropertyOp52
 70
     0
102
RTVSPropertyOp53
 70
     1
102
RTVSPropertyOp54
 70
     1
102
RTVSPropertyOp55
 70
     1
102
RTVSPropertyOp56
 70
     1
102
RTVSPropertyOp57
 70
     1
102
RTVSPropertyOp58
 70
     1
102
RTVSPropertyOp59
 70
     1
102
RTVSPropertyOp60
 70
     1
102
RTVSPropertyOp61
 70
     1
102
RTVSPropertyOp62
 70
     1
  0
ENDSEC
  0
EOF
