  0
SECTION
  2
HEADER
  9
$ACADVER
  1
AC1015
  9
$ACADMAINTVER
 70
    20
  9
$DWGCODEPAGE
  3
ANSI_932
  9
$INSBASE
 10
0.0
 20
0.0
 30
0.0
  9
$EXTMIN
 10
10.0
 20
9.999999999999998
 30
0.0
  9
$EXTMAX
 10
389.281787
 20
270.3293009999998
 30
0.0
  9
$LIMMIN
 10
0.0
 20
0.0
  9
$LIMMAX
 10
396.0
 20
273.0
  9
$ORTHOMODE
 70
     1
  9
$REGENMODE
 70
     1
  9
$FILLMODE
 70
     1
  9
$QTEXTMODE
 70
     0
  9
$MIRRTEXT
 70
     1
  9
$LTSCALE
 40
20.0
  9
$ATTMODE
 70
     1
  9
$TEXTSIZE
 40
5.0
  9
$TRACEWID
 40
1.0
  9
$TEXTSTYLE
  7
STANDARD
  9
$CLAYER
  8
0
  9
$CELTYPE
  6
BYLAYER
  9
$CECOLOR
 62
   256
  9
$CELTSCALE
 40
1.0
  9
$DISPSILH
 70
     0
  9
$DIMSCALE
 40
1.0
  9
$DIMASZ
 40
3.0
  9
$DIMEXO
 40
1.0
  9
$DIMDLI
 40
10.0
  9
$DIMRND
 40
0.0
  9
$DIMDLE
 40
0.0
  9
$DIMEXE
 40
1.0
  9
$DIMTP
 40
0.0
  9
$DIMTM
 40
0.0
  9
$DIMTXT
 40
3.2
  9
$DIMCEN
 40
0.0
  9
$DIMTSZ
 40
0.0
  9
$DIMTOL
 70
     0
  9
$DIMLIM
 70
     0
  9
$DIMTIH
 70
     0
  9
$DIMTOH
 70
     0
  9
$DIMSE1
 70
     0
  9
$DIMSE2
 70
     0
  9
$DIMTAD
 70
     3
  9
$DIMZIN
 70
     8
  9
$DIMBLK
  1

  9
$DIMASO
 70
     1
  9
$DIMSHO
 70
     1
  9
$DIMPOST
  1

  9
$DIMAPOST
  1

  9
$DIMALT
 70
     0
  9
$DIMALTD
 70
     2
  9
$DIMALTF
 40
25.4
  9
$DIMLFAC
 40
1.0
  9
$DIMTOFL
 70
     1
  9
$DIMTVP
 40
0.0
  9
$DIMTIX
 70
     0
  9
$DIMSOXD
 70
     0
  9
$DIMSAH
 70
     1
  9
$DIMBLK1
  1

  9
$DIMBLK2
  1

  9
$DIMSTYLE
  2
STANDARD
  9
$DIMCLRD
 70
     0
  9
$DIMCLRE
 70
     0
  9
$DIMCLRT
 70
     0
  9
$DIMTFAC
 40
1.0
  9
$DIMGAP
 40
1.0
  9
$DIMJUST
 70
     0
  9
$DIMSD1
 70
     0
  9
$DIMSD2
 70
     0
  9
$DIMTOLJ
 70
     1
  9
$DIMTZIN
 70
     0
  9
$DIMALTZ
 70
     0
  9
$DIMALTTZ
 70
     0
  9
$DIMUPT
 70
     0
  9
$DIMDEC
 70
     4
  9
$DIMTDEC
 70
     4
  9
$DIMALTU
 70
     2
  9
$DIMALTTD
 70
     2
  9
$DIMTXSTY
  7
STANDARD
  9
$DIMAUNIT
 70
     0
  9
$DIMADEC
 70
     0
  9
$DIMALTRND
 40
0.0
  9
$DIMAZIN
 70
     0
  9
$DIMDSEP
 70
    46
  9
$DIMATFIT
 70
     3
  9
$DIMFRAC
 70
     0
  9
$DIMLDRBLK
  1

  9
$DIMLUNIT
 70
     2
  9
$DIMLWD
 70
    -2
  9
$DIMLWE
 70
    -2
  9
$DIMTMOVE
 70
     0
  9
$LUNITS
 70
     2
  9
$LUPREC
 70
     4
  9
$SKETCHINC
 40
1.0
  9
$FILLETRAD
 40
0.0
  9
$AUNITS
 70
     0
  9
$AUPREC
 70
     2
  9
$MENU
  1
.
  9
$ELEVATION
 40
0.0
  9
$PELEVATION
 40
0.0
  9
$THICKNESS
 40
0.0
  9
$LIMCHECK
 70
     0
  9
$CHAMFERA
 40
10.0
  9
$CHAMFERB
 40
10.0
  9
$CHAMFERC
 40
0.0
  9
$CHAMFERD
 40
0.0
  9
$SKPOLY
 70
     0
  9
$TDCREATE
 40
2451066.671271528
  9
$TDUCREATE
 40
2451066.296271528
  9
$TDUPDATE
 40
2457192.600091320
  9
$TDUUPDATE
 40
2457192.225091319
  9
$TDINDWG
 40
0.0000140972
  9
$TDUSRTIMER
 40
0.0000136227
  9
$USRTIMER
 70
     1
  9
$ANGBASE
 50
0.0
  9
$ANGDIR
 70
     0
  9
$PDMODE
 70
     0
  9
$PDSIZE
 40
0.0
  9
$PLINEWID
 40
0.0
  9
$SPLFRAME
 70
     0
  9
$SPLINETYPE
 70
     6
  9
$SPLINESEGS
 70
     8
  9
$HANDSEED
  5
99C2
  9
$SURFTAB1
 70
     6
  9
$SURFTAB2
 70
     6
  9
$SURFTYPE
 70
     6
  9
$SURFU
 70
     6
  9
$SURFV
 70
     6
  9
$UCSBASE
  2

  9
$UCSNAME
  2

  9
$UCSORG
 10
0.0
 20
0.0
 30
0.0
  9
$UCSXDIR
 10
1.0
 20
0.0
 30
0.0
  9
$UCSYDIR
 10
0.0
 20
1.0
 30
0.0
  9
$UCSORTHOREF
  2

  9
$UCSORTHOVIEW
 70
     0
  9
$UCSORGTOP
 10
0.0
 20
0.0
 30
0.0
  9
$UCSORGBOTTOM
 10
0.0
 20
0.0
 30
0.0
  9
$UCSORGLEFT
 10
0.0
 20
0.0
 30
0.0
  9
$UCSORGRIGHT
 10
0.0
 20
0.0
 30
0.0
  9
$UCSORGFRONT
 10
0.0
 20
0.0
 30
0.0
  9
$UCSORGBACK
 10
0.0
 20
0.0
 30
0.0
  9
$PUCSBASE
  2

  9
$PUCSNAME
  2

  9
$PUCSORG
 10
0.0
 20
0.0
 30
0.0
  9
$PUCSXDIR
 10
1.0
 20
0.0
 30
0.0
  9
$PUCSYDIR
 10
0.0
 20
1.0
 30
0.0
  9
$PUCSORTHOREF
  2

  9
$PUCSORTHOVIEW
 70
     0
  9
$PUCSORGTOP
 10
0.0
 20
0.0
 30
0.0
  9
$PUCSORGBOTTOM
 10
0.0
 20
0.0
 30
0.0
  9
$PUCSORGLEFT
 10
0.0
 20
0.0
 30
0.0
  9
$PUCSORGRIGHT
 10
0.0
 20
0.0
 30
0.0
  9
$PUCSORGFRONT
 10
0.0
 20
0.0
 30
0.0
  9
$PUCSORGBACK
 10
0.0
 20
0.0
 30
0.0
  9
$USERI1
 70
     0
  9
$USERI2
 70
     0
  9
$USERI3
 70
     0
  9
$USERI4
 70
     0
  9
$USERI5
 70
     0
  9
$USERR1
 40
0.0
  9
$USERR2
 40
0.0
  9
$USERR3
 40
0.0
  9
$USERR4
 40
0.0
  9
$USERR5
 40
0.0
  9
$WORLDVIEW
 70
     1
  9
$SHADEDGE
 70
     3
  9
$SHADEDIF
 70
    70
  9
$TILEMODE
 70
     1
  9
$MAXACTVP
 70
    16
  9
$PINSBASE
 10
0.0
 20
0.0
 30
0.0
  9
$PLIMCHECK
 70
     0
  9
$PEXTMIN
 10
1.000000000000000E+20
 20
1.000000000000000E+20
 30
1.000000000000000E+20
  9
$PEXTMAX
 10
-1.000000000000000E+20
 20
-1.000000000000000E+20
 30
-1.000000000000000E+20
  9
$PLIMMIN
 10
0.0
 20
0.0
  9
$PLIMMAX
 10
420.0
 20
297.0
  9
$UNITMODE
 70
     0
  9
$VISRETAIN
 70
     0
  9
$PLINEGEN
 70
     0
  9
$PSLTSCALE
 70
     0
  9
$TREEDEPTH
 70
  3020
  9
$CMLSTYLE
  2
STANDARD
  9
$CMLJUST
 70
     0
  9
$CMLSCALE
 40
1.0
  9
$PROXYGRAPHICS
 70
     1
  9
$MEASUREMENT
 70
     0
  9
$CELWEIGHT
370
    -1
  9
$ENDCAPS
280
     0
  9
$JOINSTYLE
280
     0
  9
$LWDISPLAY
290
     0
  9
$INSUNITS
 70
     0
  9
$HYPERLINKBASE
  1

  9
$STYLESHEET
  1

  9
$XEDIT
290
     1
  9
$CEPSNTYPE
380
     0
  9
$PSTYLEMODE
290
     1
  9
$FINGERPRINTGUID
  2
{4AC31645-36FD-4ECA-B96D-B0939CB8752F}
  9
$VERSIONGUID
  2
{E80B8854-DA6E-4097-80D4-210B7D945513}
  9
$EXTNAMES
290
     1
  9
$PSVPSCALE
 40
0.0
  9
$OLESTARTUP
290
     0
  0
ENDSEC
  0
SECTION
  2
CLASSES
  0
CLASS
  1
ACDBDICTIONARYWDFLT
  2
AcDbDictionaryWithDefault
  3
ObjectDBX Classes
 90
        0
280
     0
281
     0
  0
CLASS
  1
ACDBPLACEHOLDER
  2
AcDbPlaceHolder
  3
ObjectDBX Classes
 90
        0
280
     0
281
     0
  0
CLASS
  1
LAYOUT
  2
AcDbLayout
  3
ObjectDBX Classes
 90
        0
280
     0
281
     0
  0
CLASS
  1
DICTIONARYVAR
  2
AcDbDictionaryVar
  3
ObjectDBX Classes
 90
        0
280
     0
281
     0
  0
CLASS
  1
MATERIAL
  2
AcDbMaterial
  3
ObjectDBX Classes
 90
     1153
280
     0
281
     0
  0
CLASS
  1
VISUALSTYLE
  2
AcDbVisualStyle
  3
ObjectDBX Classes
 90
     4095
280
     0
281
     0
  0
CLASS
  1
TABLESTYLE
  2
AcDbTableStyle
  3
ObjectDBX Classes
 90
     4095
280
     0
281
     0
  0
CLASS
  1
SCALE
  2
AcDbScale
  3
ObjectDBX Classes
 90
     1153
280
     0
281
     0
  0
CLASS
  1
MLEADERSTYLE
  2
AcDbMLeaderStyle
  3
ACDB_MLEADERSTYLE_CLASS
 90
     4095
280
     0
281
     0
  0
CLASS
  1
ACDBSECTIONVIEWSTYLE
  2
AcDbSectionViewStyle
  3
ObjectDBX Classes
 90
     1025
280
     0
281
     0
  0
CLASS
  1
ACDBDETAILVIEWSTYLE
  2
AcDbDetailViewStyle
  3
ObjectDBX Classes
 90
     1025
280
     0
281
     0
  0
CLASS
  1
CELLSTYLEMAP
  2
AcDbCellStyleMap
  3
ObjectDBX Classes
 90
     1152
280
     0
281
     0
  0
ENDSEC
  0
SECTION
  2
TABLES
  0
TABLE
  2
VPORT
  5
96EE
330
0
100
AcDbSymbolTable
 70
     1
  0
VPORT
  5
990B
330
96EE
100
AcDbSymbolTableRecord
100
AcDbViewportTableRecord
  2
*ACTIVE
 70
     0
 10
0.0
 20
0.0
 11
1.0
 21
1.0
 12
278.5028294528741
 22
140.1657721242701
 13
0.0
 23
0.0
 14
10.0
 24
10.0
 15
10.0
 25
10.0
 16
0.0
 26
0.0
 36
1.0
 17
0.0
 27
0.0
 37
0.0
 40
263.2649860489798
 41
1.899603698811096
 42
50.0
 43
0.0
 44
0.0
 50
0.0
 51
0.0
 71
     0
 72
   100
 73
     1
 74
     0
 75
     0
 76
     0
 77
     0
 78
     0
281
     0
 65
     1
110
0.0
120
0.0
130
0.0
111
1.0
121
0.0
131
0.0
112
0.0
122
1.0
132
0.0
 79
     0
146
0.0
1001
ACAD_NAV_VCDISPLAY
1070
     3
  0
ENDTAB
  0
TABLE
  2
LTYPE
  5
96EB
330
0
100
AcDbSymbolTable
 70
     4
  0
LTYPE
  5
96F9
330
96EB
100
AcDbSymbolTableRecord
100
AcDbLinetypeTableRecord
  2
BYBLOCK
 70
     0
  3

 72
    65
 73
     0
 40
0.0
  0
LTYPE
  5
96FA
330
96EB
100
AcDbSymbolTableRecord
100
AcDbLinetypeTableRecord
  2
BYLAYER
 70
     0
  3

 72
    65
 73
     0
 40
0.0
  0
LTYPE
  5
96FB
330
96EB
100
AcDbSymbolTableRecord
100
AcDbLinetypeTableRecord
  2
CONTINUOUS
 70
     0
  3
Solid line
 72
    65
 73
     0
 40
0.0
  0
LTYPE
  5
9709
330
96EB
100
AcDbSymbolTableRecord
100
AcDbLinetypeTableRecord
  2
DASHED
 70
     0
  3
__ __ __ __ __ __ __ __ __ __ __ __ __ __ __ __
 72
    65
 73
     2
 40
0.75
 49
0.5
 74
     0
 49
-0.25
 74
     0
  0
LTYPE
  5
970A
330
96EB
100
AcDbSymbolTableRecord
100
AcDbLinetypeTableRecord
  2
CENTER
 70
     0
  3
____ _ ____ _ ____ _ ____ _ ____ _ ____ _ ____ 
 72
    65
 73
     4
 40
2.0
 49
1.25
 74
     0
 49
-0.25
 74
     0
 49
0.25
 74
     0
 49
-0.25
 74
     0
  0
LTYPE
  5
970B
330
96EB
100
AcDbSymbolTableRecord
100
AcDbLinetypeTableRecord
  2
PHANTOM
 70
     0
  3
______  __  __  ______  __  __  ______  __  __ 
 72
    65
 73
     6
 40
2.5
 49
1.25
 74
     0
 49
-0.25
 74
     0
 49
0.25
 74
     0
 49
-0.25
 74
     0
 49
0.25
 74
     0
 49
-0.25
 74
     0
  0
ENDTAB
  0
TABLE
  2
LAYER
  5
96E8
330
0
100
AcDbSymbolTable
 70
     8
  0
LAYER
  5
96F6
102
{ACAD_XDICTIONARY
360
9966
102
}
330
96E8
100
AcDbSymbolTableRecord
100
AcDbLayerTableRecord
  2
0
 70
     0
 62
     7
  6
CONTINUOUS
370
    -3
390
9914
  0
LAYER
  5
970C
102
{ACAD_XDICTIONARY
360
9968
102
}
330
96E8
100
AcDbSymbolTableRecord
100
AcDbLayerTableRecord
  2
4
 70
     0
 62
     1
  6
CENTER
370
    -3
390
9914
  0
LAYER
  5
970D
102
{ACAD_XDICTIONARY
360
996A
102
}
330
96E8
100
AcDbSymbolTableRecord
100
AcDbLayerTableRecord
  2
5
 70
     0
 62
     6
  6
PHANTOM
370
    -3
390
9914
  0
LAYER
  5
970E
102
{ACAD_XDICTIONARY
360
996C
102
}
330
96E8
100
AcDbSymbolTableRecord
100
AcDbLayerTableRecord
  2
1
 70
     0
 62
     7
  6
CONTINUOUS
370
    -3
390
9914
  0
LAYER
  5
970F
102
{ACAD_XDICTIONARY
360
996E
102
}
330
96E8
100
AcDbSymbolTableRecord
100
AcDbLayerTableRecord
  2
2
 70
     0
 62
     4
  6
CONTINUOUS
370
    -3
390
9914
  0
LAYER
  5
9710
102
{ACAD_XDICTIONARY
360
9970
102
}
330
96E8
100
AcDbSymbolTableRecord
100
AcDbLayerTableRecord
  2
3
 70
     0
 62
     2
  6
DASHED
370
    -3
390
9914
  0
LAYER
  5
9711
102
{ACAD_XDICTIONARY
360
9972
102
}
330
96E8
100
AcDbSymbolTableRecord
100
AcDbLayerTableRecord
  2
6
 70
     0
 62
     5
  6
CONTINUOUS
370
    -3
390
9914
  0
LAYER
  5
9712
102
{ACAD_XDICTIONARY
360
9974
102
}
330
96E8
100
AcDbSymbolTableRecord
100
AcDbLayerTableRecord
  2
7
 70
     0
 62
     3
  6
CONTINUOUS
370
    -3
390
9914
  0
ENDTAB
  0
TABLE
  2
STYLE
  5
96E9
330
0
100
AcDbSymbolTable
 70
     1
  0
STYLE
  5
96F7
330
96E9
100
AcDbSymbolTableRecord
100
AcDbTextStyleTableRecord
  2
STANDARD
 70
     0
 40
0.0
 41
1.0
 50
0.0
 71
     0
 42
5.0
  3
txt
  4

  0
ENDTAB
  0
TABLE
  2
VIEW
  5
96EC
330
0
100
AcDbSymbolTable
 70
     0
  0
ENDTAB
  0
TABLE
  2
UCS
  5
96ED
330
0
100
AcDbSymbolTable
 70
     0
  0
ENDTAB
  0
TABLE
  2
APPID
  5
96EF
330
0
100
AcDbSymbolTable
 70
     3
  0
APPID
  5
96F8
330
96EF
100
AcDbSymbolTableRecord
100
AcDbRegAppTableRecord
  2
ACAD
 70
     0
  0
APPID
  5
9980
330
96EF
100
AcDbSymbolTableRecord
100
AcDbRegAppTableRecord
  2
ACAD_NAV_VCDISPLAY
 70
     0
  0
APPID
  5
99B9
330
96EF
100
AcDbSymbolTableRecord
100
AcDbRegAppTableRecord
  2
ACAD_MLEADERVER
 70
     0
  0
ENDTAB
  0
TABLE
  2
DIMSTYLE
  5
96F0
330
0
100
AcDbSymbolTable
 70
     1
100
AcDbDimStyleTable
 71
     0
  0
DIMSTYLE
105
9714
330
96F0
100
AcDbSymbolTableRecord
100
AcDbDimStyleTableRecord
  2
STANDARD
 70
     0
 41
3.0
 42
1.0
 43
10.0
 44
1.0
 73
     0
 74
     0
 77
     3
 78
     8
140
3.2
141
0.0
147
1.0
172
     1
173
     1
284
     8
285
     8
286
     8
340
96F7
  0
ENDTAB
  0
TABLE
  2
BLOCK_RECORD
  5
96E7
330
0
100
AcDbSymbolTable
 70
     0
  0
BLOCK_RECORD
  5
9704
102
{ACAD_XDICTIONARY
360
990E
102
}
330
96E7
100
AcDbSymbolTableRecord
100
AcDbBlockTableRecord
  2
*MODEL_SPACE
340
9962
  0
BLOCK_RECORD
  5
9700
102
{ACAD_XDICTIONARY
360
990C
102
}
330
96E7
100
AcDbSymbolTableRecord
100
AcDbBlockTableRecord
  2
*PAPER_SPACE
340
9963
  0
ENDTAB
  0
ENDSEC
  0
SECTION
  2
BLOCKS
  0
BLOCK
  5
9705
330
9704
100
AcDbEntity
  8
0
100
AcDbBlockBegin
  2
*MODEL_SPACE
 70
     0
 10
0.0
 20
0.0
 30
0.0
  3
*MODEL_SPACE
  1

  0
ENDBLK
  5
9706
330
9704
100
AcDbEntity
  8
0
100
AcDbBlockEnd
  0
BLOCK
  5
9701
330
9700
100
AcDbEntity
 67
     1
  8
0
100
AcDbBlockBegin
  2
*PAPER_SPACE
 70
     0
 10
0.0
 20
0.0
 30
0.0
  3
*PAPER_SPACE
  1

  0
ENDBLK
  5
9702
330
9700
100
AcDbEntity
 67
     1
  8
0
100
AcDbBlockEnd
  0
ENDSEC
  0
SECTION
  2
ENTITIES
  0
TEXT
  5
971C
330
9704
100
AcDbEntity
  8
7
  6
Continuous
100
AcDbText
 10
10.0
 20
18.0
 30
0.0
 40
3.0
  1
TYPE No.TL-223
100
AcDbText
  0
TEXT
  5
971D
330
9704
100
AcDbEntity
  8
7
  6
Continuous
100
AcDbText
 10
10.0
 20
26.0
 30
0.0
 40
3.0
  1
CODE No.1212
100
AcDbText
  0
TEXT
  5
971E
330
9704
100
AcDbEntity
  8
1
  6
Continuous
100
AcDbText
 10
10.0
 20
10.0
 30
0.0
 40
1.399999999999999
  1
LAYER
100
AcDbText
  0
TEXT
  5
971F
330
9704
100
AcDbEntity
  8
1
  6
Continuous
100
AcDbText
 10
17.97951099999998
 20
10.04873699999998
 30
0.0
 40
1.399999999999999
  1
1
100
AcDbText
  0
TEXT
  5
9720
330
9704
100
AcDbEntity
  8
7
  6
Continuous
100
AcDbText
 10
29.97951099999999
 20
10.04873699999998
 30
0.0
 40
1.399999999999999
  1
7
100
AcDbText
  0
TEXT
  5
9721
330
9704
100
AcDbEntity
  8
4
  6
CENTER
100
AcDbText
 10
23.97951099999999
 20
10.04873699999998
 30
0.0
 40
1.399999999999999
  1
4
100
AcDbText
  0
TEXT
  5
9722
330
9704
100
AcDbEntity
  8
3
  6
DASHED
100
AcDbText
 10
21.979511
 20
10.04873699999998
 30
0.0
 40
1.399999999999999
  1
3
100
AcDbText
  0
TEXT
  5
9723
330
9704
100
AcDbEntity
  8
2
  6
Continuous
100
AcDbText
 10
19.97951099999999
 20
10.04873699999998
 30
0.0
 40
1.399999999999999
  1
2
100
AcDbText
  0
TEXT
  5
9724
330
9704
100
AcDbEntity
  8
6
  6
Continuous
100
AcDbText
 10
27.979511
 20
10.04873699999998
 30
0.0
 40
1.399999999999999
  1
6
100
AcDbText
  0
TEXT
  5
9725
330
9704
100
AcDbEntity
  8
5
  6
PHANTOM
100
AcDbText
 10
25.97951099999999
 20
10.04873699999998
 30
0.0
 40
1.399999999999999
  1
5
100
AcDbText
  0
LINE
  5
9726
330
9704
100
AcDbEntity
  8
1
  6
Continuous
100
AcDbLine
 10
133.7406649999998
 20
166.5134749999998
 30
0.0
 11
133.7406649999998
 21
154.393907
 31
0.0
  0
LINE
  5
9727
330
9704
100
AcDbEntity
  8
1
  6
Continuous
100
AcDbLine
 10
152.940677
 20
166.5134749999998
 30
0.0
 11
152.940677
 21
129.313478
 31
0.0
  0
LINE
  5
9728
330
9704
100
AcDbEntity
  8
1
  6
Continuous
100
AcDbLine
 10
145.7406649999998
 20
167.5134749999998
 30
0.0
 11
134.7406649999998
 21
167.5134749999998
 31
0.0
  0
LINE
  5
9729
330
9704
100
AcDbEntity
  8
1
  6
Continuous
100
AcDbLine
 10
151.9406769999999
 20
128.313478
 30
0.0
 11
134.7406649999998
 21
128.313478
 31
0.0
  0
LINE
  5
972A
330
9704
100
AcDbEntity
  8
1
  6
Continuous
100
AcDbLine
 10
152.940677
 20
166.5134749999998
 30
0.0
 11
145.7406649999998
 21
166.5134749999998
 31
0.0
  0
LINE
  5
972B
330
9704
100
AcDbEntity
  8
1
  6
Continuous
100
AcDbLine
 10
151.9406769999999
 20
129.313478
 30
0.0
 11
151.9406769999999
 21
128.313478
 31
0.0
  0
LINE
  5
972C
330
9704
100
AcDbEntity
  8
1
  6
Continuous
100
AcDbLine
 10
152.940677
 20
129.313478
 30
0.0
 11
151.9406769999999
 21
129.313478
 31
0.0
  0
LINE
  5
972D
330
9704
100
AcDbEntity
  8
1
  6
Continuous
100
AcDbLine
 10
134.7406649999998
 20
167.5134749999998
 30
0.0
 11
134.7406649999998
 21
166.5134749999998
 31
0.0
  0
LINE
  5
972E
330
9704
100
AcDbEntity
  8
1
  6
Continuous
100
AcDbLine
 10
145.7406649999998
 20
167.5134749999998
 30
0.0
 11
145.7406649999998
 21
166.5134749999998
 31
0.0
  0
LINE
  5
972F
330
9704
100
AcDbEntity
  8
4
  6
CENTER
100
AcDbLine
 10
144.440677
 20
161.013475
 30
0.0
 11
138.440677
 21
161.013475
 31
0.0
  0
LINE
  5
9730
330
9704
100
AcDbEntity
  8
4
  6
CENTER
100
AcDbLine
 10
141.440677
 20
132.013475
 30
0.0
 11
141.440677
 21
164.013475
 31
0.0
  0
LINE
  5
9731
330
9704
100
AcDbEntity
  8
4
  6
CENTER
100
AcDbLine
 10
144.440677
 20
135.013475
 30
0.0
 11
138.440677
 21
135.013475
 31
0.0
  0
LINE
  5
9732
330
9704
100
AcDbEntity
  8
1
  6
Continuous
100
AcDbLine
 10
134.7406649999998
 20
166.5134749999998
 30
0.0
 11
133.7406649999998
 21
166.5134749999998
 31
0.0
  0
LINE
  5
9733
330
9704
100
AcDbEntity
  8
1
  6
Continuous
100
AcDbLine
 10
134.7406649999998
 20
129.313478
 30
0.0
 11
134.7406649999998
 21
128.313478
 31
0.0
  0
LINE
  5
9734
330
9704
100
AcDbEntity
  8
1
  6
Continuous
100
AcDbLine
 10
28.162204
 20
128.313478
 30
0.0
 11
18.16220399999998
 21
128.313478
 31
0.0
  0
LINE
  5
9735
330
9704
100
AcDbEntity
  8
1
  6
Continuous
100
AcDbLine
 10
28.162204
 20
167.5134749999998
 30
0.0
 11
18.16220399999998
 21
167.5134749999998
 31
0.0
  0
LINE
  5
9736
330
9704
100
AcDbEntity
  8
1
  6
Continuous
100
AcDbLine
 10
29.162204
 20
166.5134749999998
 30
0.0
 11
29.162204
 21
129.313478
 31
0.0
  0
LINE
  5
9737
330
9704
100
AcDbEntity
  8
1
  6
Continuous
100
AcDbLine
 10
18.16220399999998
 20
167.5134749999998
 30
0.0
 11
18.16220399999998
 21
128.313478
 31
0.0
  0
LINE
  5
9738
330
9704
100
AcDbEntity
  8
1
  6
Continuous
100
AcDbLine
 10
29.162204
 20
129.313478
 30
0.0
 11
18.16220399999998
 21
129.313478
 31
0.0
  0
LINE
  5
9739
330
9704
100
AcDbEntity
  8
4
  6
CENTER
100
AcDbLine
 10
26.56220499999999
 20
140.513475
 30
0.0
 11
17.56220499999999
 21
140.513475
 31
0.0
  0
LINE
  5
973A
330
9704
100
AcDbEntity
  8
4
  6
CENTER
100
AcDbLine
 10
22.062205
 20
145.0134749999998
 30
0.0
 11
22.062205
 21
136.013475
 31
0.0
  0
LINE
  5
973B
330
9704
100
AcDbEntity
  8
4
  6
CENTER
100
AcDbLine
 10
46.46220699999999
 20
148.0134749999998
 30
0.0
 11
12.762206
 21
148.0134749999998
 31
0.0
  0
LINE
  5
973C
330
9704
100
AcDbEntity
  8
1
  6
Continuous
100
AcDbLine
 10
14.76221
 20
150.0134749999998
 30
0.0
 11
14.76221
 21
146.0134749999998
 31
0.0
  0
LINE
  5
973D
330
9704
100
AcDbEntity
  8
1
  6
Continuous
100
AcDbLine
 10
14.962207
 20
146.0134749999998
 30
0.0
 11
14.76221
 21
146.0134749999998
 31
0.0
  0
LINE
  5
973E
330
9704
100
AcDbEntity
  8
1
  6
Continuous
100
AcDbLine
 10
14.962207
 20
150.0134749999998
 30
0.0
 11
14.76221
 21
150.0134749999998
 31
0.0
  0
LINE
  5
973F
330
9704
100
AcDbEntity
  8
1
  6
Continuous
100
AcDbLine
 10
36.462207
 20
145.0134749999998
 30
0.0
 11
29.162204
 21
145.0134749999998
 31
0.0
  0
LINE
  5
9740
330
9704
100
AcDbEntity
  8
1
  6
Continuous
100
AcDbLine
 10
36.462207
 20
151.0134749999998
 30
0.0
 11
29.162204
 21
151.0134749999998
 31
0.0
  0
LINE
  5
9741
330
9704
100
AcDbEntity
  8
1
  6
Continuous
100
AcDbLine
 10
16.162204
 20
173.513475
 30
0.0
 11
16.162204
 21
166.5134749999998
 31
0.0
  0
LINE
  5
9742
330
9704
100
AcDbEntity
  8
5
  6
PHANTOM
100
AcDbLine
 10
26.162204
 20
173.513475
 30
0.0
 11
25.16220399999999
 21
173.513475
 31
0.0
  0
LINE
  5
9743
330
9704
100
AcDbEntity
  8
1
  6
Continuous
100
AcDbLine
 10
26.162204
 20
179.513475
 30
0.0
 11
26.162204
 21
167.5134749999998
 31
0.0
  0
LINE
  5
9744
330
9704
100
AcDbEntity
  8
5
  6
PHANTOM
100
AcDbLine
 10
25.162212
 20
173.513475
 30
0.0
 11
16.162212
 21
167.5134749999998
 31
0.0
  0
LINE
  5
9745
330
9704
100
AcDbEntity
  8
1
  6
Continuous
100
AcDbLine
 10
150.940677
 20
179.513475
 30
0.0
 11
150.940677
 21
166.5134749999998
 31
0.0
  0
LINE
  5
9746
330
9704
100
AcDbEntity
  8
1
  6
Continuous
100
AcDbLine
 10
145.940677
 20
179.513475
 30
0.0
 11
145.940677
 21
166.5134749999998
 31
0.0
  0
LINE
  5
9747
330
9704
100
AcDbEntity
  8
1
  6
Continuous
100
AcDbLine
 10
150.940677
 20
179.513475
 30
0.0
 11
145.940677
 21
179.513475
 31
0.0
  0
LINE
  5
9748
330
9704
100
AcDbEntity
  8
1
  6
Continuous
100
AcDbLine
 10
134.7406649999998
 20
129.313478
 30
0.0
 11
133.7406649999998
 21
129.313478
 31
0.0
  0
LINE
  5
9749
330
9704
100
AcDbEntity
  8
1
  6
Continuous
100
AcDbLine
 10
38.46220699999999
 20
138.013475
 30
0.0
 11
36.462207
 21
140.013475
 31
0.0
  0
LINE
  5
974A
330
9704
100
AcDbEntity
  8
1
  6
Continuous
100
AcDbLine
 10
38.46220699999999
 20
158.013475
 30
0.0
 11
36.462207
 21
156.013475
 31
0.0
  0
LINE
  5
974B
330
9704
100
AcDbEntity
  8
1
  6
Continuous
100
AcDbLine
 10
38.46220699999999
 20
138.013475
 30
0.0
 11
38.46220699999999
 21
158.013475
 31
0.0
  0
LINE
  5
974C
330
9704
100
AcDbEntity
  8
1
  6
Continuous
100
AcDbLine
 10
44.462207
 20
139.013475
 30
0.0
 11
43.46220699999999
 21
138.013475
 31
0.0
  0
LINE
  5
974D
330
9704
100
AcDbEntity
  8
1
  6
Continuous
100
AcDbLine
 10
44.462199
 20
157.013475
 30
0.0
 11
43.462199
 21
158.013475
 31
0.0
  0
LINE
  5
974E
330
9704
100
AcDbEntity
  8
4
  6
CENTER
100
AcDbLine
 10
129.4406769999999
 20
148.0134749999998
 30
0.0
 11
153.4406769999999
 21
148.0134749999998
 31
0.0
  0
LINE
  5
974F
330
9704
100
AcDbEntity
  8
1
  6
Continuous
100
AcDbLine
 10
36.462207
 20
140.013475
 30
0.0
 11
36.462207
 21
156.013475
 31
0.0
  0
LINE
  5
9750
330
9704
100
AcDbEntity
  8
1
  6
Continuous
100
AcDbLine
 10
43.46220699999999
 20
138.013475
 30
0.0
 11
43.46220699999999
 21
158.013475
 31
0.0
  0
LINE
  5
9751
330
9704
100
AcDbEntity
  8
1
  6
Continuous
100
AcDbLine
 10
44.462207
 20
139.013475
 30
0.0
 11
44.462207
 21
157.013475
 31
0.0
  0
LINE
  5
9752
330
9704
100
AcDbEntity
  8
1
  6
Continuous
100
AcDbLine
 10
43.46220699999999
 20
138.013475
 30
0.0
 11
38.46220699999999
 21
138.013475
 31
0.0
  0
LINE
  5
9753
330
9704
100
AcDbEntity
  8
1
  6
Continuous
100
AcDbLine
 10
43.46220699999999
 20
158.013475
 30
0.0
 11
38.46220699999999
 21
158.013475
 31
0.0
  0
LINE
  5
9754
330
9704
100
AcDbEntity
  8
4
  6
CENTER
100
AcDbLine
 10
363.781787
 20
155.513475
 30
0.0
 11
369.33034
 21
155.513475
 31
0.0
  0
LINE
  5
9755
330
9704
100
AcDbEntity
  8
4
  6
CENTER
100
AcDbLine
 10
381.4012629999999
 20
140.513475
 30
0.0
 11
386.9817689999999
 21
140.513475
 31
0.0
  0
LINE
  5
9756
330
9704
100
AcDbEntity
  8
4
  6
CENTER
100
AcDbLine
 10
377.281787
 20
169.513475
 30
0.0
 11
377.281787
 21
164.245836
 31
0.0
  0
LINE
  5
9757
330
9704
100
AcDbEntity
  8
1
  6
Continuous
100
AcDbLine
 10
369.9817689999999
 20
143.013475
 30
0.0
 11
369.9817689999999
 21
138.013475
 31
0.0
  0
LINE
  5
9758
330
9704
100
AcDbEntity
  8
1
  6
Continuous
100
AcDbLine
 10
369.9817689999999
 20
143.013475
 30
0.0
 11
372.9817689999999
 21
143.013475
 31
0.0
  0
LINE
  5
9759
330
9704
100
AcDbEntity
  8
1
  6
Continuous
100
AcDbLine
 10
369.9817689999999
 20
138.013475
 30
0.0
 11
372.9817689999999
 21
138.013475
 31
0.0
  0
LINE
  5
975A
330
9704
100
AcDbEntity
  8
4
  6
CENTER
100
AcDbLine
 10
374.281787
 20
135.013475
 30
0.0
 11
380.281787
 21
135.013475
 31
0.0
  0
LINE
  5
975B
330
9704
100
AcDbEntity
  8
4
  6
CENTER
100
AcDbLine
 10
377.281787
 20
132.013475
 30
0.0
 11
377.281787
 21
138.013475
 31
0.0
  0
LINE
  5
975C
330
9704
100
AcDbEntity
  8
1
  6
Continuous
100
AcDbLine
 10
372.9817689999999
 20
143.013475
 30
0.0
 11
372.9817689999999
 21
138.013475
 31
0.0
  0
LINE
  5
975D
330
9704
100
AcDbEntity
  8
4
  6
CENTER
100
AcDbLine
 10
363.781787
 20
148.0134749999998
 30
0.0
 11
389.281787
 21
148.0134749999998
 31
0.0
  0
LINE
  5
975E
330
9704
100
AcDbEntity
  8
4
  6
CENTER
100
AcDbLine
 10
377.281787
 20
158.013475
 30
0.0
 11
377.281787
 21
164.013475
 31
0.0
  0
LINE
  5
975F
330
9704
100
AcDbEntity
  8
1
  6
Continuous
100
AcDbLine
 10
367.781787
 20
130.513475
 30
0.0
 11
367.781787
 21
129.513475
 31
0.0
  0
LINE
  5
9760
330
9704
100
AcDbEntity
  8
1
  6
Continuous
100
AcDbLine
 10
366.781787
 20
165.513475
 30
0.0
 11
372.9817689999999
 21
165.513475
 31
0.0
  0
LINE
  5
9761
330
9704
100
AcDbEntity
  8
4
  6
CENTER
100
AcDbLine
 10
374.281787
 20
161.013475
 30
0.0
 11
380.281787
 21
161.013475
 31
0.0
  0
LINE
  5
9762
330
9704
100
AcDbEntity
  8
1
  6
Continuous
100
AcDbLine
 10
366.781787
 20
130.513475
 30
0.0
 11
367.781787
 21
130.513475
 31
0.0
  0
LINE
  5
9763
330
9704
100
AcDbEntity
  8
1
  6
Continuous
100
AcDbLine
 10
382.781787
 20
166.5134749999998
 30
0.0
 11
382.781787
 21
165.513475
 31
0.0
  0
LINE
  5
9764
330
9704
100
AcDbEntity
  8
1
  6
Continuous
100
AcDbLine
 10
367.781787
 20
129.513475
 30
0.0
 11
382.781787
 21
129.513475
 31
0.0
  0
LINE
  5
9765
330
9704
100
AcDbEntity
  8
1
  6
Continuous
100
AcDbLine
 10
383.781787
 20
165.513475
 30
0.0
 11
383.781787
 21
130.513475
 31
0.0
  0
LINE
  5
9766
330
9704
100
AcDbEntity
  8
1
  6
Continuous
100
AcDbLine
 10
382.781787
 20
165.513475
 30
0.0
 11
383.781787
 21
165.513475
 31
0.0
  0
LINE
  5
9767
330
9704
100
AcDbEntity
  8
1
  6
Continuous
100
AcDbLine
 10
382.781787
 20
130.513475
 30
0.0
 11
382.781787
 21
129.513475
 31
0.0
  0
LINE
  5
9768
330
9704
100
AcDbEntity
  8
1
  6
Continuous
100
AcDbLine
 10
382.781787
 20
130.513475
 30
0.0
 11
383.781787
 21
130.513475
 31
0.0
  0
LINE
  5
9769
330
9704
100
AcDbEntity
  8
1
  6
Continuous
100
AcDbLine
 10
383.9817689999999
 20
167.5134749999998
 30
0.0
 11
383.9817689999999
 21
128.313478
 31
0.0
  0
LINE
  5
976A
330
9704
100
AcDbEntity
  8
1
  6
Continuous
100
AcDbLine
 10
384.981769
 20
166.5134749999998
 30
0.0
 11
384.981769
 21
129.313478
 31
0.0
  0
LINE
  5
976B
330
9704
100
AcDbEntity
  8
1
  6
Continuous
100
AcDbLine
 10
372.9817689999999
 20
167.5134749999998
 30
0.0
 11
383.9817689999999
 21
167.5134749999998
 31
0.0
  0
LINE
  5
976C
330
9704
100
AcDbEntity
  8
1
  6
Continuous
100
AcDbLine
 10
366.781787
 20
128.313478
 30
0.0
 11
383.9817689999999
 21
128.313478
 31
0.0
  0
LINE
  5
976D
330
9704
100
AcDbEntity
  8
1
  6
Continuous
100
AcDbLine
 10
365.781787
 20
166.5134749999998
 30
0.0
 11
367.781787
 21
166.5134749999998
 31
0.0
  0
LINE
  5
976E
330
9704
100
AcDbEntity
  8
1
  6
Continuous
100
AcDbLine
 10
366.781787
 20
166.5134749999998
 30
0.0
 11
366.781787
 21
128.313478
 31
0.0
  0
LINE
  5
976F
330
9704
100
AcDbEntity
  8
1
  6
Continuous
100
AcDbLine
 10
365.781787
 20
129.313478
 30
0.0
 11
384.981769
 21
129.313478
 31
0.0
  0
LINE
  5
9770
330
9704
100
AcDbEntity
  8
1
  6
Continuous
100
AcDbLine
 10
14.962207
 20
130.513475
 30
0.0
 11
14.962207
 21
165.513475
 31
0.0
  0
LINE
  5
9771
330
9704
100
AcDbEntity
  8
1
  6
Continuous
100
AcDbLine
 10
18.16220399999998
 20
129.513475
 30
0.0
 11
15.96220699999999
 21
129.513475
 31
0.0
  0
LINE
  5
9772
330
9704
100
AcDbEntity
  8
1
  6
Continuous
100
AcDbLine
 10
29.162204
 20
166.5134749999998
 30
0.0
 11
15.96220699999999
 21
166.5134749999998
 31
0.0
  0
LINE
  5
9773
330
9704
100
AcDbEntity
  8
1
  6
Continuous
100
AcDbLine
 10
18.16220399999998
 20
165.513475
 30
0.0
 11
14.962207
 21
165.513475
 31
0.0
  0
LINE
  5
9774
330
9704
100
AcDbEntity
  8
1
  6
Continuous
100
AcDbLine
 10
18.16220399999998
 20
130.513475
 30
0.0
 11
14.962207
 21
130.513475
 31
0.0
  0
LINE
  5
9775
330
9704
100
AcDbEntity
  8
1
  6
Continuous
100
AcDbLine
 10
150.940677
 20
167.5134749999998
 30
0.0
 11
145.940677
 21
167.5134749999998
 31
0.0
  0
LINE
  5
9776
330
9704
100
AcDbEntity
  8
1
  6
Continuous
100
AcDbLine
 10
135.9406769999999
 20
32.897638
 30
0.0
 11
150.940677
 21
32.897638
 31
0.0
  0
LINE
  5
9777
330
9704
100
AcDbEntity
  8
1
  6
Continuous
100
AcDbLine
 10
134.9406769999999
 20
36.097639
 30
0.0
 11
134.9406769999999
 21
33.897638
 31
0.0
  0
LINE
  5
9778
330
9704
100
AcDbEntity
  8
1
  6
Continuous
100
AcDbLine
 10
151.9406769999999
 20
47.097639
 30
0.0
 11
151.9406769999999
 21
33.897638
 31
0.0
  0
LINE
  5
9779
330
9704
100
AcDbEntity
  8
1
  6
Continuous
100
AcDbLine
 10
135.9406769999999
 20
36.097639
 30
0.0
 11
135.9406769999999
 21
32.897638
 31
0.0
  0
LINE
  5
977A
330
9704
100
AcDbEntity
  8
1
  6
Continuous
100
AcDbLine
 10
150.940677
 20
36.097639
 30
0.0
 11
150.940677
 21
32.897638
 31
0.0
  0
LINE
  5
977B
330
9704
100
AcDbEntity
  8
1
  6
Continuous
100
AcDbLine
 10
134.7406649999998
 20
47.097639
 30
0.0
 11
151.9406769999999
 21
47.097639
 31
0.0
  0
LINE
  5
977C
330
9704
100
AcDbEntity
  8
1
  6
Continuous
100
AcDbLine
 10
133.7406649999998
 20
36.097639
 30
0.0
 11
152.940677
 21
36.097639
 31
0.0
  0
LINE
  5
977D
330
9704
100
AcDbEntity
  8
1
  6
Continuous
100
AcDbLine
 10
133.7406649999998
 20
46.09763899999999
 30
0.0
 11
133.7406649999998
 21
36.097639
 31
0.0
  0
LINE
  5
977E
330
9704
100
AcDbEntity
  8
1
  6
Continuous
100
AcDbLine
 10
152.940677
 20
46.09763899999999
 30
0.0
 11
152.940677
 21
36.097639
 31
0.0
  0
LINE
  5
977F
330
9704
100
AcDbEntity
  8
1
  6
Continuous
100
AcDbLine
 10
134.7406649999998
 20
47.097639
 30
0.0
 11
134.7406649999998
 21
36.097639
 31
0.0
  0
LINE
  5
9780
330
9704
100
AcDbEntity
  8
4
  6
CENTER
100
AcDbLine
 10
147.9406769999999
 20
39.99763599999999
 30
0.0
 11
138.9406769999999
 21
39.99763599999999
 31
0.0
  0
LINE
  5
9781
330
9704
100
AcDbEntity
  8
4
  6
CENTER
100
AcDbLine
 10
143.440677
 20
44.49763599999999
 30
0.0
 11
143.440677
 21
35.497636
 31
0.0
  0
LINE
  5
9782
330
9704
100
AcDbEntity
  8
4
  6
CENTER
100
AcDbLine
 10
141.440677
 20
64.397638
 30
0.0
 11
141.440677
 21
30.697637
 31
0.0
  0
LINE
  5
9783
330
9704
100
AcDbEntity
  8
1
  6
Continuous
100
AcDbLine
 10
138.440677
 20
54.397638
 30
0.0
 11
138.440677
 21
47.097639
 31
0.0
  0
LINE
  5
9784
330
9704
100
AcDbEntity
  8
1
  6
Continuous
100
AcDbLine
 10
144.440677
 20
54.397638
 30
0.0
 11
144.440677
 21
47.097639
 31
0.0
  0
LINE
  5
9785
330
9704
100
AcDbEntity
  8
1
  6
Continuous
100
AcDbLine
 10
131.4406769999999
 20
61.397638
 30
0.0
 11
131.4406769999999
 21
56.397638
 31
0.0
  0
LINE
  5
9786
330
9704
100
AcDbEntity
  8
1
  6
Continuous
100
AcDbLine
 10
151.4406769999999
 20
61.397638
 30
0.0
 11
151.4406769999999
 21
56.397638
 31
0.0
  0
LINE
  5
9787
330
9704
100
AcDbEntity
  8
1
  6
Continuous
100
AcDbLine
 10
150.4406769999999
 20
62.397638
 30
0.0
 11
132.4406769999999
 21
62.397638
 31
0.0
  0
LINE
  5
9788
330
9704
100
AcDbEntity
  8
1
  6
Continuous
100
AcDbLine
 10
151.4406769999999
 20
61.397638
 30
0.0
 11
131.4406769999999
 21
61.397638
 31
0.0
  0
LINE
  5
9789
330
9704
100
AcDbEntity
  8
1
  6
Continuous
100
AcDbLine
 10
149.4406769999999
 20
54.397638
 30
0.0
 11
133.4406769999999
 21
54.397638
 31
0.0
  0
LINE
  5
978A
330
9704
100
AcDbEntity
  8
1
  6
Continuous
100
AcDbLine
 10
132.4406619999998
 20
62.397638
 30
0.0
 11
131.4406619999998
 21
61.397638
 31
0.0
  0
LINE
  5
978B
330
9704
100
AcDbEntity
  8
1
  6
Continuous
100
AcDbLine
 10
150.4406769999999
 20
62.397638
 30
0.0
 11
151.4406769999999
 21
61.397638
 31
0.0
  0
LINE
  5
978C
330
9704
100
AcDbEntity
  8
1
  6
Continuous
100
AcDbLine
 10
151.4406769999999
 20
56.397638
 30
0.0
 11
131.4406769999999
 21
56.397638
 31
0.0
  0
LINE
  5
978D
330
9704
100
AcDbEntity
  8
1
  6
Continuous
100
AcDbLine
 10
131.4406769999999
 20
56.397638
 30
0.0
 11
133.4406769999999
 21
54.397646
 31
0.0
  0
LINE
  5
978E
330
9704
100
AcDbEntity
  8
1
  6
Continuous
100
AcDbLine
 10
151.4406769999999
 20
56.397638
 30
0.0
 11
149.4406769999999
 21
54.39763000000001
 31
0.0
  0
LINE
  5
978F
330
9704
100
AcDbEntity
  8
1
  6
Continuous
100
AcDbLine
 10
139.440677
 20
32.697637
 30
0.0
 11
143.440677
 21
32.697637
 31
0.0
  0
LINE
  5
9790
330
9704
100
AcDbEntity
  8
1
  6
Continuous
100
AcDbLine
 10
139.440677
 20
32.897638
 30
0.0
 11
139.440677
 21
32.697637
 31
0.0
  0
LINE
  5
9791
330
9704
100
AcDbEntity
  8
1
  6
Continuous
100
AcDbLine
 10
143.440677
 20
32.897638
 30
0.0
 11
143.440677
 21
32.697637
 31
0.0
  0
LINE
  5
9792
330
9704
100
AcDbEntity
  8
4
  6
CENTER
100
AcDbLine
 10
145.940677
 20
261.029314
 30
0.0
 11
136.9406769999999
 21
261.029314
 31
0.0
  0
LINE
  5
9793
330
9704
100
AcDbEntity
  8
4
  6
CENTER
100
AcDbLine
 10
141.440677
 20
236.62932
 30
0.0
 11
141.440677
 21
270.3293009999998
 31
0.0
  0
LINE
  5
9794
330
9704
100
AcDbEntity
  8
1
  6
Continuous
100
AcDbLine
 10
145.7406649999998
 20
254.9293079999999
 30
0.0
 11
151.9406769999999
 21
254.9293079999999
 31
0.0
  0
LINE
  5
9795
330
9704
100
AcDbEntity
  8
1
  6
Continuous
100
AcDbLine
 10
134.7406649999998
 20
253.9293079999999
 30
0.0
 11
134.7406649999998
 21
264.929308
 31
0.0
  0
LINE
  5
9796
330
9704
100
AcDbEntity
  8
1
  6
Continuous
100
AcDbLine
 10
152.940677
 20
254.9293079999999
 30
0.0
 11
152.940677
 21
264.929308
 31
0.0
  0
LINE
  5
9797
330
9704
100
AcDbEntity
  8
1
  6
Continuous
100
AcDbLine
 10
143.440677
 20
268.12932
 30
0.0
 11
143.440677
 21
268.3293009999998
 31
0.0
  0
LINE
  5
9798
330
9704
100
AcDbEntity
  8
1
  6
Continuous
100
AcDbLine
 10
139.440677
 20
268.12932
 30
0.0
 11
139.440677
 21
268.3293009999998
 31
0.0
  0
LINE
  5
9799
330
9704
100
AcDbEntity
  8
1
  6
Continuous
100
AcDbLine
 10
151.4406769999999
 20
244.6293199999999
 30
0.0
 11
149.4406769999999
 21
246.6293199999999
 31
0.0
  0
LINE
  5
979A
330
9704
100
AcDbEntity
  8
1
  6
Continuous
100
AcDbLine
 10
131.4406769999999
 20
244.6293199999999
 30
0.0
 11
133.4406769999999
 21
246.6293199999999
 31
0.0
  0
LINE
  5
979B
330
9704
100
AcDbEntity
  8
1
  6
Continuous
100
AcDbLine
 10
151.4406769999999
 20
244.6293199999999
 30
0.0
 11
131.4406769999999
 21
244.6293199999999
 31
0.0
  0
LINE
  5
979C
330
9704
100
AcDbEntity
  8
1
  6
Continuous
100
AcDbLine
 10
150.440662
 20
238.62932
 30
0.0
 11
151.440662
 21
239.62932
 31
0.0
  0
LINE
  5
979D
330
9704
100
AcDbEntity
  8
1
  6
Continuous
100
AcDbLine
 10
132.4406769999999
 20
238.62932
 30
0.0
 11
131.4406769999999
 21
239.62932
 31
0.0
  0
LINE
  5
979E
330
9704
100
AcDbEntity
  8
1
  6
Continuous
100
AcDbLine
 10
149.4406769999999
 20
246.6293199999999
 30
0.0
 11
133.4406769999999
 21
246.6293199999999
 31
0.0
  0
LINE
  5
979F
330
9704
100
AcDbEntity
  8
1
  6
Continuous
100
AcDbLine
 10
151.4406769999999
 20
239.62932
 30
0.0
 11
131.4406769999999
 21
239.62932
 31
0.0
  0
LINE
  5
97A0
330
9704
100
AcDbEntity
  8
1
  6
Continuous
100
AcDbLine
 10
150.4406769999999
 20
238.62932
 30
0.0
 11
132.4406769999999
 21
238.62932
 31
0.0
  0
LINE
  5
97A1
330
9704
100
AcDbEntity
  8
1
  6
Continuous
100
AcDbLine
 10
151.4406769999999
 20
239.62932
 30
0.0
 11
151.4406769999999
 21
244.6293199999999
 31
0.0
  0
LINE
  5
97A2
330
9704
100
AcDbEntity
  8
1
  6
Continuous
100
AcDbLine
 10
131.4406769999999
 20
239.62932
 30
0.0
 11
131.4406769999999
 21
244.6293199999999
 31
0.0
  0
LINE
  5
97A3
330
9704
100
AcDbEntity
  8
1
  6
Continuous
100
AcDbLine
 10
139.440677
 20
268.3293009999998
 30
0.0
 11
143.440677
 21
268.3293009999998
 31
0.0
  0
LINE
  5
97A4
330
9704
100
AcDbEntity
  8
1
  6
Continuous
100
AcDbLine
 10
138.440677
 20
246.6293199999999
 30
0.0
 11
138.440677
 21
253.9293079999999
 31
0.0
  0
LINE
  5
97A5
330
9704
100
AcDbEntity
  8
1
  6
Continuous
100
AcDbLine
 10
144.440677
 20
246.6293199999999
 30
0.0
 11
144.440677
 21
253.9293079999999
 31
0.0
  0
LINE
  5
97A6
330
9704
100
AcDbEntity
  8
1
  6
Continuous
100
AcDbLine
 10
135.9406769999999
 20
264.929308
 30
0.0
 11
135.9406769999999
 21
268.12932
 31
0.0
  0
LINE
  5
97A7
330
9704
100
AcDbEntity
  8
1
  6
Continuous
100
AcDbLine
 10
150.940677
 20
254.9293079999999
 30
0.0
 11
150.940677
 21
268.12932
 31
0.0
  0
LINE
  5
97A8
330
9704
100
AcDbEntity
  8
1
  6
Continuous
100
AcDbLine
 10
151.9406769999999
 20
254.9293079999999
 30
0.0
 11
151.9406769999999
 21
267.12932
 31
0.0
  0
LINE
  5
97A9
330
9704
100
AcDbEntity
  8
1
  6
Continuous
100
AcDbLine
 10
134.9406769999999
 20
264.929308
 30
0.0
 11
134.9406769999999
 21
267.12932
 31
0.0
  0
LINE
  5
97AA
330
9704
100
AcDbEntity
  8
1
  6
Continuous
100
AcDbLine
 10
135.9406769999999
 20
268.12932
 30
0.0
 11
150.940677
 21
268.12932
 31
0.0
  0
LINE
  5
97AB
330
9704
100
AcDbEntity
  8
1
  6
Continuous
100
AcDbLine
 10
134.7406649999998
 20
253.9293079999999
 30
0.0
 11
151.9406769999999
 21
253.9293079999999
 31
0.0
  0
LINE
  5
97AC
330
9704
100
AcDbEntity
  8
1
  6
Continuous
100
AcDbLine
 10
133.7406649999998
 20
264.929308
 30
0.0
 11
145.7406649999998
 21
264.929308
 31
0.0
  0
LINE
  5
97AD
330
9704
100
AcDbEntity
  8
1
  6
Continuous
100
AcDbLine
 10
133.7406649999998
 20
254.9293079999999
 30
0.0
 11
133.7406649999998
 21
264.929308
 31
0.0
  0
LINE
  5
97AE
330
9704
100
AcDbEntity
  8
1
  6
Continuous
100
AcDbLine
 10
145.7406649999998
 20
253.9293079999999
 30
0.0
 11
145.7406649999998
 21
268.12932
 31
0.0
  0
LINE
  5
97AF
330
9704
100
AcDbEntity
  8
1
  6
Continuous
100
AcDbLine
 10
151.9406769999999
 20
264.929308
 30
0.0
 11
152.940677
 21
264.929308
 31
0.0
  0
LINE
  5
97B0
330
9704
100
AcDbEntity
  8
1
  6
Continuous
100
AcDbLine
 10
145.7406649999998
 20
267.12932
 30
0.0
 11
150.940677
 21
267.12932
 31
0.0
  0
LINE
  5
97B1
330
9704
100
AcDbEntity
  8
1
  6
Continuous
100
AcDbLine
 10
150.940677
 20
256.929308
 30
0.0
 11
145.940677
 21
256.929308
 31
0.0
  0
LINE
  5
97B2
330
9704
100
AcDbEntity
  8
1
  6
Continuous
100
AcDbLine
 10
145.940677
 20
254.9293079999999
 30
0.0
 11
145.940677
 21
266.929308
 31
0.0
  0
LINE
  5
97B3
330
9704
100
AcDbEntity
  8
1
  6
Continuous
100
AcDbLine
 10
150.940677
 20
266.929308
 30
0.0
 11
145.940677
 21
266.929308
 31
0.0
  0
LINE
  5
97B4
330
9704
100
AcDbEntity
  8
4
  6
CENTER
100
AcDbLine
 10
144.9406769999999
 20
243.12932
 30
0.0
 11
137.9406769999999
 21
243.12932
 31
0.0
  0
LINE
  5
97B5
330
9704
100
AcDbEntity
  8
1
  6
Continuous
100
AcDbLine
 10
133.7406649999998
 20
141.6330429999999
 30
0.0
 11
133.7406649999998
 21
129.313478
 31
0.0
  0
LINE
  5
97B6
330
9704
100
AcDbEntity
  8
4
  6
CENTER
100
AcDbLine
 10
154.940677
 20
155.513475
 30
0.0
 11
150.940677
 21
155.513475
 31
0.0
  0
LINE
  5
97B7
330
9704
100
AcDbEntity
  8
4
  6
CENTER
100
AcDbLine
 10
135.7406649999997
 20
140.513475
 30
0.0
 11
131.7406649999998
 21
140.513475
 31
0.0
  0
LINE
  5
97B8
330
9704
100
AcDbEntity
  8
4
  6
CENTER
100
AcDbLine
 10
141.440677
 20
169.513475
 30
0.0
 11
141.440677
 21
165.513475
 31
0.0
  0
LINE
  5
97B9
330
9704
100
AcDbEntity
  8
4
  6
CENTER
100
AcDbLine
 10
143.440677
 20
130.313478
 30
0.0
 11
143.440677
 21
126.313478
 31
0.0
  0
LINE
  5
97BA
330
9704
100
AcDbEntity
  8
4
  6
CENTER
100
AcDbLine
 10
31.162204
 20
161.013475
 30
0.0
 11
27.162204
 21
161.013475
 31
0.0
  0
LINE
  5
97BB
330
9704
100
AcDbEntity
  8
4
  6
CENTER
100
AcDbLine
 10
31.162204
 20
135.013475
 30
0.0
 11
27.162204
 21
135.013475
 31
0.0
  0
LINE
  5
97BC
330
9704
100
AcDbEntity
  8
4
  6
CENTER
100
AcDbLine
 10
16.962207
 20
161.013475
 30
0.0
 11
12.962207
 21
161.013475
 31
0.0
  0
LINE
  5
97BD
330
9704
100
AcDbEntity
  8
4
  6
CENTER
100
AcDbLine
 10
16.962207
 20
135.013475
 30
0.0
 11
12.962207
 21
135.013475
 31
0.0
  0
LINE
  5
97BE
330
9704
100
AcDbEntity
  8
4
  6
CENTER
100
AcDbLine
 10
22.062205
 20
130.313478
 30
0.0
 11
22.062205
 21
126.313478
 31
0.0
  0
LINE
  5
97BF
330
9704
100
AcDbEntity
  8
4
  6
CENTER
100
AcDbLine
 10
22.062205
 20
169.513475
 30
0.0
 11
22.062205
 21
165.513475
 31
0.0
  0
LINE
  5
97C0
330
9704
100
AcDbEntity
  8
4
  6
CENTER
100
AcDbLine
 10
131.7406649999998
 20
39.99763599999999
 30
0.0
 11
135.7406649999997
 21
39.99763599999999
 31
0.0
  0
LINE
  5
97C1
330
9704
100
AcDbEntity
  8
4
  6
CENTER
100
AcDbLine
 10
150.940677
 20
39.99763599999999
 30
0.0
 11
154.940677
 21
39.99763599999999
 31
0.0
  0
LINE
  5
97C2
330
9704
100
AcDbEntity
  8
1
  6
Continuous
100
AcDbLine
 10
365.781787
 20
166.5134749999998
 30
0.0
 11
365.781787
 21
129.313478
 31
0.0
  0
LINE
  5
97C3
330
9704
100
AcDbEntity
  8
1
  6
Continuous
100
AcDbLine
 10
367.781787
 20
179.513475
 30
0.0
 11
367.781787
 21
165.513475
 31
0.0
  0
LINE
  5
97C4
330
9704
100
AcDbEntity
  8
1
  6
Continuous
100
AcDbLine
 10
367.781787
 20
179.513475
 30
0.0
 11
372.7817869999999
 21
179.513475
 31
0.0
  0
LINE
  5
97C5
330
9704
100
AcDbEntity
  8
1
  6
Continuous
100
AcDbLine
 10
372.7817869999999
 20
179.513475
 30
0.0
 11
372.7817869999999
 21
165.513475
 31
0.0
  0
LINE
  5
97C6
330
9704
100
AcDbEntity
  8
1
  6
Continuous
100
AcDbLine
 10
372.7817869999999
 20
166.5134749999998
 30
0.0
 11
384.981769
 21
166.5134749999998
 31
0.0
  0
LINE
  5
97C7
330
9704
100
AcDbEntity
  8
1
  6
Continuous
100
AcDbLine
 10
372.7817869999999
 20
173.513475
 30
0.0
 11
367.781787
 21
173.513475
 31
0.0
  0
LINE
  5
97C8
330
9704
100
AcDbEntity
  8
1
  6
Continuous
100
AcDbLine
 10
372.9817689999999
 20
167.5134749999998
 30
0.0
 11
372.9817689999999
 21
165.513475
 31
0.0
  0
LINE
  5
97C9
330
9704
100
AcDbEntity
  8
1
  6
Continuous
100
AcDbLine
 10
140.9766419999999
 20
261.4933329999999
 30
0.0
 11
140.462848
 21
261.264574
 31
0.0
  0
LINE
  5
97CA
330
9704
100
AcDbEntity
  8
1
  6
Continuous
100
AcDbLine
 10
140.462848
 20
261.264574
 30
0.0
 11
140.1611659999998
 21
261.259294
 31
0.0
  0
LINE
  5
97CB
330
9704
100
AcDbEntity
  8
1
  6
Continuous
100
AcDbLine
 10
140.9766419999999
 20
260.565294
 30
0.0
 11
140.462848
 21
260.794054
 31
0.0
  0
LINE
  5
97CC
330
9704
100
AcDbEntity
  8
1
  6
Continuous
100
AcDbLine
 10
140.462848
 20
260.794054
 30
0.0
 11
140.161182
 21
260.7993029999998
 31
0.0
  0
LINE
  5
97CD
330
9704
100
AcDbEntity
  8
1
  6
Continuous
100
AcDbLine
 10
141.675937
 20
260.0514999999999
 30
0.0
 11
141.670673
 21
259.749803
 31
0.0
  0
LINE
  5
97CE
330
9704
100
AcDbEntity
  8
1
  6
Continuous
100
AcDbLine
 10
141.9046969999999
 20
260.565294
 30
0.0
 11
141.675937
 21
260.0514999999999
 31
0.0
  0
LINE
  5
97CF
330
9704
100
AcDbEntity
  8
1
  6
Continuous
100
AcDbLine
 10
141.205386
 20
260.0514999999999
 30
0.0
 11
141.210651
 21
259.749803
 31
0.0
  0
LINE
  5
97D0
330
9704
100
AcDbEntity
  8
1
  6
Continuous
100
AcDbLine
 10
140.976672
 20
260.565294
 30
0.0
 11
141.2054169999999
 21
260.0514999999999
 31
0.0
  0
LINE
  5
97D1
330
9704
100
AcDbEntity
  8
1
  6
Continuous
100
AcDbLine
 10
142.41849
 20
261.264574
 30
0.0
 11
142.720157
 21
261.259294
 31
0.0
  0
LINE
  5
97D2
330
9704
100
AcDbEntity
  8
1
  6
Continuous
100
AcDbLine
 10
141.9046969999999
 20
261.4933329999999
 30
0.0
 11
142.418475
 21
261.264574
 31
0.0
  0
LINE
  5
97D3
330
9704
100
AcDbEntity
  8
1
  6
Continuous
100
AcDbLine
 10
142.418475
 20
260.794023
 30
0.0
 11
142.720157
 21
260.7993029999998
 31
0.0
  0
LINE
  5
97D4
330
9704
100
AcDbEntity
  8
1
  6
Continuous
100
AcDbLine
 10
141.9047119999999
 20
260.565294
 30
0.0
 11
142.41849
 21
260.794054
 31
0.0
  0
LINE
  5
97D5
330
9704
100
AcDbEntity
  8
1
  6
Continuous
100
AcDbLine
 10
141.205402
 20
262.0070969999999
 30
0.0
 11
141.210666
 21
262.308794
 31
0.0
  0
LINE
  5
97D6
330
9704
100
AcDbEntity
  8
1
  6
Continuous
100
AcDbLine
 10
140.9766419999999
 20
261.4933329999999
 30
0.0
 11
141.2054169999999
 21
262.007127
 31
0.0
  0
LINE
  5
97D7
330
9704
100
AcDbEntity
  8
1
  6
Continuous
100
AcDbLine
 10
141.6759219999998
 20
262.0070969999999
 30
0.0
 11
141.670657
 21
262.308794
 31
0.0
  0
LINE
  5
97D8
330
9704
100
AcDbEntity
  8
1
  6
Continuous
100
AcDbLine
 10
141.904681
 20
261.4933329999999
 30
0.0
 11
141.6759219999998
 21
262.007127
 31
0.0
  0
LINE
  5
97D9
330
9704
100
AcDbEntity
  8
1
  6
Continuous
100
AcDbLine
 10
21.598178
 20
140.04944
 30
0.0
 11
21.82692999999999
 21
139.535661
 31
0.0
  0
LINE
  5
97DA
330
9704
100
AcDbEntity
  8
1
  6
Continuous
100
AcDbLine
 10
21.82694499999999
 20
139.535661
 30
0.0
 11
21.832217
 21
139.23398
 31
0.0
  0
LINE
  5
97DB
330
9704
100
AcDbEntity
  8
1
  6
Continuous
100
AcDbLine
 10
22.52623299999999
 20
140.0494549999999
 30
0.0
 11
22.297473
 21
139.5356459999999
 31
0.0
  0
LINE
  5
97DC
330
9704
100
AcDbEntity
  8
1
  6
Continuous
100
AcDbLine
 10
22.297473
 20
139.535661
 30
0.0
 11
22.292209
 21
139.233995
 31
0.0
  0
LINE
  5
97DD
330
9704
100
AcDbEntity
  8
1
  6
Continuous
100
AcDbLine
 10
23.04002699999999
 20
140.74875
 30
0.0
 11
23.34170799999998
 21
140.7434709999998
 31
0.0
  0
LINE
  5
97DE
330
9704
100
AcDbEntity
  8
1
  6
Continuous
100
AcDbLine
 10
22.52623299999999
 20
140.977495
 30
0.0
 11
23.040011
 21
140.748735
 31
0.0
  0
LINE
  5
97DF
330
9704
100
AcDbEntity
  8
1
  6
Continuous
100
AcDbLine
 10
23.040019
 20
140.2782
 30
0.0
 11
23.341701
 21
140.2834639999998
 31
0.0
  0
LINE
  5
97E0
330
9704
100
AcDbEntity
  8
1
  6
Continuous
100
AcDbLine
 10
22.52623299999999
 20
140.0494549999999
 30
0.0
 11
23.040011
 21
140.2782149999999
 31
0.0
  0
LINE
  5
97E1
330
9704
100
AcDbEntity
  8
1
  6
Continuous
100
AcDbLine
 10
21.826938
 20
141.4912889999999
 30
0.0
 11
21.832202
 21
141.792955
 31
0.0
  0
LINE
  5
97E2
330
9704
100
AcDbEntity
  8
1
  6
Continuous
100
AcDbLine
 10
21.59818599999999
 20
140.977495
 30
0.0
 11
21.826938
 21
141.491273
 31
0.0
  0
LINE
  5
97E3
330
9704
100
AcDbEntity
  8
1
  6
Continuous
100
AcDbLine
 10
22.297481
 20
141.4912889999999
 30
0.0
 11
22.292216
 21
141.79297
 31
0.0
  0
LINE
  5
97E4
330
9704
100
AcDbEntity
  8
1
  6
Continuous
100
AcDbLine
 10
22.526218
 20
140.977495
 30
0.0
 11
22.297465
 21
141.491273
 31
0.0
  0
LINE
  5
97E5
330
9704
100
AcDbEntity
  8
1
  6
Continuous
100
AcDbLine
 10
21.084399
 20
140.2782149999999
 30
0.0
 11
20.782718
 21
140.2834789999998
 31
0.0
  0
LINE
  5
97E6
330
9704
100
AcDbEntity
  8
1
  6
Continuous
100
AcDbLine
 10
21.59818599999999
 20
140.0494549999999
 30
0.0
 11
21.084392
 21
140.2782
 31
0.0
  0
LINE
  5
97E7
330
9704
100
AcDbEntity
  8
1
  6
Continuous
100
AcDbLine
 10
21.084399
 20
140.748735
 30
0.0
 11
20.782718
 21
140.7434709999998
 31
0.0
  0
LINE
  5
97E8
330
9704
100
AcDbEntity
  8
1
  6
Continuous
100
AcDbLine
 10
21.598193
 20
140.977495
 30
0.0
 11
21.084392
 21
140.748735
 31
0.0
  0
LINE
  5
97E9
330
9704
100
AcDbEntity
  8
1
  6
Continuous
100
AcDbLine
 10
143.9047119999999
 20
39.533617
 30
0.0
 11
144.4184899999999
 21
39.76236899999999
 31
0.0
  0
LINE
  5
97EA
330
9704
100
AcDbEntity
  8
1
  6
Continuous
100
AcDbLine
 10
144.4184749999998
 20
39.76237600000001
 30
0.0
 11
144.720157
 21
39.767641
 31
0.0
  0
LINE
  5
97EB
330
9704
100
AcDbEntity
  8
1
  6
Continuous
100
AcDbLine
 10
143.9046969999999
 20
40.46165999999997
 30
0.0
 11
144.4184899999999
 21
40.232908
 31
0.0
  0
LINE
  5
97EC
330
9704
100
AcDbEntity
  8
1
  6
Continuous
100
AcDbLine
 10
144.4184899999999
 20
40.23290399999999
 30
0.0
 11
144.720157
 21
40.22764
 31
0.0
  0
LINE
  5
97ED
330
9704
100
AcDbEntity
  8
1
  6
Continuous
100
AcDbLine
 10
143.2054019999999
 20
40.975458
 30
0.0
 11
143.210666
 21
41.27713899999998
 31
0.0
  0
LINE
  5
97EE
330
9704
100
AcDbEntity
  8
1
  6
Continuous
100
AcDbLine
 10
142.9766419999999
 20
40.46166399999999
 30
0.0
 11
143.2054019999999
 21
40.97545
 31
0.0
  0
LINE
  5
97EF
330
9704
100
AcDbEntity
  8
1
  6
Continuous
100
AcDbLine
 10
143.675937
 20
40.97544599999999
 30
0.0
 11
143.670673
 21
41.277128
 31
0.0
  0
LINE
  5
97F0
330
9704
100
AcDbEntity
  8
1
  6
Continuous
100
AcDbLine
 10
143.9046969999999
 20
40.46165999999997
 30
0.0
 11
143.675937
 21
40.975454
 31
0.0
  0
LINE
  5
97F1
330
9704
100
AcDbEntity
  8
1
  6
Continuous
100
AcDbLine
 10
142.462848
 20
39.76236899999999
 30
0.0
 11
142.161182
 21
39.767637
 31
0.0
  0
LINE
  5
97F2
330
9704
100
AcDbEntity
  8
1
  6
Continuous
100
AcDbLine
 10
142.9766419999999
 20
39.53362
 30
0.0
 11
142.4628629999999
 21
39.76237299999999
 31
0.0
  0
LINE
  5
97F3
330
9704
100
AcDbEntity
  8
1
  6
Continuous
100
AcDbLine
 10
142.4628629999999
 20
40.232908
 30
0.0
 11
142.161182
 21
40.22764399999998
 31
0.0
  0
LINE
  5
97F4
330
9704
100
AcDbEntity
  8
1
  6
Continuous
100
AcDbLine
 10
142.9766569999999
 20
40.461656
 30
0.0
 11
142.4628629999999
 21
40.23290399999999
 31
0.0
  0
LINE
  5
97F5
330
9704
100
AcDbEntity
  8
1
  6
Continuous
100
AcDbLine
 10
143.675937
 20
39.01983400000001
 30
0.0
 11
143.670673
 21
38.718153
 31
0.0
  0
LINE
  5
97F6
330
9704
100
AcDbEntity
  8
1
  6
Continuous
100
AcDbLine
 10
143.9046969999999
 20
39.53362399999999
 30
0.0
 11
143.675937
 21
39.01982299999998
 31
0.0
  0
LINE
  5
97F7
330
9704
100
AcDbEntity
  8
1
  6
Continuous
100
AcDbLine
 10
143.2054019999999
 20
39.01982299999998
 30
0.0
 11
143.210681
 21
38.71814099999999
 31
0.0
  0
LINE
  5
97F8
330
9704
100
AcDbEntity
  8
1
  6
Continuous
100
AcDbLine
 10
142.9766569999999
 20
39.53362399999999
 30
0.0
 11
143.2054169999998
 21
39.01983400000001
 31
0.0
  0
LINE
  5
97F9
330
9704
100
AcDbEntity
  8
4
  6
CENTER
100
AcDbLine
 10
377.281787
 20
153.0634779999998
 30
0.0
 11
377.281787
 21
142.9634719999999
 31
0.0
  0
LINE
  5
97FA
330
9704
100
AcDbEntity
  8
1
  6
Continuous
100
AcDbLine
 10
242.419147
 20
158.013475
 30
0.0
 11
247.419147
 21
158.013475
 31
0.0
  0
LINE
  5
97FB
330
9704
100
AcDbEntity
  8
1
  6
Continuous
100
AcDbLine
 10
242.419147
 20
138.013475
 30
0.0
 11
247.419147
 21
138.013475
 31
0.0
  0
LINE
  5
97FC
330
9704
100
AcDbEntity
  8
1
  6
Continuous
100
AcDbLine
 10
241.419147
 20
139.013475
 30
0.0
 11
241.419147
 21
157.013475
 31
0.0
  0
LINE
  5
97FD
330
9704
100
AcDbEntity
  8
1
  6
Continuous
100
AcDbLine
 10
242.419147
 20
138.013475
 30
0.0
 11
242.419147
 21
158.013475
 31
0.0
  0
LINE
  5
97FE
330
9704
100
AcDbEntity
  8
1
  6
Continuous
100
AcDbLine
 10
249.419147
 20
140.013475
 30
0.0
 11
249.419147
 21
156.013475
 31
0.0
  0
LINE
  5
97FF
330
9704
100
AcDbEntity
  8
1
  6
Continuous
100
AcDbLine
 10
241.419147
 20
157.013475
 30
0.0
 11
242.419147
 21
158.013475
 31
0.0
  0
LINE
  5
9800
330
9704
100
AcDbEntity
  8
1
  6
Continuous
100
AcDbLine
 10
241.419147
 20
139.013475
 30
0.0
 11
242.419147
 21
138.013475
 31
0.0
  0
LINE
  5
9801
330
9704
100
AcDbEntity
  8
1
  6
Continuous
100
AcDbLine
 10
247.419147
 20
138.013475
 30
0.0
 11
247.419147
 21
158.013475
 31
0.0
  0
LINE
  5
9802
330
9704
100
AcDbEntity
  8
1
  6
Continuous
100
AcDbLine
 10
247.419147
 20
158.013475
 30
0.0
 11
249.419147
 21
156.013475
 31
0.0
  0
LINE
  5
9803
330
9704
100
AcDbEntity
  8
1
  6
Continuous
100
AcDbLine
 10
247.419116
 20
138.013475
 30
0.0
 11
249.419116
 21
140.013475
 31
0.0
  0
LINE
  5
9804
330
9704
100
AcDbEntity
  8
1
  6
Continuous
100
AcDbLine
 10
260.7191339999999
 20
179.5134899999999
 30
0.0
 11
269.7191339999998
 21
173.51349
 31
0.0
  0
LINE
  5
9805
330
9704
100
AcDbEntity
  8
1
  6
Continuous
100
AcDbLine
 10
269.7191339999998
 20
173.513475
 30
0.0
 11
269.7191339999998
 21
165.513475
 31
0.0
  0
LINE
  5
9806
330
9704
100
AcDbEntity
  8
1
  6
Continuous
100
AcDbLine
 10
259.719134
 20
179.513475
 30
0.0
 11
260.7191339999999
 21
179.513475
 31
0.0
  0
LINE
  5
9807
330
9704
100
AcDbEntity
  8
1
  6
Continuous
100
AcDbLine
 10
259.719134
 20
179.513475
 30
0.0
 11
259.719134
 21
167.5134749999998
 31
0.0
  0
LINE
  5
9808
330
9704
100
AcDbEntity
  8
1
  6
Continuous
100
AcDbLine
 10
249.419147
 20
151.0134749999998
 30
0.0
 11
256.7191339999999
 21
151.0134749999998
 31
0.0
  0
LINE
  5
9809
330
9704
100
AcDbEntity
  8
1
  6
Continuous
100
AcDbLine
 10
249.419147
 20
145.0134749999998
 30
0.0
 11
256.7191339999999
 21
145.0134749999998
 31
0.0
  0
LINE
  5
980A
330
9704
100
AcDbEntity
  8
4
  6
CENTER
100
AcDbLine
 10
239.4191469999999
 20
148.0134749999998
 30
0.0
 11
273.1191279999998
 21
148.0134749999998
 31
0.0
  0
LINE
  5
980B
330
9704
100
AcDbEntity
  8
1
  6
Continuous
100
AcDbLine
 10
271.1191279999998
 20
150.0134749999998
 30
0.0
 11
271.1191279999998
 21
146.0134749999998
 31
0.0
  0
LINE
  5
980C
330
9704
100
AcDbEntity
  8
1
  6
Continuous
100
AcDbLine
 10
270.9191469999999
 20
146.0134749999998
 30
0.0
 11
271.1191279999998
 21
146.0134749999998
 31
0.0
  0
LINE
  5
980D
330
9704
100
AcDbEntity
  8
4
  6
CENTER
100
AcDbLine
 10
259.319141
 20
155.513475
 30
0.0
 11
268.319141
 21
155.513475
 31
0.0
  0
LINE
  5
980E
330
9704
100
AcDbEntity
  8
4
  6
CENTER
100
AcDbLine
 10
263.819141
 20
160.013475
 30
0.0
 11
263.819141
 21
151.0134749999998
 31
0.0
  0
LINE
  5
980F
330
9704
100
AcDbEntity
  8
1
  6
Continuous
100
AcDbLine
 10
256.7191339999999
 20
129.313478
 30
0.0
 11
267.7191339999998
 21
129.313478
 31
0.0
  0
LINE
  5
9810
330
9704
100
AcDbEntity
  8
1
  6
Continuous
100
AcDbLine
 10
270.9191469999999
 20
150.0134749999998
 30
0.0
 11
271.1191279999998
 21
150.0134749999998
 31
0.0
  0
LINE
  5
9811
330
9704
100
AcDbEntity
  8
1
  6
Continuous
100
AcDbLine
 10
267.7191339999998
 20
166.5134749999998
 30
0.0
 11
267.7191339999998
 21
128.313478
 31
0.0
  0
LINE
  5
9812
330
9704
100
AcDbEntity
  8
1
  6
Continuous
100
AcDbLine
 10
256.7191339999999
 20
166.5134749999998
 30
0.0
 11
256.7191339999999
 21
129.313478
 31
0.0
  0
LINE
  5
9813
330
9704
100
AcDbEntity
  8
1
  6
Continuous
100
AcDbLine
 10
257.719134
 20
167.5134749999998
 30
0.0
 11
259.719134
 21
167.5134749999998
 31
0.0
  0
LINE
  5
9814
330
9704
100
AcDbEntity
  8
1
  6
Continuous
100
AcDbLine
 10
257.719134
 20
128.313478
 30
0.0
 11
267.7191339999998
 21
128.313478
 31
0.0
  0
LINE
  5
9815
330
9704
100
AcDbEntity
  8
1
  6
Continuous
100
AcDbLine
 10
270.9191469999999
 20
130.513475
 30
0.0
 11
270.9191469999999
 21
165.513475
 31
0.0
  0
LINE
  5
9816
330
9704
100
AcDbEntity
  8
1
  6
Continuous
100
AcDbLine
 10
267.7191339999998
 20
129.513475
 30
0.0
 11
269.919147
 21
129.513475
 31
0.0
  0
LINE
  5
9817
330
9704
100
AcDbEntity
  8
1
  6
Continuous
100
AcDbLine
 10
256.7191339999999
 20
166.5134749999998
 30
0.0
 11
267.7191339999998
 21
166.5134749999998
 31
0.0
  0
LINE
  5
9818
330
9704
100
AcDbEntity
  8
1
  6
Continuous
100
AcDbLine
 10
267.7191339999998
 20
130.513475
 30
0.0
 11
270.9191469999999
 21
130.513475
 31
0.0
  0
LINE
  5
9819
330
9704
100
AcDbEntity
  8
1
  6
Continuous
100
AcDbLine
 10
267.7191339999998
 20
165.513475
 30
0.0
 11
270.9191469999999
 21
165.513475
 31
0.0
  0
LINE
  5
981A
330
9704
100
AcDbEntity
  8
4
  6
CENTER
100
AcDbLine
 10
254.7191339999999
 20
161.013475
 30
0.0
 11
258.7191339999999
 21
161.013475
 31
0.0
  0
LINE
  5
981B
330
9704
100
AcDbEntity
  8
4
  6
CENTER
100
AcDbLine
 10
254.7191339999999
 20
135.013475
 30
0.0
 11
258.7191339999999
 21
135.013475
 31
0.0
  0
LINE
  5
981C
330
9704
100
AcDbEntity
  8
4
  6
CENTER
100
AcDbLine
 10
268.919147
 20
161.013475
 30
0.0
 11
272.9191469999999
 21
161.013475
 31
0.0
  0
LINE
  5
981D
330
9704
100
AcDbEntity
  8
4
  6
CENTER
100
AcDbLine
 10
268.919147
 20
135.013475
 30
0.0
 11
272.9191469999999
 21
135.013475
 31
0.0
  0
LINE
  5
981E
330
9704
100
AcDbEntity
  8
4
  6
CENTER
100
AcDbLine
 10
263.819141
 20
130.313478
 30
0.0
 11
263.819141
 21
126.313478
 31
0.0
  0
LINE
  5
981F
330
9704
100
AcDbEntity
  8
4
  6
CENTER
100
AcDbLine
 10
263.819141
 20
169.513475
 30
0.0
 11
263.819141
 21
165.513475
 31
0.0
  0
LINE
  5
9820
330
9704
100
AcDbEntity
  8
1
  6
Continuous
100
AcDbLine
 10
264.28316
 20
155.04944
 30
0.0
 11
264.0544009999999
 21
154.5356609999998
 31
0.0
  0
LINE
  5
9821
330
9704
100
AcDbEntity
  8
1
  6
Continuous
100
AcDbLine
 10
264.05437
 20
154.5356609999998
 30
0.0
 11
264.0491209999999
 21
154.23398
 31
0.0
  0
LINE
  5
9822
330
9704
100
AcDbEntity
  8
1
  6
Continuous
100
AcDbLine
 10
263.3551209999998
 20
155.0494549999999
 30
0.0
 11
263.583881
 21
154.5356609999998
 31
0.0
  0
LINE
  5
9823
330
9704
100
AcDbEntity
  8
1
  6
Continuous
100
AcDbLine
 10
263.5838499999999
 20
154.5356459999998
 30
0.0
 11
263.5891299999999
 21
154.23398
 31
0.0
  0
LINE
  5
9824
330
9704
100
AcDbEntity
  8
1
  6
Continuous
100
AcDbLine
 10
262.8413269999999
 20
155.748735
 30
0.0
 11
262.5396609999999
 21
155.743471
 31
0.0
  0
LINE
  5
9825
330
9704
100
AcDbEntity
  8
1
  6
Continuous
100
AcDbLine
 10
263.3551209999998
 20
155.9774949999998
 30
0.0
 11
262.8413269999999
 21
155.74875
 31
0.0
  0
LINE
  5
9826
330
9704
100
AcDbEntity
  8
1
  6
Continuous
100
AcDbLine
 10
262.8413269999999
 20
155.2782
 30
0.0
 11
262.5396609999999
 21
155.2834639999999
 31
0.0
  0
LINE
  5
9827
330
9704
100
AcDbEntity
  8
1
  6
Continuous
100
AcDbLine
 10
263.3551209999998
 20
155.0494699999999
 30
0.0
 11
262.8413269999999
 21
155.27823
 31
0.0
  0
LINE
  5
9828
330
9704
100
AcDbEntity
  8
1
  6
Continuous
100
AcDbLine
 10
264.0544009999999
 20
156.491289
 30
0.0
 11
264.0491519999998
 21
156.792955
 31
0.0
  0
LINE
  5
9829
330
9704
100
AcDbEntity
  8
1
  6
Continuous
100
AcDbLine
 10
264.28316
 20
155.9774949999998
 30
0.0
 11
264.0544009999999
 21
156.491289
 31
0.0
  0
LINE
  5
982A
330
9704
100
AcDbEntity
  8
1
  6
Continuous
100
AcDbLine
 10
263.5838499999999
 20
156.491289
 30
0.0
 11
263.5891299999999
 21
156.79297
 31
0.0
  0
LINE
  5
982B
330
9704
100
AcDbEntity
  8
1
  6
Continuous
100
AcDbLine
 10
263.3551209999998
 20
155.9775099999999
 30
0.0
 11
263.583881
 21
156.491304
 31
0.0
  0
LINE
  5
982C
330
9704
100
AcDbEntity
  8
1
  6
Continuous
100
AcDbLine
 10
264.796954
 20
155.2782
 30
0.0
 11
265.0986209999999
 21
155.2834639999999
 31
0.0
  0
LINE
  5
982D
330
9704
100
AcDbEntity
  8
1
  6
Continuous
100
AcDbLine
 10
264.28316
 20
155.0494549999999
 30
0.0
 11
264.796954
 21
155.2782149999998
 31
0.0
  0
LINE
  5
982E
330
9704
100
AcDbEntity
  8
1
  6
Continuous
100
AcDbLine
 10
264.796954
 20
155.748735
 30
0.0
 11
265.0986209999999
 21
155.743471
 31
0.0
  0
LINE
  5
982F
330
9704
100
AcDbEntity
  8
1
  6
Continuous
100
AcDbLine
 10
264.28316
 20
155.9774949999998
 30
0.0
 11
264.7969240000001
 21
155.748735
 31
0.0
  0
LINE
  5
9830
330
9704
100
AcDbEntity
  8
1
  6
Continuous
100
AcDbLine
 10
257.719134
 20
167.5134749999998
 30
0.0
 11
257.719134
 21
166.5134749999998
 31
0.0
  0
LINE
  5
9831
330
9704
100
AcDbEntity
  8
1
  6
Continuous
100
AcDbLine
 10
269.7191339999998
 20
166.5134749999998
 30
0.0
 11
269.919147
 21
166.5134749999998
 31
0.0
  0
LINE
  5
9832
330
9704
100
AcDbEntity
  8
1
  6
Continuous
100
AcDbLine
 10
26.162204
 20
179.513475
 30
0.0
 11
25.16220399999999
 21
179.513475
 31
0.0
  0
LINE
  5
9833
330
9704
100
AcDbEntity
  8
1
  6
Continuous
100
AcDbLine
 10
25.162212
 20
179.513475
 30
0.0
 11
16.162212
 21
173.513475
 31
0.0
  0
CIRCLE
  5
9834
330
9704
100
AcDbEntity
  8
2
  6
Continuous
100
AcDbCircle
 10
141.440677
 20
161.013475
 30
0.0
 40
1.5
  0
CIRCLE
  5
9835
330
9704
100
AcDbEntity
  8
1
  6
Continuous
100
AcDbCircle
 10
141.440677
 20
161.013475
 30
0.0
 40
1.2295
  0
CIRCLE
  5
9836
330
9704
100
AcDbEntity
  8
2
  6
Continuous
100
AcDbCircle
 10
141.440677
 20
135.013475
 30
0.0
 40
1.5
  0
CIRCLE
  5
9837
330
9704
100
AcDbEntity
  8
1
  6
Continuous
100
AcDbCircle
 10
141.440677
 20
135.013475
 30
0.0
 40
1.2295
  0
ARC
  5
9838
330
9704
100
AcDbEntity
  8
1
  6
Continuous
100
AcDbCircle
 10
28.162204
 20
166.5134749999998
 30
0.0
 40
1.0
100
AcDbArc
 50
0.0
 51
90.00000300000001
  0
ARC
  5
9839
330
9704
100
AcDbEntity
  8
1
  6
Continuous
100
AcDbCircle
 10
28.162204
 20
129.313478
 30
0.0
 40
1.0
100
AcDbArc
 50
269.9999969999999
 51
0.0
  0
CIRCLE
  5
983A
330
9704
100
AcDbEntity
  8
1
  6
Continuous
100
AcDbCircle
 10
22.062205
 20
140.513475
 30
0.0
 40
2.799999999999998
  0
CIRCLE
  5
983B
330
9704
100
AcDbEntity
  8
1
  6
Continuous
100
AcDbCircle
 10
141.440677
 20
148.0134749999998
 30
0.0
 40
9.0
  0
CIRCLE
  5
983C
330
9704
100
AcDbEntity
  8
1
  6
Continuous
100
AcDbCircle
 10
141.440677
 20
148.0134749999998
 30
0.0
 40
10.0
  0
CIRCLE
  5
983D
330
9704
100
AcDbEntity
  8
1
  6
Continuous
100
AcDbCircle
 10
377.281787
 20
148.0134749999998
 30
0.0
 40
2.049999999999998
  0
CIRCLE
  5
983E
330
9704
100
AcDbEntity
  8
2
  6
Continuous
100
AcDbCircle
 10
377.281787
 20
161.013475
 30
0.0
 40
1.5
  0
CIRCLE
  5
983F
330
9704
100
AcDbEntity
  8
1
  6
Continuous
100
AcDbCircle
 10
377.281787
 20
161.013475
 30
0.0
 40
1.2295
  0
CIRCLE
  5
9840
330
9704
100
AcDbEntity
  8
2
  6
Continuous
100
AcDbCircle
 10
377.281787
 20
135.013475
 30
0.0
 40
1.5
  0
CIRCLE
  5
9841
330
9704
100
AcDbEntity
  8
1
  6
Continuous
100
AcDbCircle
 10
377.281787
 20
135.013475
 30
0.0
 40
1.2295
  0
ARC
  5
9842
330
9704
100
AcDbEntity
  8
1
  6
Continuous
100
AcDbCircle
 10
15.96220699999999
 20
130.513475
 30
0.0
 40
1.0
100
AcDbArc
 50
180.000005
 51
270.000001
  0
ARC
  5
9843
330
9704
100
AcDbEntity
  8
1
  6
Continuous
100
AcDbCircle
 10
15.96220699999999
 20
165.513475
 30
0.0
 40
1.0
100
AcDbArc
 50
90.00000300000001
 51
180.000005
  0
CIRCLE
  5
9844
330
9704
100
AcDbEntity
  8
1
  6
Continuous
100
AcDbCircle
 10
22.062205
 20
140.513475
 30
0.0
 40
2.6
  0
ARC
  5
9845
330
9704
100
AcDbEntity
  8
1
  6
Continuous
100
AcDbCircle
 10
135.9406769999999
 20
33.897638
 30
0.0
 40
1.0
100
AcDbArc
 50
180.000005
 51
270.000001
  0
ARC
  5
9846
330
9704
100
AcDbEntity
  8
1
  6
Continuous
100
AcDbCircle
 10
150.940677
 20
33.897638
 30
0.0
 40
1.0
100
AcDbArc
 50
269.9999969999999
 51
0.0
  0
ARC
  5
9847
330
9704
100
AcDbEntity
  8
1
  6
Continuous
100
AcDbCircle
 10
134.7406649999998
 20
46.09763899999999
 30
0.0
 40
1.0
100
AcDbArc
 50
90.00000300000001
 51
180.000005
  0
ARC
  5
9848
330
9704
100
AcDbEntity
  8
1
  6
Continuous
100
AcDbCircle
 10
151.9406769999999
 20
46.09763899999999
 30
0.0
 40
1.0
100
AcDbArc
 50
0.0
 51
90.00000300000001
  0
CIRCLE
  5
9849
330
9704
100
AcDbEntity
  8
1
  6
Continuous
100
AcDbCircle
 10
143.440677
 20
39.99763599999999
 30
0.0
 40
2.799999999999998
  0
CIRCLE
  5
984A
330
9704
100
AcDbEntity
  8
1
  6
Continuous
100
AcDbCircle
 10
143.440677
 20
39.99763599999999
 30
0.0
 40
2.6
  0
ARC
  5
984B
330
9704
100
AcDbEntity
  8
1
  6
Continuous
100
AcDbCircle
 10
134.7406649999998
 20
254.9293079999999
 30
0.0
 40
1.0
100
AcDbArc
 50
179.9999909999999
 51
270.000001
  0
ARC
  5
984C
330
9704
100
AcDbEntity
  8
1
  6
Continuous
100
AcDbCircle
 10
151.9406769999999
 20
254.9293079999999
 30
0.0
 40
1.0
100
AcDbArc
 50
269.9999969999999
 51
0.0
  0
ARC
  5
984D
330
9704
100
AcDbEntity
  8
1
  6
Continuous
100
AcDbCircle
 10
135.9406769999999
 20
267.12932
 30
0.0
 40
1.0
100
AcDbArc
 50
90.00000300000001
 51
180.000005
  0
ARC
  5
984E
330
9704
100
AcDbEntity
  8
1
  6
Continuous
100
AcDbCircle
 10
150.940677
 20
267.12932
 30
0.0
 40
1.0
100
AcDbArc
 50
0.0
 51
90.00000300000001
  0
CIRCLE
  5
984F
330
9704
100
AcDbEntity
  8
1
  6
Continuous
100
AcDbCircle
 10
141.440677
 20
261.029314
 30
0.0
 40
2.799999999999998
  0
CIRCLE
  5
9850
330
9704
100
AcDbEntity
  8
1
  6
Continuous
100
AcDbCircle
 10
141.440677
 20
261.029314
 30
0.0
 40
2.6
  0
CIRCLE
  5
9851
330
9704
100
AcDbEntity
  8
1
  6
Continuous
100
AcDbCircle
 10
141.440677
 20
243.12932
 30
0.0
 40
1.5
  0
CIRCLE
  5
9852
330
9704
100
AcDbEntity
  8
1
  6
Continuous
100
AcDbCircle
 10
141.440677
 20
243.12932
 30
0.0
 40
1.2295
  0
ARC
  5
9853
330
9704
100
AcDbEntity
  8
1
  6
Continuous
100
AcDbCircle
 10
377.281787
 20
148.0134749999998
 30
0.0
 40
10.0
100
AcDbArc
 50
320.3538899999998
 51
39.64611
  0
ARC
  5
9854
330
9704
100
AcDbEntity
  8
1
  6
Continuous
100
AcDbCircle
 10
141.440677
 20
261.029314
 30
0.0
 40
1.3
100
AcDbArc
 50
169.809417
 51
190.190593
  0
ARC
  5
9855
330
9704
100
AcDbEntity
  8
1
  6
Continuous
100
AcDbCircle
 10
141.440677
 20
261.029314
 30
0.0
 40
1.3
100
AcDbArc
 50
259.80941
 51
280.1905919999999
  0
ARC
  5
9856
330
9704
100
AcDbEntity
  8
1
  6
Continuous
100
AcDbCircle
 10
141.440677
 20
261.029314
 30
0.0
 40
1.3
100
AcDbArc
 50
349.8094179999998
 51
10.190593
  0
ARC
  5
9857
330
9704
100
AcDbEntity
  8
1
  6
Continuous
100
AcDbCircle
 10
141.440677
 20
261.029314
 30
0.0
 40
1.3
100
AcDbArc
 50
79.80940799999998
 51
100.19059
  0
ARC
  5
9858
330
9704
100
AcDbEntity
  8
1
  6
Continuous
100
AcDbCircle
 10
22.062205
 20
140.513475
 30
0.0
 40
1.3
100
AcDbArc
 50
259.80941
 51
280.190585
  0
ARC
  5
9859
330
9704
100
AcDbEntity
  8
1
  6
Continuous
100
AcDbCircle
 10
22.062205
 20
140.513475
 30
0.0
 40
1.3
100
AcDbArc
 50
349.809408
 51
10.19059
  0
ARC
  5
985A
330
9704
100
AcDbEntity
  8
1
  6
Continuous
100
AcDbCircle
 10
22.062205
 20
140.513475
 30
0.0
 40
1.3
100
AcDbArc
 50
79.809415
 51
100.19059
  0
ARC
  5
985B
330
9704
100
AcDbEntity
  8
1
  6
Continuous
100
AcDbCircle
 10
22.062205
 20
140.513475
 30
0.0
 40
1.3
100
AcDbArc
 50
169.8094039999998
 51
190.190593
  0
ARC
  5
985C
330
9704
100
AcDbEntity
  8
1
  6
Continuous
100
AcDbCircle
 10
143.440677
 20
39.99763599999999
 30
0.0
 40
1.3
100
AcDbArc
 50
349.809412
 51
10.190588
  0
ARC
  5
985D
330
9704
100
AcDbEntity
  8
1
  6
Continuous
100
AcDbCircle
 10
143.440677
 20
39.99763599999999
 30
0.0
 40
1.3
100
AcDbArc
 50
79.80940799999998
 51
100.19059
  0
ARC
  5
985E
330
9704
100
AcDbEntity
  8
1
  6
Continuous
100
AcDbCircle
 10
143.440677
 20
39.99763599999999
 30
0.0
 40
1.3
100
AcDbArc
 50
169.809417
 51
190.190593
  0
ARC
  5
985F
330
9704
100
AcDbEntity
  8
1
  6
Continuous
100
AcDbCircle
 10
143.440677
 20
39.99763599999999
 30
0.0
 40
1.3
100
AcDbArc
 50
259.80941
 51
280.1905919999999
  0
ARC
  5
9860
330
9704
100
AcDbEntity
  8
1
  6
Continuous
100
AcDbCircle
 10
377.281787
 20
148.0134749999998
 30
0.0
 40
8.0
100
AcDbArc
 50
344.259452
 51
15.740548
  0
ARC
  5
9861
330
9704
100
AcDbEntity
  8
1
  6
Continuous
100
AcDbCircle
 10
257.719134
 20
129.313478
 30
0.0
 40
1.0
100
AcDbArc
 50
179.9999909999999
 51
270.000001
  0
CIRCLE
  5
9862
330
9704
100
AcDbEntity
  8
1
  6
Continuous
100
AcDbCircle
 10
263.819141
 20
155.513475
 30
0.0
 40
2.799999999999998
  0
ARC
  5
9863
330
9704
100
AcDbEntity
  8
1
  6
Continuous
100
AcDbCircle
 10
257.719134
 20
166.5134749999998
 30
0.0
 40
1.0
100
AcDbArc
 50
90.00000300000001
 51
180.000005
  0
ARC
  5
9864
330
9704
100
AcDbEntity
  8
1
  6
Continuous
100
AcDbCircle
 10
269.919147
 20
165.513475
 30
0.0
 40
1.0
100
AcDbArc
 50
0.0
 51
90.00000300000001
  0
ARC
  5
9865
330
9704
100
AcDbEntity
  8
1
  6
Continuous
100
AcDbCircle
 10
269.919147
 20
130.513475
 30
0.0
 40
1.0
100
AcDbArc
 50
269.9999969999999
 51
0.0
  0
CIRCLE
  5
9866
330
9704
100
AcDbEntity
  8
1
  6
Continuous
100
AcDbCircle
 10
263.819141
 20
155.513475
 30
0.0
 40
2.6
  0
ARC
  5
9867
330
9704
100
AcDbEntity
  8
1
  6
Continuous
100
AcDbCircle
 10
263.819141
 20
155.513475
 30
0.0
 40
1.3
100
AcDbArc
 50
259.80941
 51
280.190585
  0
ARC
  5
9868
330
9704
100
AcDbEntity
  8
1
  6
Continuous
100
AcDbCircle
 10
263.819141
 20
155.513475
 30
0.0
 40
1.3
100
AcDbArc
 50
169.8094039999998
 51
190.190593
  0
ARC
  5
9869
330
9704
100
AcDbEntity
  8
1
  6
Continuous
100
AcDbCircle
 10
263.819141
 20
155.513475
 30
0.0
 40
1.3
100
AcDbArc
 50
79.80940799999998
 51
100.1905829999998
  0
ARC
  5
986A
330
9704
100
AcDbEntity
  8
1
  6
Continuous
100
AcDbCircle
 10
263.819141
 20
155.513475
 30
0.0
 40
1.3
100
AcDbArc
 50
349.809408
 51
10.19059
  0
LINE
  5
986B
330
9704
100
AcDbEntity
  8
1
  6
Continuous
100
AcDbLine
 10
244.041262
 20
142.4640249999999
 30
0.0
 11
247.419147
 21
139.08614
 31
0.0
  0
LINE
  5
986C
330
9704
100
AcDbEntity
  8
1
  6
Continuous
100
AcDbLine
 10
242.419147
 20
141.2577119999999
 30
0.0
 11
245.6633839999998
 21
138.013475
 31
0.0
  0
LINE
  5
986D
330
9704
100
AcDbEntity
  8
1
  6
Continuous
100
AcDbLine
 10
242.6270479999999
 20
142.4640249999999
 30
0.0
 11
247.0775979999999
 21
138.013475
 31
0.0
  0
LINE
  5
986E
330
9704
100
AcDbEntity
  8
1
  6
Continuous
100
AcDbLine
 10
245.455475
 20
142.4640249999999
 30
0.0
 11
242.419147
 21
139.427696
 31
0.0
  0
LINE
  5
986F
330
9704
100
AcDbEntity
  8
1
  6
Continuous
100
AcDbLine
 10
246.8696889999999
 20
142.4640249999999
 30
0.0
 11
242.419147
 21
138.013483
 31
0.0
  0
LINE
  5
9870
330
9704
100
AcDbEntity
  8
1
  6
Continuous
100
AcDbLine
 10
247.419147
 20
141.5992689999999
 30
0.0
 11
243.8333529999999
 21
138.013475
 31
0.0
  0
LINE
  5
9871
330
9704
100
AcDbEntity
  8
1
  6
Continuous
100
AcDbLine
 10
247.419147
 20
140.1850549999998
 30
0.0
 11
245.247566
 21
138.013475
 31
0.0
  0
LINE
  5
9872
330
9704
100
AcDbEntity
  8
1
  6
Continuous
100
AcDbLine
 10
247.419147
 20
138.7708419999998
 30
0.0
 11
246.6617799999999
 21
138.013475
 31
0.0
  0
LINE
  5
9873
330
9704
100
AcDbEntity
  8
1
  6
Continuous
100
AcDbLine
 10
245.455475
 20
142.4640249999999
 30
0.0
 11
247.419147
 21
140.5003529999999
 31
0.0
  0
LINE
  5
9874
330
9704
100
AcDbEntity
  8
1
  6
Continuous
100
AcDbLine
 10
246.8696889999999
 20
142.4640249999999
 30
0.0
 11
247.419147
 21
141.9145669999998
 31
0.0
  0
LINE
  5
9875
330
9704
100
AcDbEntity
  8
1
  6
Continuous
100
AcDbLine
 10
244.041262
 20
142.4640249999999
 30
0.0
 11
242.419147
 21
140.84191
 31
0.0
  0
LINE
  5
9876
330
9704
100
AcDbEntity
  8
1
  6
Continuous
100
AcDbLine
 10
242.6270479999999
 20
142.4640249999999
 30
0.0
 11
242.419147
 21
142.256123
 31
0.0
  0
LINE
  5
9877
330
9704
100
AcDbEntity
  8
1
  6
Continuous
100
AcDbLine
 10
242.419147
 20
139.843499
 30
0.0
 11
244.249171
 21
138.013475
 31
0.0
  0
LINE
  5
9878
330
9704
100
AcDbEntity
  8
1
  6
Continuous
100
AcDbLine
 10
242.419147
 20
138.429285
 30
0.0
 11
242.8349569999999
 21
138.013475
 31
0.0
  0
LINE
  5
9879
330
9704
100
AcDbEntity
  8
1
  6
Continuous
100
AcDbLine
 10
150.68331
 20
244.6293499999999
 30
0.0
 11
151.4406769999999
 21
243.871983
 31
0.0
  0
LINE
  5
987A
330
9704
100
AcDbEntity
  8
1
  6
Continuous
100
AcDbLine
 10
146.990127
 20
242.665679
 30
0.0
 11
148.953799
 21
244.6293499999999
 31
0.0
  0
LINE
  5
987B
330
9704
100
AcDbEntity
  8
1
  6
Continuous
100
AcDbLine
 10
149.269096
 20
244.6293499999999
 30
0.0
 11
151.4406769999999
 21
242.4577699999999
 31
0.0
  0
LINE
  5
987C
330
9704
100
AcDbEntity
  8
1
  6
Continuous
100
AcDbLine
 10
146.990127
 20
244.079892
 30
0.0
 11
147.5395849999999
 21
244.6293499999999
 31
0.0
  0
LINE
  5
987D
330
9704
100
AcDbEntity
  8
1
  6
Continuous
100
AcDbLine
 10
146.990127
 20
241.2514649999998
 30
0.0
 11
148.6122419999998
 21
239.62935
 31
0.0
  0
LINE
  5
987E
330
9704
100
AcDbEntity
  8
1
  6
Continuous
100
AcDbLine
 10
146.990127
 20
239.837252
 30
0.0
 11
147.1980279999999
 21
239.62935
 31
0.0
  0
LINE
  5
987F
330
9704
100
AcDbEntity
  8
1
  6
Continuous
100
AcDbLine
 10
149.610653
 20
239.62935
 30
0.0
 11
151.4406769999999
 21
241.459374
 31
0.0
  0
LINE
  5
9880
330
9704
100
AcDbEntity
  8
1
  6
Continuous
100
AcDbLine
 10
151.024866
 20
239.62935
 30
0.0
 11
151.4406769999999
 21
240.0451609999998
 31
0.0
  0
LINE
  5
9881
330
9704
100
AcDbEntity
  8
1
  6
Continuous
100
AcDbLine
 10
148.1964389999999
 20
239.62935
 30
0.0
 11
151.4406769999999
 21
242.873588
 31
0.0
  0
LINE
  5
9882
330
9704
100
AcDbEntity
  8
1
  6
Continuous
100
AcDbLine
 10
146.990127
 20
244.079892
 30
0.0
 11
151.4406689999999
 21
239.62935
 31
0.0
  0
LINE
  5
9883
330
9704
100
AcDbEntity
  8
1
  6
Continuous
100
AcDbLine
 10
146.990127
 20
242.665679
 30
0.0
 11
150.0264559999999
 21
239.62935
 31
0.0
  0
LINE
  5
9884
330
9704
100
AcDbEntity
  8
1
  6
Continuous
100
AcDbLine
 10
147.854883
 20
244.6293499999999
 30
0.0
 11
151.4406769999999
 21
241.0435559999999
 31
0.0
  0
LINE
  5
9885
330
9704
100
AcDbEntity
  8
1
  6
Continuous
100
AcDbLine
 10
146.990127
 20
239.837252
 30
0.0
 11
151.4406769999999
 21
244.2878009999998
 31
0.0
  0
LINE
  5
9886
330
9704
100
AcDbEntity
  8
1
  6
Continuous
100
AcDbLine
 10
146.990127
 20
241.2514649999998
 30
0.0
 11
150.368012
 21
244.6293499999999
 31
0.0
  0
LINE
  5
9887
330
9704
100
AcDbEntity
  8
1
  6
Continuous
100
AcDbLine
 10
38.462176
 20
138.7708419999998
 30
0.0
 11
39.219543
 21
138.013475
 31
0.0
  0
LINE
  5
9888
330
9704
100
AcDbEntity
  8
1
  6
Continuous
100
AcDbLine
 10
40.42584799999999
 20
142.4640249999999
 30
0.0
 11
38.462176
 21
140.5003529999999
 31
0.0
  0
LINE
  5
9889
330
9704
100
AcDbEntity
  8
1
  6
Continuous
100
AcDbLine
 10
38.462176
 20
140.1850549999998
 30
0.0
 11
40.633757
 21
138.013475
 31
0.0
  0
LINE
  5
988A
330
9704
100
AcDbEntity
  8
1
  6
Continuous
100
AcDbLine
 10
39.011634
 20
142.4640249999999
 30
0.0
 11
38.462176
 21
141.9145669999998
 31
0.0
  0
LINE
  5
988B
330
9704
100
AcDbEntity
  8
1
  6
Continuous
100
AcDbLine
 10
41.840061
 20
142.4640249999999
 30
0.0
 11
43.462176
 21
140.84191
 31
0.0
  0
LINE
  5
988C
330
9704
100
AcDbEntity
  8
1
  6
Continuous
100
AcDbLine
 10
43.25427499999999
 20
142.4640249999999
 30
0.0
 11
43.462176
 21
142.256123
 31
0.0
  0
LINE
  5
988D
330
9704
100
AcDbEntity
  8
1
  6
Continuous
100
AcDbLine
 10
43.462176
 20
139.843499
 30
0.0
 11
41.632153
 21
138.013475
 31
0.0
  0
LINE
  5
988E
330
9704
100
AcDbEntity
  8
1
  6
Continuous
100
AcDbLine
 10
43.462176
 20
138.429285
 30
0.0
 11
43.046366
 21
138.013475
 31
0.0
  0
LINE
  5
988F
330
9704
100
AcDbEntity
  8
1
  6
Continuous
100
AcDbLine
 10
43.462176
 20
141.2577119999999
 30
0.0
 11
40.217939
 21
138.013475
 31
0.0
  0
LINE
  5
9890
330
9704
100
AcDbEntity
  8
1
  6
Continuous
100
AcDbLine
 10
39.011634
 20
142.4640249999999
 30
0.0
 11
43.462176
 21
138.013483
 31
0.0
  0
LINE
  5
9891
330
9704
100
AcDbEntity
  8
1
  6
Continuous
100
AcDbLine
 10
40.42584799999999
 20
142.4640249999999
 30
0.0
 11
43.462176
 21
139.427696
 31
0.0
  0
LINE
  5
9892
330
9704
100
AcDbEntity
  8
1
  6
Continuous
100
AcDbLine
 10
38.462176
 20
141.5992689999999
 30
0.0
 11
42.04797
 21
138.013475
 31
0.0
  0
LINE
  5
9893
330
9704
100
AcDbEntity
  8
1
  6
Continuous
100
AcDbLine
 10
43.25427499999999
 20
142.4640249999999
 30
0.0
 11
38.803725
 21
138.013475
 31
0.0
  0
LINE
  5
9894
330
9704
100
AcDbEntity
  8
1
  6
Continuous
100
AcDbLine
 10
41.840061
 20
142.4640249999999
 30
0.0
 11
38.462176
 21
139.08614
 31
0.0
  0
LINE
  5
9895
330
9704
100
AcDbEntity
  8
1
  6
Continuous
100
AcDbLine
 10
146.990142
 20
59.77549200000001
 30
0.0
 11
150.368027
 21
56.397607
 31
0.0
  0
LINE
  5
9896
330
9704
100
AcDbEntity
  8
1
  6
Continuous
100
AcDbLine
 10
146.990142
 20
61.189706
 30
0.0
 11
151.4406919999998
 21
56.739156
 31
0.0
  0
LINE
  5
9897
330
9704
100
AcDbEntity
  8
1
  6
Continuous
100
AcDbLine
 10
147.854898
 20
56.397607
 30
0.0
 11
151.4406919999998
 21
59.983401
 31
0.0
  0
LINE
  5
9898
330
9704
100
AcDbEntity
  8
1
  6
Continuous
100
AcDbLine
 10
146.990142
 20
58.36127900000001
 30
0.0
 11
150.0264709999999
 21
61.397607
 31
0.0
  0
LINE
  5
9899
330
9704
100
AcDbEntity
  8
1
  6
Continuous
100
AcDbLine
 10
146.990142
 20
56.947065
 30
0.0
 11
151.440684
 21
61.397607
 31
0.0
  0
LINE
  5
989A
330
9704
100
AcDbEntity
  8
1
  6
Continuous
100
AcDbLine
 10
148.1964549999999
 20
61.397607
 30
0.0
 11
151.4406919999998
 21
58.15336999999999
 31
0.0
  0
LINE
  5
989B
330
9704
100
AcDbEntity
  8
1
  6
Continuous
100
AcDbLine
 10
151.0248819999999
 20
61.397607
 30
0.0
 11
151.4406919999998
 21
60.981797
 31
0.0
  0
LINE
  5
989C
330
9704
100
AcDbEntity
  8
1
  6
Continuous
100
AcDbLine
 10
149.610668
 20
61.397607
 30
0.0
 11
151.4406919999998
 21
59.567583
 31
0.0
  0
LINE
  5
989D
330
9704
100
AcDbEntity
  8
1
  6
Continuous
100
AcDbLine
 10
146.990142
 20
61.189706
 30
0.0
 11
147.1980439999998
 21
61.397607
 31
0.0
  0
LINE
  5
989E
330
9704
100
AcDbEntity
  8
1
  6
Continuous
100
AcDbLine
 10
146.990142
 20
59.77549200000001
 30
0.0
 11
148.612257
 21
61.397607
 31
0.0
  0
LINE
  5
989F
330
9704
100
AcDbEntity
  8
1
  6
Continuous
100
AcDbLine
 10
150.6833249999999
 20
56.397607
 30
0.0
 11
151.4406919999998
 21
57.154974
 31
0.0
  0
LINE
  5
98A0
330
9704
100
AcDbEntity
  8
1
  6
Continuous
100
AcDbLine
 10
146.990142
 20
56.947065
 30
0.0
 11
147.5396
 21
56.397607
 31
0.0
  0
LINE
  5
98A1
330
9704
100
AcDbEntity
  8
1
  6
Continuous
100
AcDbLine
 10
146.990142
 20
58.36127900000001
 30
0.0
 11
148.953814
 21
56.397607
 31
0.0
  0
LINE
  5
98A2
330
9704
100
AcDbEntity
  8
1
  6
Continuous
100
AcDbLine
 10
149.269112
 20
56.397607
 30
0.0
 11
151.4406919999998
 21
58.56918799999998
 31
0.0
  0
ARC
  5
98A3
330
9704
100
AcDbEntity
  8
1
  6
Continuous
100
AcDbCircle
 10
268.31919
 20
142.3134779999998
 30
0.0
 40
7.932788
100
AcDbArc
 50
169.896
 51
172.2069999999999
  0
ARC
  5
98A4
330
9704
100
AcDbEntity
  8
1
  6
Continuous
100
AcDbCircle
 10
257.120422
 20
142.3134779999998
 30
0.0
 40
7.932788
100
AcDbArc
 50
7.792999999999999
 51
10.10399999999999
  0
ARC
  5
98A5
330
9704
100
AcDbEntity
  8
1
  6
Continuous
100
AcDbCircle
 10
260.525389
 20
143.3812519999999
 30
0.0
 40
0.066678
100
AcDbArc
 50
172.2069999999999
 51
270.0
  0
ARC
  5
98A6
330
9704
100
AcDbEntity
  8
1
  6
Continuous
100
AcDbCircle
 10
264.9142229999998
 20
143.3812519999999
 30
0.0
 40
0.066678
100
AcDbArc
 50
270.0
 51
7.792999999999999
  0
LINE
  5
98A7
330
9704
100
AcDbEntity
  8
1
  6
Continuous
100
AcDbLine
 10
260.394116
 20
142.647749
 30
0.0
 11
265.045496
 21
142.647749
 31
0.0
  0
LINE
  5
98A8
330
9704
100
AcDbEntity
  8
1
  6
Continuous
100
AcDbLine
 10
260.525389
 20
143.3135859999999
 30
0.0
 11
264.9142229999998
 21
143.3135859999999
 31
0.0
  0
LINE
  5
98A9
330
9704
100
AcDbEntity
  8
1
  6
Continuous
100
AcDbLine
 10
261.9193139999998
 20
143.9807749999999
 30
0.0
 11
260.8380069999999
 21
143.9807749999999
 31
0.0
  0
LINE
  5
98AA
330
9704
100
AcDbEntity
  8
1
  6
Continuous
100
AcDbLine
 10
262.719129
 20
143.9807749999999
 30
0.0
 11
262.719129
 21
143.647857
 31
0.0
  0
LINE
  5
98AB
330
9704
100
AcDbEntity
  8
1
  6
Continuous
100
AcDbLine
 10
260.842067
 20
145.313801
 30
0.0
 11
262.386211
 21
145.313801
 31
0.0
  0
LINE
  5
98AC
330
9704
100
AcDbEntity
  8
1
  6
Continuous
100
AcDbLine
 10
262.386211
 20
145.9809899999999
 30
0.0
 11
260.9625129999999
 21
145.9809899999999
 31
0.0
  0
LINE
  5
98AD
330
9704
100
AcDbEntity
  8
1
  6
Continuous
100
AcDbLine
 10
262.719129
 20
145.6467189999998
 30
0.0
 11
264.31876
 21
145.6467189999998
 31
0.0
  0
LINE
  5
98AE
330
9704
100
AcDbEntity
  8
1
  6
Continuous
100
AcDbLine
 10
263.966895
 20
146.3193219999998
 30
0.0
 11
261.157392
 21
147.073124
 31
0.0
  0
LINE
  5
98AF
330
9704
100
AcDbEntity
  8
1
  6
Continuous
100
AcDbLine
 10
262.719129
 20
148.031278
 30
0.0
 11
262.719129
 21
146.653593
 31
0.0
  0
ARC
  5
98B0
330
9704
100
AcDbEntity
  8
1
  6
Continuous
100
AcDbCircle
 10
262.386211
 20
145.6467189999998
 30
0.0
 40
0.333392
100
AcDbArc
 50
270.0
 51
90.0
  0
ARC
  5
98B1
330
9704
100
AcDbEntity
  8
1
  6
Continuous
100
AcDbCircle
 10
262.719129
 20
146.3139079999999
 30
0.0
 40
1.717978999999998
100
AcDbArc
 50
62.24999999999999
 51
144.462
  0
ARC
  5
98B2
330
9704
100
AcDbEntity
  8
1
  6
Continuous
100
AcDbCircle
 10
262.719129
 20
146.3139079999999
 30
0.0
 40
1.717978999999998
100
AcDbArc
 50
35.53799999999999
 51
45.69899999999999
  0
ARC
  5
98B3
330
9704
100
AcDbEntity
  8
1
  6
Continuous
100
AcDbCircle
 10
260.8380069999999
 20
143.647857
 30
0.0
 40
0.333392
100
AcDbArc
 50
90.0
 51
169.896
  0
ARC
  5
98B4
330
9704
100
AcDbEntity
  8
1
  6
Continuous
100
AcDbCircle
 10
264.601605
 20
143.647857
 30
0.0
 40
0.333392
100
AcDbArc
 50
10.10399999999999
 51
90.0
  0
LINE
  5
98B5
330
9704
100
AcDbEntity
  8
1
  6
Continuous
100
AcDbLine
 10
264.601605
 20
143.9807749999999
 30
0.0
 11
262.719129
 21
143.9807749999999
 31
0.0
  0
LINE
  5
98B6
330
9704
100
AcDbEntity
  8
1
  6
Continuous
100
AcDbLine
 10
260.528095
 20
144.646611
 30
0.0
 11
264.7017509999999
 21
144.646611
 31
0.0
  0
LINE
  5
98B7
330
9704
100
AcDbEntity
  8
1
  6
Continuous
100
AcDbLine
 10
260.8907859999998
 20
137.9814829999999
 30
0.0
 11
263.7652499999999
 21
137.9814829999999
 31
0.0
  0
LINE
  5
98B8
330
9704
100
AcDbEntity
  8
1
  6
Continuous
100
AcDbLine
 10
263.9493019999998
 20
138.6473189999998
 30
0.0
 11
261.49031
 21
138.6473189999998
 31
0.0
  0
LINE
  5
98B9
330
9704
100
AcDbEntity
  8
1
  6
Continuous
100
AcDbLine
 10
261.0748389999999
 20
139.3145089999999
 30
0.0
 11
264.36342
 21
139.3145089999999
 31
0.0
  0
LINE
  5
98BA
330
9704
100
AcDbEntity
  8
1
  6
Continuous
100
AcDbLine
 10
261.9193139999998
 20
140.647534
 30
0.0
 11
260.6471879999999
 21
140.647534
 31
0.0
  0
LINE
  5
98BB
330
9704
100
AcDbEntity
  8
1
  6
Continuous
100
AcDbLine
 10
262.719129
 20
141.9805599999999
 30
0.0
 11
262.719129
 21
141.314724
 31
0.0
  0
ARC
  5
98BC
330
9704
100
AcDbEntity
  8
1
  6
Continuous
100
AcDbCircle
 10
262.719129
 20
138.314401
 30
0.0
 40
1.717978999999998
100
AcDbArc
 50
215.5377
 51
256.5374
  0
ARC
  5
98BD
330
9704
100
AcDbEntity
  8
1
  6
Continuous
100
AcDbCircle
 10
262.719129
 20
138.314401
 30
0.0
 40
1.717978999999998
100
AcDbArc
 50
270.0
 51
324.4619999999998
  0
ARC
  5
98BE
330
9704
100
AcDbEntity
  8
1
  6
Continuous
100
AcDbCircle
 10
261.49031
 20
138.9815909999998
 30
0.0
 40
0.333392
100
AcDbArc
 50
206.0144
 51
270.0
  0
ARC
  5
98BF
330
9704
100
AcDbEntity
  8
1
  6
Continuous
100
AcDbCircle
 10
268.31919
 20
142.3134779999998
 30
0.0
 40
7.932788
100
AcDbArc
 50
202.944
 51
206.0144
  0
ARC
  5
98C0
330
9704
100
AcDbEntity
  8
1
  6
Continuous
100
AcDbCircle
 10
261.0748389999999
 20
139.248196
 30
0.0
 40
0.066678
100
AcDbArc
 50
90.0
 51
202.944
  0
ARC
  5
98C1
330
9704
100
AcDbEntity
  8
1
  6
Continuous
100
AcDbCircle
 10
263.9493019999998
 20
138.9815909999998
 30
0.0
 40
0.333392
100
AcDbArc
 50
270.0
 51
333.9859999999998
  0
ARC
  5
98C2
330
9704
100
AcDbEntity
  8
1
  6
Continuous
100
AcDbCircle
 10
260.6471879999999
 20
140.581221
 30
0.0
 40
0.066678
100
AcDbArc
 50
90.0
 51
192.7289
  0
ARC
  5
98C3
330
9704
100
AcDbEntity
  8
1
  6
Continuous
100
AcDbCircle
 10
268.31919
 20
142.3134779999998
 30
0.0
 40
7.932788
100
AcDbArc
 50
192.7289
 51
193.2680999999999
  0
ARC
  5
98C4
330
9704
100
AcDbEntity
  8
1
  6
Continuous
100
AcDbCircle
 10
268.31919
 20
142.3134779999998
 30
0.0
 40
7.932788
100
AcDbArc
 50
193.2680999999999
 51
195.2574999999999
  0
ARC
  5
98C5
330
9704
100
AcDbEntity
  8
1
  6
Continuous
100
AcDbCircle
 10
260.988226
 20
140.314616
 30
0.0
 40
0.333392
100
AcDbArc
 50
195.2574999999999
 51
270.0
  0
ARC
  5
98C6
330
9704
100
AcDbEntity
  8
1
  6
Continuous
100
AcDbCircle
 10
264.4513859999999
 20
140.314616
 30
0.0
 40
0.333392
100
AcDbArc
 50
270.0
 51
344.7419999999998
  0
ARC
  5
98C7
330
9704
100
AcDbEntity
  8
1
  6
Continuous
100
AcDbCircle
 10
257.120422
 20
142.3134779999998
 30
0.0
 40
7.932788
100
AcDbArc
 50
344.7419999999998
 51
344.794
  0
ARC
  5
98C8
330
9704
100
AcDbEntity
  8
1
  6
Continuous
100
AcDbCircle
 10
257.120422
 20
142.3134779999998
 30
0.0
 40
7.932788
100
AcDbArc
 50
344.794
 51
347.2709999999998
  0
ARC
  5
98C9
330
9704
100
AcDbEntity
  8
1
  6
Continuous
100
AcDbCircle
 10
264.792424
 20
140.581221
 30
0.0
 40
0.066678
100
AcDbArc
 50
347.2709999999998
 51
90.0
  0
LINE
  5
98CA
330
9704
100
AcDbEntity
  8
1
  6
Continuous
100
AcDbLine
 10
260.988226
 20
139.980345
 30
0.0
 11
264.4513859999999
 21
139.980345
 31
0.0
  0
LINE
  5
98CB
330
9704
100
AcDbEntity
  8
1
  6
Continuous
100
AcDbLine
 10
264.792424
 20
140.647534
 30
0.0
 11
263.5189449999999
 21
140.647534
 31
0.0
  0
LINE
  5
98CC
330
9704
100
AcDbEntity
  8
1
  6
Continuous
100
AcDbLine
 10
260.449602
 20
141.314724
 30
0.0
 11
264.990009
 21
141.314724
 31
0.0
  0
LINE
  5
98CD
330
9704
100
AcDbEntity
  8
1
  6
Continuous
100
AcDbLine
 10
260.394116
 20
141.9805599999999
 30
0.0
 11
265.045496
 21
141.9805599999999
 31
0.0
  0
ARC
  5
98CE
330
9704
100
AcDbEntity
  8
1
  6
Continuous
100
AcDbCircle
 10
264.36342
 20
139.248196
 30
0.0
 40
0.066678
100
AcDbArc
 50
337.0559999999999
 51
90.0
  0
ARC
  5
98CF
330
9704
100
AcDbEntity
  8
1
  6
Continuous
100
AcDbCircle
 10
257.120422
 20
142.3134779999998
 30
0.0
 40
7.932788
100
AcDbArc
 50
333.9859999999998
 51
337.0559999999999
  0
ARC
  5
98D0
330
9704
100
AcDbEntity
  8
1
  6
Continuous
100
AcDbCircle
 10
257.120422
 20
142.3134779999998
 30
0.0
 40
8.599396
100
AcDbArc
 50
324.4619999999998
 51
35.53799999999999
  0
ARC
  5
98D1
330
9704
100
AcDbEntity
  8
1
  6
Continuous
100
AcDbCircle
 10
268.31919
 20
142.3134779999998
 30
0.0
 40
8.599396
100
AcDbArc
 50
144.462
 51
215.5377
  0
ARC
  5
98D2
330
9704
100
AcDbEntity
  8
1
  6
Continuous
100
AcDbCircle
 10
17.562141
 20
152.5141459999999
 30
0.0
 40
7.932788
100
AcDbArc
 50
349.8959999999998
 51
352.2069999999998
  0
ARC
  5
98D3
330
9704
100
AcDbEntity
  8
1
  6
Continuous
100
AcDbCircle
 10
28.760909
 20
152.5141459999999
 30
0.0
 40
7.932788
100
AcDbArc
 50
187.793
 51
190.1039999999999
  0
ARC
  5
98D4
330
9704
100
AcDbEntity
  8
1
  6
Continuous
100
AcDbCircle
 10
25.355942
 20
151.4463729999999
 30
0.0
 40
0.066678
100
AcDbArc
 50
352.2069999999998
 51
90.0
  0
ARC
  5
98D5
330
9704
100
AcDbEntity
  8
1
  6
Continuous
100
AcDbCircle
 10
20.96710799999998
 20
151.4463729999999
 30
0.0
 40
0.066678
100
AcDbArc
 50
90.0
 51
187.793
  0
LINE
  5
98D6
330
9704
100
AcDbEntity
  8
1
  6
Continuous
100
AcDbLine
 10
25.487215
 20
152.179875
 30
0.0
 11
20.835835
 21
152.179875
 31
0.0
  0
LINE
  5
98D7
330
9704
100
AcDbEntity
  8
1
  6
Continuous
100
AcDbLine
 10
25.355942
 20
151.514039
 30
0.0
 11
20.96710799999998
 21
151.514039
 31
0.0
  0
LINE
  5
98D8
330
9704
100
AcDbEntity
  8
1
  6
Continuous
100
AcDbLine
 10
23.962017
 20
150.846849
 30
0.0
 11
25.043324
 21
150.846849
 31
0.0
  0
LINE
  5
98D9
330
9704
100
AcDbEntity
  8
1
  6
Continuous
100
AcDbLine
 10
23.162202
 20
150.846849
 30
0.0
 11
23.162202
 21
151.1797669999999
 31
0.0
  0
LINE
  5
98DA
330
9704
100
AcDbEntity
  8
1
  6
Continuous
100
AcDbLine
 10
25.039264
 20
149.5138239999998
 30
0.0
 11
23.49512
 21
149.5138239999998
 31
0.0
  0
LINE
  5
98DB
330
9704
100
AcDbEntity
  8
1
  6
Continuous
100
AcDbLine
 10
23.49512
 20
148.8466339999999
 30
0.0
 11
24.91881799999999
 21
148.8466339999999
 31
0.0
  0
LINE
  5
98DC
330
9704
100
AcDbEntity
  8
1
  6
Continuous
100
AcDbLine
 10
23.162202
 20
149.180906
 30
0.0
 11
21.56257099999999
 21
149.180906
 31
0.0
  0
LINE
  5
98DD
330
9704
100
AcDbEntity
  8
1
  6
Continuous
100
AcDbLine
 10
21.914435
 20
148.508303
 30
0.0
 11
24.723939
 21
147.754501
 31
0.0
  0
LINE
  5
98DE
330
9704
100
AcDbEntity
  8
1
  6
Continuous
100
AcDbLine
 10
23.162202
 20
146.7963459999998
 30
0.0
 11
23.162202
 21
148.174031
 31
0.0
  0
ARC
  5
98DF
330
9704
100
AcDbEntity
  8
1
  6
Continuous
100
AcDbCircle
 10
23.49512
 20
149.180906
 30
0.0
 40
0.333392
100
AcDbArc
 50
90.0
 51
270.0
  0
ARC
  5
98E0
330
9704
100
AcDbEntity
  8
1
  6
Continuous
100
AcDbCircle
 10
23.162202
 20
148.5137159999998
 30
0.0
 40
1.717978999999998
100
AcDbArc
 50
242.2499999999998
 51
324.4619999999998
  0
ARC
  5
98E1
330
9704
100
AcDbEntity
  8
1
  6
Continuous
100
AcDbCircle
 10
23.162202
 20
148.5137159999998
 30
0.0
 40
1.717978999999998
100
AcDbArc
 50
215.5379999999999
 51
225.699
  0
ARC
  5
98E2
330
9704
100
AcDbEntity
  8
1
  6
Continuous
100
AcDbCircle
 10
25.043324
 20
151.1797669999999
 30
0.0
 40
0.333392
100
AcDbArc
 50
270.0
 51
349.8959999999998
  0
ARC
  5
98E3
330
9704
100
AcDbEntity
  8
1
  6
Continuous
100
AcDbCircle
 10
21.279726
 20
151.1797669999999
 30
0.0
 40
0.333392
100
AcDbArc
 50
190.1039999999999
 51
270.0
  0
LINE
  5
98E4
330
9704
100
AcDbEntity
  8
1
  6
Continuous
100
AcDbLine
 10
21.279726
 20
150.846849
 30
0.0
 11
23.162202
 21
150.846849
 31
0.0
  0
LINE
  5
98E5
330
9704
100
AcDbEntity
  8
1
  6
Continuous
100
AcDbLine
 10
25.35323599999999
 20
150.1810129999998
 30
0.0
 11
21.17957999999999
 21
150.1810129999998
 31
0.0
  0
LINE
  5
98E6
330
9704
100
AcDbEntity
  8
1
  6
Continuous
100
AcDbLine
 10
24.990544
 20
156.8461409999999
 30
0.0
 11
22.116081
 21
156.8461409999999
 31
0.0
  0
LINE
  5
98E7
330
9704
100
AcDbEntity
  8
1
  6
Continuous
100
AcDbLine
 10
21.932029
 20
156.1803049999998
 30
0.0
 11
24.39102099999999
 21
156.1803049999998
 31
0.0
  0
LINE
  5
98E8
330
9704
100
AcDbEntity
  8
1
  6
Continuous
100
AcDbLine
 10
24.806492
 20
155.513116
 30
0.0
 11
21.517911
 21
155.513116
 31
0.0
  0
LINE
  5
98E9
330
9704
100
AcDbEntity
  8
1
  6
Continuous
100
AcDbLine
 10
23.962017
 20
154.1800899999998
 30
0.0
 11
25.234143
 21
154.1800899999998
 31
0.0
  0
LINE
  5
98EA
330
9704
100
AcDbEntity
  8
1
  6
Continuous
100
AcDbLine
 10
23.162202
 20
152.8470639999999
 30
0.0
 11
23.162202
 21
153.512901
 31
0.0
  0
ARC
  5
98EB
330
9704
100
AcDbEntity
  8
1
  6
Continuous
100
AcDbCircle
 10
23.162202
 20
156.513223
 30
0.0
 40
1.717978999999998
100
AcDbArc
 50
35.5377
 51
76.5374
  0
ARC
  5
98EC
330
9704
100
AcDbEntity
  8
1
  6
Continuous
100
AcDbCircle
 10
23.162202
 20
156.513223
 30
0.0
 40
1.717978999999998
100
AcDbArc
 50
90.0
 51
144.462
  0
ARC
  5
98ED
330
9704
100
AcDbEntity
  8
1
  6
Continuous
100
AcDbCircle
 10
24.39102099999999
 20
155.846034
 30
0.0
 40
0.333392
100
AcDbArc
 50
26.0144
 51
90.0
  0
ARC
  5
98EE
330
9704
100
AcDbEntity
  8
1
  6
Continuous
100
AcDbCircle
 10
17.562141
 20
152.5141459999999
 30
0.0
 40
7.932788
100
AcDbArc
 50
22.94399999999999
 51
26.0144
  0
ARC
  5
98EF
330
9704
100
AcDbEntity
  8
1
  6
Continuous
100
AcDbCircle
 10
24.806492
 20
155.579429
 30
0.0
 40
0.066678
100
AcDbArc
 50
270.0
 51
22.94399999999999
  0
ARC
  5
98F0
330
9704
100
AcDbEntity
  8
1
  6
Continuous
100
AcDbCircle
 10
21.932029
 20
155.846034
 30
0.0
 40
0.333392
100
AcDbArc
 50
90.0
 51
153.986
  0
ARC
  5
98F1
330
9704
100
AcDbEntity
  8
1
  6
Continuous
100
AcDbCircle
 10
25.234143
 20
154.2464029999999
 30
0.0
 40
0.066678
100
AcDbArc
 50
270.0
 51
12.7289
  0
ARC
  5
98F2
330
9704
100
AcDbEntity
  8
1
  6
Continuous
100
AcDbCircle
 10
17.562141
 20
152.5141459999999
 30
0.0
 40
7.932788
100
AcDbArc
 50
12.7289
 51
13.2681
  0
ARC
  5
98F3
330
9704
100
AcDbEntity
  8
1
  6
Continuous
100
AcDbCircle
 10
17.562141
 20
152.5141459999999
 30
0.0
 40
7.932788
100
AcDbArc
 50
13.2681
 51
15.2575
  0
ARC
  5
98F4
330
9704
100
AcDbEntity
  8
1
  6
Continuous
100
AcDbCircle
 10
24.893105
 20
154.513008
 30
0.0
 40
0.333392
100
AcDbArc
 50
15.2575
 51
90.0
  0
ARC
  5
98F5
330
9704
100
AcDbEntity
  8
1
  6
Continuous
100
AcDbCircle
 10
21.42994499999999
 20
154.513008
 30
0.0
 40
0.333392
100
AcDbArc
 50
90.0
 51
164.7419999999999
  0
ARC
  5
98F6
330
9704
100
AcDbEntity
  8
1
  6
Continuous
100
AcDbCircle
 10
28.760909
 20
152.5141459999999
 30
0.0
 40
7.932788
100
AcDbArc
 50
164.7419999999999
 51
164.794
  0
ARC
  5
98F7
330
9704
100
AcDbEntity
  8
1
  6
Continuous
100
AcDbCircle
 10
28.760909
 20
152.5141459999999
 30
0.0
 40
7.932788
100
AcDbArc
 50
164.794
 51
167.2709999999999
  0
ARC
  5
98F8
330
9704
100
AcDbEntity
  8
1
  6
Continuous
100
AcDbCircle
 10
21.08890699999999
 20
154.2464029999999
 30
0.0
 40
0.066678
100
AcDbArc
 50
167.2709999999999
 51
270.0
  0
LINE
  5
98F9
330
9704
100
AcDbEntity
  8
1
  6
Continuous
100
AcDbLine
 10
24.893105
 20
154.84728
 30
0.0
 11
21.42994499999999
 21
154.84728
 31
0.0
  0
LINE
  5
98FA
330
9704
100
AcDbEntity
  8
1
  6
Continuous
100
AcDbLine
 10
21.08890699999999
 20
154.1800899999998
 30
0.0
 11
22.36238599999999
 21
154.1800899999998
 31
0.0
  0
LINE
  5
98FB
330
9704
100
AcDbEntity
  8
1
  6
Continuous
100
AcDbLine
 10
25.431728
 20
153.512901
 30
0.0
 11
20.891321
 21
153.512901
 31
0.0
  0
LINE
  5
98FC
330
9704
100
AcDbEntity
  8
1
  6
Continuous
100
AcDbLine
 10
25.487215
 20
152.8470639999999
 30
0.0
 11
20.835835
 21
152.8470639999999
 31
0.0
  0
ARC
  5
98FD
330
9704
100
AcDbEntity
  8
1
  6
Continuous
100
AcDbCircle
 10
21.517911
 20
155.579429
 30
0.0
 40
0.066678
100
AcDbArc
 50
157.056
 51
270.0
  0
ARC
  5
98FE
330
9704
100
AcDbEntity
  8
1
  6
Continuous
100
AcDbCircle
 10
28.760909
 20
152.5141459999999
 30
0.0
 40
7.932788
100
AcDbArc
 50
153.986
 51
157.056
  0
ARC
  5
98FF
330
9704
100
AcDbEntity
  8
1
  6
Continuous
100
AcDbCircle
 10
28.760909
 20
152.5141459999999
 30
0.0
 40
8.599396
100
AcDbArc
 50
144.462
 51
215.5379999999999
  0
ARC
  5
9900
330
9704
100
AcDbEntity
  8
1
  6
Continuous
100
AcDbCircle
 10
17.562141
 20
152.5141459999999
 30
0.0
 40
8.599396
100
AcDbArc
 50
324.4619999999998
 51
35.5377
  0
LINE
  5
9901
330
9704
100
AcDbEntity
  8
4
  6
CENTER
100
AcDbLine
 10
375.281787
 20
130.313478
 30
0.0
 11
375.281787
 21
126.313478
 31
0.0
  0
ENDSEC
  0
SECTION
  2
OBJECTS
  0
DICTIONARY
  5
96F2
330
0
100
AcDbDictionary
281
     1
  3
ACAD_CIP_PREVIOUS_PRODUCT_INFO
350
9965
  3
ACAD_COLOR
350
9947
  3
ACAD_DETAILVIEWSTYLE
350
9960
  3
ACAD_GROUP
350
96F3
  3
ACAD_LAYOUT
350
96FF
  3
ACAD_MATERIAL
350
9915
  3
ACAD_MLEADERSTYLE
350
995C
  3
ACAD_MLINESTYLE
350
96FC
  3
ACAD_PLOTSETTINGS
350
96FE
  3
ACAD_PLOTSTYLENAME
350
9913
  3
ACAD_SCALELIST
350
994A
  3
ACAD_SECTIONVIEWSTYLE
350
995E
  3
ACAD_TABLESTYLE
350
9948
  3
ACAD_VISUALSTYLE
350
992E
  3
ACDB_RECOMPOSE_DATA
350
9983
  3
AcDbVariableDictionary
350
9976
  3
DWGPROPS
350
9984
  0
DICTIONARY
  5
9966
330
96F6
100
AcDbDictionary
280
     1
281
     1
  3
ADSK_XREC_LAYER_RECONCILED
360
9967
  0
DICTIONARY
  5
9968
330
970C
100
AcDbDictionary
280
     1
281
     1
  3
ADSK_XREC_LAYER_RECONCILED
360
9969
  0
DICTIONARY
  5
996A
330
970D
100
AcDbDictionary
280
     1
281
     1
  3
ADSK_XREC_LAYER_RECONCILED
360
996B
  0
DICTIONARY
  5
996C
330
970E
100
AcDbDictionary
280
     1
281
     1
  3
ADSK_XREC_LAYER_RECONCILED
360
996D
  0
DICTIONARY
  5
996E
330
970F
100
AcDbDictionary
280
     1
281
     1
  3
ADSK_XREC_LAYER_RECONCILED
360
996F
  0
DICTIONARY
  5
9970
330
9710
100
AcDbDictionary
280
     1
281
     1
  3
ADSK_XREC_LAYER_RECONCILED
360
9971
  0
DICTIONARY
  5
9972
330
9711
100
AcDbDictionary
280
     1
281
     1
  3
ADSK_XREC_LAYER_RECONCILED
360
9973
  0
DICTIONARY
  5
9974
330
9712
100
AcDbDictionary
280
     1
281
     1
  3
ADSK_XREC_LAYER_RECONCILED
360
9975
  0
DICTIONARY
  5
990E
330
9704
100
AcDbDictionary
281
     1
  3
ACAD_LAYOUTSELFREF
350
990F
  0
DICTIONARY
  5
990C
330
9700
100
AcDbDictionary
281
     1
  3
ACAD_LAYOUTSELFREF
350
990D
  0
XRECORD
  5
9965
102
{ACAD_REACTORS
330
96F2
102
}
330
96F2
100
AcDbXrecord
280
     1
300
ACDLT
300
2014
300
ACDLT_F_S
  0
DICTIONARY
  5
9947
102
{ACAD_REACTORS
330
96F2
102
}
330
96F2
100
AcDbDictionary
281
     1
  0
DICTIONARY
  5
9960
102
{ACAD_REACTORS
330
96F2
102
}
330
96F2
100
AcDbDictionary
281
     1
  3
Imperial24
350
9961
  0
DICTIONARY
  5
96F3
102
{ACAD_REACTORS
330
96F2
102
}
330
96F2
100
AcDbDictionary
281
     1
  0
DICTIONARY
  5
96FF
102
{ACAD_REACTORS
330
96F2
102
}
330
96F2
100
AcDbDictionary
281
     1
  3
Model
350
9962
  3
レイアウト1
350
9963
  0
DICTIONARY
  5
9915
102
{ACAD_REACTORS
330
96F2
102
}
330
96F2
100
AcDbDictionary
281
     1
  3
ByBlock
350
991E
  3
ByLayer
350
9916
  3
Global
350
9926
  0
DICTIONARY
  5
995C
102
{ACAD_REACTORS
330
96F2
102
}
330
96F2
100
AcDbDictionary
281
     1
  3
Standard
350
995D
  0
DICTIONARY
  5
96FC
102
{ACAD_REACTORS
330
96F2
102
}
330
96F2
100
AcDbDictionary
281
     1
  3
STANDARD
350
96FD
  0
DICTIONARY
  5
96FE
102
{ACAD_REACTORS
330
96F2
102
}
330
96F2
100
AcDbDictionary
281
     1
  0
ACDBDICTIONARYWDFLT
  5
9913
102
{ACAD_REACTORS
330
96F2
102
}
330
96F2
100
AcDbDictionary
281
     1
  3
Normal
350
9914
100
AcDbDictionaryWithDefault
340
9914
  0
DICTIONARY
  5
994A
102
{ACAD_REACTORS
330
96F2
102
}
330
96F2
100
AcDbDictionary
281
     1
  3
A0
350
994B
  3
A1
350
994C
  3
A2
350
994D
  3
A3
350
994E
  3
A4
350
994F
  3
A5
350
9950
  3
A6
350
9951
  3
A7
350
9952
  3
A8
350
9953
  3
A9
350
9954
  3
B0
350
9955
  3
B1
350
9956
  3
B2
350
9957
  3
B3
350
9958
  3
B4
350
9959
  3
B5
350
995A
  3
B6
350
995B
  0
DICTIONARY
  5
995E
102
{ACAD_REACTORS
330
96F2
102
}
330
96F2
100
AcDbDictionary
281
     1
  3
Imperial24
350
995F
  0
DICTIONARY
  5
9948
102
{ACAD_REACTORS
330
96F2
102
}
330
96F2
100
AcDbDictionary
281
     1
  3
Standard
350
9949
  0
DICTIONARY
  5
992E
102
{ACAD_REACTORS
330
96F2
102
}
330
96F2
100
AcDbDictionary
281
     1
  3
2dWireframe
350
9934
  3
Basic
350
9933
  3
Brighten
350
993A
  3
ColorChange
350
993E
  3
Conceptual
350
9937
  3
Dim
350
9939
  3
EdgeColorOff
350
9946
  3
Facepattern
350
993D
  3
Flat
350
992F
  3
FlatWithEdges
350
9930
  3
Gouraud
350
9931
  3
GouraudWithEdges
350
9932
  3
Hidden
350
9936
  3
JitterOff
350
9944
  3
Linepattern
350
993C
  3
OverhangOff
350
9945
  3
Realistic
350
9938
  3
Shaded
350
9943
  3
Shaded with edges
350
9942
  3
Shades of Gray
350
993F
  3
Sketchy
350
9940
  3
Thicken
350
993B
  3
Wireframe
350
9935
  3
X-Ray
350
9941
  0
XRECORD
  5
9983
102
{ACAD_REACTORS
330
96F2
102
}
330
96F2
100
AcDbXrecord
280
     1
 90
        1
330
9949
  0
DICTIONARY
  5
9976
102
{ACAD_REACTORS
330
96F2
102
}
330
96F2
100
AcDbDictionary
281
     1
  3
CANNOSCALE
350
997B
  3
CMLEADERSTYLE
350
9978
  3
CTABLESTYLE
350
9977
  3
CVIEWDETAILSTYLE
350
9979
  3
CVIEWSECTIONSTYLE
350
997A
  3
DIMASSOC
350
997E
  3
INDEXCTL
350
997D
  3
SORTENTS
350
997C
  3
XCLIPFRAME
350
997F
  0
XRECORD
  5
9984
102
{ACAD_REACTORS
330
96F2
102
}
330
96F2
100
AcDbXrecord
280
     1
  1
DWGPROPS COOKIE
  2

  3

  4

  6

  7

  8
Yoshitsune
  9

300
=
301
=
302
=
303
=
304
=
305
=
306
=
307
=
308
=
309
=
 40
0.0000133796296296
 41
2451066.671271528
 42
2457192.60009132
  1

 90
        0
  0
XRECORD
  5
9967
102
{ACAD_REACTORS
330
9966
102
}
330
9966
100
AcDbXrecord
280
     1
290
     1
  0
XRECORD
  5
9969
102
{ACAD_REACTORS
330
9968
102
}
330
9968
100
AcDbXrecord
280
     1
290
     1
  0
XRECORD
  5
996B
102
{ACAD_REACTORS
330
996A
102
}
330
996A
100
AcDbXrecord
280
     1
290
     1
  0
XRECORD
  5
996D
102
{ACAD_REACTORS
330
996C
102
}
330
996C
100
AcDbXrecord
280
     1
290
     1
  0
XRECORD
  5
996F
102
{ACAD_REACTORS
330
996E
102
}
330
996E
100
AcDbXrecord
280
     1
290
     1
  0
XRECORD
  5
9971
102
{ACAD_REACTORS
330
9970
102
}
330
9970
100
AcDbXrecord
280
     1
290
     1
  0
XRECORD
  5
9973
102
{ACAD_REACTORS
330
9972
102
}
330
9972
100
AcDbXrecord
280
     1
290
     1
  0
XRECORD
  5
9975
102
{ACAD_REACTORS
330
9974
102
}
330
9974
100
AcDbXrecord
280
     1
290
     1
  0
XRECORD
  5
990F
102
{ACAD_REACTORS
330
990E
102
}
330
990E
100
AcDbXrecord
280
     1
340
9704
  0
XRECORD
  5
990D
102
{ACAD_REACTORS
330
990C
102
}
330
990C
100
AcDbXrecord
280
     1
340
9700
  0
ACDBDETAILVIEWSTYLE
  5
9961
102
{ACAD_XDICTIONARY
360
99BC
102
}
102
{ACAD_REACTORS
330
9960
102
}
330
9960
100
AcDbModelDocViewStyle
 70
     0
  3
Imperial24
290
     0
100
AcDbDetailViewStyle
 70
     0
 71
     0
 90
        3
 71
     1
340
96F7
 40
0.24
340
0
 40
0.24
300

 40
0.36
280
     3
 71
     2
340
96FB
 90
       25
 71
     3
340
96F7
 40
0.24
 90
        1
 40
0.75
 90
        1
300
%<\AcVar ViewType \f "%tc1">% %<\AcVar ViewDetailId>%\PSCALE %<\AcVar ViewScale \f "%sn">%
 71
     4
340
96FB
 90
       25
340
96FB
 90
       25
280
     0
  0
LAYOUT
  5
9962
102
{ACAD_XDICTIONARY
360
99BE
102
}
102
{ACAD_REACTORS
330
96FF
102
}
330
96FF
100
AcDbPlotSettings
  1

  2
Canon LBP9100C
  4

  6

 40
0.0
 41
0.0
 42
0.0
 43
0.0
 44
0.0
 45
0.0
 46
0.0
 47
0.0
 48
0.0
 49
0.0
140
0.0
141
0.0
142
1.0
143
1.0
 70
  1712
 72
     0
 73
     0
 74
     0
  7

 75
     0
147
1.0
148
0.0
149
0.0
100
AcDbLayout
  1
Model
 70
     1
 71
     0
 10
0.0
 20
0.0
 11
12.0
 21
9.0
 12
0.0
 22
0.0
 32
0.0
 14
0.0
 24
0.0
 34
0.0
 15
0.0
 25
0.0
 35
0.0
146
0.0
 13
0.0
 23
0.0
 33
0.0
 16
1.0
 26
0.0
 36
0.0
 17
0.0
 27
1.0
 37
0.0
 76
     0
330
9704
331
990B
  0
LAYOUT
  5
9963
102
{ACAD_XDICTIONARY
360
99C0
102
}
102
{ACAD_REACTORS
330
96FF
102
}
330
96FF
100
AcDbPlotSettings
  1

  2
Canon LBP9100C
  4

  6

 40
0.0
 41
0.0
 42
0.0
 43
0.0
 44
0.0
 45
0.0
 46
0.0
 47
0.0
 48
0.0
 49
0.0
140
0.0
141
0.0
142
1.0
143
1.0
 70
   688
 72
     0
 73
     0
 74
     5
  7

 75
    16
147
1.0
148
0.0
149
0.0
100
AcDbLayout
  1
レイアウト1
 70
     0
 71
     1
 10
0.0
 20
0.0
 11
420.0
 21
297.0
 12
0.0
 22
0.0
 32
0.0
 14
1.000000000000000E+20
 24
1.000000000000000E+20
 34
1.000000000000000E+20
 15
-1.000000000000000E+20
 25
-1.000000000000000E+20
 35
-1.000000000000000E+20
146
0.0
 13
0.0
 23
0.0
 33
0.0
 16
1.0
 26
0.0
 36
0.0
 17
0.0
 27
1.0
 37
0.0
 76
     0
330
9700
  0
MATERIAL
  5
991E
102
{ACAD_XDICTIONARY
360
991F
102
}
102
{ACAD_REACTORS
330
9915
102
}
330
9915
100
AcDbMaterial
  1
ByBlock
 72
     0
 43
0.0208333333333333
 43
0.0
 43
0.0
 43
0.0
 43
0.0
 43
0.0208333333333333
 43
0.0
 43
0.0
 43
0.0
 43
0.0
 43
1.0
 43
0.0
 43
0.0
 43
0.0
 43
0.0
 43
1.0
 77
     0
 47
0.0208333333333333
 47
0.0
 47
0.0
 47
0.0
 47
0.0
 47
0.0208333333333333
 47
0.0
 47
0.0
 47
0.0
 47
0.0
 47
1.0
 47
0.0
 47
0.0
 47
0.0
 47
0.0
 47
1.0
171
     0
 49
0.0208333333333333
 49
0.0
 49
0.0
 49
0.0
 49
0.0
 49
0.0208333333333333
 49
0.0
 49
0.0
 49
0.0
 49
0.0
 49
1.0
 49
0.0
 49
0.0
 49
0.0
 49
0.0
 49
1.0
175
     0
142
0.0208333333333333
142
0.0
142
0.0
142
0.0
142
0.0
142
0.0208333333333333
142
0.0
142
0.0
142
0.0
142
0.0
142
1.0
142
0.0
142
0.0
142
0.0
142
0.0
142
1.0
179
     0
144
0.0208333333333333
144
0.0
144
0.0
144
0.0
144
0.0
144
0.0208333333333333
144
0.0
144
0.0
144
0.0
144
0.0
144
1.0
144
0.0
144
0.0
144
0.0
144
0.0
144
1.0
147
0.0208333333333333
147
0.0
147
0.0
147
0.0
147
0.0
147
0.0208333333333333
147
0.0
147
0.0
147
0.0
147
0.0
147
1.0
147
0.0
147
0.0
147
0.0
147
0.0
147
1.0
  0
MATERIAL
  5
9916
102
{ACAD_XDICTIONARY
360
9917
102
}
102
{ACAD_REACTORS
330
9915
102
}
330
9915
100
AcDbMaterial
  1
ByLayer
 72
     0
 43
0.0208333333333333
 43
0.0
 43
0.0
 43
0.0
 43
0.0
 43
0.0208333333333333
 43
0.0
 43
0.0
 43
0.0
 43
0.0
 43
1.0
 43
0.0
 43
0.0
 43
0.0
 43
0.0
 43
1.0
 77
     0
 47
0.0208333333333333
 47
0.0
 47
0.0
 47
0.0
 47
0.0
 47
0.0208333333333333
 47
0.0
 47
0.0
 47
0.0
 47
0.0
 47
1.0
 47
0.0
 47
0.0
 47
0.0
 47
0.0
 47
1.0
171
     0
 49
0.0208333333333333
 49
0.0
 49
0.0
 49
0.0
 49
0.0
 49
0.0208333333333333
 49
0.0
 49
0.0
 49
0.0
 49
0.0
 49
1.0
 49
0.0
 49
0.0
 49
0.0
 49
0.0
 49
1.0
175
     0
142
0.0208333333333333
142
0.0
142
0.0
142
0.0
142
0.0
142
0.0208333333333333
142
0.0
142
0.0
142
0.0
142
0.0
142
1.0
142
0.0
142
0.0
142
0.0
142
0.0
142
1.0
179
     0
144
0.0208333333333333
144
0.0
144
0.0
144
0.0
144
0.0
144
0.0208333333333333
144
0.0
144
0.0
144
0.0
144
0.0
144
1.0
144
0.0
144
0.0
144
0.0
144
0.0
144
1.0
147
0.0208333333333333
147
0.0
147
0.0
147
0.0
147
0.0
147
0.0208333333333333
147
0.0
147
0.0
147
0.0
147
0.0
147
1.0
147
0.0
147
0.0
147
0.0
147
0.0
147
1.0
  0
MATERIAL
  5
9926
102
{ACAD_XDICTIONARY
360
9927
102
}
102
{ACAD_REACTORS
330
9915
102
}
330
9915
100
AcDbMaterial
  1
Global
 72
     0
 43
0.0208333333333333
 43
0.0
 43
0.0
 43
0.0
 43
0.0
 43
0.0208333333333333
 43
0.0
 43
0.0
 43
0.0
 43
0.0
 43
1.0
 43
0.0
 43
0.0
 43
0.0
 43
0.0
 43
1.0
 77
     0
 47
0.0208333333333333
 47
0.0
 47
0.0
 47
0.0
 47
0.0
 47
0.0208333333333333
 47
0.0
 47
0.0
 47
0.0
 47
0.0
 47
1.0
 47
0.0
 47
0.0
 47
0.0
 47
0.0
 47
1.0
171
     0
 49
0.0208333333333333
 49
0.0
 49
0.0
 49
0.0
 49
0.0
 49
0.0208333333333333
 49
0.0
 49
0.0
 49
0.0
 49
0.0
 49
1.0
 49
0.0
 49
0.0
 49
0.0
 49
0.0
 49
1.0
175
     0
142
0.0208333333333333
142
0.0
142
0.0
142
0.0
142
0.0
142
0.0208333333333333
142
0.0
142
0.0
142
0.0
142
0.0
142
1.0
142
0.0
142
0.0
142
0.0
142
0.0
142
1.0
179
     0
144
0.0208333333333333
144
0.0
144
0.0
144
0.0
144
0.0
144
0.0208333333333333
144
0.0
144
0.0
144
0.0
144
0.0
144
1.0
144
0.0
144
0.0
144
0.0
144
0.0
144
1.0
147
0.0208333333333333
147
0.0
147
0.0
147
0.0
147
0.0
147
0.0208333333333333
147
0.0
147
0.0
147
0.0
147
0.0
147
1.0
147
0.0
147
0.0
147
0.0
147
0.0
147
1.0
  0
MLEADERSTYLE
  5
995D
102
{ACAD_REACTORS
330
995C
102
}
330
995C
100
AcDbMLeaderStyle
170
     2
171
     1
172
     0
 90
        2
 40
0.0
 41
0.0
173
     1
 91
-1056964608
340
96F9
 92
       -2
290
     1
 42
0.09
291
     1
 43
0.36
  3
Standard
 44
0.18
300

342
96F7
174
     1
178
     6
175
     1
176
     0
 93
-1056964608
 45
0.18
292
     0
297
     0
 46
0.18
 94
-1056964608
 47
1.0
 49
1.0
140
1.0
293
     1
141
0.0
294
     1
177
     0
142
1.0
295
     0
296
     0
143
0.125
1001
ACAD_MLEADERVER
1070
     2
  0
MLINESTYLE
  5
96FD
102
{ACAD_REACTORS
330
96FC
102
}
330
96FC
100
AcDbMlineStyle
  2
STANDARD
 70
     0
  3

 62
   256
 51
90.0
 52
90.0
 71
     2
 49
0.5
 62
   256
  6
BYLAYER
 49
-0.5
 62
   256
  6
BYLAYER
  0
ACDBPLACEHOLDER
  5
9914
102
{ACAD_REACTORS
330
9913
102
}
330
9913
  0
SCALE
  5
994B
102
{ACAD_REACTORS
330
994A
102
}
330
994A
100
AcDbScale
 70
     0
300
1:1
140
1.0
141
1.0
290
     1
  0
SCALE
  5
994C
102
{ACAD_REACTORS
330
994A
102
}
330
994A
100
AcDbScale
 70
     0
300
1/128" = 1'-0"
140
0.0078125
141
12.0
290
     0
  0
SCALE
  5
994D
102
{ACAD_REACTORS
330
994A
102
}
330
994A
100
AcDbScale
 70
     0
300
1/64" = 1'-0"
140
0.015625
141
12.0
290
     0
  0
SCALE
  5
994E
102
{ACAD_REACTORS
330
994A
102
}
330
994A
100
AcDbScale
 70
     0
300
1/32" = 1'-0"
140
0.03125
141
12.0
290
     0
  0
SCALE
  5
994F
102
{ACAD_REACTORS
330
994A
102
}
330
994A
100
AcDbScale
 70
     0
300
1/16" = 1'-0"
140
0.0625
141
12.0
290
     0
  0
SCALE
  5
9950
102
{ACAD_REACTORS
330
994A
102
}
330
994A
100
AcDbScale
 70
     0
300
3/32" = 1'-0"
140
0.09375
141
12.0
290
     0
  0
SCALE
  5
9951
102
{ACAD_REACTORS
330
994A
102
}
330
994A
100
AcDbScale
 70
     0
300
1/8" = 1'-0"
140
0.125
141
12.0
290
     0
  0
SCALE
  5
9952
102
{ACAD_REACTORS
330
994A
102
}
330
994A
100
AcDbScale
 70
     0
300
3/16" = 1'-0"
140
0.1875
141
12.0
290
     0
  0
SCALE
  5
9953
102
{ACAD_REACTORS
330
994A
102
}
330
994A
100
AcDbScale
 70
     0
300
1/4" = 1'-0"
140
0.25
141
12.0
290
     0
  0
SCALE
  5
9954
102
{ACAD_REACTORS
330
994A
102
}
330
994A
100
AcDbScale
 70
     0
300
3/8" = 1'-0"
140
0.375
141
12.0
290
     0
  0
SCALE
  5
9955
102
{ACAD_REACTORS
330
994A
102
}
330
994A
100
AcDbScale
 70
     0
300
1/2" = 1'-0"
140
0.5
141
12.0
290
     0
  0
SCALE
  5
9956
102
{ACAD_REACTORS
330
994A
102
}
330
994A
100
AcDbScale
 70
     0
300
3/4" = 1'-0"
140
0.75
141
12.0
290
     0
  0
SCALE
  5
9957
102
{ACAD_REACTORS
330
994A
102
}
330
994A
100
AcDbScale
 70
     0
300
1" = 1'-0"
140
1.0
141
12.0
290
     0
  0
SCALE
  5
9958
102
{ACAD_REACTORS
330
994A
102
}
330
994A
100
AcDbScale
 70
     0
300
1-1/2" = 1'-0"
140
1.5
141
12.0
290
     0
  0
SCALE
  5
9959
102
{ACAD_REACTORS
330
994A
102
}
330
994A
100
AcDbScale
 70
     0
300
3" = 1'-0"
140
3.0
141
12.0
290
     0
  0
SCALE
  5
995A
102
{ACAD_REACTORS
330
994A
102
}
330
994A
100
AcDbScale
 70
     0
300
6" = 1'-0"
140
6.0
141
12.0
290
     0
  0
SCALE
  5
995B
102
{ACAD_REACTORS
330
994A
102
}
330
994A
100
AcDbScale
 70
     0
300
1'-0" = 1'-0"
140
12.0
141
12.0
290
     0
  0
ACDBSECTIONVIEWSTYLE
  5
995F
102
{ACAD_XDICTIONARY
360
99BA
102
}
102
{ACAD_REACTORS
330
995E
102
}
330
995E
100
AcDbModelDocViewStyle
 70
     0
  3
Imperial24
290
     0
100
AcDbSectionViewStyle
 70
     0
 71
     0
 90
       78
 71
     1
340
96F7
 40
0.24
340
0
340
0
 40
0.24
300
I, O, Q, S, X, Z
 40
0.48
 90
        3
 40
0.18
 90
        1
 71
     2
340
96FB
 90
       25
340
96FB
 90
       50
 40
0.24
 40
0.0
 40
0.24
 71
     3
340
96F7
 40
0.24
 90
        1
 40
0.75
 90
        1
300
%<\AcVar ViewType \f "%tc1">% %<\AcVar ViewSectionStartId>%-%<\AcVar ViewSectionEndId>%\PSCALE %<\AcVar ViewScale \f "%sn">%
 71
     4
300
ANSI31
 40
1.0
 90
        0
290
     0
290
     0
 90
        6
 40
0.0
 40
1.570796326794896
 40
0.2617993877991494
 40
1.308996938995747
 40
-0.2617993877991494
 40
1.832595714594046
  0
TABLESTYLE
  5
9949
102
{ACAD_XDICTIONARY
360
9981
102
}
102
{ACAD_REACTORS
330
9948
102
}
330
9948
100
AcDbTableStyle
  3
Standard
 70
     0
 71
     0
 40
0.06
 41
0.06
280
     0
281
     0
  7
STANDARD
140
0.18
170
     2
 62
     0
 63
     7
283
     0
274
    -2
284
     1
 64
     0
275
    -2
285
     1
 65
     0
276
    -2
286
     1
 66
     0
277
    -2
287
     1
 67
     0
278
    -2
288
     1
 68
     0
279
    -2
289
     1
 69
     0
  7
STANDARD
140
0.25
170
     5
 62
     0
 63
     7
283
     0
274
    -2
284
     1
 64
     0
275
    -2
285
     1
 65
     0
276
    -2
286
     1
 66
     0
277
    -2
287
     1
 67
     0
278
    -2
288
     1
 68
     0
279
    -2
289
     1
 69
     0
  7
STANDARD
140
0.18
170
     5
 62
     0
 63
     7
283
     0
274
    -2
284
     1
 64
     0
275
    -2
285
     1
 65
     0
276
    -2
286
     1
 66
     0
277
    -2
287
     1
 67
     0
278
    -2
288
     1
 68
     0
279
    -2
289
     1
 69
     0
  0
VISUALSTYLE
  5
9934
102
{ACAD_XDICTIONARY
360
9992
102
}
102
{ACAD_REACTORS
330
992E
102
}
330
992E
100
AcDbVisualStyle
  2
2dWireframe
 70
     4
 71
     0
 72
     2
 73
     0
 90
        0
 40
-0.6
 41
-30.0
 62
     5
 63
     7
 74
     1
 91
        4
 64
     7
 65
   257
 75
     1
175
     1
 42
1.0
 92
        0
 66
   257
 43
1.0
 76
     1
 77
     6
 78
     2
 67
     7
 79
     5
170
     0
171
     0
290
     0
174
     0
 93
        1
 44
0.0
173
     0
291
     0
 45
0.0
1001
ACAD
1000
AcDbSavedByObjectVersion
1070
     0
  0
VISUALSTYLE
  5
9933
102
{ACAD_XDICTIONARY
360
9990
102
}
102
{ACAD_REACTORS
330
992E
102
}
330
992E
100
AcDbVisualStyle
  2
Basic
 70
     7
 71
     1
 72
     0
 73
     1
 90
        0
 40
-0.6
 41
-30.0
 62
     5
 63
     7
 74
     0
 91
        4
 64
     7
 65
   257
 75
     1
175
     1
 42
1.0
 92
        8
 66
     7
 43
1.0
 76
     1
 77
     6
 78
     2
 67
     7
 79
     5
170
     0
171
     0
290
     0
174
     0
 93
        1
 44
0.0
173
     0
291
     1
 45
0.0
1001
ACAD
1000
AcDbSavedByObjectVersion
1070
     0
  0
VISUALSTYLE
  5
993A
102
{ACAD_XDICTIONARY
360
999E
102
}
102
{ACAD_REACTORS
330
992E
102
}
330
992E
100
AcDbVisualStyle
  2
Brighten
 70
    12
 71
     2
 72
     2
 73
     0
 90
        0
 40
-0.6
 41
-30.0
 62
     5
 63
     7
 74
     1
 91
        4
 64
     7
 65
   257
 75
     1
175
     1
 42
1.0
 92
        8
 66
     7
 43
1.0
 76
     1
 77
     6
 78
     2
 67
     7
 79
     5
170
     0
171
     0
290
     0
174
     0
 93
        1
 44
50.0
173
     0
291
     1
 45
0.0
1001
ACAD
1000
AcDbSavedByObjectVersion
1070
     0
  0
VISUALSTYLE
  5
993E
102
{ACAD_XDICTIONARY
360
99A6
102
}
102
{ACAD_REACTORS
330
992E
102
}
330
992E
100
AcDbVisualStyle
  2
ColorChange
 70
    16
 71
     2
 72
     2
 73
     3
 90
        0
 40
-0.6
 41
-30.0
 62
     5
 63
     8
 74
     1
 91
        4
 64
     7
 65
   257
 75
     1
175
     1
 42
1.0
 92
        8
 66
     8
 43
1.0
 76
     1
 77
     6
 78
     2
 67
     7
 79
     5
170
     0
171
     0
290
     0
174
     0
 93
        1
 44
0.0
173
     0
291
     1
 45
0.0
1001
ACAD
1000
AcDbSavedByObjectVersion
1070
     0
  0
VISUALSTYLE
  5
9937
102
{ACAD_XDICTIONARY
360
9998
102
}
102
{ACAD_REACTORS
330
992E
102
}
330
992E
100
AcDbVisualStyle
  2
Conceptual
 70
     9
 71
     3
 72
     2
 73
     0
 90
        0
 40
-0.6
 41
-30.0
 62
     5
 63
     7
 74
     2
 91
        2
 64
     7
 65
   257
 75
     1
175
     1
 42
179.0
 92
        8
 66
     7
 43
1.0
 76
     1
 77
     6
 78
     2
 67
     7
 79
     3
170
     0
171
     0
290
     0
174
     0
 93
        1
 44
0.0
173
     0
291
     0
 45
0.0
1001
ACAD
1000
AcDbSavedByObjectVersion
1070
     0
  0
VISUALSTYLE
  5
9939
102
{ACAD_XDICTIONARY
360
999C
102
}
102
{ACAD_REACTORS
330
992E
102
}
330
992E
100
AcDbVisualStyle
  2
Dim
 70
    11
 71
     2
 72
     2
 73
     0
 90
        0
 40
-0.6
 41
-30.0
 62
     5
 63
     7
 74
     1
 91
        4
 64
     7
 65
   257
 75
     1
175
     1
 42
1.0
 92
        8
 66
     7
 43
1.0
 76
     1
 77
     6
 78
     2
 67
     7
 79
     5
170
     0
171
     0
290
     0
174
     0
 93
        1
 44
-50.0
173
     0
291
     1
 45
0.0
1001
ACAD
1000
AcDbSavedByObjectVersion
1070
     0
  0
VISUALSTYLE
  5
9946
102
{ACAD_XDICTIONARY
360
99B6
102
}
102
{ACAD_REACTORS
330
992E
102
}
330
992E
100
AcDbVisualStyle
  2
EdgeColorOff
 70
    22
 71
     2
 72
     2
 73
     0
 90
        0
 40
-0.6
 41
-30.0
 62
     5
 63
     7
 74
     1
 91
        4
 64
     7
 65
   257
 75
     1
175
     1
 42
1.0
 92
        8
 66
     7
 43
1.0
 76
     1
 77
     6
 78
     2
 67
     7
 79
     5
170
     0
171
     0
290
     0
174
     0
 93
        1
 44
0.0
173
     0
291
     1
 45
0.0
1001
ACAD
1000
AcDbSavedByObjectVersion
1070
     0
  0
VISUALSTYLE
  5
993D
102
{ACAD_XDICTIONARY
360
99A4
102
}
102
{ACAD_REACTORS
330
992E
102
}
330
992E
100
AcDbVisualStyle
  2
Facepattern
 70
    15
 71
     2
 72
     2
 73
     0
 90
        0
 40
-0.6
 41
-30.0
 62
     5
 63
     7
 74
     1
 91
        4
 64
     7
 65
   257
 75
     1
175
     1
 42
1.0
 92
        8
 66
     7
 43
1.0
 76
     1
 77
     6
 78
     2
 67
     7
 79
     5
170
     0
171
     0
290
     0
174
     0
 93
        1
 44
0.0
173
     0
291
     1
 45
0.0
1001
ACAD
1000
AcDbSavedByObjectVersion
1070
     0
  0
VISUALSTYLE
  5
992F
102
{ACAD_XDICTIONARY
360
9988
102
}
102
{ACAD_REACTORS
330
992E
102
}
330
992E
100
AcDbVisualStyle
  2
Flat
 70
     0
 71
     2
 72
     1
 73
     1
 90
        2
 40
-0.6
 41
30.0
 62
     5
 63
     7
 74
     0
 91
        0
 64
     7
 65
   257
 75
     1
175
     1
 42
1.0
 92
        8
 66
     7
 43
1.0
 76
     1
 77
     6
 78
     2
 67
     7
 79
     5
170
     0
171
     0
290
     0
174
     0
 93
       13
 44
0.0
173
     0
291
     1
 45
0.0
1001
ACAD
1000
AcDbSavedByObjectVersion
1070
     0
  0
VISUALSTYLE
  5
9930
102
{ACAD_XDICTIONARY
360
998A
102
}
102
{ACAD_REACTORS
330
992E
102
}
330
992E
100
AcDbVisualStyle
  2
FlatWithEdges
 70
     1
 71
     2
 72
     1
 73
     1
 90
        2
 40
-0.6
 41
30.0
 62
     5
 63
     7
 74
     1
 91
        0
 64
     7
 65
   257
 75
     1
175
     1
 42
1.0
 92
        0
 66
   257
 43
1.0
 76
     1
 77
     6
 78
     2
 67
     7
 79
     5
170
     0
171
     0
290
     0
174
     0
 93
       13
 44
0.0
173
     0
291
     1
 45
0.0
1001
ACAD
1000
AcDbSavedByObjectVersion
1070
     0
  0
VISUALSTYLE
  5
9931
102
{ACAD_XDICTIONARY
360
998C
102
}
102
{ACAD_REACTORS
330
992E
102
}
330
992E
100
AcDbVisualStyle
  2
Gouraud
 70
     2
 71
     2
 72
     2
 73
     1
 90
        2
 40
-0.6
 41
30.0
 62
     5
 63
     7
 74
     0
 91
        0
 64
     7
 65
   257
 75
     1
175
     1
 42
1.0
 92
        0
 66
     7
 43
1.0
 76
     1
 77
     6
 78
     2
 67
     7
 79
     5
170
     0
171
     0
290
     0
174
     0
 93
       13
 44
0.0
173
     0
291
     1
 45
0.0
1001
ACAD
1000
AcDbSavedByObjectVersion
1070
     0
  0
VISUALSTYLE
  5
9932
102
{ACAD_XDICTIONARY
360
998E
102
}
102
{ACAD_REACTORS
330
992E
102
}
330
992E
100
AcDbVisualStyle
  2
GouraudWithEdges
 70
     3
 71
     2
 72
     2
 73
     1
 90
        2
 40
-0.6
 41
30.0
 62
     5
 63
     7
 74
     1
 91
        0
 64
     7
 65
   257
 75
     1
175
     1
 42
1.0
 92
        0
 66
   257
 43
1.0
 76
     1
 77
     6
 78
     2
 67
     7
 79
     5
170
     0
171
     0
290
     0
174
     0
 93
       13
 44
0.0
173
     0
291
     1
 45
0.0
1001
ACAD
1000
AcDbSavedByObjectVersion
1070
     0
  0
VISUALSTYLE
  5
9936
102
{ACAD_XDICTIONARY
360
9996
102
}
102
{ACAD_REACTORS
330
992E
102
}
330
992E
100
AcDbVisualStyle
  2
Hidden
 70
     6
 71
     1
 72
     2
 73
     2
 90
        0
 40
-0.6
 41
-30.0
 62
     5
 63
     7
 74
     2
 91
        2
 64
     7
 65
   257
 75
     2
175
     1
 42
40.0
 92
        0
 66
   257
 43
1.0
 76
     1
 77
     6
 78
     2
 67
     7
 79
     3
170
     0
171
     0
290
     0
174
     0
 93
        1
 44
0.0
173
     0
291
     0
 45
0.0
1001
ACAD
1000
AcDbSavedByObjectVersion
1070
     0
  0
VISUALSTYLE
  5
9944
102
{ACAD_XDICTIONARY
360
99B2
102
}
102
{ACAD_REACTORS
330
992E
102
}
330
992E
100
AcDbVisualStyle
  2
JitterOff
 70
    20
 71
     2
 72
     2
 73
     0
 90
        0
 40
-0.6
 41
-30.0
 62
     5
 63
     7
 74
     1
 91
        4
 64
     7
 65
   257
 75
     1
175
     1
 42
1.0
 92
       10
 66
     7
 43
1.0
 76
     1
 77
     6
 78
     2
 67
     7
 79
     5
170
     0
171
     0
290
     0
174
     0
 93
        1
 44
0.0
173
     0
291
     1
 45
0.0
1001
ACAD
1000
AcDbSavedByObjectVersion
1070
     0
  0
VISUALSTYLE
  5
993C
102
{ACAD_XDICTIONARY
360
99A2
102
}
102
{ACAD_REACTORS
330
992E
102
}
330
992E
100
AcDbVisualStyle
  2
Linepattern
 70
    14
 71
     2
 72
     2
 73
     0
 90
        0
 40
-0.6
 41
-30.0
 62
     5
 63
     7
 74
     1
 91
        4
 64
     7
 65
   257
 75
     7
175
     7
 42
1.0
 92
        8
 66
     7
 43
1.0
 76
     1
 77
     6
 78
     2
 67
     7
 79
     5
170
     0
171
     0
290
     0
174
     0
 93
        1
 44
0.0
173
     0
291
     1
 45
0.0
1001
ACAD
1000
AcDbSavedByObjectVersion
1070
     0
  0
VISUALSTYLE
  5
9945
102
{ACAD_XDICTIONARY
360
99B4
102
}
102
{ACAD_REACTORS
330
992E
102
}
330
992E
100
AcDbVisualStyle
  2
OverhangOff
 70
    21
 71
     2
 72
     2
 73
     0
 90
        0
 40
-0.6
 41
-30.0
 62
     5
 63
     7
 74
     1
 91
        4
 64
     7
 65
   257
 75
     1
175
     1
 42
1.0
 92
        9
 66
     7
 43
1.0
 76
     1
 77
     6
 78
     2
 67
     7
 79
     5
170
     0
171
     0
290
     0
174
     0
 93
        1
 44
0.0
173
     0
291
     1
 45
0.0
1001
ACAD
1000
AcDbSavedByObjectVersion
1070
     0
  0
VISUALSTYLE
  5
9938
102
{ACAD_XDICTIONARY
360
999A
102
}
102
{ACAD_REACTORS
330
992E
102
}
330
992E
100
AcDbVisualStyle
  2
Realistic
 70
     8
 71
     2
 72
     3
 73
     0
 90
        2
 40
-0.6
 41
30.0
 62
     5
 63
     7
 74
     0
 91
        0
 64
     7
 65
   257
 75
     1
175
     1
 42
1.0
 92
        8
 66
   257
 43
1.0
 76
     1
 77
     6
 78
     2
 67
     7
 79
     3
170
     0
171
     0
290
     0
174
     0
 93
       13
 44
0.0
173
     0
291
     0
 45
0.0
1001
ACAD
1000
AcDbSavedByObjectVersion
1070
     0
  0
VISUALSTYLE
  5
9943
102
{ACAD_XDICTIONARY
360
99B0
102
}
102
{ACAD_REACTORS
330
992E
102
}
330
992E
100
AcDbVisualStyle
  2
Shaded
 70
    27
 71
     2
 72
     2
 73
     1
 90
        2
 40
-0.6
 41
30.0
 62
     5
 63
     7
 74
     0
 91
        4
 64
     7
 65
   257
 75
     1
175
     1
 42
1.0
 92
        8
 66
   257
 43
1.0
 76
     1
 77
     6
 78
     2
 67
     8
 79
     3
170
     0
171
     0
290
     0
174
     0
 93
        5
 44
0.0
173
     0
291
     0
 45
0.0
1001
ACAD
1000
AcDbSavedByObjectVersion
1070
     0
  0
VISUALSTYLE
  5
9942
102
{ACAD_XDICTIONARY
360
99AE
102
}
102
{ACAD_REACTORS
330
992E
102
}
330
992E
100
AcDbVisualStyle
  2
Shaded with edges
 70
    26
 71
     2
 72
     2
 73
     1
 90
        2
 40
-0.6
 41
30.0
 62
     5
 63
     7
 74
     1
 91
       10
 64
     7
 65
   257
 75
     2
175
     1
 42
1.0
 92
        8
 66
   257
 43
1.0
 76
     1
 77
     6
 78
     2
 67
     7
 79
     3
170
     0
171
     0
290
     0
174
     0
 93
        5
 44
0.0
173
     0
291
     0
 45
0.0
1001
ACAD
1000
AcDbSavedByObjectVersion
1070
     0
  0
VISUALSTYLE
  5
993F
102
{ACAD_XDICTIONARY
360
99A8
102
}
102
{ACAD_REACTORS
330
992E
102
}
330
992E
100
AcDbVisualStyle
  2
Shades of Gray
 70
    23
 71
     2
 72
     2
 73
     3
 90
        0
 40
-0.6
 41
-30.0
 62
     5
 63
     7
 74
     2
 91
        2
 64
     7
 65
     7
 75
     1
175
     1
 42
40.0
 92
        8
 66
     7
 43
1.0
 76
     1
 77
     6
 78
     2
 67
     7
 79
     3
170
     0
171
     0
290
     0
174
     0
 93
        1
 44
0.0
173
     0
291
     0
 45
0.0
1001
ACAD
1000
AcDbSavedByObjectVersion
1070
     0
  0
VISUALSTYLE
  5
9940
102
{ACAD_XDICTIONARY
360
99AA
102
}
102
{ACAD_REACTORS
330
992E
102
}
330
992E
100
AcDbVisualStyle
  2
Sketchy
 70
    24
 71
     1
 72
     2
 73
     2
 90
        0
 40
-0.6
 41
-30.0
 62
     5
 63
     7
 74
     2
 91
        2
 64
     7
 65
     7
 75
     1
175
     1
 42
40.0
 92
       11
 66
     7
 43
1.0
 76
     1
 77
     6
 78
     2
 67
     7
 79
     6
170
     0
171
     0
290
     0
174
     0
 93
        1
 44
0.0
173
     0
291
     0
 45
0.0
1001
ACAD
1000
AcDbSavedByObjectVersion
1070
     0
  0
VISUALSTYLE
  5
993B
102
{ACAD_XDICTIONARY
360
99A0
102
}
102
{ACAD_REACTORS
330
992E
102
}
330
992E
100
AcDbVisualStyle
  2
Thicken
 70
    13
 71
     2
 72
     2
 73
     0
 90
        0
 40
-0.6
 41
-30.0
 62
     5
 63
     7
 74
     1
 91
        4
 64
     7
 65
   257
 75
     1
175
     1
 42
1.0
 92
       12
 66
     7
 43
1.0
 76
     1
 77
     6
 78
     2
 67
     7
 79
     5
170
     0
171
     0
290
     0
174
     0
 93
        1
 44
0.0
173
     0
291
     1
 45
0.0
1001
ACAD
1000
AcDbSavedByObjectVersion
1070
     0
  0
VISUALSTYLE
  5
9935
102
{ACAD_XDICTIONARY
360
9994
102
}
102
{ACAD_REACTORS
330
992E
102
}
330
992E
100
AcDbVisualStyle
  2
Wireframe
 70
     5
 71
     0
 72
     2
 73
     0
 90
        0
 40
-0.6
 41
-30.0
 62
     5
 63
     7
 74
     1
 91
        4
 64
     7
 65
   257
 75
     1
175
     1
 42
1.0
 92
        0
 66
   257
 43
1.0
 76
     1
 77
     6
 78
     2
 67
     7
 79
     3
170
     0
171
     0
290
     0
174
     0
 93
        1
 44
0.0
173
     0
291
     0
 45
0.0
1001
ACAD
1000
AcDbSavedByObjectVersion
1070
     0
  0
VISUALSTYLE
  5
9941
102
{ACAD_XDICTIONARY
360
99AC
102
}
102
{ACAD_REACTORS
330
992E
102
}
330
992E
100
AcDbVisualStyle
  2
X-Ray
 70
    25
 71
     2
 72
     2
 73
     1
 90
        1
 40
0.5
 41
-30.0
 62
     5
 63
     7
 74
     1
 91
        0
 64
     7
 65
   257
 75
     1
175
     1
 42
1.0
 92
        8
 66
     7
 43
1.0
 76
     1
 77
     6
 78
     2
 67
     7
 79
     3
170
     0
171
     0
290
     0
174
     0
 93
       13
 44
0.0
173
     0
291
     0
 45
0.0
1001
ACAD
1000
AcDbSavedByObjectVersion
1070
     0
  0
DICTIONARYVAR
  5
997B
102
{ACAD_REACTORS
330
9976
102
}
330
9976
100
DictionaryVariables
280
     0
  1
1:1
  0
DICTIONARYVAR
  5
9978
102
{ACAD_REACTORS
330
9976
102
}
330
9976
100
DictionaryVariables
280
     0
  1
STANDARD
  0
DICTIONARYVAR
  5
9977
102
{ACAD_REACTORS
330
9976
102
}
330
9976
100
DictionaryVariables
280
     0
  1
STANDARD
  0
DICTIONARYVAR
  5
9979
102
{ACAD_REACTORS
330
9976
102
}
330
9976
100
DictionaryVariables
280
     0
  1
Imperial24
  0
DICTIONARYVAR
  5
997A
102
{ACAD_REACTORS
330
9976
102
}
330
9976
100
DictionaryVariables
280
     0
  1
Imperial24
  0
DICTIONARYVAR
  5
997E
102
{ACAD_REACTORS
330
9976
102
}
330
9976
100
DictionaryVariables
280
     0
  1
1
  0
DICTIONARYVAR
  5
997D
102
{ACAD_REACTORS
330
9976
102
}
330
9976
100
DictionaryVariables
280
     0
  1
0
  0
DICTIONARYVAR
  5
997C
102
{ACAD_REACTORS
330
9976
102
}
330
9976
100
DictionaryVariables
280
     0
  1
127
  0
DICTIONARYVAR
  5
997F
102
{ACAD_REACTORS
330
9976
102
}
330
9976
100
DictionaryVariables
280
     0
  1
2
  0
DICTIONARY
  5
99BC
330
9961
100
AcDbDictionary
280
     1
281
     1
  3
ACAD_XREC_ROUNDTRIP
360
99BD
  0
DICTIONARY
  5
99BE
330
9962
100
AcDbDictionary
280
     1
281
     1
  3
ACAD_XREC_ROUNDTRIP
360
99BF
  0
DICTIONARY
  5
99C0
330
9963
100
AcDbDictionary
280
     1
281
     1
  3
ACAD_XREC_ROUNDTRIP
360
99C1
  0
DICTIONARY
  5
991F
330
991E
100
AcDbDictionary
280
     1
281
     1
  3
ACAD_XREC_ROUNDTRIP
360
9986
  3
BUMPTILE
360
9921
  3
DIFFUSETILE
360
9920
  3
OPACITYTILE
360
9924
  3
REFLECTIONTILE
360
9923
  3
REFRACTIONTILE
360
9925
  3
SPECULARTILE
360
9922
  0
DICTIONARY
  5
9917
330
9916
100
AcDbDictionary
280
     1
281
     1
  3
ACAD_XREC_ROUNDTRIP
360
9985
  3
BUMPTILE
360
9919
  3
DIFFUSETILE
360
9918
  3
OPACITYTILE
360
991C
  3
REFLECTIONTILE
360
991B
  3
REFRACTIONTILE
360
991D
  3
SPECULARTILE
360
991A
  0
DICTIONARY
  5
9927
330
9926
100
AcDbDictionary
280
     1
281
     1
  3
ACAD_XREC_ROUNDTRIP
360
9987
  3
BUMPTILE
360
9929
  3
DIFFUSETILE
360
9928
  3
OPACITYTILE
360
992C
  3
REFLECTIONTILE
360
992B
  3
REFRACTIONTILE
360
992D
  3
SPECULARTILE
360
992A
  0
DICTIONARY
  5
99BA
330
995F
100
AcDbDictionary
280
     1
281
     1
  3
ACAD_XREC_ROUNDTRIP
360
99BB
  0
DICTIONARY
  5
9981
330
9949
100
AcDbDictionary
280
     1
281
     1
  3
ACAD_ROUNDTRIP_2008_TABLESTYLE_CELLSTYLEMAP
360
9982
  3
ACAD_XREC_ROUNDTRIP
360
99B8
  0
DICTIONARY
  5
9992
330
9934
100
AcDbDictionary
280
     1
281
     1
  3
ACAD_XREC_ROUNDTRIP
360
9993
  0
DICTIONARY
  5
9990
330
9933
100
AcDbDictionary
280
     1
281
     1
  3
ACAD_XREC_ROUNDTRIP
360
9991
  0
DICTIONARY
  5
999E
330
993A
100
AcDbDictionary
280
     1
281
     1
  3
ACAD_XREC_ROUNDTRIP
360
999F
  0
DICTIONARY
  5
99A6
330
993E
100
AcDbDictionary
280
     1
281
     1
  3
ACAD_XREC_ROUNDTRIP
360
99A7
  0
DICTIONARY
  5
9998
330
9937
100
AcDbDictionary
280
     1
281
     1
  3
ACAD_XREC_ROUNDTRIP
360
9999
  0
DICTIONARY
  5
999C
330
9939
100
AcDbDictionary
280
     1
281
     1
  3
ACAD_XREC_ROUNDTRIP
360
999D
  0
DICTIONARY
  5
99B6
330
9946
100
AcDbDictionary
280
     1
281
     1
  3
ACAD_XREC_ROUNDTRIP
360
99B7
  0
DICTIONARY
  5
99A4
330
993D
100
AcDbDictionary
280
     1
281
     1
  3
ACAD_XREC_ROUNDTRIP
360
99A5
  0
DICTIONARY
  5
9988
330
992F
100
AcDbDictionary
280
     1
281
     1
  3
ACAD_XREC_ROUNDTRIP
360
9989
  0
DICTIONARY
  5
998A
330
9930
100
AcDbDictionary
280
     1
281
     1
  3
ACAD_XREC_ROUNDTRIP
360
998B
  0
DICTIONARY
  5
998C
330
9931
100
AcDbDictionary
280
     1
281
     1
  3
ACAD_XREC_ROUNDTRIP
360
998D
  0
DICTIONARY
  5
998E
330
9932
100
AcDbDictionary
280
     1
281
     1
  3
ACAD_XREC_ROUNDTRIP
360
998F
  0
DICTIONARY
  5
9996
330
9936
100
AcDbDictionary
280
     1
281
     1
  3
ACAD_XREC_ROUNDTRIP
360
9997
  0
DICTIONARY
  5
99B2
330
9944
100
AcDbDictionary
280
     1
281
     1
  3
ACAD_XREC_ROUNDTRIP
360
99B3
  0
DICTIONARY
  5
99A2
330
993C
100
AcDbDictionary
280
     1
281
     1
  3
ACAD_XREC_ROUNDTRIP
360
99A3
  0
DICTIONARY
  5
99B4
330
9945
100
AcDbDictionary
280
     1
281
     1
  3
ACAD_XREC_ROUNDTRIP
360
99B5
  0
DICTIONARY
  5
999A
330
9938
100
AcDbDictionary
280
     1
281
     1
  3
ACAD_XREC_ROUNDTRIP
360
999B
  0
DICTIONARY
  5
99B0
330
9943
100
AcDbDictionary
280
     1
281
     1
  3
ACAD_XREC_ROUNDTRIP
360
99B1
  0
DICTIONARY
  5
99AE
330
9942
100
AcDbDictionary
280
     1
281
     1
  3
ACAD_XREC_ROUNDTRIP
360
99AF
  0
DICTIONARY
  5
99A8
330
993F
100
AcDbDictionary
280
     1
281
     1
  3
ACAD_XREC_ROUNDTRIP
360
99A9
  0
DICTIONARY
  5
99AA
330
9940
100
AcDbDictionary
280
     1
281
     1
  3
ACAD_XREC_ROUNDTRIP
360
99AB
  0
DICTIONARY
  5
99A0
330
993B
100
AcDbDictionary
280
     1
281
     1
  3
ACAD_XREC_ROUNDTRIP
360
99A1
  0
DICTIONARY
  5
9994
330
9935
100
AcDbDictionary
280
     1
281
     1
  3
ACAD_XREC_ROUNDTRIP
360
9995
  0
DICTIONARY
  5
99AC
330
9941
100
AcDbDictionary
280
     1
281
     1
  3
ACAD_XREC_ROUNDTRIP
360
99AD
  0
XRECORD
  5
99BD
102
{ACAD_REACTORS
330
99BC
102
}
330
99BC
100
AcDbXrecord
280
     1
102
DISPLAYNAME
  1
Imperial24
102
FLAGS
 90
        0
  0
XRECORD
  5
99BF
102
{ACAD_REACTORS
330
99BE
102
}
330
99BE
100
AcDbXrecord
280
     1
102
SHADEPLOT
 70
     0
102
SHADEPLOTRESLEVEL
 70
     2
102
SHADEPLOTCUSTOMDPI
 70
   300
  0
XRECORD
  5
99C1
102
{ACAD_REACTORS
330
99C0
102
}
330
99C0
100
AcDbXrecord
280
     1
102
SHADEPLOT
 70
     0
102
SHADEPLOTRESLEVEL
 70
     2
102
SHADEPLOTCUSTOMDPI
 70
   300
  0
XRECORD
  5
9986
102
{ACAD_REACTORS
330
991F
102
}
330
991F
100
AcDbXrecord
280
     1
102
MATERIAL
148
0.0
149
0.0
149
0.0
 93
        0
 94
      127
282
     0
 72
     0
 77
     0
171
     0
175
     0
179
     0
273
     0
  0
XRECORD
  5
9921
102
{ACAD_REACTORS
330
991F
102
}
330
991F
100
AcDbXrecord
280
     1
270
     1
271
     1
  0
XRECORD
  5
9920
102
{ACAD_REACTORS
330
991F
102
}
330
991F
100
AcDbXrecord
280
     1
270
     1
271
     1
  0
XRECORD
  5
9924
102
{ACAD_REACTORS
330
991F
102
}
330
991F
100
AcDbXrecord
280
     1
270
     1
271
     1
  0
XRECORD
  5
9923
102
{ACAD_REACTORS
330
991F
102
}
330
991F
100
AcDbXrecord
280
     1
270
     1
271
     1
  0
XRECORD
  5
9925
102
{ACAD_REACTORS
330
991F
102
}
330
991F
100
AcDbXrecord
280
     1
270
     1
271
     1
  0
XRECORD
  5
9922
102
{ACAD_REACTORS
330
991F
102
}
330
991F
100
AcDbXrecord
280
     1
270
     1
271
     1
  0
XRECORD
  5
9985
102
{ACAD_REACTORS
330
9917
102
}
330
9917
100
AcDbXrecord
280
     1
102
MATERIAL
148
0.0
149
0.0
149
0.0
 93
        0
 94
      127
282
     0
 72
     0
 77
     0
171
     0
175
     0
179
     0
273
     0
  0
XRECORD
  5
9919
102
{ACAD_REACTORS
330
9917
102
}
330
9917
100
AcDbXrecord
280
     1
270
     1
271
     1
  0
XRECORD
  5
9918
102
{ACAD_REACTORS
330
9917
102
}
330
9917
100
AcDbXrecord
280
     1
270
     1
271
     1
  0
XRECORD
  5
991C
102
{ACAD_REACTORS
330
9917
102
}
330
9917
100
AcDbXrecord
280
     1
270
     1
271
     1
  0
XRECORD
  5
991B
102
{ACAD_REACTORS
330
9917
102
}
330
9917
100
AcDbXrecord
280
     1
270
     1
271
     1
  0
XRECORD
  5
991D
102
{ACAD_REACTORS
330
9917
102
}
330
9917
100
AcDbXrecord
280
     1
270
     1
271
     1
  0
XRECORD
  5
991A
102
{ACAD_REACTORS
330
9917
102
}
330
9917
100
AcDbXrecord
280
     1
270
     1
271
     1
  0
XRECORD
  5
9987
102
{ACAD_REACTORS
330
9927
102
}
330
9927
100
AcDbXrecord
280
     1
102
MATERIAL
148
0.0
149
0.0
149
0.0
 93
        0
 94
      127
282
     0
 72
     0
 77
     0
171
     0
175
     0
179
     0
273
     0
  0
XRECORD
  5
9929
102
{ACAD_REACTORS
330
9927
102
}
330
9927
100
AcDbXrecord
280
     1
270
     1
271
     1
  0
XRECORD
  5
9928
102
{ACAD_REACTORS
330
9927
102
}
330
9927
100
AcDbXrecord
280
     1
270
     1
271
     1
  0
XRECORD
  5
992C
102
{ACAD_REACTORS
330
9927
102
}
330
9927
100
AcDbXrecord
280
     1
270
     1
271
     1
  0
XRECORD
  5
992B
102
{ACAD_REACTORS
330
9927
102
}
330
9927
100
AcDbXrecord
280
     1
270
     1
271
     1
  0
XRECORD
  5
992D
102
{ACAD_REACTORS
330
9927
102
}
330
9927
100
AcDbXrecord
280
     1
270
     1
271
     1
  0
XRECORD
  5
992A
102
{ACAD_REACTORS
330
9927
102
}
330
9927
100
AcDbXrecord
280
     1
270
     1
271
     1
  0
XRECORD
  5
99BB
102
{ACAD_REACTORS
330
99BA
102
}
330
99BA
100
AcDbXrecord
280
     1
102
DISPLAYNAME
  1
Imperial24
102
FLAGS
 90
        0
  0
CELLSTYLEMAP
  5
9982
102
{ACAD_REACTORS
330
9981
102
}
330
9981
100
AcDbCellStyleMap
 90
        3
300
CELLSTYLE
  1
TABLEFORMAT_BEGIN
 90
        5
170
     1
 91
        0
 92
    32768
 62
   257
 93
        1
300
CONTENTFORMAT
  1
CONTENTFORMAT_BEGIN
 90
        0
 91
        0
 92
      512
 93
        0
300

 40
0.0
140
1.0
 94
        5
 62
     0
340
96F7
144
0.25
309
CONTENTFORMAT_END
171
     0
 94
        0
309
TABLEFORMAT_END
  1
CELLSTYLE_BEGIN
 90
        1
 91
        1
300
_TITLE
309
CELLSTYLE_END
300
CELLSTYLE
  1
TABLEFORMAT_BEGIN
 90
        5
170
     1
 91
        0
 92
        0
 62
   257
 93
        1
300
CONTENTFORMAT
  1
CONTENTFORMAT_BEGIN
 90
        0
 91
        0
 92
      512
 93
        0
300

 40
0.0
140
1.0
 94
        5
 62
     0
340
96F7
144
0.18
309
CONTENTFORMAT_END
171
     0
 94
        0
309
TABLEFORMAT_END
  1
CELLSTYLE_BEGIN
 90
        2
 91
        1
300
_HEADER
309
CELLSTYLE_END
300
CELLSTYLE
  1
TABLEFORMAT_BEGIN
 90
        5
170
     1
 91
        0
 92
        0
 62
   257
 93
        1
300
CONTENTFORMAT
  1
CONTENTFORMAT_BEGIN
 90
        0
 91
        0
 92
      512
 93
        0
300

 40
0.0
140
1.0
 94
        2
 62
     0
340
96F7
144
0.18
309
CONTENTFORMAT_END
171
     0
 94
        0
309
TABLEFORMAT_END
  1
CELLSTYLE_BEGIN
 90
        3
 91
        2
300
_DATA
309
CELLSTYLE_END
  0
XRECORD
  5
99B8
102
{ACAD_REACTORS
330
9981
102
}
330
9981
100
AcDbXrecord
280
     1
102
ACAD_ROUNDTRIP_PRE2007_TABLESTYLE
 90
      512
 91
        0
  1

 92
      512
 93
        0
  2

 94
      512
 95
        0
  3

  0
XRECORD
  5
9993
102
{ACAD_REACTORS
330
9992
102
}
330
9992
100
AcDbXrecord
280
     1
102
RTVSPost2010Prop28
280
     1
102
RTVSPost2010PropOp28
 70
     1
102
RTVSPost2010Prop29
280
     1
102
RTVSPost2010PropOp29
 70
     1
102
RTVSPost2010Prop30
280
     0
102
RTVSPost2010PropOp30
 70
     1
102
RTVSPost2010Prop31
280
     0
102
RTVSPost2010PropOp31
 70
     1
102
RTVSPost2010Prop32
280
     0
102
RTVSPost2010PropOp32
 70
     1
102
RTVSPost2010Prop33
280
     0
102
RTVSPost2010PropOp33
 70
     1
102
RTVSPost2010Prop34
280
     0
102
RTVSPost2010PropOp34
 70
     1
102
RTVSPost2010Prop35
280
     0
102
RTVSPost2010PropOp35
 70
     1
102
RTVSPost2010Prop36
280
     0
102
RTVSPost2010PropOp36
 70
     1
102
RTVSPost2010Prop37
 90
       50
102
RTVSPost2010PropOp37
 70
     1
102
RTVSPost2010Prop38
140
0.0
102
RTVSPost2010PropOp38
 70
     1
102
RTVSPost2010Prop39
140
1.0
102
RTVSPost2010PropOp39
 70
     1
102
RTVSPost2010Prop40
 90
        0
102
RTVSPost2010PropOp40
 70
     1
102
RTVSPost2010Prop41ColorIndex
 90
       18
102
RTVSPost2010Prop41ColorRGB
 90
        0
102
RTVSPost2010PropOp41
 70
     1
102
RTVSPost2010Prop42
 90
       50
102
RTVSPost2010PropOp42
 70
     1
102
RTVSPost2010Prop43
 90
        3
102
RTVSPost2010PropOp43
 70
     1
102
RTVSPost2010Prop44ColorIndex
 90
        5
102
RTVSPost2010Prop44ColorRGB
 90
      255
102
RTVSPost2010PropOp44
 70
     1
102
RTVSPost2010Prop45
280
     0
102
RTVSPost2010PropOp45
 70
     1
102
RTVSPost2010Prop46
 90
       50
102
RTVSPost2010PropOp46
 70
     1
102
RTVSPost2010Prop47
 90
       50
102
RTVSPost2010PropOp47
 70
     1
102
RTVSPost2010Prop48
 90
       50
102
RTVSPost2010PropOp48
 70
     1
102
RTVSPost2010Prop49
280
     0
102
RTVSPost2010PropOp49
 70
     1
102
RTVSPost2010Prop50
 90
       50
102
RTVSPost2010PropOp50
 70
     1
102
RTVSPost2010Prop51ColorIndex
 90
      256
102
RTVSPost2010Prop51ColorRGB
 90
-16777216
102
RTVSPost2010PropOp51
 70
     0
102
RTVSPost2010Prop52
140
1.0
102
RTVSPost2010PropOp52
 70
     0
102
RTVSPost2010Prop53
 90
        2
102
RTVSPost2010PropOp53
 70
     1
102
RTVSPost2010Prop54
  1
strokes_ogs.tif
102
RTVSPost2010PropOp54
 70
     1
102
RTVSPost2010Prop55
280
     0
102
RTVSPost2010PropOp55
 70
     1
102
RTVSPost2010Prop56
140
1.0
102
RTVSPost2010PropOp56
 70
     1
102
RTVSPost2010Prop57
140
1.0
102
RTVSPost2010PropOp57
 70
     1
102
RTVSPropertyOp0
 70
     1
102
RTVSPropertyOp1
 70
     1
102
RTVSPropertyOp2
 70
     1
102
RTVSPropertyOp3
 70
     1
102
RTVSPropertyOp4
 70
     1
102
RTVSPropertyOp5
 70
     1
102
RTVSPropertyOp6
 70
     1
102
RTVSPropertyOp7
 70
     1
102
RTVSPropertyOp8
 70
     1
102
RTVSPropertyOp9
 70
     1
102
RTVSPropertyOp10
 70
     1
102
RTVSPropertyOp11
 70
     1
102
RTVSPropertyOp12
 70
     1
102
RTVSPropertyOp13
 70
     1
102
RTVSPropertyOp14
 70
     1
102
RTVSPropertyOp15
 70
     1
102
RTVSPropertyOp16
 70
     1
102
RTVSPropertyOp17
 70
     1
102
RTVSPropertyOp18
 70
     1
102
RTVSPropertyOp19
 70
     1
102
RTVSPropertyOp20
 70
     1
102
RTVSPropertyOp21
 70
     1
102
RTVSPropertyOp22
 70
     1
102
RTVSPropertyOp23
 70
     1
102
RTVSPropertyOp24
 70
     1
102
RTVSPropertyOp25
 70
     1
102
RTVSPropertyOp26
 70
     1
102
RTVSPropertyOp27
 70
     1
102
RTVSPropertyOp28
 70
     1
102
RTVSPropertyOp29
 70
     1
102
RTVSPropertyOp30
 70
     1
102
RTVSPropertyOp31
 70
     1
102
RTVSPropertyOp32
 70
     1
102
RTVSPropertyOp33
 70
     1
102
RTVSPropertyOp34
 70
     1
102
RTVSPropertyOp35
 70
     1
102
RTVSPropertyOp36
 70
     1
102
RTVSPropertyOp37
 70
     1
102
RTVSPropertyOp38
 70
     1
102
RTVSPropertyOp39
 70
     1
102
RTVSPropertyOp40
 70
     1
102
RTVSPropertyOp41
 70
     1
102
RTVSPropertyOp42
 70
     1
102
RTVSPropertyOp43
 70
     1
102
RTVSPropertyOp44
 70
     1
102
RTVSPropertyOp45
 70
     1
102
RTVSPropertyOp46
 70
     1
102
RTVSPropertyOp47
 70
     1
102
RTVSPropertyOp48
 70
     1
102
RTVSPropertyOp49
 70
     1
102
RTVSPropertyOp50
 70
     1
102
RTVSPropertyOp51
 70
     0
102
RTVSPropertyOp52
 70
     0
102
RTVSPropertyOp53
 70
     1
102
RTVSPropertyOp54
 70
     1
102
RTVSPropertyOp55
 70
     1
102
RTVSPropertyOp56
 70
     1
102
RTVSPropertyOp57
 70
     1
102
RTVSPropertyOp58
 70
     1
102
RTVSPropertyOp59
 70
     1
102
RTVSPropertyOp60
 70
     1
102
RTVSPropertyOp61
 70
     1
102
RTVSPropertyOp62
 70
     1
  0
XRECORD
  5
9991
102
{ACAD_REACTORS
330
9990
102
}
330
9990
100
AcDbXrecord
280
     1
102
RTVSPost2010Prop28
280
     0
102
RTVSPost2010PropOp28
 70
     1
102
RTVSPost2010Prop29
280
     1
102
RTVSPost2010PropOp29
 70
     1
102
RTVSPost2010Prop30
280
     1
102
RTVSPost2010PropOp30
 70
     1
102
RTVSPost2010Prop31
280
     0
102
RTVSPost2010PropOp31
 70
     1
102
RTVSPost2010Prop32
280
     0
102
RTVSPost2010PropOp32
 70
     1
102
RTVSPost2010Prop33
280
     0
102
RTVSPost2010PropOp33
 70
     1
102
RTVSPost2010Prop34
280
     0
102
RTVSPost2010PropOp34
 70
     1
102
RTVSPost2010Prop35
280
     0
102
RTVSPost2010PropOp35
 70
     1
102
RTVSPost2010Prop36
280
     0
102
RTVSPost2010PropOp36
 70
     1
102
RTVSPost2010Prop37
 90
       50
102
RTVSPost2010PropOp37
 70
     1
102
RTVSPost2010Prop38
140
0.0
102
RTVSPost2010PropOp38
 70
     1
102
RTVSPost2010Prop39
140
1.0
102
RTVSPost2010PropOp39
 70
     1
102
RTVSPost2010Prop40
 90
        0
102
RTVSPost2010PropOp40
 70
     1
102
RTVSPost2010Prop41ColorIndex
 90
       18
102
RTVSPost2010Prop41ColorRGB
 90
        0
102
RTVSPost2010PropOp41
 70
     1
102
RTVSPost2010Prop42
 90
       50
102
RTVSPost2010PropOp42
 70
     1
102
RTVSPost2010Prop43
 90
        3
102
RTVSPost2010PropOp43
 70
     1
102
RTVSPost2010Prop44ColorIndex
 90
        5
102
RTVSPost2010Prop44ColorRGB
 90
      255
102
RTVSPost2010PropOp44
 70
     1
102
RTVSPost2010Prop45
280
     0
102
RTVSPost2010PropOp45
 70
     1
102
RTVSPost2010Prop46
 90
       50
102
RTVSPost2010PropOp46
 70
     1
102
RTVSPost2010Prop47
 90
       50
102
RTVSPost2010PropOp47
 70
     1
102
RTVSPost2010Prop48
 90
       50
102
RTVSPost2010PropOp48
 70
     1
102
RTVSPost2010Prop49
280
     0
102
RTVSPost2010PropOp49
 70
     1
102
RTVSPost2010Prop50
 90
       50
102
RTVSPost2010PropOp50
 70
     1
102
RTVSPost2010Prop51ColorIndex
 90
      256
102
RTVSPost2010Prop51ColorRGB
 90
-16777216
102
RTVSPost2010PropOp51
 70
     0
102
RTVSPost2010Prop52
140
1.0
102
RTVSPost2010PropOp52
 70
     0
102
RTVSPost2010Prop53
 90
        2
102
RTVSPost2010PropOp53
 70
     1
102
RTVSPost2010Prop54
  1
strokes_ogs.tif
102
RTVSPost2010PropOp54
 70
     1
102
RTVSPost2010Prop55
280
     0
102
RTVSPost2010PropOp55
 70
     1
102
RTVSPost2010Prop56
140
1.0
102
RTVSPost2010PropOp56
 70
     1
102
RTVSPost2010Prop57
140
1.0
102
RTVSPost2010PropOp57
 70
     1
102
RTVSPropertyOp0
 70
     1
102
RTVSPropertyOp1
 70
     1
102
RTVSPropertyOp2
 70
     1
102
RTVSPropertyOp3
 70
     1
102
RTVSPropertyOp4
 70
     1
102
RTVSPropertyOp5
 70
     1
102
RTVSPropertyOp6
 70
     1
102
RTVSPropertyOp7
 70
     1
102
RTVSPropertyOp8
 70
     1
102
RTVSPropertyOp9
 70
     1
102
RTVSPropertyOp10
 70
     1
102
RTVSPropertyOp11
 70
     1
102
RTVSPropertyOp12
 70
     1
102
RTVSPropertyOp13
 70
     1
102
RTVSPropertyOp14
 70
     1
102
RTVSPropertyOp15
 70
     1
102
RTVSPropertyOp16
 70
     1
102
RTVSPropertyOp17
 70
     1
102
RTVSPropertyOp18
 70
     1
102
RTVSPropertyOp19
 70
     1
102
RTVSPropertyOp20
 70
     1
102
RTVSPropertyOp21
 70
     1
102
RTVSPropertyOp22
 70
     1
102
RTVSPropertyOp23
 70
     1
102
RTVSPropertyOp24
 70
     1
102
RTVSPropertyOp25
 70
     1
102
RTVSPropertyOp26
 70
     1
102
RTVSPropertyOp27
 70
     1
102
RTVSPropertyOp28
 70
     1
102
RTVSPropertyOp29
 70
     1
102
RTVSPropertyOp30
 70
     1
102
RTVSPropertyOp31
 70
     1
102
RTVSPropertyOp32
 70
     1
102
RTVSPropertyOp33
 70
     1
102
RTVSPropertyOp34
 70
     1
102
RTVSPropertyOp35
 70
     1
102
RTVSPropertyOp36
 70
     1
102
RTVSPropertyOp37
 70
     1
102
RTVSPropertyOp38
 70
     1
102
RTVSPropertyOp39
 70
     1
102
RTVSPropertyOp40
 70
     1
102
RTVSPropertyOp41
 70
     1
102
RTVSPropertyOp42
 70
     1
102
RTVSPropertyOp43
 70
     1
102
RTVSPropertyOp44
 70
     1
102
RTVSPropertyOp45
 70
     1
102
RTVSPropertyOp46
 70
     1
102
RTVSPropertyOp47
 70
     1
102
RTVSPropertyOp48
 70
     1
102
RTVSPropertyOp49
 70
     1
102
RTVSPropertyOp50
 70
     1
102
RTVSPropertyOp51
 70
     0
102
RTVSPropertyOp52
 70
     0
102
RTVSPropertyOp53
 70
     1
102
RTVSPropertyOp54
 70
     1
102
RTVSPropertyOp55
 70
     1
102
RTVSPropertyOp56
 70
     1
102
RTVSPropertyOp57
 70
     1
102
RTVSPropertyOp58
 70
     1
102
RTVSPropertyOp59
 70
     1
102
RTVSPropertyOp60
 70
     1
102
RTVSPropertyOp61
 70
     1
102
RTVSPropertyOp62
 70
     1
  0
XRECORD
  5
999F
102
{ACAD_REACTORS
330
999E
102
}
330
999E
100
AcDbXrecord
280
     1
102
RTVSPost2010Prop28
280
     0
102
RTVSPost2010PropOp28
 70
     1
102
RTVSPost2010Prop29
280
     1
102
RTVSPost2010PropOp29
 70
     1
102
RTVSPost2010Prop30
280
     1
102
RTVSPost2010PropOp30
 70
     1
102
RTVSPost2010Prop31
280
     0
102
RTVSPost2010PropOp31
 70
     1
102
RTVSPost2010Prop32
280
     0
102
RTVSPost2010PropOp32
 70
     1
102
RTVSPost2010Prop33
280
     0
102
RTVSPost2010PropOp33
 70
     1
102
RTVSPost2010Prop34
280
     0
102
RTVSPost2010PropOp34
 70
     1
102
RTVSPost2010Prop35
280
     0
102
RTVSPost2010PropOp35
 70
     1
102
RTVSPost2010Prop36
280
     0
102
RTVSPost2010PropOp36
 70
     1
102
RTVSPost2010Prop37
 90
       50
102
RTVSPost2010PropOp37
 70
     1
102
RTVSPost2010Prop38
140
0.0
102
RTVSPost2010PropOp38
 70
     1
102
RTVSPost2010Prop39
140
1.0
102
RTVSPost2010PropOp39
 70
     1
102
RTVSPost2010Prop40
 90
        0
102
RTVSPost2010PropOp40
 70
     1
102
RTVSPost2010Prop41ColorIndex
 90
       18
102
RTVSPost2010Prop41ColorRGB
 90
        0
102
RTVSPost2010PropOp41
 70
     1
102
RTVSPost2010Prop42
 90
       50
102
RTVSPost2010PropOp42
 70
     1
102
RTVSPost2010Prop43
 90
        3
102
RTVSPost2010PropOp43
 70
     1
102
RTVSPost2010Prop44ColorIndex
 90
        5
102
RTVSPost2010Prop44ColorRGB
 90
      255
102
RTVSPost2010PropOp44
 70
     1
102
RTVSPost2010Prop45
280
     0
102
RTVSPost2010PropOp45
 70
     1
102
RTVSPost2010Prop46
 90
       50
102
RTVSPost2010PropOp46
 70
     1
102
RTVSPost2010Prop47
 90
       50
102
RTVSPost2010PropOp47
 70
     1
102
RTVSPost2010Prop48
 90
       50
102
RTVSPost2010PropOp48
 70
     1
102
RTVSPost2010Prop49
280
     0
102
RTVSPost2010PropOp49
 70
     1
102
RTVSPost2010Prop50
 90
       50
102
RTVSPost2010PropOp50
 70
     1
102
RTVSPost2010Prop51ColorIndex
 90
      256
102
RTVSPost2010Prop51ColorRGB
 90
-16777216
102
RTVSPost2010PropOp51
 70
     0
102
RTVSPost2010Prop52
140
1.0
102
RTVSPost2010PropOp52
 70
     0
102
RTVSPost2010Prop53
 90
        2
102
RTVSPost2010PropOp53
 70
     1
102
RTVSPost2010Prop54
  1
strokes_ogs.tif
102
RTVSPost2010PropOp54
 70
     1
102
RTVSPost2010Prop55
280
     0
102
RTVSPost2010PropOp55
 70
     1
102
RTVSPost2010Prop56
140
1.0
102
RTVSPost2010PropOp56
 70
     1
102
RTVSPost2010Prop57
140
1.0
102
RTVSPost2010PropOp57
 70
     1
102
RTVSPropertyOp0
 70
     1
102
RTVSPropertyOp1
 70
     1
102
RTVSPropertyOp2
 70
     1
102
RTVSPropertyOp3
 70
     1
102
RTVSPropertyOp4
 70
     1
102
RTVSPropertyOp5
 70
     1
102
RTVSPropertyOp6
 70
     1
102
RTVSPropertyOp7
 70
     1
102
RTVSPropertyOp8
 70
     1
102
RTVSPropertyOp9
 70
     1
102
RTVSPropertyOp10
 70
     1
102
RTVSPropertyOp11
 70
     1
102
RTVSPropertyOp12
 70
     1
102
RTVSPropertyOp13
 70
     1
102
RTVSPropertyOp14
 70
     1
102
RTVSPropertyOp15
 70
     1
102
RTVSPropertyOp16
 70
     1
102
RTVSPropertyOp17
 70
     1
102
RTVSPropertyOp18
 70
     1
102
RTVSPropertyOp19
 70
     1
102
RTVSPropertyOp20
 70
     1
102
RTVSPropertyOp21
 70
     1
102
RTVSPropertyOp22
 70
     1
102
RTVSPropertyOp23
 70
     1
102
RTVSPropertyOp24
 70
     1
102
RTVSPropertyOp25
 70
     1
102
RTVSPropertyOp26
 70
     1
102
RTVSPropertyOp27
 70
     1
102
RTVSPropertyOp28
 70
     1
102
RTVSPropertyOp29
 70
     1
102
RTVSPropertyOp30
 70
     1
102
RTVSPropertyOp31
 70
     1
102
RTVSPropertyOp32
 70
     1
102
RTVSPropertyOp33
 70
     1
102
RTVSPropertyOp34
 70
     1
102
RTVSPropertyOp35
 70
     1
102
RTVSPropertyOp36
 70
     1
102
RTVSPropertyOp37
 70
     1
102
RTVSPropertyOp38
 70
     1
102
RTVSPropertyOp39
 70
     1
102
RTVSPropertyOp40
 70
     1
102
RTVSPropertyOp41
 70
     1
102
RTVSPropertyOp42
 70
     1
102
RTVSPropertyOp43
 70
     1
102
RTVSPropertyOp44
 70
     1
102
RTVSPropertyOp45
 70
     1
102
RTVSPropertyOp46
 70
     1
102
RTVSPropertyOp47
 70
     1
102
RTVSPropertyOp48
 70
     1
102
RTVSPropertyOp49
 70
     1
102
RTVSPropertyOp50
 70
     1
102
RTVSPropertyOp51
 70
     0
102
RTVSPropertyOp52
 70
     0
102
RTVSPropertyOp53
 70
     1
102
RTVSPropertyOp54
 70
     1
102
RTVSPropertyOp55
 70
     1
102
RTVSPropertyOp56
 70
     1
102
RTVSPropertyOp57
 70
     1
102
RTVSPropertyOp58
 70
     1
102
RTVSPropertyOp59
 70
     1
102
RTVSPropertyOp60
 70
     1
102
RTVSPropertyOp61
 70
     1
102
RTVSPropertyOp62
 70
     1
  0
XRECORD
  5
99A7
102
{ACAD_REACTORS
330
99A6
102
}
330
99A6
100
AcDbXrecord
280
     1
102
RTVSPost2010Prop28
280
     0
102
RTVSPost2010PropOp28
 70
     1
102
RTVSPost2010Prop29
280
     1
102
RTVSPost2010PropOp29
 70
     1
102
RTVSPost2010Prop30
280
     1
102
RTVSPost2010PropOp30
 70
     1
102
RTVSPost2010Prop31
280
     0
102
RTVSPost2010PropOp31
 70
     1
102
RTVSPost2010Prop32
280
     0
102
RTVSPost2010PropOp32
 70
     1
102
RTVSPost2010Prop33
280
     0
102
RTVSPost2010PropOp33
 70
     1
102
RTVSPost2010Prop34
280
     0
102
RTVSPost2010PropOp34
 70
     1
102
RTVSPost2010Prop35
280
     0
102
RTVSPost2010PropOp35
 70
     1
102
RTVSPost2010Prop36
280
     0
102
RTVSPost2010PropOp36
 70
     1
102
RTVSPost2010Prop37
 90
       50
102
RTVSPost2010PropOp37
 70
     1
102
RTVSPost2010Prop38
140
0.0
102
RTVSPost2010PropOp38
 70
     1
102
RTVSPost2010Prop39
140
1.0
102
RTVSPost2010PropOp39
 70
     1
102
RTVSPost2010Prop40
 90
        0
102
RTVSPost2010PropOp40
 70
     1
102
RTVSPost2010Prop41ColorIndex
 90
       18
102
RTVSPost2010Prop41ColorRGB
 90
        0
102
RTVSPost2010PropOp41
 70
     1
102
RTVSPost2010Prop42
 90
       50
102
RTVSPost2010PropOp42
 70
     1
102
RTVSPost2010Prop43
 90
        3
102
RTVSPost2010PropOp43
 70
     1
102
RTVSPost2010Prop44ColorIndex
 90
        5
102
RTVSPost2010Prop44ColorRGB
 90
      255
102
RTVSPost2010PropOp44
 70
     1
102
RTVSPost2010Prop45
280
     0
102
RTVSPost2010PropOp45
 70
     1
102
RTVSPost2010Prop46
 90
       50
102
RTVSPost2010PropOp46
 70
     1
102
RTVSPost2010Prop47
 90
       50
102
RTVSPost2010PropOp47
 70
     1
102
RTVSPost2010Prop48
 90
       50
102
RTVSPost2010PropOp48
 70
     1
102
RTVSPost2010Prop49
280
     0
102
RTVSPost2010PropOp49
 70
     1
102
RTVSPost2010Prop50
 90
       50
102
RTVSPost2010PropOp50
 70
     1
102
RTVSPost2010Prop51ColorIndex
 90
      256
102
RTVSPost2010Prop51ColorRGB
 90
-16777216
102
RTVSPost2010PropOp51
 70
     0
102
RTVSPost2010Prop52
140
1.0
102
RTVSPost2010PropOp52
 70
     0
102
RTVSPost2010Prop53
 90
        2
102
RTVSPost2010PropOp53
 70
     1
102
RTVSPost2010Prop54
  1
strokes_ogs.tif
102
RTVSPost2010PropOp54
 70
     1
102
RTVSPost2010Prop55
280
     0
102
RTVSPost2010PropOp55
 70
     1
102
RTVSPost2010Prop56
140
1.0
102
RTVSPost2010PropOp56
 70
     1
102
RTVSPost2010Prop57
140
1.0
102
RTVSPost2010PropOp57
 70
     1
102
RTVSPropertyOp0
 70
     1
102
RTVSPropertyOp1
 70
     1
102
RTVSPropertyOp2
 70
     1
102
RTVSPropertyOp3
 70
     1
102
RTVSPropertyOp4
 70
     1
102
RTVSPropertyOp5
 70
     1
102
RTVSPropertyOp6
 70
     1
102
RTVSPropertyOp7
 70
     1
102
RTVSPropertyOp8
 70
     1
102
RTVSPropertyOp9
 70
     1
102
RTVSPropertyOp10
 70
     1
102
RTVSPropertyOp11
 70
     1
102
RTVSPropertyOp12
 70
     1
102
RTVSPropertyOp13
 70
     1
102
RTVSPropertyOp14
 70
     1
102
RTVSPropertyOp15
 70
     1
102
RTVSPropertyOp16
 70
     1
102
RTVSPropertyOp17
 70
     1
102
RTVSPropertyOp18
 70
     1
102
RTVSPropertyOp19
 70
     1
102
RTVSPropertyOp20
 70
     1
102
RTVSPropertyOp21
 70
     1
102
RTVSPropertyOp22
 70
     1
102
RTVSPropertyOp23
 70
     1
102
RTVSPropertyOp24
 70
     1
102
RTVSPropertyOp25
 70
     1
102
RTVSPropertyOp26
 70
     1
102
RTVSPropertyOp27
 70
     1
102
RTVSPropertyOp28
 70
     1
102
RTVSPropertyOp29
 70
     1
102
RTVSPropertyOp30
 70
     1
102
RTVSPropertyOp31
 70
     1
102
RTVSPropertyOp32
 70
     1
102
RTVSPropertyOp33
 70
     1
102
RTVSPropertyOp34
 70
     1
102
RTVSPropertyOp35
 70
     1
102
RTVSPropertyOp36
 70
     1
102
RTVSPropertyOp37
 70
     1
102
RTVSPropertyOp38
 70
     1
102
RTVSPropertyOp39
 70
     1
102
RTVSPropertyOp40
 70
     1
102
RTVSPropertyOp41
 70
     1
102
RTVSPropertyOp42
 70
     1
102
RTVSPropertyOp43
 70
     1
102
RTVSPropertyOp44
 70
     1
102
RTVSPropertyOp45
 70
     1
102
RTVSPropertyOp46
 70
     1
102
RTVSPropertyOp47
 70
     1
102
RTVSPropertyOp48
 70
     1
102
RTVSPropertyOp49
 70
     1
102
RTVSPropertyOp50
 70
     1
102
RTVSPropertyOp51
 70
     0
102
RTVSPropertyOp52
 70
     0
102
RTVSPropertyOp53
 70
     1
102
RTVSPropertyOp54
 70
     1
102
RTVSPropertyOp55
 70
     1
102
RTVSPropertyOp56
 70
     1
102
RTVSPropertyOp57
 70
     1
102
RTVSPropertyOp58
 70
     1
102
RTVSPropertyOp59
 70
     1
102
RTVSPropertyOp60
 70
     1
102
RTVSPropertyOp61
 70
     1
102
RTVSPropertyOp62
 70
     1
  0
XRECORD
  5
9999
102
{ACAD_REACTORS
330
9998
102
}
330
9998
100
AcDbXrecord
280
     1
102
RTVSPost2010Prop28
280
     0
102
RTVSPost2010PropOp28
 70
     1
102
RTVSPost2010Prop29
280
     1
102
RTVSPost2010PropOp29
 70
     1
102
RTVSPost2010Prop30
280
     1
102
RTVSPost2010PropOp30
 70
     1
102
RTVSPost2010Prop31
280
     0
102
RTVSPost2010PropOp31
 70
     1
102
RTVSPost2010Prop32
280
     0
102
RTVSPost2010PropOp32
 70
     1
102
RTVSPost2010Prop33
280
     0
102
RTVSPost2010PropOp33
 70
     1
102
RTVSPost2010Prop34
280
     0
102
RTVSPost2010PropOp34
 70
     1
102
RTVSPost2010Prop35
280
     0
102
RTVSPost2010PropOp35
 70
     1
102
RTVSPost2010Prop36
280
     0
102
RTVSPost2010PropOp36
 70
     1
102
RTVSPost2010Prop37
 90
       50
102
RTVSPost2010PropOp37
 70
     1
102
RTVSPost2010Prop38
140
0.0
102
RTVSPost2010PropOp38
 70
     1
102
RTVSPost2010Prop39
140
1.0
102
RTVSPost2010PropOp39
 70
     1
102
RTVSPost2010Prop40
 90
        0
102
RTVSPost2010PropOp40
 70
     1
102
RTVSPost2010Prop41ColorIndex
 90
       18
102
RTVSPost2010Prop41ColorRGB
 90
        0
102
RTVSPost2010PropOp41
 70
     1
102
RTVSPost2010Prop42
 90
       50
102
RTVSPost2010PropOp42
 70
     1
102
RTVSPost2010Prop43
 90
        3
102
RTVSPost2010PropOp43
 70
     1
102
RTVSPost2010Prop44ColorIndex
 90
        5
102
RTVSPost2010Prop44ColorRGB
 90
      255
102
RTVSPost2010PropOp44
 70
     1
102
RTVSPost2010Prop45
280
     0
102
RTVSPost2010PropOp45
 70
     1
102
RTVSPost2010Prop46
 90
       50
102
RTVSPost2010PropOp46
 70
     1
102
RTVSPost2010Prop47
 90
       50
102
RTVSPost2010PropOp47
 70
     1
102
RTVSPost2010Prop48
 90
       50
102
RTVSPost2010PropOp48
 70
     1
102
RTVSPost2010Prop49
280
     0
102
RTVSPost2010PropOp49
 70
     1
102
RTVSPost2010Prop50
 90
       50
102
RTVSPost2010PropOp50
 70
     1
102
RTVSPost2010Prop51ColorIndex
 90
      256
102
RTVSPost2010Prop51ColorRGB
 90
-16777216
102
RTVSPost2010PropOp51
 70
     0
102
RTVSPost2010Prop52
140
1.0
102
RTVSPost2010PropOp52
 70
     0
102
RTVSPost2010Prop53
 90
        2
102
RTVSPost2010PropOp53
 70
     1
102
RTVSPost2010Prop54
  1
strokes_ogs.tif
102
RTVSPost2010PropOp54
 70
     1
102
RTVSPost2010Prop55
280
     0
102
RTVSPost2010PropOp55
 70
     1
102
RTVSPost2010Prop56
140
1.0
102
RTVSPost2010PropOp56
 70
     1
102
RTVSPost2010Prop57
140
1.0
102
RTVSPost2010PropOp57
 70
     1
102
RTVSPropertyOp0
 70
     1
102
RTVSPropertyOp1
 70
     1
102
RTVSPropertyOp2
 70
     1
102
RTVSPropertyOp3
 70
     1
102
RTVSPropertyOp4
 70
     1
102
RTVSPropertyOp5
 70
     1
102
RTVSPropertyOp6
 70
     1
102
RTVSPropertyOp7
 70
     1
102
RTVSPropertyOp8
 70
     1
102
RTVSPropertyOp9
 70
     1
102
RTVSPropertyOp10
 70
     1
102
RTVSPropertyOp11
 70
     1
102
RTVSPropertyOp12
 70
     1
102
RTVSPropertyOp13
 70
     1
102
RTVSPropertyOp14
 70
     1
102
RTVSPropertyOp15
 70
     1
102
RTVSPropertyOp16
 70
     1
102
RTVSPropertyOp17
 70
     1
102
RTVSPropertyOp18
 70
     1
102
RTVSPropertyOp19
 70
     1
102
RTVSPropertyOp20
 70
     1
102
RTVSPropertyOp21
 70
     1
102
RTVSPropertyOp22
 70
     1
102
RTVSPropertyOp23
 70
     1
102
RTVSPropertyOp24
 70
     1
102
RTVSPropertyOp25
 70
     1
102
RTVSPropertyOp26
 70
     1
102
RTVSPropertyOp27
 70
     1
102
RTVSPropertyOp28
 70
     1
102
RTVSPropertyOp29
 70
     1
102
RTVSPropertyOp30
 70
     1
102
RTVSPropertyOp31
 70
     1
102
RTVSPropertyOp32
 70
     1
102
RTVSPropertyOp33
 70
     1
102
RTVSPropertyOp34
 70
     1
102
RTVSPropertyOp35
 70
     1
102
RTVSPropertyOp36
 70
     1
102
RTVSPropertyOp37
 70
     1
102
RTVSPropertyOp38
 70
     1
102
RTVSPropertyOp39
 70
     1
102
RTVSPropertyOp40
 70
     1
102
RTVSPropertyOp41
 70
     1
102
RTVSPropertyOp42
 70
     1
102
RTVSPropertyOp43
 70
     1
102
RTVSPropertyOp44
 70
     1
102
RTVSPropertyOp45
 70
     1
102
RTVSPropertyOp46
 70
     1
102
RTVSPropertyOp47
 70
     1
102
RTVSPropertyOp48
 70
     1
102
RTVSPropertyOp49
 70
     1
102
RTVSPropertyOp50
 70
     1
102
RTVSPropertyOp51
 70
     0
102
RTVSPropertyOp52
 70
     0
102
RTVSPropertyOp53
 70
     1
102
RTVSPropertyOp54
 70
     1
102
RTVSPropertyOp55
 70
     1
102
RTVSPropertyOp56
 70
     1
102
RTVSPropertyOp57
 70
     1
102
RTVSPropertyOp58
 70
     1
102
RTVSPropertyOp59
 70
     1
102
RTVSPropertyOp60
 70
     1
102
RTVSPropertyOp61
 70
     1
102
RTVSPropertyOp62
 70
     1
  0
XRECORD
  5
999D
102
{ACAD_REACTORS
330
999C
102
}
330
999C
100
AcDbXrecord
280
     1
102
RTVSPost2010Prop28
280
     0
102
RTVSPost2010PropOp28
 70
     1
102
RTVSPost2010Prop29
280
     1
102
RTVSPost2010PropOp29
 70
     1
102
RTVSPost2010Prop30
280
     1
102
RTVSPost2010PropOp30
 70
     1
102
RTVSPost2010Prop31
280
     0
102
RTVSPost2010PropOp31
 70
     1
102
RTVSPost2010Prop32
280
     0
102
RTVSPost2010PropOp32
 70
     1
102
RTVSPost2010Prop33
280
     0
102
RTVSPost2010PropOp33
 70
     1
102
RTVSPost2010Prop34
280
     0
102
RTVSPost2010PropOp34
 70
     1
102
RTVSPost2010Prop35
280
     0
102
RTVSPost2010PropOp35
 70
     1
102
RTVSPost2010Prop36
280
     0
102
RTVSPost2010PropOp36
 70
     1
102
RTVSPost2010Prop37
 90
       50
102
RTVSPost2010PropOp37
 70
     1
102
RTVSPost2010Prop38
140
0.0
102
RTVSPost2010PropOp38
 70
     1
102
RTVSPost2010Prop39
140
1.0
102
RTVSPost2010PropOp39
 70
     1
102
RTVSPost2010Prop40
 90
        0
102
RTVSPost2010PropOp40
 70
     1
102
RTVSPost2010Prop41ColorIndex
 90
       18
102
RTVSPost2010Prop41ColorRGB
 90
        0
102
RTVSPost2010PropOp41
 70
     1
102
RTVSPost2010Prop42
 90
       50
102
RTVSPost2010PropOp42
 70
     1
102
RTVSPost2010Prop43
 90
        3
102
RTVSPost2010PropOp43
 70
     1
102
RTVSPost2010Prop44ColorIndex
 90
        5
102
RTVSPost2010Prop44ColorRGB
 90
      255
102
RTVSPost2010PropOp44
 70
     1
102
RTVSPost2010Prop45
280
     0
102
RTVSPost2010PropOp45
 70
     1
102
RTVSPost2010Prop46
 90
       50
102
RTVSPost2010PropOp46
 70
     1
102
RTVSPost2010Prop47
 90
       50
102
RTVSPost2010PropOp47
 70
     1
102
RTVSPost2010Prop48
 90
       50
102
RTVSPost2010PropOp48
 70
     1
102
RTVSPost2010Prop49
280
     0
102
RTVSPost2010PropOp49
 70
     1
102
RTVSPost2010Prop50
 90
       50
102
RTVSPost2010PropOp50
 70
     1
102
RTVSPost2010Prop51ColorIndex
 90
      256
102
RTVSPost2010Prop51ColorRGB
 90
-16777216
102
RTVSPost2010PropOp51
 70
     0
102
RTVSPost2010Prop52
140
1.0
102
RTVSPost2010PropOp52
 70
     0
102
RTVSPost2010Prop53
 90
        2
102
RTVSPost2010PropOp53
 70
     1
102
RTVSPost2010Prop54
  1
strokes_ogs.tif
102
RTVSPost2010PropOp54
 70
     1
102
RTVSPost2010Prop55
280
     0
102
RTVSPost2010PropOp55
 70
     1
102
RTVSPost2010Prop56
140
1.0
102
RTVSPost2010PropOp56
 70
     1
102
RTVSPost2010Prop57
140
1.0
102
RTVSPost2010PropOp57
 70
     1
102
RTVSPropertyOp0
 70
     1
102
RTVSPropertyOp1
 70
     1
102
RTVSPropertyOp2
 70
     1
102
RTVSPropertyOp3
 70
     1
102
RTVSPropertyOp4
 70
     1
102
RTVSPropertyOp5
 70
     1
102
RTVSPropertyOp6
 70
     1
102
RTVSPropertyOp7
 70
     1
102
RTVSPropertyOp8
 70
     1
102
RTVSPropertyOp9
 70
     1
102
RTVSPropertyOp10
 70
     1
102
RTVSPropertyOp11
 70
     1
102
RTVSPropertyOp12
 70
     1
102
RTVSPropertyOp13
 70
     1
102
RTVSPropertyOp14
 70
     1
102
RTVSPropertyOp15
 70
     1
102
RTVSPropertyOp16
 70
     1
102
RTVSPropertyOp17
 70
     1
102
RTVSPropertyOp18
 70
     1
102
RTVSPropertyOp19
 70
     1
102
RTVSPropertyOp20
 70
     1
102
RTVSPropertyOp21
 70
     1
102
RTVSPropertyOp22
 70
     1
102
RTVSPropertyOp23
 70
     1
102
RTVSPropertyOp24
 70
     1
102
RTVSPropertyOp25
 70
     1
102
RTVSPropertyOp26
 70
     1
102
RTVSPropertyOp27
 70
     1
102
RTVSPropertyOp28
 70
     1
102
RTVSPropertyOp29
 70
     1
102
RTVSPropertyOp30
 70
     1
102
RTVSPropertyOp31
 70
     1
102
RTVSPropertyOp32
 70
     1
102
RTVSPropertyOp33
 70
     1
102
RTVSPropertyOp34
 70
     1
102
RTVSPropertyOp35
 70
     1
102
RTVSPropertyOp36
 70
     1
102
RTVSPropertyOp37
 70
     1
102
RTVSPropertyOp38
 70
     1
102
RTVSPropertyOp39
 70
     1
102
RTVSPropertyOp40
 70
     1
102
RTVSPropertyOp41
 70
     1
102
RTVSPropertyOp42
 70
     1
102
RTVSPropertyOp43
 70
     1
102
RTVSPropertyOp44
 70
     1
102
RTVSPropertyOp45
 70
     1
102
RTVSPropertyOp46
 70
     1
102
RTVSPropertyOp47
 70
     1
102
RTVSPropertyOp48
 70
     1
102
RTVSPropertyOp49
 70
     1
102
RTVSPropertyOp50
 70
     1
102
RTVSPropertyOp51
 70
     0
102
RTVSPropertyOp52
 70
     0
102
RTVSPropertyOp53
 70
     1
102
RTVSPropertyOp54
 70
     1
102
RTVSPropertyOp55
 70
     1
102
RTVSPropertyOp56
 70
     1
102
RTVSPropertyOp57
 70
     1
102
RTVSPropertyOp58
 70
     1
102
RTVSPropertyOp59
 70
     1
102
RTVSPropertyOp60
 70
     1
102
RTVSPropertyOp61
 70
     1
102
RTVSPropertyOp62
 70
     1
  0
XRECORD
  5
99B7
102
{ACAD_REACTORS
330
99B6
102
}
330
99B6
100
AcDbXrecord
280
     1
102
RTVSPost2010Prop28
280
     0
102
RTVSPost2010PropOp28
 70
     1
102
RTVSPost2010Prop29
280
     1
102
RTVSPost2010PropOp29
 70
     1
102
RTVSPost2010Prop30
280
     1
102
RTVSPost2010PropOp30
 70
     1
102
RTVSPost2010Prop31
280
     0
102
RTVSPost2010PropOp31
 70
     1
102
RTVSPost2010Prop32
280
     0
102
RTVSPost2010PropOp32
 70
     1
102
RTVSPost2010Prop33
280
     0
102
RTVSPost2010PropOp33
 70
     1
102
RTVSPost2010Prop34
280
     0
102
RTVSPost2010PropOp34
 70
     1
102
RTVSPost2010Prop35
280
     0
102
RTVSPost2010PropOp35
 70
     1
102
RTVSPost2010Prop36
280
     0
102
RTVSPost2010PropOp36
 70
     1
102
RTVSPost2010Prop37
 90
       50
102
RTVSPost2010PropOp37
 70
     0
102
RTVSPost2010Prop38
140
0.0
102
RTVSPost2010PropOp38
 70
     0
102
RTVSPost2010Prop39
140
1.0
102
RTVSPost2010PropOp39
 70
     0
102
RTVSPost2010Prop40
 90
        0
102
RTVSPost2010PropOp40
 70
     0
102
RTVSPost2010Prop41ColorIndex
 90
       18
102
RTVSPost2010Prop41ColorRGB
 90
        0
102
RTVSPost2010PropOp41
 70
     0
102
RTVSPost2010Prop42
 90
       50
102
RTVSPost2010PropOp42
 70
     0
102
RTVSPost2010Prop43
 90
        3
102
RTVSPost2010PropOp43
 70
     0
102
RTVSPost2010Prop44ColorIndex
 90
        5
102
RTVSPost2010Prop44ColorRGB
 90
      255
102
RTVSPost2010PropOp44
 70
     0
102
RTVSPost2010Prop45
280
     0
102
RTVSPost2010PropOp45
 70
     1
102
RTVSPost2010Prop46
 90
       50
102
RTVSPost2010PropOp46
 70
     0
102
RTVSPost2010Prop47
 90
       50
102
RTVSPost2010PropOp47
 70
     0
102
RTVSPost2010Prop48
 90
       50
102
RTVSPost2010PropOp48
 70
     0
102
RTVSPost2010Prop49
280
     0
102
RTVSPost2010PropOp49
 70
     1
102
RTVSPost2010Prop50
 90
       50
102
RTVSPost2010PropOp50
 70
     0
102
RTVSPost2010Prop51ColorIndex
 90
      256
102
RTVSPost2010Prop51ColorRGB
 90
-16777216
102
RTVSPost2010PropOp51
 70
     0
102
RTVSPost2010Prop52
140
1.0
102
RTVSPost2010PropOp52
 70
     0
102
RTVSPost2010Prop53
 90
        2
102
RTVSPost2010PropOp53
 70
     0
102
RTVSPost2010Prop54
  1
strokes_ogs.tif
102
RTVSPost2010PropOp54
 70
     0
102
RTVSPost2010Prop55
280
     0
102
RTVSPost2010PropOp55
 70
     1
102
RTVSPost2010Prop56
140
1.0
102
RTVSPost2010PropOp56
 70
     0
102
RTVSPost2010Prop57
140
1.0
102
RTVSPost2010PropOp57
 70
     0
102
RTVSPropertyOp0
 70
     0
102
RTVSPropertyOp1
 70
     0
102
RTVSPropertyOp2
 70
     0
102
RTVSPropertyOp3
 70
     0
102
RTVSPropertyOp4
 70
     0
102
RTVSPropertyOp5
 70
     0
102
RTVSPropertyOp6
 70
     0
102
RTVSPropertyOp7
 70
     0
102
RTVSPropertyOp8
 70
     0
102
RTVSPropertyOp9
 70
     0
102
RTVSPropertyOp10
 70
     0
102
RTVSPropertyOp11
 70
     0
102
RTVSPropertyOp12
 70
     0
102
RTVSPropertyOp13
 70
     0
102
RTVSPropertyOp14
 70
     2
102
RTVSPropertyOp15
 70
     0
102
RTVSPropertyOp16
 70
     0
102
RTVSPropertyOp17
 70
     0
102
RTVSPropertyOp18
 70
     0
102
RTVSPropertyOp19
 70
     0
102
RTVSPropertyOp20
 70
     0
102
RTVSPropertyOp21
 70
     0
102
RTVSPropertyOp22
 70
     0
102
RTVSPropertyOp23
 70
     0
102
RTVSPropertyOp24
 70
     0
102
RTVSPropertyOp25
 70
     0
102
RTVSPropertyOp26
 70
     0
102
RTVSPropertyOp27
 70
     0
102
RTVSPropertyOp28
 70
     1
102
RTVSPropertyOp29
 70
     1
102
RTVSPropertyOp30
 70
     1
102
RTVSPropertyOp31
 70
     1
102
RTVSPropertyOp32
 70
     1
102
RTVSPropertyOp33
 70
     1
102
RTVSPropertyOp34
 70
     1
102
RTVSPropertyOp35
 70
     1
102
RTVSPropertyOp36
 70
     1
102
RTVSPropertyOp37
 70
     0
102
RTVSPropertyOp38
 70
     0
102
RTVSPropertyOp39
 70
     0
102
RTVSPropertyOp40
 70
     0
102
RTVSPropertyOp41
 70
     0
102
RTVSPropertyOp42
 70
     0
102
RTVSPropertyOp43
 70
     0
102
RTVSPropertyOp44
 70
     0
102
RTVSPropertyOp45
 70
     1
102
RTVSPropertyOp46
 70
     0
102
RTVSPropertyOp47
 70
     0
102
RTVSPropertyOp48
 70
     0
102
RTVSPropertyOp49
 70
     1
102
RTVSPropertyOp50
 70
     0
102
RTVSPropertyOp51
 70
     0
102
RTVSPropertyOp52
 70
     0
102
RTVSPropertyOp53
 70
     0
102
RTVSPropertyOp54
 70
     0
102
RTVSPropertyOp55
 70
     1
102
RTVSPropertyOp56
 70
     0
102
RTVSPropertyOp57
 70
     0
102
RTVSPropertyOp58
 70
     0
102
RTVSPropertyOp59
 70
     0
102
RTVSPropertyOp60
 70
     0
102
RTVSPropertyOp61
 70
     0
102
RTVSPropertyOp62
 70
     0
  0
XRECORD
  5
99A5
102
{ACAD_REACTORS
330
99A4
102
}
330
99A4
100
AcDbXrecord
280
     1
102
RTVSPost2010Prop28
280
     0
102
RTVSPost2010PropOp28
 70
     1
102
RTVSPost2010Prop29
280
     1
102
RTVSPost2010PropOp29
 70
     1
102
RTVSPost2010Prop30
280
     1
102
RTVSPost2010PropOp30
 70
     1
102
RTVSPost2010Prop31
280
     0
102
RTVSPost2010PropOp31
 70
     1
102
RTVSPost2010Prop32
280
     0
102
RTVSPost2010PropOp32
 70
     1
102
RTVSPost2010Prop33
280
     0
102
RTVSPost2010PropOp33
 70
     1
102
RTVSPost2010Prop34
280
     0
102
RTVSPost2010PropOp34
 70
     1
102
RTVSPost2010Prop35
280
     0
102
RTVSPost2010PropOp35
 70
     1
102
RTVSPost2010Prop36
280
     0
102
RTVSPost2010PropOp36
 70
     1
102
RTVSPost2010Prop37
 90
       50
102
RTVSPost2010PropOp37
 70
     1
102
RTVSPost2010Prop38
140
0.0
102
RTVSPost2010PropOp38
 70
     1
102
RTVSPost2010Prop39
140
1.0
102
RTVSPost2010PropOp39
 70
     1
102
RTVSPost2010Prop40
 90
        0
102
RTVSPost2010PropOp40
 70
     1
102
RTVSPost2010Prop41ColorIndex
 90
       18
102
RTVSPost2010Prop41ColorRGB
 90
        0
102
RTVSPost2010PropOp41
 70
     1
102
RTVSPost2010Prop42
 90
       50
102
RTVSPost2010PropOp42
 70
     1
102
RTVSPost2010Prop43
 90
        3
102
RTVSPost2010PropOp43
 70
     1
102
RTVSPost2010Prop44ColorIndex
 90
        5
102
RTVSPost2010Prop44ColorRGB
 90
      255
102
RTVSPost2010PropOp44
 70
     1
102
RTVSPost2010Prop45
280
     0
102
RTVSPost2010PropOp45
 70
     1
102
RTVSPost2010Prop46
 90
       50
102
RTVSPost2010PropOp46
 70
     1
102
RTVSPost2010Prop47
 90
       50
102
RTVSPost2010PropOp47
 70
     1
102
RTVSPost2010Prop48
 90
       50
102
RTVSPost2010PropOp48
 70
     1
102
RTVSPost2010Prop49
280
     0
102
RTVSPost2010PropOp49
 70
     1
102
RTVSPost2010Prop50
 90
       50
102
RTVSPost2010PropOp50
 70
     1
102
RTVSPost2010Prop51ColorIndex
 90
      256
102
RTVSPost2010Prop51ColorRGB
 90
-16777216
102
RTVSPost2010PropOp51
 70
     0
102
RTVSPost2010Prop52
140
1.0
102
RTVSPost2010PropOp52
 70
     0
102
RTVSPost2010Prop53
 90
        2
102
RTVSPost2010PropOp53
 70
     1
102
RTVSPost2010Prop54
  1
strokes_ogs.tif
102
RTVSPost2010PropOp54
 70
     1
102
RTVSPost2010Prop55
280
     0
102
RTVSPost2010PropOp55
 70
     1
102
RTVSPost2010Prop56
140
1.0
102
RTVSPost2010PropOp56
 70
     1
102
RTVSPost2010Prop57
140
1.0
102
RTVSPost2010PropOp57
 70
     1
102
RTVSPropertyOp0
 70
     1
102
RTVSPropertyOp1
 70
     1
102
RTVSPropertyOp2
 70
     1
102
RTVSPropertyOp3
 70
     1
102
RTVSPropertyOp4
 70
     1
102
RTVSPropertyOp5
 70
     1
102
RTVSPropertyOp6
 70
     1
102
RTVSPropertyOp7
 70
     1
102
RTVSPropertyOp8
 70
     1
102
RTVSPropertyOp9
 70
     1
102
RTVSPropertyOp10
 70
     1
102
RTVSPropertyOp11
 70
     1
102
RTVSPropertyOp12
 70
     1
102
RTVSPropertyOp13
 70
     1
102
RTVSPropertyOp14
 70
     1
102
RTVSPropertyOp15
 70
     1
102
RTVSPropertyOp16
 70
     1
102
RTVSPropertyOp17
 70
     1
102
RTVSPropertyOp18
 70
     1
102
RTVSPropertyOp19
 70
     1
102
RTVSPropertyOp20
 70
     1
102
RTVSPropertyOp21
 70
     1
102
RTVSPropertyOp22
 70
     1
102
RTVSPropertyOp23
 70
     1
102
RTVSPropertyOp24
 70
     1
102
RTVSPropertyOp25
 70
     1
102
RTVSPropertyOp26
 70
     1
102
RTVSPropertyOp27
 70
     1
102
RTVSPropertyOp28
 70
     1
102
RTVSPropertyOp29
 70
     1
102
RTVSPropertyOp30
 70
     1
102
RTVSPropertyOp31
 70
     1
102
RTVSPropertyOp32
 70
     1
102
RTVSPropertyOp33
 70
     1
102
RTVSPropertyOp34
 70
     1
102
RTVSPropertyOp35
 70
     1
102
RTVSPropertyOp36
 70
     1
102
RTVSPropertyOp37
 70
     1
102
RTVSPropertyOp38
 70
     1
102
RTVSPropertyOp39
 70
     1
102
RTVSPropertyOp40
 70
     1
102
RTVSPropertyOp41
 70
     1
102
RTVSPropertyOp42
 70
     1
102
RTVSPropertyOp43
 70
     1
102
RTVSPropertyOp44
 70
     1
102
RTVSPropertyOp45
 70
     1
102
RTVSPropertyOp46
 70
     1
102
RTVSPropertyOp47
 70
     1
102
RTVSPropertyOp48
 70
     1
102
RTVSPropertyOp49
 70
     1
102
RTVSPropertyOp50
 70
     1
102
RTVSPropertyOp51
 70
     0
102
RTVSPropertyOp52
 70
     0
102
RTVSPropertyOp53
 70
     1
102
RTVSPropertyOp54
 70
     1
102
RTVSPropertyOp55
 70
     1
102
RTVSPropertyOp56
 70
     1
102
RTVSPropertyOp57
 70
     1
102
RTVSPropertyOp58
 70
     1
102
RTVSPropertyOp59
 70
     1
102
RTVSPropertyOp60
 70
     1
102
RTVSPropertyOp61
 70
     1
102
RTVSPropertyOp62
 70
     1
  0
XRECORD
  5
9989
102
{ACAD_REACTORS
330
9988
102
}
330
9988
100
AcDbXrecord
280
     1
102
RTVSPost2010Prop28
280
     0
102
RTVSPost2010PropOp28
 70
     1
102
RTVSPost2010Prop29
280
     1
102
RTVSPost2010PropOp29
 70
     1
102
RTVSPost2010Prop30
280
     1
102
RTVSPost2010PropOp30
 70
     1
102
RTVSPost2010Prop31
280
     0
102
RTVSPost2010PropOp31
 70
     1
102
RTVSPost2010Prop32
280
     0
102
RTVSPost2010PropOp32
 70
     1
102
RTVSPost2010Prop33
280
     0
102
RTVSPost2010PropOp33
 70
     1
102
RTVSPost2010Prop34
280
     0
102
RTVSPost2010PropOp34
 70
     1
102
RTVSPost2010Prop35
280
     0
102
RTVSPost2010PropOp35
 70
     1
102
RTVSPost2010Prop36
280
     0
102
RTVSPost2010PropOp36
 70
     1
102
RTVSPost2010Prop37
 90
       50
102
RTVSPost2010PropOp37
 70
     1
102
RTVSPost2010Prop38
140
0.0
102
RTVSPost2010PropOp38
 70
     1
102
RTVSPost2010Prop39
140
1.0
102
RTVSPost2010PropOp39
 70
     1
102
RTVSPost2010Prop40
 90
        0
102
RTVSPost2010PropOp40
 70
     1
102
RTVSPost2010Prop41ColorIndex
 90
       18
102
RTVSPost2010Prop41ColorRGB
 90
        0
102
RTVSPost2010PropOp41
 70
     1
102
RTVSPost2010Prop42
 90
       50
102
RTVSPost2010PropOp42
 70
     1
102
RTVSPost2010Prop43
 90
        3
102
RTVSPost2010PropOp43
 70
     1
102
RTVSPost2010Prop44ColorIndex
 90
        5
102
RTVSPost2010Prop44ColorRGB
 90
      255
102
RTVSPost2010PropOp44
 70
     1
102
RTVSPost2010Prop45
280
     0
102
RTVSPost2010PropOp45
 70
     1
102
RTVSPost2010Prop46
 90
       50
102
RTVSPost2010PropOp46
 70
     1
102
RTVSPost2010Prop47
 90
       50
102
RTVSPost2010PropOp47
 70
     1
102
RTVSPost2010Prop48
 90
       50
102
RTVSPost2010PropOp48
 70
     1
102
RTVSPost2010Prop49
280
     0
102
RTVSPost2010PropOp49
 70
     1
102
RTVSPost2010Prop50
 90
       50
102
RTVSPost2010PropOp50
 70
     1
102
RTVSPost2010Prop51ColorIndex
 90
      256
102
RTVSPost2010Prop51ColorRGB
 90
-16777216
102
RTVSPost2010PropOp51
 70
     0
102
RTVSPost2010Prop52
140
1.0
102
RTVSPost2010PropOp52
 70
     0
102
RTVSPost2010Prop53
 90
        2
102
RTVSPost2010PropOp53
 70
     1
102
RTVSPost2010Prop54
  1
strokes_ogs.tif
102
RTVSPost2010PropOp54
 70
     1
102
RTVSPost2010Prop55
280
     0
102
RTVSPost2010PropOp55
 70
     1
102
RTVSPost2010Prop56
140
1.0
102
RTVSPost2010PropOp56
 70
     1
102
RTVSPost2010Prop57
140
1.0
102
RTVSPost2010PropOp57
 70
     1
102
RTVSPropertyOp0
 70
     1
102
RTVSPropertyOp1
 70
     1
102
RTVSPropertyOp2
 70
     1
102
RTVSPropertyOp3
 70
     1
102
RTVSPropertyOp4
 70
     1
102
RTVSPropertyOp5
 70
     1
102
RTVSPropertyOp6
 70
     1
102
RTVSPropertyOp7
 70
     1
102
RTVSPropertyOp8
 70
     1
102
RTVSPropertyOp9
 70
     1
102
RTVSPropertyOp10
 70
     1
102
RTVSPropertyOp11
 70
     1
102
RTVSPropertyOp12
 70
     1
102
RTVSPropertyOp13
 70
     1
102
RTVSPropertyOp14
 70
     1
102
RTVSPropertyOp15
 70
     1
102
RTVSPropertyOp16
 70
     1
102
RTVSPropertyOp17
 70
     1
102
RTVSPropertyOp18
 70
     1
102
RTVSPropertyOp19
 70
     1
102
RTVSPropertyOp20
 70
     1
102
RTVSPropertyOp21
 70
     1
102
RTVSPropertyOp22
 70
     1
102
RTVSPropertyOp23
 70
     1
102
RTVSPropertyOp24
 70
     1
102
RTVSPropertyOp25
 70
     1
102
RTVSPropertyOp26
 70
     1
102
RTVSPropertyOp27
 70
     1
102
RTVSPropertyOp28
 70
     1
102
RTVSPropertyOp29
 70
     1
102
RTVSPropertyOp30
 70
     1
102
RTVSPropertyOp31
 70
     1
102
RTVSPropertyOp32
 70
     1
102
RTVSPropertyOp33
 70
     1
102
RTVSPropertyOp34
 70
     1
102
RTVSPropertyOp35
 70
     1
102
RTVSPropertyOp36
 70
     1
102
RTVSPropertyOp37
 70
     1
102
RTVSPropertyOp38
 70
     1
102
RTVSPropertyOp39
 70
     1
102
RTVSPropertyOp40
 70
     1
102
RTVSPropertyOp41
 70
     1
102
RTVSPropertyOp42
 70
     1
102
RTVSPropertyOp43
 70
     1
102
RTVSPropertyOp44
 70
     1
102
RTVSPropertyOp45
 70
     1
102
RTVSPropertyOp46
 70
     1
102
RTVSPropertyOp47
 70
     1
102
RTVSPropertyOp48
 70
     1
102
RTVSPropertyOp49
 70
     1
102
RTVSPropertyOp50
 70
     1
102
RTVSPropertyOp51
 70
     0
102
RTVSPropertyOp52
 70
     0
102
RTVSPropertyOp53
 70
     1
102
RTVSPropertyOp54
 70
     1
102
RTVSPropertyOp55
 70
     1
102
RTVSPropertyOp56
 70
     1
102
RTVSPropertyOp57
 70
     1
102
RTVSPropertyOp58
 70
     1
102
RTVSPropertyOp59
 70
     1
102
RTVSPropertyOp60
 70
     1
102
RTVSPropertyOp61
 70
     1
102
RTVSPropertyOp62
 70
     1
  0
XRECORD
  5
998B
102
{ACAD_REACTORS
330
998A
102
}
330
998A
100
AcDbXrecord
280
     1
102
RTVSPost2010Prop28
280
     0
102
RTVSPost2010PropOp28
 70
     1
102
RTVSPost2010Prop29
280
     1
102
RTVSPost2010PropOp29
 70
     1
102
RTVSPost2010Prop30
280
     1
102
RTVSPost2010PropOp30
 70
     1
102
RTVSPost2010Prop31
280
     0
102
RTVSPost2010PropOp31
 70
     1
102
RTVSPost2010Prop32
280
     0
102
RTVSPost2010PropOp32
 70
     1
102
RTVSPost2010Prop33
280
     0
102
RTVSPost2010PropOp33
 70
     1
102
RTVSPost2010Prop34
280
     0
102
RTVSPost2010PropOp34
 70
     1
102
RTVSPost2010Prop35
280
     0
102
RTVSPost2010PropOp35
 70
     1
102
RTVSPost2010Prop36
280
     0
102
RTVSPost2010PropOp36
 70
     1
102
RTVSPost2010Prop37
 90
       50
102
RTVSPost2010PropOp37
 70
     1
102
RTVSPost2010Prop38
140
0.0
102
RTVSPost2010PropOp38
 70
     1
102
RTVSPost2010Prop39
140
1.0
102
RTVSPost2010PropOp39
 70
     1
102
RTVSPost2010Prop40
 90
        0
102
RTVSPost2010PropOp40
 70
     1
102
RTVSPost2010Prop41ColorIndex
 90
       18
102
RTVSPost2010Prop41ColorRGB
 90
        0
102
RTVSPost2010PropOp41
 70
     1
102
RTVSPost2010Prop42
 90
       50
102
RTVSPost2010PropOp42
 70
     1
102
RTVSPost2010Prop43
 90
        3
102
RTVSPost2010PropOp43
 70
     1
102
RTVSPost2010Prop44ColorIndex
 90
        5
102
RTVSPost2010Prop44ColorRGB
 90
      255
102
RTVSPost2010PropOp44
 70
     1
102
RTVSPost2010Prop45
280
     0
102
RTVSPost2010PropOp45
 70
     1
102
RTVSPost2010Prop46
 90
       50
102
RTVSPost2010PropOp46
 70
     1
102
RTVSPost2010Prop47
 90
       50
102
RTVSPost2010PropOp47
 70
     1
102
RTVSPost2010Prop48
 90
       50
102
RTVSPost2010PropOp48
 70
     1
102
RTVSPost2010Prop49
280
     0
102
RTVSPost2010PropOp49
 70
     1
102
RTVSPost2010Prop50
 90
       50
102
RTVSPost2010PropOp50
 70
     1
102
RTVSPost2010Prop51ColorIndex
 90
      256
102
RTVSPost2010Prop51ColorRGB
 90
-16777216
102
RTVSPost2010PropOp51
 70
     0
102
RTVSPost2010Prop52
140
1.0
102
RTVSPost2010PropOp52
 70
     0
102
RTVSPost2010Prop53
 90
        2
102
RTVSPost2010PropOp53
 70
     1
102
RTVSPost2010Prop54
  1
strokes_ogs.tif
102
RTVSPost2010PropOp54
 70
     1
102
RTVSPost2010Prop55
280
     0
102
RTVSPost2010PropOp55
 70
     1
102
RTVSPost2010Prop56
140
1.0
102
RTVSPost2010PropOp56
 70
     1
102
RTVSPost2010Prop57
140
1.0
102
RTVSPost2010PropOp57
 70
     1
102
RTVSPropertyOp0
 70
     1
102
RTVSPropertyOp1
 70
     1
102
RTVSPropertyOp2
 70
     1
102
RTVSPropertyOp3
 70
     1
102
RTVSPropertyOp4
 70
     1
102
RTVSPropertyOp5
 70
     1
102
RTVSPropertyOp6
 70
     1
102
RTVSPropertyOp7
 70
     1
102
RTVSPropertyOp8
 70
     1
102
RTVSPropertyOp9
 70
     1
102
RTVSPropertyOp10
 70
     1
102
RTVSPropertyOp11
 70
     1
102
RTVSPropertyOp12
 70
     1
102
RTVSPropertyOp13
 70
     1
102
RTVSPropertyOp14
 70
     1
102
RTVSPropertyOp15
 70
     1
102
RTVSPropertyOp16
 70
     1
102
RTVSPropertyOp17
 70
     1
102
RTVSPropertyOp18
 70
     1
102
RTVSPropertyOp19
 70
     1
102
RTVSPropertyOp20
 70
     1
102
RTVSPropertyOp21
 70
     1
102
RTVSPropertyOp22
 70
     1
102
RTVSPropertyOp23
 70
     1
102
RTVSPropertyOp24
 70
     1
102
RTVSPropertyOp25
 70
     1
102
RTVSPropertyOp26
 70
     1
102
RTVSPropertyOp27
 70
     1
102
RTVSPropertyOp28
 70
     1
102
RTVSPropertyOp29
 70
     1
102
RTVSPropertyOp30
 70
     1
102
RTVSPropertyOp31
 70
     1
102
RTVSPropertyOp32
 70
     1
102
RTVSPropertyOp33
 70
     1
102
RTVSPropertyOp34
 70
     1
102
RTVSPropertyOp35
 70
     1
102
RTVSPropertyOp36
 70
     1
102
RTVSPropertyOp37
 70
     1
102
RTVSPropertyOp38
 70
     1
102
RTVSPropertyOp39
 70
     1
102
RTVSPropertyOp40
 70
     1
102
RTVSPropertyOp41
 70
     1
102
RTVSPropertyOp42
 70
     1
102
RTVSPropertyOp43
 70
     1
102
RTVSPropertyOp44
 70
     1
102
RTVSPropertyOp45
 70
     1
102
RTVSPropertyOp46
 70
     1
102
RTVSPropertyOp47
 70
     1
102
RTVSPropertyOp48
 70
     1
102
RTVSPropertyOp49
 70
     1
102
RTVSPropertyOp50
 70
     1
102
RTVSPropertyOp51
 70
     0
102
RTVSPropertyOp52
 70
     0
102
RTVSPropertyOp53
 70
     1
102
RTVSPropertyOp54
 70
     1
102
RTVSPropertyOp55
 70
     1
102
RTVSPropertyOp56
 70
     1
102
RTVSPropertyOp57
 70
     1
102
RTVSPropertyOp58
 70
     1
102
RTVSPropertyOp59
 70
     1
102
RTVSPropertyOp60
 70
     1
102
RTVSPropertyOp61
 70
     1
102
RTVSPropertyOp62
 70
     1
  0
XRECORD
  5
998D
102
{ACAD_REACTORS
330
998C
102
}
330
998C
100
AcDbXrecord
280
     1
102
RTVSPost2010Prop28
280
     0
102
RTVSPost2010PropOp28
 70
     1
102
RTVSPost2010Prop29
280
     1
102
RTVSPost2010PropOp29
 70
     1
102
RTVSPost2010Prop30
280
     1
102
RTVSPost2010PropOp30
 70
     1
102
RTVSPost2010Prop31
280
     0
102
RTVSPost2010PropOp31
 70
     1
102
RTVSPost2010Prop32
280
     0
102
RTVSPost2010PropOp32
 70
     1
102
RTVSPost2010Prop33
280
     0
102
RTVSPost2010PropOp33
 70
     1
102
RTVSPost2010Prop34
280
     0
102
RTVSPost2010PropOp34
 70
     1
102
RTVSPost2010Prop35
280
     0
102
RTVSPost2010PropOp35
 70
     1
102
RTVSPost2010Prop36
280
     0
102
RTVSPost2010PropOp36
 70
     1
102
RTVSPost2010Prop37
 90
       50
102
RTVSPost2010PropOp37
 70
     1
102
RTVSPost2010Prop38
140
0.0
102
RTVSPost2010PropOp38
 70
     1
102
RTVSPost2010Prop39
140
1.0
102
RTVSPost2010PropOp39
 70
     1
102
RTVSPost2010Prop40
 90
        0
102
RTVSPost2010PropOp40
 70
     1
102
RTVSPost2010Prop41ColorIndex
 90
       18
102
RTVSPost2010Prop41ColorRGB
 90
        0
102
RTVSPost2010PropOp41
 70
     1
102
RTVSPost2010Prop42
 90
       50
102
RTVSPost2010PropOp42
 70
     1
102
RTVSPost2010Prop43
 90
        3
102
RTVSPost2010PropOp43
 70
     1
102
RTVSPost2010Prop44ColorIndex
 90
        5
102
RTVSPost2010Prop44ColorRGB
 90
      255
102
RTVSPost2010PropOp44
 70
     1
102
RTVSPost2010Prop45
280
     0
102
RTVSPost2010PropOp45
 70
     1
102
RTVSPost2010Prop46
 90
       50
102
RTVSPost2010PropOp46
 70
     1
102
RTVSPost2010Prop47
 90
       50
102
RTVSPost2010PropOp47
 70
     1
102
RTVSPost2010Prop48
 90
       50
102
RTVSPost2010PropOp48
 70
     1
102
RTVSPost2010Prop49
280
     0
102
RTVSPost2010PropOp49
 70
     1
102
RTVSPost2010Prop50
 90
       50
102
RTVSPost2010PropOp50
 70
     1
102
RTVSPost2010Prop51ColorIndex
 90
      256
102
RTVSPost2010Prop51ColorRGB
 90
-16777216
102
RTVSPost2010PropOp51
 70
     0
102
RTVSPost2010Prop52
140
1.0
102
RTVSPost2010PropOp52
 70
     0
102
RTVSPost2010Prop53
 90
        2
102
RTVSPost2010PropOp53
 70
     1
102
RTVSPost2010Prop54
  1
strokes_ogs.tif
102
RTVSPost2010PropOp54
 70
     1
102
RTVSPost2010Prop55
280
     0
102
RTVSPost2010PropOp55
 70
     1
102
RTVSPost2010Prop56
140
1.0
102
RTVSPost2010PropOp56
 70
     1
102
RTVSPost2010Prop57
140
1.0
102
RTVSPost2010PropOp57
 70
     1
102
RTVSPropertyOp0
 70
     1
102
RTVSPropertyOp1
 70
     1
102
RTVSPropertyOp2
 70
     1
102
RTVSPropertyOp3
 70
     1
102
RTVSPropertyOp4
 70
     1
102
RTVSPropertyOp5
 70
     1
102
RTVSPropertyOp6
 70
     1
102
RTVSPropertyOp7
 70
     1
102
RTVSPropertyOp8
 70
     1
102
RTVSPropertyOp9
 70
     1
102
RTVSPropertyOp10
 70
     1
102
RTVSPropertyOp11
 70
     1
102
RTVSPropertyOp12
 70
     1
102
RTVSPropertyOp13
 70
     1
102
RTVSPropertyOp14
 70
     1
102
RTVSPropertyOp15
 70
     1
102
RTVSPropertyOp16
 70
     1
102
RTVSPropertyOp17
 70
     1
102
RTVSPropertyOp18
 70
     1
102
RTVSPropertyOp19
 70
     1
102
RTVSPropertyOp20
 70
     1
102
RTVSPropertyOp21
 70
     1
102
RTVSPropertyOp22
 70
     1
102
RTVSPropertyOp23
 70
     1
102
RTVSPropertyOp24
 70
     1
102
RTVSPropertyOp25
 70
     1
102
RTVSPropertyOp26
 70
     1
102
RTVSPropertyOp27
 70
     1
102
RTVSPropertyOp28
 70
     1
102
RTVSPropertyOp29
 70
     1
102
RTVSPropertyOp30
 70
     1
102
RTVSPropertyOp31
 70
     1
102
RTVSPropertyOp32
 70
     1
102
RTVSPropertyOp33
 70
     1
102
RTVSPropertyOp34
 70
     1
102
RTVSPropertyOp35
 70
     1
102
RTVSPropertyOp36
 70
     1
102
RTVSPropertyOp37
 70
     1
102
RTVSPropertyOp38
 70
     1
102
RTVSPropertyOp39
 70
     1
102
RTVSPropertyOp40
 70
     1
102
RTVSPropertyOp41
 70
     1
102
RTVSPropertyOp42
 70
     1
102
RTVSPropertyOp43
 70
     1
102
RTVSPropertyOp44
 70
     1
102
RTVSPropertyOp45
 70
     1
102
RTVSPropertyOp46
 70
     1
102
RTVSPropertyOp47
 70
     1
102
RTVSPropertyOp48
 70
     1
102
RTVSPropertyOp49
 70
     1
102
RTVSPropertyOp50
 70
     1
102
RTVSPropertyOp51
 70
     0
102
RTVSPropertyOp52
 70
     0
102
RTVSPropertyOp53
 70
     1
102
RTVSPropertyOp54
 70
     1
102
RTVSPropertyOp55
 70
     1
102
RTVSPropertyOp56
 70
     1
102
RTVSPropertyOp57
 70
     1
102
RTVSPropertyOp58
 70
     1
102
RTVSPropertyOp59
 70
     1
102
RTVSPropertyOp60
 70
     1
102
RTVSPropertyOp61
 70
     1
102
RTVSPropertyOp62
 70
     1
  0
XRECORD
  5
998F
102
{ACAD_REACTORS
330
998E
102
}
330
998E
100
AcDbXrecord
280
     1
102
RTVSPost2010Prop28
280
     0
102
RTVSPost2010PropOp28
 70
     1
102
RTVSPost2010Prop29
280
     1
102
RTVSPost2010PropOp29
 70
     1
102
RTVSPost2010Prop30
280
     1
102
RTVSPost2010PropOp30
 70
     1
102
RTVSPost2010Prop31
280
     0
102
RTVSPost2010PropOp31
 70
     1
102
RTVSPost2010Prop32
280
     0
102
RTVSPost2010PropOp32
 70
     1
102
RTVSPost2010Prop33
280
     0
102
RTVSPost2010PropOp33
 70
     1
102
RTVSPost2010Prop34
280
     0
102
RTVSPost2010PropOp34
 70
     1
102
RTVSPost2010Prop35
280
     0
102
RTVSPost2010PropOp35
 70
     1
102
RTVSPost2010Prop36
280
     0
102
RTVSPost2010PropOp36
 70
     1
102
RTVSPost2010Prop37
 90
       50
102
RTVSPost2010PropOp37
 70
     1
102
RTVSPost2010Prop38
140
0.0
102
RTVSPost2010PropOp38
 70
     1
102
RTVSPost2010Prop39
140
1.0
102
RTVSPost2010PropOp39
 70
     1
102
RTVSPost2010Prop40
 90
        0
102
RTVSPost2010PropOp40
 70
     1
102
RTVSPost2010Prop41ColorIndex
 90
       18
102
RTVSPost2010Prop41ColorRGB
 90
        0
102
RTVSPost2010PropOp41
 70
     1
102
RTVSPost2010Prop42
 90
       50
102
RTVSPost2010PropOp42
 70
     1
102
RTVSPost2010Prop43
 90
        3
102
RTVSPost2010PropOp43
 70
     1
102
RTVSPost2010Prop44ColorIndex
 90
        5
102
RTVSPost2010Prop44ColorRGB
 90
      255
102
RTVSPost2010PropOp44
 70
     1
102
RTVSPost2010Prop45
280
     0
102
RTVSPost2010PropOp45
 70
     1
102
RTVSPost2010Prop46
 90
       50
102
RTVSPost2010PropOp46
 70
     1
102
RTVSPost2010Prop47
 90
       50
102
RTVSPost2010PropOp47
 70
     1
102
RTVSPost2010Prop48
 90
       50
102
RTVSPost2010PropOp48
 70
     1
102
RTVSPost2010Prop49
280
     0
102
RTVSPost2010PropOp49
 70
     1
102
RTVSPost2010Prop50
 90
       50
102
RTVSPost2010PropOp50
 70
     1
102
RTVSPost2010Prop51ColorIndex
 90
      256
102
RTVSPost2010Prop51ColorRGB
 90
-16777216
102
RTVSPost2010PropOp51
 70
     0
102
RTVSPost2010Prop52
140
1.0
102
RTVSPost2010PropOp52
 70
     0
102
RTVSPost2010Prop53
 90
        2
102
RTVSPost2010PropOp53
 70
     1
102
RTVSPost2010Prop54
  1
strokes_ogs.tif
102
RTVSPost2010PropOp54
 70
     1
102
RTVSPost2010Prop55
280
     0
102
RTVSPost2010PropOp55
 70
     1
102
RTVSPost2010Prop56
140
1.0
102
RTVSPost2010PropOp56
 70
     1
102
RTVSPost2010Prop57
140
1.0
102
RTVSPost2010PropOp57
 70
     1
102
RTVSPropertyOp0
 70
     1
102
RTVSPropertyOp1
 70
     1
102
RTVSPropertyOp2
 70
     1
102
RTVSPropertyOp3
 70
     1
102
RTVSPropertyOp4
 70
     1
102
RTVSPropertyOp5
 70
     1
102
RTVSPropertyOp6
 70
     1
102
RTVSPropertyOp7
 70
     1
102
RTVSPropertyOp8
 70
     1
102
RTVSPropertyOp9
 70
     1
102
RTVSPropertyOp10
 70
     1
102
RTVSPropertyOp11
 70
     1
102
RTVSPropertyOp12
 70
     1
102
RTVSPropertyOp13
 70
     1
102
RTVSPropertyOp14
 70
     1
102
RTVSPropertyOp15
 70
     1
102
RTVSPropertyOp16
 70
     1
102
RTVSPropertyOp17
 70
     1
102
RTVSPropertyOp18
 70
     1
102
RTVSPropertyOp19
 70
     1
102
RTVSPropertyOp20
 70
     1
102
RTVSPropertyOp21
 70
     1
102
RTVSPropertyOp22
 70
     1
102
RTVSPropertyOp23
 70
     1
102
RTVSPropertyOp24
 70
     1
102
RTVSPropertyOp25
 70
     1
102
RTVSPropertyOp26
 70
     1
102
RTVSPropertyOp27
 70
     1
102
RTVSPropertyOp28
 70
     1
102
RTVSPropertyOp29
 70
     1
102
RTVSPropertyOp30
 70
     1
102
RTVSPropertyOp31
 70
     1
102
RTVSPropertyOp32
 70
     1
102
RTVSPropertyOp33
 70
     1
102
RTVSPropertyOp34
 70
     1
102
RTVSPropertyOp35
 70
     1
102
RTVSPropertyOp36
 70
     1
102
RTVSPropertyOp37
 70
     1
102
RTVSPropertyOp38
 70
     1
102
RTVSPropertyOp39
 70
     1
102
RTVSPropertyOp40
 70
     1
102
RTVSPropertyOp41
 70
     1
102
RTVSPropertyOp42
 70
     1
102
RTVSPropertyOp43
 70
     1
102
RTVSPropertyOp44
 70
     1
102
RTVSPropertyOp45
 70
     1
102
RTVSPropertyOp46
 70
     1
102
RTVSPropertyOp47
 70
     1
102
RTVSPropertyOp48
 70
     1
102
RTVSPropertyOp49
 70
     1
102
RTVSPropertyOp50
 70
     1
102
RTVSPropertyOp51
 70
     0
102
RTVSPropertyOp52
 70
     0
102
RTVSPropertyOp53
 70
     1
102
RTVSPropertyOp54
 70
     1
102
RTVSPropertyOp55
 70
     1
102
RTVSPropertyOp56
 70
     1
102
RTVSPropertyOp57
 70
     1
102
RTVSPropertyOp58
 70
     1
102
RTVSPropertyOp59
 70
     1
102
RTVSPropertyOp60
 70
     1
102
RTVSPropertyOp61
 70
     1
102
RTVSPropertyOp62
 70
     1
  0
XRECORD
  5
9997
102
{ACAD_REACTORS
330
9996
102
}
330
9996
100
AcDbXrecord
280
     1
102
RTVSPost2010Prop28
280
     0
102
RTVSPost2010PropOp28
 70
     1
102
RTVSPost2010Prop29
280
     1
102
RTVSPost2010PropOp29
 70
     1
102
RTVSPost2010Prop30
280
     1
102
RTVSPost2010PropOp30
 70
     1
102
RTVSPost2010Prop31
280
     0
102
RTVSPost2010PropOp31
 70
     1
102
RTVSPost2010Prop32
280
     0
102
RTVSPost2010PropOp32
 70
     1
102
RTVSPost2010Prop33
280
     0
102
RTVSPost2010PropOp33
 70
     1
102
RTVSPost2010Prop34
280
     0
102
RTVSPost2010PropOp34
 70
     1
102
RTVSPost2010Prop35
280
     0
102
RTVSPost2010PropOp35
 70
     1
102
RTVSPost2010Prop36
280
     0
102
RTVSPost2010PropOp36
 70
     1
102
RTVSPost2010Prop37
 90
       50
102
RTVSPost2010PropOp37
 70
     1
102
RTVSPost2010Prop38
140
0.0
102
RTVSPost2010PropOp38
 70
     1
102
RTVSPost2010Prop39
140
1.0
102
RTVSPost2010PropOp39
 70
     1
102
RTVSPost2010Prop40
 90
        0
102
RTVSPost2010PropOp40
 70
     1
102
RTVSPost2010Prop41ColorIndex
 90
       18
102
RTVSPost2010Prop41ColorRGB
 90
        0
102
RTVSPost2010PropOp41
 70
     1
102
RTVSPost2010Prop42
 90
       50
102
RTVSPost2010PropOp42
 70
     1
102
RTVSPost2010Prop43
 90
        3
102
RTVSPost2010PropOp43
 70
     1
102
RTVSPost2010Prop44ColorIndex
 90
        5
102
RTVSPost2010Prop44ColorRGB
 90
      255
102
RTVSPost2010PropOp44
 70
     1
102
RTVSPost2010Prop45
280
     0
102
RTVSPost2010PropOp45
 70
     1
102
RTVSPost2010Prop46
 90
       50
102
RTVSPost2010PropOp46
 70
     1
102
RTVSPost2010Prop47
 90
       50
102
RTVSPost2010PropOp47
 70
     1
102
RTVSPost2010Prop48
 90
       50
102
RTVSPost2010PropOp48
 70
     1
102
RTVSPost2010Prop49
280
     0
102
RTVSPost2010PropOp49
 70
     1
102
RTVSPost2010Prop50
 90
       50
102
RTVSPost2010PropOp50
 70
     1
102
RTVSPost2010Prop51ColorIndex
 90
      256
102
RTVSPost2010Prop51ColorRGB
 90
-16777216
102
RTVSPost2010PropOp51
 70
     0
102
RTVSPost2010Prop52
140
1.0
102
RTVSPost2010PropOp52
 70
     0
102
RTVSPost2010Prop53
 90
        2
102
RTVSPost2010PropOp53
 70
     1
102
RTVSPost2010Prop54
  1
strokes_ogs.tif
102
RTVSPost2010PropOp54
 70
     1
102
RTVSPost2010Prop55
280
     0
102
RTVSPost2010PropOp55
 70
     1
102
RTVSPost2010Prop56
140
1.0
102
RTVSPost2010PropOp56
 70
     1
102
RTVSPost2010Prop57
140
1.0
102
RTVSPost2010PropOp57
 70
     1
102
RTVSPropertyOp0
 70
     1
102
RTVSPropertyOp1
 70
     1
102
RTVSPropertyOp2
 70
     1
102
RTVSPropertyOp3
 70
     1
102
RTVSPropertyOp4
 70
     1
102
RTVSPropertyOp5
 70
     1
102
RTVSPropertyOp6
 70
     1
102
RTVSPropertyOp7
 70
     1
102
RTVSPropertyOp8
 70
     1
102
RTVSPropertyOp9
 70
     1
102
RTVSPropertyOp10
 70
     1
102
RTVSPropertyOp11
 70
     1
102
RTVSPropertyOp12
 70
     1
102
RTVSPropertyOp13
 70
     1
102
RTVSPropertyOp14
 70
     1
102
RTVSPropertyOp15
 70
     1
102
RTVSPropertyOp16
 70
     1
102
RTVSPropertyOp17
 70
     1
102
RTVSPropertyOp18
 70
     1
102
RTVSPropertyOp19
 70
     1
102
RTVSPropertyOp20
 70
     1
102
RTVSPropertyOp21
 70
     1
102
RTVSPropertyOp22
 70
     1
102
RTVSPropertyOp23
 70
     1
102
RTVSPropertyOp24
 70
     1
102
RTVSPropertyOp25
 70
     1
102
RTVSPropertyOp26
 70
     1
102
RTVSPropertyOp27
 70
     1
102
RTVSPropertyOp28
 70
     1
102
RTVSPropertyOp29
 70
     1
102
RTVSPropertyOp30
 70
     1
102
RTVSPropertyOp31
 70
     1
102
RTVSPropertyOp32
 70
     1
102
RTVSPropertyOp33
 70
     1
102
RTVSPropertyOp34
 70
     1
102
RTVSPropertyOp35
 70
     1
102
RTVSPropertyOp36
 70
     1
102
RTVSPropertyOp37
 70
     1
102
RTVSPropertyOp38
 70
     1
102
RTVSPropertyOp39
 70
     1
102
RTVSPropertyOp40
 70
     1
102
RTVSPropertyOp41
 70
     1
102
RTVSPropertyOp42
 70
     1
102
RTVSPropertyOp43
 70
     1
102
RTVSPropertyOp44
 70
     1
102
RTVSPropertyOp45
 70
     1
102
RTVSPropertyOp46
 70
     1
102
RTVSPropertyOp47
 70
     1
102
RTVSPropertyOp48
 70
     1
102
RTVSPropertyOp49
 70
     1
102
RTVSPropertyOp50
 70
     1
102
RTVSPropertyOp51
 70
     0
102
RTVSPropertyOp52
 70
     0
102
RTVSPropertyOp53
 70
     1
102
RTVSPropertyOp54
 70
     1
102
RTVSPropertyOp55
 70
     1
102
RTVSPropertyOp56
 70
     1
102
RTVSPropertyOp57
 70
     1
102
RTVSPropertyOp58
 70
     1
102
RTVSPropertyOp59
 70
     1
102
RTVSPropertyOp60
 70
     1
102
RTVSPropertyOp61
 70
     1
102
RTVSPropertyOp62
 70
     1
  0
XRECORD
  5
99B3
102
{ACAD_REACTORS
330
99B2
102
}
330
99B2
100
AcDbXrecord
280
     1
102
RTVSPost2010Prop28
280
     0
102
RTVSPost2010PropOp28
 70
     1
102
RTVSPost2010Prop29
280
     1
102
RTVSPost2010PropOp29
 70
     1
102
RTVSPost2010Prop30
280
     1
102
RTVSPost2010PropOp30
 70
     1
102
RTVSPost2010Prop31
280
     0
102
RTVSPost2010PropOp31
 70
     1
102
RTVSPost2010Prop32
280
     0
102
RTVSPost2010PropOp32
 70
     1
102
RTVSPost2010Prop33
280
     0
102
RTVSPost2010PropOp33
 70
     1
102
RTVSPost2010Prop34
280
     0
102
RTVSPost2010PropOp34
 70
     1
102
RTVSPost2010Prop35
280
     0
102
RTVSPost2010PropOp35
 70
     1
102
RTVSPost2010Prop36
280
     0
102
RTVSPost2010PropOp36
 70
     1
102
RTVSPost2010Prop37
 90
       50
102
RTVSPost2010PropOp37
 70
     0
102
RTVSPost2010Prop38
140
0.0
102
RTVSPost2010PropOp38
 70
     0
102
RTVSPost2010Prop39
140
1.0
102
RTVSPost2010PropOp39
 70
     0
102
RTVSPost2010Prop40
 90
        0
102
RTVSPost2010PropOp40
 70
     0
102
RTVSPost2010Prop41ColorIndex
 90
       18
102
RTVSPost2010Prop41ColorRGB
 90
        0
102
RTVSPost2010PropOp41
 70
     0
102
RTVSPost2010Prop42
 90
       50
102
RTVSPost2010PropOp42
 70
     0
102
RTVSPost2010Prop43
 90
        3
102
RTVSPost2010PropOp43
 70
     0
102
RTVSPost2010Prop44ColorIndex
 90
        5
102
RTVSPost2010Prop44ColorRGB
 90
      255
102
RTVSPost2010PropOp44
 70
     0
102
RTVSPost2010Prop45
280
     0
102
RTVSPost2010PropOp45
 70
     1
102
RTVSPost2010Prop46
 90
       50
102
RTVSPost2010PropOp46
 70
     0
102
RTVSPost2010Prop47
 90
       50
102
RTVSPost2010PropOp47
 70
     0
102
RTVSPost2010Prop48
 90
       50
102
RTVSPost2010PropOp48
 70
     0
102
RTVSPost2010Prop49
280
     0
102
RTVSPost2010PropOp49
 70
     1
102
RTVSPost2010Prop50
 90
       50
102
RTVSPost2010PropOp50
 70
     0
102
RTVSPost2010Prop51ColorIndex
 90
      256
102
RTVSPost2010Prop51ColorRGB
 90
-16777216
102
RTVSPost2010PropOp51
 70
     0
102
RTVSPost2010Prop52
140
1.0
102
RTVSPost2010PropOp52
 70
     0
102
RTVSPost2010Prop53
 90
        2
102
RTVSPost2010PropOp53
 70
     0
102
RTVSPost2010Prop54
  1
strokes_ogs.tif
102
RTVSPost2010PropOp54
 70
     0
102
RTVSPost2010Prop55
280
     0
102
RTVSPost2010PropOp55
 70
     1
102
RTVSPost2010Prop56
140
1.0
102
RTVSPost2010PropOp56
 70
     0
102
RTVSPost2010Prop57
140
1.0
102
RTVSPost2010PropOp57
 70
     0
102
RTVSPropertyOp0
 70
     0
102
RTVSPropertyOp1
 70
     0
102
RTVSPropertyOp2
 70
     0
102
RTVSPropertyOp3
 70
     0
102
RTVSPropertyOp4
 70
     0
102
RTVSPropertyOp5
 70
     0
102
RTVSPropertyOp6
 70
     0
102
RTVSPropertyOp7
 70
     0
102
RTVSPropertyOp8
 70
     0
102
RTVSPropertyOp9
 70
     0
102
RTVSPropertyOp10
 70
     0
102
RTVSPropertyOp11
 70
     0
102
RTVSPropertyOp12
 70
     0
102
RTVSPropertyOp13
 70
     0
102
RTVSPropertyOp14
 70
     2
102
RTVSPropertyOp15
 70
     0
102
RTVSPropertyOp16
 70
     0
102
RTVSPropertyOp17
 70
     0
102
RTVSPropertyOp18
 70
     0
102
RTVSPropertyOp19
 70
     0
102
RTVSPropertyOp20
 70
     0
102
RTVSPropertyOp21
 70
     0
102
RTVSPropertyOp22
 70
     0
102
RTVSPropertyOp23
 70
     0
102
RTVSPropertyOp24
 70
     0
102
RTVSPropertyOp25
 70
     0
102
RTVSPropertyOp26
 70
     0
102
RTVSPropertyOp27
 70
     0
102
RTVSPropertyOp28
 70
     1
102
RTVSPropertyOp29
 70
     1
102
RTVSPropertyOp30
 70
     1
102
RTVSPropertyOp31
 70
     1
102
RTVSPropertyOp32
 70
     1
102
RTVSPropertyOp33
 70
     1
102
RTVSPropertyOp34
 70
     1
102
RTVSPropertyOp35
 70
     1
102
RTVSPropertyOp36
 70
     1
102
RTVSPropertyOp37
 70
     0
102
RTVSPropertyOp38
 70
     0
102
RTVSPropertyOp39
 70
     0
102
RTVSPropertyOp40
 70
     0
102
RTVSPropertyOp41
 70
     0
102
RTVSPropertyOp42
 70
     0
102
RTVSPropertyOp43
 70
     0
102
RTVSPropertyOp44
 70
     0
102
RTVSPropertyOp45
 70
     1
102
RTVSPropertyOp46
 70
     0
102
RTVSPropertyOp47
 70
     0
102
RTVSPropertyOp48
 70
     0
102
RTVSPropertyOp49
 70
     1
102
RTVSPropertyOp50
 70
     0
102
RTVSPropertyOp51
 70
     0
102
RTVSPropertyOp52
 70
     0
102
RTVSPropertyOp53
 70
     0
102
RTVSPropertyOp54
 70
     0
102
RTVSPropertyOp55
 70
     1
102
RTVSPropertyOp56
 70
     0
102
RTVSPropertyOp57
 70
     0
102
RTVSPropertyOp58
 70
     0
102
RTVSPropertyOp59
 70
     0
102
RTVSPropertyOp60
 70
     0
102
RTVSPropertyOp61
 70
     0
102
RTVSPropertyOp62
 70
     0
  0
XRECORD
  5
99A3
102
{ACAD_REACTORS
330
99A2
102
}
330
99A2
100
AcDbXrecord
280
     1
102
RTVSPost2010Prop28
280
     0
102
RTVSPost2010PropOp28
 70
     1
102
RTVSPost2010Prop29
280
     1
102
RTVSPost2010PropOp29
 70
     1
102
RTVSPost2010Prop30
280
     1
102
RTVSPost2010PropOp30
 70
     1
102
RTVSPost2010Prop31
280
     0
102
RTVSPost2010PropOp31
 70
     1
102
RTVSPost2010Prop32
280
     0
102
RTVSPost2010PropOp32
 70
     1
102
RTVSPost2010Prop33
280
     0
102
RTVSPost2010PropOp33
 70
     1
102
RTVSPost2010Prop34
280
     0
102
RTVSPost2010PropOp34
 70
     1
102
RTVSPost2010Prop35
280
     0
102
RTVSPost2010PropOp35
 70
     1
102
RTVSPost2010Prop36
280
     0
102
RTVSPost2010PropOp36
 70
     1
102
RTVSPost2010Prop37
 90
       50
102
RTVSPost2010PropOp37
 70
     1
102
RTVSPost2010Prop38
140
0.0
102
RTVSPost2010PropOp38
 70
     1
102
RTVSPost2010Prop39
140
1.0
102
RTVSPost2010PropOp39
 70
     1
102
RTVSPost2010Prop40
 90
        0
102
RTVSPost2010PropOp40
 70
     1
102
RTVSPost2010Prop41ColorIndex
 90
       18
102
RTVSPost2010Prop41ColorRGB
 90
        0
102
RTVSPost2010PropOp41
 70
     1
102
RTVSPost2010Prop42
 90
       50
102
RTVSPost2010PropOp42
 70
     1
102
RTVSPost2010Prop43
 90
        3
102
RTVSPost2010PropOp43
 70
     1
102
RTVSPost2010Prop44ColorIndex
 90
        5
102
RTVSPost2010Prop44ColorRGB
 90
      255
102
RTVSPost2010PropOp44
 70
     1
102
RTVSPost2010Prop45
280
     0
102
RTVSPost2010PropOp45
 70
     1
102
RTVSPost2010Prop46
 90
       50
102
RTVSPost2010PropOp46
 70
     1
102
RTVSPost2010Prop47
 90
       50
102
RTVSPost2010PropOp47
 70
     1
102
RTVSPost2010Prop48
 90
       50
102
RTVSPost2010PropOp48
 70
     1
102
RTVSPost2010Prop49
280
     0
102
RTVSPost2010PropOp49
 70
     1
102
RTVSPost2010Prop50
 90
       50
102
RTVSPost2010PropOp50
 70
     1
102
RTVSPost2010Prop51ColorIndex
 90
      256
102
RTVSPost2010Prop51ColorRGB
 90
-16777216
102
RTVSPost2010PropOp51
 70
     0
102
RTVSPost2010Prop52
140
1.0
102
RTVSPost2010PropOp52
 70
     0
102
RTVSPost2010Prop53
 90
        2
102
RTVSPost2010PropOp53
 70
     1
102
RTVSPost2010Prop54
  1
strokes_ogs.tif
102
RTVSPost2010PropOp54
 70
     1
102
RTVSPost2010Prop55
280
     0
102
RTVSPost2010PropOp55
 70
     1
102
RTVSPost2010Prop56
140
1.0
102
RTVSPost2010PropOp56
 70
     1
102
RTVSPost2010Prop57
140
1.0
102
RTVSPost2010PropOp57
 70
     1
102
RTVSPropertyOp0
 70
     1
102
RTVSPropertyOp1
 70
     1
102
RTVSPropertyOp2
 70
     1
102
RTVSPropertyOp3
 70
     1
102
RTVSPropertyOp4
 70
     1
102
RTVSPropertyOp5
 70
     1
102
RTVSPropertyOp6
 70
     1
102
RTVSPropertyOp7
 70
     1
102
RTVSPropertyOp8
 70
     1
102
RTVSPropertyOp9
 70
     1
102
RTVSPropertyOp10
 70
     1
102
RTVSPropertyOp11
 70
     1
102
RTVSPropertyOp12
 70
     1
102
RTVSPropertyOp13
 70
     1
102
RTVSPropertyOp14
 70
     1
102
RTVSPropertyOp15
 70
     1
102
RTVSPropertyOp16
 70
     1
102
RTVSPropertyOp17
 70
     1
102
RTVSPropertyOp18
 70
     1
102
RTVSPropertyOp19
 70
     1
102
RTVSPropertyOp20
 70
     1
102
RTVSPropertyOp21
 70
     1
102
RTVSPropertyOp22
 70
     1
102
RTVSPropertyOp23
 70
     1
102
RTVSPropertyOp24
 70
     1
102
RTVSPropertyOp25
 70
     1
102
RTVSPropertyOp26
 70
     1
102
RTVSPropertyOp27
 70
     1
102
RTVSPropertyOp28
 70
     1
102
RTVSPropertyOp29
 70
     1
102
RTVSPropertyOp30
 70
     1
102
RTVSPropertyOp31
 70
     1
102
RTVSPropertyOp32
 70
     1
102
RTVSPropertyOp33
 70
     1
102
RTVSPropertyOp34
 70
     1
102
RTVSPropertyOp35
 70
     1
102
RTVSPropertyOp36
 70
     1
102
RTVSPropertyOp37
 70
     1
102
RTVSPropertyOp38
 70
     1
102
RTVSPropertyOp39
 70
     1
102
RTVSPropertyOp40
 70
     1
102
RTVSPropertyOp41
 70
     1
102
RTVSPropertyOp42
 70
     1
102
RTVSPropertyOp43
 70
     1
102
RTVSPropertyOp44
 70
     1
102
RTVSPropertyOp45
 70
     1
102
RTVSPropertyOp46
 70
     1
102
RTVSPropertyOp47
 70
     1
102
RTVSPropertyOp48
 70
     1
102
RTVSPropertyOp49
 70
     1
102
RTVSPropertyOp50
 70
     1
102
RTVSPropertyOp51
 70
     0
102
RTVSPropertyOp52
 70
     0
102
RTVSPropertyOp53
 70
     1
102
RTVSPropertyOp54
 70
     1
102
RTVSPropertyOp55
 70
     1
102
RTVSPropertyOp56
 70
     1
102
RTVSPropertyOp57
 70
     1
102
RTVSPropertyOp58
 70
     1
102
RTVSPropertyOp59
 70
     1
102
RTVSPropertyOp60
 70
     1
102
RTVSPropertyOp61
 70
     1
102
RTVSPropertyOp62
 70
     1
  0
XRECORD
  5
99B5
102
{ACAD_REACTORS
330
99B4
102
}
330
99B4
100
AcDbXrecord
280
     1
102
RTVSPost2010Prop28
280
     0
102
RTVSPost2010PropOp28
 70
     1
102
RTVSPost2010Prop29
280
     1
102
RTVSPost2010PropOp29
 70
     1
102
RTVSPost2010Prop30
280
     1
102
RTVSPost2010PropOp30
 70
     1
102
RTVSPost2010Prop31
280
     0
102
RTVSPost2010PropOp31
 70
     1
102
RTVSPost2010Prop32
280
     0
102
RTVSPost2010PropOp32
 70
     1
102
RTVSPost2010Prop33
280
     0
102
RTVSPost2010PropOp33
 70
     1
102
RTVSPost2010Prop34
280
     0
102
RTVSPost2010PropOp34
 70
     1
102
RTVSPost2010Prop35
280
     0
102
RTVSPost2010PropOp35
 70
     1
102
RTVSPost2010Prop36
280
     0
102
RTVSPost2010PropOp36
 70
     1
102
RTVSPost2010Prop37
 90
       50
102
RTVSPost2010PropOp37
 70
     0
102
RTVSPost2010Prop38
140
0.0
102
RTVSPost2010PropOp38
 70
     0
102
RTVSPost2010Prop39
140
1.0
102
RTVSPost2010PropOp39
 70
     0
102
RTVSPost2010Prop40
 90
        0
102
RTVSPost2010PropOp40
 70
     0
102
RTVSPost2010Prop41ColorIndex
 90
       18
102
RTVSPost2010Prop41ColorRGB
 90
        0
102
RTVSPost2010PropOp41
 70
     0
102
RTVSPost2010Prop42
 90
       50
102
RTVSPost2010PropOp42
 70
     0
102
RTVSPost2010Prop43
 90
        3
102
RTVSPost2010PropOp43
 70
     0
102
RTVSPost2010Prop44ColorIndex
 90
        5
102
RTVSPost2010Prop44ColorRGB
 90
      255
102
RTVSPost2010PropOp44
 70
     0
102
RTVSPost2010Prop45
280
     0
102
RTVSPost2010PropOp45
 70
     1
102
RTVSPost2010Prop46
 90
       50
102
RTVSPost2010PropOp46
 70
     0
102
RTVSPost2010Prop47
 90
       50
102
RTVSPost2010PropOp47
 70
     0
102
RTVSPost2010Prop48
 90
       50
102
RTVSPost2010PropOp48
 70
     0
102
RTVSPost2010Prop49
280
     0
102
RTVSPost2010PropOp49
 70
     1
102
RTVSPost2010Prop50
 90
       50
102
RTVSPost2010PropOp50
 70
     0
102
RTVSPost2010Prop51ColorIndex
 90
      256
102
RTVSPost2010Prop51ColorRGB
 90
-16777216
102
RTVSPost2010PropOp51
 70
     0
102
RTVSPost2010Prop52
140
1.0
102
RTVSPost2010PropOp52
 70
     0
102
RTVSPost2010Prop53
 90
        2
102
RTVSPost2010PropOp53
 70
     0
102
RTVSPost2010Prop54
  1
strokes_ogs.tif
102
RTVSPost2010PropOp54
 70
     0
102
RTVSPost2010Prop55
280
     0
102
RTVSPost2010PropOp55
 70
     1
102
RTVSPost2010Prop56
140
1.0
102
RTVSPost2010PropOp56
 70
     0
102
RTVSPost2010Prop57
140
1.0
102
RTVSPost2010PropOp57
 70
     0
102
RTVSPropertyOp0
 70
     0
102
RTVSPropertyOp1
 70
     0
102
RTVSPropertyOp2
 70
     0
102
RTVSPropertyOp3
 70
     0
102
RTVSPropertyOp4
 70
     0
102
RTVSPropertyOp5
 70
     0
102
RTVSPropertyOp6
 70
     0
102
RTVSPropertyOp7
 70
     0
102
RTVSPropertyOp8
 70
     0
102
RTVSPropertyOp9
 70
     0
102
RTVSPropertyOp10
 70
     0
102
RTVSPropertyOp11
 70
     0
102
RTVSPropertyOp12
 70
     0
102
RTVSPropertyOp13
 70
     0
102
RTVSPropertyOp14
 70
     2
102
RTVSPropertyOp15
 70
     0
102
RTVSPropertyOp16
 70
     0
102
RTVSPropertyOp17
 70
     0
102
RTVSPropertyOp18
 70
     0
102
RTVSPropertyOp19
 70
     0
102
RTVSPropertyOp20
 70
     0
102
RTVSPropertyOp21
 70
     0
102
RTVSPropertyOp22
 70
     0
102
RTVSPropertyOp23
 70
     0
102
RTVSPropertyOp24
 70
     0
102
RTVSPropertyOp25
 70
     0
102
RTVSPropertyOp26
 70
     0
102
RTVSPropertyOp27
 70
     0
102
RTVSPropertyOp28
 70
     1
102
RTVSPropertyOp29
 70
     1
102
RTVSPropertyOp30
 70
     1
102
RTVSPropertyOp31
 70
     1
102
RTVSPropertyOp32
 70
     1
102
RTVSPropertyOp33
 70
     1
102
RTVSPropertyOp34
 70
     1
102
RTVSPropertyOp35
 70
     1
102
RTVSPropertyOp36
 70
     1
102
RTVSPropertyOp37
 70
     0
102
RTVSPropertyOp38
 70
     0
102
RTVSPropertyOp39
 70
     0
102
RTVSPropertyOp40
 70
     0
102
RTVSPropertyOp41
 70
     0
102
RTVSPropertyOp42
 70
     0
102
RTVSPropertyOp43
 70
     0
102
RTVSPropertyOp44
 70
     0
102
RTVSPropertyOp45
 70
     1
102
RTVSPropertyOp46
 70
     0
102
RTVSPropertyOp47
 70
     0
102
RTVSPropertyOp48
 70
     0
102
RTVSPropertyOp49
 70
     1
102
RTVSPropertyOp50
 70
     0
102
RTVSPropertyOp51
 70
     0
102
RTVSPropertyOp52
 70
     0
102
RTVSPropertyOp53
 70
     0
102
RTVSPropertyOp54
 70
     0
102
RTVSPropertyOp55
 70
     1
102
RTVSPropertyOp56
 70
     0
102
RTVSPropertyOp57
 70
     0
102
RTVSPropertyOp58
 70
     0
102
RTVSPropertyOp59
 70
     0
102
RTVSPropertyOp60
 70
     0
102
RTVSPropertyOp61
 70
     0
102
RTVSPropertyOp62
 70
     0
  0
XRECORD
  5
999B
102
{ACAD_REACTORS
330
999A
102
}
330
999A
100
AcDbXrecord
280
     1
102
RTVSPost2010Prop28
280
     0
102
RTVSPost2010PropOp28
 70
     1
102
RTVSPost2010Prop29
280
     1
102
RTVSPost2010PropOp29
 70
     1
102
RTVSPost2010Prop30
280
     1
102
RTVSPost2010PropOp30
 70
     1
102
RTVSPost2010Prop31
280
     0
102
RTVSPost2010PropOp31
 70
     1
102
RTVSPost2010Prop32
280
     0
102
RTVSPost2010PropOp32
 70
     1
102
RTVSPost2010Prop33
280
     0
102
RTVSPost2010PropOp33
 70
     1
102
RTVSPost2010Prop34
280
     0
102
RTVSPost2010PropOp34
 70
     1
102
RTVSPost2010Prop35
280
     0
102
RTVSPost2010PropOp35
 70
     1
102
RTVSPost2010Prop36
280
     0
102
RTVSPost2010PropOp36
 70
     1
102
RTVSPost2010Prop37
 90
       50
102
RTVSPost2010PropOp37
 70
     1
102
RTVSPost2010Prop38
140
0.0
102
RTVSPost2010PropOp38
 70
     1
102
RTVSPost2010Prop39
140
1.0
102
RTVSPost2010PropOp39
 70
     1
102
RTVSPost2010Prop40
 90
        0
102
RTVSPost2010PropOp40
 70
     1
102
RTVSPost2010Prop41ColorIndex
 90
       18
102
RTVSPost2010Prop41ColorRGB
 90
        0
102
RTVSPost2010PropOp41
 70
     1
102
RTVSPost2010Prop42
 90
       50
102
RTVSPost2010PropOp42
 70
     1
102
RTVSPost2010Prop43
 90
        3
102
RTVSPost2010PropOp43
 70
     1
102
RTVSPost2010Prop44ColorIndex
 90
        5
102
RTVSPost2010Prop44ColorRGB
 90
      255
102
RTVSPost2010PropOp44
 70
     1
102
RTVSPost2010Prop45
280
     0
102
RTVSPost2010PropOp45
 70
     1
102
RTVSPost2010Prop46
 90
       50
102
RTVSPost2010PropOp46
 70
     1
102
RTVSPost2010Prop47
 90
       50
102
RTVSPost2010PropOp47
 70
     1
102
RTVSPost2010Prop48
 90
       50
102
RTVSPost2010PropOp48
 70
     1
102
RTVSPost2010Prop49
280
     0
102
RTVSPost2010PropOp49
 70
     1
102
RTVSPost2010Prop50
 90
       50
102
RTVSPost2010PropOp50
 70
     1
102
RTVSPost2010Prop51ColorIndex
 90
      256
102
RTVSPost2010Prop51ColorRGB
 90
-16777216
102
RTVSPost2010PropOp51
 70
     0
102
RTVSPost2010Prop52
140
1.0
102
RTVSPost2010PropOp52
 70
     0
102
RTVSPost2010Prop53
 90
        2
102
RTVSPost2010PropOp53
 70
     1
102
RTVSPost2010Prop54
  1
strokes_ogs.tif
102
RTVSPost2010PropOp54
 70
     1
102
RTVSPost2010Prop55
280
     0
102
RTVSPost2010PropOp55
 70
     1
102
RTVSPost2010Prop56
140
1.0
102
RTVSPost2010PropOp56
 70
     1
102
RTVSPost2010Prop57
140
1.0
102
RTVSPost2010PropOp57
 70
     1
102
RTVSPropertyOp0
 70
     1
102
RTVSPropertyOp1
 70
     1
102
RTVSPropertyOp2
 70
     1
102
RTVSPropertyOp3
 70
     1
102
RTVSPropertyOp4
 70
     1
102
RTVSPropertyOp5
 70
     1
102
RTVSPropertyOp6
 70
     1
102
RTVSPropertyOp7
 70
     1
102
RTVSPropertyOp8
 70
     1
102
RTVSPropertyOp9
 70
     1
102
RTVSPropertyOp10
 70
     1
102
RTVSPropertyOp11
 70
     1
102
RTVSPropertyOp12
 70
     1
102
RTVSPropertyOp13
 70
     1
102
RTVSPropertyOp14
 70
     1
102
RTVSPropertyOp15
 70
     1
102
RTVSPropertyOp16
 70
     1
102
RTVSPropertyOp17
 70
     1
102
RTVSPropertyOp18
 70
     1
102
RTVSPropertyOp19
 70
     1
102
RTVSPropertyOp20
 70
     1
102
RTVSPropertyOp21
 70
     1
102
RTVSPropertyOp22
 70
     1
102
RTVSPropertyOp23
 70
     1
102
RTVSPropertyOp24
 70
     1
102
RTVSPropertyOp25
 70
     1
102
RTVSPropertyOp26
 70
     1
102
RTVSPropertyOp27
 70
     1
102
RTVSPropertyOp28
 70
     1
102
RTVSPropertyOp29
 70
     1
102
RTVSPropertyOp30
 70
     1
102
RTVSPropertyOp31
 70
     1
102
RTVSPropertyOp32
 70
     1
102
RTVSPropertyOp33
 70
     1
102
RTVSPropertyOp34
 70
     1
102
RTVSPropertyOp35
 70
     1
102
RTVSPropertyOp36
 70
     1
102
RTVSPropertyOp37
 70
     1
102
RTVSPropertyOp38
 70
     1
102
RTVSPropertyOp39
 70
     1
102
RTVSPropertyOp40
 70
     1
102
RTVSPropertyOp41
 70
     1
102
RTVSPropertyOp42
 70
     1
102
RTVSPropertyOp43
 70
     1
102
RTVSPropertyOp44
 70
     1
102
RTVSPropertyOp45
 70
     1
102
RTVSPropertyOp46
 70
     1
102
RTVSPropertyOp47
 70
     1
102
RTVSPropertyOp48
 70
     1
102
RTVSPropertyOp49
 70
     1
102
RTVSPropertyOp50
 70
     1
102
RTVSPropertyOp51
 70
     0
102
RTVSPropertyOp52
 70
     0
102
RTVSPropertyOp53
 70
     1
102
RTVSPropertyOp54
 70
     1
102
RTVSPropertyOp55
 70
     1
102
RTVSPropertyOp56
 70
     1
102
RTVSPropertyOp57
 70
     1
102
RTVSPropertyOp58
 70
     1
102
RTVSPropertyOp59
 70
     1
102
RTVSPropertyOp60
 70
     1
102
RTVSPropertyOp61
 70
     1
102
RTVSPropertyOp62
 70
     1
  0
XRECORD
  5
99B1
102
{ACAD_REACTORS
330
99B0
102
}
330
99B0
100
AcDbXrecord
280
     1
102
RTVSPost2010Prop28
280
     0
102
RTVSPost2010PropOp28
 70
     1
102
RTVSPost2010Prop29
280
     1
102
RTVSPost2010PropOp29
 70
     1
102
RTVSPost2010Prop30
280
     1
102
RTVSPost2010PropOp30
 70
     1
102
RTVSPost2010Prop31
280
     0
102
RTVSPost2010PropOp31
 70
     1
102
RTVSPost2010Prop32
280
     0
102
RTVSPost2010PropOp32
 70
     1
102
RTVSPost2010Prop33
280
     0
102
RTVSPost2010PropOp33
 70
     1
102
RTVSPost2010Prop34
280
     0
102
RTVSPost2010PropOp34
 70
     1
102
RTVSPost2010Prop35
280
     0
102
RTVSPost2010PropOp35
 70
     1
102
RTVSPost2010Prop36
280
     0
102
RTVSPost2010PropOp36
 70
     1
102
RTVSPost2010Prop37
 90
       50
102
RTVSPost2010PropOp37
 70
     1
102
RTVSPost2010Prop38
140
0.0
102
RTVSPost2010PropOp38
 70
     1
102
RTVSPost2010Prop39
140
1.0
102
RTVSPost2010PropOp39
 70
     1
102
RTVSPost2010Prop40
 90
        0
102
RTVSPost2010PropOp40
 70
     1
102
RTVSPost2010Prop41ColorIndex
 90
       18
102
RTVSPost2010Prop41ColorRGB
 90
        0
102
RTVSPost2010PropOp41
 70
     1
102
RTVSPost2010Prop42
 90
       50
102
RTVSPost2010PropOp42
 70
     1
102
RTVSPost2010Prop43
 90
        3
102
RTVSPost2010PropOp43
 70
     1
102
RTVSPost2010Prop44ColorIndex
 90
        5
102
RTVSPost2010Prop44ColorRGB
 90
      255
102
RTVSPost2010PropOp44
 70
     1
102
RTVSPost2010Prop45
280
     0
102
RTVSPost2010PropOp45
 70
     1
102
RTVSPost2010Prop46
 90
       50
102
RTVSPost2010PropOp46
 70
     1
102
RTVSPost2010Prop47
 90
       50
102
RTVSPost2010PropOp47
 70
     1
102
RTVSPost2010Prop48
 90
       50
102
RTVSPost2010PropOp48
 70
     1
102
RTVSPost2010Prop49
280
     0
102
RTVSPost2010PropOp49
 70
     1
102
RTVSPost2010Prop50
 90
       50
102
RTVSPost2010PropOp50
 70
     1
102
RTVSPost2010Prop51ColorIndex
 90
      256
102
RTVSPost2010Prop51ColorRGB
 90
-16777216
102
RTVSPost2010PropOp51
 70
     0
102
RTVSPost2010Prop52
140
1.0
102
RTVSPost2010PropOp52
 70
     0
102
RTVSPost2010Prop53
 90
        2
102
RTVSPost2010PropOp53
 70
     1
102
RTVSPost2010Prop54
  1
strokes_ogs.tif
102
RTVSPost2010PropOp54
 70
     1
102
RTVSPost2010Prop55
280
     0
102
RTVSPost2010PropOp55
 70
     1
102
RTVSPost2010Prop56
140
1.0
102
RTVSPost2010PropOp56
 70
     1
102
RTVSPost2010Prop57
140
1.0
102
RTVSPost2010PropOp57
 70
     1
102
RTVSPropertyOp0
 70
     1
102
RTVSPropertyOp1
 70
     1
102
RTVSPropertyOp2
 70
     1
102
RTVSPropertyOp3
 70
     1
102
RTVSPropertyOp4
 70
     1
102
RTVSPropertyOp5
 70
     1
102
RTVSPropertyOp6
 70
     1
102
RTVSPropertyOp7
 70
     1
102
RTVSPropertyOp8
 70
     1
102
RTVSPropertyOp9
 70
     1
102
RTVSPropertyOp10
 70
     1
102
RTVSPropertyOp11
 70
     1
102
RTVSPropertyOp12
 70
     1
102
RTVSPropertyOp13
 70
     1
102
RTVSPropertyOp14
 70
     1
102
RTVSPropertyOp15
 70
     1
102
RTVSPropertyOp16
 70
     1
102
RTVSPropertyOp17
 70
     1
102
RTVSPropertyOp18
 70
     1
102
RTVSPropertyOp19
 70
     1
102
RTVSPropertyOp20
 70
     1
102
RTVSPropertyOp21
 70
     1
102
RTVSPropertyOp22
 70
     1
102
RTVSPropertyOp23
 70
     1
102
RTVSPropertyOp24
 70
     1
102
RTVSPropertyOp25
 70
     1
102
RTVSPropertyOp26
 70
     1
102
RTVSPropertyOp27
 70
     1
102
RTVSPropertyOp28
 70
     1
102
RTVSPropertyOp29
 70
     1
102
RTVSPropertyOp30
 70
     1
102
RTVSPropertyOp31
 70
     1
102
RTVSPropertyOp32
 70
     1
102
RTVSPropertyOp33
 70
     1
102
RTVSPropertyOp34
 70
     1
102
RTVSPropertyOp35
 70
     1
102
RTVSPropertyOp36
 70
     1
102
RTVSPropertyOp37
 70
     1
102
RTVSPropertyOp38
 70
     1
102
RTVSPropertyOp39
 70
     1
102
RTVSPropertyOp40
 70
     1
102
RTVSPropertyOp41
 70
     1
102
RTVSPropertyOp42
 70
     1
102
RTVSPropertyOp43
 70
     1
102
RTVSPropertyOp44
 70
     1
102
RTVSPropertyOp45
 70
     1
102
RTVSPropertyOp46
 70
     1
102
RTVSPropertyOp47
 70
     1
102
RTVSPropertyOp48
 70
     1
102
RTVSPropertyOp49
 70
     1
102
RTVSPropertyOp50
 70
     1
102
RTVSPropertyOp51
 70
     0
102
RTVSPropertyOp52
 70
     0
102
RTVSPropertyOp53
 70
     1
102
RTVSPropertyOp54
 70
     1
102
RTVSPropertyOp55
 70
     1
102
RTVSPropertyOp56
 70
     1
102
RTVSPropertyOp57
 70
     1
102
RTVSPropertyOp58
 70
     1
102
RTVSPropertyOp59
 70
     1
102
RTVSPropertyOp60
 70
     1
102
RTVSPropertyOp61
 70
     1
102
RTVSPropertyOp62
 70
     1
  0
XRECORD
  5
99AF
102
{ACAD_REACTORS
330
99AE
102
}
330
99AE
100
AcDbXrecord
280
     1
102
RTVSPost2010Prop28
280
     0
102
RTVSPost2010PropOp28
 70
     1
102
RTVSPost2010Prop29
280
     1
102
RTVSPost2010PropOp29
 70
     1
102
RTVSPost2010Prop30
280
     1
102
RTVSPost2010PropOp30
 70
     1
102
RTVSPost2010Prop31
280
     0
102
RTVSPost2010PropOp31
 70
     1
102
RTVSPost2010Prop32
280
     0
102
RTVSPost2010PropOp32
 70
     1
102
RTVSPost2010Prop33
280
     0
102
RTVSPost2010PropOp33
 70
     1
102
RTVSPost2010Prop34
280
     0
102
RTVSPost2010PropOp34
 70
     1
102
RTVSPost2010Prop35
280
     0
102
RTVSPost2010PropOp35
 70
     1
102
RTVSPost2010Prop36
280
     0
102
RTVSPost2010PropOp36
 70
     1
102
RTVSPost2010Prop37
 90
       50
102
RTVSPost2010PropOp37
 70
     1
102
RTVSPost2010Prop38
140
0.0
102
RTVSPost2010PropOp38
 70
     1
102
RTVSPost2010Prop39
140
1.0
102
RTVSPost2010PropOp39
 70
     1
102
RTVSPost2010Prop40
 90
        0
102
RTVSPost2010PropOp40
 70
     1
102
RTVSPost2010Prop41ColorIndex
 90
       18
102
RTVSPost2010Prop41ColorRGB
 90
        0
102
RTVSPost2010PropOp41
 70
     1
102
RTVSPost2010Prop42
 90
       50
102
RTVSPost2010PropOp42
 70
     1
102
RTVSPost2010Prop43
 90
        3
102
RTVSPost2010PropOp43
 70
     1
102
RTVSPost2010Prop44ColorIndex
 90
        5
102
RTVSPost2010Prop44ColorRGB
 90
      255
102
RTVSPost2010PropOp44
 70
     1
102
RTVSPost2010Prop45
280
     0
102
RTVSPost2010PropOp45
 70
     1
102
RTVSPost2010Prop46
 90
       50
102
RTVSPost2010PropOp46
 70
     1
102
RTVSPost2010Prop47
 90
       50
102
RTVSPost2010PropOp47
 70
     1
102
RTVSPost2010Prop48
 90
       50
102
RTVSPost2010PropOp48
 70
     1
102
RTVSPost2010Prop49
280
     0
102
RTVSPost2010PropOp49
 70
     1
102
RTVSPost2010Prop50
 90
       50
102
RTVSPost2010PropOp50
 70
     1
102
RTVSPost2010Prop51ColorIndex
 90
      256
102
RTVSPost2010Prop51ColorRGB
 90
-16777216
102
RTVSPost2010PropOp51
 70
     0
102
RTVSPost2010Prop52
140
1.0
102
RTVSPost2010PropOp52
 70
     0
102
RTVSPost2010Prop53
 90
        2
102
RTVSPost2010PropOp53
 70
     1
102
RTVSPost2010Prop54
  1
strokes_ogs.tif
102
RTVSPost2010PropOp54
 70
     1
102
RTVSPost2010Prop55
280
     0
102
RTVSPost2010PropOp55
 70
     1
102
RTVSPost2010Prop56
140
1.0
102
RTVSPost2010PropOp56
 70
     1
102
RTVSPost2010Prop57
140
1.0
102
RTVSPost2010PropOp57
 70
     1
102
RTVSPropertyOp0
 70
     1
102
RTVSPropertyOp1
 70
     1
102
RTVSPropertyOp2
 70
     1
102
RTVSPropertyOp3
 70
     1
102
RTVSPropertyOp4
 70
     1
102
RTVSPropertyOp5
 70
     1
102
RTVSPropertyOp6
 70
     1
102
RTVSPropertyOp7
 70
     1
102
RTVSPropertyOp8
 70
     1
102
RTVSPropertyOp9
 70
     1
102
RTVSPropertyOp10
 70
     1
102
RTVSPropertyOp11
 70
     1
102
RTVSPropertyOp12
 70
     1
102
RTVSPropertyOp13
 70
     1
102
RTVSPropertyOp14
 70
     1
102
RTVSPropertyOp15
 70
     1
102
RTVSPropertyOp16
 70
     1
102
RTVSPropertyOp17
 70
     1
102
RTVSPropertyOp18
 70
     1
102
RTVSPropertyOp19
 70
     1
102
RTVSPropertyOp20
 70
     1
102
RTVSPropertyOp21
 70
     1
102
RTVSPropertyOp22
 70
     1
102
RTVSPropertyOp23
 70
     1
102
RTVSPropertyOp24
 70
     1
102
RTVSPropertyOp25
 70
     1
102
RTVSPropertyOp26
 70
     1
102
RTVSPropertyOp27
 70
     1
102
RTVSPropertyOp28
 70
     1
102
RTVSPropertyOp29
 70
     1
102
RTVSPropertyOp30
 70
     1
102
RTVSPropertyOp31
 70
     1
102
RTVSPropertyOp32
 70
     1
102
RTVSPropertyOp33
 70
     1
102
RTVSPropertyOp34
 70
     1
102
RTVSPropertyOp35
 70
     1
102
RTVSPropertyOp36
 70
     1
102
RTVSPropertyOp37
 70
     1
102
RTVSPropertyOp38
 70
     1
102
RTVSPropertyOp39
 70
     1
102
RTVSPropertyOp40
 70
     1
102
RTVSPropertyOp41
 70
     1
102
RTVSPropertyOp42
 70
     1
102
RTVSPropertyOp43
 70
     1
102
RTVSPropertyOp44
 70
     1
102
RTVSPropertyOp45
 70
     1
102
RTVSPropertyOp46
 70
     1
102
RTVSPropertyOp47
 70
     1
102
RTVSPropertyOp48
 70
     1
102
RTVSPropertyOp49
 70
     1
102
RTVSPropertyOp50
 70
     1
102
RTVSPropertyOp51
 70
     0
102
RTVSPropertyOp52
 70
     0
102
RTVSPropertyOp53
 70
     1
102
RTVSPropertyOp54
 70
     1
102
RTVSPropertyOp55
 70
     1
102
RTVSPropertyOp56
 70
     1
102
RTVSPropertyOp57
 70
     1
102
RTVSPropertyOp58
 70
     1
102
RTVSPropertyOp59
 70
     1
102
RTVSPropertyOp60
 70
     1
102
RTVSPropertyOp61
 70
     1
102
RTVSPropertyOp62
 70
     1
  0
XRECORD
  5
99A9
102
{ACAD_REACTORS
330
99A8
102
}
330
99A8
100
AcDbXrecord
280
     1
102
RTVSPost2010Prop28
280
     0
102
RTVSPost2010PropOp28
 70
     1
102
RTVSPost2010Prop29
280
     1
102
RTVSPost2010PropOp29
 70
     1
102
RTVSPost2010Prop30
280
     1
102
RTVSPost2010PropOp30
 70
     1
102
RTVSPost2010Prop31
280
     0
102
RTVSPost2010PropOp31
 70
     1
102
RTVSPost2010Prop32
280
     0
102
RTVSPost2010PropOp32
 70
     1
102
RTVSPost2010Prop33
280
     0
102
RTVSPost2010PropOp33
 70
     1
102
RTVSPost2010Prop34
280
     0
102
RTVSPost2010PropOp34
 70
     1
102
RTVSPost2010Prop35
280
     0
102
RTVSPost2010PropOp35
 70
     1
102
RTVSPost2010Prop36
280
     0
102
RTVSPost2010PropOp36
 70
     1
102
RTVSPost2010Prop37
 90
       50
102
RTVSPost2010PropOp37
 70
     1
102
RTVSPost2010Prop38
140
0.0
102
RTVSPost2010PropOp38
 70
     1
102
RTVSPost2010Prop39
140
1.0
102
RTVSPost2010PropOp39
 70
     1
102
RTVSPost2010Prop40
 90
        0
102
RTVSPost2010PropOp40
 70
     1
102
RTVSPost2010Prop41ColorIndex
 90
       18
102
RTVSPost2010Prop41ColorRGB
 90
        0
102
RTVSPost2010PropOp41
 70
     1
102
RTVSPost2010Prop42
 90
       50
102
RTVSPost2010PropOp42
 70
     1
102
RTVSPost2010Prop43
 90
        3
102
RTVSPost2010PropOp43
 70
     1
102
RTVSPost2010Prop44ColorIndex
 90
        5
102
RTVSPost2010Prop44ColorRGB
 90
      255
102
RTVSPost2010PropOp44
 70
     1
102
RTVSPost2010Prop45
280
     0
102
RTVSPost2010PropOp45
 70
     1
102
RTVSPost2010Prop46
 90
       50
102
RTVSPost2010PropOp46
 70
     1
102
RTVSPost2010Prop47
 90
       50
102
RTVSPost2010PropOp47
 70
     1
102
RTVSPost2010Prop48
 90
       50
102
RTVSPost2010PropOp48
 70
     1
102
RTVSPost2010Prop49
280
     0
102
RTVSPost2010PropOp49
 70
     1
102
RTVSPost2010Prop50
 90
       50
102
RTVSPost2010PropOp50
 70
     1
102
RTVSPost2010Prop51ColorIndex
 90
      256
102
RTVSPost2010Prop51ColorRGB
 90
-16777216
102
RTVSPost2010PropOp51
 70
     0
102
RTVSPost2010Prop52
140
1.0
102
RTVSPost2010PropOp52
 70
     0
102
RTVSPost2010Prop53
 90
        2
102
RTVSPost2010PropOp53
 70
     1
102
RTVSPost2010Prop54
  1
strokes_ogs.tif
102
RTVSPost2010PropOp54
 70
     1
102
RTVSPost2010Prop55
280
     0
102
RTVSPost2010PropOp55
 70
     1
102
RTVSPost2010Prop56
140
1.0
102
RTVSPost2010PropOp56
 70
     1
102
RTVSPost2010Prop57
140
1.0
102
RTVSPost2010PropOp57
 70
     1
102
RTVSPropertyOp0
 70
     1
102
RTVSPropertyOp1
 70
     1
102
RTVSPropertyOp2
 70
     1
102
RTVSPropertyOp3
 70
     1
102
RTVSPropertyOp4
 70
     1
102
RTVSPropertyOp5
 70
     1
102
RTVSPropertyOp6
 70
     1
102
RTVSPropertyOp7
 70
     1
102
RTVSPropertyOp8
 70
     1
102
RTVSPropertyOp9
 70
     1
102
RTVSPropertyOp10
 70
     1
102
RTVSPropertyOp11
 70
     1
102
RTVSPropertyOp12
 70
     1
102
RTVSPropertyOp13
 70
     1
102
RTVSPropertyOp14
 70
     1
102
RTVSPropertyOp15
 70
     1
102
RTVSPropertyOp16
 70
     1
102
RTVSPropertyOp17
 70
     1
102
RTVSPropertyOp18
 70
     1
102
RTVSPropertyOp19
 70
     1
102
RTVSPropertyOp20
 70
     1
102
RTVSPropertyOp21
 70
     1
102
RTVSPropertyOp22
 70
     1
102
RTVSPropertyOp23
 70
     1
102
RTVSPropertyOp24
 70
     1
102
RTVSPropertyOp25
 70
     1
102
RTVSPropertyOp26
 70
     1
102
RTVSPropertyOp27
 70
     1
102
RTVSPropertyOp28
 70
     1
102
RTVSPropertyOp29
 70
     1
102
RTVSPropertyOp30
 70
     1
102
RTVSPropertyOp31
 70
     1
102
RTVSPropertyOp32
 70
     1
102
RTVSPropertyOp33
 70
     1
102
RTVSPropertyOp34
 70
     1
102
RTVSPropertyOp35
 70
     1
102
RTVSPropertyOp36
 70
     1
102
RTVSPropertyOp37
 70
     1
102
RTVSPropertyOp38
 70
     1
102
RTVSPropertyOp39
 70
     1
102
RTVSPropertyOp40
 70
     1
102
RTVSPropertyOp41
 70
     1
102
RTVSPropertyOp42
 70
     1
102
RTVSPropertyOp43
 70
     1
102
RTVSPropertyOp44
 70
     1
102
RTVSPropertyOp45
 70
     1
102
RTVSPropertyOp46
 70
     1
102
RTVSPropertyOp47
 70
     1
102
RTVSPropertyOp48
 70
     1
102
RTVSPropertyOp49
 70
     1
102
RTVSPropertyOp50
 70
     1
102
RTVSPropertyOp51
 70
     0
102
RTVSPropertyOp52
 70
     0
102
RTVSPropertyOp53
 70
     1
102
RTVSPropertyOp54
 70
     1
102
RTVSPropertyOp55
 70
     1
102
RTVSPropertyOp56
 70
     1
102
RTVSPropertyOp57
 70
     1
102
RTVSPropertyOp58
 70
     1
102
RTVSPropertyOp59
 70
     1
102
RTVSPropertyOp60
 70
     1
102
RTVSPropertyOp61
 70
     1
102
RTVSPropertyOp62
 70
     1
  0
XRECORD
  5
99AB
102
{ACAD_REACTORS
330
99AA
102
}
330
99AA
100
AcDbXrecord
280
     1
102
RTVSPost2010Prop28
280
     0
102
RTVSPost2010PropOp28
 70
     1
102
RTVSPost2010Prop29
280
     1
102
RTVSPost2010PropOp29
 70
     1
102
RTVSPost2010Prop30
280
     1
102
RTVSPost2010PropOp30
 70
     1
102
RTVSPost2010Prop31
280
     0
102
RTVSPost2010PropOp31
 70
     1
102
RTVSPost2010Prop32
280
     0
102
RTVSPost2010PropOp32
 70
     1
102
RTVSPost2010Prop33
280
     0
102
RTVSPost2010PropOp33
 70
     1
102
RTVSPost2010Prop34
280
     0
102
RTVSPost2010PropOp34
 70
     1
102
RTVSPost2010Prop35
280
     0
102
RTVSPost2010PropOp35
 70
     1
102
RTVSPost2010Prop36
280
     0
102
RTVSPost2010PropOp36
 70
     1
102
RTVSPost2010Prop37
 90
       50
102
RTVSPost2010PropOp37
 70
     1
102
RTVSPost2010Prop38
140
0.0
102
RTVSPost2010PropOp38
 70
     1
102
RTVSPost2010Prop39
140
1.0
102
RTVSPost2010PropOp39
 70
     1
102
RTVSPost2010Prop40
 90
        0
102
RTVSPost2010PropOp40
 70
     1
102
RTVSPost2010Prop41ColorIndex
 90
       18
102
RTVSPost2010Prop41ColorRGB
 90
        0
102
RTVSPost2010PropOp41
 70
     1
102
RTVSPost2010Prop42
 90
       50
102
RTVSPost2010PropOp42
 70
     1
102
RTVSPost2010Prop43
 90
        3
102
RTVSPost2010PropOp43
 70
     1
102
RTVSPost2010Prop44ColorIndex
 90
        5
102
RTVSPost2010Prop44ColorRGB
 90
      255
102
RTVSPost2010PropOp44
 70
     1
102
RTVSPost2010Prop45
280
     0
102
RTVSPost2010PropOp45
 70
     1
102
RTVSPost2010Prop46
 90
       50
102
RTVSPost2010PropOp46
 70
     1
102
RTVSPost2010Prop47
 90
       50
102
RTVSPost2010PropOp47
 70
     1
102
RTVSPost2010Prop48
 90
       50
102
RTVSPost2010PropOp48
 70
     1
102
RTVSPost2010Prop49
280
     0
102
RTVSPost2010PropOp49
 70
     1
102
RTVSPost2010Prop50
 90
       50
102
RTVSPost2010PropOp50
 70
     1
102
RTVSPost2010Prop51ColorIndex
 90
      256
102
RTVSPost2010Prop51ColorRGB
 90
-16777216
102
RTVSPost2010PropOp51
 70
     0
102
RTVSPost2010Prop52
140
1.0
102
RTVSPost2010PropOp52
 70
     0
102
RTVSPost2010Prop53
 90
        2
102
RTVSPost2010PropOp53
 70
     1
102
RTVSPost2010Prop54
  1
strokes_ogs.tif
102
RTVSPost2010PropOp54
 70
     1
102
RTVSPost2010Prop55
280
     0
102
RTVSPost2010PropOp55
 70
     1
102
RTVSPost2010Prop56
140
1.0
102
RTVSPost2010PropOp56
 70
     1
102
RTVSPost2010Prop57
140
1.0
102
RTVSPost2010PropOp57
 70
     1
102
RTVSPropertyOp0
 70
     1
102
RTVSPropertyOp1
 70
     1
102
RTVSPropertyOp2
 70
     1
102
RTVSPropertyOp3
 70
     1
102
RTVSPropertyOp4
 70
     1
102
RTVSPropertyOp5
 70
     1
102
RTVSPropertyOp6
 70
     1
102
RTVSPropertyOp7
 70
     1
102
RTVSPropertyOp8
 70
     1
102
RTVSPropertyOp9
 70
     1
102
RTVSPropertyOp10
 70
     1
102
RTVSPropertyOp11
 70
     1
102
RTVSPropertyOp12
 70
     1
102
RTVSPropertyOp13
 70
     1
102
RTVSPropertyOp14
 70
     1
102
RTVSPropertyOp15
 70
     1
102
RTVSPropertyOp16
 70
     1
102
RTVSPropertyOp17
 70
     1
102
RTVSPropertyOp18
 70
     1
102
RTVSPropertyOp19
 70
     1
102
RTVSPropertyOp20
 70
     1
102
RTVSPropertyOp21
 70
     1
102
RTVSPropertyOp22
 70
     1
102
RTVSPropertyOp23
 70
     1
102
RTVSPropertyOp24
 70
     1
102
RTVSPropertyOp25
 70
     1
102
RTVSPropertyOp26
 70
     1
102
RTVSPropertyOp27
 70
     1
102
RTVSPropertyOp28
 70
     1
102
RTVSPropertyOp29
 70
     1
102
RTVSPropertyOp30
 70
     1
102
RTVSPropertyOp31
 70
     1
102
RTVSPropertyOp32
 70
     1
102
RTVSPropertyOp33
 70
     1
102
RTVSPropertyOp34
 70
     1
102
RTVSPropertyOp35
 70
     1
102
RTVSPropertyOp36
 70
     1
102
RTVSPropertyOp37
 70
     1
102
RTVSPropertyOp38
 70
     1
102
RTVSPropertyOp39
 70
     1
102
RTVSPropertyOp40
 70
     1
102
RTVSPropertyOp41
 70
     1
102
RTVSPropertyOp42
 70
     1
102
RTVSPropertyOp43
 70
     1
102
RTVSPropertyOp44
 70
     1
102
RTVSPropertyOp45
 70
     1
102
RTVSPropertyOp46
 70
     1
102
RTVSPropertyOp47
 70
     1
102
RTVSPropertyOp48
 70
     1
102
RTVSPropertyOp49
 70
     1
102
RTVSPropertyOp50
 70
     1
102
RTVSPropertyOp51
 70
     0
102
RTVSPropertyOp52
 70
     0
102
RTVSPropertyOp53
 70
     1
102
RTVSPropertyOp54
 70
     1
102
RTVSPropertyOp55
 70
     1
102
RTVSPropertyOp56
 70
     1
102
RTVSPropertyOp57
 70
     1
102
RTVSPropertyOp58
 70
     1
102
RTVSPropertyOp59
 70
     1
102
RTVSPropertyOp60
 70
     1
102
RTVSPropertyOp61
 70
     1
102
RTVSPropertyOp62
 70
     1
  0
XRECORD
  5
99A1
102
{ACAD_REACTORS
330
99A0
102
}
330
99A0
100
AcDbXrecord
280
     1
102
RTVSPost2010Prop28
280
     0
102
RTVSPost2010PropOp28
 70
     1
102
RTVSPost2010Prop29
280
     1
102
RTVSPost2010PropOp29
 70
     1
102
RTVSPost2010Prop30
280
     1
102
RTVSPost2010PropOp30
 70
     1
102
RTVSPost2010Prop31
280
     0
102
RTVSPost2010PropOp31
 70
     1
102
RTVSPost2010Prop32
280
     0
102
RTVSPost2010PropOp32
 70
     1
102
RTVSPost2010Prop33
280
     0
102
RTVSPost2010PropOp33
 70
     1
102
RTVSPost2010Prop34
280
     0
102
RTVSPost2010PropOp34
 70
     1
102
RTVSPost2010Prop35
280
     0
102
RTVSPost2010PropOp35
 70
     1
102
RTVSPost2010Prop36
280
     0
102
RTVSPost2010PropOp36
 70
     1
102
RTVSPost2010Prop37
 90
       50
102
RTVSPost2010PropOp37
 70
     1
102
RTVSPost2010Prop38
140
0.0
102
RTVSPost2010PropOp38
 70
     1
102
RTVSPost2010Prop39
140
1.0
102
RTVSPost2010PropOp39
 70
     1
102
RTVSPost2010Prop40
 90
        0
102
RTVSPost2010PropOp40
 70
     1
102
RTVSPost2010Prop41ColorIndex
 90
       18
102
RTVSPost2010Prop41ColorRGB
 90
        0
102
RTVSPost2010PropOp41
 70
     1
102
RTVSPost2010Prop42
 90
       50
102
RTVSPost2010PropOp42
 70
     1
102
RTVSPost2010Prop43
 90
        3
102
RTVSPost2010PropOp43
 70
     1
102
RTVSPost2010Prop44ColorIndex
 90
        5
102
RTVSPost2010Prop44ColorRGB
 90
      255
102
RTVSPost2010PropOp44
 70
     1
102
RTVSPost2010Prop45
280
     0
102
RTVSPost2010PropOp45
 70
     1
102
RTVSPost2010Prop46
 90
       50
102
RTVSPost2010PropOp46
 70
     1
102
RTVSPost2010Prop47
 90
       50
102
RTVSPost2010PropOp47
 70
     1
102
RTVSPost2010Prop48
 90
       50
102
RTVSPost2010PropOp48
 70
     1
102
RTVSPost2010Prop49
280
     0
102
RTVSPost2010PropOp49
 70
     1
102
RTVSPost2010Prop50
 90
       50
102
RTVSPost2010PropOp50
 70
     1
102
RTVSPost2010Prop51ColorIndex
 90
      256
102
RTVSPost2010Prop51ColorRGB
 90
-16777216
102
RTVSPost2010PropOp51
 70
     0
102
RTVSPost2010Prop52
140
1.0
102
RTVSPost2010PropOp52
 70
     0
102
RTVSPost2010Prop53
 90
        2
102
RTVSPost2010PropOp53
 70
     1
102
RTVSPost2010Prop54
  1
strokes_ogs.tif
102
RTVSPost2010PropOp54
 70
     1
102
RTVSPost2010Prop55
280
     0
102
RTVSPost2010PropOp55
 70
     1
102
RTVSPost2010Prop56
140
1.0
102
RTVSPost2010PropOp56
 70
     1
102
RTVSPost2010Prop57
140
1.0
102
RTVSPost2010PropOp57
 70
     1
102
RTVSPropertyOp0
 70
     1
102
RTVSPropertyOp1
 70
     1
102
RTVSPropertyOp2
 70
     1
102
RTVSPropertyOp3
 70
     1
102
RTVSPropertyOp4
 70
     1
102
RTVSPropertyOp5
 70
     1
102
RTVSPropertyOp6
 70
     1
102
RTVSPropertyOp7
 70
     1
102
RTVSPropertyOp8
 70
     1
102
RTVSPropertyOp9
 70
     1
102
RTVSPropertyOp10
 70
     1
102
RTVSPropertyOp11
 70
     1
102
RTVSPropertyOp12
 70
     1
102
RTVSPropertyOp13
 70
     1
102
RTVSPropertyOp14
 70
     1
102
RTVSPropertyOp15
 70
     1
102
RTVSPropertyOp16
 70
     1
102
RTVSPropertyOp17
 70
     1
102
RTVSPropertyOp18
 70
     1
102
RTVSPropertyOp19
 70
     1
102
RTVSPropertyOp20
 70
     1
102
RTVSPropertyOp21
 70
     1
102
RTVSPropertyOp22
 70
     1
102
RTVSPropertyOp23
 70
     1
102
RTVSPropertyOp24
 70
     1
102
RTVSPropertyOp25
 70
     1
102
RTVSPropertyOp26
 70
     1
102
RTVSPropertyOp27
 70
     1
102
RTVSPropertyOp28
 70
     1
102
RTVSPropertyOp29
 70
     1
102
RTVSPropertyOp30
 70
     1
102
RTVSPropertyOp31
 70
     1
102
RTVSPropertyOp32
 70
     1
102
RTVSPropertyOp33
 70
     1
102
RTVSPropertyOp34
 70
     1
102
RTVSPropertyOp35
 70
     1
102
RTVSPropertyOp36
 70
     1
102
RTVSPropertyOp37
 70
     1
102
RTVSPropertyOp38
 70
     1
102
RTVSPropertyOp39
 70
     1
102
RTVSPropertyOp40
 70
     1
102
RTVSPropertyOp41
 70
     1
102
RTVSPropertyOp42
 70
     1
102
RTVSPropertyOp43
 70
     1
102
RTVSPropertyOp44
 70
     1
102
RTVSPropertyOp45
 70
     1
102
RTVSPropertyOp46
 70
     1
102
RTVSPropertyOp47
 70
     1
102
RTVSPropertyOp48
 70
     1
102
RTVSPropertyOp49
 70
     1
102
RTVSPropertyOp50
 70
     1
102
RTVSPropertyOp51
 70
     0
102
RTVSPropertyOp52
 70
     0
102
RTVSPropertyOp53
 70
     1
102
RTVSPropertyOp54
 70
     1
102
RTVSPropertyOp55
 70
     1
102
RTVSPropertyOp56
 70
     1
102
RTVSPropertyOp57
 70
     1
102
RTVSPropertyOp58
 70
     1
102
RTVSPropertyOp59
 70
     1
102
RTVSPropertyOp60
 70
     1
102
RTVSPropertyOp61
 70
     1
102
RTVSPropertyOp62
 70
     1
  0
XRECORD
  5
9995
102
{ACAD_REACTORS
330
9994
102
}
330
9994
100
AcDbXrecord
280
     1
102
RTVSPost2010Prop28
280
     0
102
RTVSPost2010PropOp28
 70
     1
102
RTVSPost2010Prop29
280
     1
102
RTVSPost2010PropOp29
 70
     1
102
RTVSPost2010Prop30
280
     1
102
RTVSPost2010PropOp30
 70
     1
102
RTVSPost2010Prop31
280
     0
102
RTVSPost2010PropOp31
 70
     1
102
RTVSPost2010Prop32
280
     0
102
RTVSPost2010PropOp32
 70
     1
102
RTVSPost2010Prop33
280
     0
102
RTVSPost2010PropOp33
 70
     1
102
RTVSPost2010Prop34
280
     0
102
RTVSPost2010PropOp34
 70
     1
102
RTVSPost2010Prop35
280
     0
102
RTVSPost2010PropOp35
 70
     1
102
RTVSPost2010Prop36
280
     0
102
RTVSPost2010PropOp36
 70
     1
102
RTVSPost2010Prop37
 90
       50
102
RTVSPost2010PropOp37
 70
     1
102
RTVSPost2010Prop38
140
0.0
102
RTVSPost2010PropOp38
 70
     1
102
RTVSPost2010Prop39
140
1.0
102
RTVSPost2010PropOp39
 70
     1
102
RTVSPost2010Prop40
 90
        0
102
RTVSPost2010PropOp40
 70
     1
102
RTVSPost2010Prop41ColorIndex
 90
       18
102
RTVSPost2010Prop41ColorRGB
 90
        0
102
RTVSPost2010PropOp41
 70
     1
102
RTVSPost2010Prop42
 90
       50
102
RTVSPost2010PropOp42
 70
     1
102
RTVSPost2010Prop43
 90
        3
102
RTVSPost2010PropOp43
 70
     1
102
RTVSPost2010Prop44ColorIndex
 90
        5
102
RTVSPost2010Prop44ColorRGB
 90
      255
102
RTVSPost2010PropOp44
 70
     1
102
RTVSPost2010Prop45
280
     0
102
RTVSPost2010PropOp45
 70
     1
102
RTVSPost2010Prop46
 90
       50
102
RTVSPost2010PropOp46
 70
     1
102
RTVSPost2010Prop47
 90
       50
102
RTVSPost2010PropOp47
 70
     1
102
RTVSPost2010Prop48
 90
       50
102
RTVSPost2010PropOp48
 70
     1
102
RTVSPost2010Prop49
280
     0
102
RTVSPost2010PropOp49
 70
     1
102
RTVSPost2010Prop50
 90
       50
102
RTVSPost2010PropOp50
 70
     1
102
RTVSPost2010Prop51ColorIndex
 90
      256
102
RTVSPost2010Prop51ColorRGB
 90
-16777216
102
RTVSPost2010PropOp51
 70
     0
102
RTVSPost2010Prop52
140
1.0
102
RTVSPost2010PropOp52
 70
     0
102
RTVSPost2010Prop53
 90
        2
102
RTVSPost2010PropOp53
 70
     1
102
RTVSPost2010Prop54
  1
strokes_ogs.tif
102
RTVSPost2010PropOp54
 70
     1
102
RTVSPost2010Prop55
280
     0
102
RTVSPost2010PropOp55
 70
     1
102
RTVSPost2010Prop56
140
1.0
102
RTVSPost2010PropOp56
 70
     1
102
RTVSPost2010Prop57
140
1.0
102
RTVSPost2010PropOp57
 70
     1
102
RTVSPropertyOp0
 70
     1
102
RTVSPropertyOp1
 70
     1
102
RTVSPropertyOp2
 70
     1
102
RTVSPropertyOp3
 70
     1
102
RTVSPropertyOp4
 70
     1
102
RTVSPropertyOp5
 70
     1
102
RTVSPropertyOp6
 70
     1
102
RTVSPropertyOp7
 70
     1
102
RTVSPropertyOp8
 70
     1
102
RTVSPropertyOp9
 70
     1
102
RTVSPropertyOp10
 70
     1
102
RTVSPropertyOp11
 70
     1
102
RTVSPropertyOp12
 70
     1
102
RTVSPropertyOp13
 70
     1
102
RTVSPropertyOp14
 70
     1
102
RTVSPropertyOp15
 70
     1
102
RTVSPropertyOp16
 70
     1
102
RTVSPropertyOp17
 70
     1
102
RTVSPropertyOp18
 70
     1
102
RTVSPropertyOp19
 70
     1
102
RTVSPropertyOp20
 70
     1
102
RTVSPropertyOp21
 70
     1
102
RTVSPropertyOp22
 70
     1
102
RTVSPropertyOp23
 70
     1
102
RTVSPropertyOp24
 70
     1
102
RTVSPropertyOp25
 70
     1
102
RTVSPropertyOp26
 70
     1
102
RTVSPropertyOp27
 70
     1
102
RTVSPropertyOp28
 70
     1
102
RTVSPropertyOp29
 70
     1
102
RTVSPropertyOp30
 70
     1
102
RTVSPropertyOp31
 70
     1
102
RTVSPropertyOp32
 70
     1
102
RTVSPropertyOp33
 70
     1
102
RTVSPropertyOp34
 70
     1
102
RTVSPropertyOp35
 70
     1
102
RTVSPropertyOp36
 70
     1
102
RTVSPropertyOp37
 70
     1
102
RTVSPropertyOp38
 70
     1
102
RTVSPropertyOp39
 70
     1
102
RTVSPropertyOp40
 70
     1
102
RTVSPropertyOp41
 70
     1
102
RTVSPropertyOp42
 70
     1
102
RTVSPropertyOp43
 70
     1
102
RTVSPropertyOp44
 70
     1
102
RTVSPropertyOp45
 70
     1
102
RTVSPropertyOp46
 70
     1
102
RTVSPropertyOp47
 70
     1
102
RTVSPropertyOp48
 70
     1
102
RTVSPropertyOp49
 70
     1
102
RTVSPropertyOp50
 70
     1
102
RTVSPropertyOp51
 70
     0
102
RTVSPropertyOp52
 70
     0
102
RTVSPropertyOp53
 70
     1
102
RTVSPropertyOp54
 70
     1
102
RTVSPropertyOp55
 70
     1
102
RTVSPropertyOp56
 70
     1
102
RTVSPropertyOp57
 70
     1
102
RTVSPropertyOp58
 70
     1
102
RTVSPropertyOp59
 70
     1
102
RTVSPropertyOp60
 70
     1
102
RTVSPropertyOp61
 70
     1
102
RTVSPropertyOp62
 70
     1
  0
XRECORD
  5
99AD
102
{ACAD_REACTORS
330
99AC
102
}
330
99AC
100
AcDbXrecord
280
     1
102
RTVSPost2010Prop28
280
     0
102
RTVSPost2010PropOp28
 70
     1
102
RTVSPost2010Prop29
280
     1
102
RTVSPost2010PropOp29
 70
     1
102
RTVSPost2010Prop30
280
     1
102
RTVSPost2010PropOp30
 70
     1
102
RTVSPost2010Prop31
280
     0
102
RTVSPost2010PropOp31
 70
     1
102
RTVSPost2010Prop32
280
     0
102
RTVSPost2010PropOp32
 70
     1
102
RTVSPost2010Prop33
280
     0
102
RTVSPost2010PropOp33
 70
     1
102
RTVSPost2010Prop34
280
     0
102
RTVSPost2010PropOp34
 70
     1
102
RTVSPost2010Prop35
280
     0
102
RTVSPost2010PropOp35
 70
     1
102
RTVSPost2010Prop36
280
     0
102
RTVSPost2010PropOp36
 70
     1
102
RTVSPost2010Prop37
 90
       50
102
RTVSPost2010PropOp37
 70
     1
102
RTVSPost2010Prop38
140
0.0
102
RTVSPost2010PropOp38
 70
     1
102
RTVSPost2010Prop39
140
1.0
102
RTVSPost2010PropOp39
 70
     1
102
RTVSPost2010Prop40
 90
        0
102
RTVSPost2010PropOp40
 70
     1
102
RTVSPost2010Prop41ColorIndex
 90
       18
102
RTVSPost2010Prop41ColorRGB
 90
        0
102
RTVSPost2010PropOp41
 70
     1
102
RTVSPost2010Prop42
 90
       50
102
RTVSPost2010PropOp42
 70
     1
102
RTVSPost2010Prop43
 90
        3
102
RTVSPost2010PropOp43
 70
     1
102
RTVSPost2010Prop44ColorIndex
 90
        5
102
RTVSPost2010Prop44ColorRGB
 90
      255
102
RTVSPost2010PropOp44
 70
     1
102
RTVSPost2010Prop45
280
     0
102
RTVSPost2010PropOp45
 70
     1
102
RTVSPost2010Prop46
 90
       50
102
RTVSPost2010PropOp46
 70
     1
102
RTVSPost2010Prop47
 90
       50
102
RTVSPost2010PropOp47
 70
     1
102
RTVSPost2010Prop48
 90
       50
102
RTVSPost2010PropOp48
 70
     1
102
RTVSPost2010Prop49
280
     0
102
RTVSPost2010PropOp49
 70
     1
102
RTVSPost2010Prop50
 90
       50
102
RTVSPost2010PropOp50
 70
     1
102
RTVSPost2010Prop51ColorIndex
 90
      256
102
RTVSPost2010Prop51ColorRGB
 90
-16777216
102
RTVSPost2010PropOp51
 70
     0
102
RTVSPost2010Prop52
140
1.0
102
RTVSPost2010PropOp52
 70
     0
102
RTVSPost2010Prop53
 90
        2
102
RTVSPost2010PropOp53
 70
     1
102
RTVSPost2010Prop54
  1
strokes_ogs.tif
102
RTVSPost2010PropOp54
 70
     1
102
RTVSPost2010Prop55
280
     0
102
RTVSPost2010PropOp55
 70
     1
102
RTVSPost2010Prop56
140
1.0
102
RTVSPost2010PropOp56
 70
     1
102
RTVSPost2010Prop57
140
1.0
102
RTVSPost2010PropOp57
 70
     1
102
RTVSPropertyOp0
 70
     1
102
RTVSPropertyOp1
 70
     1
102
RTVSPropertyOp2
 70
     1
102
RTVSPropertyOp3
 70
     1
102
RTVSPropertyOp4
 70
     1
102
RTVSPropertyOp5
 70
     1
102
RTVSPropertyOp6
 70
     1
102
RTVSPropertyOp7
 70
     1
102
RTVSPropertyOp8
 70
     1
102
RTVSPropertyOp9
 70
     1
102
RTVSPropertyOp10
 70
     1
102
RTVSPropertyOp11
 70
     1
102
RTVSPropertyOp12
 70
     1
102
RTVSPropertyOp13
 70
     1
102
RTVSPropertyOp14
 70
     1
102
RTVSPropertyOp15
 70
     1
102
RTVSPropertyOp16
 70
     1
102
RTVSPropertyOp17
 70
     1
102
RTVSPropertyOp18
 70
     1
102
RTVSPropertyOp19
 70
     1
102
RTVSPropertyOp20
 70
     1
102
RTVSPropertyOp21
 70
     1
102
RTVSPropertyOp22
 70
     1
102
RTVSPropertyOp23
 70
     1
102
RTVSPropertyOp24
 70
     1
102
RTVSPropertyOp25
 70
     1
102
RTVSPropertyOp26
 70
     1
102
RTVSPropertyOp27
 70
     1
102
RTVSPropertyOp28
 70
     1
102
RTVSPropertyOp29
 70
     1
102
RTVSPropertyOp30
 70
     1
102
RTVSPropertyOp31
 70
     1
102
RTVSPropertyOp32
 70
     1
102
RTVSPropertyOp33
 70
     1
102
RTVSPropertyOp34
 70
     1
102
RTVSPropertyOp35
 70
     1
102
RTVSPropertyOp36
 70
     1
102
RTVSPropertyOp37
 70
     1
102
RTVSPropertyOp38
 70
     1
102
RTVSPropertyOp39
 70
     1
102
RTVSPropertyOp40
 70
     1
102
RTVSPropertyOp41
 70
     1
102
RTVSPropertyOp42
 70
     1
102
RTVSPropertyOp43
 70
     1
102
RTVSPropertyOp44
 70
     1
102
RTVSPropertyOp45
 70
     1
102
RTVSPropertyOp46
 70
     1
102
RTVSPropertyOp47
 70
     1
102
RTVSPropertyOp48
 70
     1
102
RTVSPropertyOp49
 70
     1
102
RTVSPropertyOp50
 70
     1
102
RTVSPropertyOp51
 70
     0
102
RTVSPropertyOp52
 70
     0
102
RTVSPropertyOp53
 70
     1
102
RTVSPropertyOp54
 70
     1
102
RTVSPropertyOp55
 70
     1
102
RTVSPropertyOp56
 70
     1
102
RTVSPropertyOp57
 70
     1
102
RTVSPropertyOp58
 70
     1
102
RTVSPropertyOp59
 70
     1
102
RTVSPropertyOp60
 70
     1
102
RTVSPropertyOp61
 70
     1
102
RTVSPropertyOp62
 70
     1
  0
ENDSEC
  0
EOF
