  0
SECTION
  2
HEADER
  9
$ACADVER
  1
AC1015
  9
$ACADMAINTVER
 70
    20
  9
$DWGCODEPAGE
  3
ANSI_932
  9
$INSBASE
 10
0.0
 20
0.0
 30
0.0
  9
$EXTMIN
 10
7.321796
 20
9.999999999999998
 30
0.0
  9
$EXTMAX
 10
383.5067959999999
 20
140.565446
 30
0.0
  9
$LIMMIN
 10
0.0
 20
0.0
  9
$LIMMAX
 10
396.0
 20
273.0
  9
$ORTHOMODE
 70
     1
  9
$REGENMODE
 70
     1
  9
$FILLMODE
 70
     1
  9
$QTEXTMODE
 70
     0
  9
$MIRRTEXT
 70
     1
  9
$LTSCALE
 40
20.0
  9
$ATTMODE
 70
     1
  9
$TEXTSIZE
 40
5.0
  9
$TRACEWID
 40
1.0
  9
$TEXTSTYLE
  7
STANDARD
  9
$CLAYER
  8
0
  9
$CELTYPE
  6
BYLAYER
  9
$CECOLOR
 62
   256
  9
$CELTSCALE
 40
1.0
  9
$DISPSILH
 70
     0
  9
$DIMSCALE
 40
1.0
  9
$DIMASZ
 40
3.0
  9
$DIMEXO
 40
1.0
  9
$DIMDLI
 40
10.0
  9
$DIMRND
 40
0.0
  9
$DIMDLE
 40
0.0
  9
$DIMEXE
 40
1.0
  9
$DIMTP
 40
0.0
  9
$DIMTM
 40
0.0
  9
$DIMTXT
 40
3.2
  9
$DIMCEN
 40
0.0
  9
$DIMTSZ
 40
0.0
  9
$DIMTOL
 70
     0
  9
$DIMLIM
 70
     0
  9
$DIMTIH
 70
     0
  9
$DIMTOH
 70
     0
  9
$DIMSE1
 70
     0
  9
$DIMSE2
 70
     0
  9
$DIMTAD
 70
     3
  9
$DIMZIN
 70
     8
  9
$DIMBLK
  1

  9
$DIMASO
 70
     1
  9
$DIMSHO
 70
     1
  9
$DIMPOST
  1

  9
$DIMAPOST
  1

  9
$DIMALT
 70
     0
  9
$DIMALTD
 70
     2
  9
$DIMALTF
 40
25.4
  9
$DIMLFAC
 40
1.0
  9
$DIMTOFL
 70
     1
  9
$DIMTVP
 40
0.0
  9
$DIMTIX
 70
     0
  9
$DIMSOXD
 70
     0
  9
$DIMSAH
 70
     1
  9
$DIMBLK1
  1

  9
$DIMBLK2
  1

  9
$DIMSTYLE
  2
STANDARD
  9
$DIMCLRD
 70
     0
  9
$DIMCLRE
 70
     0
  9
$DIMCLRT
 70
     0
  9
$DIMTFAC
 40
1.0
  9
$DIMGAP
 40
1.0
  9
$DIMJUST
 70
     0
  9
$DIMSD1
 70
     0
  9
$DIMSD2
 70
     0
  9
$DIMTOLJ
 70
     1
  9
$DIMTZIN
 70
     0
  9
$DIMALTZ
 70
     0
  9
$DIMALTTZ
 70
     0
  9
$DIMUPT
 70
     0
  9
$DIMDEC
 70
     4
  9
$DIMTDEC
 70
     4
  9
$DIMALTU
 70
     2
  9
$DIMALTTD
 70
     2
  9
$DIMTXSTY
  7
STANDARD
  9
$DIMAUNIT
 70
     0
  9
$DIMADEC
 70
     0
  9
$DIMALTRND
 40
0.0
  9
$DIMAZIN
 70
     0
  9
$DIMDSEP
 70
    46
  9
$DIMATFIT
 70
     3
  9
$DIMFRAC
 70
     0
  9
$DIMLDRBLK
  1

  9
$DIMLUNIT
 70
     2
  9
$DIMLWD
 70
    -2
  9
$DIMLWE
 70
    -2
  9
$DIMTMOVE
 70
     0
  9
$LUNITS
 70
     2
  9
$LUPREC
 70
     4
  9
$SKETCHINC
 40
1.0
  9
$FILLETRAD
 40
2.5
  9
$AUNITS
 70
     0
  9
$AUPREC
 70
     2
  9
$MENU
  1
.
  9
$ELEVATION
 40
0.0
  9
$PELEVATION
 40
0.0
  9
$THICKNESS
 40
0.0
  9
$LIMCHECK
 70
     0
  9
$CHAMFERA
 40
10.0
  9
$CHAMFERB
 40
10.0
  9
$CHAMFERC
 40
0.0
  9
$CHAMFERD
 40
0.0
  9
$SKPOLY
 70
     0
  9
$TDCREATE
 40
2451066.769161574
  9
$TDUCREATE
 40
2451066.394161574
  9
$TDUPDATE
 40
2457192.600100753
  9
$TDUUPDATE
 40
2457192.225100752
  9
$TDINDWG
 40
0.0052348611
  9
$TDUSRTIMER
 40
0.0052345602
  9
$USRTIMER
 70
     1
  9
$ANGBASE
 50
0.0
  9
$ANGDIR
 70
     0
  9
$PDMODE
 70
     0
  9
$PDSIZE
 40
0.0
  9
$PLINEWID
 40
0.0
  9
$SPLFRAME
 70
     0
  9
$SPLINETYPE
 70
     6
  9
$SPLINESEGS
 70
     8
  9
$HANDSEED
  5
784
  9
$SURFTAB1
 70
     6
  9
$SURFTAB2
 70
     6
  9
$SURFTYPE
 70
     6
  9
$SURFU
 70
     6
  9
$SURFV
 70
     6
  9
$UCSBASE
  2

  9
$UCSNAME
  2

  9
$UCSORG
 10
0.0
 20
0.0
 30
0.0
  9
$UCSXDIR
 10
1.0
 20
0.0
 30
0.0
  9
$UCSYDIR
 10
0.0
 20
1.0
 30
0.0
  9
$UCSORTHOREF
  2

  9
$UCSORTHOVIEW
 70
     0
  9
$UCSORGTOP
 10
0.0
 20
0.0
 30
0.0
  9
$UCSORGBOTTOM
 10
0.0
 20
0.0
 30
0.0
  9
$UCSORGLEFT
 10
0.0
 20
0.0
 30
0.0
  9
$UCSORGRIGHT
 10
0.0
 20
0.0
 30
0.0
  9
$UCSORGFRONT
 10
0.0
 20
0.0
 30
0.0
  9
$UCSORGBACK
 10
0.0
 20
0.0
 30
0.0
  9
$PUCSBASE
  2

  9
$PUCSNAME
  2

  9
$PUCSORG
 10
0.0
 20
0.0
 30
0.0
  9
$PUCSXDIR
 10
1.0
 20
0.0
 30
0.0
  9
$PUCSYDIR
 10
0.0
 20
1.0
 30
0.0
  9
$PUCSORTHOREF
  2

  9
$PUCSORTHOVIEW
 70
     0
  9
$PUCSORGTOP
 10
0.0
 20
0.0
 30
0.0
  9
$PUCSORGBOTTOM
 10
0.0
 20
0.0
 30
0.0
  9
$PUCSORGLEFT
 10
0.0
 20
0.0
 30
0.0
  9
$PUCSORGRIGHT
 10
0.0
 20
0.0
 30
0.0
  9
$PUCSORGFRONT
 10
0.0
 20
0.0
 30
0.0
  9
$PUCSORGBACK
 10
0.0
 20
0.0
 30
0.0
  9
$USERI1
 70
     0
  9
$USERI2
 70
     0
  9
$USERI3
 70
     0
  9
$USERI4
 70
     0
  9
$USERI5
 70
     0
  9
$USERR1
 40
0.0
  9
$USERR2
 40
0.0
  9
$USERR3
 40
0.0
  9
$USERR4
 40
0.0
  9
$USERR5
 40
0.0
  9
$WORLDVIEW
 70
     1
  9
$SHADEDGE
 70
     3
  9
$SHADEDIF
 70
    70
  9
$TILEMODE
 70
     1
  9
$MAXACTVP
 70
    16
  9
$PINSBASE
 10
0.0
 20
0.0
 30
0.0
  9
$PLIMCHECK
 70
     0
  9
$PEXTMIN
 10
1.000000000000000E+20
 20
1.000000000000000E+20
 30
1.000000000000000E+20
  9
$PEXTMAX
 10
-1.000000000000000E+20
 20
-1.000000000000000E+20
 30
-1.000000000000000E+20
  9
$PLIMMIN
 10
0.0
 20
0.0
  9
$PLIMMAX
 10
420.0
 20
297.0
  9
$UNITMODE
 70
     0
  9
$VISRETAIN
 70
     0
  9
$PLINEGEN
 70
     0
  9
$PSLTSCALE
 70
     0
  9
$TREEDEPTH
 70
  3020
  9
$CMLSTYLE
  2
STANDARD
  9
$CMLJUST
 70
     0
  9
$CMLSCALE
 40
1.0
  9
$PROXYGRAPHICS
 70
     1
  9
$MEASUREMENT
 70
     0
  9
$CELWEIGHT
370
    -1
  9
$ENDCAPS
280
     0
  9
$JOINSTYLE
280
     0
  9
$LWDISPLAY
290
     0
  9
$INSUNITS
 70
     0
  9
$HYPERLINKBASE
  1

  9
$STYLESHEET
  1

  9
$XEDIT
290
     1
  9
$CEPSNTYPE
380
     0
  9
$PSTYLEMODE
290
     1
  9
$FINGERPRINTGUID
  2
{7F5E6258-7C91-4B98-8918-4837EB6FBB60}
  9
$VERSIONGUID
  2
{033B3591-3F22-468C-9518-707CCFBE0DD5}
  9
$EXTNAMES
290
     1
  9
$PSVPSCALE
 40
0.0
  9
$OLESTARTUP
290
     0
  0
ENDSEC
  0
SECTION
  2
CLASSES
  0
CLASS
  1
ACDBDICTIONARYWDFLT
  2
AcDbDictionaryWithDefault
  3
ObjectDBX Classes
 90
        0
280
     0
281
     0
  0
CLASS
  1
ACDBPLACEHOLDER
  2
AcDbPlaceHolder
  3
ObjectDBX Classes
 90
        0
280
     0
281
     0
  0
CLASS
  1
LAYOUT
  2
AcDbLayout
  3
ObjectDBX Classes
 90
        0
280
     0
281
     0
  0
CLASS
  1
DICTIONARYVAR
  2
AcDbDictionaryVar
  3
ObjectDBX Classes
 90
        0
280
     0
281
     0
  0
CLASS
  1
MATERIAL
  2
AcDbMaterial
  3
ObjectDBX Classes
 90
     1153
280
     0
281
     0
  0
CLASS
  1
VISUALSTYLE
  2
AcDbVisualStyle
  3
ObjectDBX Classes
 90
     4095
280
     0
281
     0
  0
CLASS
  1
TABLESTYLE
  2
AcDbTableStyle
  3
ObjectDBX Classes
 90
     4095
280
     0
281
     0
  0
CLASS
  1
SCALE
  2
AcDbScale
  3
ObjectDBX Classes
 90
     1153
280
     0
281
     0
  0
CLASS
  1
MLEADERSTYLE
  2
AcDbMLeaderStyle
  3
ACDB_MLEADERSTYLE_CLASS
 90
     4095
280
     0
281
     0
  0
CLASS
  1
ACDBSECTIONVIEWSTYLE
  2
AcDbSectionViewStyle
  3
ObjectDBX Classes
 90
     1025
280
     0
281
     0
  0
CLASS
  1
ACDBDETAILVIEWSTYLE
  2
AcDbDetailViewStyle
  3
ObjectDBX Classes
 90
     1025
280
     0
281
     0
  0
CLASS
  1
CELLSTYLEMAP
  2
AcDbCellStyleMap
  3
ObjectDBX Classes
 90
     1152
280
     0
281
     0
  0
ENDSEC
  0
SECTION
  2
TABLES
  0
TABLE
  2
VPORT
  5
26F
330
0
100
AcDbSymbolTable
 70
     1
  0
VPORT
  5
6CF
330
26F
100
AcDbSymbolTableRecord
100
AcDbViewportTableRecord
  2
*ACTIVE
 70
     0
 10
0.0
 20
0.0
 11
1.0
 21
1.0
 12
265.710473122428
 22
75.28578242471643
 13
0.0
 23
0.0
 14
10.0
 24
10.0
 15
10.0
 25
10.0
 16
0.0
 26
0.0
 36
1.0
 17
0.0
 27
0.0
 37
0.0
 40
220.8389301026226
 41
1.899603698811096
 42
50.0
 43
0.0
 44
0.0
 50
0.0
 51
0.0
 71
     0
 72
   100
 73
     1
 74
     0
 75
     0
 76
     0
 77
     0
 78
     0
281
     0
 65
     1
110
0.0
120
0.0
130
0.0
111
1.0
121
0.0
131
0.0
112
0.0
122
1.0
132
0.0
 79
     0
146
0.0
1001
ACAD_NAV_VCDISPLAY
1070
     3
  0
ENDTAB
  0
TABLE
  2
LTYPE
  5
26C
330
0
100
AcDbSymbolTable
 70
     4
  0
LTYPE
  5
27A
330
26C
100
AcDbSymbolTableRecord
100
AcDbLinetypeTableRecord
  2
BYBLOCK
 70
     0
  3

 72
    65
 73
     0
 40
0.0
  0
LTYPE
  5
27B
330
26C
100
AcDbSymbolTableRecord
100
AcDbLinetypeTableRecord
  2
BYLAYER
 70
     0
  3

 72
    65
 73
     0
 40
0.0
  0
LTYPE
  5
27C
330
26C
100
AcDbSymbolTableRecord
100
AcDbLinetypeTableRecord
  2
CONTINUOUS
 70
     0
  3
Solid line
 72
    65
 73
     0
 40
0.0
  0
LTYPE
  5
28A
330
26C
100
AcDbSymbolTableRecord
100
AcDbLinetypeTableRecord
  2
DASHED
 70
     0
  3
__ __ __ __ __ __ __ __ __ __ __ __ __ __ __ __
 72
    65
 73
     2
 40
0.75
 49
0.5
 74
     0
 49
-0.25
 74
     0
  0
LTYPE
  5
28B
330
26C
100
AcDbSymbolTableRecord
100
AcDbLinetypeTableRecord
  2
CENTER
 70
     0
  3
____ _ ____ _ ____ _ ____ _ ____ _ ____ _ ____ 
 72
    65
 73
     4
 40
2.0
 49
1.25
 74
     0
 49
-0.25
 74
     0
 49
0.25
 74
     0
 49
-0.25
 74
     0
  0
LTYPE
  5
28C
330
26C
100
AcDbSymbolTableRecord
100
AcDbLinetypeTableRecord
  2
PHANTOM
 70
     0
  3
______  __  __  ______  __  __  ______  __  __ 
 72
    65
 73
     6
 40
2.5
 49
1.25
 74
     0
 49
-0.25
 74
     0
 49
0.25
 74
     0
 49
-0.25
 74
     0
 49
0.25
 74
     0
 49
-0.25
 74
     0
  0
ENDTAB
  0
TABLE
  2
LAYER
  5
269
330
0
100
AcDbSymbolTable
 70
     8
  0
LAYER
  5
277
102
{ACAD_XDICTIONARY
360
728
102
}
330
269
100
AcDbSymbolTableRecord
100
AcDbLayerTableRecord
  2
0
 70
     0
 62
     7
  6
CONTINUOUS
370
    -3
390
6D6
  0
LAYER
  5
28D
102
{ACAD_XDICTIONARY
360
72A
102
}
330
269
100
AcDbSymbolTableRecord
100
AcDbLayerTableRecord
  2
4
 70
     0
 62
     1
  6
CENTER
370
    -3
390
6D6
  0
LAYER
  5
28E
102
{ACAD_XDICTIONARY
360
72C
102
}
330
269
100
AcDbSymbolTableRecord
100
AcDbLayerTableRecord
  2
5
 70
     0
 62
     6
  6
PHANTOM
370
    -3
390
6D6
  0
LAYER
  5
28F
102
{ACAD_XDICTIONARY
360
72E
102
}
330
269
100
AcDbSymbolTableRecord
100
AcDbLayerTableRecord
  2
1
 70
     0
 62
     7
  6
CONTINUOUS
370
    -3
390
6D6
  0
LAYER
  5
290
102
{ACAD_XDICTIONARY
360
730
102
}
330
269
100
AcDbSymbolTableRecord
100
AcDbLayerTableRecord
  2
2
 70
     0
 62
     4
  6
CONTINUOUS
370
    -3
390
6D6
  0
LAYER
  5
291
102
{ACAD_XDICTIONARY
360
732
102
}
330
269
100
AcDbSymbolTableRecord
100
AcDbLayerTableRecord
  2
3
 70
     0
 62
     2
  6
DASHED
370
    -3
390
6D6
  0
LAYER
  5
292
102
{ACAD_XDICTIONARY
360
734
102
}
330
269
100
AcDbSymbolTableRecord
100
AcDbLayerTableRecord
  2
6
 70
     0
 62
     5
  6
CONTINUOUS
370
    -3
390
6D6
  0
LAYER
  5
293
102
{ACAD_XDICTIONARY
360
736
102
}
330
269
100
AcDbSymbolTableRecord
100
AcDbLayerTableRecord
  2
7
 70
     0
 62
     3
  6
CONTINUOUS
370
    -3
390
6D6
  0
ENDTAB
  0
TABLE
  2
STYLE
  5
26A
330
0
100
AcDbSymbolTable
 70
     1
  0
STYLE
  5
278
330
26A
100
AcDbSymbolTableRecord
100
AcDbTextStyleTableRecord
  2
STANDARD
 70
     0
 40
0.0
 41
1.0
 50
0.0
 71
     0
 42
5.0
  3
txt
  4

  0
ENDTAB
  0
TABLE
  2
VIEW
  5
26D
330
0
100
AcDbSymbolTable
 70
     0
  0
ENDTAB
  0
TABLE
  2
UCS
  5
26E
330
0
100
AcDbSymbolTable
 70
     0
  0
ENDTAB
  0
TABLE
  2
APPID
  5
270
330
0
100
AcDbSymbolTable
 70
     3
  0
APPID
  5
279
330
270
100
AcDbSymbolTableRecord
100
AcDbRegAppTableRecord
  2
ACAD
 70
     0
  0
APPID
  5
742
330
270
100
AcDbSymbolTableRecord
100
AcDbRegAppTableRecord
  2
ACAD_NAV_VCDISPLAY
 70
     0
  0
APPID
  5
77B
330
270
100
AcDbSymbolTableRecord
100
AcDbRegAppTableRecord
  2
ACAD_MLEADERVER
 70
     0
  0
ENDTAB
  0
TABLE
  2
DIMSTYLE
  5
271
330
0
100
AcDbSymbolTable
 70
     1
100
AcDbDimStyleTable
 71
     0
  0
DIMSTYLE
105
295
330
271
100
AcDbSymbolTableRecord
100
AcDbDimStyleTableRecord
  2
STANDARD
 70
     0
 41
3.0
 42
1.0
 43
10.0
 44
1.0
 73
     0
 74
     0
 77
     3
 78
     8
140
3.2
141
0.0
147
1.0
172
     1
173
     1
284
     8
285
     8
286
     8
340
278
  0
ENDTAB
  0
TABLE
  2
BLOCK_RECORD
  5
268
330
0
100
AcDbSymbolTable
 70
     0
  0
BLOCK_RECORD
  5
285
102
{ACAD_XDICTIONARY
360
4DB
102
}
330
268
100
AcDbSymbolTableRecord
100
AcDbBlockTableRecord
  2
*MODEL_SPACE
340
724
  0
BLOCK_RECORD
  5
281
102
{ACAD_XDICTIONARY
360
4D9
102
}
330
268
100
AcDbSymbolTableRecord
100
AcDbBlockTableRecord
  2
*PAPER_SPACE
340
725
  0
ENDTAB
  0
ENDSEC
  0
SECTION
  2
BLOCKS
  0
BLOCK
  5
286
330
285
100
AcDbEntity
  8
0
100
AcDbBlockBegin
  2
*MODEL_SPACE
 70
     0
 10
0.0
 20
0.0
 30
0.0
  3
*MODEL_SPACE
  1

  0
ENDBLK
  5
287
330
285
100
AcDbEntity
  8
0
100
AcDbBlockEnd
  0
BLOCK
  5
282
330
281
100
AcDbEntity
 67
     1
  8
0
100
AcDbBlockBegin
  2
*PAPER_SPACE
 70
     0
 10
0.0
 20
0.0
 30
0.0
  3
*PAPER_SPACE
  1

  0
ENDBLK
  5
283
330
281
100
AcDbEntity
 67
     1
  8
0
100
AcDbBlockEnd
  0
ENDSEC
  0
SECTION
  2
ENTITIES
  0
TEXT
  5
29D
330
285
100
AcDbEntity
  8
7
  6
Continuous
100
AcDbText
 10
10.0
 20
18.0
 30
0.0
 40
3.0
  1
TYPE No.TL-224
100
AcDbText
  0
TEXT
  5
29E
330
285
100
AcDbEntity
  8
7
  6
Continuous
100
AcDbText
 10
10.0
 20
26.0
 30
0.0
 40
3.0
  1
CODE No.1280
100
AcDbText
  0
TEXT
  5
29F
330
285
100
AcDbEntity
  8
1
  6
Continuous
100
AcDbText
 10
10.0
 20
10.0
 30
0.0
 40
1.399999999999999
  1
LAYER
100
AcDbText
  0
TEXT
  5
2A0
330
285
100
AcDbEntity
  8
1
  6
Continuous
100
AcDbText
 10
17.97951099999998
 20
10.04873699999998
 30
0.0
 40
1.399999999999999
  1
1
100
AcDbText
  0
TEXT
  5
2A1
330
285
100
AcDbEntity
  8
7
  6
Continuous
100
AcDbText
 10
29.97951099999999
 20
10.04873699999998
 30
0.0
 40
1.399999999999999
  1
7
100
AcDbText
  0
TEXT
  5
2A2
330
285
100
AcDbEntity
  8
4
  6
CENTER
100
AcDbText
 10
23.97951099999999
 20
10.04873699999998
 30
0.0
 40
1.399999999999999
  1
4
100
AcDbText
  0
TEXT
  5
2A3
330
285
100
AcDbEntity
  8
3
  6
DASHED
100
AcDbText
 10
21.979511
 20
10.04873699999998
 30
0.0
 40
1.399999999999999
  1
3
100
AcDbText
  0
TEXT
  5
2A4
330
285
100
AcDbEntity
  8
2
  6
Continuous
100
AcDbText
 10
19.97951099999998
 20
10.04873699999998
 30
0.0
 40
1.399999999999999
  1
2
100
AcDbText
  0
TEXT
  5
2A5
330
285
100
AcDbEntity
  8
6
  6
Continuous
100
AcDbText
 10
27.979511
 20
10.04873699999998
 30
0.0
 40
1.399999999999999
  1
6
100
AcDbText
  0
TEXT
  5
2A6
330
285
100
AcDbEntity
  8
5
  6
PHANTOM
100
AcDbText
 10
25.97951099999999
 20
10.04873699999998
 30
0.0
 40
1.399999999999999
  1
5
100
AcDbText
  0
LINE
  5
2A8
330
285
100
AcDbEntity
  8
1
  6
Continuous
100
AcDbLine
 10
95.63579600000002
 20
38.565146
 30
0.0
 11
95.63579600000002
 21
56.565146
 31
0.0
  0
LINE
  5
2A9
330
285
100
AcDbEntity
  8
1
  6
Continuous
100
AcDbLine
 10
105.5817959999999
 20
39.565146
 30
0.0
 11
106.231796
 21
40.265146
 31
0.0
  0
LINE
  5
2AA
330
285
100
AcDbEntity
  8
1
  6
Continuous
100
AcDbLine
 10
106.2357959999997
 20
40.265146
 30
0.0
 11
108.6357959999999
 21
40.265146
 31
0.0
  0
LINE
  5
2AB
330
285
100
AcDbEntity
  8
1
  6
Continuous
100
AcDbLine
 10
108.6357959999999
 20
40.265146
 30
0.0
 11
108.6357959999999
 21
54.86514599999999
 31
0.0
  0
LINE
  5
2AC
330
285
100
AcDbEntity
  8
1
  6
Continuous
100
AcDbLine
 10
108.6357959999999
 20
54.86514599999999
 30
0.0
 11
106.2357959999997
 21
54.86514599999999
 31
0.0
  0
LINE
  5
2AD
330
285
100
AcDbEntity
  8
1
  6
Continuous
100
AcDbLine
 10
106.2357959999997
 20
54.86504599999999
 30
0.0
 11
105.5857959999999
 21
55.565046
 31
0.0
  0
LINE
  5
2AE
330
285
100
AcDbEntity
  8
1
  6
Continuous
100
AcDbLine
 10
105.5857959999999
 20
55.56514599999999
 30
0.0
 11
95.63579600000002
 21
55.56514599999999
 31
0.0
  0
LINE
  5
2B3
330
285
100
AcDbEntity
  8
4
  6
CENTER
 48
0.3
100
AcDbLine
 10
90.07349600000001
 20
47.565146
 30
0.0
 11
120.7847959999999
 21
47.565146
 31
0.0
  0
LINE
  5
2B5
330
285
100
AcDbEntity
  8
1
  6
Continuous
100
AcDbLine
 10
105.5857959999999
 20
55.56514599999999
 30
0.0
 11
105.5857959999999
 21
51.613646
 31
0.0
  0
LINE
  5
2B6
330
285
100
AcDbEntity
  8
1
  6
Continuous
100
AcDbLine
 10
106.2357959999997
 20
54.86514599999999
 30
0.0
 11
106.2357959999997
 21
50.913646
 31
0.0
  0
LINE
  5
2B7
330
285
100
AcDbEntity
  8
1
  6
Continuous
100
AcDbLine
 10
105.5817959999999
 20
39.565146
 30
0.0
 11
105.5817959999999
 21
43.516646
 31
0.0
  0
LINE
  5
2B8
330
285
100
AcDbEntity
  8
1
  6
Continuous
100
AcDbLine
 10
106.2357959999997
 20
40.265146
 30
0.0
 11
106.2357959999997
 21
44.221746
 31
0.0
  0
LINE
  5
2B9
330
285
100
AcDbEntity
  8
1
  6
Continuous
100
AcDbLine
 10
106.2357959999997
 20
50.91354599999998
 30
0.0
 11
105.5857959999999
 21
51.613646
 31
0.0
  0
LINE
  5
2BA
330
285
100
AcDbEntity
  8
1
  6
Continuous
100
AcDbLine
 10
105.5817959999999
 20
43.516646
 30
0.0
 11
106.2357959999997
 21
44.221746
 31
0.0
  0
LINE
  5
2BB
330
285
100
AcDbEntity
  8
1
  6
Continuous
100
AcDbLine
 10
106.2357959999997
 20
50.913646
 30
0.0
 11
108.6357959999999
 21
50.913646
 31
0.0
  0
LINE
  5
2BC
330
285
100
AcDbEntity
  8
1
  6
Continuous
100
AcDbLine
 10
106.2357959999997
 20
44.221746
 30
0.0
 11
108.6357959999999
 21
44.221746
 31
0.0
  0
LINE
  5
2BD
330
285
100
AcDbEntity
  8
2
  6
Continuous
100
AcDbLine
 10
108.6357959999999
 20
50.91354599999998
 30
0.0
 11
95.63579600000002
 21
43.51654599999998
 31
0.0
  0
LINE
  5
2BE
330
285
100
AcDbEntity
  8
1
  6
Continuous
100
AcDbLine
 10
95.63579600000002
 20
51.613646
 30
0.0
 11
105.5857959999999
 21
51.613646
 31
0.0
  0
LINE
  5
2BF
330
285
100
AcDbEntity
  8
2
  6
Continuous
100
AcDbLine
 10
95.63579600000002
 20
51.613646
 30
0.0
 11
108.6357959999999
 21
44.221746
 31
0.0
  0
LINE
  5
2C0
330
285
100
AcDbEntity
  8
1
  6
Continuous
100
AcDbLine
 10
95.63579600000002
 20
43.516646
 30
0.0
 11
105.5817959999999
 21
43.516646
 31
0.0
  0
LINE
  5
2C1
330
285
100
AcDbEntity
  8
1
  6
Continuous
100
AcDbLine
 10
95.63579600000002
 20
39.565146
 30
0.0
 11
105.5817959999999
 21
39.565146
 31
0.0
  0
LINE
  5
2C2
330
285
100
AcDbEntity
  8
1
  6
Continuous
100
AcDbLine
 10
118.4357959999997
 20
50.065146
 30
0.0
 11
109.1357959999999
 21
50.065146
 31
0.0
  0
LINE
  5
2C3
330
285
100
AcDbEntity
  8
1
  6
Continuous
100
AcDbLine
 10
118.4357959999997
 20
45.065146
 30
0.0
 11
109.1357959999999
 21
45.065146
 31
0.0
  0
LINE
  5
2C4
330
285
100
AcDbEntity
  8
1
  6
Continuous
100
AcDbLine
 10
119.1357959999999
 20
49.365146
 30
0.0
 11
119.1357959999999
 21
45.765146
 31
0.0
  0
LINE
  5
2C5
330
285
100
AcDbEntity
  8
1
  6
Continuous
100
AcDbLine
 10
118.4357959999997
 20
50.065046
 30
0.0
 11
119.1357959999999
 21
49.365046
 31
0.0
  0
LINE
  5
2C6
330
285
100
AcDbEntity
  8
1
  6
Continuous
100
AcDbLine
 10
119.1357959999999
 20
45.76504599999998
 30
0.0
 11
118.4357959999997
 21
45.065046
 31
0.0
  0
LINE
  5
2C7
330
285
100
AcDbEntity
  8
1
  6
Continuous
100
AcDbLine
 10
109.1357959999999
 20
49.397546
 30
0.0
 11
119.1037959999999
 21
49.397546
 31
0.0
  0
LINE
  5
2C8
330
285
100
AcDbEntity
  8
1
  6
Continuous
100
AcDbLine
 10
109.1357959999999
 20
45.732746
 30
0.0
 11
119.1037959999999
 21
45.732746
 31
0.0
  0
LINE
  5
2C9
330
285
100
AcDbEntity
  8
2
  6
Continuous
100
AcDbLine
 10
109.1357959999999
 20
48.873946
 30
0.0
 11
119.1357959999999
 21
45.765146
 31
0.0
  0
LINE
  5
2CA
330
285
100
AcDbEntity
  8
2
  6
Continuous
100
AcDbLine
 10
119.1357959999999
 20
49.365146
 30
0.0
 11
109.1357959999999
 21
46.256246
 31
0.0
  0
LINE
  5
2CB
330
285
100
AcDbEntity
  8
1
  6
Continuous
100
AcDbLine
 10
227.159796
 20
40.374546
 30
0.0
 11
227.159796
 21
41.06514599999999
 31
0.0
  0
LINE
  5
2CC
330
285
100
AcDbEntity
  8
1
  6
Continuous
100
AcDbLine
 10
108.6357959999999
 20
53.06514599999999
 30
0.0
 11
109.1357959999999
 21
53.06514599999999
 31
0.0
  0
LINE
  5
2CD
330
285
100
AcDbEntity
  8
1
  6
Continuous
100
AcDbLine
 10
108.6357959999999
 20
40.37464599999998
 30
0.0
 11
109.1357959999999
 21
40.37464599999998
 31
0.0
  0
LINE
  5
2CE
330
285
100
AcDbEntity
  8
1
  6
Continuous
100
AcDbLine
 10
109.1357959999999
 20
53.06514599999999
 30
0.0
 11
109.1357959999999
 21
40.37464599999998
 31
0.0
  0
LINE
  5
2CF
330
285
100
AcDbEntity
  8
1
  6
Continuous
100
AcDbLine
 10
108.6357959999999
 20
42.065146
 30
0.0
 11
109.1357959999999
 21
42.065146
 31
0.0
  0
LINE
  5
2D0
330
285
100
AcDbEntity
  8
1
  6
Continuous
100
AcDbLine
 10
148.494796
 20
127.7154459999999
 30
0.0
 11
148.494796
 21
107.415446
 31
0.0
  0
LINE
  5
2D1
330
285
100
AcDbEntity
  8
1
  6
Continuous
100
AcDbLine
 10
180.910796
 20
50.379046
 30
0.0
 11
180.910796
 21
50.08244600000001
 31
0.0
  0
LINE
  5
2D2
330
285
100
AcDbEntity
  8
1
  6
Continuous
100
AcDbLine
 10
182.410796
 20
50.10364599999999
 30
0.0
 11
182.410796
 21
49.807046
 31
0.0
  0
LINE
  5
2D3
330
285
100
AcDbEntity
  8
1
  6
Continuous
100
AcDbLine
 10
181.3607959999999
 20
52.565146
 30
0.0
 11
181.3607959999999
 21
42.565146
 31
0.0
  0
LINE
  5
2D4
330
285
100
AcDbEntity
  8
1
  6
Continuous
100
AcDbLine
 10
181.9607959999999
 20
52.565146
 30
0.0
 11
181.9607959999999
 21
42.565146
 31
0.0
  0
LINE
  5
2D5
330
285
100
AcDbEntity
  8
1
  6
Continuous
100
AcDbLine
 10
180.910796
 20
50.379046
 30
0.0
 11
181.3607959999999
 21
50.296346
 31
0.0
  0
LINE
  5
2D6
330
285
100
AcDbEntity
  8
1
  6
Continuous
100
AcDbLine
 10
181.2107959999999
 20
49.50344600000001
 30
0.0
 11
181.3607959999999
 21
49.430846
 31
0.0
  0
LINE
  5
2D7
330
285
100
AcDbEntity
  8
1
  6
Continuous
100
AcDbLine
 10
181.2697959999999
 20
48.103146
 30
0.0
 11
181.3607959999999
 21
48.049046
 31
0.0
  0
LINE
  5
2D8
330
285
100
AcDbEntity
  8
1
  6
Continuous
100
AcDbLine
 10
180.910796
 20
46.27164599999999
 30
0.0
 11
181.3607959999999
 21
46.05524599999998
 31
0.0
  0
LINE
  5
2D9
330
285
100
AcDbEntity
  8
1
  6
Continuous
100
AcDbLine
 10
180.910796
 20
45.026546
 30
0.0
 11
181.3607959999999
 21
44.94394599999998
 31
0.0
  0
LINE
  5
2DA
330
285
100
AcDbEntity
  8
1
  6
Continuous
100
AcDbLine
 10
180.910796
 20
50.08244600000001
 30
0.0
 11
181.3607959999999
 21
49.99984600000001
 31
0.0
  0
LINE
  5
2DB
330
285
100
AcDbEntity
  8
1
  6
Continuous
100
AcDbLine
 10
180.9137959999999
 20
49.16054599999998
 30
0.0
 11
181.3607959999999
 21
48.945346
 31
0.0
  0
LINE
  5
2DC
330
285
100
AcDbEntity
  8
1
  6
Continuous
100
AcDbLine
 10
180.970796
 20
47.569346
 30
0.0
 11
181.3607959999999
 21
47.337346
 31
0.0
  0
LINE
  5
2DD
330
285
100
AcDbEntity
  8
1
  6
Continuous
100
AcDbLine
 10
180.910796
 20
45.916546
 30
0.0
 11
181.3607959999999
 21
45.70024599999999
 31
0.0
  0
LINE
  5
2DE
330
285
100
AcDbEntity
  8
1
  6
Continuous
100
AcDbLine
 10
180.910796
 20
44.73554599999999
 30
0.0
 11
181.3607959999999
 21
44.65284599999999
 31
0.0
  0
LINE
  5
2DF
330
285
100
AcDbEntity
  8
1
  6
Continuous
100
AcDbLine
 10
180.910796
 20
46.271746
 30
0.0
 11
180.910796
 21
45.916546
 31
0.0
  0
LINE
  5
2E0
330
285
100
AcDbEntity
  8
1
  6
Continuous
100
AcDbLine
 10
180.910796
 20
45.026646
 30
0.0
 11
180.910796
 21
44.73554599999999
 31
0.0
  0
LINE
  5
2E1
330
285
100
AcDbEntity
  8
1
  6
Continuous
100
AcDbLine
 10
180.9217959999998
 20
49.170746
 30
0.0
 11
181.2187959999999
 21
49.513646
 31
0.0
  0
LINE
  5
2E2
330
285
100
AcDbEntity
  8
1
  6
Continuous
100
AcDbLine
 10
182.1147959999999
 20
48.583246
 30
0.0
 11
182.410796
 21
48.926046
 31
0.0
  0
LINE
  5
2E3
330
285
100
AcDbEntity
  8
1
  6
Continuous
100
AcDbLine
 10
180.970796
 20
47.569246
 30
0.0
 11
181.2697959999999
 21
48.103146
 31
0.0
  0
LINE
  5
2E4
330
285
100
AcDbEntity
  8
1
  6
Continuous
100
AcDbLine
 10
182.4707959999997
 20
47.389746
 30
0.0
 11
182.2427959999999
 21
46.813746
 31
0.0
  0
LINE
  5
2E5
330
285
100
AcDbEntity
  8
1
  6
Continuous
100
AcDbLine
 10
181.9607959999999
 20
50.18624599999998
 30
0.0
 11
182.410796
 21
50.103546
 31
0.0
  0
LINE
  5
2E6
330
285
100
AcDbEntity
  8
1
  6
Continuous
100
AcDbLine
 10
181.9607959999999
 20
49.889646
 30
0.0
 11
182.410796
 21
49.806946
 31
0.0
  0
LINE
  5
2E7
330
285
100
AcDbEntity
  8
1
  6
Continuous
100
AcDbLine
 10
181.9607959999999
 20
49.14244599999999
 30
0.0
 11
182.410796
 21
48.926146
 31
0.0
  0
LINE
  5
2E8
330
285
100
AcDbEntity
  8
1
  6
Continuous
100
AcDbLine
 10
181.9607959999999
 20
48.65694600000001
 30
0.0
 11
182.1147959999999
 21
48.583346
 31
0.0
  0
LINE
  5
2E9
330
285
100
AcDbEntity
  8
1
  6
Continuous
100
AcDbLine
 10
181.9607959999999
 20
47.692546
 30
0.0
 11
182.4707959999997
 21
47.389746
 31
0.0
  0
LINE
  5
2EA
330
285
100
AcDbEntity
  8
1
  6
Continuous
100
AcDbLine
 10
181.9607959999999
 20
46.980746
 30
0.0
 11
182.2427959999999
 21
46.813746
 31
0.0
  0
LINE
  5
2EB
330
285
100
AcDbEntity
  8
1
  6
Continuous
100
AcDbLine
 10
181.9607959999999
 20
45.76694599999998
 30
0.0
 11
182.410796
 21
45.550646
 31
0.0
  0
LINE
  5
2EC
330
285
100
AcDbEntity
  8
1
  6
Continuous
100
AcDbLine
 10
181.9607959999999
 20
45.411646
 30
0.0
 11
182.1207959999999
 21
45.334746
 31
0.0
  0
LINE
  5
2ED
330
285
100
AcDbEntity
  8
1
  6
Continuous
100
AcDbLine
 10
181.9607959999999
 20
44.833746
 30
0.0
 11
182.410796
 21
44.751146
 31
0.0
  0
LINE
  5
2EE
330
285
100
AcDbEntity
  8
1
  6
Continuous
100
AcDbLine
 10
181.9607959999999
 20
44.542746
 30
0.0
 11
182.1047959999999
 21
44.516446
 31
0.0
  0
LINE
  5
2EF
330
285
100
AcDbEntity
  8
4
  6
CENTER
 48
0.3
100
AcDbLine
 10
226.790796
 20
60.377646
 30
0.0
 11
226.790796
 21
34.40114599999999
 31
0.0
  0
LINE
  5
2F0
330
285
100
AcDbEntity
  8
1
  6
Continuous
100
AcDbLine
 10
217.2907959999998
 20
53.050046
 30
0.0
 11
217.2907959999998
 21
42.080346
 31
0.0
  0
LINE
  5
2F1
330
285
100
AcDbEntity
  8
1
  6
Continuous
100
AcDbLine
 10
234.531796
 20
54.065146
 30
0.0
 11
226.790796
 21
58.53484599999998
 31
0.0
  0
LINE
  5
2F2
330
285
100
AcDbEntity
  8
1
  6
Continuous
100
AcDbLine
 10
226.790796
 20
36.595446
 30
0.0
 11
217.2907959999998
 21
42.080346
 31
0.0
  0
LINE
  5
2F3
330
285
100
AcDbEntity
  8
1
  6
Continuous
100
AcDbLine
 10
226.7897959999999
 20
36.595446
 30
0.0
 11
234.531796
 21
41.06514599999999
 31
0.0
  0
LINE
  5
2F4
330
285
100
AcDbEntity
  8
1
  6
Continuous
100
AcDbLine
 10
217.2907959999998
 20
53.049946
 30
0.0
 11
226.790796
 21
58.534746
 31
0.0
  0
LINE
  5
2F5
330
285
100
AcDbEntity
  8
1
  6
Continuous
100
AcDbLine
 10
160.982796
 20
58.53484599999998
 30
0.0
 11
162.5157959999999
 21
58.53484599999998
 31
0.0
  0
LINE
  5
2F6
330
285
100
AcDbEntity
  8
1
  6
Continuous
100
AcDbLine
 10
160.499796
 20
55.79234599999999
 30
0.0
 11
160.499796
 21
39.337946
 31
0.0
  0
LINE
  5
2F7
330
285
100
AcDbEntity
  8
1
  6
Continuous
100
AcDbLine
 10
162.999796
 20
55.79234599999999
 30
0.0
 11
162.999796
 21
39.337946
 31
0.0
  0
LINE
  5
2F8
330
285
100
AcDbEntity
  8
1
  6
Continuous
100
AcDbLine
 10
160.982796
 20
53.049946
 30
0.0
 11
162.5157959999999
 21
53.049946
 31
0.0
  0
LINE
  5
2F9
330
285
100
AcDbEntity
  8
1
  6
Continuous
100
AcDbLine
 10
160.982796
 20
36.595446
 30
0.0
 11
162.5157959999999
 21
36.595446
 31
0.0
  0
LINE
  5
2FA
330
285
100
AcDbEntity
  8
1
  6
Continuous
100
AcDbLine
 10
160.982796
 20
42.080346
 30
0.0
 11
162.5157959999999
 21
42.080346
 31
0.0
  0
LINE
  5
2FB
330
285
100
AcDbEntity
  8
1
  6
Continuous
100
AcDbLine
 10
222.790796
 20
49.874546
 30
0.0
 11
222.790796
 21
45.255746
 31
0.0
  0
LINE
  5
2FC
330
285
100
AcDbEntity
  8
1
  6
Continuous
100
AcDbLine
 10
230.790796
 20
49.874546
 30
0.0
 11
230.790796
 21
45.255746
 31
0.0
  0
LINE
  5
2FD
330
285
100
AcDbEntity
  8
1
  6
Continuous
100
AcDbLine
 10
230.790796
 20
49.874546
 30
0.0
 11
226.790796
 21
52.18394599999999
 31
0.0
  0
LINE
  5
2FE
330
285
100
AcDbEntity
  8
1
  6
Continuous
100
AcDbLine
 10
226.790796
 20
42.94634600000001
 30
0.0
 11
222.790796
 21
45.255746
 31
0.0
  0
LINE
  5
2FF
330
285
100
AcDbEntity
  8
1
  6
Continuous
100
AcDbLine
 10
226.790796
 20
42.94634600000001
 30
0.0
 11
230.790796
 21
45.255746
 31
0.0
  0
LINE
  5
300
330
285
100
AcDbEntity
  8
1
  6
Continuous
100
AcDbLine
 10
222.790796
 20
49.874546
 30
0.0
 11
226.790796
 21
52.18394599999999
 31
0.0
  0
LINE
  5
301
330
285
100
AcDbEntity
  8
1
  6
Continuous
100
AcDbLine
 10
188.6427959999998
 20
52.18394599999999
 30
0.0
 11
191.976796
 21
52.18394599999999
 31
0.0
  0
LINE
  5
302
330
285
100
AcDbEntity
  8
1
  6
Continuous
100
AcDbLine
 10
188.6427959999998
 20
52.18394599999999
 30
0.0
 11
188.6427959999998
 21
42.94634600000001
 31
0.0
  0
LINE
  5
303
330
285
100
AcDbEntity
  8
1
  6
Continuous
100
AcDbLine
 10
192.642796
 20
51.032446
 30
0.0
 11
192.642796
 21
44.097846
 31
0.0
  0
LINE
  5
304
330
285
100
AcDbEntity
  8
1
  6
Continuous
100
AcDbLine
 10
188.6427959999998
 20
49.880746
 30
0.0
 11
191.976796
 21
49.880746
 31
0.0
  0
LINE
  5
305
330
285
100
AcDbEntity
  8
4
  6
CENTER
 48
0.3
100
AcDbLine
 10
145.405796
 20
47.565146
 30
0.0
 11
196.304796
 21
47.565146
 31
0.0
  0
LINE
  5
306
330
285
100
AcDbEntity
  8
1
  6
Continuous
100
AcDbLine
 10
188.6427959999998
 20
42.94634600000001
 30
0.0
 11
191.976796
 21
42.94634600000001
 31
0.0
  0
LINE
  5
307
330
285
100
AcDbEntity
  8
1
  6
Continuous
100
AcDbLine
 10
188.6427959999998
 20
45.249446
 30
0.0
 11
191.976796
 21
45.249446
 31
0.0
  0
LINE
  5
308
330
285
100
AcDbEntity
  8
1
  6
Continuous
100
AcDbLine
 10
236.790796
 20
41.06514599999999
 30
0.0
 11
226.790796
 21
41.06514599999999
 31
0.0
  0
LINE
  5
309
330
285
100
AcDbEntity
  8
1
  6
Continuous
100
AcDbLine
 10
236.790796
 20
54.065146
 30
0.0
 11
226.790796
 21
54.065146
 31
0.0
  0
LINE
  5
30A
330
285
100
AcDbEntity
  8
1
  6
Continuous
100
AcDbLine
 10
247.5997959999999
 20
42.065146
 30
0.0
 11
236.790796
 21
42.065146
 31
0.0
  0
LINE
  5
30B
330
285
100
AcDbEntity
  8
1
  6
Continuous
100
AcDbLine
 10
247.5997959999999
 20
53.06514599999999
 30
0.0
 11
236.790796
 21
53.06514599999999
 31
0.0
  0
LINE
  5
30C
330
285
100
AcDbEntity
  8
1
  6
Continuous
100
AcDbLine
 10
236.790796
 20
54.065146
 30
0.0
 11
236.790796
 21
53.06514599999999
 31
0.0
  0
LINE
  5
30D
330
285
100
AcDbEntity
  8
1
  6
Continuous
100
AcDbLine
 10
236.790796
 20
42.065146
 30
0.0
 11
236.790796
 21
41.06514599999999
 31
0.0
  0
LINE
  5
30E
330
285
100
AcDbEntity
  8
1
  6
Continuous
100
AcDbLine
 10
172.075796
 20
54.065146
 30
0.0
 11
174.075796
 21
54.065146
 31
0.0
  0
LINE
  5
30F
330
285
100
AcDbEntity
  8
1
  6
Continuous
100
AcDbLine
 10
172.075796
 20
41.06514599999999
 30
0.0
 11
174.075796
 21
41.06514599999999
 31
0.0
  0
LINE
  5
310
330
285
100
AcDbEntity
  8
1
  6
Continuous
100
AcDbLine
 10
172.075796
 20
54.065146
 30
0.0
 11
172.075796
 21
41.06514599999999
 31
0.0
  0
LINE
  5
311
330
285
100
AcDbEntity
  8
1
  6
Continuous
100
AcDbLine
 10
174.075796
 20
54.065146
 30
0.0
 11
174.075796
 21
41.06514599999999
 31
0.0
  0
LINE
  5
312
330
285
100
AcDbEntity
  8
4
  6
CENTER
 48
0.3
100
AcDbLine
 10
214.7027959999999
 20
47.565146
 30
0.0
 11
251.587796
 21
47.565146
 31
0.0
  0
LINE
  5
313
330
285
100
AcDbEntity
  8
1
  6
Continuous
100
AcDbLine
 10
50.140296
 20
121.3654459999998
 30
0.0
 11
50.140296
 21
113.765446
 31
0.0
  0
LINE
  5
314
330
285
100
AcDbEntity
  8
1
  6
Continuous
100
AcDbLine
 10
38.14029599999999
 20
121.3654459999998
 30
0.0
 11
38.14029599999999
 21
114.8654459999999
 31
0.0
  0
LINE
  5
315
330
285
100
AcDbEntity
  8
1
  6
Continuous
100
AcDbLine
 10
32.640296
 20
118.8724459999999
 30
0.0
 11
32.640296
 21
116.257446
 31
0.0
  0
LINE
  5
316
330
285
100
AcDbEntity
  8
1
  6
Continuous
100
AcDbLine
 10
38.14029599999999
 20
114.8654459999999
 30
0.0
 11
38.14029599999999
 21
113.765446
 31
0.0
  0
LINE
  5
317
330
285
100
AcDbEntity
  8
1
  6
Continuous
100
AcDbLine
 10
50.140296
 20
121.3654459999998
 30
0.0
 11
49.94029600000001
 21
121.5654459999997
 31
0.0
  0
LINE
  5
318
330
285
100
AcDbEntity
  8
1
  6
Continuous
100
AcDbLine
 10
50.140296
 20
113.765446
 30
0.0
 11
49.94029600000001
 21
113.565446
 31
0.0
  0
LINE
  5
319
330
285
100
AcDbEntity
  8
1
  6
Continuous
100
AcDbLine
 10
38.340296
 20
121.5654459999997
 30
0.0
 11
38.14029599999999
 21
121.3654459999998
 31
0.0
  0
LINE
  5
31A
330
285
100
AcDbEntity
  8
1
  6
Continuous
100
AcDbLine
 10
38.14029599999999
 20
113.765446
 30
0.0
 11
38.340296
 21
113.565446
 31
0.0
  0
LINE
  5
31B
330
285
100
AcDbEntity
  8
1
  6
Continuous
100
AcDbLine
 10
49.94029600000001
 20
113.565446
 30
0.0
 11
38.340296
 21
113.565446
 31
0.0
  0
LINE
  5
31C
330
285
100
AcDbEntity
  8
1
  6
Continuous
100
AcDbLine
 10
49.94029600000001
 20
121.5654459999997
 30
0.0
 11
38.340296
 21
121.5654459999997
 31
0.0
  0
LINE
  5
31D
330
285
100
AcDbEntity
  8
1
  6
Continuous
100
AcDbLine
 10
38.14029599999999
 20
120.5654459999997
 30
0.0
 11
35.376596
 21
120.5654459999997
 31
0.0
  0
LINE
  5
31E
330
285
100
AcDbEntity
  8
1
  6
Continuous
100
AcDbLine
 10
38.14029599999999
 20
114.565446
 30
0.0
 11
35.376596
 21
114.565446
 31
0.0
  0
LINE
  5
31F
330
285
100
AcDbEntity
  8
1
  6
Continuous
100
AcDbLine
 10
20.840296
 20
115.565446
 30
0.0
 11
22.240296
 21
115.565446
 31
0.0
  0
LINE
  5
320
330
285
100
AcDbEntity
  8
1
  6
Continuous
100
AcDbLine
 10
20.840296
 20
119.5654459999998
 30
0.0
 11
22.240296
 21
119.5654459999998
 31
0.0
  0
LINE
  5
321
330
285
100
AcDbEntity
  8
1
  6
Continuous
100
AcDbLine
 10
23.08619599999999
 20
107.5654459999997
 30
0.0
 11
26.884996
 21
107.5654459999997
 31
0.0
  0
LINE
  5
322
330
285
100
AcDbEntity
  8
1
  6
Continuous
100
AcDbLine
 10
23.08619599999999
 20
127.5654459999997
 30
0.0
 11
26.884996
 21
127.5654459999997
 31
0.0
  0
LINE
  5
323
330
285
100
AcDbEntity
  8
1
  6
Continuous
100
AcDbLine
 10
18.04029599999998
 20
120.2714459999999
 30
0.0
 11
18.04029599999998
 21
114.858446
 31
0.0
  0
LINE
  5
324
330
285
100
AcDbEntity
  8
1
  6
Continuous
100
AcDbLine
 10
38.04029599999999
 20
114.565446
 30
0.0
 11
38.04029599999999
 21
113.2584459999999
 31
0.0
  0
LINE
  5
325
330
285
100
AcDbEntity
  8
1
  6
Continuous
100
AcDbLine
 10
23.04029599999999
 20
118.765446
 30
0.0
 11
23.04029599999999
 21
116.3654459999999
 31
0.0
  0
LINE
  5
326
330
285
100
AcDbEntity
  8
1
  6
Continuous
100
AcDbLine
 10
20.04029599999998
 20
118.765446
 30
0.0
 11
20.04029599999998
 21
116.3654459999999
 31
0.0
  0
LINE
  5
327
330
285
100
AcDbEntity
  8
1
  6
Continuous
100
AcDbLine
 10
18.199096
 20
120.812446
 30
0.0
 11
22.244996
 21
127.1054459999999
 31
0.0
  0
LINE
  5
328
330
285
100
AcDbEntity
  8
1
  6
Continuous
100
AcDbLine
 10
27.188196
 20
127.5184459999999
 30
0.0
 11
38.04029599999999
 21
124.065446
 31
0.0
  0
LINE
  5
329
330
285
100
AcDbEntity
  8
1
  6
Continuous
100
AcDbLine
 10
18.199096
 20
114.318446
 30
0.0
 11
22.244996
 21
108.024446
 31
0.0
  0
LINE
  5
32A
330
285
100
AcDbEntity
  8
1
  6
Continuous
100
AcDbLine
 10
27.188196
 20
107.6124459999999
 30
0.0
 11
35.94989600000001
 21
110.400446
 31
0.0
  0
LINE
  5
32B
330
285
100
AcDbEntity
  8
1
  6
Continuous
100
AcDbLine
 10
38.04029599999999
 20
124.065446
 30
0.0
 11
42.940296
 21
124.065446
 31
0.0
  0
LINE
  5
32C
330
285
100
AcDbEntity
  8
1
  6
Continuous
100
AcDbLine
 10
44.140296
 20
122.865446
 30
0.0
 11
44.140296
 21
121.5654459999997
 31
0.0
  0
LINE
  5
32D
330
285
100
AcDbEntity
  8
1
  6
Continuous
100
AcDbLine
 10
48.640296
 20
122.465446
 30
0.0
 11
48.640296
 21
121.7704459999997
 31
0.0
  0
LINE
  5
32E
330
285
100
AcDbEntity
  8
1
  6
Continuous
100
AcDbLine
 10
48.328696
 20
121.615446
 30
0.0
 11
48.328696
 21
121.5654459999997
 31
0.0
  0
LINE
  5
32F
330
285
100
AcDbEntity
  8
1
  6
Continuous
100
AcDbLine
 10
47.04029600000001
 20
122.465446
 30
0.0
 11
47.04029600000001
 21
121.5654459999997
 31
0.0
  0
LINE
  5
330
330
285
100
AcDbEntity
  8
1
  6
Continuous
100
AcDbLine
 10
47.04029600000001
 20
122.465446
 30
0.0
 11
48.640296
 21
122.465446
 31
0.0
  0
LINE
  5
331
330
285
100
AcDbEntity
  8
1
  6
Continuous
100
AcDbLine
 10
48.328696
 20
121.615446
 30
0.0
 11
48.640296
 21
121.7704459999997
 31
0.0
  0
LINE
  5
332
330
285
100
AcDbEntity
  8
4
  6
CENTER
 48
0.3
100
AcDbLine
 10
53.244096
 20
117.565446
 30
0.0
 11
16.16529599999999
 21
117.565446
 31
0.0
  0
LINE
  5
333
330
285
100
AcDbEntity
  8
1
  6
Continuous
100
AcDbLine
 10
219.890796
 20
43.516646
 30
0.0
 11
219.890796
 21
51.613646
 31
0.0
  0
LINE
  5
334
330
285
100
AcDbEntity
  8
1
  6
Continuous
100
AcDbLine
 10
225.0907959999999
 20
49.397546
 30
0.0
 11
225.0907959999999
 21
45.740246
 31
0.0
  0
LINE
  5
335
330
285
100
AcDbEntity
  8
1
  6
Continuous
100
AcDbLine
 10
228.4907959999999
 20
49.397546
 30
0.0
 11
228.4907959999999
 21
45.740246
 31
0.0
  0
LINE
  5
336
330
285
100
AcDbEntity
  8
1
  6
Continuous
100
AcDbLine
 10
108.6357959999999
 20
110.769446
 30
0.0
 11
108.6357959999999
 21
117.569446
 31
0.0
  0
LINE
  5
337
330
285
100
AcDbEntity
  8
1
  6
Continuous
100
AcDbLine
 10
106.885796
 20
117.569446
 30
0.0
 11
106.885796
 21
124.5694459999999
 31
0.0
  0
LINE
  5
338
330
285
100
AcDbEntity
  8
1
  6
Continuous
100
AcDbLine
 10
106.885796
 20
124.5694459999999
 30
0.0
 11
95.63579600000002
 21
124.5694459999999
 31
0.0
  0
LINE
  5
339
330
285
100
AcDbEntity
  8
4
  6
CENTER
 48
0.3
100
AcDbLine
 10
121.5127959999998
 20
117.565446
 30
0.0
 11
89.521496
 21
117.565446
 31
0.0
  0
LINE
  5
33A
330
285
100
AcDbEntity
  8
1
  6
Continuous
100
AcDbLine
 10
106.885796
 20
117.569446
 30
0.0
 11
108.6357959999999
 21
117.569446
 31
0.0
  0
LINE
  5
33B
330
285
100
AcDbEntity
  8
1
  6
Continuous
100
AcDbLine
 10
226.690796
 20
54.065146
 30
0.0
 11
226.690796
 21
54.86444599999999
 31
0.0
  0
LINE
  5
33C
330
285
100
AcDbEntity
  8
1
  6
Continuous
100
AcDbLine
 10
226.690796
 20
41.065846
 30
0.0
 11
226.690796
 21
40.265846
 31
0.0
  0
LINE
  5
33E
330
285
100
AcDbEntity
  8
1
  6
Continuous
100
AcDbLine
 10
95.63579600000002
 20
108.5654459999997
 30
0.0
 11
95.63579600000002
 21
126.5654459999997
 31
0.0
  0
LINE
  5
344
330
285
100
AcDbEntity
  8
4
  6
CENTER
 48
0.3
100
AcDbLine
 10
103.2357959999997
 20
119.545446
 30
0.0
 11
103.2357959999997
 21
115.6284459999999
 31
0.0
  0
LINE
  5
345
330
285
100
AcDbEntity
  8
1
  6
Continuous
100
AcDbLine
 10
119.1357959999999
 20
118.565446
 30
0.0
 11
119.1357959999999
 21
116.565446
 31
0.0
  0
LINE
  5
346
330
285
100
AcDbEntity
  8
1
  6
Continuous
100
AcDbLine
 10
107.5357959999999
 20
120.0654459999997
 30
0.0
 11
106.885796
 21
120.0654459999997
 31
0.0
  0
LINE
  5
347
330
285
100
AcDbEntity
  8
1
  6
Continuous
100
AcDbLine
 10
180.910796
 20
115.8654459999999
 30
0.0
 11
180.9597959999999
 21
115.8654459999999
 31
0.0
  0
LINE
  5
348
330
285
100
AcDbEntity
  8
1
  6
Continuous
100
AcDbLine
 10
119.1357959999999
 20
118.565446
 30
0.0
 11
118.4357959999997
 21
119.2654459999999
 31
0.0
  0
LINE
  5
349
330
285
100
AcDbEntity
  8
1
  6
Continuous
100
AcDbLine
 10
119.1357959999999
 20
116.565446
 30
0.0
 11
118.4357959999997
 21
115.8654459999999
 31
0.0
  0
LINE
  5
34A
330
285
100
AcDbEntity
  8
1
  6
Continuous
100
AcDbLine
 10
118.4357959999997
 20
119.2654459999999
 30
0.0
 11
118.4357959999997
 21
115.8654459999999
 31
0.0
  0
LINE
  5
34B
330
285
100
AcDbEntity
  8
1
  6
Continuous
100
AcDbLine
 10
109.1357959999999
 20
112.0654459999997
 30
0.0
 11
108.6357959999999
 21
112.0654459999997
 31
0.0
  0
LINE
  5
34C
330
285
100
AcDbEntity
  8
1
  6
Continuous
100
AcDbLine
 10
109.1357959999999
 20
124.5154459999999
 30
0.0
 11
107.5357959999999
 21
124.5154459999999
 31
0.0
  0
LINE
  5
34D
330
285
100
AcDbEntity
  8
1
  6
Continuous
100
AcDbLine
 10
107.5357959999999
 20
117.569446
 30
0.0
 11
107.5357959999999
 21
124.5154459999999
 31
0.0
  0
LINE
  5
34E
330
285
100
AcDbEntity
  8
1
  6
Continuous
100
AcDbLine
 10
109.1357959999999
 20
123.065446
 30
0.0
 11
107.5357959999999
 21
123.065446
 31
0.0
  0
LINE
  5
34F
330
285
100
AcDbEntity
  8
1
  6
Continuous
100
AcDbLine
 10
180.910796
 20
120.379446
 30
0.0
 11
180.910796
 21
120.0824459999999
 31
0.0
  0
LINE
  5
350
330
285
100
AcDbEntity
  8
1
  6
Continuous
100
AcDbLine
 10
182.410796
 20
120.103446
 30
0.0
 11
182.410796
 21
119.8074459999999
 31
0.0
  0
LINE
  5
351
330
285
100
AcDbEntity
  8
1
  6
Continuous
100
AcDbLine
 10
181.3607959999999
 20
122.5654459999997
 30
0.0
 11
181.3607959999999
 21
112.565446
 31
0.0
  0
LINE
  5
352
330
285
100
AcDbEntity
  8
1
  6
Continuous
100
AcDbLine
 10
181.9607959999999
 20
122.5654459999997
 30
0.0
 11
181.9607959999999
 21
112.565446
 31
0.0
  0
LINE
  5
353
330
285
100
AcDbEntity
  8
1
  6
Continuous
100
AcDbLine
 10
180.910796
 20
120.379446
 30
0.0
 11
181.3607959999999
 21
120.296446
 31
0.0
  0
LINE
  5
354
330
285
100
AcDbEntity
  8
1
  6
Continuous
100
AcDbLine
 10
181.2107959999999
 20
119.503446
 30
0.0
 11
181.3607959999999
 21
119.4304459999999
 31
0.0
  0
LINE
  5
355
330
285
100
AcDbEntity
  8
1
  6
Continuous
100
AcDbLine
 10
181.2697959999999
 20
118.103446
 30
0.0
 11
181.3607959999999
 21
118.049446
 31
0.0
  0
LINE
  5
356
330
285
100
AcDbEntity
  8
1
  6
Continuous
100
AcDbLine
 10
180.910796
 20
116.2714459999999
 30
0.0
 11
181.3607959999999
 21
116.0554459999999
 31
0.0
  0
LINE
  5
357
330
285
100
AcDbEntity
  8
1
  6
Continuous
100
AcDbLine
 10
180.910796
 20
115.026446
 30
0.0
 11
181.3607959999999
 21
114.944446
 31
0.0
  0
LINE
  5
358
330
285
100
AcDbEntity
  8
1
  6
Continuous
100
AcDbLine
 10
180.910796
 20
120.0824459999999
 30
0.0
 11
181.3607959999999
 21
119.9994459999998
 31
0.0
  0
LINE
  5
359
330
285
100
AcDbEntity
  8
1
  6
Continuous
100
AcDbLine
 10
180.9137959999999
 20
119.1604459999997
 30
0.0
 11
181.3607959999999
 21
118.9454459999997
 31
0.0
  0
LINE
  5
35A
330
285
100
AcDbEntity
  8
1
  6
Continuous
100
AcDbLine
 10
180.970796
 20
117.569446
 30
0.0
 11
181.3607959999999
 21
117.337446
 31
0.0
  0
LINE
  5
35B
330
285
100
AcDbEntity
  8
1
  6
Continuous
100
AcDbLine
 10
180.910796
 20
115.9164459999997
 30
0.0
 11
181.3607959999999
 21
115.700446
 31
0.0
  0
LINE
  5
35C
330
285
100
AcDbEntity
  8
1
  6
Continuous
100
AcDbLine
 10
180.910796
 20
114.735446
 30
0.0
 11
181.3607959999999
 21
114.6524459999999
 31
0.0
  0
LINE
  5
35D
330
285
100
AcDbEntity
  8
1
  6
Continuous
100
AcDbLine
 10
180.910796
 20
116.2714459999999
 30
0.0
 11
180.910796
 21
115.9164459999997
 31
0.0
  0
LINE
  5
35E
330
285
100
AcDbEntity
  8
1
  6
Continuous
100
AcDbLine
 10
180.910796
 20
115.026446
 30
0.0
 11
180.910796
 21
114.735446
 31
0.0
  0
LINE
  5
35F
330
285
100
AcDbEntity
  8
1
  6
Continuous
100
AcDbLine
 10
180.9217959999998
 20
119.1704459999999
 30
0.0
 11
181.2187959999999
 21
119.513446
 31
0.0
  0
LINE
  5
360
330
285
100
AcDbEntity
  8
1
  6
Continuous
100
AcDbLine
 10
182.1147959999999
 20
118.5834459999999
 30
0.0
 11
182.410796
 21
118.9264459999999
 31
0.0
  0
LINE
  5
361
330
285
100
AcDbEntity
  8
1
  6
Continuous
100
AcDbLine
 10
180.970796
 20
117.569446
 30
0.0
 11
181.2697959999999
 21
118.103446
 31
0.0
  0
LINE
  5
362
330
285
100
AcDbEntity
  8
1
  6
Continuous
100
AcDbLine
 10
182.4707959999997
 20
117.3894459999997
 30
0.0
 11
182.2427959999999
 21
116.813446
 31
0.0
  0
LINE
  5
363
330
285
100
AcDbEntity
  8
1
  6
Continuous
100
AcDbLine
 10
181.9607959999999
 20
120.1864459999999
 30
0.0
 11
182.410796
 21
120.103446
 31
0.0
  0
LINE
  5
364
330
285
100
AcDbEntity
  8
1
  6
Continuous
100
AcDbLine
 10
181.9607959999999
 20
119.8894459999998
 30
0.0
 11
182.410796
 21
119.8074459999999
 31
0.0
  0
LINE
  5
365
330
285
100
AcDbEntity
  8
1
  6
Continuous
100
AcDbLine
 10
181.9607959999999
 20
119.1424459999997
 30
0.0
 11
182.410796
 21
118.9264459999999
 31
0.0
  0
LINE
  5
366
330
285
100
AcDbEntity
  8
1
  6
Continuous
100
AcDbLine
 10
181.9607959999999
 20
118.656446
 30
0.0
 11
182.1147959999999
 21
118.5834459999999
 31
0.0
  0
LINE
  5
367
330
285
100
AcDbEntity
  8
1
  6
Continuous
100
AcDbLine
 10
181.9607959999999
 20
117.6924459999999
 30
0.0
 11
182.4707959999997
 21
117.3894459999997
 31
0.0
  0
LINE
  5
368
330
285
100
AcDbEntity
  8
1
  6
Continuous
100
AcDbLine
 10
181.9607959999999
 20
116.9804459999999
 30
0.0
 11
182.2427959999999
 21
116.813446
 31
0.0
  0
LINE
  5
369
330
285
100
AcDbEntity
  8
1
  6
Continuous
100
AcDbLine
 10
181.9607959999999
 20
115.766446
 30
0.0
 11
182.410796
 21
115.5504459999997
 31
0.0
  0
LINE
  5
36A
330
285
100
AcDbEntity
  8
1
  6
Continuous
100
AcDbLine
 10
181.9607959999999
 20
115.4114459999999
 30
0.0
 11
182.1207959999999
 21
115.334446
 31
0.0
  0
LINE
  5
36B
330
285
100
AcDbEntity
  8
1
  6
Continuous
100
AcDbLine
 10
181.9607959999999
 20
114.833446
 30
0.0
 11
182.410796
 21
114.751446
 31
0.0
  0
LINE
  5
36C
330
285
100
AcDbEntity
  8
1
  6
Continuous
100
AcDbLine
 10
181.9607959999999
 20
114.542446
 30
0.0
 11
182.1047959999999
 21
114.5164459999999
 31
0.0
  0
LINE
  5
36D
330
285
100
AcDbEntity
  8
1
  6
Continuous
100
AcDbLine
 10
162.667796
 20
127.065446
 30
0.0
 11
160.8307959999999
 21
127.065446
 31
0.0
  0
LINE
  5
36E
330
285
100
AcDbEntity
  8
1
  6
Continuous
100
AcDbLine
 10
162.667796
 20
108.0654459999997
 30
0.0
 11
160.8307959999999
 21
108.0654459999997
 31
0.0
  0
LINE
  5
36F
330
285
100
AcDbEntity
  8
1
  6
Continuous
100
AcDbLine
 10
160.499796
 20
122.3154459999997
 30
0.0
 11
160.499796
 21
112.8154459999997
 31
0.0
  0
LINE
  5
370
330
285
100
AcDbEntity
  8
1
  6
Continuous
100
AcDbLine
 10
162.999796
 20
122.3154459999997
 30
0.0
 11
162.999796
 21
112.8154459999997
 31
0.0
  0
LINE
  5
371
330
285
100
AcDbEntity
  8
1
  6
Continuous
100
AcDbLine
 10
162.667796
 20
117.565446
 30
0.0
 11
160.8307959999999
 21
117.565446
 31
0.0
  0
LINE
  5
372
330
285
100
AcDbEntity
  8
1
  6
Continuous
100
AcDbLine
 10
95.63579600000002
 20
110.769446
 30
0.0
 11
108.6357959999999
 21
110.769446
 31
0.0
  0
LINE
  5
373
330
285
100
AcDbEntity
  8
1
  6
Continuous
100
AcDbLine
 10
191.937796
 20
121.5654459999997
 30
0.0
 11
188.6427959999998
 21
121.5654459999997
 31
0.0
  0
LINE
  5
374
330
285
100
AcDbEntity
  8
1
  6
Continuous
100
AcDbLine
 10
191.937796
 20
113.565446
 30
0.0
 11
188.6427959999998
 21
113.565446
 31
0.0
  0
LINE
  5
375
330
285
100
AcDbEntity
  8
1
  6
Continuous
100
AcDbLine
 10
188.6427959999998
 20
121.5654459999997
 30
0.0
 11
188.6427959999998
 21
113.565446
 31
0.0
  0
LINE
  5
376
330
285
100
AcDbEntity
  8
1
  6
Continuous
100
AcDbLine
 10
192.642796
 20
119.5654459999998
 30
0.0
 11
192.642796
 21
115.565446
 31
0.0
  0
LINE
  5
377
330
285
100
AcDbEntity
  8
1
  6
Continuous
100
AcDbLine
 10
191.937796
 20
117.565446
 30
0.0
 11
188.6427959999998
 21
117.565446
 31
0.0
  0
LINE
  5
378
330
285
100
AcDbEntity
  8
1
  6
Continuous
100
AcDbLine
 10
174.075796
 20
140.565446
 30
0.0
 11
172.075796
 21
140.565446
 31
0.0
  0
LINE
  5
379
330
285
100
AcDbEntity
  8
1
  6
Continuous
100
AcDbLine
 10
174.075796
 20
111.0654459999997
 30
0.0
 11
172.075796
 21
111.0654459999997
 31
0.0
  0
LINE
  5
37A
330
285
100
AcDbEntity
  8
1
  6
Continuous
100
AcDbLine
 10
174.075796
 20
140.565446
 30
0.0
 11
174.075796
 21
111.0654459999997
 31
0.0
  0
LINE
  5
37B
330
285
100
AcDbEntity
  8
1
  6
Continuous
100
AcDbLine
 10
172.075796
 20
140.565446
 30
0.0
 11
172.075796
 21
111.0654459999997
 31
0.0
  0
LINE
  5
37C
330
285
100
AcDbEntity
  8
1
  6
Continuous
100
AcDbLine
 10
174.075796
 20
127.5654459999997
 30
0.0
 11
172.075796
 21
127.5654459999997
 31
0.0
  0
LINE
  5
37D
330
285
100
AcDbEntity
  8
1
  6
Continuous
100
AcDbLine
 10
109.1357959999999
 20
119.2654459999999
 30
0.0
 11
118.4357959999997
 21
119.2654459999999
 31
0.0
  0
LINE
  5
37E
330
285
100
AcDbEntity
  8
1
  6
Continuous
100
AcDbLine
 10
109.1357959999999
 20
115.8654459999999
 30
0.0
 11
118.4357959999997
 21
115.8654459999999
 31
0.0
  0
LINE
  5
37F
330
285
100
AcDbEntity
  8
1
  6
Continuous
100
AcDbLine
 10
149.494796
 20
127.7154459999999
 30
0.0
 11
149.494796
 21
107.415446
 31
0.0
  0
LINE
  5
380
330
285
100
AcDbEntity
  8
1
  6
Continuous
100
AcDbLine
 10
148.494796
 20
127.7154459999999
 30
0.0
 11
149.494796
 21
127.7154459999999
 31
0.0
  0
LINE
  5
381
330
285
100
AcDbEntity
  8
1
  6
Continuous
100
AcDbLine
 10
148.494796
 20
107.415446
 30
0.0
 11
149.494796
 21
107.415446
 31
0.0
  0
LINE
  5
382
330
285
100
AcDbEntity
  8
1
  6
Continuous
100
AcDbLine
 10
148.494796
 20
117.565446
 30
0.0
 11
149.494796
 21
117.565446
 31
0.0
  0
LINE
  5
383
330
285
100
AcDbEntity
  8
4
  6
CENTER
 48
0.3
100
AcDbLine
 10
145.405796
 20
117.565446
 30
0.0
 11
196.7337959999999
 21
117.565446
 31
0.0
  0
LINE
  5
384
330
285
100
AcDbEntity
  8
1
  6
Continuous
100
AcDbLine
 10
148.494796
 20
57.71514599999999
 30
0.0
 11
148.494796
 21
37.415146
 31
0.0
  0
LINE
  5
385
330
285
100
AcDbEntity
  8
1
  6
Continuous
100
AcDbLine
 10
149.494796
 20
57.71514599999999
 30
0.0
 11
149.494796
 21
37.415146
 31
0.0
  0
LINE
  5
386
330
285
100
AcDbEntity
  8
1
  6
Continuous
100
AcDbLine
 10
148.494796
 20
57.71514599999999
 30
0.0
 11
149.494796
 21
57.71514599999999
 31
0.0
  0
LINE
  5
387
330
285
100
AcDbEntity
  8
1
  6
Continuous
100
AcDbLine
 10
148.494796
 20
47.565146
 30
0.0
 11
149.494796
 21
47.565146
 31
0.0
  0
LINE
  5
388
330
285
100
AcDbEntity
  8
1
  6
Continuous
100
AcDbLine
 10
148.494796
 20
37.415146
 30
0.0
 11
149.494796
 21
37.415146
 31
0.0
  0
LINE
  5
389
330
285
100
AcDbEntity
  8
1
  6
Continuous
100
AcDbLine
 10
109.1357959999999
 20
124.5154459999999
 30
0.0
 11
109.1357959999999
 21
112.0654459999997
 31
0.0
  0
LINE
  5
38A
330
285
100
AcDbEntity
  8
2
  6
Continuous
100
AcDbLine
 10
96.26579599999999
 20
55.02364599999999
 30
0.0
 11
106.088796
 21
55.02364599999999
 31
0.0
  0
LINE
  5
38B
330
285
100
AcDbEntity
  8
2
  6
Continuous
100
AcDbLine
 10
95.63579600000002
 20
55.387154
 30
0.0
 11
96.26579599999999
 21
55.02364599999999
 31
0.0
  0
LINE
  5
38C
330
285
100
AcDbEntity
  8
2
  6
Continuous
100
AcDbLine
 10
109.1357959999999
 20
49.632146
 30
0.0
 11
118.8687959999999
 21
49.632146
 31
0.0
  0
LINE
  5
38D
330
285
100
AcDbEntity
  8
2
  6
Continuous
100
AcDbLine
 10
109.1357959999999
 20
45.498146
 30
0.0
 11
118.8687959999999
 21
45.498146
 31
0.0
  0
LINE
  5
38E
330
285
100
AcDbEntity
  8
1
  6
Continuous
100
AcDbLine
 10
118.4357959999997
 20
50.065146
 30
0.0
 11
118.4357959999997
 21
49.397546
 31
0.0
  0
LINE
  5
38F
330
285
100
AcDbEntity
  8
1
  6
Continuous
100
AcDbLine
 10
118.4357959999997
 20
45.732746
 30
0.0
 11
118.4357959999997
 21
45.065146
 31
0.0
  0
LINE
  5
390
330
285
100
AcDbEntity
  8
1
  6
Continuous
100
AcDbLine
 10
181.3607959999999
 20
42.565146
 30
0.0
 11
181.9607959999999
 21
42.565146
 31
0.0
  0
LINE
  5
391
330
285
100
AcDbEntity
  8
1
  6
Continuous
100
AcDbLine
 10
181.3607959999999
 20
52.565146
 30
0.0
 11
181.9607959999999
 21
52.565146
 31
0.0
  0
LINE
  5
392
330
285
100
AcDbEntity
  8
1
  6
Continuous
100
AcDbLine
 10
181.3607959999999
 20
112.565446
 30
0.0
 11
181.9607959999999
 21
112.565446
 31
0.0
  0
LINE
  5
393
330
285
100
AcDbEntity
  8
1
  6
Continuous
100
AcDbLine
 10
181.3607959999999
 20
122.5654459999997
 30
0.0
 11
181.9607959999999
 21
122.5654459999997
 31
0.0
  0
LINE
  5
394
330
285
100
AcDbEntity
  8
1
  6
Continuous
100
AcDbLine
 10
378.744796
 20
38.565146
 30
0.0
 11
377.944796
 21
38.565146
 31
0.0
  0
LINE
  5
395
330
285
100
AcDbEntity
  8
1
  6
Continuous
100
AcDbLine
 10
377.944796
 20
38.565146
 30
0.0
 11
377.944796
 21
56.565146
 31
0.0
  0
LINE
  5
396
330
285
100
AcDbEntity
  8
1
  6
Continuous
100
AcDbLine
 10
367.999796
 20
39.565046
 30
0.0
 11
367.3497959999999
 21
40.26504599999999
 31
0.0
  0
LINE
  5
397
330
285
100
AcDbEntity
  8
1
  6
Continuous
100
AcDbLine
 10
367.3447959999998
 20
40.265146
 30
0.0
 11
364.9447959999998
 21
40.265146
 31
0.0
  0
LINE
  5
398
330
285
100
AcDbEntity
  8
1
  6
Continuous
100
AcDbLine
 10
364.9447959999998
 20
40.265146
 30
0.0
 11
364.9447959999998
 21
40.37464599999998
 31
0.0
  0
LINE
  5
399
330
285
100
AcDbEntity
  8
1
  6
Continuous
100
AcDbLine
 10
364.9447959999998
 20
54.86514599999999
 30
0.0
 11
367.3447959999998
 21
54.86514599999999
 31
0.0
  0
LINE
  5
39A
330
285
100
AcDbEntity
  8
1
  6
Continuous
100
AcDbLine
 10
367.3447959999998
 20
54.86504599999999
 30
0.0
 11
367.994796
 21
55.56514599999999
 31
0.0
  0
LINE
  5
39B
330
285
100
AcDbEntity
  8
1
  6
Continuous
100
AcDbLine
 10
367.994796
 20
55.56514599999999
 30
0.0
 11
377.944796
 21
55.56514599999999
 31
0.0
  0
LINE
  5
39C
330
285
100
AcDbEntity
  8
1
  6
Continuous
100
AcDbLine
 10
377.944796
 20
56.565146
 30
0.0
 11
378.744796
 21
56.565146
 31
0.0
  0
LINE
  5
39D
330
285
100
AcDbEntity
  8
1
  6
Continuous
100
AcDbLine
 10
381.944796
 20
55.065146
 30
0.0
 11
381.944796
 21
40.065146
 31
0.0
  0
LINE
  5
39E
330
285
100
AcDbEntity
  8
1
  6
Continuous
100
AcDbLine
 10
381.944796
 20
55.06504599999999
 30
0.0
 11
378.744796
 21
56.56504599999998
 31
0.0
  0
LINE
  5
39F
330
285
100
AcDbEntity
  8
1
  6
Continuous
100
AcDbLine
 10
381.944796
 20
40.065146
 30
0.0
 11
378.744796
 21
38.565146
 31
0.0
  0
LINE
  5
3A0
330
285
100
AcDbEntity
  8
4
  6
CENTER
 48
0.3
100
AcDbLine
 10
383.5067959999999
 20
47.565146
 30
0.0
 11
352.7957959999998
 21
47.565146
 31
0.0
  0
LINE
  5
3A1
330
285
100
AcDbEntity
  8
1
  6
Continuous
100
AcDbLine
 10
378.744796
 20
56.565146
 30
0.0
 11
378.744796
 21
38.565146
 31
0.0
  0
LINE
  5
3A2
330
285
100
AcDbEntity
  8
1
  6
Continuous
100
AcDbLine
 10
367.994796
 20
55.56514599999999
 30
0.0
 11
367.994796
 21
51.613646
 31
0.0
  0
LINE
  5
3A3
330
285
100
AcDbEntity
  8
1
  6
Continuous
100
AcDbLine
 10
367.999796
 20
39.565146
 30
0.0
 11
367.999796
 21
43.516646
 31
0.0
  0
LINE
  5
3A4
330
285
100
AcDbEntity
  8
1
  6
Continuous
100
AcDbLine
 10
367.3447959999998
 20
40.265146
 30
0.0
 11
367.3447959999998
 21
54.86514599999999
 31
0.0
  0
LINE
  5
3A5
330
285
100
AcDbEntity
  8
1
  6
Continuous
100
AcDbLine
 10
367.3447959999998
 20
50.91354599999998
 30
0.0
 11
367.994796
 21
51.613646
 31
0.0
  0
LINE
  5
3A6
330
285
100
AcDbEntity
  8
1
  6
Continuous
100
AcDbLine
 10
367.999796
 20
43.516646
 30
0.0
 11
367.3447959999998
 21
44.221646
 31
0.0
  0
LINE
  5
3A7
330
285
100
AcDbEntity
  8
1
  6
Continuous
100
AcDbLine
 10
377.944796
 20
51.613646
 30
0.0
 11
367.994796
 21
51.613646
 31
0.0
  0
LINE
  5
3A8
330
285
100
AcDbEntity
  8
1
  6
Continuous
100
AcDbLine
 10
377.944796
 20
43.516646
 30
0.0
 11
367.999796
 21
43.516646
 31
0.0
  0
LINE
  5
3A9
330
285
100
AcDbEntity
  8
1
  6
Continuous
100
AcDbLine
 10
377.944796
 20
39.565146
 30
0.0
 11
367.999796
 21
39.565146
 31
0.0
  0
LINE
  5
3AA
330
285
100
AcDbEntity
  8
1
  6
Continuous
100
AcDbLine
 10
355.1447959999999
 20
50.065146
 30
0.0
 11
364.4447959999998
 21
50.065146
 31
0.0
  0
LINE
  5
3AB
330
285
100
AcDbEntity
  8
1
  6
Continuous
100
AcDbLine
 10
355.1447959999999
 20
45.065146
 30
0.0
 11
364.4447959999998
 21
45.065146
 31
0.0
  0
LINE
  5
3AC
330
285
100
AcDbEntity
  8
1
  6
Continuous
100
AcDbLine
 10
354.4447959999998
 20
49.365146
 30
0.0
 11
354.4447959999998
 21
45.765146
 31
0.0
  0
LINE
  5
3AD
330
285
100
AcDbEntity
  8
1
  6
Continuous
100
AcDbLine
 10
355.1447959999999
 20
50.065046
 30
0.0
 11
354.4447959999998
 21
49.365146
 31
0.0
  0
LINE
  5
3AE
330
285
100
AcDbEntity
  8
1
  6
Continuous
100
AcDbLine
 10
354.4447959999998
 20
45.765146
 30
0.0
 11
355.1447959999999
 21
45.065146
 31
0.0
  0
LINE
  5
3AF
330
285
100
AcDbEntity
  8
1
  6
Continuous
100
AcDbLine
 10
364.4447959999998
 20
49.397546
 30
0.0
 11
354.476796
 21
49.397546
 31
0.0
  0
LINE
  5
3B0
330
285
100
AcDbEntity
  8
1
  6
Continuous
100
AcDbLine
 10
364.4447959999998
 20
45.732746
 30
0.0
 11
354.476796
 21
45.732746
 31
0.0
  0
LINE
  5
3B1
330
285
100
AcDbEntity
  8
2
  6
Continuous
100
AcDbLine
 10
364.4447959999998
 20
48.873946
 30
0.0
 11
354.4447959999998
 21
45.765146
 31
0.0
  0
LINE
  5
3B2
330
285
100
AcDbEntity
  8
2
  6
Continuous
100
AcDbLine
 10
354.4447959999998
 20
49.365146
 30
0.0
 11
364.4447959999998
 21
46.256246
 31
0.0
  0
LINE
  5
3B3
330
285
100
AcDbEntity
  8
1
  6
Continuous
100
AcDbLine
 10
366.044796
 20
53.06514599999999
 30
0.0
 11
364.4447959999998
 21
53.06514599999999
 31
0.0
  0
LINE
  5
3B4
330
285
100
AcDbEntity
  8
1
  6
Continuous
100
AcDbLine
 10
366.044796
 20
40.37464599999998
 30
0.0
 11
364.4447959999998
 21
40.37464599999998
 31
0.0
  0
LINE
  5
3B5
330
285
100
AcDbEntity
  8
1
  6
Continuous
100
AcDbLine
 10
364.4447959999998
 20
53.06514599999999
 30
0.0
 11
364.4447959999998
 21
40.37464599999998
 31
0.0
  0
LINE
  5
3B6
330
285
100
AcDbEntity
  8
1
  6
Continuous
100
AcDbLine
 10
292.669796
 20
50.379046
 30
0.0
 11
292.669796
 21
50.08244600000001
 31
0.0
  0
LINE
  5
3B7
330
285
100
AcDbEntity
  8
1
  6
Continuous
100
AcDbLine
 10
291.169796
 20
50.10364599999999
 30
0.0
 11
291.169796
 21
49.807046
 31
0.0
  0
LINE
  5
3B8
330
285
100
AcDbEntity
  8
1
  6
Continuous
100
AcDbLine
 10
292.2197959999998
 20
52.565146
 30
0.0
 11
292.2197959999998
 21
42.565146
 31
0.0
  0
LINE
  5
3B9
330
285
100
AcDbEntity
  8
1
  6
Continuous
100
AcDbLine
 10
291.619796
 20
52.565146
 30
0.0
 11
291.619796
 21
42.565146
 31
0.0
  0
LINE
  5
3BA
330
285
100
AcDbEntity
  8
1
  6
Continuous
100
AcDbLine
 10
292.669796
 20
50.379046
 30
0.0
 11
292.2197959999998
 21
50.29644600000001
 31
0.0
  0
LINE
  5
3BB
330
285
100
AcDbEntity
  8
1
  6
Continuous
100
AcDbLine
 10
292.3707959999998
 20
49.50344600000001
 30
0.0
 11
292.2197959999998
 21
49.430846
 31
0.0
  0
LINE
  5
3BC
330
285
100
AcDbEntity
  8
1
  6
Continuous
100
AcDbLine
 10
292.3107959999999
 20
48.103146
 30
0.0
 11
292.2197959999998
 21
48.049046
 31
0.0
  0
LINE
  5
3BD
330
285
100
AcDbEntity
  8
1
  6
Continuous
100
AcDbLine
 10
292.669796
 20
46.27164599999999
 30
0.0
 11
292.2197959999998
 21
46.05524599999998
 31
0.0
  0
LINE
  5
3BE
330
285
100
AcDbEntity
  8
1
  6
Continuous
100
AcDbLine
 10
292.669796
 20
45.026646
 30
0.0
 11
292.2197959999998
 21
44.94394599999998
 31
0.0
  0
LINE
  5
3BF
330
285
100
AcDbEntity
  8
1
  6
Continuous
100
AcDbLine
 10
292.669796
 20
50.08244600000001
 30
0.0
 11
292.2197959999998
 21
49.99984600000001
 31
0.0
  0
LINE
  5
3C0
330
285
100
AcDbEntity
  8
1
  6
Continuous
100
AcDbLine
 10
292.6667959999998
 20
49.16054599999998
 30
0.0
 11
292.2197959999998
 21
48.945346
 31
0.0
  0
LINE
  5
3C1
330
285
100
AcDbEntity
  8
1
  6
Continuous
100
AcDbLine
 10
292.609796
 20
47.569246
 30
0.0
 11
292.2197959999998
 21
47.337246
 31
0.0
  0
LINE
  5
3C2
330
285
100
AcDbEntity
  8
1
  6
Continuous
100
AcDbLine
 10
292.669796
 20
45.916546
 30
0.0
 11
292.2197959999998
 21
45.70024599999999
 31
0.0
  0
LINE
  5
3C3
330
285
100
AcDbEntity
  8
1
  6
Continuous
100
AcDbLine
 10
292.669796
 20
44.73554599999999
 30
0.0
 11
292.2197959999998
 21
44.652946
 31
0.0
  0
LINE
  5
3C4
330
285
100
AcDbEntity
  8
1
  6
Continuous
100
AcDbLine
 10
292.669796
 20
46.271746
 30
0.0
 11
292.669796
 21
45.916546
 31
0.0
  0
LINE
  5
3C5
330
285
100
AcDbEntity
  8
1
  6
Continuous
100
AcDbLine
 10
292.669796
 20
45.026646
 30
0.0
 11
292.669796
 21
44.73554599999999
 31
0.0
  0
LINE
  5
3C6
330
285
100
AcDbEntity
  8
1
  6
Continuous
100
AcDbLine
 10
292.6587959999998
 20
49.170746
 30
0.0
 11
292.3617959999999
 21
49.51354600000001
 31
0.0
  0
LINE
  5
3C7
330
285
100
AcDbEntity
  8
1
  6
Continuous
100
AcDbLine
 10
291.466796
 20
48.583246
 30
0.0
 11
291.169796
 21
48.926046
 31
0.0
  0
LINE
  5
3C8
330
285
100
AcDbEntity
  8
1
  6
Continuous
100
AcDbLine
 10
292.609796
 20
47.569346
 30
0.0
 11
292.3107959999999
 21
48.103146
 31
0.0
  0
LINE
  5
3C9
330
285
100
AcDbEntity
  8
1
  6
Continuous
100
AcDbLine
 10
291.109796
 20
47.389746
 30
0.0
 11
291.3377959999999
 21
46.813746
 31
0.0
  0
LINE
  5
3CA
330
285
100
AcDbEntity
  8
1
  6
Continuous
100
AcDbLine
 10
291.619796
 20
50.18624599999998
 30
0.0
 11
291.169796
 21
50.10364599999999
 31
0.0
  0
LINE
  5
3CB
330
285
100
AcDbEntity
  8
1
  6
Continuous
100
AcDbLine
 10
291.619796
 20
49.889646
 30
0.0
 11
291.169796
 21
49.807046
 31
0.0
  0
LINE
  5
3CC
330
285
100
AcDbEntity
  8
1
  6
Continuous
100
AcDbLine
 10
291.619796
 20
49.14244599999999
 30
0.0
 11
291.169796
 21
48.926146
 31
0.0
  0
LINE
  5
3CD
330
285
100
AcDbEntity
  8
1
  6
Continuous
100
AcDbLine
 10
291.619796
 20
48.65694600000001
 30
0.0
 11
291.466796
 21
48.583246
 31
0.0
  0
LINE
  5
3CE
330
285
100
AcDbEntity
  8
1
  6
Continuous
100
AcDbLine
 10
291.619796
 20
47.692546
 30
0.0
 11
291.109796
 21
47.389746
 31
0.0
  0
LINE
  5
3CF
330
285
100
AcDbEntity
  8
1
  6
Continuous
100
AcDbLine
 10
291.619796
 20
46.980746
 30
0.0
 11
291.3377959999999
 21
46.813746
 31
0.0
  0
LINE
  5
3D0
330
285
100
AcDbEntity
  8
1
  6
Continuous
100
AcDbLine
 10
291.619796
 20
45.76694599999998
 30
0.0
 11
291.169796
 21
45.550646
 31
0.0
  0
LINE
  5
3D1
330
285
100
AcDbEntity
  8
1
  6
Continuous
100
AcDbLine
 10
291.619796
 20
45.411646
 30
0.0
 11
291.459796
 21
45.334746
 31
0.0
  0
LINE
  5
3D2
330
285
100
AcDbEntity
  8
1
  6
Continuous
100
AcDbLine
 10
291.619796
 20
44.833746
 30
0.0
 11
291.169796
 21
44.751146
 31
0.0
  0
LINE
  5
3D3
330
285
100
AcDbEntity
  8
1
  6
Continuous
100
AcDbLine
 10
291.619796
 20
44.54264600000001
 30
0.0
 11
291.475796
 21
44.516446
 31
0.0
  0
LINE
  5
3D4
330
285
100
AcDbEntity
  8
1
  6
Continuous
100
AcDbLine
 10
312.597796
 20
58.53484599999998
 30
0.0
 11
311.064796
 21
58.53484599999998
 31
0.0
  0
LINE
  5
3D5
330
285
100
AcDbEntity
  8
1
  6
Continuous
100
AcDbLine
 10
313.0817959999999
 20
55.79234599999999
 30
0.0
 11
313.0817959999999
 21
39.337946
 31
0.0
  0
LINE
  5
3D6
330
285
100
AcDbEntity
  8
1
  6
Continuous
100
AcDbLine
 10
310.5817959999999
 20
55.79234599999999
 30
0.0
 11
310.5817959999999
 21
39.337946
 31
0.0
  0
LINE
  5
3D7
330
285
100
AcDbEntity
  8
1
  6
Continuous
100
AcDbLine
 10
312.597796
 20
53.049946
 30
0.0
 11
311.064796
 21
53.049946
 31
0.0
  0
LINE
  5
3D8
330
285
100
AcDbEntity
  8
1
  6
Continuous
100
AcDbLine
 10
312.597796
 20
36.595446
 30
0.0
 11
311.064796
 21
36.595446
 31
0.0
  0
LINE
  5
3D9
330
285
100
AcDbEntity
  8
1
  6
Continuous
100
AcDbLine
 10
312.597796
 20
42.080346
 30
0.0
 11
311.064796
 21
42.080346
 31
0.0
  0
LINE
  5
3DA
330
285
100
AcDbEntity
  8
1
  6
Continuous
100
AcDbLine
 10
284.9377959999998
 20
52.18394599999999
 30
0.0
 11
281.603796
 21
52.18394599999999
 31
0.0
  0
LINE
  5
3DB
330
285
100
AcDbEntity
  8
1
  6
Continuous
100
AcDbLine
 10
284.9377959999998
 20
52.18394599999999
 30
0.0
 11
284.9377959999998
 21
42.94634600000001
 31
0.0
  0
LINE
  5
3DC
330
285
100
AcDbEntity
  8
1
  6
Continuous
100
AcDbLine
 10
280.9377959999998
 20
51.032446
 30
0.0
 11
280.9377959999998
 21
44.097846
 31
0.0
  0
LINE
  5
3DD
330
285
100
AcDbEntity
  8
1
  6
Continuous
100
AcDbLine
 10
284.9377959999998
 20
49.880746
 30
0.0
 11
281.603796
 21
49.880746
 31
0.0
  0
LINE
  5
3DE
330
285
100
AcDbEntity
  8
4
  6
CENTER
 48
0.3
100
AcDbLine
 10
328.174796
 20
47.565146
 30
0.0
 11
277.275796
 21
47.565146
 31
0.0
  0
LINE
  5
3DF
330
285
100
AcDbEntity
  8
1
  6
Continuous
100
AcDbLine
 10
284.9377959999998
 20
42.94634600000001
 30
0.0
 11
281.603796
 21
42.94634600000001
 31
0.0
  0
LINE
  5
3E0
330
285
100
AcDbEntity
  8
1
  6
Continuous
100
AcDbLine
 10
284.9377959999998
 20
45.249446
 30
0.0
 11
281.603796
 21
45.249446
 31
0.0
  0
LINE
  5
3E1
330
285
100
AcDbEntity
  8
1
  6
Continuous
100
AcDbLine
 10
301.5047959999999
 20
54.065146
 30
0.0
 11
299.5047959999999
 21
54.065146
 31
0.0
  0
LINE
  5
3E2
330
285
100
AcDbEntity
  8
1
  6
Continuous
100
AcDbLine
 10
301.5047959999999
 20
41.06514599999999
 30
0.0
 11
299.5047959999999
 21
41.06514599999999
 31
0.0
  0
LINE
  5
3E3
330
285
100
AcDbEntity
  8
1
  6
Continuous
100
AcDbLine
 10
301.5047959999999
 20
54.065146
 30
0.0
 11
301.5047959999999
 21
41.06514599999999
 31
0.0
  0
LINE
  5
3E4
330
285
100
AcDbEntity
  8
1
  6
Continuous
100
AcDbLine
 10
299.5047959999999
 20
54.065146
 30
0.0
 11
299.5047959999999
 21
41.06514599999999
 31
0.0
  0
LINE
  5
3E5
330
285
100
AcDbEntity
  8
1
  6
Continuous
100
AcDbLine
 10
325.085796
 20
57.71514599999999
 30
0.0
 11
325.085796
 21
37.415146
 31
0.0
  0
LINE
  5
3E6
330
285
100
AcDbEntity
  8
1
  6
Continuous
100
AcDbLine
 10
324.085796
 20
57.71514599999999
 30
0.0
 11
324.085796
 21
37.415146
 31
0.0
  0
LINE
  5
3E7
330
285
100
AcDbEntity
  8
1
  6
Continuous
100
AcDbLine
 10
325.085796
 20
57.71514599999999
 30
0.0
 11
324.085796
 21
57.71514599999999
 31
0.0
  0
LINE
  5
3E8
330
285
100
AcDbEntity
  8
1
  6
Continuous
100
AcDbLine
 10
325.085796
 20
47.565146
 30
0.0
 11
324.085796
 21
47.565146
 31
0.0
  0
LINE
  5
3E9
330
285
100
AcDbEntity
  8
1
  6
Continuous
100
AcDbLine
 10
325.085796
 20
37.415146
 30
0.0
 11
324.085796
 21
37.415146
 31
0.0
  0
LINE
  5
3EA
330
285
100
AcDbEntity
  8
2
  6
Continuous
100
AcDbLine
 10
377.314796
 20
55.02364599999999
 30
0.0
 11
367.491796
 21
55.02364599999999
 31
0.0
  0
LINE
  5
3EB
330
285
100
AcDbEntity
  8
2
  6
Continuous
100
AcDbLine
 10
377.944796
 20
55.387154
 30
0.0
 11
377.314796
 21
55.02364599999999
 31
0.0
  0
LINE
  5
3EC
330
285
100
AcDbEntity
  8
2
  6
Continuous
100
AcDbLine
 10
364.4447959999998
 20
49.632146
 30
0.0
 11
354.7117959999998
 21
49.632146
 31
0.0
  0
LINE
  5
3ED
330
285
100
AcDbEntity
  8
2
  6
Continuous
100
AcDbLine
 10
364.4447959999998
 20
45.498146
 30
0.0
 11
354.7117959999998
 21
45.498146
 31
0.0
  0
LINE
  5
3EE
330
285
100
AcDbEntity
  8
1
  6
Continuous
100
AcDbLine
 10
355.1447959999999
 20
50.065146
 30
0.0
 11
355.1447959999999
 21
49.397546
 31
0.0
  0
LINE
  5
3EF
330
285
100
AcDbEntity
  8
1
  6
Continuous
100
AcDbLine
 10
355.1447959999999
 20
45.732746
 30
0.0
 11
355.1447959999999
 21
45.065146
 31
0.0
  0
LINE
  5
3F0
330
285
100
AcDbEntity
  8
1
  6
Continuous
100
AcDbLine
 10
292.2197959999998
 20
42.565146
 30
0.0
 11
291.619796
 21
42.565146
 31
0.0
  0
LINE
  5
3F1
330
285
100
AcDbEntity
  8
1
  6
Continuous
100
AcDbLine
 10
292.2197959999998
 20
52.565146
 30
0.0
 11
291.619796
 21
52.565146
 31
0.0
  0
LINE
  5
3F2
330
285
100
AcDbEntity
  8
1
  6
Continuous
100
AcDbLine
 10
366.044796
 20
53.06514599999999
 30
0.0
 11
366.044796
 21
40.37464599999998
 31
0.0
  0
LINE
  5
3F3
330
285
100
AcDbEntity
  8
1
  6
Continuous
100
AcDbLine
 10
366.044796
 20
47.196046
 30
0.0
 11
364.4447959999998
 21
47.196046
 31
0.0
  0
LINE
  5
3F4
330
285
100
AcDbEntity
  8
1
  6
Continuous
100
AcDbLine
 10
364.9447959999998
 20
53.06514599999999
 30
0.0
 11
364.9447959999998
 21
54.86514599999999
 31
0.0
  0
LINE
  5
3F5
330
285
100
AcDbEntity
  8
1
  6
Continuous
100
AcDbLine
 10
366.044796
 20
41.26594599999999
 30
0.0
 11
366.7197959999999
 21
41.26594599999999
 31
0.0
  0
LINE
  5
3F6
330
285
100
AcDbEntity
  8
1
  6
Continuous
100
AcDbLine
 10
364.9447959999998
 20
53.864346
 30
0.0
 11
366.7197959999999
 21
53.864346
 31
0.0
  0
LINE
  5
3F7
330
285
100
AcDbEntity
  8
2
  6
Continuous
100
AcDbLine
 10
367.994796
 20
51.613646
 30
0.0
 11
377.944796
 21
43.516646
 31
0.0
  0
LINE
  5
3F8
330
285
100
AcDbEntity
  8
2
  6
Continuous
100
AcDbLine
 10
377.944796
 20
51.613646
 30
0.0
 11
367.999796
 21
43.51654599999998
 31
0.0
  0
LINE
  5
3F9
330
285
100
AcDbEntity
  8
1
  6
Continuous
100
AcDbLine
 10
366.7197959999999
 20
45.065146
 30
0.0
 11
366.044796
 21
45.065146
 31
0.0
  0
LINE
  5
3FA
330
285
100
AcDbEntity
  8
1
  6
Continuous
100
AcDbLine
 10
366.7197959999999
 20
50.065146
 30
0.0
 11
366.044796
 21
50.065146
 31
0.0
  0
LINE
  5
3FB
330
285
100
AcDbEntity
  8
4
  6
CENTER
 48
0.3
100
AcDbLine
 10
7.321796
 20
47.565146
 30
0.0
 11
45.157996
 21
47.565146
 31
0.0
  0
LINE
  5
3FC
330
285
100
AcDbEntity
  8
1
  6
Continuous
100
AcDbLine
 10
32.365296
 20
52.76514599999998
 30
0.0
 11
33.71529600000001
 21
52.76514599999998
 31
0.0
  0
LINE
  5
3FD
330
285
100
AcDbEntity
  8
1
  6
Continuous
100
AcDbLine
 10
33.71529600000001
 20
52.76514599999998
 30
0.0
 11
33.71529600000001
 21
51.609246
 31
0.0
  0
LINE
  5
3FE
330
285
100
AcDbEntity
  8
1
  6
Continuous
100
AcDbLine
 10
32.365296
 20
51.609246
 30
0.0
 11
32.365296
 21
52.76514599999998
 31
0.0
  0
LINE
  5
3FF
330
285
100
AcDbEntity
  8
4
  6
CENTER
 48
0.3
100
AcDbLine
 10
33.04029599999999
 20
35.01734600000001
 30
0.0
 11
33.04029599999999
 21
72.68344599999998
 31
0.0
  0
LINE
  5
400
330
285
100
AcDbEntity
  8
1
  6
Continuous
100
AcDbLine
 10
32.390296
 20
50.442646
 30
0.0
 11
32.390296
 21
48.915146
 31
0.0
  0
LINE
  5
401
330
285
100
AcDbEntity
  8
1
  6
Continuous
100
AcDbLine
 10
33.69029599999999
 20
50.442646
 30
0.0
 11
33.69029599999999
 21
48.915146
 31
0.0
  0
LINE
  5
402
330
285
100
AcDbEntity
  8
1
  6
Continuous
100
AcDbLine
 10
33.69029599999999
 20
48.915146
 30
0.0
 11
32.390296
 21
48.915146
 31
0.0
  0
LINE
  5
403
330
285
100
AcDbEntity
  8
5
  6
PHANTOM
 48
0.2
100
AcDbLine
 10
26.540296
 20
57.565146
 30
0.0
 11
26.540296
 21
55.360746
 31
0.0
  0
LINE
  5
404
330
285
100
AcDbEntity
  8
1
  6
Continuous
100
AcDbLine
 10
33.04029599999999
 20
36.595446
 30
0.0
 11
31.38549600000001
 21
37.550946
 31
0.0
  0
LINE
  5
405
330
285
100
AcDbEntity
  8
1
  6
Continuous
100
AcDbLine
 10
33.04029599999999
 20
36.595446
 30
0.0
 11
34.695196
 21
37.550946
 31
0.0
  0
LINE
  5
406
330
285
100
AcDbEntity
  8
1
  6
Continuous
100
AcDbLine
 10
42.54029599999999
 20
53.050046
 30
0.0
 11
42.54029599999999
 21
51.138946
 31
0.0
  0
LINE
  5
407
330
285
100
AcDbEntity
  8
1
  6
Continuous
100
AcDbLine
 10
42.54029599999999
 20
53.049946
 30
0.0
 11
40.885296
 21
54.00554599999999
 31
0.0
  0
LINE
  5
408
330
285
100
AcDbEntity
  8
5
  6
PHANTOM
 48
0.2
100
AcDbLine
 10
39.54029600000001
 20
57.565146
 30
0.0
 11
38.540296
 21
57.565146
 31
0.0
  0
LINE
  5
409
330
285
100
AcDbEntity
  8
5
  6
PHANTOM
 48
0.2
100
AcDbLine
 10
39.54029600000001
 20
57.565146
 30
0.0
 11
39.54029600000001
 21
55.360746
 31
0.0
  0
LINE
  5
40A
330
285
100
AcDbEntity
  8
5
  6
PHANTOM
 48
0.2
100
AcDbLine
 10
38.540296
 20
68.374646
 30
0.0
 11
38.540296
 21
57.565146
 31
0.0
  0
LINE
  5
40B
330
285
100
AcDbEntity
  8
5
  6
PHANTOM
 48
0.2
100
AcDbLine
 10
27.540296
 20
57.565146
 30
0.0
 11
26.540296
 21
57.565146
 31
0.0
  0
LINE
  5
40C
330
285
100
AcDbEntity
  8
5
  6
PHANTOM
 48
0.2
100
AcDbLine
 10
27.540296
 20
68.374646
 30
0.0
 11
27.540296
 21
57.565146
 31
0.0
  0
LINE
  5
40D
330
285
100
AcDbEntity
  8
1
  6
Continuous
100
AcDbLine
 10
42.54029599999999
 20
43.99124599999999
 30
0.0
 11
42.54029599999999
 21
42.080346
 31
0.0
  0
LINE
  5
40E
330
285
100
AcDbEntity
  8
1
  6
Continuous
100
AcDbLine
 10
34.695396
 20
57.57924599999999
 30
0.0
 11
33.04029599999999
 21
58.534746
 31
0.0
  0
LINE
  5
40F
330
285
100
AcDbEntity
  8
1
  6
Continuous
100
AcDbLine
 10
31.385296
 20
57.57924599999999
 30
0.0
 11
33.04029599999999
 21
58.534746
 31
0.0
  0
LINE
  5
410
330
285
100
AcDbEntity
  8
1
  6
Continuous
100
AcDbLine
 10
40.88539599999999
 20
41.12484600000001
 30
0.0
 11
42.54029599999999
 21
42.080346
 31
0.0
  0
LINE
  5
411
330
285
100
AcDbEntity
  8
1
  6
Continuous
100
AcDbLine
 10
23.04029599999999
 20
41.06514599999999
 30
0.0
 11
25.24469599999999
 21
41.06514599999999
 31
0.0
  0
LINE
  5
412
330
285
100
AcDbEntity
  8
1
  6
Continuous
100
AcDbLine
 10
23.04029599999999
 20
42.065146
 30
0.0
 11
23.04029599999999
 21
41.06514599999999
 31
0.0
  0
LINE
  5
413
330
285
100
AcDbEntity
  8
1
  6
Continuous
100
AcDbLine
 10
12.230796
 20
42.065146
 30
0.0
 11
23.04029599999999
 21
42.065146
 31
0.0
  0
LINE
  5
414
330
285
100
AcDbEntity
  8
1
  6
Continuous
100
AcDbLine
 10
12.230796
 20
53.06514599999999
 30
0.0
 11
23.04029599999999
 21
53.06514599999999
 31
0.0
  0
LINE
  5
415
330
285
100
AcDbEntity
  8
1
  6
Continuous
100
AcDbLine
 10
23.04029599999999
 20
54.065146
 30
0.0
 11
23.04029599999999
 21
53.06514599999999
 31
0.0
  0
LINE
  5
416
330
285
100
AcDbEntity
  8
1
  6
Continuous
100
AcDbLine
 10
23.04029599999999
 20
54.065146
 30
0.0
 11
25.24469599999999
 21
54.065146
 31
0.0
  0
LINE
  5
417
330
285
100
AcDbEntity
  8
1
  6
Continuous
100
AcDbLine
 10
25.195196
 20
41.12484600000001
 30
0.0
 11
23.540296
 21
42.080346
 31
0.0
  0
LINE
  5
418
330
285
100
AcDbEntity
  8
1
  6
Continuous
100
AcDbLine
 10
23.540296
 20
43.99124599999999
 30
0.0
 11
23.540296
 21
42.080346
 31
0.0
  0
LINE
  5
419
330
285
100
AcDbEntity
  8
1
  6
Continuous
100
AcDbLine
 10
23.540296
 20
53.050046
 30
0.0
 11
23.540296
 21
51.138946
 31
0.0
  0
LINE
  5
41A
330
285
100
AcDbEntity
  8
1
  6
Continuous
100
AcDbLine
 10
23.540296
 20
53.049946
 30
0.0
 11
25.19539599999999
 21
54.00554599999999
 31
0.0
  0
LINE
  5
41B
330
285
100
AcDbEntity
  8
1
  6
Continuous
100
AcDbLine
 10
366.7197959999999
 20
41.26594599999999
 30
0.0
 11
366.7197959999999
 21
53.864346
 31
0.0
  0
ARC
  5
41C
330
285
100
AcDbEntity
  8
1
  6
Continuous
100
AcDbCircle
 10
226.790796
 20
47.565146
 30
0.0
 40
7.2
100
AcDbArc
 50
272.9379999999998
 51
295.474
  0
ARC
  5
41D
330
285
100
AcDbEntity
  8
1
  6
Continuous
100
AcDbCircle
 10
180.583796
 20
51.752946
 30
0.0
 40
1.377799999999999
100
AcDbArc
 50
283.7559999999998
 51
304.361
  0
ARC
  5
41E
330
285
100
AcDbEntity
  8
1
  6
Continuous
100
AcDbCircle
 10
182.5457959999999
 20
50.876846
 30
0.0
 40
0.7650000000000004
100
AcDbArc
 50
220.1979999999999
 51
259.887
  0
ARC
  5
41F
330
285
100
AcDbEntity
  8
1
  6
Continuous
100
AcDbCircle
 10
180.561796
 20
51.794746
 30
0.0
 40
2.3241
100
AcDbArc
 50
286.201
 51
290.1159999999998
  0
ARC
  5
420
330
285
100
AcDbEntity
  8
1
  6
Continuous
100
AcDbCircle
 10
178.3317959999999
 20
51.15374599999999
 30
0.0
 40
3.231199999999998
100
AcDbArc
 50
323.293
 51
339.6459999999998
  0
ARC
  5
421
330
285
100
AcDbEntity
  8
1
  6
Continuous
100
AcDbCircle
 10
178.145796
 20
48.98384599999999
 30
0.0
 40
3.215599999999998
100
AcDbArc
 50
342.6549999999998
 51
359.3339999999998
  0
ARC
  5
422
330
285
100
AcDbEntity
  8
1
  6
Continuous
100
AcDbCircle
 10
180.444796
 20
45.093246
 30
0.0
 40
0.9275
100
AcDbArc
 50
350.983
 51
59.83789999999999
  0
ARC
  5
423
330
285
100
AcDbEntity
  8
1
  6
Continuous
100
AcDbCircle
 10
182.6677959999999
 20
44.87354599999998
 30
0.0
 40
0.7077
100
AcDbArc
 50
111.261
 51
176.8709999999999
  0
ARC
  5
424
330
285
100
AcDbEntity
  8
1
  6
Continuous
100
AcDbCircle
 10
182.6597959999998
 20
44.07964599999998
 30
0.0
 40
0.6999
100
AcDbArc
 50
110.826
 51
183.124
  0
ARC
  5
425
330
285
100
AcDbEntity
  8
1
  6
Continuous
100
AcDbCircle
 10
182.9127959999999
 20
43.14004599999999
 30
0.0
 40
1.565399999999999
100
AcDbArc
 50
121.081
 51
127.4229999999999
  0
ARC
  5
426
330
285
100
AcDbEntity
  8
1
  6
Continuous
100
AcDbCircle
 10
179.555796
 20
43.50224599999999
 30
0.0
 40
1.811299999999999
100
AcDbArc
 50
355.4669999999999
 51
41.5448
  0
ARC
  5
427
330
285
100
AcDbEntity
  8
1
  6
Continuous
100
AcDbCircle
 10
182.135796
 20
46.02494599999999
 30
0.0
 40
0.7756
100
AcDbArc
 50
82.1314
 51
103.0399999999999
  0
ARC
  5
428
330
285
100
AcDbEntity
  8
1
  6
Continuous
100
AcDbCircle
 10
226.790796
 20
47.565146
 30
0.0
 40
9.5
100
AcDbArc
 50
43.17359999999999
 51
316.8259999999999
  0
ARC
  5
429
330
285
100
AcDbEntity
  8
1
  6
Continuous
100
AcDbCircle
 10
154.980796
 20
55.79234599999999
 30
0.0
 40
8.018299999999998
100
AcDbArc
 50
340.0
 51
20.0
  0
ARC
  5
42A
330
285
100
AcDbEntity
  8
1
  6
Continuous
100
AcDbCircle
 10
168.517796
 20
55.79234599999999
 30
0.0
 40
8.018299999999998
100
AcDbArc
 50
160.0
 51
200.0
  0
ARC
  5
42B
330
285
100
AcDbEntity
  8
1
  6
Continuous
100
AcDbCircle
 10
131.6517959999998
 20
47.565146
 30
0.0
 40
31.3478
100
AcDbArc
 50
0.0
 51
10.0767
  0
ARC
  5
42C
330
285
100
AcDbEntity
  8
1
  6
Continuous
100
AcDbCircle
 10
191.8467959999999
 20
47.565146
 30
0.0
 40
31.3478
100
AcDbArc
 50
169.923
 51
180.0
  0
ARC
  5
42D
330
285
100
AcDbEntity
  8
1
  6
Continuous
100
AcDbCircle
 10
154.980796
 20
39.337946
 30
0.0
 40
8.018299999999998
100
AcDbArc
 50
340.0
 51
20.0
  0
ARC
  5
42E
330
285
100
AcDbEntity
  8
1
  6
Continuous
100
AcDbCircle
 10
168.517796
 20
39.337946
 30
0.0
 40
8.018299999999998
100
AcDbArc
 50
160.0
 51
200.0
  0
ARC
  5
42F
330
285
100
AcDbEntity
  8
1
  6
Continuous
100
AcDbCircle
 10
131.6517959999998
 20
47.565146
 30
0.0
 40
31.3478
100
AcDbArc
 50
349.923
 51
0.0
  0
ARC
  5
430
330
285
100
AcDbEntity
  8
1
  6
Continuous
100
AcDbCircle
 10
191.8467959999999
 20
47.565146
 30
0.0
 40
31.3478
100
AcDbArc
 50
180.0
 51
190.0769999999999
  0
CIRCLE
  5
431
330
285
100
AcDbEntity
  8
1
  6
Continuous
100
AcDbCircle
 10
226.790796
 20
47.565146
 30
0.0
 40
4.0
  0
ARC
  5
432
330
285
100
AcDbEntity
  8
1
  6
Continuous
100
AcDbCircle
 10
191.315796
 20
51.032446
 30
0.0
 40
1.3279
100
AcDbArc
 50
299.8639999999998
 51
60.13609999999999
  0
ARC
  5
433
330
285
100
AcDbEntity
  8
1
  6
Continuous
100
AcDbCircle
 10
188.2877959999999
 20
47.565146
 30
0.0
 40
4.355299999999997
100
AcDbArc
 50
0.0
 51
32.12089999999999
  0
ARC
  5
434
330
285
100
AcDbEntity
  8
1
  6
Continuous
100
AcDbCircle
 10
191.315796
 20
44.097846
 30
0.0
 40
1.3279
100
AcDbArc
 50
299.8639999999998
 51
60.13609999999999
  0
ARC
  5
435
330
285
100
AcDbEntity
  8
1
  6
Continuous
100
AcDbCircle
 10
188.2877959999999
 20
47.565146
 30
0.0
 40
4.355299999999997
100
AcDbArc
 50
327.879
 51
0.0
  0
ARC
  5
436
330
285
100
AcDbEntity
  8
1
  6
Continuous
100
AcDbCircle
 10
226.790796
 20
47.565146
 30
0.0
 40
6.5
100
AcDbArc
 50
90.0
 51
270.0
  0
ARC
  5
437
330
285
100
AcDbEntity
  8
1
  6
Continuous
100
AcDbCircle
 10
241.7907959999999
 20
47.565146
 30
0.0
 40
8.0
100
AcDbArc
 50
316.5669999999999
 51
43.4325
  0
ARC
  5
438
330
285
100
AcDbEntity
  8
1
  6
Continuous
100
AcDbCircle
 10
35.340296
 20
117.565446
 30
0.0
 40
3.0
100
AcDbArc
 50
205.842
 51
270.694
  0
ARC
  5
439
330
285
100
AcDbEntity
  8
1
  6
Continuous
100
AcDbCircle
 10
35.340296
 20
117.565446
 30
0.0
 40
3.0
100
AcDbArc
 50
90.0
 51
154.1579999999999
  0
ARC
  5
43A
330
285
100
AcDbEntity
  8
1
  6
Continuous
100
AcDbCircle
 10
22.240296
 20
118.765446
 30
0.0
 40
0.8
100
AcDbArc
 50
0.0
 51
90.0
  0
ARC
  5
43B
330
285
100
AcDbEntity
  8
1
  6
Continuous
100
AcDbCircle
 10
20.840296
 20
118.765446
 30
0.0
 40
0.8
100
AcDbArc
 50
90.0
 51
180.0
  0
ARC
  5
43C
330
285
100
AcDbEntity
  8
1
  6
Continuous
100
AcDbCircle
 10
20.840296
 20
116.3654459999999
 30
0.0
 40
0.8
100
AcDbArc
 50
180.0
 51
270.0
  0
ARC
  5
43D
330
285
100
AcDbEntity
  8
1
  6
Continuous
100
AcDbCircle
 10
22.240296
 20
116.3654459999999
 30
0.0
 40
0.8
100
AcDbArc
 50
270.0
 51
0.0
  0
ARC
  5
43E
330
285
100
AcDbEntity
  8
1
  6
Continuous
100
AcDbCircle
 10
35.04029599999999
 20
113.2584459999999
 30
0.0
 40
3.0
100
AcDbArc
 50
287.6499999999998
 51
0.0
  0
ARC
  5
43F
330
285
100
AcDbEntity
  8
1
  6
Continuous
100
AcDbCircle
 10
26.884996
 20
108.5654459999997
 30
0.0
 40
1.0
100
AcDbArc
 50
270.0
 51
287.6499999999998
  0
ARC
  5
440
330
285
100
AcDbEntity
  8
1
  6
Continuous
100
AcDbCircle
 10
23.08619599999999
 20
108.5654459999997
 30
0.0
 40
1.0
100
AcDbArc
 50
212.735
 51
270.0
  0
ARC
  5
441
330
285
100
AcDbEntity
  8
1
  6
Continuous
100
AcDbCircle
 10
19.04029599999998
 20
114.858446
 30
0.0
 40
1.0
100
AcDbArc
 50
180.0
 51
212.735
  0
ARC
  5
442
330
285
100
AcDbEntity
  8
1
  6
Continuous
100
AcDbCircle
 10
19.04029599999998
 20
120.2714459999999
 30
0.0
 40
1.0
100
AcDbArc
 50
147.2649999999999
 51
180.0
  0
ARC
  5
443
330
285
100
AcDbEntity
  8
1
  6
Continuous
100
AcDbCircle
 10
23.08619599999999
 20
126.5654459999997
 30
0.0
 40
1.0
100
AcDbArc
 50
90.0
 51
147.2649999999999
  0
ARC
  5
444
330
285
100
AcDbEntity
  8
1
  6
Continuous
100
AcDbCircle
 10
26.884996
 20
126.5654459999997
 30
0.0
 40
1.0
100
AcDbArc
 50
72.3499
 51
90.0
  0
ARC
  5
445
330
285
100
AcDbEntity
  8
1
  6
Continuous
100
AcDbCircle
 10
42.940296
 20
122.865446
 30
0.0
 40
1.199999999999999
100
AcDbArc
 50
0.0
 51
90.0
  0
ARC
  5
446
330
285
100
AcDbEntity
  8
1
  6
Continuous
100
AcDbCircle
 10
226.790796
 20
47.565146
 30
0.0
 40
8.0
100
AcDbArc
 50
54.3409
 51
149.5979999999998
  0
ARC
  5
447
330
285
100
AcDbEntity
  8
2
  6
Continuous
100
AcDbCircle
 10
226.790796
 20
47.565146
 30
0.0
 40
8.0
100
AcDbArc
 50
149.5979999999998
 51
210.4019999999999
  0
ARC
  5
448
330
285
100
AcDbEntity
  8
1
  6
Continuous
100
AcDbCircle
 10
226.790796
 20
47.565146
 30
0.0
 40
7.299999999999998
100
AcDbArc
 50
199.0549999999998
 51
297.0749999999998
  0
ARC
  5
449
330
285
100
AcDbEntity
  8
1
  6
Continuous
100
AcDbCircle
 10
226.790796
 20
47.565146
 30
0.0
 40
7.299999999999998
100
AcDbArc
 50
62.9249
 51
160.945
  0
ARC
  5
44A
330
285
100
AcDbEntity
  8
1
  6
Continuous
100
AcDbCircle
 10
226.790796
 20
47.565146
 30
0.0
 40
2.5
100
AcDbArc
 50
47.1565
 51
132.844
  0
ARC
  5
44B
330
285
100
AcDbEntity
  8
1
  6
Continuous
100
AcDbCircle
 10
226.790796
 20
47.565146
 30
0.0
 40
1.8
100
AcDbArc
 50
19.18809999999998
 51
160.812
  0
ARC
  5
44C
330
285
100
AcDbEntity
  8
1
  6
Continuous
100
AcDbCircle
 10
226.790796
 20
47.565146
 30
0.0
 40
1.8
100
AcDbArc
 50
199.1879999999999
 51
340.8119999999998
  0
CIRCLE
  5
44D
330
285
100
AcDbEntity
  8
1
  6
Continuous
100
AcDbCircle
 10
103.2357959999997
 20
117.565446
 30
0.0
 40
1.3
  0
ARC
  5
44E
330
285
100
AcDbEntity
  8
1
  6
Continuous
100
AcDbCircle
 10
180.583796
 20
121.7534459999999
 30
0.0
 40
1.377799999999999
100
AcDbArc
 50
283.7559999999998
 51
304.361
  0
ARC
  5
44F
330
285
100
AcDbEntity
  8
1
  6
Continuous
100
AcDbCircle
 10
182.5457959999999
 20
120.876446
 30
0.0
 40
0.7650000000000004
100
AcDbArc
 50
220.1979999999999
 51
259.887
  0
ARC
  5
450
330
285
100
AcDbEntity
  8
1
  6
Continuous
100
AcDbCircle
 10
180.561796
 20
121.794446
 30
0.0
 40
2.3241
100
AcDbArc
 50
286.201
 51
290.1159999999998
  0
ARC
  5
451
330
285
100
AcDbEntity
  8
1
  6
Continuous
100
AcDbCircle
 10
178.3317959999999
 20
121.1534459999999
 30
0.0
 40
3.231199999999998
100
AcDbArc
 50
323.293
 51
339.6459999999998
  0
ARC
  5
452
330
285
100
AcDbEntity
  8
1
  6
Continuous
100
AcDbCircle
 10
178.145796
 20
118.9834459999999
 30
0.0
 40
3.215599999999998
100
AcDbArc
 50
342.6549999999998
 51
359.3339999999998
  0
ARC
  5
453
330
285
100
AcDbEntity
  8
1
  6
Continuous
100
AcDbCircle
 10
180.444796
 20
115.0934459999999
 30
0.0
 40
0.9275
100
AcDbArc
 50
350.983
 51
59.83789999999999
  0
ARC
  5
454
330
285
100
AcDbEntity
  8
1
  6
Continuous
100
AcDbCircle
 10
182.6677959999999
 20
114.873446
 30
0.0
 40
0.7077
100
AcDbArc
 50
111.261
 51
176.8709999999999
  0
ARC
  5
455
330
285
100
AcDbEntity
  8
1
  6
Continuous
100
AcDbCircle
 10
182.6597959999998
 20
114.0794459999999
 30
0.0
 40
0.6999
100
AcDbArc
 50
110.826
 51
183.124
  0
ARC
  5
456
330
285
100
AcDbEntity
  8
1
  6
Continuous
100
AcDbCircle
 10
182.9127959999999
 20
113.1404459999999
 30
0.0
 40
1.565399999999999
100
AcDbArc
 50
121.081
 51
127.4229999999999
  0
ARC
  5
457
330
285
100
AcDbEntity
  8
1
  6
Continuous
100
AcDbCircle
 10
179.555796
 20
113.5024459999999
 30
0.0
 40
1.811299999999999
100
AcDbArc
 50
355.4669999999999
 51
41.5448
  0
ARC
  5
458
330
285
100
AcDbEntity
  8
1
  6
Continuous
100
AcDbCircle
 10
182.135796
 20
116.0244459999999
 30
0.0
 40
0.7756
100
AcDbArc
 50
82.1314
 51
103.0399999999999
  0
ARC
  5
459
330
285
100
AcDbEntity
  8
1
  6
Continuous
100
AcDbCircle
 10
128.827796
 20
112.8154459999997
 30
0.0
 40
34.17139999999999
100
AcDbArc
 50
352.0099999999998
 51
7.990289999999999
  0
ARC
  5
45A
330
285
100
AcDbEntity
  8
1
  6
Continuous
100
AcDbCircle
 10
128.827796
 20
122.3154459999997
 30
0.0
 40
34.17139999999999
100
AcDbArc
 50
352.0099999999998
 51
7.990289999999999
  0
ARC
  5
45B
330
285
100
AcDbEntity
  8
1
  6
Continuous
100
AcDbCircle
 10
194.6707959999999
 20
122.3154459999997
 30
0.0
 40
34.17139999999999
100
AcDbArc
 50
172.0099999999999
 51
187.99
  0
ARC
  5
45C
330
285
100
AcDbEntity
  8
1
  6
Continuous
100
AcDbCircle
 10
194.6707959999999
 20
112.8154459999997
 30
0.0
 40
34.17139999999999
100
AcDbArc
 50
172.0099999999999
 51
187.99
  0
ARC
  5
45D
330
285
100
AcDbEntity
  8
1
  6
Continuous
100
AcDbCircle
 10
189.4547959999999
 20
115.565446
 30
0.0
 40
3.188299999999999
100
AcDbArc
 50
321.1489999999999
 51
38.8508
  0
ARC
  5
45E
330
285
100
AcDbEntity
  8
1
  6
Continuous
100
AcDbCircle
 10
189.4547959999999
 20
119.5654459999998
 30
0.0
 40
3.188299999999999
100
AcDbArc
 50
321.1489999999999
 51
38.8508
  0
CIRCLE
  5
45F
330
285
100
AcDbEntity
  8
1
  6
Continuous
100
AcDbCircle
 10
226.790796
 20
47.565146
 30
0.0
 40
5.0
  0
ARC
  5
460
330
285
100
AcDbEntity
  8
1
  6
Continuous
100
AcDbCircle
 10
226.790796
 20
47.565146
 30
0.0
 40
10.15
100
AcDbArc
 50
39.3848
 51
80.6155
  0
ARC
  5
461
330
285
100
AcDbEntity
  8
1
  6
Continuous
100
AcDbCircle
 10
226.790796
 20
47.565146
 30
0.0
 40
10.15
100
AcDbArc
 50
279.3829999999999
 51
320.616
  0
ARC
  5
462
330
285
100
AcDbEntity
  8
1
  6
Continuous
100
AcDbCircle
 10
226.790796
 20
47.565146
 30
0.0
 40
10.15
100
AcDbArc
 50
219.3839999999999
 51
260.617
  0
ARC
  5
463
330
285
100
AcDbEntity
  8
1
  6
Continuous
100
AcDbCircle
 10
226.790796
 20
47.565146
 30
0.0
 40
10.15
100
AcDbArc
 50
159.3839999999999
 51
200.6159999999999
  0
ARC
  5
464
330
285
100
AcDbEntity
  8
1
  6
Continuous
100
AcDbCircle
 10
226.790796
 20
47.565146
 30
0.0
 40
10.15
100
AcDbArc
 50
99.38450000000001
 51
140.615
  0
ARC
  5
465
330
285
100
AcDbEntity
  8
2
  6
Continuous
100
AcDbCircle
 10
226.790796
 20
47.565146
 30
0.0
 40
7.458499999999999
100
AcDbArc
 50
202.314
 51
299.3679999999999
  0
ARC
  5
466
330
285
100
AcDbEntity
  8
1
  6
Continuous
100
AcDbCircle
 10
226.790796
 20
47.565146
 30
0.0
 40
7.458499999999999
100
AcDbArc
 50
157.686
 51
202.314
  0
ARC
  5
467
330
285
100
AcDbEntity
  8
2
  6
Continuous
100
AcDbCircle
 10
226.790796
 20
47.565146
 30
0.0
 40
7.458499999999999
100
AcDbArc
 50
60.6321
 51
157.686
  0
ARC
  5
468
330
285
100
AcDbEntity
  8
1
  6
Continuous
100
AcDbCircle
 10
226.790796
 20
47.565146
 30
0.0
 40
8.0
100
AcDbArc
 50
210.4019999999999
 51
305.6589999999999
  0
ARC
  5
469
330
285
100
AcDbEntity
  8
2
  6
Continuous
100
AcDbCircle
 10
226.790796
 20
47.565146
 30
0.0
 40
2.5
100
AcDbArc
 50
312.8439999999998
 51
47.1565
  0
ARC
  5
46A
330
285
100
AcDbEntity
  8
1
  6
Continuous
100
AcDbCircle
 10
226.790796
 20
47.565146
 30
0.0
 40
2.5
100
AcDbArc
 50
227.156
 51
312.8439999999998
  0
ARC
  5
46B
330
285
100
AcDbEntity
  8
2
  6
Continuous
100
AcDbCircle
 10
226.790796
 20
47.565146
 30
0.0
 40
2.5
100
AcDbArc
 50
132.844
 51
227.156
  0
ARC
  5
46C
330
285
100
AcDbEntity
  8
1
  6
Continuous
100
AcDbCircle
 10
226.790796
 20
47.565146
 30
0.0
 40
2.066999999999996
100
AcDbArc
 50
325.3299999999998
 51
34.6695
  0
ARC
  5
46D
330
285
100
AcDbEntity
  8
2
  6
Continuous
100
AcDbCircle
 10
226.790796
 20
47.565146
 30
0.0
 40
2.066999999999996
100
AcDbArc
 50
34.6695
 51
145.33
  0
ARC
  5
46E
330
285
100
AcDbEntity
  8
1
  6
Continuous
100
AcDbCircle
 10
226.790796
 20
47.565146
 30
0.0
 40
2.066999999999996
100
AcDbArc
 50
145.33
 51
214.67
  0
ARC
  5
46F
330
285
100
AcDbEntity
  8
2
  6
Continuous
100
AcDbCircle
 10
226.790796
 20
47.565146
 30
0.0
 40
2.066999999999996
100
AcDbArc
 50
214.67
 51
325.3299999999998
  0
ARC
  5
470
330
285
100
AcDbEntity
  8
1
  6
Continuous
100
AcDbCircle
 10
292.996796
 20
51.752946
 30
0.0
 40
1.377799999999999
100
AcDbArc
 50
235.639
 51
256.244
  0
ARC
  5
471
330
285
100
AcDbEntity
  8
1
  6
Continuous
100
AcDbCircle
 10
291.0347959999998
 20
50.876846
 30
0.0
 40
0.7650000000000004
100
AcDbArc
 50
280.113
 51
319.802
  0
ARC
  5
472
330
285
100
AcDbEntity
  8
1
  6
Continuous
100
AcDbCircle
 10
293.0187959999999
 20
51.794746
 30
0.0
 40
2.3241
100
AcDbArc
 50
249.8839999999999
 51
253.799
  0
ARC
  5
473
330
285
100
AcDbEntity
  8
1
  6
Continuous
100
AcDbCircle
 10
295.2487959999999
 20
51.15374599999999
 30
0.0
 40
3.231199999999998
100
AcDbArc
 50
200.354
 51
216.7069999999999
  0
ARC
  5
474
330
285
100
AcDbEntity
  8
1
  6
Continuous
100
AcDbCircle
 10
295.434796
 20
48.98384599999999
 30
0.0
 40
3.215599999999998
100
AcDbArc
 50
180.6659999999999
 51
197.3449999999999
  0
ARC
  5
475
330
285
100
AcDbEntity
  8
1
  6
Continuous
100
AcDbCircle
 10
293.1357959999999
 20
45.093246
 30
0.0
 40
0.9275
100
AcDbArc
 50
120.162
 51
189.0169999999999
  0
ARC
  5
476
330
285
100
AcDbEntity
  8
1
  6
Continuous
100
AcDbCircle
 10
290.912796
 20
44.87354599999998
 30
0.0
 40
0.7077
100
AcDbArc
 50
3.12882
 51
68.73909999999999
  0
ARC
  5
477
330
285
100
AcDbEntity
  8
1
  6
Continuous
100
AcDbCircle
 10
290.9207959999998
 20
44.07964599999998
 30
0.0
 40
0.6999
100
AcDbArc
 50
356.8759999999999
 51
69.1738
  0
ARC
  5
478
330
285
100
AcDbEntity
  8
1
  6
Continuous
100
AcDbCircle
 10
290.667796
 20
43.14004599999999
 30
0.0
 40
1.565399999999999
100
AcDbArc
 50
52.5767
 51
58.919
  0
ARC
  5
479
330
285
100
AcDbEntity
  8
1
  6
Continuous
100
AcDbCircle
 10
294.0247959999998
 20
43.50224599999999
 30
0.0
 40
1.811299999999999
100
AcDbArc
 50
138.455
 51
184.533
  0
ARC
  5
47A
330
285
100
AcDbEntity
  8
1
  6
Continuous
100
AcDbCircle
 10
291.444796
 20
46.02494599999999
 30
0.0
 40
0.7756
100
AcDbArc
 50
76.9595
 51
97.8686
  0
ARC
  5
47B
330
285
100
AcDbEntity
  8
1
  6
Continuous
100
AcDbCircle
 10
318.5997959999999
 20
55.79234599999999
 30
0.0
 40
8.018299999999998
100
AcDbArc
 50
160.0
 51
200.0
  0
ARC
  5
47C
330
285
100
AcDbEntity
  8
1
  6
Continuous
100
AcDbCircle
 10
305.0627959999999
 20
55.79234599999999
 30
0.0
 40
8.018299999999998
100
AcDbArc
 50
340.0
 51
20.0
  0
ARC
  5
47D
330
285
100
AcDbEntity
  8
1
  6
Continuous
100
AcDbCircle
 10
341.9287959999998
 20
47.565146
 30
0.0
 40
31.3478
100
AcDbArc
 50
169.923
 51
180.0
  0
ARC
  5
47E
330
285
100
AcDbEntity
  8
1
  6
Continuous
100
AcDbCircle
 10
281.7337959999998
 20
47.565146
 30
0.0
 40
31.3478
100
AcDbArc
 50
0.000022
 51
10.0767
  0
ARC
  5
47F
330
285
100
AcDbEntity
  8
1
  6
Continuous
100
AcDbCircle
 10
318.5997959999999
 20
39.337946
 30
0.0
 40
8.018299999999998
100
AcDbArc
 50
160.0
 51
200.0
  0
ARC
  5
480
330
285
100
AcDbEntity
  8
1
  6
Continuous
100
AcDbCircle
 10
305.0627959999999
 20
39.337946
 30
0.0
 40
8.018299999999998
100
AcDbArc
 50
340.0
 51
20.0
  0
ARC
  5
481
330
285
100
AcDbEntity
  8
1
  6
Continuous
100
AcDbCircle
 10
341.9287959999998
 20
47.565146
 30
0.0
 40
31.3478
100
AcDbArc
 50
180.0
 51
190.0769999999999
  0
ARC
  5
482
330
285
100
AcDbEntity
  8
1
  6
Continuous
100
AcDbCircle
 10
281.7337959999998
 20
47.565146
 30
0.0
 40
31.3478
100
AcDbArc
 50
349.923
 51
0.000022
  0
ARC
  5
483
330
285
100
AcDbEntity
  8
1
  6
Continuous
100
AcDbCircle
 10
282.265796
 20
51.032446
 30
0.0
 40
1.3279
100
AcDbArc
 50
119.8639999999999
 51
240.1359999999999
  0
ARC
  5
484
330
285
100
AcDbEntity
  8
1
  6
Continuous
100
AcDbCircle
 10
285.292796
 20
47.565146
 30
0.0
 40
4.355299999999997
100
AcDbArc
 50
147.8789999999999
 51
180.0
  0
ARC
  5
485
330
285
100
AcDbEntity
  8
1
  6
Continuous
100
AcDbCircle
 10
282.265796
 20
44.097846
 30
0.0
 40
1.3279
100
AcDbArc
 50
119.8639999999999
 51
240.1359999999999
  0
ARC
  5
486
330
285
100
AcDbEntity
  8
1
  6
Continuous
100
AcDbCircle
 10
285.292796
 20
47.565146
 30
0.0
 40
4.355299999999997
100
AcDbArc
 50
180.0
 51
212.121
  0
ARC
  5
487
330
285
100
AcDbEntity
  8
1
  6
Continuous
100
AcDbCircle
 10
33.04029599999999
 20
47.565146
 30
0.0
 40
4.099999999999996
100
AcDbArc
 50
99.47600000000001
 51
80.524
  0
CIRCLE
  5
488
330
285
100
AcDbEntity
  8
1
  6
Continuous
100
AcDbCircle
 10
33.04029599999999
 20
47.565146
 30
0.0
 40
7.5
  0
CIRCLE
  5
489
330
285
100
AcDbEntity
  8
1
  6
Continuous
100
AcDbCircle
 10
33.04029599999999
 20
47.565146
 30
0.0
 40
9.0
  0
ARC
  5
48A
330
285
100
AcDbEntity
  8
1
  6
Continuous
100
AcDbCircle
 10
33.04029599999999
 20
47.565146
 30
0.0
 40
2.95
100
AcDbArc
 50
102.729
 51
77.2711
  0
ARC
  5
48B
330
285
100
AcDbEntity
  8
1
  6
Continuous
100
AcDbCircle
 10
36.045496
 20
50.570346
 30
0.0
 40
1.05
100
AcDbArc
 50
150.3
 51
299.6999999999998
  0
ARC
  5
48C
330
285
100
AcDbEntity
  8
1
  6
Continuous
100
AcDbCircle
 10
37.290296
 20
47.565146
 30
0.0
 40
1.05
100
AcDbArc
 50
105.2999999999997
 51
254.7
  0
ARC
  5
48D
330
285
100
AcDbEntity
  8
1
  6
Continuous
100
AcDbCircle
 10
36.045496
 20
44.55994599999999
 30
0.0
 40
1.05
100
AcDbArc
 50
60.29959999999999
 51
209.6999999999999
  0
ARC
  5
48E
330
285
100
AcDbEntity
  8
1
  6
Continuous
100
AcDbCircle
 10
33.04029599999999
 20
43.315146
 30
0.0
 40
1.05
100
AcDbArc
 50
15.2996
 51
164.7
  0
ARC
  5
48F
330
285
100
AcDbEntity
  8
1
  6
Continuous
100
AcDbCircle
 10
30.03509600000001
 20
44.55994599999999
 30
0.0
 40
1.05
100
AcDbArc
 50
330.3
 51
119.7
  0
ARC
  5
490
330
285
100
AcDbEntity
  8
1
  6
Continuous
100
AcDbCircle
 10
28.790296
 20
47.565146
 30
0.0
 40
1.05
100
AcDbArc
 50
285.3
 51
74.7004
  0
ARC
  5
491
330
285
100
AcDbEntity
  8
1
  6
Continuous
100
AcDbCircle
 10
30.03509600000001
 20
50.570346
 30
0.0
 40
1.05
100
AcDbArc
 50
240.3
 51
29.7004
  0
CIRCLE
  5
492
330
285
100
AcDbEntity
  8
1
  6
Continuous
100
AcDbCircle
 10
33.04029599999999
 20
47.565146
 30
0.0
 40
10.15
  0
ARC
  5
493
330
285
100
AcDbEntity
  8
5
  6
PHANTOM
 48
0.2
100
AcDbCircle
 10
33.04029599999999
 20
62.565146
 30
0.0
 40
8.0
100
AcDbArc
 50
46.5675
 51
133.433
  0
ARC
  5
494
330
285
100
AcDbEntity
  8
1
  6
Continuous
100
AcDbCircle
 10
18.04029599999998
 20
47.565146
 30
0.0
 40
8.0
100
AcDbArc
 50
136.5679999999999
 51
223.4329999999999
  0
LINE
  5
495
330
285
100
AcDbEntity
  8
1
  6
Continuous
100
AcDbLine
 10
96.26579599999999
 20
51.613646
 30
0.0
 11
96.26579599999999
 21
55.56514599999999
 31
0.0
  0
LINE
  5
496
330
285
100
AcDbEntity
  8
2
  6
Continuous
100
AcDbLine
 10
95.63579600000002
 20
39.743138
 30
0.0
 11
96.26579599999999
 21
40.10664600000001
 31
0.0
  0
LINE
  5
497
330
285
100
AcDbEntity
  8
1
  6
Continuous
100
AcDbLine
 10
96.26579599999999
 20
43.516646
 30
0.0
 11
96.26579599999999
 21
39.565146
 31
0.0
  0
LINE
  5
498
330
285
100
AcDbEntity
  8
2
  6
Continuous
100
AcDbLine
 10
96.26579599999999
 20
40.10664600000001
 30
0.0
 11
106.088796
 21
40.10664600000001
 31
0.0
  0
LINE
  5
499
330
285
100
AcDbEntity
  8
1
  6
Continuous
100
AcDbLine
 10
377.314796
 20
51.613646
 30
0.0
 11
377.314796
 21
55.56514599999999
 31
0.0
  0
LINE
  5
49A
330
285
100
AcDbEntity
  8
1
  6
Continuous
100
AcDbLine
 10
377.314796
 20
43.516646
 30
0.0
 11
377.314796
 21
39.565146
 31
0.0
  0
LINE
  5
49B
330
285
100
AcDbEntity
  8
2
  6
Continuous
100
AcDbLine
 10
377.944796
 20
39.743138
 30
0.0
 11
377.314796
 21
40.10664600000001
 31
0.0
  0
LINE
  5
49C
330
285
100
AcDbEntity
  8
2
  6
Continuous
100
AcDbLine
 10
377.314796
 20
40.10664600000001
 30
0.0
 11
367.491796
 21
40.10664600000001
 31
0.0
  0
LINE
  5
49D
330
285
100
AcDbEntity
  8
1
  6
Continuous
100
AcDbLine
 10
96.26579599999999
 20
110.769446
 30
0.0
 11
96.26579599999999
 21
124.5694459999999
 31
0.0
  0
LINE
  5
49E
330
285
100
AcDbEntity
  8
1
  6
Continuous
100
AcDbLine
 10
105.5857959999999
 20
110.769446
 30
0.0
 11
105.5857959999999
 21
124.5694459999999
 31
0.0
  0
LINE
  5
49F
330
285
100
AcDbEntity
  8
1
  6
Continuous
100
AcDbLine
 10
106.2357959999997
 20
110.769446
 30
0.0
 11
106.2357959999997
 21
124.5694459999999
 31
0.0
  0
ARC
  5
4A0
330
285
100
AcDbEntity
  8
1
  6
Continuous
100
AcDbCircle
 10
33.43967999999998
 20
117.565446
 30
0.0
 40
7.932788
100
AcDbArc
 50
169.896
 51
172.2069999999999
  0
ARC
  5
4A1
330
285
100
AcDbEntity
  8
1
  6
Continuous
100
AcDbCircle
 10
22.24091199999999
 20
117.565446
 30
0.0
 40
7.932788
100
AcDbArc
 50
7.792999999999999
 51
10.10399999999999
  0
ARC
  5
4A2
330
285
100
AcDbEntity
  8
1
  6
Continuous
100
AcDbCircle
 10
25.645879
 20
118.63322
 30
0.0
 40
0.066678
100
AcDbArc
 50
172.2069999999999
 51
270.0
  0
ARC
  5
4A3
330
285
100
AcDbEntity
  8
1
  6
Continuous
100
AcDbCircle
 10
30.034713
 20
118.63322
 30
0.0
 40
0.066678
100
AcDbArc
 50
270.0
 51
7.792999999999999
  0
LINE
  5
4A4
330
285
100
AcDbEntity
  8
1
  6
Continuous
100
AcDbLine
 10
25.514606
 20
117.8997169999999
 30
0.0
 11
30.165986
 21
117.8997169999999
 31
0.0
  0
LINE
  5
4A5
330
285
100
AcDbEntity
  8
1
  6
Continuous
100
AcDbLine
 10
25.645879
 20
118.565553
 30
0.0
 11
30.034713
 21
118.565553
 31
0.0
  0
LINE
  5
4A6
330
285
100
AcDbEntity
  8
1
  6
Continuous
100
AcDbLine
 10
27.03980399999998
 20
119.2327429999999
 30
0.0
 11
25.958497
 21
119.2327429999999
 31
0.0
  0
LINE
  5
4A7
330
285
100
AcDbEntity
  8
1
  6
Continuous
100
AcDbLine
 10
27.83961899999999
 20
119.2327429999999
 30
0.0
 11
27.83961899999999
 21
118.899825
 31
0.0
  0
LINE
  5
4A8
330
285
100
AcDbEntity
  8
1
  6
Continuous
100
AcDbLine
 10
25.962557
 20
120.5657679999999
 30
0.0
 11
27.506701
 21
120.5657679999999
 31
0.0
  0
LINE
  5
4A9
330
285
100
AcDbEntity
  8
1
  6
Continuous
100
AcDbLine
 10
27.506701
 20
121.232958
 30
0.0
 11
26.083003
 21
121.232958
 31
0.0
  0
LINE
  5
4AA
330
285
100
AcDbEntity
  8
1
  6
Continuous
100
AcDbLine
 10
27.83961899999999
 20
120.898686
 30
0.0
 11
29.43925
 21
120.898686
 31
0.0
  0
LINE
  5
4AB
330
285
100
AcDbEntity
  8
1
  6
Continuous
100
AcDbLine
 10
29.087385
 20
121.571289
 30
0.0
 11
26.277882
 21
122.3250919999999
 31
0.0
  0
LINE
  5
4AC
330
285
100
AcDbEntity
  8
1
  6
Continuous
100
AcDbLine
 10
27.83961899999999
 20
123.283246
 30
0.0
 11
27.83961899999999
 21
121.905561
 31
0.0
  0
ARC
  5
4AD
330
285
100
AcDbEntity
  8
1
  6
Continuous
100
AcDbCircle
 10
27.506701
 20
120.898686
 30
0.0
 40
0.333392
100
AcDbArc
 50
270.0
 51
90.0
  0
ARC
  5
4AE
330
285
100
AcDbEntity
  8
1
  6
Continuous
100
AcDbCircle
 10
27.83961899999999
 20
121.5658759999999
 30
0.0
 40
1.717978999999997
100
AcDbArc
 50
62.24999999999999
 51
144.462
  0
ARC
  5
4AF
330
285
100
AcDbEntity
  8
1
  6
Continuous
100
AcDbCircle
 10
27.83961899999999
 20
121.5658759999999
 30
0.0
 40
1.717978999999997
100
AcDbArc
 50
35.53799999999998
 51
45.69899999999999
  0
ARC
  5
4B0
330
285
100
AcDbEntity
  8
1
  6
Continuous
100
AcDbCircle
 10
25.958497
 20
118.899825
 30
0.0
 40
0.333392
100
AcDbArc
 50
90.0
 51
169.896
  0
ARC
  5
4B1
330
285
100
AcDbEntity
  8
1
  6
Continuous
100
AcDbCircle
 10
29.72209499999999
 20
118.899825
 30
0.0
 40
0.333392
100
AcDbArc
 50
10.10399999999999
 51
90.0
  0
LINE
  5
4B2
330
285
100
AcDbEntity
  8
1
  6
Continuous
100
AcDbLine
 10
29.72209499999999
 20
119.2327429999999
 30
0.0
 11
27.83961899999999
 21
119.2327429999999
 31
0.0
  0
LINE
  5
4B3
330
285
100
AcDbEntity
  8
1
  6
Continuous
100
AcDbLine
 10
25.648585
 20
119.898579
 30
0.0
 11
29.82224099999999
 21
119.898579
 31
0.0
  0
LINE
  5
4B4
330
285
100
AcDbEntity
  8
1
  6
Continuous
100
AcDbLine
 10
26.011277
 20
113.2334509999999
 30
0.0
 11
28.88574
 21
113.2334509999999
 31
0.0
  0
LINE
  5
4B5
330
285
100
AcDbEntity
  8
1
  6
Continuous
100
AcDbLine
 10
29.069792
 20
113.899287
 30
0.0
 11
26.6108
 21
113.899287
 31
0.0
  0
LINE
  5
4B6
330
285
100
AcDbEntity
  8
1
  6
Continuous
100
AcDbLine
 10
26.195329
 20
114.566476
 30
0.0
 11
29.48390999999999
 21
114.566476
 31
0.0
  0
LINE
  5
4B7
330
285
100
AcDbEntity
  8
1
  6
Continuous
100
AcDbLine
 10
27.03980399999998
 20
115.899502
 30
0.0
 11
25.767678
 21
115.899502
 31
0.0
  0
LINE
  5
4B8
330
285
100
AcDbEntity
  8
1
  6
Continuous
100
AcDbLine
 10
27.83961899999999
 20
117.232528
 30
0.0
 11
27.83961899999999
 21
116.5666919999999
 31
0.0
  0
ARC
  5
4B9
330
285
100
AcDbEntity
  8
1
  6
Continuous
100
AcDbCircle
 10
27.83961899999999
 20
113.5663689999999
 30
0.0
 40
1.717978999999997
100
AcDbArc
 50
215.5377
 51
256.5374
  0
ARC
  5
4BA
330
285
100
AcDbEntity
  8
1
  6
Continuous
100
AcDbCircle
 10
27.83961899999999
 20
113.5663689999999
 30
0.0
 40
1.717978999999997
100
AcDbArc
 50
270.0
 51
324.4619999999998
  0
ARC
  5
4BB
330
285
100
AcDbEntity
  8
1
  6
Continuous
100
AcDbCircle
 10
26.6108
 20
114.233558
 30
0.0
 40
0.333392
100
AcDbArc
 50
206.0144
 51
270.0
  0
ARC
  5
4BC
330
285
100
AcDbEntity
  8
1
  6
Continuous
100
AcDbCircle
 10
33.43967999999998
 20
117.565446
 30
0.0
 40
7.932788
100
AcDbArc
 50
202.944
 51
206.0144
  0
ARC
  5
4BD
330
285
100
AcDbEntity
  8
1
  6
Continuous
100
AcDbCircle
 10
26.195329
 20
114.5001629999997
 30
0.0
 40
0.066678
100
AcDbArc
 50
90.0
 51
202.944
  0
ARC
  5
4BE
330
285
100
AcDbEntity
  8
1
  6
Continuous
100
AcDbCircle
 10
29.069792
 20
114.233558
 30
0.0
 40
0.333392
100
AcDbArc
 50
270.0
 51
333.9859999999998
  0
ARC
  5
4BF
330
285
100
AcDbEntity
  8
1
  6
Continuous
100
AcDbCircle
 10
25.767678
 20
115.8331889999999
 30
0.0
 40
0.066678
100
AcDbArc
 50
90.0
 51
192.7289
  0
ARC
  5
4C0
330
285
100
AcDbEntity
  8
1
  6
Continuous
100
AcDbCircle
 10
33.43967999999998
 20
117.565446
 30
0.0
 40
7.932788
100
AcDbArc
 50
192.7289
 51
193.2680999999999
  0
ARC
  5
4C1
330
285
100
AcDbEntity
  8
1
  6
Continuous
100
AcDbCircle
 10
33.43967999999998
 20
117.565446
 30
0.0
 40
7.932788
100
AcDbArc
 50
193.2680999999999
 51
195.2574999999999
  0
ARC
  5
4C2
330
285
100
AcDbEntity
  8
1
  6
Continuous
100
AcDbCircle
 10
26.108716
 20
115.566584
 30
0.0
 40
0.333392
100
AcDbArc
 50
195.2574999999999
 51
270.0
  0
ARC
  5
4C3
330
285
100
AcDbEntity
  8
1
  6
Continuous
100
AcDbCircle
 10
29.571876
 20
115.566584
 30
0.0
 40
0.333392
100
AcDbArc
 50
270.0
 51
344.7419999999998
  0
ARC
  5
4C4
330
285
100
AcDbEntity
  8
1
  6
Continuous
100
AcDbCircle
 10
22.24091199999999
 20
117.565446
 30
0.0
 40
7.932788
100
AcDbArc
 50
344.7419999999998
 51
344.794
  0
ARC
  5
4C5
330
285
100
AcDbEntity
  8
1
  6
Continuous
100
AcDbCircle
 10
22.24091199999999
 20
117.565446
 30
0.0
 40
7.932788
100
AcDbArc
 50
344.794
 51
347.2709999999998
  0
ARC
  5
4C6
330
285
100
AcDbEntity
  8
1
  6
Continuous
100
AcDbCircle
 10
29.912914
 20
115.8331889999999
 30
0.0
 40
0.066678
100
AcDbArc
 50
347.2709999999998
 51
90.0
  0
LINE
  5
4C7
330
285
100
AcDbEntity
  8
1
  6
Continuous
100
AcDbLine
 10
26.108716
 20
115.2323129999998
 30
0.0
 11
29.571876
 21
115.2323129999998
 31
0.0
  0
LINE
  5
4C8
330
285
100
AcDbEntity
  8
1
  6
Continuous
100
AcDbLine
 10
29.912914
 20
115.899502
 30
0.0
 11
28.63943499999999
 21
115.899502
 31
0.0
  0
LINE
  5
4C9
330
285
100
AcDbEntity
  8
1
  6
Continuous
100
AcDbLine
 10
25.57009199999999
 20
116.5666919999999
 30
0.0
 11
30.110499
 21
116.5666919999999
 31
0.0
  0
LINE
  5
4CA
330
285
100
AcDbEntity
  8
1
  6
Continuous
100
AcDbLine
 10
25.514606
 20
117.232528
 30
0.0
 11
30.165986
 21
117.232528
 31
0.0
  0
ARC
  5
4CB
330
285
100
AcDbEntity
  8
1
  6
Continuous
100
AcDbCircle
 10
29.48390999999999
 20
114.5001629999997
 30
0.0
 40
0.066678
100
AcDbArc
 50
337.0559999999998
 51
90.0
  0
ARC
  5
4CC
330
285
100
AcDbEntity
  8
1
  6
Continuous
100
AcDbCircle
 10
22.24091199999999
 20
117.565446
 30
0.0
 40
7.932788
100
AcDbArc
 50
333.9859999999998
 51
337.0559999999998
  0
ARC
  5
4CD
330
285
100
AcDbEntity
  8
1
  6
Continuous
100
AcDbCircle
 10
22.24091199999999
 20
117.565446
 30
0.0
 40
8.599396
100
AcDbArc
 50
324.4619999999998
 51
35.53799999999998
  0
ARC
  5
4CE
330
285
100
AcDbEntity
  8
1
  6
Continuous
100
AcDbCircle
 10
33.43967999999998
 20
117.565446
 30
0.0
 40
8.599396
100
AcDbArc
 50
144.462
 51
215.5377
  0
LINE
  5
581
330
285
100
AcDbEntity
  8
1
  6
Continuous
100
AcDbLine
 10
94.835796
 20
56.565146
 30
0.0
 11
94.835796
 21
38.565146
 31
0.0
  0
LINE
  5
583
330
285
100
AcDbEntity
  8
1
  6
Continuous
100
AcDbLine
 10
91.63579600000002
 20
55.06504599999999
 30
0.0
 11
94.835796
 21
56.56504599999998
 31
0.0
  0
LINE
  5
584
330
285
100
AcDbEntity
  8
1
  6
Continuous
100
AcDbLine
 10
95.63579600000002
 20
56.565146
 30
0.0
 11
94.835796
 21
56.565146
 31
0.0
  0
LINE
  5
585
330
285
100
AcDbEntity
  8
1
  6
Continuous
100
AcDbLine
 10
91.63579600000002
 20
55.065146
 30
0.0
 11
91.63579600000002
 21
40.065146
 31
0.0
  0
LINE
  5
586
330
285
100
AcDbEntity
  8
1
  6
Continuous
100
AcDbLine
 10
91.63579600000002
 20
40.065146
 30
0.0
 11
94.835796
 21
38.565146
 31
0.0
  0
LINE
  5
587
330
285
100
AcDbEntity
  8
1
  6
Continuous
100
AcDbLine
 10
94.835796
 20
38.565146
 30
0.0
 11
95.63579600000002
 21
38.565146
 31
0.0
  0
LINE
  5
59C
330
285
100
AcDbEntity
  8
1
  6
Continuous
100
AcDbLine
 10
94.835796
 20
126.5654459999999
 30
0.0
 11
94.835796
 21
108.5654459999999
 31
0.0
  0
LINE
  5
59D
330
285
100
AcDbEntity
  8
1
  6
Continuous
100
AcDbLine
 10
91.63579600000002
 20
110.0654459999999
 30
0.0
 11
94.835796
 21
108.5654459999999
 31
0.0
  0
LINE
  5
59E
330
285
100
AcDbEntity
  8
1
  6
Continuous
100
AcDbLine
 10
94.835796
 20
108.5654459999999
 30
0.0
 11
95.63579600000002
 21
108.5654459999999
 31
0.0
  0
LINE
  5
59F
330
285
100
AcDbEntity
  8
1
  6
Continuous
100
AcDbLine
 10
91.63579600000002
 20
125.065446
 30
0.0
 11
91.63579600000002
 21
110.0654459999999
 31
0.0
  0
LINE
  5
5A0
330
285
100
AcDbEntity
  8
1
  6
Continuous
100
AcDbLine
 10
91.63579600000002
 20
125.0653459999999
 30
0.0
 11
94.835796
 21
126.5653459999999
 31
0.0
  0
LINE
  5
5A1
330
285
100
AcDbEntity
  8
1
  6
Continuous
100
AcDbLine
 10
95.63579600000002
 20
126.5654459999999
 30
0.0
 11
94.835796
 21
126.5654459999999
 31
0.0
  0
ENDSEC
  0
SECTION
  2
OBJECTS
  0
DICTIONARY
  5
273
330
0
100
AcDbDictionary
281
     1
  3
ACAD_CIP_PREVIOUS_PRODUCT_INFO
350
727
  3
ACAD_COLOR
350
709
  3
ACAD_DETAILVIEWSTYLE
350
722
  3
ACAD_GROUP
350
274
  3
ACAD_LAYOUT
350
280
  3
ACAD_MATERIAL
350
6D7
  3
ACAD_MLEADERSTYLE
350
71E
  3
ACAD_MLINESTYLE
350
27D
  3
ACAD_PLOTSETTINGS
350
27F
  3
ACAD_PLOTSTYLENAME
350
6D5
  3
ACAD_SCALELIST
350
70C
  3
ACAD_SECTIONVIEWSTYLE
350
720
  3
ACAD_TABLESTYLE
350
70A
  3
ACAD_VISUALSTYLE
350
6F0
  3
ACDB_RECOMPOSE_DATA
350
745
  3
AcDbVariableDictionary
350
738
  3
DWGPROPS
350
746
  0
DICTIONARY
  5
728
330
277
100
AcDbDictionary
280
     1
281
     1
  3
ADSK_XREC_LAYER_RECONCILED
360
729
  0
DICTIONARY
  5
72A
330
28D
100
AcDbDictionary
280
     1
281
     1
  3
ADSK_XREC_LAYER_RECONCILED
360
72B
  0
DICTIONARY
  5
72C
330
28E
100
AcDbDictionary
280
     1
281
     1
  3
ADSK_XREC_LAYER_RECONCILED
360
72D
  0
DICTIONARY
  5
72E
330
28F
100
AcDbDictionary
280
     1
281
     1
  3
ADSK_XREC_LAYER_RECONCILED
360
72F
  0
DICTIONARY
  5
730
330
290
100
AcDbDictionary
280
     1
281
     1
  3
ADSK_XREC_LAYER_RECONCILED
360
731
  0
DICTIONARY
  5
732
330
291
100
AcDbDictionary
280
     1
281
     1
  3
ADSK_XREC_LAYER_RECONCILED
360
733
  0
DICTIONARY
  5
734
330
292
100
AcDbDictionary
280
     1
281
     1
  3
ADSK_XREC_LAYER_RECONCILED
360
735
  0
DICTIONARY
  5
736
330
293
100
AcDbDictionary
280
     1
281
     1
  3
ADSK_XREC_LAYER_RECONCILED
360
737
  0
DICTIONARY
  5
4DB
330
285
100
AcDbDictionary
281
     1
  3
ACAD_LAYOUTSELFREF
350
6D1
  0
DICTIONARY
  5
4D9
330
281
100
AcDbDictionary
281
     1
  3
ACAD_LAYOUTSELFREF
350
6D0
  0
XRECORD
  5
727
102
{ACAD_REACTORS
330
273
102
}
330
273
100
AcDbXrecord
280
     1
300
ACDLT
300
2014
300
ACDLT_F_S
  0
DICTIONARY
  5
709
102
{ACAD_REACTORS
330
273
102
}
330
273
100
AcDbDictionary
281
     1
  0
DICTIONARY
  5
722
102
{ACAD_REACTORS
330
273
102
}
330
273
100
AcDbDictionary
281
     1
  3
Imperial24
350
723
  0
DICTIONARY
  5
274
102
{ACAD_REACTORS
330
273
102
}
330
273
100
AcDbDictionary
281
     1
  0
DICTIONARY
  5
280
102
{ACAD_REACTORS
330
273
102
}
330
273
100
AcDbDictionary
281
     1
  3
Model
350
724
  3
レイアウト1
350
725
  0
DICTIONARY
  5
6D7
102
{ACAD_REACTORS
330
273
102
}
330
273
100
AcDbDictionary
281
     1
  3
ByBlock
350
6E0
  3
ByLayer
350
6D8
  3
Global
350
6E8
  0
DICTIONARY
  5
71E
102
{ACAD_REACTORS
330
273
102
}
330
273
100
AcDbDictionary
281
     1
  3
Standard
350
71F
  0
DICTIONARY
  5
27D
102
{ACAD_REACTORS
330
273
102
}
330
273
100
AcDbDictionary
281
     1
  3
STANDARD
350
27E
  0
DICTIONARY
  5
27F
102
{ACAD_REACTORS
330
273
102
}
330
273
100
AcDbDictionary
281
     1
  0
ACDBDICTIONARYWDFLT
  5
6D5
102
{ACAD_REACTORS
330
273
102
}
330
273
100
AcDbDictionary
281
     1
  3
Normal
350
6D6
100
AcDbDictionaryWithDefault
340
6D6
  0
DICTIONARY
  5
70C
102
{ACAD_REACTORS
330
273
102
}
330
273
100
AcDbDictionary
281
     1
  3
A0
350
70D
  3
A1
350
70E
  3
A2
350
70F
  3
A3
350
710
  3
A4
350
711
  3
A5
350
712
  3
A6
350
713
  3
A7
350
714
  3
A8
350
715
  3
A9
350
716
  3
B0
350
717
  3
B1
350
718
  3
B2
350
719
  3
B3
350
71A
  3
B4
350
71B
  3
B5
350
71C
  3
B6
350
71D
  0
DICTIONARY
  5
720
102
{ACAD_REACTORS
330
273
102
}
330
273
100
AcDbDictionary
281
     1
  3
Imperial24
350
721
  0
DICTIONARY
  5
70A
102
{ACAD_REACTORS
330
273
102
}
330
273
100
AcDbDictionary
281
     1
  3
Standard
350
70B
  0
DICTIONARY
  5
6F0
102
{ACAD_REACTORS
330
273
102
}
330
273
100
AcDbDictionary
281
     1
  3
2dWireframe
350
6F6
  3
Basic
350
6F5
  3
Brighten
350
6FC
  3
ColorChange
350
700
  3
Conceptual
350
6F9
  3
Dim
350
6FB
  3
EdgeColorOff
350
708
  3
Facepattern
350
6FF
  3
Flat
350
6F1
  3
FlatWithEdges
350
6F2
  3
Gouraud
350
6F3
  3
GouraudWithEdges
350
6F4
  3
Hidden
350
6F8
  3
JitterOff
350
706
  3
Linepattern
350
6FE
  3
OverhangOff
350
707
  3
Realistic
350
6FA
  3
Shaded
350
705
  3
Shaded with edges
350
704
  3
Shades of Gray
350
701
  3
Sketchy
350
702
  3
Thicken
350
6FD
  3
Wireframe
350
6F7
  3
X-Ray
350
703
  0
XRECORD
  5
745
102
{ACAD_REACTORS
330
273
102
}
330
273
100
AcDbXrecord
280
     1
 90
        1
330
70B
  0
DICTIONARY
  5
738
102
{ACAD_REACTORS
330
273
102
}
330
273
100
AcDbDictionary
281
     1
  3
CANNOSCALE
350
73D
  3
CMLEADERSTYLE
350
73A
  3
CTABLESTYLE
350
739
  3
CVIEWDETAILSTYLE
350
73B
  3
CVIEWSECTIONSTYLE
350
73C
  3
DIMASSOC
350
740
  3
INDEXCTL
350
73F
  3
SORTENTS
350
73E
  3
XCLIPFRAME
350
741
  0
XRECORD
  5
746
102
{ACAD_REACTORS
330
273
102
}
330
273
100
AcDbXrecord
280
     1
  1
DWGPROPS COOKIE
  2

  3

  4

  6

  7

  8
Yoshitsune
  9

300
=
301
=
302
=
303
=
304
=
305
=
306
=
307
=
308
=
309
=
 40
0.0052341435185185
 41
2451066.769161574
 42
2457192.600100753
  1

 90
        0
  0
XRECORD
  5
729
102
{ACAD_REACTORS
330
728
102
}
330
728
100
AcDbXrecord
280
     1
290
     1
  0
XRECORD
  5
72B
102
{ACAD_REACTORS
330
72A
102
}
330
72A
100
AcDbXrecord
280
     1
290
     1
  0
XRECORD
  5
72D
102
{ACAD_REACTORS
330
72C
102
}
330
72C
100
AcDbXrecord
280
     1
290
     1
  0
XRECORD
  5
72F
102
{ACAD_REACTORS
330
72E
102
}
330
72E
100
AcDbXrecord
280
     1
290
     1
  0
XRECORD
  5
731
102
{ACAD_REACTORS
330
730
102
}
330
730
100
AcDbXrecord
280
     1
290
     1
  0
XRECORD
  5
733
102
{ACAD_REACTORS
330
732
102
}
330
732
100
AcDbXrecord
280
     1
290
     1
  0
XRECORD
  5
735
102
{ACAD_REACTORS
330
734
102
}
330
734
100
AcDbXrecord
280
     1
290
     1
  0
XRECORD
  5
737
102
{ACAD_REACTORS
330
736
102
}
330
736
100
AcDbXrecord
280
     1
290
     1
  0
XRECORD
  5
6D1
102
{ACAD_REACTORS
330
4DB
102
}
330
4DB
100
AcDbXrecord
280
     1
340
285
  0
XRECORD
  5
6D0
102
{ACAD_REACTORS
330
4D9
102
}
330
4D9
100
AcDbXrecord
280
     1
340
281
  0
ACDBDETAILVIEWSTYLE
  5
723
102
{ACAD_XDICTIONARY
360
77E
102
}
102
{ACAD_REACTORS
330
722
102
}
330
722
100
AcDbModelDocViewStyle
 70
     0
  3
Imperial24
290
     0
100
AcDbDetailViewStyle
 70
     0
 71
     0
 90
        3
 71
     1
340
278
 40
0.24
340
0
 40
0.24
300

 40
0.36
280
     3
 71
     2
340
27C
 90
       25
 71
     3
340
278
 40
0.24
 90
        1
 40
0.75
 90
        1
300
%<\AcVar ViewType \f "%tc1">% %<\AcVar ViewDetailId>%\PSCALE %<\AcVar ViewScale \f "%sn">%
 71
     4
340
27C
 90
       25
340
27C
 90
       25
280
     0
  0
LAYOUT
  5
724
102
{ACAD_XDICTIONARY
360
780
102
}
102
{ACAD_REACTORS
330
280
102
}
330
280
100
AcDbPlotSettings
  1

  2
Canon LBP9100C
  4

  6

 40
0.0
 41
0.0
 42
0.0
 43
0.0
 44
0.0
 45
0.0
 46
0.0
 47
0.0
 48
0.0
 49
0.0
140
0.0
141
0.0
142
1.0
143
1.0
 70
  1712
 72
     0
 73
     0
 74
     0
  7

 75
     0
147
1.0
148
0.0
149
0.0
100
AcDbLayout
  1
Model
 70
     1
 71
     0
 10
0.0
 20
0.0
 11
12.0
 21
9.0
 12
0.0
 22
0.0
 32
0.0
 14
0.0
 24
0.0
 34
0.0
 15
0.0
 25
0.0
 35
0.0
146
0.0
 13
0.0
 23
0.0
 33
0.0
 16
1.0
 26
0.0
 36
0.0
 17
0.0
 27
1.0
 37
0.0
 76
     0
330
285
331
6CF
  0
LAYOUT
  5
725
102
{ACAD_XDICTIONARY
360
782
102
}
102
{ACAD_REACTORS
330
280
102
}
330
280
100
AcDbPlotSettings
  1

  2
Canon LBP9100C
  4

  6

 40
0.0
 41
0.0
 42
0.0
 43
0.0
 44
0.0
 45
0.0
 46
0.0
 47
0.0
 48
0.0
 49
0.0
140
0.0
141
0.0
142
1.0
143
1.0
 70
   688
 72
     0
 73
     0
 74
     5
  7

 75
    16
147
1.0
148
0.0
149
0.0
100
AcDbLayout
  1
レイアウト1
 70
     0
 71
     1
 10
0.0
 20
0.0
 11
420.0
 21
297.0
 12
0.0
 22
0.0
 32
0.0
 14
1.000000000000000E+20
 24
1.000000000000000E+20
 34
1.000000000000000E+20
 15
-1.000000000000000E+20
 25
-1.000000000000000E+20
 35
-1.000000000000000E+20
146
0.0
 13
0.0
 23
0.0
 33
0.0
 16
1.0
 26
0.0
 36
0.0
 17
0.0
 27
1.0
 37
0.0
 76
     0
330
281
  0
MATERIAL
  5
6E0
102
{ACAD_XDICTIONARY
360
6E1
102
}
102
{ACAD_REACTORS
330
6D7
102
}
330
6D7
100
AcDbMaterial
  1
ByBlock
 72
     0
 43
0.0208333333333333
 43
0.0
 43
0.0
 43
0.0
 43
0.0
 43
0.0208333333333333
 43
0.0
 43
0.0
 43
0.0
 43
0.0
 43
1.0
 43
0.0
 43
0.0
 43
0.0
 43
0.0
 43
1.0
 77
     0
 47
0.0208333333333333
 47
0.0
 47
0.0
 47
0.0
 47
0.0
 47
0.0208333333333333
 47
0.0
 47
0.0
 47
0.0
 47
0.0
 47
1.0
 47
0.0
 47
0.0
 47
0.0
 47
0.0
 47
1.0
171
     0
 49
0.0208333333333333
 49
0.0
 49
0.0
 49
0.0
 49
0.0
 49
0.0208333333333333
 49
0.0
 49
0.0
 49
0.0
 49
0.0
 49
1.0
 49
0.0
 49
0.0
 49
0.0
 49
0.0
 49
1.0
175
     0
142
0.0208333333333333
142
0.0
142
0.0
142
0.0
142
0.0
142
0.0208333333333333
142
0.0
142
0.0
142
0.0
142
0.0
142
1.0
142
0.0
142
0.0
142
0.0
142
0.0
142
1.0
179
     0
144
0.0208333333333333
144
0.0
144
0.0
144
0.0
144
0.0
144
0.0208333333333333
144
0.0
144
0.0
144
0.0
144
0.0
144
1.0
144
0.0
144
0.0
144
0.0
144
0.0
144
1.0
147
0.0208333333333333
147
0.0
147
0.0
147
0.0
147
0.0
147
0.0208333333333333
147
0.0
147
0.0
147
0.0
147
0.0
147
1.0
147
0.0
147
0.0
147
0.0
147
0.0
147
1.0
  0
MATERIAL
  5
6D8
102
{ACAD_XDICTIONARY
360
6D9
102
}
102
{ACAD_REACTORS
330
6D7
102
}
330
6D7
100
AcDbMaterial
  1
ByLayer
 72
     0
 43
0.0208333333333333
 43
0.0
 43
0.0
 43
0.0
 43
0.0
 43
0.0208333333333333
 43
0.0
 43
0.0
 43
0.0
 43
0.0
 43
1.0
 43
0.0
 43
0.0
 43
0.0
 43
0.0
 43
1.0
 77
     0
 47
0.0208333333333333
 47
0.0
 47
0.0
 47
0.0
 47
0.0
 47
0.0208333333333333
 47
0.0
 47
0.0
 47
0.0
 47
0.0
 47
1.0
 47
0.0
 47
0.0
 47
0.0
 47
0.0
 47
1.0
171
     0
 49
0.0208333333333333
 49
0.0
 49
0.0
 49
0.0
 49
0.0
 49
0.0208333333333333
 49
0.0
 49
0.0
 49
0.0
 49
0.0
 49
1.0
 49
0.0
 49
0.0
 49
0.0
 49
0.0
 49
1.0
175
     0
142
0.0208333333333333
142
0.0
142
0.0
142
0.0
142
0.0
142
0.0208333333333333
142
0.0
142
0.0
142
0.0
142
0.0
142
1.0
142
0.0
142
0.0
142
0.0
142
0.0
142
1.0
179
     0
144
0.0208333333333333
144
0.0
144
0.0
144
0.0
144
0.0
144
0.0208333333333333
144
0.0
144
0.0
144
0.0
144
0.0
144
1.0
144
0.0
144
0.0
144
0.0
144
0.0
144
1.0
147
0.0208333333333333
147
0.0
147
0.0
147
0.0
147
0.0
147
0.0208333333333333
147
0.0
147
0.0
147
0.0
147
0.0
147
1.0
147
0.0
147
0.0
147
0.0
147
0.0
147
1.0
  0
MATERIAL
  5
6E8
102
{ACAD_XDICTIONARY
360
6E9
102
}
102
{ACAD_REACTORS
330
6D7
102
}
330
6D7
100
AcDbMaterial
  1
Global
 72
     0
 43
0.0208333333333333
 43
0.0
 43
0.0
 43
0.0
 43
0.0
 43
0.0208333333333333
 43
0.0
 43
0.0
 43
0.0
 43
0.0
 43
1.0
 43
0.0
 43
0.0
 43
0.0
 43
0.0
 43
1.0
 77
     0
 47
0.0208333333333333
 47
0.0
 47
0.0
 47
0.0
 47
0.0
 47
0.0208333333333333
 47
0.0
 47
0.0
 47
0.0
 47
0.0
 47
1.0
 47
0.0
 47
0.0
 47
0.0
 47
0.0
 47
1.0
171
     0
 49
0.0208333333333333
 49
0.0
 49
0.0
 49
0.0
 49
0.0
 49
0.0208333333333333
 49
0.0
 49
0.0
 49
0.0
 49
0.0
 49
1.0
 49
0.0
 49
0.0
 49
0.0
 49
0.0
 49
1.0
175
     0
142
0.0208333333333333
142
0.0
142
0.0
142
0.0
142
0.0
142
0.0208333333333333
142
0.0
142
0.0
142
0.0
142
0.0
142
1.0
142
0.0
142
0.0
142
0.0
142
0.0
142
1.0
179
     0
144
0.0208333333333333
144
0.0
144
0.0
144
0.0
144
0.0
144
0.0208333333333333
144
0.0
144
0.0
144
0.0
144
0.0
144
1.0
144
0.0
144
0.0
144
0.0
144
0.0
144
1.0
147
0.0208333333333333
147
0.0
147
0.0
147
0.0
147
0.0
147
0.0208333333333333
147
0.0
147
0.0
147
0.0
147
0.0
147
1.0
147
0.0
147
0.0
147
0.0
147
0.0
147
1.0
  0
MLEADERSTYLE
  5
71F
102
{ACAD_REACTORS
330
71E
102
}
330
71E
100
AcDbMLeaderStyle
170
     2
171
     1
172
     0
 90
        2
 40
0.0
 41
0.0
173
     1
 91
-1056964608
340
27A
 92
       -2
290
     1
 42
0.09
291
     1
 43
0.36
  3
Standard
 44
0.18
300

342
278
174
     1
178
     6
175
     1
176
     0
 93
-1056964608
 45
0.18
292
     0
297
     0
 46
0.18
 94
-1056964608
 47
1.0
 49
1.0
140
1.0
293
     1
141
0.0
294
     1
177
     0
142
1.0
295
     0
296
     0
143
0.125
1001
ACAD_MLEADERVER
1070
     2
  0
MLINESTYLE
  5
27E
102
{ACAD_REACTORS
330
27D
102
}
330
27D
100
AcDbMlineStyle
  2
STANDARD
 70
     0
  3

 62
   256
 51
90.0
 52
90.0
 71
     2
 49
0.5
 62
   256
  6
BYLAYER
 49
-0.5
 62
   256
  6
BYLAYER
  0
ACDBPLACEHOLDER
  5
6D6
102
{ACAD_REACTORS
330
6D5
102
}
330
6D5
  0
SCALE
  5
70D
102
{ACAD_REACTORS
330
70C
102
}
330
70C
100
AcDbScale
 70
     0
300
1:1
140
1.0
141
1.0
290
     1
  0
SCALE
  5
70E
102
{ACAD_REACTORS
330
70C
102
}
330
70C
100
AcDbScale
 70
     0
300
1/128" = 1'-0"
140
0.0078125
141
12.0
290
     0
  0
SCALE
  5
70F
102
{ACAD_REACTORS
330
70C
102
}
330
70C
100
AcDbScale
 70
     0
300
1/64" = 1'-0"
140
0.015625
141
12.0
290
     0
  0
SCALE
  5
710
102
{ACAD_REACTORS
330
70C
102
}
330
70C
100
AcDbScale
 70
     0
300
1/32" = 1'-0"
140
0.03125
141
12.0
290
     0
  0
SCALE
  5
711
102
{ACAD_REACTORS
330
70C
102
}
330
70C
100
AcDbScale
 70
     0
300
1/16" = 1'-0"
140
0.0625
141
12.0
290
     0
  0
SCALE
  5
712
102
{ACAD_REACTORS
330
70C
102
}
330
70C
100
AcDbScale
 70
     0
300
3/32" = 1'-0"
140
0.09375
141
12.0
290
     0
  0
SCALE
  5
713
102
{ACAD_REACTORS
330
70C
102
}
330
70C
100
AcDbScale
 70
     0
300
1/8" = 1'-0"
140
0.125
141
12.0
290
     0
  0
SCALE
  5
714
102
{ACAD_REACTORS
330
70C
102
}
330
70C
100
AcDbScale
 70
     0
300
3/16" = 1'-0"
140
0.1875
141
12.0
290
     0
  0
SCALE
  5
715
102
{ACAD_REACTORS
330
70C
102
}
330
70C
100
AcDbScale
 70
     0
300
1/4" = 1'-0"
140
0.25
141
12.0
290
     0
  0
SCALE
  5
716
102
{ACAD_REACTORS
330
70C
102
}
330
70C
100
AcDbScale
 70
     0
300
3/8" = 1'-0"
140
0.375
141
12.0
290
     0
  0
SCALE
  5
717
102
{ACAD_REACTORS
330
70C
102
}
330
70C
100
AcDbScale
 70
     0
300
1/2" = 1'-0"
140
0.5
141
12.0
290
     0
  0
SCALE
  5
718
102
{ACAD_REACTORS
330
70C
102
}
330
70C
100
AcDbScale
 70
     0
300
3/4" = 1'-0"
140
0.75
141
12.0
290
     0
  0
SCALE
  5
719
102
{ACAD_REACTORS
330
70C
102
}
330
70C
100
AcDbScale
 70
     0
300
1" = 1'-0"
140
1.0
141
12.0
290
     0
  0
SCALE
  5
71A
102
{ACAD_REACTORS
330
70C
102
}
330
70C
100
AcDbScale
 70
     0
300
1-1/2" = 1'-0"
140
1.5
141
12.0
290
     0
  0
SCALE
  5
71B
102
{ACAD_REACTORS
330
70C
102
}
330
70C
100
AcDbScale
 70
     0
300
3" = 1'-0"
140
3.0
141
12.0
290
     0
  0
SCALE
  5
71C
102
{ACAD_REACTORS
330
70C
102
}
330
70C
100
AcDbScale
 70
     0
300
6" = 1'-0"
140
6.0
141
12.0
290
     0
  0
SCALE
  5
71D
102
{ACAD_REACTORS
330
70C
102
}
330
70C
100
AcDbScale
 70
     0
300
1'-0" = 1'-0"
140
12.0
141
12.0
290
     0
  0
ACDBSECTIONVIEWSTYLE
  5
721
102
{ACAD_XDICTIONARY
360
77C
102
}
102
{ACAD_REACTORS
330
720
102
}
330
720
100
AcDbModelDocViewStyle
 70
     0
  3
Imperial24
290
     0
100
AcDbSectionViewStyle
 70
     0
 71
     0
 90
       78
 71
     1
340
278
 40
0.24
340
0
340
0
 40
0.24
300
I, O, Q, S, X, Z
 40
0.48
 90
        3
 40
0.18
 90
        1
 71
     2
340
27C
 90
       25
340
27C
 90
       50
 40
0.24
 40
0.0
 40
0.24
 71
     3
340
278
 40
0.24
 90
        1
 40
0.75
 90
        1
300
%<\AcVar ViewType \f "%tc1">% %<\AcVar ViewSectionStartId>%-%<\AcVar ViewSectionEndId>%\PSCALE %<\AcVar ViewScale \f "%sn">%
 71
     4
300
ANSI31
 40
1.0
 90
        0
290
     0
290
     0
 90
        6
 40
0.0
 40
1.570796326794896
 40
0.2617993877991494
 40
1.308996938995747
 40
-0.2617993877991494
 40
1.832595714594046
  0
TABLESTYLE
  5
70B
102
{ACAD_XDICTIONARY
360
743
102
}
102
{ACAD_REACTORS
330
70A
102
}
330
70A
100
AcDbTableStyle
  3
Standard
 70
     0
 71
     0
 40
0.06
 41
0.06
280
     0
281
     0
  7
STANDARD
140
0.18
170
     2
 62
     0
 63
     7
283
     0
274
    -2
284
     1
 64
     0
275
    -2
285
     1
 65
     0
276
    -2
286
     1
 66
     0
277
    -2
287
     1
 67
     0
278
    -2
288
     1
 68
     0
279
    -2
289
     1
 69
     0
  7
STANDARD
140
0.25
170
     5
 62
     0
 63
     7
283
     0
274
    -2
284
     1
 64
     0
275
    -2
285
     1
 65
     0
276
    -2
286
     1
 66
     0
277
    -2
287
     1
 67
     0
278
    -2
288
     1
 68
     0
279
    -2
289
     1
 69
     0
  7
STANDARD
140
0.18
170
     5
 62
     0
 63
     7
283
     0
274
    -2
284
     1
 64
     0
275
    -2
285
     1
 65
     0
276
    -2
286
     1
 66
     0
277
    -2
287
     1
 67
     0
278
    -2
288
     1
 68
     0
279
    -2
289
     1
 69
     0
  0
VISUALSTYLE
  5
6F6
102
{ACAD_XDICTIONARY
360
754
102
}
102
{ACAD_REACTORS
330
6F0
102
}
330
6F0
100
AcDbVisualStyle
  2
2dWireframe
 70
     4
 71
     0
 72
     2
 73
     0
 90
        0
 40
-0.6
 41
-30.0
 62
     5
 63
     7
 74
     1
 91
        4
 64
     7
 65
   257
 75
     1
175
     1
 42
1.0
 92
        0
 66
   257
 43
1.0
 76
     1
 77
     6
 78
     2
 67
     7
 79
     5
170
     0
171
     0
290
     0
174
     0
 93
        1
 44
0.0
173
     0
291
     0
 45
0.0
1001
ACAD
1000
AcDbSavedByObjectVersion
1070
     0
  0
VISUALSTYLE
  5
6F5
102
{ACAD_XDICTIONARY
360
752
102
}
102
{ACAD_REACTORS
330
6F0
102
}
330
6F0
100
AcDbVisualStyle
  2
Basic
 70
     7
 71
     1
 72
     0
 73
     1
 90
        0
 40
-0.6
 41
-30.0
 62
     5
 63
     7
 74
     0
 91
        4
 64
     7
 65
   257
 75
     1
175
     1
 42
1.0
 92
        8
 66
     7
 43
1.0
 76
     1
 77
     6
 78
     2
 67
     7
 79
     5
170
     0
171
     0
290
     0
174
     0
 93
        1
 44
0.0
173
     0
291
     1
 45
0.0
1001
ACAD
1000
AcDbSavedByObjectVersion
1070
     0
  0
VISUALSTYLE
  5
6FC
102
{ACAD_XDICTIONARY
360
760
102
}
102
{ACAD_REACTORS
330
6F0
102
}
330
6F0
100
AcDbVisualStyle
  2
Brighten
 70
    12
 71
     2
 72
     2
 73
     0
 90
        0
 40
-0.6
 41
-30.0
 62
     5
 63
     7
 74
     1
 91
        4
 64
     7
 65
   257
 75
     1
175
     1
 42
1.0
 92
        8
 66
     7
 43
1.0
 76
     1
 77
     6
 78
     2
 67
     7
 79
     5
170
     0
171
     0
290
     0
174
     0
 93
        1
 44
50.0
173
     0
291
     1
 45
0.0
1001
ACAD
1000
AcDbSavedByObjectVersion
1070
     0
  0
VISUALSTYLE
  5
700
102
{ACAD_XDICTIONARY
360
768
102
}
102
{ACAD_REACTORS
330
6F0
102
}
330
6F0
100
AcDbVisualStyle
  2
ColorChange
 70
    16
 71
     2
 72
     2
 73
     3
 90
        0
 40
-0.6
 41
-30.0
 62
     5
 63
     8
 74
     1
 91
        4
 64
     7
 65
   257
 75
     1
175
     1
 42
1.0
 92
        8
 66
     8
 43
1.0
 76
     1
 77
     6
 78
     2
 67
     7
 79
     5
170
     0
171
     0
290
     0
174
     0
 93
        1
 44
0.0
173
     0
291
     1
 45
0.0
1001
ACAD
1000
AcDbSavedByObjectVersion
1070
     0
  0
VISUALSTYLE
  5
6F9
102
{ACAD_XDICTIONARY
360
75A
102
}
102
{ACAD_REACTORS
330
6F0
102
}
330
6F0
100
AcDbVisualStyle
  2
Conceptual
 70
     9
 71
     3
 72
     2
 73
     0
 90
        0
 40
-0.6
 41
-30.0
 62
     5
 63
     7
 74
     2
 91
        2
 64
     7
 65
   257
 75
     1
175
     1
 42
179.0
 92
        8
 66
     7
 43
1.0
 76
     1
 77
     6
 78
     2
 67
     7
 79
     3
170
     0
171
     0
290
     0
174
     0
 93
        1
 44
0.0
173
     0
291
     0
 45
0.0
1001
ACAD
1000
AcDbSavedByObjectVersion
1070
     0
  0
VISUALSTYLE
  5
6FB
102
{ACAD_XDICTIONARY
360
75E
102
}
102
{ACAD_REACTORS
330
6F0
102
}
330
6F0
100
AcDbVisualStyle
  2
Dim
 70
    11
 71
     2
 72
     2
 73
     0
 90
        0
 40
-0.6
 41
-30.0
 62
     5
 63
     7
 74
     1
 91
        4
 64
     7
 65
   257
 75
     1
175
     1
 42
1.0
 92
        8
 66
     7
 43
1.0
 76
     1
 77
     6
 78
     2
 67
     7
 79
     5
170
     0
171
     0
290
     0
174
     0
 93
        1
 44
-50.0
173
     0
291
     1
 45
0.0
1001
ACAD
1000
AcDbSavedByObjectVersion
1070
     0
  0
VISUALSTYLE
  5
708
102
{ACAD_XDICTIONARY
360
778
102
}
102
{ACAD_REACTORS
330
6F0
102
}
330
6F0
100
AcDbVisualStyle
  2
EdgeColorOff
 70
    22
 71
     2
 72
     2
 73
     0
 90
        0
 40
-0.6
 41
-30.0
 62
     5
 63
     7
 74
     1
 91
        4
 64
     7
 65
   257
 75
     1
175
     1
 42
1.0
 92
        8
 66
     7
 43
1.0
 76
     1
 77
     6
 78
     2
 67
     7
 79
     5
170
     0
171
     0
290
     0
174
     0
 93
        1
 44
0.0
173
     0
291
     1
 45
0.0
1001
ACAD
1000
AcDbSavedByObjectVersion
1070
     0
  0
VISUALSTYLE
  5
6FF
102
{ACAD_XDICTIONARY
360
766
102
}
102
{ACAD_REACTORS
330
6F0
102
}
330
6F0
100
AcDbVisualStyle
  2
Facepattern
 70
    15
 71
     2
 72
     2
 73
     0
 90
        0
 40
-0.6
 41
-30.0
 62
     5
 63
     7
 74
     1
 91
        4
 64
     7
 65
   257
 75
     1
175
     1
 42
1.0
 92
        8
 66
     7
 43
1.0
 76
     1
 77
     6
 78
     2
 67
     7
 79
     5
170
     0
171
     0
290
     0
174
     0
 93
        1
 44
0.0
173
     0
291
     1
 45
0.0
1001
ACAD
1000
AcDbSavedByObjectVersion
1070
     0
  0
VISUALSTYLE
  5
6F1
102
{ACAD_XDICTIONARY
360
74A
102
}
102
{ACAD_REACTORS
330
6F0
102
}
330
6F0
100
AcDbVisualStyle
  2
Flat
 70
     0
 71
     2
 72
     1
 73
     1
 90
        2
 40
-0.6
 41
30.0
 62
     5
 63
     7
 74
     0
 91
        0
 64
     7
 65
   257
 75
     1
175
     1
 42
1.0
 92
        8
 66
     7
 43
1.0
 76
     1
 77
     6
 78
     2
 67
     7
 79
     5
170
     0
171
     0
290
     0
174
     0
 93
       13
 44
0.0
173
     0
291
     1
 45
0.0
1001
ACAD
1000
AcDbSavedByObjectVersion
1070
     0
  0
VISUALSTYLE
  5
6F2
102
{ACAD_XDICTIONARY
360
74C
102
}
102
{ACAD_REACTORS
330
6F0
102
}
330
6F0
100
AcDbVisualStyle
  2
FlatWithEdges
 70
     1
 71
     2
 72
     1
 73
     1
 90
        2
 40
-0.6
 41
30.0
 62
     5
 63
     7
 74
     1
 91
        0
 64
     7
 65
   257
 75
     1
175
     1
 42
1.0
 92
        0
 66
   257
 43
1.0
 76
     1
 77
     6
 78
     2
 67
     7
 79
     5
170
     0
171
     0
290
     0
174
     0
 93
       13
 44
0.0
173
     0
291
     1
 45
0.0
1001
ACAD
1000
AcDbSavedByObjectVersion
1070
     0
  0
VISUALSTYLE
  5
6F3
102
{ACAD_XDICTIONARY
360
74E
102
}
102
{ACAD_REACTORS
330
6F0
102
}
330
6F0
100
AcDbVisualStyle
  2
Gouraud
 70
     2
 71
     2
 72
     2
 73
     1
 90
        2
 40
-0.6
 41
30.0
 62
     5
 63
     7
 74
     0
 91
        0
 64
     7
 65
   257
 75
     1
175
     1
 42
1.0
 92
        0
 66
     7
 43
1.0
 76
     1
 77
     6
 78
     2
 67
     7
 79
     5
170
     0
171
     0
290
     0
174
     0
 93
       13
 44
0.0
173
     0
291
     1
 45
0.0
1001
ACAD
1000
AcDbSavedByObjectVersion
1070
     0
  0
VISUALSTYLE
  5
6F4
102
{ACAD_XDICTIONARY
360
750
102
}
102
{ACAD_REACTORS
330
6F0
102
}
330
6F0
100
AcDbVisualStyle
  2
GouraudWithEdges
 70
     3
 71
     2
 72
     2
 73
     1
 90
        2
 40
-0.6
 41
30.0
 62
     5
 63
     7
 74
     1
 91
        0
 64
     7
 65
   257
 75
     1
175
     1
 42
1.0
 92
        0
 66
   257
 43
1.0
 76
     1
 77
     6
 78
     2
 67
     7
 79
     5
170
     0
171
     0
290
     0
174
     0
 93
       13
 44
0.0
173
     0
291
     1
 45
0.0
1001
ACAD
1000
AcDbSavedByObjectVersion
1070
     0
  0
VISUALSTYLE
  5
6F8
102
{ACAD_XDICTIONARY
360
758
102
}
102
{ACAD_REACTORS
330
6F0
102
}
330
6F0
100
AcDbVisualStyle
  2
Hidden
 70
     6
 71
     1
 72
     2
 73
     2
 90
        0
 40
-0.6
 41
-30.0
 62
     5
 63
     7
 74
     2
 91
        2
 64
     7
 65
   257
 75
     2
175
     1
 42
40.0
 92
        0
 66
   257
 43
1.0
 76
     1
 77
     6
 78
     2
 67
     7
 79
     3
170
     0
171
     0
290
     0
174
     0
 93
        1
 44
0.0
173
     0
291
     0
 45
0.0
1001
ACAD
1000
AcDbSavedByObjectVersion
1070
     0
  0
VISUALSTYLE
  5
706
102
{ACAD_XDICTIONARY
360
774
102
}
102
{ACAD_REACTORS
330
6F0
102
}
330
6F0
100
AcDbVisualStyle
  2
JitterOff
 70
    20
 71
     2
 72
     2
 73
     0
 90
        0
 40
-0.6
 41
-30.0
 62
     5
 63
     7
 74
     1
 91
        4
 64
     7
 65
   257
 75
     1
175
     1
 42
1.0
 92
       10
 66
     7
 43
1.0
 76
     1
 77
     6
 78
     2
 67
     7
 79
     5
170
     0
171
     0
290
     0
174
     0
 93
        1
 44
0.0
173
     0
291
     1
 45
0.0
1001
ACAD
1000
AcDbSavedByObjectVersion
1070
     0
  0
VISUALSTYLE
  5
6FE
102
{ACAD_XDICTIONARY
360
764
102
}
102
{ACAD_REACTORS
330
6F0
102
}
330
6F0
100
AcDbVisualStyle
  2
Linepattern
 70
    14
 71
     2
 72
     2
 73
     0
 90
        0
 40
-0.6
 41
-30.0
 62
     5
 63
     7
 74
     1
 91
        4
 64
     7
 65
   257
 75
     7
175
     7
 42
1.0
 92
        8
 66
     7
 43
1.0
 76
     1
 77
     6
 78
     2
 67
     7
 79
     5
170
     0
171
     0
290
     0
174
     0
 93
        1
 44
0.0
173
     0
291
     1
 45
0.0
1001
ACAD
1000
AcDbSavedByObjectVersion
1070
     0
  0
VISUALSTYLE
  5
707
102
{ACAD_XDICTIONARY
360
776
102
}
102
{ACAD_REACTORS
330
6F0
102
}
330
6F0
100
AcDbVisualStyle
  2
OverhangOff
 70
    21
 71
     2
 72
     2
 73
     0
 90
        0
 40
-0.6
 41
-30.0
 62
     5
 63
     7
 74
     1
 91
        4
 64
     7
 65
   257
 75
     1
175
     1
 42
1.0
 92
        9
 66
     7
 43
1.0
 76
     1
 77
     6
 78
     2
 67
     7
 79
     5
170
     0
171
     0
290
     0
174
     0
 93
        1
 44
0.0
173
     0
291
     1
 45
0.0
1001
ACAD
1000
AcDbSavedByObjectVersion
1070
     0
  0
VISUALSTYLE
  5
6FA
102
{ACAD_XDICTIONARY
360
75C
102
}
102
{ACAD_REACTORS
330
6F0
102
}
330
6F0
100
AcDbVisualStyle
  2
Realistic
 70
     8
 71
     2
 72
     3
 73
     0
 90
        2
 40
-0.6
 41
30.0
 62
     5
 63
     7
 74
     0
 91
        0
 64
     7
 65
   257
 75
     1
175
     1
 42
1.0
 92
        8
 66
   257
 43
1.0
 76
     1
 77
     6
 78
     2
 67
     7
 79
     3
170
     0
171
     0
290
     0
174
     0
 93
       13
 44
0.0
173
     0
291
     0
 45
0.0
1001
ACAD
1000
AcDbSavedByObjectVersion
1070
     0
  0
VISUALSTYLE
  5
705
102
{ACAD_XDICTIONARY
360
772
102
}
102
{ACAD_REACTORS
330
6F0
102
}
330
6F0
100
AcDbVisualStyle
  2
Shaded
 70
    27
 71
     2
 72
     2
 73
     1
 90
        2
 40
-0.6
 41
30.0
 62
     5
 63
     7
 74
     0
 91
        4
 64
     7
 65
   257
 75
     1
175
     1
 42
1.0
 92
        8
 66
   257
 43
1.0
 76
     1
 77
     6
 78
     2
 67
     8
 79
     3
170
     0
171
     0
290
     0
174
     0
 93
        5
 44
0.0
173
     0
291
     0
 45
0.0
1001
ACAD
1000
AcDbSavedByObjectVersion
1070
     0
  0
VISUALSTYLE
  5
704
102
{ACAD_XDICTIONARY
360
770
102
}
102
{ACAD_REACTORS
330
6F0
102
}
330
6F0
100
AcDbVisualStyle
  2
Shaded with edges
 70
    26
 71
     2
 72
     2
 73
     1
 90
        2
 40
-0.6
 41
30.0
 62
     5
 63
     7
 74
     1
 91
       10
 64
     7
 65
   257
 75
     2
175
     1
 42
1.0
 92
        8
 66
   257
 43
1.0
 76
     1
 77
     6
 78
     2
 67
     7
 79
     3
170
     0
171
     0
290
     0
174
     0
 93
        5
 44
0.0
173
     0
291
     0
 45
0.0
1001
ACAD
1000
AcDbSavedByObjectVersion
1070
     0
  0
VISUALSTYLE
  5
701
102
{ACAD_XDICTIONARY
360
76A
102
}
102
{ACAD_REACTORS
330
6F0
102
}
330
6F0
100
AcDbVisualStyle
  2
Shades of Gray
 70
    23
 71
     2
 72
     2
 73
     3
 90
        0
 40
-0.6
 41
-30.0
 62
     5
 63
     7
 74
     2
 91
        2
 64
     7
 65
     7
 75
     1
175
     1
 42
40.0
 92
        8
 66
     7
 43
1.0
 76
     1
 77
     6
 78
     2
 67
     7
 79
     3
170
     0
171
     0
290
     0
174
     0
 93
        1
 44
0.0
173
     0
291
     0
 45
0.0
1001
ACAD
1000
AcDbSavedByObjectVersion
1070
     0
  0
VISUALSTYLE
  5
702
102
{ACAD_XDICTIONARY
360
76C
102
}
102
{ACAD_REACTORS
330
6F0
102
}
330
6F0
100
AcDbVisualStyle
  2
Sketchy
 70
    24
 71
     1
 72
     2
 73
     2
 90
        0
 40
-0.6
 41
-30.0
 62
     5
 63
     7
 74
     2
 91
        2
 64
     7
 65
     7
 75
     1
175
     1
 42
40.0
 92
       11
 66
     7
 43
1.0
 76
     1
 77
     6
 78
     2
 67
     7
 79
     6
170
     0
171
     0
290
     0
174
     0
 93
        1
 44
0.0
173
     0
291
     0
 45
0.0
1001
ACAD
1000
AcDbSavedByObjectVersion
1070
     0
  0
VISUALSTYLE
  5
6FD
102
{ACAD_XDICTIONARY
360
762
102
}
102
{ACAD_REACTORS
330
6F0
102
}
330
6F0
100
AcDbVisualStyle
  2
Thicken
 70
    13
 71
     2
 72
     2
 73
     0
 90
        0
 40
-0.6
 41
-30.0
 62
     5
 63
     7
 74
     1
 91
        4
 64
     7
 65
   257
 75
     1
175
     1
 42
1.0
 92
       12
 66
     7
 43
1.0
 76
     1
 77
     6
 78
     2
 67
     7
 79
     5
170
     0
171
     0
290
     0
174
     0
 93
        1
 44
0.0
173
     0
291
     1
 45
0.0
1001
ACAD
1000
AcDbSavedByObjectVersion
1070
     0
  0
VISUALSTYLE
  5
6F7
102
{ACAD_XDICTIONARY
360
756
102
}
102
{ACAD_REACTORS
330
6F0
102
}
330
6F0
100
AcDbVisualStyle
  2
Wireframe
 70
     5
 71
     0
 72
     2
 73
     0
 90
        0
 40
-0.6
 41
-30.0
 62
     5
 63
     7
 74
     1
 91
        4
 64
     7
 65
   257
 75
     1
175
     1
 42
1.0
 92
        0
 66
   257
 43
1.0
 76
     1
 77
     6
 78
     2
 67
     7
 79
     3
170
     0
171
     0
290
     0
174
     0
 93
        1
 44
0.0
173
     0
291
     0
 45
0.0
1001
ACAD
1000
AcDbSavedByObjectVersion
1070
     0
  0
VISUALSTYLE
  5
703
102
{ACAD_XDICTIONARY
360
76E
102
}
102
{ACAD_REACTORS
330
6F0
102
}
330
6F0
100
AcDbVisualStyle
  2
X-Ray
 70
    25
 71
     2
 72
     2
 73
     1
 90
        1
 40
0.5
 41
-30.0
 62
     5
 63
     7
 74
     1
 91
        0
 64
     7
 65
   257
 75
     1
175
     1
 42
1.0
 92
        8
 66
     7
 43
1.0
 76
     1
 77
     6
 78
     2
 67
     7
 79
     3
170
     0
171
     0
290
     0
174
     0
 93
       13
 44
0.0
173
     0
291
     0
 45
0.0
1001
ACAD
1000
AcDbSavedByObjectVersion
1070
     0
  0
DICTIONARYVAR
  5
73D
102
{ACAD_REACTORS
330
738
102
}
330
738
100
DictionaryVariables
280
     0
  1
1:1
  0
DICTIONARYVAR
  5
73A
102
{ACAD_REACTORS
330
738
102
}
330
738
100
DictionaryVariables
280
     0
  1
STANDARD
  0
DICTIONARYVAR
  5
739
102
{ACAD_REACTORS
330
738
102
}
330
738
100
DictionaryVariables
280
     0
  1
STANDARD
  0
DICTIONARYVAR
  5
73B
102
{ACAD_REACTORS
330
738
102
}
330
738
100
DictionaryVariables
280
     0
  1
Imperial24
  0
DICTIONARYVAR
  5
73C
102
{ACAD_REACTORS
330
738
102
}
330
738
100
DictionaryVariables
280
     0
  1
Imperial24
  0
DICTIONARYVAR
  5
740
102
{ACAD_REACTORS
330
738
102
}
330
738
100
DictionaryVariables
280
     0
  1
1
  0
DICTIONARYVAR
  5
73F
102
{ACAD_REACTORS
330
738
102
}
330
738
100
DictionaryVariables
280
     0
  1
0
  0
DICTIONARYVAR
  5
73E
102
{ACAD_REACTORS
330
738
102
}
330
738
100
DictionaryVariables
280
     0
  1
127
  0
DICTIONARYVAR
  5
741
102
{ACAD_REACTORS
330
738
102
}
330
738
100
DictionaryVariables
280
     0
  1
2
  0
DICTIONARY
  5
77E
330
723
100
AcDbDictionary
280
     1
281
     1
  3
ACAD_XREC_ROUNDTRIP
360
77F
  0
DICTIONARY
  5
780
330
724
100
AcDbDictionary
280
     1
281
     1
  3
ACAD_XREC_ROUNDTRIP
360
781
  0
DICTIONARY
  5
782
330
725
100
AcDbDictionary
280
     1
281
     1
  3
ACAD_XREC_ROUNDTRIP
360
783
  0
DICTIONARY
  5
6E1
330
6E0
100
AcDbDictionary
280
     1
281
     1
  3
ACAD_XREC_ROUNDTRIP
360
748
  3
BUMPTILE
360
6E3
  3
DIFFUSETILE
360
6E2
  3
OPACITYTILE
360
6E6
  3
REFLECTIONTILE
360
6E5
  3
REFRACTIONTILE
360
6E7
  3
SPECULARTILE
360
6E4
  0
DICTIONARY
  5
6D9
330
6D8
100
AcDbDictionary
280
     1
281
     1
  3
ACAD_XREC_ROUNDTRIP
360
747
  3
BUMPTILE
360
6DB
  3
DIFFUSETILE
360
6DA
  3
OPACITYTILE
360
6DE
  3
REFLECTIONTILE
360
6DD
  3
REFRACTIONTILE
360
6DF
  3
SPECULARTILE
360
6DC
  0
DICTIONARY
  5
6E9
330
6E8
100
AcDbDictionary
280
     1
281
     1
  3
ACAD_XREC_ROUNDTRIP
360
749
  3
BUMPTILE
360
6EB
  3
DIFFUSETILE
360
6EA
  3
OPACITYTILE
360
6EE
  3
REFLECTIONTILE
360
6ED
  3
REFRACTIONTILE
360
6EF
  3
SPECULARTILE
360
6EC
  0
DICTIONARY
  5
77C
330
721
100
AcDbDictionary
280
     1
281
     1
  3
ACAD_XREC_ROUNDTRIP
360
77D
  0
DICTIONARY
  5
743
330
70B
100
AcDbDictionary
280
     1
281
     1
  3
ACAD_ROUNDTRIP_2008_TABLESTYLE_CELLSTYLEMAP
360
744
  3
ACAD_XREC_ROUNDTRIP
360
77A
  0
DICTIONARY
  5
754
330
6F6
100
AcDbDictionary
280
     1
281
     1
  3
ACAD_XREC_ROUNDTRIP
360
755
  0
DICTIONARY
  5
752
330
6F5
100
AcDbDictionary
280
     1
281
     1
  3
ACAD_XREC_ROUNDTRIP
360
753
  0
DICTIONARY
  5
760
330
6FC
100
AcDbDictionary
280
     1
281
     1
  3
ACAD_XREC_ROUNDTRIP
360
761
  0
DICTIONARY
  5
768
330
700
100
AcDbDictionary
280
     1
281
     1
  3
ACAD_XREC_ROUNDTRIP
360
769
  0
DICTIONARY
  5
75A
330
6F9
100
AcDbDictionary
280
     1
281
     1
  3
ACAD_XREC_ROUNDTRIP
360
75B
  0
DICTIONARY
  5
75E
330
6FB
100
AcDbDictionary
280
     1
281
     1
  3
ACAD_XREC_ROUNDTRIP
360
75F
  0
DICTIONARY
  5
778
330
708
100
AcDbDictionary
280
     1
281
     1
  3
ACAD_XREC_ROUNDTRIP
360
779
  0
DICTIONARY
  5
766
330
6FF
100
AcDbDictionary
280
     1
281
     1
  3
ACAD_XREC_ROUNDTRIP
360
767
  0
DICTIONARY
  5
74A
330
6F1
100
AcDbDictionary
280
     1
281
     1
  3
ACAD_XREC_ROUNDTRIP
360
74B
  0
DICTIONARY
  5
74C
330
6F2
100
AcDbDictionary
280
     1
281
     1
  3
ACAD_XREC_ROUNDTRIP
360
74D
  0
DICTIONARY
  5
74E
330
6F3
100
AcDbDictionary
280
     1
281
     1
  3
ACAD_XREC_ROUNDTRIP
360
74F
  0
DICTIONARY
  5
750
330
6F4
100
AcDbDictionary
280
     1
281
     1
  3
ACAD_XREC_ROUNDTRIP
360
751
  0
DICTIONARY
  5
758
330
6F8
100
AcDbDictionary
280
     1
281
     1
  3
ACAD_XREC_ROUNDTRIP
360
759
  0
DICTIONARY
  5
774
330
706
100
AcDbDictionary
280
     1
281
     1
  3
ACAD_XREC_ROUNDTRIP
360
775
  0
DICTIONARY
  5
764
330
6FE
100
AcDbDictionary
280
     1
281
     1
  3
ACAD_XREC_ROUNDTRIP
360
765
  0
DICTIONARY
  5
776
330
707
100
AcDbDictionary
280
     1
281
     1
  3
ACAD_XREC_ROUNDTRIP
360
777
  0
DICTIONARY
  5
75C
330
6FA
100
AcDbDictionary
280
     1
281
     1
  3
ACAD_XREC_ROUNDTRIP
360
75D
  0
DICTIONARY
  5
772
330
705
100
AcDbDictionary
280
     1
281
     1
  3
ACAD_XREC_ROUNDTRIP
360
773
  0
DICTIONARY
  5
770
330
704
100
AcDbDictionary
280
     1
281
     1
  3
ACAD_XREC_ROUNDTRIP
360
771
  0
DICTIONARY
  5
76A
330
701
100
AcDbDictionary
280
     1
281
     1
  3
ACAD_XREC_ROUNDTRIP
360
76B
  0
DICTIONARY
  5
76C
330
702
100
AcDbDictionary
280
     1
281
     1
  3
ACAD_XREC_ROUNDTRIP
360
76D
  0
DICTIONARY
  5
762
330
6FD
100
AcDbDictionary
280
     1
281
     1
  3
ACAD_XREC_ROUNDTRIP
360
763
  0
DICTIONARY
  5
756
330
6F7
100
AcDbDictionary
280
     1
281
     1
  3
ACAD_XREC_ROUNDTRIP
360
757
  0
DICTIONARY
  5
76E
330
703
100
AcDbDictionary
280
     1
281
     1
  3
ACAD_XREC_ROUNDTRIP
360
76F
  0
XRECORD
  5
77F
102
{ACAD_REACTORS
330
77E
102
}
330
77E
100
AcDbXrecord
280
     1
102
DISPLAYNAME
  1
Imperial24
102
FLAGS
 90
        0
  0
XRECORD
  5
781
102
{ACAD_REACTORS
330
780
102
}
330
780
100
AcDbXrecord
280
     1
102
SHADEPLOT
 70
     0
102
SHADEPLOTRESLEVEL
 70
     2
102
SHADEPLOTCUSTOMDPI
 70
   300
  0
XRECORD
  5
783
102
{ACAD_REACTORS
330
782
102
}
330
782
100
AcDbXrecord
280
     1
102
SHADEPLOT
 70
     0
102
SHADEPLOTRESLEVEL
 70
     2
102
SHADEPLOTCUSTOMDPI
 70
   300
  0
XRECORD
  5
748
102
{ACAD_REACTORS
330
6E1
102
}
330
6E1
100
AcDbXrecord
280
     1
102
MATERIAL
148
0.0
149
0.0
149
0.0
 93
        0
 94
      127
282
     0
 72
     0
 77
     0
171
     0
175
     0
179
     0
273
     0
  0
XRECORD
  5
6E3
102
{ACAD_REACTORS
330
6E1
102
}
330
6E1
100
AcDbXrecord
280
     1
270
     1
271
     1
  0
XRECORD
  5
6E2
102
{ACAD_REACTORS
330
6E1
102
}
330
6E1
100
AcDbXrecord
280
     1
270
     1
271
     1
  0
XRECORD
  5
6E6
102
{ACAD_REACTORS
330
6E1
102
}
330
6E1
100
AcDbXrecord
280
     1
270
     1
271
     1
  0
XRECORD
  5
6E5
102
{ACAD_REACTORS
330
6E1
102
}
330
6E1
100
AcDbXrecord
280
     1
270
     1
271
     1
  0
XRECORD
  5
6E7
102
{ACAD_REACTORS
330
6E1
102
}
330
6E1
100
AcDbXrecord
280
     1
270
     1
271
     1
  0
XRECORD
  5
6E4
102
{ACAD_REACTORS
330
6E1
102
}
330
6E1
100
AcDbXrecord
280
     1
270
     1
271
     1
  0
XRECORD
  5
747
102
{ACAD_REACTORS
330
6D9
102
}
330
6D9
100
AcDbXrecord
280
     1
102
MATERIAL
148
0.0
149
0.0
149
0.0
 93
        0
 94
      127
282
     0
 72
     0
 77
     0
171
     0
175
     0
179
     0
273
     0
  0
XRECORD
  5
6DB
102
{ACAD_REACTORS
330
6D9
102
}
330
6D9
100
AcDbXrecord
280
     1
270
     1
271
     1
  0
XRECORD
  5
6DA
102
{ACAD_REACTORS
330
6D9
102
}
330
6D9
100
AcDbXrecord
280
     1
270
     1
271
     1
  0
XRECORD
  5
6DE
102
{ACAD_REACTORS
330
6D9
102
}
330
6D9
100
AcDbXrecord
280
     1
270
     1
271
     1
  0
XRECORD
  5
6DD
102
{ACAD_REACTORS
330
6D9
102
}
330
6D9
100
AcDbXrecord
280
     1
270
     1
271
     1
  0
XRECORD
  5
6DF
102
{ACAD_REACTORS
330
6D9
102
}
330
6D9
100
AcDbXrecord
280
     1
270
     1
271
     1
  0
XRECORD
  5
6DC
102
{ACAD_REACTORS
330
6D9
102
}
330
6D9
100
AcDbXrecord
280
     1
270
     1
271
     1
  0
XRECORD
  5
749
102
{ACAD_REACTORS
330
6E9
102
}
330
6E9
100
AcDbXrecord
280
     1
102
MATERIAL
148
0.0
149
0.0
149
0.0
 93
        0
 94
      127
282
     0
 72
     0
 77
     0
171
     0
175
     0
179
     0
273
     0
  0
XRECORD
  5
6EB
102
{ACAD_REACTORS
330
6E9
102
}
330
6E9
100
AcDbXrecord
280
     1
270
     1
271
     1
  0
XRECORD
  5
6EA
102
{ACAD_REACTORS
330
6E9
102
}
330
6E9
100
AcDbXrecord
280
     1
270
     1
271
     1
  0
XRECORD
  5
6EE
102
{ACAD_REACTORS
330
6E9
102
}
330
6E9
100
AcDbXrecord
280
     1
270
     1
271
     1
  0
XRECORD
  5
6ED
102
{ACAD_REACTORS
330
6E9
102
}
330
6E9
100
AcDbXrecord
280
     1
270
     1
271
     1
  0
XRECORD
  5
6EF
102
{ACAD_REACTORS
330
6E9
102
}
330
6E9
100
AcDbXrecord
280
     1
270
     1
271
     1
  0
XRECORD
  5
6EC
102
{ACAD_REACTORS
330
6E9
102
}
330
6E9
100
AcDbXrecord
280
     1
270
     1
271
     1
  0
XRECORD
  5
77D
102
{ACAD_REACTORS
330
77C
102
}
330
77C
100
AcDbXrecord
280
     1
102
DISPLAYNAME
  1
Imperial24
102
FLAGS
 90
        0
  0
CELLSTYLEMAP
  5
744
102
{ACAD_REACTORS
330
743
102
}
330
743
100
AcDbCellStyleMap
 90
        3
300
CELLSTYLE
  1
TABLEFORMAT_BEGIN
 90
        5
170
     1
 91
        0
 92
    32768
 62
   257
 93
        1
300
CONTENTFORMAT
  1
CONTENTFORMAT_BEGIN
 90
        0
 91
        0
 92
      512
 93
        0
300

 40
0.0
140
1.0
 94
        5
 62
     0
340
278
144
0.25
309
CONTENTFORMAT_END
171
     0
 94
        0
309
TABLEFORMAT_END
  1
CELLSTYLE_BEGIN
 90
        1
 91
        1
300
_TITLE
309
CELLSTYLE_END
300
CELLSTYLE
  1
TABLEFORMAT_BEGIN
 90
        5
170
     1
 91
        0
 92
        0
 62
   257
 93
        1
300
CONTENTFORMAT
  1
CONTENTFORMAT_BEGIN
 90
        0
 91
        0
 92
      512
 93
        0
300

 40
0.0
140
1.0
 94
        5
 62
     0
340
278
144
0.18
309
CONTENTFORMAT_END
171
     0
 94
        0
309
TABLEFORMAT_END
  1
CELLSTYLE_BEGIN
 90
        2
 91
        1
300
_HEADER
309
CELLSTYLE_END
300
CELLSTYLE
  1
TABLEFORMAT_BEGIN
 90
        5
170
     1
 91
        0
 92
        0
 62
   257
 93
        1
300
CONTENTFORMAT
  1
CONTENTFORMAT_BEGIN
 90
        0
 91
        0
 92
      512
 93
        0
300

 40
0.0
140
1.0
 94
        2
 62
     0
340
278
144
0.18
309
CONTENTFORMAT_END
171
     0
 94
        0
309
TABLEFORMAT_END
  1
CELLSTYLE_BEGIN
 90
        3
 91
        2
300
_DATA
309
CELLSTYLE_END
  0
XRECORD
  5
77A
102
{ACAD_REACTORS
330
743
102
}
330
743
100
AcDbXrecord
280
     1
102
ACAD_ROUNDTRIP_PRE2007_TABLESTYLE
 90
      512
 91
        0
  1

 92
      512
 93
        0
  2

 94
      512
 95
        0
  3

  0
XRECORD
  5
755
102
{ACAD_REACTORS
330
754
102
}
330
754
100
AcDbXrecord
280
     1
102
RTVSPost2010Prop28
280
     1
102
RTVSPost2010PropOp28
 70
     1
102
RTVSPost2010Prop29
280
     1
102
RTVSPost2010PropOp29
 70
     1
102
RTVSPost2010Prop30
280
     0
102
RTVSPost2010PropOp30
 70
     1
102
RTVSPost2010Prop31
280
     0
102
RTVSPost2010PropOp31
 70
     1
102
RTVSPost2010Prop32
280
     0
102
RTVSPost2010PropOp32
 70
     1
102
RTVSPost2010Prop33
280
     0
102
RTVSPost2010PropOp33
 70
     1
102
RTVSPost2010Prop34
280
     0
102
RTVSPost2010PropOp34
 70
     1
102
RTVSPost2010Prop35
280
     0
102
RTVSPost2010PropOp35
 70
     1
102
RTVSPost2010Prop36
280
     0
102
RTVSPost2010PropOp36
 70
     1
102
RTVSPost2010Prop37
 90
       50
102
RTVSPost2010PropOp37
 70
     1
102
RTVSPost2010Prop38
140
0.0
102
RTVSPost2010PropOp38
 70
     1
102
RTVSPost2010Prop39
140
1.0
102
RTVSPost2010PropOp39
 70
     1
102
RTVSPost2010Prop40
 90
        0
102
RTVSPost2010PropOp40
 70
     1
102
RTVSPost2010Prop41ColorIndex
 90
       18
102
RTVSPost2010Prop41ColorRGB
 90
        0
102
RTVSPost2010PropOp41
 70
     1
102
RTVSPost2010Prop42
 90
       50
102
RTVSPost2010PropOp42
 70
     1
102
RTVSPost2010Prop43
 90
        3
102
RTVSPost2010PropOp43
 70
     1
102
RTVSPost2010Prop44ColorIndex
 90
        5
102
RTVSPost2010Prop44ColorRGB
 90
      255
102
RTVSPost2010PropOp44
 70
     1
102
RTVSPost2010Prop45
280
     0
102
RTVSPost2010PropOp45
 70
     1
102
RTVSPost2010Prop46
 90
       50
102
RTVSPost2010PropOp46
 70
     1
102
RTVSPost2010Prop47
 90
       50
102
RTVSPost2010PropOp47
 70
     1
102
RTVSPost2010Prop48
 90
       50
102
RTVSPost2010PropOp48
 70
     1
102
RTVSPost2010Prop49
280
     0
102
RTVSPost2010PropOp49
 70
     1
102
RTVSPost2010Prop50
 90
       50
102
RTVSPost2010PropOp50
 70
     1
102
RTVSPost2010Prop51ColorIndex
 90
      256
102
RTVSPost2010Prop51ColorRGB
 90
-16777216
102
RTVSPost2010PropOp51
 70
     0
102
RTVSPost2010Prop52
140
1.0
102
RTVSPost2010PropOp52
 70
     0
102
RTVSPost2010Prop53
 90
        2
102
RTVSPost2010PropOp53
 70
     1
102
RTVSPost2010Prop54
  1
strokes_ogs.tif
102
RTVSPost2010PropOp54
 70
     1
102
RTVSPost2010Prop55
280
     0
102
RTVSPost2010PropOp55
 70
     1
102
RTVSPost2010Prop56
140
1.0
102
RTVSPost2010PropOp56
 70
     1
102
RTVSPost2010Prop57
140
1.0
102
RTVSPost2010PropOp57
 70
     1
102
RTVSPropertyOp0
 70
     1
102
RTVSPropertyOp1
 70
     1
102
RTVSPropertyOp2
 70
     1
102
RTVSPropertyOp3
 70
     1
102
RTVSPropertyOp4
 70
     1
102
RTVSPropertyOp5
 70
     1
102
RTVSPropertyOp6
 70
     1
102
RTVSPropertyOp7
 70
     1
102
RTVSPropertyOp8
 70
     1
102
RTVSPropertyOp9
 70
     1
102
RTVSPropertyOp10
 70
     1
102
RTVSPropertyOp11
 70
     1
102
RTVSPropertyOp12
 70
     1
102
RTVSPropertyOp13
 70
     1
102
RTVSPropertyOp14
 70
     1
102
RTVSPropertyOp15
 70
     1
102
RTVSPropertyOp16
 70
     1
102
RTVSPropertyOp17
 70
     1
102
RTVSPropertyOp18
 70
     1
102
RTVSPropertyOp19
 70
     1
102
RTVSPropertyOp20
 70
     1
102
RTVSPropertyOp21
 70
     1
102
RTVSPropertyOp22
 70
     1
102
RTVSPropertyOp23
 70
     1
102
RTVSPropertyOp24
 70
     1
102
RTVSPropertyOp25
 70
     1
102
RTVSPropertyOp26
 70
     1
102
RTVSPropertyOp27
 70
     1
102
RTVSPropertyOp28
 70
     1
102
RTVSPropertyOp29
 70
     1
102
RTVSPropertyOp30
 70
     1
102
RTVSPropertyOp31
 70
     1
102
RTVSPropertyOp32
 70
     1
102
RTVSPropertyOp33
 70
     1
102
RTVSPropertyOp34
 70
     1
102
RTVSPropertyOp35
 70
     1
102
RTVSPropertyOp36
 70
     1
102
RTVSPropertyOp37
 70
     1
102
RTVSPropertyOp38
 70
     1
102
RTVSPropertyOp39
 70
     1
102
RTVSPropertyOp40
 70
     1
102
RTVSPropertyOp41
 70
     1
102
RTVSPropertyOp42
 70
     1
102
RTVSPropertyOp43
 70
     1
102
RTVSPropertyOp44
 70
     1
102
RTVSPropertyOp45
 70
     1
102
RTVSPropertyOp46
 70
     1
102
RTVSPropertyOp47
 70
     1
102
RTVSPropertyOp48
 70
     1
102
RTVSPropertyOp49
 70
     1
102
RTVSPropertyOp50
 70
     1
102
RTVSPropertyOp51
 70
     0
102
RTVSPropertyOp52
 70
     0
102
RTVSPropertyOp53
 70
     1
102
RTVSPropertyOp54
 70
     1
102
RTVSPropertyOp55
 70
     1
102
RTVSPropertyOp56
 70
     1
102
RTVSPropertyOp57
 70
     1
102
RTVSPropertyOp58
 70
     1
102
RTVSPropertyOp59
 70
     1
102
RTVSPropertyOp60
 70
     1
102
RTVSPropertyOp61
 70
     1
102
RTVSPropertyOp62
 70
     1
  0
XRECORD
  5
753
102
{ACAD_REACTORS
330
752
102
}
330
752
100
AcDbXrecord
280
     1
102
RTVSPost2010Prop28
280
     0
102
RTVSPost2010PropOp28
 70
     1
102
RTVSPost2010Prop29
280
     1
102
RTVSPost2010PropOp29
 70
     1
102
RTVSPost2010Prop30
280
     1
102
RTVSPost2010PropOp30
 70
     1
102
RTVSPost2010Prop31
280
     0
102
RTVSPost2010PropOp31
 70
     1
102
RTVSPost2010Prop32
280
     0
102
RTVSPost2010PropOp32
 70
     1
102
RTVSPost2010Prop33
280
     0
102
RTVSPost2010PropOp33
 70
     1
102
RTVSPost2010Prop34
280
     0
102
RTVSPost2010PropOp34
 70
     1
102
RTVSPost2010Prop35
280
     0
102
RTVSPost2010PropOp35
 70
     1
102
RTVSPost2010Prop36
280
     0
102
RTVSPost2010PropOp36
 70
     1
102
RTVSPost2010Prop37
 90
       50
102
RTVSPost2010PropOp37
 70
     1
102
RTVSPost2010Prop38
140
0.0
102
RTVSPost2010PropOp38
 70
     1
102
RTVSPost2010Prop39
140
1.0
102
RTVSPost2010PropOp39
 70
     1
102
RTVSPost2010Prop40
 90
        0
102
RTVSPost2010PropOp40
 70
     1
102
RTVSPost2010Prop41ColorIndex
 90
       18
102
RTVSPost2010Prop41ColorRGB
 90
        0
102
RTVSPost2010PropOp41
 70
     1
102
RTVSPost2010Prop42
 90
       50
102
RTVSPost2010PropOp42
 70
     1
102
RTVSPost2010Prop43
 90
        3
102
RTVSPost2010PropOp43
 70
     1
102
RTVSPost2010Prop44ColorIndex
 90
        5
102
RTVSPost2010Prop44ColorRGB
 90
      255
102
RTVSPost2010PropOp44
 70
     1
102
RTVSPost2010Prop45
280
     0
102
RTVSPost2010PropOp45
 70
     1
102
RTVSPost2010Prop46
 90
       50
102
RTVSPost2010PropOp46
 70
     1
102
RTVSPost2010Prop47
 90
       50
102
RTVSPost2010PropOp47
 70
     1
102
RTVSPost2010Prop48
 90
       50
102
RTVSPost2010PropOp48
 70
     1
102
RTVSPost2010Prop49
280
     0
102
RTVSPost2010PropOp49
 70
     1
102
RTVSPost2010Prop50
 90
       50
102
RTVSPost2010PropOp50
 70
     1
102
RTVSPost2010Prop51ColorIndex
 90
      256
102
RTVSPost2010Prop51ColorRGB
 90
-16777216
102
RTVSPost2010PropOp51
 70
     0
102
RTVSPost2010Prop52
140
1.0
102
RTVSPost2010PropOp52
 70
     0
102
RTVSPost2010Prop53
 90
        2
102
RTVSPost2010PropOp53
 70
     1
102
RTVSPost2010Prop54
  1
strokes_ogs.tif
102
RTVSPost2010PropOp54
 70
     1
102
RTVSPost2010Prop55
280
     0
102
RTVSPost2010PropOp55
 70
     1
102
RTVSPost2010Prop56
140
1.0
102
RTVSPost2010PropOp56
 70
     1
102
RTVSPost2010Prop57
140
1.0
102
RTVSPost2010PropOp57
 70
     1
102
RTVSPropertyOp0
 70
     1
102
RTVSPropertyOp1
 70
     1
102
RTVSPropertyOp2
 70
     1
102
RTVSPropertyOp3
 70
     1
102
RTVSPropertyOp4
 70
     1
102
RTVSPropertyOp5
 70
     1
102
RTVSPropertyOp6
 70
     1
102
RTVSPropertyOp7
 70
     1
102
RTVSPropertyOp8
 70
     1
102
RTVSPropertyOp9
 70
     1
102
RTVSPropertyOp10
 70
     1
102
RTVSPropertyOp11
 70
     1
102
RTVSPropertyOp12
 70
     1
102
RTVSPropertyOp13
 70
     1
102
RTVSPropertyOp14
 70
     1
102
RTVSPropertyOp15
 70
     1
102
RTVSPropertyOp16
 70
     1
102
RTVSPropertyOp17
 70
     1
102
RTVSPropertyOp18
 70
     1
102
RTVSPropertyOp19
 70
     1
102
RTVSPropertyOp20
 70
     1
102
RTVSPropertyOp21
 70
     1
102
RTVSPropertyOp22
 70
     1
102
RTVSPropertyOp23
 70
     1
102
RTVSPropertyOp24
 70
     1
102
RTVSPropertyOp25
 70
     1
102
RTVSPropertyOp26
 70
     1
102
RTVSPropertyOp27
 70
     1
102
RTVSPropertyOp28
 70
     1
102
RTVSPropertyOp29
 70
     1
102
RTVSPropertyOp30
 70
     1
102
RTVSPropertyOp31
 70
     1
102
RTVSPropertyOp32
 70
     1
102
RTVSPropertyOp33
 70
     1
102
RTVSPropertyOp34
 70
     1
102
RTVSPropertyOp35
 70
     1
102
RTVSPropertyOp36
 70
     1
102
RTVSPropertyOp37
 70
     1
102
RTVSPropertyOp38
 70
     1
102
RTVSPropertyOp39
 70
     1
102
RTVSPropertyOp40
 70
     1
102
RTVSPropertyOp41
 70
     1
102
RTVSPropertyOp42
 70
     1
102
RTVSPropertyOp43
 70
     1
102
RTVSPropertyOp44
 70
     1
102
RTVSPropertyOp45
 70
     1
102
RTVSPropertyOp46
 70
     1
102
RTVSPropertyOp47
 70
     1
102
RTVSPropertyOp48
 70
     1
102
RTVSPropertyOp49
 70
     1
102
RTVSPropertyOp50
 70
     1
102
RTVSPropertyOp51
 70
     0
102
RTVSPropertyOp52
 70
     0
102
RTVSPropertyOp53
 70
     1
102
RTVSPropertyOp54
 70
     1
102
RTVSPropertyOp55
 70
     1
102
RTVSPropertyOp56
 70
     1
102
RTVSPropertyOp57
 70
     1
102
RTVSPropertyOp58
 70
     1
102
RTVSPropertyOp59
 70
     1
102
RTVSPropertyOp60
 70
     1
102
RTVSPropertyOp61
 70
     1
102
RTVSPropertyOp62
 70
     1
  0
XRECORD
  5
761
102
{ACAD_REACTORS
330
760
102
}
330
760
100
AcDbXrecord
280
     1
102
RTVSPost2010Prop28
280
     0
102
RTVSPost2010PropOp28
 70
     1
102
RTVSPost2010Prop29
280
     1
102
RTVSPost2010PropOp29
 70
     1
102
RTVSPost2010Prop30
280
     1
102
RTVSPost2010PropOp30
 70
     1
102
RTVSPost2010Prop31
280
     0
102
RTVSPost2010PropOp31
 70
     1
102
RTVSPost2010Prop32
280
     0
102
RTVSPost2010PropOp32
 70
     1
102
RTVSPost2010Prop33
280
     0
102
RTVSPost2010PropOp33
 70
     1
102
RTVSPost2010Prop34
280
     0
102
RTVSPost2010PropOp34
 70
     1
102
RTVSPost2010Prop35
280
     0
102
RTVSPost2010PropOp35
 70
     1
102
RTVSPost2010Prop36
280
     0
102
RTVSPost2010PropOp36
 70
     1
102
RTVSPost2010Prop37
 90
       50
102
RTVSPost2010PropOp37
 70
     1
102
RTVSPost2010Prop38
140
0.0
102
RTVSPost2010PropOp38
 70
     1
102
RTVSPost2010Prop39
140
1.0
102
RTVSPost2010PropOp39
 70
     1
102
RTVSPost2010Prop40
 90
        0
102
RTVSPost2010PropOp40
 70
     1
102
RTVSPost2010Prop41ColorIndex
 90
       18
102
RTVSPost2010Prop41ColorRGB
 90
        0
102
RTVSPost2010PropOp41
 70
     1
102
RTVSPost2010Prop42
 90
       50
102
RTVSPost2010PropOp42
 70
     1
102
RTVSPost2010Prop43
 90
        3
102
RTVSPost2010PropOp43
 70
     1
102
RTVSPost2010Prop44ColorIndex
 90
        5
102
RTVSPost2010Prop44ColorRGB
 90
      255
102
RTVSPost2010PropOp44
 70
     1
102
RTVSPost2010Prop45
280
     0
102
RTVSPost2010PropOp45
 70
     1
102
RTVSPost2010Prop46
 90
       50
102
RTVSPost2010PropOp46
 70
     1
102
RTVSPost2010Prop47
 90
       50
102
RTVSPost2010PropOp47
 70
     1
102
RTVSPost2010Prop48
 90
       50
102
RTVSPost2010PropOp48
 70
     1
102
RTVSPost2010Prop49
280
     0
102
RTVSPost2010PropOp49
 70
     1
102
RTVSPost2010Prop50
 90
       50
102
RTVSPost2010PropOp50
 70
     1
102
RTVSPost2010Prop51ColorIndex
 90
      256
102
RTVSPost2010Prop51ColorRGB
 90
-16777216
102
RTVSPost2010PropOp51
 70
     0
102
RTVSPost2010Prop52
140
1.0
102
RTVSPost2010PropOp52
 70
     0
102
RTVSPost2010Prop53
 90
        2
102
RTVSPost2010PropOp53
 70
     1
102
RTVSPost2010Prop54
  1
strokes_ogs.tif
102
RTVSPost2010PropOp54
 70
     1
102
RTVSPost2010Prop55
280
     0
102
RTVSPost2010PropOp55
 70
     1
102
RTVSPost2010Prop56
140
1.0
102
RTVSPost2010PropOp56
 70
     1
102
RTVSPost2010Prop57
140
1.0
102
RTVSPost2010PropOp57
 70
     1
102
RTVSPropertyOp0
 70
     1
102
RTVSPropertyOp1
 70
     1
102
RTVSPropertyOp2
 70
     1
102
RTVSPropertyOp3
 70
     1
102
RTVSPropertyOp4
 70
     1
102
RTVSPropertyOp5
 70
     1
102
RTVSPropertyOp6
 70
     1
102
RTVSPropertyOp7
 70
     1
102
RTVSPropertyOp8
 70
     1
102
RTVSPropertyOp9
 70
     1
102
RTVSPropertyOp10
 70
     1
102
RTVSPropertyOp11
 70
     1
102
RTVSPropertyOp12
 70
     1
102
RTVSPropertyOp13
 70
     1
102
RTVSPropertyOp14
 70
     1
102
RTVSPropertyOp15
 70
     1
102
RTVSPropertyOp16
 70
     1
102
RTVSPropertyOp17
 70
     1
102
RTVSPropertyOp18
 70
     1
102
RTVSPropertyOp19
 70
     1
102
RTVSPropertyOp20
 70
     1
102
RTVSPropertyOp21
 70
     1
102
RTVSPropertyOp22
 70
     1
102
RTVSPropertyOp23
 70
     1
102
RTVSPropertyOp24
 70
     1
102
RTVSPropertyOp25
 70
     1
102
RTVSPropertyOp26
 70
     1
102
RTVSPropertyOp27
 70
     1
102
RTVSPropertyOp28
 70
     1
102
RTVSPropertyOp29
 70
     1
102
RTVSPropertyOp30
 70
     1
102
RTVSPropertyOp31
 70
     1
102
RTVSPropertyOp32
 70
     1
102
RTVSPropertyOp33
 70
     1
102
RTVSPropertyOp34
 70
     1
102
RTVSPropertyOp35
 70
     1
102
RTVSPropertyOp36
 70
     1
102
RTVSPropertyOp37
 70
     1
102
RTVSPropertyOp38
 70
     1
102
RTVSPropertyOp39
 70
     1
102
RTVSPropertyOp40
 70
     1
102
RTVSPropertyOp41
 70
     1
102
RTVSPropertyOp42
 70
     1
102
RTVSPropertyOp43
 70
     1
102
RTVSPropertyOp44
 70
     1
102
RTVSPropertyOp45
 70
     1
102
RTVSPropertyOp46
 70
     1
102
RTVSPropertyOp47
 70
     1
102
RTVSPropertyOp48
 70
     1
102
RTVSPropertyOp49
 70
     1
102
RTVSPropertyOp50
 70
     1
102
RTVSPropertyOp51
 70
     0
102
RTVSPropertyOp52
 70
     0
102
RTVSPropertyOp53
 70
     1
102
RTVSPropertyOp54
 70
     1
102
RTVSPropertyOp55
 70
     1
102
RTVSPropertyOp56
 70
     1
102
RTVSPropertyOp57
 70
     1
102
RTVSPropertyOp58
 70
     1
102
RTVSPropertyOp59
 70
     1
102
RTVSPropertyOp60
 70
     1
102
RTVSPropertyOp61
 70
     1
102
RTVSPropertyOp62
 70
     1
  0
XRECORD
  5
769
102
{ACAD_REACTORS
330
768
102
}
330
768
100
AcDbXrecord
280
     1
102
RTVSPost2010Prop28
280
     0
102
RTVSPost2010PropOp28
 70
     1
102
RTVSPost2010Prop29
280
     1
102
RTVSPost2010PropOp29
 70
     1
102
RTVSPost2010Prop30
280
     1
102
RTVSPost2010PropOp30
 70
     1
102
RTVSPost2010Prop31
280
     0
102
RTVSPost2010PropOp31
 70
     1
102
RTVSPost2010Prop32
280
     0
102
RTVSPost2010PropOp32
 70
     1
102
RTVSPost2010Prop33
280
     0
102
RTVSPost2010PropOp33
 70
     1
102
RTVSPost2010Prop34
280
     0
102
RTVSPost2010PropOp34
 70
     1
102
RTVSPost2010Prop35
280
     0
102
RTVSPost2010PropOp35
 70
     1
102
RTVSPost2010Prop36
280
     0
102
RTVSPost2010PropOp36
 70
     1
102
RTVSPost2010Prop37
 90
       50
102
RTVSPost2010PropOp37
 70
     1
102
RTVSPost2010Prop38
140
0.0
102
RTVSPost2010PropOp38
 70
     1
102
RTVSPost2010Prop39
140
1.0
102
RTVSPost2010PropOp39
 70
     1
102
RTVSPost2010Prop40
 90
        0
102
RTVSPost2010PropOp40
 70
     1
102
RTVSPost2010Prop41ColorIndex
 90
       18
102
RTVSPost2010Prop41ColorRGB
 90
        0
102
RTVSPost2010PropOp41
 70
     1
102
RTVSPost2010Prop42
 90
       50
102
RTVSPost2010PropOp42
 70
     1
102
RTVSPost2010Prop43
 90
        3
102
RTVSPost2010PropOp43
 70
     1
102
RTVSPost2010Prop44ColorIndex
 90
        5
102
RTVSPost2010Prop44ColorRGB
 90
      255
102
RTVSPost2010PropOp44
 70
     1
102
RTVSPost2010Prop45
280
     0
102
RTVSPost2010PropOp45
 70
     1
102
RTVSPost2010Prop46
 90
       50
102
RTVSPost2010PropOp46
 70
     1
102
RTVSPost2010Prop47
 90
       50
102
RTVSPost2010PropOp47
 70
     1
102
RTVSPost2010Prop48
 90
       50
102
RTVSPost2010PropOp48
 70
     1
102
RTVSPost2010Prop49
280
     0
102
RTVSPost2010PropOp49
 70
     1
102
RTVSPost2010Prop50
 90
       50
102
RTVSPost2010PropOp50
 70
     1
102
RTVSPost2010Prop51ColorIndex
 90
      256
102
RTVSPost2010Prop51ColorRGB
 90
-16777216
102
RTVSPost2010PropOp51
 70
     0
102
RTVSPost2010Prop52
140
1.0
102
RTVSPost2010PropOp52
 70
     0
102
RTVSPost2010Prop53
 90
        2
102
RTVSPost2010PropOp53
 70
     1
102
RTVSPost2010Prop54
  1
strokes_ogs.tif
102
RTVSPost2010PropOp54
 70
     1
102
RTVSPost2010Prop55
280
     0
102
RTVSPost2010PropOp55
 70
     1
102
RTVSPost2010Prop56
140
1.0
102
RTVSPost2010PropOp56
 70
     1
102
RTVSPost2010Prop57
140
1.0
102
RTVSPost2010PropOp57
 70
     1
102
RTVSPropertyOp0
 70
     1
102
RTVSPropertyOp1
 70
     1
102
RTVSPropertyOp2
 70
     1
102
RTVSPropertyOp3
 70
     1
102
RTVSPropertyOp4
 70
     1
102
RTVSPropertyOp5
 70
     1
102
RTVSPropertyOp6
 70
     1
102
RTVSPropertyOp7
 70
     1
102
RTVSPropertyOp8
 70
     1
102
RTVSPropertyOp9
 70
     1
102
RTVSPropertyOp10
 70
     1
102
RTVSPropertyOp11
 70
     1
102
RTVSPropertyOp12
 70
     1
102
RTVSPropertyOp13
 70
     1
102
RTVSPropertyOp14
 70
     1
102
RTVSPropertyOp15
 70
     1
102
RTVSPropertyOp16
 70
     1
102
RTVSPropertyOp17
 70
     1
102
RTVSPropertyOp18
 70
     1
102
RTVSPropertyOp19
 70
     1
102
RTVSPropertyOp20
 70
     1
102
RTVSPropertyOp21
 70
     1
102
RTVSPropertyOp22
 70
     1
102
RTVSPropertyOp23
 70
     1
102
RTVSPropertyOp24
 70
     1
102
RTVSPropertyOp25
 70
     1
102
RTVSPropertyOp26
 70
     1
102
RTVSPropertyOp27
 70
     1
102
RTVSPropertyOp28
 70
     1
102
RTVSPropertyOp29
 70
     1
102
RTVSPropertyOp30
 70
     1
102
RTVSPropertyOp31
 70
     1
102
RTVSPropertyOp32
 70
     1
102
RTVSPropertyOp33
 70
     1
102
RTVSPropertyOp34
 70
     1
102
RTVSPropertyOp35
 70
     1
102
RTVSPropertyOp36
 70
     1
102
RTVSPropertyOp37
 70
     1
102
RTVSPropertyOp38
 70
     1
102
RTVSPropertyOp39
 70
     1
102
RTVSPropertyOp40
 70
     1
102
RTVSPropertyOp41
 70
     1
102
RTVSPropertyOp42
 70
     1
102
RTVSPropertyOp43
 70
     1
102
RTVSPropertyOp44
 70
     1
102
RTVSPropertyOp45
 70
     1
102
RTVSPropertyOp46
 70
     1
102
RTVSPropertyOp47
 70
     1
102
RTVSPropertyOp48
 70
     1
102
RTVSPropertyOp49
 70
     1
102
RTVSPropertyOp50
 70
     1
102
RTVSPropertyOp51
 70
     0
102
RTVSPropertyOp52
 70
     0
102
RTVSPropertyOp53
 70
     1
102
RTVSPropertyOp54
 70
     1
102
RTVSPropertyOp55
 70
     1
102
RTVSPropertyOp56
 70
     1
102
RTVSPropertyOp57
 70
     1
102
RTVSPropertyOp58
 70
     1
102
RTVSPropertyOp59
 70
     1
102
RTVSPropertyOp60
 70
     1
102
RTVSPropertyOp61
 70
     1
102
RTVSPropertyOp62
 70
     1
  0
XRECORD
  5
75B
102
{ACAD_REACTORS
330
75A
102
}
330
75A
100
AcDbXrecord
280
     1
102
RTVSPost2010Prop28
280
     0
102
RTVSPost2010PropOp28
 70
     1
102
RTVSPost2010Prop29
280
     1
102
RTVSPost2010PropOp29
 70
     1
102
RTVSPost2010Prop30
280
     1
102
RTVSPost2010PropOp30
 70
     1
102
RTVSPost2010Prop31
280
     0
102
RTVSPost2010PropOp31
 70
     1
102
RTVSPost2010Prop32
280
     0
102
RTVSPost2010PropOp32
 70
     1
102
RTVSPost2010Prop33
280
     0
102
RTVSPost2010PropOp33
 70
     1
102
RTVSPost2010Prop34
280
     0
102
RTVSPost2010PropOp34
 70
     1
102
RTVSPost2010Prop35
280
     0
102
RTVSPost2010PropOp35
 70
     1
102
RTVSPost2010Prop36
280
     0
102
RTVSPost2010PropOp36
 70
     1
102
RTVSPost2010Prop37
 90
       50
102
RTVSPost2010PropOp37
 70
     1
102
RTVSPost2010Prop38
140
0.0
102
RTVSPost2010PropOp38
 70
     1
102
RTVSPost2010Prop39
140
1.0
102
RTVSPost2010PropOp39
 70
     1
102
RTVSPost2010Prop40
 90
        0
102
RTVSPost2010PropOp40
 70
     1
102
RTVSPost2010Prop41ColorIndex
 90
       18
102
RTVSPost2010Prop41ColorRGB
 90
        0
102
RTVSPost2010PropOp41
 70
     1
102
RTVSPost2010Prop42
 90
       50
102
RTVSPost2010PropOp42
 70
     1
102
RTVSPost2010Prop43
 90
        3
102
RTVSPost2010PropOp43
 70
     1
102
RTVSPost2010Prop44ColorIndex
 90
        5
102
RTVSPost2010Prop44ColorRGB
 90
      255
102
RTVSPost2010PropOp44
 70
     1
102
RTVSPost2010Prop45
280
     0
102
RTVSPost2010PropOp45
 70
     1
102
RTVSPost2010Prop46
 90
       50
102
RTVSPost2010PropOp46
 70
     1
102
RTVSPost2010Prop47
 90
       50
102
RTVSPost2010PropOp47
 70
     1
102
RTVSPost2010Prop48
 90
       50
102
RTVSPost2010PropOp48
 70
     1
102
RTVSPost2010Prop49
280
     0
102
RTVSPost2010PropOp49
 70
     1
102
RTVSPost2010Prop50
 90
       50
102
RTVSPost2010PropOp50
 70
     1
102
RTVSPost2010Prop51ColorIndex
 90
      256
102
RTVSPost2010Prop51ColorRGB
 90
-16777216
102
RTVSPost2010PropOp51
 70
     0
102
RTVSPost2010Prop52
140
1.0
102
RTVSPost2010PropOp52
 70
     0
102
RTVSPost2010Prop53
 90
        2
102
RTVSPost2010PropOp53
 70
     1
102
RTVSPost2010Prop54
  1
strokes_ogs.tif
102
RTVSPost2010PropOp54
 70
     1
102
RTVSPost2010Prop55
280
     0
102
RTVSPost2010PropOp55
 70
     1
102
RTVSPost2010Prop56
140
1.0
102
RTVSPost2010PropOp56
 70
     1
102
RTVSPost2010Prop57
140
1.0
102
RTVSPost2010PropOp57
 70
     1
102
RTVSPropertyOp0
 70
     1
102
RTVSPropertyOp1
 70
     1
102
RTVSPropertyOp2
 70
     1
102
RTVSPropertyOp3
 70
     1
102
RTVSPropertyOp4
 70
     1
102
RTVSPropertyOp5
 70
     1
102
RTVSPropertyOp6
 70
     1
102
RTVSPropertyOp7
 70
     1
102
RTVSPropertyOp8
 70
     1
102
RTVSPropertyOp9
 70
     1
102
RTVSPropertyOp10
 70
     1
102
RTVSPropertyOp11
 70
     1
102
RTVSPropertyOp12
 70
     1
102
RTVSPropertyOp13
 70
     1
102
RTVSPropertyOp14
 70
     1
102
RTVSPropertyOp15
 70
     1
102
RTVSPropertyOp16
 70
     1
102
RTVSPropertyOp17
 70
     1
102
RTVSPropertyOp18
 70
     1
102
RTVSPropertyOp19
 70
     1
102
RTVSPropertyOp20
 70
     1
102
RTVSPropertyOp21
 70
     1
102
RTVSPropertyOp22
 70
     1
102
RTVSPropertyOp23
 70
     1
102
RTVSPropertyOp24
 70
     1
102
RTVSPropertyOp25
 70
     1
102
RTVSPropertyOp26
 70
     1
102
RTVSPropertyOp27
 70
     1
102
RTVSPropertyOp28
 70
     1
102
RTVSPropertyOp29
 70
     1
102
RTVSPropertyOp30
 70
     1
102
RTVSPropertyOp31
 70
     1
102
RTVSPropertyOp32
 70
     1
102
RTVSPropertyOp33
 70
     1
102
RTVSPropertyOp34
 70
     1
102
RTVSPropertyOp35
 70
     1
102
RTVSPropertyOp36
 70
     1
102
RTVSPropertyOp37
 70
     1
102
RTVSPropertyOp38
 70
     1
102
RTVSPropertyOp39
 70
     1
102
RTVSPropertyOp40
 70
     1
102
RTVSPropertyOp41
 70
     1
102
RTVSPropertyOp42
 70
     1
102
RTVSPropertyOp43
 70
     1
102
RTVSPropertyOp44
 70
     1
102
RTVSPropertyOp45
 70
     1
102
RTVSPropertyOp46
 70
     1
102
RTVSPropertyOp47
 70
     1
102
RTVSPropertyOp48
 70
     1
102
RTVSPropertyOp49
 70
     1
102
RTVSPropertyOp50
 70
     1
102
RTVSPropertyOp51
 70
     0
102
RTVSPropertyOp52
 70
     0
102
RTVSPropertyOp53
 70
     1
102
RTVSPropertyOp54
 70
     1
102
RTVSPropertyOp55
 70
     1
102
RTVSPropertyOp56
 70
     1
102
RTVSPropertyOp57
 70
     1
102
RTVSPropertyOp58
 70
     1
102
RTVSPropertyOp59
 70
     1
102
RTVSPropertyOp60
 70
     1
102
RTVSPropertyOp61
 70
     1
102
RTVSPropertyOp62
 70
     1
  0
XRECORD
  5
75F
102
{ACAD_REACTORS
330
75E
102
}
330
75E
100
AcDbXrecord
280
     1
102
RTVSPost2010Prop28
280
     0
102
RTVSPost2010PropOp28
 70
     1
102
RTVSPost2010Prop29
280
     1
102
RTVSPost2010PropOp29
 70
     1
102
RTVSPost2010Prop30
280
     1
102
RTVSPost2010PropOp30
 70
     1
102
RTVSPost2010Prop31
280
     0
102
RTVSPost2010PropOp31
 70
     1
102
RTVSPost2010Prop32
280
     0
102
RTVSPost2010PropOp32
 70
     1
102
RTVSPost2010Prop33
280
     0
102
RTVSPost2010PropOp33
 70
     1
102
RTVSPost2010Prop34
280
     0
102
RTVSPost2010PropOp34
 70
     1
102
RTVSPost2010Prop35
280
     0
102
RTVSPost2010PropOp35
 70
     1
102
RTVSPost2010Prop36
280
     0
102
RTVSPost2010PropOp36
 70
     1
102
RTVSPost2010Prop37
 90
       50
102
RTVSPost2010PropOp37
 70
     1
102
RTVSPost2010Prop38
140
0.0
102
RTVSPost2010PropOp38
 70
     1
102
RTVSPost2010Prop39
140
1.0
102
RTVSPost2010PropOp39
 70
     1
102
RTVSPost2010Prop40
 90
        0
102
RTVSPost2010PropOp40
 70
     1
102
RTVSPost2010Prop41ColorIndex
 90
       18
102
RTVSPost2010Prop41ColorRGB
 90
        0
102
RTVSPost2010PropOp41
 70
     1
102
RTVSPost2010Prop42
 90
       50
102
RTVSPost2010PropOp42
 70
     1
102
RTVSPost2010Prop43
 90
        3
102
RTVSPost2010PropOp43
 70
     1
102
RTVSPost2010Prop44ColorIndex
 90
        5
102
RTVSPost2010Prop44ColorRGB
 90
      255
102
RTVSPost2010PropOp44
 70
     1
102
RTVSPost2010Prop45
280
     0
102
RTVSPost2010PropOp45
 70
     1
102
RTVSPost2010Prop46
 90
       50
102
RTVSPost2010PropOp46
 70
     1
102
RTVSPost2010Prop47
 90
       50
102
RTVSPost2010PropOp47
 70
     1
102
RTVSPost2010Prop48
 90
       50
102
RTVSPost2010PropOp48
 70
     1
102
RTVSPost2010Prop49
280
     0
102
RTVSPost2010PropOp49
 70
     1
102
RTVSPost2010Prop50
 90
       50
102
RTVSPost2010PropOp50
 70
     1
102
RTVSPost2010Prop51ColorIndex
 90
      256
102
RTVSPost2010Prop51ColorRGB
 90
-16777216
102
RTVSPost2010PropOp51
 70
     0
102
RTVSPost2010Prop52
140
1.0
102
RTVSPost2010PropOp52
 70
     0
102
RTVSPost2010Prop53
 90
        2
102
RTVSPost2010PropOp53
 70
     1
102
RTVSPost2010Prop54
  1
strokes_ogs.tif
102
RTVSPost2010PropOp54
 70
     1
102
RTVSPost2010Prop55
280
     0
102
RTVSPost2010PropOp55
 70
     1
102
RTVSPost2010Prop56
140
1.0
102
RTVSPost2010PropOp56
 70
     1
102
RTVSPost2010Prop57
140
1.0
102
RTVSPost2010PropOp57
 70
     1
102
RTVSPropertyOp0
 70
     1
102
RTVSPropertyOp1
 70
     1
102
RTVSPropertyOp2
 70
     1
102
RTVSPropertyOp3
 70
     1
102
RTVSPropertyOp4
 70
     1
102
RTVSPropertyOp5
 70
     1
102
RTVSPropertyOp6
 70
     1
102
RTVSPropertyOp7
 70
     1
102
RTVSPropertyOp8
 70
     1
102
RTVSPropertyOp9
 70
     1
102
RTVSPropertyOp10
 70
     1
102
RTVSPropertyOp11
 70
     1
102
RTVSPropertyOp12
 70
     1
102
RTVSPropertyOp13
 70
     1
102
RTVSPropertyOp14
 70
     1
102
RTVSPropertyOp15
 70
     1
102
RTVSPropertyOp16
 70
     1
102
RTVSPropertyOp17
 70
     1
102
RTVSPropertyOp18
 70
     1
102
RTVSPropertyOp19
 70
     1
102
RTVSPropertyOp20
 70
     1
102
RTVSPropertyOp21
 70
     1
102
RTVSPropertyOp22
 70
     1
102
RTVSPropertyOp23
 70
     1
102
RTVSPropertyOp24
 70
     1
102
RTVSPropertyOp25
 70
     1
102
RTVSPropertyOp26
 70
     1
102
RTVSPropertyOp27
 70
     1
102
RTVSPropertyOp28
 70
     1
102
RTVSPropertyOp29
 70
     1
102
RTVSPropertyOp30
 70
     1
102
RTVSPropertyOp31
 70
     1
102
RTVSPropertyOp32
 70
     1
102
RTVSPropertyOp33
 70
     1
102
RTVSPropertyOp34
 70
     1
102
RTVSPropertyOp35
 70
     1
102
RTVSPropertyOp36
 70
     1
102
RTVSPropertyOp37
 70
     1
102
RTVSPropertyOp38
 70
     1
102
RTVSPropertyOp39
 70
     1
102
RTVSPropertyOp40
 70
     1
102
RTVSPropertyOp41
 70
     1
102
RTVSPropertyOp42
 70
     1
102
RTVSPropertyOp43
 70
     1
102
RTVSPropertyOp44
 70
     1
102
RTVSPropertyOp45
 70
     1
102
RTVSPropertyOp46
 70
     1
102
RTVSPropertyOp47
 70
     1
102
RTVSPropertyOp48
 70
     1
102
RTVSPropertyOp49
 70
     1
102
RTVSPropertyOp50
 70
     1
102
RTVSPropertyOp51
 70
     0
102
RTVSPropertyOp52
 70
     0
102
RTVSPropertyOp53
 70
     1
102
RTVSPropertyOp54
 70
     1
102
RTVSPropertyOp55
 70
     1
102
RTVSPropertyOp56
 70
     1
102
RTVSPropertyOp57
 70
     1
102
RTVSPropertyOp58
 70
     1
102
RTVSPropertyOp59
 70
     1
102
RTVSPropertyOp60
 70
     1
102
RTVSPropertyOp61
 70
     1
102
RTVSPropertyOp62
 70
     1
  0
XRECORD
  5
779
102
{ACAD_REACTORS
330
778
102
}
330
778
100
AcDbXrecord
280
     1
102
RTVSPost2010Prop28
280
     0
102
RTVSPost2010PropOp28
 70
     1
102
RTVSPost2010Prop29
280
     1
102
RTVSPost2010PropOp29
 70
     1
102
RTVSPost2010Prop30
280
     1
102
RTVSPost2010PropOp30
 70
     1
102
RTVSPost2010Prop31
280
     0
102
RTVSPost2010PropOp31
 70
     1
102
RTVSPost2010Prop32
280
     0
102
RTVSPost2010PropOp32
 70
     1
102
RTVSPost2010Prop33
280
     0
102
RTVSPost2010PropOp33
 70
     1
102
RTVSPost2010Prop34
280
     0
102
RTVSPost2010PropOp34
 70
     1
102
RTVSPost2010Prop35
280
     0
102
RTVSPost2010PropOp35
 70
     1
102
RTVSPost2010Prop36
280
     0
102
RTVSPost2010PropOp36
 70
     1
102
RTVSPost2010Prop37
 90
       50
102
RTVSPost2010PropOp37
 70
     0
102
RTVSPost2010Prop38
140
0.0
102
RTVSPost2010PropOp38
 70
     0
102
RTVSPost2010Prop39
140
1.0
102
RTVSPost2010PropOp39
 70
     0
102
RTVSPost2010Prop40
 90
        0
102
RTVSPost2010PropOp40
 70
     0
102
RTVSPost2010Prop41ColorIndex
 90
       18
102
RTVSPost2010Prop41ColorRGB
 90
        0
102
RTVSPost2010PropOp41
 70
     0
102
RTVSPost2010Prop42
 90
       50
102
RTVSPost2010PropOp42
 70
     0
102
RTVSPost2010Prop43
 90
        3
102
RTVSPost2010PropOp43
 70
     0
102
RTVSPost2010Prop44ColorIndex
 90
        5
102
RTVSPost2010Prop44ColorRGB
 90
      255
102
RTVSPost2010PropOp44
 70
     0
102
RTVSPost2010Prop45
280
     0
102
RTVSPost2010PropOp45
 70
     1
102
RTVSPost2010Prop46
 90
       50
102
RTVSPost2010PropOp46
 70
     0
102
RTVSPost2010Prop47
 90
       50
102
RTVSPost2010PropOp47
 70
     0
102
RTVSPost2010Prop48
 90
       50
102
RTVSPost2010PropOp48
 70
     0
102
RTVSPost2010Prop49
280
     0
102
RTVSPost2010PropOp49
 70
     1
102
RTVSPost2010Prop50
 90
       50
102
RTVSPost2010PropOp50
 70
     0
102
RTVSPost2010Prop51ColorIndex
 90
      256
102
RTVSPost2010Prop51ColorRGB
 90
-16777216
102
RTVSPost2010PropOp51
 70
     0
102
RTVSPost2010Prop52
140
1.0
102
RTVSPost2010PropOp52
 70
     0
102
RTVSPost2010Prop53
 90
        2
102
RTVSPost2010PropOp53
 70
     0
102
RTVSPost2010Prop54
  1
strokes_ogs.tif
102
RTVSPost2010PropOp54
 70
     0
102
RTVSPost2010Prop55
280
     0
102
RTVSPost2010PropOp55
 70
     1
102
RTVSPost2010Prop56
140
1.0
102
RTVSPost2010PropOp56
 70
     0
102
RTVSPost2010Prop57
140
1.0
102
RTVSPost2010PropOp57
 70
     0
102
RTVSPropertyOp0
 70
     0
102
RTVSPropertyOp1
 70
     0
102
RTVSPropertyOp2
 70
     0
102
RTVSPropertyOp3
 70
     0
102
RTVSPropertyOp4
 70
     0
102
RTVSPropertyOp5
 70
     0
102
RTVSPropertyOp6
 70
     0
102
RTVSPropertyOp7
 70
     0
102
RTVSPropertyOp8
 70
     0
102
RTVSPropertyOp9
 70
     0
102
RTVSPropertyOp10
 70
     0
102
RTVSPropertyOp11
 70
     0
102
RTVSPropertyOp12
 70
     0
102
RTVSPropertyOp13
 70
     0
102
RTVSPropertyOp14
 70
     2
102
RTVSPropertyOp15
 70
     0
102
RTVSPropertyOp16
 70
     0
102
RTVSPropertyOp17
 70
     0
102
RTVSPropertyOp18
 70
     0
102
RTVSPropertyOp19
 70
     0
102
RTVSPropertyOp20
 70
     0
102
RTVSPropertyOp21
 70
     0
102
RTVSPropertyOp22
 70
     0
102
RTVSPropertyOp23
 70
     0
102
RTVSPropertyOp24
 70
     0
102
RTVSPropertyOp25
 70
     0
102
RTVSPropertyOp26
 70
     0
102
RTVSPropertyOp27
 70
     0
102
RTVSPropertyOp28
 70
     1
102
RTVSPropertyOp29
 70
     1
102
RTVSPropertyOp30
 70
     1
102
RTVSPropertyOp31
 70
     1
102
RTVSPropertyOp32
 70
     1
102
RTVSPropertyOp33
 70
     1
102
RTVSPropertyOp34
 70
     1
102
RTVSPropertyOp35
 70
     1
102
RTVSPropertyOp36
 70
     1
102
RTVSPropertyOp37
 70
     0
102
RTVSPropertyOp38
 70
     0
102
RTVSPropertyOp39
 70
     0
102
RTVSPropertyOp40
 70
     0
102
RTVSPropertyOp41
 70
     0
102
RTVSPropertyOp42
 70
     0
102
RTVSPropertyOp43
 70
     0
102
RTVSPropertyOp44
 70
     0
102
RTVSPropertyOp45
 70
     1
102
RTVSPropertyOp46
 70
     0
102
RTVSPropertyOp47
 70
     0
102
RTVSPropertyOp48
 70
     0
102
RTVSPropertyOp49
 70
     1
102
RTVSPropertyOp50
 70
     0
102
RTVSPropertyOp51
 70
     0
102
RTVSPropertyOp52
 70
     0
102
RTVSPropertyOp53
 70
     0
102
RTVSPropertyOp54
 70
     0
102
RTVSPropertyOp55
 70
     1
102
RTVSPropertyOp56
 70
     0
102
RTVSPropertyOp57
 70
     0
102
RTVSPropertyOp58
 70
     0
102
RTVSPropertyOp59
 70
     0
102
RTVSPropertyOp60
 70
     0
102
RTVSPropertyOp61
 70
     0
102
RTVSPropertyOp62
 70
     0
  0
XRECORD
  5
767
102
{ACAD_REACTORS
330
766
102
}
330
766
100
AcDbXrecord
280
     1
102
RTVSPost2010Prop28
280
     0
102
RTVSPost2010PropOp28
 70
     1
102
RTVSPost2010Prop29
280
     1
102
RTVSPost2010PropOp29
 70
     1
102
RTVSPost2010Prop30
280
     1
102
RTVSPost2010PropOp30
 70
     1
102
RTVSPost2010Prop31
280
     0
102
RTVSPost2010PropOp31
 70
     1
102
RTVSPost2010Prop32
280
     0
102
RTVSPost2010PropOp32
 70
     1
102
RTVSPost2010Prop33
280
     0
102
RTVSPost2010PropOp33
 70
     1
102
RTVSPost2010Prop34
280
     0
102
RTVSPost2010PropOp34
 70
     1
102
RTVSPost2010Prop35
280
     0
102
RTVSPost2010PropOp35
 70
     1
102
RTVSPost2010Prop36
280
     0
102
RTVSPost2010PropOp36
 70
     1
102
RTVSPost2010Prop37
 90
       50
102
RTVSPost2010PropOp37
 70
     1
102
RTVSPost2010Prop38
140
0.0
102
RTVSPost2010PropOp38
 70
     1
102
RTVSPost2010Prop39
140
1.0
102
RTVSPost2010PropOp39
 70
     1
102
RTVSPost2010Prop40
 90
        0
102
RTVSPost2010PropOp40
 70
     1
102
RTVSPost2010Prop41ColorIndex
 90
       18
102
RTVSPost2010Prop41ColorRGB
 90
        0
102
RTVSPost2010PropOp41
 70
     1
102
RTVSPost2010Prop42
 90
       50
102
RTVSPost2010PropOp42
 70
     1
102
RTVSPost2010Prop43
 90
        3
102
RTVSPost2010PropOp43
 70
     1
102
RTVSPost2010Prop44ColorIndex
 90
        5
102
RTVSPost2010Prop44ColorRGB
 90
      255
102
RTVSPost2010PropOp44
 70
     1
102
RTVSPost2010Prop45
280
     0
102
RTVSPost2010PropOp45
 70
     1
102
RTVSPost2010Prop46
 90
       50
102
RTVSPost2010PropOp46
 70
     1
102
RTVSPost2010Prop47
 90
       50
102
RTVSPost2010PropOp47
 70
     1
102
RTVSPost2010Prop48
 90
       50
102
RTVSPost2010PropOp48
 70
     1
102
RTVSPost2010Prop49
280
     0
102
RTVSPost2010PropOp49
 70
     1
102
RTVSPost2010Prop50
 90
       50
102
RTVSPost2010PropOp50
 70
     1
102
RTVSPost2010Prop51ColorIndex
 90
      256
102
RTVSPost2010Prop51ColorRGB
 90
-16777216
102
RTVSPost2010PropOp51
 70
     0
102
RTVSPost2010Prop52
140
1.0
102
RTVSPost2010PropOp52
 70
     0
102
RTVSPost2010Prop53
 90
        2
102
RTVSPost2010PropOp53
 70
     1
102
RTVSPost2010Prop54
  1
strokes_ogs.tif
102
RTVSPost2010PropOp54
 70
     1
102
RTVSPost2010Prop55
280
     0
102
RTVSPost2010PropOp55
 70
     1
102
RTVSPost2010Prop56
140
1.0
102
RTVSPost2010PropOp56
 70
     1
102
RTVSPost2010Prop57
140
1.0
102
RTVSPost2010PropOp57
 70
     1
102
RTVSPropertyOp0
 70
     1
102
RTVSPropertyOp1
 70
     1
102
RTVSPropertyOp2
 70
     1
102
RTVSPropertyOp3
 70
     1
102
RTVSPropertyOp4
 70
     1
102
RTVSPropertyOp5
 70
     1
102
RTVSPropertyOp6
 70
     1
102
RTVSPropertyOp7
 70
     1
102
RTVSPropertyOp8
 70
     1
102
RTVSPropertyOp9
 70
     1
102
RTVSPropertyOp10
 70
     1
102
RTVSPropertyOp11
 70
     1
102
RTVSPropertyOp12
 70
     1
102
RTVSPropertyOp13
 70
     1
102
RTVSPropertyOp14
 70
     1
102
RTVSPropertyOp15
 70
     1
102
RTVSPropertyOp16
 70
     1
102
RTVSPropertyOp17
 70
     1
102
RTVSPropertyOp18
 70
     1
102
RTVSPropertyOp19
 70
     1
102
RTVSPropertyOp20
 70
     1
102
RTVSPropertyOp21
 70
     1
102
RTVSPropertyOp22
 70
     1
102
RTVSPropertyOp23
 70
     1
102
RTVSPropertyOp24
 70
     1
102
RTVSPropertyOp25
 70
     1
102
RTVSPropertyOp26
 70
     1
102
RTVSPropertyOp27
 70
     1
102
RTVSPropertyOp28
 70
     1
102
RTVSPropertyOp29
 70
     1
102
RTVSPropertyOp30
 70
     1
102
RTVSPropertyOp31
 70
     1
102
RTVSPropertyOp32
 70
     1
102
RTVSPropertyOp33
 70
     1
102
RTVSPropertyOp34
 70
     1
102
RTVSPropertyOp35
 70
     1
102
RTVSPropertyOp36
 70
     1
102
RTVSPropertyOp37
 70
     1
102
RTVSPropertyOp38
 70
     1
102
RTVSPropertyOp39
 70
     1
102
RTVSPropertyOp40
 70
     1
102
RTVSPropertyOp41
 70
     1
102
RTVSPropertyOp42
 70
     1
102
RTVSPropertyOp43
 70
     1
102
RTVSPropertyOp44
 70
     1
102
RTVSPropertyOp45
 70
     1
102
RTVSPropertyOp46
 70
     1
102
RTVSPropertyOp47
 70
     1
102
RTVSPropertyOp48
 70
     1
102
RTVSPropertyOp49
 70
     1
102
RTVSPropertyOp50
 70
     1
102
RTVSPropertyOp51
 70
     0
102
RTVSPropertyOp52
 70
     0
102
RTVSPropertyOp53
 70
     1
102
RTVSPropertyOp54
 70
     1
102
RTVSPropertyOp55
 70
     1
102
RTVSPropertyOp56
 70
     1
102
RTVSPropertyOp57
 70
     1
102
RTVSPropertyOp58
 70
     1
102
RTVSPropertyOp59
 70
     1
102
RTVSPropertyOp60
 70
     1
102
RTVSPropertyOp61
 70
     1
102
RTVSPropertyOp62
 70
     1
  0
XRECORD
  5
74B
102
{ACAD_REACTORS
330
74A
102
}
330
74A
100
AcDbXrecord
280
     1
102
RTVSPost2010Prop28
280
     0
102
RTVSPost2010PropOp28
 70
     1
102
RTVSPost2010Prop29
280
     1
102
RTVSPost2010PropOp29
 70
     1
102
RTVSPost2010Prop30
280
     1
102
RTVSPost2010PropOp30
 70
     1
102
RTVSPost2010Prop31
280
     0
102
RTVSPost2010PropOp31
 70
     1
102
RTVSPost2010Prop32
280
     0
102
RTVSPost2010PropOp32
 70
     1
102
RTVSPost2010Prop33
280
     0
102
RTVSPost2010PropOp33
 70
     1
102
RTVSPost2010Prop34
280
     0
102
RTVSPost2010PropOp34
 70
     1
102
RTVSPost2010Prop35
280
     0
102
RTVSPost2010PropOp35
 70
     1
102
RTVSPost2010Prop36
280
     0
102
RTVSPost2010PropOp36
 70
     1
102
RTVSPost2010Prop37
 90
       50
102
RTVSPost2010PropOp37
 70
     1
102
RTVSPost2010Prop38
140
0.0
102
RTVSPost2010PropOp38
 70
     1
102
RTVSPost2010Prop39
140
1.0
102
RTVSPost2010PropOp39
 70
     1
102
RTVSPost2010Prop40
 90
        0
102
RTVSPost2010PropOp40
 70
     1
102
RTVSPost2010Prop41ColorIndex
 90
       18
102
RTVSPost2010Prop41ColorRGB
 90
        0
102
RTVSPost2010PropOp41
 70
     1
102
RTVSPost2010Prop42
 90
       50
102
RTVSPost2010PropOp42
 70
     1
102
RTVSPost2010Prop43
 90
        3
102
RTVSPost2010PropOp43
 70
     1
102
RTVSPost2010Prop44ColorIndex
 90
        5
102
RTVSPost2010Prop44ColorRGB
 90
      255
102
RTVSPost2010PropOp44
 70
     1
102
RTVSPost2010Prop45
280
     0
102
RTVSPost2010PropOp45
 70
     1
102
RTVSPost2010Prop46
 90
       50
102
RTVSPost2010PropOp46
 70
     1
102
RTVSPost2010Prop47
 90
       50
102
RTVSPost2010PropOp47
 70
     1
102
RTVSPost2010Prop48
 90
       50
102
RTVSPost2010PropOp48
 70
     1
102
RTVSPost2010Prop49
280
     0
102
RTVSPost2010PropOp49
 70
     1
102
RTVSPost2010Prop50
 90
       50
102
RTVSPost2010PropOp50
 70
     1
102
RTVSPost2010Prop51ColorIndex
 90
      256
102
RTVSPost2010Prop51ColorRGB
 90
-16777216
102
RTVSPost2010PropOp51
 70
     0
102
RTVSPost2010Prop52
140
1.0
102
RTVSPost2010PropOp52
 70
     0
102
RTVSPost2010Prop53
 90
        2
102
RTVSPost2010PropOp53
 70
     1
102
RTVSPost2010Prop54
  1
strokes_ogs.tif
102
RTVSPost2010PropOp54
 70
     1
102
RTVSPost2010Prop55
280
     0
102
RTVSPost2010PropOp55
 70
     1
102
RTVSPost2010Prop56
140
1.0
102
RTVSPost2010PropOp56
 70
     1
102
RTVSPost2010Prop57
140
1.0
102
RTVSPost2010PropOp57
 70
     1
102
RTVSPropertyOp0
 70
     1
102
RTVSPropertyOp1
 70
     1
102
RTVSPropertyOp2
 70
     1
102
RTVSPropertyOp3
 70
     1
102
RTVSPropertyOp4
 70
     1
102
RTVSPropertyOp5
 70
     1
102
RTVSPropertyOp6
 70
     1
102
RTVSPropertyOp7
 70
     1
102
RTVSPropertyOp8
 70
     1
102
RTVSPropertyOp9
 70
     1
102
RTVSPropertyOp10
 70
     1
102
RTVSPropertyOp11
 70
     1
102
RTVSPropertyOp12
 70
     1
102
RTVSPropertyOp13
 70
     1
102
RTVSPropertyOp14
 70
     1
102
RTVSPropertyOp15
 70
     1
102
RTVSPropertyOp16
 70
     1
102
RTVSPropertyOp17
 70
     1
102
RTVSPropertyOp18
 70
     1
102
RTVSPropertyOp19
 70
     1
102
RTVSPropertyOp20
 70
     1
102
RTVSPropertyOp21
 70
     1
102
RTVSPropertyOp22
 70
     1
102
RTVSPropertyOp23
 70
     1
102
RTVSPropertyOp24
 70
     1
102
RTVSPropertyOp25
 70
     1
102
RTVSPropertyOp26
 70
     1
102
RTVSPropertyOp27
 70
     1
102
RTVSPropertyOp28
 70
     1
102
RTVSPropertyOp29
 70
     1
102
RTVSPropertyOp30
 70
     1
102
RTVSPropertyOp31
 70
     1
102
RTVSPropertyOp32
 70
     1
102
RTVSPropertyOp33
 70
     1
102
RTVSPropertyOp34
 70
     1
102
RTVSPropertyOp35
 70
     1
102
RTVSPropertyOp36
 70
     1
102
RTVSPropertyOp37
 70
     1
102
RTVSPropertyOp38
 70
     1
102
RTVSPropertyOp39
 70
     1
102
RTVSPropertyOp40
 70
     1
102
RTVSPropertyOp41
 70
     1
102
RTVSPropertyOp42
 70
     1
102
RTVSPropertyOp43
 70
     1
102
RTVSPropertyOp44
 70
     1
102
RTVSPropertyOp45
 70
     1
102
RTVSPropertyOp46
 70
     1
102
RTVSPropertyOp47
 70
     1
102
RTVSPropertyOp48
 70
     1
102
RTVSPropertyOp49
 70
     1
102
RTVSPropertyOp50
 70
     1
102
RTVSPropertyOp51
 70
     0
102
RTVSPropertyOp52
 70
     0
102
RTVSPropertyOp53
 70
     1
102
RTVSPropertyOp54
 70
     1
102
RTVSPropertyOp55
 70
     1
102
RTVSPropertyOp56
 70
     1
102
RTVSPropertyOp57
 70
     1
102
RTVSPropertyOp58
 70
     1
102
RTVSPropertyOp59
 70
     1
102
RTVSPropertyOp60
 70
     1
102
RTVSPropertyOp61
 70
     1
102
RTVSPropertyOp62
 70
     1
  0
XRECORD
  5
74D
102
{ACAD_REACTORS
330
74C
102
}
330
74C
100
AcDbXrecord
280
     1
102
RTVSPost2010Prop28
280
     0
102
RTVSPost2010PropOp28
 70
     1
102
RTVSPost2010Prop29
280
     1
102
RTVSPost2010PropOp29
 70
     1
102
RTVSPost2010Prop30
280
     1
102
RTVSPost2010PropOp30
 70
     1
102
RTVSPost2010Prop31
280
     0
102
RTVSPost2010PropOp31
 70
     1
102
RTVSPost2010Prop32
280
     0
102
RTVSPost2010PropOp32
 70
     1
102
RTVSPost2010Prop33
280
     0
102
RTVSPost2010PropOp33
 70
     1
102
RTVSPost2010Prop34
280
     0
102
RTVSPost2010PropOp34
 70
     1
102
RTVSPost2010Prop35
280
     0
102
RTVSPost2010PropOp35
 70
     1
102
RTVSPost2010Prop36
280
     0
102
RTVSPost2010PropOp36
 70
     1
102
RTVSPost2010Prop37
 90
       50
102
RTVSPost2010PropOp37
 70
     1
102
RTVSPost2010Prop38
140
0.0
102
RTVSPost2010PropOp38
 70
     1
102
RTVSPost2010Prop39
140
1.0
102
RTVSPost2010PropOp39
 70
     1
102
RTVSPost2010Prop40
 90
        0
102
RTVSPost2010PropOp40
 70
     1
102
RTVSPost2010Prop41ColorIndex
 90
       18
102
RTVSPost2010Prop41ColorRGB
 90
        0
102
RTVSPost2010PropOp41
 70
     1
102
RTVSPost2010Prop42
 90
       50
102
RTVSPost2010PropOp42
 70
     1
102
RTVSPost2010Prop43
 90
        3
102
RTVSPost2010PropOp43
 70
     1
102
RTVSPost2010Prop44ColorIndex
 90
        5
102
RTVSPost2010Prop44ColorRGB
 90
      255
102
RTVSPost2010PropOp44
 70
     1
102
RTVSPost2010Prop45
280
     0
102
RTVSPost2010PropOp45
 70
     1
102
RTVSPost2010Prop46
 90
       50
102
RTVSPost2010PropOp46
 70
     1
102
RTVSPost2010Prop47
 90
       50
102
RTVSPost2010PropOp47
 70
     1
102
RTVSPost2010Prop48
 90
       50
102
RTVSPost2010PropOp48
 70
     1
102
RTVSPost2010Prop49
280
     0
102
RTVSPost2010PropOp49
 70
     1
102
RTVSPost2010Prop50
 90
       50
102
RTVSPost2010PropOp50
 70
     1
102
RTVSPost2010Prop51ColorIndex
 90
      256
102
RTVSPost2010Prop51ColorRGB
 90
-16777216
102
RTVSPost2010PropOp51
 70
     0
102
RTVSPost2010Prop52
140
1.0
102
RTVSPost2010PropOp52
 70
     0
102
RTVSPost2010Prop53
 90
        2
102
RTVSPost2010PropOp53
 70
     1
102
RTVSPost2010Prop54
  1
strokes_ogs.tif
102
RTVSPost2010PropOp54
 70
     1
102
RTVSPost2010Prop55
280
     0
102
RTVSPost2010PropOp55
 70
     1
102
RTVSPost2010Prop56
140
1.0
102
RTVSPost2010PropOp56
 70
     1
102
RTVSPost2010Prop57
140
1.0
102
RTVSPost2010PropOp57
 70
     1
102
RTVSPropertyOp0
 70
     1
102
RTVSPropertyOp1
 70
     1
102
RTVSPropertyOp2
 70
     1
102
RTVSPropertyOp3
 70
     1
102
RTVSPropertyOp4
 70
     1
102
RTVSPropertyOp5
 70
     1
102
RTVSPropertyOp6
 70
     1
102
RTVSPropertyOp7
 70
     1
102
RTVSPropertyOp8
 70
     1
102
RTVSPropertyOp9
 70
     1
102
RTVSPropertyOp10
 70
     1
102
RTVSPropertyOp11
 70
     1
102
RTVSPropertyOp12
 70
     1
102
RTVSPropertyOp13
 70
     1
102
RTVSPropertyOp14
 70
     1
102
RTVSPropertyOp15
 70
     1
102
RTVSPropertyOp16
 70
     1
102
RTVSPropertyOp17
 70
     1
102
RTVSPropertyOp18
 70
     1
102
RTVSPropertyOp19
 70
     1
102
RTVSPropertyOp20
 70
     1
102
RTVSPropertyOp21
 70
     1
102
RTVSPropertyOp22
 70
     1
102
RTVSPropertyOp23
 70
     1
102
RTVSPropertyOp24
 70
     1
102
RTVSPropertyOp25
 70
     1
102
RTVSPropertyOp26
 70
     1
102
RTVSPropertyOp27
 70
     1
102
RTVSPropertyOp28
 70
     1
102
RTVSPropertyOp29
 70
     1
102
RTVSPropertyOp30
 70
     1
102
RTVSPropertyOp31
 70
     1
102
RTVSPropertyOp32
 70
     1
102
RTVSPropertyOp33
 70
     1
102
RTVSPropertyOp34
 70
     1
102
RTVSPropertyOp35
 70
     1
102
RTVSPropertyOp36
 70
     1
102
RTVSPropertyOp37
 70
     1
102
RTVSPropertyOp38
 70
     1
102
RTVSPropertyOp39
 70
     1
102
RTVSPropertyOp40
 70
     1
102
RTVSPropertyOp41
 70
     1
102
RTVSPropertyOp42
 70
     1
102
RTVSPropertyOp43
 70
     1
102
RTVSPropertyOp44
 70
     1
102
RTVSPropertyOp45
 70
     1
102
RTVSPropertyOp46
 70
     1
102
RTVSPropertyOp47
 70
     1
102
RTVSPropertyOp48
 70
     1
102
RTVSPropertyOp49
 70
     1
102
RTVSPropertyOp50
 70
     1
102
RTVSPropertyOp51
 70
     0
102
RTVSPropertyOp52
 70
     0
102
RTVSPropertyOp53
 70
     1
102
RTVSPropertyOp54
 70
     1
102
RTVSPropertyOp55
 70
     1
102
RTVSPropertyOp56
 70
     1
102
RTVSPropertyOp57
 70
     1
102
RTVSPropertyOp58
 70
     1
102
RTVSPropertyOp59
 70
     1
102
RTVSPropertyOp60
 70
     1
102
RTVSPropertyOp61
 70
     1
102
RTVSPropertyOp62
 70
     1
  0
XRECORD
  5
74F
102
{ACAD_REACTORS
330
74E
102
}
330
74E
100
AcDbXrecord
280
     1
102
RTVSPost2010Prop28
280
     0
102
RTVSPost2010PropOp28
 70
     1
102
RTVSPost2010Prop29
280
     1
102
RTVSPost2010PropOp29
 70
     1
102
RTVSPost2010Prop30
280
     1
102
RTVSPost2010PropOp30
 70
     1
102
RTVSPost2010Prop31
280
     0
102
RTVSPost2010PropOp31
 70
     1
102
RTVSPost2010Prop32
280
     0
102
RTVSPost2010PropOp32
 70
     1
102
RTVSPost2010Prop33
280
     0
102
RTVSPost2010PropOp33
 70
     1
102
RTVSPost2010Prop34
280
     0
102
RTVSPost2010PropOp34
 70
     1
102
RTVSPost2010Prop35
280
     0
102
RTVSPost2010PropOp35
 70
     1
102
RTVSPost2010Prop36
280
     0
102
RTVSPost2010PropOp36
 70
     1
102
RTVSPost2010Prop37
 90
       50
102
RTVSPost2010PropOp37
 70
     1
102
RTVSPost2010Prop38
140
0.0
102
RTVSPost2010PropOp38
 70
     1
102
RTVSPost2010Prop39
140
1.0
102
RTVSPost2010PropOp39
 70
     1
102
RTVSPost2010Prop40
 90
        0
102
RTVSPost2010PropOp40
 70
     1
102
RTVSPost2010Prop41ColorIndex
 90
       18
102
RTVSPost2010Prop41ColorRGB
 90
        0
102
RTVSPost2010PropOp41
 70
     1
102
RTVSPost2010Prop42
 90
       50
102
RTVSPost2010PropOp42
 70
     1
102
RTVSPost2010Prop43
 90
        3
102
RTVSPost2010PropOp43
 70
     1
102
RTVSPost2010Prop44ColorIndex
 90
        5
102
RTVSPost2010Prop44ColorRGB
 90
      255
102
RTVSPost2010PropOp44
 70
     1
102
RTVSPost2010Prop45
280
     0
102
RTVSPost2010PropOp45
 70
     1
102
RTVSPost2010Prop46
 90
       50
102
RTVSPost2010PropOp46
 70
     1
102
RTVSPost2010Prop47
 90
       50
102
RTVSPost2010PropOp47
 70
     1
102
RTVSPost2010Prop48
 90
       50
102
RTVSPost2010PropOp48
 70
     1
102
RTVSPost2010Prop49
280
     0
102
RTVSPost2010PropOp49
 70
     1
102
RTVSPost2010Prop50
 90
       50
102
RTVSPost2010PropOp50
 70
     1
102
RTVSPost2010Prop51ColorIndex
 90
      256
102
RTVSPost2010Prop51ColorRGB
 90
-16777216
102
RTVSPost2010PropOp51
 70
     0
102
RTVSPost2010Prop52
140
1.0
102
RTVSPost2010PropOp52
 70
     0
102
RTVSPost2010Prop53
 90
        2
102
RTVSPost2010PropOp53
 70
     1
102
RTVSPost2010Prop54
  1
strokes_ogs.tif
102
RTVSPost2010PropOp54
 70
     1
102
RTVSPost2010Prop55
280
     0
102
RTVSPost2010PropOp55
 70
     1
102
RTVSPost2010Prop56
140
1.0
102
RTVSPost2010PropOp56
 70
     1
102
RTVSPost2010Prop57
140
1.0
102
RTVSPost2010PropOp57
 70
     1
102
RTVSPropertyOp0
 70
     1
102
RTVSPropertyOp1
 70
     1
102
RTVSPropertyOp2
 70
     1
102
RTVSPropertyOp3
 70
     1
102
RTVSPropertyOp4
 70
     1
102
RTVSPropertyOp5
 70
     1
102
RTVSPropertyOp6
 70
     1
102
RTVSPropertyOp7
 70
     1
102
RTVSPropertyOp8
 70
     1
102
RTVSPropertyOp9
 70
     1
102
RTVSPropertyOp10
 70
     1
102
RTVSPropertyOp11
 70
     1
102
RTVSPropertyOp12
 70
     1
102
RTVSPropertyOp13
 70
     1
102
RTVSPropertyOp14
 70
     1
102
RTVSPropertyOp15
 70
     1
102
RTVSPropertyOp16
 70
     1
102
RTVSPropertyOp17
 70
     1
102
RTVSPropertyOp18
 70
     1
102
RTVSPropertyOp19
 70
     1
102
RTVSPropertyOp20
 70
     1
102
RTVSPropertyOp21
 70
     1
102
RTVSPropertyOp22
 70
     1
102
RTVSPropertyOp23
 70
     1
102
RTVSPropertyOp24
 70
     1
102
RTVSPropertyOp25
 70
     1
102
RTVSPropertyOp26
 70
     1
102
RTVSPropertyOp27
 70
     1
102
RTVSPropertyOp28
 70
     1
102
RTVSPropertyOp29
 70
     1
102
RTVSPropertyOp30
 70
     1
102
RTVSPropertyOp31
 70
     1
102
RTVSPropertyOp32
 70
     1
102
RTVSPropertyOp33
 70
     1
102
RTVSPropertyOp34
 70
     1
102
RTVSPropertyOp35
 70
     1
102
RTVSPropertyOp36
 70
     1
102
RTVSPropertyOp37
 70
     1
102
RTVSPropertyOp38
 70
     1
102
RTVSPropertyOp39
 70
     1
102
RTVSPropertyOp40
 70
     1
102
RTVSPropertyOp41
 70
     1
102
RTVSPropertyOp42
 70
     1
102
RTVSPropertyOp43
 70
     1
102
RTVSPropertyOp44
 70
     1
102
RTVSPropertyOp45
 70
     1
102
RTVSPropertyOp46
 70
     1
102
RTVSPropertyOp47
 70
     1
102
RTVSPropertyOp48
 70
     1
102
RTVSPropertyOp49
 70
     1
102
RTVSPropertyOp50
 70
     1
102
RTVSPropertyOp51
 70
     0
102
RTVSPropertyOp52
 70
     0
102
RTVSPropertyOp53
 70
     1
102
RTVSPropertyOp54
 70
     1
102
RTVSPropertyOp55
 70
     1
102
RTVSPropertyOp56
 70
     1
102
RTVSPropertyOp57
 70
     1
102
RTVSPropertyOp58
 70
     1
102
RTVSPropertyOp59
 70
     1
102
RTVSPropertyOp60
 70
     1
102
RTVSPropertyOp61
 70
     1
102
RTVSPropertyOp62
 70
     1
  0
XRECORD
  5
751
102
{ACAD_REACTORS
330
750
102
}
330
750
100
AcDbXrecord
280
     1
102
RTVSPost2010Prop28
280
     0
102
RTVSPost2010PropOp28
 70
     1
102
RTVSPost2010Prop29
280
     1
102
RTVSPost2010PropOp29
 70
     1
102
RTVSPost2010Prop30
280
     1
102
RTVSPost2010PropOp30
 70
     1
102
RTVSPost2010Prop31
280
     0
102
RTVSPost2010PropOp31
 70
     1
102
RTVSPost2010Prop32
280
     0
102
RTVSPost2010PropOp32
 70
     1
102
RTVSPost2010Prop33
280
     0
102
RTVSPost2010PropOp33
 70
     1
102
RTVSPost2010Prop34
280
     0
102
RTVSPost2010PropOp34
 70
     1
102
RTVSPost2010Prop35
280
     0
102
RTVSPost2010PropOp35
 70
     1
102
RTVSPost2010Prop36
280
     0
102
RTVSPost2010PropOp36
 70
     1
102
RTVSPost2010Prop37
 90
       50
102
RTVSPost2010PropOp37
 70
     1
102
RTVSPost2010Prop38
140
0.0
102
RTVSPost2010PropOp38
 70
     1
102
RTVSPost2010Prop39
140
1.0
102
RTVSPost2010PropOp39
 70
     1
102
RTVSPost2010Prop40
 90
        0
102
RTVSPost2010PropOp40
 70
     1
102
RTVSPost2010Prop41ColorIndex
 90
       18
102
RTVSPost2010Prop41ColorRGB
 90
        0
102
RTVSPost2010PropOp41
 70
     1
102
RTVSPost2010Prop42
 90
       50
102
RTVSPost2010PropOp42
 70
     1
102
RTVSPost2010Prop43
 90
        3
102
RTVSPost2010PropOp43
 70
     1
102
RTVSPost2010Prop44ColorIndex
 90
        5
102
RTVSPost2010Prop44ColorRGB
 90
      255
102
RTVSPost2010PropOp44
 70
     1
102
RTVSPost2010Prop45
280
     0
102
RTVSPost2010PropOp45
 70
     1
102
RTVSPost2010Prop46
 90
       50
102
RTVSPost2010PropOp46
 70
     1
102
RTVSPost2010Prop47
 90
       50
102
RTVSPost2010PropOp47
 70
     1
102
RTVSPost2010Prop48
 90
       50
102
RTVSPost2010PropOp48
 70
     1
102
RTVSPost2010Prop49
280
     0
102
RTVSPost2010PropOp49
 70
     1
102
RTVSPost2010Prop50
 90
       50
102
RTVSPost2010PropOp50
 70
     1
102
RTVSPost2010Prop51ColorIndex
 90
      256
102
RTVSPost2010Prop51ColorRGB
 90
-16777216
102
RTVSPost2010PropOp51
 70
     0
102
RTVSPost2010Prop52
140
1.0
102
RTVSPost2010PropOp52
 70
     0
102
RTVSPost2010Prop53
 90
        2
102
RTVSPost2010PropOp53
 70
     1
102
RTVSPost2010Prop54
  1
strokes_ogs.tif
102
RTVSPost2010PropOp54
 70
     1
102
RTVSPost2010Prop55
280
     0
102
RTVSPost2010PropOp55
 70
     1
102
RTVSPost2010Prop56
140
1.0
102
RTVSPost2010PropOp56
 70
     1
102
RTVSPost2010Prop57
140
1.0
102
RTVSPost2010PropOp57
 70
     1
102
RTVSPropertyOp0
 70
     1
102
RTVSPropertyOp1
 70
     1
102
RTVSPropertyOp2
 70
     1
102
RTVSPropertyOp3
 70
     1
102
RTVSPropertyOp4
 70
     1
102
RTVSPropertyOp5
 70
     1
102
RTVSPropertyOp6
 70
     1
102
RTVSPropertyOp7
 70
     1
102
RTVSPropertyOp8
 70
     1
102
RTVSPropertyOp9
 70
     1
102
RTVSPropertyOp10
 70
     1
102
RTVSPropertyOp11
 70
     1
102
RTVSPropertyOp12
 70
     1
102
RTVSPropertyOp13
 70
     1
102
RTVSPropertyOp14
 70
     1
102
RTVSPropertyOp15
 70
     1
102
RTVSPropertyOp16
 70
     1
102
RTVSPropertyOp17
 70
     1
102
RTVSPropertyOp18
 70
     1
102
RTVSPropertyOp19
 70
     1
102
RTVSPropertyOp20
 70
     1
102
RTVSPropertyOp21
 70
     1
102
RTVSPropertyOp22
 70
     1
102
RTVSPropertyOp23
 70
     1
102
RTVSPropertyOp24
 70
     1
102
RTVSPropertyOp25
 70
     1
102
RTVSPropertyOp26
 70
     1
102
RTVSPropertyOp27
 70
     1
102
RTVSPropertyOp28
 70
     1
102
RTVSPropertyOp29
 70
     1
102
RTVSPropertyOp30
 70
     1
102
RTVSPropertyOp31
 70
     1
102
RTVSPropertyOp32
 70
     1
102
RTVSPropertyOp33
 70
     1
102
RTVSPropertyOp34
 70
     1
102
RTVSPropertyOp35
 70
     1
102
RTVSPropertyOp36
 70
     1
102
RTVSPropertyOp37
 70
     1
102
RTVSPropertyOp38
 70
     1
102
RTVSPropertyOp39
 70
     1
102
RTVSPropertyOp40
 70
     1
102
RTVSPropertyOp41
 70
     1
102
RTVSPropertyOp42
 70
     1
102
RTVSPropertyOp43
 70
     1
102
RTVSPropertyOp44
 70
     1
102
RTVSPropertyOp45
 70
     1
102
RTVSPropertyOp46
 70
     1
102
RTVSPropertyOp47
 70
     1
102
RTVSPropertyOp48
 70
     1
102
RTVSPropertyOp49
 70
     1
102
RTVSPropertyOp50
 70
     1
102
RTVSPropertyOp51
 70
     0
102
RTVSPropertyOp52
 70
     0
102
RTVSPropertyOp53
 70
     1
102
RTVSPropertyOp54
 70
     1
102
RTVSPropertyOp55
 70
     1
102
RTVSPropertyOp56
 70
     1
102
RTVSPropertyOp57
 70
     1
102
RTVSPropertyOp58
 70
     1
102
RTVSPropertyOp59
 70
     1
102
RTVSPropertyOp60
 70
     1
102
RTVSPropertyOp61
 70
     1
102
RTVSPropertyOp62
 70
     1
  0
XRECORD
  5
759
102
{ACAD_REACTORS
330
758
102
}
330
758
100
AcDbXrecord
280
     1
102
RTVSPost2010Prop28
280
     0
102
RTVSPost2010PropOp28
 70
     1
102
RTVSPost2010Prop29
280
     1
102
RTVSPost2010PropOp29
 70
     1
102
RTVSPost2010Prop30
280
     1
102
RTVSPost2010PropOp30
 70
     1
102
RTVSPost2010Prop31
280
     0
102
RTVSPost2010PropOp31
 70
     1
102
RTVSPost2010Prop32
280
     0
102
RTVSPost2010PropOp32
 70
     1
102
RTVSPost2010Prop33
280
     0
102
RTVSPost2010PropOp33
 70
     1
102
RTVSPost2010Prop34
280
     0
102
RTVSPost2010PropOp34
 70
     1
102
RTVSPost2010Prop35
280
     0
102
RTVSPost2010PropOp35
 70
     1
102
RTVSPost2010Prop36
280
     0
102
RTVSPost2010PropOp36
 70
     1
102
RTVSPost2010Prop37
 90
       50
102
RTVSPost2010PropOp37
 70
     1
102
RTVSPost2010Prop38
140
0.0
102
RTVSPost2010PropOp38
 70
     1
102
RTVSPost2010Prop39
140
1.0
102
RTVSPost2010PropOp39
 70
     1
102
RTVSPost2010Prop40
 90
        0
102
RTVSPost2010PropOp40
 70
     1
102
RTVSPost2010Prop41ColorIndex
 90
       18
102
RTVSPost2010Prop41ColorRGB
 90
        0
102
RTVSPost2010PropOp41
 70
     1
102
RTVSPost2010Prop42
 90
       50
102
RTVSPost2010PropOp42
 70
     1
102
RTVSPost2010Prop43
 90
        3
102
RTVSPost2010PropOp43
 70
     1
102
RTVSPost2010Prop44ColorIndex
 90
        5
102
RTVSPost2010Prop44ColorRGB
 90
      255
102
RTVSPost2010PropOp44
 70
     1
102
RTVSPost2010Prop45
280
     0
102
RTVSPost2010PropOp45
 70
     1
102
RTVSPost2010Prop46
 90
       50
102
RTVSPost2010PropOp46
 70
     1
102
RTVSPost2010Prop47
 90
       50
102
RTVSPost2010PropOp47
 70
     1
102
RTVSPost2010Prop48
 90
       50
102
RTVSPost2010PropOp48
 70
     1
102
RTVSPost2010Prop49
280
     0
102
RTVSPost2010PropOp49
 70
     1
102
RTVSPost2010Prop50
 90
       50
102
RTVSPost2010PropOp50
 70
     1
102
RTVSPost2010Prop51ColorIndex
 90
      256
102
RTVSPost2010Prop51ColorRGB
 90
-16777216
102
RTVSPost2010PropOp51
 70
     0
102
RTVSPost2010Prop52
140
1.0
102
RTVSPost2010PropOp52
 70
     0
102
RTVSPost2010Prop53
 90
        2
102
RTVSPost2010PropOp53
 70
     1
102
RTVSPost2010Prop54
  1
strokes_ogs.tif
102
RTVSPost2010PropOp54
 70
     1
102
RTVSPost2010Prop55
280
     0
102
RTVSPost2010PropOp55
 70
     1
102
RTVSPost2010Prop56
140
1.0
102
RTVSPost2010PropOp56
 70
     1
102
RTVSPost2010Prop57
140
1.0
102
RTVSPost2010PropOp57
 70
     1
102
RTVSPropertyOp0
 70
     1
102
RTVSPropertyOp1
 70
     1
102
RTVSPropertyOp2
 70
     1
102
RTVSPropertyOp3
 70
     1
102
RTVSPropertyOp4
 70
     1
102
RTVSPropertyOp5
 70
     1
102
RTVSPropertyOp6
 70
     1
102
RTVSPropertyOp7
 70
     1
102
RTVSPropertyOp8
 70
     1
102
RTVSPropertyOp9
 70
     1
102
RTVSPropertyOp10
 70
     1
102
RTVSPropertyOp11
 70
     1
102
RTVSPropertyOp12
 70
     1
102
RTVSPropertyOp13
 70
     1
102
RTVSPropertyOp14
 70
     1
102
RTVSPropertyOp15
 70
     1
102
RTVSPropertyOp16
 70
     1
102
RTVSPropertyOp17
 70
     1
102
RTVSPropertyOp18
 70
     1
102
RTVSPropertyOp19
 70
     1
102
RTVSPropertyOp20
 70
     1
102
RTVSPropertyOp21
 70
     1
102
RTVSPropertyOp22
 70
     1
102
RTVSPropertyOp23
 70
     1
102
RTVSPropertyOp24
 70
     1
102
RTVSPropertyOp25
 70
     1
102
RTVSPropertyOp26
 70
     1
102
RTVSPropertyOp27
 70
     1
102
RTVSPropertyOp28
 70
     1
102
RTVSPropertyOp29
 70
     1
102
RTVSPropertyOp30
 70
     1
102
RTVSPropertyOp31
 70
     1
102
RTVSPropertyOp32
 70
     1
102
RTVSPropertyOp33
 70
     1
102
RTVSPropertyOp34
 70
     1
102
RTVSPropertyOp35
 70
     1
102
RTVSPropertyOp36
 70
     1
102
RTVSPropertyOp37
 70
     1
102
RTVSPropertyOp38
 70
     1
102
RTVSPropertyOp39
 70
     1
102
RTVSPropertyOp40
 70
     1
102
RTVSPropertyOp41
 70
     1
102
RTVSPropertyOp42
 70
     1
102
RTVSPropertyOp43
 70
     1
102
RTVSPropertyOp44
 70
     1
102
RTVSPropertyOp45
 70
     1
102
RTVSPropertyOp46
 70
     1
102
RTVSPropertyOp47
 70
     1
102
RTVSPropertyOp48
 70
     1
102
RTVSPropertyOp49
 70
     1
102
RTVSPropertyOp50
 70
     1
102
RTVSPropertyOp51
 70
     0
102
RTVSPropertyOp52
 70
     0
102
RTVSPropertyOp53
 70
     1
102
RTVSPropertyOp54
 70
     1
102
RTVSPropertyOp55
 70
     1
102
RTVSPropertyOp56
 70
     1
102
RTVSPropertyOp57
 70
     1
102
RTVSPropertyOp58
 70
     1
102
RTVSPropertyOp59
 70
     1
102
RTVSPropertyOp60
 70
     1
102
RTVSPropertyOp61
 70
     1
102
RTVSPropertyOp62
 70
     1
  0
XRECORD
  5
775
102
{ACAD_REACTORS
330
774
102
}
330
774
100
AcDbXrecord
280
     1
102
RTVSPost2010Prop28
280
     0
102
RTVSPost2010PropOp28
 70
     1
102
RTVSPost2010Prop29
280
     1
102
RTVSPost2010PropOp29
 70
     1
102
RTVSPost2010Prop30
280
     1
102
RTVSPost2010PropOp30
 70
     1
102
RTVSPost2010Prop31
280
     0
102
RTVSPost2010PropOp31
 70
     1
102
RTVSPost2010Prop32
280
     0
102
RTVSPost2010PropOp32
 70
     1
102
RTVSPost2010Prop33
280
     0
102
RTVSPost2010PropOp33
 70
     1
102
RTVSPost2010Prop34
280
     0
102
RTVSPost2010PropOp34
 70
     1
102
RTVSPost2010Prop35
280
     0
102
RTVSPost2010PropOp35
 70
     1
102
RTVSPost2010Prop36
280
     0
102
RTVSPost2010PropOp36
 70
     1
102
RTVSPost2010Prop37
 90
       50
102
RTVSPost2010PropOp37
 70
     0
102
RTVSPost2010Prop38
140
0.0
102
RTVSPost2010PropOp38
 70
     0
102
RTVSPost2010Prop39
140
1.0
102
RTVSPost2010PropOp39
 70
     0
102
RTVSPost2010Prop40
 90
        0
102
RTVSPost2010PropOp40
 70
     0
102
RTVSPost2010Prop41ColorIndex
 90
       18
102
RTVSPost2010Prop41ColorRGB
 90
        0
102
RTVSPost2010PropOp41
 70
     0
102
RTVSPost2010Prop42
 90
       50
102
RTVSPost2010PropOp42
 70
     0
102
RTVSPost2010Prop43
 90
        3
102
RTVSPost2010PropOp43
 70
     0
102
RTVSPost2010Prop44ColorIndex
 90
        5
102
RTVSPost2010Prop44ColorRGB
 90
      255
102
RTVSPost2010PropOp44
 70
     0
102
RTVSPost2010Prop45
280
     0
102
RTVSPost2010PropOp45
 70
     1
102
RTVSPost2010Prop46
 90
       50
102
RTVSPost2010PropOp46
 70
     0
102
RTVSPost2010Prop47
 90
       50
102
RTVSPost2010PropOp47
 70
     0
102
RTVSPost2010Prop48
 90
       50
102
RTVSPost2010PropOp48
 70
     0
102
RTVSPost2010Prop49
280
     0
102
RTVSPost2010PropOp49
 70
     1
102
RTVSPost2010Prop50
 90
       50
102
RTVSPost2010PropOp50
 70
     0
102
RTVSPost2010Prop51ColorIndex
 90
      256
102
RTVSPost2010Prop51ColorRGB
 90
-16777216
102
RTVSPost2010PropOp51
 70
     0
102
RTVSPost2010Prop52
140
1.0
102
RTVSPost2010PropOp52
 70
     0
102
RTVSPost2010Prop53
 90
        2
102
RTVSPost2010PropOp53
 70
     0
102
RTVSPost2010Prop54
  1
strokes_ogs.tif
102
RTVSPost2010PropOp54
 70
     0
102
RTVSPost2010Prop55
280
     0
102
RTVSPost2010PropOp55
 70
     1
102
RTVSPost2010Prop56
140
1.0
102
RTVSPost2010PropOp56
 70
     0
102
RTVSPost2010Prop57
140
1.0
102
RTVSPost2010PropOp57
 70
     0
102
RTVSPropertyOp0
 70
     0
102
RTVSPropertyOp1
 70
     0
102
RTVSPropertyOp2
 70
     0
102
RTVSPropertyOp3
 70
     0
102
RTVSPropertyOp4
 70
     0
102
RTVSPropertyOp5
 70
     0
102
RTVSPropertyOp6
 70
     0
102
RTVSPropertyOp7
 70
     0
102
RTVSPropertyOp8
 70
     0
102
RTVSPropertyOp9
 70
     0
102
RTVSPropertyOp10
 70
     0
102
RTVSPropertyOp11
 70
     0
102
RTVSPropertyOp12
 70
     0
102
RTVSPropertyOp13
 70
     0
102
RTVSPropertyOp14
 70
     2
102
RTVSPropertyOp15
 70
     0
102
RTVSPropertyOp16
 70
     0
102
RTVSPropertyOp17
 70
     0
102
RTVSPropertyOp18
 70
     0
102
RTVSPropertyOp19
 70
     0
102
RTVSPropertyOp20
 70
     0
102
RTVSPropertyOp21
 70
     0
102
RTVSPropertyOp22
 70
     0
102
RTVSPropertyOp23
 70
     0
102
RTVSPropertyOp24
 70
     0
102
RTVSPropertyOp25
 70
     0
102
RTVSPropertyOp26
 70
     0
102
RTVSPropertyOp27
 70
     0
102
RTVSPropertyOp28
 70
     1
102
RTVSPropertyOp29
 70
     1
102
RTVSPropertyOp30
 70
     1
102
RTVSPropertyOp31
 70
     1
102
RTVSPropertyOp32
 70
     1
102
RTVSPropertyOp33
 70
     1
102
RTVSPropertyOp34
 70
     1
102
RTVSPropertyOp35
 70
     1
102
RTVSPropertyOp36
 70
     1
102
RTVSPropertyOp37
 70
     0
102
RTVSPropertyOp38
 70
     0
102
RTVSPropertyOp39
 70
     0
102
RTVSPropertyOp40
 70
     0
102
RTVSPropertyOp41
 70
     0
102
RTVSPropertyOp42
 70
     0
102
RTVSPropertyOp43
 70
     0
102
RTVSPropertyOp44
 70
     0
102
RTVSPropertyOp45
 70
     1
102
RTVSPropertyOp46
 70
     0
102
RTVSPropertyOp47
 70
     0
102
RTVSPropertyOp48
 70
     0
102
RTVSPropertyOp49
 70
     1
102
RTVSPropertyOp50
 70
     0
102
RTVSPropertyOp51
 70
     0
102
RTVSPropertyOp52
 70
     0
102
RTVSPropertyOp53
 70
     0
102
RTVSPropertyOp54
 70
     0
102
RTVSPropertyOp55
 70
     1
102
RTVSPropertyOp56
 70
     0
102
RTVSPropertyOp57
 70
     0
102
RTVSPropertyOp58
 70
     0
102
RTVSPropertyOp59
 70
     0
102
RTVSPropertyOp60
 70
     0
102
RTVSPropertyOp61
 70
     0
102
RTVSPropertyOp62
 70
     0
  0
XRECORD
  5
765
102
{ACAD_REACTORS
330
764
102
}
330
764
100
AcDbXrecord
280
     1
102
RTVSPost2010Prop28
280
     0
102
RTVSPost2010PropOp28
 70
     1
102
RTVSPost2010Prop29
280
     1
102
RTVSPost2010PropOp29
 70
     1
102
RTVSPost2010Prop30
280
     1
102
RTVSPost2010PropOp30
 70
     1
102
RTVSPost2010Prop31
280
     0
102
RTVSPost2010PropOp31
 70
     1
102
RTVSPost2010Prop32
280
     0
102
RTVSPost2010PropOp32
 70
     1
102
RTVSPost2010Prop33
280
     0
102
RTVSPost2010PropOp33
 70
     1
102
RTVSPost2010Prop34
280
     0
102
RTVSPost2010PropOp34
 70
     1
102
RTVSPost2010Prop35
280
     0
102
RTVSPost2010PropOp35
 70
     1
102
RTVSPost2010Prop36
280
     0
102
RTVSPost2010PropOp36
 70
     1
102
RTVSPost2010Prop37
 90
       50
102
RTVSPost2010PropOp37
 70
     1
102
RTVSPost2010Prop38
140
0.0
102
RTVSPost2010PropOp38
 70
     1
102
RTVSPost2010Prop39
140
1.0
102
RTVSPost2010PropOp39
 70
     1
102
RTVSPost2010Prop40
 90
        0
102
RTVSPost2010PropOp40
 70
     1
102
RTVSPost2010Prop41ColorIndex
 90
       18
102
RTVSPost2010Prop41ColorRGB
 90
        0
102
RTVSPost2010PropOp41
 70
     1
102
RTVSPost2010Prop42
 90
       50
102
RTVSPost2010PropOp42
 70
     1
102
RTVSPost2010Prop43
 90
        3
102
RTVSPost2010PropOp43
 70
     1
102
RTVSPost2010Prop44ColorIndex
 90
        5
102
RTVSPost2010Prop44ColorRGB
 90
      255
102
RTVSPost2010PropOp44
 70
     1
102
RTVSPost2010Prop45
280
     0
102
RTVSPost2010PropOp45
 70
     1
102
RTVSPost2010Prop46
 90
       50
102
RTVSPost2010PropOp46
 70
     1
102
RTVSPost2010Prop47
 90
       50
102
RTVSPost2010PropOp47
 70
     1
102
RTVSPost2010Prop48
 90
       50
102
RTVSPost2010PropOp48
 70
     1
102
RTVSPost2010Prop49
280
     0
102
RTVSPost2010PropOp49
 70
     1
102
RTVSPost2010Prop50
 90
       50
102
RTVSPost2010PropOp50
 70
     1
102
RTVSPost2010Prop51ColorIndex
 90
      256
102
RTVSPost2010Prop51ColorRGB
 90
-16777216
102
RTVSPost2010PropOp51
 70
     0
102
RTVSPost2010Prop52
140
1.0
102
RTVSPost2010PropOp52
 70
     0
102
RTVSPost2010Prop53
 90
        2
102
RTVSPost2010PropOp53
 70
     1
102
RTVSPost2010Prop54
  1
strokes_ogs.tif
102
RTVSPost2010PropOp54
 70
     1
102
RTVSPost2010Prop55
280
     0
102
RTVSPost2010PropOp55
 70
     1
102
RTVSPost2010Prop56
140
1.0
102
RTVSPost2010PropOp56
 70
     1
102
RTVSPost2010Prop57
140
1.0
102
RTVSPost2010PropOp57
 70
     1
102
RTVSPropertyOp0
 70
     1
102
RTVSPropertyOp1
 70
     1
102
RTVSPropertyOp2
 70
     1
102
RTVSPropertyOp3
 70
     1
102
RTVSPropertyOp4
 70
     1
102
RTVSPropertyOp5
 70
     1
102
RTVSPropertyOp6
 70
     1
102
RTVSPropertyOp7
 70
     1
102
RTVSPropertyOp8
 70
     1
102
RTVSPropertyOp9
 70
     1
102
RTVSPropertyOp10
 70
     1
102
RTVSPropertyOp11
 70
     1
102
RTVSPropertyOp12
 70
     1
102
RTVSPropertyOp13
 70
     1
102
RTVSPropertyOp14
 70
     1
102
RTVSPropertyOp15
 70
     1
102
RTVSPropertyOp16
 70
     1
102
RTVSPropertyOp17
 70
     1
102
RTVSPropertyOp18
 70
     1
102
RTVSPropertyOp19
 70
     1
102
RTVSPropertyOp20
 70
     1
102
RTVSPropertyOp21
 70
     1
102
RTVSPropertyOp22
 70
     1
102
RTVSPropertyOp23
 70
     1
102
RTVSPropertyOp24
 70
     1
102
RTVSPropertyOp25
 70
     1
102
RTVSPropertyOp26
 70
     1
102
RTVSPropertyOp27
 70
     1
102
RTVSPropertyOp28
 70
     1
102
RTVSPropertyOp29
 70
     1
102
RTVSPropertyOp30
 70
     1
102
RTVSPropertyOp31
 70
     1
102
RTVSPropertyOp32
 70
     1
102
RTVSPropertyOp33
 70
     1
102
RTVSPropertyOp34
 70
     1
102
RTVSPropertyOp35
 70
     1
102
RTVSPropertyOp36
 70
     1
102
RTVSPropertyOp37
 70
     1
102
RTVSPropertyOp38
 70
     1
102
RTVSPropertyOp39
 70
     1
102
RTVSPropertyOp40
 70
     1
102
RTVSPropertyOp41
 70
     1
102
RTVSPropertyOp42
 70
     1
102
RTVSPropertyOp43
 70
     1
102
RTVSPropertyOp44
 70
     1
102
RTVSPropertyOp45
 70
     1
102
RTVSPropertyOp46
 70
     1
102
RTVSPropertyOp47
 70
     1
102
RTVSPropertyOp48
 70
     1
102
RTVSPropertyOp49
 70
     1
102
RTVSPropertyOp50
 70
     1
102
RTVSPropertyOp51
 70
     0
102
RTVSPropertyOp52
 70
     0
102
RTVSPropertyOp53
 70
     1
102
RTVSPropertyOp54
 70
     1
102
RTVSPropertyOp55
 70
     1
102
RTVSPropertyOp56
 70
     1
102
RTVSPropertyOp57
 70
     1
102
RTVSPropertyOp58
 70
     1
102
RTVSPropertyOp59
 70
     1
102
RTVSPropertyOp60
 70
     1
102
RTVSPropertyOp61
 70
     1
102
RTVSPropertyOp62
 70
     1
  0
XRECORD
  5
777
102
{ACAD_REACTORS
330
776
102
}
330
776
100
AcDbXrecord
280
     1
102
RTVSPost2010Prop28
280
     0
102
RTVSPost2010PropOp28
 70
     1
102
RTVSPost2010Prop29
280
     1
102
RTVSPost2010PropOp29
 70
     1
102
RTVSPost2010Prop30
280
     1
102
RTVSPost2010PropOp30
 70
     1
102
RTVSPost2010Prop31
280
     0
102
RTVSPost2010PropOp31
 70
     1
102
RTVSPost2010Prop32
280
     0
102
RTVSPost2010PropOp32
 70
     1
102
RTVSPost2010Prop33
280
     0
102
RTVSPost2010PropOp33
 70
     1
102
RTVSPost2010Prop34
280
     0
102
RTVSPost2010PropOp34
 70
     1
102
RTVSPost2010Prop35
280
     0
102
RTVSPost2010PropOp35
 70
     1
102
RTVSPost2010Prop36
280
     0
102
RTVSPost2010PropOp36
 70
     1
102
RTVSPost2010Prop37
 90
       50
102
RTVSPost2010PropOp37
 70
     0
102
RTVSPost2010Prop38
140
0.0
102
RTVSPost2010PropOp38
 70
     0
102
RTVSPost2010Prop39
140
1.0
102
RTVSPost2010PropOp39
 70
     0
102
RTVSPost2010Prop40
 90
        0
102
RTVSPost2010PropOp40
 70
     0
102
RTVSPost2010Prop41ColorIndex
 90
       18
102
RTVSPost2010Prop41ColorRGB
 90
        0
102
RTVSPost2010PropOp41
 70
     0
102
RTVSPost2010Prop42
 90
       50
102
RTVSPost2010PropOp42
 70
     0
102
RTVSPost2010Prop43
 90
        3
102
RTVSPost2010PropOp43
 70
     0
102
RTVSPost2010Prop44ColorIndex
 90
        5
102
RTVSPost2010Prop44ColorRGB
 90
      255
102
RTVSPost2010PropOp44
 70
     0
102
RTVSPost2010Prop45
280
     0
102
RTVSPost2010PropOp45
 70
     1
102
RTVSPost2010Prop46
 90
       50
102
RTVSPost2010PropOp46
 70
     0
102
RTVSPost2010Prop47
 90
       50
102
RTVSPost2010PropOp47
 70
     0
102
RTVSPost2010Prop48
 90
       50
102
RTVSPost2010PropOp48
 70
     0
102
RTVSPost2010Prop49
280
     0
102
RTVSPost2010PropOp49
 70
     1
102
RTVSPost2010Prop50
 90
       50
102
RTVSPost2010PropOp50
 70
     0
102
RTVSPost2010Prop51ColorIndex
 90
      256
102
RTVSPost2010Prop51ColorRGB
 90
-16777216
102
RTVSPost2010PropOp51
 70
     0
102
RTVSPost2010Prop52
140
1.0
102
RTVSPost2010PropOp52
 70
     0
102
RTVSPost2010Prop53
 90
        2
102
RTVSPost2010PropOp53
 70
     0
102
RTVSPost2010Prop54
  1
strokes_ogs.tif
102
RTVSPost2010PropOp54
 70
     0
102
RTVSPost2010Prop55
280
     0
102
RTVSPost2010PropOp55
 70
     1
102
RTVSPost2010Prop56
140
1.0
102
RTVSPost2010PropOp56
 70
     0
102
RTVSPost2010Prop57
140
1.0
102
RTVSPost2010PropOp57
 70
     0
102
RTVSPropertyOp0
 70
     0
102
RTVSPropertyOp1
 70
     0
102
RTVSPropertyOp2
 70
     0
102
RTVSPropertyOp3
 70
     0
102
RTVSPropertyOp4
 70
     0
102
RTVSPropertyOp5
 70
     0
102
RTVSPropertyOp6
 70
     0
102
RTVSPropertyOp7
 70
     0
102
RTVSPropertyOp8
 70
     0
102
RTVSPropertyOp9
 70
     0
102
RTVSPropertyOp10
 70
     0
102
RTVSPropertyOp11
 70
     0
102
RTVSPropertyOp12
 70
     0
102
RTVSPropertyOp13
 70
     0
102
RTVSPropertyOp14
 70
     2
102
RTVSPropertyOp15
 70
     0
102
RTVSPropertyOp16
 70
     0
102
RTVSPropertyOp17
 70
     0
102
RTVSPropertyOp18
 70
     0
102
RTVSPropertyOp19
 70
     0
102
RTVSPropertyOp20
 70
     0
102
RTVSPropertyOp21
 70
     0
102
RTVSPropertyOp22
 70
     0
102
RTVSPropertyOp23
 70
     0
102
RTVSPropertyOp24
 70
     0
102
RTVSPropertyOp25
 70
     0
102
RTVSPropertyOp26
 70
     0
102
RTVSPropertyOp27
 70
     0
102
RTVSPropertyOp28
 70
     1
102
RTVSPropertyOp29
 70
     1
102
RTVSPropertyOp30
 70
     1
102
RTVSPropertyOp31
 70
     1
102
RTVSPropertyOp32
 70
     1
102
RTVSPropertyOp33
 70
     1
102
RTVSPropertyOp34
 70
     1
102
RTVSPropertyOp35
 70
     1
102
RTVSPropertyOp36
 70
     1
102
RTVSPropertyOp37
 70
     0
102
RTVSPropertyOp38
 70
     0
102
RTVSPropertyOp39
 70
     0
102
RTVSPropertyOp40
 70
     0
102
RTVSPropertyOp41
 70
     0
102
RTVSPropertyOp42
 70
     0
102
RTVSPropertyOp43
 70
     0
102
RTVSPropertyOp44
 70
     0
102
RTVSPropertyOp45
 70
     1
102
RTVSPropertyOp46
 70
     0
102
RTVSPropertyOp47
 70
     0
102
RTVSPropertyOp48
 70
     0
102
RTVSPropertyOp49
 70
     1
102
RTVSPropertyOp50
 70
     0
102
RTVSPropertyOp51
 70
     0
102
RTVSPropertyOp52
 70
     0
102
RTVSPropertyOp53
 70
     0
102
RTVSPropertyOp54
 70
     0
102
RTVSPropertyOp55
 70
     1
102
RTVSPropertyOp56
 70
     0
102
RTVSPropertyOp57
 70
     0
102
RTVSPropertyOp58
 70
     0
102
RTVSPropertyOp59
 70
     0
102
RTVSPropertyOp60
 70
     0
102
RTVSPropertyOp61
 70
     0
102
RTVSPropertyOp62
 70
     0
  0
XRECORD
  5
75D
102
{ACAD_REACTORS
330
75C
102
}
330
75C
100
AcDbXrecord
280
     1
102
RTVSPost2010Prop28
280
     0
102
RTVSPost2010PropOp28
 70
     1
102
RTVSPost2010Prop29
280
     1
102
RTVSPost2010PropOp29
 70
     1
102
RTVSPost2010Prop30
280
     1
102
RTVSPost2010PropOp30
 70
     1
102
RTVSPost2010Prop31
280
     0
102
RTVSPost2010PropOp31
 70
     1
102
RTVSPost2010Prop32
280
     0
102
RTVSPost2010PropOp32
 70
     1
102
RTVSPost2010Prop33
280
     0
102
RTVSPost2010PropOp33
 70
     1
102
RTVSPost2010Prop34
280
     0
102
RTVSPost2010PropOp34
 70
     1
102
RTVSPost2010Prop35
280
     0
102
RTVSPost2010PropOp35
 70
     1
102
RTVSPost2010Prop36
280
     0
102
RTVSPost2010PropOp36
 70
     1
102
RTVSPost2010Prop37
 90
       50
102
RTVSPost2010PropOp37
 70
     1
102
RTVSPost2010Prop38
140
0.0
102
RTVSPost2010PropOp38
 70
     1
102
RTVSPost2010Prop39
140
1.0
102
RTVSPost2010PropOp39
 70
     1
102
RTVSPost2010Prop40
 90
        0
102
RTVSPost2010PropOp40
 70
     1
102
RTVSPost2010Prop41ColorIndex
 90
       18
102
RTVSPost2010Prop41ColorRGB
 90
        0
102
RTVSPost2010PropOp41
 70
     1
102
RTVSPost2010Prop42
 90
       50
102
RTVSPost2010PropOp42
 70
     1
102
RTVSPost2010Prop43
 90
        3
102
RTVSPost2010PropOp43
 70
     1
102
RTVSPost2010Prop44ColorIndex
 90
        5
102
RTVSPost2010Prop44ColorRGB
 90
      255
102
RTVSPost2010PropOp44
 70
     1
102
RTVSPost2010Prop45
280
     0
102
RTVSPost2010PropOp45
 70
     1
102
RTVSPost2010Prop46
 90
       50
102
RTVSPost2010PropOp46
 70
     1
102
RTVSPost2010Prop47
 90
       50
102
RTVSPost2010PropOp47
 70
     1
102
RTVSPost2010Prop48
 90
       50
102
RTVSPost2010PropOp48
 70
     1
102
RTVSPost2010Prop49
280
     0
102
RTVSPost2010PropOp49
 70
     1
102
RTVSPost2010Prop50
 90
       50
102
RTVSPost2010PropOp50
 70
     1
102
RTVSPost2010Prop51ColorIndex
 90
      256
102
RTVSPost2010Prop51ColorRGB
 90
-16777216
102
RTVSPost2010PropOp51
 70
     0
102
RTVSPost2010Prop52
140
1.0
102
RTVSPost2010PropOp52
 70
     0
102
RTVSPost2010Prop53
 90
        2
102
RTVSPost2010PropOp53
 70
     1
102
RTVSPost2010Prop54
  1
strokes_ogs.tif
102
RTVSPost2010PropOp54
 70
     1
102
RTVSPost2010Prop55
280
     0
102
RTVSPost2010PropOp55
 70
     1
102
RTVSPost2010Prop56
140
1.0
102
RTVSPost2010PropOp56
 70
     1
102
RTVSPost2010Prop57
140
1.0
102
RTVSPost2010PropOp57
 70
     1
102
RTVSPropertyOp0
 70
     1
102
RTVSPropertyOp1
 70
     1
102
RTVSPropertyOp2
 70
     1
102
RTVSPropertyOp3
 70
     1
102
RTVSPropertyOp4
 70
     1
102
RTVSPropertyOp5
 70
     1
102
RTVSPropertyOp6
 70
     1
102
RTVSPropertyOp7
 70
     1
102
RTVSPropertyOp8
 70
     1
102
RTVSPropertyOp9
 70
     1
102
RTVSPropertyOp10
 70
     1
102
RTVSPropertyOp11
 70
     1
102
RTVSPropertyOp12
 70
     1
102
RTVSPropertyOp13
 70
     1
102
RTVSPropertyOp14
 70
     1
102
RTVSPropertyOp15
 70
     1
102
RTVSPropertyOp16
 70
     1
102
RTVSPropertyOp17
 70
     1
102
RTVSPropertyOp18
 70
     1
102
RTVSPropertyOp19
 70
     1
102
RTVSPropertyOp20
 70
     1
102
RTVSPropertyOp21
 70
     1
102
RTVSPropertyOp22
 70
     1
102
RTVSPropertyOp23
 70
     1
102
RTVSPropertyOp24
 70
     1
102
RTVSPropertyOp25
 70
     1
102
RTVSPropertyOp26
 70
     1
102
RTVSPropertyOp27
 70
     1
102
RTVSPropertyOp28
 70
     1
102
RTVSPropertyOp29
 70
     1
102
RTVSPropertyOp30
 70
     1
102
RTVSPropertyOp31
 70
     1
102
RTVSPropertyOp32
 70
     1
102
RTVSPropertyOp33
 70
     1
102
RTVSPropertyOp34
 70
     1
102
RTVSPropertyOp35
 70
     1
102
RTVSPropertyOp36
 70
     1
102
RTVSPropertyOp37
 70
     1
102
RTVSPropertyOp38
 70
     1
102
RTVSPropertyOp39
 70
     1
102
RTVSPropertyOp40
 70
     1
102
RTVSPropertyOp41
 70
     1
102
RTVSPropertyOp42
 70
     1
102
RTVSPropertyOp43
 70
     1
102
RTVSPropertyOp44
 70
     1
102
RTVSPropertyOp45
 70
     1
102
RTVSPropertyOp46
 70
     1
102
RTVSPropertyOp47
 70
     1
102
RTVSPropertyOp48
 70
     1
102
RTVSPropertyOp49
 70
     1
102
RTVSPropertyOp50
 70
     1
102
RTVSPropertyOp51
 70
     0
102
RTVSPropertyOp52
 70
     0
102
RTVSPropertyOp53
 70
     1
102
RTVSPropertyOp54
 70
     1
102
RTVSPropertyOp55
 70
     1
102
RTVSPropertyOp56
 70
     1
102
RTVSPropertyOp57
 70
     1
102
RTVSPropertyOp58
 70
     1
102
RTVSPropertyOp59
 70
     1
102
RTVSPropertyOp60
 70
     1
102
RTVSPropertyOp61
 70
     1
102
RTVSPropertyOp62
 70
     1
  0
XRECORD
  5
773
102
{ACAD_REACTORS
330
772
102
}
330
772
100
AcDbXrecord
280
     1
102
RTVSPost2010Prop28
280
     0
102
RTVSPost2010PropOp28
 70
     1
102
RTVSPost2010Prop29
280
     1
102
RTVSPost2010PropOp29
 70
     1
102
RTVSPost2010Prop30
280
     1
102
RTVSPost2010PropOp30
 70
     1
102
RTVSPost2010Prop31
280
     0
102
RTVSPost2010PropOp31
 70
     1
102
RTVSPost2010Prop32
280
     0
102
RTVSPost2010PropOp32
 70
     1
102
RTVSPost2010Prop33
280
     0
102
RTVSPost2010PropOp33
 70
     1
102
RTVSPost2010Prop34
280
     0
102
RTVSPost2010PropOp34
 70
     1
102
RTVSPost2010Prop35
280
     0
102
RTVSPost2010PropOp35
 70
     1
102
RTVSPost2010Prop36
280
     0
102
RTVSPost2010PropOp36
 70
     1
102
RTVSPost2010Prop37
 90
       50
102
RTVSPost2010PropOp37
 70
     1
102
RTVSPost2010Prop38
140
0.0
102
RTVSPost2010PropOp38
 70
     1
102
RTVSPost2010Prop39
140
1.0
102
RTVSPost2010PropOp39
 70
     1
102
RTVSPost2010Prop40
 90
        0
102
RTVSPost2010PropOp40
 70
     1
102
RTVSPost2010Prop41ColorIndex
 90
       18
102
RTVSPost2010Prop41ColorRGB
 90
        0
102
RTVSPost2010PropOp41
 70
     1
102
RTVSPost2010Prop42
 90
       50
102
RTVSPost2010PropOp42
 70
     1
102
RTVSPost2010Prop43
 90
        3
102
RTVSPost2010PropOp43
 70
     1
102
RTVSPost2010Prop44ColorIndex
 90
        5
102
RTVSPost2010Prop44ColorRGB
 90
      255
102
RTVSPost2010PropOp44
 70
     1
102
RTVSPost2010Prop45
280
     0
102
RTVSPost2010PropOp45
 70
     1
102
RTVSPost2010Prop46
 90
       50
102
RTVSPost2010PropOp46
 70
     1
102
RTVSPost2010Prop47
 90
       50
102
RTVSPost2010PropOp47
 70
     1
102
RTVSPost2010Prop48
 90
       50
102
RTVSPost2010PropOp48
 70
     1
102
RTVSPost2010Prop49
280
     0
102
RTVSPost2010PropOp49
 70
     1
102
RTVSPost2010Prop50
 90
       50
102
RTVSPost2010PropOp50
 70
     1
102
RTVSPost2010Prop51ColorIndex
 90
      256
102
RTVSPost2010Prop51ColorRGB
 90
-16777216
102
RTVSPost2010PropOp51
 70
     0
102
RTVSPost2010Prop52
140
1.0
102
RTVSPost2010PropOp52
 70
     0
102
RTVSPost2010Prop53
 90
        2
102
RTVSPost2010PropOp53
 70
     1
102
RTVSPost2010Prop54
  1
strokes_ogs.tif
102
RTVSPost2010PropOp54
 70
     1
102
RTVSPost2010Prop55
280
     0
102
RTVSPost2010PropOp55
 70
     1
102
RTVSPost2010Prop56
140
1.0
102
RTVSPost2010PropOp56
 70
     1
102
RTVSPost2010Prop57
140
1.0
102
RTVSPost2010PropOp57
 70
     1
102
RTVSPropertyOp0
 70
     1
102
RTVSPropertyOp1
 70
     1
102
RTVSPropertyOp2
 70
     1
102
RTVSPropertyOp3
 70
     1
102
RTVSPropertyOp4
 70
     1
102
RTVSPropertyOp5
 70
     1
102
RTVSPropertyOp6
 70
     1
102
RTVSPropertyOp7
 70
     1
102
RTVSPropertyOp8
 70
     1
102
RTVSPropertyOp9
 70
     1
102
RTVSPropertyOp10
 70
     1
102
RTVSPropertyOp11
 70
     1
102
RTVSPropertyOp12
 70
     1
102
RTVSPropertyOp13
 70
     1
102
RTVSPropertyOp14
 70
     1
102
RTVSPropertyOp15
 70
     1
102
RTVSPropertyOp16
 70
     1
102
RTVSPropertyOp17
 70
     1
102
RTVSPropertyOp18
 70
     1
102
RTVSPropertyOp19
 70
     1
102
RTVSPropertyOp20
 70
     1
102
RTVSPropertyOp21
 70
     1
102
RTVSPropertyOp22
 70
     1
102
RTVSPropertyOp23
 70
     1
102
RTVSPropertyOp24
 70
     1
102
RTVSPropertyOp25
 70
     1
102
RTVSPropertyOp26
 70
     1
102
RTVSPropertyOp27
 70
     1
102
RTVSPropertyOp28
 70
     1
102
RTVSPropertyOp29
 70
     1
102
RTVSPropertyOp30
 70
     1
102
RTVSPropertyOp31
 70
     1
102
RTVSPropertyOp32
 70
     1
102
RTVSPropertyOp33
 70
     1
102
RTVSPropertyOp34
 70
     1
102
RTVSPropertyOp35
 70
     1
102
RTVSPropertyOp36
 70
     1
102
RTVSPropertyOp37
 70
     1
102
RTVSPropertyOp38
 70
     1
102
RTVSPropertyOp39
 70
     1
102
RTVSPropertyOp40
 70
     1
102
RTVSPropertyOp41
 70
     1
102
RTVSPropertyOp42
 70
     1
102
RTVSPropertyOp43
 70
     1
102
RTVSPropertyOp44
 70
     1
102
RTVSPropertyOp45
 70
     1
102
RTVSPropertyOp46
 70
     1
102
RTVSPropertyOp47
 70
     1
102
RTVSPropertyOp48
 70
     1
102
RTVSPropertyOp49
 70
     1
102
RTVSPropertyOp50
 70
     1
102
RTVSPropertyOp51
 70
     0
102
RTVSPropertyOp52
 70
     0
102
RTVSPropertyOp53
 70
     1
102
RTVSPropertyOp54
 70
     1
102
RTVSPropertyOp55
 70
     1
102
RTVSPropertyOp56
 70
     1
102
RTVSPropertyOp57
 70
     1
102
RTVSPropertyOp58
 70
     1
102
RTVSPropertyOp59
 70
     1
102
RTVSPropertyOp60
 70
     1
102
RTVSPropertyOp61
 70
     1
102
RTVSPropertyOp62
 70
     1
  0
XRECORD
  5
771
102
{ACAD_REACTORS
330
770
102
}
330
770
100
AcDbXrecord
280
     1
102
RTVSPost2010Prop28
280
     0
102
RTVSPost2010PropOp28
 70
     1
102
RTVSPost2010Prop29
280
     1
102
RTVSPost2010PropOp29
 70
     1
102
RTVSPost2010Prop30
280
     1
102
RTVSPost2010PropOp30
 70
     1
102
RTVSPost2010Prop31
280
     0
102
RTVSPost2010PropOp31
 70
     1
102
RTVSPost2010Prop32
280
     0
102
RTVSPost2010PropOp32
 70
     1
102
RTVSPost2010Prop33
280
     0
102
RTVSPost2010PropOp33
 70
     1
102
RTVSPost2010Prop34
280
     0
102
RTVSPost2010PropOp34
 70
     1
102
RTVSPost2010Prop35
280
     0
102
RTVSPost2010PropOp35
 70
     1
102
RTVSPost2010Prop36
280
     0
102
RTVSPost2010PropOp36
 70
     1
102
RTVSPost2010Prop37
 90
       50
102
RTVSPost2010PropOp37
 70
     1
102
RTVSPost2010Prop38
140
0.0
102
RTVSPost2010PropOp38
 70
     1
102
RTVSPost2010Prop39
140
1.0
102
RTVSPost2010PropOp39
 70
     1
102
RTVSPost2010Prop40
 90
        0
102
RTVSPost2010PropOp40
 70
     1
102
RTVSPost2010Prop41ColorIndex
 90
       18
102
RTVSPost2010Prop41ColorRGB
 90
        0
102
RTVSPost2010PropOp41
 70
     1
102
RTVSPost2010Prop42
 90
       50
102
RTVSPost2010PropOp42
 70
     1
102
RTVSPost2010Prop43
 90
        3
102
RTVSPost2010PropOp43
 70
     1
102
RTVSPost2010Prop44ColorIndex
 90
        5
102
RTVSPost2010Prop44ColorRGB
 90
      255
102
RTVSPost2010PropOp44
 70
     1
102
RTVSPost2010Prop45
280
     0
102
RTVSPost2010PropOp45
 70
     1
102
RTVSPost2010Prop46
 90
       50
102
RTVSPost2010PropOp46
 70
     1
102
RTVSPost2010Prop47
 90
       50
102
RTVSPost2010PropOp47
 70
     1
102
RTVSPost2010Prop48
 90
       50
102
RTVSPost2010PropOp48
 70
     1
102
RTVSPost2010Prop49
280
     0
102
RTVSPost2010PropOp49
 70
     1
102
RTVSPost2010Prop50
 90
       50
102
RTVSPost2010PropOp50
 70
     1
102
RTVSPost2010Prop51ColorIndex
 90
      256
102
RTVSPost2010Prop51ColorRGB
 90
-16777216
102
RTVSPost2010PropOp51
 70
     0
102
RTVSPost2010Prop52
140
1.0
102
RTVSPost2010PropOp52
 70
     0
102
RTVSPost2010Prop53
 90
        2
102
RTVSPost2010PropOp53
 70
     1
102
RTVSPost2010Prop54
  1
strokes_ogs.tif
102
RTVSPost2010PropOp54
 70
     1
102
RTVSPost2010Prop55
280
     0
102
RTVSPost2010PropOp55
 70
     1
102
RTVSPost2010Prop56
140
1.0
102
RTVSPost2010PropOp56
 70
     1
102
RTVSPost2010Prop57
140
1.0
102
RTVSPost2010PropOp57
 70
     1
102
RTVSPropertyOp0
 70
     1
102
RTVSPropertyOp1
 70
     1
102
RTVSPropertyOp2
 70
     1
102
RTVSPropertyOp3
 70
     1
102
RTVSPropertyOp4
 70
     1
102
RTVSPropertyOp5
 70
     1
102
RTVSPropertyOp6
 70
     1
102
RTVSPropertyOp7
 70
     1
102
RTVSPropertyOp8
 70
     1
102
RTVSPropertyOp9
 70
     1
102
RTVSPropertyOp10
 70
     1
102
RTVSPropertyOp11
 70
     1
102
RTVSPropertyOp12
 70
     1
102
RTVSPropertyOp13
 70
     1
102
RTVSPropertyOp14
 70
     1
102
RTVSPropertyOp15
 70
     1
102
RTVSPropertyOp16
 70
     1
102
RTVSPropertyOp17
 70
     1
102
RTVSPropertyOp18
 70
     1
102
RTVSPropertyOp19
 70
     1
102
RTVSPropertyOp20
 70
     1
102
RTVSPropertyOp21
 70
     1
102
RTVSPropertyOp22
 70
     1
102
RTVSPropertyOp23
 70
     1
102
RTVSPropertyOp24
 70
     1
102
RTVSPropertyOp25
 70
     1
102
RTVSPropertyOp26
 70
     1
102
RTVSPropertyOp27
 70
     1
102
RTVSPropertyOp28
 70
     1
102
RTVSPropertyOp29
 70
     1
102
RTVSPropertyOp30
 70
     1
102
RTVSPropertyOp31
 70
     1
102
RTVSPropertyOp32
 70
     1
102
RTVSPropertyOp33
 70
     1
102
RTVSPropertyOp34
 70
     1
102
RTVSPropertyOp35
 70
     1
102
RTVSPropertyOp36
 70
     1
102
RTVSPropertyOp37
 70
     1
102
RTVSPropertyOp38
 70
     1
102
RTVSPropertyOp39
 70
     1
102
RTVSPropertyOp40
 70
     1
102
RTVSPropertyOp41
 70
     1
102
RTVSPropertyOp42
 70
     1
102
RTVSPropertyOp43
 70
     1
102
RTVSPropertyOp44
 70
     1
102
RTVSPropertyOp45
 70
     1
102
RTVSPropertyOp46
 70
     1
102
RTVSPropertyOp47
 70
     1
102
RTVSPropertyOp48
 70
     1
102
RTVSPropertyOp49
 70
     1
102
RTVSPropertyOp50
 70
     1
102
RTVSPropertyOp51
 70
     0
102
RTVSPropertyOp52
 70
     0
102
RTVSPropertyOp53
 70
     1
102
RTVSPropertyOp54
 70
     1
102
RTVSPropertyOp55
 70
     1
102
RTVSPropertyOp56
 70
     1
102
RTVSPropertyOp57
 70
     1
102
RTVSPropertyOp58
 70
     1
102
RTVSPropertyOp59
 70
     1
102
RTVSPropertyOp60
 70
     1
102
RTVSPropertyOp61
 70
     1
102
RTVSPropertyOp62
 70
     1
  0
XRECORD
  5
76B
102
{ACAD_REACTORS
330
76A
102
}
330
76A
100
AcDbXrecord
280
     1
102
RTVSPost2010Prop28
280
     0
102
RTVSPost2010PropOp28
 70
     1
102
RTVSPost2010Prop29
280
     1
102
RTVSPost2010PropOp29
 70
     1
102
RTVSPost2010Prop30
280
     1
102
RTVSPost2010PropOp30
 70
     1
102
RTVSPost2010Prop31
280
     0
102
RTVSPost2010PropOp31
 70
     1
102
RTVSPost2010Prop32
280
     0
102
RTVSPost2010PropOp32
 70
     1
102
RTVSPost2010Prop33
280
     0
102
RTVSPost2010PropOp33
 70
     1
102
RTVSPost2010Prop34
280
     0
102
RTVSPost2010PropOp34
 70
     1
102
RTVSPost2010Prop35
280
     0
102
RTVSPost2010PropOp35
 70
     1
102
RTVSPost2010Prop36
280
     0
102
RTVSPost2010PropOp36
 70
     1
102
RTVSPost2010Prop37
 90
       50
102
RTVSPost2010PropOp37
 70
     1
102
RTVSPost2010Prop38
140
0.0
102
RTVSPost2010PropOp38
 70
     1
102
RTVSPost2010Prop39
140
1.0
102
RTVSPost2010PropOp39
 70
     1
102
RTVSPost2010Prop40
 90
        0
102
RTVSPost2010PropOp40
 70
     1
102
RTVSPost2010Prop41ColorIndex
 90
       18
102
RTVSPost2010Prop41ColorRGB
 90
        0
102
RTVSPost2010PropOp41
 70
     1
102
RTVSPost2010Prop42
 90
       50
102
RTVSPost2010PropOp42
 70
     1
102
RTVSPost2010Prop43
 90
        3
102
RTVSPost2010PropOp43
 70
     1
102
RTVSPost2010Prop44ColorIndex
 90
        5
102
RTVSPost2010Prop44ColorRGB
 90
      255
102
RTVSPost2010PropOp44
 70
     1
102
RTVSPost2010Prop45
280
     0
102
RTVSPost2010PropOp45
 70
     1
102
RTVSPost2010Prop46
 90
       50
102
RTVSPost2010PropOp46
 70
     1
102
RTVSPost2010Prop47
 90
       50
102
RTVSPost2010PropOp47
 70
     1
102
RTVSPost2010Prop48
 90
       50
102
RTVSPost2010PropOp48
 70
     1
102
RTVSPost2010Prop49
280
     0
102
RTVSPost2010PropOp49
 70
     1
102
RTVSPost2010Prop50
 90
       50
102
RTVSPost2010PropOp50
 70
     1
102
RTVSPost2010Prop51ColorIndex
 90
      256
102
RTVSPost2010Prop51ColorRGB
 90
-16777216
102
RTVSPost2010PropOp51
 70
     0
102
RTVSPost2010Prop52
140
1.0
102
RTVSPost2010PropOp52
 70
     0
102
RTVSPost2010Prop53
 90
        2
102
RTVSPost2010PropOp53
 70
     1
102
RTVSPost2010Prop54
  1
strokes_ogs.tif
102
RTVSPost2010PropOp54
 70
     1
102
RTVSPost2010Prop55
280
     0
102
RTVSPost2010PropOp55
 70
     1
102
RTVSPost2010Prop56
140
1.0
102
RTVSPost2010PropOp56
 70
     1
102
RTVSPost2010Prop57
140
1.0
102
RTVSPost2010PropOp57
 70
     1
102
RTVSPropertyOp0
 70
     1
102
RTVSPropertyOp1
 70
     1
102
RTVSPropertyOp2
 70
     1
102
RTVSPropertyOp3
 70
     1
102
RTVSPropertyOp4
 70
     1
102
RTVSPropertyOp5
 70
     1
102
RTVSPropertyOp6
 70
     1
102
RTVSPropertyOp7
 70
     1
102
RTVSPropertyOp8
 70
     1
102
RTVSPropertyOp9
 70
     1
102
RTVSPropertyOp10
 70
     1
102
RTVSPropertyOp11
 70
     1
102
RTVSPropertyOp12
 70
     1
102
RTVSPropertyOp13
 70
     1
102
RTVSPropertyOp14
 70
     1
102
RTVSPropertyOp15
 70
     1
102
RTVSPropertyOp16
 70
     1
102
RTVSPropertyOp17
 70
     1
102
RTVSPropertyOp18
 70
     1
102
RTVSPropertyOp19
 70
     1
102
RTVSPropertyOp20
 70
     1
102
RTVSPropertyOp21
 70
     1
102
RTVSPropertyOp22
 70
     1
102
RTVSPropertyOp23
 70
     1
102
RTVSPropertyOp24
 70
     1
102
RTVSPropertyOp25
 70
     1
102
RTVSPropertyOp26
 70
     1
102
RTVSPropertyOp27
 70
     1
102
RTVSPropertyOp28
 70
     1
102
RTVSPropertyOp29
 70
     1
102
RTVSPropertyOp30
 70
     1
102
RTVSPropertyOp31
 70
     1
102
RTVSPropertyOp32
 70
     1
102
RTVSPropertyOp33
 70
     1
102
RTVSPropertyOp34
 70
     1
102
RTVSPropertyOp35
 70
     1
102
RTVSPropertyOp36
 70
     1
102
RTVSPropertyOp37
 70
     1
102
RTVSPropertyOp38
 70
     1
102
RTVSPropertyOp39
 70
     1
102
RTVSPropertyOp40
 70
     1
102
RTVSPropertyOp41
 70
     1
102
RTVSPropertyOp42
 70
     1
102
RTVSPropertyOp43
 70
     1
102
RTVSPropertyOp44
 70
     1
102
RTVSPropertyOp45
 70
     1
102
RTVSPropertyOp46
 70
     1
102
RTVSPropertyOp47
 70
     1
102
RTVSPropertyOp48
 70
     1
102
RTVSPropertyOp49
 70
     1
102
RTVSPropertyOp50
 70
     1
102
RTVSPropertyOp51
 70
     0
102
RTVSPropertyOp52
 70
     0
102
RTVSPropertyOp53
 70
     1
102
RTVSPropertyOp54
 70
     1
102
RTVSPropertyOp55
 70
     1
102
RTVSPropertyOp56
 70
     1
102
RTVSPropertyOp57
 70
     1
102
RTVSPropertyOp58
 70
     1
102
RTVSPropertyOp59
 70
     1
102
RTVSPropertyOp60
 70
     1
102
RTVSPropertyOp61
 70
     1
102
RTVSPropertyOp62
 70
     1
  0
XRECORD
  5
76D
102
{ACAD_REACTORS
330
76C
102
}
330
76C
100
AcDbXrecord
280
     1
102
RTVSPost2010Prop28
280
     0
102
RTVSPost2010PropOp28
 70
     1
102
RTVSPost2010Prop29
280
     1
102
RTVSPost2010PropOp29
 70
     1
102
RTVSPost2010Prop30
280
     1
102
RTVSPost2010PropOp30
 70
     1
102
RTVSPost2010Prop31
280
     0
102
RTVSPost2010PropOp31
 70
     1
102
RTVSPost2010Prop32
280
     0
102
RTVSPost2010PropOp32
 70
     1
102
RTVSPost2010Prop33
280
     0
102
RTVSPost2010PropOp33
 70
     1
102
RTVSPost2010Prop34
280
     0
102
RTVSPost2010PropOp34
 70
     1
102
RTVSPost2010Prop35
280
     0
102
RTVSPost2010PropOp35
 70
     1
102
RTVSPost2010Prop36
280
     0
102
RTVSPost2010PropOp36
 70
     1
102
RTVSPost2010Prop37
 90
       50
102
RTVSPost2010PropOp37
 70
     1
102
RTVSPost2010Prop38
140
0.0
102
RTVSPost2010PropOp38
 70
     1
102
RTVSPost2010Prop39
140
1.0
102
RTVSPost2010PropOp39
 70
     1
102
RTVSPost2010Prop40
 90
        0
102
RTVSPost2010PropOp40
 70
     1
102
RTVSPost2010Prop41ColorIndex
 90
       18
102
RTVSPost2010Prop41ColorRGB
 90
        0
102
RTVSPost2010PropOp41
 70
     1
102
RTVSPost2010Prop42
 90
       50
102
RTVSPost2010PropOp42
 70
     1
102
RTVSPost2010Prop43
 90
        3
102
RTVSPost2010PropOp43
 70
     1
102
RTVSPost2010Prop44ColorIndex
 90
        5
102
RTVSPost2010Prop44ColorRGB
 90
      255
102
RTVSPost2010PropOp44
 70
     1
102
RTVSPost2010Prop45
280
     0
102
RTVSPost2010PropOp45
 70
     1
102
RTVSPost2010Prop46
 90
       50
102
RTVSPost2010PropOp46
 70
     1
102
RTVSPost2010Prop47
 90
       50
102
RTVSPost2010PropOp47
 70
     1
102
RTVSPost2010Prop48
 90
       50
102
RTVSPost2010PropOp48
 70
     1
102
RTVSPost2010Prop49
280
     0
102
RTVSPost2010PropOp49
 70
     1
102
RTVSPost2010Prop50
 90
       50
102
RTVSPost2010PropOp50
 70
     1
102
RTVSPost2010Prop51ColorIndex
 90
      256
102
RTVSPost2010Prop51ColorRGB
 90
-16777216
102
RTVSPost2010PropOp51
 70
     0
102
RTVSPost2010Prop52
140
1.0
102
RTVSPost2010PropOp52
 70
     0
102
RTVSPost2010Prop53
 90
        2
102
RTVSPost2010PropOp53
 70
     1
102
RTVSPost2010Prop54
  1
strokes_ogs.tif
102
RTVSPost2010PropOp54
 70
     1
102
RTVSPost2010Prop55
280
     0
102
RTVSPost2010PropOp55
 70
     1
102
RTVSPost2010Prop56
140
1.0
102
RTVSPost2010PropOp56
 70
     1
102
RTVSPost2010Prop57
140
1.0
102
RTVSPost2010PropOp57
 70
     1
102
RTVSPropertyOp0
 70
     1
102
RTVSPropertyOp1
 70
     1
102
RTVSPropertyOp2
 70
     1
102
RTVSPropertyOp3
 70
     1
102
RTVSPropertyOp4
 70
     1
102
RTVSPropertyOp5
 70
     1
102
RTVSPropertyOp6
 70
     1
102
RTVSPropertyOp7
 70
     1
102
RTVSPropertyOp8
 70
     1
102
RTVSPropertyOp9
 70
     1
102
RTVSPropertyOp10
 70
     1
102
RTVSPropertyOp11
 70
     1
102
RTVSPropertyOp12
 70
     1
102
RTVSPropertyOp13
 70
     1
102
RTVSPropertyOp14
 70
     1
102
RTVSPropertyOp15
 70
     1
102
RTVSPropertyOp16
 70
     1
102
RTVSPropertyOp17
 70
     1
102
RTVSPropertyOp18
 70
     1
102
RTVSPropertyOp19
 70
     1
102
RTVSPropertyOp20
 70
     1
102
RTVSPropertyOp21
 70
     1
102
RTVSPropertyOp22
 70
     1
102
RTVSPropertyOp23
 70
     1
102
RTVSPropertyOp24
 70
     1
102
RTVSPropertyOp25
 70
     1
102
RTVSPropertyOp26
 70
     1
102
RTVSPropertyOp27
 70
     1
102
RTVSPropertyOp28
 70
     1
102
RTVSPropertyOp29
 70
     1
102
RTVSPropertyOp30
 70
     1
102
RTVSPropertyOp31
 70
     1
102
RTVSPropertyOp32
 70
     1
102
RTVSPropertyOp33
 70
     1
102
RTVSPropertyOp34
 70
     1
102
RTVSPropertyOp35
 70
     1
102
RTVSPropertyOp36
 70
     1
102
RTVSPropertyOp37
 70
     1
102
RTVSPropertyOp38
 70
     1
102
RTVSPropertyOp39
 70
     1
102
RTVSPropertyOp40
 70
     1
102
RTVSPropertyOp41
 70
     1
102
RTVSPropertyOp42
 70
     1
102
RTVSPropertyOp43
 70
     1
102
RTVSPropertyOp44
 70
     1
102
RTVSPropertyOp45
 70
     1
102
RTVSPropertyOp46
 70
     1
102
RTVSPropertyOp47
 70
     1
102
RTVSPropertyOp48
 70
     1
102
RTVSPropertyOp49
 70
     1
102
RTVSPropertyOp50
 70
     1
102
RTVSPropertyOp51
 70
     0
102
RTVSPropertyOp52
 70
     0
102
RTVSPropertyOp53
 70
     1
102
RTVSPropertyOp54
 70
     1
102
RTVSPropertyOp55
 70
     1
102
RTVSPropertyOp56
 70
     1
102
RTVSPropertyOp57
 70
     1
102
RTVSPropertyOp58
 70
     1
102
RTVSPropertyOp59
 70
     1
102
RTVSPropertyOp60
 70
     1
102
RTVSPropertyOp61
 70
     1
102
RTVSPropertyOp62
 70
     1
  0
XRECORD
  5
763
102
{ACAD_REACTORS
330
762
102
}
330
762
100
AcDbXrecord
280
     1
102
RTVSPost2010Prop28
280
     0
102
RTVSPost2010PropOp28
 70
     1
102
RTVSPost2010Prop29
280
     1
102
RTVSPost2010PropOp29
 70
     1
102
RTVSPost2010Prop30
280
     1
102
RTVSPost2010PropOp30
 70
     1
102
RTVSPost2010Prop31
280
     0
102
RTVSPost2010PropOp31
 70
     1
102
RTVSPost2010Prop32
280
     0
102
RTVSPost2010PropOp32
 70
     1
102
RTVSPost2010Prop33
280
     0
102
RTVSPost2010PropOp33
 70
     1
102
RTVSPost2010Prop34
280
     0
102
RTVSPost2010PropOp34
 70
     1
102
RTVSPost2010Prop35
280
     0
102
RTVSPost2010PropOp35
 70
     1
102
RTVSPost2010Prop36
280
     0
102
RTVSPost2010PropOp36
 70
     1
102
RTVSPost2010Prop37
 90
       50
102
RTVSPost2010PropOp37
 70
     1
102
RTVSPost2010Prop38
140
0.0
102
RTVSPost2010PropOp38
 70
     1
102
RTVSPost2010Prop39
140
1.0
102
RTVSPost2010PropOp39
 70
     1
102
RTVSPost2010Prop40
 90
        0
102
RTVSPost2010PropOp40
 70
     1
102
RTVSPost2010Prop41ColorIndex
 90
       18
102
RTVSPost2010Prop41ColorRGB
 90
        0
102
RTVSPost2010PropOp41
 70
     1
102
RTVSPost2010Prop42
 90
       50
102
RTVSPost2010PropOp42
 70
     1
102
RTVSPost2010Prop43
 90
        3
102
RTVSPost2010PropOp43
 70
     1
102
RTVSPost2010Prop44ColorIndex
 90
        5
102
RTVSPost2010Prop44ColorRGB
 90
      255
102
RTVSPost2010PropOp44
 70
     1
102
RTVSPost2010Prop45
280
     0
102
RTVSPost2010PropOp45
 70
     1
102
RTVSPost2010Prop46
 90
       50
102
RTVSPost2010PropOp46
 70
     1
102
RTVSPost2010Prop47
 90
       50
102
RTVSPost2010PropOp47
 70
     1
102
RTVSPost2010Prop48
 90
       50
102
RTVSPost2010PropOp48
 70
     1
102
RTVSPost2010Prop49
280
     0
102
RTVSPost2010PropOp49
 70
     1
102
RTVSPost2010Prop50
 90
       50
102
RTVSPost2010PropOp50
 70
     1
102
RTVSPost2010Prop51ColorIndex
 90
      256
102
RTVSPost2010Prop51ColorRGB
 90
-16777216
102
RTVSPost2010PropOp51
 70
     0
102
RTVSPost2010Prop52
140
1.0
102
RTVSPost2010PropOp52
 70
     0
102
RTVSPost2010Prop53
 90
        2
102
RTVSPost2010PropOp53
 70
     1
102
RTVSPost2010Prop54
  1
strokes_ogs.tif
102
RTVSPost2010PropOp54
 70
     1
102
RTVSPost2010Prop55
280
     0
102
RTVSPost2010PropOp55
 70
     1
102
RTVSPost2010Prop56
140
1.0
102
RTVSPost2010PropOp56
 70
     1
102
RTVSPost2010Prop57
140
1.0
102
RTVSPost2010PropOp57
 70
     1
102
RTVSPropertyOp0
 70
     1
102
RTVSPropertyOp1
 70
     1
102
RTVSPropertyOp2
 70
     1
102
RTVSPropertyOp3
 70
     1
102
RTVSPropertyOp4
 70
     1
102
RTVSPropertyOp5
 70
     1
102
RTVSPropertyOp6
 70
     1
102
RTVSPropertyOp7
 70
     1
102
RTVSPropertyOp8
 70
     1
102
RTVSPropertyOp9
 70
     1
102
RTVSPropertyOp10
 70
     1
102
RTVSPropertyOp11
 70
     1
102
RTVSPropertyOp12
 70
     1
102
RTVSPropertyOp13
 70
     1
102
RTVSPropertyOp14
 70
     1
102
RTVSPropertyOp15
 70
     1
102
RTVSPropertyOp16
 70
     1
102
RTVSPropertyOp17
 70
     1
102
RTVSPropertyOp18
 70
     1
102
RTVSPropertyOp19
 70
     1
102
RTVSPropertyOp20
 70
     1
102
RTVSPropertyOp21
 70
     1
102
RTVSPropertyOp22
 70
     1
102
RTVSPropertyOp23
 70
     1
102
RTVSPropertyOp24
 70
     1
102
RTVSPropertyOp25
 70
     1
102
RTVSPropertyOp26
 70
     1
102
RTVSPropertyOp27
 70
     1
102
RTVSPropertyOp28
 70
     1
102
RTVSPropertyOp29
 70
     1
102
RTVSPropertyOp30
 70
     1
102
RTVSPropertyOp31
 70
     1
102
RTVSPropertyOp32
 70
     1
102
RTVSPropertyOp33
 70
     1
102
RTVSPropertyOp34
 70
     1
102
RTVSPropertyOp35
 70
     1
102
RTVSPropertyOp36
 70
     1
102
RTVSPropertyOp37
 70
     1
102
RTVSPropertyOp38
 70
     1
102
RTVSPropertyOp39
 70
     1
102
RTVSPropertyOp40
 70
     1
102
RTVSPropertyOp41
 70
     1
102
RTVSPropertyOp42
 70
     1
102
RTVSPropertyOp43
 70
     1
102
RTVSPropertyOp44
 70
     1
102
RTVSPropertyOp45
 70
     1
102
RTVSPropertyOp46
 70
     1
102
RTVSPropertyOp47
 70
     1
102
RTVSPropertyOp48
 70
     1
102
RTVSPropertyOp49
 70
     1
102
RTVSPropertyOp50
 70
     1
102
RTVSPropertyOp51
 70
     0
102
RTVSPropertyOp52
 70
     0
102
RTVSPropertyOp53
 70
     1
102
RTVSPropertyOp54
 70
     1
102
RTVSPropertyOp55
 70
     1
102
RTVSPropertyOp56
 70
     1
102
RTVSPropertyOp57
 70
     1
102
RTVSPropertyOp58
 70
     1
102
RTVSPropertyOp59
 70
     1
102
RTVSPropertyOp60
 70
     1
102
RTVSPropertyOp61
 70
     1
102
RTVSPropertyOp62
 70
     1
  0
XRECORD
  5
757
102
{ACAD_REACTORS
330
756
102
}
330
756
100
AcDbXrecord
280
     1
102
RTVSPost2010Prop28
280
     0
102
RTVSPost2010PropOp28
 70
     1
102
RTVSPost2010Prop29
280
     1
102
RTVSPost2010PropOp29
 70
     1
102
RTVSPost2010Prop30
280
     1
102
RTVSPost2010PropOp30
 70
     1
102
RTVSPost2010Prop31
280
     0
102
RTVSPost2010PropOp31
 70
     1
102
RTVSPost2010Prop32
280
     0
102
RTVSPost2010PropOp32
 70
     1
102
RTVSPost2010Prop33
280
     0
102
RTVSPost2010PropOp33
 70
     1
102
RTVSPost2010Prop34
280
     0
102
RTVSPost2010PropOp34
 70
     1
102
RTVSPost2010Prop35
280
     0
102
RTVSPost2010PropOp35
 70
     1
102
RTVSPost2010Prop36
280
     0
102
RTVSPost2010PropOp36
 70
     1
102
RTVSPost2010Prop37
 90
       50
102
RTVSPost2010PropOp37
 70
     1
102
RTVSPost2010Prop38
140
0.0
102
RTVSPost2010PropOp38
 70
     1
102
RTVSPost2010Prop39
140
1.0
102
RTVSPost2010PropOp39
 70
     1
102
RTVSPost2010Prop40
 90
        0
102
RTVSPost2010PropOp40
 70
     1
102
RTVSPost2010Prop41ColorIndex
 90
       18
102
RTVSPost2010Prop41ColorRGB
 90
        0
102
RTVSPost2010PropOp41
 70
     1
102
RTVSPost2010Prop42
 90
       50
102
RTVSPost2010PropOp42
 70
     1
102
RTVSPost2010Prop43
 90
        3
102
RTVSPost2010PropOp43
 70
     1
102
RTVSPost2010Prop44ColorIndex
 90
        5
102
RTVSPost2010Prop44ColorRGB
 90
      255
102
RTVSPost2010PropOp44
 70
     1
102
RTVSPost2010Prop45
280
     0
102
RTVSPost2010PropOp45
 70
     1
102
RTVSPost2010Prop46
 90
       50
102
RTVSPost2010PropOp46
 70
     1
102
RTVSPost2010Prop47
 90
       50
102
RTVSPost2010PropOp47
 70
     1
102
RTVSPost2010Prop48
 90
       50
102
RTVSPost2010PropOp48
 70
     1
102
RTVSPost2010Prop49
280
     0
102
RTVSPost2010PropOp49
 70
     1
102
RTVSPost2010Prop50
 90
       50
102
RTVSPost2010PropOp50
 70
     1
102
RTVSPost2010Prop51ColorIndex
 90
      256
102
RTVSPost2010Prop51ColorRGB
 90
-16777216
102
RTVSPost2010PropOp51
 70
     0
102
RTVSPost2010Prop52
140
1.0
102
RTVSPost2010PropOp52
 70
     0
102
RTVSPost2010Prop53
 90
        2
102
RTVSPost2010PropOp53
 70
     1
102
RTVSPost2010Prop54
  1
strokes_ogs.tif
102
RTVSPost2010PropOp54
 70
     1
102
RTVSPost2010Prop55
280
     0
102
RTVSPost2010PropOp55
 70
     1
102
RTVSPost2010Prop56
140
1.0
102
RTVSPost2010PropOp56
 70
     1
102
RTVSPost2010Prop57
140
1.0
102
RTVSPost2010PropOp57
 70
     1
102
RTVSPropertyOp0
 70
     1
102
RTVSPropertyOp1
 70
     1
102
RTVSPropertyOp2
 70
     1
102
RTVSPropertyOp3
 70
     1
102
RTVSPropertyOp4
 70
     1
102
RTVSPropertyOp5
 70
     1
102
RTVSPropertyOp6
 70
     1
102
RTVSPropertyOp7
 70
     1
102
RTVSPropertyOp8
 70
     1
102
RTVSPropertyOp9
 70
     1
102
RTVSPropertyOp10
 70
     1
102
RTVSPropertyOp11
 70
     1
102
RTVSPropertyOp12
 70
     1
102
RTVSPropertyOp13
 70
     1
102
RTVSPropertyOp14
 70
     1
102
RTVSPropertyOp15
 70
     1
102
RTVSPropertyOp16
 70
     1
102
RTVSPropertyOp17
 70
     1
102
RTVSPropertyOp18
 70
     1
102
RTVSPropertyOp19
 70
     1
102
RTVSPropertyOp20
 70
     1
102
RTVSPropertyOp21
 70
     1
102
RTVSPropertyOp22
 70
     1
102
RTVSPropertyOp23
 70
     1
102
RTVSPropertyOp24
 70
     1
102
RTVSPropertyOp25
 70
     1
102
RTVSPropertyOp26
 70
     1
102
RTVSPropertyOp27
 70
     1
102
RTVSPropertyOp28
 70
     1
102
RTVSPropertyOp29
 70
     1
102
RTVSPropertyOp30
 70
     1
102
RTVSPropertyOp31
 70
     1
102
RTVSPropertyOp32
 70
     1
102
RTVSPropertyOp33
 70
     1
102
RTVSPropertyOp34
 70
     1
102
RTVSPropertyOp35
 70
     1
102
RTVSPropertyOp36
 70
     1
102
RTVSPropertyOp37
 70
     1
102
RTVSPropertyOp38
 70
     1
102
RTVSPropertyOp39
 70
     1
102
RTVSPropertyOp40
 70
     1
102
RTVSPropertyOp41
 70
     1
102
RTVSPropertyOp42
 70
     1
102
RTVSPropertyOp43
 70
     1
102
RTVSPropertyOp44
 70
     1
102
RTVSPropertyOp45
 70
     1
102
RTVSPropertyOp46
 70
     1
102
RTVSPropertyOp47
 70
     1
102
RTVSPropertyOp48
 70
     1
102
RTVSPropertyOp49
 70
     1
102
RTVSPropertyOp50
 70
     1
102
RTVSPropertyOp51
 70
     0
102
RTVSPropertyOp52
 70
     0
102
RTVSPropertyOp53
 70
     1
102
RTVSPropertyOp54
 70
     1
102
RTVSPropertyOp55
 70
     1
102
RTVSPropertyOp56
 70
     1
102
RTVSPropertyOp57
 70
     1
102
RTVSPropertyOp58
 70
     1
102
RTVSPropertyOp59
 70
     1
102
RTVSPropertyOp60
 70
     1
102
RTVSPropertyOp61
 70
     1
102
RTVSPropertyOp62
 70
     1
  0
XRECORD
  5
76F
102
{ACAD_REACTORS
330
76E
102
}
330
76E
100
AcDbXrecord
280
     1
102
RTVSPost2010Prop28
280
     0
102
RTVSPost2010PropOp28
 70
     1
102
RTVSPost2010Prop29
280
     1
102
RTVSPost2010PropOp29
 70
     1
102
RTVSPost2010Prop30
280
     1
102
RTVSPost2010PropOp30
 70
     1
102
RTVSPost2010Prop31
280
     0
102
RTVSPost2010PropOp31
 70
     1
102
RTVSPost2010Prop32
280
     0
102
RTVSPost2010PropOp32
 70
     1
102
RTVSPost2010Prop33
280
     0
102
RTVSPost2010PropOp33
 70
     1
102
RTVSPost2010Prop34
280
     0
102
RTVSPost2010PropOp34
 70
     1
102
RTVSPost2010Prop35
280
     0
102
RTVSPost2010PropOp35
 70
     1
102
RTVSPost2010Prop36
280
     0
102
RTVSPost2010PropOp36
 70
     1
102
RTVSPost2010Prop37
 90
       50
102
RTVSPost2010PropOp37
 70
     1
102
RTVSPost2010Prop38
140
0.0
102
RTVSPost2010PropOp38
 70
     1
102
RTVSPost2010Prop39
140
1.0
102
RTVSPost2010PropOp39
 70
     1
102
RTVSPost2010Prop40
 90
        0
102
RTVSPost2010PropOp40
 70
     1
102
RTVSPost2010Prop41ColorIndex
 90
       18
102
RTVSPost2010Prop41ColorRGB
 90
        0
102
RTVSPost2010PropOp41
 70
     1
102
RTVSPost2010Prop42
 90
       50
102
RTVSPost2010PropOp42
 70
     1
102
RTVSPost2010Prop43
 90
        3
102
RTVSPost2010PropOp43
 70
     1
102
RTVSPost2010Prop44ColorIndex
 90
        5
102
RTVSPost2010Prop44ColorRGB
 90
      255
102
RTVSPost2010PropOp44
 70
     1
102
RTVSPost2010Prop45
280
     0
102
RTVSPost2010PropOp45
 70
     1
102
RTVSPost2010Prop46
 90
       50
102
RTVSPost2010PropOp46
 70
     1
102
RTVSPost2010Prop47
 90
       50
102
RTVSPost2010PropOp47
 70
     1
102
RTVSPost2010Prop48
 90
       50
102
RTVSPost2010PropOp48
 70
     1
102
RTVSPost2010Prop49
280
     0
102
RTVSPost2010PropOp49
 70
     1
102
RTVSPost2010Prop50
 90
       50
102
RTVSPost2010PropOp50
 70
     1
102
RTVSPost2010Prop51ColorIndex
 90
      256
102
RTVSPost2010Prop51ColorRGB
 90
-16777216
102
RTVSPost2010PropOp51
 70
     0
102
RTVSPost2010Prop52
140
1.0
102
RTVSPost2010PropOp52
 70
     0
102
RTVSPost2010Prop53
 90
        2
102
RTVSPost2010PropOp53
 70
     1
102
RTVSPost2010Prop54
  1
strokes_ogs.tif
102
RTVSPost2010PropOp54
 70
     1
102
RTVSPost2010Prop55
280
     0
102
RTVSPost2010PropOp55
 70
     1
102
RTVSPost2010Prop56
140
1.0
102
RTVSPost2010PropOp56
 70
     1
102
RTVSPost2010Prop57
140
1.0
102
RTVSPost2010PropOp57
 70
     1
102
RTVSPropertyOp0
 70
     1
102
RTVSPropertyOp1
 70
     1
102
RTVSPropertyOp2
 70
     1
102
RTVSPropertyOp3
 70
     1
102
RTVSPropertyOp4
 70
     1
102
RTVSPropertyOp5
 70
     1
102
RTVSPropertyOp6
 70
     1
102
RTVSPropertyOp7
 70
     1
102
RTVSPropertyOp8
 70
     1
102
RTVSPropertyOp9
 70
     1
102
RTVSPropertyOp10
 70
     1
102
RTVSPropertyOp11
 70
     1
102
RTVSPropertyOp12
 70
     1
102
RTVSPropertyOp13
 70
     1
102
RTVSPropertyOp14
 70
     1
102
RTVSPropertyOp15
 70
     1
102
RTVSPropertyOp16
 70
     1
102
RTVSPropertyOp17
 70
     1
102
RTVSPropertyOp18
 70
     1
102
RTVSPropertyOp19
 70
     1
102
RTVSPropertyOp20
 70
     1
102
RTVSPropertyOp21
 70
     1
102
RTVSPropertyOp22
 70
     1
102
RTVSPropertyOp23
 70
     1
102
RTVSPropertyOp24
 70
     1
102
RTVSPropertyOp25
 70
     1
102
RTVSPropertyOp26
 70
     1
102
RTVSPropertyOp27
 70
     1
102
RTVSPropertyOp28
 70
     1
102
RTVSPropertyOp29
 70
     1
102
RTVSPropertyOp30
 70
     1
102
RTVSPropertyOp31
 70
     1
102
RTVSPropertyOp32
 70
     1
102
RTVSPropertyOp33
 70
     1
102
RTVSPropertyOp34
 70
     1
102
RTVSPropertyOp35
 70
     1
102
RTVSPropertyOp36
 70
     1
102
RTVSPropertyOp37
 70
     1
102
RTVSPropertyOp38
 70
     1
102
RTVSPropertyOp39
 70
     1
102
RTVSPropertyOp40
 70
     1
102
RTVSPropertyOp41
 70
     1
102
RTVSPropertyOp42
 70
     1
102
RTVSPropertyOp43
 70
     1
102
RTVSPropertyOp44
 70
     1
102
RTVSPropertyOp45
 70
     1
102
RTVSPropertyOp46
 70
     1
102
RTVSPropertyOp47
 70
     1
102
RTVSPropertyOp48
 70
     1
102
RTVSPropertyOp49
 70
     1
102
RTVSPropertyOp50
 70
     1
102
RTVSPropertyOp51
 70
     0
102
RTVSPropertyOp52
 70
     0
102
RTVSPropertyOp53
 70
     1
102
RTVSPropertyOp54
 70
     1
102
RTVSPropertyOp55
 70
     1
102
RTVSPropertyOp56
 70
     1
102
RTVSPropertyOp57
 70
     1
102
RTVSPropertyOp58
 70
     1
102
RTVSPropertyOp59
 70
     1
102
RTVSPropertyOp60
 70
     1
102
RTVSPropertyOp61
 70
     1
102
RTVSPropertyOp62
 70
     1
  0
ENDSEC
  0
EOF
