  0
SECTION
  2
HEADER
  9
$ACADVER
  1
AC1015
  9
$ACADMAINTVER
 70
    20
  9
$DWGCODEPAGE
  3
ANSI_932
  9
$INSBASE
 10
0.0
 20
0.0
 30
0.0
  9
$EXTMIN
 10
10.0
 20
9.999999999999998
 30
0.0
  9
$EXTMAX
 10
281.090036
 20
221.2466009999999
 30
0.0
  9
$LIMMIN
 10
0.0
 20
0.0
  9
$LIMMAX
 10
396.0
 20
273.0
  9
$ORTHOMODE
 70
     1
  9
$REGENMODE
 70
     1
  9
$FILLMODE
 70
     1
  9
$QTEXTMODE
 70
     0
  9
$MIRRTEXT
 70
     1
  9
$LTSCALE
 40
20.0
  9
$ATTMODE
 70
     1
  9
$TEXTSIZE
 40
5.0
  9
$TRACEWID
 40
1.0
  9
$TEXTSTYLE
  7
STANDARD
  9
$CLAYER
  8
0
  9
$CELTYPE
  6
BYLAYER
  9
$CECOLOR
 62
   256
  9
$CELTSCALE
 40
1.0
  9
$DISPSILH
 70
     0
  9
$DIMSCALE
 40
1.0
  9
$DIMASZ
 40
3.0
  9
$DIMEXO
 40
1.0
  9
$DIMDLI
 40
10.0
  9
$DIMRND
 40
0.0
  9
$DIMDLE
 40
0.0
  9
$DIMEXE
 40
1.0
  9
$DIMTP
 40
0.0
  9
$DIMTM
 40
0.0
  9
$DIMTXT
 40
3.2
  9
$DIMCEN
 40
0.0
  9
$DIMTSZ
 40
0.0
  9
$DIMTOL
 70
     0
  9
$DIMLIM
 70
     0
  9
$DIMTIH
 70
     0
  9
$DIMTOH
 70
     0
  9
$DIMSE1
 70
     0
  9
$DIMSE2
 70
     0
  9
$DIMTAD
 70
     3
  9
$DIMZIN
 70
     8
  9
$DIMBLK
  1

  9
$DIMASO
 70
     1
  9
$DIMSHO
 70
     1
  9
$DIMPOST
  1

  9
$DIMAPOST
  1

  9
$DIMALT
 70
     0
  9
$DIMALTD
 70
     2
  9
$DIMALTF
 40
25.4
  9
$DIMLFAC
 40
1.0
  9
$DIMTOFL
 70
     1
  9
$DIMTVP
 40
0.0
  9
$DIMTIX
 70
     0
  9
$DIMSOXD
 70
     0
  9
$DIMSAH
 70
     1
  9
$DIMBLK1
  1

  9
$DIMBLK2
  1

  9
$DIMSTYLE
  2
STANDARD
  9
$DIMCLRD
 70
     0
  9
$DIMCLRE
 70
     0
  9
$DIMCLRT
 70
     0
  9
$DIMTFAC
 40
1.0
  9
$DIMGAP
 40
1.0
  9
$DIMJUST
 70
     0
  9
$DIMSD1
 70
     0
  9
$DIMSD2
 70
     0
  9
$DIMTOLJ
 70
     1
  9
$DIMTZIN
 70
     0
  9
$DIMALTZ
 70
     0
  9
$DIMALTTZ
 70
     0
  9
$DIMUPT
 70
     0
  9
$DIMDEC
 70
     4
  9
$DIMTDEC
 70
     4
  9
$DIMALTU
 70
     2
  9
$DIMALTTD
 70
     2
  9
$DIMTXSTY
  7
STANDARD
  9
$DIMAUNIT
 70
     0
  9
$DIMADEC
 70
     0
  9
$DIMALTRND
 40
0.0
  9
$DIMAZIN
 70
     0
  9
$DIMDSEP
 70
    46
  9
$DIMATFIT
 70
     3
  9
$DIMFRAC
 70
     0
  9
$DIMLDRBLK
  1

  9
$DIMLUNIT
 70
     2
  9
$DIMLWD
 70
    -2
  9
$DIMLWE
 70
    -2
  9
$DIMTMOVE
 70
     0
  9
$LUNITS
 70
     2
  9
$LUPREC
 70
     4
  9
$SKETCHINC
 40
1.0
  9
$FILLETRAD
 40
2.5
  9
$AUNITS
 70
     0
  9
$AUPREC
 70
     2
  9
$MENU
  1
.
  9
$ELEVATION
 40
0.0
  9
$PELEVATION
 40
0.0
  9
$THICKNESS
 40
0.0
  9
$LIMCHECK
 70
     0
  9
$CHAMFERA
 40
10.0
  9
$CHAMFERB
 40
10.0
  9
$CHAMFERC
 40
0.0
  9
$CHAMFERD
 40
0.0
  9
$SKPOLY
 70
     0
  9
$TDCREATE
 40
2450945.702702314
  9
$TDUCREATE
 40
2450945.327702314
  9
$TDUPDATE
 40
2457192.600109827
  9
$TDUUPDATE
 40
2457192.225109826
  9
$TDINDWG
 40
0.0000149653
  9
$TDUSRTIMER
 40
0.0000144792
  9
$USRTIMER
 70
     1
  9
$ANGBASE
 50
0.0
  9
$ANGDIR
 70
     0
  9
$PDMODE
 70
     0
  9
$PDSIZE
 40
0.0
  9
$PLINEWID
 40
0.0
  9
$SPLFRAME
 70
     0
  9
$SPLINETYPE
 70
     6
  9
$SPLINESEGS
 70
     8
  9
$HANDSEED
  5
98B6
  9
$SURFTAB1
 70
     6
  9
$SURFTAB2
 70
     6
  9
$SURFTYPE
 70
     6
  9
$SURFU
 70
     6
  9
$SURFV
 70
     6
  9
$UCSBASE
  2

  9
$UCSNAME
  2

  9
$UCSORG
 10
0.0
 20
0.0
 30
0.0
  9
$UCSXDIR
 10
1.0
 20
0.0
 30
0.0
  9
$UCSYDIR
 10
0.0
 20
1.0
 30
0.0
  9
$UCSORTHOREF
  2

  9
$UCSORTHOVIEW
 70
     0
  9
$UCSORGTOP
 10
0.0
 20
0.0
 30
0.0
  9
$UCSORGBOTTOM
 10
0.0
 20
0.0
 30
0.0
  9
$UCSORGLEFT
 10
0.0
 20
0.0
 30
0.0
  9
$UCSORGRIGHT
 10
0.0
 20
0.0
 30
0.0
  9
$UCSORGFRONT
 10
0.0
 20
0.0
 30
0.0
  9
$UCSORGBACK
 10
0.0
 20
0.0
 30
0.0
  9
$PUCSBASE
  2

  9
$PUCSNAME
  2

  9
$PUCSORG
 10
0.0
 20
0.0
 30
0.0
  9
$PUCSXDIR
 10
1.0
 20
0.0
 30
0.0
  9
$PUCSYDIR
 10
0.0
 20
1.0
 30
0.0
  9
$PUCSORTHOREF
  2

  9
$PUCSORTHOVIEW
 70
     0
  9
$PUCSORGTOP
 10
0.0
 20
0.0
 30
0.0
  9
$PUCSORGBOTTOM
 10
0.0
 20
0.0
 30
0.0
  9
$PUCSORGLEFT
 10
0.0
 20
0.0
 30
0.0
  9
$PUCSORGRIGHT
 10
0.0
 20
0.0
 30
0.0
  9
$PUCSORGFRONT
 10
0.0
 20
0.0
 30
0.0
  9
$PUCSORGBACK
 10
0.0
 20
0.0
 30
0.0
  9
$USERI1
 70
     0
  9
$USERI2
 70
     0
  9
$USERI3
 70
     0
  9
$USERI4
 70
     0
  9
$USERI5
 70
     0
  9
$USERR1
 40
0.0
  9
$USERR2
 40
0.0
  9
$USERR3
 40
0.0
  9
$USERR4
 40
0.0
  9
$USERR5
 40
0.0
  9
$WORLDVIEW
 70
     1
  9
$SHADEDGE
 70
     3
  9
$SHADEDIF
 70
    70
  9
$TILEMODE
 70
     1
  9
$MAXACTVP
 70
    16
  9
$PINSBASE
 10
0.0
 20
0.0
 30
0.0
  9
$PLIMCHECK
 70
     0
  9
$PEXTMIN
 10
1.000000000000000E+20
 20
1.000000000000000E+20
 30
1.000000000000000E+20
  9
$PEXTMAX
 10
-1.000000000000000E+20
 20
-1.000000000000000E+20
 30
-1.000000000000000E+20
  9
$PLIMMIN
 10
0.0
 20
0.0
  9
$PLIMMAX
 10
420.0
 20
297.0
  9
$UNITMODE
 70
     0
  9
$VISRETAIN
 70
     0
  9
$PLINEGEN
 70
     0
  9
$PSLTSCALE
 70
     0
  9
$TREEDEPTH
 70
  3020
  9
$CMLSTYLE
  2
STANDARD
  9
$CMLJUST
 70
     0
  9
$CMLSCALE
 40
1.0
  9
$PROXYGRAPHICS
 70
     1
  9
$MEASUREMENT
 70
     0
  9
$CELWEIGHT
370
    -1
  9
$ENDCAPS
280
     0
  9
$JOINSTYLE
280
     0
  9
$LWDISPLAY
290
     0
  9
$INSUNITS
 70
     0
  9
$HYPERLINKBASE
  1

  9
$STYLESHEET
  1

  9
$XEDIT
290
     1
  9
$CEPSNTYPE
380
     0
  9
$PSTYLEMODE
290
     1
  9
$FINGERPRINTGUID
  2
{7650441E-3764-4C00-A3D0-6B24779F9C12}
  9
$VERSIONGUID
  2
{75520981-D310-416B-86CE-3BBA45F33A9A}
  9
$EXTNAMES
290
     1
  9
$PSVPSCALE
 40
0.0
  9
$OLESTARTUP
290
     0
  0
ENDSEC
  0
SECTION
  2
CLASSES
  0
CLASS
  1
ACDBDICTIONARYWDFLT
  2
AcDbDictionaryWithDefault
  3
ObjectDBX Classes
 90
        0
280
     0
281
     0
  0
CLASS
  1
ACDBPLACEHOLDER
  2
AcDbPlaceHolder
  3
ObjectDBX Classes
 90
        0
280
     0
281
     0
  0
CLASS
  1
LAYOUT
  2
AcDbLayout
  3
ObjectDBX Classes
 90
        0
280
     0
281
     0
  0
CLASS
  1
DICTIONARYVAR
  2
AcDbDictionaryVar
  3
ObjectDBX Classes
 90
        0
280
     0
281
     0
  0
CLASS
  1
MATERIAL
  2
AcDbMaterial
  3
ObjectDBX Classes
 90
     1153
280
     0
281
     0
  0
CLASS
  1
VISUALSTYLE
  2
AcDbVisualStyle
  3
ObjectDBX Classes
 90
     4095
280
     0
281
     0
  0
CLASS
  1
TABLESTYLE
  2
AcDbTableStyle
  3
ObjectDBX Classes
 90
     4095
280
     0
281
     0
  0
CLASS
  1
SCALE
  2
AcDbScale
  3
ObjectDBX Classes
 90
     1153
280
     0
281
     0
  0
CLASS
  1
MLEADERSTYLE
  2
AcDbMLeaderStyle
  3
ACDB_MLEADERSTYLE_CLASS
 90
     4095
280
     0
281
     0
  0
CLASS
  1
ACDBSECTIONVIEWSTYLE
  2
AcDbSectionViewStyle
  3
ObjectDBX Classes
 90
     1025
280
     0
281
     0
  0
CLASS
  1
ACDBDETAILVIEWSTYLE
  2
AcDbDetailViewStyle
  3
ObjectDBX Classes
 90
     1025
280
     0
281
     0
  0
CLASS
  1
CELLSTYLEMAP
  2
AcDbCellStyleMap
  3
ObjectDBX Classes
 90
     1152
280
     0
281
     0
  0
ENDSEC
  0
SECTION
  2
TABLES
  0
TABLE
  2
VPORT
  5
9616
330
0
100
AcDbSymbolTable
 70
     1
  0
VPORT
  5
97FF
330
9616
100
AcDbSymbolTableRecord
100
AcDbViewportTableRecord
  2
*ACTIVE
 70
     0
 10
0.0
 20
0.0
 11
1.0
 21
1.0
 12
209.538387984779
 22
115.6196829233314
 13
0.0
 23
0.0
 14
10.0
 24
10.0
 15
10.0
 25
10.0
 16
0.0
 26
0.0
 36
1.0
 17
0.0
 27
0.0
 37
0.0
 40
213.623740218987
 41
1.899603698811096
 42
50.0
 43
0.0
 44
0.0
 50
0.0
 51
0.0
 71
     0
 72
   100
 73
     1
 74
     0
 75
     0
 76
     0
 77
     0
 78
     0
281
     0
 65
     1
110
0.0
120
0.0
130
0.0
111
1.0
121
0.0
131
0.0
112
0.0
122
1.0
132
0.0
 79
     0
146
0.0
1001
ACAD_NAV_VCDISPLAY
1070
     3
  0
ENDTAB
  0
TABLE
  2
LTYPE
  5
9613
330
0
100
AcDbSymbolTable
 70
     4
  0
LTYPE
  5
9621
330
9613
100
AcDbSymbolTableRecord
100
AcDbLinetypeTableRecord
  2
BYBLOCK
 70
     0
  3

 72
    65
 73
     0
 40
0.0
  0
LTYPE
  5
9622
330
9613
100
AcDbSymbolTableRecord
100
AcDbLinetypeTableRecord
  2
BYLAYER
 70
     0
  3

 72
    65
 73
     0
 40
0.0
  0
LTYPE
  5
9623
330
9613
100
AcDbSymbolTableRecord
100
AcDbLinetypeTableRecord
  2
CONTINUOUS
 70
     0
  3
Solid line
 72
    65
 73
     0
 40
0.0
  0
LTYPE
  5
9631
330
9613
100
AcDbSymbolTableRecord
100
AcDbLinetypeTableRecord
  2
DASHED
 70
     0
  3
__ __ __ __ __ __ __ __ __ __ __ __ __ __ __ __
 72
    65
 73
     2
 40
0.75
 49
0.5
 74
     0
 49
-0.25
 74
     0
  0
LTYPE
  5
9632
330
9613
100
AcDbSymbolTableRecord
100
AcDbLinetypeTableRecord
  2
CENTER
 70
     0
  3
____ _ ____ _ ____ _ ____ _ ____ _ ____ _ ____ 
 72
    65
 73
     4
 40
2.0
 49
1.25
 74
     0
 49
-0.25
 74
     0
 49
0.25
 74
     0
 49
-0.25
 74
     0
  0
LTYPE
  5
9633
330
9613
100
AcDbSymbolTableRecord
100
AcDbLinetypeTableRecord
  2
PHANTOM
 70
     0
  3
______  __  __  ______  __  __  ______  __  __ 
 72
    65
 73
     6
 40
2.5
 49
1.25
 74
     0
 49
-0.25
 74
     0
 49
0.25
 74
     0
 49
-0.25
 74
     0
 49
0.25
 74
     0
 49
-0.25
 74
     0
  0
ENDTAB
  0
TABLE
  2
LAYER
  5
9610
330
0
100
AcDbSymbolTable
 70
     8
  0
LAYER
  5
961E
102
{ACAD_XDICTIONARY
360
985A
102
}
330
9610
100
AcDbSymbolTableRecord
100
AcDbLayerTableRecord
  2
0
 70
     0
 62
     7
  6
CONTINUOUS
370
    -3
390
9808
  0
LAYER
  5
9634
102
{ACAD_XDICTIONARY
360
985C
102
}
330
9610
100
AcDbSymbolTableRecord
100
AcDbLayerTableRecord
  2
4
 70
     0
 62
     1
  6
CENTER
370
    -3
390
9808
  0
LAYER
  5
9635
102
{ACAD_XDICTIONARY
360
985E
102
}
330
9610
100
AcDbSymbolTableRecord
100
AcDbLayerTableRecord
  2
5
 70
     0
 62
     6
  6
PHANTOM
370
    -3
390
9808
  0
LAYER
  5
9636
102
{ACAD_XDICTIONARY
360
9860
102
}
330
9610
100
AcDbSymbolTableRecord
100
AcDbLayerTableRecord
  2
1
 70
     0
 62
     7
  6
CONTINUOUS
370
    -3
390
9808
  0
LAYER
  5
9637
102
{ACAD_XDICTIONARY
360
9862
102
}
330
9610
100
AcDbSymbolTableRecord
100
AcDbLayerTableRecord
  2
2
 70
     0
 62
     4
  6
CONTINUOUS
370
    -3
390
9808
  0
LAYER
  5
9638
102
{ACAD_XDICTIONARY
360
9864
102
}
330
9610
100
AcDbSymbolTableRecord
100
AcDbLayerTableRecord
  2
3
 70
     0
 62
     2
  6
DASHED
370
    -3
390
9808
  0
LAYER
  5
9639
102
{ACAD_XDICTIONARY
360
9866
102
}
330
9610
100
AcDbSymbolTableRecord
100
AcDbLayerTableRecord
  2
6
 70
     0
 62
     5
  6
CONTINUOUS
370
    -3
390
9808
  0
LAYER
  5
963A
102
{ACAD_XDICTIONARY
360
9868
102
}
330
9610
100
AcDbSymbolTableRecord
100
AcDbLayerTableRecord
  2
7
 70
     0
 62
     3
  6
CONTINUOUS
370
    -3
390
9808
  0
ENDTAB
  0
TABLE
  2
STYLE
  5
9611
330
0
100
AcDbSymbolTable
 70
     1
  0
STYLE
  5
961F
330
9611
100
AcDbSymbolTableRecord
100
AcDbTextStyleTableRecord
  2
STANDARD
 70
     0
 40
0.0
 41
1.0
 50
0.0
 71
     0
 42
5.0
  3
txt
  4

  0
ENDTAB
  0
TABLE
  2
VIEW
  5
9614
330
0
100
AcDbSymbolTable
 70
     0
  0
ENDTAB
  0
TABLE
  2
UCS
  5
9615
330
0
100
AcDbSymbolTable
 70
     0
  0
ENDTAB
  0
TABLE
  2
APPID
  5
9617
330
0
100
AcDbSymbolTable
 70
     3
  0
APPID
  5
9620
330
9617
100
AcDbSymbolTableRecord
100
AcDbRegAppTableRecord
  2
ACAD
 70
     0
  0
APPID
  5
9874
330
9617
100
AcDbSymbolTableRecord
100
AcDbRegAppTableRecord
  2
ACAD_NAV_VCDISPLAY
 70
     0
  0
APPID
  5
98AD
330
9617
100
AcDbSymbolTableRecord
100
AcDbRegAppTableRecord
  2
ACAD_MLEADERVER
 70
     0
  0
ENDTAB
  0
TABLE
  2
DIMSTYLE
  5
9618
330
0
100
AcDbSymbolTable
 70
     1
100
AcDbDimStyleTable
 71
     0
  0
DIMSTYLE
105
963C
330
9618
100
AcDbSymbolTableRecord
100
AcDbDimStyleTableRecord
  2
STANDARD
 70
     0
 41
3.0
 42
1.0
 43
10.0
 44
1.0
 73
     0
 74
     0
 77
     3
 78
     8
140
3.2
141
0.0
147
1.0
172
     1
173
     1
284
     8
285
     8
286
     8
340
961F
  0
ENDTAB
  0
TABLE
  2
BLOCK_RECORD
  5
960F
330
0
100
AcDbSymbolTable
 70
     0
  0
BLOCK_RECORD
  5
962C
102
{ACAD_XDICTIONARY
360
9802
102
}
330
960F
100
AcDbSymbolTableRecord
100
AcDbBlockTableRecord
  2
*MODEL_SPACE
340
9856
  0
BLOCK_RECORD
  5
9628
102
{ACAD_XDICTIONARY
360
9800
102
}
330
960F
100
AcDbSymbolTableRecord
100
AcDbBlockTableRecord
  2
*PAPER_SPACE
340
9857
  0
ENDTAB
  0
ENDSEC
  0
SECTION
  2
BLOCKS
  0
BLOCK
  5
962D
330
962C
100
AcDbEntity
  8
0
100
AcDbBlockBegin
  2
*MODEL_SPACE
 70
     0
 10
0.0
 20
0.0
 30
0.0
  3
*MODEL_SPACE
  1

  0
ENDBLK
  5
962E
330
962C
100
AcDbEntity
  8
0
100
AcDbBlockEnd
  0
BLOCK
  5
9629
330
9628
100
AcDbEntity
 67
     1
  8
0
100
AcDbBlockBegin
  2
*PAPER_SPACE
 70
     0
 10
0.0
 20
0.0
 30
0.0
  3
*PAPER_SPACE
  1

  0
ENDBLK
  5
962A
330
9628
100
AcDbEntity
 67
     1
  8
0
100
AcDbBlockEnd
  0
ENDSEC
  0
SECTION
  2
ENTITIES
  0
TEXT
  5
9644
330
962C
100
AcDbEntity
  8
7
  6
Continuous
100
AcDbText
 10
10.0
 20
18.0
 30
0.0
 40
3.0
  1
TYPE No.TL-225
100
AcDbText
  0
TEXT
  5
9645
330
962C
100
AcDbEntity
  8
7
  6
Continuous
100
AcDbText
 10
10.0
 20
26.0
 30
0.0
 40
3.0
  1
CODE No.1282
100
AcDbText
  0
TEXT
  5
9646
330
962C
100
AcDbEntity
  8
1
  6
Continuous
100
AcDbText
 10
10.0
 20
10.0
 30
0.0
 40
1.399999999999999
  1
LAYER
100
AcDbText
  0
TEXT
  5
9647
330
962C
100
AcDbEntity
  8
1
  6
Continuous
100
AcDbText
 10
17.97951099999998
 20
10.04873699999998
 30
0.0
 40
1.399999999999999
  1
1
100
AcDbText
  0
TEXT
  5
9648
330
962C
100
AcDbEntity
  8
7
  6
Continuous
100
AcDbText
 10
29.97951099999999
 20
10.04873699999998
 30
0.0
 40
1.399999999999999
  1
7
100
AcDbText
  0
TEXT
  5
9649
330
962C
100
AcDbEntity
  8
4
  6
CENTER
100
AcDbText
 10
23.97951099999999
 20
10.04873699999998
 30
0.0
 40
1.399999999999999
  1
4
100
AcDbText
  0
TEXT
  5
964A
330
962C
100
AcDbEntity
  8
3
  6
DASHED
100
AcDbText
 10
21.979511
 20
10.04873699999998
 30
0.0
 40
1.399999999999999
  1
3
100
AcDbText
  0
TEXT
  5
964B
330
962C
100
AcDbEntity
  8
2
  6
Continuous
100
AcDbText
 10
19.97951099999999
 20
10.04873699999998
 30
0.0
 40
1.399999999999999
  1
2
100
AcDbText
  0
TEXT
  5
964C
330
962C
100
AcDbEntity
  8
6
  6
Continuous
100
AcDbText
 10
27.979511
 20
10.04873699999998
 30
0.0
 40
1.399999999999999
  1
6
100
AcDbText
  0
TEXT
  5
964D
330
962C
100
AcDbEntity
  8
5
  6
PHANTOM
100
AcDbText
 10
25.97951099999999
 20
10.04873699999998
 30
0.0
 40
1.399999999999999
  1
5
100
AcDbText
  0
LINE
  5
964E
330
962C
100
AcDbEntity
  8
1
  6
Continuous
100
AcDbLine
 10
119.8570359999999
 20
190.746601
 30
0.0
 11
120.657036
 21
190.746601
 31
0.0
  0
LINE
  5
964F
330
962C
100
AcDbEntity
  8
1
  6
Continuous
100
AcDbLine
 10
119.8570359999999
 20
205.746601
 30
0.0
 11
120.657036
 21
205.746601
 31
0.0
  0
LINE
  5
9650
330
962C
100
AcDbEntity
  8
1
  6
Continuous
100
AcDbLine
 10
116.657036
 20
204.246601
 30
0.0
 11
116.657036
 21
192.2466009999999
 31
0.0
  0
LINE
  5
9651
330
962C
100
AcDbEntity
  8
1
  6
Continuous
100
AcDbLine
 10
120.657036
 20
205.746601
 30
0.0
 11
120.657036
 21
190.746601
 31
0.0
  0
LINE
  5
9652
330
962C
100
AcDbEntity
  8
1
  6
Continuous
100
AcDbLine
 10
119.8570359999999
 20
205.746601
 30
0.0
 11
119.8570359999999
 21
190.746601
 31
0.0
  0
LINE
  5
9653
330
962C
100
AcDbEntity
  8
1
  6
Continuous
100
AcDbLine
 10
131.857036
 20
200.246601
 30
0.0
 11
131.857036
 21
199.9466009999999
 31
0.0
  0
LINE
  5
9654
330
962C
100
AcDbEntity
  8
1
  6
Continuous
100
AcDbLine
 10
116.657036
 20
192.2466009999999
 30
0.0
 11
119.8570359999999
 21
190.746601
 31
0.0
  0
LINE
  5
9655
330
962C
100
AcDbEntity
  8
1
  6
Continuous
100
AcDbLine
 10
119.8570359999999
 20
205.746601
 30
0.0
 11
116.657036
 21
204.246601
 31
0.0
  0
LINE
  5
9656
330
962C
100
AcDbEntity
  8
4
  6
CENTER
100
AcDbLine
 10
114.433036
 20
198.2466009999999
 30
0.0
 11
139.724036
 21
198.2466009999999
 31
0.0
  0
LINE
  5
9657
330
962C
100
AcDbEntity
  8
4
  6
CENTER
100
AcDbLine
 10
243.2810359999999
 20
118.2466009999999
 30
0.0
 11
281.090036
 21
118.2466009999999
 31
0.0
  0
LINE
  5
9658
330
962C
100
AcDbEntity
  8
4
  6
CENTER
100
AcDbLine
 10
255.7810359999999
 20
130.7466009999999
 30
0.0
 11
255.7810359999999
 21
105.7466009999999
 31
0.0
  0
LINE
  5
9659
330
962C
100
AcDbEntity
  8
1
  6
Continuous
100
AcDbLine
 10
250.531036
 20
121.1516009999999
 30
0.0
 11
250.531036
 21
115.3416009999999
 31
0.0
  0
LINE
  5
965A
330
962C
100
AcDbEntity
  8
1
  6
Continuous
100
AcDbLine
 10
130.257036
 20
203.496601
 30
0.0
 11
130.257036
 21
192.996601
 31
0.0
  0
LINE
  5
965B
330
962C
100
AcDbEntity
  8
1
  6
Continuous
100
AcDbLine
 10
129.157036
 20
203.496601
 30
0.0
 11
129.157036
 21
192.996601
 31
0.0
  0
LINE
  5
965C
330
962C
100
AcDbEntity
  8
1
  6
Continuous
100
AcDbLine
 10
137.657036
 20
199.9466009999999
 30
0.0
 11
137.657036
 21
196.546601
 31
0.0
  0
LINE
  5
965D
330
962C
100
AcDbEntity
  8
1
  6
Continuous
100
AcDbLine
 10
136.8570359999999
 20
199.9466009999999
 30
0.0
 11
136.8570359999999
 21
196.546601
 31
0.0
  0
LINE
  5
965E
330
962C
100
AcDbEntity
  8
1
  6
Continuous
100
AcDbLine
 10
254.081036
 20
120.0796009999999
 30
0.0
 11
254.081036
 21
116.4136009999999
 31
0.0
  0
LINE
  5
965F
330
962C
100
AcDbEntity
  8
1
  6
Continuous
100
AcDbLine
 10
257.4810359999998
 20
120.0796009999999
 30
0.0
 11
257.4810359999998
 21
116.4136009999999
 31
0.0
  0
LINE
  5
9660
330
962C
100
AcDbEntity
  8
1
  6
Continuous
100
AcDbLine
 10
131.157036
 20
199.9466009999999
 30
0.0
 11
131.157036
 21
196.546601
 31
0.0
  0
LINE
  5
9661
330
962C
100
AcDbEntity
  8
1
  6
Continuous
100
AcDbLine
 10
170.4340359999999
 20
198.2466009999999
 30
0.0
 11
168.104036
 21
198.2466009999999
 31
0.0
  0
LINE
  5
9662
330
962C
100
AcDbEntity
  8
1
  6
Continuous
100
AcDbLine
 10
171.104036
 20
205.746601
 30
0.0
 11
171.104036
 21
190.746601
 31
0.0
  0
LINE
  5
9663
330
962C
100
AcDbEntity
  8
1
  6
Continuous
100
AcDbLine
 10
168.104036
 20
206.246601
 30
0.0
 11
168.104036
 21
190.2466009999999
 31
0.0
  0
LINE
  5
9664
330
962C
100
AcDbEntity
  8
4
  6
CENTER
100
AcDbLine
 10
164.4720359999998
 20
198.2466009999999
 30
0.0
 11
218.5930359999999
 21
198.2466009999999
 31
0.0
  0
LINE
  5
9665
330
962C
100
AcDbEntity
  8
1
  6
Continuous
100
AcDbLine
 10
167.104036
 20
206.246601
 30
0.0
 11
167.104036
 21
190.2466009999999
 31
0.0
  0
LINE
  5
9666
330
962C
100
AcDbEntity
  8
1
  6
Continuous
100
AcDbLine
 10
167.104036
 20
190.2466009999999
 30
0.0
 11
168.104036
 21
190.2466009999999
 31
0.0
  0
LINE
  5
9667
330
962C
100
AcDbEntity
  8
1
  6
Continuous
100
AcDbLine
 10
167.104036
 20
206.246601
 30
0.0
 11
168.104036
 21
206.246601
 31
0.0
  0
LINE
  5
9668
330
962C
100
AcDbEntity
  8
1
  6
Continuous
100
AcDbLine
 10
184.193036
 20
221.2466009999999
 30
0.0
 11
184.193036
 21
193.123601
 31
0.0
  0
LINE
  5
9669
330
962C
100
AcDbEntity
  8
1
  6
Continuous
100
AcDbLine
 10
186.193036
 20
221.2466009999999
 30
0.0
 11
186.193036
 21
193.123601
 31
0.0
  0
LINE
  5
966A
330
962C
100
AcDbEntity
  8
1
  6
Continuous
100
AcDbLine
 10
255.7810359999999
 20
123.746601
 30
0.0
 11
276.5900359999998
 21
123.746601
 31
0.0
  0
LINE
  5
966B
330
962C
100
AcDbEntity
  8
1
  6
Continuous
100
AcDbLine
 10
257.7810359999999
 20
112.746601
 30
0.0
 11
276.5900359999998
 21
112.746601
 31
0.0
  0
LINE
  5
966C
330
962C
100
AcDbEntity
  8
1
  6
Continuous
100
AcDbLine
 10
257.7810359999999
 20
113.6636009999999
 30
0.0
 11
257.7810359999999
 21
112.746601
 31
0.0
  0
LINE
  5
966D
330
962C
100
AcDbEntity
  8
1
  6
Continuous
100
AcDbLine
 10
250.6570359999999
 20
120.2466009999999
 30
0.0
 11
251.1980359999999
 21
120.2466009999999
 31
0.0
  0
LINE
  5
966E
330
962C
100
AcDbEntity
  8
1
  6
Continuous
100
AcDbLine
 10
255.7810359999999
 20
122.8656009999999
 30
0.0
 11
251.7810359999999
 21
120.555601
 31
0.0
  0
LINE
  5
966F
330
962C
100
AcDbEntity
  8
1
  6
Continuous
100
AcDbLine
 10
251.7810359999999
 20
115.937601
 30
0.0
 11
251.7810359999999
 21
120.555601
 31
0.0
  0
LINE
  5
9670
330
962C
100
AcDbEntity
  8
1
  6
Continuous
100
AcDbLine
 10
259.7810359999999
 20
115.937601
 30
0.0
 11
255.7810359999999
 21
113.627601
 31
0.0
  0
LINE
  5
9671
330
962C
100
AcDbEntity
  8
1
  6
Continuous
100
AcDbLine
 10
251.7810359999999
 20
115.937601
 30
0.0
 11
255.7810359999999
 21
113.627601
 31
0.0
  0
LINE
  5
9672
330
962C
100
AcDbEntity
  8
1
  6
Continuous
100
AcDbLine
 10
259.7810359999999
 20
115.937601
 30
0.0
 11
259.7810359999999
 21
120.555601
 31
0.0
  0
LINE
  5
9673
330
962C
100
AcDbEntity
  8
1
  6
Continuous
100
AcDbLine
 10
255.7810359999999
 20
122.8656009999999
 30
0.0
 11
259.7810359999999
 21
120.555601
 31
0.0
  0
LINE
  5
9674
330
962C
100
AcDbEntity
  8
1
  6
Continuous
100
AcDbLine
 10
130.657036
 20
202.9466009999999
 30
0.0
 11
130.657036
 21
193.546601
 31
0.0
  0
LINE
  5
9675
330
962C
100
AcDbEntity
  8
1
  6
Continuous
100
AcDbLine
 10
130.257036
 20
193.546601
 30
0.0
 11
130.657036
 21
193.546601
 31
0.0
  0
LINE
  5
9676
330
962C
100
AcDbEntity
  8
1
  6
Continuous
100
AcDbLine
 10
130.257036
 20
202.9466009999999
 30
0.0
 11
130.657036
 21
202.9466009999999
 31
0.0
  0
LINE
  5
9677
330
962C
100
AcDbEntity
  8
1
  6
Continuous
100
AcDbLine
 10
119.8570359999999
 20
110.746601
 30
0.0
 11
120.657036
 21
110.746601
 31
0.0
  0
LINE
  5
9678
330
962C
100
AcDbEntity
  8
1
  6
Continuous
100
AcDbLine
 10
119.8570359999999
 20
125.7466009999999
 30
0.0
 11
120.657036
 21
125.7466009999999
 31
0.0
  0
LINE
  5
9679
330
962C
100
AcDbEntity
  8
1
  6
Continuous
100
AcDbLine
 10
116.657036
 20
124.246601
 30
0.0
 11
116.657036
 21
112.2466009999999
 31
0.0
  0
LINE
  5
967A
330
962C
100
AcDbEntity
  8
1
  6
Continuous
100
AcDbLine
 10
120.657036
 20
125.7466009999999
 30
0.0
 11
120.657036
 21
110.746601
 31
0.0
  0
LINE
  5
967B
330
962C
100
AcDbEntity
  8
1
  6
Continuous
100
AcDbLine
 10
119.8570359999999
 20
125.7466009999999
 30
0.0
 11
119.8570359999999
 21
110.746601
 31
0.0
  0
LINE
  5
967C
330
962C
100
AcDbEntity
  8
1
  6
Continuous
100
AcDbLine
 10
131.857036
 20
113.845601
 30
0.0
 11
131.857036
 21
112.746601
 31
0.0
  0
LINE
  5
967D
330
962C
100
AcDbEntity
  8
1
  6
Continuous
100
AcDbLine
 10
116.657036
 20
112.2466009999999
 30
0.0
 11
119.8570359999999
 21
110.746601
 31
0.0
  0
LINE
  5
967E
330
962C
100
AcDbEntity
  8
1
  6
Continuous
100
AcDbLine
 10
119.8570359999999
 20
125.7466009999999
 30
0.0
 11
116.657036
 21
124.246601
 31
0.0
  0
LINE
  5
967F
330
962C
100
AcDbEntity
  8
4
  6
CENTER
100
AcDbLine
 10
114.433036
 20
118.2466009999999
 30
0.0
 11
139.724036
 21
118.2466009999999
 31
0.0
  0
LINE
  5
9680
330
962C
100
AcDbEntity
  8
1
  6
Continuous
100
AcDbLine
 10
120.657036
 20
112.2466009999999
 30
0.0
 11
129.157036
 21
112.2466009999999
 31
0.0
  0
LINE
  5
9681
330
962C
100
AcDbEntity
  8
2
  6
Continuous
100
AcDbLine
 10
120.657036
 20
112.652601
 30
0.0
 11
129.157036
 21
112.652601
 31
0.0
  0
LINE
  5
9682
330
962C
100
AcDbEntity
  8
2
  6
Continuous
100
AcDbLine
 10
120.657036
 20
123.840601
 30
0.0
 11
129.157036
 21
123.840601
 31
0.0
  0
LINE
  5
9683
330
962C
100
AcDbEntity
  8
1
  6
Continuous
100
AcDbLine
 10
120.657036
 20
124.246601
 30
0.0
 11
129.157036
 21
124.246601
 31
0.0
  0
LINE
  5
9684
330
962C
100
AcDbEntity
  8
1
  6
Continuous
100
AcDbLine
 10
120.657036
 20
121.1516009999999
 30
0.0
 11
129.157036
 21
121.1516009999999
 31
0.0
  0
LINE
  5
9685
330
962C
100
AcDbEntity
  8
1
  6
Continuous
100
AcDbLine
 10
120.657036
 20
115.3416009999999
 30
0.0
 11
129.157036
 21
115.3416009999999
 31
0.0
  0
LINE
  5
9686
330
962C
100
AcDbEntity
  8
1
  6
Continuous
100
AcDbLine
 10
129.157036
 20
124.246601
 30
0.0
 11
129.157036
 21
121.1516009999999
 31
0.0
  0
LINE
  5
9687
330
962C
100
AcDbEntity
  8
1
  6
Continuous
100
AcDbLine
 10
129.157036
 20
112.2466009999999
 30
0.0
 11
129.657036
 21
112.746601
 31
0.0
  0
LINE
  5
9688
330
962C
100
AcDbEntity
  8
1
  6
Continuous
100
AcDbLine
 10
129.157036
 20
124.246601
 30
0.0
 11
129.657036
 21
123.746601
 31
0.0
  0
LINE
  5
9689
330
962C
100
AcDbEntity
  8
1
  6
Continuous
100
AcDbLine
 10
129.657036
 20
123.746601
 30
0.0
 11
130.257036
 21
123.746601
 31
0.0
  0
LINE
  5
968A
330
962C
100
AcDbEntity
  8
1
  6
Continuous
100
AcDbLine
 10
129.657036
 20
112.746601
 30
0.0
 11
131.857036
 21
112.746601
 31
0.0
  0
LINE
  5
968B
330
962C
100
AcDbEntity
  8
1
  6
Continuous
100
AcDbLine
 10
130.257036
 20
123.746601
 30
0.0
 11
130.257036
 21
112.746601
 31
0.0
  0
LINE
  5
968C
330
962C
100
AcDbEntity
  8
1
  6
Continuous
100
AcDbLine
 10
129.157036
 20
115.3416009999999
 30
0.0
 11
129.157036
 21
112.2466009999999
 31
0.0
  0
LINE
  5
968D
330
962C
100
AcDbEntity
  8
1
  6
Continuous
100
AcDbLine
 10
129.157036
 20
121.1516009999999
 30
0.0
 11
130.257036
 21
120.051601
 31
0.0
  0
LINE
  5
968E
330
962C
100
AcDbEntity
  8
1
  6
Continuous
100
AcDbLine
 10
129.157036
 20
115.3416009999999
 30
0.0
 11
130.257036
 21
116.441601
 31
0.0
  0
LINE
  5
968F
330
962C
100
AcDbEntity
  8
1
  6
Continuous
100
AcDbLine
 10
130.257036
 20
113.123601
 30
0.0
 11
131.857036
 21
113.123601
 31
0.0
  0
LINE
  5
9690
330
962C
100
AcDbEntity
  8
1
  6
Continuous
100
AcDbLine
 10
137.657036
 20
119.946601
 30
0.0
 11
137.657036
 21
116.546601
 31
0.0
  0
LINE
  5
9691
330
962C
100
AcDbEntity
  8
1
  6
Continuous
100
AcDbLine
 10
131.157036
 20
120.746601
 30
0.0
 11
131.157036
 21
120.0796009999999
 31
0.0
  0
LINE
  5
9692
330
962C
100
AcDbEntity
  8
1
  6
Continuous
100
AcDbLine
 10
130.657036
 20
120.746601
 30
0.0
 11
136.8570359999999
 21
120.746601
 31
0.0
  0
LINE
  5
9693
330
962C
100
AcDbEntity
  8
1
  6
Continuous
100
AcDbLine
 10
130.657036
 20
115.746601
 30
0.0
 11
136.8570359999999
 21
115.746601
 31
0.0
  0
LINE
  5
9694
330
962C
100
AcDbEntity
  8
1
  6
Continuous
100
AcDbLine
 10
136.8570359999999
 20
120.0796009999999
 30
0.0
 11
137.657036
 21
119.279601
 31
0.0
  0
LINE
  5
9695
330
962C
100
AcDbEntity
  8
1
  6
Continuous
100
AcDbLine
 10
137.657036
 20
117.213601
 30
0.0
 11
136.8570359999999
 21
116.4136009999999
 31
0.0
  0
LINE
  5
9696
330
962C
100
AcDbEntity
  8
2
  6
Continuous
100
AcDbLine
 10
131.157036
 20
116.1796009999999
 30
0.0
 11
137.2900359999999
 21
116.1796009999999
 31
0.0
  0
LINE
  5
9697
330
962C
100
AcDbEntity
  8
2
  6
Continuous
100
AcDbLine
 10
131.157036
 20
120.313601
 30
0.0
 11
137.2900359999999
 21
120.313601
 31
0.0
  0
LINE
  5
9698
330
962C
100
AcDbEntity
  8
1
  6
Continuous
100
AcDbLine
 10
136.8570359999999
 20
120.746601
 30
0.0
 11
136.8570359999999
 21
120.0796009999999
 31
0.0
  0
LINE
  5
9699
330
962C
100
AcDbEntity
  8
1
  6
Continuous
100
AcDbLine
 10
136.8570359999999
 20
116.4136009999999
 30
0.0
 11
136.8570359999999
 21
115.746601
 31
0.0
  0
LINE
  5
969A
330
962C
100
AcDbEntity
  8
1
  6
Continuous
100
AcDbLine
 10
130.657036
 20
116.4136009999999
 30
0.0
 11
136.8570359999999
 21
116.4136009999999
 31
0.0
  0
LINE
  5
969B
330
962C
100
AcDbEntity
  8
1
  6
Continuous
100
AcDbLine
 10
130.657036
 20
120.0796009999999
 30
0.0
 11
136.8570359999999
 21
120.0796009999999
 31
0.0
  0
LINE
  5
969C
330
962C
100
AcDbEntity
  8
2
  6
Continuous
100
AcDbLine
 10
129.157036
 20
121.1516009999999
 30
0.0
 11
120.657036
 21
115.3416009999999
 31
0.0
  0
LINE
  5
969D
330
962C
100
AcDbEntity
  8
2
  6
Continuous
100
AcDbLine
 10
120.657036
 20
121.1516009999999
 30
0.0
 11
129.157036
 21
115.3416009999999
 31
0.0
  0
LINE
  5
969E
330
962C
100
AcDbEntity
  8
1
  6
Continuous
100
AcDbLine
 10
131.157036
 20
116.4136009999999
 30
0.0
 11
131.157036
 21
115.746601
 31
0.0
  0
LINE
  5
969F
330
962C
100
AcDbEntity
  8
2
  6
Continuous
100
AcDbLine
 10
130.657036
 20
116.471601
 30
0.0
 11
136.8570359999999
 21
120.0796009999999
 31
0.0
  0
LINE
  5
96A0
330
962C
100
AcDbEntity
  8
2
  6
Continuous
100
AcDbLine
 10
130.657036
 20
120.021601
 30
0.0
 11
136.8570359999999
 21
116.4136009999999
 31
0.0
  0
LINE
  5
96A1
330
962C
100
AcDbEntity
  8
1
  6
Continuous
100
AcDbLine
 10
136.8570359999999
 20
120.746601
 30
0.0
 11
137.657036
 21
119.946601
 31
0.0
  0
LINE
  5
96A2
330
962C
100
AcDbEntity
  8
1
  6
Continuous
100
AcDbLine
 10
137.657036
 20
116.546601
 30
0.0
 11
136.8570359999999
 21
115.746601
 31
0.0
  0
LINE
  5
96A3
330
962C
100
AcDbEntity
  8
1
  6
Continuous
100
AcDbLine
 10
170.4340359999999
 20
109.5866009999999
 30
0.0
 11
168.104036
 21
109.5866009999999
 31
0.0
  0
LINE
  5
96A4
330
962C
100
AcDbEntity
  8
1
  6
Continuous
100
AcDbLine
 10
170.4340359999999
 20
126.9066009999999
 30
0.0
 11
168.104036
 21
126.9066009999999
 31
0.0
  0
LINE
  5
96A5
330
962C
100
AcDbEntity
  8
1
  6
Continuous
100
AcDbLine
 10
170.4340359999999
 20
122.576601
 30
0.0
 11
168.104036
 21
122.576601
 31
0.0
  0
LINE
  5
96A6
330
962C
100
AcDbEntity
  8
1
  6
Continuous
100
AcDbLine
 10
170.4340359999999
 20
113.916601
 30
0.0
 11
168.104036
 21
113.916601
 31
0.0
  0
LINE
  5
96A7
330
962C
100
AcDbEntity
  8
1
  6
Continuous
100
AcDbLine
 10
171.104036
 20
125.7466009999999
 30
0.0
 11
171.104036
 21
110.746601
 31
0.0
  0
LINE
  5
96A8
330
962C
100
AcDbEntity
  8
1
  6
Continuous
100
AcDbLine
 10
168.104036
 20
126.9066009999999
 30
0.0
 11
168.104036
 21
109.5866009999999
 31
0.0
  0
LINE
  5
96A9
330
962C
100
AcDbEntity
  8
1
  6
Continuous
100
AcDbLine
 10
171.104036
 20
125.7466009999999
 30
0.0
 11
170.4340359999999
 21
126.9066009999999
 31
0.0
  0
LINE
  5
96AA
330
962C
100
AcDbEntity
  8
1
  6
Continuous
100
AcDbLine
 10
171.104036
 20
110.746601
 30
0.0
 11
170.4340359999999
 21
109.5866009999999
 31
0.0
  0
LINE
  5
96AB
330
962C
100
AcDbEntity
  8
4
  6
CENTER
100
AcDbLine
 10
164.4720359999998
 20
38.246701
 30
0.0
 11
218.065036
 21
38.246701
 31
0.0
  0
LINE
  5
96AC
330
962C
100
AcDbEntity
  8
1
  6
Continuous
100
AcDbLine
 10
167.104036
 20
126.246601
 30
0.0
 11
167.104036
 21
110.246601
 31
0.0
  0
LINE
  5
96AD
330
962C
100
AcDbEntity
  8
1
  6
Continuous
100
AcDbLine
 10
167.104036
 20
110.246601
 30
0.0
 11
168.104036
 21
110.246601
 31
0.0
  0
LINE
  5
96AE
330
962C
100
AcDbEntity
  8
1
  6
Continuous
100
AcDbLine
 10
167.104036
 20
126.246601
 30
0.0
 11
168.104036
 21
126.246601
 31
0.0
  0
LINE
  5
96AF
330
962C
100
AcDbEntity
  8
1
  6
Continuous
100
AcDbLine
 10
184.193036
 20
123.746601
 30
0.0
 11
184.193036
 21
112.746601
 31
0.0
  0
LINE
  5
96B0
330
962C
100
AcDbEntity
  8
1
  6
Continuous
100
AcDbLine
 10
186.193036
 20
123.746601
 30
0.0
 11
186.193036
 21
112.746601
 31
0.0
  0
LINE
  5
96B1
330
962C
100
AcDbEntity
  8
1
  6
Continuous
100
AcDbLine
 10
184.193036
 20
123.746601
 30
0.0
 11
186.193036
 21
123.746601
 31
0.0
  0
LINE
  5
96B2
330
962C
100
AcDbEntity
  8
1
  6
Continuous
100
AcDbLine
 10
184.193036
 20
112.746601
 30
0.0
 11
186.193036
 21
112.746601
 31
0.0
  0
LINE
  5
96B3
330
962C
100
AcDbEntity
  8
1
  6
Continuous
100
AcDbLine
 10
184.193036
 20
120.2466009999999
 30
0.0
 11
186.193036
 21
120.2466009999999
 31
0.0
  0
LINE
  5
96B4
330
962C
100
AcDbEntity
  8
1
  6
Continuous
100
AcDbLine
 10
184.193036
 20
113.746601
 30
0.0
 11
186.193036
 21
113.746601
 31
0.0
  0
LINE
  5
96B5
330
962C
100
AcDbEntity
  8
1
  6
Continuous
100
AcDbLine
 10
214.542036
 20
114.2466009999999
 30
0.0
 11
214.542036
 21
122.2466009999999
 31
0.0
  0
LINE
  5
96B6
330
962C
100
AcDbEntity
  8
1
  6
Continuous
100
AcDbLine
 10
210.542036
 20
113.627601
 30
0.0
 11
210.542036
 21
122.8656009999999
 31
0.0
  0
LINE
  5
96B7
330
962C
100
AcDbEntity
  8
1
  6
Continuous
100
AcDbLine
 10
214.1850359999998
 20
113.627601
 30
0.0
 11
210.542036
 21
113.627601
 31
0.0
  0
LINE
  5
96B8
330
962C
100
AcDbEntity
  8
1
  6
Continuous
100
AcDbLine
 10
214.1850359999998
 20
115.937601
 30
0.0
 11
210.542036
 21
115.937601
 31
0.0
  0
LINE
  5
96B9
330
962C
100
AcDbEntity
  8
1
  6
Continuous
100
AcDbLine
 10
214.1850359999998
 20
120.555601
 30
0.0
 11
210.542036
 21
120.555601
 31
0.0
  0
LINE
  5
96BA
330
962C
100
AcDbEntity
  8
1
  6
Continuous
100
AcDbLine
 10
214.1850359999998
 20
122.8656009999999
 30
0.0
 11
210.542036
 21
122.8656009999999
 31
0.0
  0
LINE
  5
96BB
330
962C
100
AcDbEntity
  8
1
  6
Continuous
100
AcDbLine
 10
214.542036
 20
114.2466009999999
 30
0.0
 11
214.1850359999998
 21
113.627601
 31
0.0
  0
LINE
  5
96BC
330
962C
100
AcDbEntity
  8
1
  6
Continuous
100
AcDbLine
 10
214.542036
 20
122.2466009999999
 30
0.0
 11
214.1850359999998
 21
122.8656009999999
 31
0.0
  0
LINE
  5
96BD
330
962C
100
AcDbEntity
  8
1
  6
Continuous
100
AcDbLine
 10
130.657036
 20
122.946601
 30
0.0
 11
130.657036
 21
113.546601
 31
0.0
  0
LINE
  5
96BE
330
962C
100
AcDbEntity
  8
1
  6
Continuous
100
AcDbLine
 10
130.257036
 20
113.546601
 30
0.0
 11
130.657036
 21
113.546601
 31
0.0
  0
LINE
  5
96BF
330
962C
100
AcDbEntity
  8
1
  6
Continuous
100
AcDbLine
 10
130.257036
 20
122.946601
 30
0.0
 11
130.657036
 21
122.946601
 31
0.0
  0
LINE
  5
96C0
330
962C
100
AcDbEntity
  8
1
  6
Continuous
100
AcDbLine
 10
214.542036
 20
194.246601
 30
0.0
 11
214.542036
 21
202.246601
 31
0.0
  0
LINE
  5
96C1
330
962C
100
AcDbEntity
  8
1
  6
Continuous
100
AcDbLine
 10
210.542036
 20
194.246601
 30
0.0
 11
210.542036
 21
202.246601
 31
0.0
  0
LINE
  5
96C2
330
962C
100
AcDbEntity
  8
1
  6
Continuous
100
AcDbLine
 10
210.542036
 20
202.246601
 30
0.0
 11
214.542036
 21
202.246601
 31
0.0
  0
LINE
  5
96C3
330
962C
100
AcDbEntity
  8
1
  6
Continuous
100
AcDbLine
 10
210.542036
 20
194.246601
 30
0.0
 11
214.542036
 21
194.246601
 31
0.0
  0
LINE
  5
96C4
330
962C
100
AcDbEntity
  8
1
  6
Continuous
100
AcDbLine
 10
210.542036
 20
198.2466009999999
 30
0.0
 11
214.1850359999998
 21
198.2466009999999
 31
0.0
  0
LINE
  5
96C5
330
962C
100
AcDbEntity
  8
1
  6
Continuous
100
AcDbLine
 10
184.193036
 20
193.123601
 30
0.0
 11
186.193036
 21
193.123601
 31
0.0
  0
LINE
  5
96C6
330
962C
100
AcDbEntity
  8
1
  6
Continuous
100
AcDbLine
 10
184.193036
 20
221.2466009999999
 30
0.0
 11
186.193036
 21
221.2466009999999
 31
0.0
  0
LINE
  5
96C7
330
962C
100
AcDbEntity
  8
1
  6
Continuous
100
AcDbLine
 10
168.104036
 20
190.746601
 30
0.0
 11
171.104036
 21
190.746601
 31
0.0
  0
LINE
  5
96C8
330
962C
100
AcDbEntity
  8
1
  6
Continuous
100
AcDbLine
 10
168.104036
 20
205.746601
 30
0.0
 11
171.104036
 21
205.746601
 31
0.0
  0
LINE
  5
96C9
330
962C
100
AcDbEntity
  8
1
  6
Continuous
100
AcDbLine
 10
130.657036
 20
196.546601
 30
0.0
 11
137.657036
 21
196.546601
 31
0.0
  0
LINE
  5
96CA
330
962C
100
AcDbEntity
  8
1
  6
Continuous
100
AcDbLine
 10
130.657036
 20
199.9466009999999
 30
0.0
 11
137.657036
 21
199.9466009999999
 31
0.0
  0
LINE
  5
96CB
330
962C
100
AcDbEntity
  8
1
  6
Continuous
100
AcDbLine
 10
253.9630359999999
 20
113.5886009999999
 30
0.0
 11
253.7810359999999
 21
113.123601
 31
0.0
  0
LINE
  5
96CC
330
962C
100
AcDbEntity
  8
1
  6
Continuous
100
AcDbLine
 10
257.599036
 20
113.5886009999999
 30
0.0
 11
257.7810359999999
 21
113.123601
 31
0.0
  0
LINE
  5
96CD
330
962C
100
AcDbEntity
  8
1
  6
Continuous
100
AcDbLine
 10
130.657036
 20
113.845601
 30
0.0
 11
131.857036
 21
113.845601
 31
0.0
  0
LINE
  5
96CE
330
962C
100
AcDbEntity
  8
1
  6
Continuous
100
AcDbLine
 10
130.657036
 20
196.2466009999999
 30
0.0
 11
131.857036
 21
196.2466009999999
 31
0.0
  0
LINE
  5
96CF
330
962C
100
AcDbEntity
  8
1
  6
Continuous
100
AcDbLine
 10
130.657036
 20
200.246601
 30
0.0
 11
131.857036
 21
200.246601
 31
0.0
  0
LINE
  5
96D0
330
962C
100
AcDbEntity
  8
1
  6
Continuous
100
AcDbLine
 10
131.857036
 20
196.546601
 30
0.0
 11
131.857036
 21
196.2466009999999
 31
0.0
  0
LINE
  5
96D1
330
962C
100
AcDbEntity
  8
1
  6
Continuous
100
AcDbLine
 10
120.657036
 20
192.996601
 30
0.0
 11
130.257036
 21
192.996601
 31
0.0
  0
LINE
  5
96D2
330
962C
100
AcDbEntity
  8
1
  6
Continuous
100
AcDbLine
 10
120.657036
 20
203.496601
 30
0.0
 11
130.257036
 21
203.496601
 31
0.0
  0
LINE
  5
96D3
330
962C
100
AcDbEntity
  8
1
  6
Continuous
100
AcDbLine
 10
129.657036
 20
203.496601
 30
0.0
 11
129.657036
 21
192.996601
 31
0.0
  0
LINE
  5
96D4
330
962C
100
AcDbEntity
  8
4
  6
CENTER
100
AcDbLine
 10
126.657036
 20
200.370601
 30
0.0
 11
126.657036
 21
195.969601
 31
0.0
  0
LINE
  5
96D5
330
962C
100
AcDbEntity
  8
1
  6
Continuous
100
AcDbLine
 10
119.8570359999999
 20
45.746701
 30
0.0
 11
120.657036
 21
45.746701
 31
0.0
  0
LINE
  5
96D6
330
962C
100
AcDbEntity
  8
1
  6
Continuous
100
AcDbLine
 10
119.8570359999999
 20
30.746701
 30
0.0
 11
120.657036
 21
30.746701
 31
0.0
  0
LINE
  5
96D7
330
962C
100
AcDbEntity
  8
1
  6
Continuous
100
AcDbLine
 10
116.657036
 20
32.246701
 30
0.0
 11
116.657036
 21
44.246701
 31
0.0
  0
LINE
  5
96D8
330
962C
100
AcDbEntity
  8
1
  6
Continuous
100
AcDbLine
 10
120.657036
 20
30.746701
 30
0.0
 11
120.657036
 21
45.746701
 31
0.0
  0
LINE
  5
96D9
330
962C
100
AcDbEntity
  8
1
  6
Continuous
100
AcDbLine
 10
119.8570359999999
 20
30.746701
 30
0.0
 11
119.8570359999999
 21
45.746701
 31
0.0
  0
LINE
  5
96DA
330
962C
100
AcDbEntity
  8
1
  6
Continuous
100
AcDbLine
 10
116.657036
 20
44.246701
 30
0.0
 11
119.8570359999999
 21
45.746701
 31
0.0
  0
LINE
  5
96DB
330
962C
100
AcDbEntity
  8
1
  6
Continuous
100
AcDbLine
 10
119.8570359999999
 20
30.746701
 30
0.0
 11
116.657036
 21
32.246701
 31
0.0
  0
LINE
  5
96DC
330
962C
100
AcDbEntity
  8
4
  6
CENTER
100
AcDbLine
 10
114.433036
 20
38.246701
 30
0.0
 11
139.724036
 21
38.246701
 31
0.0
  0
LINE
  5
96DD
330
962C
100
AcDbEntity
  8
1
  6
Continuous
100
AcDbLine
 10
130.257036
 20
32.996701
 30
0.0
 11
130.257036
 21
36.246701
 31
0.0
  0
LINE
  5
96DE
330
962C
100
AcDbEntity
  8
1
  6
Continuous
100
AcDbLine
 10
129.157036
 20
32.996701
 30
0.0
 11
129.157036
 21
43.49670099999999
 31
0.0
  0
LINE
  5
96DF
330
962C
100
AcDbEntity
  8
1
  6
Continuous
100
AcDbLine
 10
137.657036
 20
36.546701
 30
0.0
 11
137.657036
 21
39.946701
 31
0.0
  0
LINE
  5
96E0
330
962C
100
AcDbEntity
  8
1
  6
Continuous
100
AcDbLine
 10
136.8570359999999
 20
36.546701
 30
0.0
 11
136.8570359999999
 21
39.946701
 31
0.0
  0
LINE
  5
96E1
330
962C
100
AcDbEntity
  8
1
  6
Continuous
100
AcDbLine
 10
170.4340359999999
 20
38.246701
 30
0.0
 11
168.104036
 21
38.246701
 31
0.0
  0
LINE
  5
96E2
330
962C
100
AcDbEntity
  8
1
  6
Continuous
100
AcDbLine
 10
171.104036
 20
30.746701
 30
0.0
 11
171.104036
 21
45.746701
 31
0.0
  0
LINE
  5
96E3
330
962C
100
AcDbEntity
  8
1
  6
Continuous
100
AcDbLine
 10
168.104036
 20
30.246701
 30
0.0
 11
168.104036
 21
46.246701
 31
0.0
  0
LINE
  5
96E4
330
962C
100
AcDbEntity
  8
1
  6
Continuous
100
AcDbLine
 10
167.104036
 20
30.246701
 30
0.0
 11
167.104036
 21
46.246701
 31
0.0
  0
LINE
  5
96E5
330
962C
100
AcDbEntity
  8
1
  6
Continuous
100
AcDbLine
 10
167.104036
 20
46.246701
 30
0.0
 11
168.104036
 21
46.246701
 31
0.0
  0
LINE
  5
96E6
330
962C
100
AcDbEntity
  8
1
  6
Continuous
100
AcDbLine
 10
167.104036
 20
30.246701
 30
0.0
 11
168.104036
 21
30.246701
 31
0.0
  0
LINE
  5
96E7
330
962C
100
AcDbEntity
  8
1
  6
Continuous
100
AcDbLine
 10
184.193036
 20
15.246701
 30
0.0
 11
184.193036
 21
43.37010099999999
 31
0.0
  0
LINE
  5
96E8
330
962C
100
AcDbEntity
  8
1
  6
Continuous
100
AcDbLine
 10
186.193036
 20
15.246701
 30
0.0
 11
186.193036
 21
43.37010099999999
 31
0.0
  0
LINE
  5
96E9
330
962C
100
AcDbEntity
  8
1
  6
Continuous
100
AcDbLine
 10
130.657036
 20
33.54670099999999
 30
0.0
 11
130.657036
 21
36.246701
 31
0.0
  0
LINE
  5
96EA
330
962C
100
AcDbEntity
  8
1
  6
Continuous
100
AcDbLine
 10
130.257036
 20
42.946701
 30
0.0
 11
130.657036
 21
42.946701
 31
0.0
  0
LINE
  5
96EB
330
962C
100
AcDbEntity
  8
1
  6
Continuous
100
AcDbLine
 10
130.257036
 20
33.54670099999999
 30
0.0
 11
130.657036
 21
33.54670099999999
 31
0.0
  0
LINE
  5
96EC
330
962C
100
AcDbEntity
  8
1
  6
Continuous
100
AcDbLine
 10
214.542036
 20
42.24670099999999
 30
0.0
 11
214.542036
 21
34.246701
 31
0.0
  0
LINE
  5
96ED
330
962C
100
AcDbEntity
  8
1
  6
Continuous
100
AcDbLine
 10
210.542036
 20
42.24670099999999
 30
0.0
 11
210.542036
 21
34.246701
 31
0.0
  0
LINE
  5
96EE
330
962C
100
AcDbEntity
  8
1
  6
Continuous
100
AcDbLine
 10
210.542036
 20
34.246701
 30
0.0
 11
214.542036
 21
34.246701
 31
0.0
  0
LINE
  5
96EF
330
962C
100
AcDbEntity
  8
1
  6
Continuous
100
AcDbLine
 10
210.542036
 20
42.24670099999999
 30
0.0
 11
214.542036
 21
42.24670099999999
 31
0.0
  0
LINE
  5
96F0
330
962C
100
AcDbEntity
  8
1
  6
Continuous
100
AcDbLine
 10
210.542036
 20
38.246701
 30
0.0
 11
214.1850359999998
 21
38.246701
 31
0.0
  0
LINE
  5
96F1
330
962C
100
AcDbEntity
  8
1
  6
Continuous
100
AcDbLine
 10
184.193036
 20
43.37010099999999
 30
0.0
 11
186.193036
 21
43.37010099999999
 31
0.0
  0
LINE
  5
96F2
330
962C
100
AcDbEntity
  8
1
  6
Continuous
100
AcDbLine
 10
184.193036
 20
15.246701
 30
0.0
 11
186.193036
 21
15.246701
 31
0.0
  0
LINE
  5
96F3
330
962C
100
AcDbEntity
  8
1
  6
Continuous
100
AcDbLine
 10
168.104036
 20
45.746701
 30
0.0
 11
171.104036
 21
45.746701
 31
0.0
  0
LINE
  5
96F4
330
962C
100
AcDbEntity
  8
1
  6
Continuous
100
AcDbLine
 10
168.104036
 20
30.746701
 30
0.0
 11
171.104036
 21
30.746701
 31
0.0
  0
LINE
  5
96F5
330
962C
100
AcDbEntity
  8
1
  6
Continuous
100
AcDbLine
 10
131.857036
 20
39.946701
 30
0.0
 11
137.657036
 21
39.946701
 31
0.0
  0
LINE
  5
96F6
330
962C
100
AcDbEntity
  8
1
  6
Continuous
100
AcDbLine
 10
131.857036
 20
36.546701
 30
0.0
 11
137.657036
 21
36.546701
 31
0.0
  0
LINE
  5
96F7
330
962C
100
AcDbEntity
  8
1
  6
Continuous
100
AcDbLine
 10
130.257036
 20
40.246701
 30
0.0
 11
131.857036
 21
40.246701
 31
0.0
  0
LINE
  5
96F8
330
962C
100
AcDbEntity
  8
1
  6
Continuous
100
AcDbLine
 10
130.257036
 20
36.246701
 30
0.0
 11
131.857036
 21
36.246701
 31
0.0
  0
LINE
  5
96F9
330
962C
100
AcDbEntity
  8
1
  6
Continuous
100
AcDbLine
 10
131.857036
 20
36.246701
 30
0.0
 11
131.857036
 21
40.246701
 31
0.0
  0
LINE
  5
96FA
330
962C
100
AcDbEntity
  8
1
  6
Continuous
100
AcDbLine
 10
120.657036
 20
43.49670099999999
 30
0.0
 11
130.257036
 21
43.49670099999999
 31
0.0
  0
LINE
  5
96FB
330
962C
100
AcDbEntity
  8
1
  6
Continuous
100
AcDbLine
 10
120.657036
 20
32.996701
 30
0.0
 11
130.257036
 21
32.996701
 31
0.0
  0
LINE
  5
96FC
330
962C
100
AcDbEntity
  8
1
  6
Continuous
100
AcDbLine
 10
129.657036
 20
32.996701
 30
0.0
 11
129.657036
 21
43.49670099999999
 31
0.0
  0
LINE
  5
96FD
330
962C
100
AcDbEntity
  8
1
  6
Continuous
100
AcDbLine
 10
130.657036
 20
40.246701
 30
0.0
 11
130.657036
 21
42.946701
 31
0.0
  0
LINE
  5
96FE
330
962C
100
AcDbEntity
  8
1
  6
Continuous
100
AcDbLine
 10
130.257036
 20
40.246701
 30
0.0
 11
130.257036
 21
43.49670099999999
 31
0.0
  0
LINE
  5
96FF
330
962C
100
AcDbEntity
  8
1
  6
Continuous
100
AcDbLine
 10
184.193036
 20
36.246701
 30
0.0
 11
186.193036
 21
36.246701
 31
0.0
  0
LINE
  5
9700
330
962C
100
AcDbEntity
  8
1
  6
Continuous
100
AcDbLine
 10
184.193036
 20
42.746701
 30
0.0
 11
186.193036
 21
42.746701
 31
0.0
  0
LINE
  5
9701
330
962C
100
AcDbEntity
  8
4
  6
CENTER
100
AcDbLine
 10
50.434136
 20
118.2466009999999
 30
0.0
 11
12.561936
 21
118.2466009999999
 31
0.0
  0
LINE
  5
9702
330
962C
100
AcDbEntity
  8
4
  6
CENTER
100
AcDbLine
 10
37.93413599999999
 20
144.1516009999999
 30
0.0
 11
37.93413599999999
 21
105.7466009999999
 31
0.0
  0
LINE
  5
9703
330
962C
100
AcDbEntity
  8
1
  6
Continuous
100
AcDbLine
 10
38.60913599999999
 20
122.746601
 30
0.0
 11
37.259136
 21
122.746601
 31
0.0
  0
LINE
  5
9704
330
962C
100
AcDbEntity
  8
1
  6
Continuous
100
AcDbLine
 10
37.259136
 20
122.746601
 30
0.0
 11
37.259136
 21
121.782601
 31
0.0
  0
LINE
  5
9705
330
962C
100
AcDbEntity
  8
1
  6
Continuous
100
AcDbLine
 10
38.60913599999999
 20
122.746601
 30
0.0
 11
38.60913599999999
 21
121.782601
 31
0.0
  0
LINE
  5
9706
330
962C
100
AcDbEntity
  8
1
  6
Continuous
100
AcDbLine
 10
38.60913599999999
 20
119.2466009999999
 30
0.0
 11
37.259136
 21
119.2466009999999
 31
0.0
  0
LINE
  5
9707
330
962C
100
AcDbEntity
  8
1
  6
Continuous
100
AcDbLine
 10
37.259136
 20
120.8096009999999
 30
0.0
 11
37.259136
 21
119.2466009999999
 31
0.0
  0
LINE
  5
9708
330
962C
100
AcDbEntity
  8
1
  6
Continuous
100
AcDbLine
 10
38.60913599999999
 20
120.8096009999999
 30
0.0
 11
38.60913599999999
 21
119.2466009999999
 31
0.0
  0
LINE
  5
9709
330
962C
100
AcDbEntity
  8
1
  6
Continuous
100
AcDbLine
 10
37.93413599999999
 20
109.5866009999999
 30
0.0
 11
39.27323599999999
 21
110.3596009999999
 31
0.0
  0
LINE
  5
970A
330
962C
100
AcDbEntity
  8
1
  6
Continuous
100
AcDbLine
 10
30.434136
 20
122.576601
 30
0.0
 11
31.77323599999999
 21
123.349601
 31
0.0
  0
LINE
  5
970B
330
962C
100
AcDbEntity
  8
1
  6
Continuous
100
AcDbLine
 10
30.434136
 20
122.576601
 30
0.0
 11
30.434136
 21
121.030601
 31
0.0
  0
LINE
  5
970C
330
962C
100
AcDbEntity
  8
1
  6
Continuous
100
AcDbLine
 10
45.434136
 20
122.576601
 30
0.0
 11
45.434136
 21
121.030601
 31
0.0
  0
LINE
  5
970D
330
962C
100
AcDbEntity
  8
1
  6
Continuous
100
AcDbLine
 10
30.434136
 20
113.916601
 30
0.0
 11
31.77323599999999
 21
113.143601
 31
0.0
  0
LINE
  5
970E
330
962C
100
AcDbEntity
  8
1
  6
Continuous
100
AcDbLine
 10
37.93413599999999
 20
126.9066009999999
 30
0.0
 11
39.27323599999999
 21
126.1336009999999
 31
0.0
  0
LINE
  5
970F
330
962C
100
AcDbEntity
  8
5
  6
PHANTOM
100
AcDbLine
 10
43.43413599999998
 20
124.0566009999999
 30
0.0
 11
43.43413599999998
 21
139.056601
 31
0.0
  0
LINE
  5
9710
330
962C
100
AcDbEntity
  8
5
  6
PHANTOM
100
AcDbLine
 10
32.43413599999998
 20
124.0566009999999
 30
0.0
 11
32.43413599999998
 21
139.056601
 31
0.0
  0
LINE
  5
9711
330
962C
100
AcDbEntity
  8
1
  6
Continuous
100
AcDbLine
 10
30.434136
 20
115.462601
 30
0.0
 11
30.434136
 21
113.916601
 31
0.0
  0
LINE
  5
9712
330
962C
100
AcDbEntity
  8
1
  6
Continuous
100
AcDbLine
 10
36.59513599999999
 20
126.1336009999999
 30
0.0
 11
37.93413599999999
 21
126.9066009999999
 31
0.0
  0
LINE
  5
9713
330
962C
100
AcDbEntity
  8
1
  6
Continuous
100
AcDbLine
 10
44.09503599999999
 20
123.349601
 30
0.0
 11
45.434136
 21
122.576601
 31
0.0
  0
LINE
  5
9714
330
962C
100
AcDbEntity
  8
1
  6
Continuous
100
AcDbLine
 10
45.434136
 20
115.462601
 30
0.0
 11
45.434136
 21
113.916601
 31
0.0
  0
LINE
  5
9715
330
962C
100
AcDbEntity
  8
1
  6
Continuous
100
AcDbLine
 10
44.09513599999999
 20
113.143601
 30
0.0
 11
45.434136
 21
113.916601
 31
0.0
  0
LINE
  5
9716
330
962C
100
AcDbEntity
  8
1
  6
Continuous
100
AcDbLine
 10
36.59513599999999
 20
110.3596009999999
 30
0.0
 11
37.93413599999999
 21
109.5866009999999
 31
0.0
  0
LINE
  5
9717
330
962C
100
AcDbEntity
  8
1
  6
Continuous
100
AcDbLine
 10
32.124736
 20
123.746601
 30
0.0
 11
17.124736
 21
123.746601
 31
0.0
  0
LINE
  5
9718
330
962C
100
AcDbEntity
  8
1
  6
Continuous
100
AcDbLine
 10
32.124736
 20
112.746601
 30
0.0
 11
17.124736
 21
112.746601
 31
0.0
  0
LINE
  5
9719
330
962C
100
AcDbEntity
  8
1
  6
Continuous
100
AcDbLine
 10
255.7810359999999
 20
109.5866009999999
 30
0.0
 11
248.281036
 21
113.916601
 31
0.0
  0
LINE
  5
971A
330
962C
100
AcDbEntity
  8
1
  6
Continuous
100
AcDbLine
 10
248.281036
 20
122.576601
 30
0.0
 11
248.281036
 21
113.916601
 31
0.0
  0
LINE
  5
971B
330
962C
100
AcDbEntity
  8
1
  6
Continuous
100
AcDbLine
 10
261.254036
 20
112.746601
 30
0.0
 11
255.7810359999999
 21
109.5866009999999
 31
0.0
  0
LINE
  5
971C
330
962C
100
AcDbEntity
  8
1
  6
Continuous
100
AcDbLine
 10
255.7810359999999
 20
126.9066009999999
 30
0.0
 11
248.281036
 21
122.576601
 31
0.0
  0
LINE
  5
971D
330
962C
100
AcDbEntity
  8
1
  6
Continuous
100
AcDbLine
 10
261.254036
 20
123.746601
 30
0.0
 11
255.7810359999999
 21
126.9066009999999
 31
0.0
  0
LINE
  5
971E
330
962C
100
AcDbEntity
  8
1
  6
Continuous
100
AcDbLine
 10
28.11563599999999
 20
196.2466009999999
 30
0.0
 11
29.515636
 21
196.2466009999999
 31
0.0
  0
LINE
  5
971F
330
962C
100
AcDbEntity
  8
1
  6
Continuous
100
AcDbLine
 10
28.11563599999999
 20
200.246601
 30
0.0
 11
29.515636
 21
200.246601
 31
0.0
  0
LINE
  5
9720
330
962C
100
AcDbEntity
  8
1
  6
Continuous
100
AcDbLine
 10
30.361536
 20
188.2466009999999
 30
0.0
 11
34.160336
 21
188.2466009999999
 31
0.0
  0
LINE
  5
9721
330
962C
100
AcDbEntity
  8
1
  6
Continuous
100
AcDbLine
 10
30.361536
 20
208.246601
 30
0.0
 11
34.160336
 21
208.246601
 31
0.0
  0
LINE
  5
9722
330
962C
100
AcDbEntity
  8
1
  6
Continuous
100
AcDbLine
 10
25.315636
 20
195.540601
 30
0.0
 11
25.315636
 21
200.953601
 31
0.0
  0
LINE
  5
9723
330
962C
100
AcDbEntity
  8
1
  6
Continuous
100
AcDbLine
 10
25.47443599999999
 20
201.494601
 30
0.0
 11
29.520436
 21
207.7876009999999
 31
0.0
  0
LINE
  5
9724
330
962C
100
AcDbEntity
  8
1
  6
Continuous
100
AcDbLine
 10
25.47443599999999
 20
194.999601
 30
0.0
 11
29.520436
 21
188.706601
 31
0.0
  0
LINE
  5
9725
330
962C
100
AcDbEntity
  8
1
  6
Continuous
100
AcDbLine
 10
30.315636
 20
197.046601
 30
0.0
 11
30.315636
 21
199.446601
 31
0.0
  0
LINE
  5
9726
330
962C
100
AcDbEntity
  8
1
  6
Continuous
100
AcDbLine
 10
27.31563599999999
 20
197.046601
 30
0.0
 11
27.31563599999999
 21
199.446601
 31
0.0
  0
LINE
  5
9727
330
962C
100
AcDbEntity
  8
1
  6
Continuous
100
AcDbLine
 10
45.315636
 20
204.7466009999999
 30
0.0
 11
34.463536
 21
208.199601
 31
0.0
  0
LINE
  5
9728
330
962C
100
AcDbEntity
  8
1
  6
Continuous
100
AcDbLine
 10
43.22523599999999
 20
191.0816009999998
 30
0.0
 11
34.463536
 21
188.2946009999998
 31
0.0
  0
LINE
  5
9729
330
962C
100
AcDbEntity
  8
1
  6
Continuous
100
AcDbLine
 10
42.41063599999999
 20
195.146601
 30
0.0
 11
42.815636
 21
195.146601
 31
0.0
  0
LINE
  5
972A
330
962C
100
AcDbEntity
  8
1
  6
Continuous
100
AcDbLine
 10
42.41063599999999
 20
201.346601
 30
0.0
 11
42.815636
 21
201.346601
 31
0.0
  0
LINE
  5
972B
330
962C
100
AcDbEntity
  8
1
  6
Continuous
100
AcDbLine
 10
39.415636
 20
197.446601
 30
0.0
 11
39.415636
 21
199.046601
 31
0.0
  0
LINE
  5
972C
330
962C
100
AcDbEntity
  8
1
  6
Continuous
100
AcDbLine
 10
43.31563599999999
 20
192.1606009999999
 30
0.0
 11
34.160336
 21
189.2466009999999
 31
0.0
  0
LINE
  5
972D
330
962C
100
AcDbEntity
  8
1
  6
Continuous
100
AcDbLine
 10
30.361536
 20
189.2466009999999
 30
0.0
 11
34.160336
 21
189.2466009999999
 31
0.0
  0
LINE
  5
972E
330
962C
100
AcDbEntity
  8
1
  6
Continuous
100
AcDbLine
 10
26.31563599999999
 20
195.540601
 30
0.0
 11
30.361536
 21
189.2466009999999
 31
0.0
  0
LINE
  5
972F
330
962C
100
AcDbEntity
  8
1
  6
Continuous
100
AcDbLine
 10
26.31563599999999
 20
195.540601
 30
0.0
 11
26.31563599999999
 21
200.953601
 31
0.0
  0
LINE
  5
9730
330
962C
100
AcDbEntity
  8
1
  6
Continuous
100
AcDbLine
 10
26.31563599999999
 20
200.953601
 30
0.0
 11
30.361536
 21
207.2466009999998
 31
0.0
  0
LINE
  5
9731
330
962C
100
AcDbEntity
  8
1
  6
Continuous
100
AcDbLine
 10
30.361536
 20
207.2466009999998
 30
0.0
 11
34.160336
 21
207.2466009999998
 31
0.0
  0
LINE
  5
9732
330
962C
100
AcDbEntity
  8
1
  6
Continuous
100
AcDbLine
 10
43.31563599999999
 20
204.3336009999999
 30
0.0
 11
34.160336
 21
207.2466009999998
 31
0.0
  0
LINE
  5
9733
330
962C
100
AcDbEntity
  8
1
  6
Continuous
100
AcDbLine
 10
42.415636
 20
202.546601
 30
0.0
 11
43.31563599999999
 21
202.546601
 31
0.0
  0
LINE
  5
9734
330
962C
100
AcDbEntity
  8
1
  6
Continuous
100
AcDbLine
 10
42.415636
 20
193.9466009999999
 30
0.0
 11
43.31563599999999
 21
193.9466009999999
 31
0.0
  0
LINE
  5
9735
330
962C
100
AcDbEntity
  8
1
  6
Continuous
100
AcDbLine
 10
43.31563599999999
 20
192.1606009999999
 30
0.0
 11
43.31563599999999
 21
193.9466009999999
 31
0.0
  0
LINE
  5
9736
330
962C
100
AcDbEntity
  8
1
  6
Continuous
100
AcDbLine
 10
43.31563599999999
 20
202.546601
 30
0.0
 11
43.31563599999999
 21
204.3336009999999
 31
0.0
  0
LINE
  5
9737
330
962C
100
AcDbEntity
  8
4
  6
CENTER
100
AcDbLine
 10
23.81563599999999
 20
198.2466009999999
 30
0.0
 11
58.81563599999999
 21
198.2466009999999
 31
0.0
  0
LINE
  5
9738
330
962C
100
AcDbEntity
  8
1
  6
Continuous
100
AcDbLine
 10
56.415636
 20
201.690601
 30
0.0
 11
56.415636
 21
201.796601
 31
0.0
  0
LINE
  5
9739
330
962C
100
AcDbEntity
  8
1
  6
Continuous
100
AcDbLine
 10
45.315636
 20
204.7466009999999
 30
0.0
 11
50.915636
 21
204.7466009999999
 31
0.0
  0
LINE
  5
973A
330
962C
100
AcDbEntity
  8
1
  6
Continuous
100
AcDbLine
 10
55.215636
 20
202.4466009999999
 30
0.0
 11
56.615636
 21
202.4466009999999
 31
0.0
  0
LINE
  5
973B
330
962C
100
AcDbEntity
  8
1
  6
Continuous
100
AcDbLine
 10
55.215636
 20
201.690601
 30
0.0
 11
55.215636
 21
202.4466009999999
 31
0.0
  0
LINE
  5
973C
330
962C
100
AcDbEntity
  8
1
  6
Continuous
100
AcDbLine
 10
56.415636
 20
201.796601
 30
0.0
 11
56.615636
 21
201.896601
 31
0.0
  0
LINE
  5
973D
330
962C
100
AcDbEntity
  8
1
  6
Continuous
100
AcDbLine
 10
56.615636
 20
201.896601
 30
0.0
 11
56.615636
 21
202.4466009999999
 31
0.0
  0
LINE
  5
973E
330
962C
100
AcDbEntity
  8
1
  6
Continuous
100
AcDbLine
 10
52.115636
 20
201.690601
 30
0.0
 11
52.115636
 21
203.5466009999999
 31
0.0
  0
LINE
  5
973F
330
962C
100
AcDbEntity
  8
1
  6
Continuous
100
AcDbLine
 10
50.015636
 20
201.690601
 30
0.0
 11
50.015636
 21
201.846601
 31
0.0
  0
LINE
  5
9740
330
962C
100
AcDbEntity
  8
1
  6
Continuous
100
AcDbLine
 10
45.515636
 20
201.846601
 30
0.0
 11
50.015636
 21
201.846601
 31
0.0
  0
LINE
  5
9741
330
962C
100
AcDbEntity
  8
1
  6
Continuous
100
AcDbLine
 10
57.115636
 20
194.746601
 30
0.0
 11
46.515636
 21
194.746601
 31
0.0
  0
LINE
  5
9742
330
962C
100
AcDbEntity
  8
1
  6
Continuous
100
AcDbLine
 10
57.315636
 20
201.5466009999999
 30
0.0
 11
57.315636
 21
194.9466009999999
 31
0.0
  0
LINE
  5
9743
330
962C
100
AcDbEntity
  8
1
  6
Continuous
100
AcDbLine
 10
39.81563599999999
 20
199.483601
 30
0.0
 11
39.81563599999999
 21
197.010601
 31
0.0
  0
LINE
  5
9744
330
962C
100
AcDbEntity
  8
1
  6
Continuous
100
AcDbLine
 10
46.31563599999998
 20
200.9466009999999
 30
0.0
 11
42.21563599999997
 21
200.9466009999999
 31
0.0
  0
LINE
  5
9745
330
962C
100
AcDbEntity
  8
1
  6
Continuous
100
AcDbLine
 10
46.31563599999998
 20
195.546601
 30
0.0
 11
42.21563599999997
 21
195.546601
 31
0.0
  0
LINE
  5
9746
330
962C
100
AcDbEntity
  8
1
  6
Continuous
100
AcDbLine
 10
46.31563599999998
 20
201.5466009999999
 30
0.0
 11
46.31563599999998
 21
194.9466009999999
 31
0.0
  0
LINE
  5
9747
330
962C
100
AcDbEntity
  8
1
  6
Continuous
100
AcDbLine
 10
57.315636
 20
201.5466009999999
 30
0.0
 11
57.115636
 21
201.746601
 31
0.0
  0
LINE
  5
9748
330
962C
100
AcDbEntity
  8
1
  6
Continuous
100
AcDbLine
 10
57.315636
 20
194.9466009999999
 30
0.0
 11
57.115636
 21
194.746601
 31
0.0
  0
LINE
  5
9749
330
962C
100
AcDbEntity
  8
1
  6
Continuous
100
AcDbLine
 10
46.515636
 20
194.746601
 30
0.0
 11
46.31563599999998
 21
194.9466009999999
 31
0.0
  0
LINE
  5
974A
330
962C
100
AcDbEntity
  8
1
  6
Continuous
100
AcDbLine
 10
46.31563599999998
 20
201.5466009999999
 30
0.0
 11
46.515636
 21
201.746601
 31
0.0
  0
LINE
  5
974B
330
962C
100
AcDbEntity
  8
1
  6
Continuous
100
AcDbLine
 10
56.415636
 20
201.690601
 30
0.0
 11
49.71563599999999
 21
201.690601
 31
0.0
  0
LINE
  5
974C
330
962C
100
AcDbEntity
  8
1
  6
Continuous
100
AcDbLine
 10
57.115636
 20
201.746601
 30
0.0
 11
56.415636
 21
201.746601
 31
0.0
  0
LINE
  5
974D
330
962C
100
AcDbEntity
  8
1
  6
Continuous
100
AcDbLine
 10
49.71563599999999
 20
201.746601
 30
0.0
 11
46.515636
 21
201.746601
 31
0.0
  0
LINE
  5
974E
330
962C
100
AcDbEntity
  8
1
  6
Continuous
100
AcDbLine
 10
46.515636
 20
201.746601
 30
0.0
 11
46.515636
 21
194.746601
 31
0.0
  0
LINE
  5
974F
330
962C
100
AcDbEntity
  8
1
  6
Continuous
100
AcDbLine
 10
57.115636
 20
201.746601
 30
0.0
 11
57.115636
 21
194.746601
 31
0.0
  0
LINE
  5
9750
330
962C
100
AcDbEntity
  8
1
  6
Continuous
100
AcDbLine
 10
49.71563599999999
 20
201.746601
 30
0.0
 11
49.71563599999999
 21
201.690601
 31
0.0
  0
LINE
  5
9751
330
962C
100
AcDbEntity
  8
1
  6
Continuous
100
AcDbLine
 10
42.815636
 20
195.146601
 30
0.0
 11
42.815636
 21
195.546601
 31
0.0
  0
LINE
  5
9752
330
962C
100
AcDbEntity
  8
1
  6
Continuous
100
AcDbLine
 10
42.815636
 20
200.9466009999999
 30
0.0
 11
42.815636
 21
201.346601
 31
0.0
  0
LINE
  5
9753
330
962C
100
AcDbEntity
  8
1
  6
Continuous
100
AcDbLine
 10
45.315636
 20
193.9406009999999
 30
0.0
 11
45.315636
 21
195.546601
 31
0.0
  0
LINE
  5
9754
330
962C
100
AcDbEntity
  8
1
  6
Continuous
100
AcDbLine
 10
45.315636
 20
200.9466009999999
 30
0.0
 11
45.315636
 21
201.646601
 31
0.0
  0
LINE
  5
9755
330
962C
100
AcDbEntity
  8
1
  6
Continuous
100
AcDbLine
 10
199.3620359999999
 20
43.246701
 30
0.0
 11
199.3620359999999
 21
33.246701
 31
0.0
  0
LINE
  5
9756
330
962C
100
AcDbEntity
  8
1
  6
Continuous
100
AcDbLine
 10
199.3620359999999
 20
43.246701
 30
0.0
 11
199.962036
 21
43.246701
 31
0.0
  0
LINE
  5
9757
330
962C
100
AcDbEntity
  8
1
  6
Continuous
100
AcDbLine
 10
199.3620359999999
 20
33.246701
 30
0.0
 11
199.962036
 21
33.246701
 31
0.0
  0
LINE
  5
9758
330
962C
100
AcDbEntity
  8
1
  6
Continuous
100
AcDbLine
 10
199.962036
 20
43.246701
 30
0.0
 11
199.962036
 21
33.246701
 31
0.0
  0
LINE
  5
9759
330
962C
100
AcDbEntity
  8
1
  6
Continuous
100
AcDbLine
 10
199.3620359999999
 20
37.815501
 30
0.0
 11
199.0840359999999
 21
38.093201
 31
0.0
  0
LINE
  5
975A
330
962C
100
AcDbEntity
  8
1
  6
Continuous
100
AcDbLine
 10
200.240036
 20
38.400101
 30
0.0
 11
199.962036
 21
38.677801
 31
0.0
  0
LINE
  5
975B
330
962C
100
AcDbEntity
  8
1
  6
Continuous
100
AcDbLine
 10
199.0840359999999
 20
38.093201
 30
0.0
 11
199.3620359999999
 21
38.37090100000001
 31
0.0
  0
LINE
  5
975C
330
962C
100
AcDbEntity
  8
1
  6
Continuous
100
AcDbLine
 10
199.962036
 20
38.122401
 30
0.0
 11
200.240036
 21
38.400101
 31
0.0
  0
LINE
  5
975D
330
962C
100
AcDbEntity
  8
1
  6
Continuous
100
AcDbLine
 10
199.3620359999999
 20
36.531801
 30
0.0
 11
199.0840359999999
 21
36.351301
 31
0.0
  0
LINE
  5
975E
330
962C
100
AcDbEntity
  8
1
  6
Continuous
100
AcDbLine
 10
199.0840359999999
 20
39.925001
 30
0.0
 11
199.3620359999999
 21
39.756101
 31
0.0
  0
LINE
  5
975F
330
962C
100
AcDbEntity
  8
1
  6
Continuous
100
AcDbLine
 10
200.240036
 20
40.22580099999998
 30
0.0
 11
199.962036
 21
40.013601
 31
0.0
  0
LINE
  5
9760
330
962C
100
AcDbEntity
  8
1
  6
Continuous
100
AcDbLine
 10
199.962036
 20
36.70830099999999
 30
0.0
 11
200.240036
 21
36.484501
 31
0.0
  0
LINE
  5
9761
330
962C
100
AcDbEntity
  8
1
  6
Continuous
100
AcDbLine
 10
199.962036
 20
40.991901
 30
0.0
 11
200.240036
 21
40.22580099999998
 31
0.0
  0
LINE
  5
9762
330
962C
100
AcDbEntity
  8
1
  6
Continuous
100
AcDbLine
 10
199.3620359999999
 20
40.43300099999998
 30
0.0
 11
199.0840359999999
 21
39.925001
 31
0.0
  0
LINE
  5
9763
330
962C
100
AcDbEntity
  8
1
  6
Continuous
100
AcDbLine
 10
199.962036
 20
35.58320100000001
 30
0.0
 11
200.240036
 21
36.484501
 31
0.0
  0
LINE
  5
9764
330
962C
100
AcDbEntity
  8
1
  6
Continuous
100
AcDbLine
 10
199.0840359999999
 20
36.351301
 30
0.0
 11
199.3620359999999
 21
35.108101
 31
0.0
  0
LINE
  5
9765
330
962C
100
AcDbEntity
  8
1
  6
Continuous
100
AcDbLine
 10
199.3620359999999
 20
203.2466009999999
 30
0.0
 11
199.3620359999999
 21
193.2466009999999
 31
0.0
  0
LINE
  5
9766
330
962C
100
AcDbEntity
  8
1
  6
Continuous
100
AcDbLine
 10
199.3620359999999
 20
203.2466009999999
 30
0.0
 11
199.962036
 21
203.2466009999999
 31
0.0
  0
LINE
  5
9767
330
962C
100
AcDbEntity
  8
1
  6
Continuous
100
AcDbLine
 10
199.3620359999999
 20
193.2466009999999
 30
0.0
 11
199.962036
 21
193.2466009999999
 31
0.0
  0
LINE
  5
9768
330
962C
100
AcDbEntity
  8
1
  6
Continuous
100
AcDbLine
 10
199.962036
 20
203.2466009999999
 30
0.0
 11
199.962036
 21
193.2466009999999
 31
0.0
  0
LINE
  5
9769
330
962C
100
AcDbEntity
  8
1
  6
Continuous
100
AcDbLine
 10
199.3620359999999
 20
197.815601
 30
0.0
 11
199.0840359999999
 21
198.093601
 31
0.0
  0
LINE
  5
976A
330
962C
100
AcDbEntity
  8
1
  6
Continuous
100
AcDbLine
 10
200.240036
 20
198.399601
 30
0.0
 11
199.962036
 21
198.6776009999999
 31
0.0
  0
LINE
  5
976B
330
962C
100
AcDbEntity
  8
1
  6
Continuous
100
AcDbLine
 10
199.0840359999999
 20
198.093601
 30
0.0
 11
199.3620359999999
 21
198.3706009999999
 31
0.0
  0
LINE
  5
976C
330
962C
100
AcDbEntity
  8
1
  6
Continuous
100
AcDbLine
 10
199.962036
 20
198.122601
 30
0.0
 11
200.240036
 21
198.399601
 31
0.0
  0
LINE
  5
976D
330
962C
100
AcDbEntity
  8
1
  6
Continuous
100
AcDbLine
 10
199.3620359999999
 20
196.531601
 30
0.0
 11
199.0840359999999
 21
196.351601
 31
0.0
  0
LINE
  5
976E
330
962C
100
AcDbEntity
  8
1
  6
Continuous
100
AcDbLine
 10
199.0840359999999
 20
199.924601
 30
0.0
 11
199.3620359999999
 21
199.755601
 31
0.0
  0
LINE
  5
976F
330
962C
100
AcDbEntity
  8
1
  6
Continuous
100
AcDbLine
 10
200.240036
 20
200.2256009999999
 30
0.0
 11
199.962036
 21
200.0136009999999
 31
0.0
  0
LINE
  5
9770
330
962C
100
AcDbEntity
  8
1
  6
Continuous
100
AcDbLine
 10
199.962036
 20
196.7086009999999
 30
0.0
 11
200.240036
 21
196.484601
 31
0.0
  0
LINE
  5
9771
330
962C
100
AcDbEntity
  8
1
  6
Continuous
100
AcDbLine
 10
199.962036
 20
200.9916009999999
 30
0.0
 11
200.240036
 21
200.2256009999999
 31
0.0
  0
LINE
  5
9772
330
962C
100
AcDbEntity
  8
1
  6
Continuous
100
AcDbLine
 10
199.3620359999999
 20
200.432601
 30
0.0
 11
199.0840359999999
 21
199.924601
 31
0.0
  0
LINE
  5
9773
330
962C
100
AcDbEntity
  8
1
  6
Continuous
100
AcDbLine
 10
199.962036
 20
195.5836009999999
 30
0.0
 11
200.240036
 21
196.484601
 31
0.0
  0
LINE
  5
9774
330
962C
100
AcDbEntity
  8
1
  6
Continuous
100
AcDbLine
 10
199.0840359999999
 20
196.351601
 30
0.0
 11
199.3620359999999
 21
195.108601
 31
0.0
  0
LINE
  5
9775
330
962C
100
AcDbEntity
  8
4
  6
CENTER
100
AcDbLine
 10
164.4720359999998
 20
118.2466009999999
 30
0.0
 11
218.065036
 21
118.2466009999999
 31
0.0
  0
LINE
  5
9776
330
962C
100
AcDbEntity
  8
1
  6
Continuous
100
AcDbLine
 10
199.3620359999999
 20
123.246601
 30
0.0
 11
199.3620359999999
 21
113.2466009999999
 31
0.0
  0
LINE
  5
9777
330
962C
100
AcDbEntity
  8
1
  6
Continuous
100
AcDbLine
 10
199.3620359999999
 20
123.246601
 30
0.0
 11
199.962036
 21
123.246601
 31
0.0
  0
LINE
  5
9778
330
962C
100
AcDbEntity
  8
1
  6
Continuous
100
AcDbLine
 10
199.3620359999999
 20
113.2466009999999
 30
0.0
 11
199.962036
 21
113.2466009999999
 31
0.0
  0
LINE
  5
9779
330
962C
100
AcDbEntity
  8
1
  6
Continuous
100
AcDbLine
 10
199.962036
 20
123.246601
 30
0.0
 11
199.962036
 21
113.2466009999999
 31
0.0
  0
LINE
  5
977A
330
962C
100
AcDbEntity
  8
1
  6
Continuous
100
AcDbLine
 10
199.3620359999999
 20
117.815601
 30
0.0
 11
199.0840359999999
 21
118.093601
 31
0.0
  0
LINE
  5
977B
330
962C
100
AcDbEntity
  8
1
  6
Continuous
100
AcDbLine
 10
200.240036
 20
118.3996009999999
 30
0.0
 11
199.962036
 21
118.6776009999999
 31
0.0
  0
LINE
  5
977C
330
962C
100
AcDbEntity
  8
1
  6
Continuous
100
AcDbLine
 10
199.0840359999999
 20
118.093601
 30
0.0
 11
199.3620359999999
 21
118.3706009999999
 31
0.0
  0
LINE
  5
977D
330
962C
100
AcDbEntity
  8
1
  6
Continuous
100
AcDbLine
 10
199.962036
 20
118.122601
 30
0.0
 11
200.240036
 21
118.3996009999999
 31
0.0
  0
LINE
  5
977E
330
962C
100
AcDbEntity
  8
1
  6
Continuous
100
AcDbLine
 10
199.3620359999999
 20
116.5316009999999
 30
0.0
 11
199.0840359999999
 21
116.351601
 31
0.0
  0
LINE
  5
977F
330
962C
100
AcDbEntity
  8
1
  6
Continuous
100
AcDbLine
 10
199.0840359999999
 20
119.9246009999999
 30
0.0
 11
199.3620359999999
 21
119.755601
 31
0.0
  0
LINE
  5
9780
330
962C
100
AcDbEntity
  8
1
  6
Continuous
100
AcDbLine
 10
200.240036
 20
120.2256009999999
 30
0.0
 11
199.962036
 21
120.013601
 31
0.0
  0
LINE
  5
9781
330
962C
100
AcDbEntity
  8
1
  6
Continuous
100
AcDbLine
 10
199.962036
 20
116.708601
 30
0.0
 11
200.240036
 21
116.4846009999999
 31
0.0
  0
LINE
  5
9782
330
962C
100
AcDbEntity
  8
1
  6
Continuous
100
AcDbLine
 10
199.962036
 20
120.991601
 30
0.0
 11
200.240036
 21
120.2256009999999
 31
0.0
  0
LINE
  5
9783
330
962C
100
AcDbEntity
  8
1
  6
Continuous
100
AcDbLine
 10
199.3620359999999
 20
120.432601
 30
0.0
 11
199.0840359999999
 21
119.9246009999999
 31
0.0
  0
LINE
  5
9784
330
962C
100
AcDbEntity
  8
1
  6
Continuous
100
AcDbLine
 10
199.962036
 20
115.583601
 30
0.0
 11
200.240036
 21
116.4846009999999
 31
0.0
  0
LINE
  5
9785
330
962C
100
AcDbEntity
  8
1
  6
Continuous
100
AcDbLine
 10
199.0840359999999
 20
116.351601
 30
0.0
 11
199.3620359999999
 21
115.1086009999998
 31
0.0
  0
ARC
  5
9786
330
962C
100
AcDbEntity
  8
1
  6
Continuous
100
AcDbCircle
 10
255.7810359999999
 20
118.2466009999999
 30
0.0
 40
7.5
100
AcDbArc
 50
47.1666
 51
312.8329999999999
  0
ARC
  5
9787
330
962C
100
AcDbEntity
  8
1
  6
Continuous
100
AcDbCircle
 10
255.7810359999999
 20
118.2466009999999
 30
0.0
 40
6.0
100
AcDbArc
 50
66.4435
 51
151.0449999999999
  0
ARC
  5
9788
330
962C
100
AcDbEntity
  8
2
  6
Continuous
100
AcDbCircle
 10
255.7810359999999
 20
118.2466009999999
 30
0.0
 40
5.593999999999999
100
AcDbArc
 50
79.4816
 51
159.8019999999999
  0
ARC
  5
9789
330
962C
100
AcDbEntity
  8
1
  6
Continuous
100
AcDbCircle
 10
255.7810359999999
 20
118.2466009999999
 30
0.0
 40
6.0
100
AcDbArc
 50
208.955
 51
293.5559999999999
  0
ARC
  5
978A
330
962C
100
AcDbEntity
  8
2
  6
Continuous
100
AcDbCircle
 10
255.7810359999999
 20
118.2466009999999
 30
0.0
 40
5.593999999999999
100
AcDbArc
 50
200.198
 51
290.9479999999998
  0
ARC
  5
978B
330
962C
100
AcDbEntity
  8
1
  6
Continuous
100
AcDbCircle
 10
255.7810359999999
 20
118.2466009999999
 30
0.0
 40
5.5
100
AcDbArc
 50
197.3409999999999
 51
291.324
  0
ARC
  5
978C
330
962C
100
AcDbEntity
  8
1
  6
Continuous
100
AcDbCircle
 10
255.7810359999999
 20
118.2466009999999
 30
0.0
 40
2.066999999999997
100
AcDbArc
 50
325.3299999999999
 51
34.6695
  0
ARC
  5
978D
330
962C
100
AcDbEntity
  8
2
  6
Continuous
100
AcDbCircle
 10
255.7810359999999
 20
118.2466009999999
 30
0.0
 40
2.5
100
AcDbArc
 50
312.8439999999998
 51
47.1565
  0
ARC
  5
978E
330
962C
100
AcDbEntity
  8
2
  6
Continuous
100
AcDbCircle
 10
255.7810359999999
 20
118.2466009999999
 30
0.0
 40
2.066999999999997
100
AcDbArc
 50
214.6689999999999
 51
325.3309999999999
  0
ARC
  5
978F
330
962C
100
AcDbEntity
  8
1
  6
Continuous
100
AcDbCircle
 10
255.7810359999999
 20
118.2466009999999
 30
0.0
 40
2.5
100
AcDbArc
 50
227.156
 51
312.8439999999998
  0
ARC
  5
9790
330
962C
100
AcDbEntity
  8
1
  6
Continuous
100
AcDbCircle
 10
270.7810359999999
 20
118.2466009999999
 30
0.0
 40
8.0
100
AcDbArc
 50
316.5669999999999
 51
43.4325
  0
ARC
  5
9791
330
962C
100
AcDbEntity
  8
1
  6
Continuous
100
AcDbCircle
 10
255.7810359999999
 20
118.2466009999999
 30
0.0
 40
5.5
100
AcDbArc
 50
90.0
 51
162.659
  0
CIRCLE
  5
9792
330
962C
100
AcDbEntity
  8
1
  6
Continuous
100
AcDbCircle
 10
255.7810359999999
 20
118.2466009999999
 30
0.0
 40
5.0
  0
CIRCLE
  5
9793
330
962C
100
AcDbEntity
  8
1
  6
Continuous
100
AcDbCircle
 10
255.7810359999999
 20
118.2466009999999
 30
0.0
 40
4.0
  0
ARC
  5
9794
330
962C
100
AcDbEntity
  8
1
  6
Continuous
100
AcDbCircle
 10
255.7810359999999
 20
118.2466009999999
 30
0.0
 40
2.5
100
AcDbArc
 50
47.1565
 51
132.844
  0
ARC
  5
9795
330
962C
100
AcDbEntity
  8
2
  6
Continuous
100
AcDbCircle
 10
255.7810359999999
 20
118.2466009999999
 30
0.0
 40
2.5
100
AcDbArc
 50
132.844
 51
227.156
  0
ARC
  5
9796
330
962C
100
AcDbEntity
  8
1
  6
Continuous
100
AcDbCircle
 10
255.7810359999999
 20
118.2466009999999
 30
0.0
 40
2.066999999999997
100
AcDbArc
 50
145.33
 51
214.67
  0
ARC
  5
9797
330
962C
100
AcDbEntity
  8
2
  6
Continuous
100
AcDbCircle
 10
255.7810359999999
 20
118.2466009999999
 30
0.0
 40
2.066999999999997
100
AcDbArc
 50
34.6695
 51
145.33
  0
ARC
  5
9798
330
962C
100
AcDbEntity
  8
1
  6
Continuous
100
AcDbCircle
 10
167.270036
 20
124.741601
 30
0.0
 40
3.83374
100
AcDbArc
 50
325.6159999999998
 51
25.6157
  0
ARC
  5
9799
330
962C
100
AcDbEntity
  8
1
  6
Continuous
100
AcDbCircle
 10
156.774036
 20
118.2466009999999
 30
0.0
 40
14.3301
100
AcDbArc
 50
342.4119999999998
 51
17.588
  0
ARC
  5
979A
330
962C
100
AcDbEntity
  8
1
  6
Continuous
100
AcDbCircle
 10
167.270036
 20
111.7516009999999
 30
0.0
 40
3.83374
100
AcDbArc
 50
334.384
 51
34.3843
  0
ARC
  5
979B
330
962C
100
AcDbEntity
  8
1
  6
Continuous
100
AcDbCircle
 10
212.4980359999999
 20
114.7826009999999
 30
0.0
 40
2.044659999999999
100
AcDbArc
 50
325.6159999999998
 51
34.3845
  0
ARC
  5
979C
330
962C
100
AcDbEntity
  8
1
  6
Continuous
100
AcDbCircle
 10
206.9000359999999
 20
118.2466009999999
 30
0.0
 40
7.642619999999997
100
AcDbArc
 50
342.4119999999998
 51
17.5882
  0
ARC
  5
979D
330
962C
100
AcDbEntity
  8
1
  6
Continuous
100
AcDbCircle
 10
212.4980359999999
 20
121.7106009999999
 30
0.0
 40
2.044659999999999
100
AcDbArc
 50
325.6159999999998
 51
34.3845
  0
ARC
  5
979E
330
962C
100
AcDbEntity
  8
1
  6
Continuous
100
AcDbCircle
 10
208.766036
 20
196.2466009999999
 30
0.0
 40
5.77665
100
AcDbArc
 50
339.744
 51
20.2564
  0
ARC
  5
979F
330
962C
100
AcDbEntity
  8
1
  6
Continuous
100
AcDbCircle
 10
208.766036
 20
200.246601
 30
0.0
 40
5.77665
100
AcDbArc
 50
339.744
 51
20.2564
  0
ARC
  5
97A0
330
962C
100
AcDbEntity
  8
1
  6
Continuous
100
AcDbCircle
 10
160.2730359999999
 20
201.996601
 30
0.0
 40
10.8313
100
AcDbArc
 50
339.744
 51
20.25619999999999
  0
ARC
  5
97A1
330
962C
100
AcDbEntity
  8
1
  6
Continuous
100
AcDbCircle
 10
160.2730359999999
 20
194.496601
 30
0.0
 40
10.8313
100
AcDbArc
 50
339.744
 51
20.25619999999999
  0
CIRCLE
  5
97A2
330
962C
100
AcDbEntity
  8
1
  6
Continuous
100
AcDbCircle
 10
126.657036
 20
198.2466009999999
 30
0.0
 40
1.199999999999999
  0
ARC
  5
97A3
330
962C
100
AcDbEntity
  8
1
  6
Continuous
100
AcDbCircle
 10
208.766036
 20
40.246701
 30
0.0
 40
5.77665
100
AcDbArc
 50
339.744
 51
20.2564
  0
ARC
  5
97A4
330
962C
100
AcDbEntity
  8
1
  6
Continuous
100
AcDbCircle
 10
208.766036
 20
36.246701
 30
0.0
 40
5.77665
100
AcDbArc
 50
339.744
 51
20.2564
  0
ARC
  5
97A5
330
962C
100
AcDbEntity
  8
1
  6
Continuous
100
AcDbCircle
 10
160.2730359999999
 20
34.496701
 30
0.0
 40
10.8313
100
AcDbArc
 50
339.744
 51
20.25619999999999
  0
ARC
  5
97A6
330
962C
100
AcDbEntity
  8
1
  6
Continuous
100
AcDbCircle
 10
160.2730359999999
 20
41.996701
 30
0.0
 40
10.8313
100
AcDbArc
 50
339.744
 51
20.25619999999999
  0
CIRCLE
  5
97A7
330
962C
100
AcDbEntity
  8
1
  6
Continuous
100
AcDbCircle
 10
37.93413599999999
 20
118.2466009999999
 30
0.0
 40
6.0
  0
CIRCLE
  5
97A8
330
962C
100
AcDbEntity
  8
1
  6
Continuous
100
AcDbCircle
 10
37.93413599999999
 20
118.2466009999999
 30
0.0
 40
7.5
  0
ARC
  5
97A9
330
962C
100
AcDbEntity
  8
1
  6
Continuous
100
AcDbCircle
 10
37.93413599999999
 20
118.2466009999999
 30
0.0
 40
3.6
100
AcDbArc
 50
100.807
 51
79.1931
  0
ARC
  5
97AA
330
962C
100
AcDbEntity
  8
1
  6
Continuous
100
AcDbCircle
 10
37.93413599999999
 20
118.2466009999999
 30
0.0
 40
2.649999999999999
100
AcDbArc
 50
104.757
 51
75.2432
  0
ARC
  5
97AB
330
962C
100
AcDbEntity
  8
5
  6
PHANTOM
100
AcDbCircle
 10
37.93413599999999
 20
133.246601
 30
0.0
 40
8.0
100
AcDbArc
 50
46.5675
 51
133.433
  0
CIRCLE
  5
97AC
330
962C
100
AcDbEntity
  8
1
  6
Continuous
100
AcDbCircle
 10
37.93413599999999
 20
118.2466009999999
 30
0.0
 40
8.0
  0
ARC
  5
97AD
330
962C
100
AcDbEntity
  8
1
  6
Continuous
100
AcDbCircle
 10
22.934136
 20
118.2466009999999
 30
0.0
 40
8.0
100
AcDbArc
 50
136.567
 51
223.4329999999999
  0
ARC
  5
97AE
330
962C
100
AcDbEntity
  8
1
  6
Continuous
100
AcDbCircle
 10
255.7810359999999
 20
118.2466009999999
 30
0.0
 40
8.0
100
AcDbArc
 50
43.4325
 51
80.36409999999998
  0
ARC
  5
97AF
330
962C
100
AcDbEntity
  8
1
  6
Continuous
100
AcDbCircle
 10
255.7810359999999
 20
118.2466009999999
 30
0.0
 40
8.0
100
AcDbArc
 50
99.63590000000003
 51
140.364
  0
ARC
  5
97B0
330
962C
100
AcDbEntity
  8
1
  6
Continuous
100
AcDbCircle
 10
255.7810359999999
 20
118.2466009999999
 30
0.0
 40
8.0
100
AcDbArc
 50
159.6359999999999
 51
200.364
  0
ARC
  5
97B1
330
962C
100
AcDbEntity
  8
1
  6
Continuous
100
AcDbCircle
 10
255.7810359999999
 20
118.2466009999999
 30
0.0
 40
8.0
100
AcDbArc
 50
219.636
 51
260.3639999999999
  0
ARC
  5
97B2
330
962C
100
AcDbEntity
  8
1
  6
Continuous
100
AcDbCircle
 10
255.7810359999999
 20
118.2466009999999
 30
0.0
 40
8.0
100
AcDbArc
 50
279.6359999999999
 51
316.5669999999999
  0
ARC
  5
97B3
330
962C
100
AcDbEntity
  8
1
  6
Continuous
100
AcDbCircle
 10
42.315636
 20
193.9406009999999
 30
0.0
 40
3.0
100
AcDbArc
 50
287.6499999999999
 51
0.0
  0
ARC
  5
97B4
330
962C
100
AcDbEntity
  8
1
  6
Continuous
100
AcDbCircle
 10
34.160336
 20
189.2466009999999
 30
0.0
 40
1.0
100
AcDbArc
 50
270.0
 51
287.6499999999999
  0
ARC
  5
97B5
330
962C
100
AcDbEntity
  8
1
  6
Continuous
100
AcDbCircle
 10
30.361536
 20
189.2466009999999
 30
0.0
 40
1.0
100
AcDbArc
 50
212.735
 51
270.0
  0
ARC
  5
97B6
330
962C
100
AcDbEntity
  8
1
  6
Continuous
100
AcDbCircle
 10
26.31563599999999
 20
195.540601
 30
0.0
 40
1.0
100
AcDbArc
 50
180.0
 51
212.735
  0
ARC
  5
97B7
330
962C
100
AcDbEntity
  8
1
  6
Continuous
100
AcDbCircle
 10
26.31563599999999
 20
200.953601
 30
0.0
 40
1.0
100
AcDbArc
 50
147.2649999999999
 51
180.0
  0
ARC
  5
97B8
330
962C
100
AcDbEntity
  8
1
  6
Continuous
100
AcDbCircle
 10
30.361536
 20
207.2466009999998
 30
0.0
 40
1.0
100
AcDbArc
 50
90.0
 51
147.2649999999999
  0
ARC
  5
97B9
330
962C
100
AcDbEntity
  8
1
  6
Continuous
100
AcDbCircle
 10
34.160336
 20
207.2466009999998
 30
0.0
 40
1.0
100
AcDbArc
 50
72.3499
 51
90.0
  0
ARC
  5
97BA
330
962C
100
AcDbEntity
  8
1
  6
Continuous
100
AcDbCircle
 10
28.11563599999999
 20
197.046601
 30
0.0
 40
0.8
100
AcDbArc
 50
180.0
 51
270.0
  0
ARC
  5
97BB
330
962C
100
AcDbEntity
  8
1
  6
Continuous
100
AcDbCircle
 10
28.11563599999999
 20
199.446601
 30
0.0
 40
0.8
100
AcDbArc
 50
90.0
 51
180.0
  0
ARC
  5
97BC
330
962C
100
AcDbEntity
  8
1
  6
Continuous
100
AcDbCircle
 10
29.515636
 20
199.446601
 30
0.0
 40
0.8
100
AcDbArc
 50
0.0
 51
90.0
  0
ARC
  5
97BD
330
962C
100
AcDbEntity
  8
1
  6
Continuous
100
AcDbCircle
 10
29.515636
 20
197.046601
 30
0.0
 40
0.8
100
AcDbArc
 50
270.0
 51
0.0
  0
ARC
  5
97BE
330
962C
100
AcDbEntity
  8
1
  6
Continuous
100
AcDbCircle
 10
42.41063599999999
 20
198.2466009999999
 30
0.0
 40
3.1
100
AcDbArc
 50
90.0
 51
165.045
  0
ARC
  5
97BF
330
962C
100
AcDbEntity
  8
1
  6
Continuous
100
AcDbCircle
 10
42.41063599999999
 20
198.2466009999999
 30
0.0
 40
3.1
100
AcDbArc
 50
194.955
 51
270.0
  0
ARC
  5
97C0
330
962C
100
AcDbEntity
  8
1
  6
Continuous
100
AcDbCircle
 10
42.415636
 20
198.2466009999999
 30
0.0
 40
4.299999999999998
100
AcDbArc
 50
90.0
 51
270.0
  0
ARC
  5
97C1
330
962C
100
AcDbEntity
  8
1
  6
Continuous
100
AcDbCircle
 10
50.915636
 20
203.5466009999999
 30
0.0
 40
1.199999999999999
100
AcDbArc
 50
0.0
 51
90.0
  0
ARC
  5
97C2
330
962C
100
AcDbEntity
  8
1
  6
Continuous
100
AcDbCircle
 10
45.515636
 20
201.646601
 30
0.0
 40
0.2
100
AcDbArc
 50
90.0
 51
180.0
  0
ARC
  5
97C3
330
962C
100
AcDbEntity
  8
1
  6
Continuous
100
AcDbCircle
 10
42.21563599999997
 20
198.2466009999999
 30
0.0
 40
2.7
100
AcDbArc
 50
207.266
 51
270.0
  0
ARC
  5
97C4
330
962C
100
AcDbEntity
  8
1
  6
Continuous
100
AcDbCircle
 10
42.21563599999997
 20
198.2466009999999
 30
0.0
 40
2.7
100
AcDbArc
 50
90.0
 51
152.734
  0
LINE
  5
97C5
330
962C
100
AcDbEntity
  8
1
  6
Continuous
100
AcDbLine
 10
186.193036
 20
219.0556009999998
 30
0.0
 11
184.193036
 21
219.0556009999998
 31
0.0
  0
LINE
  5
97C6
330
962C
100
AcDbEntity
  8
1
  6
Continuous
100
AcDbLine
 10
186.193036
 20
17.437701
 30
0.0
 11
184.193036
 21
17.437701
 31
0.0
  0
ARC
  5
97C7
330
962C
100
AcDbEntity
  8
1
  6
Continuous
100
AcDbCircle
 10
39.41502100000001
 20
198.2466009999999
 30
0.0
 40
7.932788
100
AcDbArc
 50
169.896
 51
172.2069999999999
  0
ARC
  5
97C8
330
962C
100
AcDbEntity
  8
1
  6
Continuous
100
AcDbCircle
 10
28.216252
 20
198.2466009999999
 30
0.0
 40
7.932788
100
AcDbArc
 50
7.792999999999999
 51
10.10399999999999
  0
ARC
  5
97C9
330
962C
100
AcDbEntity
  8
1
  6
Continuous
100
AcDbCircle
 10
31.621219
 20
199.314375
 30
0.0
 40
0.066678
100
AcDbArc
 50
172.2069999999999
 51
270.0
  0
ARC
  5
97CA
330
962C
100
AcDbEntity
  8
1
  6
Continuous
100
AcDbCircle
 10
36.010054
 20
199.314375
 30
0.0
 40
0.066678
100
AcDbArc
 50
270.0
 51
7.792999999999999
  0
LINE
  5
97CB
330
962C
100
AcDbEntity
  8
1
  6
Continuous
100
AcDbLine
 10
31.48994699999999
 20
198.580873
 30
0.0
 11
36.141326
 21
198.580873
 31
0.0
  0
LINE
  5
97CC
330
962C
100
AcDbEntity
  8
1
  6
Continuous
100
AcDbLine
 10
31.621219
 20
199.246709
 30
0.0
 11
36.010054
 21
199.246709
 31
0.0
  0
LINE
  5
97CD
330
962C
100
AcDbEntity
  8
1
  6
Continuous
100
AcDbLine
 10
33.015144
 20
199.9138979999999
 30
0.0
 11
31.933837
 21
199.9138979999999
 31
0.0
  0
LINE
  5
97CE
330
962C
100
AcDbEntity
  8
1
  6
Continuous
100
AcDbLine
 10
33.81496
 20
199.9138979999999
 30
0.0
 11
33.81496
 21
199.58098
 31
0.0
  0
LINE
  5
97CF
330
962C
100
AcDbEntity
  8
1
  6
Continuous
100
AcDbLine
 10
31.93789699999999
 20
201.246924
 30
0.0
 11
33.482042
 21
201.246924
 31
0.0
  0
LINE
  5
97D0
330
962C
100
AcDbEntity
  8
1
  6
Continuous
100
AcDbLine
 10
33.482042
 20
201.9141129999999
 30
0.0
 11
32.058343
 21
201.9141129999999
 31
0.0
  0
LINE
  5
97D1
330
962C
100
AcDbEntity
  8
1
  6
Continuous
100
AcDbLine
 10
33.81496
 20
201.5798419999999
 30
0.0
 11
35.41459099999999
 21
201.5798419999999
 31
0.0
  0
LINE
  5
97D2
330
962C
100
AcDbEntity
  8
1
  6
Continuous
100
AcDbLine
 10
35.06272599999999
 20
202.252445
 30
0.0
 11
32.25322199999999
 21
203.0062469999998
 31
0.0
  0
LINE
  5
97D3
330
962C
100
AcDbEntity
  8
1
  6
Continuous
100
AcDbLine
 10
33.81496
 20
203.9644019999999
 30
0.0
 11
33.81496
 21
202.5867159999999
 31
0.0
  0
ARC
  5
97D4
330
962C
100
AcDbEntity
  8
1
  6
Continuous
100
AcDbCircle
 10
33.482042
 20
201.5798419999999
 30
0.0
 40
0.333392
100
AcDbArc
 50
270.0
 51
90.0
  0
ARC
  5
97D5
330
962C
100
AcDbEntity
  8
1
  6
Continuous
100
AcDbCircle
 10
33.81496
 20
202.247032
 30
0.0
 40
1.717978999999998
100
AcDbArc
 50
62.24999999999999
 51
144.462
  0
ARC
  5
97D6
330
962C
100
AcDbEntity
  8
1
  6
Continuous
100
AcDbCircle
 10
33.81496
 20
202.247032
 30
0.0
 40
1.717978999999998
100
AcDbArc
 50
35.53799999999999
 51
45.69899999999999
  0
ARC
  5
97D7
330
962C
100
AcDbEntity
  8
1
  6
Continuous
100
AcDbCircle
 10
31.933837
 20
199.58098
 30
0.0
 40
0.333392
100
AcDbArc
 50
90.0
 51
169.896
  0
ARC
  5
97D8
330
962C
100
AcDbEntity
  8
1
  6
Continuous
100
AcDbCircle
 10
35.69743599999998
 20
199.58098
 30
0.0
 40
0.333392
100
AcDbArc
 50
10.10399999999999
 51
90.0
  0
LINE
  5
97D9
330
962C
100
AcDbEntity
  8
1
  6
Continuous
100
AcDbLine
 10
35.69743599999998
 20
199.9138979999999
 30
0.0
 11
33.81496
 21
199.9138979999999
 31
0.0
  0
LINE
  5
97DA
330
962C
100
AcDbEntity
  8
1
  6
Continuous
100
AcDbLine
 10
31.623926
 20
200.5797349999999
 30
0.0
 11
35.797582
 21
200.5797349999999
 31
0.0
  0
LINE
  5
97DB
330
962C
100
AcDbEntity
  8
1
  6
Continuous
100
AcDbLine
 10
31.986617
 20
193.9146059999999
 30
0.0
 11
34.86108
 21
193.9146059999999
 31
0.0
  0
LINE
  5
97DC
330
962C
100
AcDbEntity
  8
1
  6
Continuous
100
AcDbLine
 10
35.045133
 20
194.580443
 30
0.0
 11
32.58614
 21
194.580443
 31
0.0
  0
LINE
  5
97DD
330
962C
100
AcDbEntity
  8
1
  6
Continuous
100
AcDbLine
 10
32.17066899999999
 20
195.247632
 30
0.0
 11
35.45924999999999
 21
195.247632
 31
0.0
  0
LINE
  5
97DE
330
962C
100
AcDbEntity
  8
1
  6
Continuous
100
AcDbLine
 10
33.015144
 20
196.5806579999998
 30
0.0
 11
31.743018
 21
196.5806579999998
 31
0.0
  0
LINE
  5
97DF
330
962C
100
AcDbEntity
  8
1
  6
Continuous
100
AcDbLine
 10
33.81496
 20
197.913683
 30
0.0
 11
33.81496
 21
197.247847
 31
0.0
  0
ARC
  5
97E0
330
962C
100
AcDbEntity
  8
1
  6
Continuous
100
AcDbCircle
 10
33.81496
 20
194.247525
 30
0.0
 40
1.717978999999998
100
AcDbArc
 50
215.5377
 51
256.5374
  0
ARC
  5
97E1
330
962C
100
AcDbEntity
  8
1
  6
Continuous
100
AcDbCircle
 10
33.81496
 20
194.247525
 30
0.0
 40
1.717978999999998
100
AcDbArc
 50
270.0
 51
324.4619999999998
  0
ARC
  5
97E2
330
962C
100
AcDbEntity
  8
1
  6
Continuous
100
AcDbCircle
 10
32.58614
 20
194.914714
 30
0.0
 40
0.333392
100
AcDbArc
 50
206.0144
 51
270.0
  0
ARC
  5
97E3
330
962C
100
AcDbEntity
  8
1
  6
Continuous
100
AcDbCircle
 10
39.41502100000001
 20
198.2466009999999
 30
0.0
 40
7.932788
100
AcDbArc
 50
202.944
 51
206.0144
  0
ARC
  5
97E4
330
962C
100
AcDbEntity
  8
1
  6
Continuous
100
AcDbCircle
 10
32.17066899999999
 20
195.181319
 30
0.0
 40
0.066678
100
AcDbArc
 50
90.0
 51
202.944
  0
ARC
  5
97E5
330
962C
100
AcDbEntity
  8
1
  6
Continuous
100
AcDbCircle
 10
35.045133
 20
194.914714
 30
0.0
 40
0.333392
100
AcDbArc
 50
270.0
 51
333.9859999999998
  0
ARC
  5
97E6
330
962C
100
AcDbEntity
  8
1
  6
Continuous
100
AcDbCircle
 10
31.743018
 20
196.514345
 30
0.0
 40
0.066678
100
AcDbArc
 50
90.0
 51
192.7289
  0
ARC
  5
97E7
330
962C
100
AcDbEntity
  8
1
  6
Continuous
100
AcDbCircle
 10
39.41502100000001
 20
198.2466009999999
 30
0.0
 40
7.932788
100
AcDbArc
 50
192.7289
 51
193.2680999999999
  0
ARC
  5
97E8
330
962C
100
AcDbEntity
  8
1
  6
Continuous
100
AcDbCircle
 10
39.41502100000001
 20
198.2466009999999
 30
0.0
 40
7.932788
100
AcDbArc
 50
193.2680999999999
 51
195.2574999999999
  0
ARC
  5
97E9
330
962C
100
AcDbEntity
  8
1
  6
Continuous
100
AcDbCircle
 10
32.08405599999998
 20
196.24774
 30
0.0
 40
0.333392
100
AcDbArc
 50
195.2574999999999
 51
270.0
  0
ARC
  5
97EA
330
962C
100
AcDbEntity
  8
1
  6
Continuous
100
AcDbCircle
 10
35.547216
 20
196.24774
 30
0.0
 40
0.333392
100
AcDbArc
 50
270.0
 51
344.7419999999998
  0
ARC
  5
97EB
330
962C
100
AcDbEntity
  8
1
  6
Continuous
100
AcDbCircle
 10
28.216252
 20
198.2466009999999
 30
0.0
 40
7.932788
100
AcDbArc
 50
344.7419999999998
 51
344.794
  0
ARC
  5
97EC
330
962C
100
AcDbEntity
  8
1
  6
Continuous
100
AcDbCircle
 10
28.216252
 20
198.2466009999999
 30
0.0
 40
7.932788
100
AcDbArc
 50
344.794
 51
347.2709999999998
  0
ARC
  5
97ED
330
962C
100
AcDbEntity
  8
1
  6
Continuous
100
AcDbCircle
 10
35.88825399999999
 20
196.514345
 30
0.0
 40
0.066678
100
AcDbArc
 50
347.2709999999998
 51
90.0
  0
LINE
  5
97EE
330
962C
100
AcDbEntity
  8
1
  6
Continuous
100
AcDbLine
 10
32.08405599999998
 20
195.913468
 30
0.0
 11
35.547216
 21
195.913468
 31
0.0
  0
LINE
  5
97EF
330
962C
100
AcDbEntity
  8
1
  6
Continuous
100
AcDbLine
 10
35.88825399999999
 20
196.5806579999998
 30
0.0
 11
34.614775
 21
196.5806579999998
 31
0.0
  0
LINE
  5
97F0
330
962C
100
AcDbEntity
  8
1
  6
Continuous
100
AcDbLine
 10
31.545433
 20
197.247847
 30
0.0
 11
36.08584
 21
197.247847
 31
0.0
  0
LINE
  5
97F1
330
962C
100
AcDbEntity
  8
1
  6
Continuous
100
AcDbLine
 10
31.48994699999999
 20
197.913683
 30
0.0
 11
36.141326
 21
197.913683
 31
0.0
  0
ARC
  5
97F2
330
962C
100
AcDbEntity
  8
1
  6
Continuous
100
AcDbCircle
 10
35.45924999999999
 20
195.181319
 30
0.0
 40
0.066678
100
AcDbArc
 50
337.0559999999999
 51
90.0
  0
ARC
  5
97F3
330
962C
100
AcDbEntity
  8
1
  6
Continuous
100
AcDbCircle
 10
28.216252
 20
198.2466009999999
 30
0.0
 40
7.932788
100
AcDbArc
 50
333.9859999999998
 51
337.0559999999999
  0
ARC
  5
97F4
330
962C
100
AcDbEntity
  8
1
  6
Continuous
100
AcDbCircle
 10
28.216252
 20
198.2466009999999
 30
0.0
 40
8.599396
100
AcDbArc
 50
324.4619999999998
 51
35.53799999999999
  0
ARC
  5
97F5
330
962C
100
AcDbEntity
  8
1
  6
Continuous
100
AcDbCircle
 10
39.41502100000001
 20
198.2466009999999
 30
0.0
 40
8.599396
100
AcDbArc
 50
144.462
 51
215.5377
  0
ENDSEC
  0
SECTION
  2
OBJECTS
  0
DICTIONARY
  5
961A
330
0
100
AcDbDictionary
281
     1
  3
ACAD_CIP_PREVIOUS_PRODUCT_INFO
350
9859
  3
ACAD_COLOR
350
983B
  3
ACAD_DETAILVIEWSTYLE
350
9854
  3
ACAD_GROUP
350
961B
  3
ACAD_LAYOUT
350
9627
  3
ACAD_MATERIAL
350
9809
  3
ACAD_MLEADERSTYLE
350
9850
  3
ACAD_MLINESTYLE
350
9624
  3
ACAD_PLOTSETTINGS
350
9626
  3
ACAD_PLOTSTYLENAME
350
9807
  3
ACAD_SCALELIST
350
983E
  3
ACAD_SECTIONVIEWSTYLE
350
9852
  3
ACAD_TABLESTYLE
350
983C
  3
ACAD_VISUALSTYLE
350
9822
  3
ACDB_RECOMPOSE_DATA
350
9877
  3
AcDbVariableDictionary
350
986A
  3
DWGPROPS
350
9878
  0
DICTIONARY
  5
985A
330
961E
100
AcDbDictionary
280
     1
281
     1
  3
ADSK_XREC_LAYER_RECONCILED
360
985B
  0
DICTIONARY
  5
985C
330
9634
100
AcDbDictionary
280
     1
281
     1
  3
ADSK_XREC_LAYER_RECONCILED
360
985D
  0
DICTIONARY
  5
985E
330
9635
100
AcDbDictionary
280
     1
281
     1
  3
ADSK_XREC_LAYER_RECONCILED
360
985F
  0
DICTIONARY
  5
9860
330
9636
100
AcDbDictionary
280
     1
281
     1
  3
ADSK_XREC_LAYER_RECONCILED
360
9861
  0
DICTIONARY
  5
9862
330
9637
100
AcDbDictionary
280
     1
281
     1
  3
ADSK_XREC_LAYER_RECONCILED
360
9863
  0
DICTIONARY
  5
9864
330
9638
100
AcDbDictionary
280
     1
281
     1
  3
ADSK_XREC_LAYER_RECONCILED
360
9865
  0
DICTIONARY
  5
9866
330
9639
100
AcDbDictionary
280
     1
281
     1
  3
ADSK_XREC_LAYER_RECONCILED
360
9867
  0
DICTIONARY
  5
9868
330
963A
100
AcDbDictionary
280
     1
281
     1
  3
ADSK_XREC_LAYER_RECONCILED
360
9869
  0
DICTIONARY
  5
9802
330
962C
100
AcDbDictionary
281
     1
  3
ACAD_LAYOUTSELFREF
350
9803
  0
DICTIONARY
  5
9800
330
9628
100
AcDbDictionary
281
     1
  3
ACAD_LAYOUTSELFREF
350
9801
  0
XRECORD
  5
9859
102
{ACAD_REACTORS
330
961A
102
}
330
961A
100
AcDbXrecord
280
     1
300
ACDLT
300
2014
300
ACDLT_F_S
  0
DICTIONARY
  5
983B
102
{ACAD_REACTORS
330
961A
102
}
330
961A
100
AcDbDictionary
281
     1
  0
DICTIONARY
  5
9854
102
{ACAD_REACTORS
330
961A
102
}
330
961A
100
AcDbDictionary
281
     1
  3
Imperial24
350
9855
  0
DICTIONARY
  5
961B
102
{ACAD_REACTORS
330
961A
102
}
330
961A
100
AcDbDictionary
281
     1
  0
DICTIONARY
  5
9627
102
{ACAD_REACTORS
330
961A
102
}
330
961A
100
AcDbDictionary
281
     1
  3
Model
350
9856
  3
レイアウト1
350
9857
  0
DICTIONARY
  5
9809
102
{ACAD_REACTORS
330
961A
102
}
330
961A
100
AcDbDictionary
281
     1
  3
ByBlock
350
9812
  3
ByLayer
350
980A
  3
Global
350
981A
  0
DICTIONARY
  5
9850
102
{ACAD_REACTORS
330
961A
102
}
330
961A
100
AcDbDictionary
281
     1
  3
Standard
350
9851
  0
DICTIONARY
  5
9624
102
{ACAD_REACTORS
330
961A
102
}
330
961A
100
AcDbDictionary
281
     1
  3
STANDARD
350
9625
  0
DICTIONARY
  5
9626
102
{ACAD_REACTORS
330
961A
102
}
330
961A
100
AcDbDictionary
281
     1
  0
ACDBDICTIONARYWDFLT
  5
9807
102
{ACAD_REACTORS
330
961A
102
}
330
961A
100
AcDbDictionary
281
     1
  3
Normal
350
9808
100
AcDbDictionaryWithDefault
340
9808
  0
DICTIONARY
  5
983E
102
{ACAD_REACTORS
330
961A
102
}
330
961A
100
AcDbDictionary
281
     1
  3
A0
350
983F
  3
A1
350
9840
  3
A2
350
9841
  3
A3
350
9842
  3
A4
350
9843
  3
A5
350
9844
  3
A6
350
9845
  3
A7
350
9846
  3
A8
350
9847
  3
A9
350
9848
  3
B0
350
9849
  3
B1
350
984A
  3
B2
350
984B
  3
B3
350
984C
  3
B4
350
984D
  3
B5
350
984E
  3
B6
350
984F
  0
DICTIONARY
  5
9852
102
{ACAD_REACTORS
330
961A
102
}
330
961A
100
AcDbDictionary
281
     1
  3
Imperial24
350
9853
  0
DICTIONARY
  5
983C
102
{ACAD_REACTORS
330
961A
102
}
330
961A
100
AcDbDictionary
281
     1
  3
Standard
350
983D
  0
DICTIONARY
  5
9822
102
{ACAD_REACTORS
330
961A
102
}
330
961A
100
AcDbDictionary
281
     1
  3
2dWireframe
350
9828
  3
Basic
350
9827
  3
Brighten
350
982E
  3
ColorChange
350
9832
  3
Conceptual
350
982B
  3
Dim
350
982D
  3
EdgeColorOff
350
983A
  3
Facepattern
350
9831
  3
Flat
350
9823
  3
FlatWithEdges
350
9824
  3
Gouraud
350
9825
  3
GouraudWithEdges
350
9826
  3
Hidden
350
982A
  3
JitterOff
350
9838
  3
Linepattern
350
9830
  3
OverhangOff
350
9839
  3
Realistic
350
982C
  3
Shaded
350
9837
  3
Shaded with edges
350
9836
  3
Shades of Gray
350
9833
  3
Sketchy
350
9834
  3
Thicken
350
982F
  3
Wireframe
350
9829
  3
X-Ray
350
9835
  0
XRECORD
  5
9877
102
{ACAD_REACTORS
330
961A
102
}
330
961A
100
AcDbXrecord
280
     1
 90
        1
330
983D
  0
DICTIONARY
  5
986A
102
{ACAD_REACTORS
330
961A
102
}
330
961A
100
AcDbDictionary
281
     1
  3
CANNOSCALE
350
986F
  3
CMLEADERSTYLE
350
986C
  3
CTABLESTYLE
350
986B
  3
CVIEWDETAILSTYLE
350
986D
  3
CVIEWSECTIONSTYLE
350
986E
  3
DIMASSOC
350
9872
  3
INDEXCTL
350
9871
  3
SORTENTS
350
9870
  3
XCLIPFRAME
350
9873
  0
XRECORD
  5
9878
102
{ACAD_REACTORS
330
961A
102
}
330
961A
100
AcDbXrecord
280
     1
  1
DWGPROPS COOKIE
  2

  3

  4

  6

  7

  8
Yoshitsune
  9

300
=
301
=
302
=
303
=
304
=
305
=
306
=
307
=
308
=
309
=
 40
0.0000144212962963
 41
2450945.702702314
 42
2457192.600109827
  1

 90
        0
  0
XRECORD
  5
985B
102
{ACAD_REACTORS
330
985A
102
}
330
985A
100
AcDbXrecord
280
     1
290
     1
  0
XRECORD
  5
985D
102
{ACAD_REACTORS
330
985C
102
}
330
985C
100
AcDbXrecord
280
     1
290
     1
  0
XRECORD
  5
985F
102
{ACAD_REACTORS
330
985E
102
}
330
985E
100
AcDbXrecord
280
     1
290
     1
  0
XRECORD
  5
9861
102
{ACAD_REACTORS
330
9860
102
}
330
9860
100
AcDbXrecord
280
     1
290
     1
  0
XRECORD
  5
9863
102
{ACAD_REACTORS
330
9862
102
}
330
9862
100
AcDbXrecord
280
     1
290
     1
  0
XRECORD
  5
9865
102
{ACAD_REACTORS
330
9864
102
}
330
9864
100
AcDbXrecord
280
     1
290
     1
  0
XRECORD
  5
9867
102
{ACAD_REACTORS
330
9866
102
}
330
9866
100
AcDbXrecord
280
     1
290
     1
  0
XRECORD
  5
9869
102
{ACAD_REACTORS
330
9868
102
}
330
9868
100
AcDbXrecord
280
     1
290
     1
  0
XRECORD
  5
9803
102
{ACAD_REACTORS
330
9802
102
}
330
9802
100
AcDbXrecord
280
     1
340
962C
  0
XRECORD
  5
9801
102
{ACAD_REACTORS
330
9800
102
}
330
9800
100
AcDbXrecord
280
     1
340
9628
  0
ACDBDETAILVIEWSTYLE
  5
9855
102
{ACAD_XDICTIONARY
360
98B0
102
}
102
{ACAD_REACTORS
330
9854
102
}
330
9854
100
AcDbModelDocViewStyle
 70
     0
  3
Imperial24
290
     0
100
AcDbDetailViewStyle
 70
     0
 71
     0
 90
        3
 71
     1
340
961F
 40
0.24
340
0
 40
0.24
300

 40
0.36
280
     3
 71
     2
340
9623
 90
       25
 71
     3
340
961F
 40
0.24
 90
        1
 40
0.75
 90
        1
300
%<\AcVar ViewType \f "%tc1">% %<\AcVar ViewDetailId>%\PSCALE %<\AcVar ViewScale \f "%sn">%
 71
     4
340
9623
 90
       25
340
9623
 90
       25
280
     0
  0
LAYOUT
  5
9856
102
{ACAD_XDICTIONARY
360
98B2
102
}
102
{ACAD_REACTORS
330
9627
102
}
330
9627
100
AcDbPlotSettings
  1

  2
Canon LBP9100C
  4

  6

 40
0.0
 41
0.0
 42
0.0
 43
0.0
 44
0.0
 45
0.0
 46
0.0
 47
0.0
 48
0.0
 49
0.0
140
0.0
141
0.0
142
1.0
143
1.0
 70
  1712
 72
     0
 73
     0
 74
     0
  7

 75
     0
147
1.0
148
0.0
149
0.0
100
AcDbLayout
  1
Model
 70
     1
 71
     0
 10
0.0
 20
0.0
 11
12.0
 21
9.0
 12
0.0
 22
0.0
 32
0.0
 14
0.0
 24
0.0
 34
0.0
 15
0.0
 25
0.0
 35
0.0
146
0.0
 13
0.0
 23
0.0
 33
0.0
 16
1.0
 26
0.0
 36
0.0
 17
0.0
 27
1.0
 37
0.0
 76
     0
330
962C
331
97FF
  0
LAYOUT
  5
9857
102
{ACAD_XDICTIONARY
360
98B4
102
}
102
{ACAD_REACTORS
330
9627
102
}
330
9627
100
AcDbPlotSettings
  1

  2
Canon LBP9100C
  4

  6

 40
0.0
 41
0.0
 42
0.0
 43
0.0
 44
0.0
 45
0.0
 46
0.0
 47
0.0
 48
0.0
 49
0.0
140
0.0
141
0.0
142
1.0
143
1.0
 70
   688
 72
     0
 73
     0
 74
     5
  7

 75
    16
147
1.0
148
0.0
149
0.0
100
AcDbLayout
  1
レイアウト1
 70
     0
 71
     1
 10
0.0
 20
0.0
 11
420.0
 21
297.0
 12
0.0
 22
0.0
 32
0.0
 14
1.000000000000000E+20
 24
1.000000000000000E+20
 34
1.000000000000000E+20
 15
-1.000000000000000E+20
 25
-1.000000000000000E+20
 35
-1.000000000000000E+20
146
0.0
 13
0.0
 23
0.0
 33
0.0
 16
1.0
 26
0.0
 36
0.0
 17
0.0
 27
1.0
 37
0.0
 76
     0
330
9628
  0
MATERIAL
  5
9812
102
{ACAD_XDICTIONARY
360
9813
102
}
102
{ACAD_REACTORS
330
9809
102
}
330
9809
100
AcDbMaterial
  1
ByBlock
 72
     0
 43
0.0208333333333333
 43
0.0
 43
0.0
 43
0.0
 43
0.0
 43
0.0208333333333333
 43
0.0
 43
0.0
 43
0.0
 43
0.0
 43
1.0
 43
0.0
 43
0.0
 43
0.0
 43
0.0
 43
1.0
 77
     0
 47
0.0208333333333333
 47
0.0
 47
0.0
 47
0.0
 47
0.0
 47
0.0208333333333333
 47
0.0
 47
0.0
 47
0.0
 47
0.0
 47
1.0
 47
0.0
 47
0.0
 47
0.0
 47
0.0
 47
1.0
171
     0
 49
0.0208333333333333
 49
0.0
 49
0.0
 49
0.0
 49
0.0
 49
0.0208333333333333
 49
0.0
 49
0.0
 49
0.0
 49
0.0
 49
1.0
 49
0.0
 49
0.0
 49
0.0
 49
0.0
 49
1.0
175
     0
142
0.0208333333333333
142
0.0
142
0.0
142
0.0
142
0.0
142
0.0208333333333333
142
0.0
142
0.0
142
0.0
142
0.0
142
1.0
142
0.0
142
0.0
142
0.0
142
0.0
142
1.0
179
     0
144
0.0208333333333333
144
0.0
144
0.0
144
0.0
144
0.0
144
0.0208333333333333
144
0.0
144
0.0
144
0.0
144
0.0
144
1.0
144
0.0
144
0.0
144
0.0
144
0.0
144
1.0
147
0.0208333333333333
147
0.0
147
0.0
147
0.0
147
0.0
147
0.0208333333333333
147
0.0
147
0.0
147
0.0
147
0.0
147
1.0
147
0.0
147
0.0
147
0.0
147
0.0
147
1.0
  0
MATERIAL
  5
980A
102
{ACAD_XDICTIONARY
360
980B
102
}
102
{ACAD_REACTORS
330
9809
102
}
330
9809
100
AcDbMaterial
  1
ByLayer
 72
     0
 43
0.0208333333333333
 43
0.0
 43
0.0
 43
0.0
 43
0.0
 43
0.0208333333333333
 43
0.0
 43
0.0
 43
0.0
 43
0.0
 43
1.0
 43
0.0
 43
0.0
 43
0.0
 43
0.0
 43
1.0
 77
     0
 47
0.0208333333333333
 47
0.0
 47
0.0
 47
0.0
 47
0.0
 47
0.0208333333333333
 47
0.0
 47
0.0
 47
0.0
 47
0.0
 47
1.0
 47
0.0
 47
0.0
 47
0.0
 47
0.0
 47
1.0
171
     0
 49
0.0208333333333333
 49
0.0
 49
0.0
 49
0.0
 49
0.0
 49
0.0208333333333333
 49
0.0
 49
0.0
 49
0.0
 49
0.0
 49
1.0
 49
0.0
 49
0.0
 49
0.0
 49
0.0
 49
1.0
175
     0
142
0.0208333333333333
142
0.0
142
0.0
142
0.0
142
0.0
142
0.0208333333333333
142
0.0
142
0.0
142
0.0
142
0.0
142
1.0
142
0.0
142
0.0
142
0.0
142
0.0
142
1.0
179
     0
144
0.0208333333333333
144
0.0
144
0.0
144
0.0
144
0.0
144
0.0208333333333333
144
0.0
144
0.0
144
0.0
144
0.0
144
1.0
144
0.0
144
0.0
144
0.0
144
0.0
144
1.0
147
0.0208333333333333
147
0.0
147
0.0
147
0.0
147
0.0
147
0.0208333333333333
147
0.0
147
0.0
147
0.0
147
0.0
147
1.0
147
0.0
147
0.0
147
0.0
147
0.0
147
1.0
  0
MATERIAL
  5
981A
102
{ACAD_XDICTIONARY
360
981B
102
}
102
{ACAD_REACTORS
330
9809
102
}
330
9809
100
AcDbMaterial
  1
Global
 72
     0
 43
0.0208333333333333
 43
0.0
 43
0.0
 43
0.0
 43
0.0
 43
0.0208333333333333
 43
0.0
 43
0.0
 43
0.0
 43
0.0
 43
1.0
 43
0.0
 43
0.0
 43
0.0
 43
0.0
 43
1.0
 77
     0
 47
0.0208333333333333
 47
0.0
 47
0.0
 47
0.0
 47
0.0
 47
0.0208333333333333
 47
0.0
 47
0.0
 47
0.0
 47
0.0
 47
1.0
 47
0.0
 47
0.0
 47
0.0
 47
0.0
 47
1.0
171
     0
 49
0.0208333333333333
 49
0.0
 49
0.0
 49
0.0
 49
0.0
 49
0.0208333333333333
 49
0.0
 49
0.0
 49
0.0
 49
0.0
 49
1.0
 49
0.0
 49
0.0
 49
0.0
 49
0.0
 49
1.0
175
     0
142
0.0208333333333333
142
0.0
142
0.0
142
0.0
142
0.0
142
0.0208333333333333
142
0.0
142
0.0
142
0.0
142
0.0
142
1.0
142
0.0
142
0.0
142
0.0
142
0.0
142
1.0
179
     0
144
0.0208333333333333
144
0.0
144
0.0
144
0.0
144
0.0
144
0.0208333333333333
144
0.0
144
0.0
144
0.0
144
0.0
144
1.0
144
0.0
144
0.0
144
0.0
144
0.0
144
1.0
147
0.0208333333333333
147
0.0
147
0.0
147
0.0
147
0.0
147
0.0208333333333333
147
0.0
147
0.0
147
0.0
147
0.0
147
1.0
147
0.0
147
0.0
147
0.0
147
0.0
147
1.0
  0
MLEADERSTYLE
  5
9851
102
{ACAD_REACTORS
330
9850
102
}
330
9850
100
AcDbMLeaderStyle
170
     2
171
     1
172
     0
 90
        2
 40
0.0
 41
0.0
173
     1
 91
-1056964608
340
9621
 92
       -2
290
     1
 42
0.09
291
     1
 43
0.36
  3
Standard
 44
0.18
300

342
961F
174
     1
178
     6
175
     1
176
     0
 93
-1056964608
 45
0.18
292
     0
297
     0
 46
0.18
 94
-1056964608
 47
1.0
 49
1.0
140
1.0
293
     1
141
0.0
294
     1
177
     0
142
1.0
295
     0
296
     0
143
0.125
1001
ACAD_MLEADERVER
1070
     2
  0
MLINESTYLE
  5
9625
102
{ACAD_REACTORS
330
9624
102
}
330
9624
100
AcDbMlineStyle
  2
STANDARD
 70
     0
  3

 62
   256
 51
90.0
 52
90.0
 71
     2
 49
0.5
 62
   256
  6
BYLAYER
 49
-0.5
 62
   256
  6
BYLAYER
  0
ACDBPLACEHOLDER
  5
9808
102
{ACAD_REACTORS
330
9807
102
}
330
9807
  0
SCALE
  5
983F
102
{ACAD_REACTORS
330
983E
102
}
330
983E
100
AcDbScale
 70
     0
300
1:1
140
1.0
141
1.0
290
     1
  0
SCALE
  5
9840
102
{ACAD_REACTORS
330
983E
102
}
330
983E
100
AcDbScale
 70
     0
300
1/128" = 1'-0"
140
0.0078125
141
12.0
290
     0
  0
SCALE
  5
9841
102
{ACAD_REACTORS
330
983E
102
}
330
983E
100
AcDbScale
 70
     0
300
1/64" = 1'-0"
140
0.015625
141
12.0
290
     0
  0
SCALE
  5
9842
102
{ACAD_REACTORS
330
983E
102
}
330
983E
100
AcDbScale
 70
     0
300
1/32" = 1'-0"
140
0.03125
141
12.0
290
     0
  0
SCALE
  5
9843
102
{ACAD_REACTORS
330
983E
102
}
330
983E
100
AcDbScale
 70
     0
300
1/16" = 1'-0"
140
0.0625
141
12.0
290
     0
  0
SCALE
  5
9844
102
{ACAD_REACTORS
330
983E
102
}
330
983E
100
AcDbScale
 70
     0
300
3/32" = 1'-0"
140
0.09375
141
12.0
290
     0
  0
SCALE
  5
9845
102
{ACAD_REACTORS
330
983E
102
}
330
983E
100
AcDbScale
 70
     0
300
1/8" = 1'-0"
140
0.125
141
12.0
290
     0
  0
SCALE
  5
9846
102
{ACAD_REACTORS
330
983E
102
}
330
983E
100
AcDbScale
 70
     0
300
3/16" = 1'-0"
140
0.1875
141
12.0
290
     0
  0
SCALE
  5
9847
102
{ACAD_REACTORS
330
983E
102
}
330
983E
100
AcDbScale
 70
     0
300
1/4" = 1'-0"
140
0.25
141
12.0
290
     0
  0
SCALE
  5
9848
102
{ACAD_REACTORS
330
983E
102
}
330
983E
100
AcDbScale
 70
     0
300
3/8" = 1'-0"
140
0.375
141
12.0
290
     0
  0
SCALE
  5
9849
102
{ACAD_REACTORS
330
983E
102
}
330
983E
100
AcDbScale
 70
     0
300
1/2" = 1'-0"
140
0.5
141
12.0
290
     0
  0
SCALE
  5
984A
102
{ACAD_REACTORS
330
983E
102
}
330
983E
100
AcDbScale
 70
     0
300
3/4" = 1'-0"
140
0.75
141
12.0
290
     0
  0
SCALE
  5
984B
102
{ACAD_REACTORS
330
983E
102
}
330
983E
100
AcDbScale
 70
     0
300
1" = 1'-0"
140
1.0
141
12.0
290
     0
  0
SCALE
  5
984C
102
{ACAD_REACTORS
330
983E
102
}
330
983E
100
AcDbScale
 70
     0
300
1-1/2" = 1'-0"
140
1.5
141
12.0
290
     0
  0
SCALE
  5
984D
102
{ACAD_REACTORS
330
983E
102
}
330
983E
100
AcDbScale
 70
     0
300
3" = 1'-0"
140
3.0
141
12.0
290
     0
  0
SCALE
  5
984E
102
{ACAD_REACTORS
330
983E
102
}
330
983E
100
AcDbScale
 70
     0
300
6" = 1'-0"
140
6.0
141
12.0
290
     0
  0
SCALE
  5
984F
102
{ACAD_REACTORS
330
983E
102
}
330
983E
100
AcDbScale
 70
     0
300
1'-0" = 1'-0"
140
12.0
141
12.0
290
     0
  0
ACDBSECTIONVIEWSTYLE
  5
9853
102
{ACAD_XDICTIONARY
360
98AE
102
}
102
{ACAD_REACTORS
330
9852
102
}
330
9852
100
AcDbModelDocViewStyle
 70
     0
  3
Imperial24
290
     0
100
AcDbSectionViewStyle
 70
     0
 71
     0
 90
       78
 71
     1
340
961F
 40
0.24
340
0
340
0
 40
0.24
300
I, O, Q, S, X, Z
 40
0.48
 90
        3
 40
0.18
 90
        1
 71
     2
340
9623
 90
       25
340
9623
 90
       50
 40
0.24
 40
0.0
 40
0.24
 71
     3
340
961F
 40
0.24
 90
        1
 40
0.75
 90
        1
300
%<\AcVar ViewType \f "%tc1">% %<\AcVar ViewSectionStartId>%-%<\AcVar ViewSectionEndId>%\PSCALE %<\AcVar ViewScale \f "%sn">%
 71
     4
300
ANSI31
 40
1.0
 90
        0
290
     0
290
     0
 90
        6
 40
0.0
 40
1.570796326794896
 40
0.2617993877991494
 40
1.308996938995747
 40
-0.2617993877991494
 40
1.832595714594046
  0
TABLESTYLE
  5
983D
102
{ACAD_XDICTIONARY
360
9875
102
}
102
{ACAD_REACTORS
330
983C
102
}
330
983C
100
AcDbTableStyle
  3
Standard
 70
     0
 71
     0
 40
0.06
 41
0.06
280
     0
281
     0
  7
STANDARD
140
0.18
170
     2
 62
     0
 63
     7
283
     0
274
    -2
284
     1
 64
     0
275
    -2
285
     1
 65
     0
276
    -2
286
     1
 66
     0
277
    -2
287
     1
 67
     0
278
    -2
288
     1
 68
     0
279
    -2
289
     1
 69
     0
  7
STANDARD
140
0.25
170
     5
 62
     0
 63
     7
283
     0
274
    -2
284
     1
 64
     0
275
    -2
285
     1
 65
     0
276
    -2
286
     1
 66
     0
277
    -2
287
     1
 67
     0
278
    -2
288
     1
 68
     0
279
    -2
289
     1
 69
     0
  7
STANDARD
140
0.18
170
     5
 62
     0
 63
     7
283
     0
274
    -2
284
     1
 64
     0
275
    -2
285
     1
 65
     0
276
    -2
286
     1
 66
     0
277
    -2
287
     1
 67
     0
278
    -2
288
     1
 68
     0
279
    -2
289
     1
 69
     0
  0
VISUALSTYLE
  5
9828
102
{ACAD_XDICTIONARY
360
9886
102
}
102
{ACAD_REACTORS
330
9822
102
}
330
9822
100
AcDbVisualStyle
  2
2dWireframe
 70
     4
 71
     0
 72
     2
 73
     0
 90
        0
 40
-0.6
 41
-30.0
 62
     5
 63
     7
 74
     1
 91
        4
 64
     7
 65
   257
 75
     1
175
     1
 42
1.0
 92
        0
 66
   257
 43
1.0
 76
     1
 77
     6
 78
     2
 67
     7
 79
     5
170
     0
171
     0
290
     0
174
     0
 93
        1
 44
0.0
173
     0
291
     0
 45
0.0
1001
ACAD
1000
AcDbSavedByObjectVersion
1070
     0
  0
VISUALSTYLE
  5
9827
102
{ACAD_XDICTIONARY
360
9884
102
}
102
{ACAD_REACTORS
330
9822
102
}
330
9822
100
AcDbVisualStyle
  2
Basic
 70
     7
 71
     1
 72
     0
 73
     1
 90
        0
 40
-0.6
 41
-30.0
 62
     5
 63
     7
 74
     0
 91
        4
 64
     7
 65
   257
 75
     1
175
     1
 42
1.0
 92
        8
 66
     7
 43
1.0
 76
     1
 77
     6
 78
     2
 67
     7
 79
     5
170
     0
171
     0
290
     0
174
     0
 93
        1
 44
0.0
173
     0
291
     1
 45
0.0
1001
ACAD
1000
AcDbSavedByObjectVersion
1070
     0
  0
VISUALSTYLE
  5
982E
102
{ACAD_XDICTIONARY
360
9892
102
}
102
{ACAD_REACTORS
330
9822
102
}
330
9822
100
AcDbVisualStyle
  2
Brighten
 70
    12
 71
     2
 72
     2
 73
     0
 90
        0
 40
-0.6
 41
-30.0
 62
     5
 63
     7
 74
     1
 91
        4
 64
     7
 65
   257
 75
     1
175
     1
 42
1.0
 92
        8
 66
     7
 43
1.0
 76
     1
 77
     6
 78
     2
 67
     7
 79
     5
170
     0
171
     0
290
     0
174
     0
 93
        1
 44
50.0
173
     0
291
     1
 45
0.0
1001
ACAD
1000
AcDbSavedByObjectVersion
1070
     0
  0
VISUALSTYLE
  5
9832
102
{ACAD_XDICTIONARY
360
989A
102
}
102
{ACAD_REACTORS
330
9822
102
}
330
9822
100
AcDbVisualStyle
  2
ColorChange
 70
    16
 71
     2
 72
     2
 73
     3
 90
        0
 40
-0.6
 41
-30.0
 62
     5
 63
     8
 74
     1
 91
        4
 64
     7
 65
   257
 75
     1
175
     1
 42
1.0
 92
        8
 66
     8
 43
1.0
 76
     1
 77
     6
 78
     2
 67
     7
 79
     5
170
     0
171
     0
290
     0
174
     0
 93
        1
 44
0.0
173
     0
291
     1
 45
0.0
1001
ACAD
1000
AcDbSavedByObjectVersion
1070
     0
  0
VISUALSTYLE
  5
982B
102
{ACAD_XDICTIONARY
360
988C
102
}
102
{ACAD_REACTORS
330
9822
102
}
330
9822
100
AcDbVisualStyle
  2
Conceptual
 70
     9
 71
     3
 72
     2
 73
     0
 90
        0
 40
-0.6
 41
-30.0
 62
     5
 63
     7
 74
     2
 91
        2
 64
     7
 65
   257
 75
     1
175
     1
 42
179.0
 92
        8
 66
     7
 43
1.0
 76
     1
 77
     6
 78
     2
 67
     7
 79
     3
170
     0
171
     0
290
     0
174
     0
 93
        1
 44
0.0
173
     0
291
     0
 45
0.0
1001
ACAD
1000
AcDbSavedByObjectVersion
1070
     0
  0
VISUALSTYLE
  5
982D
102
{ACAD_XDICTIONARY
360
9890
102
}
102
{ACAD_REACTORS
330
9822
102
}
330
9822
100
AcDbVisualStyle
  2
Dim
 70
    11
 71
     2
 72
     2
 73
     0
 90
        0
 40
-0.6
 41
-30.0
 62
     5
 63
     7
 74
     1
 91
        4
 64
     7
 65
   257
 75
     1
175
     1
 42
1.0
 92
        8
 66
     7
 43
1.0
 76
     1
 77
     6
 78
     2
 67
     7
 79
     5
170
     0
171
     0
290
     0
174
     0
 93
        1
 44
-50.0
173
     0
291
     1
 45
0.0
1001
ACAD
1000
AcDbSavedByObjectVersion
1070
     0
  0
VISUALSTYLE
  5
983A
102
{ACAD_XDICTIONARY
360
98AA
102
}
102
{ACAD_REACTORS
330
9822
102
}
330
9822
100
AcDbVisualStyle
  2
EdgeColorOff
 70
    22
 71
     2
 72
     2
 73
     0
 90
        0
 40
-0.6
 41
-30.0
 62
     5
 63
     7
 74
     1
 91
        4
 64
     7
 65
   257
 75
     1
175
     1
 42
1.0
 92
        8
 66
     7
 43
1.0
 76
     1
 77
     6
 78
     2
 67
     7
 79
     5
170
     0
171
     0
290
     0
174
     0
 93
        1
 44
0.0
173
     0
291
     1
 45
0.0
1001
ACAD
1000
AcDbSavedByObjectVersion
1070
     0
  0
VISUALSTYLE
  5
9831
102
{ACAD_XDICTIONARY
360
9898
102
}
102
{ACAD_REACTORS
330
9822
102
}
330
9822
100
AcDbVisualStyle
  2
Facepattern
 70
    15
 71
     2
 72
     2
 73
     0
 90
        0
 40
-0.6
 41
-30.0
 62
     5
 63
     7
 74
     1
 91
        4
 64
     7
 65
   257
 75
     1
175
     1
 42
1.0
 92
        8
 66
     7
 43
1.0
 76
     1
 77
     6
 78
     2
 67
     7
 79
     5
170
     0
171
     0
290
     0
174
     0
 93
        1
 44
0.0
173
     0
291
     1
 45
0.0
1001
ACAD
1000
AcDbSavedByObjectVersion
1070
     0
  0
VISUALSTYLE
  5
9823
102
{ACAD_XDICTIONARY
360
987C
102
}
102
{ACAD_REACTORS
330
9822
102
}
330
9822
100
AcDbVisualStyle
  2
Flat
 70
     0
 71
     2
 72
     1
 73
     1
 90
        2
 40
-0.6
 41
30.0
 62
     5
 63
     7
 74
     0
 91
        0
 64
     7
 65
   257
 75
     1
175
     1
 42
1.0
 92
        8
 66
     7
 43
1.0
 76
     1
 77
     6
 78
     2
 67
     7
 79
     5
170
     0
171
     0
290
     0
174
     0
 93
       13
 44
0.0
173
     0
291
     1
 45
0.0
1001
ACAD
1000
AcDbSavedByObjectVersion
1070
     0
  0
VISUALSTYLE
  5
9824
102
{ACAD_XDICTIONARY
360
987E
102
}
102
{ACAD_REACTORS
330
9822
102
}
330
9822
100
AcDbVisualStyle
  2
FlatWithEdges
 70
     1
 71
     2
 72
     1
 73
     1
 90
        2
 40
-0.6
 41
30.0
 62
     5
 63
     7
 74
     1
 91
        0
 64
     7
 65
   257
 75
     1
175
     1
 42
1.0
 92
        0
 66
   257
 43
1.0
 76
     1
 77
     6
 78
     2
 67
     7
 79
     5
170
     0
171
     0
290
     0
174
     0
 93
       13
 44
0.0
173
     0
291
     1
 45
0.0
1001
ACAD
1000
AcDbSavedByObjectVersion
1070
     0
  0
VISUALSTYLE
  5
9825
102
{ACAD_XDICTIONARY
360
9880
102
}
102
{ACAD_REACTORS
330
9822
102
}
330
9822
100
AcDbVisualStyle
  2
Gouraud
 70
     2
 71
     2
 72
     2
 73
     1
 90
        2
 40
-0.6
 41
30.0
 62
     5
 63
     7
 74
     0
 91
        0
 64
     7
 65
   257
 75
     1
175
     1
 42
1.0
 92
        0
 66
     7
 43
1.0
 76
     1
 77
     6
 78
     2
 67
     7
 79
     5
170
     0
171
     0
290
     0
174
     0
 93
       13
 44
0.0
173
     0
291
     1
 45
0.0
1001
ACAD
1000
AcDbSavedByObjectVersion
1070
     0
  0
VISUALSTYLE
  5
9826
102
{ACAD_XDICTIONARY
360
9882
102
}
102
{ACAD_REACTORS
330
9822
102
}
330
9822
100
AcDbVisualStyle
  2
GouraudWithEdges
 70
     3
 71
     2
 72
     2
 73
     1
 90
        2
 40
-0.6
 41
30.0
 62
     5
 63
     7
 74
     1
 91
        0
 64
     7
 65
   257
 75
     1
175
     1
 42
1.0
 92
        0
 66
   257
 43
1.0
 76
     1
 77
     6
 78
     2
 67
     7
 79
     5
170
     0
171
     0
290
     0
174
     0
 93
       13
 44
0.0
173
     0
291
     1
 45
0.0
1001
ACAD
1000
AcDbSavedByObjectVersion
1070
     0
  0
VISUALSTYLE
  5
982A
102
{ACAD_XDICTIONARY
360
988A
102
}
102
{ACAD_REACTORS
330
9822
102
}
330
9822
100
AcDbVisualStyle
  2
Hidden
 70
     6
 71
     1
 72
     2
 73
     2
 90
        0
 40
-0.6
 41
-30.0
 62
     5
 63
     7
 74
     2
 91
        2
 64
     7
 65
   257
 75
     2
175
     1
 42
40.0
 92
        0
 66
   257
 43
1.0
 76
     1
 77
     6
 78
     2
 67
     7
 79
     3
170
     0
171
     0
290
     0
174
     0
 93
        1
 44
0.0
173
     0
291
     0
 45
0.0
1001
ACAD
1000
AcDbSavedByObjectVersion
1070
     0
  0
VISUALSTYLE
  5
9838
102
{ACAD_XDICTIONARY
360
98A6
102
}
102
{ACAD_REACTORS
330
9822
102
}
330
9822
100
AcDbVisualStyle
  2
JitterOff
 70
    20
 71
     2
 72
     2
 73
     0
 90
        0
 40
-0.6
 41
-30.0
 62
     5
 63
     7
 74
     1
 91
        4
 64
     7
 65
   257
 75
     1
175
     1
 42
1.0
 92
       10
 66
     7
 43
1.0
 76
     1
 77
     6
 78
     2
 67
     7
 79
     5
170
     0
171
     0
290
     0
174
     0
 93
        1
 44
0.0
173
     0
291
     1
 45
0.0
1001
ACAD
1000
AcDbSavedByObjectVersion
1070
     0
  0
VISUALSTYLE
  5
9830
102
{ACAD_XDICTIONARY
360
9896
102
}
102
{ACAD_REACTORS
330
9822
102
}
330
9822
100
AcDbVisualStyle
  2
Linepattern
 70
    14
 71
     2
 72
     2
 73
     0
 90
        0
 40
-0.6
 41
-30.0
 62
     5
 63
     7
 74
     1
 91
        4
 64
     7
 65
   257
 75
     7
175
     7
 42
1.0
 92
        8
 66
     7
 43
1.0
 76
     1
 77
     6
 78
     2
 67
     7
 79
     5
170
     0
171
     0
290
     0
174
     0
 93
        1
 44
0.0
173
     0
291
     1
 45
0.0
1001
ACAD
1000
AcDbSavedByObjectVersion
1070
     0
  0
VISUALSTYLE
  5
9839
102
{ACAD_XDICTIONARY
360
98A8
102
}
102
{ACAD_REACTORS
330
9822
102
}
330
9822
100
AcDbVisualStyle
  2
OverhangOff
 70
    21
 71
     2
 72
     2
 73
     0
 90
        0
 40
-0.6
 41
-30.0
 62
     5
 63
     7
 74
     1
 91
        4
 64
     7
 65
   257
 75
     1
175
     1
 42
1.0
 92
        9
 66
     7
 43
1.0
 76
     1
 77
     6
 78
     2
 67
     7
 79
     5
170
     0
171
     0
290
     0
174
     0
 93
        1
 44
0.0
173
     0
291
     1
 45
0.0
1001
ACAD
1000
AcDbSavedByObjectVersion
1070
     0
  0
VISUALSTYLE
  5
982C
102
{ACAD_XDICTIONARY
360
988E
102
}
102
{ACAD_REACTORS
330
9822
102
}
330
9822
100
AcDbVisualStyle
  2
Realistic
 70
     8
 71
     2
 72
     3
 73
     0
 90
        2
 40
-0.6
 41
30.0
 62
     5
 63
     7
 74
     0
 91
        0
 64
     7
 65
   257
 75
     1
175
     1
 42
1.0
 92
        8
 66
   257
 43
1.0
 76
     1
 77
     6
 78
     2
 67
     7
 79
     3
170
     0
171
     0
290
     0
174
     0
 93
       13
 44
0.0
173
     0
291
     0
 45
0.0
1001
ACAD
1000
AcDbSavedByObjectVersion
1070
     0
  0
VISUALSTYLE
  5
9837
102
{ACAD_XDICTIONARY
360
98A4
102
}
102
{ACAD_REACTORS
330
9822
102
}
330
9822
100
AcDbVisualStyle
  2
Shaded
 70
    27
 71
     2
 72
     2
 73
     1
 90
        2
 40
-0.6
 41
30.0
 62
     5
 63
     7
 74
     0
 91
        4
 64
     7
 65
   257
 75
     1
175
     1
 42
1.0
 92
        8
 66
   257
 43
1.0
 76
     1
 77
     6
 78
     2
 67
     8
 79
     3
170
     0
171
     0
290
     0
174
     0
 93
        5
 44
0.0
173
     0
291
     0
 45
0.0
1001
ACAD
1000
AcDbSavedByObjectVersion
1070
     0
  0
VISUALSTYLE
  5
9836
102
{ACAD_XDICTIONARY
360
98A2
102
}
102
{ACAD_REACTORS
330
9822
102
}
330
9822
100
AcDbVisualStyle
  2
Shaded with edges
 70
    26
 71
     2
 72
     2
 73
     1
 90
        2
 40
-0.6
 41
30.0
 62
     5
 63
     7
 74
     1
 91
       10
 64
     7
 65
   257
 75
     2
175
     1
 42
1.0
 92
        8
 66
   257
 43
1.0
 76
     1
 77
     6
 78
     2
 67
     7
 79
     3
170
     0
171
     0
290
     0
174
     0
 93
        5
 44
0.0
173
     0
291
     0
 45
0.0
1001
ACAD
1000
AcDbSavedByObjectVersion
1070
     0
  0
VISUALSTYLE
  5
9833
102
{ACAD_XDICTIONARY
360
989C
102
}
102
{ACAD_REACTORS
330
9822
102
}
330
9822
100
AcDbVisualStyle
  2
Shades of Gray
 70
    23
 71
     2
 72
     2
 73
     3
 90
        0
 40
-0.6
 41
-30.0
 62
     5
 63
     7
 74
     2
 91
        2
 64
     7
 65
     7
 75
     1
175
     1
 42
40.0
 92
        8
 66
     7
 43
1.0
 76
     1
 77
     6
 78
     2
 67
     7
 79
     3
170
     0
171
     0
290
     0
174
     0
 93
        1
 44
0.0
173
     0
291
     0
 45
0.0
1001
ACAD
1000
AcDbSavedByObjectVersion
1070
     0
  0
VISUALSTYLE
  5
9834
102
{ACAD_XDICTIONARY
360
989E
102
}
102
{ACAD_REACTORS
330
9822
102
}
330
9822
100
AcDbVisualStyle
  2
Sketchy
 70
    24
 71
     1
 72
     2
 73
     2
 90
        0
 40
-0.6
 41
-30.0
 62
     5
 63
     7
 74
     2
 91
        2
 64
     7
 65
     7
 75
     1
175
     1
 42
40.0
 92
       11
 66
     7
 43
1.0
 76
     1
 77
     6
 78
     2
 67
     7
 79
     6
170
     0
171
     0
290
     0
174
     0
 93
        1
 44
0.0
173
     0
291
     0
 45
0.0
1001
ACAD
1000
AcDbSavedByObjectVersion
1070
     0
  0
VISUALSTYLE
  5
982F
102
{ACAD_XDICTIONARY
360
9894
102
}
102
{ACAD_REACTORS
330
9822
102
}
330
9822
100
AcDbVisualStyle
  2
Thicken
 70
    13
 71
     2
 72
     2
 73
     0
 90
        0
 40
-0.6
 41
-30.0
 62
     5
 63
     7
 74
     1
 91
        4
 64
     7
 65
   257
 75
     1
175
     1
 42
1.0
 92
       12
 66
     7
 43
1.0
 76
     1
 77
     6
 78
     2
 67
     7
 79
     5
170
     0
171
     0
290
     0
174
     0
 93
        1
 44
0.0
173
     0
291
     1
 45
0.0
1001
ACAD
1000
AcDbSavedByObjectVersion
1070
     0
  0
VISUALSTYLE
  5
9829
102
{ACAD_XDICTIONARY
360
9888
102
}
102
{ACAD_REACTORS
330
9822
102
}
330
9822
100
AcDbVisualStyle
  2
Wireframe
 70
     5
 71
     0
 72
     2
 73
     0
 90
        0
 40
-0.6
 41
-30.0
 62
     5
 63
     7
 74
     1
 91
        4
 64
     7
 65
   257
 75
     1
175
     1
 42
1.0
 92
        0
 66
   257
 43
1.0
 76
     1
 77
     6
 78
     2
 67
     7
 79
     3
170
     0
171
     0
290
     0
174
     0
 93
        1
 44
0.0
173
     0
291
     0
 45
0.0
1001
ACAD
1000
AcDbSavedByObjectVersion
1070
     0
  0
VISUALSTYLE
  5
9835
102
{ACAD_XDICTIONARY
360
98A0
102
}
102
{ACAD_REACTORS
330
9822
102
}
330
9822
100
AcDbVisualStyle
  2
X-Ray
 70
    25
 71
     2
 72
     2
 73
     1
 90
        1
 40
0.5
 41
-30.0
 62
     5
 63
     7
 74
     1
 91
        0
 64
     7
 65
   257
 75
     1
175
     1
 42
1.0
 92
        8
 66
     7
 43
1.0
 76
     1
 77
     6
 78
     2
 67
     7
 79
     3
170
     0
171
     0
290
     0
174
     0
 93
       13
 44
0.0
173
     0
291
     0
 45
0.0
1001
ACAD
1000
AcDbSavedByObjectVersion
1070
     0
  0
DICTIONARYVAR
  5
986F
102
{ACAD_REACTORS
330
986A
102
}
330
986A
100
DictionaryVariables
280
     0
  1
1:1
  0
DICTIONARYVAR
  5
986C
102
{ACAD_REACTORS
330
986A
102
}
330
986A
100
DictionaryVariables
280
     0
  1
STANDARD
  0
DICTIONARYVAR
  5
986B
102
{ACAD_REACTORS
330
986A
102
}
330
986A
100
DictionaryVariables
280
     0
  1
STANDARD
  0
DICTIONARYVAR
  5
986D
102
{ACAD_REACTORS
330
986A
102
}
330
986A
100
DictionaryVariables
280
     0
  1
Imperial24
  0
DICTIONARYVAR
  5
986E
102
{ACAD_REACTORS
330
986A
102
}
330
986A
100
DictionaryVariables
280
     0
  1
Imperial24
  0
DICTIONARYVAR
  5
9872
102
{ACAD_REACTORS
330
986A
102
}
330
986A
100
DictionaryVariables
280
     0
  1
1
  0
DICTIONARYVAR
  5
9871
102
{ACAD_REACTORS
330
986A
102
}
330
986A
100
DictionaryVariables
280
     0
  1
0
  0
DICTIONARYVAR
  5
9870
102
{ACAD_REACTORS
330
986A
102
}
330
986A
100
DictionaryVariables
280
     0
  1
127
  0
DICTIONARYVAR
  5
9873
102
{ACAD_REACTORS
330
986A
102
}
330
986A
100
DictionaryVariables
280
     0
  1
2
  0
DICTIONARY
  5
98B0
330
9855
100
AcDbDictionary
280
     1
281
     1
  3
ACAD_XREC_ROUNDTRIP
360
98B1
  0
DICTIONARY
  5
98B2
330
9856
100
AcDbDictionary
280
     1
281
     1
  3
ACAD_XREC_ROUNDTRIP
360
98B3
  0
DICTIONARY
  5
98B4
330
9857
100
AcDbDictionary
280
     1
281
     1
  3
ACAD_XREC_ROUNDTRIP
360
98B5
  0
DICTIONARY
  5
9813
330
9812
100
AcDbDictionary
280
     1
281
     1
  3
ACAD_XREC_ROUNDTRIP
360
987A
  3
BUMPTILE
360
9815
  3
DIFFUSETILE
360
9814
  3
OPACITYTILE
360
9818
  3
REFLECTIONTILE
360
9817
  3
REFRACTIONTILE
360
9819
  3
SPECULARTILE
360
9816
  0
DICTIONARY
  5
980B
330
980A
100
AcDbDictionary
280
     1
281
     1
  3
ACAD_XREC_ROUNDTRIP
360
9879
  3
BUMPTILE
360
980D
  3
DIFFUSETILE
360
980C
  3
OPACITYTILE
360
9810
  3
REFLECTIONTILE
360
980F
  3
REFRACTIONTILE
360
9811
  3
SPECULARTILE
360
980E
  0
DICTIONARY
  5
981B
330
981A
100
AcDbDictionary
280
     1
281
     1
  3
ACAD_XREC_ROUNDTRIP
360
987B
  3
BUMPTILE
360
981D
  3
DIFFUSETILE
360
981C
  3
OPACITYTILE
360
9820
  3
REFLECTIONTILE
360
981F
  3
REFRACTIONTILE
360
9821
  3
SPECULARTILE
360
981E
  0
DICTIONARY
  5
98AE
330
9853
100
AcDbDictionary
280
     1
281
     1
  3
ACAD_XREC_ROUNDTRIP
360
98AF
  0
DICTIONARY
  5
9875
330
983D
100
AcDbDictionary
280
     1
281
     1
  3
ACAD_ROUNDTRIP_2008_TABLESTYLE_CELLSTYLEMAP
360
9876
  3
ACAD_XREC_ROUNDTRIP
360
98AC
  0
DICTIONARY
  5
9886
330
9828
100
AcDbDictionary
280
     1
281
     1
  3
ACAD_XREC_ROUNDTRIP
360
9887
  0
DICTIONARY
  5
9884
330
9827
100
AcDbDictionary
280
     1
281
     1
  3
ACAD_XREC_ROUNDTRIP
360
9885
  0
DICTIONARY
  5
9892
330
982E
100
AcDbDictionary
280
     1
281
     1
  3
ACAD_XREC_ROUNDTRIP
360
9893
  0
DICTIONARY
  5
989A
330
9832
100
AcDbDictionary
280
     1
281
     1
  3
ACAD_XREC_ROUNDTRIP
360
989B
  0
DICTIONARY
  5
988C
330
982B
100
AcDbDictionary
280
     1
281
     1
  3
ACAD_XREC_ROUNDTRIP
360
988D
  0
DICTIONARY
  5
9890
330
982D
100
AcDbDictionary
280
     1
281
     1
  3
ACAD_XREC_ROUNDTRIP
360
9891
  0
DICTIONARY
  5
98AA
330
983A
100
AcDbDictionary
280
     1
281
     1
  3
ACAD_XREC_ROUNDTRIP
360
98AB
  0
DICTIONARY
  5
9898
330
9831
100
AcDbDictionary
280
     1
281
     1
  3
ACAD_XREC_ROUNDTRIP
360
9899
  0
DICTIONARY
  5
987C
330
9823
100
AcDbDictionary
280
     1
281
     1
  3
ACAD_XREC_ROUNDTRIP
360
987D
  0
DICTIONARY
  5
987E
330
9824
100
AcDbDictionary
280
     1
281
     1
  3
ACAD_XREC_ROUNDTRIP
360
987F
  0
DICTIONARY
  5
9880
330
9825
100
AcDbDictionary
280
     1
281
     1
  3
ACAD_XREC_ROUNDTRIP
360
9881
  0
DICTIONARY
  5
9882
330
9826
100
AcDbDictionary
280
     1
281
     1
  3
ACAD_XREC_ROUNDTRIP
360
9883
  0
DICTIONARY
  5
988A
330
982A
100
AcDbDictionary
280
     1
281
     1
  3
ACAD_XREC_ROUNDTRIP
360
988B
  0
DICTIONARY
  5
98A6
330
9838
100
AcDbDictionary
280
     1
281
     1
  3
ACAD_XREC_ROUNDTRIP
360
98A7
  0
DICTIONARY
  5
9896
330
9830
100
AcDbDictionary
280
     1
281
     1
  3
ACAD_XREC_ROUNDTRIP
360
9897
  0
DICTIONARY
  5
98A8
330
9839
100
AcDbDictionary
280
     1
281
     1
  3
ACAD_XREC_ROUNDTRIP
360
98A9
  0
DICTIONARY
  5
988E
330
982C
100
AcDbDictionary
280
     1
281
     1
  3
ACAD_XREC_ROUNDTRIP
360
988F
  0
DICTIONARY
  5
98A4
330
9837
100
AcDbDictionary
280
     1
281
     1
  3
ACAD_XREC_ROUNDTRIP
360
98A5
  0
DICTIONARY
  5
98A2
330
9836
100
AcDbDictionary
280
     1
281
     1
  3
ACAD_XREC_ROUNDTRIP
360
98A3
  0
DICTIONARY
  5
989C
330
9833
100
AcDbDictionary
280
     1
281
     1
  3
ACAD_XREC_ROUNDTRIP
360
989D
  0
DICTIONARY
  5
989E
330
9834
100
AcDbDictionary
280
     1
281
     1
  3
ACAD_XREC_ROUNDTRIP
360
989F
  0
DICTIONARY
  5
9894
330
982F
100
AcDbDictionary
280
     1
281
     1
  3
ACAD_XREC_ROUNDTRIP
360
9895
  0
DICTIONARY
  5
9888
330
9829
100
AcDbDictionary
280
     1
281
     1
  3
ACAD_XREC_ROUNDTRIP
360
9889
  0
DICTIONARY
  5
98A0
330
9835
100
AcDbDictionary
280
     1
281
     1
  3
ACAD_XREC_ROUNDTRIP
360
98A1
  0
XRECORD
  5
98B1
102
{ACAD_REACTORS
330
98B0
102
}
330
98B0
100
AcDbXrecord
280
     1
102
DISPLAYNAME
  1
Imperial24
102
FLAGS
 90
        0
  0
XRECORD
  5
98B3
102
{ACAD_REACTORS
330
98B2
102
}
330
98B2
100
AcDbXrecord
280
     1
102
SHADEPLOT
 70
     0
102
SHADEPLOTRESLEVEL
 70
     2
102
SHADEPLOTCUSTOMDPI
 70
   300
  0
XRECORD
  5
98B5
102
{ACAD_REACTORS
330
98B4
102
}
330
98B4
100
AcDbXrecord
280
     1
102
SHADEPLOT
 70
     0
102
SHADEPLOTRESLEVEL
 70
     2
102
SHADEPLOTCUSTOMDPI
 70
   300
  0
XRECORD
  5
987A
102
{ACAD_REACTORS
330
9813
102
}
330
9813
100
AcDbXrecord
280
     1
102
MATERIAL
148
0.0
149
0.0
149
0.0
 93
        0
 94
      127
282
     0
 72
     0
 77
     0
171
     0
175
     0
179
     0
273
     0
  0
XRECORD
  5
9815
102
{ACAD_REACTORS
330
9813
102
}
330
9813
100
AcDbXrecord
280
     1
270
     1
271
     1
  0
XRECORD
  5
9814
102
{ACAD_REACTORS
330
9813
102
}
330
9813
100
AcDbXrecord
280
     1
270
     1
271
     1
  0
XRECORD
  5
9818
102
{ACAD_REACTORS
330
9813
102
}
330
9813
100
AcDbXrecord
280
     1
270
     1
271
     1
  0
XRECORD
  5
9817
102
{ACAD_REACTORS
330
9813
102
}
330
9813
100
AcDbXrecord
280
     1
270
     1
271
     1
  0
XRECORD
  5
9819
102
{ACAD_REACTORS
330
9813
102
}
330
9813
100
AcDbXrecord
280
     1
270
     1
271
     1
  0
XRECORD
  5
9816
102
{ACAD_REACTORS
330
9813
102
}
330
9813
100
AcDbXrecord
280
     1
270
     1
271
     1
  0
XRECORD
  5
9879
102
{ACAD_REACTORS
330
980B
102
}
330
980B
100
AcDbXrecord
280
     1
102
MATERIAL
148
0.0
149
0.0
149
0.0
 93
        0
 94
      127
282
     0
 72
     0
 77
     0
171
     0
175
     0
179
     0
273
     0
  0
XRECORD
  5
980D
102
{ACAD_REACTORS
330
980B
102
}
330
980B
100
AcDbXrecord
280
     1
270
     1
271
     1
  0
XRECORD
  5
980C
102
{ACAD_REACTORS
330
980B
102
}
330
980B
100
AcDbXrecord
280
     1
270
     1
271
     1
  0
XRECORD
  5
9810
102
{ACAD_REACTORS
330
980B
102
}
330
980B
100
AcDbXrecord
280
     1
270
     1
271
     1
  0
XRECORD
  5
980F
102
{ACAD_REACTORS
330
980B
102
}
330
980B
100
AcDbXrecord
280
     1
270
     1
271
     1
  0
XRECORD
  5
9811
102
{ACAD_REACTORS
330
980B
102
}
330
980B
100
AcDbXrecord
280
     1
270
     1
271
     1
  0
XRECORD
  5
980E
102
{ACAD_REACTORS
330
980B
102
}
330
980B
100
AcDbXrecord
280
     1
270
     1
271
     1
  0
XRECORD
  5
987B
102
{ACAD_REACTORS
330
981B
102
}
330
981B
100
AcDbXrecord
280
     1
102
MATERIAL
148
0.0
149
0.0
149
0.0
 93
        0
 94
      127
282
     0
 72
     0
 77
     0
171
     0
175
     0
179
     0
273
     0
  0
XRECORD
  5
981D
102
{ACAD_REACTORS
330
981B
102
}
330
981B
100
AcDbXrecord
280
     1
270
     1
271
     1
  0
XRECORD
  5
981C
102
{ACAD_REACTORS
330
981B
102
}
330
981B
100
AcDbXrecord
280
     1
270
     1
271
     1
  0
XRECORD
  5
9820
102
{ACAD_REACTORS
330
981B
102
}
330
981B
100
AcDbXrecord
280
     1
270
     1
271
     1
  0
XRECORD
  5
981F
102
{ACAD_REACTORS
330
981B
102
}
330
981B
100
AcDbXrecord
280
     1
270
     1
271
     1
  0
XRECORD
  5
9821
102
{ACAD_REACTORS
330
981B
102
}
330
981B
100
AcDbXrecord
280
     1
270
     1
271
     1
  0
XRECORD
  5
981E
102
{ACAD_REACTORS
330
981B
102
}
330
981B
100
AcDbXrecord
280
     1
270
     1
271
     1
  0
XRECORD
  5
98AF
102
{ACAD_REACTORS
330
98AE
102
}
330
98AE
100
AcDbXrecord
280
     1
102
DISPLAYNAME
  1
Imperial24
102
FLAGS
 90
        0
  0
CELLSTYLEMAP
  5
9876
102
{ACAD_REACTORS
330
9875
102
}
330
9875
100
AcDbCellStyleMap
 90
        3
300
CELLSTYLE
  1
TABLEFORMAT_BEGIN
 90
        5
170
     1
 91
        0
 92
    32768
 62
   257
 93
        1
300
CONTENTFORMAT
  1
CONTENTFORMAT_BEGIN
 90
        0
 91
        0
 92
      512
 93
        0
300

 40
0.0
140
1.0
 94
        5
 62
     0
340
961F
144
0.25
309
CONTENTFORMAT_END
171
     0
 94
        0
309
TABLEFORMAT_END
  1
CELLSTYLE_BEGIN
 90
        1
 91
        1
300
_TITLE
309
CELLSTYLE_END
300
CELLSTYLE
  1
TABLEFORMAT_BEGIN
 90
        5
170
     1
 91
        0
 92
        0
 62
   257
 93
        1
300
CONTENTFORMAT
  1
CONTENTFORMAT_BEGIN
 90
        0
 91
        0
 92
      512
 93
        0
300

 40
0.0
140
1.0
 94
        5
 62
     0
340
961F
144
0.18
309
CONTENTFORMAT_END
171
     0
 94
        0
309
TABLEFORMAT_END
  1
CELLSTYLE_BEGIN
 90
        2
 91
        1
300
_HEADER
309
CELLSTYLE_END
300
CELLSTYLE
  1
TABLEFORMAT_BEGIN
 90
        5
170
     1
 91
        0
 92
        0
 62
   257
 93
        1
300
CONTENTFORMAT
  1
CONTENTFORMAT_BEGIN
 90
        0
 91
        0
 92
      512
 93
        0
300

 40
0.0
140
1.0
 94
        2
 62
     0
340
961F
144
0.18
309
CONTENTFORMAT_END
171
     0
 94
        0
309
TABLEFORMAT_END
  1
CELLSTYLE_BEGIN
 90
        3
 91
        2
300
_DATA
309
CELLSTYLE_END
  0
XRECORD
  5
98AC
102
{ACAD_REACTORS
330
9875
102
}
330
9875
100
AcDbXrecord
280
     1
102
ACAD_ROUNDTRIP_PRE2007_TABLESTYLE
 90
      512
 91
        0
  1

 92
      512
 93
        0
  2

 94
      512
 95
        0
  3

  0
XRECORD
  5
9887
102
{ACAD_REACTORS
330
9886
102
}
330
9886
100
AcDbXrecord
280
     1
102
RTVSPost2010Prop28
280
     1
102
RTVSPost2010PropOp28
 70
     1
102
RTVSPost2010Prop29
280
     1
102
RTVSPost2010PropOp29
 70
     1
102
RTVSPost2010Prop30
280
     0
102
RTVSPost2010PropOp30
 70
     1
102
RTVSPost2010Prop31
280
     0
102
RTVSPost2010PropOp31
 70
     1
102
RTVSPost2010Prop32
280
     0
102
RTVSPost2010PropOp32
 70
     1
102
RTVSPost2010Prop33
280
     0
102
RTVSPost2010PropOp33
 70
     1
102
RTVSPost2010Prop34
280
     0
102
RTVSPost2010PropOp34
 70
     1
102
RTVSPost2010Prop35
280
     0
102
RTVSPost2010PropOp35
 70
     1
102
RTVSPost2010Prop36
280
     0
102
RTVSPost2010PropOp36
 70
     1
102
RTVSPost2010Prop37
 90
       50
102
RTVSPost2010PropOp37
 70
     1
102
RTVSPost2010Prop38
140
0.0
102
RTVSPost2010PropOp38
 70
     1
102
RTVSPost2010Prop39
140
1.0
102
RTVSPost2010PropOp39
 70
     1
102
RTVSPost2010Prop40
 90
        0
102
RTVSPost2010PropOp40
 70
     1
102
RTVSPost2010Prop41ColorIndex
 90
       18
102
RTVSPost2010Prop41ColorRGB
 90
        0
102
RTVSPost2010PropOp41
 70
     1
102
RTVSPost2010Prop42
 90
       50
102
RTVSPost2010PropOp42
 70
     1
102
RTVSPost2010Prop43
 90
        3
102
RTVSPost2010PropOp43
 70
     1
102
RTVSPost2010Prop44ColorIndex
 90
        5
102
RTVSPost2010Prop44ColorRGB
 90
      255
102
RTVSPost2010PropOp44
 70
     1
102
RTVSPost2010Prop45
280
     0
102
RTVSPost2010PropOp45
 70
     1
102
RTVSPost2010Prop46
 90
       50
102
RTVSPost2010PropOp46
 70
     1
102
RTVSPost2010Prop47
 90
       50
102
RTVSPost2010PropOp47
 70
     1
102
RTVSPost2010Prop48
 90
       50
102
RTVSPost2010PropOp48
 70
     1
102
RTVSPost2010Prop49
280
     0
102
RTVSPost2010PropOp49
 70
     1
102
RTVSPost2010Prop50
 90
       50
102
RTVSPost2010PropOp50
 70
     1
102
RTVSPost2010Prop51ColorIndex
 90
      256
102
RTVSPost2010Prop51ColorRGB
 90
-16777216
102
RTVSPost2010PropOp51
 70
     0
102
RTVSPost2010Prop52
140
1.0
102
RTVSPost2010PropOp52
 70
     0
102
RTVSPost2010Prop53
 90
        2
102
RTVSPost2010PropOp53
 70
     1
102
RTVSPost2010Prop54
  1
strokes_ogs.tif
102
RTVSPost2010PropOp54
 70
     1
102
RTVSPost2010Prop55
280
     0
102
RTVSPost2010PropOp55
 70
     1
102
RTVSPost2010Prop56
140
1.0
102
RTVSPost2010PropOp56
 70
     1
102
RTVSPost2010Prop57
140
1.0
102
RTVSPost2010PropOp57
 70
     1
102
RTVSPropertyOp0
 70
     1
102
RTVSPropertyOp1
 70
     1
102
RTVSPropertyOp2
 70
     1
102
RTVSPropertyOp3
 70
     1
102
RTVSPropertyOp4
 70
     1
102
RTVSPropertyOp5
 70
     1
102
RTVSPropertyOp6
 70
     1
102
RTVSPropertyOp7
 70
     1
102
RTVSPropertyOp8
 70
     1
102
RTVSPropertyOp9
 70
     1
102
RTVSPropertyOp10
 70
     1
102
RTVSPropertyOp11
 70
     1
102
RTVSPropertyOp12
 70
     1
102
RTVSPropertyOp13
 70
     1
102
RTVSPropertyOp14
 70
     1
102
RTVSPropertyOp15
 70
     1
102
RTVSPropertyOp16
 70
     1
102
RTVSPropertyOp17
 70
     1
102
RTVSPropertyOp18
 70
     1
102
RTVSPropertyOp19
 70
     1
102
RTVSPropertyOp20
 70
     1
102
RTVSPropertyOp21
 70
     1
102
RTVSPropertyOp22
 70
     1
102
RTVSPropertyOp23
 70
     1
102
RTVSPropertyOp24
 70
     1
102
RTVSPropertyOp25
 70
     1
102
RTVSPropertyOp26
 70
     1
102
RTVSPropertyOp27
 70
     1
102
RTVSPropertyOp28
 70
     1
102
RTVSPropertyOp29
 70
     1
102
RTVSPropertyOp30
 70
     1
102
RTVSPropertyOp31
 70
     1
102
RTVSPropertyOp32
 70
     1
102
RTVSPropertyOp33
 70
     1
102
RTVSPropertyOp34
 70
     1
102
RTVSPropertyOp35
 70
     1
102
RTVSPropertyOp36
 70
     1
102
RTVSPropertyOp37
 70
     1
102
RTVSPropertyOp38
 70
     1
102
RTVSPropertyOp39
 70
     1
102
RTVSPropertyOp40
 70
     1
102
RTVSPropertyOp41
 70
     1
102
RTVSPropertyOp42
 70
     1
102
RTVSPropertyOp43
 70
     1
102
RTVSPropertyOp44
 70
     1
102
RTVSPropertyOp45
 70
     1
102
RTVSPropertyOp46
 70
     1
102
RTVSPropertyOp47
 70
     1
102
RTVSPropertyOp48
 70
     1
102
RTVSPropertyOp49
 70
     1
102
RTVSPropertyOp50
 70
     1
102
RTVSPropertyOp51
 70
     0
102
RTVSPropertyOp52
 70
     0
102
RTVSPropertyOp53
 70
     1
102
RTVSPropertyOp54
 70
     1
102
RTVSPropertyOp55
 70
     1
102
RTVSPropertyOp56
 70
     1
102
RTVSPropertyOp57
 70
     1
102
RTVSPropertyOp58
 70
     1
102
RTVSPropertyOp59
 70
     1
102
RTVSPropertyOp60
 70
     1
102
RTVSPropertyOp61
 70
     1
102
RTVSPropertyOp62
 70
     1
  0
XRECORD
  5
9885
102
{ACAD_REACTORS
330
9884
102
}
330
9884
100
AcDbXrecord
280
     1
102
RTVSPost2010Prop28
280
     0
102
RTVSPost2010PropOp28
 70
     1
102
RTVSPost2010Prop29
280
     1
102
RTVSPost2010PropOp29
 70
     1
102
RTVSPost2010Prop30
280
     1
102
RTVSPost2010PropOp30
 70
     1
102
RTVSPost2010Prop31
280
     0
102
RTVSPost2010PropOp31
 70
     1
102
RTVSPost2010Prop32
280
     0
102
RTVSPost2010PropOp32
 70
     1
102
RTVSPost2010Prop33
280
     0
102
RTVSPost2010PropOp33
 70
     1
102
RTVSPost2010Prop34
280
     0
102
RTVSPost2010PropOp34
 70
     1
102
RTVSPost2010Prop35
280
     0
102
RTVSPost2010PropOp35
 70
     1
102
RTVSPost2010Prop36
280
     0
102
RTVSPost2010PropOp36
 70
     1
102
RTVSPost2010Prop37
 90
       50
102
RTVSPost2010PropOp37
 70
     1
102
RTVSPost2010Prop38
140
0.0
102
RTVSPost2010PropOp38
 70
     1
102
RTVSPost2010Prop39
140
1.0
102
RTVSPost2010PropOp39
 70
     1
102
RTVSPost2010Prop40
 90
        0
102
RTVSPost2010PropOp40
 70
     1
102
RTVSPost2010Prop41ColorIndex
 90
       18
102
RTVSPost2010Prop41ColorRGB
 90
        0
102
RTVSPost2010PropOp41
 70
     1
102
RTVSPost2010Prop42
 90
       50
102
RTVSPost2010PropOp42
 70
     1
102
RTVSPost2010Prop43
 90
        3
102
RTVSPost2010PropOp43
 70
     1
102
RTVSPost2010Prop44ColorIndex
 90
        5
102
RTVSPost2010Prop44ColorRGB
 90
      255
102
RTVSPost2010PropOp44
 70
     1
102
RTVSPost2010Prop45
280
     0
102
RTVSPost2010PropOp45
 70
     1
102
RTVSPost2010Prop46
 90
       50
102
RTVSPost2010PropOp46
 70
     1
102
RTVSPost2010Prop47
 90
       50
102
RTVSPost2010PropOp47
 70
     1
102
RTVSPost2010Prop48
 90
       50
102
RTVSPost2010PropOp48
 70
     1
102
RTVSPost2010Prop49
280
     0
102
RTVSPost2010PropOp49
 70
     1
102
RTVSPost2010Prop50
 90
       50
102
RTVSPost2010PropOp50
 70
     1
102
RTVSPost2010Prop51ColorIndex
 90
      256
102
RTVSPost2010Prop51ColorRGB
 90
-16777216
102
RTVSPost2010PropOp51
 70
     0
102
RTVSPost2010Prop52
140
1.0
102
RTVSPost2010PropOp52
 70
     0
102
RTVSPost2010Prop53
 90
        2
102
RTVSPost2010PropOp53
 70
     1
102
RTVSPost2010Prop54
  1
strokes_ogs.tif
102
RTVSPost2010PropOp54
 70
     1
102
RTVSPost2010Prop55
280
     0
102
RTVSPost2010PropOp55
 70
     1
102
RTVSPost2010Prop56
140
1.0
102
RTVSPost2010PropOp56
 70
     1
102
RTVSPost2010Prop57
140
1.0
102
RTVSPost2010PropOp57
 70
     1
102
RTVSPropertyOp0
 70
     1
102
RTVSPropertyOp1
 70
     1
102
RTVSPropertyOp2
 70
     1
102
RTVSPropertyOp3
 70
     1
102
RTVSPropertyOp4
 70
     1
102
RTVSPropertyOp5
 70
     1
102
RTVSPropertyOp6
 70
     1
102
RTVSPropertyOp7
 70
     1
102
RTVSPropertyOp8
 70
     1
102
RTVSPropertyOp9
 70
     1
102
RTVSPropertyOp10
 70
     1
102
RTVSPropertyOp11
 70
     1
102
RTVSPropertyOp12
 70
     1
102
RTVSPropertyOp13
 70
     1
102
RTVSPropertyOp14
 70
     1
102
RTVSPropertyOp15
 70
     1
102
RTVSPropertyOp16
 70
     1
102
RTVSPropertyOp17
 70
     1
102
RTVSPropertyOp18
 70
     1
102
RTVSPropertyOp19
 70
     1
102
RTVSPropertyOp20
 70
     1
102
RTVSPropertyOp21
 70
     1
102
RTVSPropertyOp22
 70
     1
102
RTVSPropertyOp23
 70
     1
102
RTVSPropertyOp24
 70
     1
102
RTVSPropertyOp25
 70
     1
102
RTVSPropertyOp26
 70
     1
102
RTVSPropertyOp27
 70
     1
102
RTVSPropertyOp28
 70
     1
102
RTVSPropertyOp29
 70
     1
102
RTVSPropertyOp30
 70
     1
102
RTVSPropertyOp31
 70
     1
102
RTVSPropertyOp32
 70
     1
102
RTVSPropertyOp33
 70
     1
102
RTVSPropertyOp34
 70
     1
102
RTVSPropertyOp35
 70
     1
102
RTVSPropertyOp36
 70
     1
102
RTVSPropertyOp37
 70
     1
102
RTVSPropertyOp38
 70
     1
102
RTVSPropertyOp39
 70
     1
102
RTVSPropertyOp40
 70
     1
102
RTVSPropertyOp41
 70
     1
102
RTVSPropertyOp42
 70
     1
102
RTVSPropertyOp43
 70
     1
102
RTVSPropertyOp44
 70
     1
102
RTVSPropertyOp45
 70
     1
102
RTVSPropertyOp46
 70
     1
102
RTVSPropertyOp47
 70
     1
102
RTVSPropertyOp48
 70
     1
102
RTVSPropertyOp49
 70
     1
102
RTVSPropertyOp50
 70
     1
102
RTVSPropertyOp51
 70
     0
102
RTVSPropertyOp52
 70
     0
102
RTVSPropertyOp53
 70
     1
102
RTVSPropertyOp54
 70
     1
102
RTVSPropertyOp55
 70
     1
102
RTVSPropertyOp56
 70
     1
102
RTVSPropertyOp57
 70
     1
102
RTVSPropertyOp58
 70
     1
102
RTVSPropertyOp59
 70
     1
102
RTVSPropertyOp60
 70
     1
102
RTVSPropertyOp61
 70
     1
102
RTVSPropertyOp62
 70
     1
  0
XRECORD
  5
9893
102
{ACAD_REACTORS
330
9892
102
}
330
9892
100
AcDbXrecord
280
     1
102
RTVSPost2010Prop28
280
     0
102
RTVSPost2010PropOp28
 70
     1
102
RTVSPost2010Prop29
280
     1
102
RTVSPost2010PropOp29
 70
     1
102
RTVSPost2010Prop30
280
     1
102
RTVSPost2010PropOp30
 70
     1
102
RTVSPost2010Prop31
280
     0
102
RTVSPost2010PropOp31
 70
     1
102
RTVSPost2010Prop32
280
     0
102
RTVSPost2010PropOp32
 70
     1
102
RTVSPost2010Prop33
280
     0
102
RTVSPost2010PropOp33
 70
     1
102
RTVSPost2010Prop34
280
     0
102
RTVSPost2010PropOp34
 70
     1
102
RTVSPost2010Prop35
280
     0
102
RTVSPost2010PropOp35
 70
     1
102
RTVSPost2010Prop36
280
     0
102
RTVSPost2010PropOp36
 70
     1
102
RTVSPost2010Prop37
 90
       50
102
RTVSPost2010PropOp37
 70
     1
102
RTVSPost2010Prop38
140
0.0
102
RTVSPost2010PropOp38
 70
     1
102
RTVSPost2010Prop39
140
1.0
102
RTVSPost2010PropOp39
 70
     1
102
RTVSPost2010Prop40
 90
        0
102
RTVSPost2010PropOp40
 70
     1
102
RTVSPost2010Prop41ColorIndex
 90
       18
102
RTVSPost2010Prop41ColorRGB
 90
        0
102
RTVSPost2010PropOp41
 70
     1
102
RTVSPost2010Prop42
 90
       50
102
RTVSPost2010PropOp42
 70
     1
102
RTVSPost2010Prop43
 90
        3
102
RTVSPost2010PropOp43
 70
     1
102
RTVSPost2010Prop44ColorIndex
 90
        5
102
RTVSPost2010Prop44ColorRGB
 90
      255
102
RTVSPost2010PropOp44
 70
     1
102
RTVSPost2010Prop45
280
     0
102
RTVSPost2010PropOp45
 70
     1
102
RTVSPost2010Prop46
 90
       50
102
RTVSPost2010PropOp46
 70
     1
102
RTVSPost2010Prop47
 90
       50
102
RTVSPost2010PropOp47
 70
     1
102
RTVSPost2010Prop48
 90
       50
102
RTVSPost2010PropOp48
 70
     1
102
RTVSPost2010Prop49
280
     0
102
RTVSPost2010PropOp49
 70
     1
102
RTVSPost2010Prop50
 90
       50
102
RTVSPost2010PropOp50
 70
     1
102
RTVSPost2010Prop51ColorIndex
 90
      256
102
RTVSPost2010Prop51ColorRGB
 90
-16777216
102
RTVSPost2010PropOp51
 70
     0
102
RTVSPost2010Prop52
140
1.0
102
RTVSPost2010PropOp52
 70
     0
102
RTVSPost2010Prop53
 90
        2
102
RTVSPost2010PropOp53
 70
     1
102
RTVSPost2010Prop54
  1
strokes_ogs.tif
102
RTVSPost2010PropOp54
 70
     1
102
RTVSPost2010Prop55
280
     0
102
RTVSPost2010PropOp55
 70
     1
102
RTVSPost2010Prop56
140
1.0
102
RTVSPost2010PropOp56
 70
     1
102
RTVSPost2010Prop57
140
1.0
102
RTVSPost2010PropOp57
 70
     1
102
RTVSPropertyOp0
 70
     1
102
RTVSPropertyOp1
 70
     1
102
RTVSPropertyOp2
 70
     1
102
RTVSPropertyOp3
 70
     1
102
RTVSPropertyOp4
 70
     1
102
RTVSPropertyOp5
 70
     1
102
RTVSPropertyOp6
 70
     1
102
RTVSPropertyOp7
 70
     1
102
RTVSPropertyOp8
 70
     1
102
RTVSPropertyOp9
 70
     1
102
RTVSPropertyOp10
 70
     1
102
RTVSPropertyOp11
 70
     1
102
RTVSPropertyOp12
 70
     1
102
RTVSPropertyOp13
 70
     1
102
RTVSPropertyOp14
 70
     1
102
RTVSPropertyOp15
 70
     1
102
RTVSPropertyOp16
 70
     1
102
RTVSPropertyOp17
 70
     1
102
RTVSPropertyOp18
 70
     1
102
RTVSPropertyOp19
 70
     1
102
RTVSPropertyOp20
 70
     1
102
RTVSPropertyOp21
 70
     1
102
RTVSPropertyOp22
 70
     1
102
RTVSPropertyOp23
 70
     1
102
RTVSPropertyOp24
 70
     1
102
RTVSPropertyOp25
 70
     1
102
RTVSPropertyOp26
 70
     1
102
RTVSPropertyOp27
 70
     1
102
RTVSPropertyOp28
 70
     1
102
RTVSPropertyOp29
 70
     1
102
RTVSPropertyOp30
 70
     1
102
RTVSPropertyOp31
 70
     1
102
RTVSPropertyOp32
 70
     1
102
RTVSPropertyOp33
 70
     1
102
RTVSPropertyOp34
 70
     1
102
RTVSPropertyOp35
 70
     1
102
RTVSPropertyOp36
 70
     1
102
RTVSPropertyOp37
 70
     1
102
RTVSPropertyOp38
 70
     1
102
RTVSPropertyOp39
 70
     1
102
RTVSPropertyOp40
 70
     1
102
RTVSPropertyOp41
 70
     1
102
RTVSPropertyOp42
 70
     1
102
RTVSPropertyOp43
 70
     1
102
RTVSPropertyOp44
 70
     1
102
RTVSPropertyOp45
 70
     1
102
RTVSPropertyOp46
 70
     1
102
RTVSPropertyOp47
 70
     1
102
RTVSPropertyOp48
 70
     1
102
RTVSPropertyOp49
 70
     1
102
RTVSPropertyOp50
 70
     1
102
RTVSPropertyOp51
 70
     0
102
RTVSPropertyOp52
 70
     0
102
RTVSPropertyOp53
 70
     1
102
RTVSPropertyOp54
 70
     1
102
RTVSPropertyOp55
 70
     1
102
RTVSPropertyOp56
 70
     1
102
RTVSPropertyOp57
 70
     1
102
RTVSPropertyOp58
 70
     1
102
RTVSPropertyOp59
 70
     1
102
RTVSPropertyOp60
 70
     1
102
RTVSPropertyOp61
 70
     1
102
RTVSPropertyOp62
 70
     1
  0
XRECORD
  5
989B
102
{ACAD_REACTORS
330
989A
102
}
330
989A
100
AcDbXrecord
280
     1
102
RTVSPost2010Prop28
280
     0
102
RTVSPost2010PropOp28
 70
     1
102
RTVSPost2010Prop29
280
     1
102
RTVSPost2010PropOp29
 70
     1
102
RTVSPost2010Prop30
280
     1
102
RTVSPost2010PropOp30
 70
     1
102
RTVSPost2010Prop31
280
     0
102
RTVSPost2010PropOp31
 70
     1
102
RTVSPost2010Prop32
280
     0
102
RTVSPost2010PropOp32
 70
     1
102
RTVSPost2010Prop33
280
     0
102
RTVSPost2010PropOp33
 70
     1
102
RTVSPost2010Prop34
280
     0
102
RTVSPost2010PropOp34
 70
     1
102
RTVSPost2010Prop35
280
     0
102
RTVSPost2010PropOp35
 70
     1
102
RTVSPost2010Prop36
280
     0
102
RTVSPost2010PropOp36
 70
     1
102
RTVSPost2010Prop37
 90
       50
102
RTVSPost2010PropOp37
 70
     1
102
RTVSPost2010Prop38
140
0.0
102
RTVSPost2010PropOp38
 70
     1
102
RTVSPost2010Prop39
140
1.0
102
RTVSPost2010PropOp39
 70
     1
102
RTVSPost2010Prop40
 90
        0
102
RTVSPost2010PropOp40
 70
     1
102
RTVSPost2010Prop41ColorIndex
 90
       18
102
RTVSPost2010Prop41ColorRGB
 90
        0
102
RTVSPost2010PropOp41
 70
     1
102
RTVSPost2010Prop42
 90
       50
102
RTVSPost2010PropOp42
 70
     1
102
RTVSPost2010Prop43
 90
        3
102
RTVSPost2010PropOp43
 70
     1
102
RTVSPost2010Prop44ColorIndex
 90
        5
102
RTVSPost2010Prop44ColorRGB
 90
      255
102
RTVSPost2010PropOp44
 70
     1
102
RTVSPost2010Prop45
280
     0
102
RTVSPost2010PropOp45
 70
     1
102
RTVSPost2010Prop46
 90
       50
102
RTVSPost2010PropOp46
 70
     1
102
RTVSPost2010Prop47
 90
       50
102
RTVSPost2010PropOp47
 70
     1
102
RTVSPost2010Prop48
 90
       50
102
RTVSPost2010PropOp48
 70
     1
102
RTVSPost2010Prop49
280
     0
102
RTVSPost2010PropOp49
 70
     1
102
RTVSPost2010Prop50
 90
       50
102
RTVSPost2010PropOp50
 70
     1
102
RTVSPost2010Prop51ColorIndex
 90
      256
102
RTVSPost2010Prop51ColorRGB
 90
-16777216
102
RTVSPost2010PropOp51
 70
     0
102
RTVSPost2010Prop52
140
1.0
102
RTVSPost2010PropOp52
 70
     0
102
RTVSPost2010Prop53
 90
        2
102
RTVSPost2010PropOp53
 70
     1
102
RTVSPost2010Prop54
  1
strokes_ogs.tif
102
RTVSPost2010PropOp54
 70
     1
102
RTVSPost2010Prop55
280
     0
102
RTVSPost2010PropOp55
 70
     1
102
RTVSPost2010Prop56
140
1.0
102
RTVSPost2010PropOp56
 70
     1
102
RTVSPost2010Prop57
140
1.0
102
RTVSPost2010PropOp57
 70
     1
102
RTVSPropertyOp0
 70
     1
102
RTVSPropertyOp1
 70
     1
102
RTVSPropertyOp2
 70
     1
102
RTVSPropertyOp3
 70
     1
102
RTVSPropertyOp4
 70
     1
102
RTVSPropertyOp5
 70
     1
102
RTVSPropertyOp6
 70
     1
102
RTVSPropertyOp7
 70
     1
102
RTVSPropertyOp8
 70
     1
102
RTVSPropertyOp9
 70
     1
102
RTVSPropertyOp10
 70
     1
102
RTVSPropertyOp11
 70
     1
102
RTVSPropertyOp12
 70
     1
102
RTVSPropertyOp13
 70
     1
102
RTVSPropertyOp14
 70
     1
102
RTVSPropertyOp15
 70
     1
102
RTVSPropertyOp16
 70
     1
102
RTVSPropertyOp17
 70
     1
102
RTVSPropertyOp18
 70
     1
102
RTVSPropertyOp19
 70
     1
102
RTVSPropertyOp20
 70
     1
102
RTVSPropertyOp21
 70
     1
102
RTVSPropertyOp22
 70
     1
102
RTVSPropertyOp23
 70
     1
102
RTVSPropertyOp24
 70
     1
102
RTVSPropertyOp25
 70
     1
102
RTVSPropertyOp26
 70
     1
102
RTVSPropertyOp27
 70
     1
102
RTVSPropertyOp28
 70
     1
102
RTVSPropertyOp29
 70
     1
102
RTVSPropertyOp30
 70
     1
102
RTVSPropertyOp31
 70
     1
102
RTVSPropertyOp32
 70
     1
102
RTVSPropertyOp33
 70
     1
102
RTVSPropertyOp34
 70
     1
102
RTVSPropertyOp35
 70
     1
102
RTVSPropertyOp36
 70
     1
102
RTVSPropertyOp37
 70
     1
102
RTVSPropertyOp38
 70
     1
102
RTVSPropertyOp39
 70
     1
102
RTVSPropertyOp40
 70
     1
102
RTVSPropertyOp41
 70
     1
102
RTVSPropertyOp42
 70
     1
102
RTVSPropertyOp43
 70
     1
102
RTVSPropertyOp44
 70
     1
102
RTVSPropertyOp45
 70
     1
102
RTVSPropertyOp46
 70
     1
102
RTVSPropertyOp47
 70
     1
102
RTVSPropertyOp48
 70
     1
102
RTVSPropertyOp49
 70
     1
102
RTVSPropertyOp50
 70
     1
102
RTVSPropertyOp51
 70
     0
102
RTVSPropertyOp52
 70
     0
102
RTVSPropertyOp53
 70
     1
102
RTVSPropertyOp54
 70
     1
102
RTVSPropertyOp55
 70
     1
102
RTVSPropertyOp56
 70
     1
102
RTVSPropertyOp57
 70
     1
102
RTVSPropertyOp58
 70
     1
102
RTVSPropertyOp59
 70
     1
102
RTVSPropertyOp60
 70
     1
102
RTVSPropertyOp61
 70
     1
102
RTVSPropertyOp62
 70
     1
  0
XRECORD
  5
988D
102
{ACAD_REACTORS
330
988C
102
}
330
988C
100
AcDbXrecord
280
     1
102
RTVSPost2010Prop28
280
     0
102
RTVSPost2010PropOp28
 70
     1
102
RTVSPost2010Prop29
280
     1
102
RTVSPost2010PropOp29
 70
     1
102
RTVSPost2010Prop30
280
     1
102
RTVSPost2010PropOp30
 70
     1
102
RTVSPost2010Prop31
280
     0
102
RTVSPost2010PropOp31
 70
     1
102
RTVSPost2010Prop32
280
     0
102
RTVSPost2010PropOp32
 70
     1
102
RTVSPost2010Prop33
280
     0
102
RTVSPost2010PropOp33
 70
     1
102
RTVSPost2010Prop34
280
     0
102
RTVSPost2010PropOp34
 70
     1
102
RTVSPost2010Prop35
280
     0
102
RTVSPost2010PropOp35
 70
     1
102
RTVSPost2010Prop36
280
     0
102
RTVSPost2010PropOp36
 70
     1
102
RTVSPost2010Prop37
 90
       50
102
RTVSPost2010PropOp37
 70
     1
102
RTVSPost2010Prop38
140
0.0
102
RTVSPost2010PropOp38
 70
     1
102
RTVSPost2010Prop39
140
1.0
102
RTVSPost2010PropOp39
 70
     1
102
RTVSPost2010Prop40
 90
        0
102
RTVSPost2010PropOp40
 70
     1
102
RTVSPost2010Prop41ColorIndex
 90
       18
102
RTVSPost2010Prop41ColorRGB
 90
        0
102
RTVSPost2010PropOp41
 70
     1
102
RTVSPost2010Prop42
 90
       50
102
RTVSPost2010PropOp42
 70
     1
102
RTVSPost2010Prop43
 90
        3
102
RTVSPost2010PropOp43
 70
     1
102
RTVSPost2010Prop44ColorIndex
 90
        5
102
RTVSPost2010Prop44ColorRGB
 90
      255
102
RTVSPost2010PropOp44
 70
     1
102
RTVSPost2010Prop45
280
     0
102
RTVSPost2010PropOp45
 70
     1
102
RTVSPost2010Prop46
 90
       50
102
RTVSPost2010PropOp46
 70
     1
102
RTVSPost2010Prop47
 90
       50
102
RTVSPost2010PropOp47
 70
     1
102
RTVSPost2010Prop48
 90
       50
102
RTVSPost2010PropOp48
 70
     1
102
RTVSPost2010Prop49
280
     0
102
RTVSPost2010PropOp49
 70
     1
102
RTVSPost2010Prop50
 90
       50
102
RTVSPost2010PropOp50
 70
     1
102
RTVSPost2010Prop51ColorIndex
 90
      256
102
RTVSPost2010Prop51ColorRGB
 90
-16777216
102
RTVSPost2010PropOp51
 70
     0
102
RTVSPost2010Prop52
140
1.0
102
RTVSPost2010PropOp52
 70
     0
102
RTVSPost2010Prop53
 90
        2
102
RTVSPost2010PropOp53
 70
     1
102
RTVSPost2010Prop54
  1
strokes_ogs.tif
102
RTVSPost2010PropOp54
 70
     1
102
RTVSPost2010Prop55
280
     0
102
RTVSPost2010PropOp55
 70
     1
102
RTVSPost2010Prop56
140
1.0
102
RTVSPost2010PropOp56
 70
     1
102
RTVSPost2010Prop57
140
1.0
102
RTVSPost2010PropOp57
 70
     1
102
RTVSPropertyOp0
 70
     1
102
RTVSPropertyOp1
 70
     1
102
RTVSPropertyOp2
 70
     1
102
RTVSPropertyOp3
 70
     1
102
RTVSPropertyOp4
 70
     1
102
RTVSPropertyOp5
 70
     1
102
RTVSPropertyOp6
 70
     1
102
RTVSPropertyOp7
 70
     1
102
RTVSPropertyOp8
 70
     1
102
RTVSPropertyOp9
 70
     1
102
RTVSPropertyOp10
 70
     1
102
RTVSPropertyOp11
 70
     1
102
RTVSPropertyOp12
 70
     1
102
RTVSPropertyOp13
 70
     1
102
RTVSPropertyOp14
 70
     1
102
RTVSPropertyOp15
 70
     1
102
RTVSPropertyOp16
 70
     1
102
RTVSPropertyOp17
 70
     1
102
RTVSPropertyOp18
 70
     1
102
RTVSPropertyOp19
 70
     1
102
RTVSPropertyOp20
 70
     1
102
RTVSPropertyOp21
 70
     1
102
RTVSPropertyOp22
 70
     1
102
RTVSPropertyOp23
 70
     1
102
RTVSPropertyOp24
 70
     1
102
RTVSPropertyOp25
 70
     1
102
RTVSPropertyOp26
 70
     1
102
RTVSPropertyOp27
 70
     1
102
RTVSPropertyOp28
 70
     1
102
RTVSPropertyOp29
 70
     1
102
RTVSPropertyOp30
 70
     1
102
RTVSPropertyOp31
 70
     1
102
RTVSPropertyOp32
 70
     1
102
RTVSPropertyOp33
 70
     1
102
RTVSPropertyOp34
 70
     1
102
RTVSPropertyOp35
 70
     1
102
RTVSPropertyOp36
 70
     1
102
RTVSPropertyOp37
 70
     1
102
RTVSPropertyOp38
 70
     1
102
RTVSPropertyOp39
 70
     1
102
RTVSPropertyOp40
 70
     1
102
RTVSPropertyOp41
 70
     1
102
RTVSPropertyOp42
 70
     1
102
RTVSPropertyOp43
 70
     1
102
RTVSPropertyOp44
 70
     1
102
RTVSPropertyOp45
 70
     1
102
RTVSPropertyOp46
 70
     1
102
RTVSPropertyOp47
 70
     1
102
RTVSPropertyOp48
 70
     1
102
RTVSPropertyOp49
 70
     1
102
RTVSPropertyOp50
 70
     1
102
RTVSPropertyOp51
 70
     0
102
RTVSPropertyOp52
 70
     0
102
RTVSPropertyOp53
 70
     1
102
RTVSPropertyOp54
 70
     1
102
RTVSPropertyOp55
 70
     1
102
RTVSPropertyOp56
 70
     1
102
RTVSPropertyOp57
 70
     1
102
RTVSPropertyOp58
 70
     1
102
RTVSPropertyOp59
 70
     1
102
RTVSPropertyOp60
 70
     1
102
RTVSPropertyOp61
 70
     1
102
RTVSPropertyOp62
 70
     1
  0
XRECORD
  5
9891
102
{ACAD_REACTORS
330
9890
102
}
330
9890
100
AcDbXrecord
280
     1
102
RTVSPost2010Prop28
280
     0
102
RTVSPost2010PropOp28
 70
     1
102
RTVSPost2010Prop29
280
     1
102
RTVSPost2010PropOp29
 70
     1
102
RTVSPost2010Prop30
280
     1
102
RTVSPost2010PropOp30
 70
     1
102
RTVSPost2010Prop31
280
     0
102
RTVSPost2010PropOp31
 70
     1
102
RTVSPost2010Prop32
280
     0
102
RTVSPost2010PropOp32
 70
     1
102
RTVSPost2010Prop33
280
     0
102
RTVSPost2010PropOp33
 70
     1
102
RTVSPost2010Prop34
280
     0
102
RTVSPost2010PropOp34
 70
     1
102
RTVSPost2010Prop35
280
     0
102
RTVSPost2010PropOp35
 70
     1
102
RTVSPost2010Prop36
280
     0
102
RTVSPost2010PropOp36
 70
     1
102
RTVSPost2010Prop37
 90
       50
102
RTVSPost2010PropOp37
 70
     1
102
RTVSPost2010Prop38
140
0.0
102
RTVSPost2010PropOp38
 70
     1
102
RTVSPost2010Prop39
140
1.0
102
RTVSPost2010PropOp39
 70
     1
102
RTVSPost2010Prop40
 90
        0
102
RTVSPost2010PropOp40
 70
     1
102
RTVSPost2010Prop41ColorIndex
 90
       18
102
RTVSPost2010Prop41ColorRGB
 90
        0
102
RTVSPost2010PropOp41
 70
     1
102
RTVSPost2010Prop42
 90
       50
102
RTVSPost2010PropOp42
 70
     1
102
RTVSPost2010Prop43
 90
        3
102
RTVSPost2010PropOp43
 70
     1
102
RTVSPost2010Prop44ColorIndex
 90
        5
102
RTVSPost2010Prop44ColorRGB
 90
      255
102
RTVSPost2010PropOp44
 70
     1
102
RTVSPost2010Prop45
280
     0
102
RTVSPost2010PropOp45
 70
     1
102
RTVSPost2010Prop46
 90
       50
102
RTVSPost2010PropOp46
 70
     1
102
RTVSPost2010Prop47
 90
       50
102
RTVSPost2010PropOp47
 70
     1
102
RTVSPost2010Prop48
 90
       50
102
RTVSPost2010PropOp48
 70
     1
102
RTVSPost2010Prop49
280
     0
102
RTVSPost2010PropOp49
 70
     1
102
RTVSPost2010Prop50
 90
       50
102
RTVSPost2010PropOp50
 70
     1
102
RTVSPost2010Prop51ColorIndex
 90
      256
102
RTVSPost2010Prop51ColorRGB
 90
-16777216
102
RTVSPost2010PropOp51
 70
     0
102
RTVSPost2010Prop52
140
1.0
102
RTVSPost2010PropOp52
 70
     0
102
RTVSPost2010Prop53
 90
        2
102
RTVSPost2010PropOp53
 70
     1
102
RTVSPost2010Prop54
  1
strokes_ogs.tif
102
RTVSPost2010PropOp54
 70
     1
102
RTVSPost2010Prop55
280
     0
102
RTVSPost2010PropOp55
 70
     1
102
RTVSPost2010Prop56
140
1.0
102
RTVSPost2010PropOp56
 70
     1
102
RTVSPost2010Prop57
140
1.0
102
RTVSPost2010PropOp57
 70
     1
102
RTVSPropertyOp0
 70
     1
102
RTVSPropertyOp1
 70
     1
102
RTVSPropertyOp2
 70
     1
102
RTVSPropertyOp3
 70
     1
102
RTVSPropertyOp4
 70
     1
102
RTVSPropertyOp5
 70
     1
102
RTVSPropertyOp6
 70
     1
102
RTVSPropertyOp7
 70
     1
102
RTVSPropertyOp8
 70
     1
102
RTVSPropertyOp9
 70
     1
102
RTVSPropertyOp10
 70
     1
102
RTVSPropertyOp11
 70
     1
102
RTVSPropertyOp12
 70
     1
102
RTVSPropertyOp13
 70
     1
102
RTVSPropertyOp14
 70
     1
102
RTVSPropertyOp15
 70
     1
102
RTVSPropertyOp16
 70
     1
102
RTVSPropertyOp17
 70
     1
102
RTVSPropertyOp18
 70
     1
102
RTVSPropertyOp19
 70
     1
102
RTVSPropertyOp20
 70
     1
102
RTVSPropertyOp21
 70
     1
102
RTVSPropertyOp22
 70
     1
102
RTVSPropertyOp23
 70
     1
102
RTVSPropertyOp24
 70
     1
102
RTVSPropertyOp25
 70
     1
102
RTVSPropertyOp26
 70
     1
102
RTVSPropertyOp27
 70
     1
102
RTVSPropertyOp28
 70
     1
102
RTVSPropertyOp29
 70
     1
102
RTVSPropertyOp30
 70
     1
102
RTVSPropertyOp31
 70
     1
102
RTVSPropertyOp32
 70
     1
102
RTVSPropertyOp33
 70
     1
102
RTVSPropertyOp34
 70
     1
102
RTVSPropertyOp35
 70
     1
102
RTVSPropertyOp36
 70
     1
102
RTVSPropertyOp37
 70
     1
102
RTVSPropertyOp38
 70
     1
102
RTVSPropertyOp39
 70
     1
102
RTVSPropertyOp40
 70
     1
102
RTVSPropertyOp41
 70
     1
102
RTVSPropertyOp42
 70
     1
102
RTVSPropertyOp43
 70
     1
102
RTVSPropertyOp44
 70
     1
102
RTVSPropertyOp45
 70
     1
102
RTVSPropertyOp46
 70
     1
102
RTVSPropertyOp47
 70
     1
102
RTVSPropertyOp48
 70
     1
102
RTVSPropertyOp49
 70
     1
102
RTVSPropertyOp50
 70
     1
102
RTVSPropertyOp51
 70
     0
102
RTVSPropertyOp52
 70
     0
102
RTVSPropertyOp53
 70
     1
102
RTVSPropertyOp54
 70
     1
102
RTVSPropertyOp55
 70
     1
102
RTVSPropertyOp56
 70
     1
102
RTVSPropertyOp57
 70
     1
102
RTVSPropertyOp58
 70
     1
102
RTVSPropertyOp59
 70
     1
102
RTVSPropertyOp60
 70
     1
102
RTVSPropertyOp61
 70
     1
102
RTVSPropertyOp62
 70
     1
  0
XRECORD
  5
98AB
102
{ACAD_REACTORS
330
98AA
102
}
330
98AA
100
AcDbXrecord
280
     1
102
RTVSPost2010Prop28
280
     0
102
RTVSPost2010PropOp28
 70
     1
102
RTVSPost2010Prop29
280
     1
102
RTVSPost2010PropOp29
 70
     1
102
RTVSPost2010Prop30
280
     1
102
RTVSPost2010PropOp30
 70
     1
102
RTVSPost2010Prop31
280
     0
102
RTVSPost2010PropOp31
 70
     1
102
RTVSPost2010Prop32
280
     0
102
RTVSPost2010PropOp32
 70
     1
102
RTVSPost2010Prop33
280
     0
102
RTVSPost2010PropOp33
 70
     1
102
RTVSPost2010Prop34
280
     0
102
RTVSPost2010PropOp34
 70
     1
102
RTVSPost2010Prop35
280
     0
102
RTVSPost2010PropOp35
 70
     1
102
RTVSPost2010Prop36
280
     0
102
RTVSPost2010PropOp36
 70
     1
102
RTVSPost2010Prop37
 90
       50
102
RTVSPost2010PropOp37
 70
     0
102
RTVSPost2010Prop38
140
0.0
102
RTVSPost2010PropOp38
 70
     0
102
RTVSPost2010Prop39
140
1.0
102
RTVSPost2010PropOp39
 70
     0
102
RTVSPost2010Prop40
 90
        0
102
RTVSPost2010PropOp40
 70
     0
102
RTVSPost2010Prop41ColorIndex
 90
       18
102
RTVSPost2010Prop41ColorRGB
 90
        0
102
RTVSPost2010PropOp41
 70
     0
102
RTVSPost2010Prop42
 90
       50
102
RTVSPost2010PropOp42
 70
     0
102
RTVSPost2010Prop43
 90
        3
102
RTVSPost2010PropOp43
 70
     0
102
RTVSPost2010Prop44ColorIndex
 90
        5
102
RTVSPost2010Prop44ColorRGB
 90
      255
102
RTVSPost2010PropOp44
 70
     0
102
RTVSPost2010Prop45
280
     0
102
RTVSPost2010PropOp45
 70
     1
102
RTVSPost2010Prop46
 90
       50
102
RTVSPost2010PropOp46
 70
     0
102
RTVSPost2010Prop47
 90
       50
102
RTVSPost2010PropOp47
 70
     0
102
RTVSPost2010Prop48
 90
       50
102
RTVSPost2010PropOp48
 70
     0
102
RTVSPost2010Prop49
280
     0
102
RTVSPost2010PropOp49
 70
     1
102
RTVSPost2010Prop50
 90
       50
102
RTVSPost2010PropOp50
 70
     0
102
RTVSPost2010Prop51ColorIndex
 90
      256
102
RTVSPost2010Prop51ColorRGB
 90
-16777216
102
RTVSPost2010PropOp51
 70
     0
102
RTVSPost2010Prop52
140
1.0
102
RTVSPost2010PropOp52
 70
     0
102
RTVSPost2010Prop53
 90
        2
102
RTVSPost2010PropOp53
 70
     0
102
RTVSPost2010Prop54
  1
strokes_ogs.tif
102
RTVSPost2010PropOp54
 70
     0
102
RTVSPost2010Prop55
280
     0
102
RTVSPost2010PropOp55
 70
     1
102
RTVSPost2010Prop56
140
1.0
102
RTVSPost2010PropOp56
 70
     0
102
RTVSPost2010Prop57
140
1.0
102
RTVSPost2010PropOp57
 70
     0
102
RTVSPropertyOp0
 70
     0
102
RTVSPropertyOp1
 70
     0
102
RTVSPropertyOp2
 70
     0
102
RTVSPropertyOp3
 70
     0
102
RTVSPropertyOp4
 70
     0
102
RTVSPropertyOp5
 70
     0
102
RTVSPropertyOp6
 70
     0
102
RTVSPropertyOp7
 70
     0
102
RTVSPropertyOp8
 70
     0
102
RTVSPropertyOp9
 70
     0
102
RTVSPropertyOp10
 70
     0
102
RTVSPropertyOp11
 70
     0
102
RTVSPropertyOp12
 70
     0
102
RTVSPropertyOp13
 70
     0
102
RTVSPropertyOp14
 70
     2
102
RTVSPropertyOp15
 70
     0
102
RTVSPropertyOp16
 70
     0
102
RTVSPropertyOp17
 70
     0
102
RTVSPropertyOp18
 70
     0
102
RTVSPropertyOp19
 70
     0
102
RTVSPropertyOp20
 70
     0
102
RTVSPropertyOp21
 70
     0
102
RTVSPropertyOp22
 70
     0
102
RTVSPropertyOp23
 70
     0
102
RTVSPropertyOp24
 70
     0
102
RTVSPropertyOp25
 70
     0
102
RTVSPropertyOp26
 70
     0
102
RTVSPropertyOp27
 70
     0
102
RTVSPropertyOp28
 70
     1
102
RTVSPropertyOp29
 70
     1
102
RTVSPropertyOp30
 70
     1
102
RTVSPropertyOp31
 70
     1
102
RTVSPropertyOp32
 70
     1
102
RTVSPropertyOp33
 70
     1
102
RTVSPropertyOp34
 70
     1
102
RTVSPropertyOp35
 70
     1
102
RTVSPropertyOp36
 70
     1
102
RTVSPropertyOp37
 70
     0
102
RTVSPropertyOp38
 70
     0
102
RTVSPropertyOp39
 70
     0
102
RTVSPropertyOp40
 70
     0
102
RTVSPropertyOp41
 70
     0
102
RTVSPropertyOp42
 70
     0
102
RTVSPropertyOp43
 70
     0
102
RTVSPropertyOp44
 70
     0
102
RTVSPropertyOp45
 70
     1
102
RTVSPropertyOp46
 70
     0
102
RTVSPropertyOp47
 70
     0
102
RTVSPropertyOp48
 70
     0
102
RTVSPropertyOp49
 70
     1
102
RTVSPropertyOp50
 70
     0
102
RTVSPropertyOp51
 70
     0
102
RTVSPropertyOp52
 70
     0
102
RTVSPropertyOp53
 70
     0
102
RTVSPropertyOp54
 70
     0
102
RTVSPropertyOp55
 70
     1
102
RTVSPropertyOp56
 70
     0
102
RTVSPropertyOp57
 70
     0
102
RTVSPropertyOp58
 70
     0
102
RTVSPropertyOp59
 70
     0
102
RTVSPropertyOp60
 70
     0
102
RTVSPropertyOp61
 70
     0
102
RTVSPropertyOp62
 70
     0
  0
XRECORD
  5
9899
102
{ACAD_REACTORS
330
9898
102
}
330
9898
100
AcDbXrecord
280
     1
102
RTVSPost2010Prop28
280
     0
102
RTVSPost2010PropOp28
 70
     1
102
RTVSPost2010Prop29
280
     1
102
RTVSPost2010PropOp29
 70
     1
102
RTVSPost2010Prop30
280
     1
102
RTVSPost2010PropOp30
 70
     1
102
RTVSPost2010Prop31
280
     0
102
RTVSPost2010PropOp31
 70
     1
102
RTVSPost2010Prop32
280
     0
102
RTVSPost2010PropOp32
 70
     1
102
RTVSPost2010Prop33
280
     0
102
RTVSPost2010PropOp33
 70
     1
102
RTVSPost2010Prop34
280
     0
102
RTVSPost2010PropOp34
 70
     1
102
RTVSPost2010Prop35
280
     0
102
RTVSPost2010PropOp35
 70
     1
102
RTVSPost2010Prop36
280
     0
102
RTVSPost2010PropOp36
 70
     1
102
RTVSPost2010Prop37
 90
       50
102
RTVSPost2010PropOp37
 70
     1
102
RTVSPost2010Prop38
140
0.0
102
RTVSPost2010PropOp38
 70
     1
102
RTVSPost2010Prop39
140
1.0
102
RTVSPost2010PropOp39
 70
     1
102
RTVSPost2010Prop40
 90
        0
102
RTVSPost2010PropOp40
 70
     1
102
RTVSPost2010Prop41ColorIndex
 90
       18
102
RTVSPost2010Prop41ColorRGB
 90
        0
102
RTVSPost2010PropOp41
 70
     1
102
RTVSPost2010Prop42
 90
       50
102
RTVSPost2010PropOp42
 70
     1
102
RTVSPost2010Prop43
 90
        3
102
RTVSPost2010PropOp43
 70
     1
102
RTVSPost2010Prop44ColorIndex
 90
        5
102
RTVSPost2010Prop44ColorRGB
 90
      255
102
RTVSPost2010PropOp44
 70
     1
102
RTVSPost2010Prop45
280
     0
102
RTVSPost2010PropOp45
 70
     1
102
RTVSPost2010Prop46
 90
       50
102
RTVSPost2010PropOp46
 70
     1
102
RTVSPost2010Prop47
 90
       50
102
RTVSPost2010PropOp47
 70
     1
102
RTVSPost2010Prop48
 90
       50
102
RTVSPost2010PropOp48
 70
     1
102
RTVSPost2010Prop49
280
     0
102
RTVSPost2010PropOp49
 70
     1
102
RTVSPost2010Prop50
 90
       50
102
RTVSPost2010PropOp50
 70
     1
102
RTVSPost2010Prop51ColorIndex
 90
      256
102
RTVSPost2010Prop51ColorRGB
 90
-16777216
102
RTVSPost2010PropOp51
 70
     0
102
RTVSPost2010Prop52
140
1.0
102
RTVSPost2010PropOp52
 70
     0
102
RTVSPost2010Prop53
 90
        2
102
RTVSPost2010PropOp53
 70
     1
102
RTVSPost2010Prop54
  1
strokes_ogs.tif
102
RTVSPost2010PropOp54
 70
     1
102
RTVSPost2010Prop55
280
     0
102
RTVSPost2010PropOp55
 70
     1
102
RTVSPost2010Prop56
140
1.0
102
RTVSPost2010PropOp56
 70
     1
102
RTVSPost2010Prop57
140
1.0
102
RTVSPost2010PropOp57
 70
     1
102
RTVSPropertyOp0
 70
     1
102
RTVSPropertyOp1
 70
     1
102
RTVSPropertyOp2
 70
     1
102
RTVSPropertyOp3
 70
     1
102
RTVSPropertyOp4
 70
     1
102
RTVSPropertyOp5
 70
     1
102
RTVSPropertyOp6
 70
     1
102
RTVSPropertyOp7
 70
     1
102
RTVSPropertyOp8
 70
     1
102
RTVSPropertyOp9
 70
     1
102
RTVSPropertyOp10
 70
     1
102
RTVSPropertyOp11
 70
     1
102
RTVSPropertyOp12
 70
     1
102
RTVSPropertyOp13
 70
     1
102
RTVSPropertyOp14
 70
     1
102
RTVSPropertyOp15
 70
     1
102
RTVSPropertyOp16
 70
     1
102
RTVSPropertyOp17
 70
     1
102
RTVSPropertyOp18
 70
     1
102
RTVSPropertyOp19
 70
     1
102
RTVSPropertyOp20
 70
     1
102
RTVSPropertyOp21
 70
     1
102
RTVSPropertyOp22
 70
     1
102
RTVSPropertyOp23
 70
     1
102
RTVSPropertyOp24
 70
     1
102
RTVSPropertyOp25
 70
     1
102
RTVSPropertyOp26
 70
     1
102
RTVSPropertyOp27
 70
     1
102
RTVSPropertyOp28
 70
     1
102
RTVSPropertyOp29
 70
     1
102
RTVSPropertyOp30
 70
     1
102
RTVSPropertyOp31
 70
     1
102
RTVSPropertyOp32
 70
     1
102
RTVSPropertyOp33
 70
     1
102
RTVSPropertyOp34
 70
     1
102
RTVSPropertyOp35
 70
     1
102
RTVSPropertyOp36
 70
     1
102
RTVSPropertyOp37
 70
     1
102
RTVSPropertyOp38
 70
     1
102
RTVSPropertyOp39
 70
     1
102
RTVSPropertyOp40
 70
     1
102
RTVSPropertyOp41
 70
     1
102
RTVSPropertyOp42
 70
     1
102
RTVSPropertyOp43
 70
     1
102
RTVSPropertyOp44
 70
     1
102
RTVSPropertyOp45
 70
     1
102
RTVSPropertyOp46
 70
     1
102
RTVSPropertyOp47
 70
     1
102
RTVSPropertyOp48
 70
     1
102
RTVSPropertyOp49
 70
     1
102
RTVSPropertyOp50
 70
     1
102
RTVSPropertyOp51
 70
     0
102
RTVSPropertyOp52
 70
     0
102
RTVSPropertyOp53
 70
     1
102
RTVSPropertyOp54
 70
     1
102
RTVSPropertyOp55
 70
     1
102
RTVSPropertyOp56
 70
     1
102
RTVSPropertyOp57
 70
     1
102
RTVSPropertyOp58
 70
     1
102
RTVSPropertyOp59
 70
     1
102
RTVSPropertyOp60
 70
     1
102
RTVSPropertyOp61
 70
     1
102
RTVSPropertyOp62
 70
     1
  0
XRECORD
  5
987D
102
{ACAD_REACTORS
330
987C
102
}
330
987C
100
AcDbXrecord
280
     1
102
RTVSPost2010Prop28
280
     0
102
RTVSPost2010PropOp28
 70
     1
102
RTVSPost2010Prop29
280
     1
102
RTVSPost2010PropOp29
 70
     1
102
RTVSPost2010Prop30
280
     1
102
RTVSPost2010PropOp30
 70
     1
102
RTVSPost2010Prop31
280
     0
102
RTVSPost2010PropOp31
 70
     1
102
RTVSPost2010Prop32
280
     0
102
RTVSPost2010PropOp32
 70
     1
102
RTVSPost2010Prop33
280
     0
102
RTVSPost2010PropOp33
 70
     1
102
RTVSPost2010Prop34
280
     0
102
RTVSPost2010PropOp34
 70
     1
102
RTVSPost2010Prop35
280
     0
102
RTVSPost2010PropOp35
 70
     1
102
RTVSPost2010Prop36
280
     0
102
RTVSPost2010PropOp36
 70
     1
102
RTVSPost2010Prop37
 90
       50
102
RTVSPost2010PropOp37
 70
     1
102
RTVSPost2010Prop38
140
0.0
102
RTVSPost2010PropOp38
 70
     1
102
RTVSPost2010Prop39
140
1.0
102
RTVSPost2010PropOp39
 70
     1
102
RTVSPost2010Prop40
 90
        0
102
RTVSPost2010PropOp40
 70
     1
102
RTVSPost2010Prop41ColorIndex
 90
       18
102
RTVSPost2010Prop41ColorRGB
 90
        0
102
RTVSPost2010PropOp41
 70
     1
102
RTVSPost2010Prop42
 90
       50
102
RTVSPost2010PropOp42
 70
     1
102
RTVSPost2010Prop43
 90
        3
102
RTVSPost2010PropOp43
 70
     1
102
RTVSPost2010Prop44ColorIndex
 90
        5
102
RTVSPost2010Prop44ColorRGB
 90
      255
102
RTVSPost2010PropOp44
 70
     1
102
RTVSPost2010Prop45
280
     0
102
RTVSPost2010PropOp45
 70
     1
102
RTVSPost2010Prop46
 90
       50
102
RTVSPost2010PropOp46
 70
     1
102
RTVSPost2010Prop47
 90
       50
102
RTVSPost2010PropOp47
 70
     1
102
RTVSPost2010Prop48
 90
       50
102
RTVSPost2010PropOp48
 70
     1
102
RTVSPost2010Prop49
280
     0
102
RTVSPost2010PropOp49
 70
     1
102
RTVSPost2010Prop50
 90
       50
102
RTVSPost2010PropOp50
 70
     1
102
RTVSPost2010Prop51ColorIndex
 90
      256
102
RTVSPost2010Prop51ColorRGB
 90
-16777216
102
RTVSPost2010PropOp51
 70
     0
102
RTVSPost2010Prop52
140
1.0
102
RTVSPost2010PropOp52
 70
     0
102
RTVSPost2010Prop53
 90
        2
102
RTVSPost2010PropOp53
 70
     1
102
RTVSPost2010Prop54
  1
strokes_ogs.tif
102
RTVSPost2010PropOp54
 70
     1
102
RTVSPost2010Prop55
280
     0
102
RTVSPost2010PropOp55
 70
     1
102
RTVSPost2010Prop56
140
1.0
102
RTVSPost2010PropOp56
 70
     1
102
RTVSPost2010Prop57
140
1.0
102
RTVSPost2010PropOp57
 70
     1
102
RTVSPropertyOp0
 70
     1
102
RTVSPropertyOp1
 70
     1
102
RTVSPropertyOp2
 70
     1
102
RTVSPropertyOp3
 70
     1
102
RTVSPropertyOp4
 70
     1
102
RTVSPropertyOp5
 70
     1
102
RTVSPropertyOp6
 70
     1
102
RTVSPropertyOp7
 70
     1
102
RTVSPropertyOp8
 70
     1
102
RTVSPropertyOp9
 70
     1
102
RTVSPropertyOp10
 70
     1
102
RTVSPropertyOp11
 70
     1
102
RTVSPropertyOp12
 70
     1
102
RTVSPropertyOp13
 70
     1
102
RTVSPropertyOp14
 70
     1
102
RTVSPropertyOp15
 70
     1
102
RTVSPropertyOp16
 70
     1
102
RTVSPropertyOp17
 70
     1
102
RTVSPropertyOp18
 70
     1
102
RTVSPropertyOp19
 70
     1
102
RTVSPropertyOp20
 70
     1
102
RTVSPropertyOp21
 70
     1
102
RTVSPropertyOp22
 70
     1
102
RTVSPropertyOp23
 70
     1
102
RTVSPropertyOp24
 70
     1
102
RTVSPropertyOp25
 70
     1
102
RTVSPropertyOp26
 70
     1
102
RTVSPropertyOp27
 70
     1
102
RTVSPropertyOp28
 70
     1
102
RTVSPropertyOp29
 70
     1
102
RTVSPropertyOp30
 70
     1
102
RTVSPropertyOp31
 70
     1
102
RTVSPropertyOp32
 70
     1
102
RTVSPropertyOp33
 70
     1
102
RTVSPropertyOp34
 70
     1
102
RTVSPropertyOp35
 70
     1
102
RTVSPropertyOp36
 70
     1
102
RTVSPropertyOp37
 70
     1
102
RTVSPropertyOp38
 70
     1
102
RTVSPropertyOp39
 70
     1
102
RTVSPropertyOp40
 70
     1
102
RTVSPropertyOp41
 70
     1
102
RTVSPropertyOp42
 70
     1
102
RTVSPropertyOp43
 70
     1
102
RTVSPropertyOp44
 70
     1
102
RTVSPropertyOp45
 70
     1
102
RTVSPropertyOp46
 70
     1
102
RTVSPropertyOp47
 70
     1
102
RTVSPropertyOp48
 70
     1
102
RTVSPropertyOp49
 70
     1
102
RTVSPropertyOp50
 70
     1
102
RTVSPropertyOp51
 70
     0
102
RTVSPropertyOp52
 70
     0
102
RTVSPropertyOp53
 70
     1
102
RTVSPropertyOp54
 70
     1
102
RTVSPropertyOp55
 70
     1
102
RTVSPropertyOp56
 70
     1
102
RTVSPropertyOp57
 70
     1
102
RTVSPropertyOp58
 70
     1
102
RTVSPropertyOp59
 70
     1
102
RTVSPropertyOp60
 70
     1
102
RTVSPropertyOp61
 70
     1
102
RTVSPropertyOp62
 70
     1
  0
XRECORD
  5
987F
102
{ACAD_REACTORS
330
987E
102
}
330
987E
100
AcDbXrecord
280
     1
102
RTVSPost2010Prop28
280
     0
102
RTVSPost2010PropOp28
 70
     1
102
RTVSPost2010Prop29
280
     1
102
RTVSPost2010PropOp29
 70
     1
102
RTVSPost2010Prop30
280
     1
102
RTVSPost2010PropOp30
 70
     1
102
RTVSPost2010Prop31
280
     0
102
RTVSPost2010PropOp31
 70
     1
102
RTVSPost2010Prop32
280
     0
102
RTVSPost2010PropOp32
 70
     1
102
RTVSPost2010Prop33
280
     0
102
RTVSPost2010PropOp33
 70
     1
102
RTVSPost2010Prop34
280
     0
102
RTVSPost2010PropOp34
 70
     1
102
RTVSPost2010Prop35
280
     0
102
RTVSPost2010PropOp35
 70
     1
102
RTVSPost2010Prop36
280
     0
102
RTVSPost2010PropOp36
 70
     1
102
RTVSPost2010Prop37
 90
       50
102
RTVSPost2010PropOp37
 70
     1
102
RTVSPost2010Prop38
140
0.0
102
RTVSPost2010PropOp38
 70
     1
102
RTVSPost2010Prop39
140
1.0
102
RTVSPost2010PropOp39
 70
     1
102
RTVSPost2010Prop40
 90
        0
102
RTVSPost2010PropOp40
 70
     1
102
RTVSPost2010Prop41ColorIndex
 90
       18
102
RTVSPost2010Prop41ColorRGB
 90
        0
102
RTVSPost2010PropOp41
 70
     1
102
RTVSPost2010Prop42
 90
       50
102
RTVSPost2010PropOp42
 70
     1
102
RTVSPost2010Prop43
 90
        3
102
RTVSPost2010PropOp43
 70
     1
102
RTVSPost2010Prop44ColorIndex
 90
        5
102
RTVSPost2010Prop44ColorRGB
 90
      255
102
RTVSPost2010PropOp44
 70
     1
102
RTVSPost2010Prop45
280
     0
102
RTVSPost2010PropOp45
 70
     1
102
RTVSPost2010Prop46
 90
       50
102
RTVSPost2010PropOp46
 70
     1
102
RTVSPost2010Prop47
 90
       50
102
RTVSPost2010PropOp47
 70
     1
102
RTVSPost2010Prop48
 90
       50
102
RTVSPost2010PropOp48
 70
     1
102
RTVSPost2010Prop49
280
     0
102
RTVSPost2010PropOp49
 70
     1
102
RTVSPost2010Prop50
 90
       50
102
RTVSPost2010PropOp50
 70
     1
102
RTVSPost2010Prop51ColorIndex
 90
      256
102
RTVSPost2010Prop51ColorRGB
 90
-16777216
102
RTVSPost2010PropOp51
 70
     0
102
RTVSPost2010Prop52
140
1.0
102
RTVSPost2010PropOp52
 70
     0
102
RTVSPost2010Prop53
 90
        2
102
RTVSPost2010PropOp53
 70
     1
102
RTVSPost2010Prop54
  1
strokes_ogs.tif
102
RTVSPost2010PropOp54
 70
     1
102
RTVSPost2010Prop55
280
     0
102
RTVSPost2010PropOp55
 70
     1
102
RTVSPost2010Prop56
140
1.0
102
RTVSPost2010PropOp56
 70
     1
102
RTVSPost2010Prop57
140
1.0
102
RTVSPost2010PropOp57
 70
     1
102
RTVSPropertyOp0
 70
     1
102
RTVSPropertyOp1
 70
     1
102
RTVSPropertyOp2
 70
     1
102
RTVSPropertyOp3
 70
     1
102
RTVSPropertyOp4
 70
     1
102
RTVSPropertyOp5
 70
     1
102
RTVSPropertyOp6
 70
     1
102
RTVSPropertyOp7
 70
     1
102
RTVSPropertyOp8
 70
     1
102
RTVSPropertyOp9
 70
     1
102
RTVSPropertyOp10
 70
     1
102
RTVSPropertyOp11
 70
     1
102
RTVSPropertyOp12
 70
     1
102
RTVSPropertyOp13
 70
     1
102
RTVSPropertyOp14
 70
     1
102
RTVSPropertyOp15
 70
     1
102
RTVSPropertyOp16
 70
     1
102
RTVSPropertyOp17
 70
     1
102
RTVSPropertyOp18
 70
     1
102
RTVSPropertyOp19
 70
     1
102
RTVSPropertyOp20
 70
     1
102
RTVSPropertyOp21
 70
     1
102
RTVSPropertyOp22
 70
     1
102
RTVSPropertyOp23
 70
     1
102
RTVSPropertyOp24
 70
     1
102
RTVSPropertyOp25
 70
     1
102
RTVSPropertyOp26
 70
     1
102
RTVSPropertyOp27
 70
     1
102
RTVSPropertyOp28
 70
     1
102
RTVSPropertyOp29
 70
     1
102
RTVSPropertyOp30
 70
     1
102
RTVSPropertyOp31
 70
     1
102
RTVSPropertyOp32
 70
     1
102
RTVSPropertyOp33
 70
     1
102
RTVSPropertyOp34
 70
     1
102
RTVSPropertyOp35
 70
     1
102
RTVSPropertyOp36
 70
     1
102
RTVSPropertyOp37
 70
     1
102
RTVSPropertyOp38
 70
     1
102
RTVSPropertyOp39
 70
     1
102
RTVSPropertyOp40
 70
     1
102
RTVSPropertyOp41
 70
     1
102
RTVSPropertyOp42
 70
     1
102
RTVSPropertyOp43
 70
     1
102
RTVSPropertyOp44
 70
     1
102
RTVSPropertyOp45
 70
     1
102
RTVSPropertyOp46
 70
     1
102
RTVSPropertyOp47
 70
     1
102
RTVSPropertyOp48
 70
     1
102
RTVSPropertyOp49
 70
     1
102
RTVSPropertyOp50
 70
     1
102
RTVSPropertyOp51
 70
     0
102
RTVSPropertyOp52
 70
     0
102
RTVSPropertyOp53
 70
     1
102
RTVSPropertyOp54
 70
     1
102
RTVSPropertyOp55
 70
     1
102
RTVSPropertyOp56
 70
     1
102
RTVSPropertyOp57
 70
     1
102
RTVSPropertyOp58
 70
     1
102
RTVSPropertyOp59
 70
     1
102
RTVSPropertyOp60
 70
     1
102
RTVSPropertyOp61
 70
     1
102
RTVSPropertyOp62
 70
     1
  0
XRECORD
  5
9881
102
{ACAD_REACTORS
330
9880
102
}
330
9880
100
AcDbXrecord
280
     1
102
RTVSPost2010Prop28
280
     0
102
RTVSPost2010PropOp28
 70
     1
102
RTVSPost2010Prop29
280
     1
102
RTVSPost2010PropOp29
 70
     1
102
RTVSPost2010Prop30
280
     1
102
RTVSPost2010PropOp30
 70
     1
102
RTVSPost2010Prop31
280
     0
102
RTVSPost2010PropOp31
 70
     1
102
RTVSPost2010Prop32
280
     0
102
RTVSPost2010PropOp32
 70
     1
102
RTVSPost2010Prop33
280
     0
102
RTVSPost2010PropOp33
 70
     1
102
RTVSPost2010Prop34
280
     0
102
RTVSPost2010PropOp34
 70
     1
102
RTVSPost2010Prop35
280
     0
102
RTVSPost2010PropOp35
 70
     1
102
RTVSPost2010Prop36
280
     0
102
RTVSPost2010PropOp36
 70
     1
102
RTVSPost2010Prop37
 90
       50
102
RTVSPost2010PropOp37
 70
     1
102
RTVSPost2010Prop38
140
0.0
102
RTVSPost2010PropOp38
 70
     1
102
RTVSPost2010Prop39
140
1.0
102
RTVSPost2010PropOp39
 70
     1
102
RTVSPost2010Prop40
 90
        0
102
RTVSPost2010PropOp40
 70
     1
102
RTVSPost2010Prop41ColorIndex
 90
       18
102
RTVSPost2010Prop41ColorRGB
 90
        0
102
RTVSPost2010PropOp41
 70
     1
102
RTVSPost2010Prop42
 90
       50
102
RTVSPost2010PropOp42
 70
     1
102
RTVSPost2010Prop43
 90
        3
102
RTVSPost2010PropOp43
 70
     1
102
RTVSPost2010Prop44ColorIndex
 90
        5
102
RTVSPost2010Prop44ColorRGB
 90
      255
102
RTVSPost2010PropOp44
 70
     1
102
RTVSPost2010Prop45
280
     0
102
RTVSPost2010PropOp45
 70
     1
102
RTVSPost2010Prop46
 90
       50
102
RTVSPost2010PropOp46
 70
     1
102
RTVSPost2010Prop47
 90
       50
102
RTVSPost2010PropOp47
 70
     1
102
RTVSPost2010Prop48
 90
       50
102
RTVSPost2010PropOp48
 70
     1
102
RTVSPost2010Prop49
280
     0
102
RTVSPost2010PropOp49
 70
     1
102
RTVSPost2010Prop50
 90
       50
102
RTVSPost2010PropOp50
 70
     1
102
RTVSPost2010Prop51ColorIndex
 90
      256
102
RTVSPost2010Prop51ColorRGB
 90
-16777216
102
RTVSPost2010PropOp51
 70
     0
102
RTVSPost2010Prop52
140
1.0
102
RTVSPost2010PropOp52
 70
     0
102
RTVSPost2010Prop53
 90
        2
102
RTVSPost2010PropOp53
 70
     1
102
RTVSPost2010Prop54
  1
strokes_ogs.tif
102
RTVSPost2010PropOp54
 70
     1
102
RTVSPost2010Prop55
280
     0
102
RTVSPost2010PropOp55
 70
     1
102
RTVSPost2010Prop56
140
1.0
102
RTVSPost2010PropOp56
 70
     1
102
RTVSPost2010Prop57
140
1.0
102
RTVSPost2010PropOp57
 70
     1
102
RTVSPropertyOp0
 70
     1
102
RTVSPropertyOp1
 70
     1
102
RTVSPropertyOp2
 70
     1
102
RTVSPropertyOp3
 70
     1
102
RTVSPropertyOp4
 70
     1
102
RTVSPropertyOp5
 70
     1
102
RTVSPropertyOp6
 70
     1
102
RTVSPropertyOp7
 70
     1
102
RTVSPropertyOp8
 70
     1
102
RTVSPropertyOp9
 70
     1
102
RTVSPropertyOp10
 70
     1
102
RTVSPropertyOp11
 70
     1
102
RTVSPropertyOp12
 70
     1
102
RTVSPropertyOp13
 70
     1
102
RTVSPropertyOp14
 70
     1
102
RTVSPropertyOp15
 70
     1
102
RTVSPropertyOp16
 70
     1
102
RTVSPropertyOp17
 70
     1
102
RTVSPropertyOp18
 70
     1
102
RTVSPropertyOp19
 70
     1
102
RTVSPropertyOp20
 70
     1
102
RTVSPropertyOp21
 70
     1
102
RTVSPropertyOp22
 70
     1
102
RTVSPropertyOp23
 70
     1
102
RTVSPropertyOp24
 70
     1
102
RTVSPropertyOp25
 70
     1
102
RTVSPropertyOp26
 70
     1
102
RTVSPropertyOp27
 70
     1
102
RTVSPropertyOp28
 70
     1
102
RTVSPropertyOp29
 70
     1
102
RTVSPropertyOp30
 70
     1
102
RTVSPropertyOp31
 70
     1
102
RTVSPropertyOp32
 70
     1
102
RTVSPropertyOp33
 70
     1
102
RTVSPropertyOp34
 70
     1
102
RTVSPropertyOp35
 70
     1
102
RTVSPropertyOp36
 70
     1
102
RTVSPropertyOp37
 70
     1
102
RTVSPropertyOp38
 70
     1
102
RTVSPropertyOp39
 70
     1
102
RTVSPropertyOp40
 70
     1
102
RTVSPropertyOp41
 70
     1
102
RTVSPropertyOp42
 70
     1
102
RTVSPropertyOp43
 70
     1
102
RTVSPropertyOp44
 70
     1
102
RTVSPropertyOp45
 70
     1
102
RTVSPropertyOp46
 70
     1
102
RTVSPropertyOp47
 70
     1
102
RTVSPropertyOp48
 70
     1
102
RTVSPropertyOp49
 70
     1
102
RTVSPropertyOp50
 70
     1
102
RTVSPropertyOp51
 70
     0
102
RTVSPropertyOp52
 70
     0
102
RTVSPropertyOp53
 70
     1
102
RTVSPropertyOp54
 70
     1
102
RTVSPropertyOp55
 70
     1
102
RTVSPropertyOp56
 70
     1
102
RTVSPropertyOp57
 70
     1
102
RTVSPropertyOp58
 70
     1
102
RTVSPropertyOp59
 70
     1
102
RTVSPropertyOp60
 70
     1
102
RTVSPropertyOp61
 70
     1
102
RTVSPropertyOp62
 70
     1
  0
XRECORD
  5
9883
102
{ACAD_REACTORS
330
9882
102
}
330
9882
100
AcDbXrecord
280
     1
102
RTVSPost2010Prop28
280
     0
102
RTVSPost2010PropOp28
 70
     1
102
RTVSPost2010Prop29
280
     1
102
RTVSPost2010PropOp29
 70
     1
102
RTVSPost2010Prop30
280
     1
102
RTVSPost2010PropOp30
 70
     1
102
RTVSPost2010Prop31
280
     0
102
RTVSPost2010PropOp31
 70
     1
102
RTVSPost2010Prop32
280
     0
102
RTVSPost2010PropOp32
 70
     1
102
RTVSPost2010Prop33
280
     0
102
RTVSPost2010PropOp33
 70
     1
102
RTVSPost2010Prop34
280
     0
102
RTVSPost2010PropOp34
 70
     1
102
RTVSPost2010Prop35
280
     0
102
RTVSPost2010PropOp35
 70
     1
102
RTVSPost2010Prop36
280
     0
102
RTVSPost2010PropOp36
 70
     1
102
RTVSPost2010Prop37
 90
       50
102
RTVSPost2010PropOp37
 70
     1
102
RTVSPost2010Prop38
140
0.0
102
RTVSPost2010PropOp38
 70
     1
102
RTVSPost2010Prop39
140
1.0
102
RTVSPost2010PropOp39
 70
     1
102
RTVSPost2010Prop40
 90
        0
102
RTVSPost2010PropOp40
 70
     1
102
RTVSPost2010Prop41ColorIndex
 90
       18
102
RTVSPost2010Prop41ColorRGB
 90
        0
102
RTVSPost2010PropOp41
 70
     1
102
RTVSPost2010Prop42
 90
       50
102
RTVSPost2010PropOp42
 70
     1
102
RTVSPost2010Prop43
 90
        3
102
RTVSPost2010PropOp43
 70
     1
102
RTVSPost2010Prop44ColorIndex
 90
        5
102
RTVSPost2010Prop44ColorRGB
 90
      255
102
RTVSPost2010PropOp44
 70
     1
102
RTVSPost2010Prop45
280
     0
102
RTVSPost2010PropOp45
 70
     1
102
RTVSPost2010Prop46
 90
       50
102
RTVSPost2010PropOp46
 70
     1
102
RTVSPost2010Prop47
 90
       50
102
RTVSPost2010PropOp47
 70
     1
102
RTVSPost2010Prop48
 90
       50
102
RTVSPost2010PropOp48
 70
     1
102
RTVSPost2010Prop49
280
     0
102
RTVSPost2010PropOp49
 70
     1
102
RTVSPost2010Prop50
 90
       50
102
RTVSPost2010PropOp50
 70
     1
102
RTVSPost2010Prop51ColorIndex
 90
      256
102
RTVSPost2010Prop51ColorRGB
 90
-16777216
102
RTVSPost2010PropOp51
 70
     0
102
RTVSPost2010Prop52
140
1.0
102
RTVSPost2010PropOp52
 70
     0
102
RTVSPost2010Prop53
 90
        2
102
RTVSPost2010PropOp53
 70
     1
102
RTVSPost2010Prop54
  1
strokes_ogs.tif
102
RTVSPost2010PropOp54
 70
     1
102
RTVSPost2010Prop55
280
     0
102
RTVSPost2010PropOp55
 70
     1
102
RTVSPost2010Prop56
140
1.0
102
RTVSPost2010PropOp56
 70
     1
102
RTVSPost2010Prop57
140
1.0
102
RTVSPost2010PropOp57
 70
     1
102
RTVSPropertyOp0
 70
     1
102
RTVSPropertyOp1
 70
     1
102
RTVSPropertyOp2
 70
     1
102
RTVSPropertyOp3
 70
     1
102
RTVSPropertyOp4
 70
     1
102
RTVSPropertyOp5
 70
     1
102
RTVSPropertyOp6
 70
     1
102
RTVSPropertyOp7
 70
     1
102
RTVSPropertyOp8
 70
     1
102
RTVSPropertyOp9
 70
     1
102
RTVSPropertyOp10
 70
     1
102
RTVSPropertyOp11
 70
     1
102
RTVSPropertyOp12
 70
     1
102
RTVSPropertyOp13
 70
     1
102
RTVSPropertyOp14
 70
     1
102
RTVSPropertyOp15
 70
     1
102
RTVSPropertyOp16
 70
     1
102
RTVSPropertyOp17
 70
     1
102
RTVSPropertyOp18
 70
     1
102
RTVSPropertyOp19
 70
     1
102
RTVSPropertyOp20
 70
     1
102
RTVSPropertyOp21
 70
     1
102
RTVSPropertyOp22
 70
     1
102
RTVSPropertyOp23
 70
     1
102
RTVSPropertyOp24
 70
     1
102
RTVSPropertyOp25
 70
     1
102
RTVSPropertyOp26
 70
     1
102
RTVSPropertyOp27
 70
     1
102
RTVSPropertyOp28
 70
     1
102
RTVSPropertyOp29
 70
     1
102
RTVSPropertyOp30
 70
     1
102
RTVSPropertyOp31
 70
     1
102
RTVSPropertyOp32
 70
     1
102
RTVSPropertyOp33
 70
     1
102
RTVSPropertyOp34
 70
     1
102
RTVSPropertyOp35
 70
     1
102
RTVSPropertyOp36
 70
     1
102
RTVSPropertyOp37
 70
     1
102
RTVSPropertyOp38
 70
     1
102
RTVSPropertyOp39
 70
     1
102
RTVSPropertyOp40
 70
     1
102
RTVSPropertyOp41
 70
     1
102
RTVSPropertyOp42
 70
     1
102
RTVSPropertyOp43
 70
     1
102
RTVSPropertyOp44
 70
     1
102
RTVSPropertyOp45
 70
     1
102
RTVSPropertyOp46
 70
     1
102
RTVSPropertyOp47
 70
     1
102
RTVSPropertyOp48
 70
     1
102
RTVSPropertyOp49
 70
     1
102
RTVSPropertyOp50
 70
     1
102
RTVSPropertyOp51
 70
     0
102
RTVSPropertyOp52
 70
     0
102
RTVSPropertyOp53
 70
     1
102
RTVSPropertyOp54
 70
     1
102
RTVSPropertyOp55
 70
     1
102
RTVSPropertyOp56
 70
     1
102
RTVSPropertyOp57
 70
     1
102
RTVSPropertyOp58
 70
     1
102
RTVSPropertyOp59
 70
     1
102
RTVSPropertyOp60
 70
     1
102
RTVSPropertyOp61
 70
     1
102
RTVSPropertyOp62
 70
     1
  0
XRECORD
  5
988B
102
{ACAD_REACTORS
330
988A
102
}
330
988A
100
AcDbXrecord
280
     1
102
RTVSPost2010Prop28
280
     0
102
RTVSPost2010PropOp28
 70
     1
102
RTVSPost2010Prop29
280
     1
102
RTVSPost2010PropOp29
 70
     1
102
RTVSPost2010Prop30
280
     1
102
RTVSPost2010PropOp30
 70
     1
102
RTVSPost2010Prop31
280
     0
102
RTVSPost2010PropOp31
 70
     1
102
RTVSPost2010Prop32
280
     0
102
RTVSPost2010PropOp32
 70
     1
102
RTVSPost2010Prop33
280
     0
102
RTVSPost2010PropOp33
 70
     1
102
RTVSPost2010Prop34
280
     0
102
RTVSPost2010PropOp34
 70
     1
102
RTVSPost2010Prop35
280
     0
102
RTVSPost2010PropOp35
 70
     1
102
RTVSPost2010Prop36
280
     0
102
RTVSPost2010PropOp36
 70
     1
102
RTVSPost2010Prop37
 90
       50
102
RTVSPost2010PropOp37
 70
     1
102
RTVSPost2010Prop38
140
0.0
102
RTVSPost2010PropOp38
 70
     1
102
RTVSPost2010Prop39
140
1.0
102
RTVSPost2010PropOp39
 70
     1
102
RTVSPost2010Prop40
 90
        0
102
RTVSPost2010PropOp40
 70
     1
102
RTVSPost2010Prop41ColorIndex
 90
       18
102
RTVSPost2010Prop41ColorRGB
 90
        0
102
RTVSPost2010PropOp41
 70
     1
102
RTVSPost2010Prop42
 90
       50
102
RTVSPost2010PropOp42
 70
     1
102
RTVSPost2010Prop43
 90
        3
102
RTVSPost2010PropOp43
 70
     1
102
RTVSPost2010Prop44ColorIndex
 90
        5
102
RTVSPost2010Prop44ColorRGB
 90
      255
102
RTVSPost2010PropOp44
 70
     1
102
RTVSPost2010Prop45
280
     0
102
RTVSPost2010PropOp45
 70
     1
102
RTVSPost2010Prop46
 90
       50
102
RTVSPost2010PropOp46
 70
     1
102
RTVSPost2010Prop47
 90
       50
102
RTVSPost2010PropOp47
 70
     1
102
RTVSPost2010Prop48
 90
       50
102
RTVSPost2010PropOp48
 70
     1
102
RTVSPost2010Prop49
280
     0
102
RTVSPost2010PropOp49
 70
     1
102
RTVSPost2010Prop50
 90
       50
102
RTVSPost2010PropOp50
 70
     1
102
RTVSPost2010Prop51ColorIndex
 90
      256
102
RTVSPost2010Prop51ColorRGB
 90
-16777216
102
RTVSPost2010PropOp51
 70
     0
102
RTVSPost2010Prop52
140
1.0
102
RTVSPost2010PropOp52
 70
     0
102
RTVSPost2010Prop53
 90
        2
102
RTVSPost2010PropOp53
 70
     1
102
RTVSPost2010Prop54
  1
strokes_ogs.tif
102
RTVSPost2010PropOp54
 70
     1
102
RTVSPost2010Prop55
280
     0
102
RTVSPost2010PropOp55
 70
     1
102
RTVSPost2010Prop56
140
1.0
102
RTVSPost2010PropOp56
 70
     1
102
RTVSPost2010Prop57
140
1.0
102
RTVSPost2010PropOp57
 70
     1
102
RTVSPropertyOp0
 70
     1
102
RTVSPropertyOp1
 70
     1
102
RTVSPropertyOp2
 70
     1
102
RTVSPropertyOp3
 70
     1
102
RTVSPropertyOp4
 70
     1
102
RTVSPropertyOp5
 70
     1
102
RTVSPropertyOp6
 70
     1
102
RTVSPropertyOp7
 70
     1
102
RTVSPropertyOp8
 70
     1
102
RTVSPropertyOp9
 70
     1
102
RTVSPropertyOp10
 70
     1
102
RTVSPropertyOp11
 70
     1
102
RTVSPropertyOp12
 70
     1
102
RTVSPropertyOp13
 70
     1
102
RTVSPropertyOp14
 70
     1
102
RTVSPropertyOp15
 70
     1
102
RTVSPropertyOp16
 70
     1
102
RTVSPropertyOp17
 70
     1
102
RTVSPropertyOp18
 70
     1
102
RTVSPropertyOp19
 70
     1
102
RTVSPropertyOp20
 70
     1
102
RTVSPropertyOp21
 70
     1
102
RTVSPropertyOp22
 70
     1
102
RTVSPropertyOp23
 70
     1
102
RTVSPropertyOp24
 70
     1
102
RTVSPropertyOp25
 70
     1
102
RTVSPropertyOp26
 70
     1
102
RTVSPropertyOp27
 70
     1
102
RTVSPropertyOp28
 70
     1
102
RTVSPropertyOp29
 70
     1
102
RTVSPropertyOp30
 70
     1
102
RTVSPropertyOp31
 70
     1
102
RTVSPropertyOp32
 70
     1
102
RTVSPropertyOp33
 70
     1
102
RTVSPropertyOp34
 70
     1
102
RTVSPropertyOp35
 70
     1
102
RTVSPropertyOp36
 70
     1
102
RTVSPropertyOp37
 70
     1
102
RTVSPropertyOp38
 70
     1
102
RTVSPropertyOp39
 70
     1
102
RTVSPropertyOp40
 70
     1
102
RTVSPropertyOp41
 70
     1
102
RTVSPropertyOp42
 70
     1
102
RTVSPropertyOp43
 70
     1
102
RTVSPropertyOp44
 70
     1
102
RTVSPropertyOp45
 70
     1
102
RTVSPropertyOp46
 70
     1
102
RTVSPropertyOp47
 70
     1
102
RTVSPropertyOp48
 70
     1
102
RTVSPropertyOp49
 70
     1
102
RTVSPropertyOp50
 70
     1
102
RTVSPropertyOp51
 70
     0
102
RTVSPropertyOp52
 70
     0
102
RTVSPropertyOp53
 70
     1
102
RTVSPropertyOp54
 70
     1
102
RTVSPropertyOp55
 70
     1
102
RTVSPropertyOp56
 70
     1
102
RTVSPropertyOp57
 70
     1
102
RTVSPropertyOp58
 70
     1
102
RTVSPropertyOp59
 70
     1
102
RTVSPropertyOp60
 70
     1
102
RTVSPropertyOp61
 70
     1
102
RTVSPropertyOp62
 70
     1
  0
XRECORD
  5
98A7
102
{ACAD_REACTORS
330
98A6
102
}
330
98A6
100
AcDbXrecord
280
     1
102
RTVSPost2010Prop28
280
     0
102
RTVSPost2010PropOp28
 70
     1
102
RTVSPost2010Prop29
280
     1
102
RTVSPost2010PropOp29
 70
     1
102
RTVSPost2010Prop30
280
     1
102
RTVSPost2010PropOp30
 70
     1
102
RTVSPost2010Prop31
280
     0
102
RTVSPost2010PropOp31
 70
     1
102
RTVSPost2010Prop32
280
     0
102
RTVSPost2010PropOp32
 70
     1
102
RTVSPost2010Prop33
280
     0
102
RTVSPost2010PropOp33
 70
     1
102
RTVSPost2010Prop34
280
     0
102
RTVSPost2010PropOp34
 70
     1
102
RTVSPost2010Prop35
280
     0
102
RTVSPost2010PropOp35
 70
     1
102
RTVSPost2010Prop36
280
     0
102
RTVSPost2010PropOp36
 70
     1
102
RTVSPost2010Prop37
 90
       50
102
RTVSPost2010PropOp37
 70
     0
102
RTVSPost2010Prop38
140
0.0
102
RTVSPost2010PropOp38
 70
     0
102
RTVSPost2010Prop39
140
1.0
102
RTVSPost2010PropOp39
 70
     0
102
RTVSPost2010Prop40
 90
        0
102
RTVSPost2010PropOp40
 70
     0
102
RTVSPost2010Prop41ColorIndex
 90
       18
102
RTVSPost2010Prop41ColorRGB
 90
        0
102
RTVSPost2010PropOp41
 70
     0
102
RTVSPost2010Prop42
 90
       50
102
RTVSPost2010PropOp42
 70
     0
102
RTVSPost2010Prop43
 90
        3
102
RTVSPost2010PropOp43
 70
     0
102
RTVSPost2010Prop44ColorIndex
 90
        5
102
RTVSPost2010Prop44ColorRGB
 90
      255
102
RTVSPost2010PropOp44
 70
     0
102
RTVSPost2010Prop45
280
     0
102
RTVSPost2010PropOp45
 70
     1
102
RTVSPost2010Prop46
 90
       50
102
RTVSPost2010PropOp46
 70
     0
102
RTVSPost2010Prop47
 90
       50
102
RTVSPost2010PropOp47
 70
     0
102
RTVSPost2010Prop48
 90
       50
102
RTVSPost2010PropOp48
 70
     0
102
RTVSPost2010Prop49
280
     0
102
RTVSPost2010PropOp49
 70
     1
102
RTVSPost2010Prop50
 90
       50
102
RTVSPost2010PropOp50
 70
     0
102
RTVSPost2010Prop51ColorIndex
 90
      256
102
RTVSPost2010Prop51ColorRGB
 90
-16777216
102
RTVSPost2010PropOp51
 70
     0
102
RTVSPost2010Prop52
140
1.0
102
RTVSPost2010PropOp52
 70
     0
102
RTVSPost2010Prop53
 90
        2
102
RTVSPost2010PropOp53
 70
     0
102
RTVSPost2010Prop54
  1
strokes_ogs.tif
102
RTVSPost2010PropOp54
 70
     0
102
RTVSPost2010Prop55
280
     0
102
RTVSPost2010PropOp55
 70
     1
102
RTVSPost2010Prop56
140
1.0
102
RTVSPost2010PropOp56
 70
     0
102
RTVSPost2010Prop57
140
1.0
102
RTVSPost2010PropOp57
 70
     0
102
RTVSPropertyOp0
 70
     0
102
RTVSPropertyOp1
 70
     0
102
RTVSPropertyOp2
 70
     0
102
RTVSPropertyOp3
 70
     0
102
RTVSPropertyOp4
 70
     0
102
RTVSPropertyOp5
 70
     0
102
RTVSPropertyOp6
 70
     0
102
RTVSPropertyOp7
 70
     0
102
RTVSPropertyOp8
 70
     0
102
RTVSPropertyOp9
 70
     0
102
RTVSPropertyOp10
 70
     0
102
RTVSPropertyOp11
 70
     0
102
RTVSPropertyOp12
 70
     0
102
RTVSPropertyOp13
 70
     0
102
RTVSPropertyOp14
 70
     2
102
RTVSPropertyOp15
 70
     0
102
RTVSPropertyOp16
 70
     0
102
RTVSPropertyOp17
 70
     0
102
RTVSPropertyOp18
 70
     0
102
RTVSPropertyOp19
 70
     0
102
RTVSPropertyOp20
 70
     0
102
RTVSPropertyOp21
 70
     0
102
RTVSPropertyOp22
 70
     0
102
RTVSPropertyOp23
 70
     0
102
RTVSPropertyOp24
 70
     0
102
RTVSPropertyOp25
 70
     0
102
RTVSPropertyOp26
 70
     0
102
RTVSPropertyOp27
 70
     0
102
RTVSPropertyOp28
 70
     1
102
RTVSPropertyOp29
 70
     1
102
RTVSPropertyOp30
 70
     1
102
RTVSPropertyOp31
 70
     1
102
RTVSPropertyOp32
 70
     1
102
RTVSPropertyOp33
 70
     1
102
RTVSPropertyOp34
 70
     1
102
RTVSPropertyOp35
 70
     1
102
RTVSPropertyOp36
 70
     1
102
RTVSPropertyOp37
 70
     0
102
RTVSPropertyOp38
 70
     0
102
RTVSPropertyOp39
 70
     0
102
RTVSPropertyOp40
 70
     0
102
RTVSPropertyOp41
 70
     0
102
RTVSPropertyOp42
 70
     0
102
RTVSPropertyOp43
 70
     0
102
RTVSPropertyOp44
 70
     0
102
RTVSPropertyOp45
 70
     1
102
RTVSPropertyOp46
 70
     0
102
RTVSPropertyOp47
 70
     0
102
RTVSPropertyOp48
 70
     0
102
RTVSPropertyOp49
 70
     1
102
RTVSPropertyOp50
 70
     0
102
RTVSPropertyOp51
 70
     0
102
RTVSPropertyOp52
 70
     0
102
RTVSPropertyOp53
 70
     0
102
RTVSPropertyOp54
 70
     0
102
RTVSPropertyOp55
 70
     1
102
RTVSPropertyOp56
 70
     0
102
RTVSPropertyOp57
 70
     0
102
RTVSPropertyOp58
 70
     0
102
RTVSPropertyOp59
 70
     0
102
RTVSPropertyOp60
 70
     0
102
RTVSPropertyOp61
 70
     0
102
RTVSPropertyOp62
 70
     0
  0
XRECORD
  5
9897
102
{ACAD_REACTORS
330
9896
102
}
330
9896
100
AcDbXrecord
280
     1
102
RTVSPost2010Prop28
280
     0
102
RTVSPost2010PropOp28
 70
     1
102
RTVSPost2010Prop29
280
     1
102
RTVSPost2010PropOp29
 70
     1
102
RTVSPost2010Prop30
280
     1
102
RTVSPost2010PropOp30
 70
     1
102
RTVSPost2010Prop31
280
     0
102
RTVSPost2010PropOp31
 70
     1
102
RTVSPost2010Prop32
280
     0
102
RTVSPost2010PropOp32
 70
     1
102
RTVSPost2010Prop33
280
     0
102
RTVSPost2010PropOp33
 70
     1
102
RTVSPost2010Prop34
280
     0
102
RTVSPost2010PropOp34
 70
     1
102
RTVSPost2010Prop35
280
     0
102
RTVSPost2010PropOp35
 70
     1
102
RTVSPost2010Prop36
280
     0
102
RTVSPost2010PropOp36
 70
     1
102
RTVSPost2010Prop37
 90
       50
102
RTVSPost2010PropOp37
 70
     1
102
RTVSPost2010Prop38
140
0.0
102
RTVSPost2010PropOp38
 70
     1
102
RTVSPost2010Prop39
140
1.0
102
RTVSPost2010PropOp39
 70
     1
102
RTVSPost2010Prop40
 90
        0
102
RTVSPost2010PropOp40
 70
     1
102
RTVSPost2010Prop41ColorIndex
 90
       18
102
RTVSPost2010Prop41ColorRGB
 90
        0
102
RTVSPost2010PropOp41
 70
     1
102
RTVSPost2010Prop42
 90
       50
102
RTVSPost2010PropOp42
 70
     1
102
RTVSPost2010Prop43
 90
        3
102
RTVSPost2010PropOp43
 70
     1
102
RTVSPost2010Prop44ColorIndex
 90
        5
102
RTVSPost2010Prop44ColorRGB
 90
      255
102
RTVSPost2010PropOp44
 70
     1
102
RTVSPost2010Prop45
280
     0
102
RTVSPost2010PropOp45
 70
     1
102
RTVSPost2010Prop46
 90
       50
102
RTVSPost2010PropOp46
 70
     1
102
RTVSPost2010Prop47
 90
       50
102
RTVSPost2010PropOp47
 70
     1
102
RTVSPost2010Prop48
 90
       50
102
RTVSPost2010PropOp48
 70
     1
102
RTVSPost2010Prop49
280
     0
102
RTVSPost2010PropOp49
 70
     1
102
RTVSPost2010Prop50
 90
       50
102
RTVSPost2010PropOp50
 70
     1
102
RTVSPost2010Prop51ColorIndex
 90
      256
102
RTVSPost2010Prop51ColorRGB
 90
-16777216
102
RTVSPost2010PropOp51
 70
     0
102
RTVSPost2010Prop52
140
1.0
102
RTVSPost2010PropOp52
 70
     0
102
RTVSPost2010Prop53
 90
        2
102
RTVSPost2010PropOp53
 70
     1
102
RTVSPost2010Prop54
  1
strokes_ogs.tif
102
RTVSPost2010PropOp54
 70
     1
102
RTVSPost2010Prop55
280
     0
102
RTVSPost2010PropOp55
 70
     1
102
RTVSPost2010Prop56
140
1.0
102
RTVSPost2010PropOp56
 70
     1
102
RTVSPost2010Prop57
140
1.0
102
RTVSPost2010PropOp57
 70
     1
102
RTVSPropertyOp0
 70
     1
102
RTVSPropertyOp1
 70
     1
102
RTVSPropertyOp2
 70
     1
102
RTVSPropertyOp3
 70
     1
102
RTVSPropertyOp4
 70
     1
102
RTVSPropertyOp5
 70
     1
102
RTVSPropertyOp6
 70
     1
102
RTVSPropertyOp7
 70
     1
102
RTVSPropertyOp8
 70
     1
102
RTVSPropertyOp9
 70
     1
102
RTVSPropertyOp10
 70
     1
102
RTVSPropertyOp11
 70
     1
102
RTVSPropertyOp12
 70
     1
102
RTVSPropertyOp13
 70
     1
102
RTVSPropertyOp14
 70
     1
102
RTVSPropertyOp15
 70
     1
102
RTVSPropertyOp16
 70
     1
102
RTVSPropertyOp17
 70
     1
102
RTVSPropertyOp18
 70
     1
102
RTVSPropertyOp19
 70
     1
102
RTVSPropertyOp20
 70
     1
102
RTVSPropertyOp21
 70
     1
102
RTVSPropertyOp22
 70
     1
102
RTVSPropertyOp23
 70
     1
102
RTVSPropertyOp24
 70
     1
102
RTVSPropertyOp25
 70
     1
102
RTVSPropertyOp26
 70
     1
102
RTVSPropertyOp27
 70
     1
102
RTVSPropertyOp28
 70
     1
102
RTVSPropertyOp29
 70
     1
102
RTVSPropertyOp30
 70
     1
102
RTVSPropertyOp31
 70
     1
102
RTVSPropertyOp32
 70
     1
102
RTVSPropertyOp33
 70
     1
102
RTVSPropertyOp34
 70
     1
102
RTVSPropertyOp35
 70
     1
102
RTVSPropertyOp36
 70
     1
102
RTVSPropertyOp37
 70
     1
102
RTVSPropertyOp38
 70
     1
102
RTVSPropertyOp39
 70
     1
102
RTVSPropertyOp40
 70
     1
102
RTVSPropertyOp41
 70
     1
102
RTVSPropertyOp42
 70
     1
102
RTVSPropertyOp43
 70
     1
102
RTVSPropertyOp44
 70
     1
102
RTVSPropertyOp45
 70
     1
102
RTVSPropertyOp46
 70
     1
102
RTVSPropertyOp47
 70
     1
102
RTVSPropertyOp48
 70
     1
102
RTVSPropertyOp49
 70
     1
102
RTVSPropertyOp50
 70
     1
102
RTVSPropertyOp51
 70
     0
102
RTVSPropertyOp52
 70
     0
102
RTVSPropertyOp53
 70
     1
102
RTVSPropertyOp54
 70
     1
102
RTVSPropertyOp55
 70
     1
102
RTVSPropertyOp56
 70
     1
102
RTVSPropertyOp57
 70
     1
102
RTVSPropertyOp58
 70
     1
102
RTVSPropertyOp59
 70
     1
102
RTVSPropertyOp60
 70
     1
102
RTVSPropertyOp61
 70
     1
102
RTVSPropertyOp62
 70
     1
  0
XRECORD
  5
98A9
102
{ACAD_REACTORS
330
98A8
102
}
330
98A8
100
AcDbXrecord
280
     1
102
RTVSPost2010Prop28
280
     0
102
RTVSPost2010PropOp28
 70
     1
102
RTVSPost2010Prop29
280
     1
102
RTVSPost2010PropOp29
 70
     1
102
RTVSPost2010Prop30
280
     1
102
RTVSPost2010PropOp30
 70
     1
102
RTVSPost2010Prop31
280
     0
102
RTVSPost2010PropOp31
 70
     1
102
RTVSPost2010Prop32
280
     0
102
RTVSPost2010PropOp32
 70
     1
102
RTVSPost2010Prop33
280
     0
102
RTVSPost2010PropOp33
 70
     1
102
RTVSPost2010Prop34
280
     0
102
RTVSPost2010PropOp34
 70
     1
102
RTVSPost2010Prop35
280
     0
102
RTVSPost2010PropOp35
 70
     1
102
RTVSPost2010Prop36
280
     0
102
RTVSPost2010PropOp36
 70
     1
102
RTVSPost2010Prop37
 90
       50
102
RTVSPost2010PropOp37
 70
     0
102
RTVSPost2010Prop38
140
0.0
102
RTVSPost2010PropOp38
 70
     0
102
RTVSPost2010Prop39
140
1.0
102
RTVSPost2010PropOp39
 70
     0
102
RTVSPost2010Prop40
 90
        0
102
RTVSPost2010PropOp40
 70
     0
102
RTVSPost2010Prop41ColorIndex
 90
       18
102
RTVSPost2010Prop41ColorRGB
 90
        0
102
RTVSPost2010PropOp41
 70
     0
102
RTVSPost2010Prop42
 90
       50
102
RTVSPost2010PropOp42
 70
     0
102
RTVSPost2010Prop43
 90
        3
102
RTVSPost2010PropOp43
 70
     0
102
RTVSPost2010Prop44ColorIndex
 90
        5
102
RTVSPost2010Prop44ColorRGB
 90
      255
102
RTVSPost2010PropOp44
 70
     0
102
RTVSPost2010Prop45
280
     0
102
RTVSPost2010PropOp45
 70
     1
102
RTVSPost2010Prop46
 90
       50
102
RTVSPost2010PropOp46
 70
     0
102
RTVSPost2010Prop47
 90
       50
102
RTVSPost2010PropOp47
 70
     0
102
RTVSPost2010Prop48
 90
       50
102
RTVSPost2010PropOp48
 70
     0
102
RTVSPost2010Prop49
280
     0
102
RTVSPost2010PropOp49
 70
     1
102
RTVSPost2010Prop50
 90
       50
102
RTVSPost2010PropOp50
 70
     0
102
RTVSPost2010Prop51ColorIndex
 90
      256
102
RTVSPost2010Prop51ColorRGB
 90
-16777216
102
RTVSPost2010PropOp51
 70
     0
102
RTVSPost2010Prop52
140
1.0
102
RTVSPost2010PropOp52
 70
     0
102
RTVSPost2010Prop53
 90
        2
102
RTVSPost2010PropOp53
 70
     0
102
RTVSPost2010Prop54
  1
strokes_ogs.tif
102
RTVSPost2010PropOp54
 70
     0
102
RTVSPost2010Prop55
280
     0
102
RTVSPost2010PropOp55
 70
     1
102
RTVSPost2010Prop56
140
1.0
102
RTVSPost2010PropOp56
 70
     0
102
RTVSPost2010Prop57
140
1.0
102
RTVSPost2010PropOp57
 70
     0
102
RTVSPropertyOp0
 70
     0
102
RTVSPropertyOp1
 70
     0
102
RTVSPropertyOp2
 70
     0
102
RTVSPropertyOp3
 70
     0
102
RTVSPropertyOp4
 70
     0
102
RTVSPropertyOp5
 70
     0
102
RTVSPropertyOp6
 70
     0
102
RTVSPropertyOp7
 70
     0
102
RTVSPropertyOp8
 70
     0
102
RTVSPropertyOp9
 70
     0
102
RTVSPropertyOp10
 70
     0
102
RTVSPropertyOp11
 70
     0
102
RTVSPropertyOp12
 70
     0
102
RTVSPropertyOp13
 70
     0
102
RTVSPropertyOp14
 70
     2
102
RTVSPropertyOp15
 70
     0
102
RTVSPropertyOp16
 70
     0
102
RTVSPropertyOp17
 70
     0
102
RTVSPropertyOp18
 70
     0
102
RTVSPropertyOp19
 70
     0
102
RTVSPropertyOp20
 70
     0
102
RTVSPropertyOp21
 70
     0
102
RTVSPropertyOp22
 70
     0
102
RTVSPropertyOp23
 70
     0
102
RTVSPropertyOp24
 70
     0
102
RTVSPropertyOp25
 70
     0
102
RTVSPropertyOp26
 70
     0
102
RTVSPropertyOp27
 70
     0
102
RTVSPropertyOp28
 70
     1
102
RTVSPropertyOp29
 70
     1
102
RTVSPropertyOp30
 70
     1
102
RTVSPropertyOp31
 70
     1
102
RTVSPropertyOp32
 70
     1
102
RTVSPropertyOp33
 70
     1
102
RTVSPropertyOp34
 70
     1
102
RTVSPropertyOp35
 70
     1
102
RTVSPropertyOp36
 70
     1
102
RTVSPropertyOp37
 70
     0
102
RTVSPropertyOp38
 70
     0
102
RTVSPropertyOp39
 70
     0
102
RTVSPropertyOp40
 70
     0
102
RTVSPropertyOp41
 70
     0
102
RTVSPropertyOp42
 70
     0
102
RTVSPropertyOp43
 70
     0
102
RTVSPropertyOp44
 70
     0
102
RTVSPropertyOp45
 70
     1
102
RTVSPropertyOp46
 70
     0
102
RTVSPropertyOp47
 70
     0
102
RTVSPropertyOp48
 70
     0
102
RTVSPropertyOp49
 70
     1
102
RTVSPropertyOp50
 70
     0
102
RTVSPropertyOp51
 70
     0
102
RTVSPropertyOp52
 70
     0
102
RTVSPropertyOp53
 70
     0
102
RTVSPropertyOp54
 70
     0
102
RTVSPropertyOp55
 70
     1
102
RTVSPropertyOp56
 70
     0
102
RTVSPropertyOp57
 70
     0
102
RTVSPropertyOp58
 70
     0
102
RTVSPropertyOp59
 70
     0
102
RTVSPropertyOp60
 70
     0
102
RTVSPropertyOp61
 70
     0
102
RTVSPropertyOp62
 70
     0
  0
XRECORD
  5
988F
102
{ACAD_REACTORS
330
988E
102
}
330
988E
100
AcDbXrecord
280
     1
102
RTVSPost2010Prop28
280
     0
102
RTVSPost2010PropOp28
 70
     1
102
RTVSPost2010Prop29
280
     1
102
RTVSPost2010PropOp29
 70
     1
102
RTVSPost2010Prop30
280
     1
102
RTVSPost2010PropOp30
 70
     1
102
RTVSPost2010Prop31
280
     0
102
RTVSPost2010PropOp31
 70
     1
102
RTVSPost2010Prop32
280
     0
102
RTVSPost2010PropOp32
 70
     1
102
RTVSPost2010Prop33
280
     0
102
RTVSPost2010PropOp33
 70
     1
102
RTVSPost2010Prop34
280
     0
102
RTVSPost2010PropOp34
 70
     1
102
RTVSPost2010Prop35
280
     0
102
RTVSPost2010PropOp35
 70
     1
102
RTVSPost2010Prop36
280
     0
102
RTVSPost2010PropOp36
 70
     1
102
RTVSPost2010Prop37
 90
       50
102
RTVSPost2010PropOp37
 70
     1
102
RTVSPost2010Prop38
140
0.0
102
RTVSPost2010PropOp38
 70
     1
102
RTVSPost2010Prop39
140
1.0
102
RTVSPost2010PropOp39
 70
     1
102
RTVSPost2010Prop40
 90
        0
102
RTVSPost2010PropOp40
 70
     1
102
RTVSPost2010Prop41ColorIndex
 90
       18
102
RTVSPost2010Prop41ColorRGB
 90
        0
102
RTVSPost2010PropOp41
 70
     1
102
RTVSPost2010Prop42
 90
       50
102
RTVSPost2010PropOp42
 70
     1
102
RTVSPost2010Prop43
 90
        3
102
RTVSPost2010PropOp43
 70
     1
102
RTVSPost2010Prop44ColorIndex
 90
        5
102
RTVSPost2010Prop44ColorRGB
 90
      255
102
RTVSPost2010PropOp44
 70
     1
102
RTVSPost2010Prop45
280
     0
102
RTVSPost2010PropOp45
 70
     1
102
RTVSPost2010Prop46
 90
       50
102
RTVSPost2010PropOp46
 70
     1
102
RTVSPost2010Prop47
 90
       50
102
RTVSPost2010PropOp47
 70
     1
102
RTVSPost2010Prop48
 90
       50
102
RTVSPost2010PropOp48
 70
     1
102
RTVSPost2010Prop49
280
     0
102
RTVSPost2010PropOp49
 70
     1
102
RTVSPost2010Prop50
 90
       50
102
RTVSPost2010PropOp50
 70
     1
102
RTVSPost2010Prop51ColorIndex
 90
      256
102
RTVSPost2010Prop51ColorRGB
 90
-16777216
102
RTVSPost2010PropOp51
 70
     0
102
RTVSPost2010Prop52
140
1.0
102
RTVSPost2010PropOp52
 70
     0
102
RTVSPost2010Prop53
 90
        2
102
RTVSPost2010PropOp53
 70
     1
102
RTVSPost2010Prop54
  1
strokes_ogs.tif
102
RTVSPost2010PropOp54
 70
     1
102
RTVSPost2010Prop55
280
     0
102
RTVSPost2010PropOp55
 70
     1
102
RTVSPost2010Prop56
140
1.0
102
RTVSPost2010PropOp56
 70
     1
102
RTVSPost2010Prop57
140
1.0
102
RTVSPost2010PropOp57
 70
     1
102
RTVSPropertyOp0
 70
     1
102
RTVSPropertyOp1
 70
     1
102
RTVSPropertyOp2
 70
     1
102
RTVSPropertyOp3
 70
     1
102
RTVSPropertyOp4
 70
     1
102
RTVSPropertyOp5
 70
     1
102
RTVSPropertyOp6
 70
     1
102
RTVSPropertyOp7
 70
     1
102
RTVSPropertyOp8
 70
     1
102
RTVSPropertyOp9
 70
     1
102
RTVSPropertyOp10
 70
     1
102
RTVSPropertyOp11
 70
     1
102
RTVSPropertyOp12
 70
     1
102
RTVSPropertyOp13
 70
     1
102
RTVSPropertyOp14
 70
     1
102
RTVSPropertyOp15
 70
     1
102
RTVSPropertyOp16
 70
     1
102
RTVSPropertyOp17
 70
     1
102
RTVSPropertyOp18
 70
     1
102
RTVSPropertyOp19
 70
     1
102
RTVSPropertyOp20
 70
     1
102
RTVSPropertyOp21
 70
     1
102
RTVSPropertyOp22
 70
     1
102
RTVSPropertyOp23
 70
     1
102
RTVSPropertyOp24
 70
     1
102
RTVSPropertyOp25
 70
     1
102
RTVSPropertyOp26
 70
     1
102
RTVSPropertyOp27
 70
     1
102
RTVSPropertyOp28
 70
     1
102
RTVSPropertyOp29
 70
     1
102
RTVSPropertyOp30
 70
     1
102
RTVSPropertyOp31
 70
     1
102
RTVSPropertyOp32
 70
     1
102
RTVSPropertyOp33
 70
     1
102
RTVSPropertyOp34
 70
     1
102
RTVSPropertyOp35
 70
     1
102
RTVSPropertyOp36
 70
     1
102
RTVSPropertyOp37
 70
     1
102
RTVSPropertyOp38
 70
     1
102
RTVSPropertyOp39
 70
     1
102
RTVSPropertyOp40
 70
     1
102
RTVSPropertyOp41
 70
     1
102
RTVSPropertyOp42
 70
     1
102
RTVSPropertyOp43
 70
     1
102
RTVSPropertyOp44
 70
     1
102
RTVSPropertyOp45
 70
     1
102
RTVSPropertyOp46
 70
     1
102
RTVSPropertyOp47
 70
     1
102
RTVSPropertyOp48
 70
     1
102
RTVSPropertyOp49
 70
     1
102
RTVSPropertyOp50
 70
     1
102
RTVSPropertyOp51
 70
     0
102
RTVSPropertyOp52
 70
     0
102
RTVSPropertyOp53
 70
     1
102
RTVSPropertyOp54
 70
     1
102
RTVSPropertyOp55
 70
     1
102
RTVSPropertyOp56
 70
     1
102
RTVSPropertyOp57
 70
     1
102
RTVSPropertyOp58
 70
     1
102
RTVSPropertyOp59
 70
     1
102
RTVSPropertyOp60
 70
     1
102
RTVSPropertyOp61
 70
     1
102
RTVSPropertyOp62
 70
     1
  0
XRECORD
  5
98A5
102
{ACAD_REACTORS
330
98A4
102
}
330
98A4
100
AcDbXrecord
280
     1
102
RTVSPost2010Prop28
280
     0
102
RTVSPost2010PropOp28
 70
     1
102
RTVSPost2010Prop29
280
     1
102
RTVSPost2010PropOp29
 70
     1
102
RTVSPost2010Prop30
280
     1
102
RTVSPost2010PropOp30
 70
     1
102
RTVSPost2010Prop31
280
     0
102
RTVSPost2010PropOp31
 70
     1
102
RTVSPost2010Prop32
280
     0
102
RTVSPost2010PropOp32
 70
     1
102
RTVSPost2010Prop33
280
     0
102
RTVSPost2010PropOp33
 70
     1
102
RTVSPost2010Prop34
280
     0
102
RTVSPost2010PropOp34
 70
     1
102
RTVSPost2010Prop35
280
     0
102
RTVSPost2010PropOp35
 70
     1
102
RTVSPost2010Prop36
280
     0
102
RTVSPost2010PropOp36
 70
     1
102
RTVSPost2010Prop37
 90
       50
102
RTVSPost2010PropOp37
 70
     1
102
RTVSPost2010Prop38
140
0.0
102
RTVSPost2010PropOp38
 70
     1
102
RTVSPost2010Prop39
140
1.0
102
RTVSPost2010PropOp39
 70
     1
102
RTVSPost2010Prop40
 90
        0
102
RTVSPost2010PropOp40
 70
     1
102
RTVSPost2010Prop41ColorIndex
 90
       18
102
RTVSPost2010Prop41ColorRGB
 90
        0
102
RTVSPost2010PropOp41
 70
     1
102
RTVSPost2010Prop42
 90
       50
102
RTVSPost2010PropOp42
 70
     1
102
RTVSPost2010Prop43
 90
        3
102
RTVSPost2010PropOp43
 70
     1
102
RTVSPost2010Prop44ColorIndex
 90
        5
102
RTVSPost2010Prop44ColorRGB
 90
      255
102
RTVSPost2010PropOp44
 70
     1
102
RTVSPost2010Prop45
280
     0
102
RTVSPost2010PropOp45
 70
     1
102
RTVSPost2010Prop46
 90
       50
102
RTVSPost2010PropOp46
 70
     1
102
RTVSPost2010Prop47
 90
       50
102
RTVSPost2010PropOp47
 70
     1
102
RTVSPost2010Prop48
 90
       50
102
RTVSPost2010PropOp48
 70
     1
102
RTVSPost2010Prop49
280
     0
102
RTVSPost2010PropOp49
 70
     1
102
RTVSPost2010Prop50
 90
       50
102
RTVSPost2010PropOp50
 70
     1
102
RTVSPost2010Prop51ColorIndex
 90
      256
102
RTVSPost2010Prop51ColorRGB
 90
-16777216
102
RTVSPost2010PropOp51
 70
     0
102
RTVSPost2010Prop52
140
1.0
102
RTVSPost2010PropOp52
 70
     0
102
RTVSPost2010Prop53
 90
        2
102
RTVSPost2010PropOp53
 70
     1
102
RTVSPost2010Prop54
  1
strokes_ogs.tif
102
RTVSPost2010PropOp54
 70
     1
102
RTVSPost2010Prop55
280
     0
102
RTVSPost2010PropOp55
 70
     1
102
RTVSPost2010Prop56
140
1.0
102
RTVSPost2010PropOp56
 70
     1
102
RTVSPost2010Prop57
140
1.0
102
RTVSPost2010PropOp57
 70
     1
102
RTVSPropertyOp0
 70
     1
102
RTVSPropertyOp1
 70
     1
102
RTVSPropertyOp2
 70
     1
102
RTVSPropertyOp3
 70
     1
102
RTVSPropertyOp4
 70
     1
102
RTVSPropertyOp5
 70
     1
102
RTVSPropertyOp6
 70
     1
102
RTVSPropertyOp7
 70
     1
102
RTVSPropertyOp8
 70
     1
102
RTVSPropertyOp9
 70
     1
102
RTVSPropertyOp10
 70
     1
102
RTVSPropertyOp11
 70
     1
102
RTVSPropertyOp12
 70
     1
102
RTVSPropertyOp13
 70
     1
102
RTVSPropertyOp14
 70
     1
102
RTVSPropertyOp15
 70
     1
102
RTVSPropertyOp16
 70
     1
102
RTVSPropertyOp17
 70
     1
102
RTVSPropertyOp18
 70
     1
102
RTVSPropertyOp19
 70
     1
102
RTVSPropertyOp20
 70
     1
102
RTVSPropertyOp21
 70
     1
102
RTVSPropertyOp22
 70
     1
102
RTVSPropertyOp23
 70
     1
102
RTVSPropertyOp24
 70
     1
102
RTVSPropertyOp25
 70
     1
102
RTVSPropertyOp26
 70
     1
102
RTVSPropertyOp27
 70
     1
102
RTVSPropertyOp28
 70
     1
102
RTVSPropertyOp29
 70
     1
102
RTVSPropertyOp30
 70
     1
102
RTVSPropertyOp31
 70
     1
102
RTVSPropertyOp32
 70
     1
102
RTVSPropertyOp33
 70
     1
102
RTVSPropertyOp34
 70
     1
102
RTVSPropertyOp35
 70
     1
102
RTVSPropertyOp36
 70
     1
102
RTVSPropertyOp37
 70
     1
102
RTVSPropertyOp38
 70
     1
102
RTVSPropertyOp39
 70
     1
102
RTVSPropertyOp40
 70
     1
102
RTVSPropertyOp41
 70
     1
102
RTVSPropertyOp42
 70
     1
102
RTVSPropertyOp43
 70
     1
102
RTVSPropertyOp44
 70
     1
102
RTVSPropertyOp45
 70
     1
102
RTVSPropertyOp46
 70
     1
102
RTVSPropertyOp47
 70
     1
102
RTVSPropertyOp48
 70
     1
102
RTVSPropertyOp49
 70
     1
102
RTVSPropertyOp50
 70
     1
102
RTVSPropertyOp51
 70
     0
102
RTVSPropertyOp52
 70
     0
102
RTVSPropertyOp53
 70
     1
102
RTVSPropertyOp54
 70
     1
102
RTVSPropertyOp55
 70
     1
102
RTVSPropertyOp56
 70
     1
102
RTVSPropertyOp57
 70
     1
102
RTVSPropertyOp58
 70
     1
102
RTVSPropertyOp59
 70
     1
102
RTVSPropertyOp60
 70
     1
102
RTVSPropertyOp61
 70
     1
102
RTVSPropertyOp62
 70
     1
  0
XRECORD
  5
98A3
102
{ACAD_REACTORS
330
98A2
102
}
330
98A2
100
AcDbXrecord
280
     1
102
RTVSPost2010Prop28
280
     0
102
RTVSPost2010PropOp28
 70
     1
102
RTVSPost2010Prop29
280
     1
102
RTVSPost2010PropOp29
 70
     1
102
RTVSPost2010Prop30
280
     1
102
RTVSPost2010PropOp30
 70
     1
102
RTVSPost2010Prop31
280
     0
102
RTVSPost2010PropOp31
 70
     1
102
RTVSPost2010Prop32
280
     0
102
RTVSPost2010PropOp32
 70
     1
102
RTVSPost2010Prop33
280
     0
102
RTVSPost2010PropOp33
 70
     1
102
RTVSPost2010Prop34
280
     0
102
RTVSPost2010PropOp34
 70
     1
102
RTVSPost2010Prop35
280
     0
102
RTVSPost2010PropOp35
 70
     1
102
RTVSPost2010Prop36
280
     0
102
RTVSPost2010PropOp36
 70
     1
102
RTVSPost2010Prop37
 90
       50
102
RTVSPost2010PropOp37
 70
     1
102
RTVSPost2010Prop38
140
0.0
102
RTVSPost2010PropOp38
 70
     1
102
RTVSPost2010Prop39
140
1.0
102
RTVSPost2010PropOp39
 70
     1
102
RTVSPost2010Prop40
 90
        0
102
RTVSPost2010PropOp40
 70
     1
102
RTVSPost2010Prop41ColorIndex
 90
       18
102
RTVSPost2010Prop41ColorRGB
 90
        0
102
RTVSPost2010PropOp41
 70
     1
102
RTVSPost2010Prop42
 90
       50
102
RTVSPost2010PropOp42
 70
     1
102
RTVSPost2010Prop43
 90
        3
102
RTVSPost2010PropOp43
 70
     1
102
RTVSPost2010Prop44ColorIndex
 90
        5
102
RTVSPost2010Prop44ColorRGB
 90
      255
102
RTVSPost2010PropOp44
 70
     1
102
RTVSPost2010Prop45
280
     0
102
RTVSPost2010PropOp45
 70
     1
102
RTVSPost2010Prop46
 90
       50
102
RTVSPost2010PropOp46
 70
     1
102
RTVSPost2010Prop47
 90
       50
102
RTVSPost2010PropOp47
 70
     1
102
RTVSPost2010Prop48
 90
       50
102
RTVSPost2010PropOp48
 70
     1
102
RTVSPost2010Prop49
280
     0
102
RTVSPost2010PropOp49
 70
     1
102
RTVSPost2010Prop50
 90
       50
102
RTVSPost2010PropOp50
 70
     1
102
RTVSPost2010Prop51ColorIndex
 90
      256
102
RTVSPost2010Prop51ColorRGB
 90
-16777216
102
RTVSPost2010PropOp51
 70
     0
102
RTVSPost2010Prop52
140
1.0
102
RTVSPost2010PropOp52
 70
     0
102
RTVSPost2010Prop53
 90
        2
102
RTVSPost2010PropOp53
 70
     1
102
RTVSPost2010Prop54
  1
strokes_ogs.tif
102
RTVSPost2010PropOp54
 70
     1
102
RTVSPost2010Prop55
280
     0
102
RTVSPost2010PropOp55
 70
     1
102
RTVSPost2010Prop56
140
1.0
102
RTVSPost2010PropOp56
 70
     1
102
RTVSPost2010Prop57
140
1.0
102
RTVSPost2010PropOp57
 70
     1
102
RTVSPropertyOp0
 70
     1
102
RTVSPropertyOp1
 70
     1
102
RTVSPropertyOp2
 70
     1
102
RTVSPropertyOp3
 70
     1
102
RTVSPropertyOp4
 70
     1
102
RTVSPropertyOp5
 70
     1
102
RTVSPropertyOp6
 70
     1
102
RTVSPropertyOp7
 70
     1
102
RTVSPropertyOp8
 70
     1
102
RTVSPropertyOp9
 70
     1
102
RTVSPropertyOp10
 70
     1
102
RTVSPropertyOp11
 70
     1
102
RTVSPropertyOp12
 70
     1
102
RTVSPropertyOp13
 70
     1
102
RTVSPropertyOp14
 70
     1
102
RTVSPropertyOp15
 70
     1
102
RTVSPropertyOp16
 70
     1
102
RTVSPropertyOp17
 70
     1
102
RTVSPropertyOp18
 70
     1
102
RTVSPropertyOp19
 70
     1
102
RTVSPropertyOp20
 70
     1
102
RTVSPropertyOp21
 70
     1
102
RTVSPropertyOp22
 70
     1
102
RTVSPropertyOp23
 70
     1
102
RTVSPropertyOp24
 70
     1
102
RTVSPropertyOp25
 70
     1
102
RTVSPropertyOp26
 70
     1
102
RTVSPropertyOp27
 70
     1
102
RTVSPropertyOp28
 70
     1
102
RTVSPropertyOp29
 70
     1
102
RTVSPropertyOp30
 70
     1
102
RTVSPropertyOp31
 70
     1
102
RTVSPropertyOp32
 70
     1
102
RTVSPropertyOp33
 70
     1
102
RTVSPropertyOp34
 70
     1
102
RTVSPropertyOp35
 70
     1
102
RTVSPropertyOp36
 70
     1
102
RTVSPropertyOp37
 70
     1
102
RTVSPropertyOp38
 70
     1
102
RTVSPropertyOp39
 70
     1
102
RTVSPropertyOp40
 70
     1
102
RTVSPropertyOp41
 70
     1
102
RTVSPropertyOp42
 70
     1
102
RTVSPropertyOp43
 70
     1
102
RTVSPropertyOp44
 70
     1
102
RTVSPropertyOp45
 70
     1
102
RTVSPropertyOp46
 70
     1
102
RTVSPropertyOp47
 70
     1
102
RTVSPropertyOp48
 70
     1
102
RTVSPropertyOp49
 70
     1
102
RTVSPropertyOp50
 70
     1
102
RTVSPropertyOp51
 70
     0
102
RTVSPropertyOp52
 70
     0
102
RTVSPropertyOp53
 70
     1
102
RTVSPropertyOp54
 70
     1
102
RTVSPropertyOp55
 70
     1
102
RTVSPropertyOp56
 70
     1
102
RTVSPropertyOp57
 70
     1
102
RTVSPropertyOp58
 70
     1
102
RTVSPropertyOp59
 70
     1
102
RTVSPropertyOp60
 70
     1
102
RTVSPropertyOp61
 70
     1
102
RTVSPropertyOp62
 70
     1
  0
XRECORD
  5
989D
102
{ACAD_REACTORS
330
989C
102
}
330
989C
100
AcDbXrecord
280
     1
102
RTVSPost2010Prop28
280
     0
102
RTVSPost2010PropOp28
 70
     1
102
RTVSPost2010Prop29
280
     1
102
RTVSPost2010PropOp29
 70
     1
102
RTVSPost2010Prop30
280
     1
102
RTVSPost2010PropOp30
 70
     1
102
RTVSPost2010Prop31
280
     0
102
RTVSPost2010PropOp31
 70
     1
102
RTVSPost2010Prop32
280
     0
102
RTVSPost2010PropOp32
 70
     1
102
RTVSPost2010Prop33
280
     0
102
RTVSPost2010PropOp33
 70
     1
102
RTVSPost2010Prop34
280
     0
102
RTVSPost2010PropOp34
 70
     1
102
RTVSPost2010Prop35
280
     0
102
RTVSPost2010PropOp35
 70
     1
102
RTVSPost2010Prop36
280
     0
102
RTVSPost2010PropOp36
 70
     1
102
RTVSPost2010Prop37
 90
       50
102
RTVSPost2010PropOp37
 70
     1
102
RTVSPost2010Prop38
140
0.0
102
RTVSPost2010PropOp38
 70
     1
102
RTVSPost2010Prop39
140
1.0
102
RTVSPost2010PropOp39
 70
     1
102
RTVSPost2010Prop40
 90
        0
102
RTVSPost2010PropOp40
 70
     1
102
RTVSPost2010Prop41ColorIndex
 90
       18
102
RTVSPost2010Prop41ColorRGB
 90
        0
102
RTVSPost2010PropOp41
 70
     1
102
RTVSPost2010Prop42
 90
       50
102
RTVSPost2010PropOp42
 70
     1
102
RTVSPost2010Prop43
 90
        3
102
RTVSPost2010PropOp43
 70
     1
102
RTVSPost2010Prop44ColorIndex
 90
        5
102
RTVSPost2010Prop44ColorRGB
 90
      255
102
RTVSPost2010PropOp44
 70
     1
102
RTVSPost2010Prop45
280
     0
102
RTVSPost2010PropOp45
 70
     1
102
RTVSPost2010Prop46
 90
       50
102
RTVSPost2010PropOp46
 70
     1
102
RTVSPost2010Prop47
 90
       50
102
RTVSPost2010PropOp47
 70
     1
102
RTVSPost2010Prop48
 90
       50
102
RTVSPost2010PropOp48
 70
     1
102
RTVSPost2010Prop49
280
     0
102
RTVSPost2010PropOp49
 70
     1
102
RTVSPost2010Prop50
 90
       50
102
RTVSPost2010PropOp50
 70
     1
102
RTVSPost2010Prop51ColorIndex
 90
      256
102
RTVSPost2010Prop51ColorRGB
 90
-16777216
102
RTVSPost2010PropOp51
 70
     0
102
RTVSPost2010Prop52
140
1.0
102
RTVSPost2010PropOp52
 70
     0
102
RTVSPost2010Prop53
 90
        2
102
RTVSPost2010PropOp53
 70
     1
102
RTVSPost2010Prop54
  1
strokes_ogs.tif
102
RTVSPost2010PropOp54
 70
     1
102
RTVSPost2010Prop55
280
     0
102
RTVSPost2010PropOp55
 70
     1
102
RTVSPost2010Prop56
140
1.0
102
RTVSPost2010PropOp56
 70
     1
102
RTVSPost2010Prop57
140
1.0
102
RTVSPost2010PropOp57
 70
     1
102
RTVSPropertyOp0
 70
     1
102
RTVSPropertyOp1
 70
     1
102
RTVSPropertyOp2
 70
     1
102
RTVSPropertyOp3
 70
     1
102
RTVSPropertyOp4
 70
     1
102
RTVSPropertyOp5
 70
     1
102
RTVSPropertyOp6
 70
     1
102
RTVSPropertyOp7
 70
     1
102
RTVSPropertyOp8
 70
     1
102
RTVSPropertyOp9
 70
     1
102
RTVSPropertyOp10
 70
     1
102
RTVSPropertyOp11
 70
     1
102
RTVSPropertyOp12
 70
     1
102
RTVSPropertyOp13
 70
     1
102
RTVSPropertyOp14
 70
     1
102
RTVSPropertyOp15
 70
     1
102
RTVSPropertyOp16
 70
     1
102
RTVSPropertyOp17
 70
     1
102
RTVSPropertyOp18
 70
     1
102
RTVSPropertyOp19
 70
     1
102
RTVSPropertyOp20
 70
     1
102
RTVSPropertyOp21
 70
     1
102
RTVSPropertyOp22
 70
     1
102
RTVSPropertyOp23
 70
     1
102
RTVSPropertyOp24
 70
     1
102
RTVSPropertyOp25
 70
     1
102
RTVSPropertyOp26
 70
     1
102
RTVSPropertyOp27
 70
     1
102
RTVSPropertyOp28
 70
     1
102
RTVSPropertyOp29
 70
     1
102
RTVSPropertyOp30
 70
     1
102
RTVSPropertyOp31
 70
     1
102
RTVSPropertyOp32
 70
     1
102
RTVSPropertyOp33
 70
     1
102
RTVSPropertyOp34
 70
     1
102
RTVSPropertyOp35
 70
     1
102
RTVSPropertyOp36
 70
     1
102
RTVSPropertyOp37
 70
     1
102
RTVSPropertyOp38
 70
     1
102
RTVSPropertyOp39
 70
     1
102
RTVSPropertyOp40
 70
     1
102
RTVSPropertyOp41
 70
     1
102
RTVSPropertyOp42
 70
     1
102
RTVSPropertyOp43
 70
     1
102
RTVSPropertyOp44
 70
     1
102
RTVSPropertyOp45
 70
     1
102
RTVSPropertyOp46
 70
     1
102
RTVSPropertyOp47
 70
     1
102
RTVSPropertyOp48
 70
     1
102
RTVSPropertyOp49
 70
     1
102
RTVSPropertyOp50
 70
     1
102
RTVSPropertyOp51
 70
     0
102
RTVSPropertyOp52
 70
     0
102
RTVSPropertyOp53
 70
     1
102
RTVSPropertyOp54
 70
     1
102
RTVSPropertyOp55
 70
     1
102
RTVSPropertyOp56
 70
     1
102
RTVSPropertyOp57
 70
     1
102
RTVSPropertyOp58
 70
     1
102
RTVSPropertyOp59
 70
     1
102
RTVSPropertyOp60
 70
     1
102
RTVSPropertyOp61
 70
     1
102
RTVSPropertyOp62
 70
     1
  0
XRECORD
  5
989F
102
{ACAD_REACTORS
330
989E
102
}
330
989E
100
AcDbXrecord
280
     1
102
RTVSPost2010Prop28
280
     0
102
RTVSPost2010PropOp28
 70
     1
102
RTVSPost2010Prop29
280
     1
102
RTVSPost2010PropOp29
 70
     1
102
RTVSPost2010Prop30
280
     1
102
RTVSPost2010PropOp30
 70
     1
102
RTVSPost2010Prop31
280
     0
102
RTVSPost2010PropOp31
 70
     1
102
RTVSPost2010Prop32
280
     0
102
RTVSPost2010PropOp32
 70
     1
102
RTVSPost2010Prop33
280
     0
102
RTVSPost2010PropOp33
 70
     1
102
RTVSPost2010Prop34
280
     0
102
RTVSPost2010PropOp34
 70
     1
102
RTVSPost2010Prop35
280
     0
102
RTVSPost2010PropOp35
 70
     1
102
RTVSPost2010Prop36
280
     0
102
RTVSPost2010PropOp36
 70
     1
102
RTVSPost2010Prop37
 90
       50
102
RTVSPost2010PropOp37
 70
     1
102
RTVSPost2010Prop38
140
0.0
102
RTVSPost2010PropOp38
 70
     1
102
RTVSPost2010Prop39
140
1.0
102
RTVSPost2010PropOp39
 70
     1
102
RTVSPost2010Prop40
 90
        0
102
RTVSPost2010PropOp40
 70
     1
102
RTVSPost2010Prop41ColorIndex
 90
       18
102
RTVSPost2010Prop41ColorRGB
 90
        0
102
RTVSPost2010PropOp41
 70
     1
102
RTVSPost2010Prop42
 90
       50
102
RTVSPost2010PropOp42
 70
     1
102
RTVSPost2010Prop43
 90
        3
102
RTVSPost2010PropOp43
 70
     1
102
RTVSPost2010Prop44ColorIndex
 90
        5
102
RTVSPost2010Prop44ColorRGB
 90
      255
102
RTVSPost2010PropOp44
 70
     1
102
RTVSPost2010Prop45
280
     0
102
RTVSPost2010PropOp45
 70
     1
102
RTVSPost2010Prop46
 90
       50
102
RTVSPost2010PropOp46
 70
     1
102
RTVSPost2010Prop47
 90
       50
102
RTVSPost2010PropOp47
 70
     1
102
RTVSPost2010Prop48
 90
       50
102
RTVSPost2010PropOp48
 70
     1
102
RTVSPost2010Prop49
280
     0
102
RTVSPost2010PropOp49
 70
     1
102
RTVSPost2010Prop50
 90
       50
102
RTVSPost2010PropOp50
 70
     1
102
RTVSPost2010Prop51ColorIndex
 90
      256
102
RTVSPost2010Prop51ColorRGB
 90
-16777216
102
RTVSPost2010PropOp51
 70
     0
102
RTVSPost2010Prop52
140
1.0
102
RTVSPost2010PropOp52
 70
     0
102
RTVSPost2010Prop53
 90
        2
102
RTVSPost2010PropOp53
 70
     1
102
RTVSPost2010Prop54
  1
strokes_ogs.tif
102
RTVSPost2010PropOp54
 70
     1
102
RTVSPost2010Prop55
280
     0
102
RTVSPost2010PropOp55
 70
     1
102
RTVSPost2010Prop56
140
1.0
102
RTVSPost2010PropOp56
 70
     1
102
RTVSPost2010Prop57
140
1.0
102
RTVSPost2010PropOp57
 70
     1
102
RTVSPropertyOp0
 70
     1
102
RTVSPropertyOp1
 70
     1
102
RTVSPropertyOp2
 70
     1
102
RTVSPropertyOp3
 70
     1
102
RTVSPropertyOp4
 70
     1
102
RTVSPropertyOp5
 70
     1
102
RTVSPropertyOp6
 70
     1
102
RTVSPropertyOp7
 70
     1
102
RTVSPropertyOp8
 70
     1
102
RTVSPropertyOp9
 70
     1
102
RTVSPropertyOp10
 70
     1
102
RTVSPropertyOp11
 70
     1
102
RTVSPropertyOp12
 70
     1
102
RTVSPropertyOp13
 70
     1
102
RTVSPropertyOp14
 70
     1
102
RTVSPropertyOp15
 70
     1
102
RTVSPropertyOp16
 70
     1
102
RTVSPropertyOp17
 70
     1
102
RTVSPropertyOp18
 70
     1
102
RTVSPropertyOp19
 70
     1
102
RTVSPropertyOp20
 70
     1
102
RTVSPropertyOp21
 70
     1
102
RTVSPropertyOp22
 70
     1
102
RTVSPropertyOp23
 70
     1
102
RTVSPropertyOp24
 70
     1
102
RTVSPropertyOp25
 70
     1
102
RTVSPropertyOp26
 70
     1
102
RTVSPropertyOp27
 70
     1
102
RTVSPropertyOp28
 70
     1
102
RTVSPropertyOp29
 70
     1
102
RTVSPropertyOp30
 70
     1
102
RTVSPropertyOp31
 70
     1
102
RTVSPropertyOp32
 70
     1
102
RTVSPropertyOp33
 70
     1
102
RTVSPropertyOp34
 70
     1
102
RTVSPropertyOp35
 70
     1
102
RTVSPropertyOp36
 70
     1
102
RTVSPropertyOp37
 70
     1
102
RTVSPropertyOp38
 70
     1
102
RTVSPropertyOp39
 70
     1
102
RTVSPropertyOp40
 70
     1
102
RTVSPropertyOp41
 70
     1
102
RTVSPropertyOp42
 70
     1
102
RTVSPropertyOp43
 70
     1
102
RTVSPropertyOp44
 70
     1
102
RTVSPropertyOp45
 70
     1
102
RTVSPropertyOp46
 70
     1
102
RTVSPropertyOp47
 70
     1
102
RTVSPropertyOp48
 70
     1
102
RTVSPropertyOp49
 70
     1
102
RTVSPropertyOp50
 70
     1
102
RTVSPropertyOp51
 70
     0
102
RTVSPropertyOp52
 70
     0
102
RTVSPropertyOp53
 70
     1
102
RTVSPropertyOp54
 70
     1
102
RTVSPropertyOp55
 70
     1
102
RTVSPropertyOp56
 70
     1
102
RTVSPropertyOp57
 70
     1
102
RTVSPropertyOp58
 70
     1
102
RTVSPropertyOp59
 70
     1
102
RTVSPropertyOp60
 70
     1
102
RTVSPropertyOp61
 70
     1
102
RTVSPropertyOp62
 70
     1
  0
XRECORD
  5
9895
102
{ACAD_REACTORS
330
9894
102
}
330
9894
100
AcDbXrecord
280
     1
102
RTVSPost2010Prop28
280
     0
102
RTVSPost2010PropOp28
 70
     1
102
RTVSPost2010Prop29
280
     1
102
RTVSPost2010PropOp29
 70
     1
102
RTVSPost2010Prop30
280
     1
102
RTVSPost2010PropOp30
 70
     1
102
RTVSPost2010Prop31
280
     0
102
RTVSPost2010PropOp31
 70
     1
102
RTVSPost2010Prop32
280
     0
102
RTVSPost2010PropOp32
 70
     1
102
RTVSPost2010Prop33
280
     0
102
RTVSPost2010PropOp33
 70
     1
102
RTVSPost2010Prop34
280
     0
102
RTVSPost2010PropOp34
 70
     1
102
RTVSPost2010Prop35
280
     0
102
RTVSPost2010PropOp35
 70
     1
102
RTVSPost2010Prop36
280
     0
102
RTVSPost2010PropOp36
 70
     1
102
RTVSPost2010Prop37
 90
       50
102
RTVSPost2010PropOp37
 70
     1
102
RTVSPost2010Prop38
140
0.0
102
RTVSPost2010PropOp38
 70
     1
102
RTVSPost2010Prop39
140
1.0
102
RTVSPost2010PropOp39
 70
     1
102
RTVSPost2010Prop40
 90
        0
102
RTVSPost2010PropOp40
 70
     1
102
RTVSPost2010Prop41ColorIndex
 90
       18
102
RTVSPost2010Prop41ColorRGB
 90
        0
102
RTVSPost2010PropOp41
 70
     1
102
RTVSPost2010Prop42
 90
       50
102
RTVSPost2010PropOp42
 70
     1
102
RTVSPost2010Prop43
 90
        3
102
RTVSPost2010PropOp43
 70
     1
102
RTVSPost2010Prop44ColorIndex
 90
        5
102
RTVSPost2010Prop44ColorRGB
 90
      255
102
RTVSPost2010PropOp44
 70
     1
102
RTVSPost2010Prop45
280
     0
102
RTVSPost2010PropOp45
 70
     1
102
RTVSPost2010Prop46
 90
       50
102
RTVSPost2010PropOp46
 70
     1
102
RTVSPost2010Prop47
 90
       50
102
RTVSPost2010PropOp47
 70
     1
102
RTVSPost2010Prop48
 90
       50
102
RTVSPost2010PropOp48
 70
     1
102
RTVSPost2010Prop49
280
     0
102
RTVSPost2010PropOp49
 70
     1
102
RTVSPost2010Prop50
 90
       50
102
RTVSPost2010PropOp50
 70
     1
102
RTVSPost2010Prop51ColorIndex
 90
      256
102
RTVSPost2010Prop51ColorRGB
 90
-16777216
102
RTVSPost2010PropOp51
 70
     0
102
RTVSPost2010Prop52
140
1.0
102
RTVSPost2010PropOp52
 70
     0
102
RTVSPost2010Prop53
 90
        2
102
RTVSPost2010PropOp53
 70
     1
102
RTVSPost2010Prop54
  1
strokes_ogs.tif
102
RTVSPost2010PropOp54
 70
     1
102
RTVSPost2010Prop55
280
     0
102
RTVSPost2010PropOp55
 70
     1
102
RTVSPost2010Prop56
140
1.0
102
RTVSPost2010PropOp56
 70
     1
102
RTVSPost2010Prop57
140
1.0
102
RTVSPost2010PropOp57
 70
     1
102
RTVSPropertyOp0
 70
     1
102
RTVSPropertyOp1
 70
     1
102
RTVSPropertyOp2
 70
     1
102
RTVSPropertyOp3
 70
     1
102
RTVSPropertyOp4
 70
     1
102
RTVSPropertyOp5
 70
     1
102
RTVSPropertyOp6
 70
     1
102
RTVSPropertyOp7
 70
     1
102
RTVSPropertyOp8
 70
     1
102
RTVSPropertyOp9
 70
     1
102
RTVSPropertyOp10
 70
     1
102
RTVSPropertyOp11
 70
     1
102
RTVSPropertyOp12
 70
     1
102
RTVSPropertyOp13
 70
     1
102
RTVSPropertyOp14
 70
     1
102
RTVSPropertyOp15
 70
     1
102
RTVSPropertyOp16
 70
     1
102
RTVSPropertyOp17
 70
     1
102
RTVSPropertyOp18
 70
     1
102
RTVSPropertyOp19
 70
     1
102
RTVSPropertyOp20
 70
     1
102
RTVSPropertyOp21
 70
     1
102
RTVSPropertyOp22
 70
     1
102
RTVSPropertyOp23
 70
     1
102
RTVSPropertyOp24
 70
     1
102
RTVSPropertyOp25
 70
     1
102
RTVSPropertyOp26
 70
     1
102
RTVSPropertyOp27
 70
     1
102
RTVSPropertyOp28
 70
     1
102
RTVSPropertyOp29
 70
     1
102
RTVSPropertyOp30
 70
     1
102
RTVSPropertyOp31
 70
     1
102
RTVSPropertyOp32
 70
     1
102
RTVSPropertyOp33
 70
     1
102
RTVSPropertyOp34
 70
     1
102
RTVSPropertyOp35
 70
     1
102
RTVSPropertyOp36
 70
     1
102
RTVSPropertyOp37
 70
     1
102
RTVSPropertyOp38
 70
     1
102
RTVSPropertyOp39
 70
     1
102
RTVSPropertyOp40
 70
     1
102
RTVSPropertyOp41
 70
     1
102
RTVSPropertyOp42
 70
     1
102
RTVSPropertyOp43
 70
     1
102
RTVSPropertyOp44
 70
     1
102
RTVSPropertyOp45
 70
     1
102
RTVSPropertyOp46
 70
     1
102
RTVSPropertyOp47
 70
     1
102
RTVSPropertyOp48
 70
     1
102
RTVSPropertyOp49
 70
     1
102
RTVSPropertyOp50
 70
     1
102
RTVSPropertyOp51
 70
     0
102
RTVSPropertyOp52
 70
     0
102
RTVSPropertyOp53
 70
     1
102
RTVSPropertyOp54
 70
     1
102
RTVSPropertyOp55
 70
     1
102
RTVSPropertyOp56
 70
     1
102
RTVSPropertyOp57
 70
     1
102
RTVSPropertyOp58
 70
     1
102
RTVSPropertyOp59
 70
     1
102
RTVSPropertyOp60
 70
     1
102
RTVSPropertyOp61
 70
     1
102
RTVSPropertyOp62
 70
     1
  0
XRECORD
  5
9889
102
{ACAD_REACTORS
330
9888
102
}
330
9888
100
AcDbXrecord
280
     1
102
RTVSPost2010Prop28
280
     0
102
RTVSPost2010PropOp28
 70
     1
102
RTVSPost2010Prop29
280
     1
102
RTVSPost2010PropOp29
 70
     1
102
RTVSPost2010Prop30
280
     1
102
RTVSPost2010PropOp30
 70
     1
102
RTVSPost2010Prop31
280
     0
102
RTVSPost2010PropOp31
 70
     1
102
RTVSPost2010Prop32
280
     0
102
RTVSPost2010PropOp32
 70
     1
102
RTVSPost2010Prop33
280
     0
102
RTVSPost2010PropOp33
 70
     1
102
RTVSPost2010Prop34
280
     0
102
RTVSPost2010PropOp34
 70
     1
102
RTVSPost2010Prop35
280
     0
102
RTVSPost2010PropOp35
 70
     1
102
RTVSPost2010Prop36
280
     0
102
RTVSPost2010PropOp36
 70
     1
102
RTVSPost2010Prop37
 90
       50
102
RTVSPost2010PropOp37
 70
     1
102
RTVSPost2010Prop38
140
0.0
102
RTVSPost2010PropOp38
 70
     1
102
RTVSPost2010Prop39
140
1.0
102
RTVSPost2010PropOp39
 70
     1
102
RTVSPost2010Prop40
 90
        0
102
RTVSPost2010PropOp40
 70
     1
102
RTVSPost2010Prop41ColorIndex
 90
       18
102
RTVSPost2010Prop41ColorRGB
 90
        0
102
RTVSPost2010PropOp41
 70
     1
102
RTVSPost2010Prop42
 90
       50
102
RTVSPost2010PropOp42
 70
     1
102
RTVSPost2010Prop43
 90
        3
102
RTVSPost2010PropOp43
 70
     1
102
RTVSPost2010Prop44ColorIndex
 90
        5
102
RTVSPost2010Prop44ColorRGB
 90
      255
102
RTVSPost2010PropOp44
 70
     1
102
RTVSPost2010Prop45
280
     0
102
RTVSPost2010PropOp45
 70
     1
102
RTVSPost2010Prop46
 90
       50
102
RTVSPost2010PropOp46
 70
     1
102
RTVSPost2010Prop47
 90
       50
102
RTVSPost2010PropOp47
 70
     1
102
RTVSPost2010Prop48
 90
       50
102
RTVSPost2010PropOp48
 70
     1
102
RTVSPost2010Prop49
280
     0
102
RTVSPost2010PropOp49
 70
     1
102
RTVSPost2010Prop50
 90
       50
102
RTVSPost2010PropOp50
 70
     1
102
RTVSPost2010Prop51ColorIndex
 90
      256
102
RTVSPost2010Prop51ColorRGB
 90
-16777216
102
RTVSPost2010PropOp51
 70
     0
102
RTVSPost2010Prop52
140
1.0
102
RTVSPost2010PropOp52
 70
     0
102
RTVSPost2010Prop53
 90
        2
102
RTVSPost2010PropOp53
 70
     1
102
RTVSPost2010Prop54
  1
strokes_ogs.tif
102
RTVSPost2010PropOp54
 70
     1
102
RTVSPost2010Prop55
280
     0
102
RTVSPost2010PropOp55
 70
     1
102
RTVSPost2010Prop56
140
1.0
102
RTVSPost2010PropOp56
 70
     1
102
RTVSPost2010Prop57
140
1.0
102
RTVSPost2010PropOp57
 70
     1
102
RTVSPropertyOp0
 70
     1
102
RTVSPropertyOp1
 70
     1
102
RTVSPropertyOp2
 70
     1
102
RTVSPropertyOp3
 70
     1
102
RTVSPropertyOp4
 70
     1
102
RTVSPropertyOp5
 70
     1
102
RTVSPropertyOp6
 70
     1
102
RTVSPropertyOp7
 70
     1
102
RTVSPropertyOp8
 70
     1
102
RTVSPropertyOp9
 70
     1
102
RTVSPropertyOp10
 70
     1
102
RTVSPropertyOp11
 70
     1
102
RTVSPropertyOp12
 70
     1
102
RTVSPropertyOp13
 70
     1
102
RTVSPropertyOp14
 70
     1
102
RTVSPropertyOp15
 70
     1
102
RTVSPropertyOp16
 70
     1
102
RTVSPropertyOp17
 70
     1
102
RTVSPropertyOp18
 70
     1
102
RTVSPropertyOp19
 70
     1
102
RTVSPropertyOp20
 70
     1
102
RTVSPropertyOp21
 70
     1
102
RTVSPropertyOp22
 70
     1
102
RTVSPropertyOp23
 70
     1
102
RTVSPropertyOp24
 70
     1
102
RTVSPropertyOp25
 70
     1
102
RTVSPropertyOp26
 70
     1
102
RTVSPropertyOp27
 70
     1
102
RTVSPropertyOp28
 70
     1
102
RTVSPropertyOp29
 70
     1
102
RTVSPropertyOp30
 70
     1
102
RTVSPropertyOp31
 70
     1
102
RTVSPropertyOp32
 70
     1
102
RTVSPropertyOp33
 70
     1
102
RTVSPropertyOp34
 70
     1
102
RTVSPropertyOp35
 70
     1
102
RTVSPropertyOp36
 70
     1
102
RTVSPropertyOp37
 70
     1
102
RTVSPropertyOp38
 70
     1
102
RTVSPropertyOp39
 70
     1
102
RTVSPropertyOp40
 70
     1
102
RTVSPropertyOp41
 70
     1
102
RTVSPropertyOp42
 70
     1
102
RTVSPropertyOp43
 70
     1
102
RTVSPropertyOp44
 70
     1
102
RTVSPropertyOp45
 70
     1
102
RTVSPropertyOp46
 70
     1
102
RTVSPropertyOp47
 70
     1
102
RTVSPropertyOp48
 70
     1
102
RTVSPropertyOp49
 70
     1
102
RTVSPropertyOp50
 70
     1
102
RTVSPropertyOp51
 70
     0
102
RTVSPropertyOp52
 70
     0
102
RTVSPropertyOp53
 70
     1
102
RTVSPropertyOp54
 70
     1
102
RTVSPropertyOp55
 70
     1
102
RTVSPropertyOp56
 70
     1
102
RTVSPropertyOp57
 70
     1
102
RTVSPropertyOp58
 70
     1
102
RTVSPropertyOp59
 70
     1
102
RTVSPropertyOp60
 70
     1
102
RTVSPropertyOp61
 70
     1
102
RTVSPropertyOp62
 70
     1
  0
XRECORD
  5
98A1
102
{ACAD_REACTORS
330
98A0
102
}
330
98A0
100
AcDbXrecord
280
     1
102
RTVSPost2010Prop28
280
     0
102
RTVSPost2010PropOp28
 70
     1
102
RTVSPost2010Prop29
280
     1
102
RTVSPost2010PropOp29
 70
     1
102
RTVSPost2010Prop30
280
     1
102
RTVSPost2010PropOp30
 70
     1
102
RTVSPost2010Prop31
280
     0
102
RTVSPost2010PropOp31
 70
     1
102
RTVSPost2010Prop32
280
     0
102
RTVSPost2010PropOp32
 70
     1
102
RTVSPost2010Prop33
280
     0
102
RTVSPost2010PropOp33
 70
     1
102
RTVSPost2010Prop34
280
     0
102
RTVSPost2010PropOp34
 70
     1
102
RTVSPost2010Prop35
280
     0
102
RTVSPost2010PropOp35
 70
     1
102
RTVSPost2010Prop36
280
     0
102
RTVSPost2010PropOp36
 70
     1
102
RTVSPost2010Prop37
 90
       50
102
RTVSPost2010PropOp37
 70
     1
102
RTVSPost2010Prop38
140
0.0
102
RTVSPost2010PropOp38
 70
     1
102
RTVSPost2010Prop39
140
1.0
102
RTVSPost2010PropOp39
 70
     1
102
RTVSPost2010Prop40
 90
        0
102
RTVSPost2010PropOp40
 70
     1
102
RTVSPost2010Prop41ColorIndex
 90
       18
102
RTVSPost2010Prop41ColorRGB
 90
        0
102
RTVSPost2010PropOp41
 70
     1
102
RTVSPost2010Prop42
 90
       50
102
RTVSPost2010PropOp42
 70
     1
102
RTVSPost2010Prop43
 90
        3
102
RTVSPost2010PropOp43
 70
     1
102
RTVSPost2010Prop44ColorIndex
 90
        5
102
RTVSPost2010Prop44ColorRGB
 90
      255
102
RTVSPost2010PropOp44
 70
     1
102
RTVSPost2010Prop45
280
     0
102
RTVSPost2010PropOp45
 70
     1
102
RTVSPost2010Prop46
 90
       50
102
RTVSPost2010PropOp46
 70
     1
102
RTVSPost2010Prop47
 90
       50
102
RTVSPost2010PropOp47
 70
     1
102
RTVSPost2010Prop48
 90
       50
102
RTVSPost2010PropOp48
 70
     1
102
RTVSPost2010Prop49
280
     0
102
RTVSPost2010PropOp49
 70
     1
102
RTVSPost2010Prop50
 90
       50
102
RTVSPost2010PropOp50
 70
     1
102
RTVSPost2010Prop51ColorIndex
 90
      256
102
RTVSPost2010Prop51ColorRGB
 90
-16777216
102
RTVSPost2010PropOp51
 70
     0
102
RTVSPost2010Prop52
140
1.0
102
RTVSPost2010PropOp52
 70
     0
102
RTVSPost2010Prop53
 90
        2
102
RTVSPost2010PropOp53
 70
     1
102
RTVSPost2010Prop54
  1
strokes_ogs.tif
102
RTVSPost2010PropOp54
 70
     1
102
RTVSPost2010Prop55
280
     0
102
RTVSPost2010PropOp55
 70
     1
102
RTVSPost2010Prop56
140
1.0
102
RTVSPost2010PropOp56
 70
     1
102
RTVSPost2010Prop57
140
1.0
102
RTVSPost2010PropOp57
 70
     1
102
RTVSPropertyOp0
 70
     1
102
RTVSPropertyOp1
 70
     1
102
RTVSPropertyOp2
 70
     1
102
RTVSPropertyOp3
 70
     1
102
RTVSPropertyOp4
 70
     1
102
RTVSPropertyOp5
 70
     1
102
RTVSPropertyOp6
 70
     1
102
RTVSPropertyOp7
 70
     1
102
RTVSPropertyOp8
 70
     1
102
RTVSPropertyOp9
 70
     1
102
RTVSPropertyOp10
 70
     1
102
RTVSPropertyOp11
 70
     1
102
RTVSPropertyOp12
 70
     1
102
RTVSPropertyOp13
 70
     1
102
RTVSPropertyOp14
 70
     1
102
RTVSPropertyOp15
 70
     1
102
RTVSPropertyOp16
 70
     1
102
RTVSPropertyOp17
 70
     1
102
RTVSPropertyOp18
 70
     1
102
RTVSPropertyOp19
 70
     1
102
RTVSPropertyOp20
 70
     1
102
RTVSPropertyOp21
 70
     1
102
RTVSPropertyOp22
 70
     1
102
RTVSPropertyOp23
 70
     1
102
RTVSPropertyOp24
 70
     1
102
RTVSPropertyOp25
 70
     1
102
RTVSPropertyOp26
 70
     1
102
RTVSPropertyOp27
 70
     1
102
RTVSPropertyOp28
 70
     1
102
RTVSPropertyOp29
 70
     1
102
RTVSPropertyOp30
 70
     1
102
RTVSPropertyOp31
 70
     1
102
RTVSPropertyOp32
 70
     1
102
RTVSPropertyOp33
 70
     1
102
RTVSPropertyOp34
 70
     1
102
RTVSPropertyOp35
 70
     1
102
RTVSPropertyOp36
 70
     1
102
RTVSPropertyOp37
 70
     1
102
RTVSPropertyOp38
 70
     1
102
RTVSPropertyOp39
 70
     1
102
RTVSPropertyOp40
 70
     1
102
RTVSPropertyOp41
 70
     1
102
RTVSPropertyOp42
 70
     1
102
RTVSPropertyOp43
 70
     1
102
RTVSPropertyOp44
 70
     1
102
RTVSPropertyOp45
 70
     1
102
RTVSPropertyOp46
 70
     1
102
RTVSPropertyOp47
 70
     1
102
RTVSPropertyOp48
 70
     1
102
RTVSPropertyOp49
 70
     1
102
RTVSPropertyOp50
 70
     1
102
RTVSPropertyOp51
 70
     0
102
RTVSPropertyOp52
 70
     0
102
RTVSPropertyOp53
 70
     1
102
RTVSPropertyOp54
 70
     1
102
RTVSPropertyOp55
 70
     1
102
RTVSPropertyOp56
 70
     1
102
RTVSPropertyOp57
 70
     1
102
RTVSPropertyOp58
 70
     1
102
RTVSPropertyOp59
 70
     1
102
RTVSPropertyOp60
 70
     1
102
RTVSPropertyOp61
 70
     1
102
RTVSPropertyOp62
 70
     1
  0
ENDSEC
  0
EOF
