  0
SECTION
  2
HEADER
  9
$ACADVER
  1
AC1015
  9
$ACADMAINTVER
 70
    20
  9
$DWGCODEPAGE
  3
ANSI_932
  9
$INSBASE
 10
0.0
 20
0.0
 30
0.0
  9
$EXTMIN
 10
10.0
 20
9.999999999999998
 30
0.0
  9
$EXTMAX
 10
280.5653179999998
 20
188.8151609999999
 30
0.0
  9
$LIMMIN
 10
0.0
 20
0.0
  9
$LIMMAX
 10
396.0
 20
273.0
  9
$ORTHOMODE
 70
     1
  9
$REGENMODE
 70
     1
  9
$FILLMODE
 70
     1
  9
$QTEXTMODE
 70
     0
  9
$MIRRTEXT
 70
     1
  9
$LTSCALE
 40
20.0
  9
$ATTMODE
 70
     1
  9
$TEXTSIZE
 40
5.0
  9
$TRACEWID
 40
1.0
  9
$TEXTSTYLE
  7
STANDARD
  9
$CLAYER
  8
0
  9
$CELTYPE
  6
BYLAYER
  9
$CECOLOR
 62
   256
  9
$CELTSCALE
 40
1.0
  9
$DISPSILH
 70
     0
  9
$DIMSCALE
 40
1.0
  9
$DIMASZ
 40
3.0
  9
$DIMEXO
 40
1.0
  9
$DIMDLI
 40
10.0
  9
$DIMRND
 40
0.0
  9
$DIMDLE
 40
0.0
  9
$DIMEXE
 40
1.0
  9
$DIMTP
 40
0.0
  9
$DIMTM
 40
0.0
  9
$DIMTXT
 40
3.2
  9
$DIMCEN
 40
0.0
  9
$DIMTSZ
 40
0.0
  9
$DIMTOL
 70
     0
  9
$DIMLIM
 70
     0
  9
$DIMTIH
 70
     0
  9
$DIMTOH
 70
     0
  9
$DIMSE1
 70
     0
  9
$DIMSE2
 70
     0
  9
$DIMTAD
 70
     3
  9
$DIMZIN
 70
     8
  9
$DIMBLK
  1

  9
$DIMASO
 70
     1
  9
$DIMSHO
 70
     1
  9
$DIMPOST
  1

  9
$DIMAPOST
  1

  9
$DIMALT
 70
     0
  9
$DIMALTD
 70
     2
  9
$DIMALTF
 40
25.4
  9
$DIMLFAC
 40
1.0
  9
$DIMTOFL
 70
     1
  9
$DIMTVP
 40
0.0
  9
$DIMTIX
 70
     0
  9
$DIMSOXD
 70
     0
  9
$DIMSAH
 70
     1
  9
$DIMBLK1
  1

  9
$DIMBLK2
  1

  9
$DIMSTYLE
  2
STANDARD
  9
$DIMCLRD
 70
     0
  9
$DIMCLRE
 70
     0
  9
$DIMCLRT
 70
     0
  9
$DIMTFAC
 40
1.0
  9
$DIMGAP
 40
1.0
  9
$DIMJUST
 70
     0
  9
$DIMSD1
 70
     0
  9
$DIMSD2
 70
     0
  9
$DIMTOLJ
 70
     1
  9
$DIMTZIN
 70
     0
  9
$DIMALTZ
 70
     0
  9
$DIMALTTZ
 70
     0
  9
$DIMUPT
 70
     0
  9
$DIMDEC
 70
     4
  9
$DIMTDEC
 70
     4
  9
$DIMALTU
 70
     2
  9
$DIMALTTD
 70
     2
  9
$DIMTXSTY
  7
STANDARD
  9
$DIMAUNIT
 70
     0
  9
$DIMADEC
 70
     0
  9
$DIMALTRND
 40
0.0
  9
$DIMAZIN
 70
     0
  9
$DIMDSEP
 70
    46
  9
$DIMATFIT
 70
     3
  9
$DIMFRAC
 70
     0
  9
$DIMLDRBLK
  1

  9
$DIMLUNIT
 70
     2
  9
$DIMLWD
 70
    -2
  9
$DIMLWE
 70
    -2
  9
$DIMTMOVE
 70
     0
  9
$LUNITS
 70
     2
  9
$LUPREC
 70
     4
  9
$SKETCHINC
 40
1.0
  9
$FILLETRAD
 40
2.5
  9
$AUNITS
 70
     0
  9
$AUPREC
 70
     2
  9
$MENU
  1
.
  9
$ELEVATION
 40
0.0
  9
$PELEVATION
 40
0.0
  9
$THICKNESS
 40
0.0
  9
$LIMCHECK
 70
     0
  9
$CHAMFERA
 40
10.0
  9
$CHAMFERB
 40
10.0
  9
$CHAMFERC
 40
0.0
  9
$CHAMFERD
 40
0.0
  9
$SKPOLY
 70
     0
  9
$TDCREATE
 40
2450932.561631598
  9
$TDUCREATE
 40
2450932.186631597
  9
$TDUPDATE
 40
2457192.600721493
  9
$TDUUPDATE
 40
2457192.225721493
  9
$TDINDWG
 40
0.0000139468
  9
$TDUSRTIMER
 40
0.0000135185
  9
$USRTIMER
 70
     1
  9
$ANGBASE
 50
0.0
  9
$ANGDIR
 70
     0
  9
$PDMODE
 70
     0
  9
$PDSIZE
 40
0.0
  9
$PLINEWID
 40
0.0
  9
$SPLFRAME
 70
     0
  9
$SPLINETYPE
 70
     6
  9
$SPLINESEGS
 70
     8
  9
$HANDSEED
  5
99FA
  9
$SURFTAB1
 70
     6
  9
$SURFTAB2
 70
     6
  9
$SURFTYPE
 70
     6
  9
$SURFU
 70
     6
  9
$SURFV
 70
     6
  9
$UCSBASE
  2

  9
$UCSNAME
  2

  9
$UCSORG
 10
0.0
 20
0.0
 30
0.0
  9
$UCSXDIR
 10
1.0
 20
0.0
 30
0.0
  9
$UCSYDIR
 10
0.0
 20
1.0
 30
0.0
  9
$UCSORTHOREF
  2

  9
$UCSORTHOVIEW
 70
     0
  9
$UCSORGTOP
 10
0.0
 20
0.0
 30
0.0
  9
$UCSORGBOTTOM
 10
0.0
 20
0.0
 30
0.0
  9
$UCSORGLEFT
 10
0.0
 20
0.0
 30
0.0
  9
$UCSORGRIGHT
 10
0.0
 20
0.0
 30
0.0
  9
$UCSORGFRONT
 10
0.0
 20
0.0
 30
0.0
  9
$UCSORGBACK
 10
0.0
 20
0.0
 30
0.0
  9
$PUCSBASE
  2

  9
$PUCSNAME
  2

  9
$PUCSORG
 10
0.0
 20
0.0
 30
0.0
  9
$PUCSXDIR
 10
1.0
 20
0.0
 30
0.0
  9
$PUCSYDIR
 10
0.0
 20
1.0
 30
0.0
  9
$PUCSORTHOREF
  2

  9
$PUCSORTHOVIEW
 70
     0
  9
$PUCSORGTOP
 10
0.0
 20
0.0
 30
0.0
  9
$PUCSORGBOTTOM
 10
0.0
 20
0.0
 30
0.0
  9
$PUCSORGLEFT
 10
0.0
 20
0.0
 30
0.0
  9
$PUCSORGRIGHT
 10
0.0
 20
0.0
 30
0.0
  9
$PUCSORGFRONT
 10
0.0
 20
0.0
 30
0.0
  9
$PUCSORGBACK
 10
0.0
 20
0.0
 30
0.0
  9
$USERI1
 70
     0
  9
$USERI2
 70
     0
  9
$USERI3
 70
     0
  9
$USERI4
 70
     0
  9
$USERI5
 70
     0
  9
$USERR1
 40
0.0
  9
$USERR2
 40
0.0
  9
$USERR3
 40
0.0
  9
$USERR4
 40
0.0
  9
$USERR5
 40
0.0
  9
$WORLDVIEW
 70
     1
  9
$SHADEDGE
 70
     3
  9
$SHADEDIF
 70
    70
  9
$TILEMODE
 70
     1
  9
$MAXACTVP
 70
    16
  9
$PINSBASE
 10
0.0
 20
0.0
 30
0.0
  9
$PLIMCHECK
 70
     0
  9
$PEXTMIN
 10
1.000000000000000E+20
 20
1.000000000000000E+20
 30
1.000000000000000E+20
  9
$PEXTMAX
 10
-1.000000000000000E+20
 20
-1.000000000000000E+20
 30
-1.000000000000000E+20
  9
$PLIMMIN
 10
0.0
 20
0.0
  9
$PLIMMAX
 10
420.0
 20
297.0
  9
$UNITMODE
 70
     0
  9
$VISRETAIN
 70
     0
  9
$PLINEGEN
 70
     0
  9
$PSLTSCALE
 70
     0
  9
$TREEDEPTH
 70
  3020
  9
$CMLSTYLE
  2
STANDARD
  9
$CMLJUST
 70
     0
  9
$CMLSCALE
 40
1.0
  9
$PROXYGRAPHICS
 70
     1
  9
$MEASUREMENT
 70
     0
  9
$CELWEIGHT
370
    -1
  9
$ENDCAPS
280
     0
  9
$JOINSTYLE
280
     0
  9
$LWDISPLAY
290
     0
  9
$INSUNITS
 70
     0
  9
$HYPERLINKBASE
  1

  9
$STYLESHEET
  1

  9
$XEDIT
290
     1
  9
$CEPSNTYPE
380
     0
  9
$PSTYLEMODE
290
     1
  9
$FINGERPRINTGUID
  2
{F371CB3A-8C5A-48E9-994C-ADFE93B5C454}
  9
$VERSIONGUID
  2
{AFB9A8B5-DFF2-4A02-A819-4AFD37B3B04A}
  9
$EXTNAMES
290
     1
  9
$PSVPSCALE
 40
0.0
  9
$OLESTARTUP
290
     0
  0
ENDSEC
  0
SECTION
  2
CLASSES
  0
CLASS
  1
ACDBDICTIONARYWDFLT
  2
AcDbDictionaryWithDefault
  3
ObjectDBX Classes
 90
        0
280
     0
281
     0
  0
CLASS
  1
ACDBPLACEHOLDER
  2
AcDbPlaceHolder
  3
ObjectDBX Classes
 90
        0
280
     0
281
     0
  0
CLASS
  1
LAYOUT
  2
AcDbLayout
  3
ObjectDBX Classes
 90
        0
280
     0
281
     0
  0
CLASS
  1
DICTIONARYVAR
  2
AcDbDictionaryVar
  3
ObjectDBX Classes
 90
        0
280
     0
281
     0
  0
CLASS
  1
MATERIAL
  2
AcDbMaterial
  3
ObjectDBX Classes
 90
     1153
280
     0
281
     0
  0
CLASS
  1
VISUALSTYLE
  2
AcDbVisualStyle
  3
ObjectDBX Classes
 90
     4095
280
     0
281
     0
  0
CLASS
  1
TABLESTYLE
  2
AcDbTableStyle
  3
ObjectDBX Classes
 90
     4095
280
     0
281
     0
  0
CLASS
  1
SCALE
  2
AcDbScale
  3
ObjectDBX Classes
 90
     1153
280
     0
281
     0
  0
CLASS
  1
MLEADERSTYLE
  2
AcDbMLeaderStyle
  3
ACDB_MLEADERSTYLE_CLASS
 90
     4095
280
     0
281
     0
  0
CLASS
  1
ACDBSECTIONVIEWSTYLE
  2
AcDbSectionViewStyle
  3
ObjectDBX Classes
 90
     1025
280
     0
281
     0
  0
CLASS
  1
ACDBDETAILVIEWSTYLE
  2
AcDbDetailViewStyle
  3
ObjectDBX Classes
 90
     1025
280
     0
281
     0
  0
CLASS
  1
CELLSTYLEMAP
  2
AcDbCellStyleMap
  3
ObjectDBX Classes
 90
     1152
280
     0
281
     0
  0
ENDSEC
  0
SECTION
  2
TABLES
  0
TABLE
  2
VPORT
  5
96D0
330
0
100
AcDbSymbolTable
 70
     1
  0
VPORT
  5
9943
330
96D0
100
AcDbSymbolTableRecord
100
AcDbViewportTableRecord
  2
*ACTIVE
 70
     0
 10
0.0
 20
0.0
 11
1.0
 21
1.0
 12
199.4441415273712
 22
99.40489256021663
 13
0.0
 23
0.0
 14
10.0
 24
10.0
 15
10.0
 25
10.0
 16
0.0
 26
0.0
 36
1.0
 17
0.0
 27
0.0
 37
0.0
 40
180.8314535166964
 41
1.899603698811096
 42
50.0
 43
0.0
 44
0.0
 50
0.0
 51
0.0
 71
     0
 72
   100
 73
     1
 74
     0
 75
     0
 76
     0
 77
     0
 78
     0
281
     0
 65
     1
110
0.0
120
0.0
130
0.0
111
1.0
121
0.0
131
0.0
112
0.0
122
1.0
132
0.0
 79
     0
146
0.0
1001
ACAD_NAV_VCDISPLAY
1070
     3
  0
ENDTAB
  0
TABLE
  2
LTYPE
  5
96CD
330
0
100
AcDbSymbolTable
 70
     4
  0
LTYPE
  5
96DB
330
96CD
100
AcDbSymbolTableRecord
100
AcDbLinetypeTableRecord
  2
BYBLOCK
 70
     0
  3

 72
    65
 73
     0
 40
0.0
  0
LTYPE
  5
96DC
330
96CD
100
AcDbSymbolTableRecord
100
AcDbLinetypeTableRecord
  2
BYLAYER
 70
     0
  3

 72
    65
 73
     0
 40
0.0
  0
LTYPE
  5
96DD
330
96CD
100
AcDbSymbolTableRecord
100
AcDbLinetypeTableRecord
  2
CONTINUOUS
 70
     0
  3
Solid line
 72
    65
 73
     0
 40
0.0
  0
LTYPE
  5
96EB
330
96CD
100
AcDbSymbolTableRecord
100
AcDbLinetypeTableRecord
  2
DASHED
 70
     0
  3
__ __ __ __ __ __ __ __ __ __ __ __ __ __ __ __
 72
    65
 73
     2
 40
0.75
 49
0.5
 74
     0
 49
-0.25
 74
     0
  0
LTYPE
  5
96EC
330
96CD
100
AcDbSymbolTableRecord
100
AcDbLinetypeTableRecord
  2
CENTER
 70
     0
  3
____ _ ____ _ ____ _ ____ _ ____ _ ____ _ ____ 
 72
    65
 73
     4
 40
2.0
 49
1.25
 74
     0
 49
-0.25
 74
     0
 49
0.25
 74
     0
 49
-0.25
 74
     0
  0
LTYPE
  5
96ED
330
96CD
100
AcDbSymbolTableRecord
100
AcDbLinetypeTableRecord
  2
PHANTOM
 70
     0
  3
______  __  __  ______  __  __  ______  __  __ 
 72
    65
 73
     6
 40
2.5
 49
1.25
 74
     0
 49
-0.25
 74
     0
 49
0.25
 74
     0
 49
-0.25
 74
     0
 49
0.25
 74
     0
 49
-0.25
 74
     0
  0
ENDTAB
  0
TABLE
  2
LAYER
  5
96CA
330
0
100
AcDbSymbolTable
 70
     8
  0
LAYER
  5
96D8
102
{ACAD_XDICTIONARY
360
999E
102
}
330
96CA
100
AcDbSymbolTableRecord
100
AcDbLayerTableRecord
  2
0
 70
     0
 62
     7
  6
CONTINUOUS
370
    -3
390
994C
  0
LAYER
  5
96EE
102
{ACAD_XDICTIONARY
360
99A0
102
}
330
96CA
100
AcDbSymbolTableRecord
100
AcDbLayerTableRecord
  2
4
 70
     0
 62
     1
  6
CENTER
370
    -3
390
994C
  0
LAYER
  5
96EF
102
{ACAD_XDICTIONARY
360
99A2
102
}
330
96CA
100
AcDbSymbolTableRecord
100
AcDbLayerTableRecord
  2
5
 70
     0
 62
     6
  6
PHANTOM
370
    -3
390
994C
  0
LAYER
  5
96F0
102
{ACAD_XDICTIONARY
360
99A4
102
}
330
96CA
100
AcDbSymbolTableRecord
100
AcDbLayerTableRecord
  2
1
 70
     0
 62
     7
  6
CONTINUOUS
370
    -3
390
994C
  0
LAYER
  5
96F1
102
{ACAD_XDICTIONARY
360
99A6
102
}
330
96CA
100
AcDbSymbolTableRecord
100
AcDbLayerTableRecord
  2
2
 70
     0
 62
     4
  6
CONTINUOUS
370
    -3
390
994C
  0
LAYER
  5
96F2
102
{ACAD_XDICTIONARY
360
99A8
102
}
330
96CA
100
AcDbSymbolTableRecord
100
AcDbLayerTableRecord
  2
3
 70
     0
 62
     2
  6
DASHED
370
    -3
390
994C
  0
LAYER
  5
96F3
102
{ACAD_XDICTIONARY
360
99AA
102
}
330
96CA
100
AcDbSymbolTableRecord
100
AcDbLayerTableRecord
  2
6
 70
     0
 62
     5
  6
CONTINUOUS
370
    -3
390
994C
  0
LAYER
  5
96F4
102
{ACAD_XDICTIONARY
360
99AC
102
}
330
96CA
100
AcDbSymbolTableRecord
100
AcDbLayerTableRecord
  2
7
 70
     0
 62
     3
  6
CONTINUOUS
370
    -3
390
994C
  0
ENDTAB
  0
TABLE
  2
STYLE
  5
96CB
330
0
100
AcDbSymbolTable
 70
     1
  0
STYLE
  5
96D9
330
96CB
100
AcDbSymbolTableRecord
100
AcDbTextStyleTableRecord
  2
STANDARD
 70
     0
 40
0.0
 41
1.0
 50
0.0
 71
     0
 42
5.0
  3
txt
  4

  0
ENDTAB
  0
TABLE
  2
VIEW
  5
96CE
330
0
100
AcDbSymbolTable
 70
     0
  0
ENDTAB
  0
TABLE
  2
UCS
  5
96CF
330
0
100
AcDbSymbolTable
 70
     0
  0
ENDTAB
  0
TABLE
  2
APPID
  5
96D1
330
0
100
AcDbSymbolTable
 70
     3
  0
APPID
  5
96DA
330
96D1
100
AcDbSymbolTableRecord
100
AcDbRegAppTableRecord
  2
ACAD
 70
     0
  0
APPID
  5
99B8
330
96D1
100
AcDbSymbolTableRecord
100
AcDbRegAppTableRecord
  2
ACAD_NAV_VCDISPLAY
 70
     0
  0
APPID
  5
99F1
330
96D1
100
AcDbSymbolTableRecord
100
AcDbRegAppTableRecord
  2
ACAD_MLEADERVER
 70
     0
  0
ENDTAB
  0
TABLE
  2
DIMSTYLE
  5
96D2
330
0
100
AcDbSymbolTable
 70
     1
100
AcDbDimStyleTable
 71
     0
  0
DIMSTYLE
105
96F6
330
96D2
100
AcDbSymbolTableRecord
100
AcDbDimStyleTableRecord
  2
STANDARD
 70
     0
 41
3.0
 42
1.0
 43
10.0
 44
1.0
 73
     0
 74
     0
 77
     3
 78
     8
140
3.2
141
0.0
147
1.0
172
     1
173
     1
284
     8
285
     8
286
     8
340
96D9
  0
ENDTAB
  0
TABLE
  2
BLOCK_RECORD
  5
96C9
330
0
100
AcDbSymbolTable
 70
     0
  0
BLOCK_RECORD
  5
96E6
102
{ACAD_XDICTIONARY
360
9946
102
}
330
96C9
100
AcDbSymbolTableRecord
100
AcDbBlockTableRecord
  2
*MODEL_SPACE
340
999A
  0
BLOCK_RECORD
  5
96E2
102
{ACAD_XDICTIONARY
360
9944
102
}
330
96C9
100
AcDbSymbolTableRecord
100
AcDbBlockTableRecord
  2
*PAPER_SPACE
340
999B
  0
ENDTAB
  0
ENDSEC
  0
SECTION
  2
BLOCKS
  0
BLOCK
  5
96E7
330
96E6
100
AcDbEntity
  8
0
100
AcDbBlockBegin
  2
*MODEL_SPACE
 70
     0
 10
0.0
 20
0.0
 30
0.0
  3
*MODEL_SPACE
  1

  0
ENDBLK
  5
96E8
330
96E6
100
AcDbEntity
  8
0
100
AcDbBlockEnd
  0
BLOCK
  5
96E3
330
96E2
100
AcDbEntity
 67
     1
  8
0
100
AcDbBlockBegin
  2
*PAPER_SPACE
 70
     0
 10
0.0
 20
0.0
 30
0.0
  3
*PAPER_SPACE
  1

  0
ENDBLK
  5
96E4
330
96E2
100
AcDbEntity
 67
     1
  8
0
100
AcDbBlockEnd
  0
ENDSEC
  0
SECTION
  2
ENTITIES
  0
TEXT
  5
96FE
330
96E6
100
AcDbEntity
  8
7
  6
Continuous
100
AcDbText
 10
10.0
 20
18.0
 30
0.0
 40
3.0
  1
TYPE No.TL-251
100
AcDbText
  0
TEXT
  5
96FF
330
96E6
100
AcDbEntity
  8
7
  6
Continuous
100
AcDbText
 10
10.0
 20
26.0
 30
0.0
 40
3.0
  1
CODE No.1716
100
AcDbText
  0
TEXT
  5
9700
330
96E6
100
AcDbEntity
  8
1
  6
Continuous
100
AcDbText
 10
10.0
 20
10.0
 30
0.0
 40
1.399999999999999
  1
LAYER
100
AcDbText
  0
TEXT
  5
9701
330
96E6
100
AcDbEntity
  8
1
  6
Continuous
100
AcDbText
 10
17.97951099999998
 20
10.04873699999998
 30
0.0
 40
1.399999999999999
  1
1
100
AcDbText
  0
TEXT
  5
9702
330
96E6
100
AcDbEntity
  8
7
  6
Continuous
100
AcDbText
 10
29.97951099999999
 20
10.04873699999998
 30
0.0
 40
1.399999999999999
  1
7
100
AcDbText
  0
TEXT
  5
9703
330
96E6
100
AcDbEntity
  8
4
  6
CENTER
100
AcDbText
 10
23.97951099999999
 20
10.04873699999998
 30
0.0
 40
1.399999999999999
  1
4
100
AcDbText
  0
TEXT
  5
9704
330
96E6
100
AcDbEntity
  8
3
  6
DASHED
100
AcDbText
 10
21.979511
 20
10.04873699999998
 30
0.0
 40
1.399999999999999
  1
3
100
AcDbText
  0
TEXT
  5
9705
330
96E6
100
AcDbEntity
  8
2
  6
Continuous
100
AcDbText
 10
19.97951099999999
 20
10.04873699999998
 30
0.0
 40
1.399999999999999
  1
2
100
AcDbText
  0
TEXT
  5
9706
330
96E6
100
AcDbEntity
  8
6
  6
Continuous
100
AcDbText
 10
27.979511
 20
10.04873699999998
 30
0.0
 40
1.399999999999999
  1
6
100
AcDbText
  0
TEXT
  5
9707
330
96E6
100
AcDbEntity
  8
5
  6
PHANTOM
100
AcDbText
 10
25.97951099999999
 20
10.04873699999998
 30
0.0
 40
1.399999999999999
  1
5
100
AcDbText
  0
LINE
  5
9708
330
96E6
100
AcDbEntity
  8
4
  6
CENTER
100
AcDbLine
 10
29.205518
 20
121.608161
 30
0.0
 11
29.205518
 21
93.91816099999998
 31
0.0
  0
LINE
  5
9709
330
96E6
100
AcDbEntity
  8
4
  6
CENTER
100
AcDbLine
 10
42.844818
 20
107.815161
 30
0.0
 11
15.39691799999999
 21
107.815161
 31
0.0
  0
LINE
  5
970A
330
96E6
100
AcDbEntity
  8
1
  6
Continuous
100
AcDbLine
 10
30.455518
 20
112.657161
 30
0.0
 11
30.455518
 21
103.692161
 31
0.0
  0
LINE
  5
970B
330
96E6
100
AcDbEntity
  8
1
  6
Continuous
100
AcDbLine
 10
28.155518
 20
103.892161
 30
0.0
 11
26.95191799999999
 21
102.689161
 31
0.0
  0
LINE
  5
970C
330
96E6
100
AcDbEntity
  8
1
  6
Continuous
100
AcDbLine
 10
27.955518
 20
103.692161
 30
0.0
 11
27.955518
 21
112.657161
 31
0.0
  0
LINE
  5
970D
330
96E6
100
AcDbEntity
  8
1
  6
Continuous
100
AcDbLine
 10
30.255518
 20
109.665161
 30
0.0
 11
28.155518
 21
109.665161
 31
0.0
  0
LINE
  5
970E
330
96E6
100
AcDbEntity
  8
1
  6
Continuous
100
AcDbLine
 10
28.155518
 20
103.892161
 30
0.0
 11
28.155518
 21
109.665161
 31
0.0
  0
LINE
  5
970F
330
96E6
100
AcDbEntity
  8
1
  6
Continuous
100
AcDbLine
 10
30.255518
 20
103.892161
 30
0.0
 11
30.255518
 21
109.665161
 31
0.0
  0
LINE
  5
9710
330
96E6
100
AcDbEntity
  8
1
  6
Continuous
100
AcDbLine
 10
31.459118
 20
102.689161
 30
0.0
 11
30.255518
 21
103.892161
 31
0.0
  0
LINE
  5
9711
330
96E6
100
AcDbEntity
  8
1
  6
Continuous
100
AcDbLine
 10
109.799318
 20
26.827361
 30
0.0
 11
109.799318
 21
48.815561
 31
0.0
  0
LINE
  5
9712
330
96E6
100
AcDbEntity
  8
1
  6
Continuous
100
AcDbLine
 10
107.7993179999999
 20
47.81556099999998
 30
0.0
 11
107.7993179999999
 21
27.81556099999999
 31
0.0
  0
LINE
  5
9713
330
96E6
100
AcDbEntity
  8
1
  6
Continuous
100
AcDbLine
 10
108.7993179999999
 20
26.81556099999999
 30
0.0
 11
108.7993179999999
 21
48.815561
 31
0.0
  0
LINE
  5
9714
330
96E6
100
AcDbEntity
  8
4
  6
CENTER
100
AcDbLine
 10
105.4073179999999
 20
37.81556099999999
 30
0.0
 11
130.1433179999999
 21
37.81556099999999
 31
0.0
  0
LINE
  5
9715
330
96E6
100
AcDbEntity
  8
1
  6
Continuous
100
AcDbLine
 10
117.2993179999999
 20
46.41556099999998
 30
0.0
 11
118.2993179999999
 21
46.41556099999998
 31
0.0
  0
LINE
  5
9716
330
96E6
100
AcDbEntity
  8
1
  6
Continuous
100
AcDbLine
 10
118.799318
 20
45.915561
 30
0.0
 11
118.799318
 21
29.727361
 31
0.0
  0
LINE
  5
9717
330
96E6
100
AcDbEntity
  8
1
  6
Continuous
100
AcDbLine
 10
118.799318
 20
45.915561
 30
0.0
 11
118.2993179999999
 21
46.41556099999998
 31
0.0
  0
LINE
  5
9718
330
96E6
100
AcDbEntity
  8
1
  6
Continuous
100
AcDbLine
 10
118.2993179999999
 20
46.41556099999998
 30
0.0
 11
118.2993179999999
 21
42.191561
 31
0.0
  0
LINE
  5
9719
330
96E6
100
AcDbEntity
  8
1
  6
Continuous
100
AcDbLine
 10
117.2993179999999
 20
46.41556099999998
 30
0.0
 11
117.2993179999999
 21
42.191561
 31
0.0
  0
LINE
  5
971A
330
96E6
100
AcDbEntity
  8
1
  6
Continuous
100
AcDbLine
 10
117.2993179999999
 20
46.41556099999998
 30
0.0
 11
116.399318
 21
47.31556099999997
 31
0.0
  0
LINE
  5
971B
330
96E6
100
AcDbEntity
  8
1
  6
Continuous
100
AcDbLine
 10
116.399318
 20
47.31556099999997
 30
0.0
 11
116.399318
 21
43.091561
 31
0.0
  0
LINE
  5
971C
330
96E6
100
AcDbEntity
  8
1
  6
Continuous
100
AcDbLine
 10
117.2993179999999
 20
42.191561
 30
0.0
 11
116.399318
 21
43.091561
 31
0.0
  0
LINE
  5
971D
330
96E6
100
AcDbEntity
  8
1
  6
Continuous
100
AcDbLine
 10
117.2993179999999
 20
42.191561
 30
0.0
 11
118.2993179999999
 21
42.191561
 31
0.0
  0
LINE
  5
971E
330
96E6
100
AcDbEntity
  8
1
  6
Continuous
100
AcDbLine
 10
118.799318
 20
41.691561
 30
0.0
 11
118.2993179999999
 21
42.191561
 31
0.0
  0
LINE
  5
971F
330
96E6
100
AcDbEntity
  8
1
  6
Continuous
100
AcDbLine
 10
117.2993179999999
 20
29.215561
 30
0.0
 11
118.2993179999999
 21
29.215561
 31
0.0
  0
LINE
  5
9720
330
96E6
100
AcDbEntity
  8
1
  6
Continuous
100
AcDbLine
 10
118.799318
 20
29.71556099999999
 30
0.0
 11
118.2993179999999
 21
29.215561
 31
0.0
  0
LINE
  5
9721
330
96E6
100
AcDbEntity
  8
1
  6
Continuous
100
AcDbLine
 10
118.2993179999999
 20
29.215561
 30
0.0
 11
118.2993179999999
 21
33.43956099999999
 31
0.0
  0
LINE
  5
9722
330
96E6
100
AcDbEntity
  8
1
  6
Continuous
100
AcDbLine
 10
117.2993179999999
 20
29.215561
 30
0.0
 11
117.2993179999999
 21
33.43956099999999
 31
0.0
  0
LINE
  5
9723
330
96E6
100
AcDbEntity
  8
1
  6
Continuous
100
AcDbLine
 10
117.2993179999999
 20
29.215561
 30
0.0
 11
116.399318
 21
28.315561
 31
0.0
  0
LINE
  5
9724
330
96E6
100
AcDbEntity
  8
1
  6
Continuous
100
AcDbLine
 10
116.399318
 20
28.315561
 30
0.0
 11
116.399318
 21
32.53956099999999
 31
0.0
  0
LINE
  5
9725
330
96E6
100
AcDbEntity
  8
1
  6
Continuous
100
AcDbLine
 10
117.2993179999999
 20
33.43956099999999
 30
0.0
 11
116.399318
 21
32.53956099999999
 31
0.0
  0
LINE
  5
9726
330
96E6
100
AcDbEntity
  8
1
  6
Continuous
100
AcDbLine
 10
117.2993179999999
 20
33.43956099999999
 30
0.0
 11
118.2993179999999
 21
33.43956099999999
 31
0.0
  0
LINE
  5
9727
330
96E6
100
AcDbEntity
  8
1
  6
Continuous
100
AcDbLine
 10
118.799318
 20
33.939561
 30
0.0
 11
118.2993179999999
 21
33.43956099999999
 31
0.0
  0
LINE
  5
9728
330
96E6
100
AcDbEntity
  8
2
  6
Continuous
100
AcDbLine
 10
118.2993179999999
 20
42.191561
 30
0.0
 11
109.799318
 21
32.53956099999999
 31
0.0
  0
LINE
  5
9729
330
96E6
100
AcDbEntity
  8
1
  6
Continuous
100
AcDbLine
 10
120.9993179999999
 20
45.52006099999998
 30
0.0
 11
120.9993179999999
 21
45.51556099999999
 31
0.0
  0
LINE
  5
972A
330
96E6
100
AcDbEntity
  8
1
  6
Continuous
100
AcDbLine
 10
119.3013179999999
 20
33.31556099999998
 30
0.0
 11
120.0993179999999
 21
33.31556099999998
 31
0.0
  0
LINE
  5
972B
330
96E6
100
AcDbEntity
  8
1
  6
Continuous
100
AcDbLine
 10
107.299318
 20
39.06556099999999
 30
0.0
 11
106.7993179999999
 21
39.06556099999999
 31
0.0
  0
LINE
  5
972C
330
96E6
100
AcDbEntity
  8
1
  6
Continuous
100
AcDbLine
 10
107.299318
 20
39.06556099999999
 30
0.0
 11
107.299318
 21
36.56556099999999
 31
0.0
  0
LINE
  5
972D
330
96E6
100
AcDbEntity
  8
1
  6
Continuous
100
AcDbLine
 10
106.7993179999999
 20
36.56556099999999
 30
0.0
 11
106.7993179999999
 21
33.31556099999998
 31
0.0
  0
LINE
  5
972E
330
96E6
100
AcDbEntity
  8
1
  6
Continuous
100
AcDbLine
 10
106.7993179999999
 20
33.31556099999998
 30
0.0
 11
107.7993179999999
 21
32.315461
 31
0.0
  0
LINE
  5
972F
330
96E6
100
AcDbEntity
  8
1
  6
Continuous
100
AcDbLine
 10
107.7993179999999
 20
35.447161
 30
0.0
 11
106.7993179999999
 21
36.447161
 31
0.0
  0
LINE
  5
9730
330
96E6
100
AcDbEntity
  8
1
  6
Continuous
100
AcDbLine
 10
106.7993179999999
 20
36.56556099999999
 30
0.0
 11
107.299318
 21
36.56556099999999
 31
0.0
  0
LINE
  5
9731
330
96E6
100
AcDbEntity
  8
1
  6
Continuous
100
AcDbLine
 10
107.7993179999999
 20
43.31556099999999
 30
0.0
 11
106.7993179999999
 21
42.31556099999997
 31
0.0
  0
LINE
  5
9732
330
96E6
100
AcDbEntity
  8
1
  6
Continuous
100
AcDbLine
 10
106.7993179999999
 20
42.31556099999997
 30
0.0
 11
106.7993179999999
 21
39.06556099999999
 31
0.0
  0
LINE
  5
9733
330
96E6
100
AcDbEntity
  8
1
  6
Continuous
100
AcDbLine
 10
106.7993179999999
 20
39.18396099999998
 30
0.0
 11
107.7993179999999
 21
40.18396099999999
 31
0.0
  0
LINE
  5
9734
330
96E6
100
AcDbEntity
  8
1
  6
Continuous
100
AcDbLine
 10
119.3013179999999
 20
42.31556099999997
 30
0.0
 11
120.0993179999999
 21
42.31556099999997
 31
0.0
  0
LINE
  5
9735
330
96E6
100
AcDbEntity
  8
1
  6
Continuous
100
AcDbLine
 10
119.2993179999999
 20
33.31556099999998
 30
0.0
 11
119.2993179999999
 21
42.31556099999997
 31
0.0
  0
LINE
  5
9736
330
96E6
100
AcDbEntity
  8
1
  6
Continuous
100
AcDbLine
 10
107.7993179999999
 20
38.86556099999999
 30
0.0
 11
107.299318
 21
38.86556099999999
 31
0.0
  0
LINE
  5
9737
330
96E6
100
AcDbEntity
  8
1
  6
Continuous
100
AcDbLine
 10
107.7993179999999
 20
36.76556099999999
 30
0.0
 11
107.299318
 21
36.76556099999999
 31
0.0
  0
LINE
  5
9738
330
96E6
100
AcDbEntity
  8
2
  6
Continuous
100
AcDbLine
 10
109.799318
 20
43.091561
 30
0.0
 11
118.2993179999999
 21
33.43956099999999
 31
0.0
  0
LINE
  5
9739
330
96E6
100
AcDbEntity
  8
1
  6
Continuous
100
AcDbLine
 10
109.799318
 20
43.091561
 30
0.0
 11
116.399318
 21
43.091561
 31
0.0
  0
LINE
  5
973A
330
96E6
100
AcDbEntity
  8
1
  6
Continuous
100
AcDbLine
 10
109.799318
 20
47.31556099999997
 30
0.0
 11
116.399318
 21
47.31556099999997
 31
0.0
  0
LINE
  5
973B
330
96E6
100
AcDbEntity
  8
1
  6
Continuous
100
AcDbLine
 10
109.799318
 20
32.53956099999999
 30
0.0
 11
116.399318
 21
32.53956099999999
 31
0.0
  0
LINE
  5
973C
330
96E6
100
AcDbEntity
  8
1
  6
Continuous
100
AcDbLine
 10
109.799318
 20
28.315561
 30
0.0
 11
116.399318
 21
28.315561
 31
0.0
  0
LINE
  5
973D
330
96E6
100
AcDbEntity
  8
1
  6
Continuous
100
AcDbLine
 10
108.7993179999999
 20
26.81556099999999
 30
0.0
 11
109.799318
 21
26.81556099999999
 31
0.0
  0
LINE
  5
973E
330
96E6
100
AcDbEntity
  8
1
  6
Continuous
100
AcDbLine
 10
108.7993179999999
 20
48.815561
 30
0.0
 11
109.799318
 21
48.815561
 31
0.0
  0
LINE
  5
973F
330
96E6
100
AcDbEntity
  8
1
  6
Continuous
100
AcDbLine
 10
108.7993179999999
 20
48.815561
 30
0.0
 11
107.7993179999999
 21
47.81556099999998
 31
0.0
  0
LINE
  5
9740
330
96E6
100
AcDbEntity
  8
1
  6
Continuous
100
AcDbLine
 10
107.7993179999999
 20
27.81556099999999
 30
0.0
 11
108.7993179999999
 21
26.81556099999999
 31
0.0
  0
LINE
  5
9741
330
96E6
100
AcDbEntity
  8
4
  6
CENTER
100
AcDbLine
 10
264.840318
 20
93.410161
 30
0.0
 11
264.840318
 21
122.5361609999998
 31
0.0
  0
LINE
  5
9742
330
96E6
100
AcDbEntity
  8
4
  6
CENTER
100
AcDbLine
 10
248.942318
 20
107.815161
 30
0.0
 11
280.5653179999998
 21
107.815161
 31
0.0
  0
LINE
  5
9743
330
96E6
100
AcDbEntity
  8
1
  6
Continuous
100
AcDbLine
 10
259.5633179999999
 20
99.915161
 30
0.0
 11
270.1163179999999
 21
99.915161
 31
0.0
  0
LINE
  5
9744
330
96E6
100
AcDbEntity
  8
1
  6
Continuous
100
AcDbLine
 10
259.5633179999999
 20
115.7151609999999
 30
0.0
 11
270.1163179999999
 21
115.7151609999999
 31
0.0
  0
LINE
  5
9745
330
96E6
100
AcDbEntity
  8
1
  6
Continuous
100
AcDbLine
 10
270.840318
 20
110.315161
 30
0.0
 11
272.5443179999999
 21
110.315161
 31
0.0
  0
LINE
  5
9746
330
96E6
100
AcDbEntity
  8
1
  6
Continuous
100
AcDbLine
 10
256.590318
 20
105.815161
 30
0.0
 11
256.290318
 21
105.815161
 31
0.0
  0
LINE
  5
9747
330
96E6
100
AcDbEntity
  8
1
  6
Continuous
100
AcDbLine
 10
256.590318
 20
109.815161
 30
0.0
 11
256.290318
 21
109.815161
 31
0.0
  0
LINE
  5
9748
330
96E6
100
AcDbEntity
  8
1
  6
Continuous
100
AcDbLine
 10
256.590318
 20
105.815161
 30
0.0
 11
256.590318
 21
109.815161
 31
0.0
  0
LINE
  5
9749
330
96E6
100
AcDbEntity
  8
1
  6
Continuous
100
AcDbLine
 10
256.290318
 20
105.815161
 30
0.0
 11
256.290318
 21
109.815161
 31
0.0
  0
LINE
  5
974A
330
96E6
100
AcDbEntity
  8
1
  6
Continuous
100
AcDbLine
 10
255.478318
 20
106.197161
 30
0.0
 11
256.290318
 21
105.815161
 31
0.0
  0
LINE
  5
974B
330
96E6
100
AcDbEntity
  8
1
  6
Continuous
100
AcDbLine
 10
255.478318
 20
109.434161
 30
0.0
 11
256.290318
 21
109.815161
 31
0.0
  0
LINE
  5
974C
330
96E6
100
AcDbEntity
  8
1
  6
Continuous
100
AcDbLine
 10
273.090318
 20
105.815161
 30
0.0
 11
273.3903179999999
 21
105.815161
 31
0.0
  0
LINE
  5
974D
330
96E6
100
AcDbEntity
  8
1
  6
Continuous
100
AcDbLine
 10
273.090318
 20
109.815161
 30
0.0
 11
273.3903179999999
 21
109.815161
 31
0.0
  0
LINE
  5
974E
330
96E6
100
AcDbEntity
  8
1
  6
Continuous
100
AcDbLine
 10
273.090318
 20
105.815161
 30
0.0
 11
273.090318
 21
109.815161
 31
0.0
  0
LINE
  5
974F
330
96E6
100
AcDbEntity
  8
1
  6
Continuous
100
AcDbLine
 10
273.3903179999999
 20
105.815161
 30
0.0
 11
273.3903179999999
 21
109.815161
 31
0.0
  0
LINE
  5
9750
330
96E6
100
AcDbEntity
  8
1
  6
Continuous
100
AcDbLine
 10
274.201318
 20
106.197161
 30
0.0
 11
273.3903179999999
 21
105.815161
 31
0.0
  0
LINE
  5
9751
330
96E6
100
AcDbEntity
  8
1
  6
Continuous
100
AcDbLine
 10
274.201318
 20
109.434161
 30
0.0
 11
273.3903179999999
 21
109.815161
 31
0.0
  0
LINE
  5
9752
330
96E6
100
AcDbEntity
  8
1
  6
Continuous
100
AcDbLine
 10
118.799318
 20
45.52006099999998
 30
0.0
 11
120.9993179999999
 21
45.52006099999998
 31
0.0
  0
LINE
  5
9753
330
96E6
100
AcDbEntity
  8
1
  6
Continuous
100
AcDbLine
 10
118.799318
 20
43.815561
 30
0.0
 11
120.0993179999999
 21
43.815561
 31
0.0
  0
LINE
  5
9754
330
96E6
100
AcDbEntity
  8
1
  6
Continuous
100
AcDbLine
 10
118.799318
 20
31.81556099999999
 30
0.0
 11
120.0993179999999
 21
31.81556099999999
 31
0.0
  0
LINE
  5
9755
330
96E6
100
AcDbEntity
  8
1
  6
Continuous
100
AcDbLine
 10
118.799318
 20
30.111061
 30
0.0
 11
120.9993179999999
 21
30.111061
 31
0.0
  0
LINE
  5
9756
330
96E6
100
AcDbEntity
  8
1
  6
Continuous
100
AcDbLine
 10
121.299318
 20
35.81556099999998
 30
0.0
 11
128.299318
 21
35.81556099999998
 31
0.0
  0
LINE
  5
9757
330
96E6
100
AcDbEntity
  8
1
  6
Continuous
100
AcDbLine
 10
127.299318
 20
41.315561
 30
0.0
 11
121.299318
 21
41.315561
 31
0.0
  0
LINE
  5
9758
330
96E6
100
AcDbEntity
  8
1
  6
Continuous
100
AcDbLine
 10
121.299318
 20
39.81556099999997
 30
0.0
 11
128.299318
 21
39.81556099999997
 31
0.0
  0
LINE
  5
9759
330
96E6
100
AcDbEntity
  8
1
  6
Continuous
100
AcDbLine
 10
127.299318
 20
34.31556099999998
 30
0.0
 11
121.299318
 21
34.31556099999998
 31
0.0
  0
LINE
  5
975A
330
96E6
100
AcDbEntity
  8
1
  6
Continuous
100
AcDbLine
 10
128.299318
 20
36.76556099999999
 30
0.0
 11
121.299318
 21
36.76556099999999
 31
0.0
  0
LINE
  5
975B
330
96E6
100
AcDbEntity
  8
1
  6
Continuous
100
AcDbLine
 10
128.299318
 20
38.86556099999999
 30
0.0
 11
121.299318
 21
38.86556099999999
 31
0.0
  0
LINE
  5
975C
330
96E6
100
AcDbEntity
  8
1
  6
Continuous
100
AcDbLine
 10
128.299318
 20
40.31556099999997
 30
0.0
 11
128.299318
 21
35.31556099999999
 31
0.0
  0
LINE
  5
975D
330
96E6
100
AcDbEntity
  8
1
  6
Continuous
100
AcDbLine
 10
127.299318
 20
41.315561
 30
0.0
 11
128.299318
 21
40.31556099999997
 31
0.0
  0
LINE
  5
975E
330
96E6
100
AcDbEntity
  8
1
  6
Continuous
100
AcDbLine
 10
128.299318
 20
35.31556099999999
 30
0.0
 11
127.299318
 21
34.31556099999998
 31
0.0
  0
LINE
  5
975F
330
96E6
100
AcDbEntity
  8
1
  6
Continuous
100
AcDbLine
 10
127.299318
 20
41.315561
 30
0.0
 11
127.299318
 21
39.81556099999997
 31
0.0
  0
LINE
  5
9760
330
96E6
100
AcDbEntity
  8
1
  6
Continuous
100
AcDbLine
 10
127.299318
 20
34.31556099999998
 30
0.0
 11
127.299318
 21
35.81556099999998
 31
0.0
  0
LINE
  5
9761
330
96E6
100
AcDbEntity
  8
1
  6
Continuous
100
AcDbLine
 10
121.5993179999999
 20
34.31556099999998
 30
0.0
 11
121.5993179999999
 21
35.81556099999998
 31
0.0
  0
LINE
  5
9762
330
96E6
100
AcDbEntity
  8
1
  6
Continuous
100
AcDbLine
 10
121.5993179999999
 20
39.81556099999997
 30
0.0
 11
121.5993179999999
 21
41.315561
 31
0.0
  0
LINE
  5
9763
330
96E6
100
AcDbEntity
  8
1
  6
Continuous
100
AcDbLine
 10
120.9993179999999
 20
31.515561
 30
0.0
 11
120.9993179999999
 21
30.111061
 31
0.0
  0
LINE
  5
9764
330
96E6
100
AcDbEntity
  8
1
  6
Continuous
100
AcDbLine
 10
257.135318
 20
110.315161
 30
0.0
 11
258.840318
 21
110.315161
 31
0.0
  0
LINE
  5
9765
330
96E6
100
AcDbEntity
  8
1
  6
Continuous
100
AcDbLine
 10
267.340318
 20
100.5321609999999
 30
0.0
 11
267.340318
 21
101.815161
 31
0.0
  0
LINE
  5
9766
330
96E6
100
AcDbEntity
  8
1
  6
Continuous
100
AcDbLine
 10
120.0993179999999
 20
45.51556099999999
 30
0.0
 11
121.299318
 21
45.51556099999999
 31
0.0
  0
LINE
  5
9767
330
96E6
100
AcDbEntity
  8
1
  6
Continuous
100
AcDbLine
 10
120.0993179999999
 20
31.515561
 30
0.0
 11
121.299318
 21
31.515561
 31
0.0
  0
LINE
  5
9768
330
96E6
100
AcDbEntity
  8
1
  6
Continuous
100
AcDbLine
 10
121.299318
 20
45.51556099999999
 30
0.0
 11
121.299318
 21
31.515561
 31
0.0
  0
LINE
  5
9769
330
96E6
100
AcDbEntity
  8
1
  6
Continuous
100
AcDbLine
 10
120.0993179999999
 20
45.51556099999999
 30
0.0
 11
120.0993179999999
 21
31.515561
 31
0.0
  0
LINE
  5
976A
330
96E6
100
AcDbEntity
  8
1
  6
Continuous
100
AcDbLine
 10
120.0993179999999
 20
35.31556099999999
 30
0.0
 11
121.299318
 21
35.31556099999999
 31
0.0
  0
LINE
  5
976B
330
96E6
100
AcDbEntity
  8
1
  6
Continuous
100
AcDbLine
 10
264.840318
 20
120.515161
 30
0.0
 11
253.841318
 21
114.165161
 31
0.0
  0
LINE
  5
976C
330
96E6
100
AcDbEntity
  8
1
  6
Continuous
100
AcDbLine
 10
253.841318
 20
114.165161
 30
0.0
 11
253.841318
 21
101.465161
 31
0.0
  0
LINE
  5
976D
330
96E6
100
AcDbEntity
  8
1
  6
Continuous
100
AcDbLine
 10
253.841318
 20
101.465161
 30
0.0
 11
264.840318
 21
95.11516099999999
 31
0.0
  0
LINE
  5
976E
330
96E6
100
AcDbEntity
  8
1
  6
Continuous
100
AcDbLine
 10
264.840318
 20
95.11516099999999
 30
0.0
 11
275.838318
 21
101.465161
 31
0.0
  0
LINE
  5
976F
330
96E6
100
AcDbEntity
  8
1
  6
Continuous
100
AcDbLine
 10
275.838318
 20
101.465161
 30
0.0
 11
275.838318
 21
114.165161
 31
0.0
  0
LINE
  5
9770
330
96E6
100
AcDbEntity
  8
1
  6
Continuous
100
AcDbLine
 10
275.838318
 20
114.165161
 30
0.0
 11
264.840318
 21
120.515161
 31
0.0
  0
LINE
  5
9771
330
96E6
100
AcDbEntity
  8
1
  6
Continuous
100
AcDbLine
 10
161.424318
 20
120.515161
 30
0.0
 11
161.424318
 21
95.11516099999999
 31
0.0
  0
LINE
  5
9772
330
96E6
100
AcDbEntity
  8
1
  6
Continuous
100
AcDbLine
 10
164.924318
 20
117.515161
 30
0.0
 11
164.924318
 21
98.115161
 31
0.0
  0
LINE
  5
9773
330
96E6
100
AcDbEntity
  8
1
  6
Continuous
100
AcDbLine
 10
161.424318
 20
120.515161
 30
0.0
 11
164.0273179999998
 21
120.515161
 31
0.0
  0
LINE
  5
9774
330
96E6
100
AcDbEntity
  8
1
  6
Continuous
100
AcDbLine
 10
161.424318
 20
114.165161
 30
0.0
 11
164.0273179999998
 21
114.165161
 31
0.0
  0
LINE
  5
9775
330
96E6
100
AcDbEntity
  8
1
  6
Continuous
100
AcDbLine
 10
161.424318
 20
95.11516099999999
 30
0.0
 11
164.0273179999998
 21
95.11516099999999
 31
0.0
  0
LINE
  5
9776
330
96E6
100
AcDbEntity
  8
1
  6
Continuous
100
AcDbLine
 10
161.424318
 20
101.465161
 30
0.0
 11
164.0273179999998
 21
101.465161
 31
0.0
  0
LINE
  5
9777
330
96E6
100
AcDbEntity
  8
1
  6
Continuous
100
AcDbLine
 10
259.340318
 20
110.991161
 30
0.0
 11
259.340318
 21
104.6401609999999
 31
0.0
  0
LINE
  5
9778
330
96E6
100
AcDbEntity
  8
1
  6
Continuous
100
AcDbLine
 10
270.340318
 20
110.991161
 30
0.0
 11
270.340318
 21
104.6401609999999
 31
0.0
  0
LINE
  5
9779
330
96E6
100
AcDbEntity
  8
1
  6
Continuous
100
AcDbLine
 10
270.340318
 20
110.991161
 30
0.0
 11
264.840318
 21
114.166161
 31
0.0
  0
LINE
  5
977A
330
96E6
100
AcDbEntity
  8
1
  6
Continuous
100
AcDbLine
 10
264.840318
 20
101.465161
 30
0.0
 11
259.340318
 21
104.6401609999999
 31
0.0
  0
LINE
  5
977B
330
96E6
100
AcDbEntity
  8
1
  6
Continuous
100
AcDbLine
 10
264.840318
 20
101.465161
 30
0.0
 11
270.340318
 21
104.6401609999999
 31
0.0
  0
LINE
  5
977C
330
96E6
100
AcDbEntity
  8
1
  6
Continuous
100
AcDbLine
 10
259.340318
 20
110.991161
 30
0.0
 11
264.840318
 21
114.166161
 31
0.0
  0
LINE
  5
977D
330
96E6
100
AcDbEntity
  8
1
  6
Continuous
100
AcDbLine
 10
189.658318
 20
114.166161
 30
0.0
 11
191.098318
 21
114.166161
 31
0.0
  0
LINE
  5
977E
330
96E6
100
AcDbEntity
  8
1
  6
Continuous
100
AcDbLine
 10
191.378318
 20
112.5781609999999
 30
0.0
 11
191.378318
 21
103.052161
 31
0.0
  0
LINE
  5
977F
330
96E6
100
AcDbEntity
  8
1
  6
Continuous
100
AcDbLine
 10
189.658318
 20
110.991161
 30
0.0
 11
191.098318
 21
110.991161
 31
0.0
  0
LINE
  5
9780
330
96E6
100
AcDbEntity
  8
1
  6
Continuous
100
AcDbLine
 10
189.3783179999998
 20
112.5781609999999
 30
0.0
 11
189.3783179999998
 21
103.052161
 31
0.0
  0
LINE
  5
9781
330
96E6
100
AcDbEntity
  8
1
  6
Continuous
100
AcDbLine
 10
189.658318
 20
101.4641609999999
 30
0.0
 11
191.098318
 21
101.4641609999999
 31
0.0
  0
LINE
  5
9782
330
96E6
100
AcDbEntity
  8
1
  6
Continuous
100
AcDbLine
 10
189.658318
 20
104.6401609999999
 30
0.0
 11
191.098318
 21
104.6401609999999
 31
0.0
  0
LINE
  5
9783
330
96E6
100
AcDbEntity
  8
1
  6
Continuous
100
AcDbLine
 10
176.299318
 20
111.470161
 30
0.0
 11
176.299318
 21
111.085161
 31
0.0
  0
LINE
  5
9784
330
96E6
100
AcDbEntity
  8
1
  6
Continuous
100
AcDbLine
 10
178.299318
 20
111.112161
 30
0.0
 11
178.299318
 21
110.727161
 31
0.0
  0
LINE
  5
9785
330
96E6
100
AcDbEntity
  8
1
  6
Continuous
100
AcDbLine
 10
176.899318
 20
114.315161
 30
0.0
 11
176.899318
 21
101.3151609999999
 31
0.0
  0
LINE
  5
9786
330
96E6
100
AcDbEntity
  8
1
  6
Continuous
100
AcDbLine
 10
177.699318
 20
114.315161
 30
0.0
 11
177.699318
 21
101.3151609999999
 31
0.0
  0
LINE
  5
9787
330
96E6
100
AcDbEntity
  8
1
  6
Continuous
100
AcDbLine
 10
176.899318
 20
114.315161
 30
0.0
 11
177.699318
 21
114.315161
 31
0.0
  0
LINE
  5
9788
330
96E6
100
AcDbEntity
  8
1
  6
Continuous
100
AcDbLine
 10
176.899318
 20
101.3151609999999
 30
0.0
 11
177.699318
 21
101.3151609999999
 31
0.0
  0
LINE
  5
9789
330
96E6
100
AcDbEntity
  8
1
  6
Continuous
100
AcDbLine
 10
176.299318
 20
111.470161
 30
0.0
 11
176.899318
 21
111.362161
 31
0.0
  0
LINE
  5
978A
330
96E6
100
AcDbEntity
  8
1
  6
Continuous
100
AcDbLine
 10
176.6983179999998
 20
110.333161
 30
0.0
 11
176.899318
 21
110.238161
 31
0.0
  0
LINE
  5
978B
330
96E6
100
AcDbEntity
  8
1
  6
Continuous
100
AcDbLine
 10
176.7773179999998
 20
108.514161
 30
0.0
 11
176.899318
 21
108.444161
 31
0.0
  0
LINE
  5
978C
330
96E6
100
AcDbEntity
  8
1
  6
Continuous
100
AcDbLine
 10
176.299318
 20
106.136161
 30
0.0
 11
176.899318
 21
105.855161
 31
0.0
  0
LINE
  5
978D
330
96E6
100
AcDbEntity
  8
1
  6
Continuous
100
AcDbLine
 10
176.299318
 20
104.519161
 30
0.0
 11
176.899318
 21
104.4111609999998
 31
0.0
  0
LINE
  5
978E
330
96E6
100
AcDbEntity
  8
1
  6
Continuous
100
AcDbLine
 10
176.299318
 20
111.085161
 30
0.0
 11
176.899318
 21
110.977161
 31
0.0
  0
LINE
  5
978F
330
96E6
100
AcDbEntity
  8
1
  6
Continuous
100
AcDbLine
 10
176.3023179999999
 20
109.8871609999999
 30
0.0
 11
176.899318
 21
109.608161
 31
0.0
  0
LINE
  5
9790
330
96E6
100
AcDbEntity
  8
1
  6
Continuous
100
AcDbLine
 10
176.378318
 20
107.821161
 30
0.0
 11
176.899318
 21
107.519161
 31
0.0
  0
LINE
  5
9791
330
96E6
100
AcDbEntity
  8
1
  6
Continuous
100
AcDbLine
 10
176.299318
 20
105.674161
 30
0.0
 11
176.899318
 21
105.393161
 31
0.0
  0
LINE
  5
9792
330
96E6
100
AcDbEntity
  8
1
  6
Continuous
100
AcDbLine
 10
176.299318
 20
104.1411609999999
 30
0.0
 11
176.899318
 21
104.0331609999998
 31
0.0
  0
LINE
  5
9793
330
96E6
100
AcDbEntity
  8
1
  6
Continuous
100
AcDbLine
 10
176.299318
 20
106.136161
 30
0.0
 11
176.299318
 21
105.674161
 31
0.0
  0
LINE
  5
9794
330
96E6
100
AcDbEntity
  8
1
  6
Continuous
100
AcDbLine
 10
176.299318
 20
104.519161
 30
0.0
 11
176.299318
 21
104.1411609999999
 31
0.0
  0
LINE
  5
9795
330
96E6
100
AcDbEntity
  8
1
  6
Continuous
100
AcDbLine
 10
176.3133179999999
 20
109.901161
 30
0.0
 11
176.7093179999999
 21
110.346161
 31
0.0
  0
LINE
  5
9796
330
96E6
100
AcDbEntity
  8
1
  6
Continuous
100
AcDbLine
 10
177.9033179999999
 20
109.138161
 30
0.0
 11
178.299318
 21
109.583161
 31
0.0
  0
LINE
  5
9797
330
96E6
100
AcDbEntity
  8
1
  6
Continuous
100
AcDbLine
 10
176.378318
 20
107.821161
 30
0.0
 11
176.7773179999998
 21
108.514161
 31
0.0
  0
LINE
  5
9798
330
96E6
100
AcDbEntity
  8
1
  6
Continuous
100
AcDbLine
 10
178.378318
 20
107.588161
 30
0.0
 11
178.0743179999998
 21
106.839161
 31
0.0
  0
LINE
  5
9799
330
96E6
100
AcDbEntity
  8
1
  6
Continuous
100
AcDbLine
 10
177.699318
 20
111.219161
 30
0.0
 11
178.299318
 21
111.112161
 31
0.0
  0
LINE
  5
979A
330
96E6
100
AcDbEntity
  8
1
  6
Continuous
100
AcDbLine
 10
177.699318
 20
110.8341609999999
 30
0.0
 11
178.299318
 21
110.727161
 31
0.0
  0
LINE
  5
979B
330
96E6
100
AcDbEntity
  8
1
  6
Continuous
100
AcDbLine
 10
177.699318
 20
109.864161
 30
0.0
 11
178.299318
 21
109.583161
 31
0.0
  0
LINE
  5
979C
330
96E6
100
AcDbEntity
  8
1
  6
Continuous
100
AcDbLine
 10
177.699318
 20
109.233161
 30
0.0
 11
177.9033179999999
 21
109.138161
 31
0.0
  0
LINE
  5
979D
330
96E6
100
AcDbEntity
  8
1
  6
Continuous
100
AcDbLine
 10
177.699318
 20
107.981161
 30
0.0
 11
178.378318
 21
107.588161
 31
0.0
  0
LINE
  5
979E
330
96E6
100
AcDbEntity
  8
1
  6
Continuous
100
AcDbLine
 10
177.699318
 20
107.056161
 30
0.0
 11
178.0743179999998
 21
106.839161
 31
0.0
  0
LINE
  5
979F
330
96E6
100
AcDbEntity
  8
1
  6
Continuous
100
AcDbLine
 10
177.699318
 20
105.480161
 30
0.0
 11
178.299318
 21
105.1991609999999
 31
0.0
  0
LINE
  5
97A0
330
96E6
100
AcDbEntity
  8
1
  6
Continuous
100
AcDbLine
 10
177.699318
 20
105.019161
 30
0.0
 11
177.912318
 21
104.919161
 31
0.0
  0
LINE
  5
97A1
330
96E6
100
AcDbEntity
  8
1
  6
Continuous
100
AcDbLine
 10
177.699318
 20
104.268161
 30
0.0
 11
178.299318
 21
104.1611609999998
 31
0.0
  0
LINE
  5
97A2
330
96E6
100
AcDbEntity
  8
1
  6
Continuous
100
AcDbLine
 10
177.699318
 20
103.8901609999999
 30
0.0
 11
177.8903179999999
 21
103.8561609999999
 31
0.0
  0
LINE
  5
97A3
330
96E6
100
AcDbEntity
  8
1
  6
Continuous
100
AcDbLine
 10
14.70551799999999
 20
180.975161
 30
0.0
 11
14.70551799999999
 21
174.655161
 31
0.0
  0
LINE
  5
97A4
330
96E6
100
AcDbEntity
  8
1
  6
Continuous
100
AcDbLine
 10
20.19791799999999
 20
167.815161
 30
0.0
 11
22.928518
 21
167.815161
 31
0.0
  0
LINE
  5
97A5
330
96E6
100
AcDbEntity
  8
1
  6
Continuous
100
AcDbLine
 10
20.19791799999999
 20
187.8151609999999
 30
0.0
 11
22.928518
 21
187.8151609999999
 31
0.0
  0
LINE
  5
97A6
330
96E6
100
AcDbEntity
  8
1
  6
Continuous
100
AcDbLine
 10
14.912818
 20
181.5851609999999
 30
0.0
 11
19.40521799999999
 21
187.4251609999998
 31
0.0
  0
LINE
  5
97A7
330
96E6
100
AcDbEntity
  8
1
  6
Continuous
100
AcDbLine
 10
14.912818
 20
174.046161
 30
0.0
 11
19.40521799999999
 21
168.206161
 31
0.0
  0
LINE
  5
97A8
330
96E6
100
AcDbEntity
  8
1
  6
Continuous
100
AcDbLine
 10
30.705518
 20
172.3151609999999
 30
0.0
 11
35.705518
 21
172.3151609999999
 31
0.0
  0
LINE
  5
97A9
330
96E6
100
AcDbEntity
  8
1
  6
Continuous
100
AcDbLine
 10
30.705518
 20
183.3151609999999
 30
0.0
 11
35.705518
 21
183.3151609999999
 31
0.0
  0
LINE
  5
97AA
330
96E6
100
AcDbEntity
  8
1
  6
Continuous
100
AcDbLine
 10
23.44301799999999
 20
187.673161
 30
0.0
 11
30.705518
 21
183.3151609999999
 31
0.0
  0
LINE
  5
97AB
330
96E6
100
AcDbEntity
  8
1
  6
Continuous
100
AcDbLine
 10
23.44301799999999
 20
167.9581609999999
 30
0.0
 11
30.70541799999999
 21
172.3151609999999
 31
0.0
  0
LINE
  5
97AC
330
96E6
100
AcDbEntity
  8
1
  6
Continuous
100
AcDbLine
 10
35.905518
 20
174.740161
 30
0.0
 11
45.857618
 21
174.740161
 31
0.0
  0
LINE
  5
97AD
330
96E6
100
AcDbEntity
  8
1
  6
Continuous
100
AcDbLine
 10
35.905518
 20
180.890161
 30
0.0
 11
45.857618
 21
180.890161
 31
0.0
  0
LINE
  5
97AE
330
96E6
100
AcDbEntity
  8
1
  6
Continuous
100
AcDbLine
 10
35.905518
 20
174.740161
 30
0.0
 11
35.905518
 21
173.9401609999999
 31
0.0
  0
LINE
  5
97AF
330
96E6
100
AcDbEntity
  8
1
  6
Continuous
100
AcDbLine
 10
36.20551799999999
 20
173.640161
 30
0.0
 11
36.20551799999999
 21
172.8151609999999
 31
0.0
  0
LINE
  5
97B0
330
96E6
100
AcDbEntity
  8
1
  6
Continuous
100
AcDbLine
 10
35.905518
 20
173.9401609999999
 30
0.0
 11
36.20551799999999
 21
173.640161
 31
0.0
  0
LINE
  5
97B1
330
96E6
100
AcDbEntity
  8
1
  6
Continuous
100
AcDbLine
 10
35.905518
 20
180.890161
 30
0.0
 11
35.905518
 21
181.690161
 31
0.0
  0
LINE
  5
97B2
330
96E6
100
AcDbEntity
  8
1
  6
Continuous
100
AcDbLine
 10
36.20551799999999
 20
181.990161
 30
0.0
 11
36.20551799999999
 21
182.8151609999999
 31
0.0
  0
LINE
  5
97B3
330
96E6
100
AcDbEntity
  8
1
  6
Continuous
100
AcDbLine
 10
35.905518
 20
181.690161
 30
0.0
 11
36.20551799999999
 21
181.990161
 31
0.0
  0
LINE
  5
97B4
330
96E6
100
AcDbEntity
  8
1
  6
Continuous
100
AcDbLine
 10
16.70551799999999
 20
180.315161
 30
0.0
 11
16.70551799999999
 21
175.3151609999999
 31
0.0
  0
LINE
  5
97B5
330
96E6
100
AcDbEntity
  8
1
  6
Continuous
100
AcDbLine
 10
19.20551799999999
 20
180.315161
 30
0.0
 11
19.20551799999999
 21
175.3151609999999
 31
0.0
  0
LINE
  5
97B6
330
96E6
100
AcDbEntity
  8
1
  6
Continuous
100
AcDbLine
 10
17.20551799999999
 20
174.8151609999999
 30
0.0
 11
18.70551799999999
 21
174.8151609999999
 31
0.0
  0
LINE
  5
97B7
330
96E6
100
AcDbEntity
  8
1
  6
Continuous
100
AcDbLine
 10
17.20551799999999
 20
180.8151609999999
 30
0.0
 11
18.70551799999999
 21
180.8151609999999
 31
0.0
  0
LINE
  5
97B8
330
96E6
100
AcDbEntity
  8
4
  6
CENTER
100
AcDbLine
 10
11.15751799999999
 20
177.8151609999999
 30
0.0
 11
51.644618
 21
177.8151609999999
 31
0.0
  0
LINE
  5
97B9
330
96E6
100
AcDbEntity
  8
1
  6
Continuous
100
AcDbLine
 10
47.98331799999998
 20
179.907161
 30
0.0
 11
45.857618
 21
180.890161
 31
0.0
  0
LINE
  5
97BA
330
96E6
100
AcDbEntity
  8
1
  6
Continuous
100
AcDbLine
 10
47.98331799999998
 20
175.724161
 30
0.0
 11
45.857618
 21
174.740161
 31
0.0
  0
LINE
  5
97BB
330
96E6
100
AcDbEntity
  8
1
  6
Continuous
100
AcDbLine
 10
267.0653179999998
 20
105.115161
 30
0.0
 11
265.8903179999999
 21
105.115161
 31
0.0
  0
LINE
  5
97BC
330
96E6
100
AcDbEntity
  8
1
  6
Continuous
100
AcDbLine
 10
262.590318
 20
110.515161
 30
0.0
 11
267.0653179999998
 21
110.515161
 31
0.0
  0
LINE
  5
97BD
330
96E6
100
AcDbEntity
  8
1
  6
Continuous
100
AcDbLine
 10
263.790318
 20
106.417161
 30
0.0
 11
263.790318
 21
105.115161
 31
0.0
  0
LINE
  5
97BE
330
96E6
100
AcDbEntity
  8
1
  6
Continuous
100
AcDbLine
 10
265.8903179999999
 20
106.417161
 30
0.0
 11
265.8903179999999
 21
105.115161
 31
0.0
  0
LINE
  5
97BF
330
96E6
100
AcDbEntity
  8
1
  6
Continuous
100
AcDbLine
 10
263.790318
 20
106.417161
 30
0.0
 11
265.8903179999999
 21
106.417161
 31
0.0
  0
LINE
  5
97C0
330
96E6
100
AcDbEntity
  8
1
  6
Continuous
100
AcDbLine
 10
263.790318
 20
105.115161
 30
0.0
 11
262.612318
 21
105.115161
 31
0.0
  0
LINE
  5
97C1
330
96E6
100
AcDbEntity
  8
4
  6
CENTER
100
AcDbLine
 10
131.186318
 20
107.815161
 30
0.0
 11
103.567318
 21
107.815161
 31
0.0
  0
LINE
  5
97C2
330
96E6
100
AcDbEntity
  8
1
  6
Continuous
100
AcDbLine
 10
107.7993179999999
 20
97.81516100000001
 30
0.0
 11
107.7993179999999
 21
117.815161
 31
0.0
  0
LINE
  5
97C3
330
96E6
100
AcDbEntity
  8
1
  6
Continuous
100
AcDbLine
 10
109.799318
 20
96.81516100000001
 30
0.0
 11
109.799318
 21
118.815161
 31
0.0
  0
LINE
  5
97C4
330
96E6
100
AcDbEntity
  8
1
  6
Continuous
100
AcDbLine
 10
109.799318
 20
96.81516100000001
 30
0.0
 11
108.7993179999999
 21
96.81516100000001
 31
0.0
  0
LINE
  5
97C5
330
96E6
100
AcDbEntity
  8
1
  6
Continuous
100
AcDbLine
 10
109.799318
 20
118.815161
 30
0.0
 11
108.7993179999999
 21
118.815161
 31
0.0
  0
LINE
  5
97C6
330
96E6
100
AcDbEntity
  8
1
  6
Continuous
100
AcDbLine
 10
108.7993179999999
 20
118.815161
 30
0.0
 11
107.7993179999999
 21
117.815161
 31
0.0
  0
LINE
  5
97C7
330
96E6
100
AcDbEntity
  8
1
  6
Continuous
100
AcDbLine
 10
107.7993179999999
 20
97.81516100000001
 30
0.0
 11
108.7993179999999
 21
96.81516100000001
 31
0.0
  0
LINE
  5
97C8
330
96E6
100
AcDbEntity
  8
1
  6
Continuous
100
AcDbLine
 10
108.7993179999999
 20
118.815161
 30
0.0
 11
108.7993179999999
 21
96.81516100000001
 31
0.0
  0
LINE
  5
97C9
330
96E6
100
AcDbEntity
  8
1
  6
Continuous
100
AcDbLine
 10
118.799318
 20
99.915161
 30
0.0
 11
109.799318
 21
99.915161
 31
0.0
  0
LINE
  5
97CA
330
96E6
100
AcDbEntity
  8
1
  6
Continuous
100
AcDbLine
 10
120.9993179999999
 20
115.7151609999999
 30
0.0
 11
109.799318
 21
115.7151609999999
 31
0.0
  0
LINE
  5
97CB
330
96E6
100
AcDbEntity
  8
1
  6
Continuous
100
AcDbLine
 10
120.9993179999999
 20
110.315161
 30
0.0
 11
120.9993179999999
 21
115.7151609999999
 31
0.0
  0
LINE
  5
97CC
330
96E6
100
AcDbEntity
  8
1
  6
Continuous
100
AcDbLine
 10
118.799318
 20
99.915161
 30
0.0
 11
118.799318
 21
115.7151609999999
 31
0.0
  0
LINE
  5
97CD
330
96E6
100
AcDbEntity
  8
1
  6
Continuous
100
AcDbLine
 10
120.9993179999999
 20
110.315161
 30
0.0
 11
118.799318
 21
110.315161
 31
0.0
  0
LINE
  5
97CE
330
96E6
100
AcDbEntity
  8
1
  6
Continuous
100
AcDbLine
 10
116.399318
 20
99.915161
 30
0.0
 11
116.399318
 21
106.2151609999999
 31
0.0
  0
LINE
  5
97CF
330
96E6
100
AcDbEntity
  8
1
  6
Continuous
100
AcDbLine
 10
118.2993179999999
 20
99.915161
 30
0.0
 11
118.2993179999999
 21
106.2151609999999
 31
0.0
  0
LINE
  5
97D0
330
96E6
100
AcDbEntity
  8
1
  6
Continuous
100
AcDbLine
 10
118.799318
 20
106.2151609999999
 30
0.0
 11
111.399318
 21
106.2151609999999
 31
0.0
  0
LINE
  5
97D1
330
96E6
100
AcDbEntity
  8
1
  6
Continuous
100
AcDbLine
 10
118.799318
 20
109.415161
 30
0.0
 11
111.399318
 21
109.415161
 31
0.0
  0
LINE
  5
97D2
330
96E6
100
AcDbEntity
  8
1
  6
Continuous
100
AcDbLine
 10
118.2993179999999
 20
109.415161
 30
0.0
 11
118.2993179999999
 21
115.7151609999999
 31
0.0
  0
LINE
  5
97D3
330
96E6
100
AcDbEntity
  8
1
  6
Continuous
100
AcDbLine
 10
116.399318
 20
109.415161
 30
0.0
 11
116.399318
 21
115.7151609999999
 31
0.0
  0
LINE
  5
97D4
330
96E6
100
AcDbEntity
  8
1
  6
Continuous
100
AcDbLine
 10
106.7993179999999
 20
112.315161
 30
0.0
 11
106.7993179999999
 21
103.3151609999999
 31
0.0
  0
LINE
  5
97D5
330
96E6
100
AcDbEntity
  8
1
  6
Continuous
100
AcDbLine
 10
106.7993179999999
 20
103.3151609999999
 30
0.0
 11
107.7993179999999
 21
102.3151609999999
 31
0.0
  0
LINE
  5
97D6
330
96E6
100
AcDbEntity
  8
1
  6
Continuous
100
AcDbLine
 10
107.7993179999999
 20
113.315161
 30
0.0
 11
106.7993179999999
 21
112.315161
 31
0.0
  0
LINE
  5
97D7
330
96E6
100
AcDbEntity
  8
1
  6
Continuous
100
AcDbLine
 10
119.2993179999999
 20
103.3151609999999
 30
0.0
 11
119.2993179999999
 21
110.315161
 31
0.0
  0
LINE
  5
97D8
330
96E6
100
AcDbEntity
  8
1
  6
Continuous
100
AcDbLine
 10
119.8993179999998
 20
103.3151609999999
 30
0.0
 11
119.2993179999999
 21
103.3151609999999
 31
0.0
  0
LINE
  5
97D9
330
96E6
100
AcDbEntity
  8
1
  6
Continuous
100
AcDbLine
 10
128.299318
 20
105.115161
 30
0.0
 11
128.299318
 21
110.515161
 31
0.0
  0
LINE
  5
97DA
330
96E6
100
AcDbEntity
  8
1
  6
Continuous
100
AcDbLine
 10
128.299318
 20
110.515161
 30
0.0
 11
121.299318
 21
110.515161
 31
0.0
  0
LINE
  5
97DB
330
96E6
100
AcDbEntity
  8
1
  6
Continuous
100
AcDbLine
 10
126.7993179999999
 20
105.115161
 30
0.0
 11
126.7993179999999
 21
110.515161
 31
0.0
  0
LINE
  5
97DC
330
96E6
100
AcDbEntity
  8
1
  6
Continuous
100
AcDbLine
 10
120.0993179999999
 20
103.5151609999999
 30
0.0
 11
119.8993179999998
 21
103.3151609999999
 31
0.0
  0
LINE
  5
97DD
330
96E6
100
AcDbEntity
  8
1
  6
Continuous
100
AcDbLine
 10
121.299318
 20
114.115161
 30
0.0
 11
120.9993179999999
 21
114.115161
 31
0.0
  0
LINE
  5
97DE
330
96E6
100
AcDbEntity
  8
1
  6
Continuous
100
AcDbLine
 10
121.299318
 20
100.1151609999999
 30
0.0
 11
120.0993179999999
 21
100.1151609999999
 31
0.0
  0
LINE
  5
97DF
330
96E6
100
AcDbEntity
  8
1
  6
Continuous
100
AcDbLine
 10
120.0993179999999
 20
110.315161
 30
0.0
 11
120.0993179999999
 21
100.1151609999999
 31
0.0
  0
LINE
  5
97E0
330
96E6
100
AcDbEntity
  8
1
  6
Continuous
100
AcDbLine
 10
121.299318
 20
114.115161
 30
0.0
 11
121.299318
 21
100.1151609999999
 31
0.0
  0
LINE
  5
97E1
330
96E6
100
AcDbEntity
  8
1
  6
Continuous
100
AcDbLine
 10
121.299318
 20
110.315161
 30
0.0
 11
120.9993179999999
 21
110.315161
 31
0.0
  0
LINE
  5
97E2
330
96E6
100
AcDbEntity
  8
1
  6
Continuous
100
AcDbLine
 10
163.9623179999999
 20
48.81406099999999
 30
0.0
 11
161.424318
 21
48.81406099999999
 31
0.0
  0
LINE
  5
97E3
330
96E6
100
AcDbEntity
  8
1
  6
Continuous
100
AcDbLine
 10
163.9623179999999
 20
26.81706099999999
 30
0.0
 11
161.424318
 21
26.81706099999999
 31
0.0
  0
LINE
  5
97E4
330
96E6
100
AcDbEntity
  8
1
  6
Continuous
100
AcDbLine
 10
161.424318
 20
48.81406099999999
 30
0.0
 11
161.424318
 21
26.81706099999999
 31
0.0
  0
LINE
  5
97E5
330
96E6
100
AcDbEntity
  8
1
  6
Continuous
100
AcDbLine
 10
164.924318
 20
43.314861
 30
0.0
 11
164.924318
 21
32.31626099999999
 31
0.0
  0
LINE
  5
97E6
330
96E6
100
AcDbEntity
  8
1
  6
Continuous
100
AcDbLine
 10
163.9623179999999
 20
37.81556099999999
 30
0.0
 11
161.424318
 21
37.81556099999999
 31
0.0
  0
LINE
  5
97E7
330
96E6
100
AcDbEntity
  8
1
  6
Continuous
100
AcDbLine
 10
176.299318
 20
41.46996099999999
 30
0.0
 11
176.299318
 21
41.08486099999999
 31
0.0
  0
LINE
  5
97E8
330
96E6
100
AcDbEntity
  8
1
  6
Continuous
100
AcDbLine
 10
178.299318
 20
41.11226099999997
 30
0.0
 11
178.299318
 21
40.727161
 31
0.0
  0
LINE
  5
97E9
330
96E6
100
AcDbEntity
  8
1
  6
Continuous
100
AcDbLine
 10
176.899318
 20
44.31556099999998
 30
0.0
 11
176.899318
 21
31.315561
 31
0.0
  0
LINE
  5
97EA
330
96E6
100
AcDbEntity
  8
1
  6
Continuous
100
AcDbLine
 10
177.699318
 20
44.31556099999998
 30
0.0
 11
177.699318
 21
31.315561
 31
0.0
  0
LINE
  5
97EB
330
96E6
100
AcDbEntity
  8
1
  6
Continuous
100
AcDbLine
 10
176.899318
 20
44.31556099999998
 30
0.0
 11
177.699318
 21
44.31556099999998
 31
0.0
  0
LINE
  5
97EC
330
96E6
100
AcDbEntity
  8
1
  6
Continuous
100
AcDbLine
 10
176.899318
 20
31.315561
 30
0.0
 11
177.699318
 21
31.315561
 31
0.0
  0
LINE
  5
97ED
330
96E6
100
AcDbEntity
  8
1
  6
Continuous
100
AcDbLine
 10
176.299318
 20
41.46996099999999
 30
0.0
 11
176.899318
 21
41.36266099999999
 31
0.0
  0
LINE
  5
97EE
330
96E6
100
AcDbEntity
  8
1
  6
Continuous
100
AcDbLine
 10
176.6983179999998
 20
40.332861
 30
0.0
 11
176.899318
 21
40.238661
 31
0.0
  0
LINE
  5
97EF
330
96E6
100
AcDbEntity
  8
1
  6
Continuous
100
AcDbLine
 10
176.7773179999998
 20
38.51426099999999
 30
0.0
 11
176.899318
 21
38.444061
 31
0.0
  0
LINE
  5
97F0
330
96E6
100
AcDbEntity
  8
1
  6
Continuous
100
AcDbLine
 10
176.299318
 20
36.13576099999999
 30
0.0
 11
176.899318
 21
35.854861
 31
0.0
  0
LINE
  5
97F1
330
96E6
100
AcDbEntity
  8
1
  6
Continuous
100
AcDbLine
 10
176.299318
 20
34.518861
 30
0.0
 11
176.899318
 21
34.411561
 31
0.0
  0
LINE
  5
97F2
330
96E6
100
AcDbEntity
  8
1
  6
Continuous
100
AcDbLine
 10
176.299318
 20
41.08486099999999
 30
0.0
 11
176.899318
 21
40.977561
 31
0.0
  0
LINE
  5
97F3
330
96E6
100
AcDbEntity
  8
1
  6
Continuous
100
AcDbLine
 10
176.3023179999999
 20
39.887661
 30
0.0
 11
176.899318
 21
39.60816099999997
 31
0.0
  0
LINE
  5
97F4
330
96E6
100
AcDbEntity
  8
1
  6
Continuous
100
AcDbLine
 10
176.378318
 20
37.821061
 30
0.0
 11
176.899318
 21
37.519661
 31
0.0
  0
LINE
  5
97F5
330
96E6
100
AcDbEntity
  8
1
  6
Continuous
100
AcDbLine
 10
176.299318
 20
35.67456099999999
 30
0.0
 11
176.899318
 21
35.393561
 31
0.0
  0
LINE
  5
97F6
330
96E6
100
AcDbEntity
  8
1
  6
Continuous
100
AcDbLine
 10
176.299318
 20
34.14076099999999
 30
0.0
 11
176.899318
 21
34.03346099999998
 31
0.0
  0
LINE
  5
97F7
330
96E6
100
AcDbEntity
  8
1
  6
Continuous
100
AcDbLine
 10
176.299318
 20
36.13576099999999
 30
0.0
 11
176.299318
 21
35.67456099999999
 31
0.0
  0
LINE
  5
97F8
330
96E6
100
AcDbEntity
  8
1
  6
Continuous
100
AcDbLine
 10
176.299318
 20
34.518861
 30
0.0
 11
176.299318
 21
34.14076099999999
 31
0.0
  0
LINE
  5
97F9
330
96E6
100
AcDbEntity
  8
1
  6
Continuous
100
AcDbLine
 10
176.3133179999999
 20
39.900861
 30
0.0
 11
176.7093179999999
 21
40.346061
 31
0.0
  0
LINE
  5
97FA
330
96E6
100
AcDbEntity
  8
1
  6
Continuous
100
AcDbLine
 10
177.9033179999999
 20
39.13796099999999
 30
0.0
 11
178.299318
 21
39.583061
 31
0.0
  0
LINE
  5
97FB
330
96E6
100
AcDbEntity
  8
1
  6
Continuous
100
AcDbLine
 10
176.378318
 20
37.821061
 30
0.0
 11
176.7773179999998
 21
38.51426099999999
 31
0.0
  0
LINE
  5
97FC
330
96E6
100
AcDbEntity
  8
1
  6
Continuous
100
AcDbLine
 10
178.378318
 20
37.587761
 30
0.0
 11
178.0743179999998
 21
36.839661
 31
0.0
  0
LINE
  5
97FD
330
96E6
100
AcDbEntity
  8
1
  6
Continuous
100
AcDbLine
 10
177.699318
 20
41.219561
 30
0.0
 11
178.299318
 21
41.11226099999997
 31
0.0
  0
LINE
  5
97FE
330
96E6
100
AcDbEntity
  8
1
  6
Continuous
100
AcDbLine
 10
177.699318
 20
40.83446099999997
 30
0.0
 11
178.299318
 21
40.727161
 31
0.0
  0
LINE
  5
97FF
330
96E6
100
AcDbEntity
  8
1
  6
Continuous
100
AcDbLine
 10
177.699318
 20
39.86406099999999
 30
0.0
 11
178.299318
 21
39.583061
 31
0.0
  0
LINE
  5
9800
330
96E6
100
AcDbEntity
  8
1
  6
Continuous
100
AcDbLine
 10
177.699318
 20
39.233561
 30
0.0
 11
177.9033179999999
 21
39.13796099999999
 31
0.0
  0
LINE
  5
9801
330
96E6
100
AcDbEntity
  8
1
  6
Continuous
100
AcDbLine
 10
177.699318
 20
37.980961
 30
0.0
 11
178.378318
 21
37.587761
 31
0.0
  0
LINE
  5
9802
330
96E6
100
AcDbEntity
  8
1
  6
Continuous
100
AcDbLine
 10
177.699318
 20
37.056661
 30
0.0
 11
178.0743179999998
 21
36.839661
 31
0.0
  0
LINE
  5
9803
330
96E6
100
AcDbEntity
  8
1
  6
Continuous
100
AcDbLine
 10
177.699318
 20
35.48026099999999
 30
0.0
 11
178.299318
 21
35.199261
 31
0.0
  0
LINE
  5
9804
330
96E6
100
AcDbEntity
  8
1
  6
Continuous
100
AcDbLine
 10
177.699318
 20
35.01896099999999
 30
0.0
 11
177.912318
 21
34.919061
 31
0.0
  0
LINE
  5
9805
330
96E6
100
AcDbEntity
  8
1
  6
Continuous
100
AcDbLine
 10
177.699318
 20
34.26846100000001
 30
0.0
 11
178.299318
 21
34.16116099999999
 31
0.0
  0
LINE
  5
9806
330
96E6
100
AcDbEntity
  8
1
  6
Continuous
100
AcDbLine
 10
177.699318
 20
33.890361
 30
0.0
 11
177.8903179999999
 21
33.85626099999999
 31
0.0
  0
LINE
  5
9807
330
96E6
100
AcDbEntity
  8
1
  6
Continuous
100
AcDbLine
 10
191.098318
 20
43.31556099999999
 30
0.0
 11
189.658318
 21
43.31556099999999
 31
0.0
  0
LINE
  5
9808
330
96E6
100
AcDbEntity
  8
1
  6
Continuous
100
AcDbLine
 10
191.098318
 20
32.31556099999998
 30
0.0
 11
189.658318
 21
32.31556099999998
 31
0.0
  0
LINE
  5
9809
330
96E6
100
AcDbEntity
  8
1
  6
Continuous
100
AcDbLine
 10
191.378318
 20
40.56556099999997
 30
0.0
 11
191.378318
 21
35.06556099999999
 31
0.0
  0
LINE
  5
980A
330
96E6
100
AcDbEntity
  8
1
  6
Continuous
100
AcDbLine
 10
189.3783179999998
 20
40.56556099999997
 30
0.0
 11
189.3783179999998
 21
35.06556099999999
 31
0.0
  0
LINE
  5
980B
330
96E6
100
AcDbEntity
  8
1
  6
Continuous
100
AcDbLine
 10
191.098318
 20
37.81556099999999
 30
0.0
 11
189.658318
 21
37.81556099999999
 31
0.0
  0
LINE
  5
980C
330
96E6
100
AcDbEntity
  8
1
  6
Continuous
100
AcDbLine
 10
121.299318
 20
105.115161
 30
0.0
 11
128.299318
 21
105.115161
 31
0.0
  0
LINE
  5
980D
330
96E6
100
AcDbEntity
  8
4
  6
CENTER
100
AcDbLine
 10
158.4743179999998
 20
37.81556099999999
 30
0.0
 11
193.895318
 21
37.81556099999999
 31
0.0
  0
LINE
  5
980E
330
96E6
100
AcDbEntity
  8
4
  6
CENTER
100
AcDbLine
 10
158.4743179999998
 20
107.815161
 30
0.0
 11
193.895318
 21
107.815161
 31
0.0
  0
LINE
  5
980F
330
96E6
100
AcDbEntity
  8
1
  6
Continuous
100
AcDbLine
 10
120.0993179999999
 20
38.86556099999999
 30
0.0
 11
119.2993179999999
 21
38.86556099999999
 31
0.0
  0
LINE
  5
9810
330
96E6
100
AcDbEntity
  8
1
  6
Continuous
100
AcDbLine
 10
120.0993179999999
 20
36.76556099999999
 30
0.0
 11
119.2993179999999
 21
36.76556099999999
 31
0.0
  0
LINE
  5
9811
330
96E6
100
AcDbEntity
  8
2
  6
Continuous
100
AcDbLine
 10
121.5993179999999
 20
40.90956099999997
 30
0.0
 11
127.705318
 21
40.90956099999997
 31
0.0
  0
LINE
  5
9812
330
96E6
100
AcDbEntity
  8
2
  6
Continuous
100
AcDbLine
 10
121.5993179999999
 20
34.721561
 30
0.0
 11
127.705318
 21
34.721561
 31
0.0
  0
LINE
  5
9813
330
96E6
100
AcDbEntity
  8
2
  6
Continuous
100
AcDbLine
 10
121.299318
 20
34.548361
 30
0.0
 11
121.5993179999999
 21
34.721561
 31
0.0
  0
LINE
  5
9814
330
96E6
100
AcDbEntity
  8
2
  6
Continuous
100
AcDbLine
 10
121.299318
 20
41.082761
 30
0.0
 11
121.5993179999999
 21
40.90956099999997
 31
0.0
  0
LINE
  5
9815
330
96E6
100
AcDbEntity
  8
1
  6
Continuous
100
AcDbLine
 10
121.299318
 20
184.115161
 30
0.0
 11
120.9993179999999
 21
184.115161
 31
0.0
  0
LINE
  5
9816
330
96E6
100
AcDbEntity
  8
1
  6
Continuous
100
AcDbLine
 10
121.299318
 20
170.115161
 30
0.0
 11
120.0993179999999
 21
170.115161
 31
0.0
  0
LINE
  5
9817
330
96E6
100
AcDbEntity
  8
1
  6
Continuous
100
AcDbLine
 10
121.299318
 20
170.532161
 30
0.0
 11
120.9993179999999
 21
170.532161
 31
0.0
  0
LINE
  5
9818
330
96E6
100
AcDbEntity
  8
1
  6
Continuous
100
AcDbLine
 10
121.299318
 20
172.033161
 30
0.0
 11
120.9993179999999
 21
172.033161
 31
0.0
  0
LINE
  5
9819
330
96E6
100
AcDbEntity
  8
1
  6
Continuous
100
AcDbLine
 10
121.299318
 20
170.115161
 30
0.0
 11
121.299318
 21
184.115161
 31
0.0
  0
LINE
  5
981A
330
96E6
100
AcDbEntity
  8
1
  6
Continuous
100
AcDbLine
 10
109.799318
 20
188.8041609999999
 30
0.0
 11
109.799318
 21
176.108161
 31
0.0
  0
LINE
  5
981B
330
96E6
100
AcDbEntity
  8
1
  6
Continuous
100
AcDbLine
 10
107.7993179999999
 20
167.815161
 30
0.0
 11
107.7993179999999
 21
187.8151609999999
 31
0.0
  0
LINE
  5
981C
330
96E6
100
AcDbEntity
  8
1
  6
Continuous
100
AcDbLine
 10
108.7993179999999
 20
166.8151609999999
 30
0.0
 11
108.7993179999999
 21
188.8151609999999
 31
0.0
  0
LINE
  5
981D
330
96E6
100
AcDbEntity
  8
1
  6
Continuous
100
AcDbLine
 10
109.799318
 20
166.8151609999999
 30
0.0
 11
109.799318
 21
176.108161
 31
0.0
  0
LINE
  5
981E
330
96E6
100
AcDbEntity
  8
4
  6
CENTER
100
AcDbLine
 10
105.4073179999999
 20
177.8151609999999
 30
0.0
 11
130.1433179999999
 21
177.8151609999999
 31
0.0
  0
LINE
  5
981F
330
96E6
100
AcDbEntity
  8
1
  6
Continuous
100
AcDbLine
 10
117.2993179999999
 20
169.2151609999999
 30
0.0
 11
118.2993179999999
 21
169.2151609999999
 31
0.0
  0
LINE
  5
9820
330
96E6
100
AcDbEntity
  8
1
  6
Continuous
100
AcDbLine
 10
118.799318
 20
169.7151609999999
 30
0.0
 11
118.799318
 21
185.904161
 31
0.0
  0
LINE
  5
9821
330
96E6
100
AcDbEntity
  8
1
  6
Continuous
100
AcDbLine
 10
118.799318
 20
169.7151609999999
 30
0.0
 11
118.2993179999999
 21
169.2151609999999
 31
0.0
  0
LINE
  5
9822
330
96E6
100
AcDbEntity
  8
1
  6
Continuous
100
AcDbLine
 10
118.2993179999999
 20
169.2151609999999
 30
0.0
 11
118.2993179999999
 21
173.439161
 31
0.0
  0
LINE
  5
9823
330
96E6
100
AcDbEntity
  8
1
  6
Continuous
100
AcDbLine
 10
117.2993179999999
 20
169.2151609999999
 30
0.0
 11
117.2993179999999
 21
173.439161
 31
0.0
  0
LINE
  5
9824
330
96E6
100
AcDbEntity
  8
1
  6
Continuous
100
AcDbLine
 10
117.2993179999999
 20
169.2151609999999
 30
0.0
 11
116.399318
 21
168.3151609999999
 31
0.0
  0
LINE
  5
9825
330
96E6
100
AcDbEntity
  8
1
  6
Continuous
100
AcDbLine
 10
116.399318
 20
168.3151609999999
 30
0.0
 11
116.399318
 21
172.539161
 31
0.0
  0
LINE
  5
9826
330
96E6
100
AcDbEntity
  8
1
  6
Continuous
100
AcDbLine
 10
117.2993179999999
 20
173.439161
 30
0.0
 11
116.399318
 21
172.539161
 31
0.0
  0
LINE
  5
9827
330
96E6
100
AcDbEntity
  8
1
  6
Continuous
100
AcDbLine
 10
117.2993179999999
 20
173.439161
 30
0.0
 11
118.2993179999999
 21
173.439161
 31
0.0
  0
LINE
  5
9828
330
96E6
100
AcDbEntity
  8
1
  6
Continuous
100
AcDbLine
 10
118.799318
 20
173.939161
 30
0.0
 11
118.2993179999999
 21
173.439161
 31
0.0
  0
LINE
  5
9829
330
96E6
100
AcDbEntity
  8
1
  6
Continuous
100
AcDbLine
 10
117.2993179999999
 20
186.415161
 30
0.0
 11
118.2993179999999
 21
186.415161
 31
0.0
  0
LINE
  5
982A
330
96E6
100
AcDbEntity
  8
1
  6
Continuous
100
AcDbLine
 10
118.799318
 20
185.9151609999999
 30
0.0
 11
118.2993179999999
 21
186.415161
 31
0.0
  0
LINE
  5
982B
330
96E6
100
AcDbEntity
  8
1
  6
Continuous
100
AcDbLine
 10
118.2993179999999
 20
186.415161
 30
0.0
 11
118.2993179999999
 21
182.1911609999999
 31
0.0
  0
LINE
  5
982C
330
96E6
100
AcDbEntity
  8
1
  6
Continuous
100
AcDbLine
 10
117.2993179999999
 20
186.415161
 30
0.0
 11
117.2993179999999
 21
182.1911609999999
 31
0.0
  0
LINE
  5
982D
330
96E6
100
AcDbEntity
  8
1
  6
Continuous
100
AcDbLine
 10
117.2993179999999
 20
186.415161
 30
0.0
 11
116.399318
 21
187.3151609999999
 31
0.0
  0
LINE
  5
982E
330
96E6
100
AcDbEntity
  8
1
  6
Continuous
100
AcDbLine
 10
116.399318
 20
187.3151609999999
 30
0.0
 11
116.399318
 21
183.091161
 31
0.0
  0
LINE
  5
982F
330
96E6
100
AcDbEntity
  8
1
  6
Continuous
100
AcDbLine
 10
117.2993179999999
 20
182.1911609999999
 30
0.0
 11
116.399318
 21
183.091161
 31
0.0
  0
LINE
  5
9830
330
96E6
100
AcDbEntity
  8
1
  6
Continuous
100
AcDbLine
 10
117.2993179999999
 20
182.1911609999999
 30
0.0
 11
118.2993179999999
 21
182.1911609999999
 31
0.0
  0
LINE
  5
9831
330
96E6
100
AcDbEntity
  8
1
  6
Continuous
100
AcDbLine
 10
118.799318
 20
181.691161
 30
0.0
 11
118.2993179999999
 21
182.1911609999999
 31
0.0
  0
LINE
  5
9832
330
96E6
100
AcDbEntity
  8
2
  6
Continuous
100
AcDbLine
 10
118.2993179999999
 20
173.439161
 30
0.0
 11
109.799318
 21
183.091161
 31
0.0
  0
LINE
  5
9833
330
96E6
100
AcDbEntity
  8
1
  6
Continuous
100
AcDbLine
 10
120.9993179999999
 20
170.111161
 30
0.0
 11
120.9993179999999
 21
185.5201609999998
 31
0.0
  0
LINE
  5
9834
330
96E6
100
AcDbEntity
  8
1
  6
Continuous
100
AcDbLine
 10
107.299318
 20
176.5651609999999
 30
0.0
 11
106.7993179999999
 21
176.5651609999999
 31
0.0
  0
LINE
  5
9835
330
96E6
100
AcDbEntity
  8
1
  6
Continuous
100
AcDbLine
 10
107.299318
 20
176.5651609999999
 30
0.0
 11
107.299318
 21
179.0651609999999
 31
0.0
  0
LINE
  5
9836
330
96E6
100
AcDbEntity
  8
1
  6
Continuous
100
AcDbLine
 10
106.7993179999999
 20
179.0651609999999
 30
0.0
 11
106.7993179999999
 21
182.315161
 31
0.0
  0
LINE
  5
9837
330
96E6
100
AcDbEntity
  8
1
  6
Continuous
100
AcDbLine
 10
106.7993179999999
 20
182.315161
 30
0.0
 11
107.7993179999999
 21
183.3151609999999
 31
0.0
  0
LINE
  5
9838
330
96E6
100
AcDbEntity
  8
1
  6
Continuous
100
AcDbLine
 10
106.7993179999999
 20
179.0651609999999
 30
0.0
 11
107.299318
 21
179.0651609999999
 31
0.0
  0
LINE
  5
9839
330
96E6
100
AcDbEntity
  8
1
  6
Continuous
100
AcDbLine
 10
107.7993179999999
 20
172.3151609999999
 30
0.0
 11
106.7993179999999
 21
173.3151609999999
 31
0.0
  0
LINE
  5
983A
330
96E6
100
AcDbEntity
  8
1
  6
Continuous
100
AcDbLine
 10
106.7993179999999
 20
173.3151609999999
 30
0.0
 11
106.7993179999999
 21
176.5651609999999
 31
0.0
  0
LINE
  5
983B
330
96E6
100
AcDbEntity
  8
2
  6
Continuous
100
AcDbLine
 10
109.799318
 20
172.539161
 30
0.0
 11
118.2993179999999
 21
182.1911609999999
 31
0.0
  0
LINE
  5
983C
330
96E6
100
AcDbEntity
  8
1
  6
Continuous
100
AcDbLine
 10
109.799318
 20
172.539161
 30
0.0
 11
116.399318
 21
172.539161
 31
0.0
  0
LINE
  5
983D
330
96E6
100
AcDbEntity
  8
1
  6
Continuous
100
AcDbLine
 10
109.799318
 20
168.3151609999999
 30
0.0
 11
116.399318
 21
168.3151609999999
 31
0.0
  0
LINE
  5
983E
330
96E6
100
AcDbEntity
  8
1
  6
Continuous
100
AcDbLine
 10
109.799318
 20
183.091161
 30
0.0
 11
116.399318
 21
183.091161
 31
0.0
  0
LINE
  5
983F
330
96E6
100
AcDbEntity
  8
1
  6
Continuous
100
AcDbLine
 10
109.799318
 20
187.3151609999999
 30
0.0
 11
116.399318
 21
187.3151609999999
 31
0.0
  0
LINE
  5
9840
330
96E6
100
AcDbEntity
  8
1
  6
Continuous
100
AcDbLine
 10
108.7993179999999
 20
188.8151609999999
 30
0.0
 11
109.799318
 21
188.8151609999999
 31
0.0
  0
LINE
  5
9841
330
96E6
100
AcDbEntity
  8
1
  6
Continuous
100
AcDbLine
 10
108.7993179999999
 20
166.8151609999999
 30
0.0
 11
109.799318
 21
166.8151609999999
 31
0.0
  0
LINE
  5
9842
330
96E6
100
AcDbEntity
  8
1
  6
Continuous
100
AcDbLine
 10
108.7993179999999
 20
166.8151609999999
 30
0.0
 11
107.7993179999999
 21
167.815161
 31
0.0
  0
LINE
  5
9843
330
96E6
100
AcDbEntity
  8
1
  6
Continuous
100
AcDbLine
 10
107.7993179999999
 20
187.8151609999999
 30
0.0
 11
108.7993179999999
 21
188.8151609999999
 31
0.0
  0
LINE
  5
9844
330
96E6
100
AcDbEntity
  8
1
  6
Continuous
100
AcDbLine
 10
118.799318
 20
170.111161
 30
0.0
 11
120.9993179999999
 21
170.111161
 31
0.0
  0
LINE
  5
9845
330
96E6
100
AcDbEntity
  8
1
  6
Continuous
100
AcDbLine
 10
118.799318
 20
185.5201609999998
 30
0.0
 11
120.9993179999999
 21
185.5201609999998
 31
0.0
  0
LINE
  5
9846
330
96E6
100
AcDbEntity
  8
1
  6
Continuous
100
AcDbLine
 10
127.299318
 20
174.3151609999999
 30
0.0
 11
121.299318
 21
174.3151609999999
 31
0.0
  0
LINE
  5
9847
330
96E6
100
AcDbEntity
  8
1
  6
Continuous
100
AcDbLine
 10
127.299318
 20
181.315161
 30
0.0
 11
121.299318
 21
181.315161
 31
0.0
  0
LINE
  5
9848
330
96E6
100
AcDbEntity
  8
1
  6
Continuous
100
AcDbLine
 10
128.299318
 20
175.3151609999999
 30
0.0
 11
128.299318
 21
180.315161
 31
0.0
  0
LINE
  5
9849
330
96E6
100
AcDbEntity
  8
1
  6
Continuous
100
AcDbLine
 10
127.299318
 20
174.3151609999999
 30
0.0
 11
128.299318
 21
175.3151609999999
 31
0.0
  0
LINE
  5
984A
330
96E6
100
AcDbEntity
  8
1
  6
Continuous
100
AcDbLine
 10
128.299318
 20
180.315161
 30
0.0
 11
127.299318
 21
181.315161
 31
0.0
  0
LINE
  5
984B
330
96E6
100
AcDbEntity
  8
1
  6
Continuous
100
AcDbLine
 10
127.299318
 20
174.3151609999999
 30
0.0
 11
127.299318
 21
175.588161
 31
0.0
  0
LINE
  5
984C
330
96E6
100
AcDbEntity
  8
1
  6
Continuous
100
AcDbLine
 10
127.299318
 20
181.315161
 30
0.0
 11
127.299318
 21
179.8151609999999
 31
0.0
  0
LINE
  5
984D
330
96E6
100
AcDbEntity
  8
1
  6
Continuous
100
AcDbLine
 10
121.5993179999999
 20
181.315161
 30
0.0
 11
121.5993179999999
 21
179.8151609999999
 31
0.0
  0
LINE
  5
984E
330
96E6
100
AcDbEntity
  8
1
  6
Continuous
100
AcDbLine
 10
121.5993179999999
 20
175.588161
 30
0.0
 11
121.5993179999999
 21
174.3151609999999
 31
0.0
  0
LINE
  5
984F
330
96E6
100
AcDbEntity
  8
2
  6
Continuous
100
AcDbLine
 10
121.5993179999999
 20
174.721161
 30
0.0
 11
127.705318
 21
174.721161
 31
0.0
  0
LINE
  5
9850
330
96E6
100
AcDbEntity
  8
2
  6
Continuous
100
AcDbLine
 10
121.5993179999999
 20
180.909161
 30
0.0
 11
127.705318
 21
180.909161
 31
0.0
  0
LINE
  5
9851
330
96E6
100
AcDbEntity
  8
2
  6
Continuous
100
AcDbLine
 10
121.299318
 20
181.0831609999999
 30
0.0
 11
121.5993179999999
 21
180.909161
 31
0.0
  0
LINE
  5
9852
330
96E6
100
AcDbEntity
  8
2
  6
Continuous
100
AcDbLine
 10
121.299318
 20
174.5481609999999
 30
0.0
 11
121.5993179999999
 21
174.721161
 31
0.0
  0
LINE
  5
9853
330
96E6
100
AcDbEntity
  8
2
  6
Continuous
100
AcDbLine
 10
110.5093179999998
 20
186.7741609999999
 30
0.0
 11
116.9403179999999
 21
186.7741609999999
 31
0.0
  0
LINE
  5
9854
330
96E6
100
AcDbEntity
  8
2
  6
Continuous
100
AcDbLine
 10
109.799318
 20
187.184317
 30
0.0
 11
110.5093179999998
 21
186.7741609999999
 31
0.0
  0
LINE
  5
9855
330
96E6
100
AcDbEntity
  8
1
  6
Continuous
100
AcDbLine
 10
40.204018
 20
114.165161
 30
0.0
 11
40.204018
 21
101.465161
 31
0.0
  0
LINE
  5
9856
330
96E6
100
AcDbEntity
  8
1
  6
Continuous
100
AcDbLine
 10
29.205418
 20
120.515161
 30
0.0
 11
40.203918
 21
114.165161
 31
0.0
  0
LINE
  5
9857
330
96E6
100
AcDbEntity
  8
1
  6
Continuous
100
AcDbLine
 10
40.204018
 20
101.465161
 30
0.0
 11
29.205518
 21
95.11516099999999
 31
0.0
  0
LINE
  5
9858
330
96E6
100
AcDbEntity
  8
1
  6
Continuous
100
AcDbLine
 10
29.205418
 20
95.11516099999999
 30
0.0
 11
18.20691799999998
 21
101.465161
 31
0.0
  0
LINE
  5
9859
330
96E6
100
AcDbEntity
  8
1
  6
Continuous
100
AcDbLine
 10
18.20701799999999
 20
101.465161
 30
0.0
 11
18.20701799999999
 21
114.165161
 31
0.0
  0
LINE
  5
985A
330
96E6
100
AcDbEntity
  8
1
  6
Continuous
100
AcDbLine
 10
18.20701799999999
 20
114.165161
 30
0.0
 11
29.205518
 21
120.515161
 31
0.0
  0
LINE
  5
985B
330
96E6
100
AcDbEntity
  8
1
  6
Continuous
100
AcDbLine
 10
121.299318
 20
175.588161
 30
0.0
 11
128.299318
 21
175.588161
 31
0.0
  0
LINE
  5
985C
330
96E6
100
AcDbEntity
  8
1
  6
Continuous
100
AcDbLine
 10
121.299318
 20
179.8151609999999
 30
0.0
 11
128.299318
 21
179.8151609999999
 31
0.0
  0
LINE
  5
985D
330
96E6
100
AcDbEntity
  8
2
  6
Continuous
100
AcDbLine
 10
121.299318
 20
175.588161
 30
0.0
 11
128.299318
 21
179.8151609999999
 31
0.0
  0
LINE
  5
985E
330
96E6
100
AcDbEntity
  8
2
  6
Continuous
100
AcDbLine
 10
128.299318
 20
175.588161
 30
0.0
 11
121.299318
 21
179.8151609999999
 31
0.0
  0
LINE
  5
985F
330
96E6
100
AcDbEntity
  8
1
  6
Continuous
100
AcDbLine
 10
163.9623179999999
 20
188.814161
 30
0.0
 11
161.424318
 21
188.814161
 31
0.0
  0
LINE
  5
9860
330
96E6
100
AcDbEntity
  8
1
  6
Continuous
100
AcDbLine
 10
163.9623179999999
 20
166.8171609999999
 30
0.0
 11
161.424318
 21
166.8171609999999
 31
0.0
  0
LINE
  5
9861
330
96E6
100
AcDbEntity
  8
1
  6
Continuous
100
AcDbLine
 10
161.424318
 20
188.814161
 30
0.0
 11
161.424318
 21
166.8171609999999
 31
0.0
  0
LINE
  5
9862
330
96E6
100
AcDbEntity
  8
1
  6
Continuous
100
AcDbLine
 10
164.924318
 20
183.3151609999999
 30
0.0
 11
164.924318
 21
172.316161
 31
0.0
  0
LINE
  5
9863
330
96E6
100
AcDbEntity
  8
1
  6
Continuous
100
AcDbLine
 10
163.9623179999999
 20
177.8151609999999
 30
0.0
 11
161.424318
 21
177.8151609999999
 31
0.0
  0
LINE
  5
9864
330
96E6
100
AcDbEntity
  8
1
  6
Continuous
100
AcDbLine
 10
176.299318
 20
181.470161
 30
0.0
 11
176.299318
 21
181.085161
 31
0.0
  0
LINE
  5
9865
330
96E6
100
AcDbEntity
  8
1
  6
Continuous
100
AcDbLine
 10
178.299318
 20
181.1121609999999
 30
0.0
 11
178.299318
 21
180.727161
 31
0.0
  0
LINE
  5
9866
330
96E6
100
AcDbEntity
  8
1
  6
Continuous
100
AcDbLine
 10
176.899318
 20
184.3151609999999
 30
0.0
 11
176.899318
 21
171.3151609999999
 31
0.0
  0
LINE
  5
9867
330
96E6
100
AcDbEntity
  8
1
  6
Continuous
100
AcDbLine
 10
177.699318
 20
184.3151609999999
 30
0.0
 11
177.699318
 21
171.3151609999999
 31
0.0
  0
LINE
  5
9868
330
96E6
100
AcDbEntity
  8
1
  6
Continuous
100
AcDbLine
 10
176.899318
 20
184.3151609999999
 30
0.0
 11
177.699318
 21
184.3151609999999
 31
0.0
  0
LINE
  5
9869
330
96E6
100
AcDbEntity
  8
1
  6
Continuous
100
AcDbLine
 10
176.899318
 20
171.3151609999999
 30
0.0
 11
177.699318
 21
171.3151609999999
 31
0.0
  0
LINE
  5
986A
330
96E6
100
AcDbEntity
  8
1
  6
Continuous
100
AcDbLine
 10
176.299318
 20
181.470161
 30
0.0
 11
176.899318
 21
181.362161
 31
0.0
  0
LINE
  5
986B
330
96E6
100
AcDbEntity
  8
1
  6
Continuous
100
AcDbLine
 10
176.6983179999998
 20
180.3331609999999
 30
0.0
 11
176.899318
 21
180.2381609999999
 31
0.0
  0
LINE
  5
986C
330
96E6
100
AcDbEntity
  8
1
  6
Continuous
100
AcDbLine
 10
176.7773179999998
 20
178.514161
 30
0.0
 11
176.899318
 21
178.444161
 31
0.0
  0
LINE
  5
986D
330
96E6
100
AcDbEntity
  8
1
  6
Continuous
100
AcDbLine
 10
176.299318
 20
176.1361609999999
 30
0.0
 11
176.899318
 21
175.855161
 31
0.0
  0
LINE
  5
986E
330
96E6
100
AcDbEntity
  8
1
  6
Continuous
100
AcDbLine
 10
176.299318
 20
174.519161
 30
0.0
 11
176.899318
 21
174.411161
 31
0.0
  0
LINE
  5
986F
330
96E6
100
AcDbEntity
  8
1
  6
Continuous
100
AcDbLine
 10
176.299318
 20
181.085161
 30
0.0
 11
176.899318
 21
180.977161
 31
0.0
  0
LINE
  5
9870
330
96E6
100
AcDbEntity
  8
1
  6
Continuous
100
AcDbLine
 10
176.3023179999999
 20
179.8871609999999
 30
0.0
 11
176.899318
 21
179.608161
 31
0.0
  0
LINE
  5
9871
330
96E6
100
AcDbEntity
  8
1
  6
Continuous
100
AcDbLine
 10
176.378318
 20
177.8211609999999
 30
0.0
 11
176.899318
 21
177.519161
 31
0.0
  0
LINE
  5
9872
330
96E6
100
AcDbEntity
  8
1
  6
Continuous
100
AcDbLine
 10
176.299318
 20
175.6741609999999
 30
0.0
 11
176.899318
 21
175.3931609999999
 31
0.0
  0
LINE
  5
9873
330
96E6
100
AcDbEntity
  8
1
  6
Continuous
100
AcDbLine
 10
176.299318
 20
174.141161
 30
0.0
 11
176.899318
 21
174.033161
 31
0.0
  0
LINE
  5
9874
330
96E6
100
AcDbEntity
  8
1
  6
Continuous
100
AcDbLine
 10
176.299318
 20
176.1361609999999
 30
0.0
 11
176.299318
 21
175.6741609999999
 31
0.0
  0
LINE
  5
9875
330
96E6
100
AcDbEntity
  8
1
  6
Continuous
100
AcDbLine
 10
176.299318
 20
174.519161
 30
0.0
 11
176.299318
 21
174.141161
 31
0.0
  0
LINE
  5
9876
330
96E6
100
AcDbEntity
  8
1
  6
Continuous
100
AcDbLine
 10
176.3133179999999
 20
179.9011609999998
 30
0.0
 11
176.7093179999999
 21
180.346161
 31
0.0
  0
LINE
  5
9877
330
96E6
100
AcDbEntity
  8
1
  6
Continuous
100
AcDbLine
 10
177.9033179999999
 20
179.138161
 30
0.0
 11
178.299318
 21
179.583161
 31
0.0
  0
LINE
  5
9878
330
96E6
100
AcDbEntity
  8
1
  6
Continuous
100
AcDbLine
 10
176.378318
 20
177.8211609999999
 30
0.0
 11
176.7773179999998
 21
178.514161
 31
0.0
  0
LINE
  5
9879
330
96E6
100
AcDbEntity
  8
1
  6
Continuous
100
AcDbLine
 10
178.378318
 20
177.588161
 30
0.0
 11
178.0743179999998
 21
176.8391609999999
 31
0.0
  0
LINE
  5
987A
330
96E6
100
AcDbEntity
  8
1
  6
Continuous
100
AcDbLine
 10
177.699318
 20
181.219161
 30
0.0
 11
178.299318
 21
181.1121609999999
 31
0.0
  0
LINE
  5
987B
330
96E6
100
AcDbEntity
  8
1
  6
Continuous
100
AcDbLine
 10
177.699318
 20
180.834161
 30
0.0
 11
178.299318
 21
180.727161
 31
0.0
  0
LINE
  5
987C
330
96E6
100
AcDbEntity
  8
1
  6
Continuous
100
AcDbLine
 10
177.699318
 20
179.864161
 30
0.0
 11
178.299318
 21
179.583161
 31
0.0
  0
LINE
  5
987D
330
96E6
100
AcDbEntity
  8
1
  6
Continuous
100
AcDbLine
 10
177.699318
 20
179.233161
 30
0.0
 11
177.9033179999999
 21
179.138161
 31
0.0
  0
LINE
  5
987E
330
96E6
100
AcDbEntity
  8
1
  6
Continuous
100
AcDbLine
 10
177.699318
 20
177.9811609999999
 30
0.0
 11
178.378318
 21
177.588161
 31
0.0
  0
LINE
  5
987F
330
96E6
100
AcDbEntity
  8
1
  6
Continuous
100
AcDbLine
 10
177.699318
 20
177.056161
 30
0.0
 11
178.0743179999998
 21
176.8391609999999
 31
0.0
  0
LINE
  5
9880
330
96E6
100
AcDbEntity
  8
1
  6
Continuous
100
AcDbLine
 10
177.699318
 20
175.480161
 30
0.0
 11
178.299318
 21
175.199161
 31
0.0
  0
LINE
  5
9881
330
96E6
100
AcDbEntity
  8
1
  6
Continuous
100
AcDbLine
 10
177.699318
 20
175.0191609999999
 30
0.0
 11
177.912318
 21
174.919161
 31
0.0
  0
LINE
  5
9882
330
96E6
100
AcDbEntity
  8
1
  6
Continuous
100
AcDbLine
 10
177.699318
 20
174.2681609999999
 30
0.0
 11
178.299318
 21
174.1611609999999
 31
0.0
  0
LINE
  5
9883
330
96E6
100
AcDbEntity
  8
1
  6
Continuous
100
AcDbLine
 10
177.699318
 20
173.890161
 30
0.0
 11
177.8903179999999
 21
173.8561609999999
 31
0.0
  0
LINE
  5
9884
330
96E6
100
AcDbEntity
  8
1
  6
Continuous
100
AcDbLine
 10
191.098318
 20
183.3151609999999
 30
0.0
 11
189.658318
 21
183.3151609999999
 31
0.0
  0
LINE
  5
9885
330
96E6
100
AcDbEntity
  8
1
  6
Continuous
100
AcDbLine
 10
191.098318
 20
172.3151609999999
 30
0.0
 11
189.658318
 21
172.3151609999999
 31
0.0
  0
LINE
  5
9886
330
96E6
100
AcDbEntity
  8
1
  6
Continuous
100
AcDbLine
 10
191.378318
 20
180.5651609999999
 30
0.0
 11
191.378318
 21
175.065161
 31
0.0
  0
LINE
  5
9887
330
96E6
100
AcDbEntity
  8
1
  6
Continuous
100
AcDbLine
 10
189.3783179999998
 20
180.5651609999999
 30
0.0
 11
189.3783179999998
 21
175.065161
 31
0.0
  0
LINE
  5
9888
330
96E6
100
AcDbEntity
  8
1
  6
Continuous
100
AcDbLine
 10
191.098318
 20
177.8151609999999
 30
0.0
 11
189.658318
 21
177.8151609999999
 31
0.0
  0
LINE
  5
9889
330
96E6
100
AcDbEntity
  8
4
  6
CENTER
100
AcDbLine
 10
158.4743179999998
 20
177.8151609999999
 30
0.0
 11
193.895318
 21
177.8151609999999
 31
0.0
  0
ARC
  5
988A
330
96E6
100
AcDbEntity
  8
1
  6
Continuous
100
AcDbCircle
 10
29.205518
 20
107.815161
 30
0.0
 40
4.5
100
AcDbArc
 50
106.128
 51
73.8724
  0
CIRCLE
  5
988B
330
96E6
100
AcDbEntity
  8
1
  6
Continuous
100
AcDbCircle
 10
29.205518
 20
107.815161
 30
0.0
 40
5.599999999999997
  0
CIRCLE
  5
988C
330
96E6
100
AcDbEntity
  8
1
  6
Continuous
100
AcDbCircle
 10
29.205518
 20
107.815161
 30
0.0
 40
10.0
  0
CIRCLE
  5
988D
330
96E6
100
AcDbEntity
  8
1
  6
Continuous
100
AcDbCircle
 10
29.205518
 20
107.815161
 30
0.0
 40
11.0
  0
ARC
  5
988E
330
96E6
100
AcDbEntity
  8
1
  6
Continuous
100
AcDbCircle
 10
29.205518
 20
107.815161
 30
0.0
 40
5.0
100
AcDbArc
 50
75.52249999999998
 51
104.477
  0
ARC
  5
988F
330
96E6
100
AcDbEntity
  8
1
  6
Continuous
100
AcDbCircle
 10
29.205518
 20
107.815161
 30
0.0
 40
4.5
100
AcDbArc
 50
288.1639999999998
 51
73.8724
  0
ARC
  5
9890
330
96E6
100
AcDbEntity
  8
1
  6
Continuous
100
AcDbCircle
 10
29.205518
 20
107.815161
 30
0.0
 40
4.5
100
AcDbArc
 50
106.128
 51
251.8359999999999
  0
ARC
  5
9891
330
96E6
100
AcDbEntity
  8
1
  6
Continuous
100
AcDbCircle
 10
118.8993179999998
 20
42.26556099999998
 30
0.0
 40
0.4
100
AcDbArc
 50
0.0
 51
104.477
  0
ARC
  5
9892
330
96E6
100
AcDbEntity
  8
1
  6
Continuous
100
AcDbCircle
 10
118.8993179999998
 20
33.365561
 30
0.0
 40
0.4
100
AcDbArc
 50
255.522
 51
0.0
  0
ARC
  5
9893
330
96E6
100
AcDbEntity
  8
1
  6
Continuous
100
AcDbCircle
 10
264.840318
 20
107.815161
 30
0.0
 40
7.799999999999998
100
AcDbArc
 50
18.6939
 51
161.306
  0
ARC
  5
9894
330
96E6
100
AcDbEntity
  8
1
  6
Continuous
100
AcDbCircle
 10
264.840318
 20
107.815161
 30
0.0
 40
8.099999999999997
100
AcDbArc
 50
102.759
 51
257.241
  0
ARC
  5
9895
330
96E6
100
AcDbEntity
  8
1
  6
Continuous
100
AcDbCircle
 10
264.840318
 20
107.815161
 30
0.0
 40
8.599999999999997
100
AcDbArc
 50
113.277
 51
166.5519999999999
  0
ARC
  5
9896
330
96E6
100
AcDbEntity
  8
1
  6
Continuous
100
AcDbCircle
 10
264.840318
 20
107.815161
 30
0.0
 40
9.5
100
AcDbArc
 50
123.7389999999999
 51
236.261
  0
CIRCLE
  5
9897
330
96E6
100
AcDbEntity
  8
1
  6
Continuous
100
AcDbCircle
 10
264.840318
 20
107.815161
 30
0.0
 40
11.0
  0
ARC
  5
9898
330
96E6
100
AcDbEntity
  8
2
  6
Continuous
100
AcDbCircle
 10
264.840318
 20
107.815161
 30
0.0
 40
9.5
100
AcDbArc
 50
236.261
 51
303.7389999999998
  0
ARC
  5
9899
330
96E6
100
AcDbEntity
  8
1
  6
Continuous
100
AcDbCircle
 10
264.840318
 20
107.815161
 30
0.0
 40
8.599999999999997
100
AcDbArc
 50
293.277
 51
346.5519999999998
  0
ARC
  5
989A
330
96E6
100
AcDbEntity
  8
1
  6
Continuous
100
AcDbCircle
 10
264.840318
 20
107.815161
 30
0.0
 40
8.099999999999997
100
AcDbArc
 50
282.759
 51
77.24129999999998
  0
ARC
  5
989B
330
96E6
100
AcDbEntity
  8
1
  6
Continuous
100
AcDbCircle
 10
264.840318
 20
107.815161
 30
0.0
 40
8.599999999999997
100
AcDbArc
 50
193.4479999999999
 51
246.7229999999999
  0
ARC
  5
989C
330
96E6
100
AcDbEntity
  8
1
  6
Continuous
100
AcDbCircle
 10
264.840318
 20
107.815161
 30
0.0
 40
8.599999999999997
100
AcDbArc
 50
13.4477
 51
66.7229
  0
ARC
  5
989D
330
96E6
100
AcDbEntity
  8
1
  6
Continuous
100
AcDbCircle
 10
264.840318
 20
107.815161
 30
0.0
 40
7.7
100
AcDbArc
 50
161.054
 51
288.9459999999999
  0
ARC
  5
989E
330
96E6
100
AcDbEntity
  8
1
  6
Continuous
100
AcDbCircle
 10
158.8753179999999
 20
117.3401609999999
 30
0.0
 40
6.0517
100
AcDbArc
 50
328.356
 51
31.64440000000001
  0
ARC
  5
989F
330
96E6
100
AcDbEntity
  8
1
  6
Continuous
100
AcDbCircle
 10
158.8753179999999
 20
98.290161
 30
0.0
 40
6.0517
100
AcDbArc
 50
328.356
 51
31.64440000000001
  0
ARC
  5
98A0
330
96E6
100
AcDbEntity
  8
1
  6
Continuous
100
AcDbCircle
 10
142.0053179999999
 20
107.815161
 30
0.0
 40
22.9192
100
AcDbArc
 50
343.915
 51
16.0848
  0
CIRCLE
  5
98A1
330
96E6
100
AcDbEntity
  8
1
  6
Continuous
100
AcDbCircle
 10
264.840318
 20
107.815161
 30
0.0
 40
5.5
  0
ARC
  5
98A2
330
96E6
100
AcDbEntity
  8
1
  6
Continuous
100
AcDbCircle
 10
186.7363179999999
 20
112.5781609999999
 30
0.0
 40
4.642199999999998
100
AcDbArc
 50
340.0
 51
20.0
  0
ARC
  5
98A3
330
96E6
100
AcDbEntity
  8
1
  6
Continuous
100
AcDbCircle
 10
173.229318
 20
107.815161
 30
0.0
 40
18.1487
100
AcDbArc
 50
349.923
 51
10.0767
  0
ARC
  5
98A4
330
96E6
100
AcDbEntity
  8
1
  6
Continuous
100
AcDbCircle
 10
194.020318
 20
112.5781609999999
 30
0.0
 40
4.642199999999998
100
AcDbArc
 50
160.0
 51
200.0
  0
ARC
  5
98A5
330
96E6
100
AcDbEntity
  8
1
  6
Continuous
100
AcDbCircle
 10
207.5273179999999
 20
107.815161
 30
0.0
 40
18.1487
100
AcDbArc
 50
169.923
 51
190.0769999999999
  0
ARC
  5
98A6
330
96E6
100
AcDbEntity
  8
1
  6
Continuous
100
AcDbCircle
 10
186.7363179999999
 20
103.052161
 30
0.0
 40
4.642199999999998
100
AcDbArc
 50
340.0
 51
20.0
  0
ARC
  5
98A7
330
96E6
100
AcDbEntity
  8
1
  6
Continuous
100
AcDbCircle
 10
194.020318
 20
103.052161
 30
0.0
 40
4.642199999999998
100
AcDbArc
 50
160.0
 51
200.0
  0
ARC
  5
98A8
330
96E6
100
AcDbEntity
  8
1
  6
Continuous
100
AcDbCircle
 10
175.8623179999999
 20
113.254161
 30
0.0
 40
1.837099999999999
100
AcDbArc
 50
283.7559999999998
 51
304.361
  0
ARC
  5
98A9
330
96E6
100
AcDbEntity
  8
1
  6
Continuous
100
AcDbCircle
 10
178.4783179999998
 20
112.116161
 30
0.0
 40
1.02
100
AcDbArc
 50
220.1979999999999
 51
259.887
  0
ARC
  5
98AA
330
96E6
100
AcDbEntity
  8
1
  6
Continuous
100
AcDbCircle
 10
175.8333179999999
 20
113.308161
 30
0.0
 40
3.0987
100
AcDbArc
 50
286.201
 51
290.1159999999998
  0
ARC
  5
98AB
330
96E6
100
AcDbEntity
  8
1
  6
Continuous
100
AcDbCircle
 10
172.859318
 20
112.4761609999999
 30
0.0
 40
4.3083
100
AcDbArc
 50
323.293
 51
339.6459999999998
  0
ARC
  5
98AC
330
96E6
100
AcDbEntity
  8
1
  6
Continuous
100
AcDbCircle
 10
176.7663179999999
 20
109.103161
 30
0.0
 40
0.9421000000000001
100
AcDbArc
 50
352.033
 51
7.9668
  0
ARC
  5
98AD
330
96E6
100
AcDbEntity
  8
1
  6
Continuous
100
AcDbCircle
 10
172.6123179999999
 20
109.658161
 30
0.0
 40
4.287499999999997
100
AcDbArc
 50
342.6549999999999
 51
359.3339999999998
  0
ARC
  5
98AE
330
96E6
100
AcDbEntity
  8
1
  6
Continuous
100
AcDbCircle
 10
175.6773179999999
 20
104.6051609999999
 30
0.0
 40
1.236599999999999
100
AcDbArc
 50
350.983
 51
59.83789999999999
  0
ARC
  5
98AF
330
96E6
100
AcDbEntity
  8
1
  6
Continuous
100
AcDbCircle
 10
178.6413179999999
 20
104.320161
 30
0.0
 40
0.9435999999999999
100
AcDbArc
 50
111.261
 51
183.1289999999999
  0
ARC
  5
98B0
330
96E6
100
AcDbEntity
  8
1
  6
Continuous
100
AcDbCircle
 10
178.631318
 20
103.2891609999998
 30
0.0
 40
0.9332
100
AcDbArc
 50
110.826
 51
183.124
  0
ARC
  5
98B1
330
96E6
100
AcDbEntity
  8
1
  6
Continuous
100
AcDbCircle
 10
178.967318
 20
102.0691609999998
 30
0.0
 40
2.0872
100
AcDbArc
 50
121.081
 51
127.4229999999999
  0
ARC
  5
98B2
330
96E6
100
AcDbEntity
  8
1
  6
Continuous
100
AcDbCircle
 10
174.491318
 20
102.539161
 30
0.0
 40
2.415099999999998
100
AcDbArc
 50
355.4669999999999
 51
41.5448
  0
ARC
  5
98B3
330
96E6
100
AcDbEntity
  8
1
  6
Continuous
100
AcDbCircle
 10
177.9323179999999
 20
105.815161
 30
0.0
 40
1.0341
100
AcDbArc
 50
82.1314
 51
103.0399999999999
  0
ARC
  5
98B4
330
96E6
100
AcDbEntity
  8
1
  6
Continuous
100
AcDbCircle
 10
35.705518
 20
182.8151609999999
 30
0.0
 40
0.5
100
AcDbArc
 50
0.0
 51
90.0
  0
ARC
  5
98B5
330
96E6
100
AcDbEntity
  8
1
  6
Continuous
100
AcDbCircle
 10
35.705518
 20
172.8151609999999
 30
0.0
 40
0.5
100
AcDbArc
 50
270.0
 51
0.0
  0
ARC
  5
98B6
330
96E6
100
AcDbEntity
  8
1
  6
Continuous
100
AcDbCircle
 10
17.20551799999999
 20
180.315161
 30
0.0
 40
0.5
100
AcDbArc
 50
90.0
 51
180.0
  0
ARC
  5
98B7
330
96E6
100
AcDbEntity
  8
1
  6
Continuous
100
AcDbCircle
 10
18.70551799999999
 20
180.315161
 30
0.0
 40
0.5
100
AcDbArc
 50
0.0
 51
90.0
  0
ARC
  5
98B8
330
96E6
100
AcDbEntity
  8
1
  6
Continuous
100
AcDbCircle
 10
17.20551799999999
 20
175.3151609999999
 30
0.0
 40
0.5
100
AcDbArc
 50
180.0
 51
270.0
  0
ARC
  5
98B9
330
96E6
100
AcDbEntity
  8
1
  6
Continuous
100
AcDbCircle
 10
18.70551799999999
 20
175.3151609999999
 30
0.0
 40
0.5
100
AcDbArc
 50
270.0
 51
0.0
  0
ARC
  5
98BA
330
96E6
100
AcDbEntity
  8
1
  6
Continuous
100
AcDbCircle
 10
20.19791799999999
 20
186.8151609999999
 30
0.0
 40
1.0
100
AcDbArc
 50
90.0
 51
142.431
  0
ARC
  5
98BB
330
96E6
100
AcDbEntity
  8
1
  6
Continuous
100
AcDbCircle
 10
22.928518
 20
186.8151609999999
 30
0.0
 40
1.0
100
AcDbArc
 50
59.0362
 51
90.0
  0
ARC
  5
98BC
330
96E6
100
AcDbEntity
  8
1
  6
Continuous
100
AcDbCircle
 10
20.19791799999999
 20
168.815161
 30
0.0
 40
1.0
100
AcDbArc
 50
217.5689999999999
 51
270.0
  0
ARC
  5
98BD
330
96E6
100
AcDbEntity
  8
1
  6
Continuous
100
AcDbCircle
 10
22.928518
 20
168.815161
 30
0.0
 40
1.0
100
AcDbArc
 50
270.0
 51
300.964
  0
ARC
  5
98BE
330
96E6
100
AcDbEntity
  8
1
  6
Continuous
100
AcDbCircle
 10
15.705518
 20
180.975161
 30
0.0
 40
1.0
100
AcDbArc
 50
142.431
 51
180.0
  0
ARC
  5
98BF
330
96E6
100
AcDbEntity
  8
1
  6
Continuous
100
AcDbCircle
 10
15.705518
 20
174.655161
 30
0.0
 40
1.0
100
AcDbArc
 50
180.0
 51
217.5689999999999
  0
ARC
  5
98C0
330
96E6
100
AcDbEntity
  8
1
  6
Continuous
100
AcDbCircle
 10
40.70551799999999
 20
177.8151609999999
 30
0.0
 40
6.0
100
AcDbArc
 50
329.169
 51
30.8305
  0
ARC
  5
98C1
330
96E6
100
AcDbEntity
  8
1
  6
Continuous
100
AcDbCircle
 10
42.70551799999998
 20
177.8151609999999
 30
0.0
 40
6.0
100
AcDbArc
 50
346.3049999999999
 51
13.695
  0
ARC
  5
98C2
330
96E6
100
AcDbEntity
  8
1
  6
Continuous
100
AcDbCircle
 10
47.563318
 20
178.9991609999999
 30
0.0
 40
1.0
100
AcDbArc
 50
13.695
 51
65.1671
  0
ARC
  5
98C3
330
96E6
100
AcDbEntity
  8
1
  6
Continuous
100
AcDbCircle
 10
47.563318
 20
176.632161
 30
0.0
 40
1.0
100
AcDbArc
 50
294.8329999999998
 51
346.3049999999999
  0
ARC
  5
98C4
330
96E6
100
AcDbEntity
  8
1
  6
Continuous
100
AcDbCircle
 10
264.840318
 20
107.815161
 30
0.0
 40
3.5
100
AcDbArc
 50
129.518
 51
230.4819999999999
  0
ARC
  5
98C5
330
96E6
100
AcDbEntity
  8
1
  6
Continuous
100
AcDbCircle
 10
264.840318
 20
107.815161
 30
0.0
 40
3.5
100
AcDbArc
 50
309.495
 51
50.48230000000001
  0
ARC
  5
98C6
330
96E6
100
AcDbEntity
  8
1
  6
Continuous
100
AcDbCircle
 10
264.840318
 20
107.815161
 30
0.0
 40
2.5
100
AcDbArc
 50
294.8349999999999
 51
245.1649999999999
  0
CIRCLE
  5
98C7
330
96E6
100
AcDbEntity
  8
1
  6
Continuous
100
AcDbCircle
 10
264.840318
 20
107.815161
 30
0.0
 40
6.5
  0
ARC
  5
98C8
330
96E6
100
AcDbEntity
  8
1
  6
Continuous
100
AcDbCircle
 10
111.399318
 20
107.815161
 30
0.0
 40
1.6
100
AcDbArc
 50
90.0
 51
270.0
  0
ARC
  5
98C9
330
96E6
100
AcDbEntity
  8
1
  6
Continuous
100
AcDbCircle
 10
118.8993179999998
 20
103.4151609999998
 30
0.0
 40
0.4
100
AcDbArc
 50
255.522
 51
0.0
  0
ARC
  5
98CA
330
96E6
100
AcDbEntity
  8
1
  6
Continuous
100
AcDbCircle
 10
116.2993179999999
 20
107.815161
 30
0.0
 40
2.0
100
AcDbArc
 50
306.87
 51
53.13009999999999
  0
ARC
  5
98CB
330
96E6
100
AcDbEntity
  8
1
  6
Continuous
100
AcDbCircle
 10
148.7293179999998
 20
32.31626099999999
 30
0.0
 40
16.1953
100
AcDbArc
 50
340.1499999999999
 51
19.85
  0
ARC
  5
98CC
330
96E6
100
AcDbEntity
  8
1
  6
Continuous
100
AcDbCircle
 10
148.7293179999998
 20
43.314861
 30
0.0
 40
16.1953
100
AcDbArc
 50
340.1499999999999
 51
19.85
  0
ARC
  5
98CD
330
96E6
100
AcDbEntity
  8
1
  6
Continuous
100
AcDbCircle
 10
175.8623179999999
 20
43.254361
 30
0.0
 40
1.837099999999999
100
AcDbArc
 50
283.7559999999998
 51
304.361
  0
ARC
  5
98CE
330
96E6
100
AcDbEntity
  8
1
  6
Continuous
100
AcDbCircle
 10
178.4783179999998
 20
42.116461
 30
0.0
 40
1.02
100
AcDbArc
 50
220.1979999999999
 51
259.887
  0
ARC
  5
98CF
330
96E6
100
AcDbEntity
  8
1
  6
Continuous
100
AcDbCircle
 10
175.8333179999999
 20
43.308561
 30
0.0
 40
3.0987
100
AcDbArc
 50
286.201
 51
290.1159999999998
  0
ARC
  5
98D0
330
96E6
100
AcDbEntity
  8
1
  6
Continuous
100
AcDbCircle
 10
172.859318
 20
42.476061
 30
0.0
 40
4.3083
100
AcDbArc
 50
323.293
 51
339.6459999999998
  0
ARC
  5
98D1
330
96E6
100
AcDbEntity
  8
1
  6
Continuous
100
AcDbCircle
 10
176.7663179999999
 20
39.102961
 30
0.0
 40
0.9421000000000001
100
AcDbArc
 50
352.033
 51
7.966789999999998
  0
ARC
  5
98D2
330
96E6
100
AcDbEntity
  8
1
  6
Continuous
100
AcDbCircle
 10
172.6123179999999
 20
39.657961
 30
0.0
 40
4.287499999999997
100
AcDbArc
 50
342.6549999999999
 51
359.3339999999998
  0
ARC
  5
98D3
330
96E6
100
AcDbEntity
  8
1
  6
Continuous
100
AcDbCircle
 10
175.6773179999999
 20
34.60536100000001
 30
0.0
 40
1.236599999999999
100
AcDbArc
 50
350.983
 51
59.83789999999999
  0
ARC
  5
98D4
330
96E6
100
AcDbEntity
  8
1
  6
Continuous
100
AcDbCircle
 10
178.6413179999999
 20
34.319961
 30
0.0
 40
0.9435999999999999
100
AcDbArc
 50
111.261
 51
183.1289999999999
  0
ARC
  5
98D5
330
96E6
100
AcDbEntity
  8
1
  6
Continuous
100
AcDbCircle
 10
178.631318
 20
33.288961
 30
0.0
 40
0.9332
100
AcDbArc
 50
110.826
 51
183.124
  0
ARC
  5
98D6
330
96E6
100
AcDbEntity
  8
1
  6
Continuous
100
AcDbCircle
 10
178.967318
 20
32.06876100000001
 30
0.0
 40
2.0872
100
AcDbArc
 50
121.081
 51
127.4229999999999
  0
ARC
  5
98D7
330
96E6
100
AcDbEntity
  8
1
  6
Continuous
100
AcDbCircle
 10
174.491318
 20
32.539061
 30
0.0
 40
2.415099999999998
100
AcDbArc
 50
355.4669999999999
 51
41.5448
  0
ARC
  5
98D8
330
96E6
100
AcDbEntity
  8
1
  6
Continuous
100
AcDbCircle
 10
177.9323179999999
 20
35.815261
 30
0.0
 40
1.0341
100
AcDbArc
 50
82.1314
 51
103.0399999999999
  0
ARC
  5
98D9
330
96E6
100
AcDbEntity
  8
1
  6
Continuous
100
AcDbCircle
 10
177.7323179999999
 20
40.56556099999997
 30
0.0
 40
13.6465
100
AcDbArc
 50
348.374
 51
11.6256
  0
ARC
  5
98DA
330
96E6
100
AcDbEntity
  8
1
  6
Continuous
100
AcDbCircle
 10
177.7323179999999
 20
35.06556099999999
 30
0.0
 40
13.6465
100
AcDbArc
 50
348.374
 51
11.6256
  0
ARC
  5
98DB
330
96E6
100
AcDbEntity
  8
1
  6
Continuous
100
AcDbCircle
 10
203.0253179999998
 20
35.06556099999999
 30
0.0
 40
13.6465
100
AcDbArc
 50
168.374
 51
191.6259999999999
  0
ARC
  5
98DC
330
96E6
100
AcDbEntity
  8
1
  6
Continuous
100
AcDbCircle
 10
203.0253179999998
 20
40.56556099999997
 30
0.0
 40
13.6465
100
AcDbArc
 50
168.374
 51
191.6259999999999
  0
ARC
  5
98DD
330
96E6
100
AcDbEntity
  8
2
  6
Continuous
100
AcDbCircle
 10
264.840318
 20
107.815161
 30
0.0
 40
8.9585
100
AcDbArc
 50
118.134
 51
167.7279999999998
  0
ARC
  5
98DE
330
96E6
100
AcDbEntity
  8
1
  6
Continuous
100
AcDbCircle
 10
264.840318
 20
107.815161
 30
0.0
 40
8.9585
100
AcDbArc
 50
241.866
 51
298.134
  0
ARC
  5
98DF
330
96E6
100
AcDbEntity
  8
2
  6
Continuous
100
AcDbCircle
 10
264.840318
 20
107.815161
 30
0.0
 40
8.9585
100
AcDbArc
 50
298.134
 51
347.728
  0
ARC
  5
98E0
330
96E6
100
AcDbEntity
  8
1
  6
Continuous
100
AcDbCircle
 10
264.840318
 20
107.815161
 30
0.0
 40
8.9585
100
AcDbArc
 50
61.8655
 51
118.134
  0
ARC
  5
98E1
330
96E6
100
AcDbEntity
  8
2
  6
Continuous
100
AcDbCircle
 10
264.840318
 20
107.815161
 30
0.0
 40
8.9585
100
AcDbArc
 50
12.2716
 51
61.8655
  0
ARC
  5
98E2
330
96E6
100
AcDbEntity
  8
2
  6
Continuous
100
AcDbCircle
 10
264.840318
 20
107.815161
 30
0.0
 40
8.9585
100
AcDbArc
 50
192.2719999999999
 51
241.866
  0
ARC
  5
98E3
330
96E6
100
AcDbEntity
  8
1
  6
Continuous
100
AcDbCircle
 10
264.840318
 20
107.815161
 30
0.0
 40
9.5
100
AcDbArc
 50
303.7389999999998
 51
56.2612
  0
ARC
  5
98E4
330
96E6
100
AcDbEntity
  8
2
  6
Continuous
100
AcDbCircle
 10
264.840318
 20
107.815161
 30
0.0
 40
9.5
100
AcDbArc
 50
56.2612
 51
123.7389999999999
  0
ARC
  5
98E5
330
96E6
100
AcDbEntity
  8
1
  6
Continuous
100
AcDbCircle
 10
264.840318
 20
107.815161
 30
0.0
 40
3.093999999999998
100
AcDbArc
 50
60.76869999999999
 51
119.2309999999999
  0
ARC
  5
98E6
330
96E6
100
AcDbEntity
  8
1
  6
Continuous
100
AcDbCircle
 10
264.840318
 20
107.815161
 30
0.0
 40
3.093999999999998
100
AcDbArc
 50
119.2309999999999
 51
240.769
  0
ARC
  5
98E7
330
96E6
100
AcDbEntity
  8
1
  6
Continuous
100
AcDbCircle
 10
264.840318
 20
107.815161
 30
0.0
 40
3.093999999999998
100
AcDbArc
 50
240.769
 51
299.2309999999998
  0
ARC
  5
98E8
330
96E6
100
AcDbEntity
  8
1
  6
Continuous
100
AcDbCircle
 10
264.840318
 20
107.815161
 30
0.0
 40
3.093999999999998
100
AcDbArc
 50
299.2309999999998
 51
60.76869999999999
  0
ARC
  5
98E9
330
96E6
100
AcDbEntity
  8
1
  6
Continuous
100
AcDbCircle
 10
264.840318
 20
107.815161
 30
0.0
 40
3.5
100
AcDbArc
 50
230.4819999999999
 51
309.5179999999999
  0
ARC
  5
98EA
330
96E6
100
AcDbEntity
  8
1
  6
Continuous
100
AcDbCircle
 10
264.840318
 20
107.815161
 30
0.0
 40
3.5
100
AcDbArc
 50
50.48230000000001
 51
129.518
  0
ARC
  5
98EB
330
96E6
100
AcDbEntity
  8
1
  6
Continuous
100
AcDbCircle
 10
148.7293179999998
 20
172.316161
 30
0.0
 40
16.1953
100
AcDbArc
 50
340.1499999999999
 51
19.85
  0
ARC
  5
98EC
330
96E6
100
AcDbEntity
  8
1
  6
Continuous
100
AcDbCircle
 10
148.7293179999998
 20
183.3151609999999
 30
0.0
 40
16.1953
100
AcDbArc
 50
340.1499999999999
 51
19.85
  0
ARC
  5
98ED
330
96E6
100
AcDbEntity
  8
1
  6
Continuous
100
AcDbCircle
 10
175.8623179999999
 20
183.2541609999999
 30
0.0
 40
1.837099999999999
100
AcDbArc
 50
283.7559999999998
 51
304.361
  0
ARC
  5
98EE
330
96E6
100
AcDbEntity
  8
1
  6
Continuous
100
AcDbCircle
 10
178.4783179999998
 20
182.116161
 30
0.0
 40
1.02
100
AcDbArc
 50
220.1979999999999
 51
259.887
  0
ARC
  5
98EF
330
96E6
100
AcDbEntity
  8
1
  6
Continuous
100
AcDbCircle
 10
175.8333179999999
 20
183.308161
 30
0.0
 40
3.0987
100
AcDbArc
 50
286.201
 51
290.1159999999998
  0
ARC
  5
98F0
330
96E6
100
AcDbEntity
  8
1
  6
Continuous
100
AcDbCircle
 10
172.859318
 20
182.4761609999999
 30
0.0
 40
4.3083
100
AcDbArc
 50
323.293
 51
339.6459999999998
  0
ARC
  5
98F1
330
96E6
100
AcDbEntity
  8
1
  6
Continuous
100
AcDbCircle
 10
176.7663179999999
 20
179.103161
 30
0.0
 40
0.9421000000000001
100
AcDbArc
 50
352.033
 51
7.966789999999998
  0
ARC
  5
98F2
330
96E6
100
AcDbEntity
  8
1
  6
Continuous
100
AcDbCircle
 10
172.6123179999999
 20
179.658161
 30
0.0
 40
4.287499999999997
100
AcDbArc
 50
342.6549999999999
 51
359.3339999999998
  0
ARC
  5
98F3
330
96E6
100
AcDbEntity
  8
1
  6
Continuous
100
AcDbCircle
 10
175.6773179999999
 20
174.605161
 30
0.0
 40
1.236599999999999
100
AcDbArc
 50
350.983
 51
59.83789999999999
  0
ARC
  5
98F4
330
96E6
100
AcDbEntity
  8
1
  6
Continuous
100
AcDbCircle
 10
178.6413179999999
 20
174.320161
 30
0.0
 40
0.9435999999999999
100
AcDbArc
 50
111.261
 51
183.1289999999999
  0
ARC
  5
98F5
330
96E6
100
AcDbEntity
  8
1
  6
Continuous
100
AcDbCircle
 10
178.631318
 20
173.289161
 30
0.0
 40
0.9332
100
AcDbArc
 50
110.826
 51
183.124
  0
ARC
  5
98F6
330
96E6
100
AcDbEntity
  8
1
  6
Continuous
100
AcDbCircle
 10
178.967318
 20
172.069161
 30
0.0
 40
2.0872
100
AcDbArc
 50
121.081
 51
127.4229999999999
  0
ARC
  5
98F7
330
96E6
100
AcDbEntity
  8
1
  6
Continuous
100
AcDbCircle
 10
174.491318
 20
172.539161
 30
0.0
 40
2.415099999999998
100
AcDbArc
 50
355.4669999999999
 51
41.5448
  0
ARC
  5
98F8
330
96E6
100
AcDbEntity
  8
1
  6
Continuous
100
AcDbCircle
 10
177.9323179999999
 20
175.8151609999999
 30
0.0
 40
1.0341
100
AcDbArc
 50
82.1314
 51
103.0399999999999
  0
ARC
  5
98F9
330
96E6
100
AcDbEntity
  8
1
  6
Continuous
100
AcDbCircle
 10
177.7323179999999
 20
180.5651609999999
 30
0.0
 40
13.6465
100
AcDbArc
 50
348.374
 51
11.6256
  0
ARC
  5
98FA
330
96E6
100
AcDbEntity
  8
1
  6
Continuous
100
AcDbCircle
 10
177.7323179999999
 20
175.065161
 30
0.0
 40
13.6465
100
AcDbArc
 50
348.374
 51
11.6256
  0
ARC
  5
98FB
330
96E6
100
AcDbEntity
  8
1
  6
Continuous
100
AcDbCircle
 10
203.0253179999998
 20
175.065161
 30
0.0
 40
13.6465
100
AcDbArc
 50
168.374
 51
191.6259999999999
  0
ARC
  5
98FC
330
96E6
100
AcDbEntity
  8
1
  6
Continuous
100
AcDbCircle
 10
203.0253179999998
 20
180.5651609999999
 30
0.0
 40
13.6465
100
AcDbArc
 50
168.374
 51
191.6259999999999
  0
ARC
  5
98FD
330
96E6
100
AcDbEntity
  8
1
  6
Continuous
100
AcDbCircle
 10
30.304902
 20
177.8151609999999
 30
0.0
 40
7.932788
100
AcDbArc
 50
169.896
 51
172.2069999999999
  0
ARC
  5
98FE
330
96E6
100
AcDbEntity
  8
1
  6
Continuous
100
AcDbCircle
 10
19.106134
 20
177.8151609999999
 30
0.0
 40
7.932788
100
AcDbArc
 50
7.792999999999999
 51
10.10399999999999
  0
ARC
  5
98FF
330
96E6
100
AcDbEntity
  8
1
  6
Continuous
100
AcDbCircle
 10
22.511101
 20
178.882935
 30
0.0
 40
0.066678
100
AcDbArc
 50
172.2069999999999
 51
270.0
  0
ARC
  5
9900
330
96E6
100
AcDbEntity
  8
1
  6
Continuous
100
AcDbCircle
 10
26.89993499999999
 20
178.882935
 30
0.0
 40
0.066678
100
AcDbArc
 50
270.0
 51
7.792999999999999
  0
LINE
  5
9901
330
96E6
100
AcDbEntity
  8
1
  6
Continuous
100
AcDbLine
 10
22.379828
 20
178.1494329999999
 30
0.0
 11
27.03120800000001
 21
178.1494329999999
 31
0.0
  0
LINE
  5
9902
330
96E6
100
AcDbEntity
  8
1
  6
Continuous
100
AcDbLine
 10
22.511101
 20
178.8152689999998
 30
0.0
 11
26.89993499999999
 21
178.8152689999998
 31
0.0
  0
LINE
  5
9903
330
96E6
100
AcDbEntity
  8
1
  6
Continuous
100
AcDbLine
 10
23.905026
 20
179.482458
 30
0.0
 11
22.823719
 21
179.482458
 31
0.0
  0
LINE
  5
9904
330
96E6
100
AcDbEntity
  8
1
  6
Continuous
100
AcDbLine
 10
24.704841
 20
179.482458
 30
0.0
 11
24.704841
 21
179.14954
 31
0.0
  0
LINE
  5
9905
330
96E6
100
AcDbEntity
  8
1
  6
Continuous
100
AcDbLine
 10
22.827779
 20
180.815484
 30
0.0
 11
24.37192299999999
 21
180.815484
 31
0.0
  0
LINE
  5
9906
330
96E6
100
AcDbEntity
  8
1
  6
Continuous
100
AcDbLine
 10
24.37192299999999
 20
181.482673
 30
0.0
 11
22.94822499999999
 21
181.482673
 31
0.0
  0
LINE
  5
9907
330
96E6
100
AcDbEntity
  8
1
  6
Continuous
100
AcDbLine
 10
24.704841
 20
181.1484019999998
 30
0.0
 11
26.30447199999998
 21
181.1484019999998
 31
0.0
  0
LINE
  5
9908
330
96E6
100
AcDbEntity
  8
1
  6
Continuous
100
AcDbLine
 10
25.952607
 20
181.821005
 30
0.0
 11
23.143104
 21
182.5748069999999
 31
0.0
  0
LINE
  5
9909
330
96E6
100
AcDbEntity
  8
1
  6
Continuous
100
AcDbLine
 10
24.704841
 20
183.532961
 30
0.0
 11
24.704841
 21
182.1552759999999
 31
0.0
  0
ARC
  5
990A
330
96E6
100
AcDbEntity
  8
1
  6
Continuous
100
AcDbCircle
 10
24.37192299999999
 20
181.1484019999998
 30
0.0
 40
0.333392
100
AcDbArc
 50
270.0
 51
90.0
  0
ARC
  5
990B
330
96E6
100
AcDbEntity
  8
1
  6
Continuous
100
AcDbCircle
 10
24.704841
 20
181.8155909999999
 30
0.0
 40
1.717978999999998
100
AcDbArc
 50
62.24999999999999
 51
144.462
  0
ARC
  5
990C
330
96E6
100
AcDbEntity
  8
1
  6
Continuous
100
AcDbCircle
 10
24.704841
 20
181.8155909999999
 30
0.0
 40
1.717978999999998
100
AcDbArc
 50
35.53799999999999
 51
45.69899999999999
  0
ARC
  5
990D
330
96E6
100
AcDbEntity
  8
1
  6
Continuous
100
AcDbCircle
 10
22.823719
 20
179.14954
 30
0.0
 40
0.333392
100
AcDbArc
 50
90.0
 51
169.896
  0
ARC
  5
990E
330
96E6
100
AcDbEntity
  8
1
  6
Continuous
100
AcDbCircle
 10
26.587317
 20
179.14954
 30
0.0
 40
0.333392
100
AcDbArc
 50
10.10399999999999
 51
90.0
  0
LINE
  5
990F
330
96E6
100
AcDbEntity
  8
1
  6
Continuous
100
AcDbLine
 10
26.587317
 20
179.482458
 30
0.0
 11
24.704841
 21
179.482458
 31
0.0
  0
LINE
  5
9910
330
96E6
100
AcDbEntity
  8
1
  6
Continuous
100
AcDbLine
 10
22.51380699999999
 20
180.1482939999999
 30
0.0
 11
26.687463
 21
180.1482939999999
 31
0.0
  0
LINE
  5
9911
330
96E6
100
AcDbEntity
  8
1
  6
Continuous
100
AcDbLine
 10
22.87649899999999
 20
173.4831659999999
 30
0.0
 11
25.750962
 21
173.4831659999999
 31
0.0
  0
LINE
  5
9912
330
96E6
100
AcDbEntity
  8
1
  6
Continuous
100
AcDbLine
 10
25.935014
 20
174.149002
 30
0.0
 11
23.476022
 21
174.149002
 31
0.0
  0
LINE
  5
9913
330
96E6
100
AcDbEntity
  8
1
  6
Continuous
100
AcDbLine
 10
23.060551
 20
174.816192
 30
0.0
 11
26.349132
 21
174.816192
 31
0.0
  0
LINE
  5
9914
330
96E6
100
AcDbEntity
  8
1
  6
Continuous
100
AcDbLine
 10
23.905026
 20
176.1492179999999
 30
0.0
 11
22.6329
 21
176.1492179999999
 31
0.0
  0
LINE
  5
9915
330
96E6
100
AcDbEntity
  8
1
  6
Continuous
100
AcDbLine
 10
24.704841
 20
177.4822429999999
 30
0.0
 11
24.704841
 21
176.816407
 31
0.0
  0
ARC
  5
9916
330
96E6
100
AcDbEntity
  8
1
  6
Continuous
100
AcDbCircle
 10
24.704841
 20
173.8160839999999
 30
0.0
 40
1.717978999999998
100
AcDbArc
 50
215.5377
 51
256.5374
  0
ARC
  5
9917
330
96E6
100
AcDbEntity
  8
1
  6
Continuous
100
AcDbCircle
 10
24.704841
 20
173.8160839999999
 30
0.0
 40
1.717978999999998
100
AcDbArc
 50
270.0
 51
324.4619999999998
  0
ARC
  5
9918
330
96E6
100
AcDbEntity
  8
1
  6
Continuous
100
AcDbCircle
 10
23.476022
 20
174.4832739999999
 30
0.0
 40
0.333392
100
AcDbArc
 50
206.0144
 51
270.0
  0
ARC
  5
9919
330
96E6
100
AcDbEntity
  8
1
  6
Continuous
100
AcDbCircle
 10
30.304902
 20
177.8151609999999
 30
0.0
 40
7.932788
100
AcDbArc
 50
202.944
 51
206.0144
  0
ARC
  5
991A
330
96E6
100
AcDbEntity
  8
1
  6
Continuous
100
AcDbCircle
 10
23.060551
 20
174.7498789999999
 30
0.0
 40
0.066678
100
AcDbArc
 50
90.0
 51
202.944
  0
ARC
  5
991B
330
96E6
100
AcDbEntity
  8
1
  6
Continuous
100
AcDbCircle
 10
25.935014
 20
174.4832739999999
 30
0.0
 40
0.333392
100
AcDbArc
 50
270.0
 51
333.9859999999998
  0
ARC
  5
991C
330
96E6
100
AcDbEntity
  8
1
  6
Continuous
100
AcDbCircle
 10
22.6329
 20
176.082905
 30
0.0
 40
0.066678
100
AcDbArc
 50
90.0
 51
192.7289
  0
ARC
  5
991D
330
96E6
100
AcDbEntity
  8
1
  6
Continuous
100
AcDbCircle
 10
30.304902
 20
177.8151609999999
 30
0.0
 40
7.932788
100
AcDbArc
 50
192.7289
 51
193.2680999999999
  0
ARC
  5
991E
330
96E6
100
AcDbEntity
  8
1
  6
Continuous
100
AcDbCircle
 10
30.304902
 20
177.8151609999999
 30
0.0
 40
7.932788
100
AcDbArc
 50
193.2680999999999
 51
195.2574999999999
  0
ARC
  5
991F
330
96E6
100
AcDbEntity
  8
1
  6
Continuous
100
AcDbCircle
 10
22.973938
 20
175.8162989999999
 30
0.0
 40
0.333392
100
AcDbArc
 50
195.2574999999999
 51
270.0
  0
ARC
  5
9920
330
96E6
100
AcDbEntity
  8
1
  6
Continuous
100
AcDbCircle
 10
26.43709799999999
 20
175.8162989999999
 30
0.0
 40
0.333392
100
AcDbArc
 50
270.0
 51
344.7419999999998
  0
ARC
  5
9921
330
96E6
100
AcDbEntity
  8
1
  6
Continuous
100
AcDbCircle
 10
19.106134
 20
177.8151609999999
 30
0.0
 40
7.932788
100
AcDbArc
 50
344.7419999999998
 51
344.794
  0
ARC
  5
9922
330
96E6
100
AcDbEntity
  8
1
  6
Continuous
100
AcDbCircle
 10
19.106134
 20
177.8151609999999
 30
0.0
 40
7.932788
100
AcDbArc
 50
344.794
 51
347.2709999999998
  0
ARC
  5
9923
330
96E6
100
AcDbEntity
  8
1
  6
Continuous
100
AcDbCircle
 10
26.778136
 20
176.082905
 30
0.0
 40
0.066678
100
AcDbArc
 50
347.2709999999998
 51
90.0
  0
LINE
  5
9924
330
96E6
100
AcDbEntity
  8
1
  6
Continuous
100
AcDbLine
 10
22.973938
 20
175.482028
 30
0.0
 11
26.43709799999999
 21
175.482028
 31
0.0
  0
LINE
  5
9925
330
96E6
100
AcDbEntity
  8
1
  6
Continuous
100
AcDbLine
 10
26.778136
 20
176.1492179999999
 30
0.0
 11
25.504657
 21
176.1492179999999
 31
0.0
  0
LINE
  5
9926
330
96E6
100
AcDbEntity
  8
1
  6
Continuous
100
AcDbLine
 10
22.435314
 20
176.816407
 30
0.0
 11
26.975721
 21
176.816407
 31
0.0
  0
LINE
  5
9927
330
96E6
100
AcDbEntity
  8
1
  6
Continuous
100
AcDbLine
 10
22.379828
 20
177.4822429999999
 30
0.0
 11
27.03120800000001
 21
177.4822429999999
 31
0.0
  0
ARC
  5
9928
330
96E6
100
AcDbEntity
  8
1
  6
Continuous
100
AcDbCircle
 10
26.349132
 20
174.7498789999999
 30
0.0
 40
0.066678
100
AcDbArc
 50
337.0559999999999
 51
90.0
  0
ARC
  5
9929
330
96E6
100
AcDbEntity
  8
1
  6
Continuous
100
AcDbCircle
 10
19.106134
 20
177.8151609999999
 30
0.0
 40
7.932788
100
AcDbArc
 50
333.9859999999998
 51
337.0559999999999
  0
ARC
  5
992A
330
96E6
100
AcDbEntity
  8
1
  6
Continuous
100
AcDbCircle
 10
19.106134
 20
177.8151609999999
 30
0.0
 40
8.599396
100
AcDbArc
 50
324.4619999999998
 51
35.53799999999999
  0
ARC
  5
992B
330
96E6
100
AcDbEntity
  8
1
  6
Continuous
100
AcDbCircle
 10
30.304902
 20
177.8151609999999
 30
0.0
 40
8.599396
100
AcDbArc
 50
144.462
 51
215.5377
  0
LINE
  5
992C
330
96E6
100
AcDbEntity
  8
1
  6
Continuous
100
AcDbLine
 10
110.5093179999998
 20
187.3151609999999
 30
0.0
 11
110.5093179999998
 21
183.091161
 31
0.0
  0
LINE
  5
992D
330
96E6
100
AcDbEntity
  8
2
  6
Continuous
100
AcDbLine
 10
110.5093179999998
 20
168.8561609999999
 30
0.0
 11
116.9403179999999
 21
168.8561609999999
 31
0.0
  0
LINE
  5
992E
330
96E6
100
AcDbEntity
  8
1
  6
Continuous
100
AcDbLine
 10
110.5093179999998
 20
168.3151609999999
 30
0.0
 11
110.5093179999998
 21
172.539161
 31
0.0
  0
LINE
  5
992F
330
96E6
100
AcDbEntity
  8
2
  6
Continuous
100
AcDbLine
 10
109.799318
 20
168.446006
 30
0.0
 11
110.5093179999998
 21
168.8561609999999
 31
0.0
  0
LINE
  5
9930
330
96E6
100
AcDbEntity
  8
2
  6
Continuous
100
AcDbLine
 10
110.5093179999998
 20
46.77456099999999
 30
0.0
 11
116.9403179999999
 21
46.77456099999999
 31
0.0
  0
LINE
  5
9931
330
96E6
100
AcDbEntity
  8
1
  6
Continuous
100
AcDbLine
 10
110.5093179999998
 20
47.31556099999997
 30
0.0
 11
110.5093179999998
 21
43.091561
 31
0.0
  0
LINE
  5
9932
330
96E6
100
AcDbEntity
  8
2
  6
Continuous
100
AcDbLine
 10
109.799318
 20
47.184717
 30
0.0
 11
110.5093179999998
 21
46.77456099999999
 31
0.0
  0
LINE
  5
9933
330
96E6
100
AcDbEntity
  8
2
  6
Continuous
100
AcDbLine
 10
110.5093179999998
 20
28.856561
 30
0.0
 11
116.9403179999999
 21
28.856561
 31
0.0
  0
LINE
  5
9934
330
96E6
100
AcDbEntity
  8
2
  6
Continuous
100
AcDbLine
 10
109.799318
 20
28.44640599999999
 30
0.0
 11
110.5093179999998
 21
28.856561
 31
0.0
  0
LINE
  5
9935
330
96E6
100
AcDbEntity
  8
1
  6
Continuous
100
AcDbLine
 10
110.5093179999998
 20
28.315561
 30
0.0
 11
110.5093179999998
 21
32.53956099999999
 31
0.0
  0
LINE
  5
9936
330
96E6
100
AcDbEntity
  8
1
  6
Continuous
100
AcDbLine
 10
110.5093179999998
 20
99.915161
 30
0.0
 11
110.5093179999998
 21
106.4855369999999
 31
0.0
  0
LINE
  5
9937
330
96E6
100
AcDbEntity
  8
1
  6
Continuous
100
AcDbLine
 10
110.5093179999998
 20
109.144785
 30
0.0
 11
110.5093179999998
 21
115.7151609999999
 31
0.0
  0
LINE
  5
9938
330
96E6
100
AcDbEntity
  8
1
  6
Continuous
100
AcDbLine
 10
117.2993179999999
 20
99.915161
 30
0.0
 11
117.2993179999999
 21
106.2151609999999
 31
0.0
  0
LINE
  5
9939
330
96E6
100
AcDbEntity
  8
1
  6
Continuous
100
AcDbLine
 10
117.2993179999999
 20
109.415161
 30
0.0
 11
117.2993179999999
 21
115.7151609999999
 31
0.0
  0
ENDSEC
  0
SECTION
  2
OBJECTS
  0
DICTIONARY
  5
96D4
330
0
100
AcDbDictionary
281
     1
  3
ACAD_CIP_PREVIOUS_PRODUCT_INFO
350
999D
  3
ACAD_COLOR
350
997F
  3
ACAD_DETAILVIEWSTYLE
350
9998
  3
ACAD_GROUP
350
96D5
  3
ACAD_LAYOUT
350
96E1
  3
ACAD_MATERIAL
350
994D
  3
ACAD_MLEADERSTYLE
350
9994
  3
ACAD_MLINESTYLE
350
96DE
  3
ACAD_PLOTSETTINGS
350
96E0
  3
ACAD_PLOTSTYLENAME
350
994B
  3
ACAD_SCALELIST
350
9982
  3
ACAD_SECTIONVIEWSTYLE
350
9996
  3
ACAD_TABLESTYLE
350
9980
  3
ACAD_VISUALSTYLE
350
9966
  3
ACDB_RECOMPOSE_DATA
350
99BB
  3
AcDbVariableDictionary
350
99AE
  3
DWGPROPS
350
99BC
  0
DICTIONARY
  5
999E
330
96D8
100
AcDbDictionary
280
     1
281
     1
  3
ADSK_XREC_LAYER_RECONCILED
360
999F
  0
DICTIONARY
  5
99A0
330
96EE
100
AcDbDictionary
280
     1
281
     1
  3
ADSK_XREC_LAYER_RECONCILED
360
99A1
  0
DICTIONARY
  5
99A2
330
96EF
100
AcDbDictionary
280
     1
281
     1
  3
ADSK_XREC_LAYER_RECONCILED
360
99A3
  0
DICTIONARY
  5
99A4
330
96F0
100
AcDbDictionary
280
     1
281
     1
  3
ADSK_XREC_LAYER_RECONCILED
360
99A5
  0
DICTIONARY
  5
99A6
330
96F1
100
AcDbDictionary
280
     1
281
     1
  3
ADSK_XREC_LAYER_RECONCILED
360
99A7
  0
DICTIONARY
  5
99A8
330
96F2
100
AcDbDictionary
280
     1
281
     1
  3
ADSK_XREC_LAYER_RECONCILED
360
99A9
  0
DICTIONARY
  5
99AA
330
96F3
100
AcDbDictionary
280
     1
281
     1
  3
ADSK_XREC_LAYER_RECONCILED
360
99AB
  0
DICTIONARY
  5
99AC
330
96F4
100
AcDbDictionary
280
     1
281
     1
  3
ADSK_XREC_LAYER_RECONCILED
360
99AD
  0
DICTIONARY
  5
9946
330
96E6
100
AcDbDictionary
281
     1
  3
ACAD_LAYOUTSELFREF
350
9947
  0
DICTIONARY
  5
9944
330
96E2
100
AcDbDictionary
281
     1
  3
ACAD_LAYOUTSELFREF
350
9945
  0
XRECORD
  5
999D
102
{ACAD_REACTORS
330
96D4
102
}
330
96D4
100
AcDbXrecord
280
     1
300
ACDLT
300
2014
300
ACDLT_F_S
  0
DICTIONARY
  5
997F
102
{ACAD_REACTORS
330
96D4
102
}
330
96D4
100
AcDbDictionary
281
     1
  0
DICTIONARY
  5
9998
102
{ACAD_REACTORS
330
96D4
102
}
330
96D4
100
AcDbDictionary
281
     1
  3
Imperial24
350
9999
  0
DICTIONARY
  5
96D5
102
{ACAD_REACTORS
330
96D4
102
}
330
96D4
100
AcDbDictionary
281
     1
  0
DICTIONARY
  5
96E1
102
{ACAD_REACTORS
330
96D4
102
}
330
96D4
100
AcDbDictionary
281
     1
  3
Model
350
999A
  3
レイアウト1
350
999B
  0
DICTIONARY
  5
994D
102
{ACAD_REACTORS
330
96D4
102
}
330
96D4
100
AcDbDictionary
281
     1
  3
ByBlock
350
9956
  3
ByLayer
350
994E
  3
Global
350
995E
  0
DICTIONARY
  5
9994
102
{ACAD_REACTORS
330
96D4
102
}
330
96D4
100
AcDbDictionary
281
     1
  3
Standard
350
9995
  0
DICTIONARY
  5
96DE
102
{ACAD_REACTORS
330
96D4
102
}
330
96D4
100
AcDbDictionary
281
     1
  3
STANDARD
350
96DF
  0
DICTIONARY
  5
96E0
102
{ACAD_REACTORS
330
96D4
102
}
330
96D4
100
AcDbDictionary
281
     1
  0
ACDBDICTIONARYWDFLT
  5
994B
102
{ACAD_REACTORS
330
96D4
102
}
330
96D4
100
AcDbDictionary
281
     1
  3
Normal
350
994C
100
AcDbDictionaryWithDefault
340
994C
  0
DICTIONARY
  5
9982
102
{ACAD_REACTORS
330
96D4
102
}
330
96D4
100
AcDbDictionary
281
     1
  3
A0
350
9983
  3
A1
350
9984
  3
A2
350
9985
  3
A3
350
9986
  3
A4
350
9987
  3
A5
350
9988
  3
A6
350
9989
  3
A7
350
998A
  3
A8
350
998B
  3
A9
350
998C
  3
B0
350
998D
  3
B1
350
998E
  3
B2
350
998F
  3
B3
350
9990
  3
B4
350
9991
  3
B5
350
9992
  3
B6
350
9993
  0
DICTIONARY
  5
9996
102
{ACAD_REACTORS
330
96D4
102
}
330
96D4
100
AcDbDictionary
281
     1
  3
Imperial24
350
9997
  0
DICTIONARY
  5
9980
102
{ACAD_REACTORS
330
96D4
102
}
330
96D4
100
AcDbDictionary
281
     1
  3
Standard
350
9981
  0
DICTIONARY
  5
9966
102
{ACAD_REACTORS
330
96D4
102
}
330
96D4
100
AcDbDictionary
281
     1
  3
2dWireframe
350
996C
  3
Basic
350
996B
  3
Brighten
350
9972
  3
ColorChange
350
9976
  3
Conceptual
350
996F
  3
Dim
350
9971
  3
EdgeColorOff
350
997E
  3
Facepattern
350
9975
  3
Flat
350
9967
  3
FlatWithEdges
350
9968
  3
Gouraud
350
9969
  3
GouraudWithEdges
350
996A
  3
Hidden
350
996E
  3
JitterOff
350
997C
  3
Linepattern
350
9974
  3
OverhangOff
350
997D
  3
Realistic
350
9970
  3
Shaded
350
997B
  3
Shaded with edges
350
997A
  3
Shades of Gray
350
9977
  3
Sketchy
350
9978
  3
Thicken
350
9973
  3
Wireframe
350
996D
  3
X-Ray
350
9979
  0
XRECORD
  5
99BB
102
{ACAD_REACTORS
330
96D4
102
}
330
96D4
100
AcDbXrecord
280
     1
 90
        1
330
9981
  0
DICTIONARY
  5
99AE
102
{ACAD_REACTORS
330
96D4
102
}
330
96D4
100
AcDbDictionary
281
     1
  3
CANNOSCALE
350
99B3
  3
CMLEADERSTYLE
350
99B0
  3
CTABLESTYLE
350
99AF
  3
CVIEWDETAILSTYLE
350
99B1
  3
CVIEWSECTIONSTYLE
350
99B2
  3
DIMASSOC
350
99B6
  3
INDEXCTL
350
99B5
  3
SORTENTS
350
99B4
  3
XCLIPFRAME
350
99B7
  0
XRECORD
  5
99BC
102
{ACAD_REACTORS
330
96D4
102
}
330
96D4
100
AcDbXrecord
280
     1
  1
DWGPROPS COOKIE
  2

  3

  4

  6

  7

  8
Yoshitsune
  9

300
=
301
=
302
=
303
=
304
=
305
=
306
=
307
=
308
=
309
=
 40
0.0000132291666667
 41
2450932.561631598
 42
2457192.600721493
  1

 90
        0
  0
XRECORD
  5
999F
102
{ACAD_REACTORS
330
999E
102
}
330
999E
100
AcDbXrecord
280
     1
290
     1
  0
XRECORD
  5
99A1
102
{ACAD_REACTORS
330
99A0
102
}
330
99A0
100
AcDbXrecord
280
     1
290
     1
  0
XRECORD
  5
99A3
102
{ACAD_REACTORS
330
99A2
102
}
330
99A2
100
AcDbXrecord
280
     1
290
     1
  0
XRECORD
  5
99A5
102
{ACAD_REACTORS
330
99A4
102
}
330
99A4
100
AcDbXrecord
280
     1
290
     1
  0
XRECORD
  5
99A7
102
{ACAD_REACTORS
330
99A6
102
}
330
99A6
100
AcDbXrecord
280
     1
290
     1
  0
XRECORD
  5
99A9
102
{ACAD_REACTORS
330
99A8
102
}
330
99A8
100
AcDbXrecord
280
     1
290
     1
  0
XRECORD
  5
99AB
102
{ACAD_REACTORS
330
99AA
102
}
330
99AA
100
AcDbXrecord
280
     1
290
     1
  0
XRECORD
  5
99AD
102
{ACAD_REACTORS
330
99AC
102
}
330
99AC
100
AcDbXrecord
280
     1
290
     1
  0
XRECORD
  5
9947
102
{ACAD_REACTORS
330
9946
102
}
330
9946
100
AcDbXrecord
280
     1
340
96E6
  0
XRECORD
  5
9945
102
{ACAD_REACTORS
330
9944
102
}
330
9944
100
AcDbXrecord
280
     1
340
96E2
  0
ACDBDETAILVIEWSTYLE
  5
9999
102
{ACAD_XDICTIONARY
360
99F4
102
}
102
{ACAD_REACTORS
330
9998
102
}
330
9998
100
AcDbModelDocViewStyle
 70
     0
  3
Imperial24
290
     0
100
AcDbDetailViewStyle
 70
     0
 71
     0
 90
        3
 71
     1
340
96D9
 40
0.24
340
0
 40
0.24
300

 40
0.36
280
     3
 71
     2
340
96DD
 90
       25
 71
     3
340
96D9
 40
0.24
 90
        1
 40
0.75
 90
        1
300
%<\AcVar ViewType \f "%tc1">% %<\AcVar ViewDetailId>%\PSCALE %<\AcVar ViewScale \f "%sn">%
 71
     4
340
96DD
 90
       25
340
96DD
 90
       25
280
     0
  0
LAYOUT
  5
999A
102
{ACAD_XDICTIONARY
360
99F6
102
}
102
{ACAD_REACTORS
330
96E1
102
}
330
96E1
100
AcDbPlotSettings
  1

  2
Canon LBP9100C
  4

  6

 40
0.0
 41
0.0
 42
0.0
 43
0.0
 44
0.0
 45
0.0
 46
0.0
 47
0.0
 48
0.0
 49
0.0
140
0.0
141
0.0
142
1.0
143
1.0
 70
  1712
 72
     0
 73
     0
 74
     0
  7

 75
     0
147
1.0
148
0.0
149
0.0
100
AcDbLayout
  1
Model
 70
     1
 71
     0
 10
0.0
 20
0.0
 11
12.0
 21
9.0
 12
0.0
 22
0.0
 32
0.0
 14
0.0
 24
0.0
 34
0.0
 15
0.0
 25
0.0
 35
0.0
146
0.0
 13
0.0
 23
0.0
 33
0.0
 16
1.0
 26
0.0
 36
0.0
 17
0.0
 27
1.0
 37
0.0
 76
     0
330
96E6
331
9943
  0
LAYOUT
  5
999B
102
{ACAD_XDICTIONARY
360
99F8
102
}
102
{ACAD_REACTORS
330
96E1
102
}
330
96E1
100
AcDbPlotSettings
  1

  2
Canon LBP9100C
  4

  6

 40
0.0
 41
0.0
 42
0.0
 43
0.0
 44
0.0
 45
0.0
 46
0.0
 47
0.0
 48
0.0
 49
0.0
140
0.0
141
0.0
142
1.0
143
1.0
 70
   688
 72
     0
 73
     0
 74
     5
  7

 75
    16
147
1.0
148
0.0
149
0.0
100
AcDbLayout
  1
レイアウト1
 70
     0
 71
     1
 10
0.0
 20
0.0
 11
420.0
 21
297.0
 12
0.0
 22
0.0
 32
0.0
 14
1.000000000000000E+20
 24
1.000000000000000E+20
 34
1.000000000000000E+20
 15
-1.000000000000000E+20
 25
-1.000000000000000E+20
 35
-1.000000000000000E+20
146
0.0
 13
0.0
 23
0.0
 33
0.0
 16
1.0
 26
0.0
 36
0.0
 17
0.0
 27
1.0
 37
0.0
 76
     0
330
96E2
  0
MATERIAL
  5
9956
102
{ACAD_XDICTIONARY
360
9957
102
}
102
{ACAD_REACTORS
330
994D
102
}
330
994D
100
AcDbMaterial
  1
ByBlock
 72
     0
 43
0.0208333333333333
 43
0.0
 43
0.0
 43
0.0
 43
0.0
 43
0.0208333333333333
 43
0.0
 43
0.0
 43
0.0
 43
0.0
 43
1.0
 43
0.0
 43
0.0
 43
0.0
 43
0.0
 43
1.0
 77
     0
 47
0.0208333333333333
 47
0.0
 47
0.0
 47
0.0
 47
0.0
 47
0.0208333333333333
 47
0.0
 47
0.0
 47
0.0
 47
0.0
 47
1.0
 47
0.0
 47
0.0
 47
0.0
 47
0.0
 47
1.0
171
     0
 49
0.0208333333333333
 49
0.0
 49
0.0
 49
0.0
 49
0.0
 49
0.0208333333333333
 49
0.0
 49
0.0
 49
0.0
 49
0.0
 49
1.0
 49
0.0
 49
0.0
 49
0.0
 49
0.0
 49
1.0
175
     0
142
0.0208333333333333
142
0.0
142
0.0
142
0.0
142
0.0
142
0.0208333333333333
142
0.0
142
0.0
142
0.0
142
0.0
142
1.0
142
0.0
142
0.0
142
0.0
142
0.0
142
1.0
179
     0
144
0.0208333333333333
144
0.0
144
0.0
144
0.0
144
0.0
144
0.0208333333333333
144
0.0
144
0.0
144
0.0
144
0.0
144
1.0
144
0.0
144
0.0
144
0.0
144
0.0
144
1.0
147
0.0208333333333333
147
0.0
147
0.0
147
0.0
147
0.0
147
0.0208333333333333
147
0.0
147
0.0
147
0.0
147
0.0
147
1.0
147
0.0
147
0.0
147
0.0
147
0.0
147
1.0
  0
MATERIAL
  5
994E
102
{ACAD_XDICTIONARY
360
994F
102
}
102
{ACAD_REACTORS
330
994D
102
}
330
994D
100
AcDbMaterial
  1
ByLayer
 72
     0
 43
0.0208333333333333
 43
0.0
 43
0.0
 43
0.0
 43
0.0
 43
0.0208333333333333
 43
0.0
 43
0.0
 43
0.0
 43
0.0
 43
1.0
 43
0.0
 43
0.0
 43
0.0
 43
0.0
 43
1.0
 77
     0
 47
0.0208333333333333
 47
0.0
 47
0.0
 47
0.0
 47
0.0
 47
0.0208333333333333
 47
0.0
 47
0.0
 47
0.0
 47
0.0
 47
1.0
 47
0.0
 47
0.0
 47
0.0
 47
0.0
 47
1.0
171
     0
 49
0.0208333333333333
 49
0.0
 49
0.0
 49
0.0
 49
0.0
 49
0.0208333333333333
 49
0.0
 49
0.0
 49
0.0
 49
0.0
 49
1.0
 49
0.0
 49
0.0
 49
0.0
 49
0.0
 49
1.0
175
     0
142
0.0208333333333333
142
0.0
142
0.0
142
0.0
142
0.0
142
0.0208333333333333
142
0.0
142
0.0
142
0.0
142
0.0
142
1.0
142
0.0
142
0.0
142
0.0
142
0.0
142
1.0
179
     0
144
0.0208333333333333
144
0.0
144
0.0
144
0.0
144
0.0
144
0.0208333333333333
144
0.0
144
0.0
144
0.0
144
0.0
144
1.0
144
0.0
144
0.0
144
0.0
144
0.0
144
1.0
147
0.0208333333333333
147
0.0
147
0.0
147
0.0
147
0.0
147
0.0208333333333333
147
0.0
147
0.0
147
0.0
147
0.0
147
1.0
147
0.0
147
0.0
147
0.0
147
0.0
147
1.0
  0
MATERIAL
  5
995E
102
{ACAD_XDICTIONARY
360
995F
102
}
102
{ACAD_REACTORS
330
994D
102
}
330
994D
100
AcDbMaterial
  1
Global
 72
     0
 43
0.0208333333333333
 43
0.0
 43
0.0
 43
0.0
 43
0.0
 43
0.0208333333333333
 43
0.0
 43
0.0
 43
0.0
 43
0.0
 43
1.0
 43
0.0
 43
0.0
 43
0.0
 43
0.0
 43
1.0
 77
     0
 47
0.0208333333333333
 47
0.0
 47
0.0
 47
0.0
 47
0.0
 47
0.0208333333333333
 47
0.0
 47
0.0
 47
0.0
 47
0.0
 47
1.0
 47
0.0
 47
0.0
 47
0.0
 47
0.0
 47
1.0
171
     0
 49
0.0208333333333333
 49
0.0
 49
0.0
 49
0.0
 49
0.0
 49
0.0208333333333333
 49
0.0
 49
0.0
 49
0.0
 49
0.0
 49
1.0
 49
0.0
 49
0.0
 49
0.0
 49
0.0
 49
1.0
175
     0
142
0.0208333333333333
142
0.0
142
0.0
142
0.0
142
0.0
142
0.0208333333333333
142
0.0
142
0.0
142
0.0
142
0.0
142
1.0
142
0.0
142
0.0
142
0.0
142
0.0
142
1.0
179
     0
144
0.0208333333333333
144
0.0
144
0.0
144
0.0
144
0.0
144
0.0208333333333333
144
0.0
144
0.0
144
0.0
144
0.0
144
1.0
144
0.0
144
0.0
144
0.0
144
0.0
144
1.0
147
0.0208333333333333
147
0.0
147
0.0
147
0.0
147
0.0
147
0.0208333333333333
147
0.0
147
0.0
147
0.0
147
0.0
147
1.0
147
0.0
147
0.0
147
0.0
147
0.0
147
1.0
  0
MLEADERSTYLE
  5
9995
102
{ACAD_REACTORS
330
9994
102
}
330
9994
100
AcDbMLeaderStyle
170
     2
171
     1
172
     0
 90
        2
 40
0.0
 41
0.0
173
     1
 91
-1056964608
340
96DB
 92
       -2
290
     1
 42
0.09
291
     1
 43
0.36
  3
Standard
 44
0.18
300

342
96D9
174
     1
178
     6
175
     1
176
     0
 93
-1056964608
 45
0.18
292
     0
297
     0
 46
0.18
 94
-1056964608
 47
1.0
 49
1.0
140
1.0
293
     1
141
0.0
294
     1
177
     0
142
1.0
295
     0
296
     0
143
0.125
1001
ACAD_MLEADERVER
1070
     2
  0
MLINESTYLE
  5
96DF
102
{ACAD_REACTORS
330
96DE
102
}
330
96DE
100
AcDbMlineStyle
  2
STANDARD
 70
     0
  3

 62
   256
 51
90.0
 52
90.0
 71
     2
 49
0.5
 62
   256
  6
BYLAYER
 49
-0.5
 62
   256
  6
BYLAYER
  0
ACDBPLACEHOLDER
  5
994C
102
{ACAD_REACTORS
330
994B
102
}
330
994B
  0
SCALE
  5
9983
102
{ACAD_REACTORS
330
9982
102
}
330
9982
100
AcDbScale
 70
     0
300
1:1
140
1.0
141
1.0
290
     1
  0
SCALE
  5
9984
102
{ACAD_REACTORS
330
9982
102
}
330
9982
100
AcDbScale
 70
     0
300
1/128" = 1'-0"
140
0.0078125
141
12.0
290
     0
  0
SCALE
  5
9985
102
{ACAD_REACTORS
330
9982
102
}
330
9982
100
AcDbScale
 70
     0
300
1/64" = 1'-0"
140
0.015625
141
12.0
290
     0
  0
SCALE
  5
9986
102
{ACAD_REACTORS
330
9982
102
}
330
9982
100
AcDbScale
 70
     0
300
1/32" = 1'-0"
140
0.03125
141
12.0
290
     0
  0
SCALE
  5
9987
102
{ACAD_REACTORS
330
9982
102
}
330
9982
100
AcDbScale
 70
     0
300
1/16" = 1'-0"
140
0.0625
141
12.0
290
     0
  0
SCALE
  5
9988
102
{ACAD_REACTORS
330
9982
102
}
330
9982
100
AcDbScale
 70
     0
300
3/32" = 1'-0"
140
0.09375
141
12.0
290
     0
  0
SCALE
  5
9989
102
{ACAD_REACTORS
330
9982
102
}
330
9982
100
AcDbScale
 70
     0
300
1/8" = 1'-0"
140
0.125
141
12.0
290
     0
  0
SCALE
  5
998A
102
{ACAD_REACTORS
330
9982
102
}
330
9982
100
AcDbScale
 70
     0
300
3/16" = 1'-0"
140
0.1875
141
12.0
290
     0
  0
SCALE
  5
998B
102
{ACAD_REACTORS
330
9982
102
}
330
9982
100
AcDbScale
 70
     0
300
1/4" = 1'-0"
140
0.25
141
12.0
290
     0
  0
SCALE
  5
998C
102
{ACAD_REACTORS
330
9982
102
}
330
9982
100
AcDbScale
 70
     0
300
3/8" = 1'-0"
140
0.375
141
12.0
290
     0
  0
SCALE
  5
998D
102
{ACAD_REACTORS
330
9982
102
}
330
9982
100
AcDbScale
 70
     0
300
1/2" = 1'-0"
140
0.5
141
12.0
290
     0
  0
SCALE
  5
998E
102
{ACAD_REACTORS
330
9982
102
}
330
9982
100
AcDbScale
 70
     0
300
3/4" = 1'-0"
140
0.75
141
12.0
290
     0
  0
SCALE
  5
998F
102
{ACAD_REACTORS
330
9982
102
}
330
9982
100
AcDbScale
 70
     0
300
1" = 1'-0"
140
1.0
141
12.0
290
     0
  0
SCALE
  5
9990
102
{ACAD_REACTORS
330
9982
102
}
330
9982
100
AcDbScale
 70
     0
300
1-1/2" = 1'-0"
140
1.5
141
12.0
290
     0
  0
SCALE
  5
9991
102
{ACAD_REACTORS
330
9982
102
}
330
9982
100
AcDbScale
 70
     0
300
3" = 1'-0"
140
3.0
141
12.0
290
     0
  0
SCALE
  5
9992
102
{ACAD_REACTORS
330
9982
102
}
330
9982
100
AcDbScale
 70
     0
300
6" = 1'-0"
140
6.0
141
12.0
290
     0
  0
SCALE
  5
9993
102
{ACAD_REACTORS
330
9982
102
}
330
9982
100
AcDbScale
 70
     0
300
1'-0" = 1'-0"
140
12.0
141
12.0
290
     0
  0
ACDBSECTIONVIEWSTYLE
  5
9997
102
{ACAD_XDICTIONARY
360
99F2
102
}
102
{ACAD_REACTORS
330
9996
102
}
330
9996
100
AcDbModelDocViewStyle
 70
     0
  3
Imperial24
290
     0
100
AcDbSectionViewStyle
 70
     0
 71
     0
 90
       78
 71
     1
340
96D9
 40
0.24
340
0
340
0
 40
0.24
300
I, O, Q, S, X, Z
 40
0.48
 90
        3
 40
0.18
 90
        1
 71
     2
340
96DD
 90
       25
340
96DD
 90
       50
 40
0.24
 40
0.0
 40
0.24
 71
     3
340
96D9
 40
0.24
 90
        1
 40
0.75
 90
        1
300
%<\AcVar ViewType \f "%tc1">% %<\AcVar ViewSectionStartId>%-%<\AcVar ViewSectionEndId>%\PSCALE %<\AcVar ViewScale \f "%sn">%
 71
     4
300
ANSI31
 40
1.0
 90
        0
290
     0
290
     0
 90
        6
 40
0.0
 40
1.570796326794896
 40
0.2617993877991494
 40
1.308996938995747
 40
-0.2617993877991494
 40
1.832595714594046
  0
TABLESTYLE
  5
9981
102
{ACAD_XDICTIONARY
360
99B9
102
}
102
{ACAD_REACTORS
330
9980
102
}
330
9980
100
AcDbTableStyle
  3
Standard
 70
     0
 71
     0
 40
0.06
 41
0.06
280
     0
281
     0
  7
STANDARD
140
0.18
170
     2
 62
     0
 63
     7
283
     0
274
    -2
284
     1
 64
     0
275
    -2
285
     1
 65
     0
276
    -2
286
     1
 66
     0
277
    -2
287
     1
 67
     0
278
    -2
288
     1
 68
     0
279
    -2
289
     1
 69
     0
  7
STANDARD
140
0.25
170
     5
 62
     0
 63
     7
283
     0
274
    -2
284
     1
 64
     0
275
    -2
285
     1
 65
     0
276
    -2
286
     1
 66
     0
277
    -2
287
     1
 67
     0
278
    -2
288
     1
 68
     0
279
    -2
289
     1
 69
     0
  7
STANDARD
140
0.18
170
     5
 62
     0
 63
     7
283
     0
274
    -2
284
     1
 64
     0
275
    -2
285
     1
 65
     0
276
    -2
286
     1
 66
     0
277
    -2
287
     1
 67
     0
278
    -2
288
     1
 68
     0
279
    -2
289
     1
 69
     0
  0
VISUALSTYLE
  5
996C
102
{ACAD_XDICTIONARY
360
99CA
102
}
102
{ACAD_REACTORS
330
9966
102
}
330
9966
100
AcDbVisualStyle
  2
2dWireframe
 70
     4
 71
     0
 72
     2
 73
     0
 90
        0
 40
-0.6
 41
-30.0
 62
     5
 63
     7
 74
     1
 91
        4
 64
     7
 65
   257
 75
     1
175
     1
 42
1.0
 92
        0
 66
   257
 43
1.0
 76
     1
 77
     6
 78
     2
 67
     7
 79
     5
170
     0
171
     0
290
     0
174
     0
 93
        1
 44
0.0
173
     0
291
     0
 45
0.0
1001
ACAD
1000
AcDbSavedByObjectVersion
1070
     0
  0
VISUALSTYLE
  5
996B
102
{ACAD_XDICTIONARY
360
99C8
102
}
102
{ACAD_REACTORS
330
9966
102
}
330
9966
100
AcDbVisualStyle
  2
Basic
 70
     7
 71
     1
 72
     0
 73
     1
 90
        0
 40
-0.6
 41
-30.0
 62
     5
 63
     7
 74
     0
 91
        4
 64
     7
 65
   257
 75
     1
175
     1
 42
1.0
 92
        8
 66
     7
 43
1.0
 76
     1
 77
     6
 78
     2
 67
     7
 79
     5
170
     0
171
     0
290
     0
174
     0
 93
        1
 44
0.0
173
     0
291
     1
 45
0.0
1001
ACAD
1000
AcDbSavedByObjectVersion
1070
     0
  0
VISUALSTYLE
  5
9972
102
{ACAD_XDICTIONARY
360
99D6
102
}
102
{ACAD_REACTORS
330
9966
102
}
330
9966
100
AcDbVisualStyle
  2
Brighten
 70
    12
 71
     2
 72
     2
 73
     0
 90
        0
 40
-0.6
 41
-30.0
 62
     5
 63
     7
 74
     1
 91
        4
 64
     7
 65
   257
 75
     1
175
     1
 42
1.0
 92
        8
 66
     7
 43
1.0
 76
     1
 77
     6
 78
     2
 67
     7
 79
     5
170
     0
171
     0
290
     0
174
     0
 93
        1
 44
50.0
173
     0
291
     1
 45
0.0
1001
ACAD
1000
AcDbSavedByObjectVersion
1070
     0
  0
VISUALSTYLE
  5
9976
102
{ACAD_XDICTIONARY
360
99DE
102
}
102
{ACAD_REACTORS
330
9966
102
}
330
9966
100
AcDbVisualStyle
  2
ColorChange
 70
    16
 71
     2
 72
     2
 73
     3
 90
        0
 40
-0.6
 41
-30.0
 62
     5
 63
     8
 74
     1
 91
        4
 64
     7
 65
   257
 75
     1
175
     1
 42
1.0
 92
        8
 66
     8
 43
1.0
 76
     1
 77
     6
 78
     2
 67
     7
 79
     5
170
     0
171
     0
290
     0
174
     0
 93
        1
 44
0.0
173
     0
291
     1
 45
0.0
1001
ACAD
1000
AcDbSavedByObjectVersion
1070
     0
  0
VISUALSTYLE
  5
996F
102
{ACAD_XDICTIONARY
360
99D0
102
}
102
{ACAD_REACTORS
330
9966
102
}
330
9966
100
AcDbVisualStyle
  2
Conceptual
 70
     9
 71
     3
 72
     2
 73
     0
 90
        0
 40
-0.6
 41
-30.0
 62
     5
 63
     7
 74
     2
 91
        2
 64
     7
 65
   257
 75
     1
175
     1
 42
179.0
 92
        8
 66
     7
 43
1.0
 76
     1
 77
     6
 78
     2
 67
     7
 79
     3
170
     0
171
     0
290
     0
174
     0
 93
        1
 44
0.0
173
     0
291
     0
 45
0.0
1001
ACAD
1000
AcDbSavedByObjectVersion
1070
     0
  0
VISUALSTYLE
  5
9971
102
{ACAD_XDICTIONARY
360
99D4
102
}
102
{ACAD_REACTORS
330
9966
102
}
330
9966
100
AcDbVisualStyle
  2
Dim
 70
    11
 71
     2
 72
     2
 73
     0
 90
        0
 40
-0.6
 41
-30.0
 62
     5
 63
     7
 74
     1
 91
        4
 64
     7
 65
   257
 75
     1
175
     1
 42
1.0
 92
        8
 66
     7
 43
1.0
 76
     1
 77
     6
 78
     2
 67
     7
 79
     5
170
     0
171
     0
290
     0
174
     0
 93
        1
 44
-50.0
173
     0
291
     1
 45
0.0
1001
ACAD
1000
AcDbSavedByObjectVersion
1070
     0
  0
VISUALSTYLE
  5
997E
102
{ACAD_XDICTIONARY
360
99EE
102
}
102
{ACAD_REACTORS
330
9966
102
}
330
9966
100
AcDbVisualStyle
  2
EdgeColorOff
 70
    22
 71
     2
 72
     2
 73
     0
 90
        0
 40
-0.6
 41
-30.0
 62
     5
 63
     7
 74
     1
 91
        4
 64
     7
 65
   257
 75
     1
175
     1
 42
1.0
 92
        8
 66
     7
 43
1.0
 76
     1
 77
     6
 78
     2
 67
     7
 79
     5
170
     0
171
     0
290
     0
174
     0
 93
        1
 44
0.0
173
     0
291
     1
 45
0.0
1001
ACAD
1000
AcDbSavedByObjectVersion
1070
     0
  0
VISUALSTYLE
  5
9975
102
{ACAD_XDICTIONARY
360
99DC
102
}
102
{ACAD_REACTORS
330
9966
102
}
330
9966
100
AcDbVisualStyle
  2
Facepattern
 70
    15
 71
     2
 72
     2
 73
     0
 90
        0
 40
-0.6
 41
-30.0
 62
     5
 63
     7
 74
     1
 91
        4
 64
     7
 65
   257
 75
     1
175
     1
 42
1.0
 92
        8
 66
     7
 43
1.0
 76
     1
 77
     6
 78
     2
 67
     7
 79
     5
170
     0
171
     0
290
     0
174
     0
 93
        1
 44
0.0
173
     0
291
     1
 45
0.0
1001
ACAD
1000
AcDbSavedByObjectVersion
1070
     0
  0
VISUALSTYLE
  5
9967
102
{ACAD_XDICTIONARY
360
99C0
102
}
102
{ACAD_REACTORS
330
9966
102
}
330
9966
100
AcDbVisualStyle
  2
Flat
 70
     0
 71
     2
 72
     1
 73
     1
 90
        2
 40
-0.6
 41
30.0
 62
     5
 63
     7
 74
     0
 91
        0
 64
     7
 65
   257
 75
     1
175
     1
 42
1.0
 92
        8
 66
     7
 43
1.0
 76
     1
 77
     6
 78
     2
 67
     7
 79
     5
170
     0
171
     0
290
     0
174
     0
 93
       13
 44
0.0
173
     0
291
     1
 45
0.0
1001
ACAD
1000
AcDbSavedByObjectVersion
1070
     0
  0
VISUALSTYLE
  5
9968
102
{ACAD_XDICTIONARY
360
99C2
102
}
102
{ACAD_REACTORS
330
9966
102
}
330
9966
100
AcDbVisualStyle
  2
FlatWithEdges
 70
     1
 71
     2
 72
     1
 73
     1
 90
        2
 40
-0.6
 41
30.0
 62
     5
 63
     7
 74
     1
 91
        0
 64
     7
 65
   257
 75
     1
175
     1
 42
1.0
 92
        0
 66
   257
 43
1.0
 76
     1
 77
     6
 78
     2
 67
     7
 79
     5
170
     0
171
     0
290
     0
174
     0
 93
       13
 44
0.0
173
     0
291
     1
 45
0.0
1001
ACAD
1000
AcDbSavedByObjectVersion
1070
     0
  0
VISUALSTYLE
  5
9969
102
{ACAD_XDICTIONARY
360
99C4
102
}
102
{ACAD_REACTORS
330
9966
102
}
330
9966
100
AcDbVisualStyle
  2
Gouraud
 70
     2
 71
     2
 72
     2
 73
     1
 90
        2
 40
-0.6
 41
30.0
 62
     5
 63
     7
 74
     0
 91
        0
 64
     7
 65
   257
 75
     1
175
     1
 42
1.0
 92
        0
 66
     7
 43
1.0
 76
     1
 77
     6
 78
     2
 67
     7
 79
     5
170
     0
171
     0
290
     0
174
     0
 93
       13
 44
0.0
173
     0
291
     1
 45
0.0
1001
ACAD
1000
AcDbSavedByObjectVersion
1070
     0
  0
VISUALSTYLE
  5
996A
102
{ACAD_XDICTIONARY
360
99C6
102
}
102
{ACAD_REACTORS
330
9966
102
}
330
9966
100
AcDbVisualStyle
  2
GouraudWithEdges
 70
     3
 71
     2
 72
     2
 73
     1
 90
        2
 40
-0.6
 41
30.0
 62
     5
 63
     7
 74
     1
 91
        0
 64
     7
 65
   257
 75
     1
175
     1
 42
1.0
 92
        0
 66
   257
 43
1.0
 76
     1
 77
     6
 78
     2
 67
     7
 79
     5
170
     0
171
     0
290
     0
174
     0
 93
       13
 44
0.0
173
     0
291
     1
 45
0.0
1001
ACAD
1000
AcDbSavedByObjectVersion
1070
     0
  0
VISUALSTYLE
  5
996E
102
{ACAD_XDICTIONARY
360
99CE
102
}
102
{ACAD_REACTORS
330
9966
102
}
330
9966
100
AcDbVisualStyle
  2
Hidden
 70
     6
 71
     1
 72
     2
 73
     2
 90
        0
 40
-0.6
 41
-30.0
 62
     5
 63
     7
 74
     2
 91
        2
 64
     7
 65
   257
 75
     2
175
     1
 42
40.0
 92
        0
 66
   257
 43
1.0
 76
     1
 77
     6
 78
     2
 67
     7
 79
     3
170
     0
171
     0
290
     0
174
     0
 93
        1
 44
0.0
173
     0
291
     0
 45
0.0
1001
ACAD
1000
AcDbSavedByObjectVersion
1070
     0
  0
VISUALSTYLE
  5
997C
102
{ACAD_XDICTIONARY
360
99EA
102
}
102
{ACAD_REACTORS
330
9966
102
}
330
9966
100
AcDbVisualStyle
  2
JitterOff
 70
    20
 71
     2
 72
     2
 73
     0
 90
        0
 40
-0.6
 41
-30.0
 62
     5
 63
     7
 74
     1
 91
        4
 64
     7
 65
   257
 75
     1
175
     1
 42
1.0
 92
       10
 66
     7
 43
1.0
 76
     1
 77
     6
 78
     2
 67
     7
 79
     5
170
     0
171
     0
290
     0
174
     0
 93
        1
 44
0.0
173
     0
291
     1
 45
0.0
1001
ACAD
1000
AcDbSavedByObjectVersion
1070
     0
  0
VISUALSTYLE
  5
9974
102
{ACAD_XDICTIONARY
360
99DA
102
}
102
{ACAD_REACTORS
330
9966
102
}
330
9966
100
AcDbVisualStyle
  2
Linepattern
 70
    14
 71
     2
 72
     2
 73
     0
 90
        0
 40
-0.6
 41
-30.0
 62
     5
 63
     7
 74
     1
 91
        4
 64
     7
 65
   257
 75
     7
175
     7
 42
1.0
 92
        8
 66
     7
 43
1.0
 76
     1
 77
     6
 78
     2
 67
     7
 79
     5
170
     0
171
     0
290
     0
174
     0
 93
        1
 44
0.0
173
     0
291
     1
 45
0.0
1001
ACAD
1000
AcDbSavedByObjectVersion
1070
     0
  0
VISUALSTYLE
  5
997D
102
{ACAD_XDICTIONARY
360
99EC
102
}
102
{ACAD_REACTORS
330
9966
102
}
330
9966
100
AcDbVisualStyle
  2
OverhangOff
 70
    21
 71
     2
 72
     2
 73
     0
 90
        0
 40
-0.6
 41
-30.0
 62
     5
 63
     7
 74
     1
 91
        4
 64
     7
 65
   257
 75
     1
175
     1
 42
1.0
 92
        9
 66
     7
 43
1.0
 76
     1
 77
     6
 78
     2
 67
     7
 79
     5
170
     0
171
     0
290
     0
174
     0
 93
        1
 44
0.0
173
     0
291
     1
 45
0.0
1001
ACAD
1000
AcDbSavedByObjectVersion
1070
     0
  0
VISUALSTYLE
  5
9970
102
{ACAD_XDICTIONARY
360
99D2
102
}
102
{ACAD_REACTORS
330
9966
102
}
330
9966
100
AcDbVisualStyle
  2
Realistic
 70
     8
 71
     2
 72
     3
 73
     0
 90
        2
 40
-0.6
 41
30.0
 62
     5
 63
     7
 74
     0
 91
        0
 64
     7
 65
   257
 75
     1
175
     1
 42
1.0
 92
        8
 66
   257
 43
1.0
 76
     1
 77
     6
 78
     2
 67
     7
 79
     3
170
     0
171
     0
290
     0
174
     0
 93
       13
 44
0.0
173
     0
291
     0
 45
0.0
1001
ACAD
1000
AcDbSavedByObjectVersion
1070
     0
  0
VISUALSTYLE
  5
997B
102
{ACAD_XDICTIONARY
360
99E8
102
}
102
{ACAD_REACTORS
330
9966
102
}
330
9966
100
AcDbVisualStyle
  2
Shaded
 70
    27
 71
     2
 72
     2
 73
     1
 90
        2
 40
-0.6
 41
30.0
 62
     5
 63
     7
 74
     0
 91
        4
 64
     7
 65
   257
 75
     1
175
     1
 42
1.0
 92
        8
 66
   257
 43
1.0
 76
     1
 77
     6
 78
     2
 67
     8
 79
     3
170
     0
171
     0
290
     0
174
     0
 93
        5
 44
0.0
173
     0
291
     0
 45
0.0
1001
ACAD
1000
AcDbSavedByObjectVersion
1070
     0
  0
VISUALSTYLE
  5
997A
102
{ACAD_XDICTIONARY
360
99E6
102
}
102
{ACAD_REACTORS
330
9966
102
}
330
9966
100
AcDbVisualStyle
  2
Shaded with edges
 70
    26
 71
     2
 72
     2
 73
     1
 90
        2
 40
-0.6
 41
30.0
 62
     5
 63
     7
 74
     1
 91
       10
 64
     7
 65
   257
 75
     2
175
     1
 42
1.0
 92
        8
 66
   257
 43
1.0
 76
     1
 77
     6
 78
     2
 67
     7
 79
     3
170
     0
171
     0
290
     0
174
     0
 93
        5
 44
0.0
173
     0
291
     0
 45
0.0
1001
ACAD
1000
AcDbSavedByObjectVersion
1070
     0
  0
VISUALSTYLE
  5
9977
102
{ACAD_XDICTIONARY
360
99E0
102
}
102
{ACAD_REACTORS
330
9966
102
}
330
9966
100
AcDbVisualStyle
  2
Shades of Gray
 70
    23
 71
     2
 72
     2
 73
     3
 90
        0
 40
-0.6
 41
-30.0
 62
     5
 63
     7
 74
     2
 91
        2
 64
     7
 65
     7
 75
     1
175
     1
 42
40.0
 92
        8
 66
     7
 43
1.0
 76
     1
 77
     6
 78
     2
 67
     7
 79
     3
170
     0
171
     0
290
     0
174
     0
 93
        1
 44
0.0
173
     0
291
     0
 45
0.0
1001
ACAD
1000
AcDbSavedByObjectVersion
1070
     0
  0
VISUALSTYLE
  5
9978
102
{ACAD_XDICTIONARY
360
99E2
102
}
102
{ACAD_REACTORS
330
9966
102
}
330
9966
100
AcDbVisualStyle
  2
Sketchy
 70
    24
 71
     1
 72
     2
 73
     2
 90
        0
 40
-0.6
 41
-30.0
 62
     5
 63
     7
 74
     2
 91
        2
 64
     7
 65
     7
 75
     1
175
     1
 42
40.0
 92
       11
 66
     7
 43
1.0
 76
     1
 77
     6
 78
     2
 67
     7
 79
     6
170
     0
171
     0
290
     0
174
     0
 93
        1
 44
0.0
173
     0
291
     0
 45
0.0
1001
ACAD
1000
AcDbSavedByObjectVersion
1070
     0
  0
VISUALSTYLE
  5
9973
102
{ACAD_XDICTIONARY
360
99D8
102
}
102
{ACAD_REACTORS
330
9966
102
}
330
9966
100
AcDbVisualStyle
  2
Thicken
 70
    13
 71
     2
 72
     2
 73
     0
 90
        0
 40
-0.6
 41
-30.0
 62
     5
 63
     7
 74
     1
 91
        4
 64
     7
 65
   257
 75
     1
175
     1
 42
1.0
 92
       12
 66
     7
 43
1.0
 76
     1
 77
     6
 78
     2
 67
     7
 79
     5
170
     0
171
     0
290
     0
174
     0
 93
        1
 44
0.0
173
     0
291
     1
 45
0.0
1001
ACAD
1000
AcDbSavedByObjectVersion
1070
     0
  0
VISUALSTYLE
  5
996D
102
{ACAD_XDICTIONARY
360
99CC
102
}
102
{ACAD_REACTORS
330
9966
102
}
330
9966
100
AcDbVisualStyle
  2
Wireframe
 70
     5
 71
     0
 72
     2
 73
     0
 90
        0
 40
-0.6
 41
-30.0
 62
     5
 63
     7
 74
     1
 91
        4
 64
     7
 65
   257
 75
     1
175
     1
 42
1.0
 92
        0
 66
   257
 43
1.0
 76
     1
 77
     6
 78
     2
 67
     7
 79
     3
170
     0
171
     0
290
     0
174
     0
 93
        1
 44
0.0
173
     0
291
     0
 45
0.0
1001
ACAD
1000
AcDbSavedByObjectVersion
1070
     0
  0
VISUALSTYLE
  5
9979
102
{ACAD_XDICTIONARY
360
99E4
102
}
102
{ACAD_REACTORS
330
9966
102
}
330
9966
100
AcDbVisualStyle
  2
X-Ray
 70
    25
 71
     2
 72
     2
 73
     1
 90
        1
 40
0.5
 41
-30.0
 62
     5
 63
     7
 74
     1
 91
        0
 64
     7
 65
   257
 75
     1
175
     1
 42
1.0
 92
        8
 66
     7
 43
1.0
 76
     1
 77
     6
 78
     2
 67
     7
 79
     3
170
     0
171
     0
290
     0
174
     0
 93
       13
 44
0.0
173
     0
291
     0
 45
0.0
1001
ACAD
1000
AcDbSavedByObjectVersion
1070
     0
  0
DICTIONARYVAR
  5
99B3
102
{ACAD_REACTORS
330
99AE
102
}
330
99AE
100
DictionaryVariables
280
     0
  1
1:1
  0
DICTIONARYVAR
  5
99B0
102
{ACAD_REACTORS
330
99AE
102
}
330
99AE
100
DictionaryVariables
280
     0
  1
STANDARD
  0
DICTIONARYVAR
  5
99AF
102
{ACAD_REACTORS
330
99AE
102
}
330
99AE
100
DictionaryVariables
280
     0
  1
STANDARD
  0
DICTIONARYVAR
  5
99B1
102
{ACAD_REACTORS
330
99AE
102
}
330
99AE
100
DictionaryVariables
280
     0
  1
Imperial24
  0
DICTIONARYVAR
  5
99B2
102
{ACAD_REACTORS
330
99AE
102
}
330
99AE
100
DictionaryVariables
280
     0
  1
Imperial24
  0
DICTIONARYVAR
  5
99B6
102
{ACAD_REACTORS
330
99AE
102
}
330
99AE
100
DictionaryVariables
280
     0
  1
1
  0
DICTIONARYVAR
  5
99B5
102
{ACAD_REACTORS
330
99AE
102
}
330
99AE
100
DictionaryVariables
280
     0
  1
0
  0
DICTIONARYVAR
  5
99B4
102
{ACAD_REACTORS
330
99AE
102
}
330
99AE
100
DictionaryVariables
280
     0
  1
127
  0
DICTIONARYVAR
  5
99B7
102
{ACAD_REACTORS
330
99AE
102
}
330
99AE
100
DictionaryVariables
280
     0
  1
2
  0
DICTIONARY
  5
99F4
330
9999
100
AcDbDictionary
280
     1
281
     1
  3
ACAD_XREC_ROUNDTRIP
360
99F5
  0
DICTIONARY
  5
99F6
330
999A
100
AcDbDictionary
280
     1
281
     1
  3
ACAD_XREC_ROUNDTRIP
360
99F7
  0
DICTIONARY
  5
99F8
330
999B
100
AcDbDictionary
280
     1
281
     1
  3
ACAD_XREC_ROUNDTRIP
360
99F9
  0
DICTIONARY
  5
9957
330
9956
100
AcDbDictionary
280
     1
281
     1
  3
ACAD_XREC_ROUNDTRIP
360
99BE
  3
BUMPTILE
360
9959
  3
DIFFUSETILE
360
9958
  3
OPACITYTILE
360
995C
  3
REFLECTIONTILE
360
995B
  3
REFRACTIONTILE
360
995D
  3
SPECULARTILE
360
995A
  0
DICTIONARY
  5
994F
330
994E
100
AcDbDictionary
280
     1
281
     1
  3
ACAD_XREC_ROUNDTRIP
360
99BD
  3
BUMPTILE
360
9951
  3
DIFFUSETILE
360
9950
  3
OPACITYTILE
360
9954
  3
REFLECTIONTILE
360
9953
  3
REFRACTIONTILE
360
9955
  3
SPECULARTILE
360
9952
  0
DICTIONARY
  5
995F
330
995E
100
AcDbDictionary
280
     1
281
     1
  3
ACAD_XREC_ROUNDTRIP
360
99BF
  3
BUMPTILE
360
9961
  3
DIFFUSETILE
360
9960
  3
OPACITYTILE
360
9964
  3
REFLECTIONTILE
360
9963
  3
REFRACTIONTILE
360
9965
  3
SPECULARTILE
360
9962
  0
DICTIONARY
  5
99F2
330
9997
100
AcDbDictionary
280
     1
281
     1
  3
ACAD_XREC_ROUNDTRIP
360
99F3
  0
DICTIONARY
  5
99B9
330
9981
100
AcDbDictionary
280
     1
281
     1
  3
ACAD_ROUNDTRIP_2008_TABLESTYLE_CELLSTYLEMAP
360
99BA
  3
ACAD_XREC_ROUNDTRIP
360
99F0
  0
DICTIONARY
  5
99CA
330
996C
100
AcDbDictionary
280
     1
281
     1
  3
ACAD_XREC_ROUNDTRIP
360
99CB
  0
DICTIONARY
  5
99C8
330
996B
100
AcDbDictionary
280
     1
281
     1
  3
ACAD_XREC_ROUNDTRIP
360
99C9
  0
DICTIONARY
  5
99D6
330
9972
100
AcDbDictionary
280
     1
281
     1
  3
ACAD_XREC_ROUNDTRIP
360
99D7
  0
DICTIONARY
  5
99DE
330
9976
100
AcDbDictionary
280
     1
281
     1
  3
ACAD_XREC_ROUNDTRIP
360
99DF
  0
DICTIONARY
  5
99D0
330
996F
100
AcDbDictionary
280
     1
281
     1
  3
ACAD_XREC_ROUNDTRIP
360
99D1
  0
DICTIONARY
  5
99D4
330
9971
100
AcDbDictionary
280
     1
281
     1
  3
ACAD_XREC_ROUNDTRIP
360
99D5
  0
DICTIONARY
  5
99EE
330
997E
100
AcDbDictionary
280
     1
281
     1
  3
ACAD_XREC_ROUNDTRIP
360
99EF
  0
DICTIONARY
  5
99DC
330
9975
100
AcDbDictionary
280
     1
281
     1
  3
ACAD_XREC_ROUNDTRIP
360
99DD
  0
DICTIONARY
  5
99C0
330
9967
100
AcDbDictionary
280
     1
281
     1
  3
ACAD_XREC_ROUNDTRIP
360
99C1
  0
DICTIONARY
  5
99C2
330
9968
100
AcDbDictionary
280
     1
281
     1
  3
ACAD_XREC_ROUNDTRIP
360
99C3
  0
DICTIONARY
  5
99C4
330
9969
100
AcDbDictionary
280
     1
281
     1
  3
ACAD_XREC_ROUNDTRIP
360
99C5
  0
DICTIONARY
  5
99C6
330
996A
100
AcDbDictionary
280
     1
281
     1
  3
ACAD_XREC_ROUNDTRIP
360
99C7
  0
DICTIONARY
  5
99CE
330
996E
100
AcDbDictionary
280
     1
281
     1
  3
ACAD_XREC_ROUNDTRIP
360
99CF
  0
DICTIONARY
  5
99EA
330
997C
100
AcDbDictionary
280
     1
281
     1
  3
ACAD_XREC_ROUNDTRIP
360
99EB
  0
DICTIONARY
  5
99DA
330
9974
100
AcDbDictionary
280
     1
281
     1
  3
ACAD_XREC_ROUNDTRIP
360
99DB
  0
DICTIONARY
  5
99EC
330
997D
100
AcDbDictionary
280
     1
281
     1
  3
ACAD_XREC_ROUNDTRIP
360
99ED
  0
DICTIONARY
  5
99D2
330
9970
100
AcDbDictionary
280
     1
281
     1
  3
ACAD_XREC_ROUNDTRIP
360
99D3
  0
DICTIONARY
  5
99E8
330
997B
100
AcDbDictionary
280
     1
281
     1
  3
ACAD_XREC_ROUNDTRIP
360
99E9
  0
DICTIONARY
  5
99E6
330
997A
100
AcDbDictionary
280
     1
281
     1
  3
ACAD_XREC_ROUNDTRIP
360
99E7
  0
DICTIONARY
  5
99E0
330
9977
100
AcDbDictionary
280
     1
281
     1
  3
ACAD_XREC_ROUNDTRIP
360
99E1
  0
DICTIONARY
  5
99E2
330
9978
100
AcDbDictionary
280
     1
281
     1
  3
ACAD_XREC_ROUNDTRIP
360
99E3
  0
DICTIONARY
  5
99D8
330
9973
100
AcDbDictionary
280
     1
281
     1
  3
ACAD_XREC_ROUNDTRIP
360
99D9
  0
DICTIONARY
  5
99CC
330
996D
100
AcDbDictionary
280
     1
281
     1
  3
ACAD_XREC_ROUNDTRIP
360
99CD
  0
DICTIONARY
  5
99E4
330
9979
100
AcDbDictionary
280
     1
281
     1
  3
ACAD_XREC_ROUNDTRIP
360
99E5
  0
XRECORD
  5
99F5
102
{ACAD_REACTORS
330
99F4
102
}
330
99F4
100
AcDbXrecord
280
     1
102
DISPLAYNAME
  1
Imperial24
102
FLAGS
 90
        0
  0
XRECORD
  5
99F7
102
{ACAD_REACTORS
330
99F6
102
}
330
99F6
100
AcDbXrecord
280
     1
102
SHADEPLOT
 70
     0
102
SHADEPLOTRESLEVEL
 70
     2
102
SHADEPLOTCUSTOMDPI
 70
   300
  0
XRECORD
  5
99F9
102
{ACAD_REACTORS
330
99F8
102
}
330
99F8
100
AcDbXrecord
280
     1
102
SHADEPLOT
 70
     0
102
SHADEPLOTRESLEVEL
 70
     2
102
SHADEPLOTCUSTOMDPI
 70
   300
  0
XRECORD
  5
99BE
102
{ACAD_REACTORS
330
9957
102
}
330
9957
100
AcDbXrecord
280
     1
102
MATERIAL
148
0.0
149
0.0
149
0.0
 93
        0
 94
      127
282
     0
 72
     0
 77
     0
171
     0
175
     0
179
     0
273
     0
  0
XRECORD
  5
9959
102
{ACAD_REACTORS
330
9957
102
}
330
9957
100
AcDbXrecord
280
     1
270
     1
271
     1
  0
XRECORD
  5
9958
102
{ACAD_REACTORS
330
9957
102
}
330
9957
100
AcDbXrecord
280
     1
270
     1
271
     1
  0
XRECORD
  5
995C
102
{ACAD_REACTORS
330
9957
102
}
330
9957
100
AcDbXrecord
280
     1
270
     1
271
     1
  0
XRECORD
  5
995B
102
{ACAD_REACTORS
330
9957
102
}
330
9957
100
AcDbXrecord
280
     1
270
     1
271
     1
  0
XRECORD
  5
995D
102
{ACAD_REACTORS
330
9957
102
}
330
9957
100
AcDbXrecord
280
     1
270
     1
271
     1
  0
XRECORD
  5
995A
102
{ACAD_REACTORS
330
9957
102
}
330
9957
100
AcDbXrecord
280
     1
270
     1
271
     1
  0
XRECORD
  5
99BD
102
{ACAD_REACTORS
330
994F
102
}
330
994F
100
AcDbXrecord
280
     1
102
MATERIAL
148
0.0
149
0.0
149
0.0
 93
        0
 94
      127
282
     0
 72
     0
 77
     0
171
     0
175
     0
179
     0
273
     0
  0
XRECORD
  5
9951
102
{ACAD_REACTORS
330
994F
102
}
330
994F
100
AcDbXrecord
280
     1
270
     1
271
     1
  0
XRECORD
  5
9950
102
{ACAD_REACTORS
330
994F
102
}
330
994F
100
AcDbXrecord
280
     1
270
     1
271
     1
  0
XRECORD
  5
9954
102
{ACAD_REACTORS
330
994F
102
}
330
994F
100
AcDbXrecord
280
     1
270
     1
271
     1
  0
XRECORD
  5
9953
102
{ACAD_REACTORS
330
994F
102
}
330
994F
100
AcDbXrecord
280
     1
270
     1
271
     1
  0
XRECORD
  5
9955
102
{ACAD_REACTORS
330
994F
102
}
330
994F
100
AcDbXrecord
280
     1
270
     1
271
     1
  0
XRECORD
  5
9952
102
{ACAD_REACTORS
330
994F
102
}
330
994F
100
AcDbXrecord
280
     1
270
     1
271
     1
  0
XRECORD
  5
99BF
102
{ACAD_REACTORS
330
995F
102
}
330
995F
100
AcDbXrecord
280
     1
102
MATERIAL
148
0.0
149
0.0
149
0.0
 93
        0
 94
      127
282
     0
 72
     0
 77
     0
171
     0
175
     0
179
     0
273
     0
  0
XRECORD
  5
9961
102
{ACAD_REACTORS
330
995F
102
}
330
995F
100
AcDbXrecord
280
     1
270
     1
271
     1
  0
XRECORD
  5
9960
102
{ACAD_REACTORS
330
995F
102
}
330
995F
100
AcDbXrecord
280
     1
270
     1
271
     1
  0
XRECORD
  5
9964
102
{ACAD_REACTORS
330
995F
102
}
330
995F
100
AcDbXrecord
280
     1
270
     1
271
     1
  0
XRECORD
  5
9963
102
{ACAD_REACTORS
330
995F
102
}
330
995F
100
AcDbXrecord
280
     1
270
     1
271
     1
  0
XRECORD
  5
9965
102
{ACAD_REACTORS
330
995F
102
}
330
995F
100
AcDbXrecord
280
     1
270
     1
271
     1
  0
XRECORD
  5
9962
102
{ACAD_REACTORS
330
995F
102
}
330
995F
100
AcDbXrecord
280
     1
270
     1
271
     1
  0
XRECORD
  5
99F3
102
{ACAD_REACTORS
330
99F2
102
}
330
99F2
100
AcDbXrecord
280
     1
102
DISPLAYNAME
  1
Imperial24
102
FLAGS
 90
        0
  0
CELLSTYLEMAP
  5
99BA
102
{ACAD_REACTORS
330
99B9
102
}
330
99B9
100
AcDbCellStyleMap
 90
        3
300
CELLSTYLE
  1
TABLEFORMAT_BEGIN
 90
        5
170
     1
 91
        0
 92
    32768
 62
   257
 93
        1
300
CONTENTFORMAT
  1
CONTENTFORMAT_BEGIN
 90
        0
 91
        0
 92
      512
 93
        0
300

 40
0.0
140
1.0
 94
        5
 62
     0
340
96D9
144
0.25
309
CONTENTFORMAT_END
171
     0
 94
        0
309
TABLEFORMAT_END
  1
CELLSTYLE_BEGIN
 90
        1
 91
        1
300
_TITLE
309
CELLSTYLE_END
300
CELLSTYLE
  1
TABLEFORMAT_BEGIN
 90
        5
170
     1
 91
        0
 92
        0
 62
   257
 93
        1
300
CONTENTFORMAT
  1
CONTENTFORMAT_BEGIN
 90
        0
 91
        0
 92
      512
 93
        0
300

 40
0.0
140
1.0
 94
        5
 62
     0
340
96D9
144
0.18
309
CONTENTFORMAT_END
171
     0
 94
        0
309
TABLEFORMAT_END
  1
CELLSTYLE_BEGIN
 90
        2
 91
        1
300
_HEADER
309
CELLSTYLE_END
300
CELLSTYLE
  1
TABLEFORMAT_BEGIN
 90
        5
170
     1
 91
        0
 92
        0
 62
   257
 93
        1
300
CONTENTFORMAT
  1
CONTENTFORMAT_BEGIN
 90
        0
 91
        0
 92
      512
 93
        0
300

 40
0.0
140
1.0
 94
        2
 62
     0
340
96D9
144
0.18
309
CONTENTFORMAT_END
171
     0
 94
        0
309
TABLEFORMAT_END
  1
CELLSTYLE_BEGIN
 90
        3
 91
        2
300
_DATA
309
CELLSTYLE_END
  0
XRECORD
  5
99F0
102
{ACAD_REACTORS
330
99B9
102
}
330
99B9
100
AcDbXrecord
280
     1
102
ACAD_ROUNDTRIP_PRE2007_TABLESTYLE
 90
      512
 91
        0
  1

 92
      512
 93
        0
  2

 94
      512
 95
        0
  3

  0
XRECORD
  5
99CB
102
{ACAD_REACTORS
330
99CA
102
}
330
99CA
100
AcDbXrecord
280
     1
102
RTVSPost2010Prop28
280
     1
102
RTVSPost2010PropOp28
 70
     1
102
RTVSPost2010Prop29
280
     1
102
RTVSPost2010PropOp29
 70
     1
102
RTVSPost2010Prop30
280
     0
102
RTVSPost2010PropOp30
 70
     1
102
RTVSPost2010Prop31
280
     0
102
RTVSPost2010PropOp31
 70
     1
102
RTVSPost2010Prop32
280
     0
102
RTVSPost2010PropOp32
 70
     1
102
RTVSPost2010Prop33
280
     0
102
RTVSPost2010PropOp33
 70
     1
102
RTVSPost2010Prop34
280
     0
102
RTVSPost2010PropOp34
 70
     1
102
RTVSPost2010Prop35
280
     0
102
RTVSPost2010PropOp35
 70
     1
102
RTVSPost2010Prop36
280
     0
102
RTVSPost2010PropOp36
 70
     1
102
RTVSPost2010Prop37
 90
       50
102
RTVSPost2010PropOp37
 70
     1
102
RTVSPost2010Prop38
140
0.0
102
RTVSPost2010PropOp38
 70
     1
102
RTVSPost2010Prop39
140
1.0
102
RTVSPost2010PropOp39
 70
     1
102
RTVSPost2010Prop40
 90
        0
102
RTVSPost2010PropOp40
 70
     1
102
RTVSPost2010Prop41ColorIndex
 90
       18
102
RTVSPost2010Prop41ColorRGB
 90
        0
102
RTVSPost2010PropOp41
 70
     1
102
RTVSPost2010Prop42
 90
       50
102
RTVSPost2010PropOp42
 70
     1
102
RTVSPost2010Prop43
 90
        3
102
RTVSPost2010PropOp43
 70
     1
102
RTVSPost2010Prop44ColorIndex
 90
        5
102
RTVSPost2010Prop44ColorRGB
 90
      255
102
RTVSPost2010PropOp44
 70
     1
102
RTVSPost2010Prop45
280
     0
102
RTVSPost2010PropOp45
 70
     1
102
RTVSPost2010Prop46
 90
       50
102
RTVSPost2010PropOp46
 70
     1
102
RTVSPost2010Prop47
 90
       50
102
RTVSPost2010PropOp47
 70
     1
102
RTVSPost2010Prop48
 90
       50
102
RTVSPost2010PropOp48
 70
     1
102
RTVSPost2010Prop49
280
     0
102
RTVSPost2010PropOp49
 70
     1
102
RTVSPost2010Prop50
 90
       50
102
RTVSPost2010PropOp50
 70
     1
102
RTVSPost2010Prop51ColorIndex
 90
      256
102
RTVSPost2010Prop51ColorRGB
 90
-16777216
102
RTVSPost2010PropOp51
 70
     0
102
RTVSPost2010Prop52
140
1.0
102
RTVSPost2010PropOp52
 70
     0
102
RTVSPost2010Prop53
 90
        2
102
RTVSPost2010PropOp53
 70
     1
102
RTVSPost2010Prop54
  1
strokes_ogs.tif
102
RTVSPost2010PropOp54
 70
     1
102
RTVSPost2010Prop55
280
     0
102
RTVSPost2010PropOp55
 70
     1
102
RTVSPost2010Prop56
140
1.0
102
RTVSPost2010PropOp56
 70
     1
102
RTVSPost2010Prop57
140
1.0
102
RTVSPost2010PropOp57
 70
     1
102
RTVSPropertyOp0
 70
     1
102
RTVSPropertyOp1
 70
     1
102
RTVSPropertyOp2
 70
     1
102
RTVSPropertyOp3
 70
     1
102
RTVSPropertyOp4
 70
     1
102
RTVSPropertyOp5
 70
     1
102
RTVSPropertyOp6
 70
     1
102
RTVSPropertyOp7
 70
     1
102
RTVSPropertyOp8
 70
     1
102
RTVSPropertyOp9
 70
     1
102
RTVSPropertyOp10
 70
     1
102
RTVSPropertyOp11
 70
     1
102
RTVSPropertyOp12
 70
     1
102
RTVSPropertyOp13
 70
     1
102
RTVSPropertyOp14
 70
     1
102
RTVSPropertyOp15
 70
     1
102
RTVSPropertyOp16
 70
     1
102
RTVSPropertyOp17
 70
     1
102
RTVSPropertyOp18
 70
     1
102
RTVSPropertyOp19
 70
     1
102
RTVSPropertyOp20
 70
     1
102
RTVSPropertyOp21
 70
     1
102
RTVSPropertyOp22
 70
     1
102
RTVSPropertyOp23
 70
     1
102
RTVSPropertyOp24
 70
     1
102
RTVSPropertyOp25
 70
     1
102
RTVSPropertyOp26
 70
     1
102
RTVSPropertyOp27
 70
     1
102
RTVSPropertyOp28
 70
     1
102
RTVSPropertyOp29
 70
     1
102
RTVSPropertyOp30
 70
     1
102
RTVSPropertyOp31
 70
     1
102
RTVSPropertyOp32
 70
     1
102
RTVSPropertyOp33
 70
     1
102
RTVSPropertyOp34
 70
     1
102
RTVSPropertyOp35
 70
     1
102
RTVSPropertyOp36
 70
     1
102
RTVSPropertyOp37
 70
     1
102
RTVSPropertyOp38
 70
     1
102
RTVSPropertyOp39
 70
     1
102
RTVSPropertyOp40
 70
     1
102
RTVSPropertyOp41
 70
     1
102
RTVSPropertyOp42
 70
     1
102
RTVSPropertyOp43
 70
     1
102
RTVSPropertyOp44
 70
     1
102
RTVSPropertyOp45
 70
     1
102
RTVSPropertyOp46
 70
     1
102
RTVSPropertyOp47
 70
     1
102
RTVSPropertyOp48
 70
     1
102
RTVSPropertyOp49
 70
     1
102
RTVSPropertyOp50
 70
     1
102
RTVSPropertyOp51
 70
     0
102
RTVSPropertyOp52
 70
     0
102
RTVSPropertyOp53
 70
     1
102
RTVSPropertyOp54
 70
     1
102
RTVSPropertyOp55
 70
     1
102
RTVSPropertyOp56
 70
     1
102
RTVSPropertyOp57
 70
     1
102
RTVSPropertyOp58
 70
     1
102
RTVSPropertyOp59
 70
     1
102
RTVSPropertyOp60
 70
     1
102
RTVSPropertyOp61
 70
     1
102
RTVSPropertyOp62
 70
     1
  0
XRECORD
  5
99C9
102
{ACAD_REACTORS
330
99C8
102
}
330
99C8
100
AcDbXrecord
280
     1
102
RTVSPost2010Prop28
280
     0
102
RTVSPost2010PropOp28
 70
     1
102
RTVSPost2010Prop29
280
     1
102
RTVSPost2010PropOp29
 70
     1
102
RTVSPost2010Prop30
280
     1
102
RTVSPost2010PropOp30
 70
     1
102
RTVSPost2010Prop31
280
     0
102
RTVSPost2010PropOp31
 70
     1
102
RTVSPost2010Prop32
280
     0
102
RTVSPost2010PropOp32
 70
     1
102
RTVSPost2010Prop33
280
     0
102
RTVSPost2010PropOp33
 70
     1
102
RTVSPost2010Prop34
280
     0
102
RTVSPost2010PropOp34
 70
     1
102
RTVSPost2010Prop35
280
     0
102
RTVSPost2010PropOp35
 70
     1
102
RTVSPost2010Prop36
280
     0
102
RTVSPost2010PropOp36
 70
     1
102
RTVSPost2010Prop37
 90
       50
102
RTVSPost2010PropOp37
 70
     1
102
RTVSPost2010Prop38
140
0.0
102
RTVSPost2010PropOp38
 70
     1
102
RTVSPost2010Prop39
140
1.0
102
RTVSPost2010PropOp39
 70
     1
102
RTVSPost2010Prop40
 90
        0
102
RTVSPost2010PropOp40
 70
     1
102
RTVSPost2010Prop41ColorIndex
 90
       18
102
RTVSPost2010Prop41ColorRGB
 90
        0
102
RTVSPost2010PropOp41
 70
     1
102
RTVSPost2010Prop42
 90
       50
102
RTVSPost2010PropOp42
 70
     1
102
RTVSPost2010Prop43
 90
        3
102
RTVSPost2010PropOp43
 70
     1
102
RTVSPost2010Prop44ColorIndex
 90
        5
102
RTVSPost2010Prop44ColorRGB
 90
      255
102
RTVSPost2010PropOp44
 70
     1
102
RTVSPost2010Prop45
280
     0
102
RTVSPost2010PropOp45
 70
     1
102
RTVSPost2010Prop46
 90
       50
102
RTVSPost2010PropOp46
 70
     1
102
RTVSPost2010Prop47
 90
       50
102
RTVSPost2010PropOp47
 70
     1
102
RTVSPost2010Prop48
 90
       50
102
RTVSPost2010PropOp48
 70
     1
102
RTVSPost2010Prop49
280
     0
102
RTVSPost2010PropOp49
 70
     1
102
RTVSPost2010Prop50
 90
       50
102
RTVSPost2010PropOp50
 70
     1
102
RTVSPost2010Prop51ColorIndex
 90
      256
102
RTVSPost2010Prop51ColorRGB
 90
-16777216
102
RTVSPost2010PropOp51
 70
     0
102
RTVSPost2010Prop52
140
1.0
102
RTVSPost2010PropOp52
 70
     0
102
RTVSPost2010Prop53
 90
        2
102
RTVSPost2010PropOp53
 70
     1
102
RTVSPost2010Prop54
  1
strokes_ogs.tif
102
RTVSPost2010PropOp54
 70
     1
102
RTVSPost2010Prop55
280
     0
102
RTVSPost2010PropOp55
 70
     1
102
RTVSPost2010Prop56
140
1.0
102
RTVSPost2010PropOp56
 70
     1
102
RTVSPost2010Prop57
140
1.0
102
RTVSPost2010PropOp57
 70
     1
102
RTVSPropertyOp0
 70
     1
102
RTVSPropertyOp1
 70
     1
102
RTVSPropertyOp2
 70
     1
102
RTVSPropertyOp3
 70
     1
102
RTVSPropertyOp4
 70
     1
102
RTVSPropertyOp5
 70
     1
102
RTVSPropertyOp6
 70
     1
102
RTVSPropertyOp7
 70
     1
102
RTVSPropertyOp8
 70
     1
102
RTVSPropertyOp9
 70
     1
102
RTVSPropertyOp10
 70
     1
102
RTVSPropertyOp11
 70
     1
102
RTVSPropertyOp12
 70
     1
102
RTVSPropertyOp13
 70
     1
102
RTVSPropertyOp14
 70
     1
102
RTVSPropertyOp15
 70
     1
102
RTVSPropertyOp16
 70
     1
102
RTVSPropertyOp17
 70
     1
102
RTVSPropertyOp18
 70
     1
102
RTVSPropertyOp19
 70
     1
102
RTVSPropertyOp20
 70
     1
102
RTVSPropertyOp21
 70
     1
102
RTVSPropertyOp22
 70
     1
102
RTVSPropertyOp23
 70
     1
102
RTVSPropertyOp24
 70
     1
102
RTVSPropertyOp25
 70
     1
102
RTVSPropertyOp26
 70
     1
102
RTVSPropertyOp27
 70
     1
102
RTVSPropertyOp28
 70
     1
102
RTVSPropertyOp29
 70
     1
102
RTVSPropertyOp30
 70
     1
102
RTVSPropertyOp31
 70
     1
102
RTVSPropertyOp32
 70
     1
102
RTVSPropertyOp33
 70
     1
102
RTVSPropertyOp34
 70
     1
102
RTVSPropertyOp35
 70
     1
102
RTVSPropertyOp36
 70
     1
102
RTVSPropertyOp37
 70
     1
102
RTVSPropertyOp38
 70
     1
102
RTVSPropertyOp39
 70
     1
102
RTVSPropertyOp40
 70
     1
102
RTVSPropertyOp41
 70
     1
102
RTVSPropertyOp42
 70
     1
102
RTVSPropertyOp43
 70
     1
102
RTVSPropertyOp44
 70
     1
102
RTVSPropertyOp45
 70
     1
102
RTVSPropertyOp46
 70
     1
102
RTVSPropertyOp47
 70
     1
102
RTVSPropertyOp48
 70
     1
102
RTVSPropertyOp49
 70
     1
102
RTVSPropertyOp50
 70
     1
102
RTVSPropertyOp51
 70
     0
102
RTVSPropertyOp52
 70
     0
102
RTVSPropertyOp53
 70
     1
102
RTVSPropertyOp54
 70
     1
102
RTVSPropertyOp55
 70
     1
102
RTVSPropertyOp56
 70
     1
102
RTVSPropertyOp57
 70
     1
102
RTVSPropertyOp58
 70
     1
102
RTVSPropertyOp59
 70
     1
102
RTVSPropertyOp60
 70
     1
102
RTVSPropertyOp61
 70
     1
102
RTVSPropertyOp62
 70
     1
  0
XRECORD
  5
99D7
102
{ACAD_REACTORS
330
99D6
102
}
330
99D6
100
AcDbXrecord
280
     1
102
RTVSPost2010Prop28
280
     0
102
RTVSPost2010PropOp28
 70
     1
102
RTVSPost2010Prop29
280
     1
102
RTVSPost2010PropOp29
 70
     1
102
RTVSPost2010Prop30
280
     1
102
RTVSPost2010PropOp30
 70
     1
102
RTVSPost2010Prop31
280
     0
102
RTVSPost2010PropOp31
 70
     1
102
RTVSPost2010Prop32
280
     0
102
RTVSPost2010PropOp32
 70
     1
102
RTVSPost2010Prop33
280
     0
102
RTVSPost2010PropOp33
 70
     1
102
RTVSPost2010Prop34
280
     0
102
RTVSPost2010PropOp34
 70
     1
102
RTVSPost2010Prop35
280
     0
102
RTVSPost2010PropOp35
 70
     1
102
RTVSPost2010Prop36
280
     0
102
RTVSPost2010PropOp36
 70
     1
102
RTVSPost2010Prop37
 90
       50
102
RTVSPost2010PropOp37
 70
     1
102
RTVSPost2010Prop38
140
0.0
102
RTVSPost2010PropOp38
 70
     1
102
RTVSPost2010Prop39
140
1.0
102
RTVSPost2010PropOp39
 70
     1
102
RTVSPost2010Prop40
 90
        0
102
RTVSPost2010PropOp40
 70
     1
102
RTVSPost2010Prop41ColorIndex
 90
       18
102
RTVSPost2010Prop41ColorRGB
 90
        0
102
RTVSPost2010PropOp41
 70
     1
102
RTVSPost2010Prop42
 90
       50
102
RTVSPost2010PropOp42
 70
     1
102
RTVSPost2010Prop43
 90
        3
102
RTVSPost2010PropOp43
 70
     1
102
RTVSPost2010Prop44ColorIndex
 90
        5
102
RTVSPost2010Prop44ColorRGB
 90
      255
102
RTVSPost2010PropOp44
 70
     1
102
RTVSPost2010Prop45
280
     0
102
RTVSPost2010PropOp45
 70
     1
102
RTVSPost2010Prop46
 90
       50
102
RTVSPost2010PropOp46
 70
     1
102
RTVSPost2010Prop47
 90
       50
102
RTVSPost2010PropOp47
 70
     1
102
RTVSPost2010Prop48
 90
       50
102
RTVSPost2010PropOp48
 70
     1
102
RTVSPost2010Prop49
280
     0
102
RTVSPost2010PropOp49
 70
     1
102
RTVSPost2010Prop50
 90
       50
102
RTVSPost2010PropOp50
 70
     1
102
RTVSPost2010Prop51ColorIndex
 90
      256
102
RTVSPost2010Prop51ColorRGB
 90
-16777216
102
RTVSPost2010PropOp51
 70
     0
102
RTVSPost2010Prop52
140
1.0
102
RTVSPost2010PropOp52
 70
     0
102
RTVSPost2010Prop53
 90
        2
102
RTVSPost2010PropOp53
 70
     1
102
RTVSPost2010Prop54
  1
strokes_ogs.tif
102
RTVSPost2010PropOp54
 70
     1
102
RTVSPost2010Prop55
280
     0
102
RTVSPost2010PropOp55
 70
     1
102
RTVSPost2010Prop56
140
1.0
102
RTVSPost2010PropOp56
 70
     1
102
RTVSPost2010Prop57
140
1.0
102
RTVSPost2010PropOp57
 70
     1
102
RTVSPropertyOp0
 70
     1
102
RTVSPropertyOp1
 70
     1
102
RTVSPropertyOp2
 70
     1
102
RTVSPropertyOp3
 70
     1
102
RTVSPropertyOp4
 70
     1
102
RTVSPropertyOp5
 70
     1
102
RTVSPropertyOp6
 70
     1
102
RTVSPropertyOp7
 70
     1
102
RTVSPropertyOp8
 70
     1
102
RTVSPropertyOp9
 70
     1
102
RTVSPropertyOp10
 70
     1
102
RTVSPropertyOp11
 70
     1
102
RTVSPropertyOp12
 70
     1
102
RTVSPropertyOp13
 70
     1
102
RTVSPropertyOp14
 70
     1
102
RTVSPropertyOp15
 70
     1
102
RTVSPropertyOp16
 70
     1
102
RTVSPropertyOp17
 70
     1
102
RTVSPropertyOp18
 70
     1
102
RTVSPropertyOp19
 70
     1
102
RTVSPropertyOp20
 70
     1
102
RTVSPropertyOp21
 70
     1
102
RTVSPropertyOp22
 70
     1
102
RTVSPropertyOp23
 70
     1
102
RTVSPropertyOp24
 70
     1
102
RTVSPropertyOp25
 70
     1
102
RTVSPropertyOp26
 70
     1
102
RTVSPropertyOp27
 70
     1
102
RTVSPropertyOp28
 70
     1
102
RTVSPropertyOp29
 70
     1
102
RTVSPropertyOp30
 70
     1
102
RTVSPropertyOp31
 70
     1
102
RTVSPropertyOp32
 70
     1
102
RTVSPropertyOp33
 70
     1
102
RTVSPropertyOp34
 70
     1
102
RTVSPropertyOp35
 70
     1
102
RTVSPropertyOp36
 70
     1
102
RTVSPropertyOp37
 70
     1
102
RTVSPropertyOp38
 70
     1
102
RTVSPropertyOp39
 70
     1
102
RTVSPropertyOp40
 70
     1
102
RTVSPropertyOp41
 70
     1
102
RTVSPropertyOp42
 70
     1
102
RTVSPropertyOp43
 70
     1
102
RTVSPropertyOp44
 70
     1
102
RTVSPropertyOp45
 70
     1
102
RTVSPropertyOp46
 70
     1
102
RTVSPropertyOp47
 70
     1
102
RTVSPropertyOp48
 70
     1
102
RTVSPropertyOp49
 70
     1
102
RTVSPropertyOp50
 70
     1
102
RTVSPropertyOp51
 70
     0
102
RTVSPropertyOp52
 70
     0
102
RTVSPropertyOp53
 70
     1
102
RTVSPropertyOp54
 70
     1
102
RTVSPropertyOp55
 70
     1
102
RTVSPropertyOp56
 70
     1
102
RTVSPropertyOp57
 70
     1
102
RTVSPropertyOp58
 70
     1
102
RTVSPropertyOp59
 70
     1
102
RTVSPropertyOp60
 70
     1
102
RTVSPropertyOp61
 70
     1
102
RTVSPropertyOp62
 70
     1
  0
XRECORD
  5
99DF
102
{ACAD_REACTORS
330
99DE
102
}
330
99DE
100
AcDbXrecord
280
     1
102
RTVSPost2010Prop28
280
     0
102
RTVSPost2010PropOp28
 70
     1
102
RTVSPost2010Prop29
280
     1
102
RTVSPost2010PropOp29
 70
     1
102
RTVSPost2010Prop30
280
     1
102
RTVSPost2010PropOp30
 70
     1
102
RTVSPost2010Prop31
280
     0
102
RTVSPost2010PropOp31
 70
     1
102
RTVSPost2010Prop32
280
     0
102
RTVSPost2010PropOp32
 70
     1
102
RTVSPost2010Prop33
280
     0
102
RTVSPost2010PropOp33
 70
     1
102
RTVSPost2010Prop34
280
     0
102
RTVSPost2010PropOp34
 70
     1
102
RTVSPost2010Prop35
280
     0
102
RTVSPost2010PropOp35
 70
     1
102
RTVSPost2010Prop36
280
     0
102
RTVSPost2010PropOp36
 70
     1
102
RTVSPost2010Prop37
 90
       50
102
RTVSPost2010PropOp37
 70
     1
102
RTVSPost2010Prop38
140
0.0
102
RTVSPost2010PropOp38
 70
     1
102
RTVSPost2010Prop39
140
1.0
102
RTVSPost2010PropOp39
 70
     1
102
RTVSPost2010Prop40
 90
        0
102
RTVSPost2010PropOp40
 70
     1
102
RTVSPost2010Prop41ColorIndex
 90
       18
102
RTVSPost2010Prop41ColorRGB
 90
        0
102
RTVSPost2010PropOp41
 70
     1
102
RTVSPost2010Prop42
 90
       50
102
RTVSPost2010PropOp42
 70
     1
102
RTVSPost2010Prop43
 90
        3
102
RTVSPost2010PropOp43
 70
     1
102
RTVSPost2010Prop44ColorIndex
 90
        5
102
RTVSPost2010Prop44ColorRGB
 90
      255
102
RTVSPost2010PropOp44
 70
     1
102
RTVSPost2010Prop45
280
     0
102
RTVSPost2010PropOp45
 70
     1
102
RTVSPost2010Prop46
 90
       50
102
RTVSPost2010PropOp46
 70
     1
102
RTVSPost2010Prop47
 90
       50
102
RTVSPost2010PropOp47
 70
     1
102
RTVSPost2010Prop48
 90
       50
102
RTVSPost2010PropOp48
 70
     1
102
RTVSPost2010Prop49
280
     0
102
RTVSPost2010PropOp49
 70
     1
102
RTVSPost2010Prop50
 90
       50
102
RTVSPost2010PropOp50
 70
     1
102
RTVSPost2010Prop51ColorIndex
 90
      256
102
RTVSPost2010Prop51ColorRGB
 90
-16777216
102
RTVSPost2010PropOp51
 70
     0
102
RTVSPost2010Prop52
140
1.0
102
RTVSPost2010PropOp52
 70
     0
102
RTVSPost2010Prop53
 90
        2
102
RTVSPost2010PropOp53
 70
     1
102
RTVSPost2010Prop54
  1
strokes_ogs.tif
102
RTVSPost2010PropOp54
 70
     1
102
RTVSPost2010Prop55
280
     0
102
RTVSPost2010PropOp55
 70
     1
102
RTVSPost2010Prop56
140
1.0
102
RTVSPost2010PropOp56
 70
     1
102
RTVSPost2010Prop57
140
1.0
102
RTVSPost2010PropOp57
 70
     1
102
RTVSPropertyOp0
 70
     1
102
RTVSPropertyOp1
 70
     1
102
RTVSPropertyOp2
 70
     1
102
RTVSPropertyOp3
 70
     1
102
RTVSPropertyOp4
 70
     1
102
RTVSPropertyOp5
 70
     1
102
RTVSPropertyOp6
 70
     1
102
RTVSPropertyOp7
 70
     1
102
RTVSPropertyOp8
 70
     1
102
RTVSPropertyOp9
 70
     1
102
RTVSPropertyOp10
 70
     1
102
RTVSPropertyOp11
 70
     1
102
RTVSPropertyOp12
 70
     1
102
RTVSPropertyOp13
 70
     1
102
RTVSPropertyOp14
 70
     1
102
RTVSPropertyOp15
 70
     1
102
RTVSPropertyOp16
 70
     1
102
RTVSPropertyOp17
 70
     1
102
RTVSPropertyOp18
 70
     1
102
RTVSPropertyOp19
 70
     1
102
RTVSPropertyOp20
 70
     1
102
RTVSPropertyOp21
 70
     1
102
RTVSPropertyOp22
 70
     1
102
RTVSPropertyOp23
 70
     1
102
RTVSPropertyOp24
 70
     1
102
RTVSPropertyOp25
 70
     1
102
RTVSPropertyOp26
 70
     1
102
RTVSPropertyOp27
 70
     1
102
RTVSPropertyOp28
 70
     1
102
RTVSPropertyOp29
 70
     1
102
RTVSPropertyOp30
 70
     1
102
RTVSPropertyOp31
 70
     1
102
RTVSPropertyOp32
 70
     1
102
RTVSPropertyOp33
 70
     1
102
RTVSPropertyOp34
 70
     1
102
RTVSPropertyOp35
 70
     1
102
RTVSPropertyOp36
 70
     1
102
RTVSPropertyOp37
 70
     1
102
RTVSPropertyOp38
 70
     1
102
RTVSPropertyOp39
 70
     1
102
RTVSPropertyOp40
 70
     1
102
RTVSPropertyOp41
 70
     1
102
RTVSPropertyOp42
 70
     1
102
RTVSPropertyOp43
 70
     1
102
RTVSPropertyOp44
 70
     1
102
RTVSPropertyOp45
 70
     1
102
RTVSPropertyOp46
 70
     1
102
RTVSPropertyOp47
 70
     1
102
RTVSPropertyOp48
 70
     1
102
RTVSPropertyOp49
 70
     1
102
RTVSPropertyOp50
 70
     1
102
RTVSPropertyOp51
 70
     0
102
RTVSPropertyOp52
 70
     0
102
RTVSPropertyOp53
 70
     1
102
RTVSPropertyOp54
 70
     1
102
RTVSPropertyOp55
 70
     1
102
RTVSPropertyOp56
 70
     1
102
RTVSPropertyOp57
 70
     1
102
RTVSPropertyOp58
 70
     1
102
RTVSPropertyOp59
 70
     1
102
RTVSPropertyOp60
 70
     1
102
RTVSPropertyOp61
 70
     1
102
RTVSPropertyOp62
 70
     1
  0
XRECORD
  5
99D1
102
{ACAD_REACTORS
330
99D0
102
}
330
99D0
100
AcDbXrecord
280
     1
102
RTVSPost2010Prop28
280
     0
102
RTVSPost2010PropOp28
 70
     1
102
RTVSPost2010Prop29
280
     1
102
RTVSPost2010PropOp29
 70
     1
102
RTVSPost2010Prop30
280
     1
102
RTVSPost2010PropOp30
 70
     1
102
RTVSPost2010Prop31
280
     0
102
RTVSPost2010PropOp31
 70
     1
102
RTVSPost2010Prop32
280
     0
102
RTVSPost2010PropOp32
 70
     1
102
RTVSPost2010Prop33
280
     0
102
RTVSPost2010PropOp33
 70
     1
102
RTVSPost2010Prop34
280
     0
102
RTVSPost2010PropOp34
 70
     1
102
RTVSPost2010Prop35
280
     0
102
RTVSPost2010PropOp35
 70
     1
102
RTVSPost2010Prop36
280
     0
102
RTVSPost2010PropOp36
 70
     1
102
RTVSPost2010Prop37
 90
       50
102
RTVSPost2010PropOp37
 70
     1
102
RTVSPost2010Prop38
140
0.0
102
RTVSPost2010PropOp38
 70
     1
102
RTVSPost2010Prop39
140
1.0
102
RTVSPost2010PropOp39
 70
     1
102
RTVSPost2010Prop40
 90
        0
102
RTVSPost2010PropOp40
 70
     1
102
RTVSPost2010Prop41ColorIndex
 90
       18
102
RTVSPost2010Prop41ColorRGB
 90
        0
102
RTVSPost2010PropOp41
 70
     1
102
RTVSPost2010Prop42
 90
       50
102
RTVSPost2010PropOp42
 70
     1
102
RTVSPost2010Prop43
 90
        3
102
RTVSPost2010PropOp43
 70
     1
102
RTVSPost2010Prop44ColorIndex
 90
        5
102
RTVSPost2010Prop44ColorRGB
 90
      255
102
RTVSPost2010PropOp44
 70
     1
102
RTVSPost2010Prop45
280
     0
102
RTVSPost2010PropOp45
 70
     1
102
RTVSPost2010Prop46
 90
       50
102
RTVSPost2010PropOp46
 70
     1
102
RTVSPost2010Prop47
 90
       50
102
RTVSPost2010PropOp47
 70
     1
102
RTVSPost2010Prop48
 90
       50
102
RTVSPost2010PropOp48
 70
     1
102
RTVSPost2010Prop49
280
     0
102
RTVSPost2010PropOp49
 70
     1
102
RTVSPost2010Prop50
 90
       50
102
RTVSPost2010PropOp50
 70
     1
102
RTVSPost2010Prop51ColorIndex
 90
      256
102
RTVSPost2010Prop51ColorRGB
 90
-16777216
102
RTVSPost2010PropOp51
 70
     0
102
RTVSPost2010Prop52
140
1.0
102
RTVSPost2010PropOp52
 70
     0
102
RTVSPost2010Prop53
 90
        2
102
RTVSPost2010PropOp53
 70
     1
102
RTVSPost2010Prop54
  1
strokes_ogs.tif
102
RTVSPost2010PropOp54
 70
     1
102
RTVSPost2010Prop55
280
     0
102
RTVSPost2010PropOp55
 70
     1
102
RTVSPost2010Prop56
140
1.0
102
RTVSPost2010PropOp56
 70
     1
102
RTVSPost2010Prop57
140
1.0
102
RTVSPost2010PropOp57
 70
     1
102
RTVSPropertyOp0
 70
     1
102
RTVSPropertyOp1
 70
     1
102
RTVSPropertyOp2
 70
     1
102
RTVSPropertyOp3
 70
     1
102
RTVSPropertyOp4
 70
     1
102
RTVSPropertyOp5
 70
     1
102
RTVSPropertyOp6
 70
     1
102
RTVSPropertyOp7
 70
     1
102
RTVSPropertyOp8
 70
     1
102
RTVSPropertyOp9
 70
     1
102
RTVSPropertyOp10
 70
     1
102
RTVSPropertyOp11
 70
     1
102
RTVSPropertyOp12
 70
     1
102
RTVSPropertyOp13
 70
     1
102
RTVSPropertyOp14
 70
     1
102
RTVSPropertyOp15
 70
     1
102
RTVSPropertyOp16
 70
     1
102
RTVSPropertyOp17
 70
     1
102
RTVSPropertyOp18
 70
     1
102
RTVSPropertyOp19
 70
     1
102
RTVSPropertyOp20
 70
     1
102
RTVSPropertyOp21
 70
     1
102
RTVSPropertyOp22
 70
     1
102
RTVSPropertyOp23
 70
     1
102
RTVSPropertyOp24
 70
     1
102
RTVSPropertyOp25
 70
     1
102
RTVSPropertyOp26
 70
     1
102
RTVSPropertyOp27
 70
     1
102
RTVSPropertyOp28
 70
     1
102
RTVSPropertyOp29
 70
     1
102
RTVSPropertyOp30
 70
     1
102
RTVSPropertyOp31
 70
     1
102
RTVSPropertyOp32
 70
     1
102
RTVSPropertyOp33
 70
     1
102
RTVSPropertyOp34
 70
     1
102
RTVSPropertyOp35
 70
     1
102
RTVSPropertyOp36
 70
     1
102
RTVSPropertyOp37
 70
     1
102
RTVSPropertyOp38
 70
     1
102
RTVSPropertyOp39
 70
     1
102
RTVSPropertyOp40
 70
     1
102
RTVSPropertyOp41
 70
     1
102
RTVSPropertyOp42
 70
     1
102
RTVSPropertyOp43
 70
     1
102
RTVSPropertyOp44
 70
     1
102
RTVSPropertyOp45
 70
     1
102
RTVSPropertyOp46
 70
     1
102
RTVSPropertyOp47
 70
     1
102
RTVSPropertyOp48
 70
     1
102
RTVSPropertyOp49
 70
     1
102
RTVSPropertyOp50
 70
     1
102
RTVSPropertyOp51
 70
     0
102
RTVSPropertyOp52
 70
     0
102
RTVSPropertyOp53
 70
     1
102
RTVSPropertyOp54
 70
     1
102
RTVSPropertyOp55
 70
     1
102
RTVSPropertyOp56
 70
     1
102
RTVSPropertyOp57
 70
     1
102
RTVSPropertyOp58
 70
     1
102
RTVSPropertyOp59
 70
     1
102
RTVSPropertyOp60
 70
     1
102
RTVSPropertyOp61
 70
     1
102
RTVSPropertyOp62
 70
     1
  0
XRECORD
  5
99D5
102
{ACAD_REACTORS
330
99D4
102
}
330
99D4
100
AcDbXrecord
280
     1
102
RTVSPost2010Prop28
280
     0
102
RTVSPost2010PropOp28
 70
     1
102
RTVSPost2010Prop29
280
     1
102
RTVSPost2010PropOp29
 70
     1
102
RTVSPost2010Prop30
280
     1
102
RTVSPost2010PropOp30
 70
     1
102
RTVSPost2010Prop31
280
     0
102
RTVSPost2010PropOp31
 70
     1
102
RTVSPost2010Prop32
280
     0
102
RTVSPost2010PropOp32
 70
     1
102
RTVSPost2010Prop33
280
     0
102
RTVSPost2010PropOp33
 70
     1
102
RTVSPost2010Prop34
280
     0
102
RTVSPost2010PropOp34
 70
     1
102
RTVSPost2010Prop35
280
     0
102
RTVSPost2010PropOp35
 70
     1
102
RTVSPost2010Prop36
280
     0
102
RTVSPost2010PropOp36
 70
     1
102
RTVSPost2010Prop37
 90
       50
102
RTVSPost2010PropOp37
 70
     1
102
RTVSPost2010Prop38
140
0.0
102
RTVSPost2010PropOp38
 70
     1
102
RTVSPost2010Prop39
140
1.0
102
RTVSPost2010PropOp39
 70
     1
102
RTVSPost2010Prop40
 90
        0
102
RTVSPost2010PropOp40
 70
     1
102
RTVSPost2010Prop41ColorIndex
 90
       18
102
RTVSPost2010Prop41ColorRGB
 90
        0
102
RTVSPost2010PropOp41
 70
     1
102
RTVSPost2010Prop42
 90
       50
102
RTVSPost2010PropOp42
 70
     1
102
RTVSPost2010Prop43
 90
        3
102
RTVSPost2010PropOp43
 70
     1
102
RTVSPost2010Prop44ColorIndex
 90
        5
102
RTVSPost2010Prop44ColorRGB
 90
      255
102
RTVSPost2010PropOp44
 70
     1
102
RTVSPost2010Prop45
280
     0
102
RTVSPost2010PropOp45
 70
     1
102
RTVSPost2010Prop46
 90
       50
102
RTVSPost2010PropOp46
 70
     1
102
RTVSPost2010Prop47
 90
       50
102
RTVSPost2010PropOp47
 70
     1
102
RTVSPost2010Prop48
 90
       50
102
RTVSPost2010PropOp48
 70
     1
102
RTVSPost2010Prop49
280
     0
102
RTVSPost2010PropOp49
 70
     1
102
RTVSPost2010Prop50
 90
       50
102
RTVSPost2010PropOp50
 70
     1
102
RTVSPost2010Prop51ColorIndex
 90
      256
102
RTVSPost2010Prop51ColorRGB
 90
-16777216
102
RTVSPost2010PropOp51
 70
     0
102
RTVSPost2010Prop52
140
1.0
102
RTVSPost2010PropOp52
 70
     0
102
RTVSPost2010Prop53
 90
        2
102
RTVSPost2010PropOp53
 70
     1
102
RTVSPost2010Prop54
  1
strokes_ogs.tif
102
RTVSPost2010PropOp54
 70
     1
102
RTVSPost2010Prop55
280
     0
102
RTVSPost2010PropOp55
 70
     1
102
RTVSPost2010Prop56
140
1.0
102
RTVSPost2010PropOp56
 70
     1
102
RTVSPost2010Prop57
140
1.0
102
RTVSPost2010PropOp57
 70
     1
102
RTVSPropertyOp0
 70
     1
102
RTVSPropertyOp1
 70
     1
102
RTVSPropertyOp2
 70
     1
102
RTVSPropertyOp3
 70
     1
102
RTVSPropertyOp4
 70
     1
102
RTVSPropertyOp5
 70
     1
102
RTVSPropertyOp6
 70
     1
102
RTVSPropertyOp7
 70
     1
102
RTVSPropertyOp8
 70
     1
102
RTVSPropertyOp9
 70
     1
102
RTVSPropertyOp10
 70
     1
102
RTVSPropertyOp11
 70
     1
102
RTVSPropertyOp12
 70
     1
102
RTVSPropertyOp13
 70
     1
102
RTVSPropertyOp14
 70
     1
102
RTVSPropertyOp15
 70
     1
102
RTVSPropertyOp16
 70
     1
102
RTVSPropertyOp17
 70
     1
102
RTVSPropertyOp18
 70
     1
102
RTVSPropertyOp19
 70
     1
102
RTVSPropertyOp20
 70
     1
102
RTVSPropertyOp21
 70
     1
102
RTVSPropertyOp22
 70
     1
102
RTVSPropertyOp23
 70
     1
102
RTVSPropertyOp24
 70
     1
102
RTVSPropertyOp25
 70
     1
102
RTVSPropertyOp26
 70
     1
102
RTVSPropertyOp27
 70
     1
102
RTVSPropertyOp28
 70
     1
102
RTVSPropertyOp29
 70
     1
102
RTVSPropertyOp30
 70
     1
102
RTVSPropertyOp31
 70
     1
102
RTVSPropertyOp32
 70
     1
102
RTVSPropertyOp33
 70
     1
102
RTVSPropertyOp34
 70
     1
102
RTVSPropertyOp35
 70
     1
102
RTVSPropertyOp36
 70
     1
102
RTVSPropertyOp37
 70
     1
102
RTVSPropertyOp38
 70
     1
102
RTVSPropertyOp39
 70
     1
102
RTVSPropertyOp40
 70
     1
102
RTVSPropertyOp41
 70
     1
102
RTVSPropertyOp42
 70
     1
102
RTVSPropertyOp43
 70
     1
102
RTVSPropertyOp44
 70
     1
102
RTVSPropertyOp45
 70
     1
102
RTVSPropertyOp46
 70
     1
102
RTVSPropertyOp47
 70
     1
102
RTVSPropertyOp48
 70
     1
102
RTVSPropertyOp49
 70
     1
102
RTVSPropertyOp50
 70
     1
102
RTVSPropertyOp51
 70
     0
102
RTVSPropertyOp52
 70
     0
102
RTVSPropertyOp53
 70
     1
102
RTVSPropertyOp54
 70
     1
102
RTVSPropertyOp55
 70
     1
102
RTVSPropertyOp56
 70
     1
102
RTVSPropertyOp57
 70
     1
102
RTVSPropertyOp58
 70
     1
102
RTVSPropertyOp59
 70
     1
102
RTVSPropertyOp60
 70
     1
102
RTVSPropertyOp61
 70
     1
102
RTVSPropertyOp62
 70
     1
  0
XRECORD
  5
99EF
102
{ACAD_REACTORS
330
99EE
102
}
330
99EE
100
AcDbXrecord
280
     1
102
RTVSPost2010Prop28
280
     0
102
RTVSPost2010PropOp28
 70
     1
102
RTVSPost2010Prop29
280
     1
102
RTVSPost2010PropOp29
 70
     1
102
RTVSPost2010Prop30
280
     1
102
RTVSPost2010PropOp30
 70
     1
102
RTVSPost2010Prop31
280
     0
102
RTVSPost2010PropOp31
 70
     1
102
RTVSPost2010Prop32
280
     0
102
RTVSPost2010PropOp32
 70
     1
102
RTVSPost2010Prop33
280
     0
102
RTVSPost2010PropOp33
 70
     1
102
RTVSPost2010Prop34
280
     0
102
RTVSPost2010PropOp34
 70
     1
102
RTVSPost2010Prop35
280
     0
102
RTVSPost2010PropOp35
 70
     1
102
RTVSPost2010Prop36
280
     0
102
RTVSPost2010PropOp36
 70
     1
102
RTVSPost2010Prop37
 90
       50
102
RTVSPost2010PropOp37
 70
     0
102
RTVSPost2010Prop38
140
0.0
102
RTVSPost2010PropOp38
 70
     0
102
RTVSPost2010Prop39
140
1.0
102
RTVSPost2010PropOp39
 70
     0
102
RTVSPost2010Prop40
 90
        0
102
RTVSPost2010PropOp40
 70
     0
102
RTVSPost2010Prop41ColorIndex
 90
       18
102
RTVSPost2010Prop41ColorRGB
 90
        0
102
RTVSPost2010PropOp41
 70
     0
102
RTVSPost2010Prop42
 90
       50
102
RTVSPost2010PropOp42
 70
     0
102
RTVSPost2010Prop43
 90
        3
102
RTVSPost2010PropOp43
 70
     0
102
RTVSPost2010Prop44ColorIndex
 90
        5
102
RTVSPost2010Prop44ColorRGB
 90
      255
102
RTVSPost2010PropOp44
 70
     0
102
RTVSPost2010Prop45
280
     0
102
RTVSPost2010PropOp45
 70
     1
102
RTVSPost2010Prop46
 90
       50
102
RTVSPost2010PropOp46
 70
     0
102
RTVSPost2010Prop47
 90
       50
102
RTVSPost2010PropOp47
 70
     0
102
RTVSPost2010Prop48
 90
       50
102
RTVSPost2010PropOp48
 70
     0
102
RTVSPost2010Prop49
280
     0
102
RTVSPost2010PropOp49
 70
     1
102
RTVSPost2010Prop50
 90
       50
102
RTVSPost2010PropOp50
 70
     0
102
RTVSPost2010Prop51ColorIndex
 90
      256
102
RTVSPost2010Prop51ColorRGB
 90
-16777216
102
RTVSPost2010PropOp51
 70
     0
102
RTVSPost2010Prop52
140
1.0
102
RTVSPost2010PropOp52
 70
     0
102
RTVSPost2010Prop53
 90
        2
102
RTVSPost2010PropOp53
 70
     0
102
RTVSPost2010Prop54
  1
strokes_ogs.tif
102
RTVSPost2010PropOp54
 70
     0
102
RTVSPost2010Prop55
280
     0
102
RTVSPost2010PropOp55
 70
     1
102
RTVSPost2010Prop56
140
1.0
102
RTVSPost2010PropOp56
 70
     0
102
RTVSPost2010Prop57
140
1.0
102
RTVSPost2010PropOp57
 70
     0
102
RTVSPropertyOp0
 70
     0
102
RTVSPropertyOp1
 70
     0
102
RTVSPropertyOp2
 70
     0
102
RTVSPropertyOp3
 70
     0
102
RTVSPropertyOp4
 70
     0
102
RTVSPropertyOp5
 70
     0
102
RTVSPropertyOp6
 70
     0
102
RTVSPropertyOp7
 70
     0
102
RTVSPropertyOp8
 70
     0
102
RTVSPropertyOp9
 70
     0
102
RTVSPropertyOp10
 70
     0
102
RTVSPropertyOp11
 70
     0
102
RTVSPropertyOp12
 70
     0
102
RTVSPropertyOp13
 70
     0
102
RTVSPropertyOp14
 70
     2
102
RTVSPropertyOp15
 70
     0
102
RTVSPropertyOp16
 70
     0
102
RTVSPropertyOp17
 70
     0
102
RTVSPropertyOp18
 70
     0
102
RTVSPropertyOp19
 70
     0
102
RTVSPropertyOp20
 70
     0
102
RTVSPropertyOp21
 70
     0
102
RTVSPropertyOp22
 70
     0
102
RTVSPropertyOp23
 70
     0
102
RTVSPropertyOp24
 70
     0
102
RTVSPropertyOp25
 70
     0
102
RTVSPropertyOp26
 70
     0
102
RTVSPropertyOp27
 70
     0
102
RTVSPropertyOp28
 70
     1
102
RTVSPropertyOp29
 70
     1
102
RTVSPropertyOp30
 70
     1
102
RTVSPropertyOp31
 70
     1
102
RTVSPropertyOp32
 70
     1
102
RTVSPropertyOp33
 70
     1
102
RTVSPropertyOp34
 70
     1
102
RTVSPropertyOp35
 70
     1
102
RTVSPropertyOp36
 70
     1
102
RTVSPropertyOp37
 70
     0
102
RTVSPropertyOp38
 70
     0
102
RTVSPropertyOp39
 70
     0
102
RTVSPropertyOp40
 70
     0
102
RTVSPropertyOp41
 70
     0
102
RTVSPropertyOp42
 70
     0
102
RTVSPropertyOp43
 70
     0
102
RTVSPropertyOp44
 70
     0
102
RTVSPropertyOp45
 70
     1
102
RTVSPropertyOp46
 70
     0
102
RTVSPropertyOp47
 70
     0
102
RTVSPropertyOp48
 70
     0
102
RTVSPropertyOp49
 70
     1
102
RTVSPropertyOp50
 70
     0
102
RTVSPropertyOp51
 70
     0
102
RTVSPropertyOp52
 70
     0
102
RTVSPropertyOp53
 70
     0
102
RTVSPropertyOp54
 70
     0
102
RTVSPropertyOp55
 70
     1
102
RTVSPropertyOp56
 70
     0
102
RTVSPropertyOp57
 70
     0
102
RTVSPropertyOp58
 70
     0
102
RTVSPropertyOp59
 70
     0
102
RTVSPropertyOp60
 70
     0
102
RTVSPropertyOp61
 70
     0
102
RTVSPropertyOp62
 70
     0
  0
XRECORD
  5
99DD
102
{ACAD_REACTORS
330
99DC
102
}
330
99DC
100
AcDbXrecord
280
     1
102
RTVSPost2010Prop28
280
     0
102
RTVSPost2010PropOp28
 70
     1
102
RTVSPost2010Prop29
280
     1
102
RTVSPost2010PropOp29
 70
     1
102
RTVSPost2010Prop30
280
     1
102
RTVSPost2010PropOp30
 70
     1
102
RTVSPost2010Prop31
280
     0
102
RTVSPost2010PropOp31
 70
     1
102
RTVSPost2010Prop32
280
     0
102
RTVSPost2010PropOp32
 70
     1
102
RTVSPost2010Prop33
280
     0
102
RTVSPost2010PropOp33
 70
     1
102
RTVSPost2010Prop34
280
     0
102
RTVSPost2010PropOp34
 70
     1
102
RTVSPost2010Prop35
280
     0
102
RTVSPost2010PropOp35
 70
     1
102
RTVSPost2010Prop36
280
     0
102
RTVSPost2010PropOp36
 70
     1
102
RTVSPost2010Prop37
 90
       50
102
RTVSPost2010PropOp37
 70
     1
102
RTVSPost2010Prop38
140
0.0
102
RTVSPost2010PropOp38
 70
     1
102
RTVSPost2010Prop39
140
1.0
102
RTVSPost2010PropOp39
 70
     1
102
RTVSPost2010Prop40
 90
        0
102
RTVSPost2010PropOp40
 70
     1
102
RTVSPost2010Prop41ColorIndex
 90
       18
102
RTVSPost2010Prop41ColorRGB
 90
        0
102
RTVSPost2010PropOp41
 70
     1
102
RTVSPost2010Prop42
 90
       50
102
RTVSPost2010PropOp42
 70
     1
102
RTVSPost2010Prop43
 90
        3
102
RTVSPost2010PropOp43
 70
     1
102
RTVSPost2010Prop44ColorIndex
 90
        5
102
RTVSPost2010Prop44ColorRGB
 90
      255
102
RTVSPost2010PropOp44
 70
     1
102
RTVSPost2010Prop45
280
     0
102
RTVSPost2010PropOp45
 70
     1
102
RTVSPost2010Prop46
 90
       50
102
RTVSPost2010PropOp46
 70
     1
102
RTVSPost2010Prop47
 90
       50
102
RTVSPost2010PropOp47
 70
     1
102
RTVSPost2010Prop48
 90
       50
102
RTVSPost2010PropOp48
 70
     1
102
RTVSPost2010Prop49
280
     0
102
RTVSPost2010PropOp49
 70
     1
102
RTVSPost2010Prop50
 90
       50
102
RTVSPost2010PropOp50
 70
     1
102
RTVSPost2010Prop51ColorIndex
 90
      256
102
RTVSPost2010Prop51ColorRGB
 90
-16777216
102
RTVSPost2010PropOp51
 70
     0
102
RTVSPost2010Prop52
140
1.0
102
RTVSPost2010PropOp52
 70
     0
102
RTVSPost2010Prop53
 90
        2
102
RTVSPost2010PropOp53
 70
     1
102
RTVSPost2010Prop54
  1
strokes_ogs.tif
102
RTVSPost2010PropOp54
 70
     1
102
RTVSPost2010Prop55
280
     0
102
RTVSPost2010PropOp55
 70
     1
102
RTVSPost2010Prop56
140
1.0
102
RTVSPost2010PropOp56
 70
     1
102
RTVSPost2010Prop57
140
1.0
102
RTVSPost2010PropOp57
 70
     1
102
RTVSPropertyOp0
 70
     1
102
RTVSPropertyOp1
 70
     1
102
RTVSPropertyOp2
 70
     1
102
RTVSPropertyOp3
 70
     1
102
RTVSPropertyOp4
 70
     1
102
RTVSPropertyOp5
 70
     1
102
RTVSPropertyOp6
 70
     1
102
RTVSPropertyOp7
 70
     1
102
RTVSPropertyOp8
 70
     1
102
RTVSPropertyOp9
 70
     1
102
RTVSPropertyOp10
 70
     1
102
RTVSPropertyOp11
 70
     1
102
RTVSPropertyOp12
 70
     1
102
RTVSPropertyOp13
 70
     1
102
RTVSPropertyOp14
 70
     1
102
RTVSPropertyOp15
 70
     1
102
RTVSPropertyOp16
 70
     1
102
RTVSPropertyOp17
 70
     1
102
RTVSPropertyOp18
 70
     1
102
RTVSPropertyOp19
 70
     1
102
RTVSPropertyOp20
 70
     1
102
RTVSPropertyOp21
 70
     1
102
RTVSPropertyOp22
 70
     1
102
RTVSPropertyOp23
 70
     1
102
RTVSPropertyOp24
 70
     1
102
RTVSPropertyOp25
 70
     1
102
RTVSPropertyOp26
 70
     1
102
RTVSPropertyOp27
 70
     1
102
RTVSPropertyOp28
 70
     1
102
RTVSPropertyOp29
 70
     1
102
RTVSPropertyOp30
 70
     1
102
RTVSPropertyOp31
 70
     1
102
RTVSPropertyOp32
 70
     1
102
RTVSPropertyOp33
 70
     1
102
RTVSPropertyOp34
 70
     1
102
RTVSPropertyOp35
 70
     1
102
RTVSPropertyOp36
 70
     1
102
RTVSPropertyOp37
 70
     1
102
RTVSPropertyOp38
 70
     1
102
RTVSPropertyOp39
 70
     1
102
RTVSPropertyOp40
 70
     1
102
RTVSPropertyOp41
 70
     1
102
RTVSPropertyOp42
 70
     1
102
RTVSPropertyOp43
 70
     1
102
RTVSPropertyOp44
 70
     1
102
RTVSPropertyOp45
 70
     1
102
RTVSPropertyOp46
 70
     1
102
RTVSPropertyOp47
 70
     1
102
RTVSPropertyOp48
 70
     1
102
RTVSPropertyOp49
 70
     1
102
RTVSPropertyOp50
 70
     1
102
RTVSPropertyOp51
 70
     0
102
RTVSPropertyOp52
 70
     0
102
RTVSPropertyOp53
 70
     1
102
RTVSPropertyOp54
 70
     1
102
RTVSPropertyOp55
 70
     1
102
RTVSPropertyOp56
 70
     1
102
RTVSPropertyOp57
 70
     1
102
RTVSPropertyOp58
 70
     1
102
RTVSPropertyOp59
 70
     1
102
RTVSPropertyOp60
 70
     1
102
RTVSPropertyOp61
 70
     1
102
RTVSPropertyOp62
 70
     1
  0
XRECORD
  5
99C1
102
{ACAD_REACTORS
330
99C0
102
}
330
99C0
100
AcDbXrecord
280
     1
102
RTVSPost2010Prop28
280
     0
102
RTVSPost2010PropOp28
 70
     1
102
RTVSPost2010Prop29
280
     1
102
RTVSPost2010PropOp29
 70
     1
102
RTVSPost2010Prop30
280
     1
102
RTVSPost2010PropOp30
 70
     1
102
RTVSPost2010Prop31
280
     0
102
RTVSPost2010PropOp31
 70
     1
102
RTVSPost2010Prop32
280
     0
102
RTVSPost2010PropOp32
 70
     1
102
RTVSPost2010Prop33
280
     0
102
RTVSPost2010PropOp33
 70
     1
102
RTVSPost2010Prop34
280
     0
102
RTVSPost2010PropOp34
 70
     1
102
RTVSPost2010Prop35
280
     0
102
RTVSPost2010PropOp35
 70
     1
102
RTVSPost2010Prop36
280
     0
102
RTVSPost2010PropOp36
 70
     1
102
RTVSPost2010Prop37
 90
       50
102
RTVSPost2010PropOp37
 70
     1
102
RTVSPost2010Prop38
140
0.0
102
RTVSPost2010PropOp38
 70
     1
102
RTVSPost2010Prop39
140
1.0
102
RTVSPost2010PropOp39
 70
     1
102
RTVSPost2010Prop40
 90
        0
102
RTVSPost2010PropOp40
 70
     1
102
RTVSPost2010Prop41ColorIndex
 90
       18
102
RTVSPost2010Prop41ColorRGB
 90
        0
102
RTVSPost2010PropOp41
 70
     1
102
RTVSPost2010Prop42
 90
       50
102
RTVSPost2010PropOp42
 70
     1
102
RTVSPost2010Prop43
 90
        3
102
RTVSPost2010PropOp43
 70
     1
102
RTVSPost2010Prop44ColorIndex
 90
        5
102
RTVSPost2010Prop44ColorRGB
 90
      255
102
RTVSPost2010PropOp44
 70
     1
102
RTVSPost2010Prop45
280
     0
102
RTVSPost2010PropOp45
 70
     1
102
RTVSPost2010Prop46
 90
       50
102
RTVSPost2010PropOp46
 70
     1
102
RTVSPost2010Prop47
 90
       50
102
RTVSPost2010PropOp47
 70
     1
102
RTVSPost2010Prop48
 90
       50
102
RTVSPost2010PropOp48
 70
     1
102
RTVSPost2010Prop49
280
     0
102
RTVSPost2010PropOp49
 70
     1
102
RTVSPost2010Prop50
 90
       50
102
RTVSPost2010PropOp50
 70
     1
102
RTVSPost2010Prop51ColorIndex
 90
      256
102
RTVSPost2010Prop51ColorRGB
 90
-16777216
102
RTVSPost2010PropOp51
 70
     0
102
RTVSPost2010Prop52
140
1.0
102
RTVSPost2010PropOp52
 70
     0
102
RTVSPost2010Prop53
 90
        2
102
RTVSPost2010PropOp53
 70
     1
102
RTVSPost2010Prop54
  1
strokes_ogs.tif
102
RTVSPost2010PropOp54
 70
     1
102
RTVSPost2010Prop55
280
     0
102
RTVSPost2010PropOp55
 70
     1
102
RTVSPost2010Prop56
140
1.0
102
RTVSPost2010PropOp56
 70
     1
102
RTVSPost2010Prop57
140
1.0
102
RTVSPost2010PropOp57
 70
     1
102
RTVSPropertyOp0
 70
     1
102
RTVSPropertyOp1
 70
     1
102
RTVSPropertyOp2
 70
     1
102
RTVSPropertyOp3
 70
     1
102
RTVSPropertyOp4
 70
     1
102
RTVSPropertyOp5
 70
     1
102
RTVSPropertyOp6
 70
     1
102
RTVSPropertyOp7
 70
     1
102
RTVSPropertyOp8
 70
     1
102
RTVSPropertyOp9
 70
     1
102
RTVSPropertyOp10
 70
     1
102
RTVSPropertyOp11
 70
     1
102
RTVSPropertyOp12
 70
     1
102
RTVSPropertyOp13
 70
     1
102
RTVSPropertyOp14
 70
     1
102
RTVSPropertyOp15
 70
     1
102
RTVSPropertyOp16
 70
     1
102
RTVSPropertyOp17
 70
     1
102
RTVSPropertyOp18
 70
     1
102
RTVSPropertyOp19
 70
     1
102
RTVSPropertyOp20
 70
     1
102
RTVSPropertyOp21
 70
     1
102
RTVSPropertyOp22
 70
     1
102
RTVSPropertyOp23
 70
     1
102
RTVSPropertyOp24
 70
     1
102
RTVSPropertyOp25
 70
     1
102
RTVSPropertyOp26
 70
     1
102
RTVSPropertyOp27
 70
     1
102
RTVSPropertyOp28
 70
     1
102
RTVSPropertyOp29
 70
     1
102
RTVSPropertyOp30
 70
     1
102
RTVSPropertyOp31
 70
     1
102
RTVSPropertyOp32
 70
     1
102
RTVSPropertyOp33
 70
     1
102
RTVSPropertyOp34
 70
     1
102
RTVSPropertyOp35
 70
     1
102
RTVSPropertyOp36
 70
     1
102
RTVSPropertyOp37
 70
     1
102
RTVSPropertyOp38
 70
     1
102
RTVSPropertyOp39
 70
     1
102
RTVSPropertyOp40
 70
     1
102
RTVSPropertyOp41
 70
     1
102
RTVSPropertyOp42
 70
     1
102
RTVSPropertyOp43
 70
     1
102
RTVSPropertyOp44
 70
     1
102
RTVSPropertyOp45
 70
     1
102
RTVSPropertyOp46
 70
     1
102
RTVSPropertyOp47
 70
     1
102
RTVSPropertyOp48
 70
     1
102
RTVSPropertyOp49
 70
     1
102
RTVSPropertyOp50
 70
     1
102
RTVSPropertyOp51
 70
     0
102
RTVSPropertyOp52
 70
     0
102
RTVSPropertyOp53
 70
     1
102
RTVSPropertyOp54
 70
     1
102
RTVSPropertyOp55
 70
     1
102
RTVSPropertyOp56
 70
     1
102
RTVSPropertyOp57
 70
     1
102
RTVSPropertyOp58
 70
     1
102
RTVSPropertyOp59
 70
     1
102
RTVSPropertyOp60
 70
     1
102
RTVSPropertyOp61
 70
     1
102
RTVSPropertyOp62
 70
     1
  0
XRECORD
  5
99C3
102
{ACAD_REACTORS
330
99C2
102
}
330
99C2
100
AcDbXrecord
280
     1
102
RTVSPost2010Prop28
280
     0
102
RTVSPost2010PropOp28
 70
     1
102
RTVSPost2010Prop29
280
     1
102
RTVSPost2010PropOp29
 70
     1
102
RTVSPost2010Prop30
280
     1
102
RTVSPost2010PropOp30
 70
     1
102
RTVSPost2010Prop31
280
     0
102
RTVSPost2010PropOp31
 70
     1
102
RTVSPost2010Prop32
280
     0
102
RTVSPost2010PropOp32
 70
     1
102
RTVSPost2010Prop33
280
     0
102
RTVSPost2010PropOp33
 70
     1
102
RTVSPost2010Prop34
280
     0
102
RTVSPost2010PropOp34
 70
     1
102
RTVSPost2010Prop35
280
     0
102
RTVSPost2010PropOp35
 70
     1
102
RTVSPost2010Prop36
280
     0
102
RTVSPost2010PropOp36
 70
     1
102
RTVSPost2010Prop37
 90
       50
102
RTVSPost2010PropOp37
 70
     1
102
RTVSPost2010Prop38
140
0.0
102
RTVSPost2010PropOp38
 70
     1
102
RTVSPost2010Prop39
140
1.0
102
RTVSPost2010PropOp39
 70
     1
102
RTVSPost2010Prop40
 90
        0
102
RTVSPost2010PropOp40
 70
     1
102
RTVSPost2010Prop41ColorIndex
 90
       18
102
RTVSPost2010Prop41ColorRGB
 90
        0
102
RTVSPost2010PropOp41
 70
     1
102
RTVSPost2010Prop42
 90
       50
102
RTVSPost2010PropOp42
 70
     1
102
RTVSPost2010Prop43
 90
        3
102
RTVSPost2010PropOp43
 70
     1
102
RTVSPost2010Prop44ColorIndex
 90
        5
102
RTVSPost2010Prop44ColorRGB
 90
      255
102
RTVSPost2010PropOp44
 70
     1
102
RTVSPost2010Prop45
280
     0
102
RTVSPost2010PropOp45
 70
     1
102
RTVSPost2010Prop46
 90
       50
102
RTVSPost2010PropOp46
 70
     1
102
RTVSPost2010Prop47
 90
       50
102
RTVSPost2010PropOp47
 70
     1
102
RTVSPost2010Prop48
 90
       50
102
RTVSPost2010PropOp48
 70
     1
102
RTVSPost2010Prop49
280
     0
102
RTVSPost2010PropOp49
 70
     1
102
RTVSPost2010Prop50
 90
       50
102
RTVSPost2010PropOp50
 70
     1
102
RTVSPost2010Prop51ColorIndex
 90
      256
102
RTVSPost2010Prop51ColorRGB
 90
-16777216
102
RTVSPost2010PropOp51
 70
     0
102
RTVSPost2010Prop52
140
1.0
102
RTVSPost2010PropOp52
 70
     0
102
RTVSPost2010Prop53
 90
        2
102
RTVSPost2010PropOp53
 70
     1
102
RTVSPost2010Prop54
  1
strokes_ogs.tif
102
RTVSPost2010PropOp54
 70
     1
102
RTVSPost2010Prop55
280
     0
102
RTVSPost2010PropOp55
 70
     1
102
RTVSPost2010Prop56
140
1.0
102
RTVSPost2010PropOp56
 70
     1
102
RTVSPost2010Prop57
140
1.0
102
RTVSPost2010PropOp57
 70
     1
102
RTVSPropertyOp0
 70
     1
102
RTVSPropertyOp1
 70
     1
102
RTVSPropertyOp2
 70
     1
102
RTVSPropertyOp3
 70
     1
102
RTVSPropertyOp4
 70
     1
102
RTVSPropertyOp5
 70
     1
102
RTVSPropertyOp6
 70
     1
102
RTVSPropertyOp7
 70
     1
102
RTVSPropertyOp8
 70
     1
102
RTVSPropertyOp9
 70
     1
102
RTVSPropertyOp10
 70
     1
102
RTVSPropertyOp11
 70
     1
102
RTVSPropertyOp12
 70
     1
102
RTVSPropertyOp13
 70
     1
102
RTVSPropertyOp14
 70
     1
102
RTVSPropertyOp15
 70
     1
102
RTVSPropertyOp16
 70
     1
102
RTVSPropertyOp17
 70
     1
102
RTVSPropertyOp18
 70
     1
102
RTVSPropertyOp19
 70
     1
102
RTVSPropertyOp20
 70
     1
102
RTVSPropertyOp21
 70
     1
102
RTVSPropertyOp22
 70
     1
102
RTVSPropertyOp23
 70
     1
102
RTVSPropertyOp24
 70
     1
102
RTVSPropertyOp25
 70
     1
102
RTVSPropertyOp26
 70
     1
102
RTVSPropertyOp27
 70
     1
102
RTVSPropertyOp28
 70
     1
102
RTVSPropertyOp29
 70
     1
102
RTVSPropertyOp30
 70
     1
102
RTVSPropertyOp31
 70
     1
102
RTVSPropertyOp32
 70
     1
102
RTVSPropertyOp33
 70
     1
102
RTVSPropertyOp34
 70
     1
102
RTVSPropertyOp35
 70
     1
102
RTVSPropertyOp36
 70
     1
102
RTVSPropertyOp37
 70
     1
102
RTVSPropertyOp38
 70
     1
102
RTVSPropertyOp39
 70
     1
102
RTVSPropertyOp40
 70
     1
102
RTVSPropertyOp41
 70
     1
102
RTVSPropertyOp42
 70
     1
102
RTVSPropertyOp43
 70
     1
102
RTVSPropertyOp44
 70
     1
102
RTVSPropertyOp45
 70
     1
102
RTVSPropertyOp46
 70
     1
102
RTVSPropertyOp47
 70
     1
102
RTVSPropertyOp48
 70
     1
102
RTVSPropertyOp49
 70
     1
102
RTVSPropertyOp50
 70
     1
102
RTVSPropertyOp51
 70
     0
102
RTVSPropertyOp52
 70
     0
102
RTVSPropertyOp53
 70
     1
102
RTVSPropertyOp54
 70
     1
102
RTVSPropertyOp55
 70
     1
102
RTVSPropertyOp56
 70
     1
102
RTVSPropertyOp57
 70
     1
102
RTVSPropertyOp58
 70
     1
102
RTVSPropertyOp59
 70
     1
102
RTVSPropertyOp60
 70
     1
102
RTVSPropertyOp61
 70
     1
102
RTVSPropertyOp62
 70
     1
  0
XRECORD
  5
99C5
102
{ACAD_REACTORS
330
99C4
102
}
330
99C4
100
AcDbXrecord
280
     1
102
RTVSPost2010Prop28
280
     0
102
RTVSPost2010PropOp28
 70
     1
102
RTVSPost2010Prop29
280
     1
102
RTVSPost2010PropOp29
 70
     1
102
RTVSPost2010Prop30
280
     1
102
RTVSPost2010PropOp30
 70
     1
102
RTVSPost2010Prop31
280
     0
102
RTVSPost2010PropOp31
 70
     1
102
RTVSPost2010Prop32
280
     0
102
RTVSPost2010PropOp32
 70
     1
102
RTVSPost2010Prop33
280
     0
102
RTVSPost2010PropOp33
 70
     1
102
RTVSPost2010Prop34
280
     0
102
RTVSPost2010PropOp34
 70
     1
102
RTVSPost2010Prop35
280
     0
102
RTVSPost2010PropOp35
 70
     1
102
RTVSPost2010Prop36
280
     0
102
RTVSPost2010PropOp36
 70
     1
102
RTVSPost2010Prop37
 90
       50
102
RTVSPost2010PropOp37
 70
     1
102
RTVSPost2010Prop38
140
0.0
102
RTVSPost2010PropOp38
 70
     1
102
RTVSPost2010Prop39
140
1.0
102
RTVSPost2010PropOp39
 70
     1
102
RTVSPost2010Prop40
 90
        0
102
RTVSPost2010PropOp40
 70
     1
102
RTVSPost2010Prop41ColorIndex
 90
       18
102
RTVSPost2010Prop41ColorRGB
 90
        0
102
RTVSPost2010PropOp41
 70
     1
102
RTVSPost2010Prop42
 90
       50
102
RTVSPost2010PropOp42
 70
     1
102
RTVSPost2010Prop43
 90
        3
102
RTVSPost2010PropOp43
 70
     1
102
RTVSPost2010Prop44ColorIndex
 90
        5
102
RTVSPost2010Prop44ColorRGB
 90
      255
102
RTVSPost2010PropOp44
 70
     1
102
RTVSPost2010Prop45
280
     0
102
RTVSPost2010PropOp45
 70
     1
102
RTVSPost2010Prop46
 90
       50
102
RTVSPost2010PropOp46
 70
     1
102
RTVSPost2010Prop47
 90
       50
102
RTVSPost2010PropOp47
 70
     1
102
RTVSPost2010Prop48
 90
       50
102
RTVSPost2010PropOp48
 70
     1
102
RTVSPost2010Prop49
280
     0
102
RTVSPost2010PropOp49
 70
     1
102
RTVSPost2010Prop50
 90
       50
102
RTVSPost2010PropOp50
 70
     1
102
RTVSPost2010Prop51ColorIndex
 90
      256
102
RTVSPost2010Prop51ColorRGB
 90
-16777216
102
RTVSPost2010PropOp51
 70
     0
102
RTVSPost2010Prop52
140
1.0
102
RTVSPost2010PropOp52
 70
     0
102
RTVSPost2010Prop53
 90
        2
102
RTVSPost2010PropOp53
 70
     1
102
RTVSPost2010Prop54
  1
strokes_ogs.tif
102
RTVSPost2010PropOp54
 70
     1
102
RTVSPost2010Prop55
280
     0
102
RTVSPost2010PropOp55
 70
     1
102
RTVSPost2010Prop56
140
1.0
102
RTVSPost2010PropOp56
 70
     1
102
RTVSPost2010Prop57
140
1.0
102
RTVSPost2010PropOp57
 70
     1
102
RTVSPropertyOp0
 70
     1
102
RTVSPropertyOp1
 70
     1
102
RTVSPropertyOp2
 70
     1
102
RTVSPropertyOp3
 70
     1
102
RTVSPropertyOp4
 70
     1
102
RTVSPropertyOp5
 70
     1
102
RTVSPropertyOp6
 70
     1
102
RTVSPropertyOp7
 70
     1
102
RTVSPropertyOp8
 70
     1
102
RTVSPropertyOp9
 70
     1
102
RTVSPropertyOp10
 70
     1
102
RTVSPropertyOp11
 70
     1
102
RTVSPropertyOp12
 70
     1
102
RTVSPropertyOp13
 70
     1
102
RTVSPropertyOp14
 70
     1
102
RTVSPropertyOp15
 70
     1
102
RTVSPropertyOp16
 70
     1
102
RTVSPropertyOp17
 70
     1
102
RTVSPropertyOp18
 70
     1
102
RTVSPropertyOp19
 70
     1
102
RTVSPropertyOp20
 70
     1
102
RTVSPropertyOp21
 70
     1
102
RTVSPropertyOp22
 70
     1
102
RTVSPropertyOp23
 70
     1
102
RTVSPropertyOp24
 70
     1
102
RTVSPropertyOp25
 70
     1
102
RTVSPropertyOp26
 70
     1
102
RTVSPropertyOp27
 70
     1
102
RTVSPropertyOp28
 70
     1
102
RTVSPropertyOp29
 70
     1
102
RTVSPropertyOp30
 70
     1
102
RTVSPropertyOp31
 70
     1
102
RTVSPropertyOp32
 70
     1
102
RTVSPropertyOp33
 70
     1
102
RTVSPropertyOp34
 70
     1
102
RTVSPropertyOp35
 70
     1
102
RTVSPropertyOp36
 70
     1
102
RTVSPropertyOp37
 70
     1
102
RTVSPropertyOp38
 70
     1
102
RTVSPropertyOp39
 70
     1
102
RTVSPropertyOp40
 70
     1
102
RTVSPropertyOp41
 70
     1
102
RTVSPropertyOp42
 70
     1
102
RTVSPropertyOp43
 70
     1
102
RTVSPropertyOp44
 70
     1
102
RTVSPropertyOp45
 70
     1
102
RTVSPropertyOp46
 70
     1
102
RTVSPropertyOp47
 70
     1
102
RTVSPropertyOp48
 70
     1
102
RTVSPropertyOp49
 70
     1
102
RTVSPropertyOp50
 70
     1
102
RTVSPropertyOp51
 70
     0
102
RTVSPropertyOp52
 70
     0
102
RTVSPropertyOp53
 70
     1
102
RTVSPropertyOp54
 70
     1
102
RTVSPropertyOp55
 70
     1
102
RTVSPropertyOp56
 70
     1
102
RTVSPropertyOp57
 70
     1
102
RTVSPropertyOp58
 70
     1
102
RTVSPropertyOp59
 70
     1
102
RTVSPropertyOp60
 70
     1
102
RTVSPropertyOp61
 70
     1
102
RTVSPropertyOp62
 70
     1
  0
XRECORD
  5
99C7
102
{ACAD_REACTORS
330
99C6
102
}
330
99C6
100
AcDbXrecord
280
     1
102
RTVSPost2010Prop28
280
     0
102
RTVSPost2010PropOp28
 70
     1
102
RTVSPost2010Prop29
280
     1
102
RTVSPost2010PropOp29
 70
     1
102
RTVSPost2010Prop30
280
     1
102
RTVSPost2010PropOp30
 70
     1
102
RTVSPost2010Prop31
280
     0
102
RTVSPost2010PropOp31
 70
     1
102
RTVSPost2010Prop32
280
     0
102
RTVSPost2010PropOp32
 70
     1
102
RTVSPost2010Prop33
280
     0
102
RTVSPost2010PropOp33
 70
     1
102
RTVSPost2010Prop34
280
     0
102
RTVSPost2010PropOp34
 70
     1
102
RTVSPost2010Prop35
280
     0
102
RTVSPost2010PropOp35
 70
     1
102
RTVSPost2010Prop36
280
     0
102
RTVSPost2010PropOp36
 70
     1
102
RTVSPost2010Prop37
 90
       50
102
RTVSPost2010PropOp37
 70
     1
102
RTVSPost2010Prop38
140
0.0
102
RTVSPost2010PropOp38
 70
     1
102
RTVSPost2010Prop39
140
1.0
102
RTVSPost2010PropOp39
 70
     1
102
RTVSPost2010Prop40
 90
        0
102
RTVSPost2010PropOp40
 70
     1
102
RTVSPost2010Prop41ColorIndex
 90
       18
102
RTVSPost2010Prop41ColorRGB
 90
        0
102
RTVSPost2010PropOp41
 70
     1
102
RTVSPost2010Prop42
 90
       50
102
RTVSPost2010PropOp42
 70
     1
102
RTVSPost2010Prop43
 90
        3
102
RTVSPost2010PropOp43
 70
     1
102
RTVSPost2010Prop44ColorIndex
 90
        5
102
RTVSPost2010Prop44ColorRGB
 90
      255
102
RTVSPost2010PropOp44
 70
     1
102
RTVSPost2010Prop45
280
     0
102
RTVSPost2010PropOp45
 70
     1
102
RTVSPost2010Prop46
 90
       50
102
RTVSPost2010PropOp46
 70
     1
102
RTVSPost2010Prop47
 90
       50
102
RTVSPost2010PropOp47
 70
     1
102
RTVSPost2010Prop48
 90
       50
102
RTVSPost2010PropOp48
 70
     1
102
RTVSPost2010Prop49
280
     0
102
RTVSPost2010PropOp49
 70
     1
102
RTVSPost2010Prop50
 90
       50
102
RTVSPost2010PropOp50
 70
     1
102
RTVSPost2010Prop51ColorIndex
 90
      256
102
RTVSPost2010Prop51ColorRGB
 90
-16777216
102
RTVSPost2010PropOp51
 70
     0
102
RTVSPost2010Prop52
140
1.0
102
RTVSPost2010PropOp52
 70
     0
102
RTVSPost2010Prop53
 90
        2
102
RTVSPost2010PropOp53
 70
     1
102
RTVSPost2010Prop54
  1
strokes_ogs.tif
102
RTVSPost2010PropOp54
 70
     1
102
RTVSPost2010Prop55
280
     0
102
RTVSPost2010PropOp55
 70
     1
102
RTVSPost2010Prop56
140
1.0
102
RTVSPost2010PropOp56
 70
     1
102
RTVSPost2010Prop57
140
1.0
102
RTVSPost2010PropOp57
 70
     1
102
RTVSPropertyOp0
 70
     1
102
RTVSPropertyOp1
 70
     1
102
RTVSPropertyOp2
 70
     1
102
RTVSPropertyOp3
 70
     1
102
RTVSPropertyOp4
 70
     1
102
RTVSPropertyOp5
 70
     1
102
RTVSPropertyOp6
 70
     1
102
RTVSPropertyOp7
 70
     1
102
RTVSPropertyOp8
 70
     1
102
RTVSPropertyOp9
 70
     1
102
RTVSPropertyOp10
 70
     1
102
RTVSPropertyOp11
 70
     1
102
RTVSPropertyOp12
 70
     1
102
RTVSPropertyOp13
 70
     1
102
RTVSPropertyOp14
 70
     1
102
RTVSPropertyOp15
 70
     1
102
RTVSPropertyOp16
 70
     1
102
RTVSPropertyOp17
 70
     1
102
RTVSPropertyOp18
 70
     1
102
RTVSPropertyOp19
 70
     1
102
RTVSPropertyOp20
 70
     1
102
RTVSPropertyOp21
 70
     1
102
RTVSPropertyOp22
 70
     1
102
RTVSPropertyOp23
 70
     1
102
RTVSPropertyOp24
 70
     1
102
RTVSPropertyOp25
 70
     1
102
RTVSPropertyOp26
 70
     1
102
RTVSPropertyOp27
 70
     1
102
RTVSPropertyOp28
 70
     1
102
RTVSPropertyOp29
 70
     1
102
RTVSPropertyOp30
 70
     1
102
RTVSPropertyOp31
 70
     1
102
RTVSPropertyOp32
 70
     1
102
RTVSPropertyOp33
 70
     1
102
RTVSPropertyOp34
 70
     1
102
RTVSPropertyOp35
 70
     1
102
RTVSPropertyOp36
 70
     1
102
RTVSPropertyOp37
 70
     1
102
RTVSPropertyOp38
 70
     1
102
RTVSPropertyOp39
 70
     1
102
RTVSPropertyOp40
 70
     1
102
RTVSPropertyOp41
 70
     1
102
RTVSPropertyOp42
 70
     1
102
RTVSPropertyOp43
 70
     1
102
RTVSPropertyOp44
 70
     1
102
RTVSPropertyOp45
 70
     1
102
RTVSPropertyOp46
 70
     1
102
RTVSPropertyOp47
 70
     1
102
RTVSPropertyOp48
 70
     1
102
RTVSPropertyOp49
 70
     1
102
RTVSPropertyOp50
 70
     1
102
RTVSPropertyOp51
 70
     0
102
RTVSPropertyOp52
 70
     0
102
RTVSPropertyOp53
 70
     1
102
RTVSPropertyOp54
 70
     1
102
RTVSPropertyOp55
 70
     1
102
RTVSPropertyOp56
 70
     1
102
RTVSPropertyOp57
 70
     1
102
RTVSPropertyOp58
 70
     1
102
RTVSPropertyOp59
 70
     1
102
RTVSPropertyOp60
 70
     1
102
RTVSPropertyOp61
 70
     1
102
RTVSPropertyOp62
 70
     1
  0
XRECORD
  5
99CF
102
{ACAD_REACTORS
330
99CE
102
}
330
99CE
100
AcDbXrecord
280
     1
102
RTVSPost2010Prop28
280
     0
102
RTVSPost2010PropOp28
 70
     1
102
RTVSPost2010Prop29
280
     1
102
RTVSPost2010PropOp29
 70
     1
102
RTVSPost2010Prop30
280
     1
102
RTVSPost2010PropOp30
 70
     1
102
RTVSPost2010Prop31
280
     0
102
RTVSPost2010PropOp31
 70
     1
102
RTVSPost2010Prop32
280
     0
102
RTVSPost2010PropOp32
 70
     1
102
RTVSPost2010Prop33
280
     0
102
RTVSPost2010PropOp33
 70
     1
102
RTVSPost2010Prop34
280
     0
102
RTVSPost2010PropOp34
 70
     1
102
RTVSPost2010Prop35
280
     0
102
RTVSPost2010PropOp35
 70
     1
102
RTVSPost2010Prop36
280
     0
102
RTVSPost2010PropOp36
 70
     1
102
RTVSPost2010Prop37
 90
       50
102
RTVSPost2010PropOp37
 70
     1
102
RTVSPost2010Prop38
140
0.0
102
RTVSPost2010PropOp38
 70
     1
102
RTVSPost2010Prop39
140
1.0
102
RTVSPost2010PropOp39
 70
     1
102
RTVSPost2010Prop40
 90
        0
102
RTVSPost2010PropOp40
 70
     1
102
RTVSPost2010Prop41ColorIndex
 90
       18
102
RTVSPost2010Prop41ColorRGB
 90
        0
102
RTVSPost2010PropOp41
 70
     1
102
RTVSPost2010Prop42
 90
       50
102
RTVSPost2010PropOp42
 70
     1
102
RTVSPost2010Prop43
 90
        3
102
RTVSPost2010PropOp43
 70
     1
102
RTVSPost2010Prop44ColorIndex
 90
        5
102
RTVSPost2010Prop44ColorRGB
 90
      255
102
RTVSPost2010PropOp44
 70
     1
102
RTVSPost2010Prop45
280
     0
102
RTVSPost2010PropOp45
 70
     1
102
RTVSPost2010Prop46
 90
       50
102
RTVSPost2010PropOp46
 70
     1
102
RTVSPost2010Prop47
 90
       50
102
RTVSPost2010PropOp47
 70
     1
102
RTVSPost2010Prop48
 90
       50
102
RTVSPost2010PropOp48
 70
     1
102
RTVSPost2010Prop49
280
     0
102
RTVSPost2010PropOp49
 70
     1
102
RTVSPost2010Prop50
 90
       50
102
RTVSPost2010PropOp50
 70
     1
102
RTVSPost2010Prop51ColorIndex
 90
      256
102
RTVSPost2010Prop51ColorRGB
 90
-16777216
102
RTVSPost2010PropOp51
 70
     0
102
RTVSPost2010Prop52
140
1.0
102
RTVSPost2010PropOp52
 70
     0
102
RTVSPost2010Prop53
 90
        2
102
RTVSPost2010PropOp53
 70
     1
102
RTVSPost2010Prop54
  1
strokes_ogs.tif
102
RTVSPost2010PropOp54
 70
     1
102
RTVSPost2010Prop55
280
     0
102
RTVSPost2010PropOp55
 70
     1
102
RTVSPost2010Prop56
140
1.0
102
RTVSPost2010PropOp56
 70
     1
102
RTVSPost2010Prop57
140
1.0
102
RTVSPost2010PropOp57
 70
     1
102
RTVSPropertyOp0
 70
     1
102
RTVSPropertyOp1
 70
     1
102
RTVSPropertyOp2
 70
     1
102
RTVSPropertyOp3
 70
     1
102
RTVSPropertyOp4
 70
     1
102
RTVSPropertyOp5
 70
     1
102
RTVSPropertyOp6
 70
     1
102
RTVSPropertyOp7
 70
     1
102
RTVSPropertyOp8
 70
     1
102
RTVSPropertyOp9
 70
     1
102
RTVSPropertyOp10
 70
     1
102
RTVSPropertyOp11
 70
     1
102
RTVSPropertyOp12
 70
     1
102
RTVSPropertyOp13
 70
     1
102
RTVSPropertyOp14
 70
     1
102
RTVSPropertyOp15
 70
     1
102
RTVSPropertyOp16
 70
     1
102
RTVSPropertyOp17
 70
     1
102
RTVSPropertyOp18
 70
     1
102
RTVSPropertyOp19
 70
     1
102
RTVSPropertyOp20
 70
     1
102
RTVSPropertyOp21
 70
     1
102
RTVSPropertyOp22
 70
     1
102
RTVSPropertyOp23
 70
     1
102
RTVSPropertyOp24
 70
     1
102
RTVSPropertyOp25
 70
     1
102
RTVSPropertyOp26
 70
     1
102
RTVSPropertyOp27
 70
     1
102
RTVSPropertyOp28
 70
     1
102
RTVSPropertyOp29
 70
     1
102
RTVSPropertyOp30
 70
     1
102
RTVSPropertyOp31
 70
     1
102
RTVSPropertyOp32
 70
     1
102
RTVSPropertyOp33
 70
     1
102
RTVSPropertyOp34
 70
     1
102
RTVSPropertyOp35
 70
     1
102
RTVSPropertyOp36
 70
     1
102
RTVSPropertyOp37
 70
     1
102
RTVSPropertyOp38
 70
     1
102
RTVSPropertyOp39
 70
     1
102
RTVSPropertyOp40
 70
     1
102
RTVSPropertyOp41
 70
     1
102
RTVSPropertyOp42
 70
     1
102
RTVSPropertyOp43
 70
     1
102
RTVSPropertyOp44
 70
     1
102
RTVSPropertyOp45
 70
     1
102
RTVSPropertyOp46
 70
     1
102
RTVSPropertyOp47
 70
     1
102
RTVSPropertyOp48
 70
     1
102
RTVSPropertyOp49
 70
     1
102
RTVSPropertyOp50
 70
     1
102
RTVSPropertyOp51
 70
     0
102
RTVSPropertyOp52
 70
     0
102
RTVSPropertyOp53
 70
     1
102
RTVSPropertyOp54
 70
     1
102
RTVSPropertyOp55
 70
     1
102
RTVSPropertyOp56
 70
     1
102
RTVSPropertyOp57
 70
     1
102
RTVSPropertyOp58
 70
     1
102
RTVSPropertyOp59
 70
     1
102
RTVSPropertyOp60
 70
     1
102
RTVSPropertyOp61
 70
     1
102
RTVSPropertyOp62
 70
     1
  0
XRECORD
  5
99EB
102
{ACAD_REACTORS
330
99EA
102
}
330
99EA
100
AcDbXrecord
280
     1
102
RTVSPost2010Prop28
280
     0
102
RTVSPost2010PropOp28
 70
     1
102
RTVSPost2010Prop29
280
     1
102
RTVSPost2010PropOp29
 70
     1
102
RTVSPost2010Prop30
280
     1
102
RTVSPost2010PropOp30
 70
     1
102
RTVSPost2010Prop31
280
     0
102
RTVSPost2010PropOp31
 70
     1
102
RTVSPost2010Prop32
280
     0
102
RTVSPost2010PropOp32
 70
     1
102
RTVSPost2010Prop33
280
     0
102
RTVSPost2010PropOp33
 70
     1
102
RTVSPost2010Prop34
280
     0
102
RTVSPost2010PropOp34
 70
     1
102
RTVSPost2010Prop35
280
     0
102
RTVSPost2010PropOp35
 70
     1
102
RTVSPost2010Prop36
280
     0
102
RTVSPost2010PropOp36
 70
     1
102
RTVSPost2010Prop37
 90
       50
102
RTVSPost2010PropOp37
 70
     0
102
RTVSPost2010Prop38
140
0.0
102
RTVSPost2010PropOp38
 70
     0
102
RTVSPost2010Prop39
140
1.0
102
RTVSPost2010PropOp39
 70
     0
102
RTVSPost2010Prop40
 90
        0
102
RTVSPost2010PropOp40
 70
     0
102
RTVSPost2010Prop41ColorIndex
 90
       18
102
RTVSPost2010Prop41ColorRGB
 90
        0
102
RTVSPost2010PropOp41
 70
     0
102
RTVSPost2010Prop42
 90
       50
102
RTVSPost2010PropOp42
 70
     0
102
RTVSPost2010Prop43
 90
        3
102
RTVSPost2010PropOp43
 70
     0
102
RTVSPost2010Prop44ColorIndex
 90
        5
102
RTVSPost2010Prop44ColorRGB
 90
      255
102
RTVSPost2010PropOp44
 70
     0
102
RTVSPost2010Prop45
280
     0
102
RTVSPost2010PropOp45
 70
     1
102
RTVSPost2010Prop46
 90
       50
102
RTVSPost2010PropOp46
 70
     0
102
RTVSPost2010Prop47
 90
       50
102
RTVSPost2010PropOp47
 70
     0
102
RTVSPost2010Prop48
 90
       50
102
RTVSPost2010PropOp48
 70
     0
102
RTVSPost2010Prop49
280
     0
102
RTVSPost2010PropOp49
 70
     1
102
RTVSPost2010Prop50
 90
       50
102
RTVSPost2010PropOp50
 70
     0
102
RTVSPost2010Prop51ColorIndex
 90
      256
102
RTVSPost2010Prop51ColorRGB
 90
-16777216
102
RTVSPost2010PropOp51
 70
     0
102
RTVSPost2010Prop52
140
1.0
102
RTVSPost2010PropOp52
 70
     0
102
RTVSPost2010Prop53
 90
        2
102
RTVSPost2010PropOp53
 70
     0
102
RTVSPost2010Prop54
  1
strokes_ogs.tif
102
RTVSPost2010PropOp54
 70
     0
102
RTVSPost2010Prop55
280
     0
102
RTVSPost2010PropOp55
 70
     1
102
RTVSPost2010Prop56
140
1.0
102
RTVSPost2010PropOp56
 70
     0
102
RTVSPost2010Prop57
140
1.0
102
RTVSPost2010PropOp57
 70
     0
102
RTVSPropertyOp0
 70
     0
102
RTVSPropertyOp1
 70
     0
102
RTVSPropertyOp2
 70
     0
102
RTVSPropertyOp3
 70
     0
102
RTVSPropertyOp4
 70
     0
102
RTVSPropertyOp5
 70
     0
102
RTVSPropertyOp6
 70
     0
102
RTVSPropertyOp7
 70
     0
102
RTVSPropertyOp8
 70
     0
102
RTVSPropertyOp9
 70
     0
102
RTVSPropertyOp10
 70
     0
102
RTVSPropertyOp11
 70
     0
102
RTVSPropertyOp12
 70
     0
102
RTVSPropertyOp13
 70
     0
102
RTVSPropertyOp14
 70
     2
102
RTVSPropertyOp15
 70
     0
102
RTVSPropertyOp16
 70
     0
102
RTVSPropertyOp17
 70
     0
102
RTVSPropertyOp18
 70
     0
102
RTVSPropertyOp19
 70
     0
102
RTVSPropertyOp20
 70
     0
102
RTVSPropertyOp21
 70
     0
102
RTVSPropertyOp22
 70
     0
102
RTVSPropertyOp23
 70
     0
102
RTVSPropertyOp24
 70
     0
102
RTVSPropertyOp25
 70
     0
102
RTVSPropertyOp26
 70
     0
102
RTVSPropertyOp27
 70
     0
102
RTVSPropertyOp28
 70
     1
102
RTVSPropertyOp29
 70
     1
102
RTVSPropertyOp30
 70
     1
102
RTVSPropertyOp31
 70
     1
102
RTVSPropertyOp32
 70
     1
102
RTVSPropertyOp33
 70
     1
102
RTVSPropertyOp34
 70
     1
102
RTVSPropertyOp35
 70
     1
102
RTVSPropertyOp36
 70
     1
102
RTVSPropertyOp37
 70
     0
102
RTVSPropertyOp38
 70
     0
102
RTVSPropertyOp39
 70
     0
102
RTVSPropertyOp40
 70
     0
102
RTVSPropertyOp41
 70
     0
102
RTVSPropertyOp42
 70
     0
102
RTVSPropertyOp43
 70
     0
102
RTVSPropertyOp44
 70
     0
102
RTVSPropertyOp45
 70
     1
102
RTVSPropertyOp46
 70
     0
102
RTVSPropertyOp47
 70
     0
102
RTVSPropertyOp48
 70
     0
102
RTVSPropertyOp49
 70
     1
102
RTVSPropertyOp50
 70
     0
102
RTVSPropertyOp51
 70
     0
102
RTVSPropertyOp52
 70
     0
102
RTVSPropertyOp53
 70
     0
102
RTVSPropertyOp54
 70
     0
102
RTVSPropertyOp55
 70
     1
102
RTVSPropertyOp56
 70
     0
102
RTVSPropertyOp57
 70
     0
102
RTVSPropertyOp58
 70
     0
102
RTVSPropertyOp59
 70
     0
102
RTVSPropertyOp60
 70
     0
102
RTVSPropertyOp61
 70
     0
102
RTVSPropertyOp62
 70
     0
  0
XRECORD
  5
99DB
102
{ACAD_REACTORS
330
99DA
102
}
330
99DA
100
AcDbXrecord
280
     1
102
RTVSPost2010Prop28
280
     0
102
RTVSPost2010PropOp28
 70
     1
102
RTVSPost2010Prop29
280
     1
102
RTVSPost2010PropOp29
 70
     1
102
RTVSPost2010Prop30
280
     1
102
RTVSPost2010PropOp30
 70
     1
102
RTVSPost2010Prop31
280
     0
102
RTVSPost2010PropOp31
 70
     1
102
RTVSPost2010Prop32
280
     0
102
RTVSPost2010PropOp32
 70
     1
102
RTVSPost2010Prop33
280
     0
102
RTVSPost2010PropOp33
 70
     1
102
RTVSPost2010Prop34
280
     0
102
RTVSPost2010PropOp34
 70
     1
102
RTVSPost2010Prop35
280
     0
102
RTVSPost2010PropOp35
 70
     1
102
RTVSPost2010Prop36
280
     0
102
RTVSPost2010PropOp36
 70
     1
102
RTVSPost2010Prop37
 90
       50
102
RTVSPost2010PropOp37
 70
     1
102
RTVSPost2010Prop38
140
0.0
102
RTVSPost2010PropOp38
 70
     1
102
RTVSPost2010Prop39
140
1.0
102
RTVSPost2010PropOp39
 70
     1
102
RTVSPost2010Prop40
 90
        0
102
RTVSPost2010PropOp40
 70
     1
102
RTVSPost2010Prop41ColorIndex
 90
       18
102
RTVSPost2010Prop41ColorRGB
 90
        0
102
RTVSPost2010PropOp41
 70
     1
102
RTVSPost2010Prop42
 90
       50
102
RTVSPost2010PropOp42
 70
     1
102
RTVSPost2010Prop43
 90
        3
102
RTVSPost2010PropOp43
 70
     1
102
RTVSPost2010Prop44ColorIndex
 90
        5
102
RTVSPost2010Prop44ColorRGB
 90
      255
102
RTVSPost2010PropOp44
 70
     1
102
RTVSPost2010Prop45
280
     0
102
RTVSPost2010PropOp45
 70
     1
102
RTVSPost2010Prop46
 90
       50
102
RTVSPost2010PropOp46
 70
     1
102
RTVSPost2010Prop47
 90
       50
102
RTVSPost2010PropOp47
 70
     1
102
RTVSPost2010Prop48
 90
       50
102
RTVSPost2010PropOp48
 70
     1
102
RTVSPost2010Prop49
280
     0
102
RTVSPost2010PropOp49
 70
     1
102
RTVSPost2010Prop50
 90
       50
102
RTVSPost2010PropOp50
 70
     1
102
RTVSPost2010Prop51ColorIndex
 90
      256
102
RTVSPost2010Prop51ColorRGB
 90
-16777216
102
RTVSPost2010PropOp51
 70
     0
102
RTVSPost2010Prop52
140
1.0
102
RTVSPost2010PropOp52
 70
     0
102
RTVSPost2010Prop53
 90
        2
102
RTVSPost2010PropOp53
 70
     1
102
RTVSPost2010Prop54
  1
strokes_ogs.tif
102
RTVSPost2010PropOp54
 70
     1
102
RTVSPost2010Prop55
280
     0
102
RTVSPost2010PropOp55
 70
     1
102
RTVSPost2010Prop56
140
1.0
102
RTVSPost2010PropOp56
 70
     1
102
RTVSPost2010Prop57
140
1.0
102
RTVSPost2010PropOp57
 70
     1
102
RTVSPropertyOp0
 70
     1
102
RTVSPropertyOp1
 70
     1
102
RTVSPropertyOp2
 70
     1
102
RTVSPropertyOp3
 70
     1
102
RTVSPropertyOp4
 70
     1
102
RTVSPropertyOp5
 70
     1
102
RTVSPropertyOp6
 70
     1
102
RTVSPropertyOp7
 70
     1
102
RTVSPropertyOp8
 70
     1
102
RTVSPropertyOp9
 70
     1
102
RTVSPropertyOp10
 70
     1
102
RTVSPropertyOp11
 70
     1
102
RTVSPropertyOp12
 70
     1
102
RTVSPropertyOp13
 70
     1
102
RTVSPropertyOp14
 70
     1
102
RTVSPropertyOp15
 70
     1
102
RTVSPropertyOp16
 70
     1
102
RTVSPropertyOp17
 70
     1
102
RTVSPropertyOp18
 70
     1
102
RTVSPropertyOp19
 70
     1
102
RTVSPropertyOp20
 70
     1
102
RTVSPropertyOp21
 70
     1
102
RTVSPropertyOp22
 70
     1
102
RTVSPropertyOp23
 70
     1
102
RTVSPropertyOp24
 70
     1
102
RTVSPropertyOp25
 70
     1
102
RTVSPropertyOp26
 70
     1
102
RTVSPropertyOp27
 70
     1
102
RTVSPropertyOp28
 70
     1
102
RTVSPropertyOp29
 70
     1
102
RTVSPropertyOp30
 70
     1
102
RTVSPropertyOp31
 70
     1
102
RTVSPropertyOp32
 70
     1
102
RTVSPropertyOp33
 70
     1
102
RTVSPropertyOp34
 70
     1
102
RTVSPropertyOp35
 70
     1
102
RTVSPropertyOp36
 70
     1
102
RTVSPropertyOp37
 70
     1
102
RTVSPropertyOp38
 70
     1
102
RTVSPropertyOp39
 70
     1
102
RTVSPropertyOp40
 70
     1
102
RTVSPropertyOp41
 70
     1
102
RTVSPropertyOp42
 70
     1
102
RTVSPropertyOp43
 70
     1
102
RTVSPropertyOp44
 70
     1
102
RTVSPropertyOp45
 70
     1
102
RTVSPropertyOp46
 70
     1
102
RTVSPropertyOp47
 70
     1
102
RTVSPropertyOp48
 70
     1
102
RTVSPropertyOp49
 70
     1
102
RTVSPropertyOp50
 70
     1
102
RTVSPropertyOp51
 70
     0
102
RTVSPropertyOp52
 70
     0
102
RTVSPropertyOp53
 70
     1
102
RTVSPropertyOp54
 70
     1
102
RTVSPropertyOp55
 70
     1
102
RTVSPropertyOp56
 70
     1
102
RTVSPropertyOp57
 70
     1
102
RTVSPropertyOp58
 70
     1
102
RTVSPropertyOp59
 70
     1
102
RTVSPropertyOp60
 70
     1
102
RTVSPropertyOp61
 70
     1
102
RTVSPropertyOp62
 70
     1
  0
XRECORD
  5
99ED
102
{ACAD_REACTORS
330
99EC
102
}
330
99EC
100
AcDbXrecord
280
     1
102
RTVSPost2010Prop28
280
     0
102
RTVSPost2010PropOp28
 70
     1
102
RTVSPost2010Prop29
280
     1
102
RTVSPost2010PropOp29
 70
     1
102
RTVSPost2010Prop30
280
     1
102
RTVSPost2010PropOp30
 70
     1
102
RTVSPost2010Prop31
280
     0
102
RTVSPost2010PropOp31
 70
     1
102
RTVSPost2010Prop32
280
     0
102
RTVSPost2010PropOp32
 70
     1
102
RTVSPost2010Prop33
280
     0
102
RTVSPost2010PropOp33
 70
     1
102
RTVSPost2010Prop34
280
     0
102
RTVSPost2010PropOp34
 70
     1
102
RTVSPost2010Prop35
280
     0
102
RTVSPost2010PropOp35
 70
     1
102
RTVSPost2010Prop36
280
     0
102
RTVSPost2010PropOp36
 70
     1
102
RTVSPost2010Prop37
 90
       50
102
RTVSPost2010PropOp37
 70
     0
102
RTVSPost2010Prop38
140
0.0
102
RTVSPost2010PropOp38
 70
     0
102
RTVSPost2010Prop39
140
1.0
102
RTVSPost2010PropOp39
 70
     0
102
RTVSPost2010Prop40
 90
        0
102
RTVSPost2010PropOp40
 70
     0
102
RTVSPost2010Prop41ColorIndex
 90
       18
102
RTVSPost2010Prop41ColorRGB
 90
        0
102
RTVSPost2010PropOp41
 70
     0
102
RTVSPost2010Prop42
 90
       50
102
RTVSPost2010PropOp42
 70
     0
102
RTVSPost2010Prop43
 90
        3
102
RTVSPost2010PropOp43
 70
     0
102
RTVSPost2010Prop44ColorIndex
 90
        5
102
RTVSPost2010Prop44ColorRGB
 90
      255
102
RTVSPost2010PropOp44
 70
     0
102
RTVSPost2010Prop45
280
     0
102
RTVSPost2010PropOp45
 70
     1
102
RTVSPost2010Prop46
 90
       50
102
RTVSPost2010PropOp46
 70
     0
102
RTVSPost2010Prop47
 90
       50
102
RTVSPost2010PropOp47
 70
     0
102
RTVSPost2010Prop48
 90
       50
102
RTVSPost2010PropOp48
 70
     0
102
RTVSPost2010Prop49
280
     0
102
RTVSPost2010PropOp49
 70
     1
102
RTVSPost2010Prop50
 90
       50
102
RTVSPost2010PropOp50
 70
     0
102
RTVSPost2010Prop51ColorIndex
 90
      256
102
RTVSPost2010Prop51ColorRGB
 90
-16777216
102
RTVSPost2010PropOp51
 70
     0
102
RTVSPost2010Prop52
140
1.0
102
RTVSPost2010PropOp52
 70
     0
102
RTVSPost2010Prop53
 90
        2
102
RTVSPost2010PropOp53
 70
     0
102
RTVSPost2010Prop54
  1
strokes_ogs.tif
102
RTVSPost2010PropOp54
 70
     0
102
RTVSPost2010Prop55
280
     0
102
RTVSPost2010PropOp55
 70
     1
102
RTVSPost2010Prop56
140
1.0
102
RTVSPost2010PropOp56
 70
     0
102
RTVSPost2010Prop57
140
1.0
102
RTVSPost2010PropOp57
 70
     0
102
RTVSPropertyOp0
 70
     0
102
RTVSPropertyOp1
 70
     0
102
RTVSPropertyOp2
 70
     0
102
RTVSPropertyOp3
 70
     0
102
RTVSPropertyOp4
 70
     0
102
RTVSPropertyOp5
 70
     0
102
RTVSPropertyOp6
 70
     0
102
RTVSPropertyOp7
 70
     0
102
RTVSPropertyOp8
 70
     0
102
RTVSPropertyOp9
 70
     0
102
RTVSPropertyOp10
 70
     0
102
RTVSPropertyOp11
 70
     0
102
RTVSPropertyOp12
 70
     0
102
RTVSPropertyOp13
 70
     0
102
RTVSPropertyOp14
 70
     2
102
RTVSPropertyOp15
 70
     0
102
RTVSPropertyOp16
 70
     0
102
RTVSPropertyOp17
 70
     0
102
RTVSPropertyOp18
 70
     0
102
RTVSPropertyOp19
 70
     0
102
RTVSPropertyOp20
 70
     0
102
RTVSPropertyOp21
 70
     0
102
RTVSPropertyOp22
 70
     0
102
RTVSPropertyOp23
 70
     0
102
RTVSPropertyOp24
 70
     0
102
RTVSPropertyOp25
 70
     0
102
RTVSPropertyOp26
 70
     0
102
RTVSPropertyOp27
 70
     0
102
RTVSPropertyOp28
 70
     1
102
RTVSPropertyOp29
 70
     1
102
RTVSPropertyOp30
 70
     1
102
RTVSPropertyOp31
 70
     1
102
RTVSPropertyOp32
 70
     1
102
RTVSPropertyOp33
 70
     1
102
RTVSPropertyOp34
 70
     1
102
RTVSPropertyOp35
 70
     1
102
RTVSPropertyOp36
 70
     1
102
RTVSPropertyOp37
 70
     0
102
RTVSPropertyOp38
 70
     0
102
RTVSPropertyOp39
 70
     0
102
RTVSPropertyOp40
 70
     0
102
RTVSPropertyOp41
 70
     0
102
RTVSPropertyOp42
 70
     0
102
RTVSPropertyOp43
 70
     0
102
RTVSPropertyOp44
 70
     0
102
RTVSPropertyOp45
 70
     1
102
RTVSPropertyOp46
 70
     0
102
RTVSPropertyOp47
 70
     0
102
RTVSPropertyOp48
 70
     0
102
RTVSPropertyOp49
 70
     1
102
RTVSPropertyOp50
 70
     0
102
RTVSPropertyOp51
 70
     0
102
RTVSPropertyOp52
 70
     0
102
RTVSPropertyOp53
 70
     0
102
RTVSPropertyOp54
 70
     0
102
RTVSPropertyOp55
 70
     1
102
RTVSPropertyOp56
 70
     0
102
RTVSPropertyOp57
 70
     0
102
RTVSPropertyOp58
 70
     0
102
RTVSPropertyOp59
 70
     0
102
RTVSPropertyOp60
 70
     0
102
RTVSPropertyOp61
 70
     0
102
RTVSPropertyOp62
 70
     0
  0
XRECORD
  5
99D3
102
{ACAD_REACTORS
330
99D2
102
}
330
99D2
100
AcDbXrecord
280
     1
102
RTVSPost2010Prop28
280
     0
102
RTVSPost2010PropOp28
 70
     1
102
RTVSPost2010Prop29
280
     1
102
RTVSPost2010PropOp29
 70
     1
102
RTVSPost2010Prop30
280
     1
102
RTVSPost2010PropOp30
 70
     1
102
RTVSPost2010Prop31
280
     0
102
RTVSPost2010PropOp31
 70
     1
102
RTVSPost2010Prop32
280
     0
102
RTVSPost2010PropOp32
 70
     1
102
RTVSPost2010Prop33
280
     0
102
RTVSPost2010PropOp33
 70
     1
102
RTVSPost2010Prop34
280
     0
102
RTVSPost2010PropOp34
 70
     1
102
RTVSPost2010Prop35
280
     0
102
RTVSPost2010PropOp35
 70
     1
102
RTVSPost2010Prop36
280
     0
102
RTVSPost2010PropOp36
 70
     1
102
RTVSPost2010Prop37
 90
       50
102
RTVSPost2010PropOp37
 70
     1
102
RTVSPost2010Prop38
140
0.0
102
RTVSPost2010PropOp38
 70
     1
102
RTVSPost2010Prop39
140
1.0
102
RTVSPost2010PropOp39
 70
     1
102
RTVSPost2010Prop40
 90
        0
102
RTVSPost2010PropOp40
 70
     1
102
RTVSPost2010Prop41ColorIndex
 90
       18
102
RTVSPost2010Prop41ColorRGB
 90
        0
102
RTVSPost2010PropOp41
 70
     1
102
RTVSPost2010Prop42
 90
       50
102
RTVSPost2010PropOp42
 70
     1
102
RTVSPost2010Prop43
 90
        3
102
RTVSPost2010PropOp43
 70
     1
102
RTVSPost2010Prop44ColorIndex
 90
        5
102
RTVSPost2010Prop44ColorRGB
 90
      255
102
RTVSPost2010PropOp44
 70
     1
102
RTVSPost2010Prop45
280
     0
102
RTVSPost2010PropOp45
 70
     1
102
RTVSPost2010Prop46
 90
       50
102
RTVSPost2010PropOp46
 70
     1
102
RTVSPost2010Prop47
 90
       50
102
RTVSPost2010PropOp47
 70
     1
102
RTVSPost2010Prop48
 90
       50
102
RTVSPost2010PropOp48
 70
     1
102
RTVSPost2010Prop49
280
     0
102
RTVSPost2010PropOp49
 70
     1
102
RTVSPost2010Prop50
 90
       50
102
RTVSPost2010PropOp50
 70
     1
102
RTVSPost2010Prop51ColorIndex
 90
      256
102
RTVSPost2010Prop51ColorRGB
 90
-16777216
102
RTVSPost2010PropOp51
 70
     0
102
RTVSPost2010Prop52
140
1.0
102
RTVSPost2010PropOp52
 70
     0
102
RTVSPost2010Prop53
 90
        2
102
RTVSPost2010PropOp53
 70
     1
102
RTVSPost2010Prop54
  1
strokes_ogs.tif
102
RTVSPost2010PropOp54
 70
     1
102
RTVSPost2010Prop55
280
     0
102
RTVSPost2010PropOp55
 70
     1
102
RTVSPost2010Prop56
140
1.0
102
RTVSPost2010PropOp56
 70
     1
102
RTVSPost2010Prop57
140
1.0
102
RTVSPost2010PropOp57
 70
     1
102
RTVSPropertyOp0
 70
     1
102
RTVSPropertyOp1
 70
     1
102
RTVSPropertyOp2
 70
     1
102
RTVSPropertyOp3
 70
     1
102
RTVSPropertyOp4
 70
     1
102
RTVSPropertyOp5
 70
     1
102
RTVSPropertyOp6
 70
     1
102
RTVSPropertyOp7
 70
     1
102
RTVSPropertyOp8
 70
     1
102
RTVSPropertyOp9
 70
     1
102
RTVSPropertyOp10
 70
     1
102
RTVSPropertyOp11
 70
     1
102
RTVSPropertyOp12
 70
     1
102
RTVSPropertyOp13
 70
     1
102
RTVSPropertyOp14
 70
     1
102
RTVSPropertyOp15
 70
     1
102
RTVSPropertyOp16
 70
     1
102
RTVSPropertyOp17
 70
     1
102
RTVSPropertyOp18
 70
     1
102
RTVSPropertyOp19
 70
     1
102
RTVSPropertyOp20
 70
     1
102
RTVSPropertyOp21
 70
     1
102
RTVSPropertyOp22
 70
     1
102
RTVSPropertyOp23
 70
     1
102
RTVSPropertyOp24
 70
     1
102
RTVSPropertyOp25
 70
     1
102
RTVSPropertyOp26
 70
     1
102
RTVSPropertyOp27
 70
     1
102
RTVSPropertyOp28
 70
     1
102
RTVSPropertyOp29
 70
     1
102
RTVSPropertyOp30
 70
     1
102
RTVSPropertyOp31
 70
     1
102
RTVSPropertyOp32
 70
     1
102
RTVSPropertyOp33
 70
     1
102
RTVSPropertyOp34
 70
     1
102
RTVSPropertyOp35
 70
     1
102
RTVSPropertyOp36
 70
     1
102
RTVSPropertyOp37
 70
     1
102
RTVSPropertyOp38
 70
     1
102
RTVSPropertyOp39
 70
     1
102
RTVSPropertyOp40
 70
     1
102
RTVSPropertyOp41
 70
     1
102
RTVSPropertyOp42
 70
     1
102
RTVSPropertyOp43
 70
     1
102
RTVSPropertyOp44
 70
     1
102
RTVSPropertyOp45
 70
     1
102
RTVSPropertyOp46
 70
     1
102
RTVSPropertyOp47
 70
     1
102
RTVSPropertyOp48
 70
     1
102
RTVSPropertyOp49
 70
     1
102
RTVSPropertyOp50
 70
     1
102
RTVSPropertyOp51
 70
     0
102
RTVSPropertyOp52
 70
     0
102
RTVSPropertyOp53
 70
     1
102
RTVSPropertyOp54
 70
     1
102
RTVSPropertyOp55
 70
     1
102
RTVSPropertyOp56
 70
     1
102
RTVSPropertyOp57
 70
     1
102
RTVSPropertyOp58
 70
     1
102
RTVSPropertyOp59
 70
     1
102
RTVSPropertyOp60
 70
     1
102
RTVSPropertyOp61
 70
     1
102
RTVSPropertyOp62
 70
     1
  0
XRECORD
  5
99E9
102
{ACAD_REACTORS
330
99E8
102
}
330
99E8
100
AcDbXrecord
280
     1
102
RTVSPost2010Prop28
280
     0
102
RTVSPost2010PropOp28
 70
     1
102
RTVSPost2010Prop29
280
     1
102
RTVSPost2010PropOp29
 70
     1
102
RTVSPost2010Prop30
280
     1
102
RTVSPost2010PropOp30
 70
     1
102
RTVSPost2010Prop31
280
     0
102
RTVSPost2010PropOp31
 70
     1
102
RTVSPost2010Prop32
280
     0
102
RTVSPost2010PropOp32
 70
     1
102
RTVSPost2010Prop33
280
     0
102
RTVSPost2010PropOp33
 70
     1
102
RTVSPost2010Prop34
280
     0
102
RTVSPost2010PropOp34
 70
     1
102
RTVSPost2010Prop35
280
     0
102
RTVSPost2010PropOp35
 70
     1
102
RTVSPost2010Prop36
280
     0
102
RTVSPost2010PropOp36
 70
     1
102
RTVSPost2010Prop37
 90
       50
102
RTVSPost2010PropOp37
 70
     1
102
RTVSPost2010Prop38
140
0.0
102
RTVSPost2010PropOp38
 70
     1
102
RTVSPost2010Prop39
140
1.0
102
RTVSPost2010PropOp39
 70
     1
102
RTVSPost2010Prop40
 90
        0
102
RTVSPost2010PropOp40
 70
     1
102
RTVSPost2010Prop41ColorIndex
 90
       18
102
RTVSPost2010Prop41ColorRGB
 90
        0
102
RTVSPost2010PropOp41
 70
     1
102
RTVSPost2010Prop42
 90
       50
102
RTVSPost2010PropOp42
 70
     1
102
RTVSPost2010Prop43
 90
        3
102
RTVSPost2010PropOp43
 70
     1
102
RTVSPost2010Prop44ColorIndex
 90
        5
102
RTVSPost2010Prop44ColorRGB
 90
      255
102
RTVSPost2010PropOp44
 70
     1
102
RTVSPost2010Prop45
280
     0
102
RTVSPost2010PropOp45
 70
     1
102
RTVSPost2010Prop46
 90
       50
102
RTVSPost2010PropOp46
 70
     1
102
RTVSPost2010Prop47
 90
       50
102
RTVSPost2010PropOp47
 70
     1
102
RTVSPost2010Prop48
 90
       50
102
RTVSPost2010PropOp48
 70
     1
102
RTVSPost2010Prop49
280
     0
102
RTVSPost2010PropOp49
 70
     1
102
RTVSPost2010Prop50
 90
       50
102
RTVSPost2010PropOp50
 70
     1
102
RTVSPost2010Prop51ColorIndex
 90
      256
102
RTVSPost2010Prop51ColorRGB
 90
-16777216
102
RTVSPost2010PropOp51
 70
     0
102
RTVSPost2010Prop52
140
1.0
102
RTVSPost2010PropOp52
 70
     0
102
RTVSPost2010Prop53
 90
        2
102
RTVSPost2010PropOp53
 70
     1
102
RTVSPost2010Prop54
  1
strokes_ogs.tif
102
RTVSPost2010PropOp54
 70
     1
102
RTVSPost2010Prop55
280
     0
102
RTVSPost2010PropOp55
 70
     1
102
RTVSPost2010Prop56
140
1.0
102
RTVSPost2010PropOp56
 70
     1
102
RTVSPost2010Prop57
140
1.0
102
RTVSPost2010PropOp57
 70
     1
102
RTVSPropertyOp0
 70
     1
102
RTVSPropertyOp1
 70
     1
102
RTVSPropertyOp2
 70
     1
102
RTVSPropertyOp3
 70
     1
102
RTVSPropertyOp4
 70
     1
102
RTVSPropertyOp5
 70
     1
102
RTVSPropertyOp6
 70
     1
102
RTVSPropertyOp7
 70
     1
102
RTVSPropertyOp8
 70
     1
102
RTVSPropertyOp9
 70
     1
102
RTVSPropertyOp10
 70
     1
102
RTVSPropertyOp11
 70
     1
102
RTVSPropertyOp12
 70
     1
102
RTVSPropertyOp13
 70
     1
102
RTVSPropertyOp14
 70
     1
102
RTVSPropertyOp15
 70
     1
102
RTVSPropertyOp16
 70
     1
102
RTVSPropertyOp17
 70
     1
102
RTVSPropertyOp18
 70
     1
102
RTVSPropertyOp19
 70
     1
102
RTVSPropertyOp20
 70
     1
102
RTVSPropertyOp21
 70
     1
102
RTVSPropertyOp22
 70
     1
102
RTVSPropertyOp23
 70
     1
102
RTVSPropertyOp24
 70
     1
102
RTVSPropertyOp25
 70
     1
102
RTVSPropertyOp26
 70
     1
102
RTVSPropertyOp27
 70
     1
102
RTVSPropertyOp28
 70
     1
102
RTVSPropertyOp29
 70
     1
102
RTVSPropertyOp30
 70
     1
102
RTVSPropertyOp31
 70
     1
102
RTVSPropertyOp32
 70
     1
102
RTVSPropertyOp33
 70
     1
102
RTVSPropertyOp34
 70
     1
102
RTVSPropertyOp35
 70
     1
102
RTVSPropertyOp36
 70
     1
102
RTVSPropertyOp37
 70
     1
102
RTVSPropertyOp38
 70
     1
102
RTVSPropertyOp39
 70
     1
102
RTVSPropertyOp40
 70
     1
102
RTVSPropertyOp41
 70
     1
102
RTVSPropertyOp42
 70
     1
102
RTVSPropertyOp43
 70
     1
102
RTVSPropertyOp44
 70
     1
102
RTVSPropertyOp45
 70
     1
102
RTVSPropertyOp46
 70
     1
102
RTVSPropertyOp47
 70
     1
102
RTVSPropertyOp48
 70
     1
102
RTVSPropertyOp49
 70
     1
102
RTVSPropertyOp50
 70
     1
102
RTVSPropertyOp51
 70
     0
102
RTVSPropertyOp52
 70
     0
102
RTVSPropertyOp53
 70
     1
102
RTVSPropertyOp54
 70
     1
102
RTVSPropertyOp55
 70
     1
102
RTVSPropertyOp56
 70
     1
102
RTVSPropertyOp57
 70
     1
102
RTVSPropertyOp58
 70
     1
102
RTVSPropertyOp59
 70
     1
102
RTVSPropertyOp60
 70
     1
102
RTVSPropertyOp61
 70
     1
102
RTVSPropertyOp62
 70
     1
  0
XRECORD
  5
99E7
102
{ACAD_REACTORS
330
99E6
102
}
330
99E6
100
AcDbXrecord
280
     1
102
RTVSPost2010Prop28
280
     0
102
RTVSPost2010PropOp28
 70
     1
102
RTVSPost2010Prop29
280
     1
102
RTVSPost2010PropOp29
 70
     1
102
RTVSPost2010Prop30
280
     1
102
RTVSPost2010PropOp30
 70
     1
102
RTVSPost2010Prop31
280
     0
102
RTVSPost2010PropOp31
 70
     1
102
RTVSPost2010Prop32
280
     0
102
RTVSPost2010PropOp32
 70
     1
102
RTVSPost2010Prop33
280
     0
102
RTVSPost2010PropOp33
 70
     1
102
RTVSPost2010Prop34
280
     0
102
RTVSPost2010PropOp34
 70
     1
102
RTVSPost2010Prop35
280
     0
102
RTVSPost2010PropOp35
 70
     1
102
RTVSPost2010Prop36
280
     0
102
RTVSPost2010PropOp36
 70
     1
102
RTVSPost2010Prop37
 90
       50
102
RTVSPost2010PropOp37
 70
     1
102
RTVSPost2010Prop38
140
0.0
102
RTVSPost2010PropOp38
 70
     1
102
RTVSPost2010Prop39
140
1.0
102
RTVSPost2010PropOp39
 70
     1
102
RTVSPost2010Prop40
 90
        0
102
RTVSPost2010PropOp40
 70
     1
102
RTVSPost2010Prop41ColorIndex
 90
       18
102
RTVSPost2010Prop41ColorRGB
 90
        0
102
RTVSPost2010PropOp41
 70
     1
102
RTVSPost2010Prop42
 90
       50
102
RTVSPost2010PropOp42
 70
     1
102
RTVSPost2010Prop43
 90
        3
102
RTVSPost2010PropOp43
 70
     1
102
RTVSPost2010Prop44ColorIndex
 90
        5
102
RTVSPost2010Prop44ColorRGB
 90
      255
102
RTVSPost2010PropOp44
 70
     1
102
RTVSPost2010Prop45
280
     0
102
RTVSPost2010PropOp45
 70
     1
102
RTVSPost2010Prop46
 90
       50
102
RTVSPost2010PropOp46
 70
     1
102
RTVSPost2010Prop47
 90
       50
102
RTVSPost2010PropOp47
 70
     1
102
RTVSPost2010Prop48
 90
       50
102
RTVSPost2010PropOp48
 70
     1
102
RTVSPost2010Prop49
280
     0
102
RTVSPost2010PropOp49
 70
     1
102
RTVSPost2010Prop50
 90
       50
102
RTVSPost2010PropOp50
 70
     1
102
RTVSPost2010Prop51ColorIndex
 90
      256
102
RTVSPost2010Prop51ColorRGB
 90
-16777216
102
RTVSPost2010PropOp51
 70
     0
102
RTVSPost2010Prop52
140
1.0
102
RTVSPost2010PropOp52
 70
     0
102
RTVSPost2010Prop53
 90
        2
102
RTVSPost2010PropOp53
 70
     1
102
RTVSPost2010Prop54
  1
strokes_ogs.tif
102
RTVSPost2010PropOp54
 70
     1
102
RTVSPost2010Prop55
280
     0
102
RTVSPost2010PropOp55
 70
     1
102
RTVSPost2010Prop56
140
1.0
102
RTVSPost2010PropOp56
 70
     1
102
RTVSPost2010Prop57
140
1.0
102
RTVSPost2010PropOp57
 70
     1
102
RTVSPropertyOp0
 70
     1
102
RTVSPropertyOp1
 70
     1
102
RTVSPropertyOp2
 70
     1
102
RTVSPropertyOp3
 70
     1
102
RTVSPropertyOp4
 70
     1
102
RTVSPropertyOp5
 70
     1
102
RTVSPropertyOp6
 70
     1
102
RTVSPropertyOp7
 70
     1
102
RTVSPropertyOp8
 70
     1
102
RTVSPropertyOp9
 70
     1
102
RTVSPropertyOp10
 70
     1
102
RTVSPropertyOp11
 70
     1
102
RTVSPropertyOp12
 70
     1
102
RTVSPropertyOp13
 70
     1
102
RTVSPropertyOp14
 70
     1
102
RTVSPropertyOp15
 70
     1
102
RTVSPropertyOp16
 70
     1
102
RTVSPropertyOp17
 70
     1
102
RTVSPropertyOp18
 70
     1
102
RTVSPropertyOp19
 70
     1
102
RTVSPropertyOp20
 70
     1
102
RTVSPropertyOp21
 70
     1
102
RTVSPropertyOp22
 70
     1
102
RTVSPropertyOp23
 70
     1
102
RTVSPropertyOp24
 70
     1
102
RTVSPropertyOp25
 70
     1
102
RTVSPropertyOp26
 70
     1
102
RTVSPropertyOp27
 70
     1
102
RTVSPropertyOp28
 70
     1
102
RTVSPropertyOp29
 70
     1
102
RTVSPropertyOp30
 70
     1
102
RTVSPropertyOp31
 70
     1
102
RTVSPropertyOp32
 70
     1
102
RTVSPropertyOp33
 70
     1
102
RTVSPropertyOp34
 70
     1
102
RTVSPropertyOp35
 70
     1
102
RTVSPropertyOp36
 70
     1
102
RTVSPropertyOp37
 70
     1
102
RTVSPropertyOp38
 70
     1
102
RTVSPropertyOp39
 70
     1
102
RTVSPropertyOp40
 70
     1
102
RTVSPropertyOp41
 70
     1
102
RTVSPropertyOp42
 70
     1
102
RTVSPropertyOp43
 70
     1
102
RTVSPropertyOp44
 70
     1
102
RTVSPropertyOp45
 70
     1
102
RTVSPropertyOp46
 70
     1
102
RTVSPropertyOp47
 70
     1
102
RTVSPropertyOp48
 70
     1
102
RTVSPropertyOp49
 70
     1
102
RTVSPropertyOp50
 70
     1
102
RTVSPropertyOp51
 70
     0
102
RTVSPropertyOp52
 70
     0
102
RTVSPropertyOp53
 70
     1
102
RTVSPropertyOp54
 70
     1
102
RTVSPropertyOp55
 70
     1
102
RTVSPropertyOp56
 70
     1
102
RTVSPropertyOp57
 70
     1
102
RTVSPropertyOp58
 70
     1
102
RTVSPropertyOp59
 70
     1
102
RTVSPropertyOp60
 70
     1
102
RTVSPropertyOp61
 70
     1
102
RTVSPropertyOp62
 70
     1
  0
XRECORD
  5
99E1
102
{ACAD_REACTORS
330
99E0
102
}
330
99E0
100
AcDbXrecord
280
     1
102
RTVSPost2010Prop28
280
     0
102
RTVSPost2010PropOp28
 70
     1
102
RTVSPost2010Prop29
280
     1
102
RTVSPost2010PropOp29
 70
     1
102
RTVSPost2010Prop30
280
     1
102
RTVSPost2010PropOp30
 70
     1
102
RTVSPost2010Prop31
280
     0
102
RTVSPost2010PropOp31
 70
     1
102
RTVSPost2010Prop32
280
     0
102
RTVSPost2010PropOp32
 70
     1
102
RTVSPost2010Prop33
280
     0
102
RTVSPost2010PropOp33
 70
     1
102
RTVSPost2010Prop34
280
     0
102
RTVSPost2010PropOp34
 70
     1
102
RTVSPost2010Prop35
280
     0
102
RTVSPost2010PropOp35
 70
     1
102
RTVSPost2010Prop36
280
     0
102
RTVSPost2010PropOp36
 70
     1
102
RTVSPost2010Prop37
 90
       50
102
RTVSPost2010PropOp37
 70
     1
102
RTVSPost2010Prop38
140
0.0
102
RTVSPost2010PropOp38
 70
     1
102
RTVSPost2010Prop39
140
1.0
102
RTVSPost2010PropOp39
 70
     1
102
RTVSPost2010Prop40
 90
        0
102
RTVSPost2010PropOp40
 70
     1
102
RTVSPost2010Prop41ColorIndex
 90
       18
102
RTVSPost2010Prop41ColorRGB
 90
        0
102
RTVSPost2010PropOp41
 70
     1
102
RTVSPost2010Prop42
 90
       50
102
RTVSPost2010PropOp42
 70
     1
102
RTVSPost2010Prop43
 90
        3
102
RTVSPost2010PropOp43
 70
     1
102
RTVSPost2010Prop44ColorIndex
 90
        5
102
RTVSPost2010Prop44ColorRGB
 90
      255
102
RTVSPost2010PropOp44
 70
     1
102
RTVSPost2010Prop45
280
     0
102
RTVSPost2010PropOp45
 70
     1
102
RTVSPost2010Prop46
 90
       50
102
RTVSPost2010PropOp46
 70
     1
102
RTVSPost2010Prop47
 90
       50
102
RTVSPost2010PropOp47
 70
     1
102
RTVSPost2010Prop48
 90
       50
102
RTVSPost2010PropOp48
 70
     1
102
RTVSPost2010Prop49
280
     0
102
RTVSPost2010PropOp49
 70
     1
102
RTVSPost2010Prop50
 90
       50
102
RTVSPost2010PropOp50
 70
     1
102
RTVSPost2010Prop51ColorIndex
 90
      256
102
RTVSPost2010Prop51ColorRGB
 90
-16777216
102
RTVSPost2010PropOp51
 70
     0
102
RTVSPost2010Prop52
140
1.0
102
RTVSPost2010PropOp52
 70
     0
102
RTVSPost2010Prop53
 90
        2
102
RTVSPost2010PropOp53
 70
     1
102
RTVSPost2010Prop54
  1
strokes_ogs.tif
102
RTVSPost2010PropOp54
 70
     1
102
RTVSPost2010Prop55
280
     0
102
RTVSPost2010PropOp55
 70
     1
102
RTVSPost2010Prop56
140
1.0
102
RTVSPost2010PropOp56
 70
     1
102
RTVSPost2010Prop57
140
1.0
102
RTVSPost2010PropOp57
 70
     1
102
RTVSPropertyOp0
 70
     1
102
RTVSPropertyOp1
 70
     1
102
RTVSPropertyOp2
 70
     1
102
RTVSPropertyOp3
 70
     1
102
RTVSPropertyOp4
 70
     1
102
RTVSPropertyOp5
 70
     1
102
RTVSPropertyOp6
 70
     1
102
RTVSPropertyOp7
 70
     1
102
RTVSPropertyOp8
 70
     1
102
RTVSPropertyOp9
 70
     1
102
RTVSPropertyOp10
 70
     1
102
RTVSPropertyOp11
 70
     1
102
RTVSPropertyOp12
 70
     1
102
RTVSPropertyOp13
 70
     1
102
RTVSPropertyOp14
 70
     1
102
RTVSPropertyOp15
 70
     1
102
RTVSPropertyOp16
 70
     1
102
RTVSPropertyOp17
 70
     1
102
RTVSPropertyOp18
 70
     1
102
RTVSPropertyOp19
 70
     1
102
RTVSPropertyOp20
 70
     1
102
RTVSPropertyOp21
 70
     1
102
RTVSPropertyOp22
 70
     1
102
RTVSPropertyOp23
 70
     1
102
RTVSPropertyOp24
 70
     1
102
RTVSPropertyOp25
 70
     1
102
RTVSPropertyOp26
 70
     1
102
RTVSPropertyOp27
 70
     1
102
RTVSPropertyOp28
 70
     1
102
RTVSPropertyOp29
 70
     1
102
RTVSPropertyOp30
 70
     1
102
RTVSPropertyOp31
 70
     1
102
RTVSPropertyOp32
 70
     1
102
RTVSPropertyOp33
 70
     1
102
RTVSPropertyOp34
 70
     1
102
RTVSPropertyOp35
 70
     1
102
RTVSPropertyOp36
 70
     1
102
RTVSPropertyOp37
 70
     1
102
RTVSPropertyOp38
 70
     1
102
RTVSPropertyOp39
 70
     1
102
RTVSPropertyOp40
 70
     1
102
RTVSPropertyOp41
 70
     1
102
RTVSPropertyOp42
 70
     1
102
RTVSPropertyOp43
 70
     1
102
RTVSPropertyOp44
 70
     1
102
RTVSPropertyOp45
 70
     1
102
RTVSPropertyOp46
 70
     1
102
RTVSPropertyOp47
 70
     1
102
RTVSPropertyOp48
 70
     1
102
RTVSPropertyOp49
 70
     1
102
RTVSPropertyOp50
 70
     1
102
RTVSPropertyOp51
 70
     0
102
RTVSPropertyOp52
 70
     0
102
RTVSPropertyOp53
 70
     1
102
RTVSPropertyOp54
 70
     1
102
RTVSPropertyOp55
 70
     1
102
RTVSPropertyOp56
 70
     1
102
RTVSPropertyOp57
 70
     1
102
RTVSPropertyOp58
 70
     1
102
RTVSPropertyOp59
 70
     1
102
RTVSPropertyOp60
 70
     1
102
RTVSPropertyOp61
 70
     1
102
RTVSPropertyOp62
 70
     1
  0
XRECORD
  5
99E3
102
{ACAD_REACTORS
330
99E2
102
}
330
99E2
100
AcDbXrecord
280
     1
102
RTVSPost2010Prop28
280
     0
102
RTVSPost2010PropOp28
 70
     1
102
RTVSPost2010Prop29
280
     1
102
RTVSPost2010PropOp29
 70
     1
102
RTVSPost2010Prop30
280
     1
102
RTVSPost2010PropOp30
 70
     1
102
RTVSPost2010Prop31
280
     0
102
RTVSPost2010PropOp31
 70
     1
102
RTVSPost2010Prop32
280
     0
102
RTVSPost2010PropOp32
 70
     1
102
RTVSPost2010Prop33
280
     0
102
RTVSPost2010PropOp33
 70
     1
102
RTVSPost2010Prop34
280
     0
102
RTVSPost2010PropOp34
 70
     1
102
RTVSPost2010Prop35
280
     0
102
RTVSPost2010PropOp35
 70
     1
102
RTVSPost2010Prop36
280
     0
102
RTVSPost2010PropOp36
 70
     1
102
RTVSPost2010Prop37
 90
       50
102
RTVSPost2010PropOp37
 70
     1
102
RTVSPost2010Prop38
140
0.0
102
RTVSPost2010PropOp38
 70
     1
102
RTVSPost2010Prop39
140
1.0
102
RTVSPost2010PropOp39
 70
     1
102
RTVSPost2010Prop40
 90
        0
102
RTVSPost2010PropOp40
 70
     1
102
RTVSPost2010Prop41ColorIndex
 90
       18
102
RTVSPost2010Prop41ColorRGB
 90
        0
102
RTVSPost2010PropOp41
 70
     1
102
RTVSPost2010Prop42
 90
       50
102
RTVSPost2010PropOp42
 70
     1
102
RTVSPost2010Prop43
 90
        3
102
RTVSPost2010PropOp43
 70
     1
102
RTVSPost2010Prop44ColorIndex
 90
        5
102
RTVSPost2010Prop44ColorRGB
 90
      255
102
RTVSPost2010PropOp44
 70
     1
102
RTVSPost2010Prop45
280
     0
102
RTVSPost2010PropOp45
 70
     1
102
RTVSPost2010Prop46
 90
       50
102
RTVSPost2010PropOp46
 70
     1
102
RTVSPost2010Prop47
 90
       50
102
RTVSPost2010PropOp47
 70
     1
102
RTVSPost2010Prop48
 90
       50
102
RTVSPost2010PropOp48
 70
     1
102
RTVSPost2010Prop49
280
     0
102
RTVSPost2010PropOp49
 70
     1
102
RTVSPost2010Prop50
 90
       50
102
RTVSPost2010PropOp50
 70
     1
102
RTVSPost2010Prop51ColorIndex
 90
      256
102
RTVSPost2010Prop51ColorRGB
 90
-16777216
102
RTVSPost2010PropOp51
 70
     0
102
RTVSPost2010Prop52
140
1.0
102
RTVSPost2010PropOp52
 70
     0
102
RTVSPost2010Prop53
 90
        2
102
RTVSPost2010PropOp53
 70
     1
102
RTVSPost2010Prop54
  1
strokes_ogs.tif
102
RTVSPost2010PropOp54
 70
     1
102
RTVSPost2010Prop55
280
     0
102
RTVSPost2010PropOp55
 70
     1
102
RTVSPost2010Prop56
140
1.0
102
RTVSPost2010PropOp56
 70
     1
102
RTVSPost2010Prop57
140
1.0
102
RTVSPost2010PropOp57
 70
     1
102
RTVSPropertyOp0
 70
     1
102
RTVSPropertyOp1
 70
     1
102
RTVSPropertyOp2
 70
     1
102
RTVSPropertyOp3
 70
     1
102
RTVSPropertyOp4
 70
     1
102
RTVSPropertyOp5
 70
     1
102
RTVSPropertyOp6
 70
     1
102
RTVSPropertyOp7
 70
     1
102
RTVSPropertyOp8
 70
     1
102
RTVSPropertyOp9
 70
     1
102
RTVSPropertyOp10
 70
     1
102
RTVSPropertyOp11
 70
     1
102
RTVSPropertyOp12
 70
     1
102
RTVSPropertyOp13
 70
     1
102
RTVSPropertyOp14
 70
     1
102
RTVSPropertyOp15
 70
     1
102
RTVSPropertyOp16
 70
     1
102
RTVSPropertyOp17
 70
     1
102
RTVSPropertyOp18
 70
     1
102
RTVSPropertyOp19
 70
     1
102
RTVSPropertyOp20
 70
     1
102
RTVSPropertyOp21
 70
     1
102
RTVSPropertyOp22
 70
     1
102
RTVSPropertyOp23
 70
     1
102
RTVSPropertyOp24
 70
     1
102
RTVSPropertyOp25
 70
     1
102
RTVSPropertyOp26
 70
     1
102
RTVSPropertyOp27
 70
     1
102
RTVSPropertyOp28
 70
     1
102
RTVSPropertyOp29
 70
     1
102
RTVSPropertyOp30
 70
     1
102
RTVSPropertyOp31
 70
     1
102
RTVSPropertyOp32
 70
     1
102
RTVSPropertyOp33
 70
     1
102
RTVSPropertyOp34
 70
     1
102
RTVSPropertyOp35
 70
     1
102
RTVSPropertyOp36
 70
     1
102
RTVSPropertyOp37
 70
     1
102
RTVSPropertyOp38
 70
     1
102
RTVSPropertyOp39
 70
     1
102
RTVSPropertyOp40
 70
     1
102
RTVSPropertyOp41
 70
     1
102
RTVSPropertyOp42
 70
     1
102
RTVSPropertyOp43
 70
     1
102
RTVSPropertyOp44
 70
     1
102
RTVSPropertyOp45
 70
     1
102
RTVSPropertyOp46
 70
     1
102
RTVSPropertyOp47
 70
     1
102
RTVSPropertyOp48
 70
     1
102
RTVSPropertyOp49
 70
     1
102
RTVSPropertyOp50
 70
     1
102
RTVSPropertyOp51
 70
     0
102
RTVSPropertyOp52
 70
     0
102
RTVSPropertyOp53
 70
     1
102
RTVSPropertyOp54
 70
     1
102
RTVSPropertyOp55
 70
     1
102
RTVSPropertyOp56
 70
     1
102
RTVSPropertyOp57
 70
     1
102
RTVSPropertyOp58
 70
     1
102
RTVSPropertyOp59
 70
     1
102
RTVSPropertyOp60
 70
     1
102
RTVSPropertyOp61
 70
     1
102
RTVSPropertyOp62
 70
     1
  0
XRECORD
  5
99D9
102
{ACAD_REACTORS
330
99D8
102
}
330
99D8
100
AcDbXrecord
280
     1
102
RTVSPost2010Prop28
280
     0
102
RTVSPost2010PropOp28
 70
     1
102
RTVSPost2010Prop29
280
     1
102
RTVSPost2010PropOp29
 70
     1
102
RTVSPost2010Prop30
280
     1
102
RTVSPost2010PropOp30
 70
     1
102
RTVSPost2010Prop31
280
     0
102
RTVSPost2010PropOp31
 70
     1
102
RTVSPost2010Prop32
280
     0
102
RTVSPost2010PropOp32
 70
     1
102
RTVSPost2010Prop33
280
     0
102
RTVSPost2010PropOp33
 70
     1
102
RTVSPost2010Prop34
280
     0
102
RTVSPost2010PropOp34
 70
     1
102
RTVSPost2010Prop35
280
     0
102
RTVSPost2010PropOp35
 70
     1
102
RTVSPost2010Prop36
280
     0
102
RTVSPost2010PropOp36
 70
     1
102
RTVSPost2010Prop37
 90
       50
102
RTVSPost2010PropOp37
 70
     1
102
RTVSPost2010Prop38
140
0.0
102
RTVSPost2010PropOp38
 70
     1
102
RTVSPost2010Prop39
140
1.0
102
RTVSPost2010PropOp39
 70
     1
102
RTVSPost2010Prop40
 90
        0
102
RTVSPost2010PropOp40
 70
     1
102
RTVSPost2010Prop41ColorIndex
 90
       18
102
RTVSPost2010Prop41ColorRGB
 90
        0
102
RTVSPost2010PropOp41
 70
     1
102
RTVSPost2010Prop42
 90
       50
102
RTVSPost2010PropOp42
 70
     1
102
RTVSPost2010Prop43
 90
        3
102
RTVSPost2010PropOp43
 70
     1
102
RTVSPost2010Prop44ColorIndex
 90
        5
102
RTVSPost2010Prop44ColorRGB
 90
      255
102
RTVSPost2010PropOp44
 70
     1
102
RTVSPost2010Prop45
280
     0
102
RTVSPost2010PropOp45
 70
     1
102
RTVSPost2010Prop46
 90
       50
102
RTVSPost2010PropOp46
 70
     1
102
RTVSPost2010Prop47
 90
       50
102
RTVSPost2010PropOp47
 70
     1
102
RTVSPost2010Prop48
 90
       50
102
RTVSPost2010PropOp48
 70
     1
102
RTVSPost2010Prop49
280
     0
102
RTVSPost2010PropOp49
 70
     1
102
RTVSPost2010Prop50
 90
       50
102
RTVSPost2010PropOp50
 70
     1
102
RTVSPost2010Prop51ColorIndex
 90
      256
102
RTVSPost2010Prop51ColorRGB
 90
-16777216
102
RTVSPost2010PropOp51
 70
     0
102
RTVSPost2010Prop52
140
1.0
102
RTVSPost2010PropOp52
 70
     0
102
RTVSPost2010Prop53
 90
        2
102
RTVSPost2010PropOp53
 70
     1
102
RTVSPost2010Prop54
  1
strokes_ogs.tif
102
RTVSPost2010PropOp54
 70
     1
102
RTVSPost2010Prop55
280
     0
102
RTVSPost2010PropOp55
 70
     1
102
RTVSPost2010Prop56
140
1.0
102
RTVSPost2010PropOp56
 70
     1
102
RTVSPost2010Prop57
140
1.0
102
RTVSPost2010PropOp57
 70
     1
102
RTVSPropertyOp0
 70
     1
102
RTVSPropertyOp1
 70
     1
102
RTVSPropertyOp2
 70
     1
102
RTVSPropertyOp3
 70
     1
102
RTVSPropertyOp4
 70
     1
102
RTVSPropertyOp5
 70
     1
102
RTVSPropertyOp6
 70
     1
102
RTVSPropertyOp7
 70
     1
102
RTVSPropertyOp8
 70
     1
102
RTVSPropertyOp9
 70
     1
102
RTVSPropertyOp10
 70
     1
102
RTVSPropertyOp11
 70
     1
102
RTVSPropertyOp12
 70
     1
102
RTVSPropertyOp13
 70
     1
102
RTVSPropertyOp14
 70
     1
102
RTVSPropertyOp15
 70
     1
102
RTVSPropertyOp16
 70
     1
102
RTVSPropertyOp17
 70
     1
102
RTVSPropertyOp18
 70
     1
102
RTVSPropertyOp19
 70
     1
102
RTVSPropertyOp20
 70
     1
102
RTVSPropertyOp21
 70
     1
102
RTVSPropertyOp22
 70
     1
102
RTVSPropertyOp23
 70
     1
102
RTVSPropertyOp24
 70
     1
102
RTVSPropertyOp25
 70
     1
102
RTVSPropertyOp26
 70
     1
102
RTVSPropertyOp27
 70
     1
102
RTVSPropertyOp28
 70
     1
102
RTVSPropertyOp29
 70
     1
102
RTVSPropertyOp30
 70
     1
102
RTVSPropertyOp31
 70
     1
102
RTVSPropertyOp32
 70
     1
102
RTVSPropertyOp33
 70
     1
102
RTVSPropertyOp34
 70
     1
102
RTVSPropertyOp35
 70
     1
102
RTVSPropertyOp36
 70
     1
102
RTVSPropertyOp37
 70
     1
102
RTVSPropertyOp38
 70
     1
102
RTVSPropertyOp39
 70
     1
102
RTVSPropertyOp40
 70
     1
102
RTVSPropertyOp41
 70
     1
102
RTVSPropertyOp42
 70
     1
102
RTVSPropertyOp43
 70
     1
102
RTVSPropertyOp44
 70
     1
102
RTVSPropertyOp45
 70
     1
102
RTVSPropertyOp46
 70
     1
102
RTVSPropertyOp47
 70
     1
102
RTVSPropertyOp48
 70
     1
102
RTVSPropertyOp49
 70
     1
102
RTVSPropertyOp50
 70
     1
102
RTVSPropertyOp51
 70
     0
102
RTVSPropertyOp52
 70
     0
102
RTVSPropertyOp53
 70
     1
102
RTVSPropertyOp54
 70
     1
102
RTVSPropertyOp55
 70
     1
102
RTVSPropertyOp56
 70
     1
102
RTVSPropertyOp57
 70
     1
102
RTVSPropertyOp58
 70
     1
102
RTVSPropertyOp59
 70
     1
102
RTVSPropertyOp60
 70
     1
102
RTVSPropertyOp61
 70
     1
102
RTVSPropertyOp62
 70
     1
  0
XRECORD
  5
99CD
102
{ACAD_REACTORS
330
99CC
102
}
330
99CC
100
AcDbXrecord
280
     1
102
RTVSPost2010Prop28
280
     0
102
RTVSPost2010PropOp28
 70
     1
102
RTVSPost2010Prop29
280
     1
102
RTVSPost2010PropOp29
 70
     1
102
RTVSPost2010Prop30
280
     1
102
RTVSPost2010PropOp30
 70
     1
102
RTVSPost2010Prop31
280
     0
102
RTVSPost2010PropOp31
 70
     1
102
RTVSPost2010Prop32
280
     0
102
RTVSPost2010PropOp32
 70
     1
102
RTVSPost2010Prop33
280
     0
102
RTVSPost2010PropOp33
 70
     1
102
RTVSPost2010Prop34
280
     0
102
RTVSPost2010PropOp34
 70
     1
102
RTVSPost2010Prop35
280
     0
102
RTVSPost2010PropOp35
 70
     1
102
RTVSPost2010Prop36
280
     0
102
RTVSPost2010PropOp36
 70
     1
102
RTVSPost2010Prop37
 90
       50
102
RTVSPost2010PropOp37
 70
     1
102
RTVSPost2010Prop38
140
0.0
102
RTVSPost2010PropOp38
 70
     1
102
RTVSPost2010Prop39
140
1.0
102
RTVSPost2010PropOp39
 70
     1
102
RTVSPost2010Prop40
 90
        0
102
RTVSPost2010PropOp40
 70
     1
102
RTVSPost2010Prop41ColorIndex
 90
       18
102
RTVSPost2010Prop41ColorRGB
 90
        0
102
RTVSPost2010PropOp41
 70
     1
102
RTVSPost2010Prop42
 90
       50
102
RTVSPost2010PropOp42
 70
     1
102
RTVSPost2010Prop43
 90
        3
102
RTVSPost2010PropOp43
 70
     1
102
RTVSPost2010Prop44ColorIndex
 90
        5
102
RTVSPost2010Prop44ColorRGB
 90
      255
102
RTVSPost2010PropOp44
 70
     1
102
RTVSPost2010Prop45
280
     0
102
RTVSPost2010PropOp45
 70
     1
102
RTVSPost2010Prop46
 90
       50
102
RTVSPost2010PropOp46
 70
     1
102
RTVSPost2010Prop47
 90
       50
102
RTVSPost2010PropOp47
 70
     1
102
RTVSPost2010Prop48
 90
       50
102
RTVSPost2010PropOp48
 70
     1
102
RTVSPost2010Prop49
280
     0
102
RTVSPost2010PropOp49
 70
     1
102
RTVSPost2010Prop50
 90
       50
102
RTVSPost2010PropOp50
 70
     1
102
RTVSPost2010Prop51ColorIndex
 90
      256
102
RTVSPost2010Prop51ColorRGB
 90
-16777216
102
RTVSPost2010PropOp51
 70
     0
102
RTVSPost2010Prop52
140
1.0
102
RTVSPost2010PropOp52
 70
     0
102
RTVSPost2010Prop53
 90
        2
102
RTVSPost2010PropOp53
 70
     1
102
RTVSPost2010Prop54
  1
strokes_ogs.tif
102
RTVSPost2010PropOp54
 70
     1
102
RTVSPost2010Prop55
280
     0
102
RTVSPost2010PropOp55
 70
     1
102
RTVSPost2010Prop56
140
1.0
102
RTVSPost2010PropOp56
 70
     1
102
RTVSPost2010Prop57
140
1.0
102
RTVSPost2010PropOp57
 70
     1
102
RTVSPropertyOp0
 70
     1
102
RTVSPropertyOp1
 70
     1
102
RTVSPropertyOp2
 70
     1
102
RTVSPropertyOp3
 70
     1
102
RTVSPropertyOp4
 70
     1
102
RTVSPropertyOp5
 70
     1
102
RTVSPropertyOp6
 70
     1
102
RTVSPropertyOp7
 70
     1
102
RTVSPropertyOp8
 70
     1
102
RTVSPropertyOp9
 70
     1
102
RTVSPropertyOp10
 70
     1
102
RTVSPropertyOp11
 70
     1
102
RTVSPropertyOp12
 70
     1
102
RTVSPropertyOp13
 70
     1
102
RTVSPropertyOp14
 70
     1
102
RTVSPropertyOp15
 70
     1
102
RTVSPropertyOp16
 70
     1
102
RTVSPropertyOp17
 70
     1
102
RTVSPropertyOp18
 70
     1
102
RTVSPropertyOp19
 70
     1
102
RTVSPropertyOp20
 70
     1
102
RTVSPropertyOp21
 70
     1
102
RTVSPropertyOp22
 70
     1
102
RTVSPropertyOp23
 70
     1
102
RTVSPropertyOp24
 70
     1
102
RTVSPropertyOp25
 70
     1
102
RTVSPropertyOp26
 70
     1
102
RTVSPropertyOp27
 70
     1
102
RTVSPropertyOp28
 70
     1
102
RTVSPropertyOp29
 70
     1
102
RTVSPropertyOp30
 70
     1
102
RTVSPropertyOp31
 70
     1
102
RTVSPropertyOp32
 70
     1
102
RTVSPropertyOp33
 70
     1
102
RTVSPropertyOp34
 70
     1
102
RTVSPropertyOp35
 70
     1
102
RTVSPropertyOp36
 70
     1
102
RTVSPropertyOp37
 70
     1
102
RTVSPropertyOp38
 70
     1
102
RTVSPropertyOp39
 70
     1
102
RTVSPropertyOp40
 70
     1
102
RTVSPropertyOp41
 70
     1
102
RTVSPropertyOp42
 70
     1
102
RTVSPropertyOp43
 70
     1
102
RTVSPropertyOp44
 70
     1
102
RTVSPropertyOp45
 70
     1
102
RTVSPropertyOp46
 70
     1
102
RTVSPropertyOp47
 70
     1
102
RTVSPropertyOp48
 70
     1
102
RTVSPropertyOp49
 70
     1
102
RTVSPropertyOp50
 70
     1
102
RTVSPropertyOp51
 70
     0
102
RTVSPropertyOp52
 70
     0
102
RTVSPropertyOp53
 70
     1
102
RTVSPropertyOp54
 70
     1
102
RTVSPropertyOp55
 70
     1
102
RTVSPropertyOp56
 70
     1
102
RTVSPropertyOp57
 70
     1
102
RTVSPropertyOp58
 70
     1
102
RTVSPropertyOp59
 70
     1
102
RTVSPropertyOp60
 70
     1
102
RTVSPropertyOp61
 70
     1
102
RTVSPropertyOp62
 70
     1
  0
XRECORD
  5
99E5
102
{ACAD_REACTORS
330
99E4
102
}
330
99E4
100
AcDbXrecord
280
     1
102
RTVSPost2010Prop28
280
     0
102
RTVSPost2010PropOp28
 70
     1
102
RTVSPost2010Prop29
280
     1
102
RTVSPost2010PropOp29
 70
     1
102
RTVSPost2010Prop30
280
     1
102
RTVSPost2010PropOp30
 70
     1
102
RTVSPost2010Prop31
280
     0
102
RTVSPost2010PropOp31
 70
     1
102
RTVSPost2010Prop32
280
     0
102
RTVSPost2010PropOp32
 70
     1
102
RTVSPost2010Prop33
280
     0
102
RTVSPost2010PropOp33
 70
     1
102
RTVSPost2010Prop34
280
     0
102
RTVSPost2010PropOp34
 70
     1
102
RTVSPost2010Prop35
280
     0
102
RTVSPost2010PropOp35
 70
     1
102
RTVSPost2010Prop36
280
     0
102
RTVSPost2010PropOp36
 70
     1
102
RTVSPost2010Prop37
 90
       50
102
RTVSPost2010PropOp37
 70
     1
102
RTVSPost2010Prop38
140
0.0
102
RTVSPost2010PropOp38
 70
     1
102
RTVSPost2010Prop39
140
1.0
102
RTVSPost2010PropOp39
 70
     1
102
RTVSPost2010Prop40
 90
        0
102
RTVSPost2010PropOp40
 70
     1
102
RTVSPost2010Prop41ColorIndex
 90
       18
102
RTVSPost2010Prop41ColorRGB
 90
        0
102
RTVSPost2010PropOp41
 70
     1
102
RTVSPost2010Prop42
 90
       50
102
RTVSPost2010PropOp42
 70
     1
102
RTVSPost2010Prop43
 90
        3
102
RTVSPost2010PropOp43
 70
     1
102
RTVSPost2010Prop44ColorIndex
 90
        5
102
RTVSPost2010Prop44ColorRGB
 90
      255
102
RTVSPost2010PropOp44
 70
     1
102
RTVSPost2010Prop45
280
     0
102
RTVSPost2010PropOp45
 70
     1
102
RTVSPost2010Prop46
 90
       50
102
RTVSPost2010PropOp46
 70
     1
102
RTVSPost2010Prop47
 90
       50
102
RTVSPost2010PropOp47
 70
     1
102
RTVSPost2010Prop48
 90
       50
102
RTVSPost2010PropOp48
 70
     1
102
RTVSPost2010Prop49
280
     0
102
RTVSPost2010PropOp49
 70
     1
102
RTVSPost2010Prop50
 90
       50
102
RTVSPost2010PropOp50
 70
     1
102
RTVSPost2010Prop51ColorIndex
 90
      256
102
RTVSPost2010Prop51ColorRGB
 90
-16777216
102
RTVSPost2010PropOp51
 70
     0
102
RTVSPost2010Prop52
140
1.0
102
RTVSPost2010PropOp52
 70
     0
102
RTVSPost2010Prop53
 90
        2
102
RTVSPost2010PropOp53
 70
     1
102
RTVSPost2010Prop54
  1
strokes_ogs.tif
102
RTVSPost2010PropOp54
 70
     1
102
RTVSPost2010Prop55
280
     0
102
RTVSPost2010PropOp55
 70
     1
102
RTVSPost2010Prop56
140
1.0
102
RTVSPost2010PropOp56
 70
     1
102
RTVSPost2010Prop57
140
1.0
102
RTVSPost2010PropOp57
 70
     1
102
RTVSPropertyOp0
 70
     1
102
RTVSPropertyOp1
 70
     1
102
RTVSPropertyOp2
 70
     1
102
RTVSPropertyOp3
 70
     1
102
RTVSPropertyOp4
 70
     1
102
RTVSPropertyOp5
 70
     1
102
RTVSPropertyOp6
 70
     1
102
RTVSPropertyOp7
 70
     1
102
RTVSPropertyOp8
 70
     1
102
RTVSPropertyOp9
 70
     1
102
RTVSPropertyOp10
 70
     1
102
RTVSPropertyOp11
 70
     1
102
RTVSPropertyOp12
 70
     1
102
RTVSPropertyOp13
 70
     1
102
RTVSPropertyOp14
 70
     1
102
RTVSPropertyOp15
 70
     1
102
RTVSPropertyOp16
 70
     1
102
RTVSPropertyOp17
 70
     1
102
RTVSPropertyOp18
 70
     1
102
RTVSPropertyOp19
 70
     1
102
RTVSPropertyOp20
 70
     1
102
RTVSPropertyOp21
 70
     1
102
RTVSPropertyOp22
 70
     1
102
RTVSPropertyOp23
 70
     1
102
RTVSPropertyOp24
 70
     1
102
RTVSPropertyOp25
 70
     1
102
RTVSPropertyOp26
 70
     1
102
RTVSPropertyOp27
 70
     1
102
RTVSPropertyOp28
 70
     1
102
RTVSPropertyOp29
 70
     1
102
RTVSPropertyOp30
 70
     1
102
RTVSPropertyOp31
 70
     1
102
RTVSPropertyOp32
 70
     1
102
RTVSPropertyOp33
 70
     1
102
RTVSPropertyOp34
 70
     1
102
RTVSPropertyOp35
 70
     1
102
RTVSPropertyOp36
 70
     1
102
RTVSPropertyOp37
 70
     1
102
RTVSPropertyOp38
 70
     1
102
RTVSPropertyOp39
 70
     1
102
RTVSPropertyOp40
 70
     1
102
RTVSPropertyOp41
 70
     1
102
RTVSPropertyOp42
 70
     1
102
RTVSPropertyOp43
 70
     1
102
RTVSPropertyOp44
 70
     1
102
RTVSPropertyOp45
 70
     1
102
RTVSPropertyOp46
 70
     1
102
RTVSPropertyOp47
 70
     1
102
RTVSPropertyOp48
 70
     1
102
RTVSPropertyOp49
 70
     1
102
RTVSPropertyOp50
 70
     1
102
RTVSPropertyOp51
 70
     0
102
RTVSPropertyOp52
 70
     0
102
RTVSPropertyOp53
 70
     1
102
RTVSPropertyOp54
 70
     1
102
RTVSPropertyOp55
 70
     1
102
RTVSPropertyOp56
 70
     1
102
RTVSPropertyOp57
 70
     1
102
RTVSPropertyOp58
 70
     1
102
RTVSPropertyOp59
 70
     1
102
RTVSPropertyOp60
 70
     1
102
RTVSPropertyOp61
 70
     1
102
RTVSPropertyOp62
 70
     1
  0
ENDSEC
  0
EOF
