  0
SECTION
  2
HEADER
  9
$ACADVER
  1
AC1015
  9
$ACADMAINTVER
 70
    20
  9
$DWGCODEPAGE
  3
ANSI_932
  9
$INSBASE
 10
0.0
 20
0.0
 30
0.0
  9
$EXTMIN
 10
10.0
 20
9.999999999999998
 30
0.0
  9
$EXTMAX
 10
286.704496
 20
194.463477
 30
0.0
  9
$LIMMIN
 10
0.0
 20
0.0
  9
$LIMMAX
 10
396.0
 20
273.0
  9
$ORTHOMODE
 70
     1
  9
$REGENMODE
 70
     1
  9
$FILLMODE
 70
     1
  9
$QTEXTMODE
 70
     0
  9
$MIRRTEXT
 70
     1
  9
$LTSCALE
 40
20.0
  9
$ATTMODE
 70
     1
  9
$TEXTSIZE
 40
5.0
  9
$TRACEWID
 40
1.0
  9
$TEXTSTYLE
  7
STANDARD
  9
$CLAYER
  8
0
  9
$CELTYPE
  6
BYLAYER
  9
$CECOLOR
 62
   256
  9
$CELTSCALE
 40
1.0
  9
$DISPSILH
 70
     0
  9
$DIMSCALE
 40
1.0
  9
$DIMASZ
 40
3.0
  9
$DIMEXO
 40
1.0
  9
$DIMDLI
 40
10.0
  9
$DIMRND
 40
0.0
  9
$DIMDLE
 40
0.0
  9
$DIMEXE
 40
1.0
  9
$DIMTP
 40
0.0
  9
$DIMTM
 40
0.0
  9
$DIMTXT
 40
3.2
  9
$DIMCEN
 40
0.0
  9
$DIMTSZ
 40
0.0
  9
$DIMTOL
 70
     0
  9
$DIMLIM
 70
     0
  9
$DIMTIH
 70
     0
  9
$DIMTOH
 70
     0
  9
$DIMSE1
 70
     0
  9
$DIMSE2
 70
     0
  9
$DIMTAD
 70
     3
  9
$DIMZIN
 70
     8
  9
$DIMBLK
  1

  9
$DIMASO
 70
     1
  9
$DIMSHO
 70
     1
  9
$DIMPOST
  1

  9
$DIMAPOST
  1

  9
$DIMALT
 70
     0
  9
$DIMALTD
 70
     2
  9
$DIMALTF
 40
25.4
  9
$DIMLFAC
 40
1.0
  9
$DIMTOFL
 70
     1
  9
$DIMTVP
 40
0.0
  9
$DIMTIX
 70
     0
  9
$DIMSOXD
 70
     0
  9
$DIMSAH
 70
     1
  9
$DIMBLK1
  1

  9
$DIMBLK2
  1

  9
$DIMSTYLE
  2
STANDARD
  9
$DIMCLRD
 70
     0
  9
$DIMCLRE
 70
     0
  9
$DIMCLRT
 70
     0
  9
$DIMTFAC
 40
1.0
  9
$DIMGAP
 40
1.0
  9
$DIMJUST
 70
     0
  9
$DIMSD1
 70
     0
  9
$DIMSD2
 70
     0
  9
$DIMTOLJ
 70
     1
  9
$DIMTZIN
 70
     0
  9
$DIMALTZ
 70
     0
  9
$DIMALTTZ
 70
     0
  9
$DIMUPT
 70
     0
  9
$DIMDEC
 70
     4
  9
$DIMTDEC
 70
     4
  9
$DIMALTU
 70
     2
  9
$DIMALTTD
 70
     2
  9
$DIMTXSTY
  7
STANDARD
  9
$DIMAUNIT
 70
     0
  9
$DIMADEC
 70
     0
  9
$DIMALTRND
 40
0.0
  9
$DIMAZIN
 70
     0
  9
$DIMDSEP
 70
    46
  9
$DIMATFIT
 70
     3
  9
$DIMFRAC
 70
     0
  9
$DIMLDRBLK
  1

  9
$DIMLUNIT
 70
     2
  9
$DIMLWD
 70
    -2
  9
$DIMLWE
 70
    -2
  9
$DIMTMOVE
 70
     0
  9
$LUNITS
 70
     2
  9
$LUPREC
 70
     4
  9
$SKETCHINC
 40
1.0
  9
$FILLETRAD
 40
2.5
  9
$AUNITS
 70
     0
  9
$AUPREC
 70
     2
  9
$MENU
  1
.
  9
$ELEVATION
 40
0.0
  9
$PELEVATION
 40
0.0
  9
$THICKNESS
 40
0.0
  9
$LIMCHECK
 70
     0
  9
$CHAMFERA
 40
10.0
  9
$CHAMFERB
 40
10.0
  9
$CHAMFERC
 40
0.0
  9
$CHAMFERD
 40
0.0
  9
$SKPOLY
 70
     0
  9
$TDCREATE
 40
2450932.562180208
  9
$TDUCREATE
 40
2450932.187180208
  9
$TDUPDATE
 40
2457192.600731713
  9
$TDUUPDATE
 40
2457192.225731713
  9
$TDINDWG
 40
0.0000155556
  9
$TDUSRTIMER
 40
0.0000152546
  9
$USRTIMER
 70
     1
  9
$ANGBASE
 50
0.0
  9
$ANGDIR
 70
     0
  9
$PDMODE
 70
     0
  9
$PDSIZE
 40
0.0
  9
$PLINEWID
 40
0.0
  9
$SPLFRAME
 70
     0
  9
$SPLINETYPE
 70
     6
  9
$SPLINESEGS
 70
     8
  9
$HANDSEED
  5
9AA6
  9
$SURFTAB1
 70
     6
  9
$SURFTAB2
 70
     6
  9
$SURFTYPE
 70
     6
  9
$SURFU
 70
     6
  9
$SURFV
 70
     6
  9
$UCSBASE
  2

  9
$UCSNAME
  2

  9
$UCSORG
 10
0.0
 20
0.0
 30
0.0
  9
$UCSXDIR
 10
1.0
 20
0.0
 30
0.0
  9
$UCSYDIR
 10
0.0
 20
1.0
 30
0.0
  9
$UCSORTHOREF
  2

  9
$UCSORTHOVIEW
 70
     0
  9
$UCSORGTOP
 10
0.0
 20
0.0
 30
0.0
  9
$UCSORGBOTTOM
 10
0.0
 20
0.0
 30
0.0
  9
$UCSORGLEFT
 10
0.0
 20
0.0
 30
0.0
  9
$UCSORGRIGHT
 10
0.0
 20
0.0
 30
0.0
  9
$UCSORGFRONT
 10
0.0
 20
0.0
 30
0.0
  9
$UCSORGBACK
 10
0.0
 20
0.0
 30
0.0
  9
$PUCSBASE
  2

  9
$PUCSNAME
  2

  9
$PUCSORG
 10
0.0
 20
0.0
 30
0.0
  9
$PUCSXDIR
 10
1.0
 20
0.0
 30
0.0
  9
$PUCSYDIR
 10
0.0
 20
1.0
 30
0.0
  9
$PUCSORTHOREF
  2

  9
$PUCSORTHOVIEW
 70
     0
  9
$PUCSORGTOP
 10
0.0
 20
0.0
 30
0.0
  9
$PUCSORGBOTTOM
 10
0.0
 20
0.0
 30
0.0
  9
$PUCSORGLEFT
 10
0.0
 20
0.0
 30
0.0
  9
$PUCSORGRIGHT
 10
0.0
 20
0.0
 30
0.0
  9
$PUCSORGFRONT
 10
0.0
 20
0.0
 30
0.0
  9
$PUCSORGBACK
 10
0.0
 20
0.0
 30
0.0
  9
$USERI1
 70
     0
  9
$USERI2
 70
     0
  9
$USERI3
 70
     0
  9
$USERI4
 70
     0
  9
$USERI5
 70
     0
  9
$USERR1
 40
0.0
  9
$USERR2
 40
0.0
  9
$USERR3
 40
0.0
  9
$USERR4
 40
0.0
  9
$USERR5
 40
0.0
  9
$WORLDVIEW
 70
     1
  9
$SHADEDGE
 70
     3
  9
$SHADEDIF
 70
    70
  9
$TILEMODE
 70
     1
  9
$MAXACTVP
 70
    16
  9
$PINSBASE
 10
0.0
 20
0.0
 30
0.0
  9
$PLIMCHECK
 70
     0
  9
$PEXTMIN
 10
1.000000000000000E+20
 20
1.000000000000000E+20
 30
1.000000000000000E+20
  9
$PEXTMAX
 10
-1.000000000000000E+20
 20
-1.000000000000000E+20
 30
-1.000000000000000E+20
  9
$PLIMMIN
 10
0.0
 20
0.0
  9
$PLIMMAX
 10
420.0
 20
297.0
  9
$UNITMODE
 70
     0
  9
$VISRETAIN
 70
     0
  9
$PLINEGEN
 70
     0
  9
$PSLTSCALE
 70
     0
  9
$TREEDEPTH
 70
  3020
  9
$CMLSTYLE
  2
STANDARD
  9
$CMLJUST
 70
     0
  9
$CMLSCALE
 40
1.0
  9
$PROXYGRAPHICS
 70
     1
  9
$MEASUREMENT
 70
     0
  9
$CELWEIGHT
370
    -1
  9
$ENDCAPS
280
     0
  9
$JOINSTYLE
280
     0
  9
$LWDISPLAY
290
     0
  9
$INSUNITS
 70
     0
  9
$HYPERLINKBASE
  1

  9
$STYLESHEET
  1

  9
$XEDIT
290
     1
  9
$CEPSNTYPE
380
     0
  9
$PSTYLEMODE
290
     1
  9
$FINGERPRINTGUID
  2
{0FA5A50B-F167-46AD-94E4-87079DDBD43A}
  9
$VERSIONGUID
  2
{3A384F59-4E75-49DE-BBF4-29404D9C5F6B}
  9
$EXTNAMES
290
     1
  9
$PSVPSCALE
 40
0.0
  9
$OLESTARTUP
290
     0
  0
ENDSEC
  0
SECTION
  2
CLASSES
  0
CLASS
  1
ACDBDICTIONARYWDFLT
  2
AcDbDictionaryWithDefault
  3
ObjectDBX Classes
 90
        0
280
     0
281
     0
  0
CLASS
  1
ACDBPLACEHOLDER
  2
AcDbPlaceHolder
  3
ObjectDBX Classes
 90
        0
280
     0
281
     0
  0
CLASS
  1
LAYOUT
  2
AcDbLayout
  3
ObjectDBX Classes
 90
        0
280
     0
281
     0
  0
CLASS
  1
DICTIONARYVAR
  2
AcDbDictionaryVar
  3
ObjectDBX Classes
 90
        0
280
     0
281
     0
  0
CLASS
  1
MATERIAL
  2
AcDbMaterial
  3
ObjectDBX Classes
 90
     1153
280
     0
281
     0
  0
CLASS
  1
VISUALSTYLE
  2
AcDbVisualStyle
  3
ObjectDBX Classes
 90
     4095
280
     0
281
     0
  0
CLASS
  1
TABLESTYLE
  2
AcDbTableStyle
  3
ObjectDBX Classes
 90
     4095
280
     0
281
     0
  0
CLASS
  1
SCALE
  2
AcDbScale
  3
ObjectDBX Classes
 90
     1153
280
     0
281
     0
  0
CLASS
  1
MLEADERSTYLE
  2
AcDbMLeaderStyle
  3
ACDB_MLEADERSTYLE_CLASS
 90
     4095
280
     0
281
     0
  0
CLASS
  1
ACDBSECTIONVIEWSTYLE
  2
AcDbSectionViewStyle
  3
ObjectDBX Classes
 90
     1025
280
     0
281
     0
  0
CLASS
  1
ACDBDETAILVIEWSTYLE
  2
AcDbDetailViewStyle
  3
ObjectDBX Classes
 90
     1025
280
     0
281
     0
  0
CLASS
  1
CELLSTYLEMAP
  2
AcDbCellStyleMap
  3
ObjectDBX Classes
 90
     1152
280
     0
281
     0
  0
ENDSEC
  0
SECTION
  2
TABLES
  0
TABLE
  2
VPORT
  5
9782
330
0
100
AcDbSymbolTable
 70
     1
  0
VPORT
  5
99EF
330
9782
100
AcDbSymbolTableRecord
100
AcDbViewportTableRecord
  2
*ACTIVE
 70
     0
 10
0.0
 20
0.0
 11
1.0
 21
1.0
 12
204.2354101285026
 22
102.2271200415294
 13
0.0
 23
0.0
 14
10.0
 24
10.0
 15
10.0
 25
10.0
 16
0.0
 26
0.0
 36
1.0
 17
0.0
 27
0.0
 37
0.0
 40
186.5390384212055
 41
1.899603698811096
 42
50.0
 43
0.0
 44
0.0
 50
0.0
 51
0.0
 71
     0
 72
   100
 73
     1
 74
     0
 75
     0
 76
     0
 77
     0
 78
     0
281
     0
 65
     1
110
0.0
120
0.0
130
0.0
111
1.0
121
0.0
131
0.0
112
0.0
122
1.0
132
0.0
 79
     0
146
0.0
1001
ACAD_NAV_VCDISPLAY
1070
     3
  0
ENDTAB
  0
TABLE
  2
LTYPE
  5
977F
330
0
100
AcDbSymbolTable
 70
     4
  0
LTYPE
  5
978D
330
977F
100
AcDbSymbolTableRecord
100
AcDbLinetypeTableRecord
  2
BYBLOCK
 70
     0
  3

 72
    65
 73
     0
 40
0.0
  0
LTYPE
  5
978E
330
977F
100
AcDbSymbolTableRecord
100
AcDbLinetypeTableRecord
  2
BYLAYER
 70
     0
  3

 72
    65
 73
     0
 40
0.0
  0
LTYPE
  5
978F
330
977F
100
AcDbSymbolTableRecord
100
AcDbLinetypeTableRecord
  2
CONTINUOUS
 70
     0
  3
Solid line
 72
    65
 73
     0
 40
0.0
  0
LTYPE
  5
979D
330
977F
100
AcDbSymbolTableRecord
100
AcDbLinetypeTableRecord
  2
DASHED
 70
     0
  3
__ __ __ __ __ __ __ __ __ __ __ __ __ __ __ __
 72
    65
 73
     2
 40
0.75
 49
0.5
 74
     0
 49
-0.25
 74
     0
  0
LTYPE
  5
979E
330
977F
100
AcDbSymbolTableRecord
100
AcDbLinetypeTableRecord
  2
CENTER
 70
     0
  3
____ _ ____ _ ____ _ ____ _ ____ _ ____ _ ____ 
 72
    65
 73
     4
 40
2.0
 49
1.25
 74
     0
 49
-0.25
 74
     0
 49
0.25
 74
     0
 49
-0.25
 74
     0
  0
LTYPE
  5
979F
330
977F
100
AcDbSymbolTableRecord
100
AcDbLinetypeTableRecord
  2
PHANTOM
 70
     0
  3
______  __  __  ______  __  __  ______  __  __ 
 72
    65
 73
     6
 40
2.5
 49
1.25
 74
     0
 49
-0.25
 74
     0
 49
0.25
 74
     0
 49
-0.25
 74
     0
 49
0.25
 74
     0
 49
-0.25
 74
     0
  0
ENDTAB
  0
TABLE
  2
LAYER
  5
977C
330
0
100
AcDbSymbolTable
 70
     8
  0
LAYER
  5
978A
102
{ACAD_XDICTIONARY
360
9A4A
102
}
330
977C
100
AcDbSymbolTableRecord
100
AcDbLayerTableRecord
  2
0
 70
     0
 62
     7
  6
CONTINUOUS
370
    -3
390
99F8
  0
LAYER
  5
97A0
102
{ACAD_XDICTIONARY
360
9A4C
102
}
330
977C
100
AcDbSymbolTableRecord
100
AcDbLayerTableRecord
  2
4
 70
     0
 62
     1
  6
CENTER
370
    -3
390
99F8
  0
LAYER
  5
97A1
102
{ACAD_XDICTIONARY
360
9A4E
102
}
330
977C
100
AcDbSymbolTableRecord
100
AcDbLayerTableRecord
  2
5
 70
     0
 62
     6
  6
PHANTOM
370
    -3
390
99F8
  0
LAYER
  5
97A2
102
{ACAD_XDICTIONARY
360
9A50
102
}
330
977C
100
AcDbSymbolTableRecord
100
AcDbLayerTableRecord
  2
1
 70
     0
 62
     7
  6
CONTINUOUS
370
    -3
390
99F8
  0
LAYER
  5
97A3
102
{ACAD_XDICTIONARY
360
9A52
102
}
330
977C
100
AcDbSymbolTableRecord
100
AcDbLayerTableRecord
  2
2
 70
     0
 62
     4
  6
CONTINUOUS
370
    -3
390
99F8
  0
LAYER
  5
97A4
102
{ACAD_XDICTIONARY
360
9A54
102
}
330
977C
100
AcDbSymbolTableRecord
100
AcDbLayerTableRecord
  2
3
 70
     0
 62
     2
  6
DASHED
370
    -3
390
99F8
  0
LAYER
  5
97A5
102
{ACAD_XDICTIONARY
360
9A56
102
}
330
977C
100
AcDbSymbolTableRecord
100
AcDbLayerTableRecord
  2
6
 70
     0
 62
     5
  6
CONTINUOUS
370
    -3
390
99F8
  0
LAYER
  5
97A6
102
{ACAD_XDICTIONARY
360
9A58
102
}
330
977C
100
AcDbSymbolTableRecord
100
AcDbLayerTableRecord
  2
7
 70
     0
 62
     3
  6
CONTINUOUS
370
    -3
390
99F8
  0
ENDTAB
  0
TABLE
  2
STYLE
  5
977D
330
0
100
AcDbSymbolTable
 70
     1
  0
STYLE
  5
978B
330
977D
100
AcDbSymbolTableRecord
100
AcDbTextStyleTableRecord
  2
STANDARD
 70
     0
 40
0.0
 41
1.0
 50
0.0
 71
     0
 42
5.0
  3
txt
  4

  0
ENDTAB
  0
TABLE
  2
VIEW
  5
9780
330
0
100
AcDbSymbolTable
 70
     0
  0
ENDTAB
  0
TABLE
  2
UCS
  5
9781
330
0
100
AcDbSymbolTable
 70
     0
  0
ENDTAB
  0
TABLE
  2
APPID
  5
9783
330
0
100
AcDbSymbolTable
 70
     3
  0
APPID
  5
978C
330
9783
100
AcDbSymbolTableRecord
100
AcDbRegAppTableRecord
  2
ACAD
 70
     0
  0
APPID
  5
9A64
330
9783
100
AcDbSymbolTableRecord
100
AcDbRegAppTableRecord
  2
ACAD_NAV_VCDISPLAY
 70
     0
  0
APPID
  5
9A9D
330
9783
100
AcDbSymbolTableRecord
100
AcDbRegAppTableRecord
  2
ACAD_MLEADERVER
 70
     0
  0
ENDTAB
  0
TABLE
  2
DIMSTYLE
  5
9784
330
0
100
AcDbSymbolTable
 70
     1
100
AcDbDimStyleTable
 71
     0
  0
DIMSTYLE
105
97A8
330
9784
100
AcDbSymbolTableRecord
100
AcDbDimStyleTableRecord
  2
STANDARD
 70
     0
 41
3.0
 42
1.0
 43
10.0
 44
1.0
 73
     0
 74
     0
 77
     3
 78
     8
140
3.2
141
0.0
147
1.0
172
     1
173
     1
284
     8
285
     8
286
     8
340
978B
  0
ENDTAB
  0
TABLE
  2
BLOCK_RECORD
  5
977B
330
0
100
AcDbSymbolTable
 70
     0
  0
BLOCK_RECORD
  5
9798
102
{ACAD_XDICTIONARY
360
99F2
102
}
330
977B
100
AcDbSymbolTableRecord
100
AcDbBlockTableRecord
  2
*MODEL_SPACE
340
9A46
  0
BLOCK_RECORD
  5
9794
102
{ACAD_XDICTIONARY
360
99F0
102
}
330
977B
100
AcDbSymbolTableRecord
100
AcDbBlockTableRecord
  2
*PAPER_SPACE
340
9A47
  0
ENDTAB
  0
ENDSEC
  0
SECTION
  2
BLOCKS
  0
BLOCK
  5
9799
330
9798
100
AcDbEntity
  8
0
100
AcDbBlockBegin
  2
*MODEL_SPACE
 70
     0
 10
0.0
 20
0.0
 30
0.0
  3
*MODEL_SPACE
  1

  0
ENDBLK
  5
979A
330
9798
100
AcDbEntity
  8
0
100
AcDbBlockEnd
  0
BLOCK
  5
9795
330
9794
100
AcDbEntity
 67
     1
  8
0
100
AcDbBlockBegin
  2
*PAPER_SPACE
 70
     0
 10
0.0
 20
0.0
 30
0.0
  3
*PAPER_SPACE
  1

  0
ENDBLK
  5
9796
330
9794
100
AcDbEntity
 67
     1
  8
0
100
AcDbBlockEnd
  0
ENDSEC
  0
SECTION
  2
ENTITIES
  0
TEXT
  5
97B0
330
9798
100
AcDbEntity
  8
7
  6
Continuous
100
AcDbText
 10
10.0
 20
18.0
 30
0.0
 40
3.0
  1
TYPE No.TL-252
100
AcDbText
  0
TEXT
  5
97B1
330
9798
100
AcDbEntity
  8
7
  6
Continuous
100
AcDbText
 10
10.0
 20
26.0
 30
0.0
 40
3.0
  1
CODE No.1717
100
AcDbText
  0
TEXT
  5
97B2
330
9798
100
AcDbEntity
  8
1
  6
Continuous
100
AcDbText
 10
10.0
 20
10.0
 30
0.0
 40
1.399999999999999
  1
LAYER
100
AcDbText
  0
TEXT
  5
97B3
330
9798
100
AcDbEntity
  8
1
  6
Continuous
100
AcDbText
 10
17.97951099999998
 20
10.04873699999998
 30
0.0
 40
1.399999999999999
  1
1
100
AcDbText
  0
TEXT
  5
97B4
330
9798
100
AcDbEntity
  8
7
  6
Continuous
100
AcDbText
 10
29.97951099999999
 20
10.04873699999998
 30
0.0
 40
1.399999999999999
  1
7
100
AcDbText
  0
TEXT
  5
97B5
330
9798
100
AcDbEntity
  8
4
  6
CENTER
100
AcDbText
 10
23.97951099999999
 20
10.04873699999998
 30
0.0
 40
1.399999999999999
  1
4
100
AcDbText
  0
TEXT
  5
97B6
330
9798
100
AcDbEntity
  8
3
  6
DASHED
100
AcDbText
 10
21.979511
 20
10.04873699999998
 30
0.0
 40
1.399999999999999
  1
3
100
AcDbText
  0
TEXT
  5
97B7
330
9798
100
AcDbEntity
  8
2
  6
Continuous
100
AcDbText
 10
19.97951099999999
 20
10.04873699999998
 30
0.0
 40
1.399999999999999
  1
2
100
AcDbText
  0
TEXT
  5
97B8
330
9798
100
AcDbEntity
  8
6
  6
Continuous
100
AcDbText
 10
27.979511
 20
10.04873699999998
 30
0.0
 40
1.399999999999999
  1
6
100
AcDbText
  0
TEXT
  5
97B9
330
9798
100
AcDbEntity
  8
5
  6
PHANTOM
100
AcDbText
 10
25.97951099999999
 20
10.04873699999998
 30
0.0
 40
1.399999999999999
  1
5
100
AcDbText
  0
LINE
  5
97BA
330
9798
100
AcDbEntity
  8
4
  6
CENTER
100
AcDbLine
 10
27.426496
 20
99.36747699999999
 30
0.0
 11
27.426496
 21
127.358477
 31
0.0
  0
LINE
  5
97BB
330
9798
100
AcDbEntity
  8
4
  6
CENTER
100
AcDbLine
 10
13.72109599999999
 20
113.4634769999999
 30
0.0
 11
40.863996
 21
113.4634769999999
 31
0.0
  0
LINE
  5
97BC
330
9798
100
AcDbEntity
  8
1
  6
Continuous
100
AcDbLine
 10
26.426496
 20
115.313477
 30
0.0
 11
28.42649600000001
 21
115.313477
 31
0.0
  0
LINE
  5
97BD
330
9798
100
AcDbEntity
  8
1
  6
Continuous
100
AcDbLine
 10
26.176496
 20
118.304477
 30
0.0
 11
26.176496
 21
109.340477
 31
0.0
  0
LINE
  5
97BE
330
9798
100
AcDbEntity
  8
1
  6
Continuous
100
AcDbLine
 10
28.676496
 20
118.304477
 30
0.0
 11
28.676496
 21
109.340477
 31
0.0
  0
LINE
  5
97BF
330
9798
100
AcDbEntity
  8
1
  6
Continuous
100
AcDbLine
 10
28.42649600000001
 20
109.590477
 30
0.0
 11
29.680096
 21
108.337477
 31
0.0
  0
LINE
  5
97C0
330
9798
100
AcDbEntity
  8
1
  6
Continuous
100
AcDbLine
 10
26.426496
 20
109.590477
 30
0.0
 11
25.17289599999999
 21
108.337477
 31
0.0
  0
LINE
  5
97C1
330
9798
100
AcDbEntity
  8
1
  6
Continuous
100
AcDbLine
 10
26.426496
 20
109.590477
 30
0.0
 11
26.426496
 21
115.313477
 31
0.0
  0
LINE
  5
97C2
330
9798
100
AcDbEntity
  8
1
  6
Continuous
100
AcDbLine
 10
28.42649600000001
 20
109.590477
 30
0.0
 11
28.42649600000001
 21
115.313477
 31
0.0
  0
LINE
  5
97C3
330
9798
100
AcDbEntity
  8
1
  6
Continuous
100
AcDbLine
 10
111.1844959999999
 20
53.463777
 30
0.0
 11
111.1844959999999
 21
33.463777
 31
0.0
  0
LINE
  5
97C4
330
9798
100
AcDbEntity
  8
1
  6
Continuous
100
AcDbLine
 10
112.184496
 20
32.463777
 30
0.0
 11
112.184496
 21
54.463777
 31
0.0
  0
LINE
  5
97C5
330
9798
100
AcDbEntity
  8
1
  6
Continuous
100
AcDbLine
 10
113.184496
 20
54.463777
 30
0.0
 11
113.184496
 21
32.463777
 31
0.0
  0
LINE
  5
97C6
330
9798
100
AcDbEntity
  8
4
  6
CENTER
100
AcDbLine
 10
108.4424959999999
 20
43.463777
 30
0.0
 11
143.0284959999999
 21
43.463777
 31
0.0
  0
LINE
  5
97C7
330
9798
100
AcDbEntity
  8
1
  6
Continuous
100
AcDbLine
 10
112.184496
 20
32.463777
 30
0.0
 11
113.184496
 21
32.463777
 31
0.0
  0
LINE
  5
97C8
330
9798
100
AcDbEntity
  8
1
  6
Continuous
100
AcDbLine
 10
112.184496
 20
54.463777
 30
0.0
 11
113.184496
 21
54.463777
 31
0.0
  0
LINE
  5
97C9
330
9798
100
AcDbEntity
  8
1
  6
Continuous
100
AcDbLine
 10
112.184496
 20
32.463777
 30
0.0
 11
111.1844959999999
 21
33.463777
 31
0.0
  0
LINE
  5
97CA
330
9798
100
AcDbEntity
  8
1
  6
Continuous
100
AcDbLine
 10
111.1844959999999
 20
53.463777
 30
0.0
 11
112.184496
 21
54.463777
 31
0.0
  0
LINE
  5
97CB
330
9798
100
AcDbEntity
  8
1
  6
Continuous
100
AcDbLine
 10
128.984496
 20
47.96377699999999
 30
0.0
 11
128.1844959999999
 21
47.96377699999999
 31
0.0
  0
LINE
  5
97CC
330
9798
100
AcDbEntity
  8
1
  6
Continuous
100
AcDbLine
 10
128.1844959999999
 20
38.963777
 30
0.0
 11
128.1844959999999
 21
47.96377699999999
 31
0.0
  0
LINE
  5
97CD
330
9798
100
AcDbEntity
  8
1
  6
Continuous
100
AcDbLine
 10
128.984496
 20
38.963777
 30
0.0
 11
128.180496
 21
38.963777
 31
0.0
  0
LINE
  5
97CE
330
9798
100
AcDbEntity
  8
1
  6
Continuous
100
AcDbLine
 10
110.1844959999999
 20
47.96377699999999
 30
0.0
 11
110.1844959999999
 21
44.713777
 31
0.0
  0
LINE
  5
97CF
330
9798
100
AcDbEntity
  8
1
  6
Continuous
100
AcDbLine
 10
110.1844959999999
 20
47.96377699999999
 30
0.0
 11
111.1844959999999
 21
48.963777
 31
0.0
  0
LINE
  5
97D0
330
9798
100
AcDbEntity
  8
1
  6
Continuous
100
AcDbLine
 10
110.1844959999999
 20
38.963777
 30
0.0
 11
111.1844959999999
 21
37.963777
 31
0.0
  0
LINE
  5
97D1
330
9798
100
AcDbEntity
  8
1
  6
Continuous
100
AcDbLine
 10
110.1844959999999
 20
44.713777
 30
0.0
 11
110.6844959999999
 21
44.713777
 31
0.0
  0
LINE
  5
97D2
330
9798
100
AcDbEntity
  8
1
  6
Continuous
100
AcDbLine
 10
110.1844959999999
 20
42.213777
 30
0.0
 11
110.6844959999999
 21
42.213777
 31
0.0
  0
LINE
  5
97D3
330
9798
100
AcDbEntity
  8
1
  6
Continuous
100
AcDbLine
 10
110.6844959999999
 20
44.713777
 30
0.0
 11
110.6844959999999
 21
42.213777
 31
0.0
  0
LINE
  5
97D4
330
9798
100
AcDbEntity
  8
1
  6
Continuous
100
AcDbLine
 10
110.1844959999999
 20
42.213777
 30
0.0
 11
110.1844959999999
 21
38.963777
 31
0.0
  0
LINE
  5
97D5
330
9798
100
AcDbEntity
  8
1
  6
Continuous
100
AcDbLine
 10
110.1844959999999
 20
44.83217699999999
 30
0.0
 11
111.1844959999999
 21
45.832177
 31
0.0
  0
LINE
  5
97D6
330
9798
100
AcDbEntity
  8
1
  6
Continuous
100
AcDbLine
 10
110.1844959999999
 20
42.095377
 30
0.0
 11
111.1844959999999
 21
41.09537699999999
 31
0.0
  0
LINE
  5
97D7
330
9798
100
AcDbEntity
  8
1
  6
Continuous
100
AcDbLine
 10
110.6844959999999
 20
42.413777
 30
0.0
 11
111.1844959999999
 21
42.413777
 31
0.0
  0
LINE
  5
97D8
330
9798
100
AcDbEntity
  8
1
  6
Continuous
100
AcDbLine
 10
110.6844959999999
 20
44.513777
 30
0.0
 11
111.1844959999999
 21
44.513777
 31
0.0
  0
LINE
  5
97D9
330
9798
100
AcDbEntity
  8
1
  6
Continuous
100
AcDbLine
 10
140.6844959999999
 20
45.963777
 30
0.0
 11
140.6844959999999
 21
40.963777
 31
0.0
  0
LINE
  5
97DA
330
9798
100
AcDbEntity
  8
1
  6
Continuous
100
AcDbLine
 10
113.184496
 20
33.963777
 30
0.0
 11
125.1724959999999
 21
33.963777
 31
0.0
  0
LINE
  5
97DB
330
9798
100
AcDbEntity
  8
1
  6
Continuous
100
AcDbLine
 10
125.284496
 20
52.963777
 30
0.0
 11
113.184496
 21
52.963777
 31
0.0
  0
LINE
  5
97DC
330
9798
100
AcDbEntity
  8
1
  6
Continuous
100
AcDbLine
 10
130.1844959999999
 20
35.75927699999999
 30
0.0
 11
130.1844959999999
 21
37.16377700000001
 31
0.0
  0
LINE
  5
97DD
330
9798
100
AcDbEntity
  8
1
  6
Continuous
100
AcDbLine
 10
126.9844959999998
 20
52.063777
 30
0.0
 11
126.1844959999999
 21
52.063777
 31
0.0
  0
LINE
  5
97DE
330
9798
100
AcDbEntity
  8
1
  6
Continuous
100
AcDbLine
 10
126.1844959999999
 20
52.063777
 30
0.0
 11
125.284496
 21
52.963777
 31
0.0
  0
LINE
  5
97DF
330
9798
100
AcDbEntity
  8
1
  6
Continuous
100
AcDbLine
 10
127.484496
 20
35.363777
 30
0.0
 11
127.484496
 21
51.563777
 31
0.0
  0
LINE
  5
97E0
330
9798
100
AcDbEntity
  8
1
  6
Continuous
100
AcDbLine
 10
127.484496
 20
51.563777
 30
0.0
 11
126.9844959999998
 21
52.063777
 31
0.0
  0
LINE
  5
97E1
330
9798
100
AcDbEntity
  8
1
  6
Continuous
100
AcDbLine
 10
126.9844959999998
 20
34.863777
 30
0.0
 11
126.1844959999999
 21
34.863777
 31
0.0
  0
LINE
  5
97E2
330
9798
100
AcDbEntity
  8
1
  6
Continuous
100
AcDbLine
 10
126.1844959999999
 20
34.863777
 30
0.0
 11
125.284496
 21
33.963777
 31
0.0
  0
LINE
  5
97E3
330
9798
100
AcDbEntity
  8
1
  6
Continuous
100
AcDbLine
 10
127.484496
 20
35.363777
 30
0.0
 11
126.9844959999998
 21
34.863777
 31
0.0
  0
LINE
  5
97E4
330
9798
100
AcDbEntity
  8
1
  6
Continuous
100
AcDbLine
 10
125.284496
 20
48.73977700000001
 30
0.0
 11
125.284496
 21
52.963777
 31
0.0
  0
LINE
  5
97E5
330
9798
100
AcDbEntity
  8
1
  6
Continuous
100
AcDbLine
 10
113.6844959999999
 20
48.73977700000001
 30
0.0
 11
113.6844959999999
 21
52.963777
 31
0.0
  0
LINE
  5
97E6
330
9798
100
AcDbEntity
  8
1
  6
Continuous
100
AcDbLine
 10
130.1844959999999
 20
51.168277
 30
0.0
 11
127.484496
 21
51.168277
 31
0.0
  0
LINE
  5
97E7
330
9798
100
AcDbEntity
  8
1
  6
Continuous
100
AcDbLine
 10
128.984496
 20
49.463777
 30
0.0
 11
127.484496
 21
49.463777
 31
0.0
  0
LINE
  5
97E8
330
9798
100
AcDbEntity
  8
1
  6
Continuous
100
AcDbLine
 10
130.1844959999999
 20
35.75927699999999
 30
0.0
 11
127.484496
 21
35.75927699999999
 31
0.0
  0
LINE
  5
97E9
330
9798
100
AcDbEntity
  8
1
  6
Continuous
100
AcDbLine
 10
128.984496
 20
37.463777
 30
0.0
 11
127.484496
 21
37.463777
 31
0.0
  0
LINE
  5
97EA
330
9798
100
AcDbEntity
  8
1
  6
Continuous
100
AcDbLine
 10
125.284496
 20
48.73977700000001
 30
0.0
 11
113.184496
 21
48.73977700000001
 31
0.0
  0
LINE
  5
97EB
330
9798
100
AcDbEntity
  8
1
  6
Continuous
100
AcDbLine
 10
126.1844959999999
 20
52.063777
 30
0.0
 11
126.1844959999999
 21
47.839777
 31
0.0
  0
LINE
  5
97EC
330
9798
100
AcDbEntity
  8
1
  6
Continuous
100
AcDbLine
 10
126.1844959999999
 20
47.839777
 30
0.0
 11
125.284496
 21
48.73977700000001
 31
0.0
  0
LINE
  5
97ED
330
9798
100
AcDbEntity
  8
1
  6
Continuous
100
AcDbLine
 10
126.9844959999998
 20
52.063777
 30
0.0
 11
126.9844959999998
 21
47.839777
 31
0.0
  0
LINE
  5
97EE
330
9798
100
AcDbEntity
  8
1
  6
Continuous
100
AcDbLine
 10
126.1844959999999
 20
47.839777
 30
0.0
 11
126.9844959999998
 21
47.839777
 31
0.0
  0
LINE
  5
97EF
330
9798
100
AcDbEntity
  8
1
  6
Continuous
100
AcDbLine
 10
127.484496
 20
47.33977699999999
 30
0.0
 11
126.9844959999998
 21
47.839777
 31
0.0
  0
LINE
  5
97F0
330
9798
100
AcDbEntity
  8
1
  6
Continuous
100
AcDbLine
 10
125.284496
 20
38.187777
 30
0.0
 11
125.284496
 21
33.963777
 31
0.0
  0
LINE
  5
97F1
330
9798
100
AcDbEntity
  8
1
  6
Continuous
100
AcDbLine
 10
113.6844959999999
 20
38.187777
 30
0.0
 11
113.6844959999999
 21
33.963777
 31
0.0
  0
LINE
  5
97F2
330
9798
100
AcDbEntity
  8
1
  6
Continuous
100
AcDbLine
 10
125.284496
 20
38.187777
 30
0.0
 11
113.184496
 21
38.187777
 31
0.0
  0
LINE
  5
97F3
330
9798
100
AcDbEntity
  8
1
  6
Continuous
100
AcDbLine
 10
126.1844959999999
 20
34.863777
 30
0.0
 11
126.1844959999999
 21
39.087777
 31
0.0
  0
LINE
  5
97F4
330
9798
100
AcDbEntity
  8
1
  6
Continuous
100
AcDbLine
 10
126.1844959999999
 20
39.087777
 30
0.0
 11
125.284496
 21
38.187777
 31
0.0
  0
LINE
  5
97F5
330
9798
100
AcDbEntity
  8
1
  6
Continuous
100
AcDbLine
 10
126.9844959999998
 20
34.863777
 30
0.0
 11
126.9844959999998
 21
39.087777
 31
0.0
  0
LINE
  5
97F6
330
9798
100
AcDbEntity
  8
1
  6
Continuous
100
AcDbLine
 10
126.1844959999999
 20
39.087777
 30
0.0
 11
126.9844959999998
 21
39.087777
 31
0.0
  0
LINE
  5
97F7
330
9798
100
AcDbEntity
  8
1
  6
Continuous
100
AcDbLine
 10
127.484496
 20
39.587777
 30
0.0
 11
126.9844959999998
 21
39.087777
 31
0.0
  0
LINE
  5
97F8
330
9798
100
AcDbEntity
  8
2
  6
Continuous
100
AcDbLine
 10
127.484496
 20
47.33977699999999
 30
0.0
 11
113.184496
 21
38.187777
 31
0.0
  0
LINE
  5
97F9
330
9798
100
AcDbEntity
  8
2
  6
Continuous
100
AcDbLine
 10
113.184496
 20
48.73977700000001
 30
0.0
 11
127.484496
 21
39.587777
 31
0.0
  0
LINE
  5
97FA
330
9798
100
AcDbEntity
  8
1
  6
Continuous
100
AcDbLine
 10
276.624496
 20
105.563477
 30
0.0
 11
266.0104959999998
 21
105.563477
 31
0.0
  0
LINE
  5
97FB
330
9798
100
AcDbEntity
  8
1
  6
Continuous
100
AcDbLine
 10
266.0104959999998
 20
121.363477
 30
0.0
 11
276.624496
 21
121.363477
 31
0.0
  0
LINE
  5
97FC
330
9798
100
AcDbEntity
  8
1
  6
Continuous
100
AcDbLine
 10
277.286496
 20
115.963477
 30
0.0
 11
278.9914959999999
 21
115.963477
 31
0.0
  0
LINE
  5
97FD
330
9798
100
AcDbEntity
  8
1
  6
Continuous
100
AcDbLine
 10
263.036496
 20
115.4634769999999
 30
0.0
 11
263.036496
 21
111.463477
 31
0.0
  0
LINE
  5
97FE
330
9798
100
AcDbEntity
  8
1
  6
Continuous
100
AcDbLine
 10
263.036496
 20
111.463477
 30
0.0
 11
262.7364959999998
 21
111.463477
 31
0.0
  0
LINE
  5
97FF
330
9798
100
AcDbEntity
  8
1
  6
Continuous
100
AcDbLine
 10
263.036496
 20
115.4634769999999
 30
0.0
 11
262.7364959999998
 21
115.4634769999999
 31
0.0
  0
LINE
  5
9800
330
9798
100
AcDbEntity
  8
1
  6
Continuous
100
AcDbLine
 10
262.7364959999998
 20
115.4634769999999
 30
0.0
 11
262.7364959999998
 21
111.463477
 31
0.0
  0
LINE
  5
9801
330
9798
100
AcDbEntity
  8
1
  6
Continuous
100
AcDbLine
 10
262.7364959999998
 20
115.4634769999999
 30
0.0
 11
261.922496
 21
115.063477
 31
0.0
  0
LINE
  5
9802
330
9798
100
AcDbEntity
  8
1
  6
Continuous
100
AcDbLine
 10
262.7364959999998
 20
111.463477
 30
0.0
 11
261.922496
 21
111.863477
 31
0.0
  0
LINE
  5
9803
330
9798
100
AcDbEntity
  8
1
  6
Continuous
100
AcDbLine
 10
279.536496
 20
115.4634769999999
 30
0.0
 11
279.536496
 21
111.463477
 31
0.0
  0
LINE
  5
9804
330
9798
100
AcDbEntity
  8
1
  6
Continuous
100
AcDbLine
 10
279.536496
 20
111.463477
 30
0.0
 11
279.836496
 21
111.463477
 31
0.0
  0
LINE
  5
9805
330
9798
100
AcDbEntity
  8
1
  6
Continuous
100
AcDbLine
 10
279.536496
 20
115.4634769999999
 30
0.0
 11
279.836496
 21
115.4634769999999
 31
0.0
  0
LINE
  5
9806
330
9798
100
AcDbEntity
  8
1
  6
Continuous
100
AcDbLine
 10
279.836496
 20
115.4634769999999
 30
0.0
 11
279.836496
 21
111.463477
 31
0.0
  0
LINE
  5
9807
330
9798
100
AcDbEntity
  8
1
  6
Continuous
100
AcDbLine
 10
279.836496
 20
115.4634769999999
 30
0.0
 11
280.6504959999999
 21
115.063477
 31
0.0
  0
LINE
  5
9808
330
9798
100
AcDbEntity
  8
1
  6
Continuous
100
AcDbLine
 10
279.836496
 20
111.463477
 30
0.0
 11
280.6504959999999
 21
111.863477
 31
0.0
  0
LINE
  5
9809
330
9798
100
AcDbEntity
  8
1
  6
Continuous
100
AcDbLine
 10
128.1844959999999
 20
42.413777
 30
0.0
 11
128.984496
 21
42.413777
 31
0.0
  0
LINE
  5
980A
330
9798
100
AcDbEntity
  8
1
  6
Continuous
100
AcDbLine
 10
128.1844959999999
 20
44.513777
 30
0.0
 11
128.984496
 21
44.513777
 31
0.0
  0
LINE
  5
980B
330
9798
100
AcDbEntity
  8
1
  6
Continuous
100
AcDbLine
 10
130.5844959999998
 20
39.963777
 30
0.0
 11
139.6844959999999
 21
39.963777
 31
0.0
  0
LINE
  5
980C
330
9798
100
AcDbEntity
  8
1
  6
Continuous
100
AcDbLine
 10
130.5844959999998
 20
46.963777
 30
0.0
 11
139.6844959999999
 21
46.963777
 31
0.0
  0
LINE
  5
980D
330
9798
100
AcDbEntity
  8
1
  6
Continuous
100
AcDbLine
 10
140.6844959999999
 20
45.963777
 30
0.0
 11
139.6844959999999
 21
46.963777
 31
0.0
  0
LINE
  5
980E
330
9798
100
AcDbEntity
  8
1
  6
Continuous
100
AcDbLine
 10
139.6844959999999
 20
39.963777
 30
0.0
 11
140.6844959999999
 21
40.963777
 31
0.0
  0
LINE
  5
980F
330
9798
100
AcDbEntity
  8
1
  6
Continuous
100
AcDbLine
 10
130.5844959999998
 20
45.69087699999999
 30
0.0
 11
140.6844959999999
 21
45.69087699999999
 31
0.0
  0
LINE
  5
9810
330
9798
100
AcDbEntity
  8
1
  6
Continuous
100
AcDbLine
 10
140.6844959999999
 20
41.237777
 30
0.0
 11
130.5844959999998
 21
41.237777
 31
0.0
  0
LINE
  5
9811
330
9798
100
AcDbEntity
  8
1
  6
Continuous
100
AcDbLine
 10
139.6844959999999
 20
46.963777
 30
0.0
 11
139.6844959999999
 21
45.69087699999999
 31
0.0
  0
LINE
  5
9812
330
9798
100
AcDbEntity
  8
1
  6
Continuous
100
AcDbLine
 10
139.6844959999999
 20
39.963777
 30
0.0
 11
139.6844959999999
 21
41.237777
 31
0.0
  0
LINE
  5
9813
330
9798
100
AcDbEntity
  8
2
  6
Continuous
100
AcDbLine
 10
140.6844959999999
 20
45.69087699999999
 30
0.0
 11
137.591496
 21
44.513777
 31
0.0
  0
LINE
  5
9814
330
9798
100
AcDbEntity
  8
2
  6
Continuous
100
AcDbLine
 10
130.5844959999998
 20
45.08187699999999
 30
0.0
 11
132.0764959999999
 21
44.513777
 31
0.0
  0
LINE
  5
9815
330
9798
100
AcDbEntity
  8
1
  6
Continuous
100
AcDbLine
 10
138.1594959999999
 20
44.513777
 30
0.0
 11
138.1594959999999
 21
42.413777
 31
0.0
  0
LINE
  5
9816
330
9798
100
AcDbEntity
  8
2
  6
Continuous
100
AcDbLine
 10
137.5944959999999
 20
42.413777
 30
0.0
 11
140.6844959999999
 21
41.237777
 31
0.0
  0
LINE
  5
9817
330
9798
100
AcDbEntity
  8
2
  6
Continuous
100
AcDbLine
 10
132.073496
 20
42.413777
 30
0.0
 11
130.5844959999998
 21
41.846677
 31
0.0
  0
LINE
  5
9818
330
9798
100
AcDbEntity
  8
1
  6
Continuous
100
AcDbLine
 10
263.5824959999998
 20
115.963477
 30
0.0
 11
265.286496
 21
115.963477
 31
0.0
  0
LINE
  5
9819
330
9798
100
AcDbEntity
  8
1
  6
Continuous
100
AcDbLine
 10
273.786496
 20
106.1804769999999
 30
0.0
 11
273.786496
 21
107.463477
 31
0.0
  0
LINE
  5
981A
330
9798
100
AcDbEntity
  8
1
  6
Continuous
100
AcDbLine
 10
128.984496
 20
51.16377700000001
 30
0.0
 11
130.5844959999998
 21
51.16377700000001
 31
0.0
  0
LINE
  5
981B
330
9798
100
AcDbEntity
  8
1
  6
Continuous
100
AcDbLine
 10
128.984496
 20
37.16377700000001
 30
0.0
 11
130.5844959999998
 21
37.16377700000001
 31
0.0
  0
LINE
  5
981C
330
9798
100
AcDbEntity
  8
1
  6
Continuous
100
AcDbLine
 10
128.984496
 20
51.16377700000001
 30
0.0
 11
128.984496
 21
37.16377700000001
 31
0.0
  0
LINE
  5
981D
330
9798
100
AcDbEntity
  8
1
  6
Continuous
100
AcDbLine
 10
128.984496
 20
40.963777
 30
0.0
 11
130.5844959999998
 21
40.963777
 31
0.0
  0
LINE
  5
981E
330
9798
100
AcDbEntity
  8
1
  6
Continuous
100
AcDbLine
 10
194.481496
 20
117.1184769999999
 30
0.0
 11
194.481496
 21
116.7334769999999
 31
0.0
  0
LINE
  5
981F
330
9798
100
AcDbEntity
  8
1
  6
Continuous
100
AcDbLine
 10
196.4814959999999
 20
116.760477
 30
0.0
 11
196.4814959999999
 21
116.375477
 31
0.0
  0
LINE
  5
9820
330
9798
100
AcDbEntity
  8
1
  6
Continuous
100
AcDbLine
 10
195.0814959999999
 20
119.963477
 30
0.0
 11
195.0814959999999
 21
106.9634769999999
 31
0.0
  0
LINE
  5
9821
330
9798
100
AcDbEntity
  8
1
  6
Continuous
100
AcDbLine
 10
195.8814959999999
 20
119.963477
 30
0.0
 11
195.8814959999999
 21
106.9634769999999
 31
0.0
  0
LINE
  5
9822
330
9798
100
AcDbEntity
  8
1
  6
Continuous
100
AcDbLine
 10
195.0814959999999
 20
119.963477
 30
0.0
 11
195.8814959999999
 21
119.963477
 31
0.0
  0
LINE
  5
9823
330
9798
100
AcDbEntity
  8
1
  6
Continuous
100
AcDbLine
 10
195.0814959999999
 20
106.9634769999999
 30
0.0
 11
195.8814959999999
 21
106.9634769999999
 31
0.0
  0
LINE
  5
9824
330
9798
100
AcDbEntity
  8
1
  6
Continuous
100
AcDbLine
 10
194.481496
 20
117.1184769999999
 30
0.0
 11
195.0814959999999
 21
117.010477
 31
0.0
  0
LINE
  5
9825
330
9798
100
AcDbEntity
  8
1
  6
Continuous
100
AcDbLine
 10
194.880496
 20
115.981477
 30
0.0
 11
195.0814959999999
 21
115.886477
 31
0.0
  0
LINE
  5
9826
330
9798
100
AcDbEntity
  8
1
  6
Continuous
100
AcDbLine
 10
194.960496
 20
114.1624769999999
 30
0.0
 11
195.0814959999999
 21
114.092477
 31
0.0
  0
LINE
  5
9827
330
9798
100
AcDbEntity
  8
1
  6
Continuous
100
AcDbLine
 10
194.481496
 20
111.7834769999999
 30
0.0
 11
195.0814959999999
 21
111.503477
 31
0.0
  0
LINE
  5
9828
330
9798
100
AcDbEntity
  8
1
  6
Continuous
100
AcDbLine
 10
194.481496
 20
110.167477
 30
0.0
 11
195.0814959999999
 21
110.059477
 31
0.0
  0
LINE
  5
9829
330
9798
100
AcDbEntity
  8
1
  6
Continuous
100
AcDbLine
 10
194.481496
 20
116.7334769999999
 30
0.0
 11
195.0814959999999
 21
116.625477
 31
0.0
  0
LINE
  5
982A
330
9798
100
AcDbEntity
  8
1
  6
Continuous
100
AcDbLine
 10
194.484496
 20
115.5354769999999
 30
0.0
 11
195.0814959999999
 21
115.256477
 31
0.0
  0
LINE
  5
982B
330
9798
100
AcDbEntity
  8
1
  6
Continuous
100
AcDbLine
 10
194.561496
 20
113.469477
 30
0.0
 11
195.0814959999999
 21
113.167477
 31
0.0
  0
LINE
  5
982C
330
9798
100
AcDbEntity
  8
1
  6
Continuous
100
AcDbLine
 10
194.481496
 20
111.322477
 30
0.0
 11
195.0814959999999
 21
111.0414769999999
 31
0.0
  0
LINE
  5
982D
330
9798
100
AcDbEntity
  8
1
  6
Continuous
100
AcDbLine
 10
194.481496
 20
109.788477
 30
0.0
 11
195.0814959999999
 21
109.6814769999999
 31
0.0
  0
LINE
  5
982E
330
9798
100
AcDbEntity
  8
1
  6
Continuous
100
AcDbLine
 10
194.481496
 20
111.7834769999999
 30
0.0
 11
194.481496
 21
111.322477
 31
0.0
  0
LINE
  5
982F
330
9798
100
AcDbEntity
  8
1
  6
Continuous
100
AcDbLine
 10
194.481496
 20
110.167477
 30
0.0
 11
194.481496
 21
109.788477
 31
0.0
  0
LINE
  5
9830
330
9798
100
AcDbEntity
  8
1
  6
Continuous
100
AcDbLine
 10
194.496496
 20
115.549477
 30
0.0
 11
194.892496
 21
115.994477
 31
0.0
  0
LINE
  5
9831
330
9798
100
AcDbEntity
  8
1
  6
Continuous
100
AcDbLine
 10
196.0864959999999
 20
114.7864769999999
 30
0.0
 11
196.4814959999999
 21
115.231477
 31
0.0
  0
LINE
  5
9832
330
9798
100
AcDbEntity
  8
1
  6
Continuous
100
AcDbLine
 10
194.561496
 20
113.469477
 30
0.0
 11
194.960496
 21
114.1624769999999
 31
0.0
  0
LINE
  5
9833
330
9798
100
AcDbEntity
  8
1
  6
Continuous
100
AcDbLine
 10
196.561496
 20
113.235477
 30
0.0
 11
196.256496
 21
112.4874769999999
 31
0.0
  0
LINE
  5
9834
330
9798
100
AcDbEntity
  8
1
  6
Continuous
100
AcDbLine
 10
195.8814959999999
 20
116.8674769999999
 30
0.0
 11
196.4814959999999
 21
116.760477
 31
0.0
  0
LINE
  5
9835
330
9798
100
AcDbEntity
  8
1
  6
Continuous
100
AcDbLine
 10
195.8814959999999
 20
116.482477
 30
0.0
 11
196.4814959999999
 21
116.375477
 31
0.0
  0
LINE
  5
9836
330
9798
100
AcDbEntity
  8
1
  6
Continuous
100
AcDbLine
 10
195.8814959999999
 20
115.512477
 30
0.0
 11
196.4814959999999
 21
115.231477
 31
0.0
  0
LINE
  5
9837
330
9798
100
AcDbEntity
  8
1
  6
Continuous
100
AcDbLine
 10
195.8814959999999
 20
114.8814769999999
 30
0.0
 11
196.0864959999999
 21
114.7864769999999
 31
0.0
  0
LINE
  5
9838
330
9798
100
AcDbEntity
  8
1
  6
Continuous
100
AcDbLine
 10
195.8814959999999
 20
113.6294769999999
 30
0.0
 11
196.561496
 21
113.235477
 31
0.0
  0
LINE
  5
9839
330
9798
100
AcDbEntity
  8
1
  6
Continuous
100
AcDbLine
 10
195.8814959999999
 20
112.7044769999999
 30
0.0
 11
196.256496
 21
112.4874769999999
 31
0.0
  0
LINE
  5
983A
330
9798
100
AcDbEntity
  8
1
  6
Continuous
100
AcDbLine
 10
195.8814959999999
 20
111.128477
 30
0.0
 11
196.4814959999999
 21
110.8474769999999
 31
0.0
  0
LINE
  5
983B
330
9798
100
AcDbEntity
  8
1
  6
Continuous
100
AcDbLine
 10
195.8814959999999
 20
110.667477
 30
0.0
 11
196.095496
 21
110.567477
 31
0.0
  0
LINE
  5
983C
330
9798
100
AcDbEntity
  8
1
  6
Continuous
100
AcDbLine
 10
195.8814959999999
 20
109.916477
 30
0.0
 11
196.4814959999999
 21
109.809477
 31
0.0
  0
LINE
  5
983D
330
9798
100
AcDbEntity
  8
1
  6
Continuous
100
AcDbLine
 10
195.8814959999999
 20
109.538477
 30
0.0
 11
196.072496
 21
109.5044769999999
 31
0.0
  0
LINE
  5
983E
330
9798
100
AcDbEntity
  8
1
  6
Continuous
100
AcDbLine
 10
177.722496
 20
126.163477
 30
0.0
 11
177.722496
 21
100.7634769999999
 31
0.0
  0
LINE
  5
983F
330
9798
100
AcDbEntity
  8
1
  6
Continuous
100
AcDbLine
 10
181.2224959999998
 20
123.163477
 30
0.0
 11
181.2224959999998
 21
103.7634769999999
 31
0.0
  0
LINE
  5
9840
330
9798
100
AcDbEntity
  8
1
  6
Continuous
100
AcDbLine
 10
177.722496
 20
126.163477
 30
0.0
 11
180.3244959999999
 21
126.163477
 31
0.0
  0
LINE
  5
9841
330
9798
100
AcDbEntity
  8
1
  6
Continuous
100
AcDbLine
 10
177.722496
 20
119.813477
 30
0.0
 11
180.3244959999999
 21
119.813477
 31
0.0
  0
LINE
  5
9842
330
9798
100
AcDbEntity
  8
1
  6
Continuous
100
AcDbLine
 10
177.722496
 20
100.7634769999999
 30
0.0
 11
180.3244959999999
 21
100.7634769999999
 31
0.0
  0
LINE
  5
9843
330
9798
100
AcDbEntity
  8
1
  6
Continuous
100
AcDbLine
 10
177.722496
 20
107.113477
 30
0.0
 11
180.3244959999999
 21
107.113477
 31
0.0
  0
LINE
  5
9844
330
9798
100
AcDbEntity
  8
1
  6
Continuous
100
AcDbLine
 10
207.853496
 20
118.204477
 30
0.0
 11
207.853496
 21
108.849477
 31
0.0
  0
LINE
  5
9845
330
9798
100
AcDbEntity
  8
1
  6
Continuous
100
AcDbLine
 10
212.053496
 20
118.204477
 30
0.0
 11
212.053496
 21
108.849477
 31
0.0
  0
LINE
  5
9846
330
9798
100
AcDbEntity
  8
1
  6
Continuous
100
AcDbLine
 10
208.550496
 20
119.813477
 30
0.0
 11
211.356496
 21
119.813477
 31
0.0
  0
LINE
  5
9847
330
9798
100
AcDbEntity
  8
1
  6
Continuous
100
AcDbLine
 10
208.476496
 20
116.638477
 30
0.0
 11
211.430496
 21
116.638477
 31
0.0
  0
LINE
  5
9848
330
9798
100
AcDbEntity
  8
4
  6
CENTER
100
AcDbLine
 10
174.010496
 20
43.463777
 30
0.0
 11
215.464496
 21
43.463777
 31
0.0
  0
LINE
  5
9849
330
9798
100
AcDbEntity
  8
1
  6
Continuous
100
AcDbLine
 10
208.550496
 20
107.113477
 30
0.0
 11
211.356496
 21
107.113477
 31
0.0
  0
LINE
  5
984A
330
9798
100
AcDbEntity
  8
1
  6
Continuous
100
AcDbLine
 10
208.476496
 20
110.2884769999999
 30
0.0
 11
211.430496
 21
110.2884769999999
 31
0.0
  0
LINE
  5
984B
330
9798
100
AcDbEntity
  8
1
  6
Continuous
100
AcDbLine
 10
51.604396
 20
185.5554769999999
 30
0.0
 11
49.478696
 21
186.538477
 31
0.0
  0
LINE
  5
984C
330
9798
100
AcDbEntity
  8
1
  6
Continuous
100
AcDbLine
 10
51.604396
 20
181.372477
 30
0.0
 11
49.478696
 21
180.3884769999999
 31
0.0
  0
LINE
  5
984D
330
9798
100
AcDbEntity
  8
1
  6
Continuous
100
AcDbLine
 10
12.926496
 20
186.623477
 30
0.0
 11
12.926496
 21
180.303477
 31
0.0
  0
LINE
  5
984E
330
9798
100
AcDbEntity
  8
1
  6
Continuous
100
AcDbLine
 10
18.418896
 20
173.463477
 30
0.0
 11
21.149596
 21
173.463477
 31
0.0
  0
LINE
  5
984F
330
9798
100
AcDbEntity
  8
1
  6
Continuous
100
AcDbLine
 10
18.418896
 20
193.463477
 30
0.0
 11
21.149596
 21
193.463477
 31
0.0
  0
LINE
  5
9850
330
9798
100
AcDbEntity
  8
1
  6
Continuous
100
AcDbLine
 10
28.926496
 20
177.963477
 30
0.0
 11
33.926496
 21
177.963477
 31
0.0
  0
LINE
  5
9851
330
9798
100
AcDbEntity
  8
1
  6
Continuous
100
AcDbLine
 10
28.926496
 20
188.963477
 30
0.0
 11
33.926496
 21
188.963477
 31
0.0
  0
LINE
  5
9852
330
9798
100
AcDbEntity
  8
1
  6
Continuous
100
AcDbLine
 10
34.426496
 20
179.288477
 30
0.0
 11
34.426496
 21
178.463477
 31
0.0
  0
LINE
  5
9853
330
9798
100
AcDbEntity
  8
1
  6
Continuous
100
AcDbLine
 10
34.126496
 20
180.3884769999999
 30
0.0
 11
34.126496
 21
179.588477
 31
0.0
  0
LINE
  5
9854
330
9798
100
AcDbEntity
  8
1
  6
Continuous
100
AcDbLine
 10
28.926496
 20
188.963477
 30
0.0
 11
21.664096
 21
193.321477
 31
0.0
  0
LINE
  5
9855
330
9798
100
AcDbEntity
  8
1
  6
Continuous
100
AcDbLine
 10
17.626296
 20
193.0734769999999
 30
0.0
 11
13.133896
 21
187.2334769999999
 31
0.0
  0
LINE
  5
9856
330
9798
100
AcDbEntity
  8
1
  6
Continuous
100
AcDbLine
 10
13.133896
 20
179.694477
 30
0.0
 11
17.626296
 21
173.854477
 31
0.0
  0
LINE
  5
9857
330
9798
100
AcDbEntity
  8
1
  6
Continuous
100
AcDbLine
 10
21.664096
 20
173.606477
 30
0.0
 11
28.926496
 21
177.963477
 31
0.0
  0
LINE
  5
9858
330
9798
100
AcDbEntity
  8
1
  6
Continuous
100
AcDbLine
 10
14.926496
 20
185.963477
 30
0.0
 11
14.926496
 21
180.963477
 31
0.0
  0
LINE
  5
9859
330
9798
100
AcDbEntity
  8
1
  6
Continuous
100
AcDbLine
 10
17.426496
 20
185.963477
 30
0.0
 11
17.426496
 21
180.963477
 31
0.0
  0
LINE
  5
985A
330
9798
100
AcDbEntity
  8
1
  6
Continuous
100
AcDbLine
 10
15.42649599999999
 20
180.463477
 30
0.0
 11
16.926496
 21
180.463477
 31
0.0
  0
LINE
  5
985B
330
9798
100
AcDbEntity
  8
1
  6
Continuous
100
AcDbLine
 10
15.42649599999999
 20
186.463477
 30
0.0
 11
16.926496
 21
186.463477
 31
0.0
  0
LINE
  5
985C
330
9798
100
AcDbEntity
  8
1
  6
Continuous
100
AcDbLine
 10
34.126496
 20
180.3884769999999
 30
0.0
 11
49.478696
 21
180.3884769999999
 31
0.0
  0
LINE
  5
985D
330
9798
100
AcDbEntity
  8
1
  6
Continuous
100
AcDbLine
 10
34.126496
 20
186.538477
 30
0.0
 11
49.478696
 21
186.538477
 31
0.0
  0
LINE
  5
985E
330
9798
100
AcDbEntity
  8
1
  6
Continuous
100
AcDbLine
 10
34.126496
 20
179.588477
 30
0.0
 11
34.426496
 21
179.288477
 31
0.0
  0
LINE
  5
985F
330
9798
100
AcDbEntity
  8
1
  6
Continuous
100
AcDbLine
 10
34.426496
 20
187.6384769999999
 30
0.0
 11
34.426496
 21
188.463477
 31
0.0
  0
LINE
  5
9860
330
9798
100
AcDbEntity
  8
1
  6
Continuous
100
AcDbLine
 10
34.126496
 20
186.538477
 30
0.0
 11
34.126496
 21
187.338477
 31
0.0
  0
LINE
  5
9861
330
9798
100
AcDbEntity
  8
1
  6
Continuous
100
AcDbLine
 10
34.126496
 20
187.338477
 30
0.0
 11
34.426496
 21
187.6384769999999
 31
0.0
  0
LINE
  5
9862
330
9798
100
AcDbEntity
  8
4
  6
CENTER
100
AcDbLine
 10
10.023796
 20
183.463477
 30
0.0
 11
54.479096
 21
183.463477
 31
0.0
  0
LINE
  5
9863
330
9798
100
AcDbEntity
  8
1
  6
Continuous
100
AcDbLine
 10
269.0374959999999
 20
110.7634769999999
 30
0.0
 11
273.511496
 21
110.7634769999999
 31
0.0
  0
LINE
  5
9864
330
9798
100
AcDbEntity
  8
1
  6
Continuous
100
AcDbLine
 10
269.0374959999999
 20
116.163477
 30
0.0
 11
273.511496
 21
116.163477
 31
0.0
  0
LINE
  5
9865
330
9798
100
AcDbEntity
  8
1
  6
Continuous
100
AcDbLine
 10
272.5364959999998
 20
110.7634769999999
 30
0.0
 11
272.5364959999998
 21
110.6334769999999
 31
0.0
  0
LINE
  5
9866
330
9798
100
AcDbEntity
  8
1
  6
Continuous
100
AcDbLine
 10
270.0364959999999
 20
110.7634769999999
 30
0.0
 11
270.0364959999999
 21
110.6334769999999
 31
0.0
  0
LINE
  5
9867
330
9798
100
AcDbEntity
  8
4
  6
CENTER
100
AcDbLine
 10
271.286496
 20
98.579477
 30
0.0
 11
271.286496
 21
128.741477
 31
0.0
  0
LINE
  5
9868
330
9798
100
AcDbEntity
  8
4
  6
CENTER
100
AcDbLine
 10
286.704496
 20
113.4634769999999
 30
0.0
 11
256.2804959999999
 21
113.4634769999999
 31
0.0
  0
LINE
  5
9869
330
9798
100
AcDbEntity
  8
1
  6
Continuous
100
AcDbLine
 10
271.286496
 20
107.113477
 30
0.0
 11
276.785496
 21
110.2884769999999
 31
0.0
  0
LINE
  5
986A
330
9798
100
AcDbEntity
  8
1
  6
Continuous
100
AcDbLine
 10
276.785496
 20
110.2884769999999
 30
0.0
 11
276.785496
 21
116.638477
 31
0.0
  0
LINE
  5
986B
330
9798
100
AcDbEntity
  8
1
  6
Continuous
100
AcDbLine
 10
276.785496
 20
116.638477
 30
0.0
 11
271.286496
 21
119.813477
 31
0.0
  0
LINE
  5
986C
330
9798
100
AcDbEntity
  8
1
  6
Continuous
100
AcDbLine
 10
271.286496
 20
119.813477
 30
0.0
 11
265.787496
 21
116.638477
 31
0.0
  0
LINE
  5
986D
330
9798
100
AcDbEntity
  8
1
  6
Continuous
100
AcDbLine
 10
265.787496
 20
116.638477
 30
0.0
 11
265.787496
 21
110.2884769999999
 31
0.0
  0
LINE
  5
986E
330
9798
100
AcDbEntity
  8
1
  6
Continuous
100
AcDbLine
 10
265.787496
 20
110.2884769999999
 30
0.0
 11
271.286496
 21
107.113477
 31
0.0
  0
LINE
  5
986F
330
9798
100
AcDbEntity
  8
1
  6
Continuous
100
AcDbLine
 10
130.1844959999999
 20
121.363477
 30
0.0
 11
130.1844959999999
 21
115.963477
 31
0.0
  0
LINE
  5
9870
330
9798
100
AcDbEntity
  8
1
  6
Continuous
100
AcDbLine
 10
130.1844959999999
 20
115.963477
 30
0.0
 11
127.484496
 21
115.963477
 31
0.0
  0
LINE
  5
9871
330
9798
100
AcDbEntity
  8
1
  6
Continuous
100
AcDbLine
 10
127.484496
 20
111.863477
 30
0.0
 11
114.784496
 21
111.863477
 31
0.0
  0
LINE
  5
9872
330
9798
100
AcDbEntity
  8
1
  6
Continuous
100
AcDbLine
 10
127.484496
 20
121.363477
 30
0.0
 11
127.484496
 21
105.563477
 31
0.0
  0
LINE
  5
9873
330
9798
100
AcDbEntity
  8
1
  6
Continuous
100
AcDbLine
 10
127.484496
 20
105.563477
 30
0.0
 11
113.184496
 21
105.563477
 31
0.0
  0
LINE
  5
9874
330
9798
100
AcDbEntity
  8
1
  6
Continuous
100
AcDbLine
 10
111.1844959999999
 20
103.463477
 30
0.0
 11
111.1844959999999
 21
123.4634769999999
 31
0.0
  0
LINE
  5
9875
330
9798
100
AcDbEntity
  8
1
  6
Continuous
100
AcDbLine
 10
113.184496
 20
102.487477
 30
0.0
 11
113.184496
 21
124.463477
 31
0.0
  0
LINE
  5
9876
330
9798
100
AcDbEntity
  8
4
  6
CENTER
100
AcDbLine
 10
107.5704959999999
 20
113.4634769999999
 30
0.0
 11
142.2914959999999
 21
113.4634769999999
 31
0.0
  0
LINE
  5
9877
330
9798
100
AcDbEntity
  8
1
  6
Continuous
100
AcDbLine
 10
112.184496
 20
102.463477
 30
0.0
 11
113.184496
 21
102.463477
 31
0.0
  0
LINE
  5
9878
330
9798
100
AcDbEntity
  8
1
  6
Continuous
100
AcDbLine
 10
112.184496
 20
124.463477
 30
0.0
 11
113.184496
 21
124.463477
 31
0.0
  0
LINE
  5
9879
330
9798
100
AcDbEntity
  8
1
  6
Continuous
100
AcDbLine
 10
112.184496
 20
124.463477
 30
0.0
 11
111.1844959999999
 21
123.4634769999999
 31
0.0
  0
LINE
  5
987A
330
9798
100
AcDbEntity
  8
1
  6
Continuous
100
AcDbLine
 10
112.184496
 20
102.463477
 30
0.0
 11
111.1844959999999
 21
103.463477
 31
0.0
  0
LINE
  5
987B
330
9798
100
AcDbEntity
  8
1
  6
Continuous
100
AcDbLine
 10
112.184496
 20
102.463477
 30
0.0
 11
112.184496
 21
124.463477
 31
0.0
  0
LINE
  5
987C
330
9798
100
AcDbEntity
  8
1
  6
Continuous
100
AcDbLine
 10
128.1844959999999
 20
115.963477
 30
0.0
 11
128.1844959999999
 21
108.9634769999999
 31
0.0
  0
LINE
  5
987D
330
9798
100
AcDbEntity
  8
1
  6
Continuous
100
AcDbLine
 10
128.984496
 20
108.9634769999999
 30
0.0
 11
128.1844959999999
 21
108.9634769999999
 31
0.0
  0
LINE
  5
987E
330
9798
100
AcDbEntity
  8
1
  6
Continuous
100
AcDbLine
 10
110.1844959999999
 20
117.963477
 30
0.0
 11
110.1844959999999
 21
108.9634769999999
 31
0.0
  0
LINE
  5
987F
330
9798
100
AcDbEntity
  8
1
  6
Continuous
100
AcDbLine
 10
110.1844959999999
 20
117.963477
 30
0.0
 11
111.1844959999999
 21
118.963477
 31
0.0
  0
LINE
  5
9880
330
9798
100
AcDbEntity
  8
1
  6
Continuous
100
AcDbLine
 10
110.1844959999999
 20
108.9634769999999
 30
0.0
 11
111.1844959999999
 21
107.9634769999999
 31
0.0
  0
LINE
  5
9881
330
9798
100
AcDbEntity
  8
1
  6
Continuous
100
AcDbLine
 10
140.6844959999999
 20
116.163477
 30
0.0
 11
140.6844959999999
 21
110.7634769999999
 31
0.0
  0
LINE
  5
9882
330
9798
100
AcDbEntity
  8
1
  6
Continuous
100
AcDbLine
 10
130.5844959999998
 20
119.763477
 30
0.0
 11
130.1844959999999
 21
119.763477
 31
0.0
  0
LINE
  5
9883
330
9798
100
AcDbEntity
  8
1
  6
Continuous
100
AcDbLine
 10
130.5844959999998
 20
105.7634769999999
 30
0.0
 11
128.984496
 21
105.7634769999999
 31
0.0
  0
LINE
  5
9884
330
9798
100
AcDbEntity
  8
1
  6
Continuous
100
AcDbLine
 10
130.5844959999998
 20
105.7634769999999
 30
0.0
 11
130.5844959999998
 21
119.763477
 31
0.0
  0
LINE
  5
9885
330
9798
100
AcDbEntity
  8
1
  6
Continuous
100
AcDbLine
 10
128.984496
 20
105.7634769999999
 30
0.0
 11
128.984496
 21
115.963477
 31
0.0
  0
LINE
  5
9886
330
9798
100
AcDbEntity
  8
1
  6
Continuous
100
AcDbLine
 10
130.5844959999998
 20
115.963477
 30
0.0
 11
130.1844959999999
 21
115.963477
 31
0.0
  0
LINE
  5
9887
330
9798
100
AcDbEntity
  8
1
  6
Continuous
100
AcDbLine
 10
180.259496
 20
54.462277
 30
0.0
 11
177.722496
 21
54.462277
 31
0.0
  0
LINE
  5
9888
330
9798
100
AcDbEntity
  8
1
  6
Continuous
100
AcDbLine
 10
180.259496
 20
32.465277
 30
0.0
 11
177.722496
 21
32.465277
 31
0.0
  0
LINE
  5
9889
330
9798
100
AcDbEntity
  8
1
  6
Continuous
100
AcDbLine
 10
177.722496
 20
54.462277
 30
0.0
 11
177.722496
 21
32.465277
 31
0.0
  0
LINE
  5
988A
330
9798
100
AcDbEntity
  8
1
  6
Continuous
100
AcDbLine
 10
181.2224959999998
 20
48.962977
 30
0.0
 11
181.2224959999998
 21
37.964477
 31
0.0
  0
LINE
  5
988B
330
9798
100
AcDbEntity
  8
1
  6
Continuous
100
AcDbLine
 10
180.259496
 20
43.463777
 30
0.0
 11
177.722496
 21
43.463777
 31
0.0
  0
LINE
  5
988C
330
9798
100
AcDbEntity
  8
1
  6
Continuous
100
AcDbLine
 10
211.572496
 20
48.963077
 30
0.0
 11
208.334496
 21
48.963077
 31
0.0
  0
LINE
  5
988D
330
9798
100
AcDbEntity
  8
1
  6
Continuous
100
AcDbLine
 10
211.572496
 20
37.964477
 30
0.0
 11
208.334496
 21
37.964477
 31
0.0
  0
LINE
  5
988E
330
9798
100
AcDbEntity
  8
1
  6
Continuous
100
AcDbLine
 10
207.853496
 20
46.213377
 30
0.0
 11
207.853496
 21
40.714077
 31
0.0
  0
LINE
  5
988F
330
9798
100
AcDbEntity
  8
1
  6
Continuous
100
AcDbLine
 10
212.053496
 20
46.213377
 30
0.0
 11
212.053496
 21
40.714077
 31
0.0
  0
LINE
  5
9890
330
9798
100
AcDbEntity
  8
1
  6
Continuous
100
AcDbLine
 10
211.572496
 20
43.463777
 30
0.0
 11
208.334496
 21
43.463777
 31
0.0
  0
LINE
  5
9891
330
9798
100
AcDbEntity
  8
1
  6
Continuous
100
AcDbLine
 10
113.184496
 20
121.363477
 30
0.0
 11
130.1844959999999
 21
121.363477
 31
0.0
  0
LINE
  5
9892
330
9798
100
AcDbEntity
  8
1
  6
Continuous
100
AcDbLine
 10
114.784496
 20
115.063477
 30
0.0
 11
127.484496
 21
115.063477
 31
0.0
  0
LINE
  5
9893
330
9798
100
AcDbEntity
  8
1
  6
Continuous
100
AcDbLine
 10
196.4814959999999
 20
46.760477
 30
0.0
 11
196.4814959999999
 21
46.375377
 31
0.0
  0
LINE
  5
9894
330
9798
100
AcDbEntity
  8
1
  6
Continuous
100
AcDbLine
 10
195.0814959999999
 20
49.963777
 30
0.0
 11
195.0814959999999
 21
36.963777
 31
0.0
  0
LINE
  5
9895
330
9798
100
AcDbEntity
  8
1
  6
Continuous
100
AcDbLine
 10
195.8814959999999
 20
49.963777
 30
0.0
 11
195.8814959999999
 21
36.963777
 31
0.0
  0
LINE
  5
9896
330
9798
100
AcDbEntity
  8
1
  6
Continuous
100
AcDbLine
 10
195.0814959999999
 20
49.963777
 30
0.0
 11
195.8814959999999
 21
49.963777
 31
0.0
  0
LINE
  5
9897
330
9798
100
AcDbEntity
  8
1
  6
Continuous
100
AcDbLine
 10
195.0814959999999
 20
36.963777
 30
0.0
 11
195.8814959999999
 21
36.963777
 31
0.0
  0
LINE
  5
9898
330
9798
100
AcDbEntity
  8
1
  6
Continuous
100
AcDbLine
 10
194.481496
 20
47.118177
 30
0.0
 11
195.0814959999999
 21
47.010877
 31
0.0
  0
LINE
  5
9899
330
9798
100
AcDbEntity
  8
1
  6
Continuous
100
AcDbLine
 10
194.880496
 20
45.980977
 30
0.0
 11
195.0814959999999
 21
45.886777
 31
0.0
  0
LINE
  5
989A
330
9798
100
AcDbEntity
  8
1
  6
Continuous
100
AcDbLine
 10
194.960496
 20
44.162477
 30
0.0
 11
195.0814959999999
 21
44.092277
 31
0.0
  0
LINE
  5
989B
330
9798
100
AcDbEntity
  8
1
  6
Continuous
100
AcDbLine
 10
194.481496
 20
41.783977
 30
0.0
 11
195.0814959999999
 21
41.50307699999999
 31
0.0
  0
LINE
  5
989C
330
9798
100
AcDbEntity
  8
1
  6
Continuous
100
AcDbLine
 10
194.481496
 20
40.167077
 30
0.0
 11
195.0814959999999
 21
40.05977699999998
 31
0.0
  0
LINE
  5
989D
330
9798
100
AcDbEntity
  8
1
  6
Continuous
100
AcDbLine
 10
194.481496
 20
46.733077
 30
0.0
 11
195.0814959999999
 21
46.62577699999999
 31
0.0
  0
LINE
  5
989E
330
9798
100
AcDbEntity
  8
1
  6
Continuous
100
AcDbLine
 10
194.484496
 20
45.535877
 30
0.0
 11
195.0814959999999
 21
45.25637699999999
 31
0.0
  0
LINE
  5
989F
330
9798
100
AcDbEntity
  8
1
  6
Continuous
100
AcDbLine
 10
194.561496
 20
43.46927700000001
 30
0.0
 11
195.0814959999999
 21
43.16787699999999
 31
0.0
  0
LINE
  5
98A0
330
9798
100
AcDbEntity
  8
1
  6
Continuous
100
AcDbLine
 10
194.481496
 20
41.322777
 30
0.0
 11
195.0814959999999
 21
41.041777
 31
0.0
  0
LINE
  5
98A1
330
9798
100
AcDbEntity
  8
1
  6
Continuous
100
AcDbLine
 10
194.481496
 20
39.788977
 30
0.0
 11
195.0814959999999
 21
39.681677
 31
0.0
  0
LINE
  5
98A2
330
9798
100
AcDbEntity
  8
1
  6
Continuous
100
AcDbLine
 10
194.496496
 20
45.549077
 30
0.0
 11
194.892496
 21
45.99427699999998
 31
0.0
  0
LINE
  5
98A3
330
9798
100
AcDbEntity
  8
1
  6
Continuous
100
AcDbLine
 10
196.0864959999999
 20
44.786177
 30
0.0
 11
196.4814959999999
 21
45.231177
 31
0.0
  0
LINE
  5
98A4
330
9798
100
AcDbEntity
  8
1
  6
Continuous
100
AcDbLine
 10
194.561496
 20
43.46927700000001
 30
0.0
 11
194.960496
 21
44.162477
 31
0.0
  0
LINE
  5
98A5
330
9798
100
AcDbEntity
  8
1
  6
Continuous
100
AcDbLine
 10
196.561496
 20
43.23597699999999
 30
0.0
 11
196.256496
 21
42.487877
 31
0.0
  0
LINE
  5
98A6
330
9798
100
AcDbEntity
  8
1
  6
Continuous
100
AcDbLine
 10
195.8814959999999
 20
46.86777699999999
 30
0.0
 11
196.4814959999999
 21
46.760477
 31
0.0
  0
LINE
  5
98A7
330
9798
100
AcDbEntity
  8
1
  6
Continuous
100
AcDbLine
 10
195.8814959999999
 20
46.482677
 30
0.0
 11
196.4814959999999
 21
46.375377
 31
0.0
  0
LINE
  5
98A8
330
9798
100
AcDbEntity
  8
1
  6
Continuous
100
AcDbLine
 10
195.8814959999999
 20
45.512277
 30
0.0
 11
196.4814959999999
 21
45.23127699999998
 31
0.0
  0
LINE
  5
98A9
330
9798
100
AcDbEntity
  8
1
  6
Continuous
100
AcDbLine
 10
195.8814959999999
 20
44.881777
 30
0.0
 11
196.0854959999998
 21
44.786177
 31
0.0
  0
LINE
  5
98AA
330
9798
100
AcDbEntity
  8
1
  6
Continuous
100
AcDbLine
 10
195.8814959999999
 20
43.62917699999999
 30
0.0
 11
196.561496
 21
43.23597699999999
 31
0.0
  0
LINE
  5
98AB
330
9798
100
AcDbEntity
  8
1
  6
Continuous
100
AcDbLine
 10
195.8814959999999
 20
42.70477699999999
 30
0.0
 11
196.256496
 21
42.487877
 31
0.0
  0
LINE
  5
98AC
330
9798
100
AcDbEntity
  8
1
  6
Continuous
100
AcDbLine
 10
195.8814959999999
 20
41.12847699999998
 30
0.0
 11
196.4814959999999
 21
40.847477
 31
0.0
  0
LINE
  5
98AD
330
9798
100
AcDbEntity
  8
1
  6
Continuous
100
AcDbLine
 10
195.8814959999999
 20
40.667177
 30
0.0
 11
196.095496
 21
40.56727699999998
 31
0.0
  0
LINE
  5
98AE
330
9798
100
AcDbEntity
  8
1
  6
Continuous
100
AcDbLine
 10
195.8814959999999
 20
39.916677
 30
0.0
 11
196.4814959999999
 21
39.80937700000001
 31
0.0
  0
LINE
  5
98AF
330
9798
100
AcDbEntity
  8
1
  6
Continuous
100
AcDbLine
 10
195.8814959999999
 20
39.538577
 30
0.0
 11
196.072496
 21
39.504477
 31
0.0
  0
LINE
  5
98B0
330
9798
100
AcDbEntity
  8
1
  6
Continuous
100
AcDbLine
 10
130.5844959999998
 20
110.7634769999999
 30
0.0
 11
140.6844959999999
 21
110.7634769999999
 31
0.0
  0
LINE
  5
98B1
330
9798
100
AcDbEntity
  8
1
  6
Continuous
100
AcDbLine
 10
130.5844959999998
 20
116.163477
 30
0.0
 11
140.6844959999999
 21
116.163477
 31
0.0
  0
LINE
  5
98B2
330
9798
100
AcDbEntity
  8
1
  6
Continuous
100
AcDbLine
 10
130.5844959999998
 20
51.16377700000001
 30
0.0
 11
130.5844959999998
 21
37.16377700000001
 31
0.0
  0
LINE
  5
98B3
330
9798
100
AcDbEntity
  8
1
  6
Continuous
100
AcDbLine
 10
130.5844959999998
 20
44.513777
 30
0.0
 11
138.1594959999999
 21
44.513777
 31
0.0
  0
LINE
  5
98B4
330
9798
100
AcDbEntity
  8
1
  6
Continuous
100
AcDbLine
 10
130.5844959999998
 20
42.413777
 30
0.0
 11
138.1594959999999
 21
42.413777
 31
0.0
  0
LINE
  5
98B5
330
9798
100
AcDbEntity
  8
2
  6
Continuous
100
AcDbLine
 10
130.5844959999998
 20
46.557777
 30
0.0
 11
140.090496
 21
46.557777
 31
0.0
  0
LINE
  5
98B6
330
9798
100
AcDbEntity
  8
2
  6
Continuous
100
AcDbLine
 10
130.5844959999998
 20
40.369777
 30
0.0
 11
140.090496
 21
40.369777
 31
0.0
  0
LINE
  5
98B7
330
9798
100
AcDbEntity
  8
2
  6
Continuous
100
AcDbLine
 10
113.6844959999999
 20
34.505277
 30
0.0
 11
125.825496
 21
34.505277
 31
0.0
  0
LINE
  5
98B8
330
9798
100
AcDbEntity
  8
2
  6
Continuous
100
AcDbLine
 10
113.6844959999999
 20
52.422277
 30
0.0
 11
125.825496
 21
52.422277
 31
0.0
  0
LINE
  5
98B9
330
9798
100
AcDbEntity
  8
2
  6
Continuous
100
AcDbLine
 10
113.184496
 20
34.216577
 30
0.0
 11
113.6844959999999
 21
34.505277
 31
0.0
  0
LINE
  5
98BA
330
9798
100
AcDbEntity
  8
2
  6
Continuous
100
AcDbLine
 10
113.184496
 20
52.710877
 30
0.0
 11
113.6844959999999
 21
52.422277
 31
0.0
  0
LINE
  5
98BB
330
9798
100
AcDbEntity
  8
4
  6
CENTER
100
AcDbLine
 10
174.010496
 20
113.4634769999999
 30
0.0
 11
215.464496
 21
113.4634769999999
 31
0.0
  0
LINE
  5
98BC
330
9798
100
AcDbEntity
  8
1
  6
Continuous
100
AcDbLine
 10
194.481496
 20
40.167077
 30
0.0
 11
194.481496
 21
39.788977
 31
0.0
  0
LINE
  5
98BD
330
9798
100
AcDbEntity
  8
1
  6
Continuous
100
AcDbLine
 10
194.481496
 20
41.783977
 30
0.0
 11
194.481496
 21
41.322777
 31
0.0
  0
LINE
  5
98BE
330
9798
100
AcDbEntity
  8
1
  6
Continuous
100
AcDbLine
 10
194.482496
 20
47.118177
 30
0.0
 11
194.482496
 21
46.733077
 31
0.0
  0
LINE
  5
98BF
330
9798
100
AcDbEntity
  8
1
  6
Continuous
100
AcDbLine
 10
260.286496
 20
107.1124769999999
 30
0.0
 11
260.286496
 21
119.814477
 31
0.0
  0
LINE
  5
98C0
330
9798
100
AcDbEntity
  8
1
  6
Continuous
100
AcDbLine
 10
282.286496
 20
107.1124769999999
 30
0.0
 11
282.286496
 21
119.814477
 31
0.0
  0
LINE
  5
98C1
330
9798
100
AcDbEntity
  8
1
  6
Continuous
100
AcDbLine
 10
271.286496
 20
126.165477
 30
0.0
 11
282.286496
 21
119.814477
 31
0.0
  0
LINE
  5
98C2
330
9798
100
AcDbEntity
  8
1
  6
Continuous
100
AcDbLine
 10
260.286496
 20
107.1124769999999
 30
0.0
 11
271.286496
 21
100.762477
 31
0.0
  0
LINE
  5
98C3
330
9798
100
AcDbEntity
  8
1
  6
Continuous
100
AcDbLine
 10
260.286496
 20
119.814477
 30
0.0
 11
271.286496
 21
126.165477
 31
0.0
  0
LINE
  5
98C4
330
9798
100
AcDbEntity
  8
1
  6
Continuous
100
AcDbLine
 10
271.286496
 20
100.762477
 30
0.0
 11
282.286496
 21
107.1124769999999
 31
0.0
  0
LINE
  5
98C5
330
9798
100
AcDbEntity
  8
1
  6
Continuous
100
AcDbLine
 10
16.426496
 20
119.814477
 30
0.0
 11
16.426496
 21
107.1124769999999
 31
0.0
  0
LINE
  5
98C6
330
9798
100
AcDbEntity
  8
1
  6
Continuous
100
AcDbLine
 10
16.426496
 20
107.1124769999999
 30
0.0
 11
27.426496
 21
100.762477
 31
0.0
  0
LINE
  5
98C7
330
9798
100
AcDbEntity
  8
1
  6
Continuous
100
AcDbLine
 10
16.426496
 20
119.814477
 30
0.0
 11
27.426496
 21
126.165477
 31
0.0
  0
LINE
  5
98C8
330
9798
100
AcDbEntity
  8
1
  6
Continuous
100
AcDbLine
 10
27.426496
 20
126.165477
 30
0.0
 11
38.426496
 21
119.814477
 31
0.0
  0
LINE
  5
98C9
330
9798
100
AcDbEntity
  8
1
  6
Continuous
100
AcDbLine
 10
38.426496
 20
119.814477
 30
0.0
 11
38.426496
 21
107.1124769999999
 31
0.0
  0
LINE
  5
98CA
330
9798
100
AcDbEntity
  8
1
  6
Continuous
100
AcDbLine
 10
27.426496
 20
100.762477
 30
0.0
 11
38.426496
 21
107.1124769999999
 31
0.0
  0
LINE
  5
98CB
330
9798
100
AcDbEntity
  8
1
  6
Continuous
100
AcDbLine
 10
111.1844959999999
 20
173.463477
 30
0.0
 11
111.1844959999999
 21
193.463477
 31
0.0
  0
LINE
  5
98CC
330
9798
100
AcDbEntity
  8
1
  6
Continuous
100
AcDbLine
 10
112.184496
 20
194.463477
 30
0.0
 11
112.184496
 21
172.463477
 31
0.0
  0
LINE
  5
98CD
330
9798
100
AcDbEntity
  8
1
  6
Continuous
100
AcDbLine
 10
113.184496
 20
172.463477
 30
0.0
 11
113.184496
 21
194.463477
 31
0.0
  0
LINE
  5
98CE
330
9798
100
AcDbEntity
  8
4
  6
CENTER
100
AcDbLine
 10
108.4424959999999
 20
183.463477
 30
0.0
 11
143.0284959999999
 21
183.463477
 31
0.0
  0
LINE
  5
98CF
330
9798
100
AcDbEntity
  8
1
  6
Continuous
100
AcDbLine
 10
112.184496
 20
194.463477
 30
0.0
 11
113.184496
 21
194.463477
 31
0.0
  0
LINE
  5
98D0
330
9798
100
AcDbEntity
  8
1
  6
Continuous
100
AcDbLine
 10
112.184496
 20
172.463477
 30
0.0
 11
113.184496
 21
172.463477
 31
0.0
  0
LINE
  5
98D1
330
9798
100
AcDbEntity
  8
1
  6
Continuous
100
AcDbLine
 10
112.184496
 20
194.463477
 30
0.0
 11
111.1844959999999
 21
193.463477
 31
0.0
  0
LINE
  5
98D2
330
9798
100
AcDbEntity
  8
1
  6
Continuous
100
AcDbLine
 10
111.1844959999999
 20
173.463477
 30
0.0
 11
112.184496
 21
172.463477
 31
0.0
  0
LINE
  5
98D3
330
9798
100
AcDbEntity
  8
1
  6
Continuous
100
AcDbLine
 10
110.1844959999999
 20
178.963477
 30
0.0
 11
110.1844959999999
 21
182.213477
 31
0.0
  0
LINE
  5
98D4
330
9798
100
AcDbEntity
  8
1
  6
Continuous
100
AcDbLine
 10
110.1844959999999
 20
178.963477
 30
0.0
 11
111.1844959999999
 21
177.963477
 31
0.0
  0
LINE
  5
98D5
330
9798
100
AcDbEntity
  8
1
  6
Continuous
100
AcDbLine
 10
110.1844959999999
 20
187.963477
 30
0.0
 11
111.1844959999999
 21
188.963477
 31
0.0
  0
LINE
  5
98D6
330
9798
100
AcDbEntity
  8
1
  6
Continuous
100
AcDbLine
 10
110.1844959999999
 20
182.213477
 30
0.0
 11
110.6844959999999
 21
182.213477
 31
0.0
  0
LINE
  5
98D7
330
9798
100
AcDbEntity
  8
1
  6
Continuous
100
AcDbLine
 10
110.1844959999999
 20
184.713477
 30
0.0
 11
110.6844959999999
 21
184.713477
 31
0.0
  0
LINE
  5
98D8
330
9798
100
AcDbEntity
  8
1
  6
Continuous
100
AcDbLine
 10
110.6844959999999
 20
182.213477
 30
0.0
 11
110.6844959999999
 21
184.713477
 31
0.0
  0
LINE
  5
98D9
330
9798
100
AcDbEntity
  8
1
  6
Continuous
100
AcDbLine
 10
110.1844959999999
 20
184.713477
 30
0.0
 11
110.1844959999999
 21
187.963477
 31
0.0
  0
LINE
  5
98DA
330
9798
100
AcDbEntity
  8
1
  6
Continuous
100
AcDbLine
 10
140.6844959999999
 20
180.963477
 30
0.0
 11
140.6844959999999
 21
185.963477
 31
0.0
  0
LINE
  5
98DB
330
9798
100
AcDbEntity
  8
1
  6
Continuous
100
AcDbLine
 10
113.184496
 20
192.963477
 30
0.0
 11
125.1724959999999
 21
192.963477
 31
0.0
  0
LINE
  5
98DC
330
9798
100
AcDbEntity
  8
1
  6
Continuous
100
AcDbLine
 10
125.284496
 20
173.963477
 30
0.0
 11
113.184496
 21
173.963477
 31
0.0
  0
LINE
  5
98DD
330
9798
100
AcDbEntity
  8
1
  6
Continuous
100
AcDbLine
 10
130.1844959999999
 20
191.1684769999999
 30
0.0
 11
130.1844959999999
 21
175.759477
 31
0.0
  0
LINE
  5
98DE
330
9798
100
AcDbEntity
  8
1
  6
Continuous
100
AcDbLine
 10
126.9844959999998
 20
174.8634769999999
 30
0.0
 11
126.1844959999999
 21
174.8634769999999
 31
0.0
  0
LINE
  5
98DF
330
9798
100
AcDbEntity
  8
1
  6
Continuous
100
AcDbLine
 10
126.1844959999999
 20
174.8634769999999
 30
0.0
 11
125.284496
 21
173.963477
 31
0.0
  0
LINE
  5
98E0
330
9798
100
AcDbEntity
  8
1
  6
Continuous
100
AcDbLine
 10
127.484496
 20
191.563477
 30
0.0
 11
127.484496
 21
175.3634769999999
 31
0.0
  0
LINE
  5
98E1
330
9798
100
AcDbEntity
  8
1
  6
Continuous
100
AcDbLine
 10
127.484496
 20
175.3634769999999
 30
0.0
 11
126.9844959999998
 21
174.8634769999999
 31
0.0
  0
LINE
  5
98E2
330
9798
100
AcDbEntity
  8
1
  6
Continuous
100
AcDbLine
 10
126.9844959999998
 20
192.063477
 30
0.0
 11
126.1844959999999
 21
192.063477
 31
0.0
  0
LINE
  5
98E3
330
9798
100
AcDbEntity
  8
1
  6
Continuous
100
AcDbLine
 10
126.1844959999999
 20
192.063477
 30
0.0
 11
125.284496
 21
192.963477
 31
0.0
  0
LINE
  5
98E4
330
9798
100
AcDbEntity
  8
1
  6
Continuous
100
AcDbLine
 10
127.484496
 20
191.563477
 30
0.0
 11
126.9844959999998
 21
192.063477
 31
0.0
  0
LINE
  5
98E5
330
9798
100
AcDbEntity
  8
1
  6
Continuous
100
AcDbLine
 10
125.284496
 20
178.1874769999998
 30
0.0
 11
125.284496
 21
173.963477
 31
0.0
  0
LINE
  5
98E6
330
9798
100
AcDbEntity
  8
1
  6
Continuous
100
AcDbLine
 10
113.6844959999999
 20
178.1874769999998
 30
0.0
 11
113.6844959999999
 21
173.963477
 31
0.0
  0
LINE
  5
98E7
330
9798
100
AcDbEntity
  8
1
  6
Continuous
100
AcDbLine
 10
130.1844959999999
 20
175.759477
 30
0.0
 11
127.484496
 21
175.759477
 31
0.0
  0
LINE
  5
98E8
330
9798
100
AcDbEntity
  8
1
  6
Continuous
100
AcDbLine
 10
130.1844959999999
 20
191.1684769999999
 30
0.0
 11
127.484496
 21
191.1684769999999
 31
0.0
  0
LINE
  5
98E9
330
9798
100
AcDbEntity
  8
1
  6
Continuous
100
AcDbLine
 10
125.284496
 20
178.1874769999998
 30
0.0
 11
113.184496
 21
178.1874769999998
 31
0.0
  0
LINE
  5
98EA
330
9798
100
AcDbEntity
  8
1
  6
Continuous
100
AcDbLine
 10
126.1844959999999
 20
174.8634769999999
 30
0.0
 11
126.1844959999999
 21
179.087477
 31
0.0
  0
LINE
  5
98EB
330
9798
100
AcDbEntity
  8
1
  6
Continuous
100
AcDbLine
 10
126.1844959999999
 20
179.087477
 30
0.0
 11
125.284496
 21
178.1874769999998
 31
0.0
  0
LINE
  5
98EC
330
9798
100
AcDbEntity
  8
1
  6
Continuous
100
AcDbLine
 10
126.9844959999998
 20
174.8634769999999
 30
0.0
 11
126.9844959999998
 21
179.087477
 31
0.0
  0
LINE
  5
98ED
330
9798
100
AcDbEntity
  8
1
  6
Continuous
100
AcDbLine
 10
126.1844959999999
 20
179.087477
 30
0.0
 11
126.9844959999998
 21
179.087477
 31
0.0
  0
LINE
  5
98EE
330
9798
100
AcDbEntity
  8
1
  6
Continuous
100
AcDbLine
 10
127.484496
 20
179.587477
 30
0.0
 11
126.9844959999998
 21
179.087477
 31
0.0
  0
LINE
  5
98EF
330
9798
100
AcDbEntity
  8
1
  6
Continuous
100
AcDbLine
 10
125.284496
 20
188.739477
 30
0.0
 11
125.284496
 21
192.963477
 31
0.0
  0
LINE
  5
98F0
330
9798
100
AcDbEntity
  8
1
  6
Continuous
100
AcDbLine
 10
113.6844959999999
 20
188.739477
 30
0.0
 11
113.6844959999999
 21
192.963477
 31
0.0
  0
LINE
  5
98F1
330
9798
100
AcDbEntity
  8
1
  6
Continuous
100
AcDbLine
 10
125.284496
 20
188.739477
 30
0.0
 11
113.184496
 21
188.739477
 31
0.0
  0
LINE
  5
98F2
330
9798
100
AcDbEntity
  8
1
  6
Continuous
100
AcDbLine
 10
126.1844959999999
 20
192.063477
 30
0.0
 11
126.1844959999999
 21
187.8394769999999
 31
0.0
  0
LINE
  5
98F3
330
9798
100
AcDbEntity
  8
1
  6
Continuous
100
AcDbLine
 10
126.1844959999999
 20
187.8394769999999
 30
0.0
 11
125.284496
 21
188.739477
 31
0.0
  0
LINE
  5
98F4
330
9798
100
AcDbEntity
  8
1
  6
Continuous
100
AcDbLine
 10
126.9844959999998
 20
192.063477
 30
0.0
 11
126.9844959999998
 21
187.8394769999999
 31
0.0
  0
LINE
  5
98F5
330
9798
100
AcDbEntity
  8
1
  6
Continuous
100
AcDbLine
 10
126.1844959999999
 20
187.8394769999999
 30
0.0
 11
126.9844959999998
 21
187.8394769999999
 31
0.0
  0
LINE
  5
98F6
330
9798
100
AcDbEntity
  8
1
  6
Continuous
100
AcDbLine
 10
127.484496
 20
187.3394769999999
 30
0.0
 11
126.9844959999998
 21
187.8394769999999
 31
0.0
  0
LINE
  5
98F7
330
9798
100
AcDbEntity
  8
2
  6
Continuous
100
AcDbLine
 10
127.484496
 20
179.587477
 30
0.0
 11
113.184496
 21
188.739477
 31
0.0
  0
LINE
  5
98F8
330
9798
100
AcDbEntity
  8
2
  6
Continuous
100
AcDbLine
 10
113.184496
 20
178.1874769999998
 30
0.0
 11
127.484496
 21
187.3394769999999
 31
0.0
  0
LINE
  5
98F9
330
9798
100
AcDbEntity
  8
1
  6
Continuous
100
AcDbLine
 10
130.5844959999998
 20
186.963477
 30
0.0
 11
139.6844959999999
 21
186.963477
 31
0.0
  0
LINE
  5
98FA
330
9798
100
AcDbEntity
  8
1
  6
Continuous
100
AcDbLine
 10
130.5844959999998
 20
179.963477
 30
0.0
 11
139.6844959999999
 21
179.963477
 31
0.0
  0
LINE
  5
98FB
330
9798
100
AcDbEntity
  8
1
  6
Continuous
100
AcDbLine
 10
140.6844959999999
 20
180.963477
 30
0.0
 11
139.6844959999999
 21
179.963477
 31
0.0
  0
LINE
  5
98FC
330
9798
100
AcDbEntity
  8
1
  6
Continuous
100
AcDbLine
 10
139.6844959999999
 20
186.963477
 30
0.0
 11
140.6844959999999
 21
185.963477
 31
0.0
  0
LINE
  5
98FD
330
9798
100
AcDbEntity
  8
1
  6
Continuous
100
AcDbLine
 10
130.5844959999998
 20
181.236477
 30
0.0
 11
140.6844959999999
 21
181.236477
 31
0.0
  0
LINE
  5
98FE
330
9798
100
AcDbEntity
  8
1
  6
Continuous
100
AcDbLine
 10
140.6844959999999
 20
185.689477
 30
0.0
 11
130.5844959999998
 21
185.689477
 31
0.0
  0
LINE
  5
98FF
330
9798
100
AcDbEntity
  8
1
  6
Continuous
100
AcDbLine
 10
139.6844959999999
 20
179.963477
 30
0.0
 11
139.6844959999999
 21
181.236477
 31
0.0
  0
LINE
  5
9900
330
9798
100
AcDbEntity
  8
1
  6
Continuous
100
AcDbLine
 10
139.6844959999999
 20
186.963477
 30
0.0
 11
139.6844959999999
 21
185.689477
 31
0.0
  0
LINE
  5
9901
330
9798
100
AcDbEntity
  8
2
  6
Continuous
100
AcDbLine
 10
140.6844959999999
 20
181.236477
 30
0.0
 11
130.5844959999998
 21
185.080477
 31
0.0
  0
LINE
  5
9902
330
9798
100
AcDbEntity
  8
2
  6
Continuous
100
AcDbLine
 10
130.5844959999998
 20
181.8454769999999
 30
0.0
 11
140.6844959999999
 21
185.689477
 31
0.0
  0
LINE
  5
9903
330
9798
100
AcDbEntity
  8
2
  6
Continuous
100
AcDbLine
 10
130.5844959999998
 20
180.3694769999999
 30
0.0
 11
140.090496
 21
180.3694769999999
 31
0.0
  0
LINE
  5
9904
330
9798
100
AcDbEntity
  8
2
  6
Continuous
100
AcDbLine
 10
130.5844959999998
 20
186.557477
 30
0.0
 11
140.090496
 21
186.557477
 31
0.0
  0
LINE
  5
9905
330
9798
100
AcDbEntity
  8
2
  6
Continuous
100
AcDbLine
 10
113.6844959999999
 20
192.422477
 30
0.0
 11
125.825496
 21
192.422477
 31
0.0
  0
LINE
  5
9906
330
9798
100
AcDbEntity
  8
2
  6
Continuous
100
AcDbLine
 10
113.6844959999999
 20
174.505477
 30
0.0
 11
125.825496
 21
174.505477
 31
0.0
  0
LINE
  5
9907
330
9798
100
AcDbEntity
  8
2
  6
Continuous
100
AcDbLine
 10
113.184496
 20
192.7104769999999
 30
0.0
 11
113.6844959999999
 21
192.422477
 31
0.0
  0
LINE
  5
9908
330
9798
100
AcDbEntity
  8
2
  6
Continuous
100
AcDbLine
 10
113.184496
 20
174.216477
 30
0.0
 11
113.6844959999999
 21
174.505477
 31
0.0
  0
LINE
  5
9909
330
9798
100
AcDbEntity
  8
1
  6
Continuous
100
AcDbLine
 10
130.1844959999999
 20
175.7634769999999
 30
0.0
 11
130.5844959999998
 21
175.7634769999999
 31
0.0
  0
LINE
  5
990A
330
9798
100
AcDbEntity
  8
1
  6
Continuous
100
AcDbLine
 10
130.1844959999999
 20
176.1804769999999
 30
0.0
 11
130.5844959999998
 21
176.1804769999999
 31
0.0
  0
LINE
  5
990B
330
9798
100
AcDbEntity
  8
1
  6
Continuous
100
AcDbLine
 10
130.5844959999998
 20
175.7634769999999
 30
0.0
 11
130.5844959999998
 21
189.7634769999999
 31
0.0
  0
LINE
  5
990C
330
9798
100
AcDbEntity
  8
1
  6
Continuous
100
AcDbLine
 10
130.1844959999999
 20
177.681477
 30
0.0
 11
130.5844959999998
 21
177.681477
 31
0.0
  0
LINE
  5
990D
330
9798
100
AcDbEntity
  8
1
  6
Continuous
100
AcDbLine
 10
130.1844959999999
 20
189.7634769999999
 30
0.0
 11
130.5844959999998
 21
189.7634769999999
 31
0.0
  0
LINE
  5
990E
330
9798
100
AcDbEntity
  8
4
  6
CENTER
100
AcDbLine
 10
174.010496
 20
183.463477
 30
0.0
 11
215.464496
 21
183.463477
 31
0.0
  0
LINE
  5
990F
330
9798
100
AcDbEntity
  8
1
  6
Continuous
100
AcDbLine
 10
180.259496
 20
194.462477
 30
0.0
 11
177.722496
 21
194.462477
 31
0.0
  0
LINE
  5
9910
330
9798
100
AcDbEntity
  8
1
  6
Continuous
100
AcDbLine
 10
180.259496
 20
172.4654769999999
 30
0.0
 11
177.722496
 21
172.4654769999999
 31
0.0
  0
LINE
  5
9911
330
9798
100
AcDbEntity
  8
1
  6
Continuous
100
AcDbLine
 10
177.722496
 20
194.462477
 30
0.0
 11
177.722496
 21
172.4654769999999
 31
0.0
  0
LINE
  5
9912
330
9798
100
AcDbEntity
  8
1
  6
Continuous
100
AcDbLine
 10
181.2224959999998
 20
188.963477
 30
0.0
 11
181.2224959999998
 21
177.9644769999999
 31
0.0
  0
LINE
  5
9913
330
9798
100
AcDbEntity
  8
1
  6
Continuous
100
AcDbLine
 10
180.259496
 20
183.463477
 30
0.0
 11
177.722496
 21
183.463477
 31
0.0
  0
LINE
  5
9914
330
9798
100
AcDbEntity
  8
1
  6
Continuous
100
AcDbLine
 10
211.572496
 20
188.963477
 30
0.0
 11
208.334496
 21
188.963477
 31
0.0
  0
LINE
  5
9915
330
9798
100
AcDbEntity
  8
1
  6
Continuous
100
AcDbLine
 10
211.572496
 20
177.9644769999999
 30
0.0
 11
208.334496
 21
177.9644769999999
 31
0.0
  0
LINE
  5
9916
330
9798
100
AcDbEntity
  8
1
  6
Continuous
100
AcDbLine
 10
207.853496
 20
186.213477
 30
0.0
 11
207.853496
 21
180.7144769999999
 31
0.0
  0
LINE
  5
9917
330
9798
100
AcDbEntity
  8
1
  6
Continuous
100
AcDbLine
 10
212.053496
 20
186.213477
 30
0.0
 11
212.053496
 21
180.7144769999999
 31
0.0
  0
LINE
  5
9918
330
9798
100
AcDbEntity
  8
1
  6
Continuous
100
AcDbLine
 10
211.572496
 20
183.463477
 30
0.0
 11
208.334496
 21
183.463477
 31
0.0
  0
LINE
  5
9919
330
9798
100
AcDbEntity
  8
1
  6
Continuous
100
AcDbLine
 10
196.4814959999999
 20
186.7604769999999
 30
0.0
 11
196.4814959999999
 21
186.3754769999999
 31
0.0
  0
LINE
  5
991A
330
9798
100
AcDbEntity
  8
1
  6
Continuous
100
AcDbLine
 10
195.0814959999999
 20
189.963477
 30
0.0
 11
195.0814959999999
 21
176.963477
 31
0.0
  0
LINE
  5
991B
330
9798
100
AcDbEntity
  8
1
  6
Continuous
100
AcDbLine
 10
195.8814959999999
 20
189.963477
 30
0.0
 11
195.8814959999999
 21
176.963477
 31
0.0
  0
LINE
  5
991C
330
9798
100
AcDbEntity
  8
1
  6
Continuous
100
AcDbLine
 10
195.0814959999999
 20
189.963477
 30
0.0
 11
195.8814959999999
 21
189.963477
 31
0.0
  0
LINE
  5
991D
330
9798
100
AcDbEntity
  8
1
  6
Continuous
100
AcDbLine
 10
195.0814959999999
 20
176.963477
 30
0.0
 11
195.8814959999999
 21
176.963477
 31
0.0
  0
LINE
  5
991E
330
9798
100
AcDbEntity
  8
1
  6
Continuous
100
AcDbLine
 10
194.481496
 20
187.118477
 30
0.0
 11
195.0814959999999
 21
187.010477
 31
0.0
  0
LINE
  5
991F
330
9798
100
AcDbEntity
  8
1
  6
Continuous
100
AcDbLine
 10
194.880496
 20
185.981477
 30
0.0
 11
195.0814959999999
 21
185.886477
 31
0.0
  0
LINE
  5
9920
330
9798
100
AcDbEntity
  8
1
  6
Continuous
100
AcDbLine
 10
194.960496
 20
184.1624769999999
 30
0.0
 11
195.0814959999999
 21
184.0924769999998
 31
0.0
  0
LINE
  5
9921
330
9798
100
AcDbEntity
  8
1
  6
Continuous
100
AcDbLine
 10
194.481496
 20
181.783477
 30
0.0
 11
195.0814959999999
 21
181.503477
 31
0.0
  0
LINE
  5
9922
330
9798
100
AcDbEntity
  8
1
  6
Continuous
100
AcDbLine
 10
194.481496
 20
180.1674769999999
 30
0.0
 11
195.0814959999999
 21
180.059477
 31
0.0
  0
LINE
  5
9923
330
9798
100
AcDbEntity
  8
1
  6
Continuous
100
AcDbLine
 10
194.481496
 20
186.733477
 30
0.0
 11
195.0814959999999
 21
186.6254769999999
 31
0.0
  0
LINE
  5
9924
330
9798
100
AcDbEntity
  8
1
  6
Continuous
100
AcDbLine
 10
194.484496
 20
185.5354769999999
 30
0.0
 11
195.0814959999999
 21
185.2564769999999
 31
0.0
  0
LINE
  5
9925
330
9798
100
AcDbEntity
  8
1
  6
Continuous
100
AcDbLine
 10
194.561496
 20
183.469477
 30
0.0
 11
195.0814959999999
 21
183.167477
 31
0.0
  0
LINE
  5
9926
330
9798
100
AcDbEntity
  8
1
  6
Continuous
100
AcDbLine
 10
194.481496
 20
181.3224769999999
 30
0.0
 11
195.0814959999999
 21
181.0414769999999
 31
0.0
  0
LINE
  5
9927
330
9798
100
AcDbEntity
  8
1
  6
Continuous
100
AcDbLine
 10
194.481496
 20
179.788477
 30
0.0
 11
195.0814959999999
 21
179.681477
 31
0.0
  0
LINE
  5
9928
330
9798
100
AcDbEntity
  8
1
  6
Continuous
100
AcDbLine
 10
194.496496
 20
185.5494769999999
 30
0.0
 11
194.892496
 21
185.994477
 31
0.0
  0
LINE
  5
9929
330
9798
100
AcDbEntity
  8
1
  6
Continuous
100
AcDbLine
 10
196.0864959999999
 20
184.7864769999999
 30
0.0
 11
196.4814959999999
 21
185.231477
 31
0.0
  0
LINE
  5
992A
330
9798
100
AcDbEntity
  8
1
  6
Continuous
100
AcDbLine
 10
194.561496
 20
183.469477
 30
0.0
 11
194.960496
 21
184.1624769999999
 31
0.0
  0
LINE
  5
992B
330
9798
100
AcDbEntity
  8
1
  6
Continuous
100
AcDbLine
 10
196.561496
 20
183.235477
 30
0.0
 11
196.256496
 21
182.487477
 31
0.0
  0
LINE
  5
992C
330
9798
100
AcDbEntity
  8
1
  6
Continuous
100
AcDbLine
 10
195.8814959999999
 20
186.867477
 30
0.0
 11
196.4814959999999
 21
186.7604769999999
 31
0.0
  0
LINE
  5
992D
330
9798
100
AcDbEntity
  8
1
  6
Continuous
100
AcDbLine
 10
195.8814959999999
 20
186.482477
 30
0.0
 11
196.4814959999999
 21
186.3754769999999
 31
0.0
  0
LINE
  5
992E
330
9798
100
AcDbEntity
  8
1
  6
Continuous
100
AcDbLine
 10
195.8814959999999
 20
185.5124769999999
 30
0.0
 11
196.4814959999999
 21
185.231477
 31
0.0
  0
LINE
  5
992F
330
9798
100
AcDbEntity
  8
1
  6
Continuous
100
AcDbLine
 10
195.8814959999999
 20
184.8814769999999
 30
0.0
 11
196.0854959999998
 21
184.7864769999999
 31
0.0
  0
LINE
  5
9930
330
9798
100
AcDbEntity
  8
1
  6
Continuous
100
AcDbLine
 10
195.8814959999999
 20
183.629477
 30
0.0
 11
196.561496
 21
183.235477
 31
0.0
  0
LINE
  5
9931
330
9798
100
AcDbEntity
  8
1
  6
Continuous
100
AcDbLine
 10
195.8814959999999
 20
182.704477
 30
0.0
 11
196.256496
 21
182.487477
 31
0.0
  0
LINE
  5
9932
330
9798
100
AcDbEntity
  8
1
  6
Continuous
100
AcDbLine
 10
195.8814959999999
 20
181.128477
 30
0.0
 11
196.4814959999999
 21
180.847477
 31
0.0
  0
LINE
  5
9933
330
9798
100
AcDbEntity
  8
1
  6
Continuous
100
AcDbLine
 10
195.8814959999999
 20
180.6674769999999
 30
0.0
 11
196.095496
 21
180.5674769999999
 31
0.0
  0
LINE
  5
9934
330
9798
100
AcDbEntity
  8
1
  6
Continuous
100
AcDbLine
 10
195.8814959999999
 20
179.9164769999999
 30
0.0
 11
196.4814959999999
 21
179.8094769999999
 31
0.0
  0
LINE
  5
9935
330
9798
100
AcDbEntity
  8
1
  6
Continuous
100
AcDbLine
 10
195.8814959999999
 20
179.538477
 30
0.0
 11
196.072496
 21
179.504477
 31
0.0
  0
LINE
  5
9936
330
9798
100
AcDbEntity
  8
1
  6
Continuous
100
AcDbLine
 10
194.481496
 20
180.1674769999999
 30
0.0
 11
194.481496
 21
179.788477
 31
0.0
  0
LINE
  5
9937
330
9798
100
AcDbEntity
  8
1
  6
Continuous
100
AcDbLine
 10
194.481496
 20
181.783477
 30
0.0
 11
194.481496
 21
181.3224769999999
 31
0.0
  0
LINE
  5
9938
330
9798
100
AcDbEntity
  8
1
  6
Continuous
100
AcDbLine
 10
194.482496
 20
187.118477
 30
0.0
 11
194.482496
 21
186.733477
 31
0.0
  0
ARC
  5
9939
330
9798
100
AcDbEntity
  8
1
  6
Continuous
100
AcDbCircle
 10
27.426496
 20
113.4634769999999
 30
0.0
 40
4.5
100
AcDbArc
 50
106.128
 51
73.8724
  0
CIRCLE
  5
993A
330
9798
100
AcDbEntity
  8
1
  6
Continuous
100
AcDbCircle
 10
27.426496
 20
113.4634769999999
 30
0.0
 40
5.599999999999997
  0
CIRCLE
  5
993B
330
9798
100
AcDbEntity
  8
1
  6
Continuous
100
AcDbCircle
 10
27.426496
 20
113.4634769999999
 30
0.0
 40
10.0
  0
CIRCLE
  5
993C
330
9798
100
AcDbEntity
  8
1
  6
Continuous
100
AcDbCircle
 10
27.426496
 20
113.4634769999999
 30
0.0
 40
11.0
  0
ARC
  5
993D
330
9798
100
AcDbEntity
  8
1
  6
Continuous
100
AcDbCircle
 10
27.426496
 20
113.4634769999999
 30
0.0
 40
5.0
100
AcDbArc
 50
75.52249999999998
 51
104.477
  0
ARC
  5
993E
330
9798
100
AcDbEntity
  8
1
  6
Continuous
100
AcDbCircle
 10
127.7844959999999
 20
47.913777
 30
0.0
 40
0.4
100
AcDbArc
 50
0.0
 51
138.59
  0
ARC
  5
993F
330
9798
100
AcDbEntity
  8
1
  6
Continuous
100
AcDbCircle
 10
127.7844959999999
 20
39.01377699999999
 30
0.0
 40
0.4
100
AcDbArc
 50
221.41
 51
0.0
  0
ARC
  5
9940
330
9798
100
AcDbEntity
  8
1
  6
Continuous
100
AcDbCircle
 10
271.286496
 20
113.4634769999999
 30
0.0
 40
9.5
100
AcDbArc
 50
123.736
 51
236.264
  0
ARC
  5
9941
330
9798
100
AcDbEntity
  8
2
  6
Continuous
100
AcDbCircle
 10
271.286496
 20
113.4634769999999
 30
0.0
 40
9.5
100
AcDbArc
 50
236.261
 51
303.7389999999998
  0
ARC
  5
9942
330
9798
100
AcDbEntity
  8
1
  6
Continuous
100
AcDbCircle
 10
271.286496
 20
113.4634769999999
 30
0.0
 40
8.599999999999997
100
AcDbArc
 50
293.277
 51
346.5519999999998
  0
ARC
  5
9943
330
9798
100
AcDbEntity
  8
1
  6
Continuous
100
AcDbCircle
 10
271.286496
 20
113.4634769999999
 30
0.0
 40
8.099999999999997
100
AcDbArc
 50
282.759
 51
345.7049999999999
  0
ARC
  5
9944
330
9798
100
AcDbEntity
  8
1
  6
Continuous
100
AcDbCircle
 10
271.286496
 20
113.4634769999999
 30
0.0
 40
8.099999999999997
100
AcDbArc
 50
194.2949999999999
 51
257.241
  0
ARC
  5
9945
330
9798
100
AcDbEntity
  8
1
  6
Continuous
100
AcDbCircle
 10
271.286496
 20
113.4634769999999
 30
0.0
 40
8.599999999999997
100
AcDbArc
 50
193.4479999999999
 51
246.7229999999999
  0
ARC
  5
9946
330
9798
100
AcDbEntity
  8
1
  6
Continuous
100
AcDbCircle
 10
271.286496
 20
113.4634769999999
 30
0.0
 40
7.799999999999998
100
AcDbArc
 50
18.6939
 51
161.306
  0
ARC
  5
9947
330
9798
100
AcDbEntity
  8
1
  6
Continuous
100
AcDbCircle
 10
271.286496
 20
113.4634769999999
 30
0.0
 40
8.099999999999997
100
AcDbArc
 50
345.7049999999999
 51
77.24129999999998
  0
ARC
  5
9948
330
9798
100
AcDbEntity
  8
1
  6
Continuous
100
AcDbCircle
 10
271.286496
 20
113.4634769999999
 30
0.0
 40
8.599999999999997
100
AcDbArc
 50
13.4477
 51
66.7229
  0
ARC
  5
9949
330
9798
100
AcDbEntity
  8
1
  6
Continuous
100
AcDbCircle
 10
271.286496
 20
113.4634769999999
 30
0.0
 40
8.099999999999997
100
AcDbArc
 50
102.759
 51
194.2949999999999
  0
ARC
  5
994A
330
9798
100
AcDbEntity
  8
1
  6
Continuous
100
AcDbCircle
 10
271.286496
 20
113.4634769999999
 30
0.0
 40
8.599999999999997
100
AcDbArc
 50
113.277
 51
166.5519999999999
  0
ARC
  5
994B
330
9798
100
AcDbEntity
  8
1
  6
Continuous
100
AcDbCircle
 10
271.286496
 20
113.4634769999999
 30
0.0
 40
7.7
100
AcDbArc
 50
161.054
 51
288.9459999999999
  0
ARC
  5
994C
330
9798
100
AcDbEntity
  8
1
  6
Continuous
100
AcDbCircle
 10
194.0454959999999
 20
118.902477
 30
0.0
 40
1.837099999999999
100
AcDbArc
 50
283.7559999999998
 51
304.361
  0
ARC
  5
994D
330
9798
100
AcDbEntity
  8
1
  6
Continuous
100
AcDbCircle
 10
196.661496
 20
117.764477
 30
0.0
 40
1.02
100
AcDbArc
 50
220.1979999999999
 51
259.887
  0
ARC
  5
994E
330
9798
100
AcDbEntity
  8
1
  6
Continuous
100
AcDbCircle
 10
194.0164959999999
 20
118.956477
 30
0.0
 40
3.0987
100
AcDbArc
 50
286.201
 51
290.1159999999998
  0
ARC
  5
994F
330
9798
100
AcDbEntity
  8
1
  6
Continuous
100
AcDbCircle
 10
191.042496
 20
118.1244769999999
 30
0.0
 40
4.3083
100
AcDbArc
 50
323.293
 51
339.6459999999998
  0
ARC
  5
9950
330
9798
100
AcDbEntity
  8
1
  6
Continuous
100
AcDbCircle
 10
194.948496
 20
114.7514769999999
 30
0.0
 40
0.9421000000000001
100
AcDbArc
 50
352.033
 51
7.9668
  0
ARC
  5
9951
330
9798
100
AcDbEntity
  8
1
  6
Continuous
100
AcDbCircle
 10
190.794496
 20
115.306477
 30
0.0
 40
4.287499999999997
100
AcDbArc
 50
342.6549999999999
 51
359.3339999999998
  0
ARC
  5
9952
330
9798
100
AcDbEntity
  8
1
  6
Continuous
100
AcDbCircle
 10
193.8604959999999
 20
110.253477
 30
0.0
 40
1.236599999999999
100
AcDbArc
 50
350.983
 51
59.83789999999999
  0
ARC
  5
9953
330
9798
100
AcDbEntity
  8
1
  6
Continuous
100
AcDbCircle
 10
196.8244959999999
 20
109.9684769999999
 30
0.0
 40
0.9435999999999999
100
AcDbArc
 50
111.261
 51
183.1289999999999
  0
ARC
  5
9954
330
9798
100
AcDbEntity
  8
1
  6
Continuous
100
AcDbCircle
 10
196.813496
 20
108.937477
 30
0.0
 40
0.9332
100
AcDbArc
 50
110.826
 51
183.124
  0
ARC
  5
9955
330
9798
100
AcDbEntity
  8
1
  6
Continuous
100
AcDbCircle
 10
197.150496
 20
107.7164769999999
 30
0.0
 40
2.0872
100
AcDbArc
 50
121.081
 51
127.4229999999999
  0
ARC
  5
9956
330
9798
100
AcDbEntity
  8
1
  6
Continuous
100
AcDbCircle
 10
192.674496
 20
108.1874769999999
 30
0.0
 40
2.415099999999998
100
AcDbArc
 50
355.4669999999999
 51
41.5448
  0
ARC
  5
9957
330
9798
100
AcDbEntity
  8
1
  6
Continuous
100
AcDbCircle
 10
196.115496
 20
111.463477
 30
0.0
 40
1.0341
100
AcDbArc
 50
82.1314
 51
103.0399999999999
  0
ARC
  5
9958
330
9798
100
AcDbEntity
  8
1
  6
Continuous
100
AcDbCircle
 10
175.1724959999999
 20
122.9884769999999
 30
0.0
 40
6.0517
100
AcDbArc
 50
328.356
 51
31.64440000000001
  0
ARC
  5
9959
330
9798
100
AcDbEntity
  8
1
  6
Continuous
100
AcDbCircle
 10
175.1724959999999
 20
103.938477
 30
0.0
 40
6.0517
100
AcDbArc
 50
328.356
 51
31.64440000000001
  0
ARC
  5
995A
330
9798
100
AcDbEntity
  8
1
  6
Continuous
100
AcDbCircle
 10
158.3024959999999
 20
113.4634769999999
 30
0.0
 40
22.9192
100
AcDbArc
 50
343.915
 51
16.0848
  0
ARC
  5
995B
330
9798
100
AcDbEntity
  8
1
  6
Continuous
100
AcDbCircle
 10
204.0854959999998
 20
113.548477
 30
0.0
 40
7.9683
100
AcDbArc
 50
0.6920000000000001
 51
22.81779999999999
  0
ARC
  5
995C
330
9798
100
AcDbEntity
  8
1
  6
Continuous
100
AcDbCircle
 10
210.094496
 20
118.1894769999999
 30
0.0
 40
2.241099999999998
100
AcDbArc
 50
133.553
 51
223.7849999999999
  0
ARC
  5
995D
330
9798
100
AcDbEntity
  8
1
  6
Continuous
100
AcDbCircle
 10
215.821496
 20
113.548477
 30
0.0
 40
7.9683
100
AcDbArc
 50
157.1819999999999
 51
179.3899999999999
  0
ARC
  5
995E
330
9798
100
AcDbEntity
  8
1
  6
Continuous
100
AcDbCircle
 10
209.812496
 20
118.1894769999999
 30
0.0
 40
2.241099999999998
100
AcDbArc
 50
316.215
 51
46.4467
  0
ARC
  5
995F
330
9798
100
AcDbEntity
  8
1
  6
Continuous
100
AcDbCircle
 10
204.0854959999998
 20
113.378477
 30
0.0
 40
7.9683
100
AcDbArc
 50
337.1819999999999
 51
359.308
  0
ARC
  5
9960
330
9798
100
AcDbEntity
  8
1
  6
Continuous
100
AcDbCircle
 10
210.094496
 20
108.737477
 30
0.0
 40
2.241099999999998
100
AcDbArc
 50
136.2149999999997
 51
226.447
  0
ARC
  5
9961
330
9798
100
AcDbEntity
  8
1
  6
Continuous
100
AcDbCircle
 10
215.821496
 20
113.378477
 30
0.0
 40
7.9683
100
AcDbArc
 50
180.6099999999998
 51
202.818
  0
ARC
  5
9962
330
9798
100
AcDbEntity
  8
1
  6
Continuous
100
AcDbCircle
 10
209.812496
 20
108.737477
 30
0.0
 40
2.241099999999998
100
AcDbArc
 50
313.553
 51
43.7854
  0
ARC
  5
9963
330
9798
100
AcDbEntity
  8
1
  6
Continuous
100
AcDbCircle
 10
46.32649599999999
 20
183.463477
 30
0.0
 40
6.0
100
AcDbArc
 50
346.3049999999999
 51
13.695
  0
ARC
  5
9964
330
9798
100
AcDbEntity
  8
1
  6
Continuous
100
AcDbCircle
 10
44.326496
 20
183.463477
 30
0.0
 40
6.0
100
AcDbArc
 50
329.169
 51
30.8305
  0
ARC
  5
9965
330
9798
100
AcDbEntity
  8
1
  6
Continuous
100
AcDbCircle
 10
51.184396
 20
184.647477
 30
0.0
 40
1.0
100
AcDbArc
 50
13.695
 51
65.1671
  0
ARC
  5
9966
330
9798
100
AcDbEntity
  8
1
  6
Continuous
100
AcDbCircle
 10
51.184396
 20
182.279477
 30
0.0
 40
1.0
100
AcDbArc
 50
294.8329999999998
 51
346.3049999999999
  0
ARC
  5
9967
330
9798
100
AcDbEntity
  8
1
  6
Continuous
100
AcDbCircle
 10
15.42649599999999
 20
185.963477
 30
0.0
 40
0.5
100
AcDbArc
 50
90.0
 51
180.0
  0
ARC
  5
9968
330
9798
100
AcDbEntity
  8
1
  6
Continuous
100
AcDbCircle
 10
16.926496
 20
185.963477
 30
0.0
 40
0.5
100
AcDbArc
 50
0.0
 51
90.0
  0
ARC
  5
9969
330
9798
100
AcDbEntity
  8
1
  6
Continuous
100
AcDbCircle
 10
15.42649599999999
 20
180.963477
 30
0.0
 40
0.5
100
AcDbArc
 50
180.0
 51
270.0
  0
ARC
  5
996A
330
9798
100
AcDbEntity
  8
1
  6
Continuous
100
AcDbCircle
 10
16.926496
 20
180.963477
 30
0.0
 40
0.5
100
AcDbArc
 50
270.0
 51
0.0
  0
ARC
  5
996B
330
9798
100
AcDbEntity
  8
1
  6
Continuous
100
AcDbCircle
 10
33.926496
 20
178.463477
 30
0.0
 40
0.5
100
AcDbArc
 50
270.0
 51
0.0
  0
ARC
  5
996C
330
9798
100
AcDbEntity
  8
1
  6
Continuous
100
AcDbCircle
 10
33.926496
 20
188.463477
 30
0.0
 40
0.5
100
AcDbArc
 50
0.0
 51
90.0
  0
ARC
  5
996D
330
9798
100
AcDbEntity
  8
1
  6
Continuous
100
AcDbCircle
 10
18.418896
 20
192.463477
 30
0.0
 40
1.0
100
AcDbArc
 50
90.0
 51
142.431
  0
ARC
  5
996E
330
9798
100
AcDbEntity
  8
1
  6
Continuous
100
AcDbCircle
 10
21.149596
 20
192.463477
 30
0.0
 40
1.0
100
AcDbArc
 50
59.0362
 51
90.0
  0
ARC
  5
996F
330
9798
100
AcDbEntity
  8
1
  6
Continuous
100
AcDbCircle
 10
18.418896
 20
174.463477
 30
0.0
 40
1.0
100
AcDbArc
 50
217.5689999999999
 51
270.0
  0
ARC
  5
9970
330
9798
100
AcDbEntity
  8
1
  6
Continuous
100
AcDbCircle
 10
21.149596
 20
174.463477
 30
0.0
 40
1.0
100
AcDbArc
 50
270.0
 51
300.964
  0
ARC
  5
9971
330
9798
100
AcDbEntity
  8
1
  6
Continuous
100
AcDbCircle
 10
13.92649599999999
 20
180.303477
 30
0.0
 40
1.0
100
AcDbArc
 50
180.0
 51
217.5689999999999
  0
ARC
  5
9972
330
9798
100
AcDbEntity
  8
1
  6
Continuous
100
AcDbCircle
 10
13.92649599999999
 20
186.623477
 30
0.0
 40
1.0
100
AcDbArc
 50
142.431
 51
180.0
  0
CIRCLE
  5
9973
330
9798
100
AcDbEntity
  8
1
  6
Continuous
100
AcDbCircle
 10
271.286496
 20
113.4634769999999
 30
0.0
 40
2.5
  0
ARC
  5
9974
330
9798
100
AcDbEntity
  8
1
  6
Continuous
100
AcDbCircle
 10
271.286496
 20
113.4634769999999
 30
0.0
 40
3.5
100
AcDbArc
 50
129.518
 51
230.483
  0
ARC
  5
9975
330
9798
100
AcDbEntity
  8
1
  6
Continuous
100
AcDbCircle
 10
271.286496
 20
113.4634769999999
 30
0.0
 40
3.5
100
AcDbArc
 50
309.5169999999999
 51
50.48230000000001
  0
CIRCLE
  5
9976
330
9798
100
AcDbEntity
  8
1
  6
Continuous
100
AcDbCircle
 10
271.286496
 20
113.4634769999999
 30
0.0
 40
5.4
  0
ARC
  5
9977
330
9798
100
AcDbEntity
  8
1
  6
Continuous
100
AcDbCircle
 10
114.784496
 20
113.4634769999999
 30
0.0
 40
1.6
100
AcDbArc
 50
90.0
 51
270.0
  0
ARC
  5
9978
330
9798
100
AcDbEntity
  8
1
  6
Continuous
100
AcDbCircle
 10
127.7844959999999
 20
109.063477
 30
0.0
 40
0.4
100
AcDbArc
 50
221.41
 51
0.0
  0
ARC
  5
9979
330
9798
100
AcDbEntity
  8
1
  6
Continuous
100
AcDbCircle
 10
124.6764959999999
 20
113.4634769999999
 30
0.0
 40
2.0
100
AcDbArc
 50
306.87
 51
53.13039999999999
  0
ARC
  5
997A
330
9798
100
AcDbEntity
  8
1
  6
Continuous
100
AcDbCircle
 10
165.026496
 20
37.964477
 30
0.0
 40
16.1953
100
AcDbArc
 50
340.1499999999999
 51
19.85
  0
ARC
  5
997B
330
9798
100
AcDbEntity
  8
1
  6
Continuous
100
AcDbCircle
 10
165.026496
 20
48.962977
 30
0.0
 40
16.1953
100
AcDbArc
 50
340.1499999999999
 51
19.85
  0
ARC
  5
997C
330
9798
100
AcDbEntity
  8
1
  6
Continuous
100
AcDbCircle
 10
203.9554959999999
 20
40.714077
 30
0.0
 40
8.097699999999997
100
AcDbArc
 50
340.1499999999999
 51
19.85
  0
ARC
  5
997D
330
9798
100
AcDbEntity
  8
1
  6
Continuous
100
AcDbCircle
 10
203.9554959999999
 20
46.213377
 30
0.0
 40
8.097699999999997
100
AcDbArc
 50
340.1499999999999
 51
19.85
  0
ARC
  5
997E
330
9798
100
AcDbEntity
  8
1
  6
Continuous
100
AcDbCircle
 10
215.951496
 20
46.213377
 30
0.0
 40
8.097699999999997
100
AcDbArc
 50
160.15
 51
199.8499999999999
  0
ARC
  5
997F
330
9798
100
AcDbEntity
  8
1
  6
Continuous
100
AcDbCircle
 10
215.951496
 20
40.714077
 30
0.0
 40
8.097699999999997
100
AcDbArc
 50
160.15
 51
199.8499999999999
  0
ARC
  5
9980
330
9798
100
AcDbEntity
  8
1
  6
Continuous
100
AcDbCircle
 10
194.0454959999999
 20
48.902577
 30
0.0
 40
1.837099999999999
100
AcDbArc
 50
283.7559999999998
 51
304.361
  0
ARC
  5
9981
330
9798
100
AcDbEntity
  8
1
  6
Continuous
100
AcDbCircle
 10
196.661496
 20
47.764677
 30
0.0
 40
1.02
100
AcDbArc
 50
220.1979999999999
 51
259.887
  0
ARC
  5
9982
330
9798
100
AcDbEntity
  8
1
  6
Continuous
100
AcDbCircle
 10
194.0164959999999
 20
48.956777
 30
0.0
 40
3.0987
100
AcDbArc
 50
286.201
 51
290.1159999999998
  0
ARC
  5
9983
330
9798
100
AcDbEntity
  8
1
  6
Continuous
100
AcDbCircle
 10
191.042496
 20
48.124277
 30
0.0
 40
4.3083
100
AcDbArc
 50
323.293
 51
339.6459999999998
  0
ARC
  5
9984
330
9798
100
AcDbEntity
  8
1
  6
Continuous
100
AcDbCircle
 10
194.948496
 20
44.751177
 30
0.0
 40
0.9421000000000001
100
AcDbArc
 50
352.033
 51
7.966789999999998
  0
ARC
  5
9985
330
9798
100
AcDbEntity
  8
1
  6
Continuous
100
AcDbCircle
 10
190.794496
 20
45.30617699999999
 30
0.0
 40
4.287499999999997
100
AcDbArc
 50
342.6549999999999
 51
359.3339999999998
  0
ARC
  5
9986
330
9798
100
AcDbEntity
  8
1
  6
Continuous
100
AcDbCircle
 10
193.8604959999999
 20
40.25357699999999
 30
0.0
 40
1.236599999999999
100
AcDbArc
 50
350.983
 51
59.83789999999999
  0
ARC
  5
9987
330
9798
100
AcDbEntity
  8
1
  6
Continuous
100
AcDbCircle
 10
196.8244959999999
 20
39.96817699999999
 30
0.0
 40
0.9435999999999999
100
AcDbArc
 50
111.261
 51
183.1289999999999
  0
ARC
  5
9988
330
9798
100
AcDbEntity
  8
1
  6
Continuous
100
AcDbCircle
 10
196.813496
 20
38.93717699999999
 30
0.0
 40
0.9332
100
AcDbArc
 50
110.826
 51
183.124
  0
ARC
  5
9989
330
9798
100
AcDbEntity
  8
1
  6
Continuous
100
AcDbCircle
 10
197.150496
 20
37.716977
 30
0.0
 40
2.0872
100
AcDbArc
 50
121.081
 51
127.4229999999999
  0
ARC
  5
998A
330
9798
100
AcDbEntity
  8
1
  6
Continuous
100
AcDbCircle
 10
192.674496
 20
38.187277
 30
0.0
 40
2.415099999999998
100
AcDbArc
 50
355.4669999999999
 51
41.5448
  0
ARC
  5
998B
330
9798
100
AcDbEntity
  8
1
  6
Continuous
100
AcDbCircle
 10
196.115496
 20
41.46347699999998
 30
0.0
 40
1.0341
100
AcDbArc
 50
82.1314
 51
103.0399999999999
  0
CIRCLE
  5
998C
330
9798
100
AcDbEntity
  8
1
  6
Continuous
100
AcDbCircle
 10
271.286496
 20
113.4634769999999
 30
0.0
 40
6.5
  0
CIRCLE
  5
998D
330
9798
100
AcDbEntity
  8
1
  6
Continuous
100
AcDbCircle
 10
271.286496
 20
113.4634769999999
 30
0.0
 40
11.0
  0
ARC
  5
998E
330
9798
100
AcDbEntity
  8
2
  6
Continuous
100
AcDbCircle
 10
271.286496
 20
113.4634769999999
 30
0.0
 40
3.5
100
AcDbArc
 50
50.48230000000001
 51
129.518
  0
ARC
  5
998F
330
9798
100
AcDbEntity
  8
2
  6
Continuous
100
AcDbCircle
 10
271.286496
 20
113.4634769999999
 30
0.0
 40
3.5
100
AcDbArc
 50
230.483
 51
309.5169999999999
  0
ARC
  5
9990
330
9798
100
AcDbEntity
  8
2
  6
Continuous
100
AcDbCircle
 10
271.286496
 20
113.4634769999999
 30
0.0
 40
3.093999999999998
100
AcDbArc
 50
119.2309999999999
 51
240.769
  0
ARC
  5
9991
330
9798
100
AcDbEntity
  8
1
  6
Continuous
100
AcDbCircle
 10
271.286496
 20
113.4634769999999
 30
0.0
 40
3.093999999999998
100
AcDbArc
 50
240.769
 51
299.2309999999998
  0
ARC
  5
9992
330
9798
100
AcDbEntity
  8
2
  6
Continuous
100
AcDbCircle
 10
271.286496
 20
113.4634769999999
 30
0.0
 40
3.093999999999998
100
AcDbArc
 50
299.2309999999998
 51
60.76869999999999
  0
ARC
  5
9993
330
9798
100
AcDbEntity
  8
1
  6
Continuous
100
AcDbCircle
 10
271.286496
 20
113.4634769999999
 30
0.0
 40
3.093999999999998
100
AcDbArc
 50
60.76869999999999
 51
119.2309999999999
  0
ARC
  5
9994
330
9798
100
AcDbEntity
  8
2
  6
Continuous
100
AcDbCircle
 10
271.286496
 20
113.4634769999999
 30
0.0
 40
8.9585
100
AcDbArc
 50
118.134
 51
167.7589999999999
  0
ARC
  5
9995
330
9798
100
AcDbEntity
  8
1
  6
Continuous
100
AcDbCircle
 10
271.286496
 20
113.4634769999999
 30
0.0
 40
8.9585
100
AcDbArc
 50
241.866
 51
298.134
  0
ARC
  5
9996
330
9798
100
AcDbEntity
  8
2
  6
Continuous
100
AcDbCircle
 10
271.286496
 20
113.4634769999999
 30
0.0
 40
8.9585
100
AcDbArc
 50
298.134
 51
347.759
  0
ARC
  5
9997
330
9798
100
AcDbEntity
  8
1
  6
Continuous
100
AcDbCircle
 10
271.286496
 20
113.4634769999999
 30
0.0
 40
8.9585
100
AcDbArc
 50
61.8655
 51
118.134
  0
ARC
  5
9998
330
9798
100
AcDbEntity
  8
2
  6
Continuous
100
AcDbCircle
 10
271.286496
 20
113.4634769999999
 30
0.0
 40
8.9585
100
AcDbArc
 50
192.2409999999999
 51
241.866
  0
ARC
  5
9999
330
9798
100
AcDbEntity
  8
2
  6
Continuous
100
AcDbCircle
 10
271.286496
 20
113.4634769999999
 30
0.0
 40
8.9585
100
AcDbArc
 50
12.2407
 51
61.8655
  0
ARC
  5
999A
330
9798
100
AcDbEntity
  8
1
  6
Continuous
100
AcDbCircle
 10
271.286496
 20
113.4634769999999
 30
0.0
 40
9.5
100
AcDbArc
 50
303.7389999999998
 51
56.2612
  0
ARC
  5
999B
330
9798
100
AcDbEntity
  8
2
  6
Continuous
100
AcDbCircle
 10
271.286496
 20
113.4634769999999
 30
0.0
 40
9.5
100
AcDbArc
 50
56.2612
 51
123.7389999999999
  0
ARC
  5
999C
330
9798
100
AcDbEntity
  8
1
  6
Continuous
100
AcDbCircle
 10
165.026496
 20
177.9644769999999
 30
0.0
 40
16.1953
100
AcDbArc
 50
340.1499999999999
 51
19.85
  0
ARC
  5
999D
330
9798
100
AcDbEntity
  8
1
  6
Continuous
100
AcDbCircle
 10
165.026496
 20
188.963477
 30
0.0
 40
16.1953
100
AcDbArc
 50
340.1499999999999
 51
19.85
  0
ARC
  5
999E
330
9798
100
AcDbEntity
  8
1
  6
Continuous
100
AcDbCircle
 10
203.9554959999999
 20
180.7144769999999
 30
0.0
 40
8.097699999999997
100
AcDbArc
 50
340.1499999999999
 51
19.85
  0
ARC
  5
999F
330
9798
100
AcDbEntity
  8
1
  6
Continuous
100
AcDbCircle
 10
203.9554959999999
 20
186.213477
 30
0.0
 40
8.097699999999997
100
AcDbArc
 50
340.1499999999999
 51
19.85
  0
ARC
  5
99A0
330
9798
100
AcDbEntity
  8
1
  6
Continuous
100
AcDbCircle
 10
215.951496
 20
186.213477
 30
0.0
 40
8.097699999999997
100
AcDbArc
 50
160.15
 51
199.8499999999999
  0
ARC
  5
99A1
330
9798
100
AcDbEntity
  8
1
  6
Continuous
100
AcDbCircle
 10
215.951496
 20
180.7144769999999
 30
0.0
 40
8.097699999999997
100
AcDbArc
 50
160.15
 51
199.8499999999999
  0
ARC
  5
99A2
330
9798
100
AcDbEntity
  8
1
  6
Continuous
100
AcDbCircle
 10
194.0454959999999
 20
188.9024769999998
 30
0.0
 40
1.837099999999999
100
AcDbArc
 50
283.7559999999998
 51
304.361
  0
ARC
  5
99A3
330
9798
100
AcDbEntity
  8
1
  6
Continuous
100
AcDbCircle
 10
196.661496
 20
187.764477
 30
0.0
 40
1.02
100
AcDbArc
 50
220.1979999999999
 51
259.887
  0
ARC
  5
99A4
330
9798
100
AcDbEntity
  8
1
  6
Continuous
100
AcDbCircle
 10
194.0164959999999
 20
188.9564769999998
 30
0.0
 40
3.0987
100
AcDbArc
 50
286.201
 51
290.1159999999998
  0
ARC
  5
99A5
330
9798
100
AcDbEntity
  8
1
  6
Continuous
100
AcDbCircle
 10
191.042496
 20
188.124477
 30
0.0
 40
4.3083
100
AcDbArc
 50
323.293
 51
339.6459999999998
  0
ARC
  5
99A6
330
9798
100
AcDbEntity
  8
1
  6
Continuous
100
AcDbCircle
 10
194.948496
 20
184.751477
 30
0.0
 40
0.9421000000000001
100
AcDbArc
 50
352.033
 51
7.966789999999998
  0
ARC
  5
99A7
330
9798
100
AcDbEntity
  8
1
  6
Continuous
100
AcDbCircle
 10
190.794496
 20
185.3064769999998
 30
0.0
 40
4.287499999999997
100
AcDbArc
 50
342.6549999999999
 51
359.3339999999998
  0
ARC
  5
99A8
330
9798
100
AcDbEntity
  8
1
  6
Continuous
100
AcDbCircle
 10
193.8604959999999
 20
180.253477
 30
0.0
 40
1.236599999999999
100
AcDbArc
 50
350.983
 51
59.83789999999999
  0
ARC
  5
99A9
330
9798
100
AcDbEntity
  8
1
  6
Continuous
100
AcDbCircle
 10
196.8244959999999
 20
179.968477
 30
0.0
 40
0.9435999999999999
100
AcDbArc
 50
111.261
 51
183.1289999999999
  0
ARC
  5
99AA
330
9798
100
AcDbEntity
  8
1
  6
Continuous
100
AcDbCircle
 10
196.813496
 20
178.937477
 30
0.0
 40
0.9332
100
AcDbArc
 50
110.826
 51
183.124
  0
ARC
  5
99AB
330
9798
100
AcDbEntity
  8
1
  6
Continuous
100
AcDbCircle
 10
197.150496
 20
177.7164769999999
 30
0.0
 40
2.0872
100
AcDbArc
 50
121.081
 51
127.4229999999999
  0
ARC
  5
99AC
330
9798
100
AcDbEntity
  8
1
  6
Continuous
100
AcDbCircle
 10
192.674496
 20
178.1874769999998
 30
0.0
 40
2.415099999999998
100
AcDbArc
 50
355.4669999999999
 51
41.5448
  0
ARC
  5
99AD
330
9798
100
AcDbEntity
  8
1
  6
Continuous
100
AcDbCircle
 10
196.115496
 20
181.4634769999999
 30
0.0
 40
1.0341
100
AcDbArc
 50
82.1314
 51
103.0399999999999
  0
ARC
  5
99AE
330
9798
100
AcDbEntity
  8
1
  6
Continuous
100
AcDbCircle
 10
28.52587999999999
 20
183.463477
 30
0.0
 40
7.932788
100
AcDbArc
 50
169.896
 51
172.2069999999999
  0
ARC
  5
99AF
330
9798
100
AcDbEntity
  8
1
  6
Continuous
100
AcDbCircle
 10
17.32711099999999
 20
183.463477
 30
0.0
 40
7.932788
100
AcDbArc
 50
7.792999999999999
 51
10.10399999999999
  0
ARC
  5
99B0
330
9798
100
AcDbEntity
  8
1
  6
Continuous
100
AcDbCircle
 10
20.732078
 20
184.53125
 30
0.0
 40
0.066678
100
AcDbArc
 50
172.2069999999999
 51
270.0
  0
ARC
  5
99B1
330
9798
100
AcDbEntity
  8
1
  6
Continuous
100
AcDbCircle
 10
25.120913
 20
184.53125
 30
0.0
 40
0.066678
100
AcDbArc
 50
270.0
 51
7.792999999999999
  0
LINE
  5
99B2
330
9798
100
AcDbEntity
  8
1
  6
Continuous
100
AcDbLine
 10
20.600806
 20
183.7977479999999
 30
0.0
 11
25.252186
 21
183.7977479999999
 31
0.0
  0
LINE
  5
99B3
330
9798
100
AcDbEntity
  8
1
  6
Continuous
100
AcDbLine
 10
20.732078
 20
184.463584
 30
0.0
 11
25.120913
 21
184.463584
 31
0.0
  0
LINE
  5
99B4
330
9798
100
AcDbEntity
  8
1
  6
Continuous
100
AcDbLine
 10
22.12600399999999
 20
185.130774
 30
0.0
 11
21.044697
 21
185.130774
 31
0.0
  0
LINE
  5
99B5
330
9798
100
AcDbEntity
  8
1
  6
Continuous
100
AcDbLine
 10
22.925819
 20
185.130774
 30
0.0
 11
22.925819
 21
184.797855
 31
0.0
  0
LINE
  5
99B6
330
9798
100
AcDbEntity
  8
1
  6
Continuous
100
AcDbLine
 10
21.048757
 20
186.463799
 30
0.0
 11
22.592901
 21
186.463799
 31
0.0
  0
LINE
  5
99B7
330
9798
100
AcDbEntity
  8
1
  6
Continuous
100
AcDbLine
 10
22.592901
 20
187.130989
 30
0.0
 11
21.16920299999998
 21
187.130989
 31
0.0
  0
LINE
  5
99B8
330
9798
100
AcDbEntity
  8
1
  6
Continuous
100
AcDbLine
 10
22.925819
 20
186.796717
 30
0.0
 11
24.52545
 21
186.796717
 31
0.0
  0
LINE
  5
99B9
330
9798
100
AcDbEntity
  8
1
  6
Continuous
100
AcDbLine
 10
24.173585
 20
187.4693199999999
 30
0.0
 11
21.364081
 21
188.2231219999999
 31
0.0
  0
LINE
  5
99BA
330
9798
100
AcDbEntity
  8
1
  6
Continuous
100
AcDbLine
 10
22.925819
 20
189.1812769999999
 30
0.0
 11
22.925819
 21
187.8035909999999
 31
0.0
  0
ARC
  5
99BB
330
9798
100
AcDbEntity
  8
1
  6
Continuous
100
AcDbCircle
 10
22.592901
 20
186.796717
 30
0.0
 40
0.333392
100
AcDbArc
 50
270.0
 51
90.0
  0
ARC
  5
99BC
330
9798
100
AcDbEntity
  8
1
  6
Continuous
100
AcDbCircle
 10
22.925819
 20
187.463907
 30
0.0
 40
1.717978999999998
100
AcDbArc
 50
62.24999999999999
 51
144.462
  0
ARC
  5
99BD
330
9798
100
AcDbEntity
  8
1
  6
Continuous
100
AcDbCircle
 10
22.925819
 20
187.463907
 30
0.0
 40
1.717978999999998
100
AcDbArc
 50
35.53799999999999
 51
45.69899999999999
  0
ARC
  5
99BE
330
9798
100
AcDbEntity
  8
1
  6
Continuous
100
AcDbCircle
 10
21.044697
 20
184.797855
 30
0.0
 40
0.333392
100
AcDbArc
 50
90.0
 51
169.896
  0
ARC
  5
99BF
330
9798
100
AcDbEntity
  8
1
  6
Continuous
100
AcDbCircle
 10
24.808295
 20
184.797855
 30
0.0
 40
0.333392
100
AcDbArc
 50
10.10399999999999
 51
90.0
  0
LINE
  5
99C0
330
9798
100
AcDbEntity
  8
1
  6
Continuous
100
AcDbLine
 10
24.808295
 20
185.130774
 30
0.0
 11
22.925819
 21
185.130774
 31
0.0
  0
LINE
  5
99C1
330
9798
100
AcDbEntity
  8
1
  6
Continuous
100
AcDbLine
 10
20.73478499999999
 20
185.7966099999999
 30
0.0
 11
24.908441
 21
185.7966099999999
 31
0.0
  0
LINE
  5
99C2
330
9798
100
AcDbEntity
  8
1
  6
Continuous
100
AcDbLine
 10
21.09747599999999
 20
179.131482
 30
0.0
 11
23.97194
 21
179.131482
 31
0.0
  0
LINE
  5
99C3
330
9798
100
AcDbEntity
  8
1
  6
Continuous
100
AcDbLine
 10
24.155992
 20
179.7973179999999
 30
0.0
 11
21.69699899999999
 21
179.7973179999999
 31
0.0
  0
LINE
  5
99C4
330
9798
100
AcDbEntity
  8
1
  6
Continuous
100
AcDbLine
 10
21.28152899999999
 20
180.464507
 30
0.0
 11
24.570109
 21
180.464507
 31
0.0
  0
LINE
  5
99C5
330
9798
100
AcDbEntity
  8
1
  6
Continuous
100
AcDbLine
 10
22.12600399999999
 20
181.7975329999999
 30
0.0
 11
20.85387799999999
 21
181.7975329999999
 31
0.0
  0
LINE
  5
99C6
330
9798
100
AcDbEntity
  8
1
  6
Continuous
100
AcDbLine
 10
22.925819
 20
183.130558
 30
0.0
 11
22.925819
 21
182.4647219999999
 31
0.0
  0
ARC
  5
99C7
330
9798
100
AcDbEntity
  8
1
  6
Continuous
100
AcDbCircle
 10
22.925819
 20
179.4644
 30
0.0
 40
1.717978999999998
100
AcDbArc
 50
215.5377
 51
256.5374
  0
ARC
  5
99C8
330
9798
100
AcDbEntity
  8
1
  6
Continuous
100
AcDbCircle
 10
22.925819
 20
179.4644
 30
0.0
 40
1.717978999999998
100
AcDbArc
 50
270.0
 51
324.4619999999998
  0
ARC
  5
99C9
330
9798
100
AcDbEntity
  8
1
  6
Continuous
100
AcDbCircle
 10
21.69699899999999
 20
180.1315889999999
 30
0.0
 40
0.333392
100
AcDbArc
 50
206.0144
 51
270.0
  0
ARC
  5
99CA
330
9798
100
AcDbEntity
  8
1
  6
Continuous
100
AcDbCircle
 10
28.52587999999999
 20
183.463477
 30
0.0
 40
7.932788
100
AcDbArc
 50
202.944
 51
206.0144
  0
ARC
  5
99CB
330
9798
100
AcDbEntity
  8
1
  6
Continuous
100
AcDbCircle
 10
21.28152899999999
 20
180.3981939999999
 30
0.0
 40
0.066678
100
AcDbArc
 50
90.0
 51
202.944
  0
ARC
  5
99CC
330
9798
100
AcDbEntity
  8
1
  6
Continuous
100
AcDbCircle
 10
24.155992
 20
180.1315889999999
 30
0.0
 40
0.333392
100
AcDbArc
 50
270.0
 51
333.9859999999998
  0
ARC
  5
99CD
330
9798
100
AcDbEntity
  8
1
  6
Continuous
100
AcDbCircle
 10
20.85387799999999
 20
181.73122
 30
0.0
 40
0.066678
100
AcDbArc
 50
90.0
 51
192.7289
  0
ARC
  5
99CE
330
9798
100
AcDbEntity
  8
1
  6
Continuous
100
AcDbCircle
 10
28.52587999999999
 20
183.463477
 30
0.0
 40
7.932788
100
AcDbArc
 50
192.7289
 51
193.2680999999999
  0
ARC
  5
99CF
330
9798
100
AcDbEntity
  8
1
  6
Continuous
100
AcDbCircle
 10
28.52587999999999
 20
183.463477
 30
0.0
 40
7.932788
100
AcDbArc
 50
193.2680999999999
 51
195.2574999999999
  0
ARC
  5
99D0
330
9798
100
AcDbEntity
  8
1
  6
Continuous
100
AcDbCircle
 10
21.19491599999999
 20
181.4646149999999
 30
0.0
 40
0.333392
100
AcDbArc
 50
195.2574999999999
 51
270.0
  0
ARC
  5
99D1
330
9798
100
AcDbEntity
  8
1
  6
Continuous
100
AcDbCircle
 10
24.658076
 20
181.4646149999999
 30
0.0
 40
0.333392
100
AcDbArc
 50
270.0
 51
344.7419999999998
  0
ARC
  5
99D2
330
9798
100
AcDbEntity
  8
1
  6
Continuous
100
AcDbCircle
 10
17.32711099999999
 20
183.463477
 30
0.0
 40
7.932788
100
AcDbArc
 50
344.7419999999998
 51
344.794
  0
ARC
  5
99D3
330
9798
100
AcDbEntity
  8
1
  6
Continuous
100
AcDbCircle
 10
17.32711099999999
 20
183.463477
 30
0.0
 40
7.932788
100
AcDbArc
 50
344.794
 51
347.2709999999998
  0
ARC
  5
99D4
330
9798
100
AcDbEntity
  8
1
  6
Continuous
100
AcDbCircle
 10
24.999114
 20
181.73122
 30
0.0
 40
0.066678
100
AcDbArc
 50
347.2709999999998
 51
90.0
  0
LINE
  5
99D5
330
9798
100
AcDbEntity
  8
1
  6
Continuous
100
AcDbLine
 10
21.19491599999999
 20
181.1303429999999
 30
0.0
 11
24.658076
 21
181.1303429999999
 31
0.0
  0
LINE
  5
99D6
330
9798
100
AcDbEntity
  8
1
  6
Continuous
100
AcDbLine
 10
24.999114
 20
181.7975329999999
 30
0.0
 11
23.725634
 21
181.7975329999999
 31
0.0
  0
LINE
  5
99D7
330
9798
100
AcDbEntity
  8
1
  6
Continuous
100
AcDbLine
 10
20.656292
 20
182.4647219999999
 30
0.0
 11
25.196699
 21
182.4647219999999
 31
0.0
  0
LINE
  5
99D8
330
9798
100
AcDbEntity
  8
1
  6
Continuous
100
AcDbLine
 10
20.600806
 20
183.130558
 30
0.0
 11
25.252186
 21
183.130558
 31
0.0
  0
ARC
  5
99D9
330
9798
100
AcDbEntity
  8
1
  6
Continuous
100
AcDbCircle
 10
24.570109
 20
180.3981939999999
 30
0.0
 40
0.066678
100
AcDbArc
 50
337.0559999999999
 51
90.0
  0
ARC
  5
99DA
330
9798
100
AcDbEntity
  8
1
  6
Continuous
100
AcDbCircle
 10
17.32711099999999
 20
183.463477
 30
0.0
 40
7.932788
100
AcDbArc
 50
333.9859999999998
 51
337.0559999999999
  0
ARC
  5
99DB
330
9798
100
AcDbEntity
  8
1
  6
Continuous
100
AcDbCircle
 10
17.32711099999999
 20
183.463477
 30
0.0
 40
8.599396
100
AcDbArc
 50
324.4619999999998
 51
35.53799999999999
  0
ARC
  5
99DC
330
9798
100
AcDbEntity
  8
1
  6
Continuous
100
AcDbCircle
 10
28.52587999999999
 20
183.463477
 30
0.0
 40
8.599396
100
AcDbArc
 50
144.462
 51
215.5377
  0
LINE
  5
99DD
330
9798
100
AcDbEntity
  8
1
  6
Continuous
100
AcDbLine
 10
139.6844959999999
 20
116.163477
 30
0.0
 11
139.6844959999999
 21
110.7634769999999
 31
0.0
  0
LINE
  5
99DE
330
9798
100
AcDbEntity
  8
1
  6
Continuous
100
AcDbLine
 10
113.6844959999999
 20
121.363477
 30
0.0
 11
113.6844959999999
 21
114.625372
 31
0.0
  0
LINE
  5
99DF
330
9798
100
AcDbEntity
  8
1
  6
Continuous
100
AcDbLine
 10
126.1844959999999
 20
121.363477
 30
0.0
 11
126.1844959999999
 21
115.0634829999999
 31
0.0
  0
LINE
  5
99E0
330
9798
100
AcDbEntity
  8
1
  6
Continuous
100
AcDbLine
 10
125.284496
 20
121.363477
 30
0.0
 11
125.284496
 21
115.063477
 31
0.0
  0
LINE
  5
99E1
330
9798
100
AcDbEntity
  8
1
  6
Continuous
100
AcDbLine
 10
126.9844959999998
 20
121.363477
 30
0.0
 11
126.9844959999998
 21
115.063477
 31
0.0
  0
LINE
  5
99E2
330
9798
100
AcDbEntity
  8
1
  6
Continuous
100
AcDbLine
 10
113.6844959999999
 20
112.301582
 30
0.0
 11
113.6844959999999
 21
105.563477
 31
0.0
  0
LINE
  5
99E3
330
9798
100
AcDbEntity
  8
1
  6
Continuous
100
AcDbLine
 10
125.284496
 20
111.863477
 30
0.0
 11
125.284496
 21
105.563477
 31
0.0
  0
LINE
  5
99E4
330
9798
100
AcDbEntity
  8
1
  6
Continuous
100
AcDbLine
 10
126.1844959999999
 20
111.863477
 30
0.0
 11
126.1844959999999
 21
105.563477
 31
0.0
  0
LINE
  5
99E5
330
9798
100
AcDbEntity
  8
1
  6
Continuous
100
AcDbLine
 10
126.9844959999998
 20
111.863477
 30
0.0
 11
126.9844959999998
 21
105.563477
 31
0.0
  0
ENDSEC
  0
SECTION
  2
OBJECTS
  0
DICTIONARY
  5
9786
330
0
100
AcDbDictionary
281
     1
  3
ACAD_CIP_PREVIOUS_PRODUCT_INFO
350
9A49
  3
ACAD_COLOR
350
9A2B
  3
ACAD_DETAILVIEWSTYLE
350
9A44
  3
ACAD_GROUP
350
9787
  3
ACAD_LAYOUT
350
9793
  3
ACAD_MATERIAL
350
99F9
  3
ACAD_MLEADERSTYLE
350
9A40
  3
ACAD_MLINESTYLE
350
9790
  3
ACAD_PLOTSETTINGS
350
9792
  3
ACAD_PLOTSTYLENAME
350
99F7
  3
ACAD_SCALELIST
350
9A2E
  3
ACAD_SECTIONVIEWSTYLE
350
9A42
  3
ACAD_TABLESTYLE
350
9A2C
  3
ACAD_VISUALSTYLE
350
9A12
  3
ACDB_RECOMPOSE_DATA
350
9A67
  3
AcDbVariableDictionary
350
9A5A
  3
DWGPROPS
350
9A68
  0
DICTIONARY
  5
9A4A
330
978A
100
AcDbDictionary
280
     1
281
     1
  3
ADSK_XREC_LAYER_RECONCILED
360
9A4B
  0
DICTIONARY
  5
9A4C
330
97A0
100
AcDbDictionary
280
     1
281
     1
  3
ADSK_XREC_LAYER_RECONCILED
360
9A4D
  0
DICTIONARY
  5
9A4E
330
97A1
100
AcDbDictionary
280
     1
281
     1
  3
ADSK_XREC_LAYER_RECONCILED
360
9A4F
  0
DICTIONARY
  5
9A50
330
97A2
100
AcDbDictionary
280
     1
281
     1
  3
ADSK_XREC_LAYER_RECONCILED
360
9A51
  0
DICTIONARY
  5
9A52
330
97A3
100
AcDbDictionary
280
     1
281
     1
  3
ADSK_XREC_LAYER_RECONCILED
360
9A53
  0
DICTIONARY
  5
9A54
330
97A4
100
AcDbDictionary
280
     1
281
     1
  3
ADSK_XREC_LAYER_RECONCILED
360
9A55
  0
DICTIONARY
  5
9A56
330
97A5
100
AcDbDictionary
280
     1
281
     1
  3
ADSK_XREC_LAYER_RECONCILED
360
9A57
  0
DICTIONARY
  5
9A58
330
97A6
100
AcDbDictionary
280
     1
281
     1
  3
ADSK_XREC_LAYER_RECONCILED
360
9A59
  0
DICTIONARY
  5
99F2
330
9798
100
AcDbDictionary
281
     1
  3
ACAD_LAYOUTSELFREF
350
99F3
  0
DICTIONARY
  5
99F0
330
9794
100
AcDbDictionary
281
     1
  3
ACAD_LAYOUTSELFREF
350
99F1
  0
XRECORD
  5
9A49
102
{ACAD_REACTORS
330
9786
102
}
330
9786
100
AcDbXrecord
280
     1
300
ACDLT
300
2014
300
ACDLT_F_S
  0
DICTIONARY
  5
9A2B
102
{ACAD_REACTORS
330
9786
102
}
330
9786
100
AcDbDictionary
281
     1
  0
DICTIONARY
  5
9A44
102
{ACAD_REACTORS
330
9786
102
}
330
9786
100
AcDbDictionary
281
     1
  3
Imperial24
350
9A45
  0
DICTIONARY
  5
9787
102
{ACAD_REACTORS
330
9786
102
}
330
9786
100
AcDbDictionary
281
     1
  0
DICTIONARY
  5
9793
102
{ACAD_REACTORS
330
9786
102
}
330
9786
100
AcDbDictionary
281
     1
  3
Model
350
9A46
  3
レイアウト1
350
9A47
  0
DICTIONARY
  5
99F9
102
{ACAD_REACTORS
330
9786
102
}
330
9786
100
AcDbDictionary
281
     1
  3
ByBlock
350
9A02
  3
ByLayer
350
99FA
  3
Global
350
9A0A
  0
DICTIONARY
  5
9A40
102
{ACAD_REACTORS
330
9786
102
}
330
9786
100
AcDbDictionary
281
     1
  3
Standard
350
9A41
  0
DICTIONARY
  5
9790
102
{ACAD_REACTORS
330
9786
102
}
330
9786
100
AcDbDictionary
281
     1
  3
STANDARD
350
9791
  0
DICTIONARY
  5
9792
102
{ACAD_REACTORS
330
9786
102
}
330
9786
100
AcDbDictionary
281
     1
  0
ACDBDICTIONARYWDFLT
  5
99F7
102
{ACAD_REACTORS
330
9786
102
}
330
9786
100
AcDbDictionary
281
     1
  3
Normal
350
99F8
100
AcDbDictionaryWithDefault
340
99F8
  0
DICTIONARY
  5
9A2E
102
{ACAD_REACTORS
330
9786
102
}
330
9786
100
AcDbDictionary
281
     1
  3
A0
350
9A2F
  3
A1
350
9A30
  3
A2
350
9A31
  3
A3
350
9A32
  3
A4
350
9A33
  3
A5
350
9A34
  3
A6
350
9A35
  3
A7
350
9A36
  3
A8
350
9A37
  3
A9
350
9A38
  3
B0
350
9A39
  3
B1
350
9A3A
  3
B2
350
9A3B
  3
B3
350
9A3C
  3
B4
350
9A3D
  3
B5
350
9A3E
  3
B6
350
9A3F
  0
DICTIONARY
  5
9A42
102
{ACAD_REACTORS
330
9786
102
}
330
9786
100
AcDbDictionary
281
     1
  3
Imperial24
350
9A43
  0
DICTIONARY
  5
9A2C
102
{ACAD_REACTORS
330
9786
102
}
330
9786
100
AcDbDictionary
281
     1
  3
Standard
350
9A2D
  0
DICTIONARY
  5
9A12
102
{ACAD_REACTORS
330
9786
102
}
330
9786
100
AcDbDictionary
281
     1
  3
2dWireframe
350
9A18
  3
Basic
350
9A17
  3
Brighten
350
9A1E
  3
ColorChange
350
9A22
  3
Conceptual
350
9A1B
  3
Dim
350
9A1D
  3
EdgeColorOff
350
9A2A
  3
Facepattern
350
9A21
  3
Flat
350
9A13
  3
FlatWithEdges
350
9A14
  3
Gouraud
350
9A15
  3
GouraudWithEdges
350
9A16
  3
Hidden
350
9A1A
  3
JitterOff
350
9A28
  3
Linepattern
350
9A20
  3
OverhangOff
350
9A29
  3
Realistic
350
9A1C
  3
Shaded
350
9A27
  3
Shaded with edges
350
9A26
  3
Shades of Gray
350
9A23
  3
Sketchy
350
9A24
  3
Thicken
350
9A1F
  3
Wireframe
350
9A19
  3
X-Ray
350
9A25
  0
XRECORD
  5
9A67
102
{ACAD_REACTORS
330
9786
102
}
330
9786
100
AcDbXrecord
280
     1
 90
        1
330
9A2D
  0
DICTIONARY
  5
9A5A
102
{ACAD_REACTORS
330
9786
102
}
330
9786
100
AcDbDictionary
281
     1
  3
CANNOSCALE
350
9A5F
  3
CMLEADERSTYLE
350
9A5C
  3
CTABLESTYLE
350
9A5B
  3
CVIEWDETAILSTYLE
350
9A5D
  3
CVIEWSECTIONSTYLE
350
9A5E
  3
DIMASSOC
350
9A62
  3
INDEXCTL
350
9A61
  3
SORTENTS
350
9A60
  3
XCLIPFRAME
350
9A63
  0
XRECORD
  5
9A68
102
{ACAD_REACTORS
330
9786
102
}
330
9786
100
AcDbXrecord
280
     1
  1
DWGPROPS COOKIE
  2

  3

  4

  6

  7

  8
Yoshitsune
  9

300
=
301
=
302
=
303
=
304
=
305
=
306
=
307
=
308
=
309
=
 40
0.000014837962963
 41
2450932.562180208
 42
2457192.600731713
  1

 90
        0
  0
XRECORD
  5
9A4B
102
{ACAD_REACTORS
330
9A4A
102
}
330
9A4A
100
AcDbXrecord
280
     1
290
     1
  0
XRECORD
  5
9A4D
102
{ACAD_REACTORS
330
9A4C
102
}
330
9A4C
100
AcDbXrecord
280
     1
290
     1
  0
XRECORD
  5
9A4F
102
{ACAD_REACTORS
330
9A4E
102
}
330
9A4E
100
AcDbXrecord
280
     1
290
     1
  0
XRECORD
  5
9A51
102
{ACAD_REACTORS
330
9A50
102
}
330
9A50
100
AcDbXrecord
280
     1
290
     1
  0
XRECORD
  5
9A53
102
{ACAD_REACTORS
330
9A52
102
}
330
9A52
100
AcDbXrecord
280
     1
290
     1
  0
XRECORD
  5
9A55
102
{ACAD_REACTORS
330
9A54
102
}
330
9A54
100
AcDbXrecord
280
     1
290
     1
  0
XRECORD
  5
9A57
102
{ACAD_REACTORS
330
9A56
102
}
330
9A56
100
AcDbXrecord
280
     1
290
     1
  0
XRECORD
  5
9A59
102
{ACAD_REACTORS
330
9A58
102
}
330
9A58
100
AcDbXrecord
280
     1
290
     1
  0
XRECORD
  5
99F3
102
{ACAD_REACTORS
330
99F2
102
}
330
99F2
100
AcDbXrecord
280
     1
340
9798
  0
XRECORD
  5
99F1
102
{ACAD_REACTORS
330
99F0
102
}
330
99F0
100
AcDbXrecord
280
     1
340
9794
  0
ACDBDETAILVIEWSTYLE
  5
9A45
102
{ACAD_XDICTIONARY
360
9AA0
102
}
102
{ACAD_REACTORS
330
9A44
102
}
330
9A44
100
AcDbModelDocViewStyle
 70
     0
  3
Imperial24
290
     0
100
AcDbDetailViewStyle
 70
     0
 71
     0
 90
        3
 71
     1
340
978B
 40
0.24
340
0
 40
0.24
300

 40
0.36
280
     3
 71
     2
340
978F
 90
       25
 71
     3
340
978B
 40
0.24
 90
        1
 40
0.75
 90
        1
300
%<\AcVar ViewType \f "%tc1">% %<\AcVar ViewDetailId>%\PSCALE %<\AcVar ViewScale \f "%sn">%
 71
     4
340
978F
 90
       25
340
978F
 90
       25
280
     0
  0
LAYOUT
  5
9A46
102
{ACAD_XDICTIONARY
360
9AA2
102
}
102
{ACAD_REACTORS
330
9793
102
}
330
9793
100
AcDbPlotSettings
  1

  2
Canon LBP9100C
  4

  6

 40
0.0
 41
0.0
 42
0.0
 43
0.0
 44
0.0
 45
0.0
 46
0.0
 47
0.0
 48
0.0
 49
0.0
140
0.0
141
0.0
142
1.0
143
1.0
 70
  1712
 72
     0
 73
     0
 74
     0
  7

 75
     0
147
1.0
148
0.0
149
0.0
100
AcDbLayout
  1
Model
 70
     1
 71
     0
 10
0.0
 20
0.0
 11
12.0
 21
9.0
 12
0.0
 22
0.0
 32
0.0
 14
0.0
 24
0.0
 34
0.0
 15
0.0
 25
0.0
 35
0.0
146
0.0
 13
0.0
 23
0.0
 33
0.0
 16
1.0
 26
0.0
 36
0.0
 17
0.0
 27
1.0
 37
0.0
 76
     0
330
9798
331
99EF
  0
LAYOUT
  5
9A47
102
{ACAD_XDICTIONARY
360
9AA4
102
}
102
{ACAD_REACTORS
330
9793
102
}
330
9793
100
AcDbPlotSettings
  1

  2
Canon LBP9100C
  4

  6

 40
0.0
 41
0.0
 42
0.0
 43
0.0
 44
0.0
 45
0.0
 46
0.0
 47
0.0
 48
0.0
 49
0.0
140
0.0
141
0.0
142
1.0
143
1.0
 70
   688
 72
     0
 73
     0
 74
     5
  7

 75
    16
147
1.0
148
0.0
149
0.0
100
AcDbLayout
  1
レイアウト1
 70
     0
 71
     1
 10
0.0
 20
0.0
 11
420.0
 21
297.0
 12
0.0
 22
0.0
 32
0.0
 14
1.000000000000000E+20
 24
1.000000000000000E+20
 34
1.000000000000000E+20
 15
-1.000000000000000E+20
 25
-1.000000000000000E+20
 35
-1.000000000000000E+20
146
0.0
 13
0.0
 23
0.0
 33
0.0
 16
1.0
 26
0.0
 36
0.0
 17
0.0
 27
1.0
 37
0.0
 76
     0
330
9794
  0
MATERIAL
  5
9A02
102
{ACAD_XDICTIONARY
360
9A03
102
}
102
{ACAD_REACTORS
330
99F9
102
}
330
99F9
100
AcDbMaterial
  1
ByBlock
 72
     0
 43
0.0208333333333333
 43
0.0
 43
0.0
 43
0.0
 43
0.0
 43
0.0208333333333333
 43
0.0
 43
0.0
 43
0.0
 43
0.0
 43
1.0
 43
0.0
 43
0.0
 43
0.0
 43
0.0
 43
1.0
 77
     0
 47
0.0208333333333333
 47
0.0
 47
0.0
 47
0.0
 47
0.0
 47
0.0208333333333333
 47
0.0
 47
0.0
 47
0.0
 47
0.0
 47
1.0
 47
0.0
 47
0.0
 47
0.0
 47
0.0
 47
1.0
171
     0
 49
0.0208333333333333
 49
0.0
 49
0.0
 49
0.0
 49
0.0
 49
0.0208333333333333
 49
0.0
 49
0.0
 49
0.0
 49
0.0
 49
1.0
 49
0.0
 49
0.0
 49
0.0
 49
0.0
 49
1.0
175
     0
142
0.0208333333333333
142
0.0
142
0.0
142
0.0
142
0.0
142
0.0208333333333333
142
0.0
142
0.0
142
0.0
142
0.0
142
1.0
142
0.0
142
0.0
142
0.0
142
0.0
142
1.0
179
     0
144
0.0208333333333333
144
0.0
144
0.0
144
0.0
144
0.0
144
0.0208333333333333
144
0.0
144
0.0
144
0.0
144
0.0
144
1.0
144
0.0
144
0.0
144
0.0
144
0.0
144
1.0
147
0.0208333333333333
147
0.0
147
0.0
147
0.0
147
0.0
147
0.0208333333333333
147
0.0
147
0.0
147
0.0
147
0.0
147
1.0
147
0.0
147
0.0
147
0.0
147
0.0
147
1.0
  0
MATERIAL
  5
99FA
102
{ACAD_XDICTIONARY
360
99FB
102
}
102
{ACAD_REACTORS
330
99F9
102
}
330
99F9
100
AcDbMaterial
  1
ByLayer
 72
     0
 43
0.0208333333333333
 43
0.0
 43
0.0
 43
0.0
 43
0.0
 43
0.0208333333333333
 43
0.0
 43
0.0
 43
0.0
 43
0.0
 43
1.0
 43
0.0
 43
0.0
 43
0.0
 43
0.0
 43
1.0
 77
     0
 47
0.0208333333333333
 47
0.0
 47
0.0
 47
0.0
 47
0.0
 47
0.0208333333333333
 47
0.0
 47
0.0
 47
0.0
 47
0.0
 47
1.0
 47
0.0
 47
0.0
 47
0.0
 47
0.0
 47
1.0
171
     0
 49
0.0208333333333333
 49
0.0
 49
0.0
 49
0.0
 49
0.0
 49
0.0208333333333333
 49
0.0
 49
0.0
 49
0.0
 49
0.0
 49
1.0
 49
0.0
 49
0.0
 49
0.0
 49
0.0
 49
1.0
175
     0
142
0.0208333333333333
142
0.0
142
0.0
142
0.0
142
0.0
142
0.0208333333333333
142
0.0
142
0.0
142
0.0
142
0.0
142
1.0
142
0.0
142
0.0
142
0.0
142
0.0
142
1.0
179
     0
144
0.0208333333333333
144
0.0
144
0.0
144
0.0
144
0.0
144
0.0208333333333333
144
0.0
144
0.0
144
0.0
144
0.0
144
1.0
144
0.0
144
0.0
144
0.0
144
0.0
144
1.0
147
0.0208333333333333
147
0.0
147
0.0
147
0.0
147
0.0
147
0.0208333333333333
147
0.0
147
0.0
147
0.0
147
0.0
147
1.0
147
0.0
147
0.0
147
0.0
147
0.0
147
1.0
  0
MATERIAL
  5
9A0A
102
{ACAD_XDICTIONARY
360
9A0B
102
}
102
{ACAD_REACTORS
330
99F9
102
}
330
99F9
100
AcDbMaterial
  1
Global
 72
     0
 43
0.0208333333333333
 43
0.0
 43
0.0
 43
0.0
 43
0.0
 43
0.0208333333333333
 43
0.0
 43
0.0
 43
0.0
 43
0.0
 43
1.0
 43
0.0
 43
0.0
 43
0.0
 43
0.0
 43
1.0
 77
     0
 47
0.0208333333333333
 47
0.0
 47
0.0
 47
0.0
 47
0.0
 47
0.0208333333333333
 47
0.0
 47
0.0
 47
0.0
 47
0.0
 47
1.0
 47
0.0
 47
0.0
 47
0.0
 47
0.0
 47
1.0
171
     0
 49
0.0208333333333333
 49
0.0
 49
0.0
 49
0.0
 49
0.0
 49
0.0208333333333333
 49
0.0
 49
0.0
 49
0.0
 49
0.0
 49
1.0
 49
0.0
 49
0.0
 49
0.0
 49
0.0
 49
1.0
175
     0
142
0.0208333333333333
142
0.0
142
0.0
142
0.0
142
0.0
142
0.0208333333333333
142
0.0
142
0.0
142
0.0
142
0.0
142
1.0
142
0.0
142
0.0
142
0.0
142
0.0
142
1.0
179
     0
144
0.0208333333333333
144
0.0
144
0.0
144
0.0
144
0.0
144
0.0208333333333333
144
0.0
144
0.0
144
0.0
144
0.0
144
1.0
144
0.0
144
0.0
144
0.0
144
0.0
144
1.0
147
0.0208333333333333
147
0.0
147
0.0
147
0.0
147
0.0
147
0.0208333333333333
147
0.0
147
0.0
147
0.0
147
0.0
147
1.0
147
0.0
147
0.0
147
0.0
147
0.0
147
1.0
  0
MLEADERSTYLE
  5
9A41
102
{ACAD_REACTORS
330
9A40
102
}
330
9A40
100
AcDbMLeaderStyle
170
     2
171
     1
172
     0
 90
        2
 40
0.0
 41
0.0
173
     1
 91
-1056964608
340
978D
 92
       -2
290
     1
 42
0.09
291
     1
 43
0.36
  3
Standard
 44
0.18
300

342
978B
174
     1
178
     6
175
     1
176
     0
 93
-1056964608
 45
0.18
292
     0
297
     0
 46
0.18
 94
-1056964608
 47
1.0
 49
1.0
140
1.0
293
     1
141
0.0
294
     1
177
     0
142
1.0
295
     0
296
     0
143
0.125
1001
ACAD_MLEADERVER
1070
     2
  0
MLINESTYLE
  5
9791
102
{ACAD_REACTORS
330
9790
102
}
330
9790
100
AcDbMlineStyle
  2
STANDARD
 70
     0
  3

 62
   256
 51
90.0
 52
90.0
 71
     2
 49
0.5
 62
   256
  6
BYLAYER
 49
-0.5
 62
   256
  6
BYLAYER
  0
ACDBPLACEHOLDER
  5
99F8
102
{ACAD_REACTORS
330
99F7
102
}
330
99F7
  0
SCALE
  5
9A2F
102
{ACAD_REACTORS
330
9A2E
102
}
330
9A2E
100
AcDbScale
 70
     0
300
1:1
140
1.0
141
1.0
290
     1
  0
SCALE
  5
9A30
102
{ACAD_REACTORS
330
9A2E
102
}
330
9A2E
100
AcDbScale
 70
     0
300
1/128" = 1'-0"
140
0.0078125
141
12.0
290
     0
  0
SCALE
  5
9A31
102
{ACAD_REACTORS
330
9A2E
102
}
330
9A2E
100
AcDbScale
 70
     0
300
1/64" = 1'-0"
140
0.015625
141
12.0
290
     0
  0
SCALE
  5
9A32
102
{ACAD_REACTORS
330
9A2E
102
}
330
9A2E
100
AcDbScale
 70
     0
300
1/32" = 1'-0"
140
0.03125
141
12.0
290
     0
  0
SCALE
  5
9A33
102
{ACAD_REACTORS
330
9A2E
102
}
330
9A2E
100
AcDbScale
 70
     0
300
1/16" = 1'-0"
140
0.0625
141
12.0
290
     0
  0
SCALE
  5
9A34
102
{ACAD_REACTORS
330
9A2E
102
}
330
9A2E
100
AcDbScale
 70
     0
300
3/32" = 1'-0"
140
0.09375
141
12.0
290
     0
  0
SCALE
  5
9A35
102
{ACAD_REACTORS
330
9A2E
102
}
330
9A2E
100
AcDbScale
 70
     0
300
1/8" = 1'-0"
140
0.125
141
12.0
290
     0
  0
SCALE
  5
9A36
102
{ACAD_REACTORS
330
9A2E
102
}
330
9A2E
100
AcDbScale
 70
     0
300
3/16" = 1'-0"
140
0.1875
141
12.0
290
     0
  0
SCALE
  5
9A37
102
{ACAD_REACTORS
330
9A2E
102
}
330
9A2E
100
AcDbScale
 70
     0
300
1/4" = 1'-0"
140
0.25
141
12.0
290
     0
  0
SCALE
  5
9A38
102
{ACAD_REACTORS
330
9A2E
102
}
330
9A2E
100
AcDbScale
 70
     0
300
3/8" = 1'-0"
140
0.375
141
12.0
290
     0
  0
SCALE
  5
9A39
102
{ACAD_REACTORS
330
9A2E
102
}
330
9A2E
100
AcDbScale
 70
     0
300
1/2" = 1'-0"
140
0.5
141
12.0
290
     0
  0
SCALE
  5
9A3A
102
{ACAD_REACTORS
330
9A2E
102
}
330
9A2E
100
AcDbScale
 70
     0
300
3/4" = 1'-0"
140
0.75
141
12.0
290
     0
  0
SCALE
  5
9A3B
102
{ACAD_REACTORS
330
9A2E
102
}
330
9A2E
100
AcDbScale
 70
     0
300
1" = 1'-0"
140
1.0
141
12.0
290
     0
  0
SCALE
  5
9A3C
102
{ACAD_REACTORS
330
9A2E
102
}
330
9A2E
100
AcDbScale
 70
     0
300
1-1/2" = 1'-0"
140
1.5
141
12.0
290
     0
  0
SCALE
  5
9A3D
102
{ACAD_REACTORS
330
9A2E
102
}
330
9A2E
100
AcDbScale
 70
     0
300
3" = 1'-0"
140
3.0
141
12.0
290
     0
  0
SCALE
  5
9A3E
102
{ACAD_REACTORS
330
9A2E
102
}
330
9A2E
100
AcDbScale
 70
     0
300
6" = 1'-0"
140
6.0
141
12.0
290
     0
  0
SCALE
  5
9A3F
102
{ACAD_REACTORS
330
9A2E
102
}
330
9A2E
100
AcDbScale
 70
     0
300
1'-0" = 1'-0"
140
12.0
141
12.0
290
     0
  0
ACDBSECTIONVIEWSTYLE
  5
9A43
102
{ACAD_XDICTIONARY
360
9A9E
102
}
102
{ACAD_REACTORS
330
9A42
102
}
330
9A42
100
AcDbModelDocViewStyle
 70
     0
  3
Imperial24
290
     0
100
AcDbSectionViewStyle
 70
     0
 71
     0
 90
       78
 71
     1
340
978B
 40
0.24
340
0
340
0
 40
0.24
300
I, O, Q, S, X, Z
 40
0.48
 90
        3
 40
0.18
 90
        1
 71
     2
340
978F
 90
       25
340
978F
 90
       50
 40
0.24
 40
0.0
 40
0.24
 71
     3
340
978B
 40
0.24
 90
        1
 40
0.75
 90
        1
300
%<\AcVar ViewType \f "%tc1">% %<\AcVar ViewSectionStartId>%-%<\AcVar ViewSectionEndId>%\PSCALE %<\AcVar ViewScale \f "%sn">%
 71
     4
300
ANSI31
 40
1.0
 90
        0
290
     0
290
     0
 90
        6
 40
0.0
 40
1.570796326794896
 40
0.2617993877991494
 40
1.308996938995747
 40
-0.2617993877991494
 40
1.832595714594046
  0
TABLESTYLE
  5
9A2D
102
{ACAD_XDICTIONARY
360
9A65
102
}
102
{ACAD_REACTORS
330
9A2C
102
}
330
9A2C
100
AcDbTableStyle
  3
Standard
 70
     0
 71
     0
 40
0.06
 41
0.06
280
     0
281
     0
  7
STANDARD
140
0.18
170
     2
 62
     0
 63
     7
283
     0
274
    -2
284
     1
 64
     0
275
    -2
285
     1
 65
     0
276
    -2
286
     1
 66
     0
277
    -2
287
     1
 67
     0
278
    -2
288
     1
 68
     0
279
    -2
289
     1
 69
     0
  7
STANDARD
140
0.25
170
     5
 62
     0
 63
     7
283
     0
274
    -2
284
     1
 64
     0
275
    -2
285
     1
 65
     0
276
    -2
286
     1
 66
     0
277
    -2
287
     1
 67
     0
278
    -2
288
     1
 68
     0
279
    -2
289
     1
 69
     0
  7
STANDARD
140
0.18
170
     5
 62
     0
 63
     7
283
     0
274
    -2
284
     1
 64
     0
275
    -2
285
     1
 65
     0
276
    -2
286
     1
 66
     0
277
    -2
287
     1
 67
     0
278
    -2
288
     1
 68
     0
279
    -2
289
     1
 69
     0
  0
VISUALSTYLE
  5
9A18
102
{ACAD_XDICTIONARY
360
9A76
102
}
102
{ACAD_REACTORS
330
9A12
102
}
330
9A12
100
AcDbVisualStyle
  2
2dWireframe
 70
     4
 71
     0
 72
     2
 73
     0
 90
        0
 40
-0.6
 41
-30.0
 62
     5
 63
     7
 74
     1
 91
        4
 64
     7
 65
   257
 75
     1
175
     1
 42
1.0
 92
        0
 66
   257
 43
1.0
 76
     1
 77
     6
 78
     2
 67
     7
 79
     5
170
     0
171
     0
290
     0
174
     0
 93
        1
 44
0.0
173
     0
291
     0
 45
0.0
1001
ACAD
1000
AcDbSavedByObjectVersion
1070
     0
  0
VISUALSTYLE
  5
9A17
102
{ACAD_XDICTIONARY
360
9A74
102
}
102
{ACAD_REACTORS
330
9A12
102
}
330
9A12
100
AcDbVisualStyle
  2
Basic
 70
     7
 71
     1
 72
     0
 73
     1
 90
        0
 40
-0.6
 41
-30.0
 62
     5
 63
     7
 74
     0
 91
        4
 64
     7
 65
   257
 75
     1
175
     1
 42
1.0
 92
        8
 66
     7
 43
1.0
 76
     1
 77
     6
 78
     2
 67
     7
 79
     5
170
     0
171
     0
290
     0
174
     0
 93
        1
 44
0.0
173
     0
291
     1
 45
0.0
1001
ACAD
1000
AcDbSavedByObjectVersion
1070
     0
  0
VISUALSTYLE
  5
9A1E
102
{ACAD_XDICTIONARY
360
9A82
102
}
102
{ACAD_REACTORS
330
9A12
102
}
330
9A12
100
AcDbVisualStyle
  2
Brighten
 70
    12
 71
     2
 72
     2
 73
     0
 90
        0
 40
-0.6
 41
-30.0
 62
     5
 63
     7
 74
     1
 91
        4
 64
     7
 65
   257
 75
     1
175
     1
 42
1.0
 92
        8
 66
     7
 43
1.0
 76
     1
 77
     6
 78
     2
 67
     7
 79
     5
170
     0
171
     0
290
     0
174
     0
 93
        1
 44
50.0
173
     0
291
     1
 45
0.0
1001
ACAD
1000
AcDbSavedByObjectVersion
1070
     0
  0
VISUALSTYLE
  5
9A22
102
{ACAD_XDICTIONARY
360
9A8A
102
}
102
{ACAD_REACTORS
330
9A12
102
}
330
9A12
100
AcDbVisualStyle
  2
ColorChange
 70
    16
 71
     2
 72
     2
 73
     3
 90
        0
 40
-0.6
 41
-30.0
 62
     5
 63
     8
 74
     1
 91
        4
 64
     7
 65
   257
 75
     1
175
     1
 42
1.0
 92
        8
 66
     8
 43
1.0
 76
     1
 77
     6
 78
     2
 67
     7
 79
     5
170
     0
171
     0
290
     0
174
     0
 93
        1
 44
0.0
173
     0
291
     1
 45
0.0
1001
ACAD
1000
AcDbSavedByObjectVersion
1070
     0
  0
VISUALSTYLE
  5
9A1B
102
{ACAD_XDICTIONARY
360
9A7C
102
}
102
{ACAD_REACTORS
330
9A12
102
}
330
9A12
100
AcDbVisualStyle
  2
Conceptual
 70
     9
 71
     3
 72
     2
 73
     0
 90
        0
 40
-0.6
 41
-30.0
 62
     5
 63
     7
 74
     2
 91
        2
 64
     7
 65
   257
 75
     1
175
     1
 42
179.0
 92
        8
 66
     7
 43
1.0
 76
     1
 77
     6
 78
     2
 67
     7
 79
     3
170
     0
171
     0
290
     0
174
     0
 93
        1
 44
0.0
173
     0
291
     0
 45
0.0
1001
ACAD
1000
AcDbSavedByObjectVersion
1070
     0
  0
VISUALSTYLE
  5
9A1D
102
{ACAD_XDICTIONARY
360
9A80
102
}
102
{ACAD_REACTORS
330
9A12
102
}
330
9A12
100
AcDbVisualStyle
  2
Dim
 70
    11
 71
     2
 72
     2
 73
     0
 90
        0
 40
-0.6
 41
-30.0
 62
     5
 63
     7
 74
     1
 91
        4
 64
     7
 65
   257
 75
     1
175
     1
 42
1.0
 92
        8
 66
     7
 43
1.0
 76
     1
 77
     6
 78
     2
 67
     7
 79
     5
170
     0
171
     0
290
     0
174
     0
 93
        1
 44
-50.0
173
     0
291
     1
 45
0.0
1001
ACAD
1000
AcDbSavedByObjectVersion
1070
     0
  0
VISUALSTYLE
  5
9A2A
102
{ACAD_XDICTIONARY
360
9A9A
102
}
102
{ACAD_REACTORS
330
9A12
102
}
330
9A12
100
AcDbVisualStyle
  2
EdgeColorOff
 70
    22
 71
     2
 72
     2
 73
     0
 90
        0
 40
-0.6
 41
-30.0
 62
     5
 63
     7
 74
     1
 91
        4
 64
     7
 65
   257
 75
     1
175
     1
 42
1.0
 92
        8
 66
     7
 43
1.0
 76
     1
 77
     6
 78
     2
 67
     7
 79
     5
170
     0
171
     0
290
     0
174
     0
 93
        1
 44
0.0
173
     0
291
     1
 45
0.0
1001
ACAD
1000
AcDbSavedByObjectVersion
1070
     0
  0
VISUALSTYLE
  5
9A21
102
{ACAD_XDICTIONARY
360
9A88
102
}
102
{ACAD_REACTORS
330
9A12
102
}
330
9A12
100
AcDbVisualStyle
  2
Facepattern
 70
    15
 71
     2
 72
     2
 73
     0
 90
        0
 40
-0.6
 41
-30.0
 62
     5
 63
     7
 74
     1
 91
        4
 64
     7
 65
   257
 75
     1
175
     1
 42
1.0
 92
        8
 66
     7
 43
1.0
 76
     1
 77
     6
 78
     2
 67
     7
 79
     5
170
     0
171
     0
290
     0
174
     0
 93
        1
 44
0.0
173
     0
291
     1
 45
0.0
1001
ACAD
1000
AcDbSavedByObjectVersion
1070
     0
  0
VISUALSTYLE
  5
9A13
102
{ACAD_XDICTIONARY
360
9A6C
102
}
102
{ACAD_REACTORS
330
9A12
102
}
330
9A12
100
AcDbVisualStyle
  2
Flat
 70
     0
 71
     2
 72
     1
 73
     1
 90
        2
 40
-0.6
 41
30.0
 62
     5
 63
     7
 74
     0
 91
        0
 64
     7
 65
   257
 75
     1
175
     1
 42
1.0
 92
        8
 66
     7
 43
1.0
 76
     1
 77
     6
 78
     2
 67
     7
 79
     5
170
     0
171
     0
290
     0
174
     0
 93
       13
 44
0.0
173
     0
291
     1
 45
0.0
1001
ACAD
1000
AcDbSavedByObjectVersion
1070
     0
  0
VISUALSTYLE
  5
9A14
102
{ACAD_XDICTIONARY
360
9A6E
102
}
102
{ACAD_REACTORS
330
9A12
102
}
330
9A12
100
AcDbVisualStyle
  2
FlatWithEdges
 70
     1
 71
     2
 72
     1
 73
     1
 90
        2
 40
-0.6
 41
30.0
 62
     5
 63
     7
 74
     1
 91
        0
 64
     7
 65
   257
 75
     1
175
     1
 42
1.0
 92
        0
 66
   257
 43
1.0
 76
     1
 77
     6
 78
     2
 67
     7
 79
     5
170
     0
171
     0
290
     0
174
     0
 93
       13
 44
0.0
173
     0
291
     1
 45
0.0
1001
ACAD
1000
AcDbSavedByObjectVersion
1070
     0
  0
VISUALSTYLE
  5
9A15
102
{ACAD_XDICTIONARY
360
9A70
102
}
102
{ACAD_REACTORS
330
9A12
102
}
330
9A12
100
AcDbVisualStyle
  2
Gouraud
 70
     2
 71
     2
 72
     2
 73
     1
 90
        2
 40
-0.6
 41
30.0
 62
     5
 63
     7
 74
     0
 91
        0
 64
     7
 65
   257
 75
     1
175
     1
 42
1.0
 92
        0
 66
     7
 43
1.0
 76
     1
 77
     6
 78
     2
 67
     7
 79
     5
170
     0
171
     0
290
     0
174
     0
 93
       13
 44
0.0
173
     0
291
     1
 45
0.0
1001
ACAD
1000
AcDbSavedByObjectVersion
1070
     0
  0
VISUALSTYLE
  5
9A16
102
{ACAD_XDICTIONARY
360
9A72
102
}
102
{ACAD_REACTORS
330
9A12
102
}
330
9A12
100
AcDbVisualStyle
  2
GouraudWithEdges
 70
     3
 71
     2
 72
     2
 73
     1
 90
        2
 40
-0.6
 41
30.0
 62
     5
 63
     7
 74
     1
 91
        0
 64
     7
 65
   257
 75
     1
175
     1
 42
1.0
 92
        0
 66
   257
 43
1.0
 76
     1
 77
     6
 78
     2
 67
     7
 79
     5
170
     0
171
     0
290
     0
174
     0
 93
       13
 44
0.0
173
     0
291
     1
 45
0.0
1001
ACAD
1000
AcDbSavedByObjectVersion
1070
     0
  0
VISUALSTYLE
  5
9A1A
102
{ACAD_XDICTIONARY
360
9A7A
102
}
102
{ACAD_REACTORS
330
9A12
102
}
330
9A12
100
AcDbVisualStyle
  2
Hidden
 70
     6
 71
     1
 72
     2
 73
     2
 90
        0
 40
-0.6
 41
-30.0
 62
     5
 63
     7
 74
     2
 91
        2
 64
     7
 65
   257
 75
     2
175
     1
 42
40.0
 92
        0
 66
   257
 43
1.0
 76
     1
 77
     6
 78
     2
 67
     7
 79
     3
170
     0
171
     0
290
     0
174
     0
 93
        1
 44
0.0
173
     0
291
     0
 45
0.0
1001
ACAD
1000
AcDbSavedByObjectVersion
1070
     0
  0
VISUALSTYLE
  5
9A28
102
{ACAD_XDICTIONARY
360
9A96
102
}
102
{ACAD_REACTORS
330
9A12
102
}
330
9A12
100
AcDbVisualStyle
  2
JitterOff
 70
    20
 71
     2
 72
     2
 73
     0
 90
        0
 40
-0.6
 41
-30.0
 62
     5
 63
     7
 74
     1
 91
        4
 64
     7
 65
   257
 75
     1
175
     1
 42
1.0
 92
       10
 66
     7
 43
1.0
 76
     1
 77
     6
 78
     2
 67
     7
 79
     5
170
     0
171
     0
290
     0
174
     0
 93
        1
 44
0.0
173
     0
291
     1
 45
0.0
1001
ACAD
1000
AcDbSavedByObjectVersion
1070
     0
  0
VISUALSTYLE
  5
9A20
102
{ACAD_XDICTIONARY
360
9A86
102
}
102
{ACAD_REACTORS
330
9A12
102
}
330
9A12
100
AcDbVisualStyle
  2
Linepattern
 70
    14
 71
     2
 72
     2
 73
     0
 90
        0
 40
-0.6
 41
-30.0
 62
     5
 63
     7
 74
     1
 91
        4
 64
     7
 65
   257
 75
     7
175
     7
 42
1.0
 92
        8
 66
     7
 43
1.0
 76
     1
 77
     6
 78
     2
 67
     7
 79
     5
170
     0
171
     0
290
     0
174
     0
 93
        1
 44
0.0
173
     0
291
     1
 45
0.0
1001
ACAD
1000
AcDbSavedByObjectVersion
1070
     0
  0
VISUALSTYLE
  5
9A29
102
{ACAD_XDICTIONARY
360
9A98
102
}
102
{ACAD_REACTORS
330
9A12
102
}
330
9A12
100
AcDbVisualStyle
  2
OverhangOff
 70
    21
 71
     2
 72
     2
 73
     0
 90
        0
 40
-0.6
 41
-30.0
 62
     5
 63
     7
 74
     1
 91
        4
 64
     7
 65
   257
 75
     1
175
     1
 42
1.0
 92
        9
 66
     7
 43
1.0
 76
     1
 77
     6
 78
     2
 67
     7
 79
     5
170
     0
171
     0
290
     0
174
     0
 93
        1
 44
0.0
173
     0
291
     1
 45
0.0
1001
ACAD
1000
AcDbSavedByObjectVersion
1070
     0
  0
VISUALSTYLE
  5
9A1C
102
{ACAD_XDICTIONARY
360
9A7E
102
}
102
{ACAD_REACTORS
330
9A12
102
}
330
9A12
100
AcDbVisualStyle
  2
Realistic
 70
     8
 71
     2
 72
     3
 73
     0
 90
        2
 40
-0.6
 41
30.0
 62
     5
 63
     7
 74
     0
 91
        0
 64
     7
 65
   257
 75
     1
175
     1
 42
1.0
 92
        8
 66
   257
 43
1.0
 76
     1
 77
     6
 78
     2
 67
     7
 79
     3
170
     0
171
     0
290
     0
174
     0
 93
       13
 44
0.0
173
     0
291
     0
 45
0.0
1001
ACAD
1000
AcDbSavedByObjectVersion
1070
     0
  0
VISUALSTYLE
  5
9A27
102
{ACAD_XDICTIONARY
360
9A94
102
}
102
{ACAD_REACTORS
330
9A12
102
}
330
9A12
100
AcDbVisualStyle
  2
Shaded
 70
    27
 71
     2
 72
     2
 73
     1
 90
        2
 40
-0.6
 41
30.0
 62
     5
 63
     7
 74
     0
 91
        4
 64
     7
 65
   257
 75
     1
175
     1
 42
1.0
 92
        8
 66
   257
 43
1.0
 76
     1
 77
     6
 78
     2
 67
     8
 79
     3
170
     0
171
     0
290
     0
174
     0
 93
        5
 44
0.0
173
     0
291
     0
 45
0.0
1001
ACAD
1000
AcDbSavedByObjectVersion
1070
     0
  0
VISUALSTYLE
  5
9A26
102
{ACAD_XDICTIONARY
360
9A92
102
}
102
{ACAD_REACTORS
330
9A12
102
}
330
9A12
100
AcDbVisualStyle
  2
Shaded with edges
 70
    26
 71
     2
 72
     2
 73
     1
 90
        2
 40
-0.6
 41
30.0
 62
     5
 63
     7
 74
     1
 91
       10
 64
     7
 65
   257
 75
     2
175
     1
 42
1.0
 92
        8
 66
   257
 43
1.0
 76
     1
 77
     6
 78
     2
 67
     7
 79
     3
170
     0
171
     0
290
     0
174
     0
 93
        5
 44
0.0
173
     0
291
     0
 45
0.0
1001
ACAD
1000
AcDbSavedByObjectVersion
1070
     0
  0
VISUALSTYLE
  5
9A23
102
{ACAD_XDICTIONARY
360
9A8C
102
}
102
{ACAD_REACTORS
330
9A12
102
}
330
9A12
100
AcDbVisualStyle
  2
Shades of Gray
 70
    23
 71
     2
 72
     2
 73
     3
 90
        0
 40
-0.6
 41
-30.0
 62
     5
 63
     7
 74
     2
 91
        2
 64
     7
 65
     7
 75
     1
175
     1
 42
40.0
 92
        8
 66
     7
 43
1.0
 76
     1
 77
     6
 78
     2
 67
     7
 79
     3
170
     0
171
     0
290
     0
174
     0
 93
        1
 44
0.0
173
     0
291
     0
 45
0.0
1001
ACAD
1000
AcDbSavedByObjectVersion
1070
     0
  0
VISUALSTYLE
  5
9A24
102
{ACAD_XDICTIONARY
360
9A8E
102
}
102
{ACAD_REACTORS
330
9A12
102
}
330
9A12
100
AcDbVisualStyle
  2
Sketchy
 70
    24
 71
     1
 72
     2
 73
     2
 90
        0
 40
-0.6
 41
-30.0
 62
     5
 63
     7
 74
     2
 91
        2
 64
     7
 65
     7
 75
     1
175
     1
 42
40.0
 92
       11
 66
     7
 43
1.0
 76
     1
 77
     6
 78
     2
 67
     7
 79
     6
170
     0
171
     0
290
     0
174
     0
 93
        1
 44
0.0
173
     0
291
     0
 45
0.0
1001
ACAD
1000
AcDbSavedByObjectVersion
1070
     0
  0
VISUALSTYLE
  5
9A1F
102
{ACAD_XDICTIONARY
360
9A84
102
}
102
{ACAD_REACTORS
330
9A12
102
}
330
9A12
100
AcDbVisualStyle
  2
Thicken
 70
    13
 71
     2
 72
     2
 73
     0
 90
        0
 40
-0.6
 41
-30.0
 62
     5
 63
     7
 74
     1
 91
        4
 64
     7
 65
   257
 75
     1
175
     1
 42
1.0
 92
       12
 66
     7
 43
1.0
 76
     1
 77
     6
 78
     2
 67
     7
 79
     5
170
     0
171
     0
290
     0
174
     0
 93
        1
 44
0.0
173
     0
291
     1
 45
0.0
1001
ACAD
1000
AcDbSavedByObjectVersion
1070
     0
  0
VISUALSTYLE
  5
9A19
102
{ACAD_XDICTIONARY
360
9A78
102
}
102
{ACAD_REACTORS
330
9A12
102
}
330
9A12
100
AcDbVisualStyle
  2
Wireframe
 70
     5
 71
     0
 72
     2
 73
     0
 90
        0
 40
-0.6
 41
-30.0
 62
     5
 63
     7
 74
     1
 91
        4
 64
     7
 65
   257
 75
     1
175
     1
 42
1.0
 92
        0
 66
   257
 43
1.0
 76
     1
 77
     6
 78
     2
 67
     7
 79
     3
170
     0
171
     0
290
     0
174
     0
 93
        1
 44
0.0
173
     0
291
     0
 45
0.0
1001
ACAD
1000
AcDbSavedByObjectVersion
1070
     0
  0
VISUALSTYLE
  5
9A25
102
{ACAD_XDICTIONARY
360
9A90
102
}
102
{ACAD_REACTORS
330
9A12
102
}
330
9A12
100
AcDbVisualStyle
  2
X-Ray
 70
    25
 71
     2
 72
     2
 73
     1
 90
        1
 40
0.5
 41
-30.0
 62
     5
 63
     7
 74
     1
 91
        0
 64
     7
 65
   257
 75
     1
175
     1
 42
1.0
 92
        8
 66
     7
 43
1.0
 76
     1
 77
     6
 78
     2
 67
     7
 79
     3
170
     0
171
     0
290
     0
174
     0
 93
       13
 44
0.0
173
     0
291
     0
 45
0.0
1001
ACAD
1000
AcDbSavedByObjectVersion
1070
     0
  0
DICTIONARYVAR
  5
9A5F
102
{ACAD_REACTORS
330
9A5A
102
}
330
9A5A
100
DictionaryVariables
280
     0
  1
1:1
  0
DICTIONARYVAR
  5
9A5C
102
{ACAD_REACTORS
330
9A5A
102
}
330
9A5A
100
DictionaryVariables
280
     0
  1
STANDARD
  0
DICTIONARYVAR
  5
9A5B
102
{ACAD_REACTORS
330
9A5A
102
}
330
9A5A
100
DictionaryVariables
280
     0
  1
STANDARD
  0
DICTIONARYVAR
  5
9A5D
102
{ACAD_REACTORS
330
9A5A
102
}
330
9A5A
100
DictionaryVariables
280
     0
  1
Imperial24
  0
DICTIONARYVAR
  5
9A5E
102
{ACAD_REACTORS
330
9A5A
102
}
330
9A5A
100
DictionaryVariables
280
     0
  1
Imperial24
  0
DICTIONARYVAR
  5
9A62
102
{ACAD_REACTORS
330
9A5A
102
}
330
9A5A
100
DictionaryVariables
280
     0
  1
1
  0
DICTIONARYVAR
  5
9A61
102
{ACAD_REACTORS
330
9A5A
102
}
330
9A5A
100
DictionaryVariables
280
     0
  1
0
  0
DICTIONARYVAR
  5
9A60
102
{ACAD_REACTORS
330
9A5A
102
}
330
9A5A
100
DictionaryVariables
280
     0
  1
127
  0
DICTIONARYVAR
  5
9A63
102
{ACAD_REACTORS
330
9A5A
102
}
330
9A5A
100
DictionaryVariables
280
     0
  1
2
  0
DICTIONARY
  5
9AA0
330
9A45
100
AcDbDictionary
280
     1
281
     1
  3
ACAD_XREC_ROUNDTRIP
360
9AA1
  0
DICTIONARY
  5
9AA2
330
9A46
100
AcDbDictionary
280
     1
281
     1
  3
ACAD_XREC_ROUNDTRIP
360
9AA3
  0
DICTIONARY
  5
9AA4
330
9A47
100
AcDbDictionary
280
     1
281
     1
  3
ACAD_XREC_ROUNDTRIP
360
9AA5
  0
DICTIONARY
  5
9A03
330
9A02
100
AcDbDictionary
280
     1
281
     1
  3
ACAD_XREC_ROUNDTRIP
360
9A6A
  3
BUMPTILE
360
9A05
  3
DIFFUSETILE
360
9A04
  3
OPACITYTILE
360
9A08
  3
REFLECTIONTILE
360
9A07
  3
REFRACTIONTILE
360
9A09
  3
SPECULARTILE
360
9A06
  0
DICTIONARY
  5
99FB
330
99FA
100
AcDbDictionary
280
     1
281
     1
  3
ACAD_XREC_ROUNDTRIP
360
9A69
  3
BUMPTILE
360
99FD
  3
DIFFUSETILE
360
99FC
  3
OPACITYTILE
360
9A00
  3
REFLECTIONTILE
360
99FF
  3
REFRACTIONTILE
360
9A01
  3
SPECULARTILE
360
99FE
  0
DICTIONARY
  5
9A0B
330
9A0A
100
AcDbDictionary
280
     1
281
     1
  3
ACAD_XREC_ROUNDTRIP
360
9A6B
  3
BUMPTILE
360
9A0D
  3
DIFFUSETILE
360
9A0C
  3
OPACITYTILE
360
9A10
  3
REFLECTIONTILE
360
9A0F
  3
REFRACTIONTILE
360
9A11
  3
SPECULARTILE
360
9A0E
  0
DICTIONARY
  5
9A9E
330
9A43
100
AcDbDictionary
280
     1
281
     1
  3
ACAD_XREC_ROUNDTRIP
360
9A9F
  0
DICTIONARY
  5
9A65
330
9A2D
100
AcDbDictionary
280
     1
281
     1
  3
ACAD_ROUNDTRIP_2008_TABLESTYLE_CELLSTYLEMAP
360
9A66
  3
ACAD_XREC_ROUNDTRIP
360
9A9C
  0
DICTIONARY
  5
9A76
330
9A18
100
AcDbDictionary
280
     1
281
     1
  3
ACAD_XREC_ROUNDTRIP
360
9A77
  0
DICTIONARY
  5
9A74
330
9A17
100
AcDbDictionary
280
     1
281
     1
  3
ACAD_XREC_ROUNDTRIP
360
9A75
  0
DICTIONARY
  5
9A82
330
9A1E
100
AcDbDictionary
280
     1
281
     1
  3
ACAD_XREC_ROUNDTRIP
360
9A83
  0
DICTIONARY
  5
9A8A
330
9A22
100
AcDbDictionary
280
     1
281
     1
  3
ACAD_XREC_ROUNDTRIP
360
9A8B
  0
DICTIONARY
  5
9A7C
330
9A1B
100
AcDbDictionary
280
     1
281
     1
  3
ACAD_XREC_ROUNDTRIP
360
9A7D
  0
DICTIONARY
  5
9A80
330
9A1D
100
AcDbDictionary
280
     1
281
     1
  3
ACAD_XREC_ROUNDTRIP
360
9A81
  0
DICTIONARY
  5
9A9A
330
9A2A
100
AcDbDictionary
280
     1
281
     1
  3
ACAD_XREC_ROUNDTRIP
360
9A9B
  0
DICTIONARY
  5
9A88
330
9A21
100
AcDbDictionary
280
     1
281
     1
  3
ACAD_XREC_ROUNDTRIP
360
9A89
  0
DICTIONARY
  5
9A6C
330
9A13
100
AcDbDictionary
280
     1
281
     1
  3
ACAD_XREC_ROUNDTRIP
360
9A6D
  0
DICTIONARY
  5
9A6E
330
9A14
100
AcDbDictionary
280
     1
281
     1
  3
ACAD_XREC_ROUNDTRIP
360
9A6F
  0
DICTIONARY
  5
9A70
330
9A15
100
AcDbDictionary
280
     1
281
     1
  3
ACAD_XREC_ROUNDTRIP
360
9A71
  0
DICTIONARY
  5
9A72
330
9A16
100
AcDbDictionary
280
     1
281
     1
  3
ACAD_XREC_ROUNDTRIP
360
9A73
  0
DICTIONARY
  5
9A7A
330
9A1A
100
AcDbDictionary
280
     1
281
     1
  3
ACAD_XREC_ROUNDTRIP
360
9A7B
  0
DICTIONARY
  5
9A96
330
9A28
100
AcDbDictionary
280
     1
281
     1
  3
ACAD_XREC_ROUNDTRIP
360
9A97
  0
DICTIONARY
  5
9A86
330
9A20
100
AcDbDictionary
280
     1
281
     1
  3
ACAD_XREC_ROUNDTRIP
360
9A87
  0
DICTIONARY
  5
9A98
330
9A29
100
AcDbDictionary
280
     1
281
     1
  3
ACAD_XREC_ROUNDTRIP
360
9A99
  0
DICTIONARY
  5
9A7E
330
9A1C
100
AcDbDictionary
280
     1
281
     1
  3
ACAD_XREC_ROUNDTRIP
360
9A7F
  0
DICTIONARY
  5
9A94
330
9A27
100
AcDbDictionary
280
     1
281
     1
  3
ACAD_XREC_ROUNDTRIP
360
9A95
  0
DICTIONARY
  5
9A92
330
9A26
100
AcDbDictionary
280
     1
281
     1
  3
ACAD_XREC_ROUNDTRIP
360
9A93
  0
DICTIONARY
  5
9A8C
330
9A23
100
AcDbDictionary
280
     1
281
     1
  3
ACAD_XREC_ROUNDTRIP
360
9A8D
  0
DICTIONARY
  5
9A8E
330
9A24
100
AcDbDictionary
280
     1
281
     1
  3
ACAD_XREC_ROUNDTRIP
360
9A8F
  0
DICTIONARY
  5
9A84
330
9A1F
100
AcDbDictionary
280
     1
281
     1
  3
ACAD_XREC_ROUNDTRIP
360
9A85
  0
DICTIONARY
  5
9A78
330
9A19
100
AcDbDictionary
280
     1
281
     1
  3
ACAD_XREC_ROUNDTRIP
360
9A79
  0
DICTIONARY
  5
9A90
330
9A25
100
AcDbDictionary
280
     1
281
     1
  3
ACAD_XREC_ROUNDTRIP
360
9A91
  0
XRECORD
  5
9AA1
102
{ACAD_REACTORS
330
9AA0
102
}
330
9AA0
100
AcDbXrecord
280
     1
102
DISPLAYNAME
  1
Imperial24
102
FLAGS
 90
        0
  0
XRECORD
  5
9AA3
102
{ACAD_REACTORS
330
9AA2
102
}
330
9AA2
100
AcDbXrecord
280
     1
102
SHADEPLOT
 70
     0
102
SHADEPLOTRESLEVEL
 70
     2
102
SHADEPLOTCUSTOMDPI
 70
   300
  0
XRECORD
  5
9AA5
102
{ACAD_REACTORS
330
9AA4
102
}
330
9AA4
100
AcDbXrecord
280
     1
102
SHADEPLOT
 70
     0
102
SHADEPLOTRESLEVEL
 70
     2
102
SHADEPLOTCUSTOMDPI
 70
   300
  0
XRECORD
  5
9A6A
102
{ACAD_REACTORS
330
9A03
102
}
330
9A03
100
AcDbXrecord
280
     1
102
MATERIAL
148
0.0
149
0.0
149
0.0
 93
        0
 94
      127
282
     0
 72
     0
 77
     0
171
     0
175
     0
179
     0
273
     0
  0
XRECORD
  5
9A05
102
{ACAD_REACTORS
330
9A03
102
}
330
9A03
100
AcDbXrecord
280
     1
270
     1
271
     1
  0
XRECORD
  5
9A04
102
{ACAD_REACTORS
330
9A03
102
}
330
9A03
100
AcDbXrecord
280
     1
270
     1
271
     1
  0
XRECORD
  5
9A08
102
{ACAD_REACTORS
330
9A03
102
}
330
9A03
100
AcDbXrecord
280
     1
270
     1
271
     1
  0
XRECORD
  5
9A07
102
{ACAD_REACTORS
330
9A03
102
}
330
9A03
100
AcDbXrecord
280
     1
270
     1
271
     1
  0
XRECORD
  5
9A09
102
{ACAD_REACTORS
330
9A03
102
}
330
9A03
100
AcDbXrecord
280
     1
270
     1
271
     1
  0
XRECORD
  5
9A06
102
{ACAD_REACTORS
330
9A03
102
}
330
9A03
100
AcDbXrecord
280
     1
270
     1
271
     1
  0
XRECORD
  5
9A69
102
{ACAD_REACTORS
330
99FB
102
}
330
99FB
100
AcDbXrecord
280
     1
102
MATERIAL
148
0.0
149
0.0
149
0.0
 93
        0
 94
      127
282
     0
 72
     0
 77
     0
171
     0
175
     0
179
     0
273
     0
  0
XRECORD
  5
99FD
102
{ACAD_REACTORS
330
99FB
102
}
330
99FB
100
AcDbXrecord
280
     1
270
     1
271
     1
  0
XRECORD
  5
99FC
102
{ACAD_REACTORS
330
99FB
102
}
330
99FB
100
AcDbXrecord
280
     1
270
     1
271
     1
  0
XRECORD
  5
9A00
102
{ACAD_REACTORS
330
99FB
102
}
330
99FB
100
AcDbXrecord
280
     1
270
     1
271
     1
  0
XRECORD
  5
99FF
102
{ACAD_REACTORS
330
99FB
102
}
330
99FB
100
AcDbXrecord
280
     1
270
     1
271
     1
  0
XRECORD
  5
9A01
102
{ACAD_REACTORS
330
99FB
102
}
330
99FB
100
AcDbXrecord
280
     1
270
     1
271
     1
  0
XRECORD
  5
99FE
102
{ACAD_REACTORS
330
99FB
102
}
330
99FB
100
AcDbXrecord
280
     1
270
     1
271
     1
  0
XRECORD
  5
9A6B
102
{ACAD_REACTORS
330
9A0B
102
}
330
9A0B
100
AcDbXrecord
280
     1
102
MATERIAL
148
0.0
149
0.0
149
0.0
 93
        0
 94
      127
282
     0
 72
     0
 77
     0
171
     0
175
     0
179
     0
273
     0
  0
XRECORD
  5
9A0D
102
{ACAD_REACTORS
330
9A0B
102
}
330
9A0B
100
AcDbXrecord
280
     1
270
     1
271
     1
  0
XRECORD
  5
9A0C
102
{ACAD_REACTORS
330
9A0B
102
}
330
9A0B
100
AcDbXrecord
280
     1
270
     1
271
     1
  0
XRECORD
  5
9A10
102
{ACAD_REACTORS
330
9A0B
102
}
330
9A0B
100
AcDbXrecord
280
     1
270
     1
271
     1
  0
XRECORD
  5
9A0F
102
{ACAD_REACTORS
330
9A0B
102
}
330
9A0B
100
AcDbXrecord
280
     1
270
     1
271
     1
  0
XRECORD
  5
9A11
102
{ACAD_REACTORS
330
9A0B
102
}
330
9A0B
100
AcDbXrecord
280
     1
270
     1
271
     1
  0
XRECORD
  5
9A0E
102
{ACAD_REACTORS
330
9A0B
102
}
330
9A0B
100
AcDbXrecord
280
     1
270
     1
271
     1
  0
XRECORD
  5
9A9F
102
{ACAD_REACTORS
330
9A9E
102
}
330
9A9E
100
AcDbXrecord
280
     1
102
DISPLAYNAME
  1
Imperial24
102
FLAGS
 90
        0
  0
CELLSTYLEMAP
  5
9A66
102
{ACAD_REACTORS
330
9A65
102
}
330
9A65
100
AcDbCellStyleMap
 90
        3
300
CELLSTYLE
  1
TABLEFORMAT_BEGIN
 90
        5
170
     1
 91
        0
 92
    32768
 62
   257
 93
        1
300
CONTENTFORMAT
  1
CONTENTFORMAT_BEGIN
 90
        0
 91
        0
 92
      512
 93
        0
300

 40
0.0
140
1.0
 94
        5
 62
     0
340
978B
144
0.25
309
CONTENTFORMAT_END
171
     0
 94
        0
309
TABLEFORMAT_END
  1
CELLSTYLE_BEGIN
 90
        1
 91
        1
300
_TITLE
309
CELLSTYLE_END
300
CELLSTYLE
  1
TABLEFORMAT_BEGIN
 90
        5
170
     1
 91
        0
 92
        0
 62
   257
 93
        1
300
CONTENTFORMAT
  1
CONTENTFORMAT_BEGIN
 90
        0
 91
        0
 92
      512
 93
        0
300

 40
0.0
140
1.0
 94
        5
 62
     0
340
978B
144
0.18
309
CONTENTFORMAT_END
171
     0
 94
        0
309
TABLEFORMAT_END
  1
CELLSTYLE_BEGIN
 90
        2
 91
        1
300
_HEADER
309
CELLSTYLE_END
300
CELLSTYLE
  1
TABLEFORMAT_BEGIN
 90
        5
170
     1
 91
        0
 92
        0
 62
   257
 93
        1
300
CONTENTFORMAT
  1
CONTENTFORMAT_BEGIN
 90
        0
 91
        0
 92
      512
 93
        0
300

 40
0.0
140
1.0
 94
        2
 62
     0
340
978B
144
0.18
309
CONTENTFORMAT_END
171
     0
 94
        0
309
TABLEFORMAT_END
  1
CELLSTYLE_BEGIN
 90
        3
 91
        2
300
_DATA
309
CELLSTYLE_END
  0
XRECORD
  5
9A9C
102
{ACAD_REACTORS
330
9A65
102
}
330
9A65
100
AcDbXrecord
280
     1
102
ACAD_ROUNDTRIP_PRE2007_TABLESTYLE
 90
      512
 91
        0
  1

 92
      512
 93
        0
  2

 94
      512
 95
        0
  3

  0
XRECORD
  5
9A77
102
{ACAD_REACTORS
330
9A76
102
}
330
9A76
100
AcDbXrecord
280
     1
102
RTVSPost2010Prop28
280
     1
102
RTVSPost2010PropOp28
 70
     1
102
RTVSPost2010Prop29
280
     1
102
RTVSPost2010PropOp29
 70
     1
102
RTVSPost2010Prop30
280
     0
102
RTVSPost2010PropOp30
 70
     1
102
RTVSPost2010Prop31
280
     0
102
RTVSPost2010PropOp31
 70
     1
102
RTVSPost2010Prop32
280
     0
102
RTVSPost2010PropOp32
 70
     1
102
RTVSPost2010Prop33
280
     0
102
RTVSPost2010PropOp33
 70
     1
102
RTVSPost2010Prop34
280
     0
102
RTVSPost2010PropOp34
 70
     1
102
RTVSPost2010Prop35
280
     0
102
RTVSPost2010PropOp35
 70
     1
102
RTVSPost2010Prop36
280
     0
102
RTVSPost2010PropOp36
 70
     1
102
RTVSPost2010Prop37
 90
       50
102
RTVSPost2010PropOp37
 70
     1
102
RTVSPost2010Prop38
140
0.0
102
RTVSPost2010PropOp38
 70
     1
102
RTVSPost2010Prop39
140
1.0
102
RTVSPost2010PropOp39
 70
     1
102
RTVSPost2010Prop40
 90
        0
102
RTVSPost2010PropOp40
 70
     1
102
RTVSPost2010Prop41ColorIndex
 90
       18
102
RTVSPost2010Prop41ColorRGB
 90
        0
102
RTVSPost2010PropOp41
 70
     1
102
RTVSPost2010Prop42
 90
       50
102
RTVSPost2010PropOp42
 70
     1
102
RTVSPost2010Prop43
 90
        3
102
RTVSPost2010PropOp43
 70
     1
102
RTVSPost2010Prop44ColorIndex
 90
        5
102
RTVSPost2010Prop44ColorRGB
 90
      255
102
RTVSPost2010PropOp44
 70
     1
102
RTVSPost2010Prop45
280
     0
102
RTVSPost2010PropOp45
 70
     1
102
RTVSPost2010Prop46
 90
       50
102
RTVSPost2010PropOp46
 70
     1
102
RTVSPost2010Prop47
 90
       50
102
RTVSPost2010PropOp47
 70
     1
102
RTVSPost2010Prop48
 90
       50
102
RTVSPost2010PropOp48
 70
     1
102
RTVSPost2010Prop49
280
     0
102
RTVSPost2010PropOp49
 70
     1
102
RTVSPost2010Prop50
 90
       50
102
RTVSPost2010PropOp50
 70
     1
102
RTVSPost2010Prop51ColorIndex
 90
      256
102
RTVSPost2010Prop51ColorRGB
 90
-16777216
102
RTVSPost2010PropOp51
 70
     0
102
RTVSPost2010Prop52
140
1.0
102
RTVSPost2010PropOp52
 70
     0
102
RTVSPost2010Prop53
 90
        2
102
RTVSPost2010PropOp53
 70
     1
102
RTVSPost2010Prop54
  1
strokes_ogs.tif
102
RTVSPost2010PropOp54
 70
     1
102
RTVSPost2010Prop55
280
     0
102
RTVSPost2010PropOp55
 70
     1
102
RTVSPost2010Prop56
140
1.0
102
RTVSPost2010PropOp56
 70
     1
102
RTVSPost2010Prop57
140
1.0
102
RTVSPost2010PropOp57
 70
     1
102
RTVSPropertyOp0
 70
     1
102
RTVSPropertyOp1
 70
     1
102
RTVSPropertyOp2
 70
     1
102
RTVSPropertyOp3
 70
     1
102
RTVSPropertyOp4
 70
     1
102
RTVSPropertyOp5
 70
     1
102
RTVSPropertyOp6
 70
     1
102
RTVSPropertyOp7
 70
     1
102
RTVSPropertyOp8
 70
     1
102
RTVSPropertyOp9
 70
     1
102
RTVSPropertyOp10
 70
     1
102
RTVSPropertyOp11
 70
     1
102
RTVSPropertyOp12
 70
     1
102
RTVSPropertyOp13
 70
     1
102
RTVSPropertyOp14
 70
     1
102
RTVSPropertyOp15
 70
     1
102
RTVSPropertyOp16
 70
     1
102
RTVSPropertyOp17
 70
     1
102
RTVSPropertyOp18
 70
     1
102
RTVSPropertyOp19
 70
     1
102
RTVSPropertyOp20
 70
     1
102
RTVSPropertyOp21
 70
     1
102
RTVSPropertyOp22
 70
     1
102
RTVSPropertyOp23
 70
     1
102
RTVSPropertyOp24
 70
     1
102
RTVSPropertyOp25
 70
     1
102
RTVSPropertyOp26
 70
     1
102
RTVSPropertyOp27
 70
     1
102
RTVSPropertyOp28
 70
     1
102
RTVSPropertyOp29
 70
     1
102
RTVSPropertyOp30
 70
     1
102
RTVSPropertyOp31
 70
     1
102
RTVSPropertyOp32
 70
     1
102
RTVSPropertyOp33
 70
     1
102
RTVSPropertyOp34
 70
     1
102
RTVSPropertyOp35
 70
     1
102
RTVSPropertyOp36
 70
     1
102
RTVSPropertyOp37
 70
     1
102
RTVSPropertyOp38
 70
     1
102
RTVSPropertyOp39
 70
     1
102
RTVSPropertyOp40
 70
     1
102
RTVSPropertyOp41
 70
     1
102
RTVSPropertyOp42
 70
     1
102
RTVSPropertyOp43
 70
     1
102
RTVSPropertyOp44
 70
     1
102
RTVSPropertyOp45
 70
     1
102
RTVSPropertyOp46
 70
     1
102
RTVSPropertyOp47
 70
     1
102
RTVSPropertyOp48
 70
     1
102
RTVSPropertyOp49
 70
     1
102
RTVSPropertyOp50
 70
     1
102
RTVSPropertyOp51
 70
     0
102
RTVSPropertyOp52
 70
     0
102
RTVSPropertyOp53
 70
     1
102
RTVSPropertyOp54
 70
     1
102
RTVSPropertyOp55
 70
     1
102
RTVSPropertyOp56
 70
     1
102
RTVSPropertyOp57
 70
     1
102
RTVSPropertyOp58
 70
     1
102
RTVSPropertyOp59
 70
     1
102
RTVSPropertyOp60
 70
     1
102
RTVSPropertyOp61
 70
     1
102
RTVSPropertyOp62
 70
     1
  0
XRECORD
  5
9A75
102
{ACAD_REACTORS
330
9A74
102
}
330
9A74
100
AcDbXrecord
280
     1
102
RTVSPost2010Prop28
280
     0
102
RTVSPost2010PropOp28
 70
     1
102
RTVSPost2010Prop29
280
     1
102
RTVSPost2010PropOp29
 70
     1
102
RTVSPost2010Prop30
280
     1
102
RTVSPost2010PropOp30
 70
     1
102
RTVSPost2010Prop31
280
     0
102
RTVSPost2010PropOp31
 70
     1
102
RTVSPost2010Prop32
280
     0
102
RTVSPost2010PropOp32
 70
     1
102
RTVSPost2010Prop33
280
     0
102
RTVSPost2010PropOp33
 70
     1
102
RTVSPost2010Prop34
280
     0
102
RTVSPost2010PropOp34
 70
     1
102
RTVSPost2010Prop35
280
     0
102
RTVSPost2010PropOp35
 70
     1
102
RTVSPost2010Prop36
280
     0
102
RTVSPost2010PropOp36
 70
     1
102
RTVSPost2010Prop37
 90
       50
102
RTVSPost2010PropOp37
 70
     1
102
RTVSPost2010Prop38
140
0.0
102
RTVSPost2010PropOp38
 70
     1
102
RTVSPost2010Prop39
140
1.0
102
RTVSPost2010PropOp39
 70
     1
102
RTVSPost2010Prop40
 90
        0
102
RTVSPost2010PropOp40
 70
     1
102
RTVSPost2010Prop41ColorIndex
 90
       18
102
RTVSPost2010Prop41ColorRGB
 90
        0
102
RTVSPost2010PropOp41
 70
     1
102
RTVSPost2010Prop42
 90
       50
102
RTVSPost2010PropOp42
 70
     1
102
RTVSPost2010Prop43
 90
        3
102
RTVSPost2010PropOp43
 70
     1
102
RTVSPost2010Prop44ColorIndex
 90
        5
102
RTVSPost2010Prop44ColorRGB
 90
      255
102
RTVSPost2010PropOp44
 70
     1
102
RTVSPost2010Prop45
280
     0
102
RTVSPost2010PropOp45
 70
     1
102
RTVSPost2010Prop46
 90
       50
102
RTVSPost2010PropOp46
 70
     1
102
RTVSPost2010Prop47
 90
       50
102
RTVSPost2010PropOp47
 70
     1
102
RTVSPost2010Prop48
 90
       50
102
RTVSPost2010PropOp48
 70
     1
102
RTVSPost2010Prop49
280
     0
102
RTVSPost2010PropOp49
 70
     1
102
RTVSPost2010Prop50
 90
       50
102
RTVSPost2010PropOp50
 70
     1
102
RTVSPost2010Prop51ColorIndex
 90
      256
102
RTVSPost2010Prop51ColorRGB
 90
-16777216
102
RTVSPost2010PropOp51
 70
     0
102
RTVSPost2010Prop52
140
1.0
102
RTVSPost2010PropOp52
 70
     0
102
RTVSPost2010Prop53
 90
        2
102
RTVSPost2010PropOp53
 70
     1
102
RTVSPost2010Prop54
  1
strokes_ogs.tif
102
RTVSPost2010PropOp54
 70
     1
102
RTVSPost2010Prop55
280
     0
102
RTVSPost2010PropOp55
 70
     1
102
RTVSPost2010Prop56
140
1.0
102
RTVSPost2010PropOp56
 70
     1
102
RTVSPost2010Prop57
140
1.0
102
RTVSPost2010PropOp57
 70
     1
102
RTVSPropertyOp0
 70
     1
102
RTVSPropertyOp1
 70
     1
102
RTVSPropertyOp2
 70
     1
102
RTVSPropertyOp3
 70
     1
102
RTVSPropertyOp4
 70
     1
102
RTVSPropertyOp5
 70
     1
102
RTVSPropertyOp6
 70
     1
102
RTVSPropertyOp7
 70
     1
102
RTVSPropertyOp8
 70
     1
102
RTVSPropertyOp9
 70
     1
102
RTVSPropertyOp10
 70
     1
102
RTVSPropertyOp11
 70
     1
102
RTVSPropertyOp12
 70
     1
102
RTVSPropertyOp13
 70
     1
102
RTVSPropertyOp14
 70
     1
102
RTVSPropertyOp15
 70
     1
102
RTVSPropertyOp16
 70
     1
102
RTVSPropertyOp17
 70
     1
102
RTVSPropertyOp18
 70
     1
102
RTVSPropertyOp19
 70
     1
102
RTVSPropertyOp20
 70
     1
102
RTVSPropertyOp21
 70
     1
102
RTVSPropertyOp22
 70
     1
102
RTVSPropertyOp23
 70
     1
102
RTVSPropertyOp24
 70
     1
102
RTVSPropertyOp25
 70
     1
102
RTVSPropertyOp26
 70
     1
102
RTVSPropertyOp27
 70
     1
102
RTVSPropertyOp28
 70
     1
102
RTVSPropertyOp29
 70
     1
102
RTVSPropertyOp30
 70
     1
102
RTVSPropertyOp31
 70
     1
102
RTVSPropertyOp32
 70
     1
102
RTVSPropertyOp33
 70
     1
102
RTVSPropertyOp34
 70
     1
102
RTVSPropertyOp35
 70
     1
102
RTVSPropertyOp36
 70
     1
102
RTVSPropertyOp37
 70
     1
102
RTVSPropertyOp38
 70
     1
102
RTVSPropertyOp39
 70
     1
102
RTVSPropertyOp40
 70
     1
102
RTVSPropertyOp41
 70
     1
102
RTVSPropertyOp42
 70
     1
102
RTVSPropertyOp43
 70
     1
102
RTVSPropertyOp44
 70
     1
102
RTVSPropertyOp45
 70
     1
102
RTVSPropertyOp46
 70
     1
102
RTVSPropertyOp47
 70
     1
102
RTVSPropertyOp48
 70
     1
102
RTVSPropertyOp49
 70
     1
102
RTVSPropertyOp50
 70
     1
102
RTVSPropertyOp51
 70
     0
102
RTVSPropertyOp52
 70
     0
102
RTVSPropertyOp53
 70
     1
102
RTVSPropertyOp54
 70
     1
102
RTVSPropertyOp55
 70
     1
102
RTVSPropertyOp56
 70
     1
102
RTVSPropertyOp57
 70
     1
102
RTVSPropertyOp58
 70
     1
102
RTVSPropertyOp59
 70
     1
102
RTVSPropertyOp60
 70
     1
102
RTVSPropertyOp61
 70
     1
102
RTVSPropertyOp62
 70
     1
  0
XRECORD
  5
9A83
102
{ACAD_REACTORS
330
9A82
102
}
330
9A82
100
AcDbXrecord
280
     1
102
RTVSPost2010Prop28
280
     0
102
RTVSPost2010PropOp28
 70
     1
102
RTVSPost2010Prop29
280
     1
102
RTVSPost2010PropOp29
 70
     1
102
RTVSPost2010Prop30
280
     1
102
RTVSPost2010PropOp30
 70
     1
102
RTVSPost2010Prop31
280
     0
102
RTVSPost2010PropOp31
 70
     1
102
RTVSPost2010Prop32
280
     0
102
RTVSPost2010PropOp32
 70
     1
102
RTVSPost2010Prop33
280
     0
102
RTVSPost2010PropOp33
 70
     1
102
RTVSPost2010Prop34
280
     0
102
RTVSPost2010PropOp34
 70
     1
102
RTVSPost2010Prop35
280
     0
102
RTVSPost2010PropOp35
 70
     1
102
RTVSPost2010Prop36
280
     0
102
RTVSPost2010PropOp36
 70
     1
102
RTVSPost2010Prop37
 90
       50
102
RTVSPost2010PropOp37
 70
     1
102
RTVSPost2010Prop38
140
0.0
102
RTVSPost2010PropOp38
 70
     1
102
RTVSPost2010Prop39
140
1.0
102
RTVSPost2010PropOp39
 70
     1
102
RTVSPost2010Prop40
 90
        0
102
RTVSPost2010PropOp40
 70
     1
102
RTVSPost2010Prop41ColorIndex
 90
       18
102
RTVSPost2010Prop41ColorRGB
 90
        0
102
RTVSPost2010PropOp41
 70
     1
102
RTVSPost2010Prop42
 90
       50
102
RTVSPost2010PropOp42
 70
     1
102
RTVSPost2010Prop43
 90
        3
102
RTVSPost2010PropOp43
 70
     1
102
RTVSPost2010Prop44ColorIndex
 90
        5
102
RTVSPost2010Prop44ColorRGB
 90
      255
102
RTVSPost2010PropOp44
 70
     1
102
RTVSPost2010Prop45
280
     0
102
RTVSPost2010PropOp45
 70
     1
102
RTVSPost2010Prop46
 90
       50
102
RTVSPost2010PropOp46
 70
     1
102
RTVSPost2010Prop47
 90
       50
102
RTVSPost2010PropOp47
 70
     1
102
RTVSPost2010Prop48
 90
       50
102
RTVSPost2010PropOp48
 70
     1
102
RTVSPost2010Prop49
280
     0
102
RTVSPost2010PropOp49
 70
     1
102
RTVSPost2010Prop50
 90
       50
102
RTVSPost2010PropOp50
 70
     1
102
RTVSPost2010Prop51ColorIndex
 90
      256
102
RTVSPost2010Prop51ColorRGB
 90
-16777216
102
RTVSPost2010PropOp51
 70
     0
102
RTVSPost2010Prop52
140
1.0
102
RTVSPost2010PropOp52
 70
     0
102
RTVSPost2010Prop53
 90
        2
102
RTVSPost2010PropOp53
 70
     1
102
RTVSPost2010Prop54
  1
strokes_ogs.tif
102
RTVSPost2010PropOp54
 70
     1
102
RTVSPost2010Prop55
280
     0
102
RTVSPost2010PropOp55
 70
     1
102
RTVSPost2010Prop56
140
1.0
102
RTVSPost2010PropOp56
 70
     1
102
RTVSPost2010Prop57
140
1.0
102
RTVSPost2010PropOp57
 70
     1
102
RTVSPropertyOp0
 70
     1
102
RTVSPropertyOp1
 70
     1
102
RTVSPropertyOp2
 70
     1
102
RTVSPropertyOp3
 70
     1
102
RTVSPropertyOp4
 70
     1
102
RTVSPropertyOp5
 70
     1
102
RTVSPropertyOp6
 70
     1
102
RTVSPropertyOp7
 70
     1
102
RTVSPropertyOp8
 70
     1
102
RTVSPropertyOp9
 70
     1
102
RTVSPropertyOp10
 70
     1
102
RTVSPropertyOp11
 70
     1
102
RTVSPropertyOp12
 70
     1
102
RTVSPropertyOp13
 70
     1
102
RTVSPropertyOp14
 70
     1
102
RTVSPropertyOp15
 70
     1
102
RTVSPropertyOp16
 70
     1
102
RTVSPropertyOp17
 70
     1
102
RTVSPropertyOp18
 70
     1
102
RTVSPropertyOp19
 70
     1
102
RTVSPropertyOp20
 70
     1
102
RTVSPropertyOp21
 70
     1
102
RTVSPropertyOp22
 70
     1
102
RTVSPropertyOp23
 70
     1
102
RTVSPropertyOp24
 70
     1
102
RTVSPropertyOp25
 70
     1
102
RTVSPropertyOp26
 70
     1
102
RTVSPropertyOp27
 70
     1
102
RTVSPropertyOp28
 70
     1
102
RTVSPropertyOp29
 70
     1
102
RTVSPropertyOp30
 70
     1
102
RTVSPropertyOp31
 70
     1
102
RTVSPropertyOp32
 70
     1
102
RTVSPropertyOp33
 70
     1
102
RTVSPropertyOp34
 70
     1
102
RTVSPropertyOp35
 70
     1
102
RTVSPropertyOp36
 70
     1
102
RTVSPropertyOp37
 70
     1
102
RTVSPropertyOp38
 70
     1
102
RTVSPropertyOp39
 70
     1
102
RTVSPropertyOp40
 70
     1
102
RTVSPropertyOp41
 70
     1
102
RTVSPropertyOp42
 70
     1
102
RTVSPropertyOp43
 70
     1
102
RTVSPropertyOp44
 70
     1
102
RTVSPropertyOp45
 70
     1
102
RTVSPropertyOp46
 70
     1
102
RTVSPropertyOp47
 70
     1
102
RTVSPropertyOp48
 70
     1
102
RTVSPropertyOp49
 70
     1
102
RTVSPropertyOp50
 70
     1
102
RTVSPropertyOp51
 70
     0
102
RTVSPropertyOp52
 70
     0
102
RTVSPropertyOp53
 70
     1
102
RTVSPropertyOp54
 70
     1
102
RTVSPropertyOp55
 70
     1
102
RTVSPropertyOp56
 70
     1
102
RTVSPropertyOp57
 70
     1
102
RTVSPropertyOp58
 70
     1
102
RTVSPropertyOp59
 70
     1
102
RTVSPropertyOp60
 70
     1
102
RTVSPropertyOp61
 70
     1
102
RTVSPropertyOp62
 70
     1
  0
XRECORD
  5
9A8B
102
{ACAD_REACTORS
330
9A8A
102
}
330
9A8A
100
AcDbXrecord
280
     1
102
RTVSPost2010Prop28
280
     0
102
RTVSPost2010PropOp28
 70
     1
102
RTVSPost2010Prop29
280
     1
102
RTVSPost2010PropOp29
 70
     1
102
RTVSPost2010Prop30
280
     1
102
RTVSPost2010PropOp30
 70
     1
102
RTVSPost2010Prop31
280
     0
102
RTVSPost2010PropOp31
 70
     1
102
RTVSPost2010Prop32
280
     0
102
RTVSPost2010PropOp32
 70
     1
102
RTVSPost2010Prop33
280
     0
102
RTVSPost2010PropOp33
 70
     1
102
RTVSPost2010Prop34
280
     0
102
RTVSPost2010PropOp34
 70
     1
102
RTVSPost2010Prop35
280
     0
102
RTVSPost2010PropOp35
 70
     1
102
RTVSPost2010Prop36
280
     0
102
RTVSPost2010PropOp36
 70
     1
102
RTVSPost2010Prop37
 90
       50
102
RTVSPost2010PropOp37
 70
     1
102
RTVSPost2010Prop38
140
0.0
102
RTVSPost2010PropOp38
 70
     1
102
RTVSPost2010Prop39
140
1.0
102
RTVSPost2010PropOp39
 70
     1
102
RTVSPost2010Prop40
 90
        0
102
RTVSPost2010PropOp40
 70
     1
102
RTVSPost2010Prop41ColorIndex
 90
       18
102
RTVSPost2010Prop41ColorRGB
 90
        0
102
RTVSPost2010PropOp41
 70
     1
102
RTVSPost2010Prop42
 90
       50
102
RTVSPost2010PropOp42
 70
     1
102
RTVSPost2010Prop43
 90
        3
102
RTVSPost2010PropOp43
 70
     1
102
RTVSPost2010Prop44ColorIndex
 90
        5
102
RTVSPost2010Prop44ColorRGB
 90
      255
102
RTVSPost2010PropOp44
 70
     1
102
RTVSPost2010Prop45
280
     0
102
RTVSPost2010PropOp45
 70
     1
102
RTVSPost2010Prop46
 90
       50
102
RTVSPost2010PropOp46
 70
     1
102
RTVSPost2010Prop47
 90
       50
102
RTVSPost2010PropOp47
 70
     1
102
RTVSPost2010Prop48
 90
       50
102
RTVSPost2010PropOp48
 70
     1
102
RTVSPost2010Prop49
280
     0
102
RTVSPost2010PropOp49
 70
     1
102
RTVSPost2010Prop50
 90
       50
102
RTVSPost2010PropOp50
 70
     1
102
RTVSPost2010Prop51ColorIndex
 90
      256
102
RTVSPost2010Prop51ColorRGB
 90
-16777216
102
RTVSPost2010PropOp51
 70
     0
102
RTVSPost2010Prop52
140
1.0
102
RTVSPost2010PropOp52
 70
     0
102
RTVSPost2010Prop53
 90
        2
102
RTVSPost2010PropOp53
 70
     1
102
RTVSPost2010Prop54
  1
strokes_ogs.tif
102
RTVSPost2010PropOp54
 70
     1
102
RTVSPost2010Prop55
280
     0
102
RTVSPost2010PropOp55
 70
     1
102
RTVSPost2010Prop56
140
1.0
102
RTVSPost2010PropOp56
 70
     1
102
RTVSPost2010Prop57
140
1.0
102
RTVSPost2010PropOp57
 70
     1
102
RTVSPropertyOp0
 70
     1
102
RTVSPropertyOp1
 70
     1
102
RTVSPropertyOp2
 70
     1
102
RTVSPropertyOp3
 70
     1
102
RTVSPropertyOp4
 70
     1
102
RTVSPropertyOp5
 70
     1
102
RTVSPropertyOp6
 70
     1
102
RTVSPropertyOp7
 70
     1
102
RTVSPropertyOp8
 70
     1
102
RTVSPropertyOp9
 70
     1
102
RTVSPropertyOp10
 70
     1
102
RTVSPropertyOp11
 70
     1
102
RTVSPropertyOp12
 70
     1
102
RTVSPropertyOp13
 70
     1
102
RTVSPropertyOp14
 70
     1
102
RTVSPropertyOp15
 70
     1
102
RTVSPropertyOp16
 70
     1
102
RTVSPropertyOp17
 70
     1
102
RTVSPropertyOp18
 70
     1
102
RTVSPropertyOp19
 70
     1
102
RTVSPropertyOp20
 70
     1
102
RTVSPropertyOp21
 70
     1
102
RTVSPropertyOp22
 70
     1
102
RTVSPropertyOp23
 70
     1
102
RTVSPropertyOp24
 70
     1
102
RTVSPropertyOp25
 70
     1
102
RTVSPropertyOp26
 70
     1
102
RTVSPropertyOp27
 70
     1
102
RTVSPropertyOp28
 70
     1
102
RTVSPropertyOp29
 70
     1
102
RTVSPropertyOp30
 70
     1
102
RTVSPropertyOp31
 70
     1
102
RTVSPropertyOp32
 70
     1
102
RTVSPropertyOp33
 70
     1
102
RTVSPropertyOp34
 70
     1
102
RTVSPropertyOp35
 70
     1
102
RTVSPropertyOp36
 70
     1
102
RTVSPropertyOp37
 70
     1
102
RTVSPropertyOp38
 70
     1
102
RTVSPropertyOp39
 70
     1
102
RTVSPropertyOp40
 70
     1
102
RTVSPropertyOp41
 70
     1
102
RTVSPropertyOp42
 70
     1
102
RTVSPropertyOp43
 70
     1
102
RTVSPropertyOp44
 70
     1
102
RTVSPropertyOp45
 70
     1
102
RTVSPropertyOp46
 70
     1
102
RTVSPropertyOp47
 70
     1
102
RTVSPropertyOp48
 70
     1
102
RTVSPropertyOp49
 70
     1
102
RTVSPropertyOp50
 70
     1
102
RTVSPropertyOp51
 70
     0
102
RTVSPropertyOp52
 70
     0
102
RTVSPropertyOp53
 70
     1
102
RTVSPropertyOp54
 70
     1
102
RTVSPropertyOp55
 70
     1
102
RTVSPropertyOp56
 70
     1
102
RTVSPropertyOp57
 70
     1
102
RTVSPropertyOp58
 70
     1
102
RTVSPropertyOp59
 70
     1
102
RTVSPropertyOp60
 70
     1
102
RTVSPropertyOp61
 70
     1
102
RTVSPropertyOp62
 70
     1
  0
XRECORD
  5
9A7D
102
{ACAD_REACTORS
330
9A7C
102
}
330
9A7C
100
AcDbXrecord
280
     1
102
RTVSPost2010Prop28
280
     0
102
RTVSPost2010PropOp28
 70
     1
102
RTVSPost2010Prop29
280
     1
102
RTVSPost2010PropOp29
 70
     1
102
RTVSPost2010Prop30
280
     1
102
RTVSPost2010PropOp30
 70
     1
102
RTVSPost2010Prop31
280
     0
102
RTVSPost2010PropOp31
 70
     1
102
RTVSPost2010Prop32
280
     0
102
RTVSPost2010PropOp32
 70
     1
102
RTVSPost2010Prop33
280
     0
102
RTVSPost2010PropOp33
 70
     1
102
RTVSPost2010Prop34
280
     0
102
RTVSPost2010PropOp34
 70
     1
102
RTVSPost2010Prop35
280
     0
102
RTVSPost2010PropOp35
 70
     1
102
RTVSPost2010Prop36
280
     0
102
RTVSPost2010PropOp36
 70
     1
102
RTVSPost2010Prop37
 90
       50
102
RTVSPost2010PropOp37
 70
     1
102
RTVSPost2010Prop38
140
0.0
102
RTVSPost2010PropOp38
 70
     1
102
RTVSPost2010Prop39
140
1.0
102
RTVSPost2010PropOp39
 70
     1
102
RTVSPost2010Prop40
 90
        0
102
RTVSPost2010PropOp40
 70
     1
102
RTVSPost2010Prop41ColorIndex
 90
       18
102
RTVSPost2010Prop41ColorRGB
 90
        0
102
RTVSPost2010PropOp41
 70
     1
102
RTVSPost2010Prop42
 90
       50
102
RTVSPost2010PropOp42
 70
     1
102
RTVSPost2010Prop43
 90
        3
102
RTVSPost2010PropOp43
 70
     1
102
RTVSPost2010Prop44ColorIndex
 90
        5
102
RTVSPost2010Prop44ColorRGB
 90
      255
102
RTVSPost2010PropOp44
 70
     1
102
RTVSPost2010Prop45
280
     0
102
RTVSPost2010PropOp45
 70
     1
102
RTVSPost2010Prop46
 90
       50
102
RTVSPost2010PropOp46
 70
     1
102
RTVSPost2010Prop47
 90
       50
102
RTVSPost2010PropOp47
 70
     1
102
RTVSPost2010Prop48
 90
       50
102
RTVSPost2010PropOp48
 70
     1
102
RTVSPost2010Prop49
280
     0
102
RTVSPost2010PropOp49
 70
     1
102
RTVSPost2010Prop50
 90
       50
102
RTVSPost2010PropOp50
 70
     1
102
RTVSPost2010Prop51ColorIndex
 90
      256
102
RTVSPost2010Prop51ColorRGB
 90
-16777216
102
RTVSPost2010PropOp51
 70
     0
102
RTVSPost2010Prop52
140
1.0
102
RTVSPost2010PropOp52
 70
     0
102
RTVSPost2010Prop53
 90
        2
102
RTVSPost2010PropOp53
 70
     1
102
RTVSPost2010Prop54
  1
strokes_ogs.tif
102
RTVSPost2010PropOp54
 70
     1
102
RTVSPost2010Prop55
280
     0
102
RTVSPost2010PropOp55
 70
     1
102
RTVSPost2010Prop56
140
1.0
102
RTVSPost2010PropOp56
 70
     1
102
RTVSPost2010Prop57
140
1.0
102
RTVSPost2010PropOp57
 70
     1
102
RTVSPropertyOp0
 70
     1
102
RTVSPropertyOp1
 70
     1
102
RTVSPropertyOp2
 70
     1
102
RTVSPropertyOp3
 70
     1
102
RTVSPropertyOp4
 70
     1
102
RTVSPropertyOp5
 70
     1
102
RTVSPropertyOp6
 70
     1
102
RTVSPropertyOp7
 70
     1
102
RTVSPropertyOp8
 70
     1
102
RTVSPropertyOp9
 70
     1
102
RTVSPropertyOp10
 70
     1
102
RTVSPropertyOp11
 70
     1
102
RTVSPropertyOp12
 70
     1
102
RTVSPropertyOp13
 70
     1
102
RTVSPropertyOp14
 70
     1
102
RTVSPropertyOp15
 70
     1
102
RTVSPropertyOp16
 70
     1
102
RTVSPropertyOp17
 70
     1
102
RTVSPropertyOp18
 70
     1
102
RTVSPropertyOp19
 70
     1
102
RTVSPropertyOp20
 70
     1
102
RTVSPropertyOp21
 70
     1
102
RTVSPropertyOp22
 70
     1
102
RTVSPropertyOp23
 70
     1
102
RTVSPropertyOp24
 70
     1
102
RTVSPropertyOp25
 70
     1
102
RTVSPropertyOp26
 70
     1
102
RTVSPropertyOp27
 70
     1
102
RTVSPropertyOp28
 70
     1
102
RTVSPropertyOp29
 70
     1
102
RTVSPropertyOp30
 70
     1
102
RTVSPropertyOp31
 70
     1
102
RTVSPropertyOp32
 70
     1
102
RTVSPropertyOp33
 70
     1
102
RTVSPropertyOp34
 70
     1
102
RTVSPropertyOp35
 70
     1
102
RTVSPropertyOp36
 70
     1
102
RTVSPropertyOp37
 70
     1
102
RTVSPropertyOp38
 70
     1
102
RTVSPropertyOp39
 70
     1
102
RTVSPropertyOp40
 70
     1
102
RTVSPropertyOp41
 70
     1
102
RTVSPropertyOp42
 70
     1
102
RTVSPropertyOp43
 70
     1
102
RTVSPropertyOp44
 70
     1
102
RTVSPropertyOp45
 70
     1
102
RTVSPropertyOp46
 70
     1
102
RTVSPropertyOp47
 70
     1
102
RTVSPropertyOp48
 70
     1
102
RTVSPropertyOp49
 70
     1
102
RTVSPropertyOp50
 70
     1
102
RTVSPropertyOp51
 70
     0
102
RTVSPropertyOp52
 70
     0
102
RTVSPropertyOp53
 70
     1
102
RTVSPropertyOp54
 70
     1
102
RTVSPropertyOp55
 70
     1
102
RTVSPropertyOp56
 70
     1
102
RTVSPropertyOp57
 70
     1
102
RTVSPropertyOp58
 70
     1
102
RTVSPropertyOp59
 70
     1
102
RTVSPropertyOp60
 70
     1
102
RTVSPropertyOp61
 70
     1
102
RTVSPropertyOp62
 70
     1
  0
XRECORD
  5
9A81
102
{ACAD_REACTORS
330
9A80
102
}
330
9A80
100
AcDbXrecord
280
     1
102
RTVSPost2010Prop28
280
     0
102
RTVSPost2010PropOp28
 70
     1
102
RTVSPost2010Prop29
280
     1
102
RTVSPost2010PropOp29
 70
     1
102
RTVSPost2010Prop30
280
     1
102
RTVSPost2010PropOp30
 70
     1
102
RTVSPost2010Prop31
280
     0
102
RTVSPost2010PropOp31
 70
     1
102
RTVSPost2010Prop32
280
     0
102
RTVSPost2010PropOp32
 70
     1
102
RTVSPost2010Prop33
280
     0
102
RTVSPost2010PropOp33
 70
     1
102
RTVSPost2010Prop34
280
     0
102
RTVSPost2010PropOp34
 70
     1
102
RTVSPost2010Prop35
280
     0
102
RTVSPost2010PropOp35
 70
     1
102
RTVSPost2010Prop36
280
     0
102
RTVSPost2010PropOp36
 70
     1
102
RTVSPost2010Prop37
 90
       50
102
RTVSPost2010PropOp37
 70
     1
102
RTVSPost2010Prop38
140
0.0
102
RTVSPost2010PropOp38
 70
     1
102
RTVSPost2010Prop39
140
1.0
102
RTVSPost2010PropOp39
 70
     1
102
RTVSPost2010Prop40
 90
        0
102
RTVSPost2010PropOp40
 70
     1
102
RTVSPost2010Prop41ColorIndex
 90
       18
102
RTVSPost2010Prop41ColorRGB
 90
        0
102
RTVSPost2010PropOp41
 70
     1
102
RTVSPost2010Prop42
 90
       50
102
RTVSPost2010PropOp42
 70
     1
102
RTVSPost2010Prop43
 90
        3
102
RTVSPost2010PropOp43
 70
     1
102
RTVSPost2010Prop44ColorIndex
 90
        5
102
RTVSPost2010Prop44ColorRGB
 90
      255
102
RTVSPost2010PropOp44
 70
     1
102
RTVSPost2010Prop45
280
     0
102
RTVSPost2010PropOp45
 70
     1
102
RTVSPost2010Prop46
 90
       50
102
RTVSPost2010PropOp46
 70
     1
102
RTVSPost2010Prop47
 90
       50
102
RTVSPost2010PropOp47
 70
     1
102
RTVSPost2010Prop48
 90
       50
102
RTVSPost2010PropOp48
 70
     1
102
RTVSPost2010Prop49
280
     0
102
RTVSPost2010PropOp49
 70
     1
102
RTVSPost2010Prop50
 90
       50
102
RTVSPost2010PropOp50
 70
     1
102
RTVSPost2010Prop51ColorIndex
 90
      256
102
RTVSPost2010Prop51ColorRGB
 90
-16777216
102
RTVSPost2010PropOp51
 70
     0
102
RTVSPost2010Prop52
140
1.0
102
RTVSPost2010PropOp52
 70
     0
102
RTVSPost2010Prop53
 90
        2
102
RTVSPost2010PropOp53
 70
     1
102
RTVSPost2010Prop54
  1
strokes_ogs.tif
102
RTVSPost2010PropOp54
 70
     1
102
RTVSPost2010Prop55
280
     0
102
RTVSPost2010PropOp55
 70
     1
102
RTVSPost2010Prop56
140
1.0
102
RTVSPost2010PropOp56
 70
     1
102
RTVSPost2010Prop57
140
1.0
102
RTVSPost2010PropOp57
 70
     1
102
RTVSPropertyOp0
 70
     1
102
RTVSPropertyOp1
 70
     1
102
RTVSPropertyOp2
 70
     1
102
RTVSPropertyOp3
 70
     1
102
RTVSPropertyOp4
 70
     1
102
RTVSPropertyOp5
 70
     1
102
RTVSPropertyOp6
 70
     1
102
RTVSPropertyOp7
 70
     1
102
RTVSPropertyOp8
 70
     1
102
RTVSPropertyOp9
 70
     1
102
RTVSPropertyOp10
 70
     1
102
RTVSPropertyOp11
 70
     1
102
RTVSPropertyOp12
 70
     1
102
RTVSPropertyOp13
 70
     1
102
RTVSPropertyOp14
 70
     1
102
RTVSPropertyOp15
 70
     1
102
RTVSPropertyOp16
 70
     1
102
RTVSPropertyOp17
 70
     1
102
RTVSPropertyOp18
 70
     1
102
RTVSPropertyOp19
 70
     1
102
RTVSPropertyOp20
 70
     1
102
RTVSPropertyOp21
 70
     1
102
RTVSPropertyOp22
 70
     1
102
RTVSPropertyOp23
 70
     1
102
RTVSPropertyOp24
 70
     1
102
RTVSPropertyOp25
 70
     1
102
RTVSPropertyOp26
 70
     1
102
RTVSPropertyOp27
 70
     1
102
RTVSPropertyOp28
 70
     1
102
RTVSPropertyOp29
 70
     1
102
RTVSPropertyOp30
 70
     1
102
RTVSPropertyOp31
 70
     1
102
RTVSPropertyOp32
 70
     1
102
RTVSPropertyOp33
 70
     1
102
RTVSPropertyOp34
 70
     1
102
RTVSPropertyOp35
 70
     1
102
RTVSPropertyOp36
 70
     1
102
RTVSPropertyOp37
 70
     1
102
RTVSPropertyOp38
 70
     1
102
RTVSPropertyOp39
 70
     1
102
RTVSPropertyOp40
 70
     1
102
RTVSPropertyOp41
 70
     1
102
RTVSPropertyOp42
 70
     1
102
RTVSPropertyOp43
 70
     1
102
RTVSPropertyOp44
 70
     1
102
RTVSPropertyOp45
 70
     1
102
RTVSPropertyOp46
 70
     1
102
RTVSPropertyOp47
 70
     1
102
RTVSPropertyOp48
 70
     1
102
RTVSPropertyOp49
 70
     1
102
RTVSPropertyOp50
 70
     1
102
RTVSPropertyOp51
 70
     0
102
RTVSPropertyOp52
 70
     0
102
RTVSPropertyOp53
 70
     1
102
RTVSPropertyOp54
 70
     1
102
RTVSPropertyOp55
 70
     1
102
RTVSPropertyOp56
 70
     1
102
RTVSPropertyOp57
 70
     1
102
RTVSPropertyOp58
 70
     1
102
RTVSPropertyOp59
 70
     1
102
RTVSPropertyOp60
 70
     1
102
RTVSPropertyOp61
 70
     1
102
RTVSPropertyOp62
 70
     1
  0
XRECORD
  5
9A9B
102
{ACAD_REACTORS
330
9A9A
102
}
330
9A9A
100
AcDbXrecord
280
     1
102
RTVSPost2010Prop28
280
     0
102
RTVSPost2010PropOp28
 70
     1
102
RTVSPost2010Prop29
280
     1
102
RTVSPost2010PropOp29
 70
     1
102
RTVSPost2010Prop30
280
     1
102
RTVSPost2010PropOp30
 70
     1
102
RTVSPost2010Prop31
280
     0
102
RTVSPost2010PropOp31
 70
     1
102
RTVSPost2010Prop32
280
     0
102
RTVSPost2010PropOp32
 70
     1
102
RTVSPost2010Prop33
280
     0
102
RTVSPost2010PropOp33
 70
     1
102
RTVSPost2010Prop34
280
     0
102
RTVSPost2010PropOp34
 70
     1
102
RTVSPost2010Prop35
280
     0
102
RTVSPost2010PropOp35
 70
     1
102
RTVSPost2010Prop36
280
     0
102
RTVSPost2010PropOp36
 70
     1
102
RTVSPost2010Prop37
 90
       50
102
RTVSPost2010PropOp37
 70
     0
102
RTVSPost2010Prop38
140
0.0
102
RTVSPost2010PropOp38
 70
     0
102
RTVSPost2010Prop39
140
1.0
102
RTVSPost2010PropOp39
 70
     0
102
RTVSPost2010Prop40
 90
        0
102
RTVSPost2010PropOp40
 70
     0
102
RTVSPost2010Prop41ColorIndex
 90
       18
102
RTVSPost2010Prop41ColorRGB
 90
        0
102
RTVSPost2010PropOp41
 70
     0
102
RTVSPost2010Prop42
 90
       50
102
RTVSPost2010PropOp42
 70
     0
102
RTVSPost2010Prop43
 90
        3
102
RTVSPost2010PropOp43
 70
     0
102
RTVSPost2010Prop44ColorIndex
 90
        5
102
RTVSPost2010Prop44ColorRGB
 90
      255
102
RTVSPost2010PropOp44
 70
     0
102
RTVSPost2010Prop45
280
     0
102
RTVSPost2010PropOp45
 70
     1
102
RTVSPost2010Prop46
 90
       50
102
RTVSPost2010PropOp46
 70
     0
102
RTVSPost2010Prop47
 90
       50
102
RTVSPost2010PropOp47
 70
     0
102
RTVSPost2010Prop48
 90
       50
102
RTVSPost2010PropOp48
 70
     0
102
RTVSPost2010Prop49
280
     0
102
RTVSPost2010PropOp49
 70
     1
102
RTVSPost2010Prop50
 90
       50
102
RTVSPost2010PropOp50
 70
     0
102
RTVSPost2010Prop51ColorIndex
 90
      256
102
RTVSPost2010Prop51ColorRGB
 90
-16777216
102
RTVSPost2010PropOp51
 70
     0
102
RTVSPost2010Prop52
140
1.0
102
RTVSPost2010PropOp52
 70
     0
102
RTVSPost2010Prop53
 90
        2
102
RTVSPost2010PropOp53
 70
     0
102
RTVSPost2010Prop54
  1
strokes_ogs.tif
102
RTVSPost2010PropOp54
 70
     0
102
RTVSPost2010Prop55
280
     0
102
RTVSPost2010PropOp55
 70
     1
102
RTVSPost2010Prop56
140
1.0
102
RTVSPost2010PropOp56
 70
     0
102
RTVSPost2010Prop57
140
1.0
102
RTVSPost2010PropOp57
 70
     0
102
RTVSPropertyOp0
 70
     0
102
RTVSPropertyOp1
 70
     0
102
RTVSPropertyOp2
 70
     0
102
RTVSPropertyOp3
 70
     0
102
RTVSPropertyOp4
 70
     0
102
RTVSPropertyOp5
 70
     0
102
RTVSPropertyOp6
 70
     0
102
RTVSPropertyOp7
 70
     0
102
RTVSPropertyOp8
 70
     0
102
RTVSPropertyOp9
 70
     0
102
RTVSPropertyOp10
 70
     0
102
RTVSPropertyOp11
 70
     0
102
RTVSPropertyOp12
 70
     0
102
RTVSPropertyOp13
 70
     0
102
RTVSPropertyOp14
 70
     2
102
RTVSPropertyOp15
 70
     0
102
RTVSPropertyOp16
 70
     0
102
RTVSPropertyOp17
 70
     0
102
RTVSPropertyOp18
 70
     0
102
RTVSPropertyOp19
 70
     0
102
RTVSPropertyOp20
 70
     0
102
RTVSPropertyOp21
 70
     0
102
RTVSPropertyOp22
 70
     0
102
RTVSPropertyOp23
 70
     0
102
RTVSPropertyOp24
 70
     0
102
RTVSPropertyOp25
 70
     0
102
RTVSPropertyOp26
 70
     0
102
RTVSPropertyOp27
 70
     0
102
RTVSPropertyOp28
 70
     1
102
RTVSPropertyOp29
 70
     1
102
RTVSPropertyOp30
 70
     1
102
RTVSPropertyOp31
 70
     1
102
RTVSPropertyOp32
 70
     1
102
RTVSPropertyOp33
 70
     1
102
RTVSPropertyOp34
 70
     1
102
RTVSPropertyOp35
 70
     1
102
RTVSPropertyOp36
 70
     1
102
RTVSPropertyOp37
 70
     0
102
RTVSPropertyOp38
 70
     0
102
RTVSPropertyOp39
 70
     0
102
RTVSPropertyOp40
 70
     0
102
RTVSPropertyOp41
 70
     0
102
RTVSPropertyOp42
 70
     0
102
RTVSPropertyOp43
 70
     0
102
RTVSPropertyOp44
 70
     0
102
RTVSPropertyOp45
 70
     1
102
RTVSPropertyOp46
 70
     0
102
RTVSPropertyOp47
 70
     0
102
RTVSPropertyOp48
 70
     0
102
RTVSPropertyOp49
 70
     1
102
RTVSPropertyOp50
 70
     0
102
RTVSPropertyOp51
 70
     0
102
RTVSPropertyOp52
 70
     0
102
RTVSPropertyOp53
 70
     0
102
RTVSPropertyOp54
 70
     0
102
RTVSPropertyOp55
 70
     1
102
RTVSPropertyOp56
 70
     0
102
RTVSPropertyOp57
 70
     0
102
RTVSPropertyOp58
 70
     0
102
RTVSPropertyOp59
 70
     0
102
RTVSPropertyOp60
 70
     0
102
RTVSPropertyOp61
 70
     0
102
RTVSPropertyOp62
 70
     0
  0
XRECORD
  5
9A89
102
{ACAD_REACTORS
330
9A88
102
}
330
9A88
100
AcDbXrecord
280
     1
102
RTVSPost2010Prop28
280
     0
102
RTVSPost2010PropOp28
 70
     1
102
RTVSPost2010Prop29
280
     1
102
RTVSPost2010PropOp29
 70
     1
102
RTVSPost2010Prop30
280
     1
102
RTVSPost2010PropOp30
 70
     1
102
RTVSPost2010Prop31
280
     0
102
RTVSPost2010PropOp31
 70
     1
102
RTVSPost2010Prop32
280
     0
102
RTVSPost2010PropOp32
 70
     1
102
RTVSPost2010Prop33
280
     0
102
RTVSPost2010PropOp33
 70
     1
102
RTVSPost2010Prop34
280
     0
102
RTVSPost2010PropOp34
 70
     1
102
RTVSPost2010Prop35
280
     0
102
RTVSPost2010PropOp35
 70
     1
102
RTVSPost2010Prop36
280
     0
102
RTVSPost2010PropOp36
 70
     1
102
RTVSPost2010Prop37
 90
       50
102
RTVSPost2010PropOp37
 70
     1
102
RTVSPost2010Prop38
140
0.0
102
RTVSPost2010PropOp38
 70
     1
102
RTVSPost2010Prop39
140
1.0
102
RTVSPost2010PropOp39
 70
     1
102
RTVSPost2010Prop40
 90
        0
102
RTVSPost2010PropOp40
 70
     1
102
RTVSPost2010Prop41ColorIndex
 90
       18
102
RTVSPost2010Prop41ColorRGB
 90
        0
102
RTVSPost2010PropOp41
 70
     1
102
RTVSPost2010Prop42
 90
       50
102
RTVSPost2010PropOp42
 70
     1
102
RTVSPost2010Prop43
 90
        3
102
RTVSPost2010PropOp43
 70
     1
102
RTVSPost2010Prop44ColorIndex
 90
        5
102
RTVSPost2010Prop44ColorRGB
 90
      255
102
RTVSPost2010PropOp44
 70
     1
102
RTVSPost2010Prop45
280
     0
102
RTVSPost2010PropOp45
 70
     1
102
RTVSPost2010Prop46
 90
       50
102
RTVSPost2010PropOp46
 70
     1
102
RTVSPost2010Prop47
 90
       50
102
RTVSPost2010PropOp47
 70
     1
102
RTVSPost2010Prop48
 90
       50
102
RTVSPost2010PropOp48
 70
     1
102
RTVSPost2010Prop49
280
     0
102
RTVSPost2010PropOp49
 70
     1
102
RTVSPost2010Prop50
 90
       50
102
RTVSPost2010PropOp50
 70
     1
102
RTVSPost2010Prop51ColorIndex
 90
      256
102
RTVSPost2010Prop51ColorRGB
 90
-16777216
102
RTVSPost2010PropOp51
 70
     0
102
RTVSPost2010Prop52
140
1.0
102
RTVSPost2010PropOp52
 70
     0
102
RTVSPost2010Prop53
 90
        2
102
RTVSPost2010PropOp53
 70
     1
102
RTVSPost2010Prop54
  1
strokes_ogs.tif
102
RTVSPost2010PropOp54
 70
     1
102
RTVSPost2010Prop55
280
     0
102
RTVSPost2010PropOp55
 70
     1
102
RTVSPost2010Prop56
140
1.0
102
RTVSPost2010PropOp56
 70
     1
102
RTVSPost2010Prop57
140
1.0
102
RTVSPost2010PropOp57
 70
     1
102
RTVSPropertyOp0
 70
     1
102
RTVSPropertyOp1
 70
     1
102
RTVSPropertyOp2
 70
     1
102
RTVSPropertyOp3
 70
     1
102
RTVSPropertyOp4
 70
     1
102
RTVSPropertyOp5
 70
     1
102
RTVSPropertyOp6
 70
     1
102
RTVSPropertyOp7
 70
     1
102
RTVSPropertyOp8
 70
     1
102
RTVSPropertyOp9
 70
     1
102
RTVSPropertyOp10
 70
     1
102
RTVSPropertyOp11
 70
     1
102
RTVSPropertyOp12
 70
     1
102
RTVSPropertyOp13
 70
     1
102
RTVSPropertyOp14
 70
     1
102
RTVSPropertyOp15
 70
     1
102
RTVSPropertyOp16
 70
     1
102
RTVSPropertyOp17
 70
     1
102
RTVSPropertyOp18
 70
     1
102
RTVSPropertyOp19
 70
     1
102
RTVSPropertyOp20
 70
     1
102
RTVSPropertyOp21
 70
     1
102
RTVSPropertyOp22
 70
     1
102
RTVSPropertyOp23
 70
     1
102
RTVSPropertyOp24
 70
     1
102
RTVSPropertyOp25
 70
     1
102
RTVSPropertyOp26
 70
     1
102
RTVSPropertyOp27
 70
     1
102
RTVSPropertyOp28
 70
     1
102
RTVSPropertyOp29
 70
     1
102
RTVSPropertyOp30
 70
     1
102
RTVSPropertyOp31
 70
     1
102
RTVSPropertyOp32
 70
     1
102
RTVSPropertyOp33
 70
     1
102
RTVSPropertyOp34
 70
     1
102
RTVSPropertyOp35
 70
     1
102
RTVSPropertyOp36
 70
     1
102
RTVSPropertyOp37
 70
     1
102
RTVSPropertyOp38
 70
     1
102
RTVSPropertyOp39
 70
     1
102
RTVSPropertyOp40
 70
     1
102
RTVSPropertyOp41
 70
     1
102
RTVSPropertyOp42
 70
     1
102
RTVSPropertyOp43
 70
     1
102
RTVSPropertyOp44
 70
     1
102
RTVSPropertyOp45
 70
     1
102
RTVSPropertyOp46
 70
     1
102
RTVSPropertyOp47
 70
     1
102
RTVSPropertyOp48
 70
     1
102
RTVSPropertyOp49
 70
     1
102
RTVSPropertyOp50
 70
     1
102
RTVSPropertyOp51
 70
     0
102
RTVSPropertyOp52
 70
     0
102
RTVSPropertyOp53
 70
     1
102
RTVSPropertyOp54
 70
     1
102
RTVSPropertyOp55
 70
     1
102
RTVSPropertyOp56
 70
     1
102
RTVSPropertyOp57
 70
     1
102
RTVSPropertyOp58
 70
     1
102
RTVSPropertyOp59
 70
     1
102
RTVSPropertyOp60
 70
     1
102
RTVSPropertyOp61
 70
     1
102
RTVSPropertyOp62
 70
     1
  0
XRECORD
  5
9A6D
102
{ACAD_REACTORS
330
9A6C
102
}
330
9A6C
100
AcDbXrecord
280
     1
102
RTVSPost2010Prop28
280
     0
102
RTVSPost2010PropOp28
 70
     1
102
RTVSPost2010Prop29
280
     1
102
RTVSPost2010PropOp29
 70
     1
102
RTVSPost2010Prop30
280
     1
102
RTVSPost2010PropOp30
 70
     1
102
RTVSPost2010Prop31
280
     0
102
RTVSPost2010PropOp31
 70
     1
102
RTVSPost2010Prop32
280
     0
102
RTVSPost2010PropOp32
 70
     1
102
RTVSPost2010Prop33
280
     0
102
RTVSPost2010PropOp33
 70
     1
102
RTVSPost2010Prop34
280
     0
102
RTVSPost2010PropOp34
 70
     1
102
RTVSPost2010Prop35
280
     0
102
RTVSPost2010PropOp35
 70
     1
102
RTVSPost2010Prop36
280
     0
102
RTVSPost2010PropOp36
 70
     1
102
RTVSPost2010Prop37
 90
       50
102
RTVSPost2010PropOp37
 70
     1
102
RTVSPost2010Prop38
140
0.0
102
RTVSPost2010PropOp38
 70
     1
102
RTVSPost2010Prop39
140
1.0
102
RTVSPost2010PropOp39
 70
     1
102
RTVSPost2010Prop40
 90
        0
102
RTVSPost2010PropOp40
 70
     1
102
RTVSPost2010Prop41ColorIndex
 90
       18
102
RTVSPost2010Prop41ColorRGB
 90
        0
102
RTVSPost2010PropOp41
 70
     1
102
RTVSPost2010Prop42
 90
       50
102
RTVSPost2010PropOp42
 70
     1
102
RTVSPost2010Prop43
 90
        3
102
RTVSPost2010PropOp43
 70
     1
102
RTVSPost2010Prop44ColorIndex
 90
        5
102
RTVSPost2010Prop44ColorRGB
 90
      255
102
RTVSPost2010PropOp44
 70
     1
102
RTVSPost2010Prop45
280
     0
102
RTVSPost2010PropOp45
 70
     1
102
RTVSPost2010Prop46
 90
       50
102
RTVSPost2010PropOp46
 70
     1
102
RTVSPost2010Prop47
 90
       50
102
RTVSPost2010PropOp47
 70
     1
102
RTVSPost2010Prop48
 90
       50
102
RTVSPost2010PropOp48
 70
     1
102
RTVSPost2010Prop49
280
     0
102
RTVSPost2010PropOp49
 70
     1
102
RTVSPost2010Prop50
 90
       50
102
RTVSPost2010PropOp50
 70
     1
102
RTVSPost2010Prop51ColorIndex
 90
      256
102
RTVSPost2010Prop51ColorRGB
 90
-16777216
102
RTVSPost2010PropOp51
 70
     0
102
RTVSPost2010Prop52
140
1.0
102
RTVSPost2010PropOp52
 70
     0
102
RTVSPost2010Prop53
 90
        2
102
RTVSPost2010PropOp53
 70
     1
102
RTVSPost2010Prop54
  1
strokes_ogs.tif
102
RTVSPost2010PropOp54
 70
     1
102
RTVSPost2010Prop55
280
     0
102
RTVSPost2010PropOp55
 70
     1
102
RTVSPost2010Prop56
140
1.0
102
RTVSPost2010PropOp56
 70
     1
102
RTVSPost2010Prop57
140
1.0
102
RTVSPost2010PropOp57
 70
     1
102
RTVSPropertyOp0
 70
     1
102
RTVSPropertyOp1
 70
     1
102
RTVSPropertyOp2
 70
     1
102
RTVSPropertyOp3
 70
     1
102
RTVSPropertyOp4
 70
     1
102
RTVSPropertyOp5
 70
     1
102
RTVSPropertyOp6
 70
     1
102
RTVSPropertyOp7
 70
     1
102
RTVSPropertyOp8
 70
     1
102
RTVSPropertyOp9
 70
     1
102
RTVSPropertyOp10
 70
     1
102
RTVSPropertyOp11
 70
     1
102
RTVSPropertyOp12
 70
     1
102
RTVSPropertyOp13
 70
     1
102
RTVSPropertyOp14
 70
     1
102
RTVSPropertyOp15
 70
     1
102
RTVSPropertyOp16
 70
     1
102
RTVSPropertyOp17
 70
     1
102
RTVSPropertyOp18
 70
     1
102
RTVSPropertyOp19
 70
     1
102
RTVSPropertyOp20
 70
     1
102
RTVSPropertyOp21
 70
     1
102
RTVSPropertyOp22
 70
     1
102
RTVSPropertyOp23
 70
     1
102
RTVSPropertyOp24
 70
     1
102
RTVSPropertyOp25
 70
     1
102
RTVSPropertyOp26
 70
     1
102
RTVSPropertyOp27
 70
     1
102
RTVSPropertyOp28
 70
     1
102
RTVSPropertyOp29
 70
     1
102
RTVSPropertyOp30
 70
     1
102
RTVSPropertyOp31
 70
     1
102
RTVSPropertyOp32
 70
     1
102
RTVSPropertyOp33
 70
     1
102
RTVSPropertyOp34
 70
     1
102
RTVSPropertyOp35
 70
     1
102
RTVSPropertyOp36
 70
     1
102
RTVSPropertyOp37
 70
     1
102
RTVSPropertyOp38
 70
     1
102
RTVSPropertyOp39
 70
     1
102
RTVSPropertyOp40
 70
     1
102
RTVSPropertyOp41
 70
     1
102
RTVSPropertyOp42
 70
     1
102
RTVSPropertyOp43
 70
     1
102
RTVSPropertyOp44
 70
     1
102
RTVSPropertyOp45
 70
     1
102
RTVSPropertyOp46
 70
     1
102
RTVSPropertyOp47
 70
     1
102
RTVSPropertyOp48
 70
     1
102
RTVSPropertyOp49
 70
     1
102
RTVSPropertyOp50
 70
     1
102
RTVSPropertyOp51
 70
     0
102
RTVSPropertyOp52
 70
     0
102
RTVSPropertyOp53
 70
     1
102
RTVSPropertyOp54
 70
     1
102
RTVSPropertyOp55
 70
     1
102
RTVSPropertyOp56
 70
     1
102
RTVSPropertyOp57
 70
     1
102
RTVSPropertyOp58
 70
     1
102
RTVSPropertyOp59
 70
     1
102
RTVSPropertyOp60
 70
     1
102
RTVSPropertyOp61
 70
     1
102
RTVSPropertyOp62
 70
     1
  0
XRECORD
  5
9A6F
102
{ACAD_REACTORS
330
9A6E
102
}
330
9A6E
100
AcDbXrecord
280
     1
102
RTVSPost2010Prop28
280
     0
102
RTVSPost2010PropOp28
 70
     1
102
RTVSPost2010Prop29
280
     1
102
RTVSPost2010PropOp29
 70
     1
102
RTVSPost2010Prop30
280
     1
102
RTVSPost2010PropOp30
 70
     1
102
RTVSPost2010Prop31
280
     0
102
RTVSPost2010PropOp31
 70
     1
102
RTVSPost2010Prop32
280
     0
102
RTVSPost2010PropOp32
 70
     1
102
RTVSPost2010Prop33
280
     0
102
RTVSPost2010PropOp33
 70
     1
102
RTVSPost2010Prop34
280
     0
102
RTVSPost2010PropOp34
 70
     1
102
RTVSPost2010Prop35
280
     0
102
RTVSPost2010PropOp35
 70
     1
102
RTVSPost2010Prop36
280
     0
102
RTVSPost2010PropOp36
 70
     1
102
RTVSPost2010Prop37
 90
       50
102
RTVSPost2010PropOp37
 70
     1
102
RTVSPost2010Prop38
140
0.0
102
RTVSPost2010PropOp38
 70
     1
102
RTVSPost2010Prop39
140
1.0
102
RTVSPost2010PropOp39
 70
     1
102
RTVSPost2010Prop40
 90
        0
102
RTVSPost2010PropOp40
 70
     1
102
RTVSPost2010Prop41ColorIndex
 90
       18
102
RTVSPost2010Prop41ColorRGB
 90
        0
102
RTVSPost2010PropOp41
 70
     1
102
RTVSPost2010Prop42
 90
       50
102
RTVSPost2010PropOp42
 70
     1
102
RTVSPost2010Prop43
 90
        3
102
RTVSPost2010PropOp43
 70
     1
102
RTVSPost2010Prop44ColorIndex
 90
        5
102
RTVSPost2010Prop44ColorRGB
 90
      255
102
RTVSPost2010PropOp44
 70
     1
102
RTVSPost2010Prop45
280
     0
102
RTVSPost2010PropOp45
 70
     1
102
RTVSPost2010Prop46
 90
       50
102
RTVSPost2010PropOp46
 70
     1
102
RTVSPost2010Prop47
 90
       50
102
RTVSPost2010PropOp47
 70
     1
102
RTVSPost2010Prop48
 90
       50
102
RTVSPost2010PropOp48
 70
     1
102
RTVSPost2010Prop49
280
     0
102
RTVSPost2010PropOp49
 70
     1
102
RTVSPost2010Prop50
 90
       50
102
RTVSPost2010PropOp50
 70
     1
102
RTVSPost2010Prop51ColorIndex
 90
      256
102
RTVSPost2010Prop51ColorRGB
 90
-16777216
102
RTVSPost2010PropOp51
 70
     0
102
RTVSPost2010Prop52
140
1.0
102
RTVSPost2010PropOp52
 70
     0
102
RTVSPost2010Prop53
 90
        2
102
RTVSPost2010PropOp53
 70
     1
102
RTVSPost2010Prop54
  1
strokes_ogs.tif
102
RTVSPost2010PropOp54
 70
     1
102
RTVSPost2010Prop55
280
     0
102
RTVSPost2010PropOp55
 70
     1
102
RTVSPost2010Prop56
140
1.0
102
RTVSPost2010PropOp56
 70
     1
102
RTVSPost2010Prop57
140
1.0
102
RTVSPost2010PropOp57
 70
     1
102
RTVSPropertyOp0
 70
     1
102
RTVSPropertyOp1
 70
     1
102
RTVSPropertyOp2
 70
     1
102
RTVSPropertyOp3
 70
     1
102
RTVSPropertyOp4
 70
     1
102
RTVSPropertyOp5
 70
     1
102
RTVSPropertyOp6
 70
     1
102
RTVSPropertyOp7
 70
     1
102
RTVSPropertyOp8
 70
     1
102
RTVSPropertyOp9
 70
     1
102
RTVSPropertyOp10
 70
     1
102
RTVSPropertyOp11
 70
     1
102
RTVSPropertyOp12
 70
     1
102
RTVSPropertyOp13
 70
     1
102
RTVSPropertyOp14
 70
     1
102
RTVSPropertyOp15
 70
     1
102
RTVSPropertyOp16
 70
     1
102
RTVSPropertyOp17
 70
     1
102
RTVSPropertyOp18
 70
     1
102
RTVSPropertyOp19
 70
     1
102
RTVSPropertyOp20
 70
     1
102
RTVSPropertyOp21
 70
     1
102
RTVSPropertyOp22
 70
     1
102
RTVSPropertyOp23
 70
     1
102
RTVSPropertyOp24
 70
     1
102
RTVSPropertyOp25
 70
     1
102
RTVSPropertyOp26
 70
     1
102
RTVSPropertyOp27
 70
     1
102
RTVSPropertyOp28
 70
     1
102
RTVSPropertyOp29
 70
     1
102
RTVSPropertyOp30
 70
     1
102
RTVSPropertyOp31
 70
     1
102
RTVSPropertyOp32
 70
     1
102
RTVSPropertyOp33
 70
     1
102
RTVSPropertyOp34
 70
     1
102
RTVSPropertyOp35
 70
     1
102
RTVSPropertyOp36
 70
     1
102
RTVSPropertyOp37
 70
     1
102
RTVSPropertyOp38
 70
     1
102
RTVSPropertyOp39
 70
     1
102
RTVSPropertyOp40
 70
     1
102
RTVSPropertyOp41
 70
     1
102
RTVSPropertyOp42
 70
     1
102
RTVSPropertyOp43
 70
     1
102
RTVSPropertyOp44
 70
     1
102
RTVSPropertyOp45
 70
     1
102
RTVSPropertyOp46
 70
     1
102
RTVSPropertyOp47
 70
     1
102
RTVSPropertyOp48
 70
     1
102
RTVSPropertyOp49
 70
     1
102
RTVSPropertyOp50
 70
     1
102
RTVSPropertyOp51
 70
     0
102
RTVSPropertyOp52
 70
     0
102
RTVSPropertyOp53
 70
     1
102
RTVSPropertyOp54
 70
     1
102
RTVSPropertyOp55
 70
     1
102
RTVSPropertyOp56
 70
     1
102
RTVSPropertyOp57
 70
     1
102
RTVSPropertyOp58
 70
     1
102
RTVSPropertyOp59
 70
     1
102
RTVSPropertyOp60
 70
     1
102
RTVSPropertyOp61
 70
     1
102
RTVSPropertyOp62
 70
     1
  0
XRECORD
  5
9A71
102
{ACAD_REACTORS
330
9A70
102
}
330
9A70
100
AcDbXrecord
280
     1
102
RTVSPost2010Prop28
280
     0
102
RTVSPost2010PropOp28
 70
     1
102
RTVSPost2010Prop29
280
     1
102
RTVSPost2010PropOp29
 70
     1
102
RTVSPost2010Prop30
280
     1
102
RTVSPost2010PropOp30
 70
     1
102
RTVSPost2010Prop31
280
     0
102
RTVSPost2010PropOp31
 70
     1
102
RTVSPost2010Prop32
280
     0
102
RTVSPost2010PropOp32
 70
     1
102
RTVSPost2010Prop33
280
     0
102
RTVSPost2010PropOp33
 70
     1
102
RTVSPost2010Prop34
280
     0
102
RTVSPost2010PropOp34
 70
     1
102
RTVSPost2010Prop35
280
     0
102
RTVSPost2010PropOp35
 70
     1
102
RTVSPost2010Prop36
280
     0
102
RTVSPost2010PropOp36
 70
     1
102
RTVSPost2010Prop37
 90
       50
102
RTVSPost2010PropOp37
 70
     1
102
RTVSPost2010Prop38
140
0.0
102
RTVSPost2010PropOp38
 70
     1
102
RTVSPost2010Prop39
140
1.0
102
RTVSPost2010PropOp39
 70
     1
102
RTVSPost2010Prop40
 90
        0
102
RTVSPost2010PropOp40
 70
     1
102
RTVSPost2010Prop41ColorIndex
 90
       18
102
RTVSPost2010Prop41ColorRGB
 90
        0
102
RTVSPost2010PropOp41
 70
     1
102
RTVSPost2010Prop42
 90
       50
102
RTVSPost2010PropOp42
 70
     1
102
RTVSPost2010Prop43
 90
        3
102
RTVSPost2010PropOp43
 70
     1
102
RTVSPost2010Prop44ColorIndex
 90
        5
102
RTVSPost2010Prop44ColorRGB
 90
      255
102
RTVSPost2010PropOp44
 70
     1
102
RTVSPost2010Prop45
280
     0
102
RTVSPost2010PropOp45
 70
     1
102
RTVSPost2010Prop46
 90
       50
102
RTVSPost2010PropOp46
 70
     1
102
RTVSPost2010Prop47
 90
       50
102
RTVSPost2010PropOp47
 70
     1
102
RTVSPost2010Prop48
 90
       50
102
RTVSPost2010PropOp48
 70
     1
102
RTVSPost2010Prop49
280
     0
102
RTVSPost2010PropOp49
 70
     1
102
RTVSPost2010Prop50
 90
       50
102
RTVSPost2010PropOp50
 70
     1
102
RTVSPost2010Prop51ColorIndex
 90
      256
102
RTVSPost2010Prop51ColorRGB
 90
-16777216
102
RTVSPost2010PropOp51
 70
     0
102
RTVSPost2010Prop52
140
1.0
102
RTVSPost2010PropOp52
 70
     0
102
RTVSPost2010Prop53
 90
        2
102
RTVSPost2010PropOp53
 70
     1
102
RTVSPost2010Prop54
  1
strokes_ogs.tif
102
RTVSPost2010PropOp54
 70
     1
102
RTVSPost2010Prop55
280
     0
102
RTVSPost2010PropOp55
 70
     1
102
RTVSPost2010Prop56
140
1.0
102
RTVSPost2010PropOp56
 70
     1
102
RTVSPost2010Prop57
140
1.0
102
RTVSPost2010PropOp57
 70
     1
102
RTVSPropertyOp0
 70
     1
102
RTVSPropertyOp1
 70
     1
102
RTVSPropertyOp2
 70
     1
102
RTVSPropertyOp3
 70
     1
102
RTVSPropertyOp4
 70
     1
102
RTVSPropertyOp5
 70
     1
102
RTVSPropertyOp6
 70
     1
102
RTVSPropertyOp7
 70
     1
102
RTVSPropertyOp8
 70
     1
102
RTVSPropertyOp9
 70
     1
102
RTVSPropertyOp10
 70
     1
102
RTVSPropertyOp11
 70
     1
102
RTVSPropertyOp12
 70
     1
102
RTVSPropertyOp13
 70
     1
102
RTVSPropertyOp14
 70
     1
102
RTVSPropertyOp15
 70
     1
102
RTVSPropertyOp16
 70
     1
102
RTVSPropertyOp17
 70
     1
102
RTVSPropertyOp18
 70
     1
102
RTVSPropertyOp19
 70
     1
102
RTVSPropertyOp20
 70
     1
102
RTVSPropertyOp21
 70
     1
102
RTVSPropertyOp22
 70
     1
102
RTVSPropertyOp23
 70
     1
102
RTVSPropertyOp24
 70
     1
102
RTVSPropertyOp25
 70
     1
102
RTVSPropertyOp26
 70
     1
102
RTVSPropertyOp27
 70
     1
102
RTVSPropertyOp28
 70
     1
102
RTVSPropertyOp29
 70
     1
102
RTVSPropertyOp30
 70
     1
102
RTVSPropertyOp31
 70
     1
102
RTVSPropertyOp32
 70
     1
102
RTVSPropertyOp33
 70
     1
102
RTVSPropertyOp34
 70
     1
102
RTVSPropertyOp35
 70
     1
102
RTVSPropertyOp36
 70
     1
102
RTVSPropertyOp37
 70
     1
102
RTVSPropertyOp38
 70
     1
102
RTVSPropertyOp39
 70
     1
102
RTVSPropertyOp40
 70
     1
102
RTVSPropertyOp41
 70
     1
102
RTVSPropertyOp42
 70
     1
102
RTVSPropertyOp43
 70
     1
102
RTVSPropertyOp44
 70
     1
102
RTVSPropertyOp45
 70
     1
102
RTVSPropertyOp46
 70
     1
102
RTVSPropertyOp47
 70
     1
102
RTVSPropertyOp48
 70
     1
102
RTVSPropertyOp49
 70
     1
102
RTVSPropertyOp50
 70
     1
102
RTVSPropertyOp51
 70
     0
102
RTVSPropertyOp52
 70
     0
102
RTVSPropertyOp53
 70
     1
102
RTVSPropertyOp54
 70
     1
102
RTVSPropertyOp55
 70
     1
102
RTVSPropertyOp56
 70
     1
102
RTVSPropertyOp57
 70
     1
102
RTVSPropertyOp58
 70
     1
102
RTVSPropertyOp59
 70
     1
102
RTVSPropertyOp60
 70
     1
102
RTVSPropertyOp61
 70
     1
102
RTVSPropertyOp62
 70
     1
  0
XRECORD
  5
9A73
102
{ACAD_REACTORS
330
9A72
102
}
330
9A72
100
AcDbXrecord
280
     1
102
RTVSPost2010Prop28
280
     0
102
RTVSPost2010PropOp28
 70
     1
102
RTVSPost2010Prop29
280
     1
102
RTVSPost2010PropOp29
 70
     1
102
RTVSPost2010Prop30
280
     1
102
RTVSPost2010PropOp30
 70
     1
102
RTVSPost2010Prop31
280
     0
102
RTVSPost2010PropOp31
 70
     1
102
RTVSPost2010Prop32
280
     0
102
RTVSPost2010PropOp32
 70
     1
102
RTVSPost2010Prop33
280
     0
102
RTVSPost2010PropOp33
 70
     1
102
RTVSPost2010Prop34
280
     0
102
RTVSPost2010PropOp34
 70
     1
102
RTVSPost2010Prop35
280
     0
102
RTVSPost2010PropOp35
 70
     1
102
RTVSPost2010Prop36
280
     0
102
RTVSPost2010PropOp36
 70
     1
102
RTVSPost2010Prop37
 90
       50
102
RTVSPost2010PropOp37
 70
     1
102
RTVSPost2010Prop38
140
0.0
102
RTVSPost2010PropOp38
 70
     1
102
RTVSPost2010Prop39
140
1.0
102
RTVSPost2010PropOp39
 70
     1
102
RTVSPost2010Prop40
 90
        0
102
RTVSPost2010PropOp40
 70
     1
102
RTVSPost2010Prop41ColorIndex
 90
       18
102
RTVSPost2010Prop41ColorRGB
 90
        0
102
RTVSPost2010PropOp41
 70
     1
102
RTVSPost2010Prop42
 90
       50
102
RTVSPost2010PropOp42
 70
     1
102
RTVSPost2010Prop43
 90
        3
102
RTVSPost2010PropOp43
 70
     1
102
RTVSPost2010Prop44ColorIndex
 90
        5
102
RTVSPost2010Prop44ColorRGB
 90
      255
102
RTVSPost2010PropOp44
 70
     1
102
RTVSPost2010Prop45
280
     0
102
RTVSPost2010PropOp45
 70
     1
102
RTVSPost2010Prop46
 90
       50
102
RTVSPost2010PropOp46
 70
     1
102
RTVSPost2010Prop47
 90
       50
102
RTVSPost2010PropOp47
 70
     1
102
RTVSPost2010Prop48
 90
       50
102
RTVSPost2010PropOp48
 70
     1
102
RTVSPost2010Prop49
280
     0
102
RTVSPost2010PropOp49
 70
     1
102
RTVSPost2010Prop50
 90
       50
102
RTVSPost2010PropOp50
 70
     1
102
RTVSPost2010Prop51ColorIndex
 90
      256
102
RTVSPost2010Prop51ColorRGB
 90
-16777216
102
RTVSPost2010PropOp51
 70
     0
102
RTVSPost2010Prop52
140
1.0
102
RTVSPost2010PropOp52
 70
     0
102
RTVSPost2010Prop53
 90
        2
102
RTVSPost2010PropOp53
 70
     1
102
RTVSPost2010Prop54
  1
strokes_ogs.tif
102
RTVSPost2010PropOp54
 70
     1
102
RTVSPost2010Prop55
280
     0
102
RTVSPost2010PropOp55
 70
     1
102
RTVSPost2010Prop56
140
1.0
102
RTVSPost2010PropOp56
 70
     1
102
RTVSPost2010Prop57
140
1.0
102
RTVSPost2010PropOp57
 70
     1
102
RTVSPropertyOp0
 70
     1
102
RTVSPropertyOp1
 70
     1
102
RTVSPropertyOp2
 70
     1
102
RTVSPropertyOp3
 70
     1
102
RTVSPropertyOp4
 70
     1
102
RTVSPropertyOp5
 70
     1
102
RTVSPropertyOp6
 70
     1
102
RTVSPropertyOp7
 70
     1
102
RTVSPropertyOp8
 70
     1
102
RTVSPropertyOp9
 70
     1
102
RTVSPropertyOp10
 70
     1
102
RTVSPropertyOp11
 70
     1
102
RTVSPropertyOp12
 70
     1
102
RTVSPropertyOp13
 70
     1
102
RTVSPropertyOp14
 70
     1
102
RTVSPropertyOp15
 70
     1
102
RTVSPropertyOp16
 70
     1
102
RTVSPropertyOp17
 70
     1
102
RTVSPropertyOp18
 70
     1
102
RTVSPropertyOp19
 70
     1
102
RTVSPropertyOp20
 70
     1
102
RTVSPropertyOp21
 70
     1
102
RTVSPropertyOp22
 70
     1
102
RTVSPropertyOp23
 70
     1
102
RTVSPropertyOp24
 70
     1
102
RTVSPropertyOp25
 70
     1
102
RTVSPropertyOp26
 70
     1
102
RTVSPropertyOp27
 70
     1
102
RTVSPropertyOp28
 70
     1
102
RTVSPropertyOp29
 70
     1
102
RTVSPropertyOp30
 70
     1
102
RTVSPropertyOp31
 70
     1
102
RTVSPropertyOp32
 70
     1
102
RTVSPropertyOp33
 70
     1
102
RTVSPropertyOp34
 70
     1
102
RTVSPropertyOp35
 70
     1
102
RTVSPropertyOp36
 70
     1
102
RTVSPropertyOp37
 70
     1
102
RTVSPropertyOp38
 70
     1
102
RTVSPropertyOp39
 70
     1
102
RTVSPropertyOp40
 70
     1
102
RTVSPropertyOp41
 70
     1
102
RTVSPropertyOp42
 70
     1
102
RTVSPropertyOp43
 70
     1
102
RTVSPropertyOp44
 70
     1
102
RTVSPropertyOp45
 70
     1
102
RTVSPropertyOp46
 70
     1
102
RTVSPropertyOp47
 70
     1
102
RTVSPropertyOp48
 70
     1
102
RTVSPropertyOp49
 70
     1
102
RTVSPropertyOp50
 70
     1
102
RTVSPropertyOp51
 70
     0
102
RTVSPropertyOp52
 70
     0
102
RTVSPropertyOp53
 70
     1
102
RTVSPropertyOp54
 70
     1
102
RTVSPropertyOp55
 70
     1
102
RTVSPropertyOp56
 70
     1
102
RTVSPropertyOp57
 70
     1
102
RTVSPropertyOp58
 70
     1
102
RTVSPropertyOp59
 70
     1
102
RTVSPropertyOp60
 70
     1
102
RTVSPropertyOp61
 70
     1
102
RTVSPropertyOp62
 70
     1
  0
XRECORD
  5
9A7B
102
{ACAD_REACTORS
330
9A7A
102
}
330
9A7A
100
AcDbXrecord
280
     1
102
RTVSPost2010Prop28
280
     0
102
RTVSPost2010PropOp28
 70
     1
102
RTVSPost2010Prop29
280
     1
102
RTVSPost2010PropOp29
 70
     1
102
RTVSPost2010Prop30
280
     1
102
RTVSPost2010PropOp30
 70
     1
102
RTVSPost2010Prop31
280
     0
102
RTVSPost2010PropOp31
 70
     1
102
RTVSPost2010Prop32
280
     0
102
RTVSPost2010PropOp32
 70
     1
102
RTVSPost2010Prop33
280
     0
102
RTVSPost2010PropOp33
 70
     1
102
RTVSPost2010Prop34
280
     0
102
RTVSPost2010PropOp34
 70
     1
102
RTVSPost2010Prop35
280
     0
102
RTVSPost2010PropOp35
 70
     1
102
RTVSPost2010Prop36
280
     0
102
RTVSPost2010PropOp36
 70
     1
102
RTVSPost2010Prop37
 90
       50
102
RTVSPost2010PropOp37
 70
     1
102
RTVSPost2010Prop38
140
0.0
102
RTVSPost2010PropOp38
 70
     1
102
RTVSPost2010Prop39
140
1.0
102
RTVSPost2010PropOp39
 70
     1
102
RTVSPost2010Prop40
 90
        0
102
RTVSPost2010PropOp40
 70
     1
102
RTVSPost2010Prop41ColorIndex
 90
       18
102
RTVSPost2010Prop41ColorRGB
 90
        0
102
RTVSPost2010PropOp41
 70
     1
102
RTVSPost2010Prop42
 90
       50
102
RTVSPost2010PropOp42
 70
     1
102
RTVSPost2010Prop43
 90
        3
102
RTVSPost2010PropOp43
 70
     1
102
RTVSPost2010Prop44ColorIndex
 90
        5
102
RTVSPost2010Prop44ColorRGB
 90
      255
102
RTVSPost2010PropOp44
 70
     1
102
RTVSPost2010Prop45
280
     0
102
RTVSPost2010PropOp45
 70
     1
102
RTVSPost2010Prop46
 90
       50
102
RTVSPost2010PropOp46
 70
     1
102
RTVSPost2010Prop47
 90
       50
102
RTVSPost2010PropOp47
 70
     1
102
RTVSPost2010Prop48
 90
       50
102
RTVSPost2010PropOp48
 70
     1
102
RTVSPost2010Prop49
280
     0
102
RTVSPost2010PropOp49
 70
     1
102
RTVSPost2010Prop50
 90
       50
102
RTVSPost2010PropOp50
 70
     1
102
RTVSPost2010Prop51ColorIndex
 90
      256
102
RTVSPost2010Prop51ColorRGB
 90
-16777216
102
RTVSPost2010PropOp51
 70
     0
102
RTVSPost2010Prop52
140
1.0
102
RTVSPost2010PropOp52
 70
     0
102
RTVSPost2010Prop53
 90
        2
102
RTVSPost2010PropOp53
 70
     1
102
RTVSPost2010Prop54
  1
strokes_ogs.tif
102
RTVSPost2010PropOp54
 70
     1
102
RTVSPost2010Prop55
280
     0
102
RTVSPost2010PropOp55
 70
     1
102
RTVSPost2010Prop56
140
1.0
102
RTVSPost2010PropOp56
 70
     1
102
RTVSPost2010Prop57
140
1.0
102
RTVSPost2010PropOp57
 70
     1
102
RTVSPropertyOp0
 70
     1
102
RTVSPropertyOp1
 70
     1
102
RTVSPropertyOp2
 70
     1
102
RTVSPropertyOp3
 70
     1
102
RTVSPropertyOp4
 70
     1
102
RTVSPropertyOp5
 70
     1
102
RTVSPropertyOp6
 70
     1
102
RTVSPropertyOp7
 70
     1
102
RTVSPropertyOp8
 70
     1
102
RTVSPropertyOp9
 70
     1
102
RTVSPropertyOp10
 70
     1
102
RTVSPropertyOp11
 70
     1
102
RTVSPropertyOp12
 70
     1
102
RTVSPropertyOp13
 70
     1
102
RTVSPropertyOp14
 70
     1
102
RTVSPropertyOp15
 70
     1
102
RTVSPropertyOp16
 70
     1
102
RTVSPropertyOp17
 70
     1
102
RTVSPropertyOp18
 70
     1
102
RTVSPropertyOp19
 70
     1
102
RTVSPropertyOp20
 70
     1
102
RTVSPropertyOp21
 70
     1
102
RTVSPropertyOp22
 70
     1
102
RTVSPropertyOp23
 70
     1
102
RTVSPropertyOp24
 70
     1
102
RTVSPropertyOp25
 70
     1
102
RTVSPropertyOp26
 70
     1
102
RTVSPropertyOp27
 70
     1
102
RTVSPropertyOp28
 70
     1
102
RTVSPropertyOp29
 70
     1
102
RTVSPropertyOp30
 70
     1
102
RTVSPropertyOp31
 70
     1
102
RTVSPropertyOp32
 70
     1
102
RTVSPropertyOp33
 70
     1
102
RTVSPropertyOp34
 70
     1
102
RTVSPropertyOp35
 70
     1
102
RTVSPropertyOp36
 70
     1
102
RTVSPropertyOp37
 70
     1
102
RTVSPropertyOp38
 70
     1
102
RTVSPropertyOp39
 70
     1
102
RTVSPropertyOp40
 70
     1
102
RTVSPropertyOp41
 70
     1
102
RTVSPropertyOp42
 70
     1
102
RTVSPropertyOp43
 70
     1
102
RTVSPropertyOp44
 70
     1
102
RTVSPropertyOp45
 70
     1
102
RTVSPropertyOp46
 70
     1
102
RTVSPropertyOp47
 70
     1
102
RTVSPropertyOp48
 70
     1
102
RTVSPropertyOp49
 70
     1
102
RTVSPropertyOp50
 70
     1
102
RTVSPropertyOp51
 70
     0
102
RTVSPropertyOp52
 70
     0
102
RTVSPropertyOp53
 70
     1
102
RTVSPropertyOp54
 70
     1
102
RTVSPropertyOp55
 70
     1
102
RTVSPropertyOp56
 70
     1
102
RTVSPropertyOp57
 70
     1
102
RTVSPropertyOp58
 70
     1
102
RTVSPropertyOp59
 70
     1
102
RTVSPropertyOp60
 70
     1
102
RTVSPropertyOp61
 70
     1
102
RTVSPropertyOp62
 70
     1
  0
XRECORD
  5
9A97
102
{ACAD_REACTORS
330
9A96
102
}
330
9A96
100
AcDbXrecord
280
     1
102
RTVSPost2010Prop28
280
     0
102
RTVSPost2010PropOp28
 70
     1
102
RTVSPost2010Prop29
280
     1
102
RTVSPost2010PropOp29
 70
     1
102
RTVSPost2010Prop30
280
     1
102
RTVSPost2010PropOp30
 70
     1
102
RTVSPost2010Prop31
280
     0
102
RTVSPost2010PropOp31
 70
     1
102
RTVSPost2010Prop32
280
     0
102
RTVSPost2010PropOp32
 70
     1
102
RTVSPost2010Prop33
280
     0
102
RTVSPost2010PropOp33
 70
     1
102
RTVSPost2010Prop34
280
     0
102
RTVSPost2010PropOp34
 70
     1
102
RTVSPost2010Prop35
280
     0
102
RTVSPost2010PropOp35
 70
     1
102
RTVSPost2010Prop36
280
     0
102
RTVSPost2010PropOp36
 70
     1
102
RTVSPost2010Prop37
 90
       50
102
RTVSPost2010PropOp37
 70
     0
102
RTVSPost2010Prop38
140
0.0
102
RTVSPost2010PropOp38
 70
     0
102
RTVSPost2010Prop39
140
1.0
102
RTVSPost2010PropOp39
 70
     0
102
RTVSPost2010Prop40
 90
        0
102
RTVSPost2010PropOp40
 70
     0
102
RTVSPost2010Prop41ColorIndex
 90
       18
102
RTVSPost2010Prop41ColorRGB
 90
        0
102
RTVSPost2010PropOp41
 70
     0
102
RTVSPost2010Prop42
 90
       50
102
RTVSPost2010PropOp42
 70
     0
102
RTVSPost2010Prop43
 90
        3
102
RTVSPost2010PropOp43
 70
     0
102
RTVSPost2010Prop44ColorIndex
 90
        5
102
RTVSPost2010Prop44ColorRGB
 90
      255
102
RTVSPost2010PropOp44
 70
     0
102
RTVSPost2010Prop45
280
     0
102
RTVSPost2010PropOp45
 70
     1
102
RTVSPost2010Prop46
 90
       50
102
RTVSPost2010PropOp46
 70
     0
102
RTVSPost2010Prop47
 90
       50
102
RTVSPost2010PropOp47
 70
     0
102
RTVSPost2010Prop48
 90
       50
102
RTVSPost2010PropOp48
 70
     0
102
RTVSPost2010Prop49
280
     0
102
RTVSPost2010PropOp49
 70
     1
102
RTVSPost2010Prop50
 90
       50
102
RTVSPost2010PropOp50
 70
     0
102
RTVSPost2010Prop51ColorIndex
 90
      256
102
RTVSPost2010Prop51ColorRGB
 90
-16777216
102
RTVSPost2010PropOp51
 70
     0
102
RTVSPost2010Prop52
140
1.0
102
RTVSPost2010PropOp52
 70
     0
102
RTVSPost2010Prop53
 90
        2
102
RTVSPost2010PropOp53
 70
     0
102
RTVSPost2010Prop54
  1
strokes_ogs.tif
102
RTVSPost2010PropOp54
 70
     0
102
RTVSPost2010Prop55
280
     0
102
RTVSPost2010PropOp55
 70
     1
102
RTVSPost2010Prop56
140
1.0
102
RTVSPost2010PropOp56
 70
     0
102
RTVSPost2010Prop57
140
1.0
102
RTVSPost2010PropOp57
 70
     0
102
RTVSPropertyOp0
 70
     0
102
RTVSPropertyOp1
 70
     0
102
RTVSPropertyOp2
 70
     0
102
RTVSPropertyOp3
 70
     0
102
RTVSPropertyOp4
 70
     0
102
RTVSPropertyOp5
 70
     0
102
RTVSPropertyOp6
 70
     0
102
RTVSPropertyOp7
 70
     0
102
RTVSPropertyOp8
 70
     0
102
RTVSPropertyOp9
 70
     0
102
RTVSPropertyOp10
 70
     0
102
RTVSPropertyOp11
 70
     0
102
RTVSPropertyOp12
 70
     0
102
RTVSPropertyOp13
 70
     0
102
RTVSPropertyOp14
 70
     2
102
RTVSPropertyOp15
 70
     0
102
RTVSPropertyOp16
 70
     0
102
RTVSPropertyOp17
 70
     0
102
RTVSPropertyOp18
 70
     0
102
RTVSPropertyOp19
 70
     0
102
RTVSPropertyOp20
 70
     0
102
RTVSPropertyOp21
 70
     0
102
RTVSPropertyOp22
 70
     0
102
RTVSPropertyOp23
 70
     0
102
RTVSPropertyOp24
 70
     0
102
RTVSPropertyOp25
 70
     0
102
RTVSPropertyOp26
 70
     0
102
RTVSPropertyOp27
 70
     0
102
RTVSPropertyOp28
 70
     1
102
RTVSPropertyOp29
 70
     1
102
RTVSPropertyOp30
 70
     1
102
RTVSPropertyOp31
 70
     1
102
RTVSPropertyOp32
 70
     1
102
RTVSPropertyOp33
 70
     1
102
RTVSPropertyOp34
 70
     1
102
RTVSPropertyOp35
 70
     1
102
RTVSPropertyOp36
 70
     1
102
RTVSPropertyOp37
 70
     0
102
RTVSPropertyOp38
 70
     0
102
RTVSPropertyOp39
 70
     0
102
RTVSPropertyOp40
 70
     0
102
RTVSPropertyOp41
 70
     0
102
RTVSPropertyOp42
 70
     0
102
RTVSPropertyOp43
 70
     0
102
RTVSPropertyOp44
 70
     0
102
RTVSPropertyOp45
 70
     1
102
RTVSPropertyOp46
 70
     0
102
RTVSPropertyOp47
 70
     0
102
RTVSPropertyOp48
 70
     0
102
RTVSPropertyOp49
 70
     1
102
RTVSPropertyOp50
 70
     0
102
RTVSPropertyOp51
 70
     0
102
RTVSPropertyOp52
 70
     0
102
RTVSPropertyOp53
 70
     0
102
RTVSPropertyOp54
 70
     0
102
RTVSPropertyOp55
 70
     1
102
RTVSPropertyOp56
 70
     0
102
RTVSPropertyOp57
 70
     0
102
RTVSPropertyOp58
 70
     0
102
RTVSPropertyOp59
 70
     0
102
RTVSPropertyOp60
 70
     0
102
RTVSPropertyOp61
 70
     0
102
RTVSPropertyOp62
 70
     0
  0
XRECORD
  5
9A87
102
{ACAD_REACTORS
330
9A86
102
}
330
9A86
100
AcDbXrecord
280
     1
102
RTVSPost2010Prop28
280
     0
102
RTVSPost2010PropOp28
 70
     1
102
RTVSPost2010Prop29
280
     1
102
RTVSPost2010PropOp29
 70
     1
102
RTVSPost2010Prop30
280
     1
102
RTVSPost2010PropOp30
 70
     1
102
RTVSPost2010Prop31
280
     0
102
RTVSPost2010PropOp31
 70
     1
102
RTVSPost2010Prop32
280
     0
102
RTVSPost2010PropOp32
 70
     1
102
RTVSPost2010Prop33
280
     0
102
RTVSPost2010PropOp33
 70
     1
102
RTVSPost2010Prop34
280
     0
102
RTVSPost2010PropOp34
 70
     1
102
RTVSPost2010Prop35
280
     0
102
RTVSPost2010PropOp35
 70
     1
102
RTVSPost2010Prop36
280
     0
102
RTVSPost2010PropOp36
 70
     1
102
RTVSPost2010Prop37
 90
       50
102
RTVSPost2010PropOp37
 70
     1
102
RTVSPost2010Prop38
140
0.0
102
RTVSPost2010PropOp38
 70
     1
102
RTVSPost2010Prop39
140
1.0
102
RTVSPost2010PropOp39
 70
     1
102
RTVSPost2010Prop40
 90
        0
102
RTVSPost2010PropOp40
 70
     1
102
RTVSPost2010Prop41ColorIndex
 90
       18
102
RTVSPost2010Prop41ColorRGB
 90
        0
102
RTVSPost2010PropOp41
 70
     1
102
RTVSPost2010Prop42
 90
       50
102
RTVSPost2010PropOp42
 70
     1
102
RTVSPost2010Prop43
 90
        3
102
RTVSPost2010PropOp43
 70
     1
102
RTVSPost2010Prop44ColorIndex
 90
        5
102
RTVSPost2010Prop44ColorRGB
 90
      255
102
RTVSPost2010PropOp44
 70
     1
102
RTVSPost2010Prop45
280
     0
102
RTVSPost2010PropOp45
 70
     1
102
RTVSPost2010Prop46
 90
       50
102
RTVSPost2010PropOp46
 70
     1
102
RTVSPost2010Prop47
 90
       50
102
RTVSPost2010PropOp47
 70
     1
102
RTVSPost2010Prop48
 90
       50
102
RTVSPost2010PropOp48
 70
     1
102
RTVSPost2010Prop49
280
     0
102
RTVSPost2010PropOp49
 70
     1
102
RTVSPost2010Prop50
 90
       50
102
RTVSPost2010PropOp50
 70
     1
102
RTVSPost2010Prop51ColorIndex
 90
      256
102
RTVSPost2010Prop51ColorRGB
 90
-16777216
102
RTVSPost2010PropOp51
 70
     0
102
RTVSPost2010Prop52
140
1.0
102
RTVSPost2010PropOp52
 70
     0
102
RTVSPost2010Prop53
 90
        2
102
RTVSPost2010PropOp53
 70
     1
102
RTVSPost2010Prop54
  1
strokes_ogs.tif
102
RTVSPost2010PropOp54
 70
     1
102
RTVSPost2010Prop55
280
     0
102
RTVSPost2010PropOp55
 70
     1
102
RTVSPost2010Prop56
140
1.0
102
RTVSPost2010PropOp56
 70
     1
102
RTVSPost2010Prop57
140
1.0
102
RTVSPost2010PropOp57
 70
     1
102
RTVSPropertyOp0
 70
     1
102
RTVSPropertyOp1
 70
     1
102
RTVSPropertyOp2
 70
     1
102
RTVSPropertyOp3
 70
     1
102
RTVSPropertyOp4
 70
     1
102
RTVSPropertyOp5
 70
     1
102
RTVSPropertyOp6
 70
     1
102
RTVSPropertyOp7
 70
     1
102
RTVSPropertyOp8
 70
     1
102
RTVSPropertyOp9
 70
     1
102
RTVSPropertyOp10
 70
     1
102
RTVSPropertyOp11
 70
     1
102
RTVSPropertyOp12
 70
     1
102
RTVSPropertyOp13
 70
     1
102
RTVSPropertyOp14
 70
     1
102
RTVSPropertyOp15
 70
     1
102
RTVSPropertyOp16
 70
     1
102
RTVSPropertyOp17
 70
     1
102
RTVSPropertyOp18
 70
     1
102
RTVSPropertyOp19
 70
     1
102
RTVSPropertyOp20
 70
     1
102
RTVSPropertyOp21
 70
     1
102
RTVSPropertyOp22
 70
     1
102
RTVSPropertyOp23
 70
     1
102
RTVSPropertyOp24
 70
     1
102
RTVSPropertyOp25
 70
     1
102
RTVSPropertyOp26
 70
     1
102
RTVSPropertyOp27
 70
     1
102
RTVSPropertyOp28
 70
     1
102
RTVSPropertyOp29
 70
     1
102
RTVSPropertyOp30
 70
     1
102
RTVSPropertyOp31
 70
     1
102
RTVSPropertyOp32
 70
     1
102
RTVSPropertyOp33
 70
     1
102
RTVSPropertyOp34
 70
     1
102
RTVSPropertyOp35
 70
     1
102
RTVSPropertyOp36
 70
     1
102
RTVSPropertyOp37
 70
     1
102
RTVSPropertyOp38
 70
     1
102
RTVSPropertyOp39
 70
     1
102
RTVSPropertyOp40
 70
     1
102
RTVSPropertyOp41
 70
     1
102
RTVSPropertyOp42
 70
     1
102
RTVSPropertyOp43
 70
     1
102
RTVSPropertyOp44
 70
     1
102
RTVSPropertyOp45
 70
     1
102
RTVSPropertyOp46
 70
     1
102
RTVSPropertyOp47
 70
     1
102
RTVSPropertyOp48
 70
     1
102
RTVSPropertyOp49
 70
     1
102
RTVSPropertyOp50
 70
     1
102
RTVSPropertyOp51
 70
     0
102
RTVSPropertyOp52
 70
     0
102
RTVSPropertyOp53
 70
     1
102
RTVSPropertyOp54
 70
     1
102
RTVSPropertyOp55
 70
     1
102
RTVSPropertyOp56
 70
     1
102
RTVSPropertyOp57
 70
     1
102
RTVSPropertyOp58
 70
     1
102
RTVSPropertyOp59
 70
     1
102
RTVSPropertyOp60
 70
     1
102
RTVSPropertyOp61
 70
     1
102
RTVSPropertyOp62
 70
     1
  0
XRECORD
  5
9A99
102
{ACAD_REACTORS
330
9A98
102
}
330
9A98
100
AcDbXrecord
280
     1
102
RTVSPost2010Prop28
280
     0
102
RTVSPost2010PropOp28
 70
     1
102
RTVSPost2010Prop29
280
     1
102
RTVSPost2010PropOp29
 70
     1
102
RTVSPost2010Prop30
280
     1
102
RTVSPost2010PropOp30
 70
     1
102
RTVSPost2010Prop31
280
     0
102
RTVSPost2010PropOp31
 70
     1
102
RTVSPost2010Prop32
280
     0
102
RTVSPost2010PropOp32
 70
     1
102
RTVSPost2010Prop33
280
     0
102
RTVSPost2010PropOp33
 70
     1
102
RTVSPost2010Prop34
280
     0
102
RTVSPost2010PropOp34
 70
     1
102
RTVSPost2010Prop35
280
     0
102
RTVSPost2010PropOp35
 70
     1
102
RTVSPost2010Prop36
280
     0
102
RTVSPost2010PropOp36
 70
     1
102
RTVSPost2010Prop37
 90
       50
102
RTVSPost2010PropOp37
 70
     0
102
RTVSPost2010Prop38
140
0.0
102
RTVSPost2010PropOp38
 70
     0
102
RTVSPost2010Prop39
140
1.0
102
RTVSPost2010PropOp39
 70
     0
102
RTVSPost2010Prop40
 90
        0
102
RTVSPost2010PropOp40
 70
     0
102
RTVSPost2010Prop41ColorIndex
 90
       18
102
RTVSPost2010Prop41ColorRGB
 90
        0
102
RTVSPost2010PropOp41
 70
     0
102
RTVSPost2010Prop42
 90
       50
102
RTVSPost2010PropOp42
 70
     0
102
RTVSPost2010Prop43
 90
        3
102
RTVSPost2010PropOp43
 70
     0
102
RTVSPost2010Prop44ColorIndex
 90
        5
102
RTVSPost2010Prop44ColorRGB
 90
      255
102
RTVSPost2010PropOp44
 70
     0
102
RTVSPost2010Prop45
280
     0
102
RTVSPost2010PropOp45
 70
     1
102
RTVSPost2010Prop46
 90
       50
102
RTVSPost2010PropOp46
 70
     0
102
RTVSPost2010Prop47
 90
       50
102
RTVSPost2010PropOp47
 70
     0
102
RTVSPost2010Prop48
 90
       50
102
RTVSPost2010PropOp48
 70
     0
102
RTVSPost2010Prop49
280
     0
102
RTVSPost2010PropOp49
 70
     1
102
RTVSPost2010Prop50
 90
       50
102
RTVSPost2010PropOp50
 70
     0
102
RTVSPost2010Prop51ColorIndex
 90
      256
102
RTVSPost2010Prop51ColorRGB
 90
-16777216
102
RTVSPost2010PropOp51
 70
     0
102
RTVSPost2010Prop52
140
1.0
102
RTVSPost2010PropOp52
 70
     0
102
RTVSPost2010Prop53
 90
        2
102
RTVSPost2010PropOp53
 70
     0
102
RTVSPost2010Prop54
  1
strokes_ogs.tif
102
RTVSPost2010PropOp54
 70
     0
102
RTVSPost2010Prop55
280
     0
102
RTVSPost2010PropOp55
 70
     1
102
RTVSPost2010Prop56
140
1.0
102
RTVSPost2010PropOp56
 70
     0
102
RTVSPost2010Prop57
140
1.0
102
RTVSPost2010PropOp57
 70
     0
102
RTVSPropertyOp0
 70
     0
102
RTVSPropertyOp1
 70
     0
102
RTVSPropertyOp2
 70
     0
102
RTVSPropertyOp3
 70
     0
102
RTVSPropertyOp4
 70
     0
102
RTVSPropertyOp5
 70
     0
102
RTVSPropertyOp6
 70
     0
102
RTVSPropertyOp7
 70
     0
102
RTVSPropertyOp8
 70
     0
102
RTVSPropertyOp9
 70
     0
102
RTVSPropertyOp10
 70
     0
102
RTVSPropertyOp11
 70
     0
102
RTVSPropertyOp12
 70
     0
102
RTVSPropertyOp13
 70
     0
102
RTVSPropertyOp14
 70
     2
102
RTVSPropertyOp15
 70
     0
102
RTVSPropertyOp16
 70
     0
102
RTVSPropertyOp17
 70
     0
102
RTVSPropertyOp18
 70
     0
102
RTVSPropertyOp19
 70
     0
102
RTVSPropertyOp20
 70
     0
102
RTVSPropertyOp21
 70
     0
102
RTVSPropertyOp22
 70
     0
102
RTVSPropertyOp23
 70
     0
102
RTVSPropertyOp24
 70
     0
102
RTVSPropertyOp25
 70
     0
102
RTVSPropertyOp26
 70
     0
102
RTVSPropertyOp27
 70
     0
102
RTVSPropertyOp28
 70
     1
102
RTVSPropertyOp29
 70
     1
102
RTVSPropertyOp30
 70
     1
102
RTVSPropertyOp31
 70
     1
102
RTVSPropertyOp32
 70
     1
102
RTVSPropertyOp33
 70
     1
102
RTVSPropertyOp34
 70
     1
102
RTVSPropertyOp35
 70
     1
102
RTVSPropertyOp36
 70
     1
102
RTVSPropertyOp37
 70
     0
102
RTVSPropertyOp38
 70
     0
102
RTVSPropertyOp39
 70
     0
102
RTVSPropertyOp40
 70
     0
102
RTVSPropertyOp41
 70
     0
102
RTVSPropertyOp42
 70
     0
102
RTVSPropertyOp43
 70
     0
102
RTVSPropertyOp44
 70
     0
102
RTVSPropertyOp45
 70
     1
102
RTVSPropertyOp46
 70
     0
102
RTVSPropertyOp47
 70
     0
102
RTVSPropertyOp48
 70
     0
102
RTVSPropertyOp49
 70
     1
102
RTVSPropertyOp50
 70
     0
102
RTVSPropertyOp51
 70
     0
102
RTVSPropertyOp52
 70
     0
102
RTVSPropertyOp53
 70
     0
102
RTVSPropertyOp54
 70
     0
102
RTVSPropertyOp55
 70
     1
102
RTVSPropertyOp56
 70
     0
102
RTVSPropertyOp57
 70
     0
102
RTVSPropertyOp58
 70
     0
102
RTVSPropertyOp59
 70
     0
102
RTVSPropertyOp60
 70
     0
102
RTVSPropertyOp61
 70
     0
102
RTVSPropertyOp62
 70
     0
  0
XRECORD
  5
9A7F
102
{ACAD_REACTORS
330
9A7E
102
}
330
9A7E
100
AcDbXrecord
280
     1
102
RTVSPost2010Prop28
280
     0
102
RTVSPost2010PropOp28
 70
     1
102
RTVSPost2010Prop29
280
     1
102
RTVSPost2010PropOp29
 70
     1
102
RTVSPost2010Prop30
280
     1
102
RTVSPost2010PropOp30
 70
     1
102
RTVSPost2010Prop31
280
     0
102
RTVSPost2010PropOp31
 70
     1
102
RTVSPost2010Prop32
280
     0
102
RTVSPost2010PropOp32
 70
     1
102
RTVSPost2010Prop33
280
     0
102
RTVSPost2010PropOp33
 70
     1
102
RTVSPost2010Prop34
280
     0
102
RTVSPost2010PropOp34
 70
     1
102
RTVSPost2010Prop35
280
     0
102
RTVSPost2010PropOp35
 70
     1
102
RTVSPost2010Prop36
280
     0
102
RTVSPost2010PropOp36
 70
     1
102
RTVSPost2010Prop37
 90
       50
102
RTVSPost2010PropOp37
 70
     1
102
RTVSPost2010Prop38
140
0.0
102
RTVSPost2010PropOp38
 70
     1
102
RTVSPost2010Prop39
140
1.0
102
RTVSPost2010PropOp39
 70
     1
102
RTVSPost2010Prop40
 90
        0
102
RTVSPost2010PropOp40
 70
     1
102
RTVSPost2010Prop41ColorIndex
 90
       18
102
RTVSPost2010Prop41ColorRGB
 90
        0
102
RTVSPost2010PropOp41
 70
     1
102
RTVSPost2010Prop42
 90
       50
102
RTVSPost2010PropOp42
 70
     1
102
RTVSPost2010Prop43
 90
        3
102
RTVSPost2010PropOp43
 70
     1
102
RTVSPost2010Prop44ColorIndex
 90
        5
102
RTVSPost2010Prop44ColorRGB
 90
      255
102
RTVSPost2010PropOp44
 70
     1
102
RTVSPost2010Prop45
280
     0
102
RTVSPost2010PropOp45
 70
     1
102
RTVSPost2010Prop46
 90
       50
102
RTVSPost2010PropOp46
 70
     1
102
RTVSPost2010Prop47
 90
       50
102
RTVSPost2010PropOp47
 70
     1
102
RTVSPost2010Prop48
 90
       50
102
RTVSPost2010PropOp48
 70
     1
102
RTVSPost2010Prop49
280
     0
102
RTVSPost2010PropOp49
 70
     1
102
RTVSPost2010Prop50
 90
       50
102
RTVSPost2010PropOp50
 70
     1
102
RTVSPost2010Prop51ColorIndex
 90
      256
102
RTVSPost2010Prop51ColorRGB
 90
-16777216
102
RTVSPost2010PropOp51
 70
     0
102
RTVSPost2010Prop52
140
1.0
102
RTVSPost2010PropOp52
 70
     0
102
RTVSPost2010Prop53
 90
        2
102
RTVSPost2010PropOp53
 70
     1
102
RTVSPost2010Prop54
  1
strokes_ogs.tif
102
RTVSPost2010PropOp54
 70
     1
102
RTVSPost2010Prop55
280
     0
102
RTVSPost2010PropOp55
 70
     1
102
RTVSPost2010Prop56
140
1.0
102
RTVSPost2010PropOp56
 70
     1
102
RTVSPost2010Prop57
140
1.0
102
RTVSPost2010PropOp57
 70
     1
102
RTVSPropertyOp0
 70
     1
102
RTVSPropertyOp1
 70
     1
102
RTVSPropertyOp2
 70
     1
102
RTVSPropertyOp3
 70
     1
102
RTVSPropertyOp4
 70
     1
102
RTVSPropertyOp5
 70
     1
102
RTVSPropertyOp6
 70
     1
102
RTVSPropertyOp7
 70
     1
102
RTVSPropertyOp8
 70
     1
102
RTVSPropertyOp9
 70
     1
102
RTVSPropertyOp10
 70
     1
102
RTVSPropertyOp11
 70
     1
102
RTVSPropertyOp12
 70
     1
102
RTVSPropertyOp13
 70
     1
102
RTVSPropertyOp14
 70
     1
102
RTVSPropertyOp15
 70
     1
102
RTVSPropertyOp16
 70
     1
102
RTVSPropertyOp17
 70
     1
102
RTVSPropertyOp18
 70
     1
102
RTVSPropertyOp19
 70
     1
102
RTVSPropertyOp20
 70
     1
102
RTVSPropertyOp21
 70
     1
102
RTVSPropertyOp22
 70
     1
102
RTVSPropertyOp23
 70
     1
102
RTVSPropertyOp24
 70
     1
102
RTVSPropertyOp25
 70
     1
102
RTVSPropertyOp26
 70
     1
102
RTVSPropertyOp27
 70
     1
102
RTVSPropertyOp28
 70
     1
102
RTVSPropertyOp29
 70
     1
102
RTVSPropertyOp30
 70
     1
102
RTVSPropertyOp31
 70
     1
102
RTVSPropertyOp32
 70
     1
102
RTVSPropertyOp33
 70
     1
102
RTVSPropertyOp34
 70
     1
102
RTVSPropertyOp35
 70
     1
102
RTVSPropertyOp36
 70
     1
102
RTVSPropertyOp37
 70
     1
102
RTVSPropertyOp38
 70
     1
102
RTVSPropertyOp39
 70
     1
102
RTVSPropertyOp40
 70
     1
102
RTVSPropertyOp41
 70
     1
102
RTVSPropertyOp42
 70
     1
102
RTVSPropertyOp43
 70
     1
102
RTVSPropertyOp44
 70
     1
102
RTVSPropertyOp45
 70
     1
102
RTVSPropertyOp46
 70
     1
102
RTVSPropertyOp47
 70
     1
102
RTVSPropertyOp48
 70
     1
102
RTVSPropertyOp49
 70
     1
102
RTVSPropertyOp50
 70
     1
102
RTVSPropertyOp51
 70
     0
102
RTVSPropertyOp52
 70
     0
102
RTVSPropertyOp53
 70
     1
102
RTVSPropertyOp54
 70
     1
102
RTVSPropertyOp55
 70
     1
102
RTVSPropertyOp56
 70
     1
102
RTVSPropertyOp57
 70
     1
102
RTVSPropertyOp58
 70
     1
102
RTVSPropertyOp59
 70
     1
102
RTVSPropertyOp60
 70
     1
102
RTVSPropertyOp61
 70
     1
102
RTVSPropertyOp62
 70
     1
  0
XRECORD
  5
9A95
102
{ACAD_REACTORS
330
9A94
102
}
330
9A94
100
AcDbXrecord
280
     1
102
RTVSPost2010Prop28
280
     0
102
RTVSPost2010PropOp28
 70
     1
102
RTVSPost2010Prop29
280
     1
102
RTVSPost2010PropOp29
 70
     1
102
RTVSPost2010Prop30
280
     1
102
RTVSPost2010PropOp30
 70
     1
102
RTVSPost2010Prop31
280
     0
102
RTVSPost2010PropOp31
 70
     1
102
RTVSPost2010Prop32
280
     0
102
RTVSPost2010PropOp32
 70
     1
102
RTVSPost2010Prop33
280
     0
102
RTVSPost2010PropOp33
 70
     1
102
RTVSPost2010Prop34
280
     0
102
RTVSPost2010PropOp34
 70
     1
102
RTVSPost2010Prop35
280
     0
102
RTVSPost2010PropOp35
 70
     1
102
RTVSPost2010Prop36
280
     0
102
RTVSPost2010PropOp36
 70
     1
102
RTVSPost2010Prop37
 90
       50
102
RTVSPost2010PropOp37
 70
     1
102
RTVSPost2010Prop38
140
0.0
102
RTVSPost2010PropOp38
 70
     1
102
RTVSPost2010Prop39
140
1.0
102
RTVSPost2010PropOp39
 70
     1
102
RTVSPost2010Prop40
 90
        0
102
RTVSPost2010PropOp40
 70
     1
102
RTVSPost2010Prop41ColorIndex
 90
       18
102
RTVSPost2010Prop41ColorRGB
 90
        0
102
RTVSPost2010PropOp41
 70
     1
102
RTVSPost2010Prop42
 90
       50
102
RTVSPost2010PropOp42
 70
     1
102
RTVSPost2010Prop43
 90
        3
102
RTVSPost2010PropOp43
 70
     1
102
RTVSPost2010Prop44ColorIndex
 90
        5
102
RTVSPost2010Prop44ColorRGB
 90
      255
102
RTVSPost2010PropOp44
 70
     1
102
RTVSPost2010Prop45
280
     0
102
RTVSPost2010PropOp45
 70
     1
102
RTVSPost2010Prop46
 90
       50
102
RTVSPost2010PropOp46
 70
     1
102
RTVSPost2010Prop47
 90
       50
102
RTVSPost2010PropOp47
 70
     1
102
RTVSPost2010Prop48
 90
       50
102
RTVSPost2010PropOp48
 70
     1
102
RTVSPost2010Prop49
280
     0
102
RTVSPost2010PropOp49
 70
     1
102
RTVSPost2010Prop50
 90
       50
102
RTVSPost2010PropOp50
 70
     1
102
RTVSPost2010Prop51ColorIndex
 90
      256
102
RTVSPost2010Prop51ColorRGB
 90
-16777216
102
RTVSPost2010PropOp51
 70
     0
102
RTVSPost2010Prop52
140
1.0
102
RTVSPost2010PropOp52
 70
     0
102
RTVSPost2010Prop53
 90
        2
102
RTVSPost2010PropOp53
 70
     1
102
RTVSPost2010Prop54
  1
strokes_ogs.tif
102
RTVSPost2010PropOp54
 70
     1
102
RTVSPost2010Prop55
280
     0
102
RTVSPost2010PropOp55
 70
     1
102
RTVSPost2010Prop56
140
1.0
102
RTVSPost2010PropOp56
 70
     1
102
RTVSPost2010Prop57
140
1.0
102
RTVSPost2010PropOp57
 70
     1
102
RTVSPropertyOp0
 70
     1
102
RTVSPropertyOp1
 70
     1
102
RTVSPropertyOp2
 70
     1
102
RTVSPropertyOp3
 70
     1
102
RTVSPropertyOp4
 70
     1
102
RTVSPropertyOp5
 70
     1
102
RTVSPropertyOp6
 70
     1
102
RTVSPropertyOp7
 70
     1
102
RTVSPropertyOp8
 70
     1
102
RTVSPropertyOp9
 70
     1
102
RTVSPropertyOp10
 70
     1
102
RTVSPropertyOp11
 70
     1
102
RTVSPropertyOp12
 70
     1
102
RTVSPropertyOp13
 70
     1
102
RTVSPropertyOp14
 70
     1
102
RTVSPropertyOp15
 70
     1
102
RTVSPropertyOp16
 70
     1
102
RTVSPropertyOp17
 70
     1
102
RTVSPropertyOp18
 70
     1
102
RTVSPropertyOp19
 70
     1
102
RTVSPropertyOp20
 70
     1
102
RTVSPropertyOp21
 70
     1
102
RTVSPropertyOp22
 70
     1
102
RTVSPropertyOp23
 70
     1
102
RTVSPropertyOp24
 70
     1
102
RTVSPropertyOp25
 70
     1
102
RTVSPropertyOp26
 70
     1
102
RTVSPropertyOp27
 70
     1
102
RTVSPropertyOp28
 70
     1
102
RTVSPropertyOp29
 70
     1
102
RTVSPropertyOp30
 70
     1
102
RTVSPropertyOp31
 70
     1
102
RTVSPropertyOp32
 70
     1
102
RTVSPropertyOp33
 70
     1
102
RTVSPropertyOp34
 70
     1
102
RTVSPropertyOp35
 70
     1
102
RTVSPropertyOp36
 70
     1
102
RTVSPropertyOp37
 70
     1
102
RTVSPropertyOp38
 70
     1
102
RTVSPropertyOp39
 70
     1
102
RTVSPropertyOp40
 70
     1
102
RTVSPropertyOp41
 70
     1
102
RTVSPropertyOp42
 70
     1
102
RTVSPropertyOp43
 70
     1
102
RTVSPropertyOp44
 70
     1
102
RTVSPropertyOp45
 70
     1
102
RTVSPropertyOp46
 70
     1
102
RTVSPropertyOp47
 70
     1
102
RTVSPropertyOp48
 70
     1
102
RTVSPropertyOp49
 70
     1
102
RTVSPropertyOp50
 70
     1
102
RTVSPropertyOp51
 70
     0
102
RTVSPropertyOp52
 70
     0
102
RTVSPropertyOp53
 70
     1
102
RTVSPropertyOp54
 70
     1
102
RTVSPropertyOp55
 70
     1
102
RTVSPropertyOp56
 70
     1
102
RTVSPropertyOp57
 70
     1
102
RTVSPropertyOp58
 70
     1
102
RTVSPropertyOp59
 70
     1
102
RTVSPropertyOp60
 70
     1
102
RTVSPropertyOp61
 70
     1
102
RTVSPropertyOp62
 70
     1
  0
XRECORD
  5
9A93
102
{ACAD_REACTORS
330
9A92
102
}
330
9A92
100
AcDbXrecord
280
     1
102
RTVSPost2010Prop28
280
     0
102
RTVSPost2010PropOp28
 70
     1
102
RTVSPost2010Prop29
280
     1
102
RTVSPost2010PropOp29
 70
     1
102
RTVSPost2010Prop30
280
     1
102
RTVSPost2010PropOp30
 70
     1
102
RTVSPost2010Prop31
280
     0
102
RTVSPost2010PropOp31
 70
     1
102
RTVSPost2010Prop32
280
     0
102
RTVSPost2010PropOp32
 70
     1
102
RTVSPost2010Prop33
280
     0
102
RTVSPost2010PropOp33
 70
     1
102
RTVSPost2010Prop34
280
     0
102
RTVSPost2010PropOp34
 70
     1
102
RTVSPost2010Prop35
280
     0
102
RTVSPost2010PropOp35
 70
     1
102
RTVSPost2010Prop36
280
     0
102
RTVSPost2010PropOp36
 70
     1
102
RTVSPost2010Prop37
 90
       50
102
RTVSPost2010PropOp37
 70
     1
102
RTVSPost2010Prop38
140
0.0
102
RTVSPost2010PropOp38
 70
     1
102
RTVSPost2010Prop39
140
1.0
102
RTVSPost2010PropOp39
 70
     1
102
RTVSPost2010Prop40
 90
        0
102
RTVSPost2010PropOp40
 70
     1
102
RTVSPost2010Prop41ColorIndex
 90
       18
102
RTVSPost2010Prop41ColorRGB
 90
        0
102
RTVSPost2010PropOp41
 70
     1
102
RTVSPost2010Prop42
 90
       50
102
RTVSPost2010PropOp42
 70
     1
102
RTVSPost2010Prop43
 90
        3
102
RTVSPost2010PropOp43
 70
     1
102
RTVSPost2010Prop44ColorIndex
 90
        5
102
RTVSPost2010Prop44ColorRGB
 90
      255
102
RTVSPost2010PropOp44
 70
     1
102
RTVSPost2010Prop45
280
     0
102
RTVSPost2010PropOp45
 70
     1
102
RTVSPost2010Prop46
 90
       50
102
RTVSPost2010PropOp46
 70
     1
102
RTVSPost2010Prop47
 90
       50
102
RTVSPost2010PropOp47
 70
     1
102
RTVSPost2010Prop48
 90
       50
102
RTVSPost2010PropOp48
 70
     1
102
RTVSPost2010Prop49
280
     0
102
RTVSPost2010PropOp49
 70
     1
102
RTVSPost2010Prop50
 90
       50
102
RTVSPost2010PropOp50
 70
     1
102
RTVSPost2010Prop51ColorIndex
 90
      256
102
RTVSPost2010Prop51ColorRGB
 90
-16777216
102
RTVSPost2010PropOp51
 70
     0
102
RTVSPost2010Prop52
140
1.0
102
RTVSPost2010PropOp52
 70
     0
102
RTVSPost2010Prop53
 90
        2
102
RTVSPost2010PropOp53
 70
     1
102
RTVSPost2010Prop54
  1
strokes_ogs.tif
102
RTVSPost2010PropOp54
 70
     1
102
RTVSPost2010Prop55
280
     0
102
RTVSPost2010PropOp55
 70
     1
102
RTVSPost2010Prop56
140
1.0
102
RTVSPost2010PropOp56
 70
     1
102
RTVSPost2010Prop57
140
1.0
102
RTVSPost2010PropOp57
 70
     1
102
RTVSPropertyOp0
 70
     1
102
RTVSPropertyOp1
 70
     1
102
RTVSPropertyOp2
 70
     1
102
RTVSPropertyOp3
 70
     1
102
RTVSPropertyOp4
 70
     1
102
RTVSPropertyOp5
 70
     1
102
RTVSPropertyOp6
 70
     1
102
RTVSPropertyOp7
 70
     1
102
RTVSPropertyOp8
 70
     1
102
RTVSPropertyOp9
 70
     1
102
RTVSPropertyOp10
 70
     1
102
RTVSPropertyOp11
 70
     1
102
RTVSPropertyOp12
 70
     1
102
RTVSPropertyOp13
 70
     1
102
RTVSPropertyOp14
 70
     1
102
RTVSPropertyOp15
 70
     1
102
RTVSPropertyOp16
 70
     1
102
RTVSPropertyOp17
 70
     1
102
RTVSPropertyOp18
 70
     1
102
RTVSPropertyOp19
 70
     1
102
RTVSPropertyOp20
 70
     1
102
RTVSPropertyOp21
 70
     1
102
RTVSPropertyOp22
 70
     1
102
RTVSPropertyOp23
 70
     1
102
RTVSPropertyOp24
 70
     1
102
RTVSPropertyOp25
 70
     1
102
RTVSPropertyOp26
 70
     1
102
RTVSPropertyOp27
 70
     1
102
RTVSPropertyOp28
 70
     1
102
RTVSPropertyOp29
 70
     1
102
RTVSPropertyOp30
 70
     1
102
RTVSPropertyOp31
 70
     1
102
RTVSPropertyOp32
 70
     1
102
RTVSPropertyOp33
 70
     1
102
RTVSPropertyOp34
 70
     1
102
RTVSPropertyOp35
 70
     1
102
RTVSPropertyOp36
 70
     1
102
RTVSPropertyOp37
 70
     1
102
RTVSPropertyOp38
 70
     1
102
RTVSPropertyOp39
 70
     1
102
RTVSPropertyOp40
 70
     1
102
RTVSPropertyOp41
 70
     1
102
RTVSPropertyOp42
 70
     1
102
RTVSPropertyOp43
 70
     1
102
RTVSPropertyOp44
 70
     1
102
RTVSPropertyOp45
 70
     1
102
RTVSPropertyOp46
 70
     1
102
RTVSPropertyOp47
 70
     1
102
RTVSPropertyOp48
 70
     1
102
RTVSPropertyOp49
 70
     1
102
RTVSPropertyOp50
 70
     1
102
RTVSPropertyOp51
 70
     0
102
RTVSPropertyOp52
 70
     0
102
RTVSPropertyOp53
 70
     1
102
RTVSPropertyOp54
 70
     1
102
RTVSPropertyOp55
 70
     1
102
RTVSPropertyOp56
 70
     1
102
RTVSPropertyOp57
 70
     1
102
RTVSPropertyOp58
 70
     1
102
RTVSPropertyOp59
 70
     1
102
RTVSPropertyOp60
 70
     1
102
RTVSPropertyOp61
 70
     1
102
RTVSPropertyOp62
 70
     1
  0
XRECORD
  5
9A8D
102
{ACAD_REACTORS
330
9A8C
102
}
330
9A8C
100
AcDbXrecord
280
     1
102
RTVSPost2010Prop28
280
     0
102
RTVSPost2010PropOp28
 70
     1
102
RTVSPost2010Prop29
280
     1
102
RTVSPost2010PropOp29
 70
     1
102
RTVSPost2010Prop30
280
     1
102
RTVSPost2010PropOp30
 70
     1
102
RTVSPost2010Prop31
280
     0
102
RTVSPost2010PropOp31
 70
     1
102
RTVSPost2010Prop32
280
     0
102
RTVSPost2010PropOp32
 70
     1
102
RTVSPost2010Prop33
280
     0
102
RTVSPost2010PropOp33
 70
     1
102
RTVSPost2010Prop34
280
     0
102
RTVSPost2010PropOp34
 70
     1
102
RTVSPost2010Prop35
280
     0
102
RTVSPost2010PropOp35
 70
     1
102
RTVSPost2010Prop36
280
     0
102
RTVSPost2010PropOp36
 70
     1
102
RTVSPost2010Prop37
 90
       50
102
RTVSPost2010PropOp37
 70
     1
102
RTVSPost2010Prop38
140
0.0
102
RTVSPost2010PropOp38
 70
     1
102
RTVSPost2010Prop39
140
1.0
102
RTVSPost2010PropOp39
 70
     1
102
RTVSPost2010Prop40
 90
        0
102
RTVSPost2010PropOp40
 70
     1
102
RTVSPost2010Prop41ColorIndex
 90
       18
102
RTVSPost2010Prop41ColorRGB
 90
        0
102
RTVSPost2010PropOp41
 70
     1
102
RTVSPost2010Prop42
 90
       50
102
RTVSPost2010PropOp42
 70
     1
102
RTVSPost2010Prop43
 90
        3
102
RTVSPost2010PropOp43
 70
     1
102
RTVSPost2010Prop44ColorIndex
 90
        5
102
RTVSPost2010Prop44ColorRGB
 90
      255
102
RTVSPost2010PropOp44
 70
     1
102
RTVSPost2010Prop45
280
     0
102
RTVSPost2010PropOp45
 70
     1
102
RTVSPost2010Prop46
 90
       50
102
RTVSPost2010PropOp46
 70
     1
102
RTVSPost2010Prop47
 90
       50
102
RTVSPost2010PropOp47
 70
     1
102
RTVSPost2010Prop48
 90
       50
102
RTVSPost2010PropOp48
 70
     1
102
RTVSPost2010Prop49
280
     0
102
RTVSPost2010PropOp49
 70
     1
102
RTVSPost2010Prop50
 90
       50
102
RTVSPost2010PropOp50
 70
     1
102
RTVSPost2010Prop51ColorIndex
 90
      256
102
RTVSPost2010Prop51ColorRGB
 90
-16777216
102
RTVSPost2010PropOp51
 70
     0
102
RTVSPost2010Prop52
140
1.0
102
RTVSPost2010PropOp52
 70
     0
102
RTVSPost2010Prop53
 90
        2
102
RTVSPost2010PropOp53
 70
     1
102
RTVSPost2010Prop54
  1
strokes_ogs.tif
102
RTVSPost2010PropOp54
 70
     1
102
RTVSPost2010Prop55
280
     0
102
RTVSPost2010PropOp55
 70
     1
102
RTVSPost2010Prop56
140
1.0
102
RTVSPost2010PropOp56
 70
     1
102
RTVSPost2010Prop57
140
1.0
102
RTVSPost2010PropOp57
 70
     1
102
RTVSPropertyOp0
 70
     1
102
RTVSPropertyOp1
 70
     1
102
RTVSPropertyOp2
 70
     1
102
RTVSPropertyOp3
 70
     1
102
RTVSPropertyOp4
 70
     1
102
RTVSPropertyOp5
 70
     1
102
RTVSPropertyOp6
 70
     1
102
RTVSPropertyOp7
 70
     1
102
RTVSPropertyOp8
 70
     1
102
RTVSPropertyOp9
 70
     1
102
RTVSPropertyOp10
 70
     1
102
RTVSPropertyOp11
 70
     1
102
RTVSPropertyOp12
 70
     1
102
RTVSPropertyOp13
 70
     1
102
RTVSPropertyOp14
 70
     1
102
RTVSPropertyOp15
 70
     1
102
RTVSPropertyOp16
 70
     1
102
RTVSPropertyOp17
 70
     1
102
RTVSPropertyOp18
 70
     1
102
RTVSPropertyOp19
 70
     1
102
RTVSPropertyOp20
 70
     1
102
RTVSPropertyOp21
 70
     1
102
RTVSPropertyOp22
 70
     1
102
RTVSPropertyOp23
 70
     1
102
RTVSPropertyOp24
 70
     1
102
RTVSPropertyOp25
 70
     1
102
RTVSPropertyOp26
 70
     1
102
RTVSPropertyOp27
 70
     1
102
RTVSPropertyOp28
 70
     1
102
RTVSPropertyOp29
 70
     1
102
RTVSPropertyOp30
 70
     1
102
RTVSPropertyOp31
 70
     1
102
RTVSPropertyOp32
 70
     1
102
RTVSPropertyOp33
 70
     1
102
RTVSPropertyOp34
 70
     1
102
RTVSPropertyOp35
 70
     1
102
RTVSPropertyOp36
 70
     1
102
RTVSPropertyOp37
 70
     1
102
RTVSPropertyOp38
 70
     1
102
RTVSPropertyOp39
 70
     1
102
RTVSPropertyOp40
 70
     1
102
RTVSPropertyOp41
 70
     1
102
RTVSPropertyOp42
 70
     1
102
RTVSPropertyOp43
 70
     1
102
RTVSPropertyOp44
 70
     1
102
RTVSPropertyOp45
 70
     1
102
RTVSPropertyOp46
 70
     1
102
RTVSPropertyOp47
 70
     1
102
RTVSPropertyOp48
 70
     1
102
RTVSPropertyOp49
 70
     1
102
RTVSPropertyOp50
 70
     1
102
RTVSPropertyOp51
 70
     0
102
RTVSPropertyOp52
 70
     0
102
RTVSPropertyOp53
 70
     1
102
RTVSPropertyOp54
 70
     1
102
RTVSPropertyOp55
 70
     1
102
RTVSPropertyOp56
 70
     1
102
RTVSPropertyOp57
 70
     1
102
RTVSPropertyOp58
 70
     1
102
RTVSPropertyOp59
 70
     1
102
RTVSPropertyOp60
 70
     1
102
RTVSPropertyOp61
 70
     1
102
RTVSPropertyOp62
 70
     1
  0
XRECORD
  5
9A8F
102
{ACAD_REACTORS
330
9A8E
102
}
330
9A8E
100
AcDbXrecord
280
     1
102
RTVSPost2010Prop28
280
     0
102
RTVSPost2010PropOp28
 70
     1
102
RTVSPost2010Prop29
280
     1
102
RTVSPost2010PropOp29
 70
     1
102
RTVSPost2010Prop30
280
     1
102
RTVSPost2010PropOp30
 70
     1
102
RTVSPost2010Prop31
280
     0
102
RTVSPost2010PropOp31
 70
     1
102
RTVSPost2010Prop32
280
     0
102
RTVSPost2010PropOp32
 70
     1
102
RTVSPost2010Prop33
280
     0
102
RTVSPost2010PropOp33
 70
     1
102
RTVSPost2010Prop34
280
     0
102
RTVSPost2010PropOp34
 70
     1
102
RTVSPost2010Prop35
280
     0
102
RTVSPost2010PropOp35
 70
     1
102
RTVSPost2010Prop36
280
     0
102
RTVSPost2010PropOp36
 70
     1
102
RTVSPost2010Prop37
 90
       50
102
RTVSPost2010PropOp37
 70
     1
102
RTVSPost2010Prop38
140
0.0
102
RTVSPost2010PropOp38
 70
     1
102
RTVSPost2010Prop39
140
1.0
102
RTVSPost2010PropOp39
 70
     1
102
RTVSPost2010Prop40
 90
        0
102
RTVSPost2010PropOp40
 70
     1
102
RTVSPost2010Prop41ColorIndex
 90
       18
102
RTVSPost2010Prop41ColorRGB
 90
        0
102
RTVSPost2010PropOp41
 70
     1
102
RTVSPost2010Prop42
 90
       50
102
RTVSPost2010PropOp42
 70
     1
102
RTVSPost2010Prop43
 90
        3
102
RTVSPost2010PropOp43
 70
     1
102
RTVSPost2010Prop44ColorIndex
 90
        5
102
RTVSPost2010Prop44ColorRGB
 90
      255
102
RTVSPost2010PropOp44
 70
     1
102
RTVSPost2010Prop45
280
     0
102
RTVSPost2010PropOp45
 70
     1
102
RTVSPost2010Prop46
 90
       50
102
RTVSPost2010PropOp46
 70
     1
102
RTVSPost2010Prop47
 90
       50
102
RTVSPost2010PropOp47
 70
     1
102
RTVSPost2010Prop48
 90
       50
102
RTVSPost2010PropOp48
 70
     1
102
RTVSPost2010Prop49
280
     0
102
RTVSPost2010PropOp49
 70
     1
102
RTVSPost2010Prop50
 90
       50
102
RTVSPost2010PropOp50
 70
     1
102
RTVSPost2010Prop51ColorIndex
 90
      256
102
RTVSPost2010Prop51ColorRGB
 90
-16777216
102
RTVSPost2010PropOp51
 70
     0
102
RTVSPost2010Prop52
140
1.0
102
RTVSPost2010PropOp52
 70
     0
102
RTVSPost2010Prop53
 90
        2
102
RTVSPost2010PropOp53
 70
     1
102
RTVSPost2010Prop54
  1
strokes_ogs.tif
102
RTVSPost2010PropOp54
 70
     1
102
RTVSPost2010Prop55
280
     0
102
RTVSPost2010PropOp55
 70
     1
102
RTVSPost2010Prop56
140
1.0
102
RTVSPost2010PropOp56
 70
     1
102
RTVSPost2010Prop57
140
1.0
102
RTVSPost2010PropOp57
 70
     1
102
RTVSPropertyOp0
 70
     1
102
RTVSPropertyOp1
 70
     1
102
RTVSPropertyOp2
 70
     1
102
RTVSPropertyOp3
 70
     1
102
RTVSPropertyOp4
 70
     1
102
RTVSPropertyOp5
 70
     1
102
RTVSPropertyOp6
 70
     1
102
RTVSPropertyOp7
 70
     1
102
RTVSPropertyOp8
 70
     1
102
RTVSPropertyOp9
 70
     1
102
RTVSPropertyOp10
 70
     1
102
RTVSPropertyOp11
 70
     1
102
RTVSPropertyOp12
 70
     1
102
RTVSPropertyOp13
 70
     1
102
RTVSPropertyOp14
 70
     1
102
RTVSPropertyOp15
 70
     1
102
RTVSPropertyOp16
 70
     1
102
RTVSPropertyOp17
 70
     1
102
RTVSPropertyOp18
 70
     1
102
RTVSPropertyOp19
 70
     1
102
RTVSPropertyOp20
 70
     1
102
RTVSPropertyOp21
 70
     1
102
RTVSPropertyOp22
 70
     1
102
RTVSPropertyOp23
 70
     1
102
RTVSPropertyOp24
 70
     1
102
RTVSPropertyOp25
 70
     1
102
RTVSPropertyOp26
 70
     1
102
RTVSPropertyOp27
 70
     1
102
RTVSPropertyOp28
 70
     1
102
RTVSPropertyOp29
 70
     1
102
RTVSPropertyOp30
 70
     1
102
RTVSPropertyOp31
 70
     1
102
RTVSPropertyOp32
 70
     1
102
RTVSPropertyOp33
 70
     1
102
RTVSPropertyOp34
 70
     1
102
RTVSPropertyOp35
 70
     1
102
RTVSPropertyOp36
 70
     1
102
RTVSPropertyOp37
 70
     1
102
RTVSPropertyOp38
 70
     1
102
RTVSPropertyOp39
 70
     1
102
RTVSPropertyOp40
 70
     1
102
RTVSPropertyOp41
 70
     1
102
RTVSPropertyOp42
 70
     1
102
RTVSPropertyOp43
 70
     1
102
RTVSPropertyOp44
 70
     1
102
RTVSPropertyOp45
 70
     1
102
RTVSPropertyOp46
 70
     1
102
RTVSPropertyOp47
 70
     1
102
RTVSPropertyOp48
 70
     1
102
RTVSPropertyOp49
 70
     1
102
RTVSPropertyOp50
 70
     1
102
RTVSPropertyOp51
 70
     0
102
RTVSPropertyOp52
 70
     0
102
RTVSPropertyOp53
 70
     1
102
RTVSPropertyOp54
 70
     1
102
RTVSPropertyOp55
 70
     1
102
RTVSPropertyOp56
 70
     1
102
RTVSPropertyOp57
 70
     1
102
RTVSPropertyOp58
 70
     1
102
RTVSPropertyOp59
 70
     1
102
RTVSPropertyOp60
 70
     1
102
RTVSPropertyOp61
 70
     1
102
RTVSPropertyOp62
 70
     1
  0
XRECORD
  5
9A85
102
{ACAD_REACTORS
330
9A84
102
}
330
9A84
100
AcDbXrecord
280
     1
102
RTVSPost2010Prop28
280
     0
102
RTVSPost2010PropOp28
 70
     1
102
RTVSPost2010Prop29
280
     1
102
RTVSPost2010PropOp29
 70
     1
102
RTVSPost2010Prop30
280
     1
102
RTVSPost2010PropOp30
 70
     1
102
RTVSPost2010Prop31
280
     0
102
RTVSPost2010PropOp31
 70
     1
102
RTVSPost2010Prop32
280
     0
102
RTVSPost2010PropOp32
 70
     1
102
RTVSPost2010Prop33
280
     0
102
RTVSPost2010PropOp33
 70
     1
102
RTVSPost2010Prop34
280
     0
102
RTVSPost2010PropOp34
 70
     1
102
RTVSPost2010Prop35
280
     0
102
RTVSPost2010PropOp35
 70
     1
102
RTVSPost2010Prop36
280
     0
102
RTVSPost2010PropOp36
 70
     1
102
RTVSPost2010Prop37
 90
       50
102
RTVSPost2010PropOp37
 70
     1
102
RTVSPost2010Prop38
140
0.0
102
RTVSPost2010PropOp38
 70
     1
102
RTVSPost2010Prop39
140
1.0
102
RTVSPost2010PropOp39
 70
     1
102
RTVSPost2010Prop40
 90
        0
102
RTVSPost2010PropOp40
 70
     1
102
RTVSPost2010Prop41ColorIndex
 90
       18
102
RTVSPost2010Prop41ColorRGB
 90
        0
102
RTVSPost2010PropOp41
 70
     1
102
RTVSPost2010Prop42
 90
       50
102
RTVSPost2010PropOp42
 70
     1
102
RTVSPost2010Prop43
 90
        3
102
RTVSPost2010PropOp43
 70
     1
102
RTVSPost2010Prop44ColorIndex
 90
        5
102
RTVSPost2010Prop44ColorRGB
 90
      255
102
RTVSPost2010PropOp44
 70
     1
102
RTVSPost2010Prop45
280
     0
102
RTVSPost2010PropOp45
 70
     1
102
RTVSPost2010Prop46
 90
       50
102
RTVSPost2010PropOp46
 70
     1
102
RTVSPost2010Prop47
 90
       50
102
RTVSPost2010PropOp47
 70
     1
102
RTVSPost2010Prop48
 90
       50
102
RTVSPost2010PropOp48
 70
     1
102
RTVSPost2010Prop49
280
     0
102
RTVSPost2010PropOp49
 70
     1
102
RTVSPost2010Prop50
 90
       50
102
RTVSPost2010PropOp50
 70
     1
102
RTVSPost2010Prop51ColorIndex
 90
      256
102
RTVSPost2010Prop51ColorRGB
 90
-16777216
102
RTVSPost2010PropOp51
 70
     0
102
RTVSPost2010Prop52
140
1.0
102
RTVSPost2010PropOp52
 70
     0
102
RTVSPost2010Prop53
 90
        2
102
RTVSPost2010PropOp53
 70
     1
102
RTVSPost2010Prop54
  1
strokes_ogs.tif
102
RTVSPost2010PropOp54
 70
     1
102
RTVSPost2010Prop55
280
     0
102
RTVSPost2010PropOp55
 70
     1
102
RTVSPost2010Prop56
140
1.0
102
RTVSPost2010PropOp56
 70
     1
102
RTVSPost2010Prop57
140
1.0
102
RTVSPost2010PropOp57
 70
     1
102
RTVSPropertyOp0
 70
     1
102
RTVSPropertyOp1
 70
     1
102
RTVSPropertyOp2
 70
     1
102
RTVSPropertyOp3
 70
     1
102
RTVSPropertyOp4
 70
     1
102
RTVSPropertyOp5
 70
     1
102
RTVSPropertyOp6
 70
     1
102
RTVSPropertyOp7
 70
     1
102
RTVSPropertyOp8
 70
     1
102
RTVSPropertyOp9
 70
     1
102
RTVSPropertyOp10
 70
     1
102
RTVSPropertyOp11
 70
     1
102
RTVSPropertyOp12
 70
     1
102
RTVSPropertyOp13
 70
     1
102
RTVSPropertyOp14
 70
     1
102
RTVSPropertyOp15
 70
     1
102
RTVSPropertyOp16
 70
     1
102
RTVSPropertyOp17
 70
     1
102
RTVSPropertyOp18
 70
     1
102
RTVSPropertyOp19
 70
     1
102
RTVSPropertyOp20
 70
     1
102
RTVSPropertyOp21
 70
     1
102
RTVSPropertyOp22
 70
     1
102
RTVSPropertyOp23
 70
     1
102
RTVSPropertyOp24
 70
     1
102
RTVSPropertyOp25
 70
     1
102
RTVSPropertyOp26
 70
     1
102
RTVSPropertyOp27
 70
     1
102
RTVSPropertyOp28
 70
     1
102
RTVSPropertyOp29
 70
     1
102
RTVSPropertyOp30
 70
     1
102
RTVSPropertyOp31
 70
     1
102
RTVSPropertyOp32
 70
     1
102
RTVSPropertyOp33
 70
     1
102
RTVSPropertyOp34
 70
     1
102
RTVSPropertyOp35
 70
     1
102
RTVSPropertyOp36
 70
     1
102
RTVSPropertyOp37
 70
     1
102
RTVSPropertyOp38
 70
     1
102
RTVSPropertyOp39
 70
     1
102
RTVSPropertyOp40
 70
     1
102
RTVSPropertyOp41
 70
     1
102
RTVSPropertyOp42
 70
     1
102
RTVSPropertyOp43
 70
     1
102
RTVSPropertyOp44
 70
     1
102
RTVSPropertyOp45
 70
     1
102
RTVSPropertyOp46
 70
     1
102
RTVSPropertyOp47
 70
     1
102
RTVSPropertyOp48
 70
     1
102
RTVSPropertyOp49
 70
     1
102
RTVSPropertyOp50
 70
     1
102
RTVSPropertyOp51
 70
     0
102
RTVSPropertyOp52
 70
     0
102
RTVSPropertyOp53
 70
     1
102
RTVSPropertyOp54
 70
     1
102
RTVSPropertyOp55
 70
     1
102
RTVSPropertyOp56
 70
     1
102
RTVSPropertyOp57
 70
     1
102
RTVSPropertyOp58
 70
     1
102
RTVSPropertyOp59
 70
     1
102
RTVSPropertyOp60
 70
     1
102
RTVSPropertyOp61
 70
     1
102
RTVSPropertyOp62
 70
     1
  0
XRECORD
  5
9A79
102
{ACAD_REACTORS
330
9A78
102
}
330
9A78
100
AcDbXrecord
280
     1
102
RTVSPost2010Prop28
280
     0
102
RTVSPost2010PropOp28
 70
     1
102
RTVSPost2010Prop29
280
     1
102
RTVSPost2010PropOp29
 70
     1
102
RTVSPost2010Prop30
280
     1
102
RTVSPost2010PropOp30
 70
     1
102
RTVSPost2010Prop31
280
     0
102
RTVSPost2010PropOp31
 70
     1
102
RTVSPost2010Prop32
280
     0
102
RTVSPost2010PropOp32
 70
     1
102
RTVSPost2010Prop33
280
     0
102
RTVSPost2010PropOp33
 70
     1
102
RTVSPost2010Prop34
280
     0
102
RTVSPost2010PropOp34
 70
     1
102
RTVSPost2010Prop35
280
     0
102
RTVSPost2010PropOp35
 70
     1
102
RTVSPost2010Prop36
280
     0
102
RTVSPost2010PropOp36
 70
     1
102
RTVSPost2010Prop37
 90
       50
102
RTVSPost2010PropOp37
 70
     1
102
RTVSPost2010Prop38
140
0.0
102
RTVSPost2010PropOp38
 70
     1
102
RTVSPost2010Prop39
140
1.0
102
RTVSPost2010PropOp39
 70
     1
102
RTVSPost2010Prop40
 90
        0
102
RTVSPost2010PropOp40
 70
     1
102
RTVSPost2010Prop41ColorIndex
 90
       18
102
RTVSPost2010Prop41ColorRGB
 90
        0
102
RTVSPost2010PropOp41
 70
     1
102
RTVSPost2010Prop42
 90
       50
102
RTVSPost2010PropOp42
 70
     1
102
RTVSPost2010Prop43
 90
        3
102
RTVSPost2010PropOp43
 70
     1
102
RTVSPost2010Prop44ColorIndex
 90
        5
102
RTVSPost2010Prop44ColorRGB
 90
      255
102
RTVSPost2010PropOp44
 70
     1
102
RTVSPost2010Prop45
280
     0
102
RTVSPost2010PropOp45
 70
     1
102
RTVSPost2010Prop46
 90
       50
102
RTVSPost2010PropOp46
 70
     1
102
RTVSPost2010Prop47
 90
       50
102
RTVSPost2010PropOp47
 70
     1
102
RTVSPost2010Prop48
 90
       50
102
RTVSPost2010PropOp48
 70
     1
102
RTVSPost2010Prop49
280
     0
102
RTVSPost2010PropOp49
 70
     1
102
RTVSPost2010Prop50
 90
       50
102
RTVSPost2010PropOp50
 70
     1
102
RTVSPost2010Prop51ColorIndex
 90
      256
102
RTVSPost2010Prop51ColorRGB
 90
-16777216
102
RTVSPost2010PropOp51
 70
     0
102
RTVSPost2010Prop52
140
1.0
102
RTVSPost2010PropOp52
 70
     0
102
RTVSPost2010Prop53
 90
        2
102
RTVSPost2010PropOp53
 70
     1
102
RTVSPost2010Prop54
  1
strokes_ogs.tif
102
RTVSPost2010PropOp54
 70
     1
102
RTVSPost2010Prop55
280
     0
102
RTVSPost2010PropOp55
 70
     1
102
RTVSPost2010Prop56
140
1.0
102
RTVSPost2010PropOp56
 70
     1
102
RTVSPost2010Prop57
140
1.0
102
RTVSPost2010PropOp57
 70
     1
102
RTVSPropertyOp0
 70
     1
102
RTVSPropertyOp1
 70
     1
102
RTVSPropertyOp2
 70
     1
102
RTVSPropertyOp3
 70
     1
102
RTVSPropertyOp4
 70
     1
102
RTVSPropertyOp5
 70
     1
102
RTVSPropertyOp6
 70
     1
102
RTVSPropertyOp7
 70
     1
102
RTVSPropertyOp8
 70
     1
102
RTVSPropertyOp9
 70
     1
102
RTVSPropertyOp10
 70
     1
102
RTVSPropertyOp11
 70
     1
102
RTVSPropertyOp12
 70
     1
102
RTVSPropertyOp13
 70
     1
102
RTVSPropertyOp14
 70
     1
102
RTVSPropertyOp15
 70
     1
102
RTVSPropertyOp16
 70
     1
102
RTVSPropertyOp17
 70
     1
102
RTVSPropertyOp18
 70
     1
102
RTVSPropertyOp19
 70
     1
102
RTVSPropertyOp20
 70
     1
102
RTVSPropertyOp21
 70
     1
102
RTVSPropertyOp22
 70
     1
102
RTVSPropertyOp23
 70
     1
102
RTVSPropertyOp24
 70
     1
102
RTVSPropertyOp25
 70
     1
102
RTVSPropertyOp26
 70
     1
102
RTVSPropertyOp27
 70
     1
102
RTVSPropertyOp28
 70
     1
102
RTVSPropertyOp29
 70
     1
102
RTVSPropertyOp30
 70
     1
102
RTVSPropertyOp31
 70
     1
102
RTVSPropertyOp32
 70
     1
102
RTVSPropertyOp33
 70
     1
102
RTVSPropertyOp34
 70
     1
102
RTVSPropertyOp35
 70
     1
102
RTVSPropertyOp36
 70
     1
102
RTVSPropertyOp37
 70
     1
102
RTVSPropertyOp38
 70
     1
102
RTVSPropertyOp39
 70
     1
102
RTVSPropertyOp40
 70
     1
102
RTVSPropertyOp41
 70
     1
102
RTVSPropertyOp42
 70
     1
102
RTVSPropertyOp43
 70
     1
102
RTVSPropertyOp44
 70
     1
102
RTVSPropertyOp45
 70
     1
102
RTVSPropertyOp46
 70
     1
102
RTVSPropertyOp47
 70
     1
102
RTVSPropertyOp48
 70
     1
102
RTVSPropertyOp49
 70
     1
102
RTVSPropertyOp50
 70
     1
102
RTVSPropertyOp51
 70
     0
102
RTVSPropertyOp52
 70
     0
102
RTVSPropertyOp53
 70
     1
102
RTVSPropertyOp54
 70
     1
102
RTVSPropertyOp55
 70
     1
102
RTVSPropertyOp56
 70
     1
102
RTVSPropertyOp57
 70
     1
102
RTVSPropertyOp58
 70
     1
102
RTVSPropertyOp59
 70
     1
102
RTVSPropertyOp60
 70
     1
102
RTVSPropertyOp61
 70
     1
102
RTVSPropertyOp62
 70
     1
  0
XRECORD
  5
9A91
102
{ACAD_REACTORS
330
9A90
102
}
330
9A90
100
AcDbXrecord
280
     1
102
RTVSPost2010Prop28
280
     0
102
RTVSPost2010PropOp28
 70
     1
102
RTVSPost2010Prop29
280
     1
102
RTVSPost2010PropOp29
 70
     1
102
RTVSPost2010Prop30
280
     1
102
RTVSPost2010PropOp30
 70
     1
102
RTVSPost2010Prop31
280
     0
102
RTVSPost2010PropOp31
 70
     1
102
RTVSPost2010Prop32
280
     0
102
RTVSPost2010PropOp32
 70
     1
102
RTVSPost2010Prop33
280
     0
102
RTVSPost2010PropOp33
 70
     1
102
RTVSPost2010Prop34
280
     0
102
RTVSPost2010PropOp34
 70
     1
102
RTVSPost2010Prop35
280
     0
102
RTVSPost2010PropOp35
 70
     1
102
RTVSPost2010Prop36
280
     0
102
RTVSPost2010PropOp36
 70
     1
102
RTVSPost2010Prop37
 90
       50
102
RTVSPost2010PropOp37
 70
     1
102
RTVSPost2010Prop38
140
0.0
102
RTVSPost2010PropOp38
 70
     1
102
RTVSPost2010Prop39
140
1.0
102
RTVSPost2010PropOp39
 70
     1
102
RTVSPost2010Prop40
 90
        0
102
RTVSPost2010PropOp40
 70
     1
102
RTVSPost2010Prop41ColorIndex
 90
       18
102
RTVSPost2010Prop41ColorRGB
 90
        0
102
RTVSPost2010PropOp41
 70
     1
102
RTVSPost2010Prop42
 90
       50
102
RTVSPost2010PropOp42
 70
     1
102
RTVSPost2010Prop43
 90
        3
102
RTVSPost2010PropOp43
 70
     1
102
RTVSPost2010Prop44ColorIndex
 90
        5
102
RTVSPost2010Prop44ColorRGB
 90
      255
102
RTVSPost2010PropOp44
 70
     1
102
RTVSPost2010Prop45
280
     0
102
RTVSPost2010PropOp45
 70
     1
102
RTVSPost2010Prop46
 90
       50
102
RTVSPost2010PropOp46
 70
     1
102
RTVSPost2010Prop47
 90
       50
102
RTVSPost2010PropOp47
 70
     1
102
RTVSPost2010Prop48
 90
       50
102
RTVSPost2010PropOp48
 70
     1
102
RTVSPost2010Prop49
280
     0
102
RTVSPost2010PropOp49
 70
     1
102
RTVSPost2010Prop50
 90
       50
102
RTVSPost2010PropOp50
 70
     1
102
RTVSPost2010Prop51ColorIndex
 90
      256
102
RTVSPost2010Prop51ColorRGB
 90
-16777216
102
RTVSPost2010PropOp51
 70
     0
102
RTVSPost2010Prop52
140
1.0
102
RTVSPost2010PropOp52
 70
     0
102
RTVSPost2010Prop53
 90
        2
102
RTVSPost2010PropOp53
 70
     1
102
RTVSPost2010Prop54
  1
strokes_ogs.tif
102
RTVSPost2010PropOp54
 70
     1
102
RTVSPost2010Prop55
280
     0
102
RTVSPost2010PropOp55
 70
     1
102
RTVSPost2010Prop56
140
1.0
102
RTVSPost2010PropOp56
 70
     1
102
RTVSPost2010Prop57
140
1.0
102
RTVSPost2010PropOp57
 70
     1
102
RTVSPropertyOp0
 70
     1
102
RTVSPropertyOp1
 70
     1
102
RTVSPropertyOp2
 70
     1
102
RTVSPropertyOp3
 70
     1
102
RTVSPropertyOp4
 70
     1
102
RTVSPropertyOp5
 70
     1
102
RTVSPropertyOp6
 70
     1
102
RTVSPropertyOp7
 70
     1
102
RTVSPropertyOp8
 70
     1
102
RTVSPropertyOp9
 70
     1
102
RTVSPropertyOp10
 70
     1
102
RTVSPropertyOp11
 70
     1
102
RTVSPropertyOp12
 70
     1
102
RTVSPropertyOp13
 70
     1
102
RTVSPropertyOp14
 70
     1
102
RTVSPropertyOp15
 70
     1
102
RTVSPropertyOp16
 70
     1
102
RTVSPropertyOp17
 70
     1
102
RTVSPropertyOp18
 70
     1
102
RTVSPropertyOp19
 70
     1
102
RTVSPropertyOp20
 70
     1
102
RTVSPropertyOp21
 70
     1
102
RTVSPropertyOp22
 70
     1
102
RTVSPropertyOp23
 70
     1
102
RTVSPropertyOp24
 70
     1
102
RTVSPropertyOp25
 70
     1
102
RTVSPropertyOp26
 70
     1
102
RTVSPropertyOp27
 70
     1
102
RTVSPropertyOp28
 70
     1
102
RTVSPropertyOp29
 70
     1
102
RTVSPropertyOp30
 70
     1
102
RTVSPropertyOp31
 70
     1
102
RTVSPropertyOp32
 70
     1
102
RTVSPropertyOp33
 70
     1
102
RTVSPropertyOp34
 70
     1
102
RTVSPropertyOp35
 70
     1
102
RTVSPropertyOp36
 70
     1
102
RTVSPropertyOp37
 70
     1
102
RTVSPropertyOp38
 70
     1
102
RTVSPropertyOp39
 70
     1
102
RTVSPropertyOp40
 70
     1
102
RTVSPropertyOp41
 70
     1
102
RTVSPropertyOp42
 70
     1
102
RTVSPropertyOp43
 70
     1
102
RTVSPropertyOp44
 70
     1
102
RTVSPropertyOp45
 70
     1
102
RTVSPropertyOp46
 70
     1
102
RTVSPropertyOp47
 70
     1
102
RTVSPropertyOp48
 70
     1
102
RTVSPropertyOp49
 70
     1
102
RTVSPropertyOp50
 70
     1
102
RTVSPropertyOp51
 70
     0
102
RTVSPropertyOp52
 70
     0
102
RTVSPropertyOp53
 70
     1
102
RTVSPropertyOp54
 70
     1
102
RTVSPropertyOp55
 70
     1
102
RTVSPropertyOp56
 70
     1
102
RTVSPropertyOp57
 70
     1
102
RTVSPropertyOp58
 70
     1
102
RTVSPropertyOp59
 70
     1
102
RTVSPropertyOp60
 70
     1
102
RTVSPropertyOp61
 70
     1
102
RTVSPropertyOp62
 70
     1
  0
ENDSEC
  0
EOF
