  0
SECTION
  2
HEADER
  9
$ACADVER
  1
AC1015
  9
$ACADMAINTVER
 70
    20
  9
$DWGCODEPAGE
  3
ANSI_932
  9
$INSBASE
 10
0.0
 20
0.0
 30
0.0
  9
$EXTMIN
 10
10.0
 20
9.999999999999998
 30
0.0
  9
$EXTMAX
 10
392.0088809999999
 20
239.536899
 30
0.0
  9
$LIMMIN
 10
0.0
 20
0.0
  9
$LIMMAX
 10
396.0
 20
273.0
  9
$ORTHOMODE
 70
     1
  9
$REGENMODE
 70
     1
  9
$FILLMODE
 70
     1
  9
$QTEXTMODE
 70
     0
  9
$MIRRTEXT
 70
     1
  9
$LTSCALE
 40
20.0
  9
$ATTMODE
 70
     1
  9
$TEXTSIZE
 40
5.0
  9
$TRACEWID
 40
1.0
  9
$TEXTSTYLE
  7
STANDARD
  9
$CLAYER
  8
0
  9
$CELTYPE
  6
BYLAYER
  9
$CECOLOR
 62
   256
  9
$CELTSCALE
 40
1.0
  9
$DISPSILH
 70
     0
  9
$DIMSCALE
 40
1.0
  9
$DIMASZ
 40
3.0
  9
$DIMEXO
 40
1.0
  9
$DIMDLI
 40
10.0
  9
$DIMRND
 40
0.0
  9
$DIMDLE
 40
0.0
  9
$DIMEXE
 40
1.0
  9
$DIMTP
 40
0.0
  9
$DIMTM
 40
0.0
  9
$DIMTXT
 40
3.2
  9
$DIMCEN
 40
0.0
  9
$DIMTSZ
 40
0.0
  9
$DIMTOL
 70
     0
  9
$DIMLIM
 70
     0
  9
$DIMTIH
 70
     0
  9
$DIMTOH
 70
     0
  9
$DIMSE1
 70
     0
  9
$DIMSE2
 70
     0
  9
$DIMTAD
 70
     3
  9
$DIMZIN
 70
     8
  9
$DIMBLK
  1

  9
$DIMASO
 70
     1
  9
$DIMSHO
 70
     1
  9
$DIMPOST
  1

  9
$DIMAPOST
  1

  9
$DIMALT
 70
     0
  9
$DIMALTD
 70
     2
  9
$DIMALTF
 40
25.4
  9
$DIMLFAC
 40
1.0
  9
$DIMTOFL
 70
     1
  9
$DIMTVP
 40
0.0
  9
$DIMTIX
 70
     0
  9
$DIMSOXD
 70
     0
  9
$DIMSAH
 70
     1
  9
$DIMBLK1
  1
OPEN
  9
$DIMBLK2
  1
OPEN
  9
$DIMSTYLE
  2
STANDARD
  9
$DIMCLRD
 70
     0
  9
$DIMCLRE
 70
     0
  9
$DIMCLRT
 70
     0
  9
$DIMTFAC
 40
1.0
  9
$DIMGAP
 40
1.0
  9
$DIMJUST
 70
     0
  9
$DIMSD1
 70
     0
  9
$DIMSD2
 70
     0
  9
$DIMTOLJ
 70
     1
  9
$DIMTZIN
 70
     0
  9
$DIMALTZ
 70
     0
  9
$DIMALTTZ
 70
     0
  9
$DIMUPT
 70
     0
  9
$DIMDEC
 70
     4
  9
$DIMTDEC
 70
     4
  9
$DIMALTU
 70
     2
  9
$DIMALTTD
 70
     2
  9
$DIMTXSTY
  7
STANDARD
  9
$DIMAUNIT
 70
     0
  9
$DIMADEC
 70
     0
  9
$DIMALTRND
 40
0.0
  9
$DIMAZIN
 70
     0
  9
$DIMDSEP
 70
    46
  9
$DIMATFIT
 70
     3
  9
$DIMFRAC
 70
     0
  9
$DIMLDRBLK
  1
OPEN
  9
$DIMLUNIT
 70
     2
  9
$DIMLWD
 70
    -2
  9
$DIMLWE
 70
    -2
  9
$DIMTMOVE
 70
     0
  9
$LUNITS
 70
     2
  9
$LUPREC
 70
     4
  9
$SKETCHINC
 40
1.0
  9
$FILLETRAD
 40
2.6
  9
$AUNITS
 70
     0
  9
$AUPREC
 70
     2
  9
$MENU
  1
.
  9
$ELEVATION
 40
0.0
  9
$PELEVATION
 40
0.0
  9
$THICKNESS
 40
0.0
  9
$LIMCHECK
 70
     0
  9
$CHAMFERA
 40
10.0
  9
$CHAMFERB
 40
10.0
  9
$CHAMFERC
 40
0.0
  9
$CHAMFERD
 40
0.0
  9
$SKPOLY
 70
     0
  9
$TDCREATE
 40
2450945.567167940
  9
$TDUCREATE
 40
2450945.192167940
  9
$TDUPDATE
 40
2457192.600781852
  9
$TDUUPDATE
 40
2457192.225781852
  9
$TDINDWG
 40
0.0404149537
  9
$TDUSRTIMER
 40
0.0404144676
  9
$USRTIMER
 70
     1
  9
$ANGBASE
 50
0.0
  9
$ANGDIR
 70
     0
  9
$PDMODE
 70
     0
  9
$PDSIZE
 40
0.0
  9
$PLINEWID
 40
0.0
  9
$SPLFRAME
 70
     0
  9
$SPLINETYPE
 70
     6
  9
$SPLINESEGS
 70
     8
  9
$HANDSEED
  5
A4A1
  9
$SURFTAB1
 70
     6
  9
$SURFTAB2
 70
     6
  9
$SURFTYPE
 70
     6
  9
$SURFU
 70
     6
  9
$SURFV
 70
     6
  9
$UCSBASE
  2

  9
$UCSNAME
  2

  9
$UCSORG
 10
0.0
 20
0.0
 30
0.0
  9
$UCSXDIR
 10
1.0
 20
0.0
 30
0.0
  9
$UCSYDIR
 10
0.0
 20
1.0
 30
0.0
  9
$UCSORTHOREF
  2

  9
$UCSORTHOVIEW
 70
     0
  9
$UCSORGTOP
 10
0.0
 20
0.0
 30
0.0
  9
$UCSORGBOTTOM
 10
0.0
 20
0.0
 30
0.0
  9
$UCSORGLEFT
 10
0.0
 20
0.0
 30
0.0
  9
$UCSORGRIGHT
 10
0.0
 20
0.0
 30
0.0
  9
$UCSORGFRONT
 10
0.0
 20
0.0
 30
0.0
  9
$UCSORGBACK
 10
0.0
 20
0.0
 30
0.0
  9
$PUCSBASE
  2

  9
$PUCSNAME
  2

  9
$PUCSORG
 10
0.0
 20
0.0
 30
0.0
  9
$PUCSXDIR
 10
1.0
 20
0.0
 30
0.0
  9
$PUCSYDIR
 10
0.0
 20
1.0
 30
0.0
  9
$PUCSORTHOREF
  2

  9
$PUCSORTHOVIEW
 70
     0
  9
$PUCSORGTOP
 10
0.0
 20
0.0
 30
0.0
  9
$PUCSORGBOTTOM
 10
0.0
 20
0.0
 30
0.0
  9
$PUCSORGLEFT
 10
0.0
 20
0.0
 30
0.0
  9
$PUCSORGRIGHT
 10
0.0
 20
0.0
 30
0.0
  9
$PUCSORGFRONT
 10
0.0
 20
0.0
 30
0.0
  9
$PUCSORGBACK
 10
0.0
 20
0.0
 30
0.0
  9
$USERI1
 70
     0
  9
$USERI2
 70
     0
  9
$USERI3
 70
     0
  9
$USERI4
 70
     0
  9
$USERI5
 70
     0
  9
$USERR1
 40
0.0
  9
$USERR2
 40
0.0
  9
$USERR3
 40
0.0
  9
$USERR4
 40
0.0
  9
$USERR5
 40
0.0
  9
$WORLDVIEW
 70
     1
  9
$SHADEDGE
 70
     3
  9
$SHADEDIF
 70
    70
  9
$TILEMODE
 70
     1
  9
$MAXACTVP
 70
    16
  9
$PINSBASE
 10
0.0
 20
0.0
 30
0.0
  9
$PLIMCHECK
 70
     0
  9
$PEXTMIN
 10
1.000000000000000E+20
 20
1.000000000000000E+20
 30
1.000000000000000E+20
  9
$PEXTMAX
 10
-1.000000000000000E+20
 20
-1.000000000000000E+20
 30
-1.000000000000000E+20
  9
$PLIMMIN
 10
0.0
 20
0.0
  9
$PLIMMAX
 10
420.0
 20
297.0
  9
$UNITMODE
 70
     0
  9
$VISRETAIN
 70
     0
  9
$PLINEGEN
 70
     0
  9
$PSLTSCALE
 70
     0
  9
$TREEDEPTH
 70
  3020
  9
$CMLSTYLE
  2
STANDARD
  9
$CMLJUST
 70
     0
  9
$CMLSCALE
 40
1.0
  9
$PROXYGRAPHICS
 70
     1
  9
$MEASUREMENT
 70
     0
  9
$CELWEIGHT
370
    -1
  9
$ENDCAPS
280
     0
  9
$JOINSTYLE
280
     0
  9
$LWDISPLAY
290
     0
  9
$INSUNITS
 70
     0
  9
$HYPERLINKBASE
  1

  9
$STYLESHEET
  1

  9
$XEDIT
290
     1
  9
$CEPSNTYPE
380
     0
  9
$PSTYLEMODE
290
     1
  9
$FINGERPRINTGUID
  2
{362593C0-93DA-41D9-B8E2-8B98DF3DEE6A}
  9
$VERSIONGUID
  2
{A495484D-3F6C-475A-A2B7-FF3C8385A706}
  9
$EXTNAMES
290
     1
  9
$PSVPSCALE
 40
0.0
  9
$OLESTARTUP
290
     0
  0
ENDSEC
  0
SECTION
  2
CLASSES
  0
CLASS
  1
ACDBDICTIONARYWDFLT
  2
AcDbDictionaryWithDefault
  3
ObjectDBX Classes
 90
        0
280
     0
281
     0
  0
CLASS
  1
ACDBPLACEHOLDER
  2
AcDbPlaceHolder
  3
ObjectDBX Classes
 90
        0
280
     0
281
     0
  0
CLASS
  1
LAYOUT
  2
AcDbLayout
  3
ObjectDBX Classes
 90
        0
280
     0
281
     0
  0
CLASS
  1
DICTIONARYVAR
  2
AcDbDictionaryVar
  3
ObjectDBX Classes
 90
        0
280
     0
281
     0
  0
CLASS
  1
MATERIAL
  2
AcDbMaterial
  3
ObjectDBX Classes
 90
     1153
280
     0
281
     0
  0
CLASS
  1
VISUALSTYLE
  2
AcDbVisualStyle
  3
ObjectDBX Classes
 90
     4095
280
     0
281
     0
  0
CLASS
  1
TABLESTYLE
  2
AcDbTableStyle
  3
ObjectDBX Classes
 90
     4095
280
     0
281
     0
  0
CLASS
  1
SCALE
  2
AcDbScale
  3
ObjectDBX Classes
 90
     1153
280
     0
281
     0
  0
CLASS
  1
MLEADERSTYLE
  2
AcDbMLeaderStyle
  3
ACDB_MLEADERSTYLE_CLASS
 90
     4095
280
     0
281
     0
  0
CLASS
  1
ACDBSECTIONVIEWSTYLE
  2
AcDbSectionViewStyle
  3
ObjectDBX Classes
 90
     1025
280
     0
281
     0
  0
CLASS
  1
ACDBDETAILVIEWSTYLE
  2
AcDbDetailViewStyle
  3
ObjectDBX Classes
 90
     1025
280
     0
281
     0
  0
CLASS
  1
CELLSTYLEMAP
  2
AcDbCellStyleMap
  3
ObjectDBX Classes
 90
     1152
280
     0
281
     0
  0
ENDSEC
  0
SECTION
  2
TABLES
  0
TABLE
  2
VPORT
  5
A03A
330
0
100
AcDbSymbolTable
 70
     1
  0
VPORT
  5
A3EA
330
A03A
100
AcDbSymbolTableRecord
100
AcDbViewportTableRecord
  2
*ACTIVE
 70
     0
 10
0.0
 20
0.0
 11
1.0
 21
1.0
 12
270.5321157407607
 22
124.7632833978431
 13
0.0
 23
0.0
 14
10.0
 24
10.0
 15
10.0
 25
10.0
 16
0.0
 26
0.0
 36
1.0
 17
0.0
 27
0.0
 37
0.0
 40
232.1154728616404
 41
1.899603698811096
 42
50.0
 43
0.0
 44
0.0
 50
0.0
 51
0.0
 71
     0
 72
   100
 73
     1
 74
     0
 75
     0
 76
     0
 77
     0
 78
     0
281
     0
 65
     1
110
0.0
120
0.0
130
0.0
111
1.0
121
0.0
131
0.0
112
0.0
122
1.0
132
0.0
 79
     0
146
0.0
1001
ACAD_NAV_VCDISPLAY
1070
     3
  0
ENDTAB
  0
TABLE
  2
LTYPE
  5
A037
330
0
100
AcDbSymbolTable
 70
     4
  0
LTYPE
  5
A045
330
A037
100
AcDbSymbolTableRecord
100
AcDbLinetypeTableRecord
  2
BYBLOCK
 70
     0
  3

 72
    65
 73
     0
 40
0.0
  0
LTYPE
  5
A046
330
A037
100
AcDbSymbolTableRecord
100
AcDbLinetypeTableRecord
  2
BYLAYER
 70
     0
  3

 72
    65
 73
     0
 40
0.0
  0
LTYPE
  5
A047
330
A037
100
AcDbSymbolTableRecord
100
AcDbLinetypeTableRecord
  2
CONTINUOUS
 70
     0
  3
Solid line
 72
    65
 73
     0
 40
0.0
  0
LTYPE
  5
A055
330
A037
100
AcDbSymbolTableRecord
100
AcDbLinetypeTableRecord
  2
DASHED
 70
     0
  3
__ __ __ __ __ __ __ __ __ __ __ __ __ __ __ __
 72
    65
 73
     2
 40
0.75
 49
0.5
 74
     0
 49
-0.25
 74
     0
  0
LTYPE
  5
A056
330
A037
100
AcDbSymbolTableRecord
100
AcDbLinetypeTableRecord
  2
CENTER
 70
     0
  3
____ _ ____ _ ____ _ ____ _ ____ _ ____ _ ____ 
 72
    65
 73
     4
 40
2.0
 49
1.25
 74
     0
 49
-0.25
 74
     0
 49
0.25
 74
     0
 49
-0.25
 74
     0
  0
LTYPE
  5
A057
330
A037
100
AcDbSymbolTableRecord
100
AcDbLinetypeTableRecord
  2
PHANTOM
 70
     0
  3
______  __  __  ______  __  __  ______  __  __ 
 72
    65
 73
     6
 40
2.5
 49
1.25
 74
     0
 49
-0.25
 74
     0
 49
0.25
 74
     0
 49
-0.25
 74
     0
 49
0.25
 74
     0
 49
-0.25
 74
     0
  0
ENDTAB
  0
TABLE
  2
LAYER
  5
A034
330
0
100
AcDbSymbolTable
 70
     8
  0
LAYER
  5
A042
102
{ACAD_XDICTIONARY
360
A445
102
}
330
A034
100
AcDbSymbolTableRecord
100
AcDbLayerTableRecord
  2
0
 70
     0
 62
     7
  6
CONTINUOUS
370
    -3
390
A3F3
  0
LAYER
  5
A058
102
{ACAD_XDICTIONARY
360
A447
102
}
330
A034
100
AcDbSymbolTableRecord
100
AcDbLayerTableRecord
  2
4
 70
     0
 62
     1
  6
CENTER
370
    -3
390
A3F3
  0
LAYER
  5
A059
102
{ACAD_XDICTIONARY
360
A449
102
}
330
A034
100
AcDbSymbolTableRecord
100
AcDbLayerTableRecord
  2
5
 70
     0
 62
     6
  6
PHANTOM
370
    -3
390
A3F3
  0
LAYER
  5
A05A
102
{ACAD_XDICTIONARY
360
A44B
102
}
330
A034
100
AcDbSymbolTableRecord
100
AcDbLayerTableRecord
  2
1
 70
     0
 62
     7
  6
CONTINUOUS
370
    -3
390
A3F3
  0
LAYER
  5
A05B
102
{ACAD_XDICTIONARY
360
A44D
102
}
330
A034
100
AcDbSymbolTableRecord
100
AcDbLayerTableRecord
  2
2
 70
     0
 62
     4
  6
CONTINUOUS
370
    -3
390
A3F3
  0
LAYER
  5
A05C
102
{ACAD_XDICTIONARY
360
A44F
102
}
330
A034
100
AcDbSymbolTableRecord
100
AcDbLayerTableRecord
  2
3
 70
     0
 62
     2
  6
DASHED
370
    -3
390
A3F3
  0
LAYER
  5
A05D
102
{ACAD_XDICTIONARY
360
A451
102
}
330
A034
100
AcDbSymbolTableRecord
100
AcDbLayerTableRecord
  2
6
 70
     0
 62
     5
  6
CONTINUOUS
370
    -3
390
A3F3
  0
LAYER
  5
A05E
102
{ACAD_XDICTIONARY
360
A453
102
}
330
A034
100
AcDbSymbolTableRecord
100
AcDbLayerTableRecord
  2
7
 70
     0
 62
     3
  6
CONTINUOUS
370
    -3
390
A3F3
  0
ENDTAB
  0
TABLE
  2
STYLE
  5
A035
330
0
100
AcDbSymbolTable
 70
     1
  0
STYLE
  5
A043
330
A035
100
AcDbSymbolTableRecord
100
AcDbTextStyleTableRecord
  2
STANDARD
 70
     0
 40
0.0
 41
1.0
 50
0.0
 71
     0
 42
5.0
  3
txt
  4

  0
ENDTAB
  0
TABLE
  2
VIEW
  5
A038
330
0
100
AcDbSymbolTable
 70
     0
  0
ENDTAB
  0
TABLE
  2
UCS
  5
A039
330
0
100
AcDbSymbolTable
 70
     0
  0
ENDTAB
  0
TABLE
  2
APPID
  5
A03B
330
0
100
AcDbSymbolTable
 70
     7
  0
APPID
  5
A044
330
A03B
100
AcDbSymbolTableRecord
100
AcDbRegAppTableRecord
  2
ACAD
 70
     0
  0
APPID
  5
A05F
330
A03B
100
AcDbSymbolTableRecord
100
AcDbRegAppTableRecord
  2
CONTENTTABDATA
 70
     0
  0
APPID
  5
A060
330
A03B
100
AcDbSymbolTableRecord
100
AcDbRegAppTableRecord
  2
CONTENTCURRENTTAB
 70
     0
  0
APPID
  5
A061
330
A03B
100
AcDbSymbolTableRecord
100
AcDbRegAppTableRecord
  2
CONTENTBLOCKICON
 70
     0
  0
APPID
  5
A062
330
A03B
100
AcDbSymbolTableRecord
100
AcDbRegAppTableRecord
  2
CONTENTBLOCKDESCRIPTION
 70
     0
  0
APPID
  5
A45F
330
A03B
100
AcDbSymbolTableRecord
100
AcDbRegAppTableRecord
  2
ACAD_NAV_VCDISPLAY
 70
     0
  0
APPID
  5
A498
330
A03B
100
AcDbSymbolTableRecord
100
AcDbRegAppTableRecord
  2
ACAD_MLEADERVER
 70
     0
  0
ENDTAB
  0
TABLE
  2
DIMSTYLE
  5
A03C
330
0
100
AcDbSymbolTable
 70
     1
100
AcDbDimStyleTable
 71
     0
  0
DIMSTYLE
105
A064
330
A03C
100
AcDbSymbolTableRecord
100
AcDbDimStyleTableRecord
  2
STANDARD
 70
     0
 41
3.0
 42
1.0
 43
10.0
 44
1.0
 73
     0
 74
     0
 77
     3
 78
     8
140
3.2
141
0.0
147
1.0
172
     1
173
     1
284
     8
285
     8
286
     8
340
A043
  0
ENDTAB
  0
TABLE
  2
BLOCK_RECORD
  5
A033
330
0
100
AcDbSymbolTable
 70
     1
  0
BLOCK_RECORD
  5
A050
102
{ACAD_XDICTIONARY
360
A3ED
102
}
330
A033
100
AcDbSymbolTableRecord
100
AcDbBlockTableRecord
  2
*MODEL_SPACE
340
A441
  0
BLOCK_RECORD
  5
A04C
102
{ACAD_XDICTIONARY
360
A3EB
102
}
330
A033
100
AcDbSymbolTableRecord
100
AcDbBlockTableRecord
  2
*PAPER_SPACE
340
A442
  0
BLOCK_RECORD
  5
A06C
330
A033
100
AcDbSymbolTableRecord
100
AcDbBlockTableRecord
  2
_OPEN
340
0
  0
ENDTAB
  0
ENDSEC
  0
SECTION
  2
BLOCKS
  0
BLOCK
  5
A051
330
A050
100
AcDbEntity
  8
0
100
AcDbBlockBegin
  2
*MODEL_SPACE
 70
     0
 10
0.0
 20
0.0
 30
0.0
  3
*MODEL_SPACE
  1

  0
ENDBLK
  5
A052
330
A050
100
AcDbEntity
  8
0
100
AcDbBlockEnd
  0
BLOCK
  5
A04D
330
A04C
100
AcDbEntity
 67
     1
  8
0
100
AcDbBlockBegin
  2
*PAPER_SPACE
 70
     0
 10
0.0
 20
0.0
 30
0.0
  3
*PAPER_SPACE
  1

  0
ENDBLK
  5
A04E
330
A04C
100
AcDbEntity
 67
     1
  8
0
100
AcDbBlockEnd
  0
BLOCK
  5
A06D
330
A06C
100
AcDbEntity
  8
0
100
AcDbBlockBegin
  2
_OPEN
 70
     0
 10
0.0
 20
0.0
 30
0.0
  3
_OPEN
  1

  0
LINE
  5
A06E
330
A06C
100
AcDbEntity
  8
0
  6
ByBlock
 62
     0
100
AcDbLine
 10
-1.0
 20
0.1666666666666666
 30
0.0
 11
0.0
 21
0.0
 31
0.0
  0
LINE
  5
A06F
330
A06C
100
AcDbEntity
  8
0
  6
ByBlock
 62
     0
100
AcDbLine
 10
0.0
 20
0.0
 30
0.0
 11
-1.0
 21
-0.1666666666666666
 31
0.0
  0
LINE
  5
A070
330
A06C
100
AcDbEntity
  8
0
  6
ByBlock
 62
     0
100
AcDbLine
 10
0.0
 20
0.0
 30
0.0
 11
-1.0
 21
0.0
 31
0.0
  0
ENDBLK
  5
A071
330
A06C
100
AcDbEntity
  8
0
100
AcDbBlockEnd
  0
ENDSEC
  0
SECTION
  2
ENTITIES
  0
TEXT
  5
A072
330
A050
100
AcDbEntity
  8
7
  6
Continuous
100
AcDbText
 10
10.0
 20
18.0
 30
0.0
 40
3.0
  1
TYPE No.TL-258-1
100
AcDbText
  0
TEXT
  5
A073
330
A050
100
AcDbEntity
  8
7
  6
Continuous
100
AcDbText
 10
10.0
 20
26.0
 30
0.0
 40
3.0
  1
CODE No.1728
100
AcDbText
  0
TEXT
  5
A074
330
A050
100
AcDbEntity
  8
1
  6
Continuous
100
AcDbText
 10
10.0
 20
10.0
 30
0.0
 40
1.399999999999999
  1
LAYER
100
AcDbText
  0
TEXT
  5
A075
330
A050
100
AcDbEntity
  8
1
  6
Continuous
100
AcDbText
 10
17.97951099999998
 20
10.04873699999998
 30
0.0
 40
1.399999999999999
  1
1
100
AcDbText
  0
TEXT
  5
A076
330
A050
100
AcDbEntity
  8
7
  6
Continuous
100
AcDbText
 10
29.97951099999999
 20
10.04873699999998
 30
0.0
 40
1.399999999999999
  1
7
100
AcDbText
  0
TEXT
  5
A077
330
A050
100
AcDbEntity
  8
4
  6
CENTER
100
AcDbText
 10
23.97951099999999
 20
10.04873699999998
 30
0.0
 40
1.399999999999999
  1
4
100
AcDbText
  0
TEXT
  5
A078
330
A050
100
AcDbEntity
  8
3
  6
DASHED
100
AcDbText
 10
21.979511
 20
10.04873699999998
 30
0.0
 40
1.399999999999999
  1
3
100
AcDbText
  0
TEXT
  5
A079
330
A050
100
AcDbEntity
  8
2
  6
Continuous
100
AcDbText
 10
19.97951099999999
 20
10.04873699999998
 30
0.0
 40
1.399999999999999
  1
2
100
AcDbText
  0
TEXT
  5
A07A
330
A050
100
AcDbEntity
  8
6
  6
Continuous
100
AcDbText
 10
27.979511
 20
10.04873699999998
 30
0.0
 40
1.399999999999999
  1
6
100
AcDbText
  0
TEXT
  5
A07B
330
A050
100
AcDbEntity
  8
5
  6
PHANTOM
100
AcDbText
 10
25.97951099999999
 20
10.04873699999998
 30
0.0
 40
1.399999999999999
  1
5
100
AcDbText
  0
LINE
  5
A07C
330
A050
100
AcDbEntity
  8
1
  6
Continuous
100
AcDbLine
 10
119.050972
 20
142.9368899999998
 30
0.0
 11
119.050972
 21
120.9368899999999
 31
0.0
  0
LINE
  5
A07D
330
A050
100
AcDbEntity
  8
1
  6
Continuous
100
AcDbLine
 10
145.6699219999999
 20
142.9368899999998
 30
0.0
 11
169.0509639999999
 21
142.9368899999998
 31
0.0
  0
LINE
  5
A07E
330
A050
100
AcDbEntity
  8
1
  6
Continuous
100
AcDbLine
 10
119.050972
 20
120.9368899999999
 30
0.0
 11
169.0509639999999
 21
120.9368899999999
 31
0.0
  0
LINE
  5
A07F
330
A050
100
AcDbEntity
  8
1
  6
Continuous
100
AcDbLine
 10
169.0509639999999
 20
142.9368899999998
 30
0.0
 11
169.0509639999999
 21
120.9368899999999
 31
0.0
  0
LINE
  5
A080
330
A050
100
AcDbEntity
  8
4
  6
CENTER
100
AcDbLine
 10
104.4930649999999
 20
131.9368899999997
 30
0.0
 11
174.225433
 21
131.9368899999997
 31
0.0
  0
LINE
  5
A081
330
A050
100
AcDbEntity
  8
1
  6
Continuous
100
AcDbLine
 10
119.050972
 20
142.9368899999998
 30
0.0
 11
122.432022
 21
142.9368899999998
 31
0.0
  0
LINE
  5
A082
330
A050
100
AcDbEntity
  8
1
  6
Continuous
100
AcDbLine
 10
163.679749
 20
125.308098
 30
0.0
 11
164.1012879999999
 21
125.5046689999997
 31
0.0
  0
LINE
  5
A083
330
A050
100
AcDbEntity
  8
1
  6
Continuous
100
AcDbLine
 10
164.101303
 20
125.504677
 30
0.0
 11
164.8012999999999
 21
125.5168909999997
 31
0.0
  0
LINE
  5
A084
330
A050
100
AcDbEntity
  8
1
  6
Continuous
100
AcDbLine
 10
164.101303
 20
126.3691019999999
 30
0.0
 11
164.801285
 21
126.3568879999999
 31
0.0
  0
LINE
  5
A085
330
A050
100
AcDbEntity
  8
1
  6
Continuous
100
AcDbLine
 10
163.679749
 20
126.565681
 30
0.0
 11
164.101303
 21
126.36911
 31
0.0
  0
LINE
  5
A086
330
A050
100
AcDbEntity
  8
1
  6
Continuous
100
AcDbLine
 10
163.4832
 20
126.9872209999999
 30
0.0
 11
163.470978
 21
127.68721
 31
0.0
  0
LINE
  5
A087
330
A050
100
AcDbEntity
  8
1
  6
Continuous
100
AcDbLine
 10
163.6797639999998
 20
126.565681
 30
0.0
 11
163.4831849999999
 21
126.9872209999999
 31
0.0
  0
LINE
  5
A088
330
A050
100
AcDbEntity
  8
1
  6
Continuous
100
AcDbLine
 10
162.6187439999999
 20
126.9872209999999
 30
0.0
 11
162.6309659999997
 21
127.687202
 31
0.0
  0
LINE
  5
A089
330
A050
100
AcDbEntity
  8
1
  6
Continuous
100
AcDbLine
 10
162.4221949999999
 20
126.565674
 30
0.0
 11
162.618759
 21
126.9872129999999
 31
0.0
  0
LINE
  5
A08A
330
A050
100
AcDbEntity
  8
1
  6
Continuous
100
AcDbLine
 10
162.000656
 20
126.369118
 30
0.0
 11
161.3006589999999
 21
126.356895
 31
0.0
  0
LINE
  5
A08B
330
A050
100
AcDbEntity
  8
1
  6
Continuous
100
AcDbLine
 10
162.4221799999999
 20
126.565674
 30
0.0
 11
162.000641
 21
126.3691019999999
 31
0.0
  0
LINE
  5
A08C
330
A050
100
AcDbEntity
  8
1
  6
Continuous
100
AcDbLine
 10
162.000641
 20
125.504662
 30
0.0
 11
161.3006589999999
 21
125.516884
 31
0.0
  0
LINE
  5
A08D
330
A050
100
AcDbEntity
  8
1
  6
Continuous
100
AcDbLine
 10
162.4221799999999
 20
125.308098
 30
0.0
 11
162.000641
 21
125.504662
 31
0.0
  0
LINE
  5
A08E
330
A050
100
AcDbEntity
  8
1
  6
Continuous
100
AcDbLine
 10
162.618759
 20
124.8865659999997
 30
0.0
 11
162.6309809999999
 21
124.186584
 31
0.0
  0
LINE
  5
A08F
330
A050
100
AcDbEntity
  8
1
  6
Continuous
100
AcDbLine
 10
162.4221799999999
 20
125.308105
 30
0.0
 11
162.618759
 21
124.8865659999997
 31
0.0
  0
LINE
  5
A090
330
A050
100
AcDbEntity
  8
1
  6
Continuous
100
AcDbLine
 10
163.4831849999999
 20
124.8865659999997
 30
0.0
 11
163.4709629999998
 21
124.1865769999999
 31
0.0
  0
LINE
  5
A091
330
A050
100
AcDbEntity
  8
1
  6
Continuous
100
AcDbLine
 10
163.6797639999998
 20
125.308098
 30
0.0
 11
163.4831849999999
 21
124.886559
 31
0.0
  0
LINE
  5
A092
330
A050
100
AcDbEntity
  8
4
  6
CENTER
100
AcDbLine
 10
163.0509639999999
 20
129.6868899999997
 30
0.0
 11
163.0509639999999
 21
122.18689
 31
0.0
  0
LINE
  5
A093
330
A050
100
AcDbEntity
  8
4
  6
CENTER
100
AcDbLine
 10
159.300964
 20
125.9368899999999
 30
0.0
 11
166.800964
 21
125.9368899999999
 31
0.0
  0
LINE
  5
A094
330
A050
100
AcDbEntity
  8
4
  6
CENTER
100
AcDbLine
 10
148.050964
 20
141.6868899999998
 30
0.0
 11
148.050964
 21
134.1868899999997
 31
0.0
  0
LINE
  5
A095
330
A050
100
AcDbEntity
  8
4
  6
CENTER
100
AcDbLine
 10
144.3009639999999
 20
137.9368899999997
 30
0.0
 11
151.800964
 21
137.9368899999997
 31
0.0
  0
LINE
  5
A096
330
A050
100
AcDbEntity
  8
1
  6
Continuous
100
AcDbLine
 10
148.6797639999998
 20
137.308105
 30
0.0
 11
149.1013029999997
 21
137.504669
 31
0.0
  0
LINE
  5
A097
330
A050
100
AcDbEntity
  8
1
  6
Continuous
100
AcDbLine
 10
149.1013029999997
 20
137.504669
 30
0.0
 11
149.801285
 21
137.5168759999999
 31
0.0
  0
LINE
  5
A098
330
A050
100
AcDbEntity
  8
1
  6
Continuous
100
AcDbLine
 10
149.1012879999999
 20
138.36911
 30
0.0
 11
149.8012699999998
 21
138.356888
 31
0.0
  0
LINE
  5
A099
330
A050
100
AcDbEntity
  8
1
  6
Continuous
100
AcDbLine
 10
148.6797489999998
 20
138.5656739999997
 30
0.0
 11
149.1013029999997
 21
138.3690949999997
 31
0.0
  0
LINE
  5
A09A
330
A050
100
AcDbEntity
  8
1
  6
Continuous
100
AcDbLine
 10
148.4832
 20
138.9872279999998
 30
0.0
 11
148.470978
 21
139.6872099999999
 31
0.0
  0
LINE
  5
A09B
330
A050
100
AcDbEntity
  8
1
  6
Continuous
100
AcDbLine
 10
148.6797489999998
 20
138.5656739999997
 30
0.0
 11
148.4831849999999
 21
138.987213
 31
0.0
  0
LINE
  5
A09C
330
A050
100
AcDbEntity
  8
1
  6
Continuous
100
AcDbLine
 10
147.618759
 20
138.987213
 30
0.0
 11
147.630966
 21
139.6872099999999
 31
0.0
  0
LINE
  5
A09D
330
A050
100
AcDbEntity
  8
1
  6
Continuous
100
AcDbLine
 10
147.42218
 20
138.5656739999997
 30
0.0
 11
147.618759
 21
138.987213
 31
0.0
  0
LINE
  5
A09E
330
A050
100
AcDbEntity
  8
1
  6
Continuous
100
AcDbLine
 10
147.000641
 20
138.36911
 30
0.0
 11
146.3006589999999
 21
138.356888
 31
0.0
  0
LINE
  5
A09F
330
A050
100
AcDbEntity
  8
1
  6
Continuous
100
AcDbLine
 10
147.42218
 20
138.5656739999997
 30
0.0
 11
147.000641
 21
138.36911
 31
0.0
  0
LINE
  5
A0A0
330
A050
100
AcDbEntity
  8
1
  6
Continuous
100
AcDbLine
 10
147.000641
 20
137.504669
 30
0.0
 11
146.3006589999999
 21
137.5168909999999
 31
0.0
  0
LINE
  5
A0A1
330
A050
100
AcDbEntity
  8
1
  6
Continuous
100
AcDbLine
 10
147.42218
 20
137.3080899999999
 30
0.0
 11
147.000641
 21
137.504669
 31
0.0
  0
LINE
  5
A0A2
330
A050
100
AcDbEntity
  8
1
  6
Continuous
100
AcDbLine
 10
147.618759
 20
136.8865659999999
 30
0.0
 11
147.6309809999999
 21
136.186584
 31
0.0
  0
LINE
  5
A0A3
330
A050
100
AcDbEntity
  8
1
  6
Continuous
100
AcDbLine
 10
147.42218
 20
137.308105
 30
0.0
 11
147.6187439999999
 21
136.8865659999999
 31
0.0
  0
LINE
  5
A0A4
330
A050
100
AcDbEntity
  8
1
  6
Continuous
100
AcDbLine
 10
148.4832
 20
136.8865659999999
 30
0.0
 11
148.470978
 21
136.1865689999999
 31
0.0
  0
LINE
  5
A0A5
330
A050
100
AcDbEntity
  8
1
  6
Continuous
100
AcDbLine
 10
148.6797639999998
 20
137.308105
 30
0.0
 11
148.4831849999999
 21
136.8865659999999
 31
0.0
  0
LINE
  5
A0A6
330
A050
100
AcDbEntity
  8
4
  6
CENTER
100
AcDbLine
 10
31.45097199999999
 20
128.1868899999997
 30
0.0
 11
31.45097199999999
 21
123.6868899999999
 31
0.0
  0
LINE
  5
A0A7
330
A050
100
AcDbEntity
  8
4
  6
CENTER
100
AcDbLine
 10
29.20097199999998
 20
125.9368899999999
 30
0.0
 11
33.700972
 21
125.9368899999999
 31
0.0
  0
LINE
  5
A0A8
330
A050
100
AcDbEntity
  8
4
  6
CENTER
100
AcDbLine
 10
138.5509639999999
 20
127.6868899999999
 30
0.0
 11
138.5509639999999
 21
123.18689
 31
0.0
  0
LINE
  5
A0A9
330
A050
100
AcDbEntity
  8
4
  6
CENTER
100
AcDbLine
 10
136.300964
 20
125.43689
 30
0.0
 11
140.8009639999999
 21
125.43689
 31
0.0
  0
LINE
  5
A0AA
330
A050
100
AcDbEntity
  8
4
  6
CENTER
100
AcDbLine
 10
134.050964
 20
152.4368899999998
 30
0.0
 11
134.050964
 21
133.4368899999997
 31
0.0
  0
LINE
  5
A0AB
330
A050
100
AcDbEntity
  8
4
  6
CENTER
100
AcDbLine
 10
124.550972
 20
142.9368899999998
 30
0.0
 11
143.550964
 21
142.9368899999998
 31
0.0
  0
LINE
  5
A0AC
330
A050
100
AcDbEntity
  8
1
  6
Continuous
100
AcDbLine
 10
132.700974
 20
133.586884
 30
0.0
 11
146.000977
 21
133.586884
 31
0.0
  0
LINE
  5
A0AD
330
A050
100
AcDbEntity
  8
1
  6
Continuous
100
AcDbLine
 10
132.700974
 20
130.2868959999997
 30
0.0
 11
146.000977
 21
130.2868959999997
 31
0.0
  0
LINE
  5
A0AE
330
A050
100
AcDbEntity
  8
1
  6
Continuous
100
AcDbLine
 10
51.450972
 20
151.9368899999998
 30
0.0
 11
54.050972
 21
151.9368899999998
 31
0.0
  0
LINE
  5
A0AF
330
A050
100
AcDbEntity
  8
1
  6
Continuous
100
AcDbLine
 10
26.45097199999999
 20
142.9368899999998
 30
0.0
 11
54.050972
 21
142.9368899999998
 31
0.0
  0
LINE
  5
A0B0
330
A050
100
AcDbEntity
  8
1
  6
Continuous
100
AcDbLine
 10
26.45097199999999
 20
120.9368899999999
 30
0.0
 11
54.050972
 21
120.9368899999999
 31
0.0
  0
LINE
  5
A0B1
330
A050
100
AcDbEntity
  8
1
  6
Continuous
100
AcDbLine
 10
54.050972
 20
151.9368899999998
 30
0.0
 11
54.050972
 21
120.9368899999999
 31
0.0
  0
LINE
  5
A0B2
330
A050
100
AcDbEntity
  8
1
  6
Continuous
100
AcDbLine
 10
26.45097199999999
 20
142.9368899999998
 30
0.0
 11
26.45097199999999
 21
120.9368899999999
 31
0.0
  0
LINE
  5
A0B3
330
A050
100
AcDbEntity
  8
1
  6
Continuous
100
AcDbLine
 10
51.450972
 20
151.9368899999998
 30
0.0
 11
51.450972
 21
142.9368899999998
 31
0.0
  0
LINE
  5
A0B4
330
A050
100
AcDbEntity
  8
4
  6
CENTER
100
AcDbLine
 10
58.499451
 20
131.9368899999997
 30
0.0
 11
21.779345
 21
131.9368899999997
 31
0.0
  0
LINE
  5
A0B5
330
A050
100
AcDbEntity
  8
4
  6
CENTER
100
AcDbLine
 10
38.950972
 20
135.9368899999997
 30
0.0
 11
38.950972
 21
127.9368899999999
 31
0.0
  0
LINE
  5
A0B6
330
A050
100
AcDbEntity
  8
4
  6
CENTER
100
AcDbLine
 10
126.550972
 20
135.1868899999997
 30
0.0
 11
126.550972
 21
130.6868899999997
 31
0.0
  0
LINE
  5
A0B7
330
A050
100
AcDbEntity
  8
4
  6
CENTER
100
AcDbLine
 10
124.300972
 20
132.9368899999997
 30
0.0
 11
128.800964
 21
132.9368899999997
 31
0.0
  0
LINE
  5
A0B8
330
A050
100
AcDbEntity
  8
4
  6
CENTER
100
AcDbLine
 10
46.450972
 20
134.1868899999997
 30
0.0
 11
46.450972
 21
129.6868899999997
 31
0.0
  0
LINE
  5
A0B9
330
A050
100
AcDbEntity
  8
4
  6
CENTER
100
AcDbLine
 10
31.45097199999999
 20
140.1868899999997
 30
0.0
 11
31.45097199999999
 21
135.6868899999997
 31
0.0
  0
LINE
  5
A0BA
330
A050
100
AcDbEntity
  8
4
  6
CENTER
100
AcDbLine
 10
29.20097199999998
 20
137.9368899999997
 30
0.0
 11
33.700972
 21
137.9368899999997
 31
0.0
  0
LINE
  5
A0BB
330
A050
100
AcDbEntity
  8
1
  6
Continuous
100
AcDbLine
 10
159.050964
 20
148.9368899999998
 30
0.0
 11
159.050964
 21
142.9368899999998
 31
0.0
  0
LINE
  5
A0BC
330
A050
100
AcDbEntity
  8
1
  6
Continuous
100
AcDbLine
 10
158.65097
 20
148.9368899999998
 30
0.0
 11
158.65097
 21
142.9368899999998
 31
0.0
  0
LINE
  5
A0BD
330
A050
100
AcDbEntity
  8
1
  6
Continuous
100
AcDbLine
 10
158.65097
 20
148.9368899999998
 30
0.0
 11
159.050964
 21
148.9368899999998
 31
0.0
  0
LINE
  5
A0BE
330
A050
100
AcDbEntity
  8
1
  6
Continuous
100
AcDbLine
 10
58.05097199999998
 20
135.4368899999997
 30
0.0
 11
58.05097199999998
 21
150.4368899999998
 31
0.0
  0
LINE
  5
A0BF
330
A050
100
AcDbEntity
  8
1
  6
Continuous
100
AcDbLine
 10
36.450968
 20
142.9368899999998
 30
0.0
 11
34.88085400000001
 21
147.890137
 31
0.0
  0
LINE
  5
A0C0
330
A050
100
AcDbEntity
  8
1
  6
Continuous
100
AcDbLine
 10
33.303854
 20
142.9368899999998
 30
0.0
 11
32.02109
 21
146.983627
 31
0.0
  0
LINE
  5
A0C1
330
A050
100
AcDbEntity
  8
1
  6
Continuous
100
AcDbLine
 10
40.950972
 20
134.1729579999999
 30
0.0
 11
40.950972
 21
129.700836
 31
0.0
  0
LINE
  5
A0C2
330
A050
100
AcDbEntity
  8
1
  6
Continuous
100
AcDbLine
 10
109.814903
 20
128.9368899999997
 30
0.0
 11
119.050972
 21
128.9368899999997
 31
0.0
  0
LINE
  5
A0C3
330
A050
100
AcDbEntity
  8
1
  6
Continuous
100
AcDbLine
 10
109.814903
 20
134.9368899999997
 30
0.0
 11
119.050972
 21
134.9368899999997
 31
0.0
  0
LINE
  5
A0C4
330
A050
100
AcDbEntity
  8
1
  6
Continuous
100
AcDbLine
 10
109.050972
 20
134.1729579999999
 30
0.0
 11
109.050972
 21
129.700836
 31
0.0
  0
LINE
  5
A0C5
330
A050
100
AcDbEntity
  8
1
  6
Continuous
100
AcDbLine
 10
374.1509769999997
 20
127.43689
 30
0.0
 11
374.1509769999997
 21
136.4368899999997
 31
0.0
  0
LINE
  5
A0C6
330
A050
100
AcDbEntity
  8
1
  6
Continuous
100
AcDbLine
 10
374.8509579999998
 20
127.43689
 30
0.0
 11
374.1509769999997
 21
127.43689
 31
0.0
  0
LINE
  5
A0C7
330
A050
100
AcDbEntity
  8
1
  6
Continuous
100
AcDbLine
 10
374.8509579999998
 20
136.4368899999997
 30
0.0
 11
374.1509769999997
 21
136.4368899999997
 31
0.0
  0
LINE
  5
A0C8
330
A050
100
AcDbEntity
  8
1
  6
Continuous
100
AcDbLine
 10
129.5509639999999
 20
143.6118929999999
 30
0.0
 11
129.5509639999999
 21
142.2618869999998
 31
0.0
  0
LINE
  5
A0C9
330
A050
100
AcDbEntity
  8
1
  6
Continuous
100
AcDbLine
 10
129.5509639999999
 20
143.6118929999999
 30
0.0
 11
130.514801
 21
143.6118929999999
 31
0.0
  0
LINE
  5
A0CA
330
A050
100
AcDbEntity
  8
1
  6
Continuous
100
AcDbLine
 10
131.488373
 20
143.6118929999999
 30
0.0
 11
133.050964
 21
143.6118929999999
 31
0.0
  0
LINE
  5
A0CB
330
A050
100
AcDbEntity
  8
1
  6
Continuous
100
AcDbLine
 10
133.050964
 20
143.6118929999999
 30
0.0
 11
133.050964
 21
142.2618869999998
 31
0.0
  0
LINE
  5
A0CC
330
A050
100
AcDbEntity
  8
1
  6
Continuous
100
AcDbLine
 10
131.488373
 20
142.2618869999998
 30
0.0
 11
133.050964
 21
142.2618869999998
 31
0.0
  0
LINE
  5
A0CD
330
A050
100
AcDbEntity
  8
1
  6
Continuous
100
AcDbLine
 10
129.5509639999999
 20
142.2618869999998
 30
0.0
 11
130.514801
 21
142.2618869999998
 31
0.0
  0
LINE
  5
A0CE
330
A050
100
AcDbEntity
  8
1
  6
Continuous
100
AcDbLine
 10
42.350966
 20
142.9368899999998
 30
0.0
 11
42.350966
 21
147.9368899999998
 31
0.0
  0
LINE
  5
A0CF
330
A050
100
AcDbEntity
  8
1
  6
Continuous
100
AcDbLine
 10
46.850966
 20
142.9368899999998
 30
0.0
 11
46.850966
 21
147.9368899999998
 31
0.0
  0
LINE
  5
A0D0
330
A050
100
AcDbEntity
  8
1
  6
Continuous
100
AcDbLine
 10
45.250975
 20
142.9368899999998
 30
0.0
 11
45.250975
 21
147.9368899999998
 31
0.0
  0
LINE
  5
A0D1
330
A050
100
AcDbEntity
  8
1
  6
Continuous
100
AcDbLine
 10
41.850966
 20
146.4368899999998
 30
0.0
 11
42.350966
 21
146.4368899999998
 31
0.0
  0
LINE
  5
A0D2
330
A050
100
AcDbEntity
  8
1
  6
Continuous
100
AcDbLine
 10
41.850966
 20
142.9368899999998
 30
0.0
 11
41.850966
 21
146.4368899999998
 31
0.0
  0
LINE
  5
A0D3
330
A050
100
AcDbEntity
  8
1
  6
Continuous
100
AcDbLine
 10
24.350967
 20
224.9368899999999
 30
0.0
 11
25.750969
 21
224.9368899999999
 31
0.0
  0
LINE
  5
A0D4
330
A050
100
AcDbEntity
  8
1
  6
Continuous
100
AcDbLine
 10
24.350967
 20
228.9368899999999
 30
0.0
 11
25.750969
 21
228.9368899999999
 31
0.0
  0
LINE
  5
A0D5
330
A050
100
AcDbEntity
  8
1
  6
Continuous
100
AcDbLine
 10
26.59691599999999
 20
216.9368899999998
 30
0.0
 11
30.395721
 21
216.9368899999998
 31
0.0
  0
LINE
  5
A0D6
330
A050
100
AcDbEntity
  8
1
  6
Continuous
100
AcDbLine
 10
26.59691599999999
 20
236.93689
 30
0.0
 11
30.395721
 21
236.93689
 31
0.0
  0
LINE
  5
A0D7
330
A050
100
AcDbEntity
  8
1
  6
Continuous
100
AcDbLine
 10
21.550972
 20
224.230591
 30
0.0
 11
21.550972
 21
229.6431879999999
 31
0.0
  0
LINE
  5
A0D8
330
A050
100
AcDbEntity
  8
1
  6
Continuous
100
AcDbLine
 10
21.709814
 20
230.183929
 30
0.0
 11
25.755768
 21
236.4776309999998
 31
0.0
  0
LINE
  5
A0D9
330
A050
100
AcDbEntity
  8
1
  6
Continuous
100
AcDbLine
 10
21.70982399999999
 20
223.689835
 30
0.0
 11
25.755777
 21
217.396133
 31
0.0
  0
LINE
  5
A0DA
330
A050
100
AcDbEntity
  8
1
  6
Continuous
100
AcDbLine
 10
26.550972
 20
225.7368769999999
 30
0.0
 11
26.550972
 21
228.136887
 31
0.0
  0
LINE
  5
A0DB
330
A050
100
AcDbEntity
  8
1
  6
Continuous
100
AcDbLine
 10
23.550972
 20
225.7368769999999
 30
0.0
 11
23.550972
 21
228.136887
 31
0.0
  0
LINE
  5
A0DC
330
A050
100
AcDbEntity
  8
1
  6
Continuous
100
AcDbLine
 10
41.55097199999999
 20
233.4368739999999
 30
0.0
 11
30.69892499999999
 21
236.889786
 31
0.0
  0
LINE
  5
A0DD
330
A050
100
AcDbEntity
  8
1
  6
Continuous
100
AcDbLine
 10
39.460625
 20
219.7717589999998
 30
0.0
 11
30.698927
 21
216.9839629999999
 31
0.0
  0
LINE
  5
A0DE
330
A050
100
AcDbEntity
  8
1
  6
Continuous
100
AcDbLine
 10
38.64596599999997
 20
223.836884
 30
0.0
 11
39.05097199999996
 21
223.836884
 31
0.0
  0
LINE
  5
A0DF
330
A050
100
AcDbEntity
  8
1
  6
Continuous
100
AcDbLine
 10
38.64596599999997
 20
230.0368799999999
 30
0.0
 11
39.05097199999996
 21
230.0368799999999
 31
0.0
  0
LINE
  5
A0E0
330
A050
100
AcDbEntity
  8
1
  6
Continuous
100
AcDbLine
 10
35.65097
 20
226.136887
 30
0.0
 11
35.65097
 21
227.7368769999999
 31
0.0
  0
LINE
  5
A0E1
330
A050
100
AcDbEntity
  8
1
  6
Continuous
100
AcDbLine
 10
39.55096799999999
 20
220.8499299999997
 30
0.0
 11
30.395718
 21
217.936874
 31
0.0
  0
LINE
  5
A0E2
330
A050
100
AcDbEntity
  8
1
  6
Continuous
100
AcDbLine
 10
26.59691599999999
 20
217.9368899999999
 30
0.0
 11
30.395721
 21
217.9368899999999
 31
0.0
  0
LINE
  5
A0E3
330
A050
100
AcDbEntity
  8
1
  6
Continuous
100
AcDbLine
 10
22.550968
 20
224.230591
 30
0.0
 11
26.59692199999999
 21
217.9368899999999
 31
0.0
  0
LINE
  5
A0E4
330
A050
100
AcDbEntity
  8
1
  6
Continuous
100
AcDbLine
 10
22.550972
 20
224.230591
 30
0.0
 11
22.550972
 21
229.6431879999999
 31
0.0
  0
LINE
  5
A0E5
330
A050
100
AcDbEntity
  8
1
  6
Continuous
100
AcDbLine
 10
22.550968
 20
229.6431879999999
 30
0.0
 11
26.596912
 21
235.9368739999999
 31
0.0
  0
LINE
  5
A0E6
330
A050
100
AcDbEntity
  8
1
  6
Continuous
100
AcDbLine
 10
26.59691599999999
 20
235.9368899999997
 30
0.0
 11
30.395721
 21
235.9368899999997
 31
0.0
  0
LINE
  5
A0E7
330
A050
100
AcDbEntity
  8
1
  6
Continuous
100
AcDbLine
 10
39.55096799999999
 20
233.023819
 30
0.0
 11
30.39571599999999
 21
235.9368739999999
 31
0.0
  0
LINE
  5
A0E8
330
A050
100
AcDbEntity
  8
1
  6
Continuous
100
AcDbLine
 10
38.65097
 20
231.2368769999999
 30
0.0
 11
39.55097199999999
 21
231.2368769999999
 31
0.0
  0
LINE
  5
A0E9
330
A050
100
AcDbEntity
  8
1
  6
Continuous
100
AcDbLine
 10
38.65097
 20
222.6368869999999
 30
0.0
 11
39.55097199999999
 21
222.6368869999999
 31
0.0
  0
LINE
  5
A0EA
330
A050
100
AcDbEntity
  8
1
  6
Continuous
100
AcDbLine
 10
39.55097199999999
 20
220.8499299999997
 30
0.0
 11
39.55097199999999
 21
222.6368869999999
 31
0.0
  0
LINE
  5
A0EB
330
A050
100
AcDbEntity
  8
1
  6
Continuous
100
AcDbLine
 10
39.55097199999999
 20
231.2368769999999
 30
0.0
 11
39.55097199999999
 21
233.023834
 31
0.0
  0
LINE
  5
A0EC
330
A050
100
AcDbEntity
  8
4
  6
CENTER
100
AcDbLine
 10
20.050972
 20
226.9368899999999
 30
0.0
 11
55.05098
 21
226.9368899999999
 31
0.0
  0
LINE
  5
A0ED
330
A050
100
AcDbEntity
  8
1
  6
Continuous
100
AcDbLine
 10
52.650974
 20
230.3806299999999
 30
0.0
 11
52.650974
 21
230.486877
 31
0.0
  0
LINE
  5
A0EE
330
A050
100
AcDbEntity
  8
1
  6
Continuous
100
AcDbLine
 10
41.55097199999999
 20
233.4368899999998
 30
0.0
 11
47.15097
 21
233.4368899999998
 31
0.0
  0
LINE
  5
A0EF
330
A050
100
AcDbEntity
  8
1
  6
Continuous
100
AcDbLine
 10
51.45096999999999
 20
231.1368869999999
 30
0.0
 11
52.85097099999997
 21
231.1368869999999
 31
0.0
  0
LINE
  5
A0F0
330
A050
100
AcDbEntity
  8
1
  6
Continuous
100
AcDbLine
 10
51.45096999999999
 20
230.3806299999999
 30
0.0
 11
51.45096999999999
 21
231.1368869999999
 31
0.0
  0
LINE
  5
A0F1
330
A050
100
AcDbEntity
  8
1
  6
Continuous
100
AcDbLine
 10
52.650974
 20
230.486877
 30
0.0
 11
52.85098299999999
 21
230.586884
 31
0.0
  0
LINE
  5
A0F2
330
A050
100
AcDbEntity
  8
1
  6
Continuous
100
AcDbLine
 10
52.85097099999997
 20
230.586884
 30
0.0
 11
52.85097099999997
 21
231.1368869999999
 31
0.0
  0
LINE
  5
A0F3
330
A050
100
AcDbEntity
  8
1
  6
Continuous
100
AcDbLine
 10
48.350967
 20
230.3806299999999
 30
0.0
 11
48.350967
 21
232.236877
 31
0.0
  0
LINE
  5
A0F4
330
A050
100
AcDbEntity
  8
1
  6
Continuous
100
AcDbLine
 10
46.25096899999999
 20
230.3806299999999
 30
0.0
 11
46.25096899999999
 21
230.5368799999999
 31
0.0
  0
LINE
  5
A0F5
330
A050
100
AcDbEntity
  8
1
  6
Continuous
100
AcDbLine
 10
41.75096899999998
 20
230.5368799999999
 30
0.0
 11
46.25096899999999
 21
230.5368799999999
 31
0.0
  0
LINE
  5
A0F6
330
A050
100
AcDbEntity
  8
1
  6
Continuous
100
AcDbLine
 10
53.35097099999998
 20
223.4368899999997
 30
0.0
 11
42.750969
 21
223.4368899999997
 31
0.0
  0
LINE
  5
A0F7
330
A050
100
AcDbEntity
  8
1
  6
Continuous
100
AcDbLine
 10
53.550976
 20
230.236877
 30
0.0
 11
53.550976
 21
223.636887
 31
0.0
  0
LINE
  5
A0F8
330
A050
100
AcDbEntity
  8
1
  6
Continuous
100
AcDbLine
 10
36.05097199999999
 20
228.1738279999999
 30
0.0
 11
36.05097199999999
 21
225.699936
 31
0.0
  0
LINE
  5
A0F9
330
A050
100
AcDbEntity
  8
1
  6
Continuous
100
AcDbLine
 10
42.55097199999997
 20
229.636887
 30
0.0
 11
38.450966
 21
229.636887
 31
0.0
  0
LINE
  5
A0FA
330
A050
100
AcDbEntity
  8
1
  6
Continuous
100
AcDbLine
 10
42.55097199999997
 20
224.236877
 30
0.0
 11
38.450966
 21
224.236877
 31
0.0
  0
LINE
  5
A0FB
330
A050
100
AcDbEntity
  8
1
  6
Continuous
100
AcDbLine
 10
42.55097199999997
 20
230.236877
 30
0.0
 11
42.55097199999997
 21
223.636887
 31
0.0
  0
LINE
  5
A0FC
330
A050
100
AcDbEntity
  8
1
  6
Continuous
100
AcDbLine
 10
53.55097199999999
 20
230.236893
 30
0.0
 11
53.35097099999998
 21
230.4368899999999
 31
0.0
  0
LINE
  5
A0FD
330
A050
100
AcDbEntity
  8
1
  6
Continuous
100
AcDbLine
 10
53.55097199999999
 20
223.636887
 30
0.0
 11
53.350979
 21
223.4368899999997
 31
0.0
  0
LINE
  5
A0FE
330
A050
100
AcDbEntity
  8
1
  6
Continuous
100
AcDbLine
 10
42.75097999999998
 20
223.4368899999997
 30
0.0
 11
42.55097199999997
 21
223.636902
 31
0.0
  0
LINE
  5
A0FF
330
A050
100
AcDbEntity
  8
1
  6
Continuous
100
AcDbLine
 10
42.55097199999997
 20
230.236893
 30
0.0
 11
42.750969
 21
230.4368899999999
 31
0.0
  0
LINE
  5
A100
330
A050
100
AcDbEntity
  8
1
  6
Continuous
100
AcDbLine
 10
52.650974
 20
230.3806299999999
 30
0.0
 11
45.95096599999999
 21
230.3806299999999
 31
0.0
  0
LINE
  5
A101
330
A050
100
AcDbEntity
  8
1
  6
Continuous
100
AcDbLine
 10
53.35097099999998
 20
230.4368899999999
 30
0.0
 11
52.650974
 21
230.4368899999999
 31
0.0
  0
LINE
  5
A102
330
A050
100
AcDbEntity
  8
1
  6
Continuous
100
AcDbLine
 10
45.95096599999999
 20
230.4368899999999
 30
0.0
 11
42.750969
 21
230.4368899999999
 31
0.0
  0
LINE
  5
A103
330
A050
100
AcDbEntity
  8
1
  6
Continuous
100
AcDbLine
 10
42.750969
 20
230.4368899999999
 30
0.0
 11
42.750969
 21
223.4368899999997
 31
0.0
  0
LINE
  5
A104
330
A050
100
AcDbEntity
  8
1
  6
Continuous
100
AcDbLine
 10
53.35097099999998
 20
230.4368899999999
 30
0.0
 11
53.35097099999998
 21
223.4368899999997
 31
0.0
  0
LINE
  5
A105
330
A050
100
AcDbEntity
  8
1
  6
Continuous
100
AcDbLine
 10
45.95096599999999
 20
230.4368899999999
 30
0.0
 11
45.95096599999999
 21
230.3806299999999
 31
0.0
  0
LINE
  5
A106
330
A050
100
AcDbEntity
  8
1
  6
Continuous
100
AcDbLine
 10
39.05097199999996
 20
223.836884
 30
0.0
 11
39.05097199999996
 21
224.236877
 31
0.0
  0
LINE
  5
A107
330
A050
100
AcDbEntity
  8
1
  6
Continuous
100
AcDbLine
 10
39.05097199999996
 20
229.636887
 30
0.0
 11
39.05097199999996
 21
230.0368799999999
 31
0.0
  0
LINE
  5
A108
330
A050
100
AcDbEntity
  8
1
  6
Continuous
100
AcDbLine
 10
41.55097199999999
 20
222.6305389999999
 30
0.0
 11
41.55097199999999
 21
224.236877
 31
0.0
  0
LINE
  5
A109
330
A050
100
AcDbEntity
  8
1
  6
Continuous
100
AcDbLine
 10
41.55097199999999
 20
229.636887
 30
0.0
 11
41.55097199999999
 21
230.336884
 31
0.0
  0
LINE
  5
A10A
330
A050
100
AcDbEntity
  8
1
  6
Continuous
100
AcDbLine
 10
41.00372899999999
 20
145.612732
 30
0.0
 11
41.850981
 21
145.686859
 31
0.0
  0
LINE
  5
A10B
330
A050
100
AcDbEntity
  8
1
  6
Continuous
100
AcDbLine
 10
143.0509639999999
 20
133.586884
 30
0.0
 11
143.0509639999999
 21
130.2868959999997
 31
0.0
  0
LINE
  5
A10C
330
A050
100
AcDbEntity
  8
4
  6
CENTER
100
AcDbLine
 10
133.5509639999999
 20
134.4368899999997
 30
0.0
 11
133.5509639999999
 21
129.4368899999997
 31
0.0
  0
LINE
  5
A10D
330
A050
100
AcDbEntity
  8
1
  6
Continuous
100
AcDbLine
 10
134.450958
 20
131.9368899999997
 30
0.0
 11
135.050964
 21
131.9368899999997
 31
0.0
  0
LINE
  5
A10E
330
A050
100
AcDbEntity
  8
1
  6
Continuous
100
AcDbLine
 10
124.3427199999999
 20
147.9368899999998
 30
0.0
 11
126.56765
 21
147.9368899999998
 31
0.0
  0
LINE
  5
A10F
330
A050
100
AcDbEntity
  8
1
  6
Continuous
100
AcDbLine
 10
54.050972
 20
150.4368899999998
 30
0.0
 11
58.05097199999998
 21
150.4368899999998
 31
0.0
  0
LINE
  5
A110
330
A050
100
AcDbEntity
  8
1
  6
Continuous
100
AcDbLine
 10
54.050972
 20
135.4368899999997
 30
0.0
 11
58.05097199999998
 21
135.4368899999997
 31
0.0
  0
LINE
  5
A111
330
A050
100
AcDbEntity
  8
1
  6
Continuous
100
AcDbLine
 10
44.350966
 20
147.9368899999998
 30
0.0
 11
44.350966
 21
148.1868899999998
 31
0.0
  0
LINE
  5
A112
330
A050
100
AcDbEntity
  8
1
  6
Continuous
100
AcDbLine
 10
45.45097199999999
 20
147.9368899999998
 30
0.0
 11
45.45097199999999
 21
148.1868899999998
 31
0.0
  0
LINE
  5
A113
330
A050
100
AcDbEntity
  8
1
  6
Continuous
100
AcDbLine
 10
48.450972
 20
148.1868899999998
 30
0.0
 11
44.350966
 21
148.1868899999998
 31
0.0
  0
LINE
  5
A114
330
A050
100
AcDbEntity
  8
1
  6
Continuous
100
AcDbLine
 10
44.950972
 20
147.9368899999998
 30
0.0
 11
44.950972
 21
148.1868899999998
 31
0.0
  0
LINE
  5
A115
330
A050
100
AcDbEntity
  8
1
  6
Continuous
100
AcDbLine
 10
48.450972
 20
142.9368899999998
 30
0.0
 11
48.450972
 21
150.4368899999998
 31
0.0
  0
LINE
  5
A116
330
A050
100
AcDbEntity
  8
1
  6
Continuous
100
AcDbLine
 10
51.450972
 20
150.4368899999998
 30
0.0
 11
48.450972
 21
150.4368899999998
 31
0.0
  0
LINE
  5
A117
330
A050
100
AcDbEntity
  8
1
  6
Continuous
100
AcDbLine
 10
42.350966
 20
147.9368899999998
 30
0.0
 11
46.850966
 21
147.9368899999998
 31
0.0
  0
LINE
  5
A118
330
A050
100
AcDbEntity
  8
1
  6
Continuous
100
AcDbLine
 10
170.0509639999999
 20
134.1868899999997
 30
0.0
 11
170.0509639999999
 21
129.6868899999997
 31
0.0
  0
LINE
  5
A119
330
A050
100
AcDbEntity
  8
1
  6
Continuous
100
AcDbLine
 10
169.0509639999999
 20
134.1868899999997
 30
0.0
 11
170.0509639999999
 21
134.1868899999997
 31
0.0
  0
LINE
  5
A11A
330
A050
100
AcDbEntity
  8
1
  6
Continuous
100
AcDbLine
 10
169.0509639999999
 20
129.6868899999997
 30
0.0
 11
170.0509639999999
 21
129.6868899999997
 31
0.0
  0
LINE
  5
A11B
330
A050
100
AcDbEntity
  8
1
  6
Continuous
100
AcDbLine
 10
235.8509769999999
 20
151.9368899999998
 30
0.0
 11
233.250977
 21
151.9368899999998
 31
0.0
  0
LINE
  5
A11C
330
A050
100
AcDbEntity
  8
1
  6
Continuous
100
AcDbLine
 10
260.8509769999999
 20
142.9368899999998
 30
0.0
 11
235.8509769999999
 21
142.9368899999998
 31
0.0
  0
LINE
  5
A11D
330
A050
100
AcDbEntity
  8
1
  6
Continuous
100
AcDbLine
 10
260.8509769999999
 20
120.9368899999999
 30
0.0
 11
233.250977
 21
120.9368899999999
 31
0.0
  0
LINE
  5
A11E
330
A050
100
AcDbEntity
  8
1
  6
Continuous
100
AcDbLine
 10
233.250977
 20
151.9368899999998
 30
0.0
 11
233.250977
 21
120.9368899999999
 31
0.0
  0
LINE
  5
A11F
330
A050
100
AcDbEntity
  8
1
  6
Continuous
100
AcDbLine
 10
260.8509769999999
 20
142.9368899999998
 30
0.0
 11
260.8509769999999
 21
120.9368899999999
 31
0.0
  0
LINE
  5
A120
330
A050
100
AcDbEntity
  8
1
  6
Continuous
100
AcDbLine
 10
235.8509769999999
 20
151.9368899999998
 30
0.0
 11
235.8509769999999
 21
120.9368899999999
 31
0.0
  0
LINE
  5
A121
330
A050
100
AcDbEntity
  8
4
  6
CENTER
100
AcDbLine
 10
228.8024899999999
 20
131.9368899999997
 30
0.0
 11
265.5226069999998
 21
131.9368899999997
 31
0.0
  0
LINE
  5
A122
330
A050
100
AcDbEntity
  8
4
  6
CENTER
100
AcDbLine
 10
248.3509769999999
 20
135.9368899999997
 30
0.0
 11
248.3509769999999
 21
127.9368899999999
 31
0.0
  0
LINE
  5
A123
330
A050
100
AcDbEntity
  8
1
  6
Continuous
100
AcDbLine
 10
229.2509609999999
 20
135.4368899999997
 30
0.0
 11
229.2509609999999
 21
150.4368899999998
 31
0.0
  0
LINE
  5
A124
330
A050
100
AcDbEntity
  8
1
  6
Continuous
100
AcDbLine
 10
250.8509609999999
 20
142.9368899999998
 30
0.0
 11
252.4210909999999
 21
147.890137
 31
0.0
  0
LINE
  5
A125
330
A050
100
AcDbEntity
  8
1
  6
Continuous
100
AcDbLine
 10
253.9980869999999
 20
142.9368899999998
 30
0.0
 11
255.2808469999999
 21
146.983627
 31
0.0
  0
LINE
  5
A126
330
A050
100
AcDbEntity
  8
1
  6
Continuous
100
AcDbLine
 10
244.9509669999999
 20
145.776108
 30
0.0
 11
244.9509669999999
 21
147.9368899999998
 31
0.0
  0
LINE
  5
A127
330
A050
100
AcDbEntity
  8
1
  6
Continuous
100
AcDbLine
 10
245.4509669999999
 20
146.4368899999998
 30
0.0
 11
244.9509669999999
 21
146.4368899999998
 31
0.0
  0
LINE
  5
A128
330
A050
100
AcDbEntity
  8
1
  6
Continuous
100
AcDbLine
 10
245.4509669999999
 20
144.1987609999999
 30
0.0
 11
245.4509669999999
 21
146.4368899999998
 31
0.0
  0
LINE
  5
A129
330
A050
100
AcDbEntity
  8
1
  6
Continuous
100
AcDbLine
 10
246.2982119999999
 20
145.612732
 30
0.0
 11
245.450952
 21
145.686859
 31
0.0
  0
LINE
  5
A12A
330
A050
100
AcDbEntity
  8
1
  6
Continuous
100
AcDbLine
 10
233.250977
 20
150.4368899999998
 30
0.0
 11
229.2509609999999
 21
150.4368899999998
 31
0.0
  0
LINE
  5
A12B
330
A050
100
AcDbEntity
  8
1
  6
Continuous
100
AcDbLine
 10
233.250977
 20
135.4368899999997
 30
0.0
 11
229.2509609999999
 21
135.4368899999997
 31
0.0
  0
LINE
  5
A12C
330
A050
100
AcDbEntity
  8
1
  6
Continuous
100
AcDbLine
 10
238.850977
 20
148.1868899999998
 30
0.0
 11
241.5519349999999
 21
148.1868899999998
 31
0.0
  0
LINE
  5
A12D
330
A050
100
AcDbEntity
  8
1
  6
Continuous
100
AcDbLine
 10
238.850977
 20
142.9368899999998
 30
0.0
 11
238.850977
 21
150.4368899999998
 31
0.0
  0
LINE
  5
A12E
330
A050
100
AcDbEntity
  8
1
  6
Continuous
100
AcDbLine
 10
235.8509769999999
 20
150.4368899999998
 30
0.0
 11
238.850977
 21
150.4368899999998
 31
0.0
  0
LINE
  5
A12F
330
A050
100
AcDbEntity
  8
1
  6
Continuous
100
AcDbLine
 10
244.9509669999999
 20
147.9368899999998
 30
0.0
 11
244.2660309999999
 21
147.9368899999998
 31
0.0
  0
LINE
  5
A130
330
A050
100
AcDbEntity
  8
1
  6
Continuous
100
AcDbLine
 10
245.850977
 20
142.9368899999998
 30
0.0
 11
244.280847
 21
147.8901519999998
 31
0.0
  0
LINE
  5
A131
330
A050
100
AcDbEntity
  8
1
  6
Continuous
100
AcDbLine
 10
242.703851
 20
142.9368899999998
 30
0.0
 11
241.4210909999999
 21
146.9836429999998
 31
0.0
  0
LINE
  5
A132
330
A050
100
AcDbEntity
  8
1
  6
Continuous
100
AcDbLine
 10
119.050972
 20
24.43689
 30
0.0
 11
119.050972
 21
49.33689000000001
 31
0.0
  0
LINE
  5
A133
330
A050
100
AcDbEntity
  8
1
  6
Continuous
100
AcDbLine
 10
169.0509639999999
 20
25.93688
 30
0.0
 11
169.0509639999999
 21
47.736884
 31
0.0
  0
LINE
  5
A134
330
A050
100
AcDbEntity
  8
1
  6
Continuous
100
AcDbLine
 10
121.6509719999999
 20
51.93689000000001
 30
0.0
 11
169.0509639999999
 21
51.93689000000001
 31
0.0
  0
LINE
  5
A135
330
A050
100
AcDbEntity
  8
1
  6
Continuous
100
AcDbLine
 10
121.6509719999999
 20
49.33689000000001
 30
0.0
 11
169.0509639999999
 21
49.33689000000001
 31
0.0
  0
LINE
  5
A136
330
A050
100
AcDbEntity
  8
1
  6
Continuous
100
AcDbLine
 10
121.6509719999999
 20
24.33688999999999
 30
0.0
 11
121.6509719999999
 21
49.33689000000001
 31
0.0
  0
LINE
  5
A137
330
A050
100
AcDbEntity
  8
1
  6
Continuous
100
AcDbLine
 10
119.050972
 20
24.33688999999999
 30
0.0
 11
121.6509719999999
 21
24.33688999999999
 31
0.0
  0
LINE
  5
A138
330
A050
100
AcDbEntity
  8
4
  6
CENTER
100
AcDbLine
 10
134.050964
 20
36.09316899999999
 30
0.0
 11
134.050964
 21
59.29556899999999
 31
0.0
  0
LINE
  5
A139
330
A050
100
AcDbEntity
  8
4
  6
CENTER
100
AcDbLine
 10
104.575737
 20
36.83688999999999
 30
0.0
 11
173.2427219999999
 21
36.83688999999999
 31
0.0
  0
LINE
  5
A13A
330
A050
100
AcDbEntity
  8
1
  6
Continuous
100
AcDbLine
 10
145.6509699999998
 20
26.83689000000001
 30
0.0
 11
167.4509739999997
 21
26.83689000000001
 31
0.0
  0
LINE
  5
A13B
330
A050
100
AcDbEntity
  8
1
  6
Continuous
100
AcDbLine
 10
145.6509699999998
 20
46.83689
 30
0.0
 11
167.4509739999997
 21
46.83689
 31
0.0
  0
LINE
  5
A13C
330
A050
100
AcDbEntity
  8
1
  6
Continuous
100
AcDbLine
 10
143.0509639999999
 20
47.736884
 30
0.0
 11
167.4509739999997
 21
47.736884
 31
0.0
  0
LINE
  5
A13D
330
A050
100
AcDbEntity
  8
1
  6
Continuous
100
AcDbLine
 10
169.0509639999999
 20
49.33689000000001
 30
0.0
 11
169.0509639999999
 21
51.93689000000001
 31
0.0
  0
LINE
  5
A13E
330
A050
100
AcDbEntity
  8
1
  6
Continuous
100
AcDbLine
 10
143.0509639999999
 20
24.33688999999999
 30
0.0
 11
143.0509639999999
 21
25.93688
 31
0.0
  0
LINE
  5
A13F
330
A050
100
AcDbEntity
  8
1
  6
Continuous
100
AcDbLine
 10
143.0509639999999
 20
47.736884
 30
0.0
 11
143.0509639999999
 21
49.33689000000001
 31
0.0
  0
LINE
  5
A140
330
A050
100
AcDbEntity
  8
1
  6
Continuous
100
AcDbLine
 10
167.4509739999997
 20
25.93688
 30
0.0
 11
167.4509739999997
 21
47.736884
 31
0.0
  0
LINE
  5
A141
330
A050
100
AcDbEntity
  8
1
  6
Continuous
100
AcDbLine
 10
143.0509639999999
 20
24.33688999999999
 30
0.0
 11
167.4509739999997
 21
24.33688999999999
 31
0.0
  0
LINE
  5
A142
330
A050
100
AcDbEntity
  8
1
  6
Continuous
100
AcDbLine
 10
143.0509639999999
 20
25.93688
 30
0.0
 11
167.4509739999997
 21
25.93688
 31
0.0
  0
LINE
  5
A143
330
A050
100
AcDbEntity
  8
1
  6
Continuous
100
AcDbLine
 10
144.0509639999999
 20
25.93688
 30
0.0
 11
144.0509639999999
 21
47.736884
 31
0.0
  0
LINE
  5
A144
330
A050
100
AcDbEntity
  8
1
  6
Continuous
100
AcDbLine
 10
145.6509699999998
 20
25.93688
 30
0.0
 11
145.6509699999998
 21
47.736884
 31
0.0
  0
LINE
  5
A145
330
A050
100
AcDbEntity
  8
1
  6
Continuous
100
AcDbLine
 10
112.55201
 20
33.83688999999999
 30
0.0
 11
119.050972
 21
33.83688999999999
 31
0.0
  0
LINE
  5
A146
330
A050
100
AcDbEntity
  8
1
  6
Continuous
100
AcDbLine
 10
109.050972
 20
39.83689
 30
0.0
 11
119.050972
 21
39.83689
 31
0.0
  0
LINE
  5
A147
330
A050
100
AcDbEntity
  8
4
  6
CENTER
100
AcDbLine
 10
133.5509639999999
 20
27.12187199999997
 30
0.0
 11
133.5509639999999
 21
52.975977
 31
0.0
  0
LINE
  5
A148
330
A050
100
AcDbEntity
  8
1
  6
Continuous
100
AcDbLine
 10
136.5509639999999
 20
35.33688999999998
 30
0.0
 11
136.5509639999999
 21
38.33688999999999
 31
0.0
  0
LINE
  5
A149
330
A050
100
AcDbEntity
  8
1
  6
Continuous
100
AcDbLine
 10
128.5509639999999
 20
33.83688999999999
 30
0.0
 11
128.5509639999999
 21
35.33688999999998
 31
0.0
  0
LINE
  5
A14A
330
A050
100
AcDbEntity
  8
1
  6
Continuous
100
AcDbLine
 10
128.5509639999999
 20
35.33688999999998
 30
0.0
 11
135.050964
 21
35.33688999999998
 31
0.0
  0
LINE
  5
A14B
330
A050
100
AcDbEntity
  8
1
  6
Continuous
100
AcDbLine
 10
128.5509639999999
 20
38.33688999999999
 30
0.0
 11
135.050964
 21
38.33688999999999
 31
0.0
  0
LINE
  5
A14C
330
A050
100
AcDbEntity
  8
1
  6
Continuous
100
AcDbLine
 10
122.250969
 20
39.83689
 30
0.0
 11
128.5509639999999
 21
39.83689
 31
0.0
  0
LINE
  5
A14D
330
A050
100
AcDbEntity
  8
1
  6
Continuous
100
AcDbLine
 10
122.250969
 20
33.83688999999999
 30
0.0
 11
128.5509639999999
 21
33.83688999999999
 31
0.0
  0
LINE
  5
A14E
330
A050
100
AcDbEntity
  8
1
  6
Continuous
100
AcDbLine
 10
128.5509639999999
 20
38.33688999999999
 30
0.0
 11
128.5509639999999
 21
39.83689
 31
0.0
  0
LINE
  5
A14F
330
A050
100
AcDbEntity
  8
1
  6
Continuous
100
AcDbLine
 10
122.250969
 20
32.33689
 30
0.0
 11
122.250969
 21
41.33688999999999
 31
0.0
  0
LINE
  5
A150
330
A050
100
AcDbEntity
  8
1
  6
Continuous
100
AcDbLine
 10
132.050964
 20
29.83689
 30
0.0
 11
132.050964
 21
32.83688999999998
 31
0.0
  0
LINE
  5
A151
330
A050
100
AcDbEntity
  8
1
  6
Continuous
100
AcDbLine
 10
121.6509719999999
 20
32.33689
 30
0.0
 11
122.250969
 21
32.33689
 31
0.0
  0
LINE
  5
A152
330
A050
100
AcDbEntity
  8
1
  6
Continuous
100
AcDbLine
 10
121.6509719999999
 20
41.33688999999999
 30
0.0
 11
122.250969
 21
41.33688999999999
 31
0.0
  0
LINE
  5
A153
330
A050
100
AcDbEntity
  8
1
  6
Continuous
100
AcDbLine
 10
140.0509639999999
 20
46.33688999999999
 30
0.0
 11
140.0509639999999
 21
43.33688999999998
 31
0.0
  0
LINE
  5
A154
330
A050
100
AcDbEntity
  8
2
  6
Continuous
100
AcDbLine
 10
139.644958
 20
46.33688999999999
 30
0.0
 11
139.644958
 21
43.33688999999998
 31
0.0
  0
LINE
  5
A155
330
A050
100
AcDbEntity
  8
2
  6
Continuous
100
AcDbLine
 10
128.456955
 20
46.33688999999999
 30
0.0
 11
128.456955
 21
43.33688999999998
 31
0.0
  0
LINE
  5
A156
330
A050
100
AcDbEntity
  8
1
  6
Continuous
100
AcDbLine
 10
128.050964
 20
46.33688999999999
 30
0.0
 11
128.050964
 21
43.33688999999998
 31
0.0
  0
LINE
  5
A157
330
A050
100
AcDbEntity
  8
1
  6
Continuous
100
AcDbLine
 10
131.1462249999999
 20
46.33688999999999
 30
0.0
 11
131.1462249999999
 21
43.33688999999998
 31
0.0
  0
LINE
  5
A158
330
A050
100
AcDbEntity
  8
1
  6
Continuous
100
AcDbLine
 10
136.9556879999999
 20
46.33688999999999
 30
0.0
 11
136.9556879999999
 21
43.33688999999998
 31
0.0
  0
LINE
  5
A159
330
A050
100
AcDbEntity
  8
1
  6
Continuous
100
AcDbLine
 10
128.050964
 20
43.33688999999998
 30
0.0
 11
131.1462249999999
 21
43.33688999999998
 31
0.0
  0
LINE
  5
A15A
330
A050
100
AcDbEntity
  8
1
  6
Continuous
100
AcDbLine
 10
140.0509639999999
 20
43.33689699999999
 30
0.0
 11
139.550964
 21
42.83689299999998
 31
0.0
  0
LINE
  5
A15B
330
A050
100
AcDbEntity
  8
1
  6
Continuous
100
AcDbLine
 10
128.050949
 20
43.336886
 30
0.0
 11
128.550949
 21
42.836886
 31
0.0
  0
LINE
  5
A15C
330
A050
100
AcDbEntity
  8
1
  6
Continuous
100
AcDbLine
 10
128.5509639999999
 20
42.83688999999998
 30
0.0
 11
128.5509639999999
 21
42.236884
 31
0.0
  0
LINE
  5
A15D
330
A050
100
AcDbEntity
  8
1
  6
Continuous
100
AcDbLine
 10
139.550964
 20
42.83688999999998
 30
0.0
 11
139.550964
 21
40.83688999999997
 31
0.0
  0
LINE
  5
A15E
330
A050
100
AcDbEntity
  8
1
  6
Continuous
100
AcDbLine
 10
128.5509639999999
 20
42.236884
 30
0.0
 11
132.050964
 21
42.236884
 31
0.0
  0
LINE
  5
A15F
330
A050
100
AcDbEntity
  8
1
  6
Continuous
100
AcDbLine
 10
136.9556879999999
 20
43.33688999999998
 30
0.0
 11
140.0509639999999
 21
43.33688999999998
 31
0.0
  0
LINE
  5
A160
330
A050
100
AcDbEntity
  8
1
  6
Continuous
100
AcDbLine
 10
131.1462249999999
 20
43.336886
 30
0.0
 11
132.050964
 21
42.432146
 31
0.0
  0
LINE
  5
A161
330
A050
100
AcDbEntity
  8
1
  6
Continuous
100
AcDbLine
 10
136.9556879999999
 20
43.33688999999998
 30
0.0
 11
135.8556979999999
 21
42.23689099999999
 31
0.0
  0
LINE
  5
A162
330
A050
100
AcDbEntity
  8
1
  6
Continuous
100
AcDbLine
 10
139.1744379999997
 20
42.236884
 30
0.0
 11
139.1744379999997
 21
40.83688999999997
 31
0.0
  0
LINE
  5
A163
330
A050
100
AcDbEntity
  8
2
  6
Continuous
100
AcDbLine
 10
131.1462249999999
 20
43.33689699999999
 30
0.0
 11
132.050964
 21
44.66065399999999
 31
0.0
  0
LINE
  5
A164
330
A050
100
AcDbEntity
  8
2
  6
Continuous
100
AcDbLine
 10
135.050964
 20
46.123763
 30
0.0
 11
136.9557039999999
 21
43.33689699999999
 31
0.0
  0
LINE
  5
A165
330
A050
100
AcDbEntity
  8
1
  6
Continuous
100
AcDbLine
 10
138.7509609999999
 20
42.236884
 30
0.0
 11
138.7509609999999
 21
41.450442
 31
0.0
  0
LINE
  5
A166
330
A050
100
AcDbEntity
  8
1
  6
Continuous
100
AcDbLine
 10
129.3509669999999
 20
42.236884
 30
0.0
 11
129.3509669999999
 21
41.83689
 31
0.0
  0
LINE
  5
A167
330
A050
100
AcDbEntity
  8
1
  6
Continuous
100
AcDbLine
 10
132.050964
 20
29.83689
 30
0.0
 11
135.050964
 21
29.83689
 31
0.0
  0
LINE
  5
A168
330
A050
100
AcDbEntity
  8
1
  6
Continuous
100
AcDbLine
 10
129.5509639999999
 20
32.83688999999998
 30
0.0
 11
135.050964
 21
32.83688999999998
 31
0.0
  0
LINE
  5
A169
330
A050
100
AcDbEntity
  8
1
  6
Continuous
100
AcDbLine
 10
129.5509639999999
 20
40.83688999999997
 30
0.0
 11
135.050964
 21
40.83688999999997
 31
0.0
  0
LINE
  5
A16A
330
A050
100
AcDbEntity
  8
1
  6
Continuous
100
AcDbLine
 10
129.5509639999999
 20
32.83688999999998
 30
0.0
 11
129.5509639999999
 21
35.33688999999998
 31
0.0
  0
LINE
  5
A16B
330
A050
100
AcDbEntity
  8
1
  6
Continuous
100
AcDbLine
 10
129.5509639999999
 20
38.33688999999999
 30
0.0
 11
129.5509639999999
 21
40.83688999999997
 31
0.0
  0
LINE
  5
A16C
330
A050
100
AcDbEntity
  8
1
  6
Continuous
100
AcDbLine
 10
142.7112119999998
 20
47.006766
 30
0.0
 11
142.7112119999998
 21
49.33689000000001
 31
0.0
  0
LINE
  5
A16D
330
A050
100
AcDbEntity
  8
1
  6
Continuous
100
AcDbLine
 10
125.390701
 20
47.006766
 30
0.0
 11
125.390701
 21
49.33689000000001
 31
0.0
  0
LINE
  5
A16E
330
A050
100
AcDbEntity
  8
1
  6
Continuous
100
AcDbLine
 10
129.7208399999999
 20
47.006766
 30
0.0
 11
129.7208399999999
 21
49.33689000000001
 31
0.0
  0
LINE
  5
A16F
330
A050
100
AcDbEntity
  8
1
  6
Continuous
100
AcDbLine
 10
138.3810879999997
 20
47.006766
 30
0.0
 11
138.3810879999997
 21
49.33689000000001
 31
0.0
  0
LINE
  5
A170
330
A050
100
AcDbEntity
  8
1
  6
Continuous
100
AcDbLine
 10
126.5509639999997
 20
46.33688999999999
 30
0.0
 11
132.050964
 21
46.33688999999999
 31
0.0
  0
LINE
  5
A171
330
A050
100
AcDbEntity
  8
1
  6
Continuous
100
AcDbLine
 10
126.5509639999997
 20
46.33689699999999
 30
0.0
 11
125.390701
 21
47.00677299999997
 31
0.0
  0
LINE
  5
A172
330
A050
100
AcDbEntity
  8
1
  6
Continuous
100
AcDbLine
 10
141.5509639999999
 20
46.33688999999999
 30
0.0
 11
142.711227
 21
47.006766
 31
0.0
  0
LINE
  5
A173
330
A050
100
AcDbEntity
  8
1
  6
Continuous
100
AcDbLine
 10
141.5509639999999
 20
51.93689
 30
0.0
 11
141.5509639999999
 21
55.93689000000001
 31
0.0
  0
LINE
  5
A174
330
A050
100
AcDbEntity
  8
1
  6
Continuous
100
AcDbLine
 10
126.550972
 20
55.93689000000001
 30
0.0
 11
141.5509639999999
 21
55.93689000000001
 31
0.0
  0
LINE
  5
A175
330
A050
100
AcDbEntity
  8
1
  6
Continuous
100
AcDbLine
 10
126.550972
 20
51.93689
 30
0.0
 11
126.550972
 21
55.93689000000001
 31
0.0
  0
LINE
  5
A176
330
A050
100
AcDbEntity
  8
1
  6
Continuous
100
AcDbLine
 10
127.1509629999999
 20
40.236884
 30
0.0
 11
129.5509639999999
 21
40.236884
 31
0.0
  0
LINE
  5
A177
330
A050
100
AcDbEntity
  8
1
  6
Continuous
100
AcDbLine
 10
127.1509629999999
 20
41.83689
 30
0.0
 11
127.1509629999999
 21
43.136893
 31
0.0
  0
LINE
  5
A178
330
A050
100
AcDbEntity
  8
1
  6
Continuous
100
AcDbLine
 10
127.1509629999999
 20
41.83689
 30
0.0
 11
132.050964
 21
41.83689
 31
0.0
  0
LINE
  5
A179
330
A050
100
AcDbEntity
  8
1
  6
Continuous
100
AcDbLine
 10
122.550964
 20
44.736884
 30
0.0
 11
125.5509639999997
 21
44.736884
 31
0.0
  0
LINE
  5
A17A
330
A050
100
AcDbEntity
  8
1
  6
Continuous
100
AcDbLine
 10
122.550964
 20
43.136893
 30
0.0
 11
125.5509639999997
 21
43.136893
 31
0.0
  0
LINE
  5
A17B
330
A050
100
AcDbEntity
  8
1
  6
Continuous
100
AcDbLine
 10
125.5509639999997
 20
41.83689
 30
0.0
 11
125.5509639999997
 21
43.136893
 31
0.0
  0
LINE
  5
A17C
330
A050
100
AcDbEntity
  8
1
  6
Continuous
100
AcDbLine
 10
122.550964
 20
43.136893
 30
0.0
 11
122.550964
 21
44.736884
 31
0.0
  0
LINE
  5
A17D
330
A050
100
AcDbEntity
  8
1
  6
Continuous
100
AcDbLine
 10
170.0509639999999
 20
34.58688999999999
 30
0.0
 11
170.0509639999999
 21
39.08688999999998
 31
0.0
  0
LINE
  5
A17E
330
A050
100
AcDbEntity
  8
1
  6
Continuous
100
AcDbLine
 10
169.0509639999999
 20
34.58688999999999
 30
0.0
 11
170.0509639999999
 21
34.58688999999999
 31
0.0
  0
LINE
  5
A17F
330
A050
100
AcDbEntity
  8
1
  6
Continuous
100
AcDbLine
 10
169.0509639999999
 20
39.08688999999998
 30
0.0
 11
170.0509639999999
 21
39.08688999999998
 31
0.0
  0
LINE
  5
A180
330
A050
100
AcDbEntity
  8
1
  6
Continuous
100
AcDbLine
 10
109.050972
 20
38.836882
 30
0.0
 11
112.55201
 21
33.836886
 31
0.0
  0
LINE
  5
A181
330
A050
100
AcDbEntity
  8
1
  6
Continuous
100
AcDbLine
 10
109.050972
 20
38.83689
 30
0.0
 11
109.050972
 21
39.83689
 31
0.0
  0
LINE
  5
A182
330
A050
100
AcDbEntity
  8
1
  6
Continuous
100
AcDbLine
 10
135.050964
 20
29.83689
 30
0.0
 11
135.050964
 21
49.33689000000001
 31
0.0
  0
LINE
  5
A183
330
A050
100
AcDbEntity
  8
1
  6
Continuous
100
AcDbLine
 10
132.050964
 20
40.83688999999997
 30
0.0
 11
132.050964
 21
49.33689000000001
 31
0.0
  0
LINE
  5
A184
330
A050
100
AcDbEntity
  8
1
  6
Continuous
100
AcDbLine
 10
135.050964
 20
42.236884
 30
0.0
 11
139.550964
 21
42.236884
 31
0.0
  0
LINE
  5
A185
330
A050
100
AcDbEntity
  8
1
  6
Continuous
100
AcDbLine
 10
135.050964
 20
41.83689
 30
0.0
 11
138.7509609999999
 21
41.83689
 31
0.0
  0
LINE
  5
A186
330
A050
100
AcDbEntity
  8
1
  6
Continuous
100
AcDbLine
 10
135.050964
 20
46.33688999999999
 30
0.0
 11
141.5509639999999
 21
46.33688999999999
 31
0.0
  0
LINE
  5
A187
330
A050
100
AcDbEntity
  8
1
  6
Continuous
100
AcDbLine
 10
377.450958
 20
142.9368899999998
 30
0.0
 11
377.450958
 21
120.9368899999999
 31
0.0
  0
LINE
  5
A188
330
A050
100
AcDbEntity
  8
1
  6
Continuous
100
AcDbLine
 10
353.4509889999998
 20
142.9368899999998
 30
0.0
 11
327.450989
 21
142.9368899999998
 31
0.0
  0
LINE
  5
A189
330
A050
100
AcDbEntity
  8
1
  6
Continuous
100
AcDbLine
 10
377.450958
 20
120.9368899999999
 30
0.0
 11
327.450989
 21
120.9368899999999
 31
0.0
  0
LINE
  5
A18A
330
A050
100
AcDbEntity
  8
1
  6
Continuous
100
AcDbLine
 10
327.450989
 20
142.9368899999998
 30
0.0
 11
327.450989
 21
120.9368899999999
 31
0.0
  0
LINE
  5
A18B
330
A050
100
AcDbEntity
  8
4
  6
CENTER
100
AcDbLine
 10
392.0088809999999
 20
131.9368899999997
 30
0.0
 11
322.276489
 21
131.9368899999997
 31
0.0
  0
LINE
  5
A18C
330
A050
100
AcDbEntity
  8
1
  6
Continuous
100
AcDbLine
 10
377.450958
 20
142.9368899999998
 30
0.0
 11
373.9509889999998
 21
142.9368899999998
 31
0.0
  0
LINE
  5
A18D
330
A050
100
AcDbEntity
  8
4
  6
CENTER
100
AcDbLine
 10
333.450989
 20
140.1868899999997
 30
0.0
 11
333.450989
 21
135.6868899999997
 31
0.0
  0
LINE
  5
A18E
330
A050
100
AcDbEntity
  8
4
  6
CENTER
100
AcDbLine
 10
335.700989
 20
137.9368899999997
 30
0.0
 11
331.200989
 21
137.9368899999997
 31
0.0
  0
LINE
  5
A18F
330
A050
100
AcDbEntity
  8
4
  6
CENTER
100
AcDbLine
 10
362.450989
 20
152.4368899999998
 30
0.0
 11
362.450989
 21
133.4368899999997
 31
0.0
  0
LINE
  5
A190
330
A050
100
AcDbEntity
  8
4
  6
CENTER
100
AcDbLine
 10
373.9509889999998
 20
142.9368899999998
 30
0.0
 11
353.4509889999998
 21
142.9368899999998
 31
0.0
  0
LINE
  5
A191
330
A050
100
AcDbEntity
  8
1
  6
Continuous
100
AcDbLine
 10
337.450989
 20
148.9368899999998
 30
0.0
 11
337.450989
 21
142.9368899999998
 31
0.0
  0
LINE
  5
A192
330
A050
100
AcDbEntity
  8
1
  6
Continuous
100
AcDbLine
 10
337.850952
 20
148.9368899999998
 30
0.0
 11
337.850952
 21
142.9368899999998
 31
0.0
  0
LINE
  5
A193
330
A050
100
AcDbEntity
  8
1
  6
Continuous
100
AcDbLine
 10
337.850952
 20
148.9368899999998
 30
0.0
 11
337.450989
 21
148.9368899999998
 31
0.0
  0
LINE
  5
A194
330
A050
100
AcDbEntity
  8
1
  6
Continuous
100
AcDbLine
 10
386.687042
 20
128.9368899999997
 30
0.0
 11
377.450958
 21
128.9368899999997
 31
0.0
  0
LINE
  5
A195
330
A050
100
AcDbEntity
  8
1
  6
Continuous
100
AcDbLine
 10
386.687042
 20
134.9368899999997
 30
0.0
 11
377.450958
 21
134.9368899999997
 31
0.0
  0
LINE
  5
A196
330
A050
100
AcDbEntity
  8
1
  6
Continuous
100
AcDbLine
 10
387.450958
 20
134.1729579999999
 30
0.0
 11
387.450958
 21
129.700836
 31
0.0
  0
LINE
  5
A197
330
A050
100
AcDbEntity
  8
1
  6
Continuous
100
AcDbLine
 10
353.4509889999998
 20
142.9368899999998
 30
0.0
 11
353.4509889999998
 21
120.9368899999999
 31
0.0
  0
LINE
  5
A198
330
A050
100
AcDbEntity
  8
4
  6
CENTER
100
AcDbLine
 10
362.950958
 20
134.4368899999997
 30
0.0
 11
362.950958
 21
129.4368899999997
 31
0.0
  0
LINE
  5
A199
330
A050
100
AcDbEntity
  8
1
  6
Continuous
100
AcDbLine
 10
362.050964
 20
131.9368899999997
 30
0.0
 11
361.4509889999998
 21
131.9368899999997
 31
0.0
  0
LINE
  5
A19A
330
A050
100
AcDbEntity
  8
1
  6
Continuous
100
AcDbLine
 10
372.1592099999999
 20
147.9368899999998
 30
0.0
 11
360.159698
 21
147.9368899999998
 31
0.0
  0
LINE
  5
A19B
330
A050
100
AcDbEntity
  8
1
  6
Continuous
100
AcDbLine
 10
370.950989
 20
147.9368899999998
 30
0.0
 11
370.950989
 21
140.5368959999997
 31
0.0
  0
LINE
  5
A19C
330
A050
100
AcDbEntity
  8
1
  6
Continuous
100
AcDbLine
 10
326.4509889999998
 20
134.1868899999997
 30
0.0
 11
326.4509889999998
 21
129.6868899999997
 31
0.0
  0
LINE
  5
A19D
330
A050
100
AcDbEntity
  8
1
  6
Continuous
100
AcDbLine
 10
327.450989
 20
134.1868899999997
 30
0.0
 11
326.4509889999998
 21
134.1868899999997
 31
0.0
  0
LINE
  5
A19E
330
A050
100
AcDbEntity
  8
1
  6
Continuous
100
AcDbLine
 10
327.450989
 20
129.6868899999997
 30
0.0
 11
326.4509889999998
 21
129.6868899999997
 31
0.0
  0
LINE
  5
A19F
330
A050
100
AcDbEntity
  8
4
  6
CENTER
100
AcDbLine
 10
357.950989
 20
127.6868899999999
 30
0.0
 11
357.950989
 21
123.18689
 31
0.0
  0
LINE
  5
A1A0
330
A050
100
AcDbEntity
  8
4
  6
CENTER
100
AcDbLine
 10
360.200989
 20
125.43689
 30
0.0
 11
355.7009889999998
 21
125.43689
 31
0.0
  0
LINE
  5
A1A1
330
A050
100
AcDbEntity
  8
4
  6
CENTER
100
AcDbLine
 10
348.4509889999998
 20
128.1868899999997
 30
0.0
 11
348.4509889999998
 21
123.6868899999999
 31
0.0
  0
LINE
  5
A1A2
330
A050
100
AcDbEntity
  8
4
  6
CENTER
100
AcDbLine
 10
350.7009889999998
 20
125.9368899999999
 30
0.0
 11
346.200989
 21
125.9368899999999
 31
0.0
  0
LINE
  5
A1A3
330
A050
100
AcDbEntity
  8
1
  6
Continuous
100
AcDbLine
 10
374.8509579999998
 20
142.9368899999998
 30
0.0
 11
374.8509579999998
 21
120.9368899999999
 31
0.0
  0
LINE
  5
A1A4
330
A050
100
AcDbEntity
  8
1
  6
Continuous
100
AcDbLine
 10
119.050972
 20
239.4368899999999
 30
0.0
 11
119.0509719999997
 21
214.5368899999998
 31
0.0
  0
LINE
  5
A1A5
330
A050
100
AcDbEntity
  8
1
  6
Continuous
100
AcDbLine
 10
169.0509639999999
 20
237.936899
 30
0.0
 11
169.0509639999999
 21
216.1368959999999
 31
0.0
  0
LINE
  5
A1A6
330
A050
100
AcDbEntity
  8
1
  6
Continuous
100
AcDbLine
 10
121.6509719999999
 20
211.9368899999999
 30
0.0
 11
169.0509639999999
 21
211.93689
 31
0.0
  0
LINE
  5
A1A7
330
A050
100
AcDbEntity
  8
1
  6
Continuous
100
AcDbLine
 10
121.6509719999999
 20
214.5368899999998
 30
0.0
 11
169.0509639999999
 21
214.5368899999998
 31
0.0
  0
LINE
  5
A1A8
330
A050
100
AcDbEntity
  8
1
  6
Continuous
100
AcDbLine
 10
121.6509719999999
 20
239.4368899999999
 30
0.0
 11
121.6509719999999
 21
214.5368899999998
 31
0.0
  0
LINE
  5
A1A9
330
A050
100
AcDbEntity
  8
1
  6
Continuous
100
AcDbLine
 10
119.050972
 20
239.4368899999999
 30
0.0
 11
121.6509719999999
 21
239.4368899999999
 31
0.0
  0
LINE
  5
A1AA
330
A050
100
AcDbEntity
  8
4
  6
CENTER
100
AcDbLine
 10
134.050964
 20
227.7806029999999
 30
0.0
 11
134.050964
 21
204.57821
 31
0.0
  0
LINE
  5
A1AB
330
A050
100
AcDbEntity
  8
4
  6
CENTER
100
AcDbLine
 10
104.575737
 20
227.0368899999998
 30
0.0
 11
173.2427219999999
 21
227.0368899999998
 31
0.0
  0
LINE
  5
A1AC
330
A050
100
AcDbEntity
  8
1
  6
Continuous
100
AcDbLine
 10
145.6509699999998
 20
237.0368899999999
 30
0.0
 11
167.4509739999997
 21
237.0368899999999
 31
0.0
  0
LINE
  5
A1AD
330
A050
100
AcDbEntity
  8
1
  6
Continuous
100
AcDbLine
 10
145.6509699999998
 20
217.0368899999997
 30
0.0
 11
167.4509739999997
 21
217.0368899999997
 31
0.0
  0
LINE
  5
A1AE
330
A050
100
AcDbEntity
  8
1
  6
Continuous
100
AcDbLine
 10
143.0509639999999
 20
216.1368959999999
 30
0.0
 11
167.4509739999997
 21
216.1368959999999
 31
0.0
  0
LINE
  5
A1AF
330
A050
100
AcDbEntity
  8
1
  6
Continuous
100
AcDbLine
 10
169.0509639999999
 20
214.5368899999998
 30
0.0
 11
169.0509639999999
 21
211.93689
 31
0.0
  0
LINE
  5
A1B0
330
A050
100
AcDbEntity
  8
1
  6
Continuous
100
AcDbLine
 10
143.0509639999999
 20
239.5368899999998
 30
0.0
 11
143.0509639999999
 21
237.936899
 31
0.0
  0
LINE
  5
A1B1
330
A050
100
AcDbEntity
  8
1
  6
Continuous
100
AcDbLine
 10
143.0509639999999
 20
216.1368959999999
 30
0.0
 11
143.0509639999999
 21
214.5368899999998
 31
0.0
  0
LINE
  5
A1B2
330
A050
100
AcDbEntity
  8
1
  6
Continuous
100
AcDbLine
 10
167.4509739999997
 20
237.936899
 30
0.0
 11
167.4509739999997
 21
216.1368959999999
 31
0.0
  0
LINE
  5
A1B3
330
A050
100
AcDbEntity
  8
1
  6
Continuous
100
AcDbLine
 10
143.0509639999999
 20
239.5368899999998
 30
0.0
 11
167.4509739999997
 21
239.5368899999998
 31
0.0
  0
LINE
  5
A1B4
330
A050
100
AcDbEntity
  8
1
  6
Continuous
100
AcDbLine
 10
143.0509639999999
 20
237.936899
 30
0.0
 11
167.4509739999997
 21
237.936899
 31
0.0
  0
LINE
  5
A1B5
330
A050
100
AcDbEntity
  8
1
  6
Continuous
100
AcDbLine
 10
144.0509639999999
 20
237.936899
 30
0.0
 11
144.0509639999999
 21
216.1368959999999
 31
0.0
  0
LINE
  5
A1B6
330
A050
100
AcDbEntity
  8
1
  6
Continuous
100
AcDbLine
 10
145.6509699999998
 20
237.936899
 30
0.0
 11
145.6509699999998
 21
216.1368959999999
 31
0.0
  0
LINE
  5
A1B7
330
A050
100
AcDbEntity
  8
1
  6
Continuous
100
AcDbLine
 10
158.65097
 20
234.0368899999997
 30
0.0
 11
159.050964
 21
234.0368899999997
 31
0.0
  0
LINE
  5
A1B8
330
A050
100
AcDbEntity
  8
1
  6
Continuous
100
AcDbLine
 10
158.65097
 20
220.0368899999999
 30
0.0
 11
159.050964
 21
220.0368899999999
 31
0.0
  0
LINE
  5
A1B9
330
A050
100
AcDbEntity
  8
1
  6
Continuous
100
AcDbLine
 10
158.65097
 20
229.5368899999997
 30
0.0
 11
159.050964
 21
229.5368899999997
 31
0.0
  0
LINE
  5
A1BA
330
A050
100
AcDbEntity
  8
1
  6
Continuous
100
AcDbLine
 10
158.65097
 20
224.5368899999999
 30
0.0
 11
159.050964
 21
224.5368899999999
 31
0.0
  0
LINE
  5
A1BB
330
A050
100
AcDbEntity
  8
1
  6
Continuous
100
AcDbLine
 10
159.050964
 20
234.0368899999997
 30
0.0
 11
159.050964
 21
229.5368899999997
 31
0.0
  0
LINE
  5
A1BC
330
A050
100
AcDbEntity
  8
1
  6
Continuous
100
AcDbLine
 10
158.65097
 20
234.0368899999997
 30
0.0
 11
158.65097
 21
229.5368899999997
 31
0.0
  0
LINE
  5
A1BD
330
A050
100
AcDbEntity
  8
1
  6
Continuous
100
AcDbLine
 10
158.65097
 20
224.5368899999999
 30
0.0
 11
158.65097
 21
220.0368899999999
 31
0.0
  0
LINE
  5
A1BE
330
A050
100
AcDbEntity
  8
1
  6
Continuous
100
AcDbLine
 10
159.050964
 20
224.5368899999999
 30
0.0
 11
159.050964
 21
220.0368899999999
 31
0.0
  0
LINE
  5
A1BF
330
A050
100
AcDbEntity
  8
5
  6
PHANTOM
100
AcDbLine
 10
112.050972
 20
225.0368899999998
 30
0.0
 11
112.050972
 21
224.0368899999999
 31
0.0
  0
LINE
  5
A1C0
330
A050
100
AcDbEntity
  8
1
  6
Continuous
100
AcDbLine
 10
112.55201
 20
230.0368899999998
 30
0.0
 11
119.050972
 21
230.0368899999998
 31
0.0
  0
LINE
  5
A1C1
330
A050
100
AcDbEntity
  8
1
  6
Continuous
100
AcDbLine
 10
109.050972
 20
224.0368899999999
 30
0.0
 11
119.050972
 21
224.0368899999999
 31
0.0
  0
LINE
  5
A1C2
330
A050
100
AcDbEntity
  8
5
  6
PHANTOM
100
AcDbLine
 10
112.050972
 20
225.0368899999998
 30
0.0
 11
115.55201
 21
230.0368899999998
 31
0.0
  0
LINE
  5
A1C3
330
A050
100
AcDbEntity
  8
4
  6
CENTER
100
AcDbLine
 10
133.5509639999999
 20
237.1218349999999
 30
0.0
 11
133.5509639999999
 21
221.0748689999999
 31
0.0
  0
LINE
  5
A1C4
330
A050
100
AcDbEntity
  8
1
  6
Continuous
100
AcDbLine
 10
136.5509639999999
 20
228.5368899999999
 30
0.0
 11
136.5509639999999
 21
225.5368899999997
 31
0.0
  0
LINE
  5
A1C5
330
A050
100
AcDbEntity
  8
1
  6
Continuous
100
AcDbLine
 10
128.5509639999999
 20
230.0368899999998
 30
0.0
 11
128.5509639999999
 21
228.5368899999999
 31
0.0
  0
LINE
  5
A1C6
330
A050
100
AcDbEntity
  8
1
  6
Continuous
100
AcDbLine
 10
128.5509639999999
 20
228.5368899999999
 30
0.0
 11
135.050964
 21
228.5368899999999
 31
0.0
  0
LINE
  5
A1C7
330
A050
100
AcDbEntity
  8
1
  6
Continuous
100
AcDbLine
 10
128.5509639999999
 20
225.5368899999997
 30
0.0
 11
131.602814
 21
225.5368899999997
 31
0.0
  0
LINE
  5
A1C8
330
A050
100
AcDbEntity
  8
1
  6
Continuous
100
AcDbLine
 10
122.250969
 20
224.0368899999999
 30
0.0
 11
128.5509639999999
 21
224.0368899999999
 31
0.0
  0
LINE
  5
A1C9
330
A050
100
AcDbEntity
  8
1
  6
Continuous
100
AcDbLine
 10
122.250969
 20
230.0368899999998
 30
0.0
 11
128.5509639999999
 21
230.0368899999998
 31
0.0
  0
LINE
  5
A1CA
330
A050
100
AcDbEntity
  8
1
  6
Continuous
100
AcDbLine
 10
128.5509639999999
 20
225.5368899999997
 30
0.0
 11
128.5509639999999
 21
224.0368899999999
 31
0.0
  0
LINE
  5
A1CB
330
A050
100
AcDbEntity
  8
1
  6
Continuous
100
AcDbLine
 10
122.250969
 20
231.5368899999997
 30
0.0
 11
122.250969
 21
222.5368899999998
 31
0.0
  0
LINE
  5
A1CC
330
A050
100
AcDbEntity
  8
1
  6
Continuous
100
AcDbLine
 10
132.050964
 20
234.0368899999997
 30
0.0
 11
132.050964
 21
231.0368899999998
 31
0.0
  0
LINE
  5
A1CD
330
A050
100
AcDbEntity
  8
1
  6
Continuous
100
AcDbLine
 10
135.050964
 20
234.0368899999997
 30
0.0
 11
135.050964
 21
226.065103
 31
0.0
  0
LINE
  5
A1CE
330
A050
100
AcDbEntity
  8
1
  6
Continuous
100
AcDbLine
 10
121.6509719999999
 20
231.5368899999997
 30
0.0
 11
122.250969
 21
231.5368899999997
 31
0.0
  0
LINE
  5
A1CF
330
A050
100
AcDbEntity
  8
1
  6
Continuous
100
AcDbLine
 10
121.6509719999999
 20
222.5368899999998
 30
0.0
 11
122.250969
 21
222.5368899999998
 31
0.0
  0
LINE
  5
A1D0
330
A050
100
AcDbEntity
  8
1
  6
Continuous
100
AcDbLine
 10
138.92952
 20
223.236887
 30
0.0
 11
139.550964
 21
223.236887
 31
0.0
  0
LINE
  5
A1D1
330
A050
100
AcDbEntity
  8
1
  6
Continuous
100
AcDbLine
 10
140.0509639999999
 20
217.5368899999998
 30
0.0
 11
140.0509639999999
 21
220.5368899999998
 31
0.0
  0
LINE
  5
A1D2
330
A050
100
AcDbEntity
  8
2
  6
Continuous
100
AcDbLine
 10
139.644958
 20
217.5368899999998
 30
0.0
 11
139.644958
 21
220.5368899999998
 31
0.0
  0
LINE
  5
A1D3
330
A050
100
AcDbEntity
  8
2
  6
Continuous
100
AcDbLine
 10
128.456955
 20
217.5368899999998
 30
0.0
 11
128.456955
 21
220.5368899999998
 31
0.0
  0
LINE
  5
A1D4
330
A050
100
AcDbEntity
  8
1
  6
Continuous
100
AcDbLine
 10
128.050964
 20
217.5368899999998
 30
0.0
 11
128.050964
 21
220.5368899999998
 31
0.0
  0
LINE
  5
A1D5
330
A050
100
AcDbEntity
  8
1
  6
Continuous
100
AcDbLine
 10
131.1462249999999
 20
217.5368899999998
 30
0.0
 11
131.1462249999999
 21
220.5368899999998
 31
0.0
  0
LINE
  5
A1D6
330
A050
100
AcDbEntity
  8
1
  6
Continuous
100
AcDbLine
 10
136.9556879999999
 20
217.5368899999998
 30
0.0
 11
136.9556879999999
 21
220.5368899999998
 31
0.0
  0
LINE
  5
A1D7
330
A050
100
AcDbEntity
  8
1
  6
Continuous
100
AcDbLine
 10
128.050964
 20
220.5368899999998
 30
0.0
 11
131.1462249999999
 21
220.5368899999998
 31
0.0
  0
LINE
  5
A1D8
330
A050
100
AcDbEntity
  8
1
  6
Continuous
100
AcDbLine
 10
140.0509639999999
 20
220.5368899999998
 30
0.0
 11
139.550964
 21
221.0368899999997
 31
0.0
  0
LINE
  5
A1D9
330
A050
100
AcDbEntity
  8
1
  6
Continuous
100
AcDbLine
 10
128.050964
 20
220.5368899999998
 30
0.0
 11
128.5509639999999
 21
221.0368899999997
 31
0.0
  0
LINE
  5
A1DA
330
A050
100
AcDbEntity
  8
1
  6
Continuous
100
AcDbLine
 10
128.5509639999999
 20
221.0368899999997
 30
0.0
 11
128.5509639999999
 21
221.636896
 31
0.0
  0
LINE
  5
A1DB
330
A050
100
AcDbEntity
  8
1
  6
Continuous
100
AcDbLine
 10
139.550964
 20
221.0368899999997
 30
0.0
 11
139.550964
 21
223.236887
 31
0.0
  0
LINE
  5
A1DC
330
A050
100
AcDbEntity
  8
1
  6
Continuous
100
AcDbLine
 10
128.5509639999999
 20
221.636896
 30
0.0
 11
139.550964
 21
221.636896
 31
0.0
  0
LINE
  5
A1DD
330
A050
100
AcDbEntity
  8
1
  6
Continuous
100
AcDbLine
 10
136.9556879999999
 20
220.5368899999998
 30
0.0
 11
140.0509639999999
 21
220.5368899999998
 31
0.0
  0
LINE
  5
A1DE
330
A050
100
AcDbEntity
  8
1
  6
Continuous
100
AcDbLine
 10
131.1462249999999
 20
220.5368899999998
 30
0.0
 11
132.2462309999999
 21
221.636896
 31
0.0
  0
LINE
  5
A1DF
330
A050
100
AcDbEntity
  8
1
  6
Continuous
100
AcDbLine
 10
136.9556879999999
 20
220.5368899999998
 30
0.0
 11
135.8556979999999
 21
221.636896
 31
0.0
  0
LINE
  5
A1E0
330
A050
100
AcDbEntity
  8
1
  6
Continuous
100
AcDbLine
 10
139.1744379999997
 20
221.636896
 30
0.0
 11
139.1744379999997
 21
223.236887
 31
0.0
  0
LINE
  5
A1E1
330
A050
100
AcDbEntity
  8
2
  6
Continuous
100
AcDbLine
 10
131.1462249999999
 20
220.5368899999998
 30
0.0
 11
133.196625
 21
217.5368899999998
 31
0.0
  0
LINE
  5
A1E2
330
A050
100
AcDbEntity
  8
2
  6
Continuous
100
AcDbLine
 10
134.905304
 20
217.5368899999998
 30
0.0
 11
136.9556879999999
 21
220.5368899999998
 31
0.0
  0
LINE
  5
A1E3
330
A050
100
AcDbEntity
  8
1
  6
Continuous
100
AcDbLine
 10
138.7509609999999
 20
221.636896
 30
0.0
 11
138.7509609999999
 21
222.0368899999999
 31
0.0
  0
LINE
  5
A1E4
330
A050
100
AcDbEntity
  8
1
  6
Continuous
100
AcDbLine
 10
129.3509669999999
 20
221.636896
 30
0.0
 11
129.3509669999999
 21
222.0368899999999
 31
0.0
  0
LINE
  5
A1E5
330
A050
100
AcDbEntity
  8
1
  6
Continuous
100
AcDbLine
 10
132.050964
 20
234.0368899999997
 30
0.0
 11
135.050964
 21
234.0368899999997
 31
0.0
  0
LINE
  5
A1E6
330
A050
100
AcDbEntity
  8
1
  6
Continuous
100
AcDbLine
 10
129.5509639999999
 20
231.0368899999998
 30
0.0
 11
135.050964
 21
231.0368899999998
 31
0.0
  0
LINE
  5
A1E7
330
A050
100
AcDbEntity
  8
1
  6
Continuous
100
AcDbLine
 10
139.550964
 20
223.0368899999997
 30
0.0
 11
140.2850949999999
 21
223.0368899999997
 31
0.0
  0
LINE
  5
A1E8
330
A050
100
AcDbEntity
  8
1
  6
Continuous
100
AcDbLine
 10
129.5509639999999
 20
231.0368899999998
 30
0.0
 11
129.5509639999999
 21
228.5368899999999
 31
0.0
  0
LINE
  5
A1E9
330
A050
100
AcDbEntity
  8
1
  6
Continuous
100
AcDbLine
 10
129.5509639999999
 20
225.5368899999997
 30
0.0
 11
129.5509639999999
 21
223.6368959999999
 31
0.0
  0
LINE
  5
A1EA
330
A050
100
AcDbEntity
  8
1
  6
Continuous
100
AcDbLine
 10
142.7112119999998
 20
216.867014
 30
0.0
 11
142.7112119999998
 21
214.5368899999998
 31
0.0
  0
LINE
  5
A1EB
330
A050
100
AcDbEntity
  8
1
  6
Continuous
100
AcDbLine
 10
125.390701
 20
216.867014
 30
0.0
 11
125.390701
 21
214.5368899999998
 31
0.0
  0
LINE
  5
A1EC
330
A050
100
AcDbEntity
  8
1
  6
Continuous
100
AcDbLine
 10
129.7208399999999
 20
216.867014
 30
0.0
 11
129.7208399999999
 21
214.5368899999998
 31
0.0
  0
LINE
  5
A1ED
330
A050
100
AcDbEntity
  8
1
  6
Continuous
100
AcDbLine
 10
138.3810879999997
 20
216.867014
 30
0.0
 11
138.3810879999997
 21
214.5368899999998
 31
0.0
  0
LINE
  5
A1EE
330
A050
100
AcDbEntity
  8
1
  6
Continuous
100
AcDbLine
 10
126.5509639999997
 20
217.5368899999998
 30
0.0
 11
141.5509639999999
 21
217.5368899999998
 31
0.0
  0
LINE
  5
A1EF
330
A050
100
AcDbEntity
  8
1
  6
Continuous
100
AcDbLine
 10
126.5509639999997
 20
217.536874
 30
0.0
 11
125.390701
 21
216.866998
 31
0.0
  0
LINE
  5
A1F0
330
A050
100
AcDbEntity
  8
1
  6
Continuous
100
AcDbLine
 10
141.5509639999999
 20
217.5368899999998
 30
0.0
 11
142.711227
 21
216.867014
 31
0.0
  0
LINE
  5
A1F1
330
A050
100
AcDbEntity
  8
1
  6
Continuous
100
AcDbLine
 10
136.4991149999999
 20
225.5368899999997
 30
0.0
 11
137.368423
 21
225.5368899999997
 31
0.0
  0
LINE
  5
A1F2
330
A050
100
AcDbEntity
  8
1
  6
Continuous
100
AcDbLine
 10
141.5509639999999
 20
211.93689
 30
0.0
 11
141.5509639999999
 21
207.9368899999999
 31
0.0
  0
LINE
  5
A1F3
330
A050
100
AcDbEntity
  8
1
  6
Continuous
100
AcDbLine
 10
126.550972
 20
207.9368899999999
 30
0.0
 11
141.5509639999999
 21
207.9368899999999
 31
0.0
  0
LINE
  5
A1F4
330
A050
100
AcDbEntity
  8
1
  6
Continuous
100
AcDbLine
 10
126.550972
 20
211.93689
 30
0.0
 11
126.550972
 21
207.9368899999999
 31
0.0
  0
LINE
  5
A1F5
330
A050
100
AcDbEntity
  8
1
  6
Continuous
100
AcDbLine
 10
136.7268219999999
 20
224.984125
 30
0.0
 11
136.800949
 21
224.13688
 31
0.0
  0
LINE
  5
A1F6
330
A050
100
AcDbEntity
  8
1
  6
Continuous
100
AcDbLine
 10
131.375153
 20
224.984125
 30
0.0
 11
131.301025
 21
224.13688
 31
0.0
  0
LINE
  5
A1F7
330
A050
100
AcDbEntity
  8
1
  6
Continuous
100
AcDbLine
 10
130.3009639999999
 20
224.1368959999999
 30
0.0
 11
137.8009639999999
 21
224.1368959999999
 31
0.0
  0
LINE
  5
A1F8
330
A050
100
AcDbEntity
  8
1
  6
Continuous
100
AcDbLine
 10
130.3009639999999
 20
224.1368959999999
 30
0.0
 11
130.3009639999999
 21
223.6368959999999
 31
0.0
  0
LINE
  5
A1F9
330
A050
100
AcDbEntity
  8
1
  6
Continuous
100
AcDbLine
 10
127.1509629999999
 20
223.6368959999999
 30
0.0
 11
138.92952
 21
223.6368959999999
 31
0.0
  0
LINE
  5
A1FA
330
A050
100
AcDbEntity
  8
1
  6
Continuous
100
AcDbLine
 10
137.8009639999999
 20
224.1368959999999
 30
0.0
 11
137.8009639999999
 21
223.6368959999999
 31
0.0
  0
LINE
  5
A1FB
330
A050
100
AcDbEntity
  8
1
  6
Continuous
100
AcDbLine
 10
138.92952
 20
223.6368959999999
 30
0.0
 11
138.92952
 21
222.0368899999999
 31
0.0
  0
LINE
  5
A1FC
330
A050
100
AcDbEntity
  8
1
  6
Continuous
100
AcDbLine
 10
127.1509629999999
 20
222.0368899999999
 30
0.0
 11
127.1509629999999
 21
220.7368869999999
 31
0.0
  0
LINE
  5
A1FD
330
A050
100
AcDbEntity
  8
1
  6
Continuous
100
AcDbLine
 10
127.1509629999999
 20
222.0368899999999
 30
0.0
 11
138.92952
 21
222.0368899999999
 31
0.0
  0
LINE
  5
A1FE
330
A050
100
AcDbEntity
  8
1
  6
Continuous
100
AcDbLine
 10
122.550964
 20
219.1368959999997
 30
0.0
 11
125.5509639999997
 21
219.1368959999997
 31
0.0
  0
LINE
  5
A1FF
330
A050
100
AcDbEntity
  8
1
  6
Continuous
100
AcDbLine
 10
122.550964
 20
220.7368869999999
 30
0.0
 11
125.5509639999997
 21
220.7368869999999
 31
0.0
  0
LINE
  5
A200
330
A050
100
AcDbEntity
  8
1
  6
Continuous
100
AcDbLine
 10
125.5509639999997
 20
222.0368899999999
 30
0.0
 11
125.5509639999997
 21
220.7368869999999
 31
0.0
  0
LINE
  5
A201
330
A050
100
AcDbEntity
  8
1
  6
Continuous
100
AcDbLine
 10
122.550964
 20
220.7368869999999
 30
0.0
 11
122.550964
 21
219.1368959999997
 31
0.0
  0
LINE
  5
A202
330
A050
100
AcDbEntity
  8
1
  6
Continuous
100
AcDbLine
 10
170.0509639999999
 20
229.2868899999997
 30
0.0
 11
170.0509639999999
 21
224.7868899999998
 31
0.0
  0
LINE
  5
A203
330
A050
100
AcDbEntity
  8
1
  6
Continuous
100
AcDbLine
 10
169.0509639999999
 20
229.2868899999997
 30
0.0
 11
170.0509639999999
 21
229.2868899999997
 31
0.0
  0
LINE
  5
A204
330
A050
100
AcDbEntity
  8
1
  6
Continuous
100
AcDbLine
 10
169.0509639999999
 20
224.7868899999998
 30
0.0
 11
170.0509639999999
 21
224.7868899999998
 31
0.0
  0
LINE
  5
A205
330
A050
100
AcDbEntity
  8
1
  6
Continuous
100
AcDbLine
 10
109.050972
 20
225.0368899999998
 30
0.0
 11
112.5520019999999
 21
230.0368899999998
 31
0.0
  0
LINE
  5
A206
330
A050
100
AcDbEntity
  8
1
  6
Continuous
100
AcDbLine
 10
109.050972
 20
225.0368899999998
 30
0.0
 11
109.050972
 21
224.0368899999999
 31
0.0
  0
LINE
  5
A207
330
A050
100
AcDbEntity
  8
1
  6
Continuous
100
AcDbLine
 10
366.950958
 20
135.9368899999997
 30
0.0
 11
366.950958
 21
127.9368899999999
 31
0.0
  0
LINE
  5
A208
330
A050
100
AcDbEntity
  8
1
  6
Continuous
100
AcDbLine
 10
366.950958
 20
135.9368899999997
 30
0.0
 11
361.4509889999998
 21
135.9368899999997
 31
0.0
  0
LINE
  5
A209
330
A050
100
AcDbEntity
  8
1
  6
Continuous
100
AcDbLine
 10
366.950958
 20
127.9368899999999
 30
0.0
 11
361.4509889999998
 21
127.9368899999999
 31
0.0
  0
LINE
  5
A20A
330
A050
100
AcDbEntity
  8
1
  6
Continuous
100
AcDbLine
 10
374.1509769999997
 20
134.9368899999997
 30
0.0
 11
366.950958
 21
134.9368899999997
 31
0.0
  0
LINE
  5
A20B
330
A050
100
AcDbEntity
  8
1
  6
Continuous
100
AcDbLine
 10
374.1509769999997
 20
128.9368899999997
 30
0.0
 11
366.950958
 21
128.9368899999997
 31
0.0
  0
LINE
  5
A20C
330
A050
100
AcDbEntity
  8
1
  6
Continuous
100
AcDbLine
 10
367.950958
 20
134.9368899999997
 30
0.0
 11
367.950958
 21
128.9368899999997
 31
0.0
  0
LINE
  5
A20D
330
A050
100
AcDbEntity
  8
1
  6
Continuous
100
AcDbLine
 10
363.079742
 20
142.308105
 30
0.0
 11
363.501282
 21
142.504669
 31
0.0
  0
LINE
  5
A20E
330
A050
100
AcDbEntity
  8
1
  6
Continuous
100
AcDbLine
 10
363.5013119999999
 20
142.504669
 30
0.0
 11
364.201294
 21
142.5168909999999
 31
0.0
  0
LINE
  5
A20F
330
A050
100
AcDbEntity
  8
1
  6
Continuous
100
AcDbLine
 10
363.501282
 20
143.3690949999999
 30
0.0
 11
364.201294
 21
143.3568879999999
 31
0.0
  0
LINE
  5
A210
330
A050
100
AcDbEntity
  8
1
  6
Continuous
100
AcDbLine
 10
363.0797729999999
 20
143.5656889999999
 30
0.0
 11
363.5013119999999
 21
143.36911
 31
0.0
  0
LINE
  5
A211
330
A050
100
AcDbEntity
  8
1
  6
Continuous
100
AcDbLine
 10
362.8832089999999
 20
143.9872129999999
 30
0.0
 11
362.8709719999998
 21
144.68721
 31
0.0
  0
LINE
  5
A212
330
A050
100
AcDbEntity
  8
1
  6
Continuous
100
AcDbLine
 10
363.0797729999999
 20
143.5656889999999
 30
0.0
 11
362.8832089999999
 21
143.9872279999999
 31
0.0
  0
LINE
  5
A213
330
A050
100
AcDbEntity
  8
1
  6
Continuous
100
AcDbLine
 10
362.0187379999999
 20
143.9872129999999
 30
0.0
 11
362.030975
 21
144.687195
 31
0.0
  0
LINE
  5
A214
330
A050
100
AcDbEntity
  8
1
  6
Continuous
100
AcDbLine
 10
361.8222049999998
 20
143.565659
 30
0.0
 11
362.018768
 21
143.987198
 31
0.0
  0
LINE
  5
A215
330
A050
100
AcDbEntity
  8
1
  6
Continuous
100
AcDbLine
 10
361.400665
 20
143.36911
 30
0.0
 11
360.700653
 21
143.3568879999999
 31
0.0
  0
LINE
  5
A216
330
A050
100
AcDbEntity
  8
1
  6
Continuous
100
AcDbLine
 10
361.8222049999998
 20
143.5656889999999
 30
0.0
 11
361.400635
 21
143.36911
 31
0.0
  0
LINE
  5
A217
330
A050
100
AcDbEntity
  8
1
  6
Continuous
100
AcDbLine
 10
361.400635
 20
142.504669
 30
0.0
 11
360.700653
 21
142.5168909999999
 31
0.0
  0
LINE
  5
A218
330
A050
100
AcDbEntity
  8
1
  6
Continuous
100
AcDbLine
 10
361.8222049999998
 20
142.308105
 30
0.0
 11
361.400665
 21
142.504669
 31
0.0
  0
LINE
  5
A219
330
A050
100
AcDbEntity
  8
1
  6
Continuous
100
AcDbLine
 10
362.018768
 20
141.8865659999999
 30
0.0
 11
362.030975
 21
141.1865689999999
 31
0.0
  0
LINE
  5
A21A
330
A050
100
AcDbEntity
  8
1
  6
Continuous
100
AcDbLine
 10
361.822174
 20
142.308105
 30
0.0
 11
362.018768
 21
141.8865659999999
 31
0.0
  0
LINE
  5
A21B
330
A050
100
AcDbEntity
  8
1
  6
Continuous
100
AcDbLine
 10
362.883179
 20
141.8865659999999
 30
0.0
 11
362.8709719999998
 21
141.186584
 31
0.0
  0
LINE
  5
A21C
330
A050
100
AcDbEntity
  8
1
  6
Continuous
100
AcDbLine
 10
363.079742
 20
142.3080899999999
 30
0.0
 11
362.883179
 21
141.886551
 31
0.0
  0
LINE
  5
A21D
330
A050
100
AcDbEntity
  8
1
  6
Continuous
100
AcDbLine
 10
353.7907099999998
 20
142.9368899999998
 30
0.0
 11
357.4193119999998
 21
136.651978
 31
0.0
  0
LINE
  5
A21E
330
A050
100
AcDbEntity
  8
1
  6
Continuous
100
AcDbLine
 10
366.7810970000001
 20
150.4368899999998
 30
0.0
 11
368.224487
 21
147.9368899999998
 31
0.0
  0
LINE
  5
A21F
330
A050
100
AcDbEntity
  8
1
  6
Continuous
100
AcDbLine
 10
366.7810970000001
 20
150.4368899999998
 30
0.0
 11
358.12085
 21
150.4368899999998
 31
0.0
  0
LINE
  5
A220
330
A050
100
AcDbEntity
  8
1
  6
Continuous
100
AcDbLine
 10
358.12085
 20
150.4368899999998
 30
0.0
 11
353.790741
 21
142.9368899999998
 31
0.0
  0
LINE
  5
A221
330
A050
100
AcDbEntity
  8
1
  6
Continuous
100
AcDbLine
 10
369.7255859999998
 20
140.5368959999997
 30
0.0
 11
366.950958
 21
135.7310939999997
 31
0.0
  0
LINE
  5
A222
330
A050
100
AcDbEntity
  8
1
  6
Continuous
100
AcDbLine
 10
372.857208
 20
140.5368959999997
 30
0.0
 11
367.399719
 21
140.5368959999997
 31
0.0
  0
LINE
  5
A223
330
A050
100
AcDbEntity
  8
1
  6
Continuous
100
AcDbLine
 10
364.99057
 20
138.0583189999997
 30
0.0
 11
364.528839
 21
138.9453279999999
 31
0.0
  0
LINE
  5
A224
330
A050
100
AcDbEntity
  8
1
  6
Continuous
100
AcDbLine
 10
358.4594119999999
 20
145.014755
 30
0.0
 11
357.572418
 21
145.476501
 31
0.0
  0
LINE
  5
A225
330
A050
100
AcDbEntity
  8
1
  6
Continuous
100
AcDbLine
 10
365.3557129999999
 20
137.6868899999997
 30
0.0
 11
359.5462339999999
 21
137.6868899999997
 31
0.0
  0
LINE
  5
A226
330
A050
100
AcDbEntity
  8
1
  6
Continuous
100
AcDbLine
 10
365.3557129999999
 20
148.1868899999998
 30
0.0
 11
359.5462339999999
 21
148.1868899999998
 31
0.0
  0
LINE
  5
A227
330
A050
100
AcDbEntity
  8
4
  6
CENTER
100
AcDbLine
 10
38.058168
 20
142.9368899999998
 30
0.0
 11
62.257477
 21
142.9368899999998
 31
0.0
  0
LINE
  5
A228
330
A050
100
AcDbEntity
  8
1
  6
Continuous
100
AcDbLine
 10
356.794098
 20
144.9368899999998
 30
0.0
 11
358.0052189999997
 21
144.508698
 31
0.0
  0
LINE
  5
A229
330
A050
100
AcDbEntity
  8
1
  6
Continuous
100
AcDbLine
 10
358.0052189999997
 20
141.3650819999998
 30
0.0
 11
356.794098
 21
140.9368899999997
 31
0.0
  0
LINE
  5
A22A
330
A050
100
AcDbEntity
  8
1
  6
Continuous
100
AcDbLine
 10
166.452774
 20
133.4795839999999
 30
0.0
 11
167.786957
 21
133.4795839999999
 31
0.0
  0
LINE
  5
A22B
330
A050
100
AcDbEntity
  8
1
  6
Continuous
100
AcDbLine
 10
167.1342469999999
 20
135.2391659999997
 30
0.0
 11
168.059906
 21
132.7368929999997
 31
0.0
  0
LINE
  5
A22C
330
A050
100
AcDbEntity
  8
1
  6
Continuous
100
AcDbLine
 10
158.185776
 20
134.032196
 30
0.0
 11
159.807053
 21
134.032196
 31
0.0
  0
LINE
  5
A22D
330
A050
100
AcDbEntity
  8
1
  6
Continuous
100
AcDbLine
 10
149.2016749999999
 20
131.136887
 30
0.0
 11
149.2016749999999
 21
128.6368869999997
 31
0.0
  0
LINE
  5
A22E
330
A050
100
AcDbEntity
  8
1
  6
Continuous
100
AcDbLine
 10
148.187149
 20
131.136887
 30
0.0
 11
150.225174
 21
131.136887
 31
0.0
  0
LINE
  5
A22F
330
A050
100
AcDbEntity
  8
1
  6
Continuous
100
AcDbLine
 10
158.185776
 20
135.2368929999999
 30
0.0
 11
158.185776
 21
132.7368929999997
 31
0.0
  0
LINE
  5
A230
330
A050
100
AcDbEntity
  8
1
  6
Continuous
100
AcDbLine
 10
162.332855
 20
133.9053959999999
 30
0.0
 11
163.2114559999999
 21
133.9053959999999
 31
0.0
  0
LINE
  5
A231
330
A050
100
AcDbEntity
  8
1
  6
Continuous
100
AcDbLine
 10
159.807053
 20
135.2368929999999
 30
0.0
 11
159.807053
 21
132.7368929999997
 31
0.0
  0
LINE
  5
A232
330
A050
100
AcDbEntity
  8
1
  6
Continuous
100
AcDbLine
 10
160.685776
 20
135.2368929999999
 30
0.0
 11
160.685776
 21
132.7368929999997
 31
0.0
  0
LINE
  5
A233
330
A050
100
AcDbEntity
  8
1
  6
Continuous
100
AcDbLine
 10
167.1342319999999
 20
135.23468
 30
0.0
 11
166.1644129999999
 21
132.7368929999997
 31
0.0
  0
LINE
  5
A234
330
A050
100
AcDbEntity
  8
1
  6
Continuous
100
AcDbLine
 10
165.4842679999999
 20
133.896286
 30
0.0
 11
165.4842679999999
 21
132.7368929999997
 31
0.0
  0
LINE
  5
A235
330
A050
100
AcDbEntity
  8
1
  6
Continuous
100
AcDbLine
 10
163.2114559999999
 20
133.5328059999999
 30
0.0
 11
163.2114559999999
 21
132.7368929999997
 31
0.0
  0
LINE
  5
A236
330
A050
100
AcDbEntity
  8
1
  6
Continuous
100
AcDbLine
 10
163.9360659999999
 20
135.2368929999999
 30
0.0
 11
163.9360659999999
 21
132.7368929999997
 31
0.0
  0
LINE
  5
A237
330
A050
100
AcDbEntity
  8
1
  6
Continuous
100
AcDbLine
 10
165.4842679999999
 20
133.896286
 30
0.0
 11
166.2583159999998
 21
135.2368929999999
 31
0.0
  0
LINE
  5
A238
330
A050
100
AcDbEntity
  8
1
  6
Continuous
100
AcDbLine
 10
165.4842679999999
 20
133.900803
 30
0.0
 11
164.715256
 21
135.2368929999999
 31
0.0
  0
LINE
  5
A239
330
A050
100
AcDbEntity
  8
1
  6
Continuous
100
AcDbLine
 10
155.1061399999998
 20
128.6369019999999
 30
0.0
 11
156.432159
 21
130.0232849999999
 31
0.0
  0
LINE
  5
A23A
330
A050
100
AcDbEntity
  8
1
  6
Continuous
100
AcDbLine
 10
157.41658
 20
131.136887
 30
0.0
 11
158.6567839999998
 21
131.136887
 31
0.0
  0
LINE
  5
A23B
330
A050
100
AcDbEntity
  8
1
  6
Continuous
100
AcDbLine
 10
157.41658
 20
131.136887
 30
0.0
 11
157.41658
 21
129.7085419999999
 31
0.0
  0
LINE
  5
A23C
330
A050
100
AcDbEntity
  8
1
  6
Continuous
100
AcDbLine
 10
152.2016749999997
 20
135.2368929999999
 30
0.0
 11
152.2016749999997
 21
132.7368929999997
 31
0.0
  0
LINE
  5
A23D
330
A050
100
AcDbEntity
  8
1
  6
Continuous
100
AcDbLine
 10
151.187149
 20
135.2368929999999
 30
0.0
 11
153.225174
 21
135.2368929999999
 31
0.0
  0
LINE
  5
A23E
330
A050
100
AcDbEntity
  8
1
  6
Continuous
100
AcDbLine
 10
155.106125
 20
128.6368869999997
 30
0.0
 11
156.6091919999998
 21
128.6368869999997
 31
0.0
  0
LINE
  5
A23F
330
A050
100
AcDbEntity
  8
1
  6
Continuous
100
AcDbLine
 10
150.707138
 20
128.6368869999997
 30
0.0
 11
152.2071379999998
 21
128.6368869999997
 31
0.0
  0
LINE
  5
A240
330
A050
100
AcDbEntity
  8
1
  6
Continuous
100
AcDbLine
 10
150.707138
 20
131.136887
 30
0.0
 11
150.707138
 21
128.6368869999997
 31
0.0
  0
LINE
  5
A241
330
A050
100
AcDbEntity
  8
1
  6
Continuous
100
AcDbLine
 10
152.6815339999999
 20
129.8868869999997
 30
0.0
 11
153.843872
 21
129.8868869999997
 31
0.0
  0
LINE
  5
A242
330
A050
100
AcDbEntity
  8
1
  6
Continuous
100
AcDbLine
 10
155.735062
 20
139.4873499999999
 30
0.0
 11
155.735062
 21
136.3864289999999
 31
0.0
  0
LINE
  5
A243
330
A050
100
AcDbEntity
  8
1
  6
Continuous
100
AcDbLine
 10
155.291183
 20
139.4503629999997
 30
0.0
 11
155.291183
 21
136.423416
 31
0.0
  0
LINE
  5
A244
330
A050
100
AcDbEntity
  8
1
  6
Continuous
100
AcDbLine
 10
154.8463899999999
 20
136.5551449999999
 30
0.0
 11
154.8463899999999
 21
137.404129
 31
0.0
  0
LINE
  5
A245
330
A050
100
AcDbEntity
  8
1
  6
Continuous
100
AcDbLine
 10
154.4015959999998
 20
139.0912779999998
 30
0.0
 11
154.4015959999998
 21
136.782501
 31
0.0
  0
LINE
  5
A246
330
A050
100
AcDbEntity
  8
1
  6
Continuous
100
AcDbLine
 10
155.735062
 20
137.937332
 30
0.0
 11
155.291183
 21
137.937332
 31
0.0
  0
LINE
  5
A247
330
A050
100
AcDbEntity
  8
1
  6
Continuous
100
AcDbLine
 10
154.8463899999999
 20
138.470551
 30
0.0
 11
154.8463899999999
 21
139.3186339999997
 31
0.0
  0
LINE
  5
A248
330
A050
100
AcDbEntity
  8
1
  6
Continuous
100
AcDbLine
 10
153.957703
 20
139.0335389999999
 30
0.0
 11
153.957703
 21
136.8411409999999
 31
0.0
  0
LINE
  5
A249
330
A050
100
AcDbEntity
  8
1
  6
Continuous
100
AcDbLine
 10
153.512909
 20
137.1172179999997
 30
0.0
 11
153.512909
 21
138.7565459999999
 31
0.0
  0
LINE
  5
A24A
330
A050
100
AcDbEntity
  8
1
  6
Continuous
100
AcDbLine
 10
153.0690159999998
 20
139.156235
 30
0.0
 11
153.0690159999998
 21
137.2399289999999
 31
0.0
  0
LINE
  5
A24B
330
A050
100
AcDbEntity
  8
1
  6
Continuous
100
AcDbLine
 10
157.512436
 20
139.3980259999999
 30
0.0
 11
157.512436
 21
136.615585
 31
0.0
  0
LINE
  5
A24C
330
A050
100
AcDbEntity
  8
1
  6
Continuous
100
AcDbLine
 10
157.0685419999998
 20
136.6823579999999
 30
0.0
 11
157.0685419999998
 21
137.937332
 31
0.0
  0
LINE
  5
A24D
330
A050
100
AcDbEntity
  8
1
  6
Continuous
100
AcDbLine
 10
156.6237489999998
 20
139.3998259999999
 30
0.0
 11
156.6237489999998
 21
136.4739379999997
 31
0.0
  0
LINE
  5
A24E
330
A050
100
AcDbEntity
  8
1
  6
Continuous
100
AcDbLine
 10
156.1798549999998
 20
139.4873499999999
 30
0.0
 11
156.1798549999998
 21
136.3864289999999
 31
0.0
  0
LINE
  5
A24F
330
A050
100
AcDbEntity
  8
1
  6
Continuous
100
AcDbLine
 10
159.76889
 20
137.937332
 30
0.0
 11
158.850433
 21
137.937332
 31
0.0
  0
LINE
  5
A250
330
A050
100
AcDbEntity
  8
1
  6
Continuous
100
AcDbLine
 10
158.627579
 20
137.105499
 30
0.0
 11
159.130112
 21
138.9785
 31
0.0
  0
LINE
  5
A251
330
A050
100
AcDbEntity
  8
1
  6
Continuous
100
AcDbLine
 10
158.179169
 20
137.937332
 30
0.0
 11
158.179169
 21
136.870911
 31
0.0
  0
LINE
  5
A252
330
A050
100
AcDbEntity
  8
1
  6
Continuous
100
AcDbLine
 10
158.4020229999999
 20
138.159286
 30
0.0
 11
158.4020229999999
 21
139.1084139999997
 31
0.0
  0
LINE
  5
A253
330
A050
100
AcDbEntity
  8
1
  6
Continuous
100
AcDbLine
 10
157.95723
 20
139.188705
 30
0.0
 11
157.95723
 21
138.159286
 31
0.0
  0
LINE
  5
A254
330
A050
100
AcDbEntity
  8
1
  6
Continuous
100
AcDbLine
 10
157.0685419999998
 20
137.937332
 30
0.0
 11
156.8466029999999
 21
137.937332
 31
0.0
  0
LINE
  5
A255
330
A050
100
AcDbEntity
  8
1
  6
Continuous
100
AcDbLine
 10
157.0685419999998
 20
138.470551
 30
0.0
 11
157.0685419999998
 21
139.1914219999997
 31
0.0
  0
LINE
  5
A256
330
A050
100
AcDbEntity
  8
1
  6
Continuous
100
AcDbLine
 10
143.550964
 20
32.33689
 30
0.0
 11
143.550964
 21
41.33688999999999
 31
0.0
  0
LINE
  5
A257
330
A050
100
AcDbEntity
  8
1
  6
Continuous
100
AcDbLine
 10
136.0502469999999
 20
41.355776
 30
0.0
 11
136.732056
 21
32.355776
 31
0.0
  0
LINE
  5
A258
330
A050
100
AcDbEntity
  8
1
  6
Continuous
100
AcDbLine
 10
136.23349
 20
32.31800299999999
 30
0.0
 11
135.5516659999999
 21
41.318007
 31
0.0
  0
LINE
  5
A259
330
A050
100
AcDbEntity
  8
1
  6
Continuous
100
AcDbLine
 10
136.9153139999999
 20
41.318003
 30
0.0
 11
137.5971219999997
 21
32.31800299999999
 31
0.0
  0
LINE
  5
A25A
330
A050
100
AcDbEntity
  8
1
  6
Continuous
100
AcDbLine
 10
138.0957029999999
 20
32.355776
 30
0.0
 11
137.413879
 21
41.355776
 31
0.0
  0
LINE
  5
A25B
330
A050
100
AcDbEntity
  8
1
  6
Continuous
100
AcDbLine
 10
138.2789459999999
 20
41.318003
 30
0.0
 11
138.96077
 21
32.31800299999999
 31
0.0
  0
LINE
  5
A25C
330
A050
100
AcDbEntity
  8
1
  6
Continuous
100
AcDbLine
 10
139.459335
 20
32.355776
 30
0.0
 11
138.777512
 21
41.355776
 31
0.0
  0
LINE
  5
A25D
330
A050
100
AcDbEntity
  8
1
  6
Continuous
100
AcDbLine
 10
139.6425779999999
 20
41.318007
 30
0.0
 11
140.3244019999999
 21
32.318007
 31
0.0
  0
LINE
  5
A25E
330
A050
100
AcDbEntity
  8
1
  6
Continuous
100
AcDbLine
 10
140.8229679999998
 20
32.355776
 30
0.0
 11
140.1411589999999
 21
41.355776
 31
0.0
  0
LINE
  5
A25F
330
A050
100
AcDbEntity
  8
1
  6
Continuous
100
AcDbLine
 10
141.0062259999999
 20
41.318007
 30
0.0
 11
141.6880339999998
 21
32.31800299999999
 31
0.0
  0
LINE
  5
A260
330
A050
100
AcDbEntity
  8
1
  6
Continuous
100
AcDbLine
 10
142.1866149999999
 20
32.355776
 30
0.0
 11
141.504791
 21
41.355776
 31
0.0
  0
LINE
  5
A261
330
A050
100
AcDbEntity
  8
1
  6
Continuous
100
AcDbLine
 10
142.3698579999999
 20
41.318003
 30
0.0
 11
143.051682
 21
32.31800299999999
 31
0.0
  0
LINE
  5
A262
330
A050
100
AcDbEntity
  8
1
  6
Continuous
100
AcDbLine
 10
142.8684389999999
 20
41.355776
 30
0.0
 11
143.5502469999998
 21
32.355776
 31
0.0
  0
LINE
  5
A263
330
A050
100
AcDbEntity
  8
1
  6
Continuous
100
AcDbLine
 10
135.5791319999999
 20
32.836886
 30
0.0
 11
135.550583
 21
32.323019
 31
0.0
  0
LINE
  5
A264
330
A050
100
AcDbEntity
  8
1
  6
Continuous
100
AcDbLine
 10
136.7320709999999
 20
32.318007
 30
0.0
 11
136.771378
 21
32.83688999999998
 31
0.0
  0
LINE
  5
A265
330
A050
100
AcDbEntity
  8
1
  6
Continuous
100
AcDbLine
 10
136.9153139999999
 20
41.35577199999999
 30
0.0
 11
136.8760069999999
 21
40.83688999999997
 31
0.0
  0
LINE
  5
A266
330
A050
100
AcDbEntity
  8
1
  6
Continuous
100
AcDbLine
 10
138.2396389999997
 20
40.83688999999997
 30
0.0
 11
138.2789459999999
 21
41.355776
 31
0.0
  0
LINE
  5
A267
330
A050
100
AcDbEntity
  8
1
  6
Continuous
100
AcDbLine
 10
138.1350099999999
 20
32.83688999999998
 30
0.0
 11
138.0957029999999
 21
32.31800299999999
 31
0.0
  0
LINE
  5
A268
330
A050
100
AcDbEntity
  8
1
  6
Continuous
100
AcDbLine
 10
139.603271
 20
40.83688999999997
 30
0.0
 11
139.642593
 21
41.35577199999999
 31
0.0
  0
LINE
  5
A269
330
A050
100
AcDbEntity
  8
1
  6
Continuous
100
AcDbLine
 10
139.4986419999999
 20
32.83688999999998
 30
0.0
 11
139.459335
 21
32.31800299999999
 31
0.0
  0
LINE
  5
A26A
330
A050
100
AcDbEntity
  8
1
  6
Continuous
100
AcDbLine
 10
140.9669189999999
 20
40.83688999999997
 30
0.0
 11
141.0062259999999
 21
41.35577199999999
 31
0.0
  0
LINE
  5
A26B
330
A050
100
AcDbEntity
  8
1
  6
Continuous
100
AcDbLine
 10
140.8622889999998
 20
32.83688999999998
 30
0.0
 11
140.8229829999999
 21
32.31800299999999
 31
0.0
  0
LINE
  5
A26C
330
A050
100
AcDbEntity
  8
1
  6
Continuous
100
AcDbLine
 10
142.330551
 20
40.83688999999997
 30
0.0
 11
142.3698579999999
 21
41.355776
 31
0.0
  0
LINE
  5
A26D
330
A050
100
AcDbEntity
  8
1
  6
Continuous
100
AcDbLine
 10
142.2259219999999
 20
32.836886
 30
0.0
 11
142.1866149999999
 21
32.31800299999999
 31
0.0
  0
LINE
  5
A26E
330
A050
100
AcDbEntity
  8
1
  6
Continuous
100
AcDbLine
 10
143.5227969999999
 20
40.83688999999997
 30
0.0
 11
143.5513459999999
 21
41.35075999999999
 31
0.0
  0
LINE
  5
A26F
330
A050
100
AcDbEntity
  8
1
  6
Continuous
100
AcDbLine
 10
135.5509639999999
 20
41.33688999999999
 30
0.0
 11
135.550583
 21
32.323023
 31
0.0
  0
LINE
  5
A270
330
A050
100
AcDbEntity
  8
1
  6
Continuous
100
AcDbLine
 10
135.5505979999997
 20
32.83688999999998
 30
0.0
 11
136.194183
 21
32.83688999999998
 31
0.0
  0
LINE
  5
A271
330
A050
100
AcDbEntity
  8
1
  6
Continuous
100
AcDbLine
 10
136.695618
 20
32.83688999999998
 30
0.0
 11
137.5578309999999
 21
32.83688999999998
 31
0.0
  0
LINE
  5
A272
330
A050
100
AcDbEntity
  8
1
  6
Continuous
100
AcDbLine
 10
138.0592499999999
 20
32.83688999999998
 30
0.0
 11
138.9214629999997
 21
32.83688999999998
 31
0.0
  0
LINE
  5
A273
330
A050
100
AcDbEntity
  8
1
  6
Continuous
100
AcDbLine
 10
139.422897
 20
32.83688999999998
 30
0.0
 11
140.2850949999999
 21
32.83688999999998
 31
0.0
  0
LINE
  5
A274
330
A050
100
AcDbEntity
  8
1
  6
Continuous
100
AcDbLine
 10
140.78653
 20
32.83688999999998
 30
0.0
 11
141.648727
 21
32.83688999999998
 31
0.0
  0
LINE
  5
A275
330
A050
100
AcDbEntity
  8
1
  6
Continuous
100
AcDbLine
 10
142.1501619999999
 20
32.83688999999998
 30
0.0
 11
143.0123749999999
 21
32.83688999999998
 31
0.0
  0
LINE
  5
A276
330
A050
100
AcDbEntity
  8
1
  6
Continuous
100
AcDbLine
 10
142.907745
 20
40.83688999999997
 30
0.0
 11
143.550964
 21
40.83688999999997
 31
0.0
  0
LINE
  5
A277
330
A050
100
AcDbEntity
  8
1
  6
Continuous
100
AcDbLine
 10
141.5440979999999
 20
40.83688999999997
 30
0.0
 11
142.4063109999998
 21
40.83688999999997
 31
0.0
  0
LINE
  5
A278
330
A050
100
AcDbEntity
  8
1
  6
Continuous
100
AcDbLine
 10
140.1804659999999
 20
40.83688999999997
 30
0.0
 11
141.0426789999999
 21
40.83688999999997
 31
0.0
  0
LINE
  5
A279
330
A050
100
AcDbEntity
  8
1
  6
Continuous
100
AcDbLine
 10
138.816833
 20
40.83688999999997
 30
0.0
 11
139.679031
 21
40.83688999999997
 31
0.0
  0
LINE
  5
A27A
330
A050
100
AcDbEntity
  8
1
  6
Continuous
100
AcDbLine
 10
137.453201
 20
40.83688999999997
 30
0.0
 11
138.3153989999997
 21
40.83688999999997
 31
0.0
  0
LINE
  5
A27B
330
A050
100
AcDbEntity
  8
1
  6
Continuous
100
AcDbLine
 10
136.089554
 20
40.83688999999997
 30
0.0
 11
136.951767
 21
40.83688999999997
 31
0.0
  0
LINE
  5
A27C
330
A050
100
AcDbEntity
  8
1
  6
Continuous
100
AcDbLine
 10
136.2789459999999
 20
38.33688999999999
 30
0.0
 11
137.1411589999999
 21
38.33688999999999
 31
0.0
  0
LINE
  5
A27D
330
A050
100
AcDbEntity
  8
1
  6
Continuous
100
AcDbLine
 10
135.5508419999999
 20
38.33688999999999
 30
0.0
 11
135.7775269999999
 21
38.33688999999999
 31
0.0
  0
LINE
  5
A27E
330
A050
100
AcDbEntity
  8
1
  6
Continuous
100
AcDbLine
 10
135.5507049999999
 20
35.33688999999998
 30
0.0
 11
136.0047909999997
 21
35.33688999999998
 31
0.0
  0
LINE
  5
A27F
330
A050
100
AcDbEntity
  8
1
  6
Continuous
100
AcDbLine
 10
136.5062259999999
 20
35.33688999999998
 30
0.0
 11
137.368423
 21
35.33688999999998
 31
0.0
  0
LINE
  5
A280
330
A050
100
AcDbEntity
  8
1
  6
Continuous
100
AcDbLine
 10
143.550964
 20
222.5368899999998
 30
0.0
 11
143.550964
 21
231.5368899999997
 31
0.0
  0
LINE
  5
A281
330
A050
100
AcDbEntity
  8
1
  6
Continuous
100
AcDbLine
 10
136.0502469999999
 20
231.5557799999999
 30
0.0
 11
136.506943
 21
225.527368
 31
0.0
  0
LINE
  5
A282
330
A050
100
AcDbEntity
  8
1
  6
Continuous
100
AcDbLine
 10
135.979858
 20
225.8658999999999
 30
0.0
 11
135.551682
 21
231.517999
 31
0.0
  0
LINE
  5
A283
330
A050
100
AcDbEntity
  8
1
  6
Continuous
100
AcDbLine
 10
136.9153139999999
 20
231.517999
 30
0.0
 11
137.474487
 21
224.1368959999999
 31
0.0
  0
LINE
  5
A284
330
A050
100
AcDbEntity
  8
1
  6
Continuous
100
AcDbLine
 10
138.013794
 20
223.6368959999999
 30
0.0
 11
137.413879
 21
231.5557649999998
 31
0.0
  0
LINE
  5
A285
330
A050
100
AcDbEntity
  8
1
  6
Continuous
100
AcDbLine
 10
138.2789459999999
 20
231.517999
 30
0.0
 11
138.8760069999999
 21
223.6368959999999
 31
0.0
  0
LINE
  5
A286
330
A050
100
AcDbEntity
  8
1
  6
Continuous
100
AcDbLine
 10
139.407745
 20
223.236887
 30
0.0
 11
138.7775269999999
 21
231.5557649999998
 31
0.0
  0
LINE
  5
A287
330
A050
100
AcDbEntity
  8
1
  6
Continuous
100
AcDbLine
 10
139.642593
 20
231.517999
 30
0.0
 11
140.3244019999999
 21
222.5179989999999
 31
0.0
  0
LINE
  5
A288
330
A050
100
AcDbEntity
  8
1
  6
Continuous
100
AcDbLine
 10
140.8229829999999
 20
222.5557649999998
 30
0.0
 11
140.1411589999999
 21
231.5557649999998
 31
0.0
  0
LINE
  5
A289
330
A050
100
AcDbEntity
  8
1
  6
Continuous
100
AcDbLine
 10
141.0062259999999
 20
231.5180149999999
 30
0.0
 11
141.688049
 21
222.5179989999999
 31
0.0
  0
LINE
  5
A28A
330
A050
100
AcDbEntity
  8
1
  6
Continuous
100
AcDbLine
 10
142.1866149999999
 20
222.5557649999998
 30
0.0
 11
141.504791
 21
231.5557799999999
 31
0.0
  0
LINE
  5
A28B
330
A050
100
AcDbEntity
  8
1
  6
Continuous
100
AcDbLine
 10
142.3698579999999
 20
231.5180149999999
 30
0.0
 11
143.051682
 21
222.5179989999999
 31
0.0
  0
LINE
  5
A28C
330
A050
100
AcDbEntity
  8
1
  6
Continuous
100
AcDbLine
 10
142.8684389999999
 20
231.5557799999999
 30
0.0
 11
143.5502469999998
 21
222.5557649999998
 31
0.0
  0
LINE
  5
A28D
330
A050
100
AcDbEntity
  8
1
  6
Continuous
100
AcDbLine
 10
140.8622889999998
 20
223.0368899999997
 30
0.0
 11
140.8229829999999
 21
222.5179989999999
 31
0.0
  0
LINE
  5
A28E
330
A050
100
AcDbEntity
  8
1
  6
Continuous
100
AcDbLine
 10
142.2259219999999
 20
223.0368899999997
 30
0.0
 11
142.1866149999999
 21
222.5179989999999
 31
0.0
  0
LINE
  5
A28F
330
A050
100
AcDbEntity
  8
1
  6
Continuous
100
AcDbLine
 10
135.5509639999999
 20
231.5368899999997
 30
0.0
 11
135.5507199999999
 21
225.974344
 31
0.0
  0
LINE
  5
A290
330
A050
100
AcDbEntity
  8
1
  6
Continuous
100
AcDbLine
 10
140.9669189999999
 20
231.0368899999998
 30
0.0
 11
141.0062259999999
 21
231.5557649999998
 31
0.0
  0
LINE
  5
A291
330
A050
100
AcDbEntity
  8
1
  6
Continuous
100
AcDbLine
 10
142.330551
 20
231.0368899999998
 30
0.0
 11
142.3698579999999
 21
231.5557799999999
 31
0.0
  0
LINE
  5
A292
330
A050
100
AcDbEntity
  8
1
  6
Continuous
100
AcDbLine
 10
143.5228119999998
 20
231.0368899999998
 30
0.0
 11
143.551361
 21
231.55076
 31
0.0
  0
LINE
  5
A293
330
A050
100
AcDbEntity
  8
1
  6
Continuous
100
AcDbLine
 10
139.603271
 20
231.0368899999998
 30
0.0
 11
139.6425779999999
 21
231.5557649999998
 31
0.0
  0
LINE
  5
A294
330
A050
100
AcDbEntity
  8
1
  6
Continuous
100
AcDbLine
 10
136.9153139999999
 20
231.5557649999998
 30
0.0
 11
136.8760069999999
 21
231.0368899999998
 31
0.0
  0
LINE
  5
A295
330
A050
100
AcDbEntity
  8
1
  6
Continuous
100
AcDbLine
 10
138.2396389999997
 20
231.0368899999998
 30
0.0
 11
138.278961
 21
231.5557649999998
 31
0.0
  0
LINE
  5
A296
330
A050
100
AcDbEntity
  8
1
  6
Continuous
100
AcDbLine
 10
140.78653
 20
223.0368899999997
 30
0.0
 11
141.648727
 21
223.0368899999997
 31
0.0
  0
LINE
  5
A297
330
A050
100
AcDbEntity
  8
1
  6
Continuous
100
AcDbLine
 10
142.1501619999999
 20
223.0368899999997
 30
0.0
 11
143.0123749999999
 21
223.0368899999997
 31
0.0
  0
LINE
  5
A298
330
A050
100
AcDbEntity
  8
1
  6
Continuous
100
AcDbLine
 10
142.907745
 20
231.0368899999998
 30
0.0
 11
143.550964
 21
231.0368899999998
 31
0.0
  0
LINE
  5
A299
330
A050
100
AcDbEntity
  8
1
  6
Continuous
100
AcDbLine
 10
141.5440979999999
 20
231.0368899999998
 30
0.0
 11
142.4063109999998
 21
231.0368899999998
 31
0.0
  0
LINE
  5
A29A
330
A050
100
AcDbEntity
  8
1
  6
Continuous
100
AcDbLine
 10
140.1804659999999
 20
231.0368899999998
 30
0.0
 11
141.0426789999999
 21
231.0368899999998
 31
0.0
  0
LINE
  5
A29B
330
A050
100
AcDbEntity
  8
1
  6
Continuous
100
AcDbLine
 10
138.816833
 20
231.0368899999998
 30
0.0
 11
139.679031
 21
231.0368899999998
 31
0.0
  0
LINE
  5
A29C
330
A050
100
AcDbEntity
  8
1
  6
Continuous
100
AcDbLine
 10
137.453201
 20
231.0368899999998
 30
0.0
 11
138.3153989999997
 21
231.0368899999998
 31
0.0
  0
LINE
  5
A29D
330
A050
100
AcDbEntity
  8
1
  6
Continuous
100
AcDbLine
 10
136.089554
 20
231.0368899999998
 30
0.0
 11
136.951767
 21
231.0368899999998
 31
0.0
  0
LINE
  5
A29E
330
A050
100
AcDbEntity
  8
1
  6
Continuous
100
AcDbLine
 10
135.5508419999999
 20
228.5368899999999
 30
0.0
 11
135.7775269999999
 21
228.5368899999999
 31
0.0
  0
LINE
  5
A29F
330
A050
100
AcDbEntity
  8
1
  6
Continuous
100
AcDbLine
 10
136.2789459999999
 20
228.5368899999999
 30
0.0
 11
137.1411589999999
 21
228.5368899999999
 31
0.0
  0
LINE
  5
A2A0
330
A050
100
AcDbEntity
  8
1
  6
Continuous
100
AcDbLine
 10
360.9509889999998
 20
127.43689
 30
0.0
 11
360.9509889999998
 21
136.4368899999997
 31
0.0
  0
LINE
  5
A2A1
330
A050
100
AcDbEntity
  8
1
  6
Continuous
100
AcDbLine
 10
353.450287
 20
136.45578
 30
0.0
 11
354.132111
 21
127.4557799999999
 31
0.0
  0
LINE
  5
A2A2
330
A050
100
AcDbEntity
  8
1
  6
Continuous
100
AcDbLine
 10
353.6335139999998
 20
127.418007
 30
0.0
 11
353.4509889999998
 21
129.827438
 31
0.0
  0
LINE
  5
A2A3
330
A050
100
AcDbEntity
  8
1
  6
Continuous
100
AcDbLine
 10
354.315338
 20
136.417999
 30
0.0
 11
354.9971619999997
 21
127.418007
 31
0.0
  0
LINE
  5
A2A4
330
A050
100
AcDbEntity
  8
1
  6
Continuous
100
AcDbLine
 10
355.4957279999999
 20
127.4557799999999
 30
0.0
 11
354.8139039999999
 21
136.45578
 31
0.0
  0
LINE
  5
A2A5
330
A050
100
AcDbEntity
  8
1
  6
Continuous
100
AcDbLine
 10
355.678986
 20
136.417999
 30
0.0
 11
356.3608089999998
 21
127.418007
 31
0.0
  0
LINE
  5
A2A6
330
A050
100
AcDbEntity
  8
1
  6
Continuous
100
AcDbLine
 10
356.859375
 20
127.4557799999999
 30
0.0
 11
356.1775509999998
 21
136.45578
 31
0.0
  0
LINE
  5
A2A7
330
A050
100
AcDbEntity
  8
1
  6
Continuous
100
AcDbLine
 10
357.042633
 20
136.417999
 30
0.0
 11
357.724426
 21
127.418007
 31
0.0
  0
LINE
  5
A2A8
330
A050
100
AcDbEntity
  8
1
  6
Continuous
100
AcDbLine
 10
358.223022
 20
127.455772
 30
0.0
 11
357.541199
 21
136.45578
 31
0.0
  0
LINE
  5
A2A9
330
A050
100
AcDbEntity
  8
1
  6
Continuous
100
AcDbLine
 10
358.4062499999997
 20
136.4180149999999
 30
0.0
 11
359.088074
 21
127.418007
 31
0.0
  0
LINE
  5
A2AA
330
A050
100
AcDbEntity
  8
1
  6
Continuous
100
AcDbLine
 10
359.5866389999998
 20
127.455772
 30
0.0
 11
358.9048159999999
 21
136.45578
 31
0.0
  0
LINE
  5
A2AB
330
A050
100
AcDbEntity
  8
1
  6
Continuous
100
AcDbLine
 10
359.769897
 20
136.4180149999999
 30
0.0
 11
360.451721
 21
127.418007
 31
0.0
  0
LINE
  5
A2AC
330
A050
100
AcDbEntity
  8
1
  6
Continuous
100
AcDbLine
 10
360.268463
 20
136.45578
 30
0.0
 11
360.950287
 21
127.4557799999999
 31
0.0
  0
LINE
  5
A2AD
330
A050
100
AcDbEntity
  8
1
  6
Continuous
100
AcDbLine
 10
354.132111
 20
127.418007
 30
0.0
 11
354.171417
 21
127.9368899999999
 31
0.0
  0
LINE
  5
A2AE
330
A050
100
AcDbEntity
  8
1
  6
Continuous
100
AcDbLine
 10
355.5350339999998
 20
127.9368899999999
 30
0.0
 11
355.4957279999999
 21
127.418007
 31
0.0
  0
LINE
  5
A2AF
330
A050
100
AcDbEntity
  8
1
  6
Continuous
100
AcDbLine
 10
356.898682
 20
127.9368899999999
 30
0.0
 11
356.859375
 21
127.418007
 31
0.0
  0
LINE
  5
A2B0
330
A050
100
AcDbEntity
  8
1
  6
Continuous
100
AcDbLine
 10
358.262329
 20
127.9368899999999
 30
0.0
 11
358.223022
 21
127.418007
 31
0.0
  0
LINE
  5
A2B1
330
A050
100
AcDbEntity
  8
1
  6
Continuous
100
AcDbLine
 10
359.625946
 20
127.9368899999999
 30
0.0
 11
359.5866389999998
 21
127.4179919999999
 31
0.0
  0
LINE
  5
A2B2
330
A050
100
AcDbEntity
  8
1
  6
Continuous
100
AcDbLine
 10
358.366943
 20
135.9368899999997
 30
0.0
 11
358.4062499999997
 21
136.45578
 31
0.0
  0
LINE
  5
A2B3
330
A050
100
AcDbEntity
  8
1
  6
Continuous
100
AcDbLine
 10
359.730591
 20
135.9368899999997
 30
0.0
 11
359.769897
 21
136.45578
 31
0.0
  0
LINE
  5
A2B4
330
A050
100
AcDbEntity
  8
1
  6
Continuous
100
AcDbLine
 10
360.9228519999998
 20
135.9368899999997
 30
0.0
 11
360.951385
 21
136.45076
 31
0.0
  0
LINE
  5
A2B5
330
A050
100
AcDbEntity
  8
1
  6
Continuous
100
AcDbLine
 10
357.0033259999997
 20
135.9368899999997
 30
0.0
 11
357.042633
 21
136.45578
 31
0.0
  0
LINE
  5
A2B6
330
A050
100
AcDbEntity
  8
1
  6
Continuous
100
AcDbLine
 10
354.315338
 20
136.45578
 30
0.0
 11
354.2760309999999
 21
135.9368899999997
 31
0.0
  0
LINE
  5
A2B7
330
A050
100
AcDbEntity
  8
1
  6
Continuous
100
AcDbLine
 10
355.6396789999997
 20
135.9368899999997
 30
0.0
 11
355.678986
 21
136.45578
 31
0.0
  0
LINE
  5
A2B8
330
A050
100
AcDbEntity
  8
1
  6
Continuous
100
AcDbLine
 10
361.4509889999998
 20
136.4368899999997
 30
0.0
 11
361.4509889999998
 21
127.43689
 31
0.0
  0
LINE
  5
A2B9
330
A050
100
AcDbEntity
  8
1
  6
Continuous
100
AcDbLine
 10
353.5942079999998
 20
127.9368899999999
 30
0.0
 11
353.4509889999998
 21
127.9368899999999
 31
0.0
  0
LINE
  5
A2BA
330
A050
100
AcDbEntity
  8
1
  6
Continuous
100
AcDbLine
 10
354.957855
 20
127.9368899999999
 30
0.0
 11
354.095642
 21
127.9368899999999
 31
0.0
  0
LINE
  5
A2BB
330
A050
100
AcDbEntity
  8
1
  6
Continuous
100
AcDbLine
 10
356.321472
 20
127.9368899999999
 30
0.0
 11
355.45929
 21
127.9368899999999
 31
0.0
  0
LINE
  5
A2BC
330
A050
100
AcDbEntity
  8
1
  6
Continuous
100
AcDbLine
 10
357.6851200000001
 20
127.9368899999999
 30
0.0
 11
356.822906
 21
127.9368899999999
 31
0.0
  0
LINE
  5
A2BD
330
A050
100
AcDbEntity
  8
1
  6
Continuous
100
AcDbLine
 10
359.0487669999998
 20
127.9368899999999
 30
0.0
 11
358.1865539999997
 21
127.9368899999999
 31
0.0
  0
LINE
  5
A2BE
330
A050
100
AcDbEntity
  8
1
  6
Continuous
100
AcDbLine
 10
360.4123839999999
 20
127.9368899999999
 30
0.0
 11
359.5502009999997
 21
127.9368899999999
 31
0.0
  0
LINE
  5
A2BF
330
A050
100
AcDbEntity
  8
1
  6
Continuous
100
AcDbLine
 10
360.9509889999998
 20
135.9368899999997
 30
0.0
 11
360.30777
 21
135.9368899999997
 31
0.0
  0
LINE
  5
A2C0
330
A050
100
AcDbEntity
  8
1
  6
Continuous
100
AcDbLine
 10
359.8063349999998
 20
135.9368899999997
 30
0.0
 11
358.9441219999998
 21
135.9368899999997
 31
0.0
  0
LINE
  5
A2C1
330
A050
100
AcDbEntity
  8
1
  6
Continuous
100
AcDbLine
 10
358.4426879999999
 20
135.9368899999997
 30
0.0
 11
357.5805049999997
 21
135.9368899999997
 31
0.0
  0
LINE
  5
A2C2
330
A050
100
AcDbEntity
  8
1
  6
Continuous
100
AcDbLine
 10
357.079071
 20
135.9368899999997
 30
0.0
 11
356.216858
 21
135.9368899999997
 31
0.0
  0
LINE
  5
A2C3
330
A050
100
AcDbEntity
  8
1
  6
Continuous
100
AcDbLine
 10
355.715424
 20
135.9368899999997
 30
0.0
 11
354.85321
 21
135.9368899999997
 31
0.0
  0
LINE
  5
A2C4
330
A050
100
AcDbEntity
  8
1
  6
Continuous
100
AcDbLine
 10
354.3517759999998
 20
135.9368899999997
 30
0.0
 11
353.489594
 21
135.9368899999997
 31
0.0
  0
LINE
  5
A2C5
330
A050
100
AcDbEntity
  8
1
  6
Continuous
100
AcDbLine
 10
357.54187
 20
136.439697
 30
0.0
 11
357.832184
 21
135.9368899999997
 31
0.0
  0
ARC
  5
A2C6
330
A050
100
AcDbEntity
  8
1
  6
Continuous
100
AcDbCircle
 10
134.050964
 20
142.9368899999998
 30
0.0
 40
9.0
100
AcDbArc
 50
14.47751099999998
 51
165.52249
  0
ARC
  5
A2C7
330
A050
100
AcDbEntity
  8
1
  6
Continuous
100
AcDbCircle
 10
166.0509639999999
 20
123.9368899999999
 30
0.0
 40
3.0
100
AcDbArc
 50
269.9999969999999
 51
0.0
  0
ARC
  5
A2C8
330
A050
100
AcDbEntity
  8
1
  6
Continuous
100
AcDbCircle
 10
166.0509639999999
 20
139.9368899999997
 30
0.0
 40
3.0
100
AcDbArc
 50
0.0
 51
90.00000300000001
  0
ARC
  5
A2C9
330
A050
100
AcDbEntity
  8
1
  6
Continuous
100
AcDbCircle
 10
145.6699219999999
 20
145.9368899999998
 30
0.0
 40
3.0
100
AcDbArc
 50
194.47751
 51
269.9999969999999
  0
ARC
  5
A2CA
330
A050
100
AcDbEntity
  8
1
  6
Continuous
100
AcDbCircle
 10
122.432022
 20
145.9368899999998
 30
0.0
 40
3.0
100
AcDbArc
 50
269.9999969999999
 51
345.522489
  0
ARC
  5
A2CB
330
A050
100
AcDbEntity
  8
1
  6
Continuous
100
AcDbCircle
 10
163.0509639999999
 20
125.9368899999999
 30
0.0
 40
1.8
100
AcDbArc
 50
346.506601
 51
13.49339899999998
  0
ARC
  5
A2CC
330
A050
100
AcDbEntity
  8
1
  6
Continuous
100
AcDbCircle
 10
163.0509639999999
 20
125.9368899999999
 30
0.0
 40
1.8
100
AcDbArc
 50
76.506602
 51
103.4933959999998
  0
ARC
  5
A2CD
330
A050
100
AcDbEntity
  8
1
  6
Continuous
100
AcDbCircle
 10
163.0509639999999
 20
125.9368899999999
 30
0.0
 40
1.8
100
AcDbArc
 50
166.506597
 51
193.4933989999999
  0
ARC
  5
A2CE
330
A050
100
AcDbEntity
  8
1
  6
Continuous
100
AcDbCircle
 10
163.0509639999999
 20
125.9368899999999
 30
0.0
 40
1.8
100
AcDbArc
 50
256.506604
 51
283.493398
  0
CIRCLE
  5
A2CF
330
A050
100
AcDbEntity
  8
1
  6
Continuous
100
AcDbCircle
 10
163.0509639999999
 20
125.936897
 30
0.0
 40
3.0
  0
ARC
  5
A2D0
330
A050
100
AcDbEntity
  8
1
  6
Continuous
100
AcDbCircle
 10
148.050964
 20
137.9368899999997
 30
0.0
 40
1.8
100
AcDbArc
 50
346.506601
 51
13.49339899999998
  0
ARC
  5
A2D1
330
A050
100
AcDbEntity
  8
1
  6
Continuous
100
AcDbCircle
 10
148.050964
 20
137.9368899999997
 30
0.0
 40
1.8
100
AcDbArc
 50
76.506602
 51
103.4933959999998
  0
ARC
  5
A2D2
330
A050
100
AcDbEntity
  8
1
  6
Continuous
100
AcDbCircle
 10
148.050964
 20
137.9368899999997
 30
0.0
 40
1.8
100
AcDbArc
 50
166.506597
 51
193.4933989999999
  0
ARC
  5
A2D3
330
A050
100
AcDbEntity
  8
1
  6
Continuous
100
AcDbCircle
 10
148.050964
 20
137.9368899999997
 30
0.0
 40
1.8
100
AcDbArc
 50
256.506604
 51
283.493398
  0
CIRCLE
  5
A2D4
330
A050
100
AcDbEntity
  8
1
  6
Continuous
100
AcDbCircle
 10
148.050964
 20
137.9368899999997
 30
0.0
 40
3.0
  0
CIRCLE
  5
A2D5
330
A050
100
AcDbEntity
  8
1
  6
Continuous
100
AcDbCircle
 10
134.050964
 20
142.9368899999998
 30
0.0
 40
7.5
  0
CIRCLE
  5
A2D6
330
A050
100
AcDbEntity
  8
2
  6
Continuous
100
AcDbCircle
 10
31.45097199999999
 20
125.9368899999999
 30
0.0
 40
1.5
  0
CIRCLE
  5
A2D7
330
A050
100
AcDbEntity
  8
2
  6
Continuous
100
AcDbCircle
 10
138.5509639999999
 20
125.43689
 30
0.0
 40
1.5
  0
CIRCLE
  5
A2D8
330
A050
100
AcDbEntity
  8
1
  6
Continuous
100
AcDbCircle
 10
138.5509639999999
 20
125.43689
 30
0.0
 40
1.2295
  0
CIRCLE
  5
A2D9
330
A050
100
AcDbEntity
  8
1
  6
Continuous
100
AcDbCircle
 10
31.45097199999999
 20
125.9368899999999
 30
0.0
 40
1.2295
  0
ARC
  5
A2DA
330
A050
100
AcDbEntity
  8
1
  6
Continuous
100
AcDbCircle
 10
132.700974
 20
131.9368899999997
 30
0.0
 40
1.649999999999999
100
AcDbArc
 50
90.00000300000001
 51
270.000001
  0
ARC
  5
A2DB
330
A050
100
AcDbEntity
  8
1
  6
Continuous
100
AcDbCircle
 10
146.000977
 20
131.9368899999997
 30
0.0
 40
1.649999999999999
100
AcDbArc
 50
269.9999969999999
 51
90.00000300000001
  0
ARC
  5
A2DC
330
A050
100
AcDbEntity
  8
1
  6
Continuous
100
AcDbCircle
 10
29.550972
 20
139.9368899999997
 30
0.0
 40
3.0
100
AcDbArc
 50
90.00000300000001
 51
180.000005
  0
ARC
  5
A2DD
330
A050
100
AcDbEntity
  8
1
  6
Continuous
100
AcDbCircle
 10
29.550972
 20
123.9368899999999
 30
0.0
 40
3.0
100
AcDbArc
 50
179.9999909999999
 51
270.000001
  0
CIRCLE
  5
A2DE
330
A050
100
AcDbEntity
  8
1
  6
Continuous
100
AcDbCircle
 10
38.950972
 20
131.9368899999997
 30
0.0
 40
3.0
  0
CIRCLE
  5
A2DF
330
A050
100
AcDbEntity
  8
2
  6
Continuous
100
AcDbCircle
 10
126.550972
 20
132.9368899999997
 30
0.0
 40
1.5
  0
CIRCLE
  5
A2E0
330
A050
100
AcDbEntity
  8
1
  6
Continuous
100
AcDbCircle
 10
126.550972
 20
132.9368899999997
 30
0.0
 40
1.2295
  0
CIRCLE
  5
A2E1
330
A050
100
AcDbEntity
  8
2
  6
Continuous
100
AcDbCircle
 10
46.450972
 20
131.9368899999997
 30
0.0
 40
1.5
  0
CIRCLE
  5
A2E2
330
A050
100
AcDbEntity
  8
1
  6
Continuous
100
AcDbCircle
 10
46.450972
 20
131.9368899999997
 30
0.0
 40
1.2295
  0
CIRCLE
  5
A2E3
330
A050
100
AcDbEntity
  8
2
  6
Continuous
100
AcDbCircle
 10
31.45097199999999
 20
137.9368899999997
 30
0.0
 40
1.5
  0
CIRCLE
  5
A2E4
330
A050
100
AcDbEntity
  8
1
  6
Continuous
100
AcDbCircle
 10
31.45097199999999
 20
137.9368899999997
 30
0.0
 40
1.2295
  0
ARC
  5
A2E5
330
A050
100
AcDbEntity
  8
1
  6
Continuous
100
AcDbCircle
 10
44.450972
 20
147.4368899999998
 30
0.0
 40
1.5
100
AcDbArc
 50
30.000001
 51
160.528775
  0
ARC
  5
A2E6
330
A050
100
AcDbEntity
  8
1
  6
Continuous
100
AcDbCircle
 10
33.450972
 20
147.4368899999998
 30
0.0
 40
1.5
100
AcDbArc
 50
17.587954
 51
197.5879469999999
  0
ARC
  5
A2E7
330
A050
100
AcDbEntity
  8
1
  6
Continuous
100
AcDbCircle
 10
109.814903
 20
134.1729579999999
 30
0.0
 40
0.7639320000000001
100
AcDbArc
 50
90.00000300000001
 51
180.000005
  0
ARC
  5
A2E8
330
A050
100
AcDbEntity
  8
1
  6
Continuous
100
AcDbCircle
 10
109.814903
 20
129.700836
 30
0.0
 40
0.7639320000000001
100
AcDbArc
 50
179.9999909999999
 51
270.000001
  0
ARC
  5
A2E9
330
A050
100
AcDbEntity
  8
1
  6
Continuous
100
AcDbCircle
 10
134.050964
 20
142.9368899999998
 30
0.0
 40
3.6
100
AcDbArc
 50
190.8069249999998
 51
169.193075
  0
ARC
  5
A2EA
330
A050
100
AcDbEntity
  8
1
  6
Continuous
100
AcDbCircle
 10
134.050964
 20
142.9368899999998
 30
0.0
 40
2.649999999999999
100
AcDbArc
 50
194.756824
 51
165.2431759999998
  0
ARC
  5
A2EB
330
A050
100
AcDbEntity
  8
1
  6
Continuous
100
AcDbCircle
 10
38.55097199999999
 20
222.6305389999999
 30
0.0
 40
3.0
100
AcDbArc
 50
287.6500809999999
 51
359.99997
  0
ARC
  5
A2EC
330
A050
100
AcDbEntity
  8
1
  6
Continuous
100
AcDbCircle
 10
30.395721
 20
217.9368899999999
 30
0.0
 40
1.0
100
AcDbArc
 50
269.999977
 51
287.650074
  0
ARC
  5
A2ED
330
A050
100
AcDbEntity
  8
1
  6
Continuous
100
AcDbCircle
 10
26.59691599999999
 20
217.9368899999999
 30
0.0
 40
1.0
100
AcDbArc
 50
212.735179
 51
269.999977
  0
ARC
  5
A2EE
330
A050
100
AcDbEntity
  8
1
  6
Continuous
100
AcDbCircle
 10
22.550972
 20
224.230591
 30
0.0
 40
1.0
100
AcDbArc
 50
179.9999909999999
 51
212.7351759999998
  0
ARC
  5
A2EF
330
A050
100
AcDbEntity
  8
1
  6
Continuous
100
AcDbCircle
 10
22.550972
 20
229.6431879999999
 30
0.0
 40
1.0
100
AcDbArc
 50
147.2647929999999
 51
179.9999909999999
  0
ARC
  5
A2F0
330
A050
100
AcDbEntity
  8
1
  6
Continuous
100
AcDbCircle
 10
26.59691599999999
 20
235.9368899999997
 30
0.0
 40
1.0
100
AcDbArc
 50
90.00000300000001
 51
147.2647929999999
  0
ARC
  5
A2F1
330
A050
100
AcDbEntity
  8
1
  6
Continuous
100
AcDbCircle
 10
30.395721
 20
235.9368899999997
 30
0.0
 40
1.0
100
AcDbArc
 50
72.349858
 51
90.00000300000001
  0
ARC
  5
A2F2
330
A050
100
AcDbEntity
  8
1
  6
Continuous
100
AcDbCircle
 10
24.350967
 20
225.7368769999999
 30
0.0
 40
0.8
100
AcDbArc
 50
179.9999909999999
 51
269.999973
  0
ARC
  5
A2F3
330
A050
100
AcDbEntity
  8
1
  6
Continuous
100
AcDbCircle
 10
24.350967
 20
228.136887
 30
0.0
 40
0.8
100
AcDbArc
 50
90.00000300000001
 51
179.9999909999999
  0
ARC
  5
A2F4
330
A050
100
AcDbEntity
  8
1
  6
Continuous
100
AcDbCircle
 10
25.750969
 20
228.136887
 30
0.0
 40
0.8
100
AcDbArc
 50
359.99997
 51
90.00000300000001
  0
ARC
  5
A2F5
330
A050
100
AcDbEntity
  8
1
  6
Continuous
100
AcDbCircle
 10
25.750969
 20
225.7368769999999
 30
0.0
 40
0.8
100
AcDbArc
 50
269.999977
 51
359.999973
  0
ARC
  5
A2F6
330
A050
100
AcDbEntity
  8
1
  6
Continuous
100
AcDbCircle
 10
38.64596599999997
 20
226.9368899999999
 30
0.0
 40
3.1
100
AcDbArc
 50
90.00000300000001
 51
165.044787
  0
ARC
  5
A2F7
330
A050
100
AcDbEntity
  8
1
  6
Continuous
100
AcDbCircle
 10
38.64596599999997
 20
226.9368899999999
 30
0.0
 40
3.1
100
AcDbArc
 50
194.9551859999998
 51
269.999977
  0
ARC
  5
A2F8
330
A050
100
AcDbEntity
  8
1
  6
Continuous
100
AcDbCircle
 10
38.65097
 20
226.9368899999999
 30
0.0
 40
4.299999999999998
100
AcDbArc
 50
90.00000300000001
 51
269.999973
  0
ARC
  5
A2F9
330
A050
100
AcDbEntity
  8
1
  6
Continuous
100
AcDbCircle
 10
47.15097
 20
232.236877
 30
0.0
 40
1.199999999999999
100
AcDbArc
 50
359.99997
 51
90.00000300000001
  0
ARC
  5
A2FA
330
A050
100
AcDbEntity
  8
1
  6
Continuous
100
AcDbCircle
 10
41.75096899999998
 20
230.336884
 30
0.0
 40
0.2
100
AcDbArc
 50
90.00000300000001
 51
179.9999909999999
  0
ARC
  5
A2FB
330
A050
100
AcDbEntity
  8
1
  6
Continuous
100
AcDbCircle
 10
38.450966
 20
226.9368899999999
 30
0.0
 40
2.7
100
AcDbArc
 50
207.265987
 51
269.999977
  0
ARC
  5
A2FC
330
A050
100
AcDbEntity
  8
1
  6
Continuous
100
AcDbCircle
 10
38.450966
 20
226.9368899999999
 30
0.0
 40
2.7
100
AcDbArc
 50
90.00000300000001
 51
152.7339849999999
  0
ARC
  5
A2FD
330
A050
100
AcDbEntity
  8
1
  6
Continuous
100
AcDbCircle
 10
46.850966
 20
142.9368899999998
 30
0.0
 40
7.0
100
AcDbArc
 50
163.742966
 51
180.000005
  0
ARC
  5
A2FE
330
A050
100
AcDbEntity
  8
1
  6
Continuous
100
AcDbCircle
 10
41.090872
 20
144.616577
 30
0.0
 40
1.0
100
AcDbArc
 50
95.00004900000002
 51
163.7429799999999
  0
CIRCLE
  5
A2FF
330
A050
100
AcDbEntity
  8
1
  6
Continuous
100
AcDbCircle
 10
133.5509639999999
 20
131.9368899999997
 30
0.0
 40
1.499995999999997
  0
CIRCLE
  5
A300
330
A050
100
AcDbEntity
  8
1
  6
Continuous
100
AcDbCircle
 10
133.5509639999999
 20
131.9368899999997
 30
0.0
 40
0.8999959999999999
  0
ARC
  5
A301
330
A050
100
AcDbEntity
  8
1
  6
Continuous
100
AcDbCircle
 10
134.050964
 20
142.9368899999998
 30
0.0
 40
11.5
100
AcDbArc
 50
157.607312
 51
179.9882429999999
  0
ARC
  5
A302
330
A050
100
AcDbEntity
  8
1
  6
Continuous
100
AcDbCircle
 10
124.3427199999999
 20
146.9368899999998
 30
0.0
 40
1.0
100
AcDbArc
 50
90.00000300000001
 51
157.607312
  0
ARC
  5
A303
330
A050
100
AcDbEntity
  8
1
  6
Continuous
100
AcDbCircle
 10
47.95097199999999
 20
142.9368899999998
 30
0.0
 40
1.199999999999999
100
AcDbArc
 50
65.37568199999999
 51
156.444254
  0
ARC
  5
A304
330
A050
100
AcDbEntity
  8
1
  6
Continuous
100
AcDbCircle
 10
59.282286
 20
146.6868899999998
 30
0.0
 40
10.831317
100
AcDbArc
 50
159.7438219999999
 51
200.256188
  0
ARC
  5
A305
330
A050
100
AcDbEntity
  8
1
  6
Continuous
100
AcDbCircle
 10
253.850977
 20
147.4368899999998
 30
0.0
 40
1.5
100
AcDbArc
 50
342.4120529999999
 51
162.4120489999999
  0
ARC
  5
A306
330
A050
100
AcDbEntity
  8
1
  6
Continuous
100
AcDbCircle
 10
240.4509669999999
 20
142.9368899999998
 30
0.0
 40
7.0
100
AcDbArc
 50
0.0
 51
16.257034
  0
ARC
  5
A307
330
A050
100
AcDbEntity
  8
1
  6
Continuous
100
AcDbCircle
 10
246.2110689999999
 20
144.616577
 30
0.0
 40
1.0
100
AcDbArc
 50
16.25702
 51
84.999949
  0
ARC
  5
A308
330
A050
100
AcDbEntity
  8
1
  6
Continuous
100
AcDbCircle
 10
239.3509609999999
 20
142.9368899999998
 30
0.0
 40
1.199999999999999
100
AcDbArc
 50
0.0
 51
114.6243169999999
  0
ARC
  5
A309
330
A050
100
AcDbEntity
  8
1
  6
Continuous
100
AcDbCircle
 10
228.0196469999999
 20
146.6868899999998
 30
0.0
 40
10.831317
100
AcDbArc
 50
339.7438189999999
 51
20.25618099999999
  0
CIRCLE
  5
A30A
330
A050
100
AcDbEntity
  8
1
  6
Continuous
100
AcDbCircle
 10
248.3509769999999
 20
131.9368899999997
 30
0.0
 40
2.25
  0
ARC
  5
A30B
330
A050
100
AcDbEntity
  8
1
  6
Continuous
100
AcDbCircle
 10
242.850977
 20
147.4368899999998
 30
0.0
 40
1.5
100
AcDbArc
 50
17.587954
 51
197.5879469999999
  0
ARC
  5
A30C
330
A050
100
AcDbEntity
  8
1
  6
Continuous
100
AcDbCircle
 10
167.4509739999997
 20
25.93688
 30
0.0
 40
1.6
100
AcDbArc
 50
269.9999969999999
 51
0.0
  0
ARC
  5
A30D
330
A050
100
AcDbEntity
  8
1
  6
Continuous
100
AcDbCircle
 10
167.4509739999997
 20
47.736884
 30
0.0
 40
1.6
100
AcDbArc
 50
0.0
 51
90.00000300000001
  0
ARC
  5
A30E
330
A050
100
AcDbEntity
  8
1
  6
Continuous
100
AcDbCircle
 10
140.5461579999999
 20
50.17063
 30
0.0
 40
3.833737999999998
100
AcDbArc
 50
235.6157529999999
 51
295.6157479999999
  0
ARC
  5
A30F
330
A050
100
AcDbEntity
  8
1
  6
Continuous
100
AcDbCircle
 10
127.5557709999997
 20
50.17063
 30
0.0
 40
3.833737999999998
100
AcDbArc
 50
244.3842539999999
 51
304.384252
  0
ARC
  5
A310
330
A050
100
AcDbEntity
  8
1
  6
Continuous
100
AcDbCircle
 10
134.050964
 20
60.66698299999998
 30
0.0
 40
14.330091
100
AcDbArc
 50
252.4120139999999
 51
261.9772709999999
  0
ARC
  5
A311
330
A050
100
AcDbEntity
  8
1
  6
Continuous
100
AcDbCircle
 10
127.1509629999999
 20
41.83689
 30
0.0
 40
1.6
100
AcDbArc
 50
179.9999909999999
 51
270.000001
  0
ARC
  5
A312
330
A050
100
AcDbEntity
  8
1
  6
Continuous
100
AcDbCircle
 10
125.5509639999997
 20
43.136893
 30
0.0
 40
1.6
100
AcDbArc
 50
0.0
 51
90.00000300000001
  0
ARC
  5
A313
330
A050
100
AcDbEntity
  8
1
  6
Continuous
100
AcDbCircle
 10
134.050964
 20
60.66698299999998
 30
0.0
 40
14.330091
100
AcDbArc
 50
274.001539
 51
287.5879869999998
  0
ARC
  5
A314
330
A050
100
AcDbEntity
  8
1
  6
Continuous
100
AcDbCircle
 10
362.450989
 20
142.9368899999998
 30
0.0
 40
9.0
100
AcDbArc
 50
33.748989
 51
165.52249
  0
ARC
  5
A315
330
A050
100
AcDbEntity
  8
1
  6
Continuous
100
AcDbCircle
 10
350.8320309999998
 20
145.9368899999998
 30
0.0
 40
3.0
100
AcDbArc
 50
270.0000039999998
 51
345.52249
  0
CIRCLE
  5
A316
330
A050
100
AcDbEntity
  8
2
  6
Continuous
100
AcDbCircle
 10
333.450989
 20
137.9368899999997
 30
0.0
 40
1.5
  0
CIRCLE
  5
A317
330
A050
100
AcDbEntity
  8
1
  6
Continuous
100
AcDbCircle
 10
333.450989
 20
137.9368899999997
 30
0.0
 40
1.2295
  0
ARC
  5
A318
330
A050
100
AcDbEntity
  8
1
  6
Continuous
100
AcDbCircle
 10
386.687042
 20
134.1729579999999
 30
0.0
 40
0.7639320000000001
100
AcDbArc
 50
359.999995
 51
89.99999599999998
  0
ARC
  5
A319
330
A050
100
AcDbEntity
  8
1
  6
Continuous
100
AcDbCircle
 10
386.687042
 20
129.700836
 30
0.0
 40
0.7639320000000001
100
AcDbArc
 50
270.0000039999998
 51
0.000005
  0
CIRCLE
  5
A31A
330
A050
100
AcDbEntity
  8
1
  6
Continuous
100
AcDbCircle
 10
362.950958
 20
131.9368899999997
 30
0.0
 40
1.499995999999997
  0
CIRCLE
  5
A31B
330
A050
100
AcDbEntity
  8
1
  6
Continuous
100
AcDbCircle
 10
362.950958
 20
131.9368899999997
 30
0.0
 40
0.8999959999999999
  0
ARC
  5
A31C
330
A050
100
AcDbEntity
  8
1
  6
Continuous
100
AcDbCircle
 10
362.450989
 20
142.9368899999998
 30
0.0
 40
11.5
100
AcDbArc
 50
352.3377439999999
 51
22.392688
  0
ARC
  5
A31D
330
A050
100
AcDbEntity
  8
1
  6
Continuous
100
AcDbCircle
 10
372.1592099999999
 20
146.9368899999998
 30
0.0
 40
1.0
100
AcDbArc
 50
22.392688
 51
90.00000300000001
  0
CIRCLE
  5
A31E
330
A050
100
AcDbEntity
  8
2
  6
Continuous
100
AcDbCircle
 10
357.950989
 20
125.43689
 30
0.0
 40
1.5
  0
CIRCLE
  5
A31F
330
A050
100
AcDbEntity
  8
1
  6
Continuous
100
AcDbCircle
 10
357.950989
 20
125.43689
 30
0.0
 40
1.2295
  0
CIRCLE
  5
A320
330
A050
100
AcDbEntity
  8
2
  6
Continuous
100
AcDbCircle
 10
348.4509889999998
 20
125.9368899999999
 30
0.0
 40
1.5
  0
CIRCLE
  5
A321
330
A050
100
AcDbEntity
  8
1
  6
Continuous
100
AcDbCircle
 10
348.4509889999998
 20
125.9368899999999
 30
0.0
 40
1.2295
  0
ARC
  5
A322
330
A050
100
AcDbEntity
  8
1
  6
Continuous
100
AcDbCircle
 10
167.4509739999997
 20
237.936899
 30
0.0
 40
1.6
100
AcDbArc
 50
0.0
 51
90.00000300000001
  0
ARC
  5
A323
330
A050
100
AcDbEntity
  8
1
  6
Continuous
100
AcDbCircle
 10
167.4509739999997
 20
216.1368959999999
 30
0.0
 40
1.6
100
AcDbArc
 50
269.9999969999999
 51
0.0
  0
ARC
  5
A324
330
A050
100
AcDbEntity
  8
1
  6
Continuous
100
AcDbCircle
 10
140.5461579999999
 20
213.703149
 30
0.0
 40
3.833737999999998
100
AcDbArc
 50
64.38425200000001
 51
124.384247
  0
ARC
  5
A325
330
A050
100
AcDbEntity
  8
1
  6
Continuous
100
AcDbCircle
 10
127.5557709999997
 20
213.703149
 30
0.0
 40
3.833737999999998
100
AcDbArc
 50
55.61574799999998
 51
115.6157459999999
  0
ARC
  5
A326
330
A050
100
AcDbEntity
  8
1
  6
Continuous
100
AcDbCircle
 10
134.050964
 20
203.206796
 30
0.0
 40
14.330091
100
AcDbArc
 50
72.412013
 51
107.587986
  0
ARC
  5
A327
330
A050
100
AcDbEntity
  8
1
  6
Continuous
100
AcDbCircle
 10
135.7306519999999
 20
224.896997
 30
0.0
 40
1.0
100
AcDbArc
 50
5.000048999999997
 51
73.74297699999998
  0
ARC
  5
A328
330
A050
100
AcDbEntity
  8
1
  6
Continuous
100
AcDbCircle
 10
134.050964
 20
219.1368959999997
 30
0.0
 40
7.0
100
AcDbArc
 50
73.742964
 51
106.256918
  0
ARC
  5
A329
330
A050
100
AcDbEntity
  8
1
  6
Continuous
100
AcDbCircle
 10
132.3712769999999
 20
224.896997
 30
0.0
 40
1.0
100
AcDbArc
 50
106.2569929999997
 51
174.99991
  0
ARC
  5
A32A
330
A050
100
AcDbEntity
  8
1
  6
Continuous
100
AcDbCircle
 10
127.1509629999999
 20
222.0368899999999
 30
0.0
 40
1.6
100
AcDbArc
 50
90.00000300000001
 51
180.000005
  0
ARC
  5
A32B
330
A050
100
AcDbEntity
  8
1
  6
Continuous
100
AcDbCircle
 10
125.5509639999997
 20
220.7368869999999
 30
0.0
 40
1.6
100
AcDbArc
 50
269.9999969999999
 51
0.0
  0
ARC
  5
A32C
330
A050
100
AcDbEntity
  8
1
  6
Continuous
100
AcDbCircle
 10
386.962555
 20
131.9368899999997
 30
0.0
 40
3.012621999999999
100
AcDbArc
 50
95.24728899999999
 51
264.752722
  0
ARC
  5
A32D
330
A050
100
AcDbEntity
  8
1
  6
Continuous
100
AcDbCircle
 10
362.450989
 20
142.9368899999998
 30
0.0
 40
1.8
100
AcDbArc
 50
346.506601
 51
13.49339899999998
  0
ARC
  5
A32E
330
A050
100
AcDbEntity
  8
1
  6
Continuous
100
AcDbCircle
 10
362.450989
 20
142.9368899999998
 30
0.0
 40
1.8
100
AcDbArc
 50
76.506602
 51
103.4933959999998
  0
ARC
  5
A32F
330
A050
100
AcDbEntity
  8
1
  6
Continuous
100
AcDbCircle
 10
362.450989
 20
142.9368899999998
 30
0.0
 40
1.8
100
AcDbArc
 50
166.506597
 51
193.4933989999999
  0
ARC
  5
A330
330
A050
100
AcDbEntity
  8
1
  6
Continuous
100
AcDbCircle
 10
362.450989
 20
142.9368899999998
 30
0.0
 40
1.8
100
AcDbArc
 50
256.506604
 51
283.493398
  0
CIRCLE
  5
A331
330
A050
100
AcDbEntity
  8
1
  6
Continuous
100
AcDbCircle
 10
362.450989
 20
142.9368899999998
 30
0.0
 40
2.75
  0
ARC
  5
A332
330
A050
100
AcDbEntity
  8
1
  6
Continuous
100
AcDbCircle
 10
362.450989
 20
142.9368899999998
 30
0.0
 40
5.5
100
AcDbArc
 50
114.619973
 51
152.499997
  0
ARC
  5
A333
330
A050
100
AcDbEntity
  8
1
  6
Continuous
100
AcDbCircle
 10
372.857208
 20
141.5368959999999
 30
0.0
 40
1.0
100
AcDbArc
 50
269.9999969999999
 51
352.3377439999999
  0
ARC
  5
A334
330
A050
100
AcDbEntity
  8
1
  6
Continuous
100
AcDbCircle
 10
362.450989
 20
142.9368899999998
 30
0.0
 40
4.5
100
AcDbArc
 50
152.499997
 51
297.5000089999999
  0
ARC
  5
A335
330
A050
100
AcDbEntity
  8
1
  6
Continuous
100
AcDbCircle
 10
362.450989
 20
142.9368899999998
 30
0.0
 40
5.5
100
AcDbArc
 50
297.499999
 51
334.1279039999997
  0
ARC
  5
A336
330
A050
100
AcDbEntity
  8
1
  6
Continuous
100
AcDbCircle
 10
362.450989
 20
142.9368899999998
 30
0.0
 40
5.593999999999999
100
AcDbArc
 50
63.35659599999999
 51
69.80207400000001
  0
ARC
  5
A337
330
A050
100
AcDbEntity
  8
1
  6
Continuous
100
AcDbCircle
 10
362.450989
 20
142.9368899999998
 30
0.0
 40
6.0
100
AcDbArc
 50
56.442689
 51
61.044973
  0
ARC
  5
A338
330
A050
100
AcDbEntity
  8
2
  6
Continuous
100
AcDbCircle
 10
362.450989
 20
142.9368899999998
 30
0.0
 40
6.0
100
AcDbArc
 50
241.044975
 51
298.9550269999999
  0
ARC
  5
A339
330
A050
100
AcDbEntity
  8
1
  6
Continuous
100
AcDbCircle
 10
362.450989
 20
142.9368899999998
 30
0.0
 40
5.593999999999999
100
AcDbArc
 50
249.8020759999999
 51
290.197926
  0
ARC
  5
A33A
330
A050
100
AcDbEntity
  8
2
  6
Continuous
100
AcDbCircle
 10
362.450989
 20
142.9368899999998
 30
0.0
 40
5.593999999999999
100
AcDbArc
 50
290.197926
 51
334.593913
  0
ARC
  5
A33B
330
A050
100
AcDbEntity
  8
1
  6
Continuous
100
AcDbCircle
 10
362.450989
 20
142.9368899999998
 30
0.0
 40
6.0
100
AcDbArc
 50
298.9550269999999
 51
336.421822
  0
ARC
  5
A33C
330
A050
100
AcDbEntity
  8
2
  6
Continuous
100
AcDbCircle
 10
362.450989
 20
142.9368899999998
 30
0.0
 40
6.0
100
AcDbArc
 50
61.044973
 51
118.955025
  0
ARC
  5
A33D
330
A050
100
AcDbEntity
  8
1
  6
Continuous
100
AcDbCircle
 10
362.450989
 20
142.9368899999998
 30
0.0
 40
5.593999999999999
100
AcDbArc
 50
69.80207400000001
 51
110.1979239999999
  0
ARC
  5
A33E
330
A050
100
AcDbEntity
  8
1
  6
Continuous
100
AcDbCircle
 10
362.450989
 20
142.9368899999998
 30
0.0
 40
6.0
100
AcDbArc
 50
118.955025
 51
241.0449709999999
  0
ARC
  5
A33F
330
A050
100
AcDbEntity
  8
2
  6
Continuous
100
AcDbCircle
 10
362.450989
 20
142.9368899999998
 30
0.0
 40
5.593999999999999
100
AcDbArc
 50
110.1979239999999
 51
249.8020659999999
  0
ARC
  5
A340
330
A050
100
AcDbEntity
  8
1
  6
Continuous
100
AcDbCircle
 10
362.450989
 20
142.9368899999998
 30
0.0
 40
4.715432999999999
100
AcDbArc
 50
160.528775
 51
199.4712209999999
  0
ARC
  5
A341
330
A050
100
AcDbEntity
  8
1
  6
Continuous
100
AcDbCircle
 10
156.9973139999999
 20
133.9935909999999
 30
0.0
 40
1.334408999999998
100
AcDbArc
 50
138.9320989999999
 51
221.067897
  0
ARC
  5
A342
330
A050
100
AcDbEntity
  8
1
  6
Continuous
100
AcDbCircle
 10
156.712906
 20
133.7457579999999
 30
0.0
 40
0.957174
100
AcDbArc
 50
221.0679009999999
 51
289.1928019999999
  0
ARC
  5
A343
330
A050
100
AcDbEntity
  8
1
  6
Continuous
100
AcDbCircle
 10
156.712906
 20
134.241409
 30
0.0
 40
0.957174
100
AcDbArc
 50
70.807198
 51
138.9320989999999
  0
ARC
  5
A344
330
A050
100
AcDbEntity
  8
1
  6
Continuous
100
AcDbCircle
 10
156.816711
 20
134.5396119999997
 30
0.0
 40
0.6414290000000003
100
AcDbArc
 50
5.659243
 51
70.807198
  0
ARC
  5
A345
330
A050
100
AcDbEntity
  8
1
  6
Continuous
100
AcDbCircle
 10
156.816711
 20
133.4475709999999
 30
0.0
 40
0.6414290000000003
100
AcDbArc
 50
289.1928019999999
 51
354.3407569999998
  0
ARC
  5
A346
330
A050
100
AcDbEntity
  8
1
  6
Continuous
100
AcDbCircle
 10
162.427246
 20
134.5742339999999
 30
0.0
 40
0.6414290000000003
100
AcDbArc
 50
5.659243
 51
70.807198
  0
ARC
  5
A347
330
A050
100
AcDbEntity
  8
1
  6
Continuous
100
AcDbCircle
 10
162.323456
 20
134.2760309999998
 30
0.0
 40
0.957174
100
AcDbArc
 50
70.807198
 51
138.9320989999999
  0
ARC
  5
A348
330
A050
100
AcDbEntity
  8
1
  6
Continuous
100
AcDbCircle
 10
162.6078639999998
 20
134.028214
 30
0.0
 40
1.334408999999998
100
AcDbArc
 50
138.9320989999999
 51
221.067897
  0
ARC
  5
A349
330
A050
100
AcDbEntity
  8
1
  6
Continuous
100
AcDbCircle
 10
162.323456
 20
133.78038
 30
0.0
 40
0.957174
100
AcDbArc
 50
221.0679009999999
 51
276.5913959999999
  0
ARC
  5
A34A
330
A050
100
AcDbEntity
  8
1
  6
Continuous
100
AcDbCircle
 10
162.330017
 20
133.723587
 30
0.0
 40
0.9
100
AcDbArc
 50
269.582188
 51
11.654105
  0
ARC
  5
A34B
330
A050
100
AcDbEntity
  8
1
  6
Continuous
100
AcDbCircle
 10
154.374023
 20
134.000336
 30
0.0
 40
1.334408999999998
100
AcDbArc
 50
138.9320989999999
 51
221.067897
  0
ARC
  5
A34C
330
A050
100
AcDbEntity
  8
1
  6
Continuous
100
AcDbCircle
 10
153.805206
 20
134.000336
 30
0.0
 40
1.334408999999998
100
AcDbArc
 50
318.9321049999999
 51
41.067895
  0
ARC
  5
A34D
330
A050
100
AcDbEntity
  8
1
  6
Continuous
100
AcDbCircle
 10
154.0896149999998
 20
133.7525179999997
 30
0.0
 40
0.957174
100
AcDbArc
 50
221.0679009999999
 51
318.9321049999999
  0
ARC
  5
A34E
330
A050
100
AcDbEntity
  8
1
  6
Continuous
100
AcDbCircle
 10
154.0896149999998
 20
134.2481689999999
 30
0.0
 40
0.957174
100
AcDbArc
 50
41.067895
 51
138.9320989999999
  0
ARC
  5
A34F
330
A050
100
AcDbEntity
  8
1
  6
Continuous
100
AcDbCircle
 10
155.867233
 20
130.3751679999997
 30
0.0
 40
0.7817210000000001
100
AcDbArc
 50
47.130371
 51
132.869623
  0
ARC
  5
A350
330
A050
100
AcDbEntity
  8
1
  6
Continuous
100
AcDbCircle
 10
155.954697
 20
130.469391
 30
0.0
 40
0.6531630000000001
100
AcDbArc
 50
312.8696289999999
 51
47.130371
  0
ARC
  5
A351
330
A050
100
AcDbEntity
  8
1
  6
Continuous
100
AcDbCircle
 10
155.7797699999998
 20
130.469391
 30
0.0
 40
0.6531630000000001
100
AcDbArc
 50
132.869623
 51
204.2768199999999
  0
ARC
  5
A352
330
A050
100
AcDbEntity
  8
1
  6
Continuous
100
AcDbCircle
 10
158.137009
 20
129.4020229999999
 30
0.0
 40
0.7829229999999999
100
AcDbArc
 50
135.927499
 51
156.9521459999999
  0
ARC
  5
A353
330
A050
100
AcDbEntity
  8
1
  6
Continuous
100
AcDbCircle
 10
158.052414
 20
129.4020229999999
 30
0.0
 40
0.7829229999999999
100
AcDbArc
 50
315.927497
 51
44.072503
  0
ARC
  5
A354
330
A050
100
AcDbEntity
  8
1
  6
Continuous
100
AcDbCircle
 10
158.0947109999998
 20
129.3610689999999
 30
0.0
 40
0.72405
100
AcDbArc
 50
205.5969759999999
 51
315.927497
  0
ARC
  5
A355
330
A050
100
AcDbEntity
  8
1
  6
Continuous
100
AcDbCircle
 10
158.0947109999998
 20
129.4429629999999
 30
0.0
 40
0.72405
100
AcDbArc
 50
44.072503
 51
135.927499
  0
ARC
  5
A356
330
A050
100
AcDbEntity
  8
1
  6
Continuous
100
AcDbCircle
 10
160.4777369999998
 20
130.3718409999997
 30
0.0
 40
0.7829620000000001
100
AcDbArc
 50
135.927499
 51
218.265785
  0
ARC
  5
A357
330
A050
100
AcDbEntity
  8
1
  6
Continuous
100
AcDbCircle
 10
160.3931429999998
 20
130.3718409999997
 30
0.0
 40
0.7829620000000001
100
AcDbArc
 50
321.734217
 51
44.072503
  0
ARC
  5
A358
330
A050
100
AcDbEntity
  8
1
  6
Continuous
100
AcDbCircle
 10
160.43544
 20
130.4127959999999
 30
0.0
 40
0.724086
100
AcDbArc
 50
44.072503
 51
135.927499
  0
ARC
  5
A359
330
A050
100
AcDbEntity
  8
1
  6
Continuous
100
AcDbCircle
 10
160.4777369999998
 20
129.4020539999999
 30
0.0
 40
0.7829620000000001
100
AcDbArc
 50
135.927499
 51
224.072497
  0
ARC
  5
A35A
330
A050
100
AcDbEntity
  8
1
  6
Continuous
100
AcDbCircle
 10
160.3931429999998
 20
129.4020539999999
 30
0.0
 40
0.7829620000000001
100
AcDbArc
 50
315.927497
 51
44.072503
  0
ARC
  5
A35B
330
A050
100
AcDbEntity
  8
1
  6
Continuous
100
AcDbCircle
 10
160.43544
 20
129.3610989999999
 30
0.0
 40
0.724086
100
AcDbArc
 50
224.0725009999999
 51
315.927497
  0
ARC
  5
A35C
330
A050
100
AcDbEntity
  8
1
  6
Continuous
100
AcDbCircle
 10
160.43544
 20
129.4430079999999
 30
0.0
 40
0.724086
100
AcDbArc
 50
44.072503
 51
135.927499
  0
ARC
  5
A35D
330
A050
100
AcDbEntity
  8
1
  6
Continuous
100
AcDbCircle
 10
158.179169
 20
138.159286
 30
0.0
 40
0.222261
100
AcDbArc
 50
180.000009
 51
0.0
  0
ARC
  5
A35E
330
A050
100
AcDbEntity
  8
1
  6
Continuous
100
AcDbCircle
 10
158.623962
 20
137.937332
 30
0.0
 40
1.145318999999998
100
AcDbArc
 50
332.25
 51
54.46199899999999
  0
ARC
  5
A35F
330
A050
100
AcDbEntity
  8
1
  6
Continuous
100
AcDbCircle
 10
158.623962
 20
137.937332
 30
0.0
 40
1.145318999999998
100
AcDbArc
 50
305.5380009999999
 51
315.699
  0
ARC
  5
A360
330
A050
100
AcDbEntity
  8
1
  6
Continuous
100
AcDbCircle
 10
155.9570159999998
 20
134.2039639999997
 30
0.0
 40
5.732929999999998
100
AcDbArc
 50
54.46199899999999
 51
125.537702
  0
ARC
  5
A361
330
A050
100
AcDbEntity
  8
1
  6
Continuous
100
AcDbCircle
 10
155.9570159999998
 20
141.669815
 30
0.0
 40
5.732929999999998
100
AcDbArc
 50
234.461997
 51
305.5380009999999
  0
ARC
  5
A362
330
A050
100
AcDbEntity
  8
1
  6
Continuous
100
AcDbCircle
 10
155.9570159999998
 20
141.669815
 30
0.0
 40
5.288524999999999
100
AcDbArc
 50
243.985999
 51
247.055999
  0
ARC
  5
A363
330
A050
100
AcDbEntity
  8
1
  6
Continuous
100
AcDbCircle
 10
153.913498
 20
136.8411409999999
 30
0.0
 40
0.044452
100
AcDbArc
 50
247.055999
 51
0.0
  0
ARC
  5
A364
330
A050
100
AcDbEntity
  8
1
  6
Continuous
100
AcDbCircle
 10
154.8021699999999
 20
136.5551449999999
 30
0.0
 40
0.044452
100
AcDbArc
 50
257.270997
 51
0.0
  0
ARC
  5
A365
330
A050
100
AcDbEntity
  8
1
  6
Continuous
100
AcDbCircle
 10
155.9570159999998
 20
141.669815
 30
0.0
 40
5.288524999999999
100
AcDbArc
 50
254.794002
 51
257.270997
  0
ARC
  5
A366
330
A050
100
AcDbEntity
  8
1
  6
Continuous
100
AcDbCircle
 10
155.9570159999998
 20
141.669815
 30
0.0
 40
5.288524999999999
100
AcDbArc
 50
254.741997
 51
254.794002
  0
ARC
  5
A367
330
A050
100
AcDbEntity
  8
1
  6
Continuous
100
AcDbCircle
 10
154.624435
 20
136.782501
 30
0.0
 40
0.222261
100
AcDbArc
 50
180.000009
 51
254.7419829999999
  0
ARC
  5
A368
330
A050
100
AcDbEntity
  8
1
  6
Continuous
100
AcDbCircle
 10
154.624435
 20
139.0912779999998
 30
0.0
 40
0.222261
100
AcDbArc
 50
105.2574979999999
 51
180.000005
  0
ARC
  5
A369
330
A050
100
AcDbEntity
  8
1
  6
Continuous
100
AcDbCircle
 10
155.9570159999998
 20
134.2039639999997
 30
0.0
 40
5.288524999999999
100
AcDbArc
 50
103.2681029999999
 51
105.2574979999999
  0
ARC
  5
A36A
330
A050
100
AcDbEntity
  8
1
  6
Continuous
100
AcDbCircle
 10
155.9570159999998
 20
134.2039639999997
 30
0.0
 40
5.288524999999999
100
AcDbArc
 50
102.7288999999999
 51
103.2681029999999
  0
ARC
  5
A36B
330
A050
100
AcDbEntity
  8
1
  6
Continuous
100
AcDbCircle
 10
154.8021699999999
 20
139.3186339999997
 30
0.0
 40
0.044452
100
AcDbArc
 50
0.0
 51
102.7288999999999
  0
ARC
  5
A36C
330
A050
100
AcDbEntity
  8
1
  6
Continuous
100
AcDbCircle
 10
153.7357639999999
 20
137.1172179999997
 30
0.0
 40
0.222261
100
AcDbArc
 50
180.000009
 51
243.985999
  0
ARC
  5
A36D
330
A050
100
AcDbEntity
  8
1
  6
Continuous
100
AcDbCircle
 10
153.913498
 20
139.0335389999999
 30
0.0
 40
0.044452
100
AcDbArc
 50
0.0
 51
112.944001
  0
ARC
  5
A36E
330
A050
100
AcDbEntity
  8
1
  6
Continuous
100
AcDbCircle
 10
155.9570159999998
 20
134.2039639999997
 30
0.0
 40
5.288524999999999
100
AcDbArc
 50
112.944001
 51
116.0143969999999
  0
ARC
  5
A36F
330
A050
100
AcDbEntity
  8
1
  6
Continuous
100
AcDbCircle
 10
153.7357639999999
 20
138.7565459999999
 30
0.0
 40
0.222261
100
AcDbArc
 50
116.0143969999999
 51
180.000005
  0
ARC
  5
A370
330
A050
100
AcDbEntity
  8
1
  6
Continuous
100
AcDbCircle
 10
153.2909699999999
 20
137.937332
 30
0.0
 40
1.145318999999998
100
AcDbArc
 50
180.000009
 51
234.462011
  0
ARC
  5
A371
330
A050
100
AcDbEntity
  8
1
  6
Continuous
100
AcDbCircle
 10
153.2909699999999
 20
137.937332
 30
0.0
 40
1.145318999999998
100
AcDbArc
 50
125.537702
 51
166.5374019999999
  0
ARC
  5
A372
330
A050
100
AcDbEntity
  8
1
  6
Continuous
100
AcDbCircle
 10
155.9570159999998
 20
141.669815
 30
0.0
 40
5.288524999999999
100
AcDbArc
 50
277.792997
 51
280.1039989999998
  0
ARC
  5
A373
330
A050
100
AcDbEntity
  8
1
  6
Continuous
100
AcDbCircle
 10
156.668869
 20
136.4739379999997
 30
0.0
 40
0.044452
100
AcDbArc
 50
180.000009
 51
277.792997
  0
ARC
  5
A374
330
A050
100
AcDbEntity
  8
1
  6
Continuous
100
AcDbCircle
 10
156.8466029999999
 20
136.6823579999999
 30
0.0
 40
0.222261
100
AcDbArc
 50
280.1039989999998
 51
0.0
  0
ARC
  5
A375
330
A050
100
AcDbEntity
  8
1
  6
Continuous
100
AcDbCircle
 10
156.668869
 20
139.3998259999999
 30
0.0
 40
0.044452
100
AcDbArc
 50
82.20700300000002
 51
180.000005
  0
ARC
  5
A376
330
A050
100
AcDbEntity
  8
1
  6
Continuous
100
AcDbCircle
 10
155.9570159999998
 20
134.2039639999997
 30
0.0
 40
5.288524999999999
100
AcDbArc
 50
79.896001
 51
82.20700300000002
  0
ARC
  5
A377
330
A050
100
AcDbEntity
  8
1
  6
Continuous
100
AcDbCircle
 10
156.8466029999999
 20
139.1914219999997
 30
0.0
 40
0.222261
100
AcDbArc
 50
0.0
 51
79.896001
  0
ARC
  5
A378
330
A050
100
AcDbEntity
  8
1
  6
Continuous
100
AcDbCircle
 10
135.8009639999999
 20
41.33688999999999
 30
0.0
 40
0.25
100
AcDbArc
 50
4.332314
 51
184.3323119999997
  0
ARC
  5
A379
330
A050
100
AcDbEntity
  8
1
  6
Continuous
100
AcDbCircle
 10
135.300964
 20
32.33689
 30
0.0
 40
0.25
100
AcDbArc
 50
179.9999909999999
 51
356.820174
  0
ARC
  5
A37A
330
A050
100
AcDbEntity
  8
1
  6
Continuous
100
AcDbCircle
 10
143.3009639999999
 20
32.33689
 30
0.0
 40
0.25
100
AcDbArc
 50
184.332316
 51
0.0
  0
ARC
  5
A37B
330
A050
100
AcDbEntity
  8
1
  6
Continuous
100
AcDbCircle
 10
143.8009639999999
 20
41.33688999999999
 30
0.0
 40
0.25
100
AcDbArc
 50
0.0
 51
176.8201689999999
  0
ARC
  5
A37C
330
A050
100
AcDbEntity
  8
1
  6
Continuous
100
AcDbCircle
 10
135.300964
 20
41.33688999999999
 30
0.0
 40
0.25
100
AcDbArc
 50
0.0
 51
180.000005
  0
ARC
  5
A37D
330
A050
100
AcDbEntity
  8
1
  6
Continuous
100
AcDbCircle
 10
143.8009639999999
 20
32.33689
 30
0.0
 40
0.25
100
AcDbArc
 50
178.204034
 51
0.00001
  0
ARC
  5
A37E
330
A050
100
AcDbEntity
  8
1
  6
Continuous
100
AcDbCircle
 10
137.1645969999997
 20
41.33688999999999
 30
0.0
 40
0.25
100
AcDbArc
 50
4.332314
 51
175.667684
  0
ARC
  5
A37F
330
A050
100
AcDbEntity
  8
1
  6
Continuous
100
AcDbCircle
 10
138.528244
 20
41.33688999999999
 30
0.0
 40
0.25
100
AcDbArc
 50
4.332314
 51
175.667684
  0
ARC
  5
A380
330
A050
100
AcDbEntity
  8
1
  6
Continuous
100
AcDbCircle
 10
139.8918759999999
 20
41.33688999999999
 30
0.0
 40
0.25
100
AcDbArc
 50
4.332314
 51
175.667684
  0
ARC
  5
A381
330
A050
100
AcDbEntity
  8
1
  6
Continuous
100
AcDbCircle
 10
141.2555079999999
 20
41.33688999999999
 30
0.0
 40
0.25
100
AcDbArc
 50
4.332314
 51
175.667684
  0
ARC
  5
A382
330
A050
100
AcDbEntity
  8
1
  6
Continuous
100
AcDbCircle
 10
142.6191409999999
 20
41.33688999999999
 30
0.0
 40
0.25
100
AcDbArc
 50
4.332314
 51
175.667684
  0
ARC
  5
A383
330
A050
100
AcDbEntity
  8
1
  6
Continuous
100
AcDbCircle
 10
141.937332
 20
32.33689
 30
0.0
 40
0.25
100
AcDbArc
 50
184.332316
 51
4.332314
  0
ARC
  5
A384
330
A050
100
AcDbEntity
  8
1
  6
Continuous
100
AcDbCircle
 10
140.573685
 20
32.33689
 30
0.0
 40
0.25
100
AcDbArc
 50
184.332316
 51
4.332314
  0
ARC
  5
A385
330
A050
100
AcDbEntity
  8
1
  6
Continuous
100
AcDbCircle
 10
139.2100519999999
 20
32.33689
 30
0.0
 40
0.25
100
AcDbArc
 50
184.332316
 51
4.332314
  0
ARC
  5
A386
330
A050
100
AcDbEntity
  8
1
  6
Continuous
100
AcDbCircle
 10
137.84642
 20
32.33689
 30
0.0
 40
0.25
100
AcDbArc
 50
184.332316
 51
4.332314
  0
ARC
  5
A387
330
A050
100
AcDbEntity
  8
1
  6
Continuous
100
AcDbCircle
 10
136.4827879999999
 20
32.33689
 30
0.0
 40
0.25
100
AcDbArc
 50
184.332316
 51
355.667686
  0
ARC
  5
A388
330
A050
100
AcDbEntity
  8
1
  6
Continuous
100
AcDbCircle
 10
135.300964
 20
231.5368899999997
 30
0.0
 40
0.25
100
AcDbArc
 50
0.0
 51
180.000005
  0
ARC
  5
A389
330
A050
100
AcDbEntity
  8
1
  6
Continuous
100
AcDbCircle
 10
143.8009639999999
 20
231.5368899999997
 30
0.0
 40
0.25
100
AcDbArc
 50
0.0
 51
176.8201689999999
  0
ARC
  5
A38A
330
A050
100
AcDbEntity
  8
1
  6
Continuous
100
AcDbCircle
 10
135.8009639999999
 20
231.5368899999997
 30
0.0
 40
0.25
100
AcDbArc
 50
4.332314
 51
184.3323119999997
  0
ARC
  5
A38B
330
A050
100
AcDbEntity
  8
1
  6
Continuous
100
AcDbCircle
 10
143.3009639999999
 20
222.5368899999998
 30
0.0
 40
0.25
100
AcDbArc
 50
184.332316
 51
0.0
  0
ARC
  5
A38C
330
A050
100
AcDbEntity
  8
1
  6
Continuous
100
AcDbCircle
 10
143.8009639999999
 20
222.5368899999998
 30
0.0
 40
0.25
100
AcDbArc
 50
178.204034
 51
0.00001
  0
ARC
  5
A38D
330
A050
100
AcDbEntity
  8
1
  6
Continuous
100
AcDbCircle
 10
141.937332
 20
222.5368899999998
 30
0.0
 40
0.25
100
AcDbArc
 50
184.332316
 51
4.332314
  0
ARC
  5
A38E
330
A050
100
AcDbEntity
  8
1
  6
Continuous
100
AcDbCircle
 10
140.573685
 20
222.5368899999998
 30
0.0
 40
0.25
100
AcDbArc
 50
184.332316
 51
4.332314
  0
ARC
  5
A38F
330
A050
100
AcDbEntity
  8
1
  6
Continuous
100
AcDbCircle
 10
137.1645969999997
 20
231.5368899999997
 30
0.0
 40
0.25
100
AcDbArc
 50
4.332314
 51
175.667684
  0
ARC
  5
A390
330
A050
100
AcDbEntity
  8
1
  6
Continuous
100
AcDbCircle
 10
138.528244
 20
231.5368899999997
 30
0.0
 40
0.25
100
AcDbArc
 50
4.332314
 51
175.667684
  0
ARC
  5
A391
330
A050
100
AcDbEntity
  8
1
  6
Continuous
100
AcDbCircle
 10
139.8918759999999
 20
231.5368899999997
 30
0.0
 40
0.25
100
AcDbArc
 50
4.332314
 51
175.667684
  0
ARC
  5
A392
330
A050
100
AcDbEntity
  8
1
  6
Continuous
100
AcDbCircle
 10
141.2555079999999
 20
231.5368899999997
 30
0.0
 40
0.25
100
AcDbArc
 50
4.332314
 51
175.667684
  0
ARC
  5
A393
330
A050
100
AcDbEntity
  8
1
  6
Continuous
100
AcDbCircle
 10
142.6191409999999
 20
231.5368899999997
 30
0.0
 40
0.25
100
AcDbArc
 50
4.332314
 51
175.667684
  0
ARC
  5
A394
330
A050
100
AcDbEntity
  8
1
  6
Continuous
100
AcDbCircle
 10
353.882813
 20
127.43689
 30
0.0
 40
0.25
100
AcDbArc
 50
184.332316
 51
355.667686
  0
ARC
  5
A395
330
A050
100
AcDbEntity
  8
1
  6
Continuous
100
AcDbCircle
 10
361.2009889999998
 20
136.4368899999997
 30
0.0
 40
0.25
100
AcDbArc
 50
0.0
 51
176.8201689999999
  0
ARC
  5
A396
330
A050
100
AcDbEntity
  8
1
  6
Continuous
100
AcDbCircle
 10
360.700989
 20
127.43689
 30
0.0
 40
0.25
100
AcDbArc
 50
184.332316
 51
0.0
  0
ARC
  5
A397
330
A050
100
AcDbEntity
  8
1
  6
Continuous
100
AcDbCircle
 10
361.2009889999998
 20
127.43689
 30
0.0
 40
0.25
100
AcDbArc
 50
178.204034
 51
0.00001
  0
ARC
  5
A398
330
A050
100
AcDbEntity
  8
1
  6
Continuous
100
AcDbCircle
 10
359.3373409999998
 20
127.43689
 30
0.0
 40
0.25
100
AcDbArc
 50
184.332316
 51
4.332314
  0
ARC
  5
A399
330
A050
100
AcDbEntity
  8
1
  6
Continuous
100
AcDbCircle
 10
357.973724
 20
127.43689
 30
0.0
 40
0.25
100
AcDbArc
 50
184.332316
 51
4.332314
  0
ARC
  5
A39A
330
A050
100
AcDbEntity
  8
1
  6
Continuous
100
AcDbCircle
 10
356.6100769999998
 20
127.43689
 30
0.0
 40
0.25
100
AcDbArc
 50
184.332316
 51
4.332314
  0
ARC
  5
A39B
330
A050
100
AcDbEntity
  8
1
  6
Continuous
100
AcDbCircle
 10
355.2464289999999
 20
127.43689
 30
0.0
 40
0.25
100
AcDbArc
 50
184.332316
 51
4.332314
  0
ARC
  5
A39C
330
A050
100
AcDbEntity
  8
1
  6
Continuous
100
AcDbCircle
 10
354.564636
 20
136.4368899999997
 30
0.0
 40
0.25
100
AcDbArc
 50
4.332314
 51
175.667684
  0
ARC
  5
A39D
330
A050
100
AcDbEntity
  8
1
  6
Continuous
100
AcDbCircle
 10
355.9282529999999
 20
136.4368899999997
 30
0.0
 40
0.25
100
AcDbArc
 50
4.332314
 51
175.667684
  0
ARC
  5
A39E
330
A050
100
AcDbEntity
  8
1
  6
Continuous
100
AcDbCircle
 10
357.291901
 20
136.4368899999997
 30
0.0
 40
0.25
100
AcDbArc
 50
4.332314
 51
175.667684
  0
ARC
  5
A39F
330
A050
100
AcDbEntity
  8
1
  6
Continuous
100
AcDbCircle
 10
358.655548
 20
136.4368899999997
 30
0.0
 40
0.25
100
AcDbArc
 50
4.332314
 51
175.667684
  0
ARC
  5
A3A0
330
A050
100
AcDbEntity
  8
1
  6
Continuous
100
AcDbCircle
 10
360.0191649999999
 20
136.4368899999997
 30
0.0
 40
0.25
100
AcDbArc
 50
4.332314
 51
175.667684
  0
ARC
  5
A3A1
330
A050
100
AcDbEntity
  8
1
  6
Continuous
100
AcDbCircle
 10
36.15035600000001
 20
226.9368899999999
 30
0.0
 40
7.932788
100
AcDbArc
 50
169.896
 51
172.2069999999999
  0
ARC
  5
A3A2
330
A050
100
AcDbEntity
  8
1
  6
Continuous
100
AcDbCircle
 10
24.951588
 20
226.9368899999999
 30
0.0
 40
7.932788
100
AcDbArc
 50
7.792999999999999
 51
10.10399999999999
  0
ARC
  5
A3A3
330
A050
100
AcDbEntity
  8
1
  6
Continuous
100
AcDbCircle
 10
28.356555
 20
228.004663
 30
0.0
 40
0.066678
100
AcDbArc
 50
172.2069999999999
 51
270.0
  0
ARC
  5
A3A4
330
A050
100
AcDbEntity
  8
1
  6
Continuous
100
AcDbCircle
 10
32.745389
 20
228.004663
 30
0.0
 40
0.066678
100
AcDbArc
 50
270.0
 51
7.792999999999999
  0
LINE
  5
A3A5
330
A050
100
AcDbEntity
  8
1
  6
Continuous
100
AcDbLine
 10
28.225282
 20
227.2711609999999
 30
0.0
 11
32.87666199999998
 21
227.2711609999999
 31
0.0
  0
LINE
  5
A3A6
330
A050
100
AcDbEntity
  8
1
  6
Continuous
100
AcDbLine
 10
28.356555
 20
227.9369969999999
 30
0.0
 11
32.745389
 21
227.9369969999999
 31
0.0
  0
LINE
  5
A3A7
330
A050
100
AcDbEntity
  8
1
  6
Continuous
100
AcDbLine
 10
29.75048
 20
228.604187
 30
0.0
 11
28.66917299999999
 21
228.604187
 31
0.0
  0
LINE
  5
A3A8
330
A050
100
AcDbEntity
  8
1
  6
Continuous
100
AcDbLine
 10
30.55029499999999
 20
228.604187
 30
0.0
 11
30.55029499999999
 21
228.2712689999999
 31
0.0
  0
LINE
  5
A3A9
330
A050
100
AcDbEntity
  8
1
  6
Continuous
100
AcDbLine
 10
28.67323300000001
 20
229.937212
 30
0.0
 11
30.217377
 21
229.937212
 31
0.0
  0
LINE
  5
A3AA
330
A050
100
AcDbEntity
  8
1
  6
Continuous
100
AcDbLine
 10
30.217377
 20
230.6044019999999
 30
0.0
 11
28.793679
 21
230.6044019999999
 31
0.0
  0
LINE
  5
A3AB
330
A050
100
AcDbEntity
  8
1
  6
Continuous
100
AcDbLine
 10
30.55029499999999
 20
230.2701299999999
 30
0.0
 11
32.149926
 21
230.2701299999999
 31
0.0
  0
LINE
  5
A3AC
330
A050
100
AcDbEntity
  8
1
  6
Continuous
100
AcDbLine
 10
31.79806099999999
 20
230.942733
 30
0.0
 11
28.988558
 21
231.696535
 31
0.0
  0
LINE
  5
A3AD
330
A050
100
AcDbEntity
  8
1
  6
Continuous
100
AcDbLine
 10
30.55029499999999
 20
232.6546899999999
 30
0.0
 11
30.55029499999999
 21
231.2770049999997
 31
0.0
  0
ARC
  5
A3AE
330
A050
100
AcDbEntity
  8
1
  6
Continuous
100
AcDbCircle
 10
30.217377
 20
230.2701299999999
 30
0.0
 40
0.333392
100
AcDbArc
 50
270.0
 51
90.0
  0
ARC
  5
A3AF
330
A050
100
AcDbEntity
  8
1
  6
Continuous
100
AcDbCircle
 10
30.55029499999999
 20
230.93732
 30
0.0
 40
1.717978999999997
100
AcDbArc
 50
62.24999999999999
 51
144.462
  0
ARC
  5
A3B0
330
A050
100
AcDbEntity
  8
1
  6
Continuous
100
AcDbCircle
 10
30.55029499999999
 20
230.93732
 30
0.0
 40
1.717978999999997
100
AcDbArc
 50
35.53799999999998
 51
45.69899999999999
  0
ARC
  5
A3B1
330
A050
100
AcDbEntity
  8
1
  6
Continuous
100
AcDbCircle
 10
28.66917299999999
 20
228.2712689999999
 30
0.0
 40
0.333392
100
AcDbArc
 50
90.0
 51
169.896
  0
ARC
  5
A3B2
330
A050
100
AcDbEntity
  8
1
  6
Continuous
100
AcDbCircle
 10
32.432771
 20
228.2712689999999
 30
0.0
 40
0.333392
100
AcDbArc
 50
10.10399999999999
 51
90.0
  0
LINE
  5
A3B3
330
A050
100
AcDbEntity
  8
1
  6
Continuous
100
AcDbLine
 10
32.432771
 20
228.604187
 30
0.0
 11
30.55029499999999
 21
228.604187
 31
0.0
  0
LINE
  5
A3B4
330
A050
100
AcDbEntity
  8
1
  6
Continuous
100
AcDbLine
 10
28.359261
 20
229.270023
 30
0.0
 11
32.532917
 21
229.270023
 31
0.0
  0
LINE
  5
A3B5
330
A050
100
AcDbEntity
  8
1
  6
Continuous
100
AcDbLine
 10
28.72195299999999
 20
222.604895
 30
0.0
 11
31.596416
 21
222.604895
 31
0.0
  0
LINE
  5
A3B6
330
A050
100
AcDbEntity
  8
1
  6
Continuous
100
AcDbLine
 10
31.780468
 20
223.270731
 30
0.0
 11
29.321476
 21
223.270731
 31
0.0
  0
LINE
  5
A3B7
330
A050
100
AcDbEntity
  8
1
  6
Continuous
100
AcDbLine
 10
28.906005
 20
223.93792
 30
0.0
 11
32.194586
 21
223.93792
 31
0.0
  0
LINE
  5
A3B8
330
A050
100
AcDbEntity
  8
1
  6
Continuous
100
AcDbLine
 10
29.75048
 20
225.270946
 30
0.0
 11
28.478354
 21
225.270946
 31
0.0
  0
LINE
  5
A3B9
330
A050
100
AcDbEntity
  8
1
  6
Continuous
100
AcDbLine
 10
30.55029499999999
 20
226.603972
 30
0.0
 11
30.55029499999999
 21
225.9381349999999
 31
0.0
  0
ARC
  5
A3BA
330
A050
100
AcDbEntity
  8
1
  6
Continuous
100
AcDbCircle
 10
30.55029499999999
 20
222.9378129999997
 30
0.0
 40
1.717978999999997
100
AcDbArc
 50
215.5377
 51
256.5374
  0
ARC
  5
A3BB
330
A050
100
AcDbEntity
  8
1
  6
Continuous
100
AcDbCircle
 10
30.55029499999999
 20
222.9378129999997
 30
0.0
 40
1.717978999999997
100
AcDbArc
 50
270.0
 51
324.4619999999998
  0
ARC
  5
A3BC
330
A050
100
AcDbEntity
  8
1
  6
Continuous
100
AcDbCircle
 10
29.321476
 20
223.6050019999999
 30
0.0
 40
0.333392
100
AcDbArc
 50
206.0144
 51
270.0
  0
ARC
  5
A3BD
330
A050
100
AcDbEntity
  8
1
  6
Continuous
100
AcDbCircle
 10
36.15035600000001
 20
226.9368899999999
 30
0.0
 40
7.932788
100
AcDbArc
 50
202.944
 51
206.0144
  0
ARC
  5
A3BE
330
A050
100
AcDbEntity
  8
1
  6
Continuous
100
AcDbCircle
 10
28.906005
 20
223.8716069999999
 30
0.0
 40
0.066678
100
AcDbArc
 50
90.0
 51
202.944
  0
ARC
  5
A3BF
330
A050
100
AcDbEntity
  8
1
  6
Continuous
100
AcDbCircle
 10
31.780468
 20
223.6050019999999
 30
0.0
 40
0.333392
100
AcDbArc
 50
270.0
 51
333.9859999999998
  0
ARC
  5
A3C0
330
A050
100
AcDbEntity
  8
1
  6
Continuous
100
AcDbCircle
 10
28.478354
 20
225.204633
 30
0.0
 40
0.066678
100
AcDbArc
 50
90.0
 51
192.7289
  0
ARC
  5
A3C1
330
A050
100
AcDbEntity
  8
1
  6
Continuous
100
AcDbCircle
 10
36.15035600000001
 20
226.9368899999999
 30
0.0
 40
7.932788
100
AcDbArc
 50
192.7289
 51
193.2680999999999
  0
ARC
  5
A3C2
330
A050
100
AcDbEntity
  8
1
  6
Continuous
100
AcDbCircle
 10
36.15035600000001
 20
226.9368899999999
 30
0.0
 40
7.932788
100
AcDbArc
 50
193.2680999999999
 51
195.2574999999999
  0
ARC
  5
A3C3
330
A050
100
AcDbEntity
  8
1
  6
Continuous
100
AcDbCircle
 10
28.81939199999999
 20
224.938028
 30
0.0
 40
0.333392
100
AcDbArc
 50
195.2574999999999
 51
270.0
  0
ARC
  5
A3C4
330
A050
100
AcDbEntity
  8
1
  6
Continuous
100
AcDbCircle
 10
32.282552
 20
224.938028
 30
0.0
 40
0.333392
100
AcDbArc
 50
270.0
 51
344.7419999999997
  0
ARC
  5
A3C5
330
A050
100
AcDbEntity
  8
1
  6
Continuous
100
AcDbCircle
 10
24.951588
 20
226.9368899999999
 30
0.0
 40
7.932788
100
AcDbArc
 50
344.7419999999997
 51
344.794
  0
ARC
  5
A3C6
330
A050
100
AcDbEntity
  8
1
  6
Continuous
100
AcDbCircle
 10
24.951588
 20
226.9368899999999
 30
0.0
 40
7.932788
100
AcDbArc
 50
344.794
 51
347.2709999999997
  0
ARC
  5
A3C7
330
A050
100
AcDbEntity
  8
1
  6
Continuous
100
AcDbCircle
 10
32.62359
 20
225.204633
 30
0.0
 40
0.066678
100
AcDbArc
 50
347.2709999999997
 51
90.0
  0
LINE
  5
A3C8
330
A050
100
AcDbEntity
  8
1
  6
Continuous
100
AcDbLine
 10
28.81939199999999
 20
224.6037559999999
 30
0.0
 11
32.282552
 21
224.6037559999999
 31
0.0
  0
LINE
  5
A3C9
330
A050
100
AcDbEntity
  8
1
  6
Continuous
100
AcDbLine
 10
32.62359
 20
225.270946
 30
0.0
 11
31.35011099999999
 21
225.270946
 31
0.0
  0
LINE
  5
A3CA
330
A050
100
AcDbEntity
  8
1
  6
Continuous
100
AcDbLine
 10
28.28076799999999
 20
225.9381349999999
 30
0.0
 11
32.821176
 21
225.9381349999999
 31
0.0
  0
LINE
  5
A3CB
330
A050
100
AcDbEntity
  8
1
  6
Continuous
100
AcDbLine
 10
28.225282
 20
226.603972
 30
0.0
 11
32.87666199999998
 21
226.603972
 31
0.0
  0
ARC
  5
A3CC
330
A050
100
AcDbEntity
  8
1
  6
Continuous
100
AcDbCircle
 10
32.194586
 20
223.8716069999999
 30
0.0
 40
0.066678
100
AcDbArc
 50
337.0559999999999
 51
90.0
  0
ARC
  5
A3CD
330
A050
100
AcDbEntity
  8
1
  6
Continuous
100
AcDbCircle
 10
24.951588
 20
226.9368899999999
 30
0.0
 40
7.932788
100
AcDbArc
 50
333.9859999999998
 51
337.0559999999999
  0
ARC
  5
A3CE
330
A050
100
AcDbEntity
  8
1
  6
Continuous
100
AcDbCircle
 10
24.951588
 20
226.9368899999999
 30
0.0
 40
8.599396
100
AcDbArc
 50
324.4619999999998
 51
35.53799999999998
  0
ARC
  5
A3CF
330
A050
100
AcDbEntity
  8
1
  6
Continuous
100
AcDbCircle
 10
36.15035600000001
 20
226.9368899999999
 30
0.0
 40
8.599396
100
AcDbArc
 50
144.462
 51
215.5377
  0
CIRCLE
  5
A3D0
330
A050
100
AcDbEntity
  8
1
  6
Continuous
100
AcDbCircle
 10
362.450989
 20
142.9368899999998
 30
0.0
 40
3.75
  0
ARC
  5
A3D1
330
A050
100
AcDbEntity
  8
1
  6
Continuous
100
AcDbCircle
 10
253.850977
 20
147.4368899999998
 30
0.0
 40
0.5
100
AcDbArc
 50
342.4120529999999
 51
162.4120489999999
  0
LINE
  5
A3D2
330
A050
100
AcDbEntity
  8
1
  6
Continuous
100
AcDbLine
 10
253.8138899999999
 20
145.6652129999999
 30
0.0
 11
254.327593
 21
147.2857959999998
 31
0.0
  0
LINE
  5
A3D3
330
A050
100
AcDbEntity
  8
1
  6
Continuous
100
AcDbLine
 10
252.860656
 20
145.967445
 30
0.0
 11
253.3743439999998
 21
147.5879649999999
 31
0.0
  0
ARC
  5
A3D4
330
A050
100
AcDbEntity
  8
1
  6
Continuous
100
AcDbCircle
 10
253.3372819999999
 20
145.816359
 30
0.0
 40
0.5
100
AcDbArc
 50
162.41191
 51
342.419524
  0
ARC
  5
A3D5
330
A050
100
AcDbEntity
  8
1
  6
Continuous
100
AcDbCircle
 10
242.850977
 20
147.4368899999998
 30
0.0
 40
0.5
100
AcDbArc
 50
17.587951
 51
197.5879469999999
  0
LINE
  5
A3D6
330
A050
100
AcDbEntity
  8
1
  6
Continuous
100
AcDbLine
 10
243.841297
 20
145.967445
 30
0.0
 11
243.3276089999999
 21
147.5879649999999
 31
0.0
  0
LINE
  5
A3D7
330
A050
100
AcDbEntity
  8
1
  6
Continuous
100
AcDbLine
 10
242.888063
 20
145.6652129999999
 30
0.0
 11
242.3743599999998
 21
147.2857959999998
 31
0.0
  0
ARC
  5
A3D8
330
A050
100
AcDbEntity
  8
1
  6
Continuous
100
AcDbCircle
 10
243.364671
 20
145.816359
 30
0.0
 40
0.5
100
AcDbArc
 50
197.580476
 51
17.58809
  0
LINE
  5
A3D9
330
A050
100
AcDbEntity
  8
4
  6
CENTER
100
AcDbLine
 10
249.2437799999999
 20
142.9368899999998
 30
0.0
 11
225.044472
 21
142.9368899999998
 31
0.0
  0
LINE
  5
A3DA
330
A050
100
AcDbEntity
  8
1
  6
Continuous
100
AcDbLine
 10
34.441293
 20
145.967445
 30
0.0
 11
33.927604
 21
147.5879649999999
 31
0.0
  0
ARC
  5
A3DB
330
A050
100
AcDbEntity
  8
1
  6
Continuous
100
AcDbCircle
 10
33.964666
 20
145.816359
 30
0.0
 40
0.5
100
AcDbArc
 50
197.580476
 51
17.58809
  0
ARC
  5
A3DC
330
A050
100
AcDbEntity
  8
1
  6
Continuous
100
AcDbCircle
 10
33.450972
 20
147.4368899999998
 30
0.0
 40
0.5
100
AcDbArc
 50
17.587951
 51
197.5879469999999
  0
LINE
  5
A3DD
330
A050
100
AcDbEntity
  8
1
  6
Continuous
100
AcDbLine
 10
33.488058
 20
145.6652129999999
 30
0.0
 11
32.974356
 21
147.2857959999998
 31
0.0
  0
LINE
  5
A3DE
330
A050
100
AcDbEntity
  8
1
  6
Continuous
100
AcDbLine
 10
26.55097200000001
 20
139.9368897382005
 30
0.0
 11
26.55097200000004
 21
123.9368904712389
 31
0.0
  0
ARC
  5
A3DF
330
A050
100
AcDbEntity
  8
1
  6
Continuous
100
AcDbCircle
 10
121.6509719999999
 20
214.5368899999998
 30
0.0
 40
2.6
100
AcDbArc
 50
180.0
 51
270.0
  0
ARC
  5
A3E0
330
A050
100
AcDbEntity
  8
1
  6
Continuous
100
AcDbCircle
 10
121.6509719999999
 20
49.33689000000001
 30
0.0
 40
2.6
100
AcDbArc
 50
90.00000000000005
 51
180.0
  0
ENDSEC
  0
SECTION
  2
OBJECTS
  0
DICTIONARY
  5
A03E
330
0
100
AcDbDictionary
281
     1
  3
ACAD_CIP_PREVIOUS_PRODUCT_INFO
350
A444
  3
ACAD_COLOR
350
A426
  3
ACAD_DETAILVIEWSTYLE
350
A43F
  3
ACAD_GROUP
350
A03F
  3
ACAD_LAYOUT
350
A04B
  3
ACAD_MATERIAL
350
A3F4
  3
ACAD_MLEADERSTYLE
350
A43B
  3
ACAD_MLINESTYLE
350
A048
  3
ACAD_PLOTSETTINGS
350
A04A
  3
ACAD_PLOTSTYLENAME
350
A3F2
  3
ACAD_SCALELIST
350
A429
  3
ACAD_SECTIONVIEWSTYLE
350
A43D
  3
ACAD_TABLESTYLE
350
A427
  3
ACAD_VISUALSTYLE
350
A40D
  3
ACDB_RECOMPOSE_DATA
350
A462
  3
AcDbVariableDictionary
350
A455
  3
DWGPROPS
350
A463
  0
DICTIONARY
  5
A445
330
A042
100
AcDbDictionary
280
     1
281
     1
  3
ADSK_XREC_LAYER_RECONCILED
360
A446
  0
DICTIONARY
  5
A447
330
A058
100
AcDbDictionary
280
     1
281
     1
  3
ADSK_XREC_LAYER_RECONCILED
360
A448
  0
DICTIONARY
  5
A449
330
A059
100
AcDbDictionary
280
     1
281
     1
  3
ADSK_XREC_LAYER_RECONCILED
360
A44A
  0
DICTIONARY
  5
A44B
330
A05A
100
AcDbDictionary
280
     1
281
     1
  3
ADSK_XREC_LAYER_RECONCILED
360
A44C
  0
DICTIONARY
  5
A44D
330
A05B
100
AcDbDictionary
280
     1
281
     1
  3
ADSK_XREC_LAYER_RECONCILED
360
A44E
  0
DICTIONARY
  5
A44F
330
A05C
100
AcDbDictionary
280
     1
281
     1
  3
ADSK_XREC_LAYER_RECONCILED
360
A450
  0
DICTIONARY
  5
A451
330
A05D
100
AcDbDictionary
280
     1
281
     1
  3
ADSK_XREC_LAYER_RECONCILED
360
A452
  0
DICTIONARY
  5
A453
330
A05E
100
AcDbDictionary
280
     1
281
     1
  3
ADSK_XREC_LAYER_RECONCILED
360
A454
  0
DICTIONARY
  5
A3ED
330
A050
100
AcDbDictionary
281
     1
  3
ACAD_LAYOUTSELFREF
350
A3EE
  0
DICTIONARY
  5
A3EB
330
A04C
100
AcDbDictionary
281
     1
  3
ACAD_LAYOUTSELFREF
350
A3EC
  0
XRECORD
  5
A444
102
{ACAD_REACTORS
330
A03E
102
}
330
A03E
100
AcDbXrecord
280
     1
300
ACDLT
300
2014
300
ACDLT_F_S
  0
DICTIONARY
  5
A426
102
{ACAD_REACTORS
330
A03E
102
}
330
A03E
100
AcDbDictionary
281
     1
  0
DICTIONARY
  5
A43F
102
{ACAD_REACTORS
330
A03E
102
}
330
A03E
100
AcDbDictionary
281
     1
  3
Imperial24
350
A440
  0
DICTIONARY
  5
A03F
102
{ACAD_REACTORS
330
A03E
102
}
330
A03E
100
AcDbDictionary
281
     1
  0
DICTIONARY
  5
A04B
102
{ACAD_REACTORS
330
A03E
102
}
330
A03E
100
AcDbDictionary
281
     1
  3
Model
350
A441
  3
レイアウト1
350
A442
  0
DICTIONARY
  5
A3F4
102
{ACAD_REACTORS
330
A03E
102
}
330
A03E
100
AcDbDictionary
281
     1
  3
ByBlock
350
A3FD
  3
ByLayer
350
A3F5
  3
Global
350
A405
  0
DICTIONARY
  5
A43B
102
{ACAD_REACTORS
330
A03E
102
}
330
A03E
100
AcDbDictionary
281
     1
  3
Standard
350
A43C
  0
DICTIONARY
  5
A048
102
{ACAD_REACTORS
330
A03E
102
}
330
A03E
100
AcDbDictionary
281
     1
  3
STANDARD
350
A049
  0
DICTIONARY
  5
A04A
102
{ACAD_REACTORS
330
A03E
102
}
330
A03E
100
AcDbDictionary
281
     1
  0
ACDBDICTIONARYWDFLT
  5
A3F2
102
{ACAD_REACTORS
330
A03E
102
}
330
A03E
100
AcDbDictionary
281
     1
  3
Normal
350
A3F3
100
AcDbDictionaryWithDefault
340
A3F3
  0
DICTIONARY
  5
A429
102
{ACAD_REACTORS
330
A03E
102
}
330
A03E
100
AcDbDictionary
281
     1
  3
A0
350
A42A
  3
A1
350
A42B
  3
A2
350
A42C
  3
A3
350
A42D
  3
A4
350
A42E
  3
A5
350
A42F
  3
A6
350
A430
  3
A7
350
A431
  3
A8
350
A432
  3
A9
350
A433
  3
B0
350
A434
  3
B1
350
A435
  3
B2
350
A436
  3
B3
350
A437
  3
B4
350
A438
  3
B5
350
A439
  3
B6
350
A43A
  0
DICTIONARY
  5
A43D
102
{ACAD_REACTORS
330
A03E
102
}
330
A03E
100
AcDbDictionary
281
     1
  3
Imperial24
350
A43E
  0
DICTIONARY
  5
A427
102
{ACAD_REACTORS
330
A03E
102
}
330
A03E
100
AcDbDictionary
281
     1
  3
Standard
350
A428
  0
DICTIONARY
  5
A40D
102
{ACAD_REACTORS
330
A03E
102
}
330
A03E
100
AcDbDictionary
281
     1
  3
2dWireframe
350
A413
  3
Basic
350
A412
  3
Brighten
350
A419
  3
ColorChange
350
A41D
  3
Conceptual
350
A416
  3
Dim
350
A418
  3
EdgeColorOff
350
A425
  3
Facepattern
350
A41C
  3
Flat
350
A40E
  3
FlatWithEdges
350
A40F
  3
Gouraud
350
A410
  3
GouraudWithEdges
350
A411
  3
Hidden
350
A415
  3
JitterOff
350
A423
  3
Linepattern
350
A41B
  3
OverhangOff
350
A424
  3
Realistic
350
A417
  3
Shaded
350
A422
  3
Shaded with edges
350
A421
  3
Shades of Gray
350
A41E
  3
Sketchy
350
A41F
  3
Thicken
350
A41A
  3
Wireframe
350
A414
  3
X-Ray
350
A420
  0
XRECORD
  5
A462
102
{ACAD_REACTORS
330
A03E
102
}
330
A03E
100
AcDbXrecord
280
     1
 90
        1
330
A428
  0
DICTIONARY
  5
A455
102
{ACAD_REACTORS
330
A03E
102
}
330
A03E
100
AcDbDictionary
281
     1
  3
CANNOSCALE
350
A45A
  3
CMLEADERSTYLE
350
A457
  3
CTABLESTYLE
350
A456
  3
CVIEWDETAILSTYLE
350
A458
  3
CVIEWSECTIONSTYLE
350
A459
  3
DIMASSOC
350
A45D
  3
INDEXCTL
350
A45C
  3
SORTENTS
350
A45B
  3
XCLIPFRAME
350
A45E
  0
XRECORD
  5
A463
102
{ACAD_REACTORS
330
A03E
102
}
330
A03E
100
AcDbXrecord
280
     1
  1
DWGPROPS COOKIE
  2

  3

  4

  6

  7

  8
Yoshitsune
  9

300
=
301
=
302
=
303
=
304
=
305
=
306
=
307
=
308
=
309
=
 40
0.0404142361111111
 41
2450945.56716794
 42
2457192.600781852
  1

 90
        0
  0
XRECORD
  5
A446
102
{ACAD_REACTORS
330
A445
102
}
330
A445
100
AcDbXrecord
280
     1
290
     1
  0
XRECORD
  5
A448
102
{ACAD_REACTORS
330
A447
102
}
330
A447
100
AcDbXrecord
280
     1
290
     1
  0
XRECORD
  5
A44A
102
{ACAD_REACTORS
330
A449
102
}
330
A449
100
AcDbXrecord
280
     1
290
     1
  0
XRECORD
  5
A44C
102
{ACAD_REACTORS
330
A44B
102
}
330
A44B
100
AcDbXrecord
280
     1
290
     1
  0
XRECORD
  5
A44E
102
{ACAD_REACTORS
330
A44D
102
}
330
A44D
100
AcDbXrecord
280
     1
290
     1
  0
XRECORD
  5
A450
102
{ACAD_REACTORS
330
A44F
102
}
330
A44F
100
AcDbXrecord
280
     1
290
     1
  0
XRECORD
  5
A452
102
{ACAD_REACTORS
330
A451
102
}
330
A451
100
AcDbXrecord
280
     1
290
     1
  0
XRECORD
  5
A454
102
{ACAD_REACTORS
330
A453
102
}
330
A453
100
AcDbXrecord
280
     1
290
     1
  0
XRECORD
  5
A3EE
102
{ACAD_REACTORS
330
A3ED
102
}
330
A3ED
100
AcDbXrecord
280
     1
340
A050
  0
XRECORD
  5
A3EC
102
{ACAD_REACTORS
330
A3EB
102
}
330
A3EB
100
AcDbXrecord
280
     1
340
A04C
  0
ACDBDETAILVIEWSTYLE
  5
A440
102
{ACAD_XDICTIONARY
360
A49B
102
}
102
{ACAD_REACTORS
330
A43F
102
}
330
A43F
100
AcDbModelDocViewStyle
 70
     0
  3
Imperial24
290
     0
100
AcDbDetailViewStyle
 70
     0
 71
     0
 90
        3
 71
     1
340
A043
 40
0.24
340
0
 40
0.24
300

 40
0.36
280
     3
 71
     2
340
A047
 90
       25
 71
     3
340
A043
 40
0.24
 90
        1
 40
0.75
 90
        1
300
%<\AcVar ViewType \f "%tc1">% %<\AcVar ViewDetailId>%\PSCALE %<\AcVar ViewScale \f "%sn">%
 71
     4
340
A047
 90
       25
340
A047
 90
       25
280
     0
  0
LAYOUT
  5
A441
102
{ACAD_XDICTIONARY
360
A49D
102
}
102
{ACAD_REACTORS
330
A04B
102
}
330
A04B
100
AcDbPlotSettings
  1

  2
Canon LBP9100C
  4

  6

 40
0.0
 41
0.0
 42
0.0
 43
0.0
 44
0.0
 45
0.0
 46
0.0
 47
0.0
 48
0.0
 49
0.0
140
0.0
141
0.0
142
1.0
143
1.0
 70
  1712
 72
     0
 73
     0
 74
     0
  7

 75
     0
147
1.0
148
0.0
149
0.0
100
AcDbLayout
  1
Model
 70
     1
 71
     0
 10
0.0
 20
0.0
 11
12.0
 21
9.0
 12
0.0
 22
0.0
 32
0.0
 14
0.0
 24
0.0
 34
0.0
 15
0.0
 25
0.0
 35
0.0
146
0.0
 13
0.0
 23
0.0
 33
0.0
 16
1.0
 26
0.0
 36
0.0
 17
0.0
 27
1.0
 37
0.0
 76
     0
330
A050
331
A3EA
  0
LAYOUT
  5
A442
102
{ACAD_XDICTIONARY
360
A49F
102
}
102
{ACAD_REACTORS
330
A04B
102
}
330
A04B
100
AcDbPlotSettings
  1

  2
Canon LBP9100C
  4

  6

 40
0.0
 41
0.0
 42
0.0
 43
0.0
 44
0.0
 45
0.0
 46
0.0
 47
0.0
 48
0.0
 49
0.0
140
0.0
141
0.0
142
1.0
143
1.0
 70
   688
 72
     0
 73
     0
 74
     5
  7

 75
    16
147
1.0
148
0.0
149
0.0
100
AcDbLayout
  1
レイアウト1
 70
     0
 71
     1
 10
0.0
 20
0.0
 11
420.0
 21
297.0
 12
0.0
 22
0.0
 32
0.0
 14
1.000000000000000E+20
 24
1.000000000000000E+20
 34
1.000000000000000E+20
 15
-1.000000000000000E+20
 25
-1.000000000000000E+20
 35
-1.000000000000000E+20
146
0.0
 13
0.0
 23
0.0
 33
0.0
 16
1.0
 26
0.0
 36
0.0
 17
0.0
 27
1.0
 37
0.0
 76
     0
330
A04C
  0
MATERIAL
  5
A3FD
102
{ACAD_XDICTIONARY
360
A3FE
102
}
102
{ACAD_REACTORS
330
A3F4
102
}
330
A3F4
100
AcDbMaterial
  1
ByBlock
 72
     0
 43
0.0208333333333333
 43
0.0
 43
0.0
 43
0.0
 43
0.0
 43
0.0208333333333333
 43
0.0
 43
0.0
 43
0.0
 43
0.0
 43
1.0
 43
0.0
 43
0.0
 43
0.0
 43
0.0
 43
1.0
 77
     0
 47
0.0208333333333333
 47
0.0
 47
0.0
 47
0.0
 47
0.0
 47
0.0208333333333333
 47
0.0
 47
0.0
 47
0.0
 47
0.0
 47
1.0
 47
0.0
 47
0.0
 47
0.0
 47
0.0
 47
1.0
171
     0
 49
0.0208333333333333
 49
0.0
 49
0.0
 49
0.0
 49
0.0
 49
0.0208333333333333
 49
0.0
 49
0.0
 49
0.0
 49
0.0
 49
1.0
 49
0.0
 49
0.0
 49
0.0
 49
0.0
 49
1.0
175
     0
142
0.0208333333333333
142
0.0
142
0.0
142
0.0
142
0.0
142
0.0208333333333333
142
0.0
142
0.0
142
0.0
142
0.0
142
1.0
142
0.0
142
0.0
142
0.0
142
0.0
142
1.0
179
     0
144
0.0208333333333333
144
0.0
144
0.0
144
0.0
144
0.0
144
0.0208333333333333
144
0.0
144
0.0
144
0.0
144
0.0
144
1.0
144
0.0
144
0.0
144
0.0
144
0.0
144
1.0
147
0.0208333333333333
147
0.0
147
0.0
147
0.0
147
0.0
147
0.0208333333333333
147
0.0
147
0.0
147
0.0
147
0.0
147
1.0
147
0.0
147
0.0
147
0.0
147
0.0
147
1.0
  0
MATERIAL
  5
A3F5
102
{ACAD_XDICTIONARY
360
A3F6
102
}
102
{ACAD_REACTORS
330
A3F4
102
}
330
A3F4
100
AcDbMaterial
  1
ByLayer
 72
     0
 43
0.0208333333333333
 43
0.0
 43
0.0
 43
0.0
 43
0.0
 43
0.0208333333333333
 43
0.0
 43
0.0
 43
0.0
 43
0.0
 43
1.0
 43
0.0
 43
0.0
 43
0.0
 43
0.0
 43
1.0
 77
     0
 47
0.0208333333333333
 47
0.0
 47
0.0
 47
0.0
 47
0.0
 47
0.0208333333333333
 47
0.0
 47
0.0
 47
0.0
 47
0.0
 47
1.0
 47
0.0
 47
0.0
 47
0.0
 47
0.0
 47
1.0
171
     0
 49
0.0208333333333333
 49
0.0
 49
0.0
 49
0.0
 49
0.0
 49
0.0208333333333333
 49
0.0
 49
0.0
 49
0.0
 49
0.0
 49
1.0
 49
0.0
 49
0.0
 49
0.0
 49
0.0
 49
1.0
175
     0
142
0.0208333333333333
142
0.0
142
0.0
142
0.0
142
0.0
142
0.0208333333333333
142
0.0
142
0.0
142
0.0
142
0.0
142
1.0
142
0.0
142
0.0
142
0.0
142
0.0
142
1.0
179
     0
144
0.0208333333333333
144
0.0
144
0.0
144
0.0
144
0.0
144
0.0208333333333333
144
0.0
144
0.0
144
0.0
144
0.0
144
1.0
144
0.0
144
0.0
144
0.0
144
0.0
144
1.0
147
0.0208333333333333
147
0.0
147
0.0
147
0.0
147
0.0
147
0.0208333333333333
147
0.0
147
0.0
147
0.0
147
0.0
147
1.0
147
0.0
147
0.0
147
0.0
147
0.0
147
1.0
  0
MATERIAL
  5
A405
102
{ACAD_XDICTIONARY
360
A406
102
}
102
{ACAD_REACTORS
330
A3F4
102
}
330
A3F4
100
AcDbMaterial
  1
Global
 72
     0
 43
0.0208333333333333
 43
0.0
 43
0.0
 43
0.0
 43
0.0
 43
0.0208333333333333
 43
0.0
 43
0.0
 43
0.0
 43
0.0
 43
1.0
 43
0.0
 43
0.0
 43
0.0
 43
0.0
 43
1.0
 77
     0
 47
0.0208333333333333
 47
0.0
 47
0.0
 47
0.0
 47
0.0
 47
0.0208333333333333
 47
0.0
 47
0.0
 47
0.0
 47
0.0
 47
1.0
 47
0.0
 47
0.0
 47
0.0
 47
0.0
 47
1.0
171
     0
 49
0.0208333333333333
 49
0.0
 49
0.0
 49
0.0
 49
0.0
 49
0.0208333333333333
 49
0.0
 49
0.0
 49
0.0
 49
0.0
 49
1.0
 49
0.0
 49
0.0
 49
0.0
 49
0.0
 49
1.0
175
     0
142
0.0208333333333333
142
0.0
142
0.0
142
0.0
142
0.0
142
0.0208333333333333
142
0.0
142
0.0
142
0.0
142
0.0
142
1.0
142
0.0
142
0.0
142
0.0
142
0.0
142
1.0
179
     0
144
0.0208333333333333
144
0.0
144
0.0
144
0.0
144
0.0
144
0.0208333333333333
144
0.0
144
0.0
144
0.0
144
0.0
144
1.0
144
0.0
144
0.0
144
0.0
144
0.0
144
1.0
147
0.0208333333333333
147
0.0
147
0.0
147
0.0
147
0.0
147
0.0208333333333333
147
0.0
147
0.0
147
0.0
147
0.0
147
1.0
147
0.0
147
0.0
147
0.0
147
0.0
147
1.0
  0
MLEADERSTYLE
  5
A43C
102
{ACAD_REACTORS
330
A43B
102
}
330
A43B
100
AcDbMLeaderStyle
170
     2
171
     1
172
     0
 90
        2
 40
0.0
 41
0.0
173
     1
 91
-1056964608
340
A045
 92
       -2
290
     1
 42
0.09
291
     1
 43
0.36
  3
Standard
 44
0.18
300

342
A043
174
     1
178
     6
175
     1
176
     0
 93
-1056964608
 45
0.18
292
     0
297
     0
 46
0.18
 94
-1056964608
 47
1.0
 49
1.0
140
1.0
293
     1
141
0.0
294
     1
177
     0
142
1.0
295
     0
296
     0
143
0.125
1001
ACAD_MLEADERVER
1070
     2
  0
MLINESTYLE
  5
A049
102
{ACAD_REACTORS
330
A048
102
}
330
A048
100
AcDbMlineStyle
  2
STANDARD
 70
     0
  3

 62
   256
 51
90.0
 52
90.0
 71
     2
 49
0.5
 62
   256
  6
BYLAYER
 49
-0.5
 62
   256
  6
BYLAYER
  0
ACDBPLACEHOLDER
  5
A3F3
102
{ACAD_REACTORS
330
A3F2
102
}
330
A3F2
  0
SCALE
  5
A42A
102
{ACAD_REACTORS
330
A429
102
}
330
A429
100
AcDbScale
 70
     0
300
1:1
140
1.0
141
1.0
290
     1
  0
SCALE
  5
A42B
102
{ACAD_REACTORS
330
A429
102
}
330
A429
100
AcDbScale
 70
     0
300
1/128" = 1'-0"
140
0.0078125
141
12.0
290
     0
  0
SCALE
  5
A42C
102
{ACAD_REACTORS
330
A429
102
}
330
A429
100
AcDbScale
 70
     0
300
1/64" = 1'-0"
140
0.015625
141
12.0
290
     0
  0
SCALE
  5
A42D
102
{ACAD_REACTORS
330
A429
102
}
330
A429
100
AcDbScale
 70
     0
300
1/32" = 1'-0"
140
0.03125
141
12.0
290
     0
  0
SCALE
  5
A42E
102
{ACAD_REACTORS
330
A429
102
}
330
A429
100
AcDbScale
 70
     0
300
1/16" = 1'-0"
140
0.0625
141
12.0
290
     0
  0
SCALE
  5
A42F
102
{ACAD_REACTORS
330
A429
102
}
330
A429
100
AcDbScale
 70
     0
300
3/32" = 1'-0"
140
0.09375
141
12.0
290
     0
  0
SCALE
  5
A430
102
{ACAD_REACTORS
330
A429
102
}
330
A429
100
AcDbScale
 70
     0
300
1/8" = 1'-0"
140
0.125
141
12.0
290
     0
  0
SCALE
  5
A431
102
{ACAD_REACTORS
330
A429
102
}
330
A429
100
AcDbScale
 70
     0
300
3/16" = 1'-0"
140
0.1875
141
12.0
290
     0
  0
SCALE
  5
A432
102
{ACAD_REACTORS
330
A429
102
}
330
A429
100
AcDbScale
 70
     0
300
1/4" = 1'-0"
140
0.25
141
12.0
290
     0
  0
SCALE
  5
A433
102
{ACAD_REACTORS
330
A429
102
}
330
A429
100
AcDbScale
 70
     0
300
3/8" = 1'-0"
140
0.375
141
12.0
290
     0
  0
SCALE
  5
A434
102
{ACAD_REACTORS
330
A429
102
}
330
A429
100
AcDbScale
 70
     0
300
1/2" = 1'-0"
140
0.5
141
12.0
290
     0
  0
SCALE
  5
A435
102
{ACAD_REACTORS
330
A429
102
}
330
A429
100
AcDbScale
 70
     0
300
3/4" = 1'-0"
140
0.75
141
12.0
290
     0
  0
SCALE
  5
A436
102
{ACAD_REACTORS
330
A429
102
}
330
A429
100
AcDbScale
 70
     0
300
1" = 1'-0"
140
1.0
141
12.0
290
     0
  0
SCALE
  5
A437
102
{ACAD_REACTORS
330
A429
102
}
330
A429
100
AcDbScale
 70
     0
300
1-1/2" = 1'-0"
140
1.5
141
12.0
290
     0
  0
SCALE
  5
A438
102
{ACAD_REACTORS
330
A429
102
}
330
A429
100
AcDbScale
 70
     0
300
3" = 1'-0"
140
3.0
141
12.0
290
     0
  0
SCALE
  5
A439
102
{ACAD_REACTORS
330
A429
102
}
330
A429
100
AcDbScale
 70
     0
300
6" = 1'-0"
140
6.0
141
12.0
290
     0
  0
SCALE
  5
A43A
102
{ACAD_REACTORS
330
A429
102
}
330
A429
100
AcDbScale
 70
     0
300
1'-0" = 1'-0"
140
12.0
141
12.0
290
     0
  0
ACDBSECTIONVIEWSTYLE
  5
A43E
102
{ACAD_XDICTIONARY
360
A499
102
}
102
{ACAD_REACTORS
330
A43D
102
}
330
A43D
100
AcDbModelDocViewStyle
 70
     0
  3
Imperial24
290
     0
100
AcDbSectionViewStyle
 70
     0
 71
     0
 90
       78
 71
     1
340
A043
 40
0.24
340
0
340
0
 40
0.24
300
I, O, Q, S, X, Z
 40
0.48
 90
        3
 40
0.18
 90
        1
 71
     2
340
A047
 90
       25
340
A047
 90
       50
 40
0.24
 40
0.0
 40
0.24
 71
     3
340
A043
 40
0.24
 90
        1
 40
0.75
 90
        1
300
%<\AcVar ViewType \f "%tc1">% %<\AcVar ViewSectionStartId>%-%<\AcVar ViewSectionEndId>%\PSCALE %<\AcVar ViewScale \f "%sn">%
 71
     4
300
ANSI31
 40
1.0
 90
        0
290
     0
290
     0
 90
        6
 40
0.0
 40
1.570796326794896
 40
0.2617993877991494
 40
1.308996938995747
 40
-0.2617993877991494
 40
1.832595714594046
  0
TABLESTYLE
  5
A428
102
{ACAD_XDICTIONARY
360
A460
102
}
102
{ACAD_REACTORS
330
A427
102
}
330
A427
100
AcDbTableStyle
  3
Standard
 70
     0
 71
     0
 40
0.06
 41
0.06
280
     0
281
     0
  7
STANDARD
140
0.18
170
     2
 62
     0
 63
     7
283
     0
274
    -2
284
     1
 64
     0
275
    -2
285
     1
 65
     0
276
    -2
286
     1
 66
     0
277
    -2
287
     1
 67
     0
278
    -2
288
     1
 68
     0
279
    -2
289
     1
 69
     0
  7
STANDARD
140
0.25
170
     5
 62
     0
 63
     7
283
     0
274
    -2
284
     1
 64
     0
275
    -2
285
     1
 65
     0
276
    -2
286
     1
 66
     0
277
    -2
287
     1
 67
     0
278
    -2
288
     1
 68
     0
279
    -2
289
     1
 69
     0
  7
STANDARD
140
0.18
170
     5
 62
     0
 63
     7
283
     0
274
    -2
284
     1
 64
     0
275
    -2
285
     1
 65
     0
276
    -2
286
     1
 66
     0
277
    -2
287
     1
 67
     0
278
    -2
288
     1
 68
     0
279
    -2
289
     1
 69
     0
  0
VISUALSTYLE
  5
A413
102
{ACAD_XDICTIONARY
360
A471
102
}
102
{ACAD_REACTORS
330
A40D
102
}
330
A40D
100
AcDbVisualStyle
  2
2dWireframe
 70
     4
 71
     0
 72
     2
 73
     0
 90
        0
 40
-0.6
 41
-30.0
 62
     5
 63
     7
 74
     1
 91
        4
 64
     7
 65
   257
 75
     1
175
     1
 42
1.0
 92
        0
 66
   257
 43
1.0
 76
     1
 77
     6
 78
     2
 67
     7
 79
     5
170
     0
171
     0
290
     0
174
     0
 93
        1
 44
0.0
173
     0
291
     0
 45
0.0
1001
ACAD
1000
AcDbSavedByObjectVersion
1070
     0
  0
VISUALSTYLE
  5
A412
102
{ACAD_XDICTIONARY
360
A46F
102
}
102
{ACAD_REACTORS
330
A40D
102
}
330
A40D
100
AcDbVisualStyle
  2
Basic
 70
     7
 71
     1
 72
     0
 73
     1
 90
        0
 40
-0.6
 41
-30.0
 62
     5
 63
     7
 74
     0
 91
        4
 64
     7
 65
   257
 75
     1
175
     1
 42
1.0
 92
        8
 66
     7
 43
1.0
 76
     1
 77
     6
 78
     2
 67
     7
 79
     5
170
     0
171
     0
290
     0
174
     0
 93
        1
 44
0.0
173
     0
291
     1
 45
0.0
1001
ACAD
1000
AcDbSavedByObjectVersion
1070
     0
  0
VISUALSTYLE
  5
A419
102
{ACAD_XDICTIONARY
360
A47D
102
}
102
{ACAD_REACTORS
330
A40D
102
}
330
A40D
100
AcDbVisualStyle
  2
Brighten
 70
    12
 71
     2
 72
     2
 73
     0
 90
        0
 40
-0.6
 41
-30.0
 62
     5
 63
     7
 74
     1
 91
        4
 64
     7
 65
   257
 75
     1
175
     1
 42
1.0
 92
        8
 66
     7
 43
1.0
 76
     1
 77
     6
 78
     2
 67
     7
 79
     5
170
     0
171
     0
290
     0
174
     0
 93
        1
 44
50.0
173
     0
291
     1
 45
0.0
1001
ACAD
1000
AcDbSavedByObjectVersion
1070
     0
  0
VISUALSTYLE
  5
A41D
102
{ACAD_XDICTIONARY
360
A485
102
}
102
{ACAD_REACTORS
330
A40D
102
}
330
A40D
100
AcDbVisualStyle
  2
ColorChange
 70
    16
 71
     2
 72
     2
 73
     3
 90
        0
 40
-0.6
 41
-30.0
 62
     5
 63
     8
 74
     1
 91
        4
 64
     7
 65
   257
 75
     1
175
     1
 42
1.0
 92
        8
 66
     8
 43
1.0
 76
     1
 77
     6
 78
     2
 67
     7
 79
     5
170
     0
171
     0
290
     0
174
     0
 93
        1
 44
0.0
173
     0
291
     1
 45
0.0
1001
ACAD
1000
AcDbSavedByObjectVersion
1070
     0
  0
VISUALSTYLE
  5
A416
102
{ACAD_XDICTIONARY
360
A477
102
}
102
{ACAD_REACTORS
330
A40D
102
}
330
A40D
100
AcDbVisualStyle
  2
Conceptual
 70
     9
 71
     3
 72
     2
 73
     0
 90
        0
 40
-0.6
 41
-30.0
 62
     5
 63
     7
 74
     2
 91
        2
 64
     7
 65
   257
 75
     1
175
     1
 42
179.0
 92
        8
 66
     7
 43
1.0
 76
     1
 77
     6
 78
     2
 67
     7
 79
     3
170
     0
171
     0
290
     0
174
     0
 93
        1
 44
0.0
173
     0
291
     0
 45
0.0
1001
ACAD
1000
AcDbSavedByObjectVersion
1070
     0
  0
VISUALSTYLE
  5
A418
102
{ACAD_XDICTIONARY
360
A47B
102
}
102
{ACAD_REACTORS
330
A40D
102
}
330
A40D
100
AcDbVisualStyle
  2
Dim
 70
    11
 71
     2
 72
     2
 73
     0
 90
        0
 40
-0.6
 41
-30.0
 62
     5
 63
     7
 74
     1
 91
        4
 64
     7
 65
   257
 75
     1
175
     1
 42
1.0
 92
        8
 66
     7
 43
1.0
 76
     1
 77
     6
 78
     2
 67
     7
 79
     5
170
     0
171
     0
290
     0
174
     0
 93
        1
 44
-50.0
173
     0
291
     1
 45
0.0
1001
ACAD
1000
AcDbSavedByObjectVersion
1070
     0
  0
VISUALSTYLE
  5
A425
102
{ACAD_XDICTIONARY
360
A495
102
}
102
{ACAD_REACTORS
330
A40D
102
}
330
A40D
100
AcDbVisualStyle
  2
EdgeColorOff
 70
    22
 71
     2
 72
     2
 73
     0
 90
        0
 40
-0.6
 41
-30.0
 62
     5
 63
     7
 74
     1
 91
        4
 64
     7
 65
   257
 75
     1
175
     1
 42
1.0
 92
        8
 66
     7
 43
1.0
 76
     1
 77
     6
 78
     2
 67
     7
 79
     5
170
     0
171
     0
290
     0
174
     0
 93
        1
 44
0.0
173
     0
291
     1
 45
0.0
1001
ACAD
1000
AcDbSavedByObjectVersion
1070
     0
  0
VISUALSTYLE
  5
A41C
102
{ACAD_XDICTIONARY
360
A483
102
}
102
{ACAD_REACTORS
330
A40D
102
}
330
A40D
100
AcDbVisualStyle
  2
Facepattern
 70
    15
 71
     2
 72
     2
 73
     0
 90
        0
 40
-0.6
 41
-30.0
 62
     5
 63
     7
 74
     1
 91
        4
 64
     7
 65
   257
 75
     1
175
     1
 42
1.0
 92
        8
 66
     7
 43
1.0
 76
     1
 77
     6
 78
     2
 67
     7
 79
     5
170
     0
171
     0
290
     0
174
     0
 93
        1
 44
0.0
173
     0
291
     1
 45
0.0
1001
ACAD
1000
AcDbSavedByObjectVersion
1070
     0
  0
VISUALSTYLE
  5
A40E
102
{ACAD_XDICTIONARY
360
A467
102
}
102
{ACAD_REACTORS
330
A40D
102
}
330
A40D
100
AcDbVisualStyle
  2
Flat
 70
     0
 71
     2
 72
     1
 73
     1
 90
        2
 40
-0.6
 41
30.0
 62
     5
 63
     7
 74
     0
 91
        0
 64
     7
 65
   257
 75
     1
175
     1
 42
1.0
 92
        8
 66
     7
 43
1.0
 76
     1
 77
     6
 78
     2
 67
     7
 79
     5
170
     0
171
     0
290
     0
174
     0
 93
       13
 44
0.0
173
     0
291
     1
 45
0.0
1001
ACAD
1000
AcDbSavedByObjectVersion
1070
     0
  0
VISUALSTYLE
  5
A40F
102
{ACAD_XDICTIONARY
360
A469
102
}
102
{ACAD_REACTORS
330
A40D
102
}
330
A40D
100
AcDbVisualStyle
  2
FlatWithEdges
 70
     1
 71
     2
 72
     1
 73
     1
 90
        2
 40
-0.6
 41
30.0
 62
     5
 63
     7
 74
     1
 91
        0
 64
     7
 65
   257
 75
     1
175
     1
 42
1.0
 92
        0
 66
   257
 43
1.0
 76
     1
 77
     6
 78
     2
 67
     7
 79
     5
170
     0
171
     0
290
     0
174
     0
 93
       13
 44
0.0
173
     0
291
     1
 45
0.0
1001
ACAD
1000
AcDbSavedByObjectVersion
1070
     0
  0
VISUALSTYLE
  5
A410
102
{ACAD_XDICTIONARY
360
A46B
102
}
102
{ACAD_REACTORS
330
A40D
102
}
330
A40D
100
AcDbVisualStyle
  2
Gouraud
 70
     2
 71
     2
 72
     2
 73
     1
 90
        2
 40
-0.6
 41
30.0
 62
     5
 63
     7
 74
     0
 91
        0
 64
     7
 65
   257
 75
     1
175
     1
 42
1.0
 92
        0
 66
     7
 43
1.0
 76
     1
 77
     6
 78
     2
 67
     7
 79
     5
170
     0
171
     0
290
     0
174
     0
 93
       13
 44
0.0
173
     0
291
     1
 45
0.0
1001
ACAD
1000
AcDbSavedByObjectVersion
1070
     0
  0
VISUALSTYLE
  5
A411
102
{ACAD_XDICTIONARY
360
A46D
102
}
102
{ACAD_REACTORS
330
A40D
102
}
330
A40D
100
AcDbVisualStyle
  2
GouraudWithEdges
 70
     3
 71
     2
 72
     2
 73
     1
 90
        2
 40
-0.6
 41
30.0
 62
     5
 63
     7
 74
     1
 91
        0
 64
     7
 65
   257
 75
     1
175
     1
 42
1.0
 92
        0
 66
   257
 43
1.0
 76
     1
 77
     6
 78
     2
 67
     7
 79
     5
170
     0
171
     0
290
     0
174
     0
 93
       13
 44
0.0
173
     0
291
     1
 45
0.0
1001
ACAD
1000
AcDbSavedByObjectVersion
1070
     0
  0
VISUALSTYLE
  5
A415
102
{ACAD_XDICTIONARY
360
A475
102
}
102
{ACAD_REACTORS
330
A40D
102
}
330
A40D
100
AcDbVisualStyle
  2
Hidden
 70
     6
 71
     1
 72
     2
 73
     2
 90
        0
 40
-0.6
 41
-30.0
 62
     5
 63
     7
 74
     2
 91
        2
 64
     7
 65
   257
 75
     2
175
     1
 42
40.0
 92
        0
 66
   257
 43
1.0
 76
     1
 77
     6
 78
     2
 67
     7
 79
     3
170
     0
171
     0
290
     0
174
     0
 93
        1
 44
0.0
173
     0
291
     0
 45
0.0
1001
ACAD
1000
AcDbSavedByObjectVersion
1070
     0
  0
VISUALSTYLE
  5
A423
102
{ACAD_XDICTIONARY
360
A491
102
}
102
{ACAD_REACTORS
330
A40D
102
}
330
A40D
100
AcDbVisualStyle
  2
JitterOff
 70
    20
 71
     2
 72
     2
 73
     0
 90
        0
 40
-0.6
 41
-30.0
 62
     5
 63
     7
 74
     1
 91
        4
 64
     7
 65
   257
 75
     1
175
     1
 42
1.0
 92
       10
 66
     7
 43
1.0
 76
     1
 77
     6
 78
     2
 67
     7
 79
     5
170
     0
171
     0
290
     0
174
     0
 93
        1
 44
0.0
173
     0
291
     1
 45
0.0
1001
ACAD
1000
AcDbSavedByObjectVersion
1070
     0
  0
VISUALSTYLE
  5
A41B
102
{ACAD_XDICTIONARY
360
A481
102
}
102
{ACAD_REACTORS
330
A40D
102
}
330
A40D
100
AcDbVisualStyle
  2
Linepattern
 70
    14
 71
     2
 72
     2
 73
     0
 90
        0
 40
-0.6
 41
-30.0
 62
     5
 63
     7
 74
     1
 91
        4
 64
     7
 65
   257
 75
     7
175
     7
 42
1.0
 92
        8
 66
     7
 43
1.0
 76
     1
 77
     6
 78
     2
 67
     7
 79
     5
170
     0
171
     0
290
     0
174
     0
 93
        1
 44
0.0
173
     0
291
     1
 45
0.0
1001
ACAD
1000
AcDbSavedByObjectVersion
1070
     0
  0
VISUALSTYLE
  5
A424
102
{ACAD_XDICTIONARY
360
A493
102
}
102
{ACAD_REACTORS
330
A40D
102
}
330
A40D
100
AcDbVisualStyle
  2
OverhangOff
 70
    21
 71
     2
 72
     2
 73
     0
 90
        0
 40
-0.6
 41
-30.0
 62
     5
 63
     7
 74
     1
 91
        4
 64
     7
 65
   257
 75
     1
175
     1
 42
1.0
 92
        9
 66
     7
 43
1.0
 76
     1
 77
     6
 78
     2
 67
     7
 79
     5
170
     0
171
     0
290
     0
174
     0
 93
        1
 44
0.0
173
     0
291
     1
 45
0.0
1001
ACAD
1000
AcDbSavedByObjectVersion
1070
     0
  0
VISUALSTYLE
  5
A417
102
{ACAD_XDICTIONARY
360
A479
102
}
102
{ACAD_REACTORS
330
A40D
102
}
330
A40D
100
AcDbVisualStyle
  2
Realistic
 70
     8
 71
     2
 72
     3
 73
     0
 90
        2
 40
-0.6
 41
30.0
 62
     5
 63
     7
 74
     0
 91
        0
 64
     7
 65
   257
 75
     1
175
     1
 42
1.0
 92
        8
 66
   257
 43
1.0
 76
     1
 77
     6
 78
     2
 67
     7
 79
     3
170
     0
171
     0
290
     0
174
     0
 93
       13
 44
0.0
173
     0
291
     0
 45
0.0
1001
ACAD
1000
AcDbSavedByObjectVersion
1070
     0
  0
VISUALSTYLE
  5
A422
102
{ACAD_XDICTIONARY
360
A48F
102
}
102
{ACAD_REACTORS
330
A40D
102
}
330
A40D
100
AcDbVisualStyle
  2
Shaded
 70
    27
 71
     2
 72
     2
 73
     1
 90
        2
 40
-0.6
 41
30.0
 62
     5
 63
     7
 74
     0
 91
        4
 64
     7
 65
   257
 75
     1
175
     1
 42
1.0
 92
        8
 66
   257
 43
1.0
 76
     1
 77
     6
 78
     2
 67
     8
 79
     3
170
     0
171
     0
290
     0
174
     0
 93
        5
 44
0.0
173
     0
291
     0
 45
0.0
1001
ACAD
1000
AcDbSavedByObjectVersion
1070
     0
  0
VISUALSTYLE
  5
A421
102
{ACAD_XDICTIONARY
360
A48D
102
}
102
{ACAD_REACTORS
330
A40D
102
}
330
A40D
100
AcDbVisualStyle
  2
Shaded with edges
 70
    26
 71
     2
 72
     2
 73
     1
 90
        2
 40
-0.6
 41
30.0
 62
     5
 63
     7
 74
     1
 91
       10
 64
     7
 65
   257
 75
     2
175
     1
 42
1.0
 92
        8
 66
   257
 43
1.0
 76
     1
 77
     6
 78
     2
 67
     7
 79
     3
170
     0
171
     0
290
     0
174
     0
 93
        5
 44
0.0
173
     0
291
     0
 45
0.0
1001
ACAD
1000
AcDbSavedByObjectVersion
1070
     0
  0
VISUALSTYLE
  5
A41E
102
{ACAD_XDICTIONARY
360
A487
102
}
102
{ACAD_REACTORS
330
A40D
102
}
330
A40D
100
AcDbVisualStyle
  2
Shades of Gray
 70
    23
 71
     2
 72
     2
 73
     3
 90
        0
 40
-0.6
 41
-30.0
 62
     5
 63
     7
 74
     2
 91
        2
 64
     7
 65
     7
 75
     1
175
     1
 42
40.0
 92
        8
 66
     7
 43
1.0
 76
     1
 77
     6
 78
     2
 67
     7
 79
     3
170
     0
171
     0
290
     0
174
     0
 93
        1
 44
0.0
173
     0
291
     0
 45
0.0
1001
ACAD
1000
AcDbSavedByObjectVersion
1070
     0
  0
VISUALSTYLE
  5
A41F
102
{ACAD_XDICTIONARY
360
A489
102
}
102
{ACAD_REACTORS
330
A40D
102
}
330
A40D
100
AcDbVisualStyle
  2
Sketchy
 70
    24
 71
     1
 72
     2
 73
     2
 90
        0
 40
-0.6
 41
-30.0
 62
     5
 63
     7
 74
     2
 91
        2
 64
     7
 65
     7
 75
     1
175
     1
 42
40.0
 92
       11
 66
     7
 43
1.0
 76
     1
 77
     6
 78
     2
 67
     7
 79
     6
170
     0
171
     0
290
     0
174
     0
 93
        1
 44
0.0
173
     0
291
     0
 45
0.0
1001
ACAD
1000
AcDbSavedByObjectVersion
1070
     0
  0
VISUALSTYLE
  5
A41A
102
{ACAD_XDICTIONARY
360
A47F
102
}
102
{ACAD_REACTORS
330
A40D
102
}
330
A40D
100
AcDbVisualStyle
  2
Thicken
 70
    13
 71
     2
 72
     2
 73
     0
 90
        0
 40
-0.6
 41
-30.0
 62
     5
 63
     7
 74
     1
 91
        4
 64
     7
 65
   257
 75
     1
175
     1
 42
1.0
 92
       12
 66
     7
 43
1.0
 76
     1
 77
     6
 78
     2
 67
     7
 79
     5
170
     0
171
     0
290
     0
174
     0
 93
        1
 44
0.0
173
     0
291
     1
 45
0.0
1001
ACAD
1000
AcDbSavedByObjectVersion
1070
     0
  0
VISUALSTYLE
  5
A414
102
{ACAD_XDICTIONARY
360
A473
102
}
102
{ACAD_REACTORS
330
A40D
102
}
330
A40D
100
AcDbVisualStyle
  2
Wireframe
 70
     5
 71
     0
 72
     2
 73
     0
 90
        0
 40
-0.6
 41
-30.0
 62
     5
 63
     7
 74
     1
 91
        4
 64
     7
 65
   257
 75
     1
175
     1
 42
1.0
 92
        0
 66
   257
 43
1.0
 76
     1
 77
     6
 78
     2
 67
     7
 79
     3
170
     0
171
     0
290
     0
174
     0
 93
        1
 44
0.0
173
     0
291
     0
 45
0.0
1001
ACAD
1000
AcDbSavedByObjectVersion
1070
     0
  0
VISUALSTYLE
  5
A420
102
{ACAD_XDICTIONARY
360
A48B
102
}
102
{ACAD_REACTORS
330
A40D
102
}
330
A40D
100
AcDbVisualStyle
  2
X-Ray
 70
    25
 71
     2
 72
     2
 73
     1
 90
        1
 40
0.5
 41
-30.0
 62
     5
 63
     7
 74
     1
 91
        0
 64
     7
 65
   257
 75
     1
175
     1
 42
1.0
 92
        8
 66
     7
 43
1.0
 76
     1
 77
     6
 78
     2
 67
     7
 79
     3
170
     0
171
     0
290
     0
174
     0
 93
       13
 44
0.0
173
     0
291
     0
 45
0.0
1001
ACAD
1000
AcDbSavedByObjectVersion
1070
     0
  0
DICTIONARYVAR
  5
A45A
102
{ACAD_REACTORS
330
A455
102
}
330
A455
100
DictionaryVariables
280
     0
  1
1:1
  0
DICTIONARYVAR
  5
A457
102
{ACAD_REACTORS
330
A455
102
}
330
A455
100
DictionaryVariables
280
     0
  1
STANDARD
  0
DICTIONARYVAR
  5
A456
102
{ACAD_REACTORS
330
A455
102
}
330
A455
100
DictionaryVariables
280
     0
  1
STANDARD
  0
DICTIONARYVAR
  5
A458
102
{ACAD_REACTORS
330
A455
102
}
330
A455
100
DictionaryVariables
280
     0
  1
Imperial24
  0
DICTIONARYVAR
  5
A459
102
{ACAD_REACTORS
330
A455
102
}
330
A455
100
DictionaryVariables
280
     0
  1
Imperial24
  0
DICTIONARYVAR
  5
A45D
102
{ACAD_REACTORS
330
A455
102
}
330
A455
100
DictionaryVariables
280
     0
  1
1
  0
DICTIONARYVAR
  5
A45C
102
{ACAD_REACTORS
330
A455
102
}
330
A455
100
DictionaryVariables
280
     0
  1
0
  0
DICTIONARYVAR
  5
A45B
102
{ACAD_REACTORS
330
A455
102
}
330
A455
100
DictionaryVariables
280
     0
  1
127
  0
DICTIONARYVAR
  5
A45E
102
{ACAD_REACTORS
330
A455
102
}
330
A455
100
DictionaryVariables
280
     0
  1
2
  0
DICTIONARY
  5
A49B
330
A440
100
AcDbDictionary
280
     1
281
     1
  3
ACAD_XREC_ROUNDTRIP
360
A49C
  0
DICTIONARY
  5
A49D
330
A441
100
AcDbDictionary
280
     1
281
     1
  3
ACAD_XREC_ROUNDTRIP
360
A49E
  0
DICTIONARY
  5
A49F
330
A442
100
AcDbDictionary
280
     1
281
     1
  3
ACAD_XREC_ROUNDTRIP
360
A4A0
  0
DICTIONARY
  5
A3FE
330
A3FD
100
AcDbDictionary
280
     1
281
     1
  3
ACAD_XREC_ROUNDTRIP
360
A465
  3
BUMPTILE
360
A400
  3
DIFFUSETILE
360
A3FF
  3
OPACITYTILE
360
A403
  3
REFLECTIONTILE
360
A402
  3
REFRACTIONTILE
360
A404
  3
SPECULARTILE
360
A401
  0
DICTIONARY
  5
A3F6
330
A3F5
100
AcDbDictionary
280
     1
281
     1
  3
ACAD_XREC_ROUNDTRIP
360
A464
  3
BUMPTILE
360
A3F8
  3
DIFFUSETILE
360
A3F7
  3
OPACITYTILE
360
A3FB
  3
REFLECTIONTILE
360
A3FA
  3
REFRACTIONTILE
360
A3FC
  3
SPECULARTILE
360
A3F9
  0
DICTIONARY
  5
A406
330
A405
100
AcDbDictionary
280
     1
281
     1
  3
ACAD_XREC_ROUNDTRIP
360
A466
  3
BUMPTILE
360
A408
  3
DIFFUSETILE
360
A407
  3
OPACITYTILE
360
A40B
  3
REFLECTIONTILE
360
A40A
  3
REFRACTIONTILE
360
A40C
  3
SPECULARTILE
360
A409
  0
DICTIONARY
  5
A499
330
A43E
100
AcDbDictionary
280
     1
281
     1
  3
ACAD_XREC_ROUNDTRIP
360
A49A
  0
DICTIONARY
  5
A460
330
A428
100
AcDbDictionary
280
     1
281
     1
  3
ACAD_ROUNDTRIP_2008_TABLESTYLE_CELLSTYLEMAP
360
A461
  3
ACAD_XREC_ROUNDTRIP
360
A497
  0
DICTIONARY
  5
A471
330
A413
100
AcDbDictionary
280
     1
281
     1
  3
ACAD_XREC_ROUNDTRIP
360
A472
  0
DICTIONARY
  5
A46F
330
A412
100
AcDbDictionary
280
     1
281
     1
  3
ACAD_XREC_ROUNDTRIP
360
A470
  0
DICTIONARY
  5
A47D
330
A419
100
AcDbDictionary
280
     1
281
     1
  3
ACAD_XREC_ROUNDTRIP
360
A47E
  0
DICTIONARY
  5
A485
330
A41D
100
AcDbDictionary
280
     1
281
     1
  3
ACAD_XREC_ROUNDTRIP
360
A486
  0
DICTIONARY
  5
A477
330
A416
100
AcDbDictionary
280
     1
281
     1
  3
ACAD_XREC_ROUNDTRIP
360
A478
  0
DICTIONARY
  5
A47B
330
A418
100
AcDbDictionary
280
     1
281
     1
  3
ACAD_XREC_ROUNDTRIP
360
A47C
  0
DICTIONARY
  5
A495
330
A425
100
AcDbDictionary
280
     1
281
     1
  3
ACAD_XREC_ROUNDTRIP
360
A496
  0
DICTIONARY
  5
A483
330
A41C
100
AcDbDictionary
280
     1
281
     1
  3
ACAD_XREC_ROUNDTRIP
360
A484
  0
DICTIONARY
  5
A467
330
A40E
100
AcDbDictionary
280
     1
281
     1
  3
ACAD_XREC_ROUNDTRIP
360
A468
  0
DICTIONARY
  5
A469
330
A40F
100
AcDbDictionary
280
     1
281
     1
  3
ACAD_XREC_ROUNDTRIP
360
A46A
  0
DICTIONARY
  5
A46B
330
A410
100
AcDbDictionary
280
     1
281
     1
  3
ACAD_XREC_ROUNDTRIP
360
A46C
  0
DICTIONARY
  5
A46D
330
A411
100
AcDbDictionary
280
     1
281
     1
  3
ACAD_XREC_ROUNDTRIP
360
A46E
  0
DICTIONARY
  5
A475
330
A415
100
AcDbDictionary
280
     1
281
     1
  3
ACAD_XREC_ROUNDTRIP
360
A476
  0
DICTIONARY
  5
A491
330
A423
100
AcDbDictionary
280
     1
281
     1
  3
ACAD_XREC_ROUNDTRIP
360
A492
  0
DICTIONARY
  5
A481
330
A41B
100
AcDbDictionary
280
     1
281
     1
  3
ACAD_XREC_ROUNDTRIP
360
A482
  0
DICTIONARY
  5
A493
330
A424
100
AcDbDictionary
280
     1
281
     1
  3
ACAD_XREC_ROUNDTRIP
360
A494
  0
DICTIONARY
  5
A479
330
A417
100
AcDbDictionary
280
     1
281
     1
  3
ACAD_XREC_ROUNDTRIP
360
A47A
  0
DICTIONARY
  5
A48F
330
A422
100
AcDbDictionary
280
     1
281
     1
  3
ACAD_XREC_ROUNDTRIP
360
A490
  0
DICTIONARY
  5
A48D
330
A421
100
AcDbDictionary
280
     1
281
     1
  3
ACAD_XREC_ROUNDTRIP
360
A48E
  0
DICTIONARY
  5
A487
330
A41E
100
AcDbDictionary
280
     1
281
     1
  3
ACAD_XREC_ROUNDTRIP
360
A488
  0
DICTIONARY
  5
A489
330
A41F
100
AcDbDictionary
280
     1
281
     1
  3
ACAD_XREC_ROUNDTRIP
360
A48A
  0
DICTIONARY
  5
A47F
330
A41A
100
AcDbDictionary
280
     1
281
     1
  3
ACAD_XREC_ROUNDTRIP
360
A480
  0
DICTIONARY
  5
A473
330
A414
100
AcDbDictionary
280
     1
281
     1
  3
ACAD_XREC_ROUNDTRIP
360
A474
  0
DICTIONARY
  5
A48B
330
A420
100
AcDbDictionary
280
     1
281
     1
  3
ACAD_XREC_ROUNDTRIP
360
A48C
  0
XRECORD
  5
A49C
102
{ACAD_REACTORS
330
A49B
102
}
330
A49B
100
AcDbXrecord
280
     1
102
DISPLAYNAME
  1
Imperial24
102
FLAGS
 90
        0
  0
XRECORD
  5
A49E
102
{ACAD_REACTORS
330
A49D
102
}
330
A49D
100
AcDbXrecord
280
     1
102
SHADEPLOT
 70
     0
102
SHADEPLOTRESLEVEL
 70
     2
102
SHADEPLOTCUSTOMDPI
 70
   300
  0
XRECORD
  5
A4A0
102
{ACAD_REACTORS
330
A49F
102
}
330
A49F
100
AcDbXrecord
280
     1
102
SHADEPLOT
 70
     0
102
SHADEPLOTRESLEVEL
 70
     2
102
SHADEPLOTCUSTOMDPI
 70
   300
  0
XRECORD
  5
A465
102
{ACAD_REACTORS
330
A3FE
102
}
330
A3FE
100
AcDbXrecord
280
     1
102
MATERIAL
148
0.0
149
0.0
149
0.0
 93
        0
 94
      127
282
     0
 72
     0
 77
     0
171
     0
175
     0
179
     0
273
     0
  0
XRECORD
  5
A400
102
{ACAD_REACTORS
330
A3FE
102
}
330
A3FE
100
AcDbXrecord
280
     1
270
     1
271
     1
  0
XRECORD
  5
A3FF
102
{ACAD_REACTORS
330
A3FE
102
}
330
A3FE
100
AcDbXrecord
280
     1
270
     1
271
     1
  0
XRECORD
  5
A403
102
{ACAD_REACTORS
330
A3FE
102
}
330
A3FE
100
AcDbXrecord
280
     1
270
     1
271
     1
  0
XRECORD
  5
A402
102
{ACAD_REACTORS
330
A3FE
102
}
330
A3FE
100
AcDbXrecord
280
     1
270
     1
271
     1
  0
XRECORD
  5
A404
102
{ACAD_REACTORS
330
A3FE
102
}
330
A3FE
100
AcDbXrecord
280
     1
270
     1
271
     1
  0
XRECORD
  5
A401
102
{ACAD_REACTORS
330
A3FE
102
}
330
A3FE
100
AcDbXrecord
280
     1
270
     1
271
     1
  0
XRECORD
  5
A464
102
{ACAD_REACTORS
330
A3F6
102
}
330
A3F6
100
AcDbXrecord
280
     1
102
MATERIAL
148
0.0
149
0.0
149
0.0
 93
        0
 94
      127
282
     0
 72
     0
 77
     0
171
     0
175
     0
179
     0
273
     0
  0
XRECORD
  5
A3F8
102
{ACAD_REACTORS
330
A3F6
102
}
330
A3F6
100
AcDbXrecord
280
     1
270
     1
271
     1
  0
XRECORD
  5
A3F7
102
{ACAD_REACTORS
330
A3F6
102
}
330
A3F6
100
AcDbXrecord
280
     1
270
     1
271
     1
  0
XRECORD
  5
A3FB
102
{ACAD_REACTORS
330
A3F6
102
}
330
A3F6
100
AcDbXrecord
280
     1
270
     1
271
     1
  0
XRECORD
  5
A3FA
102
{ACAD_REACTORS
330
A3F6
102
}
330
A3F6
100
AcDbXrecord
280
     1
270
     1
271
     1
  0
XRECORD
  5
A3FC
102
{ACAD_REACTORS
330
A3F6
102
}
330
A3F6
100
AcDbXrecord
280
     1
270
     1
271
     1
  0
XRECORD
  5
A3F9
102
{ACAD_REACTORS
330
A3F6
102
}
330
A3F6
100
AcDbXrecord
280
     1
270
     1
271
     1
  0
XRECORD
  5
A466
102
{ACAD_REACTORS
330
A406
102
}
330
A406
100
AcDbXrecord
280
     1
102
MATERIAL
148
0.0
149
0.0
149
0.0
 93
        0
 94
      127
282
     0
 72
     0
 77
     0
171
     0
175
     0
179
     0
273
     0
  0
XRECORD
  5
A408
102
{ACAD_REACTORS
330
A406
102
}
330
A406
100
AcDbXrecord
280
     1
270
     1
271
     1
  0
XRECORD
  5
A407
102
{ACAD_REACTORS
330
A406
102
}
330
A406
100
AcDbXrecord
280
     1
270
     1
271
     1
  0
XRECORD
  5
A40B
102
{ACAD_REACTORS
330
A406
102
}
330
A406
100
AcDbXrecord
280
     1
270
     1
271
     1
  0
XRECORD
  5
A40A
102
{ACAD_REACTORS
330
A406
102
}
330
A406
100
AcDbXrecord
280
     1
270
     1
271
     1
  0
XRECORD
  5
A40C
102
{ACAD_REACTORS
330
A406
102
}
330
A406
100
AcDbXrecord
280
     1
270
     1
271
     1
  0
XRECORD
  5
A409
102
{ACAD_REACTORS
330
A406
102
}
330
A406
100
AcDbXrecord
280
     1
270
     1
271
     1
  0
XRECORD
  5
A49A
102
{ACAD_REACTORS
330
A499
102
}
330
A499
100
AcDbXrecord
280
     1
102
DISPLAYNAME
  1
Imperial24
102
FLAGS
 90
        0
  0
CELLSTYLEMAP
  5
A461
102
{ACAD_REACTORS
330
A460
102
}
330
A460
100
AcDbCellStyleMap
 90
        3
300
CELLSTYLE
  1
TABLEFORMAT_BEGIN
 90
        5
170
     1
 91
        0
 92
    32768
 62
   257
 93
        1
300
CONTENTFORMAT
  1
CONTENTFORMAT_BEGIN
 90
        0
 91
        0
 92
      512
 93
        0
300

 40
0.0
140
1.0
 94
        5
 62
     0
340
A043
144
0.25
309
CONTENTFORMAT_END
171
     0
 94
        0
309
TABLEFORMAT_END
  1
CELLSTYLE_BEGIN
 90
        1
 91
        1
300
_TITLE
309
CELLSTYLE_END
300
CELLSTYLE
  1
TABLEFORMAT_BEGIN
 90
        5
170
     1
 91
        0
 92
        0
 62
   257
 93
        1
300
CONTENTFORMAT
  1
CONTENTFORMAT_BEGIN
 90
        0
 91
        0
 92
      512
 93
        0
300

 40
0.0
140
1.0
 94
        5
 62
     0
340
A043
144
0.18
309
CONTENTFORMAT_END
171
     0
 94
        0
309
TABLEFORMAT_END
  1
CELLSTYLE_BEGIN
 90
        2
 91
        1
300
_HEADER
309
CELLSTYLE_END
300
CELLSTYLE
  1
TABLEFORMAT_BEGIN
 90
        5
170
     1
 91
        0
 92
        0
 62
   257
 93
        1
300
CONTENTFORMAT
  1
CONTENTFORMAT_BEGIN
 90
        0
 91
        0
 92
      512
 93
        0
300

 40
0.0
140
1.0
 94
        2
 62
     0
340
A043
144
0.18
309
CONTENTFORMAT_END
171
     0
 94
        0
309
TABLEFORMAT_END
  1
CELLSTYLE_BEGIN
 90
        3
 91
        2
300
_DATA
309
CELLSTYLE_END
  0
XRECORD
  5
A497
102
{ACAD_REACTORS
330
A460
102
}
330
A460
100
AcDbXrecord
280
     1
102
ACAD_ROUNDTRIP_PRE2007_TABLESTYLE
 90
      512
 91
        0
  1

 92
      512
 93
        0
  2

 94
      512
 95
        0
  3

  0
XRECORD
  5
A472
102
{ACAD_REACTORS
330
A471
102
}
330
A471
100
AcDbXrecord
280
     1
102
RTVSPost2010Prop28
280
     1
102
RTVSPost2010PropOp28
 70
     1
102
RTVSPost2010Prop29
280
     1
102
RTVSPost2010PropOp29
 70
     1
102
RTVSPost2010Prop30
280
     0
102
RTVSPost2010PropOp30
 70
     1
102
RTVSPost2010Prop31
280
     0
102
RTVSPost2010PropOp31
 70
     1
102
RTVSPost2010Prop32
280
     0
102
RTVSPost2010PropOp32
 70
     1
102
RTVSPost2010Prop33
280
     0
102
RTVSPost2010PropOp33
 70
     1
102
RTVSPost2010Prop34
280
     0
102
RTVSPost2010PropOp34
 70
     1
102
RTVSPost2010Prop35
280
     0
102
RTVSPost2010PropOp35
 70
     1
102
RTVSPost2010Prop36
280
     0
102
RTVSPost2010PropOp36
 70
     1
102
RTVSPost2010Prop37
 90
       50
102
RTVSPost2010PropOp37
 70
     1
102
RTVSPost2010Prop38
140
0.0
102
RTVSPost2010PropOp38
 70
     1
102
RTVSPost2010Prop39
140
1.0
102
RTVSPost2010PropOp39
 70
     1
102
RTVSPost2010Prop40
 90
        0
102
RTVSPost2010PropOp40
 70
     1
102
RTVSPost2010Prop41ColorIndex
 90
       18
102
RTVSPost2010Prop41ColorRGB
 90
        0
102
RTVSPost2010PropOp41
 70
     1
102
RTVSPost2010Prop42
 90
       50
102
RTVSPost2010PropOp42
 70
     1
102
RTVSPost2010Prop43
 90
        3
102
RTVSPost2010PropOp43
 70
     1
102
RTVSPost2010Prop44ColorIndex
 90
        5
102
RTVSPost2010Prop44ColorRGB
 90
      255
102
RTVSPost2010PropOp44
 70
     1
102
RTVSPost2010Prop45
280
     0
102
RTVSPost2010PropOp45
 70
     1
102
RTVSPost2010Prop46
 90
       50
102
RTVSPost2010PropOp46
 70
     1
102
RTVSPost2010Prop47
 90
       50
102
RTVSPost2010PropOp47
 70
     1
102
RTVSPost2010Prop48
 90
       50
102
RTVSPost2010PropOp48
 70
     1
102
RTVSPost2010Prop49
280
     0
102
RTVSPost2010PropOp49
 70
     1
102
RTVSPost2010Prop50
 90
       50
102
RTVSPost2010PropOp50
 70
     1
102
RTVSPost2010Prop51ColorIndex
 90
      256
102
RTVSPost2010Prop51ColorRGB
 90
-16777216
102
RTVSPost2010PropOp51
 70
     0
102
RTVSPost2010Prop52
140
1.0
102
RTVSPost2010PropOp52
 70
     0
102
RTVSPost2010Prop53
 90
        2
102
RTVSPost2010PropOp53
 70
     1
102
RTVSPost2010Prop54
  1
strokes_ogs.tif
102
RTVSPost2010PropOp54
 70
     1
102
RTVSPost2010Prop55
280
     0
102
RTVSPost2010PropOp55
 70
     1
102
RTVSPost2010Prop56
140
1.0
102
RTVSPost2010PropOp56
 70
     1
102
RTVSPost2010Prop57
140
1.0
102
RTVSPost2010PropOp57
 70
     1
102
RTVSPropertyOp0
 70
     1
102
RTVSPropertyOp1
 70
     1
102
RTVSPropertyOp2
 70
     1
102
RTVSPropertyOp3
 70
     1
102
RTVSPropertyOp4
 70
     1
102
RTVSPropertyOp5
 70
     1
102
RTVSPropertyOp6
 70
     1
102
RTVSPropertyOp7
 70
     1
102
RTVSPropertyOp8
 70
     1
102
RTVSPropertyOp9
 70
     1
102
RTVSPropertyOp10
 70
     1
102
RTVSPropertyOp11
 70
     1
102
RTVSPropertyOp12
 70
     1
102
RTVSPropertyOp13
 70
     1
102
RTVSPropertyOp14
 70
     1
102
RTVSPropertyOp15
 70
     1
102
RTVSPropertyOp16
 70
     1
102
RTVSPropertyOp17
 70
     1
102
RTVSPropertyOp18
 70
     1
102
RTVSPropertyOp19
 70
     1
102
RTVSPropertyOp20
 70
     1
102
RTVSPropertyOp21
 70
     1
102
RTVSPropertyOp22
 70
     1
102
RTVSPropertyOp23
 70
     1
102
RTVSPropertyOp24
 70
     1
102
RTVSPropertyOp25
 70
     1
102
RTVSPropertyOp26
 70
     1
102
RTVSPropertyOp27
 70
     1
102
RTVSPropertyOp28
 70
     1
102
RTVSPropertyOp29
 70
     1
102
RTVSPropertyOp30
 70
     1
102
RTVSPropertyOp31
 70
     1
102
RTVSPropertyOp32
 70
     1
102
RTVSPropertyOp33
 70
     1
102
RTVSPropertyOp34
 70
     1
102
RTVSPropertyOp35
 70
     1
102
RTVSPropertyOp36
 70
     1
102
RTVSPropertyOp37
 70
     1
102
RTVSPropertyOp38
 70
     1
102
RTVSPropertyOp39
 70
     1
102
RTVSPropertyOp40
 70
     1
102
RTVSPropertyOp41
 70
     1
102
RTVSPropertyOp42
 70
     1
102
RTVSPropertyOp43
 70
     1
102
RTVSPropertyOp44
 70
     1
102
RTVSPropertyOp45
 70
     1
102
RTVSPropertyOp46
 70
     1
102
RTVSPropertyOp47
 70
     1
102
RTVSPropertyOp48
 70
     1
102
RTVSPropertyOp49
 70
     1
102
RTVSPropertyOp50
 70
     1
102
RTVSPropertyOp51
 70
     0
102
RTVSPropertyOp52
 70
     0
102
RTVSPropertyOp53
 70
     1
102
RTVSPropertyOp54
 70
     1
102
RTVSPropertyOp55
 70
     1
102
RTVSPropertyOp56
 70
     1
102
RTVSPropertyOp57
 70
     1
102
RTVSPropertyOp58
 70
     1
102
RTVSPropertyOp59
 70
     1
102
RTVSPropertyOp60
 70
     1
102
RTVSPropertyOp61
 70
     1
102
RTVSPropertyOp62
 70
     1
  0
XRECORD
  5
A470
102
{ACAD_REACTORS
330
A46F
102
}
330
A46F
100
AcDbXrecord
280
     1
102
RTVSPost2010Prop28
280
     0
102
RTVSPost2010PropOp28
 70
     1
102
RTVSPost2010Prop29
280
     1
102
RTVSPost2010PropOp29
 70
     1
102
RTVSPost2010Prop30
280
     1
102
RTVSPost2010PropOp30
 70
     1
102
RTVSPost2010Prop31
280
     0
102
RTVSPost2010PropOp31
 70
     1
102
RTVSPost2010Prop32
280
     0
102
RTVSPost2010PropOp32
 70
     1
102
RTVSPost2010Prop33
280
     0
102
RTVSPost2010PropOp33
 70
     1
102
RTVSPost2010Prop34
280
     0
102
RTVSPost2010PropOp34
 70
     1
102
RTVSPost2010Prop35
280
     0
102
RTVSPost2010PropOp35
 70
     1
102
RTVSPost2010Prop36
280
     0
102
RTVSPost2010PropOp36
 70
     1
102
RTVSPost2010Prop37
 90
       50
102
RTVSPost2010PropOp37
 70
     1
102
RTVSPost2010Prop38
140
0.0
102
RTVSPost2010PropOp38
 70
     1
102
RTVSPost2010Prop39
140
1.0
102
RTVSPost2010PropOp39
 70
     1
102
RTVSPost2010Prop40
 90
        0
102
RTVSPost2010PropOp40
 70
     1
102
RTVSPost2010Prop41ColorIndex
 90
       18
102
RTVSPost2010Prop41ColorRGB
 90
        0
102
RTVSPost2010PropOp41
 70
     1
102
RTVSPost2010Prop42
 90
       50
102
RTVSPost2010PropOp42
 70
     1
102
RTVSPost2010Prop43
 90
        3
102
RTVSPost2010PropOp43
 70
     1
102
RTVSPost2010Prop44ColorIndex
 90
        5
102
RTVSPost2010Prop44ColorRGB
 90
      255
102
RTVSPost2010PropOp44
 70
     1
102
RTVSPost2010Prop45
280
     0
102
RTVSPost2010PropOp45
 70
     1
102
RTVSPost2010Prop46
 90
       50
102
RTVSPost2010PropOp46
 70
     1
102
RTVSPost2010Prop47
 90
       50
102
RTVSPost2010PropOp47
 70
     1
102
RTVSPost2010Prop48
 90
       50
102
RTVSPost2010PropOp48
 70
     1
102
RTVSPost2010Prop49
280
     0
102
RTVSPost2010PropOp49
 70
     1
102
RTVSPost2010Prop50
 90
       50
102
RTVSPost2010PropOp50
 70
     1
102
RTVSPost2010Prop51ColorIndex
 90
      256
102
RTVSPost2010Prop51ColorRGB
 90
-16777216
102
RTVSPost2010PropOp51
 70
     0
102
RTVSPost2010Prop52
140
1.0
102
RTVSPost2010PropOp52
 70
     0
102
RTVSPost2010Prop53
 90
        2
102
RTVSPost2010PropOp53
 70
     1
102
RTVSPost2010Prop54
  1
strokes_ogs.tif
102
RTVSPost2010PropOp54
 70
     1
102
RTVSPost2010Prop55
280
     0
102
RTVSPost2010PropOp55
 70
     1
102
RTVSPost2010Prop56
140
1.0
102
RTVSPost2010PropOp56
 70
     1
102
RTVSPost2010Prop57
140
1.0
102
RTVSPost2010PropOp57
 70
     1
102
RTVSPropertyOp0
 70
     1
102
RTVSPropertyOp1
 70
     1
102
RTVSPropertyOp2
 70
     1
102
RTVSPropertyOp3
 70
     1
102
RTVSPropertyOp4
 70
     1
102
RTVSPropertyOp5
 70
     1
102
RTVSPropertyOp6
 70
     1
102
RTVSPropertyOp7
 70
     1
102
RTVSPropertyOp8
 70
     1
102
RTVSPropertyOp9
 70
     1
102
RTVSPropertyOp10
 70
     1
102
RTVSPropertyOp11
 70
     1
102
RTVSPropertyOp12
 70
     1
102
RTVSPropertyOp13
 70
     1
102
RTVSPropertyOp14
 70
     1
102
RTVSPropertyOp15
 70
     1
102
RTVSPropertyOp16
 70
     1
102
RTVSPropertyOp17
 70
     1
102
RTVSPropertyOp18
 70
     1
102
RTVSPropertyOp19
 70
     1
102
RTVSPropertyOp20
 70
     1
102
RTVSPropertyOp21
 70
     1
102
RTVSPropertyOp22
 70
     1
102
RTVSPropertyOp23
 70
     1
102
RTVSPropertyOp24
 70
     1
102
RTVSPropertyOp25
 70
     1
102
RTVSPropertyOp26
 70
     1
102
RTVSPropertyOp27
 70
     1
102
RTVSPropertyOp28
 70
     1
102
RTVSPropertyOp29
 70
     1
102
RTVSPropertyOp30
 70
     1
102
RTVSPropertyOp31
 70
     1
102
RTVSPropertyOp32
 70
     1
102
RTVSPropertyOp33
 70
     1
102
RTVSPropertyOp34
 70
     1
102
RTVSPropertyOp35
 70
     1
102
RTVSPropertyOp36
 70
     1
102
RTVSPropertyOp37
 70
     1
102
RTVSPropertyOp38
 70
     1
102
RTVSPropertyOp39
 70
     1
102
RTVSPropertyOp40
 70
     1
102
RTVSPropertyOp41
 70
     1
102
RTVSPropertyOp42
 70
     1
102
RTVSPropertyOp43
 70
     1
102
RTVSPropertyOp44
 70
     1
102
RTVSPropertyOp45
 70
     1
102
RTVSPropertyOp46
 70
     1
102
RTVSPropertyOp47
 70
     1
102
RTVSPropertyOp48
 70
     1
102
RTVSPropertyOp49
 70
     1
102
RTVSPropertyOp50
 70
     1
102
RTVSPropertyOp51
 70
     0
102
RTVSPropertyOp52
 70
     0
102
RTVSPropertyOp53
 70
     1
102
RTVSPropertyOp54
 70
     1
102
RTVSPropertyOp55
 70
     1
102
RTVSPropertyOp56
 70
     1
102
RTVSPropertyOp57
 70
     1
102
RTVSPropertyOp58
 70
     1
102
RTVSPropertyOp59
 70
     1
102
RTVSPropertyOp60
 70
     1
102
RTVSPropertyOp61
 70
     1
102
RTVSPropertyOp62
 70
     1
  0
XRECORD
  5
A47E
102
{ACAD_REACTORS
330
A47D
102
}
330
A47D
100
AcDbXrecord
280
     1
102
RTVSPost2010Prop28
280
     0
102
RTVSPost2010PropOp28
 70
     1
102
RTVSPost2010Prop29
280
     1
102
RTVSPost2010PropOp29
 70
     1
102
RTVSPost2010Prop30
280
     1
102
RTVSPost2010PropOp30
 70
     1
102
RTVSPost2010Prop31
280
     0
102
RTVSPost2010PropOp31
 70
     1
102
RTVSPost2010Prop32
280
     0
102
RTVSPost2010PropOp32
 70
     1
102
RTVSPost2010Prop33
280
     0
102
RTVSPost2010PropOp33
 70
     1
102
RTVSPost2010Prop34
280
     0
102
RTVSPost2010PropOp34
 70
     1
102
RTVSPost2010Prop35
280
     0
102
RTVSPost2010PropOp35
 70
     1
102
RTVSPost2010Prop36
280
     0
102
RTVSPost2010PropOp36
 70
     1
102
RTVSPost2010Prop37
 90
       50
102
RTVSPost2010PropOp37
 70
     1
102
RTVSPost2010Prop38
140
0.0
102
RTVSPost2010PropOp38
 70
     1
102
RTVSPost2010Prop39
140
1.0
102
RTVSPost2010PropOp39
 70
     1
102
RTVSPost2010Prop40
 90
        0
102
RTVSPost2010PropOp40
 70
     1
102
RTVSPost2010Prop41ColorIndex
 90
       18
102
RTVSPost2010Prop41ColorRGB
 90
        0
102
RTVSPost2010PropOp41
 70
     1
102
RTVSPost2010Prop42
 90
       50
102
RTVSPost2010PropOp42
 70
     1
102
RTVSPost2010Prop43
 90
        3
102
RTVSPost2010PropOp43
 70
     1
102
RTVSPost2010Prop44ColorIndex
 90
        5
102
RTVSPost2010Prop44ColorRGB
 90
      255
102
RTVSPost2010PropOp44
 70
     1
102
RTVSPost2010Prop45
280
     0
102
RTVSPost2010PropOp45
 70
     1
102
RTVSPost2010Prop46
 90
       50
102
RTVSPost2010PropOp46
 70
     1
102
RTVSPost2010Prop47
 90
       50
102
RTVSPost2010PropOp47
 70
     1
102
RTVSPost2010Prop48
 90
       50
102
RTVSPost2010PropOp48
 70
     1
102
RTVSPost2010Prop49
280
     0
102
RTVSPost2010PropOp49
 70
     1
102
RTVSPost2010Prop50
 90
       50
102
RTVSPost2010PropOp50
 70
     1
102
RTVSPost2010Prop51ColorIndex
 90
      256
102
RTVSPost2010Prop51ColorRGB
 90
-16777216
102
RTVSPost2010PropOp51
 70
     0
102
RTVSPost2010Prop52
140
1.0
102
RTVSPost2010PropOp52
 70
     0
102
RTVSPost2010Prop53
 90
        2
102
RTVSPost2010PropOp53
 70
     1
102
RTVSPost2010Prop54
  1
strokes_ogs.tif
102
RTVSPost2010PropOp54
 70
     1
102
RTVSPost2010Prop55
280
     0
102
RTVSPost2010PropOp55
 70
     1
102
RTVSPost2010Prop56
140
1.0
102
RTVSPost2010PropOp56
 70
     1
102
RTVSPost2010Prop57
140
1.0
102
RTVSPost2010PropOp57
 70
     1
102
RTVSPropertyOp0
 70
     1
102
RTVSPropertyOp1
 70
     1
102
RTVSPropertyOp2
 70
     1
102
RTVSPropertyOp3
 70
     1
102
RTVSPropertyOp4
 70
     1
102
RTVSPropertyOp5
 70
     1
102
RTVSPropertyOp6
 70
     1
102
RTVSPropertyOp7
 70
     1
102
RTVSPropertyOp8
 70
     1
102
RTVSPropertyOp9
 70
     1
102
RTVSPropertyOp10
 70
     1
102
RTVSPropertyOp11
 70
     1
102
RTVSPropertyOp12
 70
     1
102
RTVSPropertyOp13
 70
     1
102
RTVSPropertyOp14
 70
     1
102
RTVSPropertyOp15
 70
     1
102
RTVSPropertyOp16
 70
     1
102
RTVSPropertyOp17
 70
     1
102
RTVSPropertyOp18
 70
     1
102
RTVSPropertyOp19
 70
     1
102
RTVSPropertyOp20
 70
     1
102
RTVSPropertyOp21
 70
     1
102
RTVSPropertyOp22
 70
     1
102
RTVSPropertyOp23
 70
     1
102
RTVSPropertyOp24
 70
     1
102
RTVSPropertyOp25
 70
     1
102
RTVSPropertyOp26
 70
     1
102
RTVSPropertyOp27
 70
     1
102
RTVSPropertyOp28
 70
     1
102
RTVSPropertyOp29
 70
     1
102
RTVSPropertyOp30
 70
     1
102
RTVSPropertyOp31
 70
     1
102
RTVSPropertyOp32
 70
     1
102
RTVSPropertyOp33
 70
     1
102
RTVSPropertyOp34
 70
     1
102
RTVSPropertyOp35
 70
     1
102
RTVSPropertyOp36
 70
     1
102
RTVSPropertyOp37
 70
     1
102
RTVSPropertyOp38
 70
     1
102
RTVSPropertyOp39
 70
     1
102
RTVSPropertyOp40
 70
     1
102
RTVSPropertyOp41
 70
     1
102
RTVSPropertyOp42
 70
     1
102
RTVSPropertyOp43
 70
     1
102
RTVSPropertyOp44
 70
     1
102
RTVSPropertyOp45
 70
     1
102
RTVSPropertyOp46
 70
     1
102
RTVSPropertyOp47
 70
     1
102
RTVSPropertyOp48
 70
     1
102
RTVSPropertyOp49
 70
     1
102
RTVSPropertyOp50
 70
     1
102
RTVSPropertyOp51
 70
     0
102
RTVSPropertyOp52
 70
     0
102
RTVSPropertyOp53
 70
     1
102
RTVSPropertyOp54
 70
     1
102
RTVSPropertyOp55
 70
     1
102
RTVSPropertyOp56
 70
     1
102
RTVSPropertyOp57
 70
     1
102
RTVSPropertyOp58
 70
     1
102
RTVSPropertyOp59
 70
     1
102
RTVSPropertyOp60
 70
     1
102
RTVSPropertyOp61
 70
     1
102
RTVSPropertyOp62
 70
     1
  0
XRECORD
  5
A486
102
{ACAD_REACTORS
330
A485
102
}
330
A485
100
AcDbXrecord
280
     1
102
RTVSPost2010Prop28
280
     0
102
RTVSPost2010PropOp28
 70
     1
102
RTVSPost2010Prop29
280
     1
102
RTVSPost2010PropOp29
 70
     1
102
RTVSPost2010Prop30
280
     1
102
RTVSPost2010PropOp30
 70
     1
102
RTVSPost2010Prop31
280
     0
102
RTVSPost2010PropOp31
 70
     1
102
RTVSPost2010Prop32
280
     0
102
RTVSPost2010PropOp32
 70
     1
102
RTVSPost2010Prop33
280
     0
102
RTVSPost2010PropOp33
 70
     1
102
RTVSPost2010Prop34
280
     0
102
RTVSPost2010PropOp34
 70
     1
102
RTVSPost2010Prop35
280
     0
102
RTVSPost2010PropOp35
 70
     1
102
RTVSPost2010Prop36
280
     0
102
RTVSPost2010PropOp36
 70
     1
102
RTVSPost2010Prop37
 90
       50
102
RTVSPost2010PropOp37
 70
     1
102
RTVSPost2010Prop38
140
0.0
102
RTVSPost2010PropOp38
 70
     1
102
RTVSPost2010Prop39
140
1.0
102
RTVSPost2010PropOp39
 70
     1
102
RTVSPost2010Prop40
 90
        0
102
RTVSPost2010PropOp40
 70
     1
102
RTVSPost2010Prop41ColorIndex
 90
       18
102
RTVSPost2010Prop41ColorRGB
 90
        0
102
RTVSPost2010PropOp41
 70
     1
102
RTVSPost2010Prop42
 90
       50
102
RTVSPost2010PropOp42
 70
     1
102
RTVSPost2010Prop43
 90
        3
102
RTVSPost2010PropOp43
 70
     1
102
RTVSPost2010Prop44ColorIndex
 90
        5
102
RTVSPost2010Prop44ColorRGB
 90
      255
102
RTVSPost2010PropOp44
 70
     1
102
RTVSPost2010Prop45
280
     0
102
RTVSPost2010PropOp45
 70
     1
102
RTVSPost2010Prop46
 90
       50
102
RTVSPost2010PropOp46
 70
     1
102
RTVSPost2010Prop47
 90
       50
102
RTVSPost2010PropOp47
 70
     1
102
RTVSPost2010Prop48
 90
       50
102
RTVSPost2010PropOp48
 70
     1
102
RTVSPost2010Prop49
280
     0
102
RTVSPost2010PropOp49
 70
     1
102
RTVSPost2010Prop50
 90
       50
102
RTVSPost2010PropOp50
 70
     1
102
RTVSPost2010Prop51ColorIndex
 90
      256
102
RTVSPost2010Prop51ColorRGB
 90
-16777216
102
RTVSPost2010PropOp51
 70
     0
102
RTVSPost2010Prop52
140
1.0
102
RTVSPost2010PropOp52
 70
     0
102
RTVSPost2010Prop53
 90
        2
102
RTVSPost2010PropOp53
 70
     1
102
RTVSPost2010Prop54
  1
strokes_ogs.tif
102
RTVSPost2010PropOp54
 70
     1
102
RTVSPost2010Prop55
280
     0
102
RTVSPost2010PropOp55
 70
     1
102
RTVSPost2010Prop56
140
1.0
102
RTVSPost2010PropOp56
 70
     1
102
RTVSPost2010Prop57
140
1.0
102
RTVSPost2010PropOp57
 70
     1
102
RTVSPropertyOp0
 70
     1
102
RTVSPropertyOp1
 70
     1
102
RTVSPropertyOp2
 70
     1
102
RTVSPropertyOp3
 70
     1
102
RTVSPropertyOp4
 70
     1
102
RTVSPropertyOp5
 70
     1
102
RTVSPropertyOp6
 70
     1
102
RTVSPropertyOp7
 70
     1
102
RTVSPropertyOp8
 70
     1
102
RTVSPropertyOp9
 70
     1
102
RTVSPropertyOp10
 70
     1
102
RTVSPropertyOp11
 70
     1
102
RTVSPropertyOp12
 70
     1
102
RTVSPropertyOp13
 70
     1
102
RTVSPropertyOp14
 70
     1
102
RTVSPropertyOp15
 70
     1
102
RTVSPropertyOp16
 70
     1
102
RTVSPropertyOp17
 70
     1
102
RTVSPropertyOp18
 70
     1
102
RTVSPropertyOp19
 70
     1
102
RTVSPropertyOp20
 70
     1
102
RTVSPropertyOp21
 70
     1
102
RTVSPropertyOp22
 70
     1
102
RTVSPropertyOp23
 70
     1
102
RTVSPropertyOp24
 70
     1
102
RTVSPropertyOp25
 70
     1
102
RTVSPropertyOp26
 70
     1
102
RTVSPropertyOp27
 70
     1
102
RTVSPropertyOp28
 70
     1
102
RTVSPropertyOp29
 70
     1
102
RTVSPropertyOp30
 70
     1
102
RTVSPropertyOp31
 70
     1
102
RTVSPropertyOp32
 70
     1
102
RTVSPropertyOp33
 70
     1
102
RTVSPropertyOp34
 70
     1
102
RTVSPropertyOp35
 70
     1
102
RTVSPropertyOp36
 70
     1
102
RTVSPropertyOp37
 70
     1
102
RTVSPropertyOp38
 70
     1
102
RTVSPropertyOp39
 70
     1
102
RTVSPropertyOp40
 70
     1
102
RTVSPropertyOp41
 70
     1
102
RTVSPropertyOp42
 70
     1
102
RTVSPropertyOp43
 70
     1
102
RTVSPropertyOp44
 70
     1
102
RTVSPropertyOp45
 70
     1
102
RTVSPropertyOp46
 70
     1
102
RTVSPropertyOp47
 70
     1
102
RTVSPropertyOp48
 70
     1
102
RTVSPropertyOp49
 70
     1
102
RTVSPropertyOp50
 70
     1
102
RTVSPropertyOp51
 70
     0
102
RTVSPropertyOp52
 70
     0
102
RTVSPropertyOp53
 70
     1
102
RTVSPropertyOp54
 70
     1
102
RTVSPropertyOp55
 70
     1
102
RTVSPropertyOp56
 70
     1
102
RTVSPropertyOp57
 70
     1
102
RTVSPropertyOp58
 70
     1
102
RTVSPropertyOp59
 70
     1
102
RTVSPropertyOp60
 70
     1
102
RTVSPropertyOp61
 70
     1
102
RTVSPropertyOp62
 70
     1
  0
XRECORD
  5
A478
102
{ACAD_REACTORS
330
A477
102
}
330
A477
100
AcDbXrecord
280
     1
102
RTVSPost2010Prop28
280
     0
102
RTVSPost2010PropOp28
 70
     1
102
RTVSPost2010Prop29
280
     1
102
RTVSPost2010PropOp29
 70
     1
102
RTVSPost2010Prop30
280
     1
102
RTVSPost2010PropOp30
 70
     1
102
RTVSPost2010Prop31
280
     0
102
RTVSPost2010PropOp31
 70
     1
102
RTVSPost2010Prop32
280
     0
102
RTVSPost2010PropOp32
 70
     1
102
RTVSPost2010Prop33
280
     0
102
RTVSPost2010PropOp33
 70
     1
102
RTVSPost2010Prop34
280
     0
102
RTVSPost2010PropOp34
 70
     1
102
RTVSPost2010Prop35
280
     0
102
RTVSPost2010PropOp35
 70
     1
102
RTVSPost2010Prop36
280
     0
102
RTVSPost2010PropOp36
 70
     1
102
RTVSPost2010Prop37
 90
       50
102
RTVSPost2010PropOp37
 70
     1
102
RTVSPost2010Prop38
140
0.0
102
RTVSPost2010PropOp38
 70
     1
102
RTVSPost2010Prop39
140
1.0
102
RTVSPost2010PropOp39
 70
     1
102
RTVSPost2010Prop40
 90
        0
102
RTVSPost2010PropOp40
 70
     1
102
RTVSPost2010Prop41ColorIndex
 90
       18
102
RTVSPost2010Prop41ColorRGB
 90
        0
102
RTVSPost2010PropOp41
 70
     1
102
RTVSPost2010Prop42
 90
       50
102
RTVSPost2010PropOp42
 70
     1
102
RTVSPost2010Prop43
 90
        3
102
RTVSPost2010PropOp43
 70
     1
102
RTVSPost2010Prop44ColorIndex
 90
        5
102
RTVSPost2010Prop44ColorRGB
 90
      255
102
RTVSPost2010PropOp44
 70
     1
102
RTVSPost2010Prop45
280
     0
102
RTVSPost2010PropOp45
 70
     1
102
RTVSPost2010Prop46
 90
       50
102
RTVSPost2010PropOp46
 70
     1
102
RTVSPost2010Prop47
 90
       50
102
RTVSPost2010PropOp47
 70
     1
102
RTVSPost2010Prop48
 90
       50
102
RTVSPost2010PropOp48
 70
     1
102
RTVSPost2010Prop49
280
     0
102
RTVSPost2010PropOp49
 70
     1
102
RTVSPost2010Prop50
 90
       50
102
RTVSPost2010PropOp50
 70
     1
102
RTVSPost2010Prop51ColorIndex
 90
      256
102
RTVSPost2010Prop51ColorRGB
 90
-16777216
102
RTVSPost2010PropOp51
 70
     0
102
RTVSPost2010Prop52
140
1.0
102
RTVSPost2010PropOp52
 70
     0
102
RTVSPost2010Prop53
 90
        2
102
RTVSPost2010PropOp53
 70
     1
102
RTVSPost2010Prop54
  1
strokes_ogs.tif
102
RTVSPost2010PropOp54
 70
     1
102
RTVSPost2010Prop55
280
     0
102
RTVSPost2010PropOp55
 70
     1
102
RTVSPost2010Prop56
140
1.0
102
RTVSPost2010PropOp56
 70
     1
102
RTVSPost2010Prop57
140
1.0
102
RTVSPost2010PropOp57
 70
     1
102
RTVSPropertyOp0
 70
     1
102
RTVSPropertyOp1
 70
     1
102
RTVSPropertyOp2
 70
     1
102
RTVSPropertyOp3
 70
     1
102
RTVSPropertyOp4
 70
     1
102
RTVSPropertyOp5
 70
     1
102
RTVSPropertyOp6
 70
     1
102
RTVSPropertyOp7
 70
     1
102
RTVSPropertyOp8
 70
     1
102
RTVSPropertyOp9
 70
     1
102
RTVSPropertyOp10
 70
     1
102
RTVSPropertyOp11
 70
     1
102
RTVSPropertyOp12
 70
     1
102
RTVSPropertyOp13
 70
     1
102
RTVSPropertyOp14
 70
     1
102
RTVSPropertyOp15
 70
     1
102
RTVSPropertyOp16
 70
     1
102
RTVSPropertyOp17
 70
     1
102
RTVSPropertyOp18
 70
     1
102
RTVSPropertyOp19
 70
     1
102
RTVSPropertyOp20
 70
     1
102
RTVSPropertyOp21
 70
     1
102
RTVSPropertyOp22
 70
     1
102
RTVSPropertyOp23
 70
     1
102
RTVSPropertyOp24
 70
     1
102
RTVSPropertyOp25
 70
     1
102
RTVSPropertyOp26
 70
     1
102
RTVSPropertyOp27
 70
     1
102
RTVSPropertyOp28
 70
     1
102
RTVSPropertyOp29
 70
     1
102
RTVSPropertyOp30
 70
     1
102
RTVSPropertyOp31
 70
     1
102
RTVSPropertyOp32
 70
     1
102
RTVSPropertyOp33
 70
     1
102
RTVSPropertyOp34
 70
     1
102
RTVSPropertyOp35
 70
     1
102
RTVSPropertyOp36
 70
     1
102
RTVSPropertyOp37
 70
     1
102
RTVSPropertyOp38
 70
     1
102
RTVSPropertyOp39
 70
     1
102
RTVSPropertyOp40
 70
     1
102
RTVSPropertyOp41
 70
     1
102
RTVSPropertyOp42
 70
     1
102
RTVSPropertyOp43
 70
     1
102
RTVSPropertyOp44
 70
     1
102
RTVSPropertyOp45
 70
     1
102
RTVSPropertyOp46
 70
     1
102
RTVSPropertyOp47
 70
     1
102
RTVSPropertyOp48
 70
     1
102
RTVSPropertyOp49
 70
     1
102
RTVSPropertyOp50
 70
     1
102
RTVSPropertyOp51
 70
     0
102
RTVSPropertyOp52
 70
     0
102
RTVSPropertyOp53
 70
     1
102
RTVSPropertyOp54
 70
     1
102
RTVSPropertyOp55
 70
     1
102
RTVSPropertyOp56
 70
     1
102
RTVSPropertyOp57
 70
     1
102
RTVSPropertyOp58
 70
     1
102
RTVSPropertyOp59
 70
     1
102
RTVSPropertyOp60
 70
     1
102
RTVSPropertyOp61
 70
     1
102
RTVSPropertyOp62
 70
     1
  0
XRECORD
  5
A47C
102
{ACAD_REACTORS
330
A47B
102
}
330
A47B
100
AcDbXrecord
280
     1
102
RTVSPost2010Prop28
280
     0
102
RTVSPost2010PropOp28
 70
     1
102
RTVSPost2010Prop29
280
     1
102
RTVSPost2010PropOp29
 70
     1
102
RTVSPost2010Prop30
280
     1
102
RTVSPost2010PropOp30
 70
     1
102
RTVSPost2010Prop31
280
     0
102
RTVSPost2010PropOp31
 70
     1
102
RTVSPost2010Prop32
280
     0
102
RTVSPost2010PropOp32
 70
     1
102
RTVSPost2010Prop33
280
     0
102
RTVSPost2010PropOp33
 70
     1
102
RTVSPost2010Prop34
280
     0
102
RTVSPost2010PropOp34
 70
     1
102
RTVSPost2010Prop35
280
     0
102
RTVSPost2010PropOp35
 70
     1
102
RTVSPost2010Prop36
280
     0
102
RTVSPost2010PropOp36
 70
     1
102
RTVSPost2010Prop37
 90
       50
102
RTVSPost2010PropOp37
 70
     1
102
RTVSPost2010Prop38
140
0.0
102
RTVSPost2010PropOp38
 70
     1
102
RTVSPost2010Prop39
140
1.0
102
RTVSPost2010PropOp39
 70
     1
102
RTVSPost2010Prop40
 90
        0
102
RTVSPost2010PropOp40
 70
     1
102
RTVSPost2010Prop41ColorIndex
 90
       18
102
RTVSPost2010Prop41ColorRGB
 90
        0
102
RTVSPost2010PropOp41
 70
     1
102
RTVSPost2010Prop42
 90
       50
102
RTVSPost2010PropOp42
 70
     1
102
RTVSPost2010Prop43
 90
        3
102
RTVSPost2010PropOp43
 70
     1
102
RTVSPost2010Prop44ColorIndex
 90
        5
102
RTVSPost2010Prop44ColorRGB
 90
      255
102
RTVSPost2010PropOp44
 70
     1
102
RTVSPost2010Prop45
280
     0
102
RTVSPost2010PropOp45
 70
     1
102
RTVSPost2010Prop46
 90
       50
102
RTVSPost2010PropOp46
 70
     1
102
RTVSPost2010Prop47
 90
       50
102
RTVSPost2010PropOp47
 70
     1
102
RTVSPost2010Prop48
 90
       50
102
RTVSPost2010PropOp48
 70
     1
102
RTVSPost2010Prop49
280
     0
102
RTVSPost2010PropOp49
 70
     1
102
RTVSPost2010Prop50
 90
       50
102
RTVSPost2010PropOp50
 70
     1
102
RTVSPost2010Prop51ColorIndex
 90
      256
102
RTVSPost2010Prop51ColorRGB
 90
-16777216
102
RTVSPost2010PropOp51
 70
     0
102
RTVSPost2010Prop52
140
1.0
102
RTVSPost2010PropOp52
 70
     0
102
RTVSPost2010Prop53
 90
        2
102
RTVSPost2010PropOp53
 70
     1
102
RTVSPost2010Prop54
  1
strokes_ogs.tif
102
RTVSPost2010PropOp54
 70
     1
102
RTVSPost2010Prop55
280
     0
102
RTVSPost2010PropOp55
 70
     1
102
RTVSPost2010Prop56
140
1.0
102
RTVSPost2010PropOp56
 70
     1
102
RTVSPost2010Prop57
140
1.0
102
RTVSPost2010PropOp57
 70
     1
102
RTVSPropertyOp0
 70
     1
102
RTVSPropertyOp1
 70
     1
102
RTVSPropertyOp2
 70
     1
102
RTVSPropertyOp3
 70
     1
102
RTVSPropertyOp4
 70
     1
102
RTVSPropertyOp5
 70
     1
102
RTVSPropertyOp6
 70
     1
102
RTVSPropertyOp7
 70
     1
102
RTVSPropertyOp8
 70
     1
102
RTVSPropertyOp9
 70
     1
102
RTVSPropertyOp10
 70
     1
102
RTVSPropertyOp11
 70
     1
102
RTVSPropertyOp12
 70
     1
102
RTVSPropertyOp13
 70
     1
102
RTVSPropertyOp14
 70
     1
102
RTVSPropertyOp15
 70
     1
102
RTVSPropertyOp16
 70
     1
102
RTVSPropertyOp17
 70
     1
102
RTVSPropertyOp18
 70
     1
102
RTVSPropertyOp19
 70
     1
102
RTVSPropertyOp20
 70
     1
102
RTVSPropertyOp21
 70
     1
102
RTVSPropertyOp22
 70
     1
102
RTVSPropertyOp23
 70
     1
102
RTVSPropertyOp24
 70
     1
102
RTVSPropertyOp25
 70
     1
102
RTVSPropertyOp26
 70
     1
102
RTVSPropertyOp27
 70
     1
102
RTVSPropertyOp28
 70
     1
102
RTVSPropertyOp29
 70
     1
102
RTVSPropertyOp30
 70
     1
102
RTVSPropertyOp31
 70
     1
102
RTVSPropertyOp32
 70
     1
102
RTVSPropertyOp33
 70
     1
102
RTVSPropertyOp34
 70
     1
102
RTVSPropertyOp35
 70
     1
102
RTVSPropertyOp36
 70
     1
102
RTVSPropertyOp37
 70
     1
102
RTVSPropertyOp38
 70
     1
102
RTVSPropertyOp39
 70
     1
102
RTVSPropertyOp40
 70
     1
102
RTVSPropertyOp41
 70
     1
102
RTVSPropertyOp42
 70
     1
102
RTVSPropertyOp43
 70
     1
102
RTVSPropertyOp44
 70
     1
102
RTVSPropertyOp45
 70
     1
102
RTVSPropertyOp46
 70
     1
102
RTVSPropertyOp47
 70
     1
102
RTVSPropertyOp48
 70
     1
102
RTVSPropertyOp49
 70
     1
102
RTVSPropertyOp50
 70
     1
102
RTVSPropertyOp51
 70
     0
102
RTVSPropertyOp52
 70
     0
102
RTVSPropertyOp53
 70
     1
102
RTVSPropertyOp54
 70
     1
102
RTVSPropertyOp55
 70
     1
102
RTVSPropertyOp56
 70
     1
102
RTVSPropertyOp57
 70
     1
102
RTVSPropertyOp58
 70
     1
102
RTVSPropertyOp59
 70
     1
102
RTVSPropertyOp60
 70
     1
102
RTVSPropertyOp61
 70
     1
102
RTVSPropertyOp62
 70
     1
  0
XRECORD
  5
A496
102
{ACAD_REACTORS
330
A495
102
}
330
A495
100
AcDbXrecord
280
     1
102
RTVSPost2010Prop28
280
     0
102
RTVSPost2010PropOp28
 70
     1
102
RTVSPost2010Prop29
280
     1
102
RTVSPost2010PropOp29
 70
     1
102
RTVSPost2010Prop30
280
     1
102
RTVSPost2010PropOp30
 70
     1
102
RTVSPost2010Prop31
280
     0
102
RTVSPost2010PropOp31
 70
     1
102
RTVSPost2010Prop32
280
     0
102
RTVSPost2010PropOp32
 70
     1
102
RTVSPost2010Prop33
280
     0
102
RTVSPost2010PropOp33
 70
     1
102
RTVSPost2010Prop34
280
     0
102
RTVSPost2010PropOp34
 70
     1
102
RTVSPost2010Prop35
280
     0
102
RTVSPost2010PropOp35
 70
     1
102
RTVSPost2010Prop36
280
     0
102
RTVSPost2010PropOp36
 70
     1
102
RTVSPost2010Prop37
 90
       50
102
RTVSPost2010PropOp37
 70
     0
102
RTVSPost2010Prop38
140
0.0
102
RTVSPost2010PropOp38
 70
     0
102
RTVSPost2010Prop39
140
1.0
102
RTVSPost2010PropOp39
 70
     0
102
RTVSPost2010Prop40
 90
        0
102
RTVSPost2010PropOp40
 70
     0
102
RTVSPost2010Prop41ColorIndex
 90
       18
102
RTVSPost2010Prop41ColorRGB
 90
        0
102
RTVSPost2010PropOp41
 70
     0
102
RTVSPost2010Prop42
 90
       50
102
RTVSPost2010PropOp42
 70
     0
102
RTVSPost2010Prop43
 90
        3
102
RTVSPost2010PropOp43
 70
     0
102
RTVSPost2010Prop44ColorIndex
 90
        5
102
RTVSPost2010Prop44ColorRGB
 90
      255
102
RTVSPost2010PropOp44
 70
     0
102
RTVSPost2010Prop45
280
     0
102
RTVSPost2010PropOp45
 70
     1
102
RTVSPost2010Prop46
 90
       50
102
RTVSPost2010PropOp46
 70
     0
102
RTVSPost2010Prop47
 90
       50
102
RTVSPost2010PropOp47
 70
     0
102
RTVSPost2010Prop48
 90
       50
102
RTVSPost2010PropOp48
 70
     0
102
RTVSPost2010Prop49
280
     0
102
RTVSPost2010PropOp49
 70
     1
102
RTVSPost2010Prop50
 90
       50
102
RTVSPost2010PropOp50
 70
     0
102
RTVSPost2010Prop51ColorIndex
 90
      256
102
RTVSPost2010Prop51ColorRGB
 90
-16777216
102
RTVSPost2010PropOp51
 70
     0
102
RTVSPost2010Prop52
140
1.0
102
RTVSPost2010PropOp52
 70
     0
102
RTVSPost2010Prop53
 90
        2
102
RTVSPost2010PropOp53
 70
     0
102
RTVSPost2010Prop54
  1
strokes_ogs.tif
102
RTVSPost2010PropOp54
 70
     0
102
RTVSPost2010Prop55
280
     0
102
RTVSPost2010PropOp55
 70
     1
102
RTVSPost2010Prop56
140
1.0
102
RTVSPost2010PropOp56
 70
     0
102
RTVSPost2010Prop57
140
1.0
102
RTVSPost2010PropOp57
 70
     0
102
RTVSPropertyOp0
 70
     0
102
RTVSPropertyOp1
 70
     0
102
RTVSPropertyOp2
 70
     0
102
RTVSPropertyOp3
 70
     0
102
RTVSPropertyOp4
 70
     0
102
RTVSPropertyOp5
 70
     0
102
RTVSPropertyOp6
 70
     0
102
RTVSPropertyOp7
 70
     0
102
RTVSPropertyOp8
 70
     0
102
RTVSPropertyOp9
 70
     0
102
RTVSPropertyOp10
 70
     0
102
RTVSPropertyOp11
 70
     0
102
RTVSPropertyOp12
 70
     0
102
RTVSPropertyOp13
 70
     0
102
RTVSPropertyOp14
 70
     2
102
RTVSPropertyOp15
 70
     0
102
RTVSPropertyOp16
 70
     0
102
RTVSPropertyOp17
 70
     0
102
RTVSPropertyOp18
 70
     0
102
RTVSPropertyOp19
 70
     0
102
RTVSPropertyOp20
 70
     0
102
RTVSPropertyOp21
 70
     0
102
RTVSPropertyOp22
 70
     0
102
RTVSPropertyOp23
 70
     0
102
RTVSPropertyOp24
 70
     0
102
RTVSPropertyOp25
 70
     0
102
RTVSPropertyOp26
 70
     0
102
RTVSPropertyOp27
 70
     0
102
RTVSPropertyOp28
 70
     1
102
RTVSPropertyOp29
 70
     1
102
RTVSPropertyOp30
 70
     1
102
RTVSPropertyOp31
 70
     1
102
RTVSPropertyOp32
 70
     1
102
RTVSPropertyOp33
 70
     1
102
RTVSPropertyOp34
 70
     1
102
RTVSPropertyOp35
 70
     1
102
RTVSPropertyOp36
 70
     1
102
RTVSPropertyOp37
 70
     0
102
RTVSPropertyOp38
 70
     0
102
RTVSPropertyOp39
 70
     0
102
RTVSPropertyOp40
 70
     0
102
RTVSPropertyOp41
 70
     0
102
RTVSPropertyOp42
 70
     0
102
RTVSPropertyOp43
 70
     0
102
RTVSPropertyOp44
 70
     0
102
RTVSPropertyOp45
 70
     1
102
RTVSPropertyOp46
 70
     0
102
RTVSPropertyOp47
 70
     0
102
RTVSPropertyOp48
 70
     0
102
RTVSPropertyOp49
 70
     1
102
RTVSPropertyOp50
 70
     0
102
RTVSPropertyOp51
 70
     0
102
RTVSPropertyOp52
 70
     0
102
RTVSPropertyOp53
 70
     0
102
RTVSPropertyOp54
 70
     0
102
RTVSPropertyOp55
 70
     1
102
RTVSPropertyOp56
 70
     0
102
RTVSPropertyOp57
 70
     0
102
RTVSPropertyOp58
 70
     0
102
RTVSPropertyOp59
 70
     0
102
RTVSPropertyOp60
 70
     0
102
RTVSPropertyOp61
 70
     0
102
RTVSPropertyOp62
 70
     0
  0
XRECORD
  5
A484
102
{ACAD_REACTORS
330
A483
102
}
330
A483
100
AcDbXrecord
280
     1
102
RTVSPost2010Prop28
280
     0
102
RTVSPost2010PropOp28
 70
     1
102
RTVSPost2010Prop29
280
     1
102
RTVSPost2010PropOp29
 70
     1
102
RTVSPost2010Prop30
280
     1
102
RTVSPost2010PropOp30
 70
     1
102
RTVSPost2010Prop31
280
     0
102
RTVSPost2010PropOp31
 70
     1
102
RTVSPost2010Prop32
280
     0
102
RTVSPost2010PropOp32
 70
     1
102
RTVSPost2010Prop33
280
     0
102
RTVSPost2010PropOp33
 70
     1
102
RTVSPost2010Prop34
280
     0
102
RTVSPost2010PropOp34
 70
     1
102
RTVSPost2010Prop35
280
     0
102
RTVSPost2010PropOp35
 70
     1
102
RTVSPost2010Prop36
280
     0
102
RTVSPost2010PropOp36
 70
     1
102
RTVSPost2010Prop37
 90
       50
102
RTVSPost2010PropOp37
 70
     1
102
RTVSPost2010Prop38
140
0.0
102
RTVSPost2010PropOp38
 70
     1
102
RTVSPost2010Prop39
140
1.0
102
RTVSPost2010PropOp39
 70
     1
102
RTVSPost2010Prop40
 90
        0
102
RTVSPost2010PropOp40
 70
     1
102
RTVSPost2010Prop41ColorIndex
 90
       18
102
RTVSPost2010Prop41ColorRGB
 90
        0
102
RTVSPost2010PropOp41
 70
     1
102
RTVSPost2010Prop42
 90
       50
102
RTVSPost2010PropOp42
 70
     1
102
RTVSPost2010Prop43
 90
        3
102
RTVSPost2010PropOp43
 70
     1
102
RTVSPost2010Prop44ColorIndex
 90
        5
102
RTVSPost2010Prop44ColorRGB
 90
      255
102
RTVSPost2010PropOp44
 70
     1
102
RTVSPost2010Prop45
280
     0
102
RTVSPost2010PropOp45
 70
     1
102
RTVSPost2010Prop46
 90
       50
102
RTVSPost2010PropOp46
 70
     1
102
RTVSPost2010Prop47
 90
       50
102
RTVSPost2010PropOp47
 70
     1
102
RTVSPost2010Prop48
 90
       50
102
RTVSPost2010PropOp48
 70
     1
102
RTVSPost2010Prop49
280
     0
102
RTVSPost2010PropOp49
 70
     1
102
RTVSPost2010Prop50
 90
       50
102
RTVSPost2010PropOp50
 70
     1
102
RTVSPost2010Prop51ColorIndex
 90
      256
102
RTVSPost2010Prop51ColorRGB
 90
-16777216
102
RTVSPost2010PropOp51
 70
     0
102
RTVSPost2010Prop52
140
1.0
102
RTVSPost2010PropOp52
 70
     0
102
RTVSPost2010Prop53
 90
        2
102
RTVSPost2010PropOp53
 70
     1
102
RTVSPost2010Prop54
  1
strokes_ogs.tif
102
RTVSPost2010PropOp54
 70
     1
102
RTVSPost2010Prop55
280
     0
102
RTVSPost2010PropOp55
 70
     1
102
RTVSPost2010Prop56
140
1.0
102
RTVSPost2010PropOp56
 70
     1
102
RTVSPost2010Prop57
140
1.0
102
RTVSPost2010PropOp57
 70
     1
102
RTVSPropertyOp0
 70
     1
102
RTVSPropertyOp1
 70
     1
102
RTVSPropertyOp2
 70
     1
102
RTVSPropertyOp3
 70
     1
102
RTVSPropertyOp4
 70
     1
102
RTVSPropertyOp5
 70
     1
102
RTVSPropertyOp6
 70
     1
102
RTVSPropertyOp7
 70
     1
102
RTVSPropertyOp8
 70
     1
102
RTVSPropertyOp9
 70
     1
102
RTVSPropertyOp10
 70
     1
102
RTVSPropertyOp11
 70
     1
102
RTVSPropertyOp12
 70
     1
102
RTVSPropertyOp13
 70
     1
102
RTVSPropertyOp14
 70
     1
102
RTVSPropertyOp15
 70
     1
102
RTVSPropertyOp16
 70
     1
102
RTVSPropertyOp17
 70
     1
102
RTVSPropertyOp18
 70
     1
102
RTVSPropertyOp19
 70
     1
102
RTVSPropertyOp20
 70
     1
102
RTVSPropertyOp21
 70
     1
102
RTVSPropertyOp22
 70
     1
102
RTVSPropertyOp23
 70
     1
102
RTVSPropertyOp24
 70
     1
102
RTVSPropertyOp25
 70
     1
102
RTVSPropertyOp26
 70
     1
102
RTVSPropertyOp27
 70
     1
102
RTVSPropertyOp28
 70
     1
102
RTVSPropertyOp29
 70
     1
102
RTVSPropertyOp30
 70
     1
102
RTVSPropertyOp31
 70
     1
102
RTVSPropertyOp32
 70
     1
102
RTVSPropertyOp33
 70
     1
102
RTVSPropertyOp34
 70
     1
102
RTVSPropertyOp35
 70
     1
102
RTVSPropertyOp36
 70
     1
102
RTVSPropertyOp37
 70
     1
102
RTVSPropertyOp38
 70
     1
102
RTVSPropertyOp39
 70
     1
102
RTVSPropertyOp40
 70
     1
102
RTVSPropertyOp41
 70
     1
102
RTVSPropertyOp42
 70
     1
102
RTVSPropertyOp43
 70
     1
102
RTVSPropertyOp44
 70
     1
102
RTVSPropertyOp45
 70
     1
102
RTVSPropertyOp46
 70
     1
102
RTVSPropertyOp47
 70
     1
102
RTVSPropertyOp48
 70
     1
102
RTVSPropertyOp49
 70
     1
102
RTVSPropertyOp50
 70
     1
102
RTVSPropertyOp51
 70
     0
102
RTVSPropertyOp52
 70
     0
102
RTVSPropertyOp53
 70
     1
102
RTVSPropertyOp54
 70
     1
102
RTVSPropertyOp55
 70
     1
102
RTVSPropertyOp56
 70
     1
102
RTVSPropertyOp57
 70
     1
102
RTVSPropertyOp58
 70
     1
102
RTVSPropertyOp59
 70
     1
102
RTVSPropertyOp60
 70
     1
102
RTVSPropertyOp61
 70
     1
102
RTVSPropertyOp62
 70
     1
  0
XRECORD
  5
A468
102
{ACAD_REACTORS
330
A467
102
}
330
A467
100
AcDbXrecord
280
     1
102
RTVSPost2010Prop28
280
     0
102
RTVSPost2010PropOp28
 70
     1
102
RTVSPost2010Prop29
280
     1
102
RTVSPost2010PropOp29
 70
     1
102
RTVSPost2010Prop30
280
     1
102
RTVSPost2010PropOp30
 70
     1
102
RTVSPost2010Prop31
280
     0
102
RTVSPost2010PropOp31
 70
     1
102
RTVSPost2010Prop32
280
     0
102
RTVSPost2010PropOp32
 70
     1
102
RTVSPost2010Prop33
280
     0
102
RTVSPost2010PropOp33
 70
     1
102
RTVSPost2010Prop34
280
     0
102
RTVSPost2010PropOp34
 70
     1
102
RTVSPost2010Prop35
280
     0
102
RTVSPost2010PropOp35
 70
     1
102
RTVSPost2010Prop36
280
     0
102
RTVSPost2010PropOp36
 70
     1
102
RTVSPost2010Prop37
 90
       50
102
RTVSPost2010PropOp37
 70
     1
102
RTVSPost2010Prop38
140
0.0
102
RTVSPost2010PropOp38
 70
     1
102
RTVSPost2010Prop39
140
1.0
102
RTVSPost2010PropOp39
 70
     1
102
RTVSPost2010Prop40
 90
        0
102
RTVSPost2010PropOp40
 70
     1
102
RTVSPost2010Prop41ColorIndex
 90
       18
102
RTVSPost2010Prop41ColorRGB
 90
        0
102
RTVSPost2010PropOp41
 70
     1
102
RTVSPost2010Prop42
 90
       50
102
RTVSPost2010PropOp42
 70
     1
102
RTVSPost2010Prop43
 90
        3
102
RTVSPost2010PropOp43
 70
     1
102
RTVSPost2010Prop44ColorIndex
 90
        5
102
RTVSPost2010Prop44ColorRGB
 90
      255
102
RTVSPost2010PropOp44
 70
     1
102
RTVSPost2010Prop45
280
     0
102
RTVSPost2010PropOp45
 70
     1
102
RTVSPost2010Prop46
 90
       50
102
RTVSPost2010PropOp46
 70
     1
102
RTVSPost2010Prop47
 90
       50
102
RTVSPost2010PropOp47
 70
     1
102
RTVSPost2010Prop48
 90
       50
102
RTVSPost2010PropOp48
 70
     1
102
RTVSPost2010Prop49
280
     0
102
RTVSPost2010PropOp49
 70
     1
102
RTVSPost2010Prop50
 90
       50
102
RTVSPost2010PropOp50
 70
     1
102
RTVSPost2010Prop51ColorIndex
 90
      256
102
RTVSPost2010Prop51ColorRGB
 90
-16777216
102
RTVSPost2010PropOp51
 70
     0
102
RTVSPost2010Prop52
140
1.0
102
RTVSPost2010PropOp52
 70
     0
102
RTVSPost2010Prop53
 90
        2
102
RTVSPost2010PropOp53
 70
     1
102
RTVSPost2010Prop54
  1
strokes_ogs.tif
102
RTVSPost2010PropOp54
 70
     1
102
RTVSPost2010Prop55
280
     0
102
RTVSPost2010PropOp55
 70
     1
102
RTVSPost2010Prop56
140
1.0
102
RTVSPost2010PropOp56
 70
     1
102
RTVSPost2010Prop57
140
1.0
102
RTVSPost2010PropOp57
 70
     1
102
RTVSPropertyOp0
 70
     1
102
RTVSPropertyOp1
 70
     1
102
RTVSPropertyOp2
 70
     1
102
RTVSPropertyOp3
 70
     1
102
RTVSPropertyOp4
 70
     1
102
RTVSPropertyOp5
 70
     1
102
RTVSPropertyOp6
 70
     1
102
RTVSPropertyOp7
 70
     1
102
RTVSPropertyOp8
 70
     1
102
RTVSPropertyOp9
 70
     1
102
RTVSPropertyOp10
 70
     1
102
RTVSPropertyOp11
 70
     1
102
RTVSPropertyOp12
 70
     1
102
RTVSPropertyOp13
 70
     1
102
RTVSPropertyOp14
 70
     1
102
RTVSPropertyOp15
 70
     1
102
RTVSPropertyOp16
 70
     1
102
RTVSPropertyOp17
 70
     1
102
RTVSPropertyOp18
 70
     1
102
RTVSPropertyOp19
 70
     1
102
RTVSPropertyOp20
 70
     1
102
RTVSPropertyOp21
 70
     1
102
RTVSPropertyOp22
 70
     1
102
RTVSPropertyOp23
 70
     1
102
RTVSPropertyOp24
 70
     1
102
RTVSPropertyOp25
 70
     1
102
RTVSPropertyOp26
 70
     1
102
RTVSPropertyOp27
 70
     1
102
RTVSPropertyOp28
 70
     1
102
RTVSPropertyOp29
 70
     1
102
RTVSPropertyOp30
 70
     1
102
RTVSPropertyOp31
 70
     1
102
RTVSPropertyOp32
 70
     1
102
RTVSPropertyOp33
 70
     1
102
RTVSPropertyOp34
 70
     1
102
RTVSPropertyOp35
 70
     1
102
RTVSPropertyOp36
 70
     1
102
RTVSPropertyOp37
 70
     1
102
RTVSPropertyOp38
 70
     1
102
RTVSPropertyOp39
 70
     1
102
RTVSPropertyOp40
 70
     1
102
RTVSPropertyOp41
 70
     1
102
RTVSPropertyOp42
 70
     1
102
RTVSPropertyOp43
 70
     1
102
RTVSPropertyOp44
 70
     1
102
RTVSPropertyOp45
 70
     1
102
RTVSPropertyOp46
 70
     1
102
RTVSPropertyOp47
 70
     1
102
RTVSPropertyOp48
 70
     1
102
RTVSPropertyOp49
 70
     1
102
RTVSPropertyOp50
 70
     1
102
RTVSPropertyOp51
 70
     0
102
RTVSPropertyOp52
 70
     0
102
RTVSPropertyOp53
 70
     1
102
RTVSPropertyOp54
 70
     1
102
RTVSPropertyOp55
 70
     1
102
RTVSPropertyOp56
 70
     1
102
RTVSPropertyOp57
 70
     1
102
RTVSPropertyOp58
 70
     1
102
RTVSPropertyOp59
 70
     1
102
RTVSPropertyOp60
 70
     1
102
RTVSPropertyOp61
 70
     1
102
RTVSPropertyOp62
 70
     1
  0
XRECORD
  5
A46A
102
{ACAD_REACTORS
330
A469
102
}
330
A469
100
AcDbXrecord
280
     1
102
RTVSPost2010Prop28
280
     0
102
RTVSPost2010PropOp28
 70
     1
102
RTVSPost2010Prop29
280
     1
102
RTVSPost2010PropOp29
 70
     1
102
RTVSPost2010Prop30
280
     1
102
RTVSPost2010PropOp30
 70
     1
102
RTVSPost2010Prop31
280
     0
102
RTVSPost2010PropOp31
 70
     1
102
RTVSPost2010Prop32
280
     0
102
RTVSPost2010PropOp32
 70
     1
102
RTVSPost2010Prop33
280
     0
102
RTVSPost2010PropOp33
 70
     1
102
RTVSPost2010Prop34
280
     0
102
RTVSPost2010PropOp34
 70
     1
102
RTVSPost2010Prop35
280
     0
102
RTVSPost2010PropOp35
 70
     1
102
RTVSPost2010Prop36
280
     0
102
RTVSPost2010PropOp36
 70
     1
102
RTVSPost2010Prop37
 90
       50
102
RTVSPost2010PropOp37
 70
     1
102
RTVSPost2010Prop38
140
0.0
102
RTVSPost2010PropOp38
 70
     1
102
RTVSPost2010Prop39
140
1.0
102
RTVSPost2010PropOp39
 70
     1
102
RTVSPost2010Prop40
 90
        0
102
RTVSPost2010PropOp40
 70
     1
102
RTVSPost2010Prop41ColorIndex
 90
       18
102
RTVSPost2010Prop41ColorRGB
 90
        0
102
RTVSPost2010PropOp41
 70
     1
102
RTVSPost2010Prop42
 90
       50
102
RTVSPost2010PropOp42
 70
     1
102
RTVSPost2010Prop43
 90
        3
102
RTVSPost2010PropOp43
 70
     1
102
RTVSPost2010Prop44ColorIndex
 90
        5
102
RTVSPost2010Prop44ColorRGB
 90
      255
102
RTVSPost2010PropOp44
 70
     1
102
RTVSPost2010Prop45
280
     0
102
RTVSPost2010PropOp45
 70
     1
102
RTVSPost2010Prop46
 90
       50
102
RTVSPost2010PropOp46
 70
     1
102
RTVSPost2010Prop47
 90
       50
102
RTVSPost2010PropOp47
 70
     1
102
RTVSPost2010Prop48
 90
       50
102
RTVSPost2010PropOp48
 70
     1
102
RTVSPost2010Prop49
280
     0
102
RTVSPost2010PropOp49
 70
     1
102
RTVSPost2010Prop50
 90
       50
102
RTVSPost2010PropOp50
 70
     1
102
RTVSPost2010Prop51ColorIndex
 90
      256
102
RTVSPost2010Prop51ColorRGB
 90
-16777216
102
RTVSPost2010PropOp51
 70
     0
102
RTVSPost2010Prop52
140
1.0
102
RTVSPost2010PropOp52
 70
     0
102
RTVSPost2010Prop53
 90
        2
102
RTVSPost2010PropOp53
 70
     1
102
RTVSPost2010Prop54
  1
strokes_ogs.tif
102
RTVSPost2010PropOp54
 70
     1
102
RTVSPost2010Prop55
280
     0
102
RTVSPost2010PropOp55
 70
     1
102
RTVSPost2010Prop56
140
1.0
102
RTVSPost2010PropOp56
 70
     1
102
RTVSPost2010Prop57
140
1.0
102
RTVSPost2010PropOp57
 70
     1
102
RTVSPropertyOp0
 70
     1
102
RTVSPropertyOp1
 70
     1
102
RTVSPropertyOp2
 70
     1
102
RTVSPropertyOp3
 70
     1
102
RTVSPropertyOp4
 70
     1
102
RTVSPropertyOp5
 70
     1
102
RTVSPropertyOp6
 70
     1
102
RTVSPropertyOp7
 70
     1
102
RTVSPropertyOp8
 70
     1
102
RTVSPropertyOp9
 70
     1
102
RTVSPropertyOp10
 70
     1
102
RTVSPropertyOp11
 70
     1
102
RTVSPropertyOp12
 70
     1
102
RTVSPropertyOp13
 70
     1
102
RTVSPropertyOp14
 70
     1
102
RTVSPropertyOp15
 70
     1
102
RTVSPropertyOp16
 70
     1
102
RTVSPropertyOp17
 70
     1
102
RTVSPropertyOp18
 70
     1
102
RTVSPropertyOp19
 70
     1
102
RTVSPropertyOp20
 70
     1
102
RTVSPropertyOp21
 70
     1
102
RTVSPropertyOp22
 70
     1
102
RTVSPropertyOp23
 70
     1
102
RTVSPropertyOp24
 70
     1
102
RTVSPropertyOp25
 70
     1
102
RTVSPropertyOp26
 70
     1
102
RTVSPropertyOp27
 70
     1
102
RTVSPropertyOp28
 70
     1
102
RTVSPropertyOp29
 70
     1
102
RTVSPropertyOp30
 70
     1
102
RTVSPropertyOp31
 70
     1
102
RTVSPropertyOp32
 70
     1
102
RTVSPropertyOp33
 70
     1
102
RTVSPropertyOp34
 70
     1
102
RTVSPropertyOp35
 70
     1
102
RTVSPropertyOp36
 70
     1
102
RTVSPropertyOp37
 70
     1
102
RTVSPropertyOp38
 70
     1
102
RTVSPropertyOp39
 70
     1
102
RTVSPropertyOp40
 70
     1
102
RTVSPropertyOp41
 70
     1
102
RTVSPropertyOp42
 70
     1
102
RTVSPropertyOp43
 70
     1
102
RTVSPropertyOp44
 70
     1
102
RTVSPropertyOp45
 70
     1
102
RTVSPropertyOp46
 70
     1
102
RTVSPropertyOp47
 70
     1
102
RTVSPropertyOp48
 70
     1
102
RTVSPropertyOp49
 70
     1
102
RTVSPropertyOp50
 70
     1
102
RTVSPropertyOp51
 70
     0
102
RTVSPropertyOp52
 70
     0
102
RTVSPropertyOp53
 70
     1
102
RTVSPropertyOp54
 70
     1
102
RTVSPropertyOp55
 70
     1
102
RTVSPropertyOp56
 70
     1
102
RTVSPropertyOp57
 70
     1
102
RTVSPropertyOp58
 70
     1
102
RTVSPropertyOp59
 70
     1
102
RTVSPropertyOp60
 70
     1
102
RTVSPropertyOp61
 70
     1
102
RTVSPropertyOp62
 70
     1
  0
XRECORD
  5
A46C
102
{ACAD_REACTORS
330
A46B
102
}
330
A46B
100
AcDbXrecord
280
     1
102
RTVSPost2010Prop28
280
     0
102
RTVSPost2010PropOp28
 70
     1
102
RTVSPost2010Prop29
280
     1
102
RTVSPost2010PropOp29
 70
     1
102
RTVSPost2010Prop30
280
     1
102
RTVSPost2010PropOp30
 70
     1
102
RTVSPost2010Prop31
280
     0
102
RTVSPost2010PropOp31
 70
     1
102
RTVSPost2010Prop32
280
     0
102
RTVSPost2010PropOp32
 70
     1
102
RTVSPost2010Prop33
280
     0
102
RTVSPost2010PropOp33
 70
     1
102
RTVSPost2010Prop34
280
     0
102
RTVSPost2010PropOp34
 70
     1
102
RTVSPost2010Prop35
280
     0
102
RTVSPost2010PropOp35
 70
     1
102
RTVSPost2010Prop36
280
     0
102
RTVSPost2010PropOp36
 70
     1
102
RTVSPost2010Prop37
 90
       50
102
RTVSPost2010PropOp37
 70
     1
102
RTVSPost2010Prop38
140
0.0
102
RTVSPost2010PropOp38
 70
     1
102
RTVSPost2010Prop39
140
1.0
102
RTVSPost2010PropOp39
 70
     1
102
RTVSPost2010Prop40
 90
        0
102
RTVSPost2010PropOp40
 70
     1
102
RTVSPost2010Prop41ColorIndex
 90
       18
102
RTVSPost2010Prop41ColorRGB
 90
        0
102
RTVSPost2010PropOp41
 70
     1
102
RTVSPost2010Prop42
 90
       50
102
RTVSPost2010PropOp42
 70
     1
102
RTVSPost2010Prop43
 90
        3
102
RTVSPost2010PropOp43
 70
     1
102
RTVSPost2010Prop44ColorIndex
 90
        5
102
RTVSPost2010Prop44ColorRGB
 90
      255
102
RTVSPost2010PropOp44
 70
     1
102
RTVSPost2010Prop45
280
     0
102
RTVSPost2010PropOp45
 70
     1
102
RTVSPost2010Prop46
 90
       50
102
RTVSPost2010PropOp46
 70
     1
102
RTVSPost2010Prop47
 90
       50
102
RTVSPost2010PropOp47
 70
     1
102
RTVSPost2010Prop48
 90
       50
102
RTVSPost2010PropOp48
 70
     1
102
RTVSPost2010Prop49
280
     0
102
RTVSPost2010PropOp49
 70
     1
102
RTVSPost2010Prop50
 90
       50
102
RTVSPost2010PropOp50
 70
     1
102
RTVSPost2010Prop51ColorIndex
 90
      256
102
RTVSPost2010Prop51ColorRGB
 90
-16777216
102
RTVSPost2010PropOp51
 70
     0
102
RTVSPost2010Prop52
140
1.0
102
RTVSPost2010PropOp52
 70
     0
102
RTVSPost2010Prop53
 90
        2
102
RTVSPost2010PropOp53
 70
     1
102
RTVSPost2010Prop54
  1
strokes_ogs.tif
102
RTVSPost2010PropOp54
 70
     1
102
RTVSPost2010Prop55
280
     0
102
RTVSPost2010PropOp55
 70
     1
102
RTVSPost2010Prop56
140
1.0
102
RTVSPost2010PropOp56
 70
     1
102
RTVSPost2010Prop57
140
1.0
102
RTVSPost2010PropOp57
 70
     1
102
RTVSPropertyOp0
 70
     1
102
RTVSPropertyOp1
 70
     1
102
RTVSPropertyOp2
 70
     1
102
RTVSPropertyOp3
 70
     1
102
RTVSPropertyOp4
 70
     1
102
RTVSPropertyOp5
 70
     1
102
RTVSPropertyOp6
 70
     1
102
RTVSPropertyOp7
 70
     1
102
RTVSPropertyOp8
 70
     1
102
RTVSPropertyOp9
 70
     1
102
RTVSPropertyOp10
 70
     1
102
RTVSPropertyOp11
 70
     1
102
RTVSPropertyOp12
 70
     1
102
RTVSPropertyOp13
 70
     1
102
RTVSPropertyOp14
 70
     1
102
RTVSPropertyOp15
 70
     1
102
RTVSPropertyOp16
 70
     1
102
RTVSPropertyOp17
 70
     1
102
RTVSPropertyOp18
 70
     1
102
RTVSPropertyOp19
 70
     1
102
RTVSPropertyOp20
 70
     1
102
RTVSPropertyOp21
 70
     1
102
RTVSPropertyOp22
 70
     1
102
RTVSPropertyOp23
 70
     1
102
RTVSPropertyOp24
 70
     1
102
RTVSPropertyOp25
 70
     1
102
RTVSPropertyOp26
 70
     1
102
RTVSPropertyOp27
 70
     1
102
RTVSPropertyOp28
 70
     1
102
RTVSPropertyOp29
 70
     1
102
RTVSPropertyOp30
 70
     1
102
RTVSPropertyOp31
 70
     1
102
RTVSPropertyOp32
 70
     1
102
RTVSPropertyOp33
 70
     1
102
RTVSPropertyOp34
 70
     1
102
RTVSPropertyOp35
 70
     1
102
RTVSPropertyOp36
 70
     1
102
RTVSPropertyOp37
 70
     1
102
RTVSPropertyOp38
 70
     1
102
RTVSPropertyOp39
 70
     1
102
RTVSPropertyOp40
 70
     1
102
RTVSPropertyOp41
 70
     1
102
RTVSPropertyOp42
 70
     1
102
RTVSPropertyOp43
 70
     1
102
RTVSPropertyOp44
 70
     1
102
RTVSPropertyOp45
 70
     1
102
RTVSPropertyOp46
 70
     1
102
RTVSPropertyOp47
 70
     1
102
RTVSPropertyOp48
 70
     1
102
RTVSPropertyOp49
 70
     1
102
RTVSPropertyOp50
 70
     1
102
RTVSPropertyOp51
 70
     0
102
RTVSPropertyOp52
 70
     0
102
RTVSPropertyOp53
 70
     1
102
RTVSPropertyOp54
 70
     1
102
RTVSPropertyOp55
 70
     1
102
RTVSPropertyOp56
 70
     1
102
RTVSPropertyOp57
 70
     1
102
RTVSPropertyOp58
 70
     1
102
RTVSPropertyOp59
 70
     1
102
RTVSPropertyOp60
 70
     1
102
RTVSPropertyOp61
 70
     1
102
RTVSPropertyOp62
 70
     1
  0
XRECORD
  5
A46E
102
{ACAD_REACTORS
330
A46D
102
}
330
A46D
100
AcDbXrecord
280
     1
102
RTVSPost2010Prop28
280
     0
102
RTVSPost2010PropOp28
 70
     1
102
RTVSPost2010Prop29
280
     1
102
RTVSPost2010PropOp29
 70
     1
102
RTVSPost2010Prop30
280
     1
102
RTVSPost2010PropOp30
 70
     1
102
RTVSPost2010Prop31
280
     0
102
RTVSPost2010PropOp31
 70
     1
102
RTVSPost2010Prop32
280
     0
102
RTVSPost2010PropOp32
 70
     1
102
RTVSPost2010Prop33
280
     0
102
RTVSPost2010PropOp33
 70
     1
102
RTVSPost2010Prop34
280
     0
102
RTVSPost2010PropOp34
 70
     1
102
RTVSPost2010Prop35
280
     0
102
RTVSPost2010PropOp35
 70
     1
102
RTVSPost2010Prop36
280
     0
102
RTVSPost2010PropOp36
 70
     1
102
RTVSPost2010Prop37
 90
       50
102
RTVSPost2010PropOp37
 70
     1
102
RTVSPost2010Prop38
140
0.0
102
RTVSPost2010PropOp38
 70
     1
102
RTVSPost2010Prop39
140
1.0
102
RTVSPost2010PropOp39
 70
     1
102
RTVSPost2010Prop40
 90
        0
102
RTVSPost2010PropOp40
 70
     1
102
RTVSPost2010Prop41ColorIndex
 90
       18
102
RTVSPost2010Prop41ColorRGB
 90
        0
102
RTVSPost2010PropOp41
 70
     1
102
RTVSPost2010Prop42
 90
       50
102
RTVSPost2010PropOp42
 70
     1
102
RTVSPost2010Prop43
 90
        3
102
RTVSPost2010PropOp43
 70
     1
102
RTVSPost2010Prop44ColorIndex
 90
        5
102
RTVSPost2010Prop44ColorRGB
 90
      255
102
RTVSPost2010PropOp44
 70
     1
102
RTVSPost2010Prop45
280
     0
102
RTVSPost2010PropOp45
 70
     1
102
RTVSPost2010Prop46
 90
       50
102
RTVSPost2010PropOp46
 70
     1
102
RTVSPost2010Prop47
 90
       50
102
RTVSPost2010PropOp47
 70
     1
102
RTVSPost2010Prop48
 90
       50
102
RTVSPost2010PropOp48
 70
     1
102
RTVSPost2010Prop49
280
     0
102
RTVSPost2010PropOp49
 70
     1
102
RTVSPost2010Prop50
 90
       50
102
RTVSPost2010PropOp50
 70
     1
102
RTVSPost2010Prop51ColorIndex
 90
      256
102
RTVSPost2010Prop51ColorRGB
 90
-16777216
102
RTVSPost2010PropOp51
 70
     0
102
RTVSPost2010Prop52
140
1.0
102
RTVSPost2010PropOp52
 70
     0
102
RTVSPost2010Prop53
 90
        2
102
RTVSPost2010PropOp53
 70
     1
102
RTVSPost2010Prop54
  1
strokes_ogs.tif
102
RTVSPost2010PropOp54
 70
     1
102
RTVSPost2010Prop55
280
     0
102
RTVSPost2010PropOp55
 70
     1
102
RTVSPost2010Prop56
140
1.0
102
RTVSPost2010PropOp56
 70
     1
102
RTVSPost2010Prop57
140
1.0
102
RTVSPost2010PropOp57
 70
     1
102
RTVSPropertyOp0
 70
     1
102
RTVSPropertyOp1
 70
     1
102
RTVSPropertyOp2
 70
     1
102
RTVSPropertyOp3
 70
     1
102
RTVSPropertyOp4
 70
     1
102
RTVSPropertyOp5
 70
     1
102
RTVSPropertyOp6
 70
     1
102
RTVSPropertyOp7
 70
     1
102
RTVSPropertyOp8
 70
     1
102
RTVSPropertyOp9
 70
     1
102
RTVSPropertyOp10
 70
     1
102
RTVSPropertyOp11
 70
     1
102
RTVSPropertyOp12
 70
     1
102
RTVSPropertyOp13
 70
     1
102
RTVSPropertyOp14
 70
     1
102
RTVSPropertyOp15
 70
     1
102
RTVSPropertyOp16
 70
     1
102
RTVSPropertyOp17
 70
     1
102
RTVSPropertyOp18
 70
     1
102
RTVSPropertyOp19
 70
     1
102
RTVSPropertyOp20
 70
     1
102
RTVSPropertyOp21
 70
     1
102
RTVSPropertyOp22
 70
     1
102
RTVSPropertyOp23
 70
     1
102
RTVSPropertyOp24
 70
     1
102
RTVSPropertyOp25
 70
     1
102
RTVSPropertyOp26
 70
     1
102
RTVSPropertyOp27
 70
     1
102
RTVSPropertyOp28
 70
     1
102
RTVSPropertyOp29
 70
     1
102
RTVSPropertyOp30
 70
     1
102
RTVSPropertyOp31
 70
     1
102
RTVSPropertyOp32
 70
     1
102
RTVSPropertyOp33
 70
     1
102
RTVSPropertyOp34
 70
     1
102
RTVSPropertyOp35
 70
     1
102
RTVSPropertyOp36
 70
     1
102
RTVSPropertyOp37
 70
     1
102
RTVSPropertyOp38
 70
     1
102
RTVSPropertyOp39
 70
     1
102
RTVSPropertyOp40
 70
     1
102
RTVSPropertyOp41
 70
     1
102
RTVSPropertyOp42
 70
     1
102
RTVSPropertyOp43
 70
     1
102
RTVSPropertyOp44
 70
     1
102
RTVSPropertyOp45
 70
     1
102
RTVSPropertyOp46
 70
     1
102
RTVSPropertyOp47
 70
     1
102
RTVSPropertyOp48
 70
     1
102
RTVSPropertyOp49
 70
     1
102
RTVSPropertyOp50
 70
     1
102
RTVSPropertyOp51
 70
     0
102
RTVSPropertyOp52
 70
     0
102
RTVSPropertyOp53
 70
     1
102
RTVSPropertyOp54
 70
     1
102
RTVSPropertyOp55
 70
     1
102
RTVSPropertyOp56
 70
     1
102
RTVSPropertyOp57
 70
     1
102
RTVSPropertyOp58
 70
     1
102
RTVSPropertyOp59
 70
     1
102
RTVSPropertyOp60
 70
     1
102
RTVSPropertyOp61
 70
     1
102
RTVSPropertyOp62
 70
     1
  0
XRECORD
  5
A476
102
{ACAD_REACTORS
330
A475
102
}
330
A475
100
AcDbXrecord
280
     1
102
RTVSPost2010Prop28
280
     0
102
RTVSPost2010PropOp28
 70
     1
102
RTVSPost2010Prop29
280
     1
102
RTVSPost2010PropOp29
 70
     1
102
RTVSPost2010Prop30
280
     1
102
RTVSPost2010PropOp30
 70
     1
102
RTVSPost2010Prop31
280
     0
102
RTVSPost2010PropOp31
 70
     1
102
RTVSPost2010Prop32
280
     0
102
RTVSPost2010PropOp32
 70
     1
102
RTVSPost2010Prop33
280
     0
102
RTVSPost2010PropOp33
 70
     1
102
RTVSPost2010Prop34
280
     0
102
RTVSPost2010PropOp34
 70
     1
102
RTVSPost2010Prop35
280
     0
102
RTVSPost2010PropOp35
 70
     1
102
RTVSPost2010Prop36
280
     0
102
RTVSPost2010PropOp36
 70
     1
102
RTVSPost2010Prop37
 90
       50
102
RTVSPost2010PropOp37
 70
     1
102
RTVSPost2010Prop38
140
0.0
102
RTVSPost2010PropOp38
 70
     1
102
RTVSPost2010Prop39
140
1.0
102
RTVSPost2010PropOp39
 70
     1
102
RTVSPost2010Prop40
 90
        0
102
RTVSPost2010PropOp40
 70
     1
102
RTVSPost2010Prop41ColorIndex
 90
       18
102
RTVSPost2010Prop41ColorRGB
 90
        0
102
RTVSPost2010PropOp41
 70
     1
102
RTVSPost2010Prop42
 90
       50
102
RTVSPost2010PropOp42
 70
     1
102
RTVSPost2010Prop43
 90
        3
102
RTVSPost2010PropOp43
 70
     1
102
RTVSPost2010Prop44ColorIndex
 90
        5
102
RTVSPost2010Prop44ColorRGB
 90
      255
102
RTVSPost2010PropOp44
 70
     1
102
RTVSPost2010Prop45
280
     0
102
RTVSPost2010PropOp45
 70
     1
102
RTVSPost2010Prop46
 90
       50
102
RTVSPost2010PropOp46
 70
     1
102
RTVSPost2010Prop47
 90
       50
102
RTVSPost2010PropOp47
 70
     1
102
RTVSPost2010Prop48
 90
       50
102
RTVSPost2010PropOp48
 70
     1
102
RTVSPost2010Prop49
280
     0
102
RTVSPost2010PropOp49
 70
     1
102
RTVSPost2010Prop50
 90
       50
102
RTVSPost2010PropOp50
 70
     1
102
RTVSPost2010Prop51ColorIndex
 90
      256
102
RTVSPost2010Prop51ColorRGB
 90
-16777216
102
RTVSPost2010PropOp51
 70
     0
102
RTVSPost2010Prop52
140
1.0
102
RTVSPost2010PropOp52
 70
     0
102
RTVSPost2010Prop53
 90
        2
102
RTVSPost2010PropOp53
 70
     1
102
RTVSPost2010Prop54
  1
strokes_ogs.tif
102
RTVSPost2010PropOp54
 70
     1
102
RTVSPost2010Prop55
280
     0
102
RTVSPost2010PropOp55
 70
     1
102
RTVSPost2010Prop56
140
1.0
102
RTVSPost2010PropOp56
 70
     1
102
RTVSPost2010Prop57
140
1.0
102
RTVSPost2010PropOp57
 70
     1
102
RTVSPropertyOp0
 70
     1
102
RTVSPropertyOp1
 70
     1
102
RTVSPropertyOp2
 70
     1
102
RTVSPropertyOp3
 70
     1
102
RTVSPropertyOp4
 70
     1
102
RTVSPropertyOp5
 70
     1
102
RTVSPropertyOp6
 70
     1
102
RTVSPropertyOp7
 70
     1
102
RTVSPropertyOp8
 70
     1
102
RTVSPropertyOp9
 70
     1
102
RTVSPropertyOp10
 70
     1
102
RTVSPropertyOp11
 70
     1
102
RTVSPropertyOp12
 70
     1
102
RTVSPropertyOp13
 70
     1
102
RTVSPropertyOp14
 70
     1
102
RTVSPropertyOp15
 70
     1
102
RTVSPropertyOp16
 70
     1
102
RTVSPropertyOp17
 70
     1
102
RTVSPropertyOp18
 70
     1
102
RTVSPropertyOp19
 70
     1
102
RTVSPropertyOp20
 70
     1
102
RTVSPropertyOp21
 70
     1
102
RTVSPropertyOp22
 70
     1
102
RTVSPropertyOp23
 70
     1
102
RTVSPropertyOp24
 70
     1
102
RTVSPropertyOp25
 70
     1
102
RTVSPropertyOp26
 70
     1
102
RTVSPropertyOp27
 70
     1
102
RTVSPropertyOp28
 70
     1
102
RTVSPropertyOp29
 70
     1
102
RTVSPropertyOp30
 70
     1
102
RTVSPropertyOp31
 70
     1
102
RTVSPropertyOp32
 70
     1
102
RTVSPropertyOp33
 70
     1
102
RTVSPropertyOp34
 70
     1
102
RTVSPropertyOp35
 70
     1
102
RTVSPropertyOp36
 70
     1
102
RTVSPropertyOp37
 70
     1
102
RTVSPropertyOp38
 70
     1
102
RTVSPropertyOp39
 70
     1
102
RTVSPropertyOp40
 70
     1
102
RTVSPropertyOp41
 70
     1
102
RTVSPropertyOp42
 70
     1
102
RTVSPropertyOp43
 70
     1
102
RTVSPropertyOp44
 70
     1
102
RTVSPropertyOp45
 70
     1
102
RTVSPropertyOp46
 70
     1
102
RTVSPropertyOp47
 70
     1
102
RTVSPropertyOp48
 70
     1
102
RTVSPropertyOp49
 70
     1
102
RTVSPropertyOp50
 70
     1
102
RTVSPropertyOp51
 70
     0
102
RTVSPropertyOp52
 70
     0
102
RTVSPropertyOp53
 70
     1
102
RTVSPropertyOp54
 70
     1
102
RTVSPropertyOp55
 70
     1
102
RTVSPropertyOp56
 70
     1
102
RTVSPropertyOp57
 70
     1
102
RTVSPropertyOp58
 70
     1
102
RTVSPropertyOp59
 70
     1
102
RTVSPropertyOp60
 70
     1
102
RTVSPropertyOp61
 70
     1
102
RTVSPropertyOp62
 70
     1
  0
XRECORD
  5
A492
102
{ACAD_REACTORS
330
A491
102
}
330
A491
100
AcDbXrecord
280
     1
102
RTVSPost2010Prop28
280
     0
102
RTVSPost2010PropOp28
 70
     1
102
RTVSPost2010Prop29
280
     1
102
RTVSPost2010PropOp29
 70
     1
102
RTVSPost2010Prop30
280
     1
102
RTVSPost2010PropOp30
 70
     1
102
RTVSPost2010Prop31
280
     0
102
RTVSPost2010PropOp31
 70
     1
102
RTVSPost2010Prop32
280
     0
102
RTVSPost2010PropOp32
 70
     1
102
RTVSPost2010Prop33
280
     0
102
RTVSPost2010PropOp33
 70
     1
102
RTVSPost2010Prop34
280
     0
102
RTVSPost2010PropOp34
 70
     1
102
RTVSPost2010Prop35
280
     0
102
RTVSPost2010PropOp35
 70
     1
102
RTVSPost2010Prop36
280
     0
102
RTVSPost2010PropOp36
 70
     1
102
RTVSPost2010Prop37
 90
       50
102
RTVSPost2010PropOp37
 70
     0
102
RTVSPost2010Prop38
140
0.0
102
RTVSPost2010PropOp38
 70
     0
102
RTVSPost2010Prop39
140
1.0
102
RTVSPost2010PropOp39
 70
     0
102
RTVSPost2010Prop40
 90
        0
102
RTVSPost2010PropOp40
 70
     0
102
RTVSPost2010Prop41ColorIndex
 90
       18
102
RTVSPost2010Prop41ColorRGB
 90
        0
102
RTVSPost2010PropOp41
 70
     0
102
RTVSPost2010Prop42
 90
       50
102
RTVSPost2010PropOp42
 70
     0
102
RTVSPost2010Prop43
 90
        3
102
RTVSPost2010PropOp43
 70
     0
102
RTVSPost2010Prop44ColorIndex
 90
        5
102
RTVSPost2010Prop44ColorRGB
 90
      255
102
RTVSPost2010PropOp44
 70
     0
102
RTVSPost2010Prop45
280
     0
102
RTVSPost2010PropOp45
 70
     1
102
RTVSPost2010Prop46
 90
       50
102
RTVSPost2010PropOp46
 70
     0
102
RTVSPost2010Prop47
 90
       50
102
RTVSPost2010PropOp47
 70
     0
102
RTVSPost2010Prop48
 90
       50
102
RTVSPost2010PropOp48
 70
     0
102
RTVSPost2010Prop49
280
     0
102
RTVSPost2010PropOp49
 70
     1
102
RTVSPost2010Prop50
 90
       50
102
RTVSPost2010PropOp50
 70
     0
102
RTVSPost2010Prop51ColorIndex
 90
      256
102
RTVSPost2010Prop51ColorRGB
 90
-16777216
102
RTVSPost2010PropOp51
 70
     0
102
RTVSPost2010Prop52
140
1.0
102
RTVSPost2010PropOp52
 70
     0
102
RTVSPost2010Prop53
 90
        2
102
RTVSPost2010PropOp53
 70
     0
102
RTVSPost2010Prop54
  1
strokes_ogs.tif
102
RTVSPost2010PropOp54
 70
     0
102
RTVSPost2010Prop55
280
     0
102
RTVSPost2010PropOp55
 70
     1
102
RTVSPost2010Prop56
140
1.0
102
RTVSPost2010PropOp56
 70
     0
102
RTVSPost2010Prop57
140
1.0
102
RTVSPost2010PropOp57
 70
     0
102
RTVSPropertyOp0
 70
     0
102
RTVSPropertyOp1
 70
     0
102
RTVSPropertyOp2
 70
     0
102
RTVSPropertyOp3
 70
     0
102
RTVSPropertyOp4
 70
     0
102
RTVSPropertyOp5
 70
     0
102
RTVSPropertyOp6
 70
     0
102
RTVSPropertyOp7
 70
     0
102
RTVSPropertyOp8
 70
     0
102
RTVSPropertyOp9
 70
     0
102
RTVSPropertyOp10
 70
     0
102
RTVSPropertyOp11
 70
     0
102
RTVSPropertyOp12
 70
     0
102
RTVSPropertyOp13
 70
     0
102
RTVSPropertyOp14
 70
     2
102
RTVSPropertyOp15
 70
     0
102
RTVSPropertyOp16
 70
     0
102
RTVSPropertyOp17
 70
     0
102
RTVSPropertyOp18
 70
     0
102
RTVSPropertyOp19
 70
     0
102
RTVSPropertyOp20
 70
     0
102
RTVSPropertyOp21
 70
     0
102
RTVSPropertyOp22
 70
     0
102
RTVSPropertyOp23
 70
     0
102
RTVSPropertyOp24
 70
     0
102
RTVSPropertyOp25
 70
     0
102
RTVSPropertyOp26
 70
     0
102
RTVSPropertyOp27
 70
     0
102
RTVSPropertyOp28
 70
     1
102
RTVSPropertyOp29
 70
     1
102
RTVSPropertyOp30
 70
     1
102
RTVSPropertyOp31
 70
     1
102
RTVSPropertyOp32
 70
     1
102
RTVSPropertyOp33
 70
     1
102
RTVSPropertyOp34
 70
     1
102
RTVSPropertyOp35
 70
     1
102
RTVSPropertyOp36
 70
     1
102
RTVSPropertyOp37
 70
     0
102
RTVSPropertyOp38
 70
     0
102
RTVSPropertyOp39
 70
     0
102
RTVSPropertyOp40
 70
     0
102
RTVSPropertyOp41
 70
     0
102
RTVSPropertyOp42
 70
     0
102
RTVSPropertyOp43
 70
     0
102
RTVSPropertyOp44
 70
     0
102
RTVSPropertyOp45
 70
     1
102
RTVSPropertyOp46
 70
     0
102
RTVSPropertyOp47
 70
     0
102
RTVSPropertyOp48
 70
     0
102
RTVSPropertyOp49
 70
     1
102
RTVSPropertyOp50
 70
     0
102
RTVSPropertyOp51
 70
     0
102
RTVSPropertyOp52
 70
     0
102
RTVSPropertyOp53
 70
     0
102
RTVSPropertyOp54
 70
     0
102
RTVSPropertyOp55
 70
     1
102
RTVSPropertyOp56
 70
     0
102
RTVSPropertyOp57
 70
     0
102
RTVSPropertyOp58
 70
     0
102
RTVSPropertyOp59
 70
     0
102
RTVSPropertyOp60
 70
     0
102
RTVSPropertyOp61
 70
     0
102
RTVSPropertyOp62
 70
     0
  0
XRECORD
  5
A482
102
{ACAD_REACTORS
330
A481
102
}
330
A481
100
AcDbXrecord
280
     1
102
RTVSPost2010Prop28
280
     0
102
RTVSPost2010PropOp28
 70
     1
102
RTVSPost2010Prop29
280
     1
102
RTVSPost2010PropOp29
 70
     1
102
RTVSPost2010Prop30
280
     1
102
RTVSPost2010PropOp30
 70
     1
102
RTVSPost2010Prop31
280
     0
102
RTVSPost2010PropOp31
 70
     1
102
RTVSPost2010Prop32
280
     0
102
RTVSPost2010PropOp32
 70
     1
102
RTVSPost2010Prop33
280
     0
102
RTVSPost2010PropOp33
 70
     1
102
RTVSPost2010Prop34
280
     0
102
RTVSPost2010PropOp34
 70
     1
102
RTVSPost2010Prop35
280
     0
102
RTVSPost2010PropOp35
 70
     1
102
RTVSPost2010Prop36
280
     0
102
RTVSPost2010PropOp36
 70
     1
102
RTVSPost2010Prop37
 90
       50
102
RTVSPost2010PropOp37
 70
     1
102
RTVSPost2010Prop38
140
0.0
102
RTVSPost2010PropOp38
 70
     1
102
RTVSPost2010Prop39
140
1.0
102
RTVSPost2010PropOp39
 70
     1
102
RTVSPost2010Prop40
 90
        0
102
RTVSPost2010PropOp40
 70
     1
102
RTVSPost2010Prop41ColorIndex
 90
       18
102
RTVSPost2010Prop41ColorRGB
 90
        0
102
RTVSPost2010PropOp41
 70
     1
102
RTVSPost2010Prop42
 90
       50
102
RTVSPost2010PropOp42
 70
     1
102
RTVSPost2010Prop43
 90
        3
102
RTVSPost2010PropOp43
 70
     1
102
RTVSPost2010Prop44ColorIndex
 90
        5
102
RTVSPost2010Prop44ColorRGB
 90
      255
102
RTVSPost2010PropOp44
 70
     1
102
RTVSPost2010Prop45
280
     0
102
RTVSPost2010PropOp45
 70
     1
102
RTVSPost2010Prop46
 90
       50
102
RTVSPost2010PropOp46
 70
     1
102
RTVSPost2010Prop47
 90
       50
102
RTVSPost2010PropOp47
 70
     1
102
RTVSPost2010Prop48
 90
       50
102
RTVSPost2010PropOp48
 70
     1
102
RTVSPost2010Prop49
280
     0
102
RTVSPost2010PropOp49
 70
     1
102
RTVSPost2010Prop50
 90
       50
102
RTVSPost2010PropOp50
 70
     1
102
RTVSPost2010Prop51ColorIndex
 90
      256
102
RTVSPost2010Prop51ColorRGB
 90
-16777216
102
RTVSPost2010PropOp51
 70
     0
102
RTVSPost2010Prop52
140
1.0
102
RTVSPost2010PropOp52
 70
     0
102
RTVSPost2010Prop53
 90
        2
102
RTVSPost2010PropOp53
 70
     1
102
RTVSPost2010Prop54
  1
strokes_ogs.tif
102
RTVSPost2010PropOp54
 70
     1
102
RTVSPost2010Prop55
280
     0
102
RTVSPost2010PropOp55
 70
     1
102
RTVSPost2010Prop56
140
1.0
102
RTVSPost2010PropOp56
 70
     1
102
RTVSPost2010Prop57
140
1.0
102
RTVSPost2010PropOp57
 70
     1
102
RTVSPropertyOp0
 70
     1
102
RTVSPropertyOp1
 70
     1
102
RTVSPropertyOp2
 70
     1
102
RTVSPropertyOp3
 70
     1
102
RTVSPropertyOp4
 70
     1
102
RTVSPropertyOp5
 70
     1
102
RTVSPropertyOp6
 70
     1
102
RTVSPropertyOp7
 70
     1
102
RTVSPropertyOp8
 70
     1
102
RTVSPropertyOp9
 70
     1
102
RTVSPropertyOp10
 70
     1
102
RTVSPropertyOp11
 70
     1
102
RTVSPropertyOp12
 70
     1
102
RTVSPropertyOp13
 70
     1
102
RTVSPropertyOp14
 70
     1
102
RTVSPropertyOp15
 70
     1
102
RTVSPropertyOp16
 70
     1
102
RTVSPropertyOp17
 70
     1
102
RTVSPropertyOp18
 70
     1
102
RTVSPropertyOp19
 70
     1
102
RTVSPropertyOp20
 70
     1
102
RTVSPropertyOp21
 70
     1
102
RTVSPropertyOp22
 70
     1
102
RTVSPropertyOp23
 70
     1
102
RTVSPropertyOp24
 70
     1
102
RTVSPropertyOp25
 70
     1
102
RTVSPropertyOp26
 70
     1
102
RTVSPropertyOp27
 70
     1
102
RTVSPropertyOp28
 70
     1
102
RTVSPropertyOp29
 70
     1
102
RTVSPropertyOp30
 70
     1
102
RTVSPropertyOp31
 70
     1
102
RTVSPropertyOp32
 70
     1
102
RTVSPropertyOp33
 70
     1
102
RTVSPropertyOp34
 70
     1
102
RTVSPropertyOp35
 70
     1
102
RTVSPropertyOp36
 70
     1
102
RTVSPropertyOp37
 70
     1
102
RTVSPropertyOp38
 70
     1
102
RTVSPropertyOp39
 70
     1
102
RTVSPropertyOp40
 70
     1
102
RTVSPropertyOp41
 70
     1
102
RTVSPropertyOp42
 70
     1
102
RTVSPropertyOp43
 70
     1
102
RTVSPropertyOp44
 70
     1
102
RTVSPropertyOp45
 70
     1
102
RTVSPropertyOp46
 70
     1
102
RTVSPropertyOp47
 70
     1
102
RTVSPropertyOp48
 70
     1
102
RTVSPropertyOp49
 70
     1
102
RTVSPropertyOp50
 70
     1
102
RTVSPropertyOp51
 70
     0
102
RTVSPropertyOp52
 70
     0
102
RTVSPropertyOp53
 70
     1
102
RTVSPropertyOp54
 70
     1
102
RTVSPropertyOp55
 70
     1
102
RTVSPropertyOp56
 70
     1
102
RTVSPropertyOp57
 70
     1
102
RTVSPropertyOp58
 70
     1
102
RTVSPropertyOp59
 70
     1
102
RTVSPropertyOp60
 70
     1
102
RTVSPropertyOp61
 70
     1
102
RTVSPropertyOp62
 70
     1
  0
XRECORD
  5
A494
102
{ACAD_REACTORS
330
A493
102
}
330
A493
100
AcDbXrecord
280
     1
102
RTVSPost2010Prop28
280
     0
102
RTVSPost2010PropOp28
 70
     1
102
RTVSPost2010Prop29
280
     1
102
RTVSPost2010PropOp29
 70
     1
102
RTVSPost2010Prop30
280
     1
102
RTVSPost2010PropOp30
 70
     1
102
RTVSPost2010Prop31
280
     0
102
RTVSPost2010PropOp31
 70
     1
102
RTVSPost2010Prop32
280
     0
102
RTVSPost2010PropOp32
 70
     1
102
RTVSPost2010Prop33
280
     0
102
RTVSPost2010PropOp33
 70
     1
102
RTVSPost2010Prop34
280
     0
102
RTVSPost2010PropOp34
 70
     1
102
RTVSPost2010Prop35
280
     0
102
RTVSPost2010PropOp35
 70
     1
102
RTVSPost2010Prop36
280
     0
102
RTVSPost2010PropOp36
 70
     1
102
RTVSPost2010Prop37
 90
       50
102
RTVSPost2010PropOp37
 70
     0
102
RTVSPost2010Prop38
140
0.0
102
RTVSPost2010PropOp38
 70
     0
102
RTVSPost2010Prop39
140
1.0
102
RTVSPost2010PropOp39
 70
     0
102
RTVSPost2010Prop40
 90
        0
102
RTVSPost2010PropOp40
 70
     0
102
RTVSPost2010Prop41ColorIndex
 90
       18
102
RTVSPost2010Prop41ColorRGB
 90
        0
102
RTVSPost2010PropOp41
 70
     0
102
RTVSPost2010Prop42
 90
       50
102
RTVSPost2010PropOp42
 70
     0
102
RTVSPost2010Prop43
 90
        3
102
RTVSPost2010PropOp43
 70
     0
102
RTVSPost2010Prop44ColorIndex
 90
        5
102
RTVSPost2010Prop44ColorRGB
 90
      255
102
RTVSPost2010PropOp44
 70
     0
102
RTVSPost2010Prop45
280
     0
102
RTVSPost2010PropOp45
 70
     1
102
RTVSPost2010Prop46
 90
       50
102
RTVSPost2010PropOp46
 70
     0
102
RTVSPost2010Prop47
 90
       50
102
RTVSPost2010PropOp47
 70
     0
102
RTVSPost2010Prop48
 90
       50
102
RTVSPost2010PropOp48
 70
     0
102
RTVSPost2010Prop49
280
     0
102
RTVSPost2010PropOp49
 70
     1
102
RTVSPost2010Prop50
 90
       50
102
RTVSPost2010PropOp50
 70
     0
102
RTVSPost2010Prop51ColorIndex
 90
      256
102
RTVSPost2010Prop51ColorRGB
 90
-16777216
102
RTVSPost2010PropOp51
 70
     0
102
RTVSPost2010Prop52
140
1.0
102
RTVSPost2010PropOp52
 70
     0
102
RTVSPost2010Prop53
 90
        2
102
RTVSPost2010PropOp53
 70
     0
102
RTVSPost2010Prop54
  1
strokes_ogs.tif
102
RTVSPost2010PropOp54
 70
     0
102
RTVSPost2010Prop55
280
     0
102
RTVSPost2010PropOp55
 70
     1
102
RTVSPost2010Prop56
140
1.0
102
RTVSPost2010PropOp56
 70
     0
102
RTVSPost2010Prop57
140
1.0
102
RTVSPost2010PropOp57
 70
     0
102
RTVSPropertyOp0
 70
     0
102
RTVSPropertyOp1
 70
     0
102
RTVSPropertyOp2
 70
     0
102
RTVSPropertyOp3
 70
     0
102
RTVSPropertyOp4
 70
     0
102
RTVSPropertyOp5
 70
     0
102
RTVSPropertyOp6
 70
     0
102
RTVSPropertyOp7
 70
     0
102
RTVSPropertyOp8
 70
     0
102
RTVSPropertyOp9
 70
     0
102
RTVSPropertyOp10
 70
     0
102
RTVSPropertyOp11
 70
     0
102
RTVSPropertyOp12
 70
     0
102
RTVSPropertyOp13
 70
     0
102
RTVSPropertyOp14
 70
     2
102
RTVSPropertyOp15
 70
     0
102
RTVSPropertyOp16
 70
     0
102
RTVSPropertyOp17
 70
     0
102
RTVSPropertyOp18
 70
     0
102
RTVSPropertyOp19
 70
     0
102
RTVSPropertyOp20
 70
     0
102
RTVSPropertyOp21
 70
     0
102
RTVSPropertyOp22
 70
     0
102
RTVSPropertyOp23
 70
     0
102
RTVSPropertyOp24
 70
     0
102
RTVSPropertyOp25
 70
     0
102
RTVSPropertyOp26
 70
     0
102
RTVSPropertyOp27
 70
     0
102
RTVSPropertyOp28
 70
     1
102
RTVSPropertyOp29
 70
     1
102
RTVSPropertyOp30
 70
     1
102
RTVSPropertyOp31
 70
     1
102
RTVSPropertyOp32
 70
     1
102
RTVSPropertyOp33
 70
     1
102
RTVSPropertyOp34
 70
     1
102
RTVSPropertyOp35
 70
     1
102
RTVSPropertyOp36
 70
     1
102
RTVSPropertyOp37
 70
     0
102
RTVSPropertyOp38
 70
     0
102
RTVSPropertyOp39
 70
     0
102
RTVSPropertyOp40
 70
     0
102
RTVSPropertyOp41
 70
     0
102
RTVSPropertyOp42
 70
     0
102
RTVSPropertyOp43
 70
     0
102
RTVSPropertyOp44
 70
     0
102
RTVSPropertyOp45
 70
     1
102
RTVSPropertyOp46
 70
     0
102
RTVSPropertyOp47
 70
     0
102
RTVSPropertyOp48
 70
     0
102
RTVSPropertyOp49
 70
     1
102
RTVSPropertyOp50
 70
     0
102
RTVSPropertyOp51
 70
     0
102
RTVSPropertyOp52
 70
     0
102
RTVSPropertyOp53
 70
     0
102
RTVSPropertyOp54
 70
     0
102
RTVSPropertyOp55
 70
     1
102
RTVSPropertyOp56
 70
     0
102
RTVSPropertyOp57
 70
     0
102
RTVSPropertyOp58
 70
     0
102
RTVSPropertyOp59
 70
     0
102
RTVSPropertyOp60
 70
     0
102
RTVSPropertyOp61
 70
     0
102
RTVSPropertyOp62
 70
     0
  0
XRECORD
  5
A47A
102
{ACAD_REACTORS
330
A479
102
}
330
A479
100
AcDbXrecord
280
     1
102
RTVSPost2010Prop28
280
     0
102
RTVSPost2010PropOp28
 70
     1
102
RTVSPost2010Prop29
280
     1
102
RTVSPost2010PropOp29
 70
     1
102
RTVSPost2010Prop30
280
     1
102
RTVSPost2010PropOp30
 70
     1
102
RTVSPost2010Prop31
280
     0
102
RTVSPost2010PropOp31
 70
     1
102
RTVSPost2010Prop32
280
     0
102
RTVSPost2010PropOp32
 70
     1
102
RTVSPost2010Prop33
280
     0
102
RTVSPost2010PropOp33
 70
     1
102
RTVSPost2010Prop34
280
     0
102
RTVSPost2010PropOp34
 70
     1
102
RTVSPost2010Prop35
280
     0
102
RTVSPost2010PropOp35
 70
     1
102
RTVSPost2010Prop36
280
     0
102
RTVSPost2010PropOp36
 70
     1
102
RTVSPost2010Prop37
 90
       50
102
RTVSPost2010PropOp37
 70
     1
102
RTVSPost2010Prop38
140
0.0
102
RTVSPost2010PropOp38
 70
     1
102
RTVSPost2010Prop39
140
1.0
102
RTVSPost2010PropOp39
 70
     1
102
RTVSPost2010Prop40
 90
        0
102
RTVSPost2010PropOp40
 70
     1
102
RTVSPost2010Prop41ColorIndex
 90
       18
102
RTVSPost2010Prop41ColorRGB
 90
        0
102
RTVSPost2010PropOp41
 70
     1
102
RTVSPost2010Prop42
 90
       50
102
RTVSPost2010PropOp42
 70
     1
102
RTVSPost2010Prop43
 90
        3
102
RTVSPost2010PropOp43
 70
     1
102
RTVSPost2010Prop44ColorIndex
 90
        5
102
RTVSPost2010Prop44ColorRGB
 90
      255
102
RTVSPost2010PropOp44
 70
     1
102
RTVSPost2010Prop45
280
     0
102
RTVSPost2010PropOp45
 70
     1
102
RTVSPost2010Prop46
 90
       50
102
RTVSPost2010PropOp46
 70
     1
102
RTVSPost2010Prop47
 90
       50
102
RTVSPost2010PropOp47
 70
     1
102
RTVSPost2010Prop48
 90
       50
102
RTVSPost2010PropOp48
 70
     1
102
RTVSPost2010Prop49
280
     0
102
RTVSPost2010PropOp49
 70
     1
102
RTVSPost2010Prop50
 90
       50
102
RTVSPost2010PropOp50
 70
     1
102
RTVSPost2010Prop51ColorIndex
 90
      256
102
RTVSPost2010Prop51ColorRGB
 90
-16777216
102
RTVSPost2010PropOp51
 70
     0
102
RTVSPost2010Prop52
140
1.0
102
RTVSPost2010PropOp52
 70
     0
102
RTVSPost2010Prop53
 90
        2
102
RTVSPost2010PropOp53
 70
     1
102
RTVSPost2010Prop54
  1
strokes_ogs.tif
102
RTVSPost2010PropOp54
 70
     1
102
RTVSPost2010Prop55
280
     0
102
RTVSPost2010PropOp55
 70
     1
102
RTVSPost2010Prop56
140
1.0
102
RTVSPost2010PropOp56
 70
     1
102
RTVSPost2010Prop57
140
1.0
102
RTVSPost2010PropOp57
 70
     1
102
RTVSPropertyOp0
 70
     1
102
RTVSPropertyOp1
 70
     1
102
RTVSPropertyOp2
 70
     1
102
RTVSPropertyOp3
 70
     1
102
RTVSPropertyOp4
 70
     1
102
RTVSPropertyOp5
 70
     1
102
RTVSPropertyOp6
 70
     1
102
RTVSPropertyOp7
 70
     1
102
RTVSPropertyOp8
 70
     1
102
RTVSPropertyOp9
 70
     1
102
RTVSPropertyOp10
 70
     1
102
RTVSPropertyOp11
 70
     1
102
RTVSPropertyOp12
 70
     1
102
RTVSPropertyOp13
 70
     1
102
RTVSPropertyOp14
 70
     1
102
RTVSPropertyOp15
 70
     1
102
RTVSPropertyOp16
 70
     1
102
RTVSPropertyOp17
 70
     1
102
RTVSPropertyOp18
 70
     1
102
RTVSPropertyOp19
 70
     1
102
RTVSPropertyOp20
 70
     1
102
RTVSPropertyOp21
 70
     1
102
RTVSPropertyOp22
 70
     1
102
RTVSPropertyOp23
 70
     1
102
RTVSPropertyOp24
 70
     1
102
RTVSPropertyOp25
 70
     1
102
RTVSPropertyOp26
 70
     1
102
RTVSPropertyOp27
 70
     1
102
RTVSPropertyOp28
 70
     1
102
RTVSPropertyOp29
 70
     1
102
RTVSPropertyOp30
 70
     1
102
RTVSPropertyOp31
 70
     1
102
RTVSPropertyOp32
 70
     1
102
RTVSPropertyOp33
 70
     1
102
RTVSPropertyOp34
 70
     1
102
RTVSPropertyOp35
 70
     1
102
RTVSPropertyOp36
 70
     1
102
RTVSPropertyOp37
 70
     1
102
RTVSPropertyOp38
 70
     1
102
RTVSPropertyOp39
 70
     1
102
RTVSPropertyOp40
 70
     1
102
RTVSPropertyOp41
 70
     1
102
RTVSPropertyOp42
 70
     1
102
RTVSPropertyOp43
 70
     1
102
RTVSPropertyOp44
 70
     1
102
RTVSPropertyOp45
 70
     1
102
RTVSPropertyOp46
 70
     1
102
RTVSPropertyOp47
 70
     1
102
RTVSPropertyOp48
 70
     1
102
RTVSPropertyOp49
 70
     1
102
RTVSPropertyOp50
 70
     1
102
RTVSPropertyOp51
 70
     0
102
RTVSPropertyOp52
 70
     0
102
RTVSPropertyOp53
 70
     1
102
RTVSPropertyOp54
 70
     1
102
RTVSPropertyOp55
 70
     1
102
RTVSPropertyOp56
 70
     1
102
RTVSPropertyOp57
 70
     1
102
RTVSPropertyOp58
 70
     1
102
RTVSPropertyOp59
 70
     1
102
RTVSPropertyOp60
 70
     1
102
RTVSPropertyOp61
 70
     1
102
RTVSPropertyOp62
 70
     1
  0
XRECORD
  5
A490
102
{ACAD_REACTORS
330
A48F
102
}
330
A48F
100
AcDbXrecord
280
     1
102
RTVSPost2010Prop28
280
     0
102
RTVSPost2010PropOp28
 70
     1
102
RTVSPost2010Prop29
280
     1
102
RTVSPost2010PropOp29
 70
     1
102
RTVSPost2010Prop30
280
     1
102
RTVSPost2010PropOp30
 70
     1
102
RTVSPost2010Prop31
280
     0
102
RTVSPost2010PropOp31
 70
     1
102
RTVSPost2010Prop32
280
     0
102
RTVSPost2010PropOp32
 70
     1
102
RTVSPost2010Prop33
280
     0
102
RTVSPost2010PropOp33
 70
     1
102
RTVSPost2010Prop34
280
     0
102
RTVSPost2010PropOp34
 70
     1
102
RTVSPost2010Prop35
280
     0
102
RTVSPost2010PropOp35
 70
     1
102
RTVSPost2010Prop36
280
     0
102
RTVSPost2010PropOp36
 70
     1
102
RTVSPost2010Prop37
 90
       50
102
RTVSPost2010PropOp37
 70
     1
102
RTVSPost2010Prop38
140
0.0
102
RTVSPost2010PropOp38
 70
     1
102
RTVSPost2010Prop39
140
1.0
102
RTVSPost2010PropOp39
 70
     1
102
RTVSPost2010Prop40
 90
        0
102
RTVSPost2010PropOp40
 70
     1
102
RTVSPost2010Prop41ColorIndex
 90
       18
102
RTVSPost2010Prop41ColorRGB
 90
        0
102
RTVSPost2010PropOp41
 70
     1
102
RTVSPost2010Prop42
 90
       50
102
RTVSPost2010PropOp42
 70
     1
102
RTVSPost2010Prop43
 90
        3
102
RTVSPost2010PropOp43
 70
     1
102
RTVSPost2010Prop44ColorIndex
 90
        5
102
RTVSPost2010Prop44ColorRGB
 90
      255
102
RTVSPost2010PropOp44
 70
     1
102
RTVSPost2010Prop45
280
     0
102
RTVSPost2010PropOp45
 70
     1
102
RTVSPost2010Prop46
 90
       50
102
RTVSPost2010PropOp46
 70
     1
102
RTVSPost2010Prop47
 90
       50
102
RTVSPost2010PropOp47
 70
     1
102
RTVSPost2010Prop48
 90
       50
102
RTVSPost2010PropOp48
 70
     1
102
RTVSPost2010Prop49
280
     0
102
RTVSPost2010PropOp49
 70
     1
102
RTVSPost2010Prop50
 90
       50
102
RTVSPost2010PropOp50
 70
     1
102
RTVSPost2010Prop51ColorIndex
 90
      256
102
RTVSPost2010Prop51ColorRGB
 90
-16777216
102
RTVSPost2010PropOp51
 70
     0
102
RTVSPost2010Prop52
140
1.0
102
RTVSPost2010PropOp52
 70
     0
102
RTVSPost2010Prop53
 90
        2
102
RTVSPost2010PropOp53
 70
     1
102
RTVSPost2010Prop54
  1
strokes_ogs.tif
102
RTVSPost2010PropOp54
 70
     1
102
RTVSPost2010Prop55
280
     0
102
RTVSPost2010PropOp55
 70
     1
102
RTVSPost2010Prop56
140
1.0
102
RTVSPost2010PropOp56
 70
     1
102
RTVSPost2010Prop57
140
1.0
102
RTVSPost2010PropOp57
 70
     1
102
RTVSPropertyOp0
 70
     1
102
RTVSPropertyOp1
 70
     1
102
RTVSPropertyOp2
 70
     1
102
RTVSPropertyOp3
 70
     1
102
RTVSPropertyOp4
 70
     1
102
RTVSPropertyOp5
 70
     1
102
RTVSPropertyOp6
 70
     1
102
RTVSPropertyOp7
 70
     1
102
RTVSPropertyOp8
 70
     1
102
RTVSPropertyOp9
 70
     1
102
RTVSPropertyOp10
 70
     1
102
RTVSPropertyOp11
 70
     1
102
RTVSPropertyOp12
 70
     1
102
RTVSPropertyOp13
 70
     1
102
RTVSPropertyOp14
 70
     1
102
RTVSPropertyOp15
 70
     1
102
RTVSPropertyOp16
 70
     1
102
RTVSPropertyOp17
 70
     1
102
RTVSPropertyOp18
 70
     1
102
RTVSPropertyOp19
 70
     1
102
RTVSPropertyOp20
 70
     1
102
RTVSPropertyOp21
 70
     1
102
RTVSPropertyOp22
 70
     1
102
RTVSPropertyOp23
 70
     1
102
RTVSPropertyOp24
 70
     1
102
RTVSPropertyOp25
 70
     1
102
RTVSPropertyOp26
 70
     1
102
RTVSPropertyOp27
 70
     1
102
RTVSPropertyOp28
 70
     1
102
RTVSPropertyOp29
 70
     1
102
RTVSPropertyOp30
 70
     1
102
RTVSPropertyOp31
 70
     1
102
RTVSPropertyOp32
 70
     1
102
RTVSPropertyOp33
 70
     1
102
RTVSPropertyOp34
 70
     1
102
RTVSPropertyOp35
 70
     1
102
RTVSPropertyOp36
 70
     1
102
RTVSPropertyOp37
 70
     1
102
RTVSPropertyOp38
 70
     1
102
RTVSPropertyOp39
 70
     1
102
RTVSPropertyOp40
 70
     1
102
RTVSPropertyOp41
 70
     1
102
RTVSPropertyOp42
 70
     1
102
RTVSPropertyOp43
 70
     1
102
RTVSPropertyOp44
 70
     1
102
RTVSPropertyOp45
 70
     1
102
RTVSPropertyOp46
 70
     1
102
RTVSPropertyOp47
 70
     1
102
RTVSPropertyOp48
 70
     1
102
RTVSPropertyOp49
 70
     1
102
RTVSPropertyOp50
 70
     1
102
RTVSPropertyOp51
 70
     0
102
RTVSPropertyOp52
 70
     0
102
RTVSPropertyOp53
 70
     1
102
RTVSPropertyOp54
 70
     1
102
RTVSPropertyOp55
 70
     1
102
RTVSPropertyOp56
 70
     1
102
RTVSPropertyOp57
 70
     1
102
RTVSPropertyOp58
 70
     1
102
RTVSPropertyOp59
 70
     1
102
RTVSPropertyOp60
 70
     1
102
RTVSPropertyOp61
 70
     1
102
RTVSPropertyOp62
 70
     1
  0
XRECORD
  5
A48E
102
{ACAD_REACTORS
330
A48D
102
}
330
A48D
100
AcDbXrecord
280
     1
102
RTVSPost2010Prop28
280
     0
102
RTVSPost2010PropOp28
 70
     1
102
RTVSPost2010Prop29
280
     1
102
RTVSPost2010PropOp29
 70
     1
102
RTVSPost2010Prop30
280
     1
102
RTVSPost2010PropOp30
 70
     1
102
RTVSPost2010Prop31
280
     0
102
RTVSPost2010PropOp31
 70
     1
102
RTVSPost2010Prop32
280
     0
102
RTVSPost2010PropOp32
 70
     1
102
RTVSPost2010Prop33
280
     0
102
RTVSPost2010PropOp33
 70
     1
102
RTVSPost2010Prop34
280
     0
102
RTVSPost2010PropOp34
 70
     1
102
RTVSPost2010Prop35
280
     0
102
RTVSPost2010PropOp35
 70
     1
102
RTVSPost2010Prop36
280
     0
102
RTVSPost2010PropOp36
 70
     1
102
RTVSPost2010Prop37
 90
       50
102
RTVSPost2010PropOp37
 70
     1
102
RTVSPost2010Prop38
140
0.0
102
RTVSPost2010PropOp38
 70
     1
102
RTVSPost2010Prop39
140
1.0
102
RTVSPost2010PropOp39
 70
     1
102
RTVSPost2010Prop40
 90
        0
102
RTVSPost2010PropOp40
 70
     1
102
RTVSPost2010Prop41ColorIndex
 90
       18
102
RTVSPost2010Prop41ColorRGB
 90
        0
102
RTVSPost2010PropOp41
 70
     1
102
RTVSPost2010Prop42
 90
       50
102
RTVSPost2010PropOp42
 70
     1
102
RTVSPost2010Prop43
 90
        3
102
RTVSPost2010PropOp43
 70
     1
102
RTVSPost2010Prop44ColorIndex
 90
        5
102
RTVSPost2010Prop44ColorRGB
 90
      255
102
RTVSPost2010PropOp44
 70
     1
102
RTVSPost2010Prop45
280
     0
102
RTVSPost2010PropOp45
 70
     1
102
RTVSPost2010Prop46
 90
       50
102
RTVSPost2010PropOp46
 70
     1
102
RTVSPost2010Prop47
 90
       50
102
RTVSPost2010PropOp47
 70
     1
102
RTVSPost2010Prop48
 90
       50
102
RTVSPost2010PropOp48
 70
     1
102
RTVSPost2010Prop49
280
     0
102
RTVSPost2010PropOp49
 70
     1
102
RTVSPost2010Prop50
 90
       50
102
RTVSPost2010PropOp50
 70
     1
102
RTVSPost2010Prop51ColorIndex
 90
      256
102
RTVSPost2010Prop51ColorRGB
 90
-16777216
102
RTVSPost2010PropOp51
 70
     0
102
RTVSPost2010Prop52
140
1.0
102
RTVSPost2010PropOp52
 70
     0
102
RTVSPost2010Prop53
 90
        2
102
RTVSPost2010PropOp53
 70
     1
102
RTVSPost2010Prop54
  1
strokes_ogs.tif
102
RTVSPost2010PropOp54
 70
     1
102
RTVSPost2010Prop55
280
     0
102
RTVSPost2010PropOp55
 70
     1
102
RTVSPost2010Prop56
140
1.0
102
RTVSPost2010PropOp56
 70
     1
102
RTVSPost2010Prop57
140
1.0
102
RTVSPost2010PropOp57
 70
     1
102
RTVSPropertyOp0
 70
     1
102
RTVSPropertyOp1
 70
     1
102
RTVSPropertyOp2
 70
     1
102
RTVSPropertyOp3
 70
     1
102
RTVSPropertyOp4
 70
     1
102
RTVSPropertyOp5
 70
     1
102
RTVSPropertyOp6
 70
     1
102
RTVSPropertyOp7
 70
     1
102
RTVSPropertyOp8
 70
     1
102
RTVSPropertyOp9
 70
     1
102
RTVSPropertyOp10
 70
     1
102
RTVSPropertyOp11
 70
     1
102
RTVSPropertyOp12
 70
     1
102
RTVSPropertyOp13
 70
     1
102
RTVSPropertyOp14
 70
     1
102
RTVSPropertyOp15
 70
     1
102
RTVSPropertyOp16
 70
     1
102
RTVSPropertyOp17
 70
     1
102
RTVSPropertyOp18
 70
     1
102
RTVSPropertyOp19
 70
     1
102
RTVSPropertyOp20
 70
     1
102
RTVSPropertyOp21
 70
     1
102
RTVSPropertyOp22
 70
     1
102
RTVSPropertyOp23
 70
     1
102
RTVSPropertyOp24
 70
     1
102
RTVSPropertyOp25
 70
     1
102
RTVSPropertyOp26
 70
     1
102
RTVSPropertyOp27
 70
     1
102
RTVSPropertyOp28
 70
     1
102
RTVSPropertyOp29
 70
     1
102
RTVSPropertyOp30
 70
     1
102
RTVSPropertyOp31
 70
     1
102
RTVSPropertyOp32
 70
     1
102
RTVSPropertyOp33
 70
     1
102
RTVSPropertyOp34
 70
     1
102
RTVSPropertyOp35
 70
     1
102
RTVSPropertyOp36
 70
     1
102
RTVSPropertyOp37
 70
     1
102
RTVSPropertyOp38
 70
     1
102
RTVSPropertyOp39
 70
     1
102
RTVSPropertyOp40
 70
     1
102
RTVSPropertyOp41
 70
     1
102
RTVSPropertyOp42
 70
     1
102
RTVSPropertyOp43
 70
     1
102
RTVSPropertyOp44
 70
     1
102
RTVSPropertyOp45
 70
     1
102
RTVSPropertyOp46
 70
     1
102
RTVSPropertyOp47
 70
     1
102
RTVSPropertyOp48
 70
     1
102
RTVSPropertyOp49
 70
     1
102
RTVSPropertyOp50
 70
     1
102
RTVSPropertyOp51
 70
     0
102
RTVSPropertyOp52
 70
     0
102
RTVSPropertyOp53
 70
     1
102
RTVSPropertyOp54
 70
     1
102
RTVSPropertyOp55
 70
     1
102
RTVSPropertyOp56
 70
     1
102
RTVSPropertyOp57
 70
     1
102
RTVSPropertyOp58
 70
     1
102
RTVSPropertyOp59
 70
     1
102
RTVSPropertyOp60
 70
     1
102
RTVSPropertyOp61
 70
     1
102
RTVSPropertyOp62
 70
     1
  0
XRECORD
  5
A488
102
{ACAD_REACTORS
330
A487
102
}
330
A487
100
AcDbXrecord
280
     1
102
RTVSPost2010Prop28
280
     0
102
RTVSPost2010PropOp28
 70
     1
102
RTVSPost2010Prop29
280
     1
102
RTVSPost2010PropOp29
 70
     1
102
RTVSPost2010Prop30
280
     1
102
RTVSPost2010PropOp30
 70
     1
102
RTVSPost2010Prop31
280
     0
102
RTVSPost2010PropOp31
 70
     1
102
RTVSPost2010Prop32
280
     0
102
RTVSPost2010PropOp32
 70
     1
102
RTVSPost2010Prop33
280
     0
102
RTVSPost2010PropOp33
 70
     1
102
RTVSPost2010Prop34
280
     0
102
RTVSPost2010PropOp34
 70
     1
102
RTVSPost2010Prop35
280
     0
102
RTVSPost2010PropOp35
 70
     1
102
RTVSPost2010Prop36
280
     0
102
RTVSPost2010PropOp36
 70
     1
102
RTVSPost2010Prop37
 90
       50
102
RTVSPost2010PropOp37
 70
     1
102
RTVSPost2010Prop38
140
0.0
102
RTVSPost2010PropOp38
 70
     1
102
RTVSPost2010Prop39
140
1.0
102
RTVSPost2010PropOp39
 70
     1
102
RTVSPost2010Prop40
 90
        0
102
RTVSPost2010PropOp40
 70
     1
102
RTVSPost2010Prop41ColorIndex
 90
       18
102
RTVSPost2010Prop41ColorRGB
 90
        0
102
RTVSPost2010PropOp41
 70
     1
102
RTVSPost2010Prop42
 90
       50
102
RTVSPost2010PropOp42
 70
     1
102
RTVSPost2010Prop43
 90
        3
102
RTVSPost2010PropOp43
 70
     1
102
RTVSPost2010Prop44ColorIndex
 90
        5
102
RTVSPost2010Prop44ColorRGB
 90
      255
102
RTVSPost2010PropOp44
 70
     1
102
RTVSPost2010Prop45
280
     0
102
RTVSPost2010PropOp45
 70
     1
102
RTVSPost2010Prop46
 90
       50
102
RTVSPost2010PropOp46
 70
     1
102
RTVSPost2010Prop47
 90
       50
102
RTVSPost2010PropOp47
 70
     1
102
RTVSPost2010Prop48
 90
       50
102
RTVSPost2010PropOp48
 70
     1
102
RTVSPost2010Prop49
280
     0
102
RTVSPost2010PropOp49
 70
     1
102
RTVSPost2010Prop50
 90
       50
102
RTVSPost2010PropOp50
 70
     1
102
RTVSPost2010Prop51ColorIndex
 90
      256
102
RTVSPost2010Prop51ColorRGB
 90
-16777216
102
RTVSPost2010PropOp51
 70
     0
102
RTVSPost2010Prop52
140
1.0
102
RTVSPost2010PropOp52
 70
     0
102
RTVSPost2010Prop53
 90
        2
102
RTVSPost2010PropOp53
 70
     1
102
RTVSPost2010Prop54
  1
strokes_ogs.tif
102
RTVSPost2010PropOp54
 70
     1
102
RTVSPost2010Prop55
280
     0
102
RTVSPost2010PropOp55
 70
     1
102
RTVSPost2010Prop56
140
1.0
102
RTVSPost2010PropOp56
 70
     1
102
RTVSPost2010Prop57
140
1.0
102
RTVSPost2010PropOp57
 70
     1
102
RTVSPropertyOp0
 70
     1
102
RTVSPropertyOp1
 70
     1
102
RTVSPropertyOp2
 70
     1
102
RTVSPropertyOp3
 70
     1
102
RTVSPropertyOp4
 70
     1
102
RTVSPropertyOp5
 70
     1
102
RTVSPropertyOp6
 70
     1
102
RTVSPropertyOp7
 70
     1
102
RTVSPropertyOp8
 70
     1
102
RTVSPropertyOp9
 70
     1
102
RTVSPropertyOp10
 70
     1
102
RTVSPropertyOp11
 70
     1
102
RTVSPropertyOp12
 70
     1
102
RTVSPropertyOp13
 70
     1
102
RTVSPropertyOp14
 70
     1
102
RTVSPropertyOp15
 70
     1
102
RTVSPropertyOp16
 70
     1
102
RTVSPropertyOp17
 70
     1
102
RTVSPropertyOp18
 70
     1
102
RTVSPropertyOp19
 70
     1
102
RTVSPropertyOp20
 70
     1
102
RTVSPropertyOp21
 70
     1
102
RTVSPropertyOp22
 70
     1
102
RTVSPropertyOp23
 70
     1
102
RTVSPropertyOp24
 70
     1
102
RTVSPropertyOp25
 70
     1
102
RTVSPropertyOp26
 70
     1
102
RTVSPropertyOp27
 70
     1
102
RTVSPropertyOp28
 70
     1
102
RTVSPropertyOp29
 70
     1
102
RTVSPropertyOp30
 70
     1
102
RTVSPropertyOp31
 70
     1
102
RTVSPropertyOp32
 70
     1
102
RTVSPropertyOp33
 70
     1
102
RTVSPropertyOp34
 70
     1
102
RTVSPropertyOp35
 70
     1
102
RTVSPropertyOp36
 70
     1
102
RTVSPropertyOp37
 70
     1
102
RTVSPropertyOp38
 70
     1
102
RTVSPropertyOp39
 70
     1
102
RTVSPropertyOp40
 70
     1
102
RTVSPropertyOp41
 70
     1
102
RTVSPropertyOp42
 70
     1
102
RTVSPropertyOp43
 70
     1
102
RTVSPropertyOp44
 70
     1
102
RTVSPropertyOp45
 70
     1
102
RTVSPropertyOp46
 70
     1
102
RTVSPropertyOp47
 70
     1
102
RTVSPropertyOp48
 70
     1
102
RTVSPropertyOp49
 70
     1
102
RTVSPropertyOp50
 70
     1
102
RTVSPropertyOp51
 70
     0
102
RTVSPropertyOp52
 70
     0
102
RTVSPropertyOp53
 70
     1
102
RTVSPropertyOp54
 70
     1
102
RTVSPropertyOp55
 70
     1
102
RTVSPropertyOp56
 70
     1
102
RTVSPropertyOp57
 70
     1
102
RTVSPropertyOp58
 70
     1
102
RTVSPropertyOp59
 70
     1
102
RTVSPropertyOp60
 70
     1
102
RTVSPropertyOp61
 70
     1
102
RTVSPropertyOp62
 70
     1
  0
XRECORD
  5
A48A
102
{ACAD_REACTORS
330
A489
102
}
330
A489
100
AcDbXrecord
280
     1
102
RTVSPost2010Prop28
280
     0
102
RTVSPost2010PropOp28
 70
     1
102
RTVSPost2010Prop29
280
     1
102
RTVSPost2010PropOp29
 70
     1
102
RTVSPost2010Prop30
280
     1
102
RTVSPost2010PropOp30
 70
     1
102
RTVSPost2010Prop31
280
     0
102
RTVSPost2010PropOp31
 70
     1
102
RTVSPost2010Prop32
280
     0
102
RTVSPost2010PropOp32
 70
     1
102
RTVSPost2010Prop33
280
     0
102
RTVSPost2010PropOp33
 70
     1
102
RTVSPost2010Prop34
280
     0
102
RTVSPost2010PropOp34
 70
     1
102
RTVSPost2010Prop35
280
     0
102
RTVSPost2010PropOp35
 70
     1
102
RTVSPost2010Prop36
280
     0
102
RTVSPost2010PropOp36
 70
     1
102
RTVSPost2010Prop37
 90
       50
102
RTVSPost2010PropOp37
 70
     1
102
RTVSPost2010Prop38
140
0.0
102
RTVSPost2010PropOp38
 70
     1
102
RTVSPost2010Prop39
140
1.0
102
RTVSPost2010PropOp39
 70
     1
102
RTVSPost2010Prop40
 90
        0
102
RTVSPost2010PropOp40
 70
     1
102
RTVSPost2010Prop41ColorIndex
 90
       18
102
RTVSPost2010Prop41ColorRGB
 90
        0
102
RTVSPost2010PropOp41
 70
     1
102
RTVSPost2010Prop42
 90
       50
102
RTVSPost2010PropOp42
 70
     1
102
RTVSPost2010Prop43
 90
        3
102
RTVSPost2010PropOp43
 70
     1
102
RTVSPost2010Prop44ColorIndex
 90
        5
102
RTVSPost2010Prop44ColorRGB
 90
      255
102
RTVSPost2010PropOp44
 70
     1
102
RTVSPost2010Prop45
280
     0
102
RTVSPost2010PropOp45
 70
     1
102
RTVSPost2010Prop46
 90
       50
102
RTVSPost2010PropOp46
 70
     1
102
RTVSPost2010Prop47
 90
       50
102
RTVSPost2010PropOp47
 70
     1
102
RTVSPost2010Prop48
 90
       50
102
RTVSPost2010PropOp48
 70
     1
102
RTVSPost2010Prop49
280
     0
102
RTVSPost2010PropOp49
 70
     1
102
RTVSPost2010Prop50
 90
       50
102
RTVSPost2010PropOp50
 70
     1
102
RTVSPost2010Prop51ColorIndex
 90
      256
102
RTVSPost2010Prop51ColorRGB
 90
-16777216
102
RTVSPost2010PropOp51
 70
     0
102
RTVSPost2010Prop52
140
1.0
102
RTVSPost2010PropOp52
 70
     0
102
RTVSPost2010Prop53
 90
        2
102
RTVSPost2010PropOp53
 70
     1
102
RTVSPost2010Prop54
  1
strokes_ogs.tif
102
RTVSPost2010PropOp54
 70
     1
102
RTVSPost2010Prop55
280
     0
102
RTVSPost2010PropOp55
 70
     1
102
RTVSPost2010Prop56
140
1.0
102
RTVSPost2010PropOp56
 70
     1
102
RTVSPost2010Prop57
140
1.0
102
RTVSPost2010PropOp57
 70
     1
102
RTVSPropertyOp0
 70
     1
102
RTVSPropertyOp1
 70
     1
102
RTVSPropertyOp2
 70
     1
102
RTVSPropertyOp3
 70
     1
102
RTVSPropertyOp4
 70
     1
102
RTVSPropertyOp5
 70
     1
102
RTVSPropertyOp6
 70
     1
102
RTVSPropertyOp7
 70
     1
102
RTVSPropertyOp8
 70
     1
102
RTVSPropertyOp9
 70
     1
102
RTVSPropertyOp10
 70
     1
102
RTVSPropertyOp11
 70
     1
102
RTVSPropertyOp12
 70
     1
102
RTVSPropertyOp13
 70
     1
102
RTVSPropertyOp14
 70
     1
102
RTVSPropertyOp15
 70
     1
102
RTVSPropertyOp16
 70
     1
102
RTVSPropertyOp17
 70
     1
102
RTVSPropertyOp18
 70
     1
102
RTVSPropertyOp19
 70
     1
102
RTVSPropertyOp20
 70
     1
102
RTVSPropertyOp21
 70
     1
102
RTVSPropertyOp22
 70
     1
102
RTVSPropertyOp23
 70
     1
102
RTVSPropertyOp24
 70
     1
102
RTVSPropertyOp25
 70
     1
102
RTVSPropertyOp26
 70
     1
102
RTVSPropertyOp27
 70
     1
102
RTVSPropertyOp28
 70
     1
102
RTVSPropertyOp29
 70
     1
102
RTVSPropertyOp30
 70
     1
102
RTVSPropertyOp31
 70
     1
102
RTVSPropertyOp32
 70
     1
102
RTVSPropertyOp33
 70
     1
102
RTVSPropertyOp34
 70
     1
102
RTVSPropertyOp35
 70
     1
102
RTVSPropertyOp36
 70
     1
102
RTVSPropertyOp37
 70
     1
102
RTVSPropertyOp38
 70
     1
102
RTVSPropertyOp39
 70
     1
102
RTVSPropertyOp40
 70
     1
102
RTVSPropertyOp41
 70
     1
102
RTVSPropertyOp42
 70
     1
102
RTVSPropertyOp43
 70
     1
102
RTVSPropertyOp44
 70
     1
102
RTVSPropertyOp45
 70
     1
102
RTVSPropertyOp46
 70
     1
102
RTVSPropertyOp47
 70
     1
102
RTVSPropertyOp48
 70
     1
102
RTVSPropertyOp49
 70
     1
102
RTVSPropertyOp50
 70
     1
102
RTVSPropertyOp51
 70
     0
102
RTVSPropertyOp52
 70
     0
102
RTVSPropertyOp53
 70
     1
102
RTVSPropertyOp54
 70
     1
102
RTVSPropertyOp55
 70
     1
102
RTVSPropertyOp56
 70
     1
102
RTVSPropertyOp57
 70
     1
102
RTVSPropertyOp58
 70
     1
102
RTVSPropertyOp59
 70
     1
102
RTVSPropertyOp60
 70
     1
102
RTVSPropertyOp61
 70
     1
102
RTVSPropertyOp62
 70
     1
  0
XRECORD
  5
A480
102
{ACAD_REACTORS
330
A47F
102
}
330
A47F
100
AcDbXrecord
280
     1
102
RTVSPost2010Prop28
280
     0
102
RTVSPost2010PropOp28
 70
     1
102
RTVSPost2010Prop29
280
     1
102
RTVSPost2010PropOp29
 70
     1
102
RTVSPost2010Prop30
280
     1
102
RTVSPost2010PropOp30
 70
     1
102
RTVSPost2010Prop31
280
     0
102
RTVSPost2010PropOp31
 70
     1
102
RTVSPost2010Prop32
280
     0
102
RTVSPost2010PropOp32
 70
     1
102
RTVSPost2010Prop33
280
     0
102
RTVSPost2010PropOp33
 70
     1
102
RTVSPost2010Prop34
280
     0
102
RTVSPost2010PropOp34
 70
     1
102
RTVSPost2010Prop35
280
     0
102
RTVSPost2010PropOp35
 70
     1
102
RTVSPost2010Prop36
280
     0
102
RTVSPost2010PropOp36
 70
     1
102
RTVSPost2010Prop37
 90
       50
102
RTVSPost2010PropOp37
 70
     1
102
RTVSPost2010Prop38
140
0.0
102
RTVSPost2010PropOp38
 70
     1
102
RTVSPost2010Prop39
140
1.0
102
RTVSPost2010PropOp39
 70
     1
102
RTVSPost2010Prop40
 90
        0
102
RTVSPost2010PropOp40
 70
     1
102
RTVSPost2010Prop41ColorIndex
 90
       18
102
RTVSPost2010Prop41ColorRGB
 90
        0
102
RTVSPost2010PropOp41
 70
     1
102
RTVSPost2010Prop42
 90
       50
102
RTVSPost2010PropOp42
 70
     1
102
RTVSPost2010Prop43
 90
        3
102
RTVSPost2010PropOp43
 70
     1
102
RTVSPost2010Prop44ColorIndex
 90
        5
102
RTVSPost2010Prop44ColorRGB
 90
      255
102
RTVSPost2010PropOp44
 70
     1
102
RTVSPost2010Prop45
280
     0
102
RTVSPost2010PropOp45
 70
     1
102
RTVSPost2010Prop46
 90
       50
102
RTVSPost2010PropOp46
 70
     1
102
RTVSPost2010Prop47
 90
       50
102
RTVSPost2010PropOp47
 70
     1
102
RTVSPost2010Prop48
 90
       50
102
RTVSPost2010PropOp48
 70
     1
102
RTVSPost2010Prop49
280
     0
102
RTVSPost2010PropOp49
 70
     1
102
RTVSPost2010Prop50
 90
       50
102
RTVSPost2010PropOp50
 70
     1
102
RTVSPost2010Prop51ColorIndex
 90
      256
102
RTVSPost2010Prop51ColorRGB
 90
-16777216
102
RTVSPost2010PropOp51
 70
     0
102
RTVSPost2010Prop52
140
1.0
102
RTVSPost2010PropOp52
 70
     0
102
RTVSPost2010Prop53
 90
        2
102
RTVSPost2010PropOp53
 70
     1
102
RTVSPost2010Prop54
  1
strokes_ogs.tif
102
RTVSPost2010PropOp54
 70
     1
102
RTVSPost2010Prop55
280
     0
102
RTVSPost2010PropOp55
 70
     1
102
RTVSPost2010Prop56
140
1.0
102
RTVSPost2010PropOp56
 70
     1
102
RTVSPost2010Prop57
140
1.0
102
RTVSPost2010PropOp57
 70
     1
102
RTVSPropertyOp0
 70
     1
102
RTVSPropertyOp1
 70
     1
102
RTVSPropertyOp2
 70
     1
102
RTVSPropertyOp3
 70
     1
102
RTVSPropertyOp4
 70
     1
102
RTVSPropertyOp5
 70
     1
102
RTVSPropertyOp6
 70
     1
102
RTVSPropertyOp7
 70
     1
102
RTVSPropertyOp8
 70
     1
102
RTVSPropertyOp9
 70
     1
102
RTVSPropertyOp10
 70
     1
102
RTVSPropertyOp11
 70
     1
102
RTVSPropertyOp12
 70
     1
102
RTVSPropertyOp13
 70
     1
102
RTVSPropertyOp14
 70
     1
102
RTVSPropertyOp15
 70
     1
102
RTVSPropertyOp16
 70
     1
102
RTVSPropertyOp17
 70
     1
102
RTVSPropertyOp18
 70
     1
102
RTVSPropertyOp19
 70
     1
102
RTVSPropertyOp20
 70
     1
102
RTVSPropertyOp21
 70
     1
102
RTVSPropertyOp22
 70
     1
102
RTVSPropertyOp23
 70
     1
102
RTVSPropertyOp24
 70
     1
102
RTVSPropertyOp25
 70
     1
102
RTVSPropertyOp26
 70
     1
102
RTVSPropertyOp27
 70
     1
102
RTVSPropertyOp28
 70
     1
102
RTVSPropertyOp29
 70
     1
102
RTVSPropertyOp30
 70
     1
102
RTVSPropertyOp31
 70
     1
102
RTVSPropertyOp32
 70
     1
102
RTVSPropertyOp33
 70
     1
102
RTVSPropertyOp34
 70
     1
102
RTVSPropertyOp35
 70
     1
102
RTVSPropertyOp36
 70
     1
102
RTVSPropertyOp37
 70
     1
102
RTVSPropertyOp38
 70
     1
102
RTVSPropertyOp39
 70
     1
102
RTVSPropertyOp40
 70
     1
102
RTVSPropertyOp41
 70
     1
102
RTVSPropertyOp42
 70
     1
102
RTVSPropertyOp43
 70
     1
102
RTVSPropertyOp44
 70
     1
102
RTVSPropertyOp45
 70
     1
102
RTVSPropertyOp46
 70
     1
102
RTVSPropertyOp47
 70
     1
102
RTVSPropertyOp48
 70
     1
102
RTVSPropertyOp49
 70
     1
102
RTVSPropertyOp50
 70
     1
102
RTVSPropertyOp51
 70
     0
102
RTVSPropertyOp52
 70
     0
102
RTVSPropertyOp53
 70
     1
102
RTVSPropertyOp54
 70
     1
102
RTVSPropertyOp55
 70
     1
102
RTVSPropertyOp56
 70
     1
102
RTVSPropertyOp57
 70
     1
102
RTVSPropertyOp58
 70
     1
102
RTVSPropertyOp59
 70
     1
102
RTVSPropertyOp60
 70
     1
102
RTVSPropertyOp61
 70
     1
102
RTVSPropertyOp62
 70
     1
  0
XRECORD
  5
A474
102
{ACAD_REACTORS
330
A473
102
}
330
A473
100
AcDbXrecord
280
     1
102
RTVSPost2010Prop28
280
     0
102
RTVSPost2010PropOp28
 70
     1
102
RTVSPost2010Prop29
280
     1
102
RTVSPost2010PropOp29
 70
     1
102
RTVSPost2010Prop30
280
     1
102
RTVSPost2010PropOp30
 70
     1
102
RTVSPost2010Prop31
280
     0
102
RTVSPost2010PropOp31
 70
     1
102
RTVSPost2010Prop32
280
     0
102
RTVSPost2010PropOp32
 70
     1
102
RTVSPost2010Prop33
280
     0
102
RTVSPost2010PropOp33
 70
     1
102
RTVSPost2010Prop34
280
     0
102
RTVSPost2010PropOp34
 70
     1
102
RTVSPost2010Prop35
280
     0
102
RTVSPost2010PropOp35
 70
     1
102
RTVSPost2010Prop36
280
     0
102
RTVSPost2010PropOp36
 70
     1
102
RTVSPost2010Prop37
 90
       50
102
RTVSPost2010PropOp37
 70
     1
102
RTVSPost2010Prop38
140
0.0
102
RTVSPost2010PropOp38
 70
     1
102
RTVSPost2010Prop39
140
1.0
102
RTVSPost2010PropOp39
 70
     1
102
RTVSPost2010Prop40
 90
        0
102
RTVSPost2010PropOp40
 70
     1
102
RTVSPost2010Prop41ColorIndex
 90
       18
102
RTVSPost2010Prop41ColorRGB
 90
        0
102
RTVSPost2010PropOp41
 70
     1
102
RTVSPost2010Prop42
 90
       50
102
RTVSPost2010PropOp42
 70
     1
102
RTVSPost2010Prop43
 90
        3
102
RTVSPost2010PropOp43
 70
     1
102
RTVSPost2010Prop44ColorIndex
 90
        5
102
RTVSPost2010Prop44ColorRGB
 90
      255
102
RTVSPost2010PropOp44
 70
     1
102
RTVSPost2010Prop45
280
     0
102
RTVSPost2010PropOp45
 70
     1
102
RTVSPost2010Prop46
 90
       50
102
RTVSPost2010PropOp46
 70
     1
102
RTVSPost2010Prop47
 90
       50
102
RTVSPost2010PropOp47
 70
     1
102
RTVSPost2010Prop48
 90
       50
102
RTVSPost2010PropOp48
 70
     1
102
RTVSPost2010Prop49
280
     0
102
RTVSPost2010PropOp49
 70
     1
102
RTVSPost2010Prop50
 90
       50
102
RTVSPost2010PropOp50
 70
     1
102
RTVSPost2010Prop51ColorIndex
 90
      256
102
RTVSPost2010Prop51ColorRGB
 90
-16777216
102
RTVSPost2010PropOp51
 70
     0
102
RTVSPost2010Prop52
140
1.0
102
RTVSPost2010PropOp52
 70
     0
102
RTVSPost2010Prop53
 90
        2
102
RTVSPost2010PropOp53
 70
     1
102
RTVSPost2010Prop54
  1
strokes_ogs.tif
102
RTVSPost2010PropOp54
 70
     1
102
RTVSPost2010Prop55
280
     0
102
RTVSPost2010PropOp55
 70
     1
102
RTVSPost2010Prop56
140
1.0
102
RTVSPost2010PropOp56
 70
     1
102
RTVSPost2010Prop57
140
1.0
102
RTVSPost2010PropOp57
 70
     1
102
RTVSPropertyOp0
 70
     1
102
RTVSPropertyOp1
 70
     1
102
RTVSPropertyOp2
 70
     1
102
RTVSPropertyOp3
 70
     1
102
RTVSPropertyOp4
 70
     1
102
RTVSPropertyOp5
 70
     1
102
RTVSPropertyOp6
 70
     1
102
RTVSPropertyOp7
 70
     1
102
RTVSPropertyOp8
 70
     1
102
RTVSPropertyOp9
 70
     1
102
RTVSPropertyOp10
 70
     1
102
RTVSPropertyOp11
 70
     1
102
RTVSPropertyOp12
 70
     1
102
RTVSPropertyOp13
 70
     1
102
RTVSPropertyOp14
 70
     1
102
RTVSPropertyOp15
 70
     1
102
RTVSPropertyOp16
 70
     1
102
RTVSPropertyOp17
 70
     1
102
RTVSPropertyOp18
 70
     1
102
RTVSPropertyOp19
 70
     1
102
RTVSPropertyOp20
 70
     1
102
RTVSPropertyOp21
 70
     1
102
RTVSPropertyOp22
 70
     1
102
RTVSPropertyOp23
 70
     1
102
RTVSPropertyOp24
 70
     1
102
RTVSPropertyOp25
 70
     1
102
RTVSPropertyOp26
 70
     1
102
RTVSPropertyOp27
 70
     1
102
RTVSPropertyOp28
 70
     1
102
RTVSPropertyOp29
 70
     1
102
RTVSPropertyOp30
 70
     1
102
RTVSPropertyOp31
 70
     1
102
RTVSPropertyOp32
 70
     1
102
RTVSPropertyOp33
 70
     1
102
RTVSPropertyOp34
 70
     1
102
RTVSPropertyOp35
 70
     1
102
RTVSPropertyOp36
 70
     1
102
RTVSPropertyOp37
 70
     1
102
RTVSPropertyOp38
 70
     1
102
RTVSPropertyOp39
 70
     1
102
RTVSPropertyOp40
 70
     1
102
RTVSPropertyOp41
 70
     1
102
RTVSPropertyOp42
 70
     1
102
RTVSPropertyOp43
 70
     1
102
RTVSPropertyOp44
 70
     1
102
RTVSPropertyOp45
 70
     1
102
RTVSPropertyOp46
 70
     1
102
RTVSPropertyOp47
 70
     1
102
RTVSPropertyOp48
 70
     1
102
RTVSPropertyOp49
 70
     1
102
RTVSPropertyOp50
 70
     1
102
RTVSPropertyOp51
 70
     0
102
RTVSPropertyOp52
 70
     0
102
RTVSPropertyOp53
 70
     1
102
RTVSPropertyOp54
 70
     1
102
RTVSPropertyOp55
 70
     1
102
RTVSPropertyOp56
 70
     1
102
RTVSPropertyOp57
 70
     1
102
RTVSPropertyOp58
 70
     1
102
RTVSPropertyOp59
 70
     1
102
RTVSPropertyOp60
 70
     1
102
RTVSPropertyOp61
 70
     1
102
RTVSPropertyOp62
 70
     1
  0
XRECORD
  5
A48C
102
{ACAD_REACTORS
330
A48B
102
}
330
A48B
100
AcDbXrecord
280
     1
102
RTVSPost2010Prop28
280
     0
102
RTVSPost2010PropOp28
 70
     1
102
RTVSPost2010Prop29
280
     1
102
RTVSPost2010PropOp29
 70
     1
102
RTVSPost2010Prop30
280
     1
102
RTVSPost2010PropOp30
 70
     1
102
RTVSPost2010Prop31
280
     0
102
RTVSPost2010PropOp31
 70
     1
102
RTVSPost2010Prop32
280
     0
102
RTVSPost2010PropOp32
 70
     1
102
RTVSPost2010Prop33
280
     0
102
RTVSPost2010PropOp33
 70
     1
102
RTVSPost2010Prop34
280
     0
102
RTVSPost2010PropOp34
 70
     1
102
RTVSPost2010Prop35
280
     0
102
RTVSPost2010PropOp35
 70
     1
102
RTVSPost2010Prop36
280
     0
102
RTVSPost2010PropOp36
 70
     1
102
RTVSPost2010Prop37
 90
       50
102
RTVSPost2010PropOp37
 70
     1
102
RTVSPost2010Prop38
140
0.0
102
RTVSPost2010PropOp38
 70
     1
102
RTVSPost2010Prop39
140
1.0
102
RTVSPost2010PropOp39
 70
     1
102
RTVSPost2010Prop40
 90
        0
102
RTVSPost2010PropOp40
 70
     1
102
RTVSPost2010Prop41ColorIndex
 90
       18
102
RTVSPost2010Prop41ColorRGB
 90
        0
102
RTVSPost2010PropOp41
 70
     1
102
RTVSPost2010Prop42
 90
       50
102
RTVSPost2010PropOp42
 70
     1
102
RTVSPost2010Prop43
 90
        3
102
RTVSPost2010PropOp43
 70
     1
102
RTVSPost2010Prop44ColorIndex
 90
        5
102
RTVSPost2010Prop44ColorRGB
 90
      255
102
RTVSPost2010PropOp44
 70
     1
102
RTVSPost2010Prop45
280
     0
102
RTVSPost2010PropOp45
 70
     1
102
RTVSPost2010Prop46
 90
       50
102
RTVSPost2010PropOp46
 70
     1
102
RTVSPost2010Prop47
 90
       50
102
RTVSPost2010PropOp47
 70
     1
102
RTVSPost2010Prop48
 90
       50
102
RTVSPost2010PropOp48
 70
     1
102
RTVSPost2010Prop49
280
     0
102
RTVSPost2010PropOp49
 70
     1
102
RTVSPost2010Prop50
 90
       50
102
RTVSPost2010PropOp50
 70
     1
102
RTVSPost2010Prop51ColorIndex
 90
      256
102
RTVSPost2010Prop51ColorRGB
 90
-16777216
102
RTVSPost2010PropOp51
 70
     0
102
RTVSPost2010Prop52
140
1.0
102
RTVSPost2010PropOp52
 70
     0
102
RTVSPost2010Prop53
 90
        2
102
RTVSPost2010PropOp53
 70
     1
102
RTVSPost2010Prop54
  1
strokes_ogs.tif
102
RTVSPost2010PropOp54
 70
     1
102
RTVSPost2010Prop55
280
     0
102
RTVSPost2010PropOp55
 70
     1
102
RTVSPost2010Prop56
140
1.0
102
RTVSPost2010PropOp56
 70
     1
102
RTVSPost2010Prop57
140
1.0
102
RTVSPost2010PropOp57
 70
     1
102
RTVSPropertyOp0
 70
     1
102
RTVSPropertyOp1
 70
     1
102
RTVSPropertyOp2
 70
     1
102
RTVSPropertyOp3
 70
     1
102
RTVSPropertyOp4
 70
     1
102
RTVSPropertyOp5
 70
     1
102
RTVSPropertyOp6
 70
     1
102
RTVSPropertyOp7
 70
     1
102
RTVSPropertyOp8
 70
     1
102
RTVSPropertyOp9
 70
     1
102
RTVSPropertyOp10
 70
     1
102
RTVSPropertyOp11
 70
     1
102
RTVSPropertyOp12
 70
     1
102
RTVSPropertyOp13
 70
     1
102
RTVSPropertyOp14
 70
     1
102
RTVSPropertyOp15
 70
     1
102
RTVSPropertyOp16
 70
     1
102
RTVSPropertyOp17
 70
     1
102
RTVSPropertyOp18
 70
     1
102
RTVSPropertyOp19
 70
     1
102
RTVSPropertyOp20
 70
     1
102
RTVSPropertyOp21
 70
     1
102
RTVSPropertyOp22
 70
     1
102
RTVSPropertyOp23
 70
     1
102
RTVSPropertyOp24
 70
     1
102
RTVSPropertyOp25
 70
     1
102
RTVSPropertyOp26
 70
     1
102
RTVSPropertyOp27
 70
     1
102
RTVSPropertyOp28
 70
     1
102
RTVSPropertyOp29
 70
     1
102
RTVSPropertyOp30
 70
     1
102
RTVSPropertyOp31
 70
     1
102
RTVSPropertyOp32
 70
     1
102
RTVSPropertyOp33
 70
     1
102
RTVSPropertyOp34
 70
     1
102
RTVSPropertyOp35
 70
     1
102
RTVSPropertyOp36
 70
     1
102
RTVSPropertyOp37
 70
     1
102
RTVSPropertyOp38
 70
     1
102
RTVSPropertyOp39
 70
     1
102
RTVSPropertyOp40
 70
     1
102
RTVSPropertyOp41
 70
     1
102
RTVSPropertyOp42
 70
     1
102
RTVSPropertyOp43
 70
     1
102
RTVSPropertyOp44
 70
     1
102
RTVSPropertyOp45
 70
     1
102
RTVSPropertyOp46
 70
     1
102
RTVSPropertyOp47
 70
     1
102
RTVSPropertyOp48
 70
     1
102
RTVSPropertyOp49
 70
     1
102
RTVSPropertyOp50
 70
     1
102
RTVSPropertyOp51
 70
     0
102
RTVSPropertyOp52
 70
     0
102
RTVSPropertyOp53
 70
     1
102
RTVSPropertyOp54
 70
     1
102
RTVSPropertyOp55
 70
     1
102
RTVSPropertyOp56
 70
     1
102
RTVSPropertyOp57
 70
     1
102
RTVSPropertyOp58
 70
     1
102
RTVSPropertyOp59
 70
     1
102
RTVSPropertyOp60
 70
     1
102
RTVSPropertyOp61
 70
     1
102
RTVSPropertyOp62
 70
     1
  0
ENDSEC
  0
EOF
