  0
SECTION
  2
HEADER
  9
$ACADVER
  1
AC1015
  9
$ACADMAINTVER
 70
    20
  9
$DWGCODEPAGE
  3
ANSI_932
  9
$INSBASE
 10
0.0
 20
0.0
 30
0.0
  9
$EXTMIN
 10
10.0
 20
9.999999999999998
 30
0.0
  9
$EXTMAX
 10
383.339912
 20
245.3120549999999
 30
0.0
  9
$LIMMIN
 10
0.0
 20
0.0
  9
$LIMMAX
 10
396.0
 20
273.0
  9
$ORTHOMODE
 70
     1
  9
$REGENMODE
 70
     1
  9
$FILLMODE
 70
     1
  9
$QTEXTMODE
 70
     0
  9
$MIRRTEXT
 70
     1
  9
$LTSCALE
 40
20.0
  9
$ATTMODE
 70
     1
  9
$TEXTSIZE
 40
5.0
  9
$TRACEWID
 40
1.0
  9
$TEXTSTYLE
  7
STANDARD
  9
$CLAYER
  8
0
  9
$CELTYPE
  6
BYLAYER
  9
$CECOLOR
 62
   256
  9
$CELTSCALE
 40
1.0
  9
$DISPSILH
 70
     0
  9
$DIMSCALE
 40
1.0
  9
$DIMASZ
 40
3.0
  9
$DIMEXO
 40
1.0
  9
$DIMDLI
 40
10.0
  9
$DIMRND
 40
0.0
  9
$DIMDLE
 40
0.0
  9
$DIMEXE
 40
1.0
  9
$DIMTP
 40
0.0
  9
$DIMTM
 40
0.0
  9
$DIMTXT
 40
3.2
  9
$DIMCEN
 40
0.0
  9
$DIMTSZ
 40
0.0
  9
$DIMTOL
 70
     0
  9
$DIMLIM
 70
     0
  9
$DIMTIH
 70
     0
  9
$DIMTOH
 70
     0
  9
$DIMSE1
 70
     0
  9
$DIMSE2
 70
     0
  9
$DIMTAD
 70
     3
  9
$DIMZIN
 70
     8
  9
$DIMBLK
  1

  9
$DIMASO
 70
     1
  9
$DIMSHO
 70
     1
  9
$DIMPOST
  1

  9
$DIMAPOST
  1

  9
$DIMALT
 70
     0
  9
$DIMALTD
 70
     2
  9
$DIMALTF
 40
25.4
  9
$DIMLFAC
 40
1.0
  9
$DIMTOFL
 70
     1
  9
$DIMTVP
 40
0.0
  9
$DIMTIX
 70
     0
  9
$DIMSOXD
 70
     0
  9
$DIMSAH
 70
     1
  9
$DIMBLK1
  1
OPEN
  9
$DIMBLK2
  1
OPEN
  9
$DIMSTYLE
  2
STANDARD
  9
$DIMCLRD
 70
     0
  9
$DIMCLRE
 70
     0
  9
$DIMCLRT
 70
     0
  9
$DIMTFAC
 40
1.0
  9
$DIMGAP
 40
1.0
  9
$DIMJUST
 70
     0
  9
$DIMSD1
 70
     0
  9
$DIMSD2
 70
     0
  9
$DIMTOLJ
 70
     1
  9
$DIMTZIN
 70
     0
  9
$DIMALTZ
 70
     0
  9
$DIMALTTZ
 70
     0
  9
$DIMUPT
 70
     0
  9
$DIMDEC
 70
     4
  9
$DIMTDEC
 70
     4
  9
$DIMALTU
 70
     2
  9
$DIMALTTD
 70
     2
  9
$DIMTXSTY
  7
STANDARD
  9
$DIMAUNIT
 70
     0
  9
$DIMADEC
 70
     0
  9
$DIMALTRND
 40
0.0
  9
$DIMAZIN
 70
     0
  9
$DIMDSEP
 70
    46
  9
$DIMATFIT
 70
     3
  9
$DIMFRAC
 70
     0
  9
$DIMLDRBLK
  1
OPEN
  9
$DIMLUNIT
 70
     2
  9
$DIMLWD
 70
    -2
  9
$DIMLWE
 70
    -2
  9
$DIMTMOVE
 70
     0
  9
$LUNITS
 70
     2
  9
$LUPREC
 70
     4
  9
$SKETCHINC
 40
1.0
  9
$FILLETRAD
 40
2.6
  9
$AUNITS
 70
     0
  9
$AUPREC
 70
     2
  9
$MENU
  1
.
  9
$ELEVATION
 40
0.0
  9
$PELEVATION
 40
0.0
  9
$THICKNESS
 40
0.0
  9
$LIMCHECK
 70
     0
  9
$CHAMFERA
 40
10.0
  9
$CHAMFERB
 40
10.0
  9
$CHAMFERC
 40
0.0
  9
$CHAMFERD
 40
0.0
  9
$SKPOLY
 70
     0
  9
$TDCREATE
 40
2451074.431656482
  9
$TDUCREATE
 40
2451074.056656482
  9
$TDUPDATE
 40
2457192.600792234
  9
$TDUUPDATE
 40
2457192.225792234
  9
$TDINDWG
 40
0.0144127894
  9
$TDUSRTIMER
 40
0.0144125000
  9
$USRTIMER
 70
     1
  9
$ANGBASE
 50
0.0
  9
$ANGDIR
 70
     0
  9
$PDMODE
 70
     0
  9
$PDSIZE
 40
0.0
  9
$PLINEWID
 40
0.0
  9
$SPLFRAME
 70
     0
  9
$SPLINETYPE
 70
     6
  9
$SPLINESEGS
 70
     8
  9
$HANDSEED
  5
9EAC
  9
$SURFTAB1
 70
     6
  9
$SURFTAB2
 70
     6
  9
$SURFTYPE
 70
     6
  9
$SURFU
 70
     6
  9
$SURFV
 70
     6
  9
$UCSBASE
  2

  9
$UCSNAME
  2

  9
$UCSORG
 10
0.0
 20
0.0
 30
0.0
  9
$UCSXDIR
 10
1.0
 20
0.0
 30
0.0
  9
$UCSYDIR
 10
0.0
 20
1.0
 30
0.0
  9
$UCSORTHOREF
  2

  9
$UCSORTHOVIEW
 70
     0
  9
$UCSORGTOP
 10
0.0
 20
0.0
 30
0.0
  9
$UCSORGBOTTOM
 10
0.0
 20
0.0
 30
0.0
  9
$UCSORGLEFT
 10
0.0
 20
0.0
 30
0.0
  9
$UCSORGRIGHT
 10
0.0
 20
0.0
 30
0.0
  9
$UCSORGFRONT
 10
0.0
 20
0.0
 30
0.0
  9
$UCSORGBACK
 10
0.0
 20
0.0
 30
0.0
  9
$PUCSBASE
  2

  9
$PUCSNAME
  2

  9
$PUCSORG
 10
0.0
 20
0.0
 30
0.0
  9
$PUCSXDIR
 10
1.0
 20
0.0
 30
0.0
  9
$PUCSYDIR
 10
0.0
 20
1.0
 30
0.0
  9
$PUCSORTHOREF
  2

  9
$PUCSORTHOVIEW
 70
     0
  9
$PUCSORGTOP
 10
0.0
 20
0.0
 30
0.0
  9
$PUCSORGBOTTOM
 10
0.0
 20
0.0
 30
0.0
  9
$PUCSORGLEFT
 10
0.0
 20
0.0
 30
0.0
  9
$PUCSORGRIGHT
 10
0.0
 20
0.0
 30
0.0
  9
$PUCSORGFRONT
 10
0.0
 20
0.0
 30
0.0
  9
$PUCSORGBACK
 10
0.0
 20
0.0
 30
0.0
  9
$USERI1
 70
     0
  9
$USERI2
 70
     0
  9
$USERI3
 70
     0
  9
$USERI4
 70
     0
  9
$USERI5
 70
     0
  9
$USERR1
 40
0.0
  9
$USERR2
 40
0.0
  9
$USERR3
 40
0.0
  9
$USERR4
 40
0.0
  9
$USERR5
 40
0.0
  9
$WORLDVIEW
 70
     1
  9
$SHADEDGE
 70
     3
  9
$SHADEDIF
 70
    70
  9
$TILEMODE
 70
     1
  9
$MAXACTVP
 70
    16
  9
$PINSBASE
 10
0.0
 20
0.0
 30
0.0
  9
$PLIMCHECK
 70
     0
  9
$PEXTMIN
 10
1.000000000000000E+20
 20
1.000000000000000E+20
 30
1.000000000000000E+20
  9
$PEXTMAX
 10
-1.000000000000000E+20
 20
-1.000000000000000E+20
 30
-1.000000000000000E+20
  9
$PLIMMIN
 10
0.0
 20
0.0
  9
$PLIMMAX
 10
420.0
 20
297.0
  9
$UNITMODE
 70
     0
  9
$VISRETAIN
 70
     0
  9
$PLINEGEN
 70
     0
  9
$PSLTSCALE
 70
     0
  9
$TREEDEPTH
 70
  3020
  9
$CMLSTYLE
  2
STANDARD
  9
$CMLJUST
 70
     0
  9
$CMLSCALE
 40
1.0
  9
$PROXYGRAPHICS
 70
     1
  9
$MEASUREMENT
 70
     0
  9
$CELWEIGHT
370
    -1
  9
$ENDCAPS
280
     0
  9
$JOINSTYLE
280
     0
  9
$LWDISPLAY
290
     0
  9
$INSUNITS
 70
     0
  9
$HYPERLINKBASE
  1

  9
$STYLESHEET
  1

  9
$XEDIT
290
     1
  9
$CEPSNTYPE
380
     0
  9
$PSTYLEMODE
290
     1
  9
$FINGERPRINTGUID
  2
{42DBCCF6-6F00-4CF0-B64E-86B9277FD26E}
  9
$VERSIONGUID
  2
{5516602C-A62C-45BC-826B-9B7768258982}
  9
$EXTNAMES
290
     1
  9
$PSVPSCALE
 40
0.0
  9
$OLESTARTUP
290
     0
  0
ENDSEC
  0
SECTION
  2
CLASSES
  0
CLASS
  1
ACDBDICTIONARYWDFLT
  2
AcDbDictionaryWithDefault
  3
ObjectDBX Classes
 90
        0
280
     0
281
     0
  0
CLASS
  1
ACDBPLACEHOLDER
  2
AcDbPlaceHolder
  3
ObjectDBX Classes
 90
        0
280
     0
281
     0
  0
CLASS
  1
LAYOUT
  2
AcDbLayout
  3
ObjectDBX Classes
 90
        0
280
     0
281
     0
  0
CLASS
  1
DICTIONARYVAR
  2
AcDbDictionaryVar
  3
ObjectDBX Classes
 90
        0
280
     0
281
     0
  0
CLASS
  1
MATERIAL
  2
AcDbMaterial
  3
ObjectDBX Classes
 90
     1153
280
     0
281
     0
  0
CLASS
  1
VISUALSTYLE
  2
AcDbVisualStyle
  3
ObjectDBX Classes
 90
     4095
280
     0
281
     0
  0
CLASS
  1
TABLESTYLE
  2
AcDbTableStyle
  3
ObjectDBX Classes
 90
     4095
280
     0
281
     0
  0
CLASS
  1
SCALE
  2
AcDbScale
  3
ObjectDBX Classes
 90
     1153
280
     0
281
     0
  0
CLASS
  1
MLEADERSTYLE
  2
AcDbMLeaderStyle
  3
ACDB_MLEADERSTYLE_CLASS
 90
     4095
280
     0
281
     0
  0
CLASS
  1
ACDBSECTIONVIEWSTYLE
  2
AcDbSectionViewStyle
  3
ObjectDBX Classes
 90
     1025
280
     0
281
     0
  0
CLASS
  1
ACDBDETAILVIEWSTYLE
  2
AcDbDetailViewStyle
  3
ObjectDBX Classes
 90
     1025
280
     0
281
     0
  0
CLASS
  1
CELLSTYLEMAP
  2
AcDbCellStyleMap
  3
ObjectDBX Classes
 90
     1152
280
     0
281
     0
  0
ENDSEC
  0
SECTION
  2
TABLES
  0
TABLE
  2
VPORT
  5
9B67
330
0
100
AcDbSymbolTable
 70
     1
  0
VPORT
  5
9DF5
330
9B67
100
AcDbSymbolTableRecord
100
AcDbViewportTableRecord
  2
*ACTIVE
 70
     0
 10
0.0
 20
0.0
 11
1.0
 21
1.0
 12
267.950399059377
 22
127.6584097439869
 13
0.0
 23
0.0
 14
10.0
 24
10.0
 15
10.0
 25
10.0
 16
0.0
 26
0.0
 36
1.0
 17
0.0
 27
0.0
 37
0.0
 40
237.9704861585168
 41
1.899603698811096
 42
50.0
 43
0.0
 44
0.0
 50
0.0
 51
0.0
 71
     0
 72
   100
 73
     1
 74
     0
 75
     0
 76
     0
 77
     0
 78
     0
281
     0
 65
     1
110
0.0
120
0.0
130
0.0
111
1.0
121
0.0
131
0.0
112
0.0
122
1.0
132
0.0
 79
     0
146
0.0
1001
ACAD_NAV_VCDISPLAY
1070
     3
  0
ENDTAB
  0
TABLE
  2
LTYPE
  5
9B64
330
0
100
AcDbSymbolTable
 70
     4
  0
LTYPE
  5
9B72
330
9B64
100
AcDbSymbolTableRecord
100
AcDbLinetypeTableRecord
  2
BYBLOCK
 70
     0
  3

 72
    65
 73
     0
 40
0.0
  0
LTYPE
  5
9B73
330
9B64
100
AcDbSymbolTableRecord
100
AcDbLinetypeTableRecord
  2
BYLAYER
 70
     0
  3

 72
    65
 73
     0
 40
0.0
  0
LTYPE
  5
9B74
330
9B64
100
AcDbSymbolTableRecord
100
AcDbLinetypeTableRecord
  2
CONTINUOUS
 70
     0
  3
Solid line
 72
    65
 73
     0
 40
0.0
  0
LTYPE
  5
9B82
330
9B64
100
AcDbSymbolTableRecord
100
AcDbLinetypeTableRecord
  2
DASHED
 70
     0
  3
__ __ __ __ __ __ __ __ __ __ __ __ __ __ __ __
 72
    65
 73
     2
 40
0.75
 49
0.5
 74
     0
 49
-0.25
 74
     0
  0
LTYPE
  5
9B83
330
9B64
100
AcDbSymbolTableRecord
100
AcDbLinetypeTableRecord
  2
CENTER
 70
     0
  3
____ _ ____ _ ____ _ ____ _ ____ _ ____ _ ____ 
 72
    65
 73
     4
 40
2.0
 49
1.25
 74
     0
 49
-0.25
 74
     0
 49
0.25
 74
     0
 49
-0.25
 74
     0
  0
LTYPE
  5
9B84
330
9B64
100
AcDbSymbolTableRecord
100
AcDbLinetypeTableRecord
  2
PHANTOM
 70
     0
  3
______  __  __  ______  __  __  ______  __  __ 
 72
    65
 73
     6
 40
2.5
 49
1.25
 74
     0
 49
-0.25
 74
     0
 49
0.25
 74
     0
 49
-0.25
 74
     0
 49
0.25
 74
     0
 49
-0.25
 74
     0
  0
ENDTAB
  0
TABLE
  2
LAYER
  5
9B61
330
0
100
AcDbSymbolTable
 70
     8
  0
LAYER
  5
9B6F
102
{ACAD_XDICTIONARY
360
9E50
102
}
330
9B61
100
AcDbSymbolTableRecord
100
AcDbLayerTableRecord
  2
0
 70
     0
 62
     7
  6
CONTINUOUS
370
    -3
390
9DFE
  0
LAYER
  5
9B85
102
{ACAD_XDICTIONARY
360
9E52
102
}
330
9B61
100
AcDbSymbolTableRecord
100
AcDbLayerTableRecord
  2
4
 70
     0
 62
     1
  6
CENTER
370
    -3
390
9DFE
  0
LAYER
  5
9B86
102
{ACAD_XDICTIONARY
360
9E54
102
}
330
9B61
100
AcDbSymbolTableRecord
100
AcDbLayerTableRecord
  2
5
 70
     0
 62
     6
  6
PHANTOM
370
    -3
390
9DFE
  0
LAYER
  5
9B87
102
{ACAD_XDICTIONARY
360
9E56
102
}
330
9B61
100
AcDbSymbolTableRecord
100
AcDbLayerTableRecord
  2
1
 70
     0
 62
     7
  6
CONTINUOUS
370
    -3
390
9DFE
  0
LAYER
  5
9B88
102
{ACAD_XDICTIONARY
360
9E58
102
}
330
9B61
100
AcDbSymbolTableRecord
100
AcDbLayerTableRecord
  2
2
 70
     0
 62
     4
  6
CONTINUOUS
370
    -3
390
9DFE
  0
LAYER
  5
9B89
102
{ACAD_XDICTIONARY
360
9E5A
102
}
330
9B61
100
AcDbSymbolTableRecord
100
AcDbLayerTableRecord
  2
3
 70
     0
 62
     2
  6
DASHED
370
    -3
390
9DFE
  0
LAYER
  5
9B8A
102
{ACAD_XDICTIONARY
360
9E5C
102
}
330
9B61
100
AcDbSymbolTableRecord
100
AcDbLayerTableRecord
  2
6
 70
     0
 62
     5
  6
CONTINUOUS
370
    -3
390
9DFE
  0
LAYER
  5
9B8B
102
{ACAD_XDICTIONARY
360
9E5E
102
}
330
9B61
100
AcDbSymbolTableRecord
100
AcDbLayerTableRecord
  2
7
 70
     0
 62
     3
  6
CONTINUOUS
370
    -3
390
9DFE
  0
ENDTAB
  0
TABLE
  2
STYLE
  5
9B62
330
0
100
AcDbSymbolTable
 70
     1
  0
STYLE
  5
9B70
330
9B62
100
AcDbSymbolTableRecord
100
AcDbTextStyleTableRecord
  2
STANDARD
 70
     0
 40
0.0
 41
1.0
 50
0.0
 71
     0
 42
5.0
  3
txt
  4

  0
ENDTAB
  0
TABLE
  2
VIEW
  5
9B65
330
0
100
AcDbSymbolTable
 70
     0
  0
ENDTAB
  0
TABLE
  2
UCS
  5
9B66
330
0
100
AcDbSymbolTable
 70
     0
  0
ENDTAB
  0
TABLE
  2
APPID
  5
9B68
330
0
100
AcDbSymbolTable
 70
     7
  0
APPID
  5
9B71
330
9B68
100
AcDbSymbolTableRecord
100
AcDbRegAppTableRecord
  2
ACAD
 70
     0
  0
APPID
  5
9B8C
330
9B68
100
AcDbSymbolTableRecord
100
AcDbRegAppTableRecord
  2
CONTENTTABDATA
 70
     0
  0
APPID
  5
9B8D
330
9B68
100
AcDbSymbolTableRecord
100
AcDbRegAppTableRecord
  2
CONTENTCURRENTTAB
 70
     0
  0
APPID
  5
9B8E
330
9B68
100
AcDbSymbolTableRecord
100
AcDbRegAppTableRecord
  2
CONTENTBLOCKICON
 70
     0
  0
APPID
  5
9B8F
330
9B68
100
AcDbSymbolTableRecord
100
AcDbRegAppTableRecord
  2
CONTENTBLOCKDESCRIPTION
 70
     0
  0
APPID
  5
9E6A
330
9B68
100
AcDbSymbolTableRecord
100
AcDbRegAppTableRecord
  2
ACAD_NAV_VCDISPLAY
 70
     0
  0
APPID
  5
9EA3
330
9B68
100
AcDbSymbolTableRecord
100
AcDbRegAppTableRecord
  2
ACAD_MLEADERVER
 70
     0
  0
ENDTAB
  0
TABLE
  2
DIMSTYLE
  5
9B69
330
0
100
AcDbSymbolTable
 70
     1
100
AcDbDimStyleTable
 71
     0
  0
DIMSTYLE
105
9B91
330
9B69
100
AcDbSymbolTableRecord
100
AcDbDimStyleTableRecord
  2
STANDARD
 70
     0
 41
3.0
 42
1.0
 43
10.0
 44
1.0
 73
     0
 74
     0
 77
     3
 78
     8
140
3.2
141
0.0
147
1.0
172
     1
173
     1
284
     8
285
     8
286
     8
340
9B70
  0
ENDTAB
  0
TABLE
  2
BLOCK_RECORD
  5
9B60
330
0
100
AcDbSymbolTable
 70
     1
  0
BLOCK_RECORD
  5
9B7D
102
{ACAD_XDICTIONARY
360
9DF8
102
}
330
9B60
100
AcDbSymbolTableRecord
100
AcDbBlockTableRecord
  2
*MODEL_SPACE
340
9E4C
  0
BLOCK_RECORD
  5
9B79
102
{ACAD_XDICTIONARY
360
9DF6
102
}
330
9B60
100
AcDbSymbolTableRecord
100
AcDbBlockTableRecord
  2
*PAPER_SPACE
340
9E4D
  0
BLOCK_RECORD
  5
9B99
330
9B60
100
AcDbSymbolTableRecord
100
AcDbBlockTableRecord
  2
_OPEN
340
0
  0
ENDTAB
  0
ENDSEC
  0
SECTION
  2
BLOCKS
  0
BLOCK
  5
9B7E
330
9B7D
100
AcDbEntity
  8
0
100
AcDbBlockBegin
  2
*MODEL_SPACE
 70
     0
 10
0.0
 20
0.0
 30
0.0
  3
*MODEL_SPACE
  1

  0
ENDBLK
  5
9B7F
330
9B7D
100
AcDbEntity
  8
0
100
AcDbBlockEnd
  0
BLOCK
  5
9B7A
330
9B79
100
AcDbEntity
 67
     1
  8
0
100
AcDbBlockBegin
  2
*PAPER_SPACE
 70
     0
 10
0.0
 20
0.0
 30
0.0
  3
*PAPER_SPACE
  1

  0
ENDBLK
  5
9B7B
330
9B79
100
AcDbEntity
 67
     1
  8
0
100
AcDbBlockEnd
  0
BLOCK
  5
9B9A
330
9B99
100
AcDbEntity
  8
0
100
AcDbBlockBegin
  2
_OPEN
 70
     0
 10
0.0
 20
0.0
 30
0.0
  3
_OPEN
  1

  0
LINE
  5
9B9B
330
9B99
100
AcDbEntity
  8
0
  6
ByBlock
 62
     0
100
AcDbLine
 10
-1.0
 20
0.1666666666666666
 30
0.0
 11
0.0
 21
0.0
 31
0.0
  0
LINE
  5
9B9C
330
9B99
100
AcDbEntity
  8
0
  6
ByBlock
 62
     0
100
AcDbLine
 10
0.0
 20
0.0
 30
0.0
 11
-1.0
 21
-0.1666666666666666
 31
0.0
  0
LINE
  5
9B9D
330
9B99
100
AcDbEntity
  8
0
  6
ByBlock
 62
     0
100
AcDbLine
 10
0.0
 20
0.0
 30
0.0
 11
-1.0
 21
0.0
 31
0.0
  0
ENDBLK
  5
9B9E
330
9B99
100
AcDbEntity
  8
0
100
AcDbBlockEnd
  0
ENDSEC
  0
SECTION
  2
ENTITIES
  0
TEXT
  5
9B9F
330
9B7D
100
AcDbEntity
  8
7
  6
Continuous
100
AcDbText
 10
10.0
 20
18.0
 30
0.0
 40
3.0
  1
TYPE No.TL-258-2
100
AcDbText
  0
TEXT
  5
9BA0
330
9B7D
100
AcDbEntity
  8
7
  6
Continuous
100
AcDbText
 10
10.0
 20
26.0
 30
0.0
 40
3.0
  1
CODE No.1729
100
AcDbText
  0
TEXT
  5
9BA1
330
9B7D
100
AcDbEntity
  8
1
  6
Continuous
100
AcDbText
 10
10.0
 20
10.0
 30
0.0
 40
1.399999999999999
  1
LAYER
100
AcDbText
  0
TEXT
  5
9BA2
330
9B7D
100
AcDbEntity
  8
1
  6
Continuous
100
AcDbText
 10
17.97951099999998
 20
10.04873699999998
 30
0.0
 40
1.399999999999999
  1
1
100
AcDbText
  0
TEXT
  5
9BA3
330
9B7D
100
AcDbEntity
  8
7
  6
Continuous
100
AcDbText
 10
29.97951099999999
 20
10.04873699999998
 30
0.0
 40
1.399999999999999
  1
7
100
AcDbText
  0
TEXT
  5
9BA4
330
9B7D
100
AcDbEntity
  8
4
  6
CENTER
100
AcDbText
 10
23.97951099999999
 20
10.04873699999998
 30
0.0
 40
1.399999999999999
  1
4
100
AcDbText
  0
TEXT
  5
9BA5
330
9B7D
100
AcDbEntity
  8
3
  6
DASHED
100
AcDbText
 10
21.979511
 20
10.04873699999998
 30
0.0
 40
1.399999999999999
  1
3
100
AcDbText
  0
TEXT
  5
9BA6
330
9B7D
100
AcDbEntity
  8
2
  6
Continuous
100
AcDbText
 10
19.97951099999999
 20
10.04873699999998
 30
0.0
 40
1.399999999999999
  1
2
100
AcDbText
  0
TEXT
  5
9BA7
330
9B7D
100
AcDbEntity
  8
6
  6
Continuous
100
AcDbText
 10
27.979511
 20
10.04873699999998
 30
0.0
 40
1.399999999999999
  1
6
100
AcDbText
  0
TEXT
  5
9BA8
330
9B7D
100
AcDbEntity
  8
5
  6
PHANTOM
100
AcDbText
 10
25.97951099999999
 20
10.04873699999998
 30
0.0
 40
1.399999999999999
  1
5
100
AcDbText
  0
LINE
  5
9BA9
330
9B7D
100
AcDbEntity
  8
1
  6
Continuous
100
AcDbLine
 10
110.382003
 20
148.7120459999998
 30
0.0
 11
110.382003
 21
126.712046
 31
0.0
  0
LINE
  5
9BAA
330
9B7D
100
AcDbEntity
  8
1
  6
Continuous
100
AcDbLine
 10
137.000953
 20
148.7120459999998
 30
0.0
 11
160.3819959999999
 21
148.7120459999998
 31
0.0
  0
LINE
  5
9BAB
330
9B7D
100
AcDbEntity
  8
1
  6
Continuous
100
AcDbLine
 10
110.382003
 20
126.712046
 30
0.0
 11
160.3819959999999
 21
126.712046
 31
0.0
  0
LINE
  5
9BAC
330
9B7D
100
AcDbEntity
  8
1
  6
Continuous
100
AcDbLine
 10
160.3819959999999
 20
148.7120459999998
 30
0.0
 11
160.3819959999999
 21
126.712046
 31
0.0
  0
LINE
  5
9BAD
330
9B7D
100
AcDbEntity
  8
4
  6
CENTER
100
AcDbLine
 10
95.824096
 20
137.7120459999999
 30
0.0
 11
165.556465
 21
137.7120459999999
 31
0.0
  0
LINE
  5
9BAE
330
9B7D
100
AcDbEntity
  8
1
  6
Continuous
100
AcDbLine
 10
110.382003
 20
148.7120459999998
 30
0.0
 11
113.7630539999999
 21
148.7120459999998
 31
0.0
  0
LINE
  5
9BAF
330
9B7D
100
AcDbEntity
  8
1
  6
Continuous
100
AcDbLine
 10
155.01078
 20
131.083254
 30
0.0
 11
155.432319
 21
131.279826
 31
0.0
  0
LINE
  5
9BB0
330
9B7D
100
AcDbEntity
  8
1
  6
Continuous
100
AcDbLine
 10
155.4323349999999
 20
131.2798329999999
 30
0.0
 11
156.1323319999999
 21
131.292048
 31
0.0
  0
LINE
  5
9BB1
330
9B7D
100
AcDbEntity
  8
1
  6
Continuous
100
AcDbLine
 10
155.4323349999999
 20
132.1442589999997
 30
0.0
 11
156.132316
 21
132.132044
 31
0.0
  0
LINE
  5
9BB2
330
9B7D
100
AcDbEntity
  8
1
  6
Continuous
100
AcDbLine
 10
155.01078
 20
132.3408379999999
 30
0.0
 11
155.4323349999999
 21
132.1442669999999
 31
0.0
  0
LINE
  5
9BB3
330
9B7D
100
AcDbEntity
  8
1
  6
Continuous
100
AcDbLine
 10
154.814232
 20
132.7623769999999
 30
0.0
 11
154.802009
 21
133.462367
 31
0.0
  0
LINE
  5
9BB4
330
9B7D
100
AcDbEntity
  8
1
  6
Continuous
100
AcDbLine
 10
155.010795
 20
132.3408379999999
 30
0.0
 11
154.8142159999999
 21
132.7623769999999
 31
0.0
  0
LINE
  5
9BB5
330
9B7D
100
AcDbEntity
  8
1
  6
Continuous
100
AcDbLine
 10
153.9497749999999
 20
132.7623769999999
 30
0.0
 11
153.9619979999999
 21
133.4623589999999
 31
0.0
  0
LINE
  5
9BB6
330
9B7D
100
AcDbEntity
  8
1
  6
Continuous
100
AcDbLine
 10
153.7532269999998
 20
132.34083
 30
0.0
 11
153.949791
 21
132.7623699999997
 31
0.0
  0
LINE
  5
9BB7
330
9B7D
100
AcDbEntity
  8
1
  6
Continuous
100
AcDbLine
 10
153.3316879999999
 20
132.1442739999999
 30
0.0
 11
152.631691
 21
132.1320519999999
 31
0.0
  0
LINE
  5
9BB8
330
9B7D
100
AcDbEntity
  8
1
  6
Continuous
100
AcDbLine
 10
153.7532119999999
 20
132.34083
 30
0.0
 11
153.331672
 21
132.1442589999997
 31
0.0
  0
LINE
  5
9BB9
330
9B7D
100
AcDbEntity
  8
1
  6
Continuous
100
AcDbLine
 10
153.331672
 20
131.279818
 30
0.0
 11
152.631691
 21
131.2920399999997
 31
0.0
  0
LINE
  5
9BBA
330
9B7D
100
AcDbEntity
  8
1
  6
Continuous
100
AcDbLine
 10
153.7532119999999
 20
131.083254
 30
0.0
 11
153.331672
 21
131.279818
 31
0.0
  0
LINE
  5
9BBB
330
9B7D
100
AcDbEntity
  8
1
  6
Continuous
100
AcDbLine
 10
153.949791
 20
130.661723
 30
0.0
 11
153.9620129999998
 21
129.9617409999999
 31
0.0
  0
LINE
  5
9BBC
330
9B7D
100
AcDbEntity
  8
1
  6
Continuous
100
AcDbLine
 10
153.7532119999999
 20
131.083262
 30
0.0
 11
153.949791
 21
130.661723
 31
0.0
  0
LINE
  5
9BBD
330
9B7D
100
AcDbEntity
  8
1
  6
Continuous
100
AcDbLine
 10
154.8142159999999
 20
130.661723
 30
0.0
 11
154.801994
 21
129.961733
 31
0.0
  0
LINE
  5
9BBE
330
9B7D
100
AcDbEntity
  8
1
  6
Continuous
100
AcDbLine
 10
155.010795
 20
131.083254
 30
0.0
 11
154.8142159999999
 21
130.6617149999999
 31
0.0
  0
LINE
  5
9BBF
330
9B7D
100
AcDbEntity
  8
4
  6
CENTER
100
AcDbLine
 10
154.3819959999999
 20
135.4620459999999
 30
0.0
 11
154.3819959999999
 21
127.962046
 31
0.0
  0
LINE
  5
9BC0
330
9B7D
100
AcDbEntity
  8
4
  6
CENTER
100
AcDbLine
 10
150.6319959999999
 20
131.7120459999999
 30
0.0
 11
158.1319959999999
 21
131.7120459999999
 31
0.0
  0
LINE
  5
9BC1
330
9B7D
100
AcDbEntity
  8
4
  6
CENTER
100
AcDbLine
 10
139.3819959999997
 20
147.4620459999998
 30
0.0
 11
139.3819959999997
 21
139.9620459999999
 31
0.0
  0
LINE
  5
9BC2
330
9B7D
100
AcDbEntity
  8
4
  6
CENTER
100
AcDbLine
 10
135.6319959999999
 20
143.7120459999998
 30
0.0
 11
143.1319959999999
 21
143.7120459999998
 31
0.0
  0
LINE
  5
9BC3
330
9B7D
100
AcDbEntity
  8
1
  6
Continuous
100
AcDbLine
 10
140.0107949999997
 20
143.0832619999999
 30
0.0
 11
140.432335
 21
143.279826
 31
0.0
  0
LINE
  5
9BC4
330
9B7D
100
AcDbEntity
  8
1
  6
Continuous
100
AcDbLine
 10
140.432335
 20
143.279826
 30
0.0
 11
141.132316
 21
143.2920329999998
 31
0.0
  0
LINE
  5
9BC5
330
9B7D
100
AcDbEntity
  8
1
  6
Continuous
100
AcDbLine
 10
140.432319
 20
144.1442669999998
 30
0.0
 11
141.132301
 21
144.132044
 31
0.0
  0
LINE
  5
9BC6
330
9B7D
100
AcDbEntity
  8
1
  6
Continuous
100
AcDbLine
 10
140.01078
 20
144.34083
 30
0.0
 11
140.432335
 21
144.1442509999999
 31
0.0
  0
LINE
  5
9BC7
330
9B7D
100
AcDbEntity
  8
1
  6
Continuous
100
AcDbLine
 10
139.814232
 20
144.762385
 30
0.0
 11
139.8020089999999
 21
145.4623669999998
 31
0.0
  0
LINE
  5
9BC8
330
9B7D
100
AcDbEntity
  8
1
  6
Continuous
100
AcDbLine
 10
140.01078
 20
144.34083
 30
0.0
 11
139.8142159999999
 21
144.76237
 31
0.0
  0
LINE
  5
9BC9
330
9B7D
100
AcDbEntity
  8
1
  6
Continuous
100
AcDbLine
 10
138.949791
 20
144.76237
 30
0.0
 11
138.9619979999999
 21
145.4623669999998
 31
0.0
  0
LINE
  5
9BCA
330
9B7D
100
AcDbEntity
  8
1
  6
Continuous
100
AcDbLine
 10
138.7532119999999
 20
144.34083
 30
0.0
 11
138.949791
 21
144.76237
 31
0.0
  0
LINE
  5
9BCB
330
9B7D
100
AcDbEntity
  8
1
  6
Continuous
100
AcDbLine
 10
138.331672
 20
144.1442669999998
 30
0.0
 11
137.6316909999999
 21
144.132044
 31
0.0
  0
LINE
  5
9BCC
330
9B7D
100
AcDbEntity
  8
1
  6
Continuous
100
AcDbLine
 10
138.7532119999999
 20
144.34083
 30
0.0
 11
138.331672
 21
144.1442669999998
 31
0.0
  0
LINE
  5
9BCD
330
9B7D
100
AcDbEntity
  8
1
  6
Continuous
100
AcDbLine
 10
138.331672
 20
143.279826
 30
0.0
 11
137.6316909999999
 21
143.2920479999999
 31
0.0
  0
LINE
  5
9BCE
330
9B7D
100
AcDbEntity
  8
1
  6
Continuous
100
AcDbLine
 10
138.7532119999999
 20
143.083247
 30
0.0
 11
138.331672
 21
143.279826
 31
0.0
  0
LINE
  5
9BCF
330
9B7D
100
AcDbEntity
  8
1
  6
Continuous
100
AcDbLine
 10
138.949791
 20
142.6617229999999
 30
0.0
 11
138.9620129999999
 21
141.9617409999998
 31
0.0
  0
LINE
  5
9BD0
330
9B7D
100
AcDbEntity
  8
1
  6
Continuous
100
AcDbLine
 10
138.7532119999999
 20
143.0832619999999
 30
0.0
 11
138.9497749999997
 21
142.6617229999999
 31
0.0
  0
LINE
  5
9BD1
330
9B7D
100
AcDbEntity
  8
1
  6
Continuous
100
AcDbLine
 10
139.814232
 20
142.6617229999999
 30
0.0
 11
139.8020089999999
 21
141.961726
 31
0.0
  0
LINE
  5
9BD2
330
9B7D
100
AcDbEntity
  8
1
  6
Continuous
100
AcDbLine
 10
140.0107949999997
 20
143.0832619999999
 30
0.0
 11
139.8142159999999
 21
142.6617229999999
 31
0.0
  0
LINE
  5
9BD3
330
9B7D
100
AcDbEntity
  8
4
  6
CENTER
100
AcDbLine
 10
22.78200299999999
 20
133.9620459999999
 30
0.0
 11
22.78200299999999
 21
129.4620459999999
 31
0.0
  0
LINE
  5
9BD4
330
9B7D
100
AcDbEntity
  8
4
  6
CENTER
100
AcDbLine
 10
20.53200299999997
 20
131.7120459999999
 30
0.0
 11
25.032003
 21
131.7120459999999
 31
0.0
  0
LINE
  5
9BD5
330
9B7D
100
AcDbEntity
  8
4
  6
CENTER
100
AcDbLine
 10
129.8819959999997
 20
133.4620459999999
 30
0.0
 11
129.8819959999997
 21
128.9620459999997
 31
0.0
  0
LINE
  5
9BD6
330
9B7D
100
AcDbEntity
  8
4
  6
CENTER
100
AcDbLine
 10
127.631996
 20
131.2120459999997
 30
0.0
 11
132.1319959999997
 21
131.2120459999997
 31
0.0
  0
LINE
  5
9BD7
330
9B7D
100
AcDbEntity
  8
4
  6
CENTER
100
AcDbLine
 10
125.3819959999999
 20
158.2120459999998
 30
0.0
 11
125.3819959999999
 21
139.2120459999999
 31
0.0
  0
LINE
  5
9BD8
330
9B7D
100
AcDbEntity
  8
4
  6
CENTER
100
AcDbLine
 10
115.882003
 20
148.7120459999998
 30
0.0
 11
134.8819959999999
 21
148.7120459999998
 31
0.0
  0
LINE
  5
9BD9
330
9B7D
100
AcDbEntity
  8
1
  6
Continuous
100
AcDbLine
 10
124.032005
 20
139.3620399999997
 30
0.0
 11
137.332008
 21
139.3620399999997
 31
0.0
  0
LINE
  5
9BDA
330
9B7D
100
AcDbEntity
  8
1
  6
Continuous
100
AcDbLine
 10
124.032005
 20
136.0620519999999
 30
0.0
 11
137.332008
 21
136.0620519999999
 31
0.0
  0
LINE
  5
9BDB
330
9B7D
100
AcDbEntity
  8
1
  6
Continuous
100
AcDbLine
 10
42.782003
 20
157.7120459999999
 30
0.0
 11
45.38200299999998
 21
157.7120459999999
 31
0.0
  0
LINE
  5
9BDC
330
9B7D
100
AcDbEntity
  8
1
  6
Continuous
100
AcDbLine
 10
17.78200299999999
 20
148.7120459999998
 30
0.0
 11
45.38200299999998
 21
148.7120459999998
 31
0.0
  0
LINE
  5
9BDD
330
9B7D
100
AcDbEntity
  8
1
  6
Continuous
100
AcDbLine
 10
17.78200299999999
 20
126.712046
 30
0.0
 11
45.38200299999998
 21
126.712046
 31
0.0
  0
LINE
  5
9BDE
330
9B7D
100
AcDbEntity
  8
1
  6
Continuous
100
AcDbLine
 10
45.38200299999998
 20
157.7120459999999
 30
0.0
 11
45.38200299999998
 21
126.712046
 31
0.0
  0
LINE
  5
9BDF
330
9B7D
100
AcDbEntity
  8
1
  6
Continuous
100
AcDbLine
 10
17.78200299999999
 20
148.7120459999998
 30
0.0
 11
17.78200299999999
 21
126.712046
 31
0.0
  0
LINE
  5
9BE0
330
9B7D
100
AcDbEntity
  8
1
  6
Continuous
100
AcDbLine
 10
42.782003
 20
157.7120459999999
 30
0.0
 11
42.782003
 21
148.7120459999998
 31
0.0
  0
LINE
  5
9BE1
330
9B7D
100
AcDbEntity
  8
4
  6
CENTER
100
AcDbLine
 10
49.830482
 20
137.7120459999999
 30
0.0
 11
13.210376
 21
137.7120459999999
 31
0.0
  0
LINE
  5
9BE2
330
9B7D
100
AcDbEntity
  8
4
  6
CENTER
100
AcDbLine
 10
30.282003
 20
141.7120459999999
 30
0.0
 11
30.282003
 21
133.7120459999999
 31
0.0
  0
LINE
  5
9BE3
330
9B7D
100
AcDbEntity
  8
4
  6
CENTER
100
AcDbLine
 10
117.882003
 20
140.962046
 30
0.0
 11
117.882003
 21
136.4620459999999
 31
0.0
  0
LINE
  5
9BE4
330
9B7D
100
AcDbEntity
  8
4
  6
CENTER
100
AcDbLine
 10
115.632003
 20
138.712046
 30
0.0
 11
120.1319959999999
 21
138.712046
 31
0.0
  0
LINE
  5
9BE5
330
9B7D
100
AcDbEntity
  8
4
  6
CENTER
100
AcDbLine
 10
37.782003
 20
139.9620459999999
 30
0.0
 11
37.782003
 21
135.4620459999999
 31
0.0
  0
LINE
  5
9BE6
330
9B7D
100
AcDbEntity
  8
4
  6
CENTER
100
AcDbLine
 10
22.78200299999999
 20
145.9620459999999
 30
0.0
 11
22.78200299999999
 21
141.4620459999999
 31
0.0
  0
LINE
  5
9BE7
330
9B7D
100
AcDbEntity
  8
4
  6
CENTER
100
AcDbLine
 10
20.53200299999997
 20
143.7120459999998
 30
0.0
 11
25.032003
 21
143.7120459999998
 31
0.0
  0
LINE
  5
9BE8
330
9B7D
100
AcDbEntity
  8
1
  6
Continuous
100
AcDbLine
 10
150.3819959999999
 20
154.7120459999999
 30
0.0
 11
150.3819959999999
 21
148.7120459999998
 31
0.0
  0
LINE
  5
9BE9
330
9B7D
100
AcDbEntity
  8
1
  6
Continuous
100
AcDbLine
 10
149.982002
 20
154.7120459999999
 30
0.0
 11
149.982002
 21
148.7120459999998
 31
0.0
  0
LINE
  5
9BEA
330
9B7D
100
AcDbEntity
  8
1
  6
Continuous
100
AcDbLine
 10
149.982002
 20
154.7120459999999
 30
0.0
 11
150.3819959999999
 21
154.7120459999999
 31
0.0
  0
LINE
  5
9BEB
330
9B7D
100
AcDbEntity
  8
1
  6
Continuous
100
AcDbLine
 10
27.782
 20
148.7120459999998
 30
0.0
 11
26.21188599999999
 21
153.6652929999999
 31
0.0
  0
LINE
  5
9BEC
330
9B7D
100
AcDbEntity
  8
1
  6
Continuous
100
AcDbLine
 10
24.63488599999999
 20
148.7120459999998
 30
0.0
 11
23.35212099999999
 21
152.7587839999999
 31
0.0
  0
LINE
  5
9BED
330
9B7D
100
AcDbEntity
  8
1
  6
Continuous
100
AcDbLine
 10
32.28200300000001
 20
139.9481149999997
 30
0.0
 11
32.28200300000001
 21
135.4759929999999
 31
0.0
  0
LINE
  5
9BEE
330
9B7D
100
AcDbEntity
  8
1
  6
Continuous
100
AcDbLine
 10
101.1459349999997
 20
134.7120459999999
 30
0.0
 11
110.382003
 21
134.7120459999999
 31
0.0
  0
LINE
  5
9BEF
330
9B7D
100
AcDbEntity
  8
1
  6
Continuous
100
AcDbLine
 10
101.1459349999997
 20
140.7120459999999
 30
0.0
 11
110.382003
 21
140.7120459999999
 31
0.0
  0
LINE
  5
9BF0
330
9B7D
100
AcDbEntity
  8
1
  6
Continuous
100
AcDbLine
 10
100.3820029999999
 20
139.9481149999997
 30
0.0
 11
100.3820029999999
 21
135.4759929999999
 31
0.0
  0
LINE
  5
9BF1
330
9B7D
100
AcDbEntity
  8
1
  6
Continuous
100
AcDbLine
 10
365.5820079999998
 20
133.2120459999997
 30
0.0
 11
365.5820079999998
 21
142.2120459999999
 31
0.0
  0
LINE
  5
9BF2
330
9B7D
100
AcDbEntity
  8
1
  6
Continuous
100
AcDbLine
 10
366.1819899999999
 20
133.2120459999997
 30
0.0
 11
365.5820079999998
 21
133.2120459999997
 31
0.0
  0
LINE
  5
9BF3
330
9B7D
100
AcDbEntity
  8
1
  6
Continuous
100
AcDbLine
 10
366.1819899999999
 20
142.2120459999999
 30
0.0
 11
365.5820079999998
 21
142.2120459999999
 31
0.0
  0
LINE
  5
9BF4
330
9B7D
100
AcDbEntity
  8
1
  6
Continuous
100
AcDbLine
 10
134.3819959999999
 20
139.3620399999997
 30
0.0
 11
134.3819959999999
 21
136.0620519999999
 31
0.0
  0
LINE
  5
9BF5
330
9B7D
100
AcDbEntity
  8
4
  6
CENTER
100
AcDbLine
 10
124.881996
 20
140.2120459999999
 30
0.0
 11
124.881996
 21
135.2120459999997
 31
0.0
  0
LINE
  5
9BF6
330
9B7D
100
AcDbEntity
  8
1
  6
Continuous
100
AcDbLine
 10
125.7819899999997
 20
137.7120459999999
 30
0.0
 11
126.3819959999999
 21
137.7120459999999
 31
0.0
  0
LINE
  5
9BF7
330
9B7D
100
AcDbEntity
  8
1
  6
Continuous
100
AcDbLine
 10
161.3819959999998
 20
139.9620459999999
 30
0.0
 11
161.3819959999998
 21
135.4620459999999
 31
0.0
  0
LINE
  5
9BF8
330
9B7D
100
AcDbEntity
  8
1
  6
Continuous
100
AcDbLine
 10
160.3819959999999
 20
139.9620459999999
 30
0.0
 11
161.3819959999998
 21
139.9620459999999
 31
0.0
  0
LINE
  5
9BF9
330
9B7D
100
AcDbEntity
  8
1
  6
Continuous
100
AcDbLine
 10
160.3819959999999
 20
135.4620459999999
 30
0.0
 11
161.3819959999998
 21
135.4620459999999
 31
0.0
  0
LINE
  5
9BFA
330
9B7D
100
AcDbEntity
  8
1
  6
Continuous
100
AcDbLine
 10
227.1820079999999
 20
157.7120459999999
 30
0.0
 11
224.582008
 21
157.7120459999999
 31
0.0
  0
LINE
  5
9BFB
330
9B7D
100
AcDbEntity
  8
1
  6
Continuous
100
AcDbLine
 10
252.1820079999999
 20
148.7120459999998
 30
0.0
 11
227.1820079999999
 21
148.7120459999998
 31
0.0
  0
LINE
  5
9BFC
330
9B7D
100
AcDbEntity
  8
1
  6
Continuous
100
AcDbLine
 10
252.1820079999999
 20
126.712046
 30
0.0
 11
224.582008
 21
126.712046
 31
0.0
  0
LINE
  5
9BFD
330
9B7D
100
AcDbEntity
  8
1
  6
Continuous
100
AcDbLine
 10
224.582008
 20
157.7120459999999
 30
0.0
 11
224.582008
 21
126.712046
 31
0.0
  0
LINE
  5
9BFE
330
9B7D
100
AcDbEntity
  8
1
  6
Continuous
100
AcDbLine
 10
252.1820079999999
 20
148.7120459999998
 30
0.0
 11
252.1820079999999
 21
126.712046
 31
0.0
  0
LINE
  5
9BFF
330
9B7D
100
AcDbEntity
  8
1
  6
Continuous
100
AcDbLine
 10
227.1820079999999
 20
157.7120459999999
 30
0.0
 11
227.1820079999999
 21
126.712046
 31
0.0
  0
LINE
  5
9C00
330
9B7D
100
AcDbEntity
  8
4
  6
CENTER
100
AcDbLine
 10
220.133522
 20
137.7120459999999
 30
0.0
 11
256.753639
 21
137.7120459999999
 31
0.0
  0
LINE
  5
9C01
330
9B7D
100
AcDbEntity
  8
4
  6
CENTER
100
AcDbLine
 10
239.6820079999999
 20
141.7120459999999
 30
0.0
 11
239.6820079999999
 21
133.7120459999999
 31
0.0
  0
LINE
  5
9C02
330
9B7D
100
AcDbEntity
  8
1
  6
Continuous
100
AcDbLine
 10
242.181993
 20
148.7120459999998
 30
0.0
 11
243.752122
 21
153.6652929999999
 31
0.0
  0
LINE
  5
9C03
330
9B7D
100
AcDbEntity
  8
1
  6
Continuous
100
AcDbLine
 10
245.3291179999999
 20
148.7120459999998
 30
0.0
 11
246.6118789999999
 21
152.7587839999999
 31
0.0
  0
LINE
  5
9C04
330
9B7D
100
AcDbEntity
  8
1
  6
Continuous
100
AcDbLine
 10
237.1820079999999
 20
148.7120459999998
 30
0.0
 11
235.611879
 21
153.665308
 31
0.0
  0
LINE
  5
9C05
330
9B7D
100
AcDbEntity
  8
1
  6
Continuous
100
AcDbLine
 10
234.0348829999999
 20
148.7120459999998
 30
0.0
 11
232.752122
 21
152.758799
 31
0.0
  0
LINE
  5
9C06
330
9B7D
100
AcDbEntity
  8
1
  6
Continuous
100
AcDbLine
 10
110.382003
 20
30.212046
 30
0.0
 11
110.3820029999997
 21
55.11204599999999
 31
0.0
  0
LINE
  5
9C07
330
9B7D
100
AcDbEntity
  8
1
  6
Continuous
100
AcDbLine
 10
160.3819959999999
 20
31.71203699999999
 30
0.0
 11
160.3819959999999
 21
53.51204
 31
0.0
  0
LINE
  5
9C08
330
9B7D
100
AcDbEntity
  8
1
  6
Continuous
100
AcDbLine
 10
112.9820029999999
 20
57.71204599999999
 30
0.0
 11
160.3819959999999
 21
57.71204599999999
 31
0.0
  0
LINE
  5
9C09
330
9B7D
100
AcDbEntity
  8
1
  6
Continuous
100
AcDbLine
 10
112.9820029999999
 20
55.11204599999999
 30
0.0
 11
160.3819959999999
 21
55.11204599999999
 31
0.0
  0
LINE
  5
9C0A
330
9B7D
100
AcDbEntity
  8
1
  6
Continuous
100
AcDbLine
 10
112.9820029999999
 20
30.212046
 30
0.0
 11
112.9820029999999
 21
55.11204599999999
 31
0.0
  0
LINE
  5
9C0B
330
9B7D
100
AcDbEntity
  8
1
  6
Continuous
100
AcDbLine
 10
110.382003
 20
30.212046
 30
0.0
 11
112.9820029999999
 21
30.212046
 31
0.0
  0
LINE
  5
9C0C
330
9B7D
100
AcDbEntity
  8
4
  6
CENTER
100
AcDbLine
 10
125.3819959999999
 20
52.71145500000001
 30
0.0
 11
125.3819959999999
 21
60.80930600000001
 31
0.0
  0
LINE
  5
9C0D
330
9B7D
100
AcDbEntity
  8
4
  6
CENTER
100
AcDbLine
 10
95.906768
 20
42.612046
 30
0.0
 11
164.573753
 21
42.612046
 31
0.0
  0
LINE
  5
9C0E
330
9B7D
100
AcDbEntity
  8
1
  6
Continuous
100
AcDbLine
 10
136.9820019999999
 20
32.612046
 30
0.0
 11
158.7820049999999
 21
32.612046
 31
0.0
  0
LINE
  5
9C0F
330
9B7D
100
AcDbEntity
  8
1
  6
Continuous
100
AcDbLine
 10
136.9820019999999
 20
52.61204599999999
 30
0.0
 11
158.7820049999999
 21
52.61204599999999
 31
0.0
  0
LINE
  5
9C10
330
9B7D
100
AcDbEntity
  8
1
  6
Continuous
100
AcDbLine
 10
134.3819959999999
 20
53.51204
 30
0.0
 11
158.7820049999999
 21
53.51204
 31
0.0
  0
LINE
  5
9C11
330
9B7D
100
AcDbEntity
  8
1
  6
Continuous
100
AcDbLine
 10
160.3819959999999
 20
55.11204599999999
 30
0.0
 11
160.3819959999999
 21
57.71204599999999
 31
0.0
  0
LINE
  5
9C12
330
9B7D
100
AcDbEntity
  8
1
  6
Continuous
100
AcDbLine
 10
134.3819959999999
 20
30.11204600000001
 30
0.0
 11
134.3819959999999
 21
31.71203699999999
 31
0.0
  0
LINE
  5
9C13
330
9B7D
100
AcDbEntity
  8
1
  6
Continuous
100
AcDbLine
 10
134.3819959999999
 20
53.51204
 30
0.0
 11
134.3819959999999
 21
55.11204599999999
 31
0.0
  0
LINE
  5
9C14
330
9B7D
100
AcDbEntity
  8
1
  6
Continuous
100
AcDbLine
 10
158.7820049999999
 20
31.71203699999999
 30
0.0
 11
158.7820049999999
 21
53.51204
 31
0.0
  0
LINE
  5
9C15
330
9B7D
100
AcDbEntity
  8
1
  6
Continuous
100
AcDbLine
 10
134.3819959999999
 20
30.11204600000001
 30
0.0
 11
158.7820049999999
 21
30.11204600000001
 31
0.0
  0
LINE
  5
9C16
330
9B7D
100
AcDbEntity
  8
1
  6
Continuous
100
AcDbLine
 10
134.3819959999999
 20
31.71203699999999
 30
0.0
 11
158.7820049999999
 21
31.71203699999999
 31
0.0
  0
LINE
  5
9C17
330
9B7D
100
AcDbEntity
  8
1
  6
Continuous
100
AcDbLine
 10
135.3819959999997
 20
31.71203699999999
 30
0.0
 11
135.3819959999997
 21
53.51204
 31
0.0
  0
LINE
  5
9C18
330
9B7D
100
AcDbEntity
  8
1
  6
Continuous
100
AcDbLine
 10
136.9820019999999
 20
31.71203699999999
 30
0.0
 11
136.9820019999999
 21
53.51204
 31
0.0
  0
LINE
  5
9C19
330
9B7D
100
AcDbEntity
  8
1
  6
Continuous
100
AcDbLine
 10
103.883041
 20
39.612046
 30
0.0
 11
110.382003
 21
39.612046
 31
0.0
  0
LINE
  5
9C1A
330
9B7D
100
AcDbEntity
  8
1
  6
Continuous
100
AcDbLine
 10
100.3820029999999
 20
45.61204599999999
 30
0.0
 11
110.382003
 21
45.61204599999999
 31
0.0
  0
LINE
  5
9C1B
330
9B7D
100
AcDbEntity
  8
4
  6
CENTER
100
AcDbLine
 10
124.881996
 20
32.89702899999999
 30
0.0
 11
124.881996
 21
58.840573
 31
0.0
  0
LINE
  5
9C1C
330
9B7D
100
AcDbEntity
  8
1
  6
Continuous
100
AcDbLine
 10
127.881996
 20
41.11204599999999
 30
0.0
 11
127.881996
 21
44.112046
 31
0.0
  0
LINE
  5
9C1D
330
9B7D
100
AcDbEntity
  8
1
  6
Continuous
100
AcDbLine
 10
119.881996
 20
39.612046
 30
0.0
 11
119.881996
 21
41.11204599999999
 31
0.0
  0
LINE
  5
9C1E
330
9B7D
100
AcDbEntity
  8
1
  6
Continuous
100
AcDbLine
 10
119.881996
 20
41.11204599999999
 30
0.0
 11
126.3819959999999
 21
41.11204599999999
 31
0.0
  0
LINE
  5
9C1F
330
9B7D
100
AcDbEntity
  8
1
  6
Continuous
100
AcDbLine
 10
119.881996
 20
44.112046
 30
0.0
 11
126.3819959999999
 21
44.112046
 31
0.0
  0
LINE
  5
9C20
330
9B7D
100
AcDbEntity
  8
1
  6
Continuous
100
AcDbLine
 10
113.582
 20
45.61204599999999
 30
0.0
 11
119.881996
 21
45.61204599999999
 31
0.0
  0
LINE
  5
9C21
330
9B7D
100
AcDbEntity
  8
1
  6
Continuous
100
AcDbLine
 10
113.582
 20
39.612046
 30
0.0
 11
119.881996
 21
39.612046
 31
0.0
  0
LINE
  5
9C22
330
9B7D
100
AcDbEntity
  8
1
  6
Continuous
100
AcDbLine
 10
119.881996
 20
44.112046
 30
0.0
 11
119.881996
 21
45.61204599999999
 31
0.0
  0
LINE
  5
9C23
330
9B7D
100
AcDbEntity
  8
1
  6
Continuous
100
AcDbLine
 10
113.582
 20
38.11204599999999
 30
0.0
 11
113.582
 21
47.112046
 31
0.0
  0
LINE
  5
9C24
330
9B7D
100
AcDbEntity
  8
1
  6
Continuous
100
AcDbLine
 10
123.3819959999999
 20
35.61204599999999
 30
0.0
 11
123.3819959999999
 21
38.612046
 31
0.0
  0
LINE
  5
9C25
330
9B7D
100
AcDbEntity
  8
1
  6
Continuous
100
AcDbLine
 10
112.9820029999999
 20
38.11204599999999
 30
0.0
 11
113.582
 21
38.11204599999999
 31
0.0
  0
LINE
  5
9C26
330
9B7D
100
AcDbEntity
  8
1
  6
Continuous
100
AcDbLine
 10
112.9820029999999
 20
47.112046
 30
0.0
 11
113.582
 21
47.112046
 31
0.0
  0
LINE
  5
9C27
330
9B7D
100
AcDbEntity
  8
1
  6
Continuous
100
AcDbLine
 10
123.3819959999999
 20
35.61204599999999
 30
0.0
 11
126.3819959999999
 21
35.61204599999999
 31
0.0
  0
LINE
  5
9C28
330
9B7D
100
AcDbEntity
  8
1
  6
Continuous
100
AcDbLine
 10
120.881996
 20
38.612046
 30
0.0
 11
126.3819959999999
 21
38.612046
 31
0.0
  0
LINE
  5
9C29
330
9B7D
100
AcDbEntity
  8
1
  6
Continuous
100
AcDbLine
 10
120.881996
 20
46.612046
 30
0.0
 11
126.3819959999999
 21
46.612046
 31
0.0
  0
LINE
  5
9C2A
330
9B7D
100
AcDbEntity
  8
1
  6
Continuous
100
AcDbLine
 10
120.881996
 20
38.612046
 30
0.0
 11
120.881996
 21
41.11204599999999
 31
0.0
  0
LINE
  5
9C2B
330
9B7D
100
AcDbEntity
  8
1
  6
Continuous
100
AcDbLine
 10
120.881996
 20
44.112046
 30
0.0
 11
120.881996
 21
46.612046
 31
0.0
  0
LINE
  5
9C2C
330
9B7D
100
AcDbEntity
  8
1
  6
Continuous
100
AcDbLine
 10
161.3819959999998
 20
40.362046
 30
0.0
 11
161.3819959999998
 21
44.86204599999999
 31
0.0
  0
LINE
  5
9C2D
330
9B7D
100
AcDbEntity
  8
1
  6
Continuous
100
AcDbLine
 10
160.3819959999999
 20
40.362046
 30
0.0
 11
161.3819959999998
 21
40.362046
 31
0.0
  0
LINE
  5
9C2E
330
9B7D
100
AcDbEntity
  8
1
  6
Continuous
100
AcDbLine
 10
160.3819959999999
 20
44.86204599999999
 30
0.0
 11
161.3819959999998
 21
44.86204599999999
 31
0.0
  0
LINE
  5
9C2F
330
9B7D
100
AcDbEntity
  8
1
  6
Continuous
100
AcDbLine
 10
100.3820029999999
 20
44.61203799999998
 30
0.0
 11
103.883041
 21
39.61204199999999
 31
0.0
  0
LINE
  5
9C30
330
9B7D
100
AcDbEntity
  8
1
  6
Continuous
100
AcDbLine
 10
100.3820029999999
 20
44.612046
 30
0.0
 11
100.3820029999999
 21
45.61204599999999
 31
0.0
  0
LINE
  5
9C31
330
9B7D
100
AcDbEntity
  8
1
  6
Continuous
100
AcDbLine
 10
126.3819959999999
 20
35.61204599999999
 30
0.0
 11
126.3819959999999
 21
55.11204599999999
 31
0.0
  0
LINE
  5
9C32
330
9B7D
100
AcDbEntity
  8
1
  6
Continuous
100
AcDbLine
 10
123.3819959999999
 20
46.612046
 30
0.0
 11
123.3819959999999
 21
55.11204599999999
 31
0.0
  0
LINE
  5
9C33
330
9B7D
100
AcDbEntity
  8
1
  6
Continuous
100
AcDbLine
 10
368.78199
 20
148.7120459999998
 30
0.0
 11
368.78199
 21
126.712046
 31
0.0
  0
LINE
  5
9C34
330
9B7D
100
AcDbEntity
  8
1
  6
Continuous
100
AcDbLine
 10
344.7820199999999
 20
148.7120459999998
 30
0.0
 11
318.7820199999998
 21
148.7120459999998
 31
0.0
  0
LINE
  5
9C35
330
9B7D
100
AcDbEntity
  8
1
  6
Continuous
100
AcDbLine
 10
368.78199
 20
126.712046
 30
0.0
 11
318.7820199999998
 21
126.712046
 31
0.0
  0
LINE
  5
9C36
330
9B7D
100
AcDbEntity
  8
1
  6
Continuous
100
AcDbLine
 10
318.7820199999998
 20
148.7120459999998
 30
0.0
 11
318.7820199999998
 21
126.712046
 31
0.0
  0
LINE
  5
9C37
330
9B7D
100
AcDbEntity
  8
4
  6
CENTER
100
AcDbLine
 10
383.339912
 20
137.7120459999999
 30
0.0
 11
313.607521
 21
137.7120459999999
 31
0.0
  0
LINE
  5
9C38
330
9B7D
100
AcDbEntity
  8
1
  6
Continuous
100
AcDbLine
 10
368.78199
 20
148.7120459999998
 30
0.0
 11
365.2820199999999
 21
148.7120459999998
 31
0.0
  0
LINE
  5
9C39
330
9B7D
100
AcDbEntity
  8
4
  6
CENTER
100
AcDbLine
 10
324.78202
 20
145.9620459999999
 30
0.0
 11
324.78202
 21
141.4620459999999
 31
0.0
  0
LINE
  5
9C3A
330
9B7D
100
AcDbEntity
  8
4
  6
CENTER
100
AcDbLine
 10
327.03202
 20
143.7120459999998
 30
0.0
 11
322.53202
 21
143.7120459999998
 31
0.0
  0
LINE
  5
9C3B
330
9B7D
100
AcDbEntity
  8
4
  6
CENTER
100
AcDbLine
 10
353.78202
 20
158.2120459999998
 30
0.0
 11
353.78202
 21
139.2120459999999
 31
0.0
  0
LINE
  5
9C3C
330
9B7D
100
AcDbEntity
  8
4
  6
CENTER
100
AcDbLine
 10
363.28199
 20
148.7120459999998
 30
0.0
 11
344.7820199999999
 21
148.7120459999998
 31
0.0
  0
LINE
  5
9C3D
330
9B7D
100
AcDbEntity
  8
1
  6
Continuous
100
AcDbLine
 10
328.78202
 20
154.7120459999999
 30
0.0
 11
328.78202
 21
148.7120459999998
 31
0.0
  0
LINE
  5
9C3E
330
9B7D
100
AcDbEntity
  8
1
  6
Continuous
100
AcDbLine
 10
329.181984
 20
154.7120459999999
 30
0.0
 11
329.181984
 21
148.7120459999998
 31
0.0
  0
LINE
  5
9C3F
330
9B7D
100
AcDbEntity
  8
1
  6
Continuous
100
AcDbLine
 10
329.181984
 20
154.7120459999999
 30
0.0
 11
328.78202
 21
154.7120459999999
 31
0.0
  0
LINE
  5
9C40
330
9B7D
100
AcDbEntity
  8
1
  6
Continuous
100
AcDbLine
 10
378.018074
 20
134.7120459999999
 30
0.0
 11
368.78199
 21
134.7120459999999
 31
0.0
  0
LINE
  5
9C41
330
9B7D
100
AcDbEntity
  8
1
  6
Continuous
100
AcDbLine
 10
378.018074
 20
140.7120459999999
 30
0.0
 11
368.78199
 21
140.7120459999999
 31
0.0
  0
LINE
  5
9C42
330
9B7D
100
AcDbEntity
  8
1
  6
Continuous
100
AcDbLine
 10
378.78199
 20
139.9481149999997
 30
0.0
 11
378.78199
 21
135.4759929999999
 31
0.0
  0
LINE
  5
9C43
330
9B7D
100
AcDbEntity
  8
1
  6
Continuous
100
AcDbLine
 10
344.7820199999999
 20
148.7120459999998
 30
0.0
 11
344.7820199999999
 21
126.712046
 31
0.0
  0
LINE
  5
9C44
330
9B7D
100
AcDbEntity
  8
4
  6
CENTER
100
AcDbLine
 10
354.28199
 20
140.2120459999999
 30
0.0
 11
354.28199
 21
135.2120459999997
 31
0.0
  0
LINE
  5
9C45
330
9B7D
100
AcDbEntity
  8
1
  6
Continuous
100
AcDbLine
 10
353.381996
 20
137.7120459999999
 30
0.0
 11
352.7820199999999
 21
137.7120459999999
 31
0.0
  0
LINE
  5
9C46
330
9B7D
100
AcDbEntity
  8
1
  6
Continuous
100
AcDbLine
 10
317.7820199999998
 20
139.9620459999999
 30
0.0
 11
317.7820199999998
 21
135.4620459999999
 31
0.0
  0
LINE
  5
9C47
330
9B7D
100
AcDbEntity
  8
1
  6
Continuous
100
AcDbLine
 10
318.7820199999998
 20
139.9620459999999
 30
0.0
 11
317.7820199999998
 21
139.9620459999999
 31
0.0
  0
LINE
  5
9C48
330
9B7D
100
AcDbEntity
  8
1
  6
Continuous
100
AcDbLine
 10
318.7820199999998
 20
135.4620459999999
 30
0.0
 11
317.7820199999998
 21
135.4620459999999
 31
0.0
  0
LINE
  5
9C49
330
9B7D
100
AcDbEntity
  8
4
  6
CENTER
100
AcDbLine
 10
349.2820200000001
 20
133.4620459999999
 30
0.0
 11
349.2820200000001
 21
128.9620459999997
 31
0.0
  0
LINE
  5
9C4A
330
9B7D
100
AcDbEntity
  8
4
  6
CENTER
100
AcDbLine
 10
351.5320200000001
 20
131.2120459999997
 30
0.0
 11
347.0320199999999
 21
131.2120459999997
 31
0.0
  0
LINE
  5
9C4B
330
9B7D
100
AcDbEntity
  8
4
  6
CENTER
100
AcDbLine
 10
339.7820199999998
 20
133.9620459999999
 30
0.0
 11
339.7820199999998
 21
129.4620459999999
 31
0.0
  0
LINE
  5
9C4C
330
9B7D
100
AcDbEntity
  8
4
  6
CENTER
100
AcDbLine
 10
342.0320199999999
 20
131.7120459999999
 30
0.0
 11
337.5320199999998
 21
131.7120459999999
 31
0.0
  0
LINE
  5
9C4D
330
9B7D
100
AcDbEntity
  8
1
  6
Continuous
100
AcDbLine
 10
366.1819899999999
 20
148.7120459999998
 30
0.0
 11
366.1819899999999
 21
126.712046
 31
0.0
  0
LINE
  5
9C4E
330
9B7D
100
AcDbEntity
  8
1
  6
Continuous
100
AcDbLine
 10
110.382003
 20
245.2120459999999
 30
0.0
 11
110.382003
 21
220.312046
 31
0.0
  0
LINE
  5
9C4F
330
9B7D
100
AcDbEntity
  8
1
  6
Continuous
100
AcDbLine
 10
160.3819959999999
 20
243.7120549999999
 30
0.0
 11
160.3819959999999
 21
221.912052
 31
0.0
  0
LINE
  5
9C50
330
9B7D
100
AcDbEntity
  8
1
  6
Continuous
100
AcDbLine
 10
112.982003
 20
217.7120459999999
 30
0.0
 11
160.3819959999999
 21
217.7120459999999
 31
0.0
  0
LINE
  5
9C51
330
9B7D
100
AcDbEntity
  8
1
  6
Continuous
100
AcDbLine
 10
112.9820029999999
 20
220.312046
 30
0.0
 11
160.3819959999999
 21
220.312046
 31
0.0
  0
LINE
  5
9C52
330
9B7D
100
AcDbEntity
  8
1
  6
Continuous
100
AcDbLine
 10
112.9820029999999
 20
245.2120459999999
 30
0.0
 11
112.9820029999999
 21
220.312046
 31
0.0
  0
LINE
  5
9C53
330
9B7D
100
AcDbEntity
  8
1
  6
Continuous
100
AcDbLine
 10
110.382003
 20
245.2120459999999
 30
0.0
 11
112.9820029999999
 21
245.2120459999999
 31
0.0
  0
LINE
  5
9C54
330
9B7D
100
AcDbEntity
  8
4
  6
CENTER
100
AcDbLine
 10
125.3819959999999
 20
222.4211069999999
 30
0.0
 11
125.3819959999999
 21
214.6011759999999
 31
0.0
  0
LINE
  5
9C55
330
9B7D
100
AcDbEntity
  8
4
  6
CENTER
100
AcDbLine
 10
95.906768
 20
232.812046
 30
0.0
 11
164.573753
 21
232.812046
 31
0.0
  0
LINE
  5
9C56
330
9B7D
100
AcDbEntity
  8
1
  6
Continuous
100
AcDbLine
 10
136.9820019999999
 20
242.8120459999999
 30
0.0
 11
158.7820049999999
 21
242.8120459999999
 31
0.0
  0
LINE
  5
9C57
330
9B7D
100
AcDbEntity
  8
1
  6
Continuous
100
AcDbLine
 10
136.9820019999999
 20
222.8120459999999
 30
0.0
 11
158.7820049999999
 21
222.8120459999999
 31
0.0
  0
LINE
  5
9C58
330
9B7D
100
AcDbEntity
  8
1
  6
Continuous
100
AcDbLine
 10
134.3819959999999
 20
221.912052
 30
0.0
 11
158.7820049999999
 21
221.912052
 31
0.0
  0
LINE
  5
9C59
330
9B7D
100
AcDbEntity
  8
1
  6
Continuous
100
AcDbLine
 10
160.3819959999999
 20
220.312046
 30
0.0
 11
160.3819959999999
 21
217.7120459999999
 31
0.0
  0
LINE
  5
9C5A
330
9B7D
100
AcDbEntity
  8
1
  6
Continuous
100
AcDbLine
 10
134.3819959999999
 20
245.312046
 30
0.0
 11
134.3819959999999
 21
243.7120549999999
 31
0.0
  0
LINE
  5
9C5B
330
9B7D
100
AcDbEntity
  8
1
  6
Continuous
100
AcDbLine
 10
134.3819959999999
 20
221.912052
 30
0.0
 11
134.3819959999999
 21
220.312046
 31
0.0
  0
LINE
  5
9C5C
330
9B7D
100
AcDbEntity
  8
1
  6
Continuous
100
AcDbLine
 10
158.7820049999999
 20
243.7120549999999
 30
0.0
 11
158.7820049999999
 21
221.912052
 31
0.0
  0
LINE
  5
9C5D
330
9B7D
100
AcDbEntity
  8
1
  6
Continuous
100
AcDbLine
 10
134.3819959999999
 20
245.312046
 30
0.0
 11
158.7820049999999
 21
245.312046
 31
0.0
  0
LINE
  5
9C5E
330
9B7D
100
AcDbEntity
  8
1
  6
Continuous
100
AcDbLine
 10
134.3819959999999
 20
243.7120549999999
 30
0.0
 11
158.7820049999999
 21
243.7120549999999
 31
0.0
  0
LINE
  5
9C5F
330
9B7D
100
AcDbEntity
  8
1
  6
Continuous
100
AcDbLine
 10
135.3819959999997
 20
243.7120549999999
 30
0.0
 11
135.3819959999997
 21
221.912052
 31
0.0
  0
LINE
  5
9C60
330
9B7D
100
AcDbEntity
  8
1
  6
Continuous
100
AcDbLine
 10
136.9820019999999
 20
243.7120549999999
 30
0.0
 11
136.9820019999999
 21
221.912052
 31
0.0
  0
LINE
  5
9C61
330
9B7D
100
AcDbEntity
  8
1
  6
Continuous
100
AcDbLine
 10
149.982002
 20
239.8120459999999
 30
0.0
 11
150.3819959999999
 21
239.8120459999999
 31
0.0
  0
LINE
  5
9C62
330
9B7D
100
AcDbEntity
  8
1
  6
Continuous
100
AcDbLine
 10
149.982002
 20
225.7120459999999
 30
0.0
 11
150.3819959999999
 21
225.7120459999999
 31
0.0
  0
LINE
  5
9C63
330
9B7D
100
AcDbEntity
  8
1
  6
Continuous
100
AcDbLine
 10
149.982002
 20
235.3120459999999
 30
0.0
 11
150.3819959999999
 21
235.3120459999999
 31
0.0
  0
LINE
  5
9C64
330
9B7D
100
AcDbEntity
  8
1
  6
Continuous
100
AcDbLine
 10
149.982002
 20
230.3120459999999
 30
0.0
 11
150.3819959999999
 21
230.3120459999999
 31
0.0
  0
LINE
  5
9C65
330
9B7D
100
AcDbEntity
  8
1
  6
Continuous
100
AcDbLine
 10
150.3819959999999
 20
239.8120459999999
 30
0.0
 11
150.3819959999999
 21
235.3120459999999
 31
0.0
  0
LINE
  5
9C66
330
9B7D
100
AcDbEntity
  8
1
  6
Continuous
100
AcDbLine
 10
149.982002
 20
239.8120459999999
 30
0.0
 11
149.982002
 21
235.3120459999999
 31
0.0
  0
LINE
  5
9C67
330
9B7D
100
AcDbEntity
  8
1
  6
Continuous
100
AcDbLine
 10
149.982002
 20
230.3120459999999
 30
0.0
 11
149.982002
 21
225.8120459999999
 31
0.0
  0
LINE
  5
9C68
330
9B7D
100
AcDbEntity
  8
1
  6
Continuous
100
AcDbLine
 10
150.3819959999999
 20
230.3120459999999
 30
0.0
 11
150.3819959999999
 21
225.8120459999999
 31
0.0
  0
LINE
  5
9C69
330
9B7D
100
AcDbEntity
  8
5
  6
PHANTOM
100
AcDbLine
 10
103.382003
 20
230.812046
 30
0.0
 11
103.382003
 21
229.8120459999999
 31
0.0
  0
LINE
  5
9C6A
330
9B7D
100
AcDbEntity
  8
1
  6
Continuous
100
AcDbLine
 10
103.883041
 20
235.8120459999999
 30
0.0
 11
110.382003
 21
235.8120459999999
 31
0.0
  0
LINE
  5
9C6B
330
9B7D
100
AcDbEntity
  8
1
  6
Continuous
100
AcDbLine
 10
100.3820029999999
 20
229.8120459999999
 30
0.0
 11
110.382003
 21
229.8120459999999
 31
0.0
  0
LINE
  5
9C6C
330
9B7D
100
AcDbEntity
  8
5
  6
PHANTOM
100
AcDbLine
 10
103.382003
 20
230.812046
 30
0.0
 11
106.8830409999999
 21
235.8120459999999
 31
0.0
  0
LINE
  5
9C6D
330
9B7D
100
AcDbEntity
  8
4
  6
CENTER
100
AcDbLine
 10
124.881996
 20
242.8969919999999
 30
0.0
 11
124.881996
 21
215.7502019999999
 31
0.0
  0
LINE
  5
9C6E
330
9B7D
100
AcDbEntity
  8
1
  6
Continuous
100
AcDbLine
 10
127.881996
 20
234.3120459999999
 30
0.0
 11
127.881996
 21
231.3120459999999
 31
0.0
  0
LINE
  5
9C6F
330
9B7D
100
AcDbEntity
  8
1
  6
Continuous
100
AcDbLine
 10
119.881996
 20
235.8120459999999
 30
0.0
 11
119.881996
 21
234.3120459999999
 31
0.0
  0
LINE
  5
9C70
330
9B7D
100
AcDbEntity
  8
1
  6
Continuous
100
AcDbLine
 10
119.881996
 20
234.3120459999999
 30
0.0
 11
126.3819959999999
 21
234.3120459999999
 31
0.0
  0
LINE
  5
9C71
330
9B7D
100
AcDbEntity
  8
1
  6
Continuous
100
AcDbLine
 10
119.881996
 20
231.3120459999999
 30
0.0
 11
126.3819959999999
 21
231.3120459999999
 31
0.0
  0
LINE
  5
9C72
330
9B7D
100
AcDbEntity
  8
1
  6
Continuous
100
AcDbLine
 10
113.582
 20
229.8120459999999
 30
0.0
 11
119.881996
 21
229.8120459999999
 31
0.0
  0
LINE
  5
9C73
330
9B7D
100
AcDbEntity
  8
1
  6
Continuous
100
AcDbLine
 10
113.582
 20
235.8120459999999
 30
0.0
 11
119.881996
 21
235.8120459999999
 31
0.0
  0
LINE
  5
9C74
330
9B7D
100
AcDbEntity
  8
1
  6
Continuous
100
AcDbLine
 10
119.881996
 20
231.3120459999999
 30
0.0
 11
119.881996
 21
229.8120459999999
 31
0.0
  0
LINE
  5
9C75
330
9B7D
100
AcDbEntity
  8
1
  6
Continuous
100
AcDbLine
 10
113.582
 20
237.3120459999999
 30
0.0
 11
113.582
 21
228.3120459999999
 31
0.0
  0
LINE
  5
9C76
330
9B7D
100
AcDbEntity
  8
1
  6
Continuous
100
AcDbLine
 10
126.3819959999999
 20
239.8120459999999
 30
0.0
 11
126.3819959999999
 21
220.312046
 31
0.0
  0
LINE
  5
9C77
330
9B7D
100
AcDbEntity
  8
1
  6
Continuous
100
AcDbLine
 10
112.9820029999999
 20
237.3120459999999
 30
0.0
 11
113.582
 21
237.3120459999999
 31
0.0
  0
LINE
  5
9C78
330
9B7D
100
AcDbEntity
  8
1
  6
Continuous
100
AcDbLine
 10
112.9820029999999
 20
228.3120459999999
 30
0.0
 11
113.582
 21
228.3120459999999
 31
0.0
  0
LINE
  5
9C79
330
9B7D
100
AcDbEntity
  8
1
  6
Continuous
100
AcDbLine
 10
120.881996
 20
236.8120459999999
 30
0.0
 11
126.3819959999999
 21
236.8120459999999
 31
0.0
  0
LINE
  5
9C7A
330
9B7D
100
AcDbEntity
  8
1
  6
Continuous
100
AcDbLine
 10
126.88163
 20
228.812046
 30
0.0
 11
127.5252149999999
 21
228.812046
 31
0.0
  0
LINE
  5
9C7B
330
9B7D
100
AcDbEntity
  8
1
  6
Continuous
100
AcDbLine
 10
120.881996
 20
236.8120459999999
 30
0.0
 11
120.881996
 21
234.3120459999999
 31
0.0
  0
LINE
  5
9C7C
330
9B7D
100
AcDbEntity
  8
1
  6
Continuous
100
AcDbLine
 10
120.881996
 20
231.3120459999999
 30
0.0
 11
120.881996
 21
228.812046
 31
0.0
  0
LINE
  5
9C7D
330
9B7D
100
AcDbEntity
  8
1
  6
Continuous
100
AcDbLine
 10
161.3819959999998
 20
235.062046
 30
0.0
 11
161.3819959999998
 21
230.5620459999999
 31
0.0
  0
LINE
  5
9C7E
330
9B7D
100
AcDbEntity
  8
1
  6
Continuous
100
AcDbLine
 10
160.3819959999999
 20
235.062046
 30
0.0
 11
161.3819959999998
 21
235.062046
 31
0.0
  0
LINE
  5
9C7F
330
9B7D
100
AcDbEntity
  8
1
  6
Continuous
100
AcDbLine
 10
160.3819959999999
 20
230.5620459999999
 30
0.0
 11
161.3819959999998
 21
230.5620459999999
 31
0.0
  0
LINE
  5
9C80
330
9B7D
100
AcDbEntity
  8
1
  6
Continuous
100
AcDbLine
 10
100.3820029999999
 20
230.812046
 30
0.0
 11
103.8830329999999
 21
235.8120459999999
 31
0.0
  0
LINE
  5
9C81
330
9B7D
100
AcDbEntity
  8
1
  6
Continuous
100
AcDbLine
 10
100.3820029999999
 20
230.812046
 30
0.0
 11
100.3820029999999
 21
229.8120459999999
 31
0.0
  0
LINE
  5
9C82
330
9B7D
100
AcDbEntity
  8
1
  6
Continuous
100
AcDbLine
 10
358.28199
 20
141.7120459999999
 30
0.0
 11
358.28199
 21
133.7120459999999
 31
0.0
  0
LINE
  5
9C83
330
9B7D
100
AcDbEntity
  8
1
  6
Continuous
100
AcDbLine
 10
358.28199
 20
141.7120459999999
 30
0.0
 11
352.7820199999999
 21
141.7120459999999
 31
0.0
  0
LINE
  5
9C84
330
9B7D
100
AcDbEntity
  8
1
  6
Continuous
100
AcDbLine
 10
358.28199
 20
133.7120459999999
 30
0.0
 11
352.7820199999999
 21
133.7120459999999
 31
0.0
  0
LINE
  5
9C85
330
9B7D
100
AcDbEntity
  8
1
  6
Continuous
100
AcDbLine
 10
365.5820079999998
 20
140.7120459999999
 30
0.0
 11
358.28199
 21
140.7120459999999
 31
0.0
  0
LINE
  5
9C86
330
9B7D
100
AcDbEntity
  8
1
  6
Continuous
100
AcDbLine
 10
365.5820079999998
 20
134.7120459999999
 30
0.0
 11
358.28199
 21
134.7120459999999
 31
0.0
  0
LINE
  5
9C87
330
9B7D
100
AcDbEntity
  8
1
  6
Continuous
100
AcDbLine
 10
359.28199
 20
140.7120459999999
 30
0.0
 11
359.28199
 21
134.7120459999999
 31
0.0
  0
LINE
  5
9C88
330
9B7D
100
AcDbEntity
  8
1
  6
Continuous
100
AcDbLine
 10
157.7838059999999
 20
139.2547399999999
 30
0.0
 11
159.117988
 21
139.2547399999999
 31
0.0
  0
LINE
  5
9C89
330
9B7D
100
AcDbEntity
  8
1
  6
Continuous
100
AcDbLine
 10
158.465278
 20
141.0143229999999
 30
0.0
 11
159.3909379999998
 21
138.512049
 31
0.0
  0
LINE
  5
9C8A
330
9B7D
100
AcDbEntity
  8
1
  6
Continuous
100
AcDbLine
 10
149.516807
 20
139.807352
 30
0.0
 11
151.1380839999999
 21
139.807352
 31
0.0
  0
LINE
  5
9C8B
330
9B7D
100
AcDbEntity
  8
1
  6
Continuous
100
AcDbLine
 10
140.532707
 20
136.9120429999999
 30
0.0
 11
140.532707
 21
134.4120429999997
 31
0.0
  0
LINE
  5
9C8C
330
9B7D
100
AcDbEntity
  8
1
  6
Continuous
100
AcDbLine
 10
139.5181809999999
 20
136.9120429999999
 30
0.0
 11
141.556205
 21
136.9120429999999
 31
0.0
  0
LINE
  5
9C8D
330
9B7D
100
AcDbEntity
  8
1
  6
Continuous
100
AcDbLine
 10
149.516807
 20
141.0120489999999
 30
0.0
 11
149.516807
 21
138.512049
 31
0.0
  0
LINE
  5
9C8E
330
9B7D
100
AcDbEntity
  8
1
  6
Continuous
100
AcDbLine
 10
153.6638869999999
 20
139.680552
 30
0.0
 11
154.5424879999998
 21
139.680552
 31
0.0
  0
LINE
  5
9C8F
330
9B7D
100
AcDbEntity
  8
1
  6
Continuous
100
AcDbLine
 10
151.1380839999999
 20
141.0120489999999
 30
0.0
 11
151.1380839999999
 21
138.512049
 31
0.0
  0
LINE
  5
9C90
330
9B7D
100
AcDbEntity
  8
1
  6
Continuous
100
AcDbLine
 10
152.0168069999997
 20
141.0120489999999
 30
0.0
 11
152.0168069999997
 21
138.512049
 31
0.0
  0
LINE
  5
9C91
330
9B7D
100
AcDbEntity
  8
1
  6
Continuous
100
AcDbLine
 10
158.4652629999999
 20
141.009837
 30
0.0
 11
157.4954449999999
 21
138.512049
 31
0.0
  0
LINE
  5
9C92
330
9B7D
100
AcDbEntity
  8
1
  6
Continuous
100
AcDbLine
 10
156.8153
 20
139.6714419999999
 30
0.0
 11
156.8153
 21
138.512049
 31
0.0
  0
LINE
  5
9C93
330
9B7D
100
AcDbEntity
  8
1
  6
Continuous
100
AcDbLine
 10
154.5424879999998
 20
139.307963
 30
0.0
 11
154.5424879999998
 21
138.512049
 31
0.0
  0
LINE
  5
9C94
330
9B7D
100
AcDbEntity
  8
1
  6
Continuous
100
AcDbLine
 10
155.267097
 20
141.0120489999999
 30
0.0
 11
155.267097
 21
138.512049
 31
0.0
  0
LINE
  5
9C95
330
9B7D
100
AcDbEntity
  8
1
  6
Continuous
100
AcDbLine
 10
156.8153
 20
139.6714419999999
 30
0.0
 11
157.5893479999997
 21
141.0120489999999
 31
0.0
  0
LINE
  5
9C96
330
9B7D
100
AcDbEntity
  8
1
  6
Continuous
100
AcDbLine
 10
156.8153
 20
139.675959
 30
0.0
 11
156.046287
 21
141.0120489999999
 31
0.0
  0
LINE
  5
9C97
330
9B7D
100
AcDbEntity
  8
1
  6
Continuous
100
AcDbLine
 10
146.437172
 20
134.412058
 30
0.0
 11
147.7631909999998
 21
135.798441
 31
0.0
  0
LINE
  5
9C98
330
9B7D
100
AcDbEntity
  8
1
  6
Continuous
100
AcDbLine
 10
148.747612
 20
136.9120429999999
 30
0.0
 11
149.9878159999999
 21
136.9120429999999
 31
0.0
  0
LINE
  5
9C99
330
9B7D
100
AcDbEntity
  8
1
  6
Continuous
100
AcDbLine
 10
148.747612
 20
136.9120429999999
 30
0.0
 11
148.747612
 21
135.4836979999997
 31
0.0
  0
LINE
  5
9C9A
330
9B7D
100
AcDbEntity
  8
1
  6
Continuous
100
AcDbLine
 10
143.5327069999999
 20
141.0120489999999
 30
0.0
 11
143.5327069999999
 21
138.512049
 31
0.0
  0
LINE
  5
9C9B
330
9B7D
100
AcDbEntity
  8
1
  6
Continuous
100
AcDbLine
 10
142.5181809999999
 20
141.0120489999999
 30
0.0
 11
144.556205
 21
141.0120489999999
 31
0.0
  0
LINE
  5
9C9C
330
9B7D
100
AcDbEntity
  8
1
  6
Continuous
100
AcDbLine
 10
146.4371559999999
 20
134.4120429999997
 30
0.0
 11
147.9402229999998
 21
134.4120429999997
 31
0.0
  0
LINE
  5
9C9D
330
9B7D
100
AcDbEntity
  8
1
  6
Continuous
100
AcDbLine
 10
142.03817
 20
134.4120429999997
 30
0.0
 11
143.53817
 21
134.4120429999997
 31
0.0
  0
LINE
  5
9C9E
330
9B7D
100
AcDbEntity
  8
1
  6
Continuous
100
AcDbLine
 10
142.03817
 20
136.9120429999999
 30
0.0
 11
142.03817
 21
134.4120429999997
 31
0.0
  0
LINE
  5
9C9F
330
9B7D
100
AcDbEntity
  8
1
  6
Continuous
100
AcDbLine
 10
144.0125649999997
 20
135.6620429999999
 30
0.0
 11
145.1749039999999
 21
135.6620429999999
 31
0.0
  0
LINE
  5
9CA0
330
9B7D
100
AcDbEntity
  8
1
  6
Continuous
100
AcDbLine
 10
147.066093
 20
145.262507
 30
0.0
 11
147.066093
 21
142.161585
 31
0.0
  0
LINE
  5
9CA1
330
9B7D
100
AcDbEntity
  8
1
  6
Continuous
100
AcDbLine
 10
146.6222149999999
 20
145.2255199999999
 30
0.0
 11
146.6222149999999
 21
142.198573
 31
0.0
  0
LINE
  5
9CA2
330
9B7D
100
AcDbEntity
  8
1
  6
Continuous
100
AcDbLine
 10
146.177421
 20
142.3303019999998
 30
0.0
 11
146.177421
 21
143.1792849999999
 31
0.0
  0
LINE
  5
9CA3
330
9B7D
100
AcDbEntity
  8
1
  6
Continuous
100
AcDbLine
 10
145.732628
 20
144.866435
 30
0.0
 11
145.732628
 21
142.5576579999997
 31
0.0
  0
LINE
  5
9CA4
330
9B7D
100
AcDbEntity
  8
1
  6
Continuous
100
AcDbLine
 10
147.066093
 20
143.7124889999997
 30
0.0
 11
146.6222149999999
 21
143.7124889999997
 31
0.0
  0
LINE
  5
9CA5
330
9B7D
100
AcDbEntity
  8
1
  6
Continuous
100
AcDbLine
 10
146.177421
 20
144.245707
 30
0.0
 11
146.177421
 21
145.0937899999999
 31
0.0
  0
LINE
  5
9CA6
330
9B7D
100
AcDbEntity
  8
1
  6
Continuous
100
AcDbLine
 10
145.288734
 20
144.8086949999997
 30
0.0
 11
145.288734
 21
142.616297
 31
0.0
  0
LINE
  5
9CA7
330
9B7D
100
AcDbEntity
  8
1
  6
Continuous
100
AcDbLine
 10
144.8439399999998
 20
142.8923739999999
 30
0.0
 11
144.8439399999998
 21
144.531702
 31
0.0
  0
LINE
  5
9CA8
330
9B7D
100
AcDbEntity
  8
1
  6
Continuous
100
AcDbLine
 10
144.4000469999997
 20
144.9313909999998
 30
0.0
 11
144.4000469999997
 21
143.0150859999999
 31
0.0
  0
LINE
  5
9CA9
330
9B7D
100
AcDbEntity
  8
1
  6
Continuous
100
AcDbLine
 10
148.843467
 20
145.173182
 30
0.0
 11
148.843467
 21
142.3907419999999
 31
0.0
  0
LINE
  5
9CAA
330
9B7D
100
AcDbEntity
  8
1
  6
Continuous
100
AcDbLine
 10
148.399574
 20
142.4575139999998
 30
0.0
 11
148.399574
 21
143.7124889999997
 31
0.0
  0
LINE
  5
9CAB
330
9B7D
100
AcDbEntity
  8
1
  6
Continuous
100
AcDbLine
 10
147.9547799999997
 20
145.174982
 30
0.0
 11
147.9547799999997
 21
142.2490939999998
 31
0.0
  0
LINE
  5
9CAC
330
9B7D
100
AcDbEntity
  8
1
  6
Continuous
100
AcDbLine
 10
147.510887
 20
145.262507
 30
0.0
 11
147.510887
 21
142.161585
 31
0.0
  0
LINE
  5
9CAD
330
9B7D
100
AcDbEntity
  8
1
  6
Continuous
100
AcDbLine
 10
151.0999219999999
 20
143.7124889999997
 30
0.0
 11
150.181465
 21
143.7124889999997
 31
0.0
  0
LINE
  5
9CAE
330
9B7D
100
AcDbEntity
  8
1
  6
Continuous
100
AcDbLine
 10
149.9586099999999
 20
142.8806559999999
 30
0.0
 11
150.4611429999999
 21
144.753657
 31
0.0
  0
LINE
  5
9CAF
330
9B7D
100
AcDbEntity
  8
1
  6
Continuous
100
AcDbLine
 10
149.5101999999999
 20
143.7124889999997
 30
0.0
 11
149.5101999999999
 21
142.6460669999999
 31
0.0
  0
LINE
  5
9CB0
330
9B7D
100
AcDbEntity
  8
1
  6
Continuous
100
AcDbLine
 10
149.733055
 20
143.934443
 30
0.0
 11
149.733055
 21
144.8835699999999
 31
0.0
  0
LINE
  5
9CB1
330
9B7D
100
AcDbEntity
  8
1
  6
Continuous
100
AcDbLine
 10
149.288261
 20
144.9638619999998
 30
0.0
 11
149.288261
 21
143.934443
 31
0.0
  0
LINE
  5
9CB2
330
9B7D
100
AcDbEntity
  8
1
  6
Continuous
100
AcDbLine
 10
148.399574
 20
143.7124889999997
 30
0.0
 11
148.177635
 21
143.7124889999997
 31
0.0
  0
LINE
  5
9CB3
330
9B7D
100
AcDbEntity
  8
1
  6
Continuous
100
AcDbLine
 10
148.399574
 20
144.245707
 30
0.0
 11
148.399574
 21
144.9665779999999
 31
0.0
  0
LINE
  5
9CB4
330
9B7D
100
AcDbEntity
  8
1
  6
Continuous
100
AcDbLine
 10
134.8819959999999
 20
38.11204599999999
 30
0.0
 11
134.8819959999999
 21
47.112046
 31
0.0
  0
LINE
  5
9CB5
330
9B7D
100
AcDbEntity
  8
1
  6
Continuous
100
AcDbLine
 10
127.381279
 20
47.13093299999999
 30
0.0
 11
128.063087
 21
38.130933
 31
0.0
  0
LINE
  5
9CB6
330
9B7D
100
AcDbEntity
  8
1
  6
Continuous
100
AcDbLine
 10
127.5645209999999
 20
38.09315999999999
 30
0.0
 11
126.882698
 21
47.093163
 31
0.0
  0
LINE
  5
9CB7
330
9B7D
100
AcDbEntity
  8
1
  6
Continuous
100
AcDbLine
 10
128.2463449999999
 20
47.09316
 30
0.0
 11
128.928154
 21
38.09315999999999
 31
0.0
  0
LINE
  5
9CB8
330
9B7D
100
AcDbEntity
  8
1
  6
Continuous
100
AcDbLine
 10
129.426735
 20
38.130933
 30
0.0
 11
128.744911
 21
47.13093299999999
 31
0.0
  0
LINE
  5
9CB9
330
9B7D
100
AcDbEntity
  8
1
  6
Continuous
100
AcDbLine
 10
129.6099769999998
 20
47.09316
 30
0.0
 11
130.2918009999999
 21
38.09315999999999
 31
0.0
  0
LINE
  5
9CBA
330
9B7D
100
AcDbEntity
  8
1
  6
Continuous
100
AcDbLine
 10
130.7903669999997
 20
38.130933
 30
0.0
 11
130.108543
 21
47.13093299999999
 31
0.0
  0
LINE
  5
9CBB
330
9B7D
100
AcDbEntity
  8
1
  6
Continuous
100
AcDbLine
 10
130.97361
 20
47.093163
 30
0.0
 11
131.6554329999999
 21
38.09316299999998
 31
0.0
  0
LINE
  5
9CBC
330
9B7D
100
AcDbEntity
  8
1
  6
Continuous
100
AcDbLine
 10
132.1539989999999
 20
38.130933
 30
0.0
 11
131.4721909999997
 21
47.13093299999999
 31
0.0
  0
LINE
  5
9CBD
330
9B7D
100
AcDbEntity
  8
1
  6
Continuous
100
AcDbLine
 10
132.3372569999999
 20
47.093163
 30
0.0
 11
133.0190659999999
 21
38.09315999999999
 31
0.0
  0
LINE
  5
9CBE
330
9B7D
100
AcDbEntity
  8
1
  6
Continuous
100
AcDbLine
 10
133.5176459999999
 20
38.130933
 30
0.0
 11
132.835823
 21
47.13093299999999
 31
0.0
  0
LINE
  5
9CBF
330
9B7D
100
AcDbEntity
  8
1
  6
Continuous
100
AcDbLine
 10
133.7008889999999
 20
47.09316
 30
0.0
 11
134.3827129999999
 21
38.09315999999999
 31
0.0
  0
LINE
  5
9CC0
330
9B7D
100
AcDbEntity
  8
1
  6
Continuous
100
AcDbLine
 10
134.1994699999999
 20
47.13093299999999
 30
0.0
 11
134.8812789999997
 21
38.130933
 31
0.0
  0
LINE
  5
9CC1
330
9B7D
100
AcDbEntity
  8
1
  6
Continuous
100
AcDbLine
 10
126.9101639999999
 20
38.61204199999999
 30
0.0
 11
126.8816139999999
 21
38.098176
 31
0.0
  0
LINE
  5
9CC2
330
9B7D
100
AcDbEntity
  8
1
  6
Continuous
100
AcDbLine
 10
128.0631019999999
 20
38.09316299999998
 30
0.0
 11
128.102409
 21
38.612046
 31
0.0
  0
LINE
  5
9CC3
330
9B7D
100
AcDbEntity
  8
1
  6
Continuous
100
AcDbLine
 10
128.2463449999999
 20
47.13092899999998
 30
0.0
 11
128.2070389999999
 21
46.612046
 31
0.0
  0
LINE
  5
9CC4
330
9B7D
100
AcDbEntity
  8
1
  6
Continuous
100
AcDbLine
 10
129.570671
 20
46.612046
 30
0.0
 11
129.6099769999998
 21
47.13093299999999
 31
0.0
  0
LINE
  5
9CC5
330
9B7D
100
AcDbEntity
  8
1
  6
Continuous
100
AcDbLine
 10
129.4660409999997
 20
38.612046
 30
0.0
 11
129.426735
 21
38.09315999999999
 31
0.0
  0
LINE
  5
9CC6
330
9B7D
100
AcDbEntity
  8
1
  6
Continuous
100
AcDbLine
 10
130.9343029999997
 20
46.612046
 30
0.0
 11
130.973625
 21
47.13092899999998
 31
0.0
  0
LINE
  5
9CC7
330
9B7D
100
AcDbEntity
  8
1
  6
Continuous
100
AcDbLine
 10
130.8296729999999
 20
38.612046
 30
0.0
 11
130.7903669999997
 21
38.09315999999999
 31
0.0
  0
LINE
  5
9CC8
330
9B7D
100
AcDbEntity
  8
1
  6
Continuous
100
AcDbLine
 10
132.2979499999999
 20
46.612046
 30
0.0
 11
132.3372569999999
 21
47.13092899999998
 31
0.0
  0
LINE
  5
9CC9
330
9B7D
100
AcDbEntity
  8
1
  6
Continuous
100
AcDbLine
 10
132.193321
 20
38.612046
 30
0.0
 11
132.1540139999999
 21
38.09315999999999
 31
0.0
  0
LINE
  5
9CCA
330
9B7D
100
AcDbEntity
  8
1
  6
Continuous
100
AcDbLine
 10
133.661583
 20
46.612046
 30
0.0
 11
133.7008889999999
 21
47.13093299999999
 31
0.0
  0
LINE
  5
9CCB
330
9B7D
100
AcDbEntity
  8
1
  6
Continuous
100
AcDbLine
 10
133.5569529999999
 20
38.61204199999999
 30
0.0
 11
133.5176459999999
 21
38.09315999999999
 31
0.0
  0
LINE
  5
9CCC
330
9B7D
100
AcDbEntity
  8
1
  6
Continuous
100
AcDbLine
 10
134.8538279999999
 20
46.612046
 30
0.0
 11
134.8823769999999
 21
47.12591599999998
 31
0.0
  0
LINE
  5
9CCD
330
9B7D
100
AcDbEntity
  8
1
  6
Continuous
100
AcDbLine
 10
126.881996
 20
47.112046
 30
0.0
 11
126.8816139999999
 21
38.09817999999999
 31
0.0
  0
LINE
  5
9CCE
330
9B7D
100
AcDbEntity
  8
1
  6
Continuous
100
AcDbLine
 10
126.88163
 20
38.612046
 30
0.0
 11
127.5252149999999
 21
38.612046
 31
0.0
  0
LINE
  5
9CCF
330
9B7D
100
AcDbEntity
  8
1
  6
Continuous
100
AcDbLine
 10
128.026649
 20
38.612046
 30
0.0
 11
128.8888619999999
 21
38.612046
 31
0.0
  0
LINE
  5
9CD0
330
9B7D
100
AcDbEntity
  8
1
  6
Continuous
100
AcDbLine
 10
129.3902809999998
 20
38.612046
 30
0.0
 11
130.2524949999997
 21
38.612046
 31
0.0
  0
LINE
  5
9CD1
330
9B7D
100
AcDbEntity
  8
1
  6
Continuous
100
AcDbLine
 10
130.753929
 20
38.612046
 30
0.0
 11
131.616127
 21
38.612046
 31
0.0
  0
LINE
  5
9CD2
330
9B7D
100
AcDbEntity
  8
1
  6
Continuous
100
AcDbLine
 10
132.117561
 20
38.612046
 30
0.0
 11
132.979759
 21
38.612046
 31
0.0
  0
LINE
  5
9CD3
330
9B7D
100
AcDbEntity
  8
1
  6
Continuous
100
AcDbLine
 10
133.4811929999999
 20
38.612046
 30
0.0
 11
134.3434059999998
 21
38.612046
 31
0.0
  0
LINE
  5
9CD4
330
9B7D
100
AcDbEntity
  8
1
  6
Continuous
100
AcDbLine
 10
134.2387769999999
 20
46.612046
 30
0.0
 11
134.8819959999999
 21
46.612046
 31
0.0
  0
LINE
  5
9CD5
330
9B7D
100
AcDbEntity
  8
1
  6
Continuous
100
AcDbLine
 10
132.8751289999999
 20
46.612046
 30
0.0
 11
133.7373429999999
 21
46.612046
 31
0.0
  0
LINE
  5
9CD6
330
9B7D
100
AcDbEntity
  8
1
  6
Continuous
100
AcDbLine
 10
131.5114969999999
 20
46.612046
 30
0.0
 11
132.3737099999999
 21
46.612046
 31
0.0
  0
LINE
  5
9CD7
330
9B7D
100
AcDbEntity
  8
1
  6
Continuous
100
AcDbLine
 10
130.1478649999999
 20
46.612046
 30
0.0
 11
131.0100629999997
 21
46.612046
 31
0.0
  0
LINE
  5
9CD8
330
9B7D
100
AcDbEntity
  8
1
  6
Continuous
100
AcDbLine
 10
128.7842329999998
 20
46.612046
 30
0.0
 11
129.646431
 21
46.612046
 31
0.0
  0
LINE
  5
9CD9
330
9B7D
100
AcDbEntity
  8
1
  6
Continuous
100
AcDbLine
 10
127.4205849999999
 20
46.612046
 30
0.0
 11
128.2827979999999
 21
46.612046
 31
0.0
  0
LINE
  5
9CDA
330
9B7D
100
AcDbEntity
  8
1
  6
Continuous
100
AcDbLine
 10
127.609977
 20
44.112046
 30
0.0
 11
128.4721909999997
 21
44.112046
 31
0.0
  0
LINE
  5
9CDB
330
9B7D
100
AcDbEntity
  8
1
  6
Continuous
100
AcDbLine
 10
126.8818739999999
 20
44.112046
 30
0.0
 11
127.108558
 21
44.112046
 31
0.0
  0
LINE
  5
9CDC
330
9B7D
100
AcDbEntity
  8
1
  6
Continuous
100
AcDbLine
 10
126.881736
 20
41.11204599999999
 30
0.0
 11
127.335823
 21
41.11204599999999
 31
0.0
  0
LINE
  5
9CDD
330
9B7D
100
AcDbEntity
  8
1
  6
Continuous
100
AcDbLine
 10
127.8372569999998
 20
41.11204599999999
 30
0.0
 11
128.6994549999997
 21
41.11204599999999
 31
0.0
  0
LINE
  5
9CDE
330
9B7D
100
AcDbEntity
  8
1
  6
Continuous
100
AcDbLine
 10
134.8819959999999
 20
228.3120459999999
 30
0.0
 11
134.8819959999999
 21
237.3120459999999
 31
0.0
  0
LINE
  5
9CDF
330
9B7D
100
AcDbEntity
  8
1
  6
Continuous
100
AcDbLine
 10
127.381279
 20
237.3309359999999
 30
0.0
 11
128.0631019999999
 21
228.330936
 31
0.0
  0
LINE
  5
9CE0
330
9B7D
100
AcDbEntity
  8
1
  6
Continuous
100
AcDbLine
 10
127.5645209999999
 20
228.293156
 30
0.0
 11
126.882713
 21
237.293156
 31
0.0
  0
LINE
  5
9CE1
330
9B7D
100
AcDbEntity
  8
1
  6
Continuous
100
AcDbLine
 10
128.2463449999999
 20
237.293156
 30
0.0
 11
128.928154
 21
228.293156
 31
0.0
  0
LINE
  5
9CE2
330
9B7D
100
AcDbEntity
  8
1
  6
Continuous
100
AcDbLine
 10
129.426735
 20
228.330936
 30
0.0
 11
128.744911
 21
237.3309209999999
 31
0.0
  0
LINE
  5
9CE3
330
9B7D
100
AcDbEntity
  8
1
  6
Continuous
100
AcDbLine
 10
129.6099769999998
 20
237.293156
 30
0.0
 11
130.2918009999999
 21
228.293156
 31
0.0
  0
LINE
  5
9CE4
330
9B7D
100
AcDbEntity
  8
1
  6
Continuous
100
AcDbLine
 10
130.7918009999999
 20
228.3120459999999
 30
0.0
 11
130.1085579999998
 21
237.3309209999999
 31
0.0
  0
LINE
  5
9CE5
330
9B7D
100
AcDbEntity
  8
1
  6
Continuous
100
AcDbLine
 10
130.973625
 20
237.293156
 30
0.0
 11
131.6554329999999
 21
228.293156
 31
0.0
  0
LINE
  5
9CE6
330
9B7D
100
AcDbEntity
  8
1
  6
Continuous
100
AcDbLine
 10
132.1540139999999
 20
228.330921
 30
0.0
 11
131.4721909999997
 21
237.3309209999999
 31
0.0
  0
LINE
  5
9CE7
330
9B7D
100
AcDbEntity
  8
1
  6
Continuous
100
AcDbLine
 10
132.3372569999999
 20
237.293171
 30
0.0
 11
133.0190809999997
 21
228.293156
 31
0.0
  0
LINE
  5
9CE8
330
9B7D
100
AcDbEntity
  8
1
  6
Continuous
100
AcDbLine
 10
133.5176459999999
 20
228.330921
 30
0.0
 11
132.835823
 21
237.3309359999999
 31
0.0
  0
LINE
  5
9CE9
330
9B7D
100
AcDbEntity
  8
1
  6
Continuous
100
AcDbLine
 10
133.7008889999999
 20
237.293171
 30
0.0
 11
134.3827129999999
 21
228.293156
 31
0.0
  0
LINE
  5
9CEA
330
9B7D
100
AcDbEntity
  8
1
  6
Continuous
100
AcDbLine
 10
134.1994699999999
 20
237.3309359999999
 30
0.0
 11
134.8812789999997
 21
228.330921
 31
0.0
  0
LINE
  5
9CEB
330
9B7D
100
AcDbEntity
  8
1
  6
Continuous
100
AcDbLine
 10
128.102409
 20
228.812031
 30
0.0
 11
128.0631019999999
 21
228.293156
 31
0.0
  0
LINE
  5
9CEC
330
9B7D
100
AcDbEntity
  8
1
  6
Continuous
100
AcDbLine
 10
130.8296729999999
 20
228.812046
 30
0.0
 11
130.7903669999997
 21
228.293156
 31
0.0
  0
LINE
  5
9CED
330
9B7D
100
AcDbEntity
  8
1
  6
Continuous
100
AcDbLine
 10
126.881996
 20
237.3120459999999
 30
0.0
 11
126.8816139999999
 21
228.3120459999999
 31
0.0
  0
LINE
  5
9CEE
330
9B7D
100
AcDbEntity
  8
1
  6
Continuous
100
AcDbLine
 10
132.2979499999999
 20
236.8120459999999
 30
0.0
 11
132.3372569999999
 21
237.3309209999999
 31
0.0
  0
LINE
  5
9CEF
330
9B7D
100
AcDbEntity
  8
1
  6
Continuous
100
AcDbLine
 10
133.661583
 20
236.8120459999999
 30
0.0
 11
133.7008889999999
 21
237.3309359999999
 31
0.0
  0
LINE
  5
9CF0
330
9B7D
100
AcDbEntity
  8
1
  6
Continuous
100
AcDbLine
 10
134.8538429999997
 20
236.8120459999999
 30
0.0
 11
134.882393
 21
237.3259159999999
 31
0.0
  0
LINE
  5
9CF1
330
9B7D
100
AcDbEntity
  8
1
  6
Continuous
100
AcDbLine
 10
130.9343029999997
 20
236.8120459999999
 30
0.0
 11
130.97361
 21
237.3309209999999
 31
0.0
  0
LINE
  5
9CF2
330
9B7D
100
AcDbEntity
  8
1
  6
Continuous
100
AcDbLine
 10
128.2463449999999
 20
237.3309209999999
 30
0.0
 11
128.2070389999999
 21
236.8120459999999
 31
0.0
  0
LINE
  5
9CF3
330
9B7D
100
AcDbEntity
  8
1
  6
Continuous
100
AcDbLine
 10
129.570671
 20
236.8120459999999
 30
0.0
 11
129.609993
 21
237.3309209999999
 31
0.0
  0
LINE
  5
9CF4
330
9B7D
100
AcDbEntity
  8
1
  6
Continuous
100
AcDbLine
 10
132.117561
 20
228.812046
 30
0.0
 11
132.979759
 21
228.812046
 31
0.0
  0
LINE
  5
9CF5
330
9B7D
100
AcDbEntity
  8
1
  6
Continuous
100
AcDbLine
 10
133.4811929999999
 20
228.812046
 30
0.0
 11
134.3434059999998
 21
228.812046
 31
0.0
  0
LINE
  5
9CF6
330
9B7D
100
AcDbEntity
  8
1
  6
Continuous
100
AcDbLine
 10
134.2387769999999
 20
236.8120459999999
 30
0.0
 11
134.8819959999999
 21
236.8120459999999
 31
0.0
  0
LINE
  5
9CF7
330
9B7D
100
AcDbEntity
  8
1
  6
Continuous
100
AcDbLine
 10
132.8751289999999
 20
236.8120459999999
 30
0.0
 11
133.7373429999999
 21
236.8120459999999
 31
0.0
  0
LINE
  5
9CF8
330
9B7D
100
AcDbEntity
  8
1
  6
Continuous
100
AcDbLine
 10
131.5114969999999
 20
236.8120459999999
 30
0.0
 11
132.3737099999999
 21
236.8120459999999
 31
0.0
  0
LINE
  5
9CF9
330
9B7D
100
AcDbEntity
  8
1
  6
Continuous
100
AcDbLine
 10
130.1478649999999
 20
236.8120459999999
 30
0.0
 11
131.0100629999997
 21
236.8120459999999
 31
0.0
  0
LINE
  5
9CFA
330
9B7D
100
AcDbEntity
  8
1
  6
Continuous
100
AcDbLine
 10
128.7842329999998
 20
236.8120459999999
 30
0.0
 11
129.646431
 21
236.8120459999999
 31
0.0
  0
LINE
  5
9CFB
330
9B7D
100
AcDbEntity
  8
1
  6
Continuous
100
AcDbLine
 10
127.4205849999999
 20
236.8120459999999
 30
0.0
 11
128.2827979999999
 21
236.8120459999999
 31
0.0
  0
LINE
  5
9CFC
330
9B7D
100
AcDbEntity
  8
1
  6
Continuous
100
AcDbLine
 10
126.8818739999999
 20
234.3120459999999
 30
0.0
 11
127.108558
 21
234.3120459999999
 31
0.0
  0
LINE
  5
9CFD
330
9B7D
100
AcDbEntity
  8
1
  6
Continuous
100
AcDbLine
 10
127.609977
 20
234.3120459999999
 30
0.0
 11
128.4721909999997
 21
234.3120459999999
 31
0.0
  0
LINE
  5
9CFE
330
9B7D
100
AcDbEntity
  8
1
  6
Continuous
100
AcDbLine
 10
352.2820199999999
 20
133.2120459999997
 30
0.0
 11
352.2820199999999
 21
142.2120459999999
 31
0.0
  0
LINE
  5
9CFF
330
9B7D
100
AcDbEntity
  8
1
  6
Continuous
100
AcDbLine
 10
344.781318
 20
142.230936
 30
0.0
 11
345.463142
 21
133.230936
 31
0.0
  0
LINE
  5
9D00
330
9B7D
100
AcDbEntity
  8
1
  6
Continuous
100
AcDbLine
 10
344.9645459999999
 20
133.1931629999999
 30
0.0
 11
344.7820199999999
 21
135.602595
 31
0.0
  0
LINE
  5
9D01
330
9B7D
100
AcDbEntity
  8
1
  6
Continuous
100
AcDbLine
 10
345.64637
 20
142.1931559999999
 30
0.0
 11
346.3281929999998
 21
133.1931629999999
 31
0.0
  0
LINE
  5
9D02
330
9B7D
100
AcDbEntity
  8
1
  6
Continuous
100
AcDbLine
 10
346.8267589999999
 20
133.230936
 30
0.0
 11
346.1449349999999
 21
142.230936
 31
0.0
  0
LINE
  5
9D03
330
9B7D
100
AcDbEntity
  8
1
  6
Continuous
100
AcDbLine
 10
347.010017
 20
142.1931559999999
 30
0.0
 11
347.691841
 21
133.1931629999999
 31
0.0
  0
LINE
  5
9D04
330
9B7D
100
AcDbEntity
  8
1
  6
Continuous
100
AcDbLine
 10
348.190406
 20
133.230936
 30
0.0
 11
347.5085829999999
 21
142.230936
 31
0.0
  0
LINE
  5
9D05
330
9B7D
100
AcDbEntity
  8
1
  6
Continuous
100
AcDbLine
 10
348.373665
 20
142.1931559999999
 30
0.0
 11
349.0554579999999
 21
133.1931629999999
 31
0.0
  0
LINE
  5
9D06
330
9B7D
100
AcDbEntity
  8
1
  6
Continuous
100
AcDbLine
 10
349.554054
 20
133.2309289999997
 30
0.0
 11
348.87223
 21
142.230936
 31
0.0
  0
LINE
  5
9D07
330
9B7D
100
AcDbEntity
  8
1
  6
Continuous
100
AcDbLine
 10
349.7372809999998
 20
142.193171
 30
0.0
 11
350.419105
 21
133.1931629999999
 31
0.0
  0
LINE
  5
9D08
330
9B7D
100
AcDbEntity
  8
1
  6
Continuous
100
AcDbLine
 10
350.9176709999999
 20
133.2309289999997
 30
0.0
 11
350.2358469999999
 21
142.230936
 31
0.0
  0
LINE
  5
9D09
330
9B7D
100
AcDbEntity
  8
1
  6
Continuous
100
AcDbLine
 10
351.100929
 20
142.193171
 30
0.0
 11
351.7827529999999
 21
133.1931629999999
 31
0.0
  0
LINE
  5
9D0A
330
9B7D
100
AcDbEntity
  8
1
  6
Continuous
100
AcDbLine
 10
351.599495
 20
142.230936
 30
0.0
 11
352.2813179999998
 21
133.230936
 31
0.0
  0
LINE
  5
9D0B
330
9B7D
100
AcDbEntity
  8
1
  6
Continuous
100
AcDbLine
 10
345.463142
 20
133.1931629999999
 30
0.0
 11
345.502449
 21
133.7120459999999
 31
0.0
  0
LINE
  5
9D0C
330
9B7D
100
AcDbEntity
  8
1
  6
Continuous
100
AcDbLine
 10
346.8660659999999
 20
133.7120459999999
 30
0.0
 11
346.8267589999999
 21
133.1931629999999
 31
0.0
  0
LINE
  5
9D0D
330
9B7D
100
AcDbEntity
  8
1
  6
Continuous
100
AcDbLine
 10
348.229713
 20
133.7120459999999
 30
0.0
 11
348.190406
 21
133.1931629999999
 31
0.0
  0
LINE
  5
9D0E
330
9B7D
100
AcDbEntity
  8
1
  6
Continuous
100
AcDbLine
 10
349.5933609999998
 20
133.7120459999999
 30
0.0
 11
349.554054
 21
133.1931629999999
 31
0.0
  0
LINE
  5
9D0F
330
9B7D
100
AcDbEntity
  8
1
  6
Continuous
100
AcDbLine
 10
350.956978
 20
133.7120459999999
 30
0.0
 11
350.9176709999999
 21
133.193148
 31
0.0
  0
LINE
  5
9D10
330
9B7D
100
AcDbEntity
  8
1
  6
Continuous
100
AcDbLine
 10
349.6979749999999
 20
141.7120459999999
 30
0.0
 11
349.7372809999998
 21
142.230936
 31
0.0
  0
LINE
  5
9D11
330
9B7D
100
AcDbEntity
  8
1
  6
Continuous
100
AcDbLine
 10
351.061622
 20
141.7120459999999
 30
0.0
 11
351.100929
 21
142.230936
 31
0.0
  0
LINE
  5
9D12
330
9B7D
100
AcDbEntity
  8
1
  6
Continuous
100
AcDbLine
 10
352.2538829999998
 20
141.7120459999999
 30
0.0
 11
352.282417
 21
142.2259159999998
 31
0.0
  0
LINE
  5
9D13
330
9B7D
100
AcDbEntity
  8
1
  6
Continuous
100
AcDbLine
 10
348.334358
 20
141.7120459999999
 30
0.0
 11
348.373665
 21
142.230936
 31
0.0
  0
LINE
  5
9D14
330
9B7D
100
AcDbEntity
  8
1
  6
Continuous
100
AcDbLine
 10
345.64637
 20
142.230936
 30
0.0
 11
345.6070629999999
 21
141.7120459999999
 31
0.0
  0
LINE
  5
9D15
330
9B7D
100
AcDbEntity
  8
1
  6
Continuous
100
AcDbLine
 10
346.9707099999998
 20
141.7120459999999
 30
0.0
 11
347.010017
 21
142.230936
 31
0.0
  0
LINE
  5
9D16
330
9B7D
100
AcDbEntity
  8
1
  6
Continuous
100
AcDbLine
 10
352.7820199999999
 20
142.2120459999999
 30
0.0
 11
352.7820199999999
 21
133.2120459999997
 31
0.0
  0
LINE
  5
9D17
330
9B7D
100
AcDbEntity
  8
1
  6
Continuous
100
AcDbLine
 10
344.9252389999998
 20
133.7120459999999
 30
0.0
 11
344.7820199999999
 21
133.7120459999999
 31
0.0
  0
LINE
  5
9D18
330
9B7D
100
AcDbEntity
  8
1
  6
Continuous
100
AcDbLine
 10
346.288887
 20
133.7120459999999
 30
0.0
 11
345.426674
 21
133.7120459999999
 31
0.0
  0
LINE
  5
9D19
330
9B7D
100
AcDbEntity
  8
1
  6
Continuous
100
AcDbLine
 10
347.652504
 20
133.7120459999999
 30
0.0
 11
346.790321
 21
133.7120459999999
 31
0.0
  0
LINE
  5
9D1A
330
9B7D
100
AcDbEntity
  8
1
  6
Continuous
100
AcDbLine
 10
349.016151
 20
133.7120459999999
 30
0.0
 11
348.153938
 21
133.7120459999999
 31
0.0
  0
LINE
  5
9D1B
330
9B7D
100
AcDbEntity
  8
1
  6
Continuous
100
AcDbLine
 10
350.3797989999998
 20
133.7120459999999
 30
0.0
 11
349.5175849999998
 21
133.7120459999999
 31
0.0
  0
LINE
  5
9D1C
330
9B7D
100
AcDbEntity
  8
1
  6
Continuous
100
AcDbLine
 10
351.743416
 20
133.7120459999999
 30
0.0
 11
350.881233
 21
133.7120459999999
 31
0.0
  0
LINE
  5
9D1D
330
9B7D
100
AcDbEntity
  8
1
  6
Continuous
100
AcDbLine
 10
352.2820199999999
 20
141.7120459999999
 30
0.0
 11
351.638801
 21
141.7120459999999
 31
0.0
  0
LINE
  5
9D1E
330
9B7D
100
AcDbEntity
  8
1
  6
Continuous
100
AcDbLine
 10
351.1373669999999
 20
141.7120459999999
 30
0.0
 11
350.2751539999999
 21
141.7120459999999
 31
0.0
  0
LINE
  5
9D1F
330
9B7D
100
AcDbEntity
  8
1
  6
Continuous
100
AcDbLine
 10
349.7737189999999
 20
141.7120459999999
 30
0.0
 11
348.911537
 21
141.7120459999999
 31
0.0
  0
LINE
  5
9D20
330
9B7D
100
AcDbEntity
  8
1
  6
Continuous
100
AcDbLine
 10
348.410103
 20
141.7120459999999
 30
0.0
 11
347.547889
 21
141.7120459999999
 31
0.0
  0
LINE
  5
9D21
330
9B7D
100
AcDbEntity
  8
1
  6
Continuous
100
AcDbLine
 10
347.0464549999999
 20
141.7120459999999
 30
0.0
 11
346.1842419999999
 21
141.7120459999999
 31
0.0
  0
LINE
  5
9D22
330
9B7D
100
AcDbEntity
  8
1
  6
Continuous
100
AcDbLine
 10
345.682808
 20
141.7120459999999
 30
0.0
 11
344.820625
 21
141.7120459999999
 31
0.0
  0
LINE
  5
9D23
330
9B7D
100
AcDbEntity
  8
1
  6
Continuous
100
AcDbLine
 10
348.872902
 20
142.214854
 30
0.0
 11
349.163215
 21
141.7120459999999
 31
0.0
  0
LINE
  5
9D24
330
9B7D
100
AcDbEntity
  8
1
  6
Continuous
100
AcDbLine
 10
32.782007
 20
148.712061
 30
0.0
 11
34.35212099999999
 21
153.6652929999999
 31
0.0
  0
LINE
  5
9D25
330
9B7D
100
AcDbEntity
  8
1
  6
Continuous
100
AcDbLine
 10
35.929121
 20
148.7120459999998
 30
0.0
 11
37.211886
 21
152.7587839999999
 31
0.0
  0
LINE
  5
9D26
330
9B7D
100
AcDbEntity
  8
1
  6
Continuous
100
AcDbLine
 10
120.881996
 20
228.812046
 30
0.0
 11
126.3819959999999
 21
228.812046
 31
0.0
  0
LINE
  5
9D27
330
9B7D
100
AcDbEntity
  8
1
  6
Continuous
100
AcDbLine
 10
132.193321
 20
228.812046
 30
0.0
 11
132.1540139999999
 21
228.293156
 31
0.0
  0
LINE
  5
9D28
330
9B7D
100
AcDbEntity
  8
1
  6
Continuous
100
AcDbLine
 10
133.5569529999999
 20
228.812046
 30
0.0
 11
133.5176459999999
 21
228.293156
 31
0.0
  0
LINE
  5
9D29
330
9B7D
100
AcDbEntity
  8
1
  6
Continuous
100
AcDbLine
 10
129.466057
 20
228.812046
 30
0.0
 11
129.426735
 21
228.293156
 31
0.0
  0
LINE
  5
9D2A
330
9B7D
100
AcDbEntity
  8
1
  6
Continuous
100
AcDbLine
 10
128.026649
 20
228.812046
 30
0.0
 11
128.8888619999999
 21
228.812046
 31
0.0
  0
LINE
  5
9D2B
330
9B7D
100
AcDbEntity
  8
1
  6
Continuous
100
AcDbLine
 10
129.3902809999998
 20
228.812046
 30
0.0
 11
130.2524949999997
 21
228.812046
 31
0.0
  0
LINE
  5
9D2C
330
9B7D
100
AcDbEntity
  8
1
  6
Continuous
100
AcDbLine
 10
130.753929
 20
228.812046
 30
0.0
 11
131.616127
 21
228.812046
 31
0.0
  0
LINE
  5
9D2D
330
9B7D
100
AcDbEntity
  8
1
  6
Continuous
100
AcDbLine
 10
126.881736
 20
231.3120459999999
 30
0.0
 11
127.335823
 21
231.3120459999999
 31
0.0
  0
LINE
  5
9D2E
330
9B7D
100
AcDbEntity
  8
1
  6
Continuous
100
AcDbLine
 10
127.8372569999998
 20
231.3120459999999
 30
0.0
 11
128.6994549999997
 21
231.3120459999999
 31
0.0
  0
LINE
  5
9D2F
330
9B7D
100
AcDbEntity
  8
1
  6
Continuous
100
AcDbLine
 10
123.3819959999999
 20
239.8120459999999
 30
0.0
 11
126.3819959999999
 21
239.8120459999999
 31
0.0
  0
LINE
  5
9D30
330
9B7D
100
AcDbEntity
  8
1
  6
Continuous
100
AcDbLine
 10
123.3819959999999
 20
239.8120459999999
 30
0.0
 11
123.3819959999999
 21
236.8120459999999
 31
0.0
  0
LINE
  5
9D31
330
9B7D
100
AcDbEntity
  8
1
  6
Continuous
100
AcDbLine
 10
123.3819959999999
 20
228.812046
 30
0.0
 11
123.3819959999999
 21
220.312046
 31
0.0
  0
LINE
  5
9D32
330
9B7D
100
AcDbEntity
  8
1
  6
Continuous
100
AcDbLine
 10
356.59449
 20
154.0120489999999
 30
0.0
 11
350.9695509999998
 21
154.0120489999999
 31
0.0
  0
LINE
  5
9D33
330
9B7D
100
AcDbEntity
  8
1
  6
Continuous
100
AcDbLine
 10
356.59449
 20
143.4120429999999
 30
0.0
 11
350.9695509999998
 21
143.4120429999999
 31
0.0
  0
LINE
  5
9D34
330
9B7D
100
AcDbEntity
  8
1
  6
Continuous
100
AcDbLine
 10
122.5695259999999
 20
154.0120489999999
 30
0.0
 11
128.1944649999997
 21
154.0120489999999
 31
0.0
  0
LINE
  5
9D35
330
9B7D
100
AcDbEntity
  8
1
  6
Continuous
100
AcDbLine
 10
122.5695259999999
 20
143.4120429999999
 30
0.0
 11
128.1944649999997
 21
143.4120429999999
 31
0.0
  0
ARC
  5
9D36
330
9B7D
100
AcDbEntity
  8
1
  6
Continuous
100
AcDbCircle
 10
125.3819959999999
 20
148.7120459999998
 30
0.0
 40
9.0
100
AcDbArc
 50
14.47751099999998
 51
165.52249
  0
ARC
  5
9D37
330
9B7D
100
AcDbEntity
  8
1
  6
Continuous
100
AcDbCircle
 10
157.3819959999999
 20
129.7120459999999
 30
0.0
 40
3.0
100
AcDbArc
 50
269.9999969999999
 51
0.0
  0
ARC
  5
9D38
330
9B7D
100
AcDbEntity
  8
1
  6
Continuous
100
AcDbCircle
 10
157.3819959999999
 20
145.7120459999998
 30
0.0
 40
3.0
100
AcDbArc
 50
0.0
 51
90.00000300000001
  0
ARC
  5
9D39
330
9B7D
100
AcDbEntity
  8
1
  6
Continuous
100
AcDbCircle
 10
137.000953
 20
151.7120459999999
 30
0.0
 40
3.0
100
AcDbArc
 50
194.47751
 51
269.9999969999999
  0
ARC
  5
9D3A
330
9B7D
100
AcDbEntity
  8
1
  6
Continuous
100
AcDbCircle
 10
113.7630539999999
 20
151.7120459999999
 30
0.0
 40
3.0
100
AcDbArc
 50
269.9999969999999
 51
345.522489
  0
ARC
  5
9D3B
330
9B7D
100
AcDbEntity
  8
1
  6
Continuous
100
AcDbCircle
 10
154.3819959999999
 20
131.7120459999999
 30
0.0
 40
1.8
100
AcDbArc
 50
346.506601
 51
13.49339899999998
  0
ARC
  5
9D3C
330
9B7D
100
AcDbEntity
  8
1
  6
Continuous
100
AcDbCircle
 10
154.3819959999999
 20
131.7120459999999
 30
0.0
 40
1.8
100
AcDbArc
 50
76.506602
 51
103.4933959999998
  0
ARC
  5
9D3D
330
9B7D
100
AcDbEntity
  8
1
  6
Continuous
100
AcDbCircle
 10
154.3819959999999
 20
131.7120459999999
 30
0.0
 40
1.8
100
AcDbArc
 50
166.506597
 51
193.4933989999999
  0
ARC
  5
9D3E
330
9B7D
100
AcDbEntity
  8
1
  6
Continuous
100
AcDbCircle
 10
154.3819959999999
 20
131.7120459999999
 30
0.0
 40
1.8
100
AcDbArc
 50
256.506604
 51
283.493398
  0
CIRCLE
  5
9D3F
330
9B7D
100
AcDbEntity
  8
1
  6
Continuous
100
AcDbCircle
 10
154.3819959999999
 20
131.7120539999999
 30
0.0
 40
3.0
  0
ARC
  5
9D40
330
9B7D
100
AcDbEntity
  8
1
  6
Continuous
100
AcDbCircle
 10
139.3819959999997
 20
143.7120459999998
 30
0.0
 40
1.8
100
AcDbArc
 50
346.506601
 51
13.49339899999998
  0
ARC
  5
9D41
330
9B7D
100
AcDbEntity
  8
1
  6
Continuous
100
AcDbCircle
 10
139.3819959999997
 20
143.7120459999998
 30
0.0
 40
1.8
100
AcDbArc
 50
76.506602
 51
103.4933959999998
  0
ARC
  5
9D42
330
9B7D
100
AcDbEntity
  8
1
  6
Continuous
100
AcDbCircle
 10
139.3819959999997
 20
143.7120459999998
 30
0.0
 40
1.8
100
AcDbArc
 50
166.506597
 51
193.4933989999999
  0
ARC
  5
9D43
330
9B7D
100
AcDbEntity
  8
1
  6
Continuous
100
AcDbCircle
 10
139.3819959999997
 20
143.7120459999998
 30
0.0
 40
1.8
100
AcDbArc
 50
256.506604
 51
283.493398
  0
CIRCLE
  5
9D44
330
9B7D
100
AcDbEntity
  8
1
  6
Continuous
100
AcDbCircle
 10
139.3819959999997
 20
143.7120459999998
 30
0.0
 40
3.0
  0
CIRCLE
  5
9D45
330
9B7D
100
AcDbEntity
  8
2
  6
Continuous
100
AcDbCircle
 10
22.78200299999999
 20
131.7120459999999
 30
0.0
 40
1.5
  0
CIRCLE
  5
9D46
330
9B7D
100
AcDbEntity
  8
2
  6
Continuous
100
AcDbCircle
 10
129.8819959999997
 20
131.2120459999997
 30
0.0
 40
1.5
  0
CIRCLE
  5
9D47
330
9B7D
100
AcDbEntity
  8
1
  6
Continuous
100
AcDbCircle
 10
129.8819959999997
 20
131.2120459999997
 30
0.0
 40
1.2295
  0
CIRCLE
  5
9D48
330
9B7D
100
AcDbEntity
  8
1
  6
Continuous
100
AcDbCircle
 10
22.78200299999999
 20
131.7120459999999
 30
0.0
 40
1.2295
  0
ARC
  5
9D49
330
9B7D
100
AcDbEntity
  8
1
  6
Continuous
100
AcDbCircle
 10
124.032005
 20
137.7120459999999
 30
0.0
 40
1.649999999999999
100
AcDbArc
 50
90.00000300000001
 51
270.000001
  0
ARC
  5
9D4A
330
9B7D
100
AcDbEntity
  8
1
  6
Continuous
100
AcDbCircle
 10
137.332008
 20
137.7120459999999
 30
0.0
 40
1.649999999999999
100
AcDbArc
 50
269.9999969999999
 51
90.00000300000001
  0
ARC
  5
9D4B
330
9B7D
100
AcDbEntity
  8
1
  6
Continuous
100
AcDbCircle
 10
20.882003
 20
145.7120459999998
 30
0.0
 40
3.0
100
AcDbArc
 50
90.00000300000001
 51
180.000005
  0
ARC
  5
9D4C
330
9B7D
100
AcDbEntity
  8
1
  6
Continuous
100
AcDbCircle
 10
20.882003
 20
129.7120459999999
 30
0.0
 40
3.0
100
AcDbArc
 50
179.9999909999999
 51
270.000001
  0
CIRCLE
  5
9D4D
330
9B7D
100
AcDbEntity
  8
1
  6
Continuous
100
AcDbCircle
 10
30.282003
 20
137.7120459999999
 30
0.0
 40
3.0
  0
CIRCLE
  5
9D4E
330
9B7D
100
AcDbEntity
  8
2
  6
Continuous
100
AcDbCircle
 10
117.882003
 20
138.712046
 30
0.0
 40
1.5
  0
CIRCLE
  5
9D4F
330
9B7D
100
AcDbEntity
  8
1
  6
Continuous
100
AcDbCircle
 10
117.882003
 20
138.712046
 30
0.0
 40
1.2295
  0
CIRCLE
  5
9D50
330
9B7D
100
AcDbEntity
  8
2
  6
Continuous
100
AcDbCircle
 10
37.782003
 20
137.7120459999999
 30
0.0
 40
1.5
  0
CIRCLE
  5
9D51
330
9B7D
100
AcDbEntity
  8
1
  6
Continuous
100
AcDbCircle
 10
37.782003
 20
137.7120459999999
 30
0.0
 40
1.2295
  0
CIRCLE
  5
9D52
330
9B7D
100
AcDbEntity
  8
2
  6
Continuous
100
AcDbCircle
 10
22.78200299999999
 20
143.7120459999998
 30
0.0
 40
1.5
  0
CIRCLE
  5
9D53
330
9B7D
100
AcDbEntity
  8
1
  6
Continuous
100
AcDbCircle
 10
22.78200299999999
 20
143.7120459999998
 30
0.0
 40
1.2295
  0
ARC
  5
9D54
330
9B7D
100
AcDbEntity
  8
1
  6
Continuous
100
AcDbCircle
 10
24.782003
 20
153.2120459999999
 30
0.0
 40
1.5
100
AcDbArc
 50
17.587954
 51
197.5879469999999
  0
ARC
  5
9D55
330
9B7D
100
AcDbEntity
  8
1
  6
Continuous
100
AcDbCircle
 10
101.1459349999997
 20
139.9481149999997
 30
0.0
 40
0.7639320000000001
100
AcDbArc
 50
90.00000300000001
 51
180.000005
  0
ARC
  5
9D56
330
9B7D
100
AcDbEntity
  8
1
  6
Continuous
100
AcDbCircle
 10
101.1459349999997
 20
135.4759929999999
 30
0.0
 40
0.7639320000000001
100
AcDbArc
 50
179.9999909999999
 51
270.000001
  0
CIRCLE
  5
9D57
330
9B7D
100
AcDbEntity
  8
1
  6
Continuous
100
AcDbCircle
 10
124.881996
 20
137.7120459999999
 30
0.0
 40
1.499995999999997
  0
CIRCLE
  5
9D58
330
9B7D
100
AcDbEntity
  8
1
  6
Continuous
100
AcDbCircle
 10
124.881996
 20
137.7120459999999
 30
0.0
 40
0.8999959999999999
  0
ARC
  5
9D59
330
9B7D
100
AcDbEntity
  8
1
  6
Continuous
100
AcDbCircle
 10
245.182008
 20
153.2120459999999
 30
0.0
 40
1.5
100
AcDbArc
 50
342.4120529999999
 51
162.4120489999999
  0
CIRCLE
  5
9D5A
330
9B7D
100
AcDbEntity
  8
1
  6
Continuous
100
AcDbCircle
 10
239.6820079999999
 20
137.7120459999999
 30
0.0
 40
2.25
  0
ARC
  5
9D5B
330
9B7D
100
AcDbEntity
  8
1
  6
Continuous
100
AcDbCircle
 10
234.182008
 20
153.2120459999999
 30
0.0
 40
1.5
100
AcDbArc
 50
17.587954
 51
197.5879469999999
  0
ARC
  5
9D5C
330
9B7D
100
AcDbEntity
  8
1
  6
Continuous
100
AcDbCircle
 10
158.7820049999999
 20
31.71203699999999
 30
0.0
 40
1.6
100
AcDbArc
 50
269.9999969999999
 51
0.0
  0
ARC
  5
9D5D
330
9B7D
100
AcDbEntity
  8
1
  6
Continuous
100
AcDbCircle
 10
158.7820049999999
 20
53.51204
 30
0.0
 40
1.6
100
AcDbArc
 50
0.0
 51
90.00000300000001
  0
ARC
  5
9D5E
330
9B7D
100
AcDbEntity
  8
1
  6
Continuous
100
AcDbCircle
 10
353.78202
 20
148.7120459999998
 30
0.0
 40
9.0
100
AcDbArc
 50
14.477503
 51
165.52249
  0
ARC
  5
9D5F
330
9B7D
100
AcDbEntity
  8
1
  6
Continuous
100
AcDbCircle
 10
342.1630629999999
 20
151.7120459999999
 30
0.0
 40
3.0
100
AcDbArc
 50
270.0000039999998
 51
345.52249
  0
CIRCLE
  5
9D60
330
9B7D
100
AcDbEntity
  8
2
  6
Continuous
100
AcDbCircle
 10
324.78202
 20
143.7120459999998
 30
0.0
 40
1.5
  0
CIRCLE
  5
9D61
330
9B7D
100
AcDbEntity
  8
1
  6
Continuous
100
AcDbCircle
 10
324.78202
 20
143.7120459999998
 30
0.0
 40
1.2295
  0
ARC
  5
9D62
330
9B7D
100
AcDbEntity
  8
1
  6
Continuous
100
AcDbCircle
 10
378.018074
 20
139.9481149999997
 30
0.0
 40
0.7639320000000001
100
AcDbArc
 50
359.999995
 51
89.99999599999998
  0
ARC
  5
9D63
330
9B7D
100
AcDbEntity
  8
1
  6
Continuous
100
AcDbCircle
 10
378.018074
 20
135.4759929999999
 30
0.0
 40
0.7639320000000001
100
AcDbArc
 50
270.0000039999998
 51
0.000005
  0
CIRCLE
  5
9D64
330
9B7D
100
AcDbEntity
  8
1
  6
Continuous
100
AcDbCircle
 10
354.28199
 20
137.7120459999999
 30
0.0
 40
1.499995999999997
  0
CIRCLE
  5
9D65
330
9B7D
100
AcDbEntity
  8
1
  6
Continuous
100
AcDbCircle
 10
354.28199
 20
137.7120459999999
 30
0.0
 40
0.8999959999999999
  0
CIRCLE
  5
9D66
330
9B7D
100
AcDbEntity
  8
2
  6
Continuous
100
AcDbCircle
 10
349.2820200000001
 20
131.2120459999997
 30
0.0
 40
1.5
  0
CIRCLE
  5
9D67
330
9B7D
100
AcDbEntity
  8
1
  6
Continuous
100
AcDbCircle
 10
349.2820200000001
 20
131.2120459999997
 30
0.0
 40
1.2295
  0
CIRCLE
  5
9D68
330
9B7D
100
AcDbEntity
  8
2
  6
Continuous
100
AcDbCircle
 10
339.7820199999998
 20
131.7120459999999
 30
0.0
 40
1.5
  0
CIRCLE
  5
9D69
330
9B7D
100
AcDbEntity
  8
1
  6
Continuous
100
AcDbCircle
 10
339.7820199999998
 20
131.7120459999999
 30
0.0
 40
1.2295
  0
ARC
  5
9D6A
330
9B7D
100
AcDbEntity
  8
1
  6
Continuous
100
AcDbCircle
 10
158.7820049999999
 20
243.7120549999999
 30
0.0
 40
1.6
100
AcDbArc
 50
0.0
 51
90.00000300000001
  0
ARC
  5
9D6B
330
9B7D
100
AcDbEntity
  8
1
  6
Continuous
100
AcDbCircle
 10
158.7820049999999
 20
221.912052
 30
0.0
 40
1.6
100
AcDbArc
 50
269.9999969999999
 51
0.0
  0
ARC
  5
9D6C
330
9B7D
100
AcDbEntity
  8
1
  6
Continuous
100
AcDbCircle
 10
378.293586
 20
137.7120459999999
 30
0.0
 40
3.012621999999999
100
AcDbArc
 50
95.24728899999999
 51
264.752722
  0
ARC
  5
9D6D
330
9B7D
100
AcDbEntity
  8
1
  6
Continuous
100
AcDbCircle
 10
148.328346
 20
139.7687479999997
 30
0.0
 40
1.334408999999998
100
AcDbArc
 50
138.9320989999999
 51
221.067897
  0
ARC
  5
9D6E
330
9B7D
100
AcDbEntity
  8
1
  6
Continuous
100
AcDbCircle
 10
148.043937
 20
139.520915
 30
0.0
 40
0.957174
100
AcDbArc
 50
221.0679009999999
 51
289.1928019999999
  0
ARC
  5
9D6F
330
9B7D
100
AcDbEntity
  8
1
  6
Continuous
100
AcDbCircle
 10
148.043937
 20
140.0165659999997
 30
0.0
 40
0.957174
100
AcDbArc
 50
70.807198
 51
138.9320989999999
  0
ARC
  5
9D70
330
9B7D
100
AcDbEntity
  8
1
  6
Continuous
100
AcDbCircle
 10
148.1477429999999
 20
140.3147679999999
 30
0.0
 40
0.6414290000000003
100
AcDbArc
 50
5.659243
 51
70.807198
  0
ARC
  5
9D71
330
9B7D
100
AcDbEntity
  8
1
  6
Continuous
100
AcDbCircle
 10
148.1477429999999
 20
139.222727
 30
0.0
 40
0.6414290000000003
100
AcDbArc
 50
289.1928019999999
 51
354.3407569999998
  0
ARC
  5
9D72
330
9B7D
100
AcDbEntity
  8
1
  6
Continuous
100
AcDbCircle
 10
153.7582779999999
 20
140.3493899999998
 30
0.0
 40
0.6414290000000003
100
AcDbArc
 50
5.659243
 51
70.807198
  0
ARC
  5
9D73
330
9B7D
100
AcDbEntity
  8
1
  6
Continuous
100
AcDbCircle
 10
153.6544869999999
 20
140.0511879999999
 30
0.0
 40
0.957174
100
AcDbArc
 50
70.807198
 51
138.9320989999999
  0
ARC
  5
9D74
330
9B7D
100
AcDbEntity
  8
1
  6
Continuous
100
AcDbCircle
 10
153.938896
 20
139.80337
 30
0.0
 40
1.334408999999998
100
AcDbArc
 50
138.9320989999999
 51
221.067897
  0
ARC
  5
9D75
330
9B7D
100
AcDbEntity
  8
1
  6
Continuous
100
AcDbCircle
 10
153.6544869999999
 20
139.5555369999998
 30
0.0
 40
0.957174
100
AcDbArc
 50
221.0679009999999
 51
276.5913959999999
  0
ARC
  5
9D76
330
9B7D
100
AcDbEntity
  8
1
  6
Continuous
100
AcDbCircle
 10
153.6610489999999
 20
139.498743
 30
0.0
 40
0.9
100
AcDbArc
 50
269.582188
 51
11.654105
  0
ARC
  5
9D77
330
9B7D
100
AcDbEntity
  8
1
  6
Continuous
100
AcDbCircle
 10
145.7050549999999
 20
139.7754919999999
 30
0.0
 40
1.334408999999998
100
AcDbArc
 50
138.9320989999999
 51
221.067897
  0
ARC
  5
9D78
330
9B7D
100
AcDbEntity
  8
1
  6
Continuous
100
AcDbCircle
 10
145.1362379999999
 20
139.7754919999999
 30
0.0
 40
1.334408999999998
100
AcDbArc
 50
318.9321049999999
 51
41.067895
  0
ARC
  5
9D79
330
9B7D
100
AcDbEntity
  8
1
  6
Continuous
100
AcDbCircle
 10
145.4206459999998
 20
139.5276739999999
 30
0.0
 40
0.957174
100
AcDbArc
 50
221.0679009999999
 51
318.9321049999999
  0
ARC
  5
9D7A
330
9B7D
100
AcDbEntity
  8
1
  6
Continuous
100
AcDbCircle
 10
145.4206459999998
 20
140.023325
 30
0.0
 40
0.957174
100
AcDbArc
 50
41.067895
 51
138.9320989999999
  0
ARC
  5
9D7B
330
9B7D
100
AcDbEntity
  8
1
  6
Continuous
100
AcDbCircle
 10
147.1982649999999
 20
136.150324
 30
0.0
 40
0.7817210000000001
100
AcDbArc
 50
47.130371
 51
132.869623
  0
ARC
  5
9D7C
330
9B7D
100
AcDbEntity
  8
1
  6
Continuous
100
AcDbCircle
 10
147.285728
 20
136.244547
 30
0.0
 40
0.6531630000000001
100
AcDbArc
 50
312.8696289999999
 51
47.130371
  0
ARC
  5
9D7D
330
9B7D
100
AcDbEntity
  8
1
  6
Continuous
100
AcDbCircle
 10
147.110801
 20
136.244547
 30
0.0
 40
0.6531630000000001
100
AcDbArc
 50
132.869623
 51
204.2768199999999
  0
ARC
  5
9D7E
330
9B7D
100
AcDbEntity
  8
1
  6
Continuous
100
AcDbCircle
 10
149.46804
 20
135.1771799999999
 30
0.0
 40
0.7829229999999999
100
AcDbArc
 50
135.927499
 51
156.9521459999999
  0
ARC
  5
9D7F
330
9B7D
100
AcDbEntity
  8
1
  6
Continuous
100
AcDbCircle
 10
149.383445
 20
135.1771799999999
 30
0.0
 40
0.7829229999999999
100
AcDbArc
 50
315.927497
 51
44.072503
  0
ARC
  5
9D80
330
9B7D
100
AcDbEntity
  8
1
  6
Continuous
100
AcDbCircle
 10
149.4257429999999
 20
135.1362249999999
 30
0.0
 40
0.72405
100
AcDbArc
 50
205.5969759999999
 51
315.927497
  0
ARC
  5
9D81
330
9B7D
100
AcDbEntity
  8
1
  6
Continuous
100
AcDbCircle
 10
149.4257429999999
 20
135.218119
 30
0.0
 40
0.72405
100
AcDbArc
 50
44.072503
 51
135.927499
  0
ARC
  5
9D82
330
9B7D
100
AcDbEntity
  8
1
  6
Continuous
100
AcDbCircle
 10
151.8087689999999
 20
136.146998
 30
0.0
 40
0.7829620000000001
100
AcDbArc
 50
135.927499
 51
218.265785
  0
ARC
  5
9D83
330
9B7D
100
AcDbEntity
  8
1
  6
Continuous
100
AcDbCircle
 10
151.724174
 20
136.146998
 30
0.0
 40
0.7829620000000001
100
AcDbArc
 50
321.734217
 51
44.072503
  0
ARC
  5
9D84
330
9B7D
100
AcDbEntity
  8
1
  6
Continuous
100
AcDbCircle
 10
151.7664719999999
 20
136.187952
 30
0.0
 40
0.724086
100
AcDbArc
 50
44.072503
 51
135.927499
  0
ARC
  5
9D85
330
9B7D
100
AcDbEntity
  8
1
  6
Continuous
100
AcDbCircle
 10
151.8087689999999
 20
135.17721
 30
0.0
 40
0.7829620000000001
100
AcDbArc
 50
135.927499
 51
224.072497
  0
ARC
  5
9D86
330
9B7D
100
AcDbEntity
  8
1
  6
Continuous
100
AcDbCircle
 10
151.724174
 20
135.17721
 30
0.0
 40
0.7829620000000001
100
AcDbArc
 50
315.927497
 51
44.072503
  0
ARC
  5
9D87
330
9B7D
100
AcDbEntity
  8
1
  6
Continuous
100
AcDbCircle
 10
151.7664719999999
 20
135.136256
 30
0.0
 40
0.724086
100
AcDbArc
 50
224.0725009999999
 51
315.927497
  0
ARC
  5
9D88
330
9B7D
100
AcDbEntity
  8
1
  6
Continuous
100
AcDbCircle
 10
151.7664719999999
 20
135.218165
 30
0.0
 40
0.724086
100
AcDbArc
 50
44.072503
 51
135.927499
  0
ARC
  5
9D89
330
9B7D
100
AcDbEntity
  8
1
  6
Continuous
100
AcDbCircle
 10
149.5101999999999
 20
143.934443
 30
0.0
 40
0.222261
100
AcDbArc
 50
180.000009
 51
0.0
  0
ARC
  5
9D8A
330
9B7D
100
AcDbEntity
  8
1
  6
Continuous
100
AcDbCircle
 10
149.954994
 20
143.7124889999997
 30
0.0
 40
1.145318999999998
100
AcDbArc
 50
332.25
 51
54.46199899999999
  0
ARC
  5
9D8B
330
9B7D
100
AcDbEntity
  8
1
  6
Continuous
100
AcDbCircle
 10
149.954994
 20
143.7124889999997
 30
0.0
 40
1.145318999999998
100
AcDbArc
 50
305.5380009999999
 51
315.699
  0
ARC
  5
9D8C
330
9B7D
100
AcDbEntity
  8
1
  6
Continuous
100
AcDbCircle
 10
147.2880469999997
 20
139.9791209999999
 30
0.0
 40
5.732929999999998
100
AcDbArc
 50
54.46199899999999
 51
125.537702
  0
ARC
  5
9D8D
330
9B7D
100
AcDbEntity
  8
1
  6
Continuous
100
AcDbCircle
 10
147.2880469999997
 20
147.444972
 30
0.0
 40
5.732929999999998
100
AcDbArc
 50
234.461997
 51
305.5380009999999
  0
ARC
  5
9D8E
330
9B7D
100
AcDbEntity
  8
1
  6
Continuous
100
AcDbCircle
 10
147.2880469999997
 20
147.444972
 30
0.0
 40
5.288524999999999
100
AcDbArc
 50
243.985999
 51
247.055999
  0
ARC
  5
9D8F
330
9B7D
100
AcDbEntity
  8
1
  6
Continuous
100
AcDbCircle
 10
145.2445289999998
 20
142.616297
 30
0.0
 40
0.044452
100
AcDbArc
 50
247.055999
 51
0.0
  0
ARC
  5
9D90
330
9B7D
100
AcDbEntity
  8
1
  6
Continuous
100
AcDbCircle
 10
146.133201
 20
142.3303019999998
 30
0.0
 40
0.044452
100
AcDbArc
 50
257.270997
 51
0.0
  0
ARC
  5
9D91
330
9B7D
100
AcDbEntity
  8
1
  6
Continuous
100
AcDbCircle
 10
147.2880469999997
 20
147.444972
 30
0.0
 40
5.288524999999999
100
AcDbArc
 50
254.794002
 51
257.270997
  0
ARC
  5
9D92
330
9B7D
100
AcDbEntity
  8
1
  6
Continuous
100
AcDbCircle
 10
147.2880469999997
 20
147.444972
 30
0.0
 40
5.288524999999999
100
AcDbArc
 50
254.741997
 51
254.794002
  0
ARC
  5
9D93
330
9B7D
100
AcDbEntity
  8
1
  6
Continuous
100
AcDbCircle
 10
145.9554669999999
 20
142.5576579999997
 30
0.0
 40
0.222261
100
AcDbArc
 50
180.000009
 51
254.7419829999999
  0
ARC
  5
9D94
330
9B7D
100
AcDbEntity
  8
1
  6
Continuous
100
AcDbCircle
 10
145.9554669999999
 20
144.866435
 30
0.0
 40
0.222261
100
AcDbArc
 50
105.2574979999999
 51
180.000005
  0
ARC
  5
9D95
330
9B7D
100
AcDbEntity
  8
1
  6
Continuous
100
AcDbCircle
 10
147.2880469999997
 20
139.9791209999999
 30
0.0
 40
5.288524999999999
100
AcDbArc
 50
103.2681029999999
 51
105.2574979999999
  0
ARC
  5
9D96
330
9B7D
100
AcDbEntity
  8
1
  6
Continuous
100
AcDbCircle
 10
147.2880469999997
 20
139.9791209999999
 30
0.0
 40
5.288524999999999
100
AcDbArc
 50
102.7288999999999
 51
103.2681029999999
  0
ARC
  5
9D97
330
9B7D
100
AcDbEntity
  8
1
  6
Continuous
100
AcDbCircle
 10
146.133201
 20
145.0937899999999
 30
0.0
 40
0.044452
100
AcDbArc
 50
0.0
 51
102.7288999999999
  0
ARC
  5
9D98
330
9B7D
100
AcDbEntity
  8
1
  6
Continuous
100
AcDbCircle
 10
145.0667949999998
 20
142.8923739999999
 30
0.0
 40
0.222261
100
AcDbArc
 50
180.000009
 51
243.985999
  0
ARC
  5
9D99
330
9B7D
100
AcDbEntity
  8
1
  6
Continuous
100
AcDbCircle
 10
145.2445289999998
 20
144.8086949999997
 30
0.0
 40
0.044452
100
AcDbArc
 50
0.0
 51
112.944001
  0
ARC
  5
9D9A
330
9B7D
100
AcDbEntity
  8
1
  6
Continuous
100
AcDbCircle
 10
147.2880469999997
 20
139.9791209999999
 30
0.0
 40
5.288524999999999
100
AcDbArc
 50
112.944001
 51
116.0143969999999
  0
ARC
  5
9D9B
330
9B7D
100
AcDbEntity
  8
1
  6
Continuous
100
AcDbCircle
 10
145.0667949999998
 20
144.531702
 30
0.0
 40
0.222261
100
AcDbArc
 50
116.0143969999999
 51
180.000005
  0
ARC
  5
9D9C
330
9B7D
100
AcDbEntity
  8
1
  6
Continuous
100
AcDbCircle
 10
144.622001
 20
143.7124889999997
 30
0.0
 40
1.145318999999998
100
AcDbArc
 50
180.000009
 51
234.462011
  0
ARC
  5
9D9D
330
9B7D
100
AcDbEntity
  8
1
  6
Continuous
100
AcDbCircle
 10
144.622001
 20
143.7124889999997
 30
0.0
 40
1.145318999999998
100
AcDbArc
 50
125.537702
 51
166.5374019999999
  0
ARC
  5
9D9E
330
9B7D
100
AcDbEntity
  8
1
  6
Continuous
100
AcDbCircle
 10
147.2880469999997
 20
147.444972
 30
0.0
 40
5.288524999999999
100
AcDbArc
 50
277.792997
 51
280.1039989999998
  0
ARC
  5
9D9F
330
9B7D
100
AcDbEntity
  8
1
  6
Continuous
100
AcDbCircle
 10
147.999901
 20
142.2490939999998
 30
0.0
 40
0.044452
100
AcDbArc
 50
180.000009
 51
277.792997
  0
ARC
  5
9DA0
330
9B7D
100
AcDbEntity
  8
1
  6
Continuous
100
AcDbCircle
 10
148.177635
 20
142.4575139999998
 30
0.0
 40
0.222261
100
AcDbArc
 50
280.1039989999998
 51
0.0
  0
ARC
  5
9DA1
330
9B7D
100
AcDbEntity
  8
1
  6
Continuous
100
AcDbCircle
 10
147.999901
 20
145.174982
 30
0.0
 40
0.044452
100
AcDbArc
 50
82.20700300000002
 51
180.000005
  0
ARC
  5
9DA2
330
9B7D
100
AcDbEntity
  8
1
  6
Continuous
100
AcDbCircle
 10
147.2880469999997
 20
139.9791209999999
 30
0.0
 40
5.288524999999999
100
AcDbArc
 50
79.896001
 51
82.20700300000002
  0
ARC
  5
9DA3
330
9B7D
100
AcDbEntity
  8
1
  6
Continuous
100
AcDbCircle
 10
148.177635
 20
144.9665779999999
 30
0.0
 40
0.222261
100
AcDbArc
 50
0.0
 51
79.896001
  0
ARC
  5
9DA4
330
9B7D
100
AcDbEntity
  8
1
  6
Continuous
100
AcDbCircle
 10
127.131996
 20
47.112046
 30
0.0
 40
0.25
100
AcDbArc
 50
4.332314
 51
184.3323119999997
  0
ARC
  5
9DA5
330
9B7D
100
AcDbEntity
  8
1
  6
Continuous
100
AcDbCircle
 10
126.631996
 20
38.11204599999999
 30
0.0
 40
0.25
100
AcDbArc
 50
179.9999909999999
 51
356.820174
  0
ARC
  5
9DA6
330
9B7D
100
AcDbEntity
  8
1
  6
Continuous
100
AcDbCircle
 10
134.6319959999999
 20
38.11204599999999
 30
0.0
 40
0.25
100
AcDbArc
 50
184.332316
 51
0.0
  0
ARC
  5
9DA7
330
9B7D
100
AcDbEntity
  8
1
  6
Continuous
100
AcDbCircle
 10
135.1319959999997
 20
47.112046
 30
0.0
 40
0.25
100
AcDbArc
 50
0.0
 51
176.8201689999999
  0
ARC
  5
9DA8
330
9B7D
100
AcDbEntity
  8
1
  6
Continuous
100
AcDbCircle
 10
126.631996
 20
47.112046
 30
0.0
 40
0.25
100
AcDbArc
 50
0.0
 51
180.000005
  0
ARC
  5
9DA9
330
9B7D
100
AcDbEntity
  8
1
  6
Continuous
100
AcDbCircle
 10
135.1319959999997
 20
38.11204599999999
 30
0.0
 40
0.25
100
AcDbArc
 50
178.204034
 51
0.00001
  0
ARC
  5
9DAA
330
9B7D
100
AcDbEntity
  8
1
  6
Continuous
100
AcDbCircle
 10
128.495628
 20
47.112046
 30
0.0
 40
0.25
100
AcDbArc
 50
4.332314
 51
175.667684
  0
ARC
  5
9DAB
330
9B7D
100
AcDbEntity
  8
1
  6
Continuous
100
AcDbCircle
 10
129.859276
 20
47.112046
 30
0.0
 40
0.25
100
AcDbArc
 50
4.332314
 51
175.667684
  0
ARC
  5
9DAC
330
9B7D
100
AcDbEntity
  8
1
  6
Continuous
100
AcDbCircle
 10
131.2229079999999
 20
47.112046
 30
0.0
 40
0.25
100
AcDbArc
 50
4.332314
 51
175.667684
  0
ARC
  5
9DAD
330
9B7D
100
AcDbEntity
  8
1
  6
Continuous
100
AcDbCircle
 10
132.5865399999997
 20
47.112046
 30
0.0
 40
0.25
100
AcDbArc
 50
4.332314
 51
175.667684
  0
ARC
  5
9DAE
330
9B7D
100
AcDbEntity
  8
1
  6
Continuous
100
AcDbCircle
 10
133.950172
 20
47.112046
 30
0.0
 40
0.25
100
AcDbArc
 50
4.332314
 51
175.667684
  0
ARC
  5
9DAF
330
9B7D
100
AcDbEntity
  8
1
  6
Continuous
100
AcDbCircle
 10
133.2683639999999
 20
38.11204599999999
 30
0.0
 40
0.25
100
AcDbArc
 50
184.332316
 51
4.332314
  0
ARC
  5
9DB0
330
9B7D
100
AcDbEntity
  8
1
  6
Continuous
100
AcDbCircle
 10
131.9047159999997
 20
38.11204599999999
 30
0.0
 40
0.25
100
AcDbArc
 50
184.332316
 51
4.332314
  0
ARC
  5
9DB1
330
9B7D
100
AcDbEntity
  8
1
  6
Continuous
100
AcDbCircle
 10
130.541084
 20
38.11204599999999
 30
0.0
 40
0.25
100
AcDbArc
 50
184.332316
 51
4.332314
  0
ARC
  5
9DB2
330
9B7D
100
AcDbEntity
  8
1
  6
Continuous
100
AcDbCircle
 10
129.1774519999999
 20
38.11204599999999
 30
0.0
 40
0.25
100
AcDbArc
 50
184.332316
 51
4.332314
  0
ARC
  5
9DB3
330
9B7D
100
AcDbEntity
  8
1
  6
Continuous
100
AcDbCircle
 10
127.8138199999997
 20
38.11204599999999
 30
0.0
 40
0.25
100
AcDbArc
 50
184.332316
 51
355.667686
  0
ARC
  5
9DB4
330
9B7D
100
AcDbEntity
  8
1
  6
Continuous
100
AcDbCircle
 10
126.631996
 20
237.3120459999999
 30
0.0
 40
0.25
100
AcDbArc
 50
0.0
 51
180.000005
  0
ARC
  5
9DB5
330
9B7D
100
AcDbEntity
  8
1
  6
Continuous
100
AcDbCircle
 10
135.1319959999997
 20
237.3120459999999
 30
0.0
 40
0.25
100
AcDbArc
 50
0.0
 51
176.8201689999999
  0
ARC
  5
9DB6
330
9B7D
100
AcDbEntity
  8
1
  6
Continuous
100
AcDbCircle
 10
127.131996
 20
237.3120459999999
 30
0.0
 40
0.25
100
AcDbArc
 50
4.332314
 51
184.3323119999997
  0
ARC
  5
9DB7
330
9B7D
100
AcDbEntity
  8
1
  6
Continuous
100
AcDbCircle
 10
134.6319959999999
 20
228.3120459999999
 30
0.0
 40
0.25
100
AcDbArc
 50
184.332316
 51
0.0
  0
ARC
  5
9DB8
330
9B7D
100
AcDbEntity
  8
1
  6
Continuous
100
AcDbCircle
 10
135.1319959999997
 20
228.3120459999999
 30
0.0
 40
0.25
100
AcDbArc
 50
178.204034
 51
0.00001
  0
ARC
  5
9DB9
330
9B7D
100
AcDbEntity
  8
1
  6
Continuous
100
AcDbCircle
 10
130.541084
 20
228.3120459999999
 30
0.0
 40
0.25
100
AcDbArc
 50
184.332316
 51
4.332314
  0
ARC
  5
9DBA
330
9B7D
100
AcDbEntity
  8
1
  6
Continuous
100
AcDbCircle
 10
127.8138199999997
 20
228.3120459999999
 30
0.0
 40
0.25
100
AcDbArc
 50
184.332316
 51
4.332314
  0
ARC
  5
9DBB
330
9B7D
100
AcDbEntity
  8
1
  6
Continuous
100
AcDbCircle
 10
128.495628
 20
237.3120459999999
 30
0.0
 40
0.25
100
AcDbArc
 50
4.332314
 51
175.667684
  0
ARC
  5
9DBC
330
9B7D
100
AcDbEntity
  8
1
  6
Continuous
100
AcDbCircle
 10
129.859276
 20
237.3120459999999
 30
0.0
 40
0.25
100
AcDbArc
 50
4.332314
 51
175.667684
  0
ARC
  5
9DBD
330
9B7D
100
AcDbEntity
  8
1
  6
Continuous
100
AcDbCircle
 10
131.2229079999999
 20
237.3120459999999
 30
0.0
 40
0.25
100
AcDbArc
 50
4.332314
 51
175.667684
  0
ARC
  5
9DBE
330
9B7D
100
AcDbEntity
  8
1
  6
Continuous
100
AcDbCircle
 10
132.5865399999997
 20
237.3120459999999
 30
0.0
 40
0.25
100
AcDbArc
 50
4.332314
 51
175.667684
  0
ARC
  5
9DBF
330
9B7D
100
AcDbEntity
  8
1
  6
Continuous
100
AcDbCircle
 10
133.950172
 20
237.3120459999999
 30
0.0
 40
0.25
100
AcDbArc
 50
4.332314
 51
175.667684
  0
ARC
  5
9DC0
330
9B7D
100
AcDbEntity
  8
1
  6
Continuous
100
AcDbCircle
 10
345.213844
 20
133.2120459999997
 30
0.0
 40
0.25
100
AcDbArc
 50
184.332316
 51
355.667686
  0
ARC
  5
9DC1
330
9B7D
100
AcDbEntity
  8
1
  6
Continuous
100
AcDbCircle
 10
352.5320199999999
 20
142.2120459999999
 30
0.0
 40
0.25
100
AcDbArc
 50
0.0
 51
176.8201689999999
  0
ARC
  5
9DC2
330
9B7D
100
AcDbEntity
  8
1
  6
Continuous
100
AcDbCircle
 10
352.03202
 20
133.2120459999997
 30
0.0
 40
0.25
100
AcDbArc
 50
184.332316
 51
0.0
  0
ARC
  5
9DC3
330
9B7D
100
AcDbEntity
  8
1
  6
Continuous
100
AcDbCircle
 10
352.5320199999999
 20
133.2120459999997
 30
0.0
 40
0.25
100
AcDbArc
 50
178.204034
 51
0.00001
  0
ARC
  5
9DC4
330
9B7D
100
AcDbEntity
  8
1
  6
Continuous
100
AcDbCircle
 10
350.6683729999999
 20
133.2120459999997
 30
0.0
 40
0.25
100
AcDbArc
 50
184.332316
 51
4.332314
  0
ARC
  5
9DC5
330
9B7D
100
AcDbEntity
  8
1
  6
Continuous
100
AcDbCircle
 10
349.3047559999998
 20
133.2120459999997
 30
0.0
 40
0.25
100
AcDbArc
 50
184.332316
 51
4.332314
  0
ARC
  5
9DC6
330
9B7D
100
AcDbEntity
  8
1
  6
Continuous
100
AcDbCircle
 10
347.9411079999999
 20
133.2120459999997
 30
0.0
 40
0.25
100
AcDbArc
 50
184.332316
 51
4.332314
  0
ARC
  5
9DC7
330
9B7D
100
AcDbEntity
  8
1
  6
Continuous
100
AcDbCircle
 10
346.5774609999999
 20
133.2120459999997
 30
0.0
 40
0.25
100
AcDbArc
 50
184.332316
 51
4.332314
  0
ARC
  5
9DC8
330
9B7D
100
AcDbEntity
  8
1
  6
Continuous
100
AcDbCircle
 10
345.895668
 20
142.2120459999999
 30
0.0
 40
0.25
100
AcDbArc
 50
4.332314
 51
175.667684
  0
ARC
  5
9DC9
330
9B7D
100
AcDbEntity
  8
1
  6
Continuous
100
AcDbCircle
 10
347.2592849999998
 20
142.2120459999999
 30
0.0
 40
0.25
100
AcDbArc
 50
4.332314
 51
175.667684
  0
ARC
  5
9DCA
330
9B7D
100
AcDbEntity
  8
1
  6
Continuous
100
AcDbCircle
 10
348.622932
 20
142.2120459999999
 30
0.0
 40
0.25
100
AcDbArc
 50
4.332314
 51
175.667684
  0
ARC
  5
9DCB
330
9B7D
100
AcDbEntity
  8
1
  6
Continuous
100
AcDbCircle
 10
349.98658
 20
142.2120459999999
 30
0.0
 40
0.25
100
AcDbArc
 50
4.332314
 51
175.667684
  0
ARC
  5
9DCC
330
9B7D
100
AcDbEntity
  8
1
  6
Continuous
100
AcDbCircle
 10
351.350197
 20
142.2120459999999
 30
0.0
 40
0.25
100
AcDbArc
 50
4.332314
 51
175.667684
  0
ARC
  5
9DCD
330
9B7D
100
AcDbEntity
  8
1
  6
Continuous
100
AcDbCircle
 10
35.78200300000001
 20
153.2120459999999
 30
0.0
 40
1.5
100
AcDbArc
 50
342.4120529999999
 51
162.4120489999999
  0
ARC
  5
9DCE
330
9B7D
100
AcDbEntity
  8
1
  6
Continuous
100
AcDbCircle
 10
126.631996
 20
228.3120459999999
 30
0.0
 40
0.25
100
AcDbArc
 50
179.9999909999999
 51
0.00001
  0
ARC
  5
9DCF
330
9B7D
100
AcDbEntity
  8
1
  6
Continuous
100
AcDbCircle
 10
131.9047159999997
 20
228.3120459999999
 30
0.0
 40
0.25
100
AcDbArc
 50
184.332316
 51
4.332314
  0
ARC
  5
9DD0
330
9B7D
100
AcDbEntity
  8
1
  6
Continuous
100
AcDbCircle
 10
133.2683639999999
 20
228.3120459999999
 30
0.0
 40
0.25
100
AcDbArc
 50
184.332316
 51
4.332314
  0
ARC
  5
9DD1
330
9B7D
100
AcDbEntity
  8
1
  6
Continuous
100
AcDbCircle
 10
129.1774519999999
 20
228.3120459999999
 30
0.0
 40
0.25
100
AcDbArc
 50
184.332316
 51
4.332314
  0
ARC
  5
9DD2
330
9B7D
100
AcDbEntity
  8
1
  6
Continuous
100
AcDbCircle
 10
365.4009779999997
 20
151.7120459999999
 30
0.0
 40
3.0
100
AcDbArc
 50
194.47751
 51
269.9999969999999
  0
ARC
  5
9DD3
330
9B7D
100
AcDbEntity
  8
1
  6
Continuous
100
AcDbCircle
 10
353.78202
 20
148.7120459999998
 30
0.0
 40
6.0
100
AcDbArc
 50
297.9528879999999
 51
62.047112
  0
ARC
  5
9DD4
330
9B7D
100
AcDbEntity
  8
1
  6
Continuous
100
AcDbCircle
 10
353.78202
 20
148.7120459999998
 30
0.0
 40
6.0
100
AcDbArc
 50
117.952886
 51
242.047124
  0
ARC
  5
9DD5
330
9B7D
100
AcDbEntity
  8
1
  6
Continuous
100
AcDbCircle
 10
125.3819959999999
 20
148.7120459999998
 30
0.0
 40
6.0
100
AcDbArc
 50
297.9528879999999
 51
62.047112
  0
ARC
  5
9DD6
330
9B7D
100
AcDbEntity
  8
1
  6
Continuous
100
AcDbCircle
 10
125.3819959999999
 20
148.7120459999998
 30
0.0
 40
6.0
100
AcDbArc
 50
117.952886
 51
242.047124
  0
LINE
  5
9DD7
330
9B7D
100
AcDbEntity
  8
1
  6
Continuous
100
AcDbLine
 10
24.81908999999999
 20
151.44037
 30
0.0
 11
24.305387
 21
153.0609519999998
 31
0.0
  0
ARC
  5
9DD8
330
9B7D
100
AcDbEntity
  8
1
  6
Continuous
100
AcDbCircle
 10
24.782003
 20
153.2120459999999
 30
0.0
 40
0.5
100
AcDbArc
 50
17.587951
 51
197.5879469999999
  0
ARC
  5
9DD9
330
9B7D
100
AcDbEntity
  8
1
  6
Continuous
100
AcDbCircle
 10
25.29569799999999
 20
151.5915159999998
 30
0.0
 40
0.5
100
AcDbArc
 50
197.580476
 51
17.58809
  0
LINE
  5
9DDA
330
9B7D
100
AcDbEntity
  8
1
  6
Continuous
100
AcDbLine
 10
25.77232399999999
 20
151.742602
 30
0.0
 11
25.25863599999999
 21
153.363121
 31
0.0
  0
ARC
  5
9DDB
330
9B7D
100
AcDbEntity
  8
1
  6
Continuous
100
AcDbCircle
 10
234.695702
 20
151.5915159999998
 30
0.0
 40
0.5
100
AcDbArc
 50
197.580476
 51
17.58809
  0
LINE
  5
9DDC
330
9B7D
100
AcDbEntity
  8
1
  6
Continuous
100
AcDbLine
 10
234.2190949999999
 20
151.44037
 30
0.0
 11
233.7053919999999
 21
153.0609519999998
 31
0.0
  0
LINE
  5
9DDD
330
9B7D
100
AcDbEntity
  8
1
  6
Continuous
100
AcDbLine
 10
235.1723289999999
 20
151.742602
 30
0.0
 11
234.65864
 21
153.363121
 31
0.0
  0
ARC
  5
9DDE
330
9B7D
100
AcDbEntity
  8
1
  6
Continuous
100
AcDbCircle
 10
234.182008
 20
153.2120459999999
 30
0.0
 40
0.5
100
AcDbArc
 50
17.587951
 51
197.5879469999999
  0
ARC
  5
9DDF
330
9B7D
100
AcDbEntity
  8
1
  6
Continuous
100
AcDbCircle
 10
244.668314
 20
151.5915159999998
 30
0.0
 40
0.5
100
AcDbArc
 50
162.41191
 51
342.419524
  0
LINE
  5
9DE0
330
9B7D
100
AcDbEntity
  8
1
  6
Continuous
100
AcDbLine
 10
244.191687
 20
151.742602
 30
0.0
 11
244.7053759999997
 21
153.363121
 31
0.0
  0
LINE
  5
9DE1
330
9B7D
100
AcDbEntity
  8
1
  6
Continuous
100
AcDbLine
 10
245.144922
 20
151.44037
 30
0.0
 11
245.658624
 21
153.0609519999998
 31
0.0
  0
ARC
  5
9DE2
330
9B7D
100
AcDbEntity
  8
1
  6
Continuous
100
AcDbCircle
 10
245.182008
 20
153.2120459999999
 30
0.0
 40
0.5
100
AcDbArc
 50
342.4120529999999
 51
162.4120489999999
  0
LINE
  5
9DE3
330
9B7D
100
AcDbEntity
  8
1
  6
Continuous
100
AcDbLine
 10
34.79168299999999
 20
151.742602
 30
0.0
 11
35.305371
 21
153.363121
 31
0.0
  0
ARC
  5
9DE4
330
9B7D
100
AcDbEntity
  8
1
  6
Continuous
100
AcDbCircle
 10
35.268309
 20
151.5915159999998
 30
0.0
 40
0.5
100
AcDbArc
 50
162.41191
 51
342.419524
  0
ARC
  5
9DE5
330
9B7D
100
AcDbEntity
  8
1
  6
Continuous
100
AcDbCircle
 10
35.78200300000001
 20
153.2120459999999
 30
0.0
 40
0.5
100
AcDbArc
 50
342.4120529999999
 51
162.4120489999999
  0
LINE
  5
9DE6
330
9B7D
100
AcDbEntity
  8
1
  6
Continuous
100
AcDbLine
 10
35.74491699999999
 20
151.44037
 30
0.0
 11
36.25862
 21
153.0609519999998
 31
0.0
  0
LINE
  5
9DE7
330
9B7D
100
AcDbEntity
  8
4
  6
CENTER
100
AcDbLine
 10
220.302735
 20
148.7120459999998
 30
0.0
 11
232.786544
 21
148.7120459999998
 31
0.0
  0
LINE
  5
9DE8
330
9B7D
100
AcDbEntity
  8
4
  6
CENTER
100
AcDbLine
 10
37.84307899999999
 20
148.7120459999998
 30
0.0
 11
49.577188
 21
148.7120459999998
 31
0.0
  0
ARC
  5
9DE9
330
9B7D
100
AcDbEntity
  8
1
  6
Continuous
100
AcDbCircle
 10
112.982003
 20
220.312046
 30
0.0
 40
2.6
100
AcDbArc
 50
180.0
 51
270.0
  0
LINE
  5
9DEA
330
9B7D
100
AcDbEntity
  8
1
  6
Continuous
100
AcDbLine
 10
17.882003
 20
145.7120459999998
 30
0.0
 11
17.882003
 21
129.7120459999999
 31
0.0
  0
ARC
  5
9DEB
330
9B7D
100
AcDbEntity
  8
1
  6
Continuous
100
AcDbCircle
 10
112.9820029999999
 20
55.11204599999999
 30
0.0
 40
2.6
100
AcDbArc
 50
90.0
 51
180.0
  0
ENDSEC
  0
SECTION
  2
OBJECTS
  0
DICTIONARY
  5
9B6B
330
0
100
AcDbDictionary
281
     1
  3
ACAD_CIP_PREVIOUS_PRODUCT_INFO
350
9E4F
  3
ACAD_COLOR
350
9E31
  3
ACAD_DETAILVIEWSTYLE
350
9E4A
  3
ACAD_GROUP
350
9B6C
  3
ACAD_LAYOUT
350
9B78
  3
ACAD_MATERIAL
350
9DFF
  3
ACAD_MLEADERSTYLE
350
9E46
  3
ACAD_MLINESTYLE
350
9B75
  3
ACAD_PLOTSETTINGS
350
9B77
  3
ACAD_PLOTSTYLENAME
350
9DFD
  3
ACAD_SCALELIST
350
9E34
  3
ACAD_SECTIONVIEWSTYLE
350
9E48
  3
ACAD_TABLESTYLE
350
9E32
  3
ACAD_VISUALSTYLE
350
9E18
  3
ACDB_RECOMPOSE_DATA
350
9E6D
  3
AcDbVariableDictionary
350
9E60
  3
DWGPROPS
350
9E6E
  0
DICTIONARY
  5
9E50
330
9B6F
100
AcDbDictionary
280
     1
281
     1
  3
ADSK_XREC_LAYER_RECONCILED
360
9E51
  0
DICTIONARY
  5
9E52
330
9B85
100
AcDbDictionary
280
     1
281
     1
  3
ADSK_XREC_LAYER_RECONCILED
360
9E53
  0
DICTIONARY
  5
9E54
330
9B86
100
AcDbDictionary
280
     1
281
     1
  3
ADSK_XREC_LAYER_RECONCILED
360
9E55
  0
DICTIONARY
  5
9E56
330
9B87
100
AcDbDictionary
280
     1
281
     1
  3
ADSK_XREC_LAYER_RECONCILED
360
9E57
  0
DICTIONARY
  5
9E58
330
9B88
100
AcDbDictionary
280
     1
281
     1
  3
ADSK_XREC_LAYER_RECONCILED
360
9E59
  0
DICTIONARY
  5
9E5A
330
9B89
100
AcDbDictionary
280
     1
281
     1
  3
ADSK_XREC_LAYER_RECONCILED
360
9E5B
  0
DICTIONARY
  5
9E5C
330
9B8A
100
AcDbDictionary
280
     1
281
     1
  3
ADSK_XREC_LAYER_RECONCILED
360
9E5D
  0
DICTIONARY
  5
9E5E
330
9B8B
100
AcDbDictionary
280
     1
281
     1
  3
ADSK_XREC_LAYER_RECONCILED
360
9E5F
  0
DICTIONARY
  5
9DF8
330
9B7D
100
AcDbDictionary
281
     1
  3
ACAD_LAYOUTSELFREF
350
9DF9
  0
DICTIONARY
  5
9DF6
330
9B79
100
AcDbDictionary
281
     1
  3
ACAD_LAYOUTSELFREF
350
9DF7
  0
XRECORD
  5
9E4F
102
{ACAD_REACTORS
330
9B6B
102
}
330
9B6B
100
AcDbXrecord
280
     1
300
ACDLT
300
2014
300
ACDLT_F_S
  0
DICTIONARY
  5
9E31
102
{ACAD_REACTORS
330
9B6B
102
}
330
9B6B
100
AcDbDictionary
281
     1
  0
DICTIONARY
  5
9E4A
102
{ACAD_REACTORS
330
9B6B
102
}
330
9B6B
100
AcDbDictionary
281
     1
  3
Imperial24
350
9E4B
  0
DICTIONARY
  5
9B6C
102
{ACAD_REACTORS
330
9B6B
102
}
330
9B6B
100
AcDbDictionary
281
     1
  0
DICTIONARY
  5
9B78
102
{ACAD_REACTORS
330
9B6B
102
}
330
9B6B
100
AcDbDictionary
281
     1
  3
Model
350
9E4C
  3
レイアウト1
350
9E4D
  0
DICTIONARY
  5
9DFF
102
{ACAD_REACTORS
330
9B6B
102
}
330
9B6B
100
AcDbDictionary
281
     1
  3
ByBlock
350
9E08
  3
ByLayer
350
9E00
  3
Global
350
9E10
  0
DICTIONARY
  5
9E46
102
{ACAD_REACTORS
330
9B6B
102
}
330
9B6B
100
AcDbDictionary
281
     1
  3
Standard
350
9E47
  0
DICTIONARY
  5
9B75
102
{ACAD_REACTORS
330
9B6B
102
}
330
9B6B
100
AcDbDictionary
281
     1
  3
STANDARD
350
9B76
  0
DICTIONARY
  5
9B77
102
{ACAD_REACTORS
330
9B6B
102
}
330
9B6B
100
AcDbDictionary
281
     1
  0
ACDBDICTIONARYWDFLT
  5
9DFD
102
{ACAD_REACTORS
330
9B6B
102
}
330
9B6B
100
AcDbDictionary
281
     1
  3
Normal
350
9DFE
100
AcDbDictionaryWithDefault
340
9DFE
  0
DICTIONARY
  5
9E34
102
{ACAD_REACTORS
330
9B6B
102
}
330
9B6B
100
AcDbDictionary
281
     1
  3
A0
350
9E35
  3
A1
350
9E36
  3
A2
350
9E37
  3
A3
350
9E38
  3
A4
350
9E39
  3
A5
350
9E3A
  3
A6
350
9E3B
  3
A7
350
9E3C
  3
A8
350
9E3D
  3
A9
350
9E3E
  3
B0
350
9E3F
  3
B1
350
9E40
  3
B2
350
9E41
  3
B3
350
9E42
  3
B4
350
9E43
  3
B5
350
9E44
  3
B6
350
9E45
  0
DICTIONARY
  5
9E48
102
{ACAD_REACTORS
330
9B6B
102
}
330
9B6B
100
AcDbDictionary
281
     1
  3
Imperial24
350
9E49
  0
DICTIONARY
  5
9E32
102
{ACAD_REACTORS
330
9B6B
102
}
330
9B6B
100
AcDbDictionary
281
     1
  3
Standard
350
9E33
  0
DICTIONARY
  5
9E18
102
{ACAD_REACTORS
330
9B6B
102
}
330
9B6B
100
AcDbDictionary
281
     1
  3
2dWireframe
350
9E1E
  3
Basic
350
9E1D
  3
Brighten
350
9E24
  3
ColorChange
350
9E28
  3
Conceptual
350
9E21
  3
Dim
350
9E23
  3
EdgeColorOff
350
9E30
  3
Facepattern
350
9E27
  3
Flat
350
9E19
  3
FlatWithEdges
350
9E1A
  3
Gouraud
350
9E1B
  3
GouraudWithEdges
350
9E1C
  3
Hidden
350
9E20
  3
JitterOff
350
9E2E
  3
Linepattern
350
9E26
  3
OverhangOff
350
9E2F
  3
Realistic
350
9E22
  3
Shaded
350
9E2D
  3
Shaded with edges
350
9E2C
  3
Shades of Gray
350
9E29
  3
Sketchy
350
9E2A
  3
Thicken
350
9E25
  3
Wireframe
350
9E1F
  3
X-Ray
350
9E2B
  0
XRECORD
  5
9E6D
102
{ACAD_REACTORS
330
9B6B
102
}
330
9B6B
100
AcDbXrecord
280
     1
 90
        1
330
9E33
  0
DICTIONARY
  5
9E60
102
{ACAD_REACTORS
330
9B6B
102
}
330
9B6B
100
AcDbDictionary
281
     1
  3
CANNOSCALE
350
9E65
  3
CMLEADERSTYLE
350
9E62
  3
CTABLESTYLE
350
9E61
  3
CVIEWDETAILSTYLE
350
9E63
  3
CVIEWSECTIONSTYLE
350
9E64
  3
DIMASSOC
350
9E68
  3
INDEXCTL
350
9E67
  3
SORTENTS
350
9E66
  3
XCLIPFRAME
350
9E69
  0
XRECORD
  5
9E6E
102
{ACAD_REACTORS
330
9B6B
102
}
330
9B6B
100
AcDbXrecord
280
     1
  1
DWGPROPS COOKIE
  2

  3

  4

  6

  7

  8
Yoshitsune
  9

300
=
301
=
302
=
303
=
304
=
305
=
306
=
307
=
308
=
309
=
 40
0.0144120717592593
 41
2451074.431656482
 42
2457192.600792234
  1

 90
        0
  0
XRECORD
  5
9E51
102
{ACAD_REACTORS
330
9E50
102
}
330
9E50
100
AcDbXrecord
280
     1
290
     1
  0
XRECORD
  5
9E53
102
{ACAD_REACTORS
330
9E52
102
}
330
9E52
100
AcDbXrecord
280
     1
290
     1
  0
XRECORD
  5
9E55
102
{ACAD_REACTORS
330
9E54
102
}
330
9E54
100
AcDbXrecord
280
     1
290
     1
  0
XRECORD
  5
9E57
102
{ACAD_REACTORS
330
9E56
102
}
330
9E56
100
AcDbXrecord
280
     1
290
     1
  0
XRECORD
  5
9E59
102
{ACAD_REACTORS
330
9E58
102
}
330
9E58
100
AcDbXrecord
280
     1
290
     1
  0
XRECORD
  5
9E5B
102
{ACAD_REACTORS
330
9E5A
102
}
330
9E5A
100
AcDbXrecord
280
     1
290
     1
  0
XRECORD
  5
9E5D
102
{ACAD_REACTORS
330
9E5C
102
}
330
9E5C
100
AcDbXrecord
280
     1
290
     1
  0
XRECORD
  5
9E5F
102
{ACAD_REACTORS
330
9E5E
102
}
330
9E5E
100
AcDbXrecord
280
     1
290
     1
  0
XRECORD
  5
9DF9
102
{ACAD_REACTORS
330
9DF8
102
}
330
9DF8
100
AcDbXrecord
280
     1
340
9B7D
  0
XRECORD
  5
9DF7
102
{ACAD_REACTORS
330
9DF6
102
}
330
9DF6
100
AcDbXrecord
280
     1
340
9B79
  0
ACDBDETAILVIEWSTYLE
  5
9E4B
102
{ACAD_XDICTIONARY
360
9EA6
102
}
102
{ACAD_REACTORS
330
9E4A
102
}
330
9E4A
100
AcDbModelDocViewStyle
 70
     0
  3
Imperial24
290
     0
100
AcDbDetailViewStyle
 70
     0
 71
     0
 90
        3
 71
     1
340
9B70
 40
0.24
340
0
 40
0.24
300

 40
0.36
280
     3
 71
     2
340
9B74
 90
       25
 71
     3
340
9B70
 40
0.24
 90
        1
 40
0.75
 90
        1
300
%<\AcVar ViewType \f "%tc1">% %<\AcVar ViewDetailId>%\PSCALE %<\AcVar ViewScale \f "%sn">%
 71
     4
340
9B74
 90
       25
340
9B74
 90
       25
280
     0
  0
LAYOUT
  5
9E4C
102
{ACAD_XDICTIONARY
360
9EA8
102
}
102
{ACAD_REACTORS
330
9B78
102
}
330
9B78
100
AcDbPlotSettings
  1

  2
Canon LBP9100C
  4

  6

 40
0.0
 41
0.0
 42
0.0
 43
0.0
 44
0.0
 45
0.0
 46
0.0
 47
0.0
 48
0.0
 49
0.0
140
0.0
141
0.0
142
1.0
143
1.0
 70
  1712
 72
     0
 73
     0
 74
     0
  7

 75
     0
147
1.0
148
0.0
149
0.0
100
AcDbLayout
  1
Model
 70
     1
 71
     0
 10
0.0
 20
0.0
 11
12.0
 21
9.0
 12
0.0
 22
0.0
 32
0.0
 14
0.0
 24
0.0
 34
0.0
 15
0.0
 25
0.0
 35
0.0
146
0.0
 13
0.0
 23
0.0
 33
0.0
 16
1.0
 26
0.0
 36
0.0
 17
0.0
 27
1.0
 37
0.0
 76
     0
330
9B7D
331
9DF5
  0
LAYOUT
  5
9E4D
102
{ACAD_XDICTIONARY
360
9EAA
102
}
102
{ACAD_REACTORS
330
9B78
102
}
330
9B78
100
AcDbPlotSettings
  1

  2
Canon LBP9100C
  4

  6

 40
0.0
 41
0.0
 42
0.0
 43
0.0
 44
0.0
 45
0.0
 46
0.0
 47
0.0
 48
0.0
 49
0.0
140
0.0
141
0.0
142
1.0
143
1.0
 70
   688
 72
     0
 73
     0
 74
     5
  7

 75
    16
147
1.0
148
0.0
149
0.0
100
AcDbLayout
  1
レイアウト1
 70
     0
 71
     1
 10
0.0
 20
0.0
 11
420.0
 21
297.0
 12
0.0
 22
0.0
 32
0.0
 14
1.000000000000000E+20
 24
1.000000000000000E+20
 34
1.000000000000000E+20
 15
-1.000000000000000E+20
 25
-1.000000000000000E+20
 35
-1.000000000000000E+20
146
0.0
 13
0.0
 23
0.0
 33
0.0
 16
1.0
 26
0.0
 36
0.0
 17
0.0
 27
1.0
 37
0.0
 76
     0
330
9B79
  0
MATERIAL
  5
9E08
102
{ACAD_XDICTIONARY
360
9E09
102
}
102
{ACAD_REACTORS
330
9DFF
102
}
330
9DFF
100
AcDbMaterial
  1
ByBlock
 72
     0
 43
0.0208333333333333
 43
0.0
 43
0.0
 43
0.0
 43
0.0
 43
0.0208333333333333
 43
0.0
 43
0.0
 43
0.0
 43
0.0
 43
1.0
 43
0.0
 43
0.0
 43
0.0
 43
0.0
 43
1.0
 77
     0
 47
0.0208333333333333
 47
0.0
 47
0.0
 47
0.0
 47
0.0
 47
0.0208333333333333
 47
0.0
 47
0.0
 47
0.0
 47
0.0
 47
1.0
 47
0.0
 47
0.0
 47
0.0
 47
0.0
 47
1.0
171
     0
 49
0.0208333333333333
 49
0.0
 49
0.0
 49
0.0
 49
0.0
 49
0.0208333333333333
 49
0.0
 49
0.0
 49
0.0
 49
0.0
 49
1.0
 49
0.0
 49
0.0
 49
0.0
 49
0.0
 49
1.0
175
     0
142
0.0208333333333333
142
0.0
142
0.0
142
0.0
142
0.0
142
0.0208333333333333
142
0.0
142
0.0
142
0.0
142
0.0
142
1.0
142
0.0
142
0.0
142
0.0
142
0.0
142
1.0
179
     0
144
0.0208333333333333
144
0.0
144
0.0
144
0.0
144
0.0
144
0.0208333333333333
144
0.0
144
0.0
144
0.0
144
0.0
144
1.0
144
0.0
144
0.0
144
0.0
144
0.0
144
1.0
147
0.0208333333333333
147
0.0
147
0.0
147
0.0
147
0.0
147
0.0208333333333333
147
0.0
147
0.0
147
0.0
147
0.0
147
1.0
147
0.0
147
0.0
147
0.0
147
0.0
147
1.0
  0
MATERIAL
  5
9E00
102
{ACAD_XDICTIONARY
360
9E01
102
}
102
{ACAD_REACTORS
330
9DFF
102
}
330
9DFF
100
AcDbMaterial
  1
ByLayer
 72
     0
 43
0.0208333333333333
 43
0.0
 43
0.0
 43
0.0
 43
0.0
 43
0.0208333333333333
 43
0.0
 43
0.0
 43
0.0
 43
0.0
 43
1.0
 43
0.0
 43
0.0
 43
0.0
 43
0.0
 43
1.0
 77
     0
 47
0.0208333333333333
 47
0.0
 47
0.0
 47
0.0
 47
0.0
 47
0.0208333333333333
 47
0.0
 47
0.0
 47
0.0
 47
0.0
 47
1.0
 47
0.0
 47
0.0
 47
0.0
 47
0.0
 47
1.0
171
     0
 49
0.0208333333333333
 49
0.0
 49
0.0
 49
0.0
 49
0.0
 49
0.0208333333333333
 49
0.0
 49
0.0
 49
0.0
 49
0.0
 49
1.0
 49
0.0
 49
0.0
 49
0.0
 49
0.0
 49
1.0
175
     0
142
0.0208333333333333
142
0.0
142
0.0
142
0.0
142
0.0
142
0.0208333333333333
142
0.0
142
0.0
142
0.0
142
0.0
142
1.0
142
0.0
142
0.0
142
0.0
142
0.0
142
1.0
179
     0
144
0.0208333333333333
144
0.0
144
0.0
144
0.0
144
0.0
144
0.0208333333333333
144
0.0
144
0.0
144
0.0
144
0.0
144
1.0
144
0.0
144
0.0
144
0.0
144
0.0
144
1.0
147
0.0208333333333333
147
0.0
147
0.0
147
0.0
147
0.0
147
0.0208333333333333
147
0.0
147
0.0
147
0.0
147
0.0
147
1.0
147
0.0
147
0.0
147
0.0
147
0.0
147
1.0
  0
MATERIAL
  5
9E10
102
{ACAD_XDICTIONARY
360
9E11
102
}
102
{ACAD_REACTORS
330
9DFF
102
}
330
9DFF
100
AcDbMaterial
  1
Global
 72
     0
 43
0.0208333333333333
 43
0.0
 43
0.0
 43
0.0
 43
0.0
 43
0.0208333333333333
 43
0.0
 43
0.0
 43
0.0
 43
0.0
 43
1.0
 43
0.0
 43
0.0
 43
0.0
 43
0.0
 43
1.0
 77
     0
 47
0.0208333333333333
 47
0.0
 47
0.0
 47
0.0
 47
0.0
 47
0.0208333333333333
 47
0.0
 47
0.0
 47
0.0
 47
0.0
 47
1.0
 47
0.0
 47
0.0
 47
0.0
 47
0.0
 47
1.0
171
     0
 49
0.0208333333333333
 49
0.0
 49
0.0
 49
0.0
 49
0.0
 49
0.0208333333333333
 49
0.0
 49
0.0
 49
0.0
 49
0.0
 49
1.0
 49
0.0
 49
0.0
 49
0.0
 49
0.0
 49
1.0
175
     0
142
0.0208333333333333
142
0.0
142
0.0
142
0.0
142
0.0
142
0.0208333333333333
142
0.0
142
0.0
142
0.0
142
0.0
142
1.0
142
0.0
142
0.0
142
0.0
142
0.0
142
1.0
179
     0
144
0.0208333333333333
144
0.0
144
0.0
144
0.0
144
0.0
144
0.0208333333333333
144
0.0
144
0.0
144
0.0
144
0.0
144
1.0
144
0.0
144
0.0
144
0.0
144
0.0
144
1.0
147
0.0208333333333333
147
0.0
147
0.0
147
0.0
147
0.0
147
0.0208333333333333
147
0.0
147
0.0
147
0.0
147
0.0
147
1.0
147
0.0
147
0.0
147
0.0
147
0.0
147
1.0
  0
MLEADERSTYLE
  5
9E47
102
{ACAD_REACTORS
330
9E46
102
}
330
9E46
100
AcDbMLeaderStyle
170
     2
171
     1
172
     0
 90
        2
 40
0.0
 41
0.0
173
     1
 91
-1056964608
340
9B72
 92
       -2
290
     1
 42
0.09
291
     1
 43
0.36
  3
Standard
 44
0.18
300

342
9B70
174
     1
178
     6
175
     1
176
     0
 93
-1056964608
 45
0.18
292
     0
297
     0
 46
0.18
 94
-1056964608
 47
1.0
 49
1.0
140
1.0
293
     1
141
0.0
294
     1
177
     0
142
1.0
295
     0
296
     0
143
0.125
1001
ACAD_MLEADERVER
1070
     2
  0
MLINESTYLE
  5
9B76
102
{ACAD_REACTORS
330
9B75
102
}
330
9B75
100
AcDbMlineStyle
  2
STANDARD
 70
     0
  3

 62
   256
 51
90.0
 52
90.0
 71
     2
 49
0.5
 62
   256
  6
BYLAYER
 49
-0.5
 62
   256
  6
BYLAYER
  0
ACDBPLACEHOLDER
  5
9DFE
102
{ACAD_REACTORS
330
9DFD
102
}
330
9DFD
  0
SCALE
  5
9E35
102
{ACAD_REACTORS
330
9E34
102
}
330
9E34
100
AcDbScale
 70
     0
300
1:1
140
1.0
141
1.0
290
     1
  0
SCALE
  5
9E36
102
{ACAD_REACTORS
330
9E34
102
}
330
9E34
100
AcDbScale
 70
     0
300
1/128" = 1'-0"
140
0.0078125
141
12.0
290
     0
  0
SCALE
  5
9E37
102
{ACAD_REACTORS
330
9E34
102
}
330
9E34
100
AcDbScale
 70
     0
300
1/64" = 1'-0"
140
0.015625
141
12.0
290
     0
  0
SCALE
  5
9E38
102
{ACAD_REACTORS
330
9E34
102
}
330
9E34
100
AcDbScale
 70
     0
300
1/32" = 1'-0"
140
0.03125
141
12.0
290
     0
  0
SCALE
  5
9E39
102
{ACAD_REACTORS
330
9E34
102
}
330
9E34
100
AcDbScale
 70
     0
300
1/16" = 1'-0"
140
0.0625
141
12.0
290
     0
  0
SCALE
  5
9E3A
102
{ACAD_REACTORS
330
9E34
102
}
330
9E34
100
AcDbScale
 70
     0
300
3/32" = 1'-0"
140
0.09375
141
12.0
290
     0
  0
SCALE
  5
9E3B
102
{ACAD_REACTORS
330
9E34
102
}
330
9E34
100
AcDbScale
 70
     0
300
1/8" = 1'-0"
140
0.125
141
12.0
290
     0
  0
SCALE
  5
9E3C
102
{ACAD_REACTORS
330
9E34
102
}
330
9E34
100
AcDbScale
 70
     0
300
3/16" = 1'-0"
140
0.1875
141
12.0
290
     0
  0
SCALE
  5
9E3D
102
{ACAD_REACTORS
330
9E34
102
}
330
9E34
100
AcDbScale
 70
     0
300
1/4" = 1'-0"
140
0.25
141
12.0
290
     0
  0
SCALE
  5
9E3E
102
{ACAD_REACTORS
330
9E34
102
}
330
9E34
100
AcDbScale
 70
     0
300
3/8" = 1'-0"
140
0.375
141
12.0
290
     0
  0
SCALE
  5
9E3F
102
{ACAD_REACTORS
330
9E34
102
}
330
9E34
100
AcDbScale
 70
     0
300
1/2" = 1'-0"
140
0.5
141
12.0
290
     0
  0
SCALE
  5
9E40
102
{ACAD_REACTORS
330
9E34
102
}
330
9E34
100
AcDbScale
 70
     0
300
3/4" = 1'-0"
140
0.75
141
12.0
290
     0
  0
SCALE
  5
9E41
102
{ACAD_REACTORS
330
9E34
102
}
330
9E34
100
AcDbScale
 70
     0
300
1" = 1'-0"
140
1.0
141
12.0
290
     0
  0
SCALE
  5
9E42
102
{ACAD_REACTORS
330
9E34
102
}
330
9E34
100
AcDbScale
 70
     0
300
1-1/2" = 1'-0"
140
1.5
141
12.0
290
     0
  0
SCALE
  5
9E43
102
{ACAD_REACTORS
330
9E34
102
}
330
9E34
100
AcDbScale
 70
     0
300
3" = 1'-0"
140
3.0
141
12.0
290
     0
  0
SCALE
  5
9E44
102
{ACAD_REACTORS
330
9E34
102
}
330
9E34
100
AcDbScale
 70
     0
300
6" = 1'-0"
140
6.0
141
12.0
290
     0
  0
SCALE
  5
9E45
102
{ACAD_REACTORS
330
9E34
102
}
330
9E34
100
AcDbScale
 70
     0
300
1'-0" = 1'-0"
140
12.0
141
12.0
290
     0
  0
ACDBSECTIONVIEWSTYLE
  5
9E49
102
{ACAD_XDICTIONARY
360
9EA4
102
}
102
{ACAD_REACTORS
330
9E48
102
}
330
9E48
100
AcDbModelDocViewStyle
 70
     0
  3
Imperial24
290
     0
100
AcDbSectionViewStyle
 70
     0
 71
     0
 90
       78
 71
     1
340
9B70
 40
0.24
340
0
340
0
 40
0.24
300
I, O, Q, S, X, Z
 40
0.48
 90
        3
 40
0.18
 90
        1
 71
     2
340
9B74
 90
       25
340
9B74
 90
       50
 40
0.24
 40
0.0
 40
0.24
 71
     3
340
9B70
 40
0.24
 90
        1
 40
0.75
 90
        1
300
%<\AcVar ViewType \f "%tc1">% %<\AcVar ViewSectionStartId>%-%<\AcVar ViewSectionEndId>%\PSCALE %<\AcVar ViewScale \f "%sn">%
 71
     4
300
ANSI31
 40
1.0
 90
        0
290
     0
290
     0
 90
        6
 40
0.0
 40
1.570796326794896
 40
0.2617993877991494
 40
1.308996938995747
 40
-0.2617993877991494
 40
1.832595714594046
  0
TABLESTYLE
  5
9E33
102
{ACAD_XDICTIONARY
360
9E6B
102
}
102
{ACAD_REACTORS
330
9E32
102
}
330
9E32
100
AcDbTableStyle
  3
Standard
 70
     0
 71
     0
 40
0.06
 41
0.06
280
     0
281
     0
  7
STANDARD
140
0.18
170
     2
 62
     0
 63
     7
283
     0
274
    -2
284
     1
 64
     0
275
    -2
285
     1
 65
     0
276
    -2
286
     1
 66
     0
277
    -2
287
     1
 67
     0
278
    -2
288
     1
 68
     0
279
    -2
289
     1
 69
     0
  7
STANDARD
140
0.25
170
     5
 62
     0
 63
     7
283
     0
274
    -2
284
     1
 64
     0
275
    -2
285
     1
 65
     0
276
    -2
286
     1
 66
     0
277
    -2
287
     1
 67
     0
278
    -2
288
     1
 68
     0
279
    -2
289
     1
 69
     0
  7
STANDARD
140
0.18
170
     5
 62
     0
 63
     7
283
     0
274
    -2
284
     1
 64
     0
275
    -2
285
     1
 65
     0
276
    -2
286
     1
 66
     0
277
    -2
287
     1
 67
     0
278
    -2
288
     1
 68
     0
279
    -2
289
     1
 69
     0
  0
VISUALSTYLE
  5
9E1E
102
{ACAD_XDICTIONARY
360
9E7C
102
}
102
{ACAD_REACTORS
330
9E18
102
}
330
9E18
100
AcDbVisualStyle
  2
2dWireframe
 70
     4
 71
     0
 72
     2
 73
     0
 90
        0
 40
-0.6
 41
-30.0
 62
     5
 63
     7
 74
     1
 91
        4
 64
     7
 65
   257
 75
     1
175
     1
 42
1.0
 92
        0
 66
   257
 43
1.0
 76
     1
 77
     6
 78
     2
 67
     7
 79
     5
170
     0
171
     0
290
     0
174
     0
 93
        1
 44
0.0
173
     0
291
     0
 45
0.0
1001
ACAD
1000
AcDbSavedByObjectVersion
1070
     0
  0
VISUALSTYLE
  5
9E1D
102
{ACAD_XDICTIONARY
360
9E7A
102
}
102
{ACAD_REACTORS
330
9E18
102
}
330
9E18
100
AcDbVisualStyle
  2
Basic
 70
     7
 71
     1
 72
     0
 73
     1
 90
        0
 40
-0.6
 41
-30.0
 62
     5
 63
     7
 74
     0
 91
        4
 64
     7
 65
   257
 75
     1
175
     1
 42
1.0
 92
        8
 66
     7
 43
1.0
 76
     1
 77
     6
 78
     2
 67
     7
 79
     5
170
     0
171
     0
290
     0
174
     0
 93
        1
 44
0.0
173
     0
291
     1
 45
0.0
1001
ACAD
1000
AcDbSavedByObjectVersion
1070
     0
  0
VISUALSTYLE
  5
9E24
102
{ACAD_XDICTIONARY
360
9E88
102
}
102
{ACAD_REACTORS
330
9E18
102
}
330
9E18
100
AcDbVisualStyle
  2
Brighten
 70
    12
 71
     2
 72
     2
 73
     0
 90
        0
 40
-0.6
 41
-30.0
 62
     5
 63
     7
 74
     1
 91
        4
 64
     7
 65
   257
 75
     1
175
     1
 42
1.0
 92
        8
 66
     7
 43
1.0
 76
     1
 77
     6
 78
     2
 67
     7
 79
     5
170
     0
171
     0
290
     0
174
     0
 93
        1
 44
50.0
173
     0
291
     1
 45
0.0
1001
ACAD
1000
AcDbSavedByObjectVersion
1070
     0
  0
VISUALSTYLE
  5
9E28
102
{ACAD_XDICTIONARY
360
9E90
102
}
102
{ACAD_REACTORS
330
9E18
102
}
330
9E18
100
AcDbVisualStyle
  2
ColorChange
 70
    16
 71
     2
 72
     2
 73
     3
 90
        0
 40
-0.6
 41
-30.0
 62
     5
 63
     8
 74
     1
 91
        4
 64
     7
 65
   257
 75
     1
175
     1
 42
1.0
 92
        8
 66
     8
 43
1.0
 76
     1
 77
     6
 78
     2
 67
     7
 79
     5
170
     0
171
     0
290
     0
174
     0
 93
        1
 44
0.0
173
     0
291
     1
 45
0.0
1001
ACAD
1000
AcDbSavedByObjectVersion
1070
     0
  0
VISUALSTYLE
  5
9E21
102
{ACAD_XDICTIONARY
360
9E82
102
}
102
{ACAD_REACTORS
330
9E18
102
}
330
9E18
100
AcDbVisualStyle
  2
Conceptual
 70
     9
 71
     3
 72
     2
 73
     0
 90
        0
 40
-0.6
 41
-30.0
 62
     5
 63
     7
 74
     2
 91
        2
 64
     7
 65
   257
 75
     1
175
     1
 42
179.0
 92
        8
 66
     7
 43
1.0
 76
     1
 77
     6
 78
     2
 67
     7
 79
     3
170
     0
171
     0
290
     0
174
     0
 93
        1
 44
0.0
173
     0
291
     0
 45
0.0
1001
ACAD
1000
AcDbSavedByObjectVersion
1070
     0
  0
VISUALSTYLE
  5
9E23
102
{ACAD_XDICTIONARY
360
9E86
102
}
102
{ACAD_REACTORS
330
9E18
102
}
330
9E18
100
AcDbVisualStyle
  2
Dim
 70
    11
 71
     2
 72
     2
 73
     0
 90
        0
 40
-0.6
 41
-30.0
 62
     5
 63
     7
 74
     1
 91
        4
 64
     7
 65
   257
 75
     1
175
     1
 42
1.0
 92
        8
 66
     7
 43
1.0
 76
     1
 77
     6
 78
     2
 67
     7
 79
     5
170
     0
171
     0
290
     0
174
     0
 93
        1
 44
-50.0
173
     0
291
     1
 45
0.0
1001
ACAD
1000
AcDbSavedByObjectVersion
1070
     0
  0
VISUALSTYLE
  5
9E30
102
{ACAD_XDICTIONARY
360
9EA0
102
}
102
{ACAD_REACTORS
330
9E18
102
}
330
9E18
100
AcDbVisualStyle
  2
EdgeColorOff
 70
    22
 71
     2
 72
     2
 73
     0
 90
        0
 40
-0.6
 41
-30.0
 62
     5
 63
     7
 74
     1
 91
        4
 64
     7
 65
   257
 75
     1
175
     1
 42
1.0
 92
        8
 66
     7
 43
1.0
 76
     1
 77
     6
 78
     2
 67
     7
 79
     5
170
     0
171
     0
290
     0
174
     0
 93
        1
 44
0.0
173
     0
291
     1
 45
0.0
1001
ACAD
1000
AcDbSavedByObjectVersion
1070
     0
  0
VISUALSTYLE
  5
9E27
102
{ACAD_XDICTIONARY
360
9E8E
102
}
102
{ACAD_REACTORS
330
9E18
102
}
330
9E18
100
AcDbVisualStyle
  2
Facepattern
 70
    15
 71
     2
 72
     2
 73
     0
 90
        0
 40
-0.6
 41
-30.0
 62
     5
 63
     7
 74
     1
 91
        4
 64
     7
 65
   257
 75
     1
175
     1
 42
1.0
 92
        8
 66
     7
 43
1.0
 76
     1
 77
     6
 78
     2
 67
     7
 79
     5
170
     0
171
     0
290
     0
174
     0
 93
        1
 44
0.0
173
     0
291
     1
 45
0.0
1001
ACAD
1000
AcDbSavedByObjectVersion
1070
     0
  0
VISUALSTYLE
  5
9E19
102
{ACAD_XDICTIONARY
360
9E72
102
}
102
{ACAD_REACTORS
330
9E18
102
}
330
9E18
100
AcDbVisualStyle
  2
Flat
 70
     0
 71
     2
 72
     1
 73
     1
 90
        2
 40
-0.6
 41
30.0
 62
     5
 63
     7
 74
     0
 91
        0
 64
     7
 65
   257
 75
     1
175
     1
 42
1.0
 92
        8
 66
     7
 43
1.0
 76
     1
 77
     6
 78
     2
 67
     7
 79
     5
170
     0
171
     0
290
     0
174
     0
 93
       13
 44
0.0
173
     0
291
     1
 45
0.0
1001
ACAD
1000
AcDbSavedByObjectVersion
1070
     0
  0
VISUALSTYLE
  5
9E1A
102
{ACAD_XDICTIONARY
360
9E74
102
}
102
{ACAD_REACTORS
330
9E18
102
}
330
9E18
100
AcDbVisualStyle
  2
FlatWithEdges
 70
     1
 71
     2
 72
     1
 73
     1
 90
        2
 40
-0.6
 41
30.0
 62
     5
 63
     7
 74
     1
 91
        0
 64
     7
 65
   257
 75
     1
175
     1
 42
1.0
 92
        0
 66
   257
 43
1.0
 76
     1
 77
     6
 78
     2
 67
     7
 79
     5
170
     0
171
     0
290
     0
174
     0
 93
       13
 44
0.0
173
     0
291
     1
 45
0.0
1001
ACAD
1000
AcDbSavedByObjectVersion
1070
     0
  0
VISUALSTYLE
  5
9E1B
102
{ACAD_XDICTIONARY
360
9E76
102
}
102
{ACAD_REACTORS
330
9E18
102
}
330
9E18
100
AcDbVisualStyle
  2
Gouraud
 70
     2
 71
     2
 72
     2
 73
     1
 90
        2
 40
-0.6
 41
30.0
 62
     5
 63
     7
 74
     0
 91
        0
 64
     7
 65
   257
 75
     1
175
     1
 42
1.0
 92
        0
 66
     7
 43
1.0
 76
     1
 77
     6
 78
     2
 67
     7
 79
     5
170
     0
171
     0
290
     0
174
     0
 93
       13
 44
0.0
173
     0
291
     1
 45
0.0
1001
ACAD
1000
AcDbSavedByObjectVersion
1070
     0
  0
VISUALSTYLE
  5
9E1C
102
{ACAD_XDICTIONARY
360
9E78
102
}
102
{ACAD_REACTORS
330
9E18
102
}
330
9E18
100
AcDbVisualStyle
  2
GouraudWithEdges
 70
     3
 71
     2
 72
     2
 73
     1
 90
        2
 40
-0.6
 41
30.0
 62
     5
 63
     7
 74
     1
 91
        0
 64
     7
 65
   257
 75
     1
175
     1
 42
1.0
 92
        0
 66
   257
 43
1.0
 76
     1
 77
     6
 78
     2
 67
     7
 79
     5
170
     0
171
     0
290
     0
174
     0
 93
       13
 44
0.0
173
     0
291
     1
 45
0.0
1001
ACAD
1000
AcDbSavedByObjectVersion
1070
     0
  0
VISUALSTYLE
  5
9E20
102
{ACAD_XDICTIONARY
360
9E80
102
}
102
{ACAD_REACTORS
330
9E18
102
}
330
9E18
100
AcDbVisualStyle
  2
Hidden
 70
     6
 71
     1
 72
     2
 73
     2
 90
        0
 40
-0.6
 41
-30.0
 62
     5
 63
     7
 74
     2
 91
        2
 64
     7
 65
   257
 75
     2
175
     1
 42
40.0
 92
        0
 66
   257
 43
1.0
 76
     1
 77
     6
 78
     2
 67
     7
 79
     3
170
     0
171
     0
290
     0
174
     0
 93
        1
 44
0.0
173
     0
291
     0
 45
0.0
1001
ACAD
1000
AcDbSavedByObjectVersion
1070
     0
  0
VISUALSTYLE
  5
9E2E
102
{ACAD_XDICTIONARY
360
9E9C
102
}
102
{ACAD_REACTORS
330
9E18
102
}
330
9E18
100
AcDbVisualStyle
  2
JitterOff
 70
    20
 71
     2
 72
     2
 73
     0
 90
        0
 40
-0.6
 41
-30.0
 62
     5
 63
     7
 74
     1
 91
        4
 64
     7
 65
   257
 75
     1
175
     1
 42
1.0
 92
       10
 66
     7
 43
1.0
 76
     1
 77
     6
 78
     2
 67
     7
 79
     5
170
     0
171
     0
290
     0
174
     0
 93
        1
 44
0.0
173
     0
291
     1
 45
0.0
1001
ACAD
1000
AcDbSavedByObjectVersion
1070
     0
  0
VISUALSTYLE
  5
9E26
102
{ACAD_XDICTIONARY
360
9E8C
102
}
102
{ACAD_REACTORS
330
9E18
102
}
330
9E18
100
AcDbVisualStyle
  2
Linepattern
 70
    14
 71
     2
 72
     2
 73
     0
 90
        0
 40
-0.6
 41
-30.0
 62
     5
 63
     7
 74
     1
 91
        4
 64
     7
 65
   257
 75
     7
175
     7
 42
1.0
 92
        8
 66
     7
 43
1.0
 76
     1
 77
     6
 78
     2
 67
     7
 79
     5
170
     0
171
     0
290
     0
174
     0
 93
        1
 44
0.0
173
     0
291
     1
 45
0.0
1001
ACAD
1000
AcDbSavedByObjectVersion
1070
     0
  0
VISUALSTYLE
  5
9E2F
102
{ACAD_XDICTIONARY
360
9E9E
102
}
102
{ACAD_REACTORS
330
9E18
102
}
330
9E18
100
AcDbVisualStyle
  2
OverhangOff
 70
    21
 71
     2
 72
     2
 73
     0
 90
        0
 40
-0.6
 41
-30.0
 62
     5
 63
     7
 74
     1
 91
        4
 64
     7
 65
   257
 75
     1
175
     1
 42
1.0
 92
        9
 66
     7
 43
1.0
 76
     1
 77
     6
 78
     2
 67
     7
 79
     5
170
     0
171
     0
290
     0
174
     0
 93
        1
 44
0.0
173
     0
291
     1
 45
0.0
1001
ACAD
1000
AcDbSavedByObjectVersion
1070
     0
  0
VISUALSTYLE
  5
9E22
102
{ACAD_XDICTIONARY
360
9E84
102
}
102
{ACAD_REACTORS
330
9E18
102
}
330
9E18
100
AcDbVisualStyle
  2
Realistic
 70
     8
 71
     2
 72
     3
 73
     0
 90
        2
 40
-0.6
 41
30.0
 62
     5
 63
     7
 74
     0
 91
        0
 64
     7
 65
   257
 75
     1
175
     1
 42
1.0
 92
        8
 66
   257
 43
1.0
 76
     1
 77
     6
 78
     2
 67
     7
 79
     3
170
     0
171
     0
290
     0
174
     0
 93
       13
 44
0.0
173
     0
291
     0
 45
0.0
1001
ACAD
1000
AcDbSavedByObjectVersion
1070
     0
  0
VISUALSTYLE
  5
9E2D
102
{ACAD_XDICTIONARY
360
9E9A
102
}
102
{ACAD_REACTORS
330
9E18
102
}
330
9E18
100
AcDbVisualStyle
  2
Shaded
 70
    27
 71
     2
 72
     2
 73
     1
 90
        2
 40
-0.6
 41
30.0
 62
     5
 63
     7
 74
     0
 91
        4
 64
     7
 65
   257
 75
     1
175
     1
 42
1.0
 92
        8
 66
   257
 43
1.0
 76
     1
 77
     6
 78
     2
 67
     8
 79
     3
170
     0
171
     0
290
     0
174
     0
 93
        5
 44
0.0
173
     0
291
     0
 45
0.0
1001
ACAD
1000
AcDbSavedByObjectVersion
1070
     0
  0
VISUALSTYLE
  5
9E2C
102
{ACAD_XDICTIONARY
360
9E98
102
}
102
{ACAD_REACTORS
330
9E18
102
}
330
9E18
100
AcDbVisualStyle
  2
Shaded with edges
 70
    26
 71
     2
 72
     2
 73
     1
 90
        2
 40
-0.6
 41
30.0
 62
     5
 63
     7
 74
     1
 91
       10
 64
     7
 65
   257
 75
     2
175
     1
 42
1.0
 92
        8
 66
   257
 43
1.0
 76
     1
 77
     6
 78
     2
 67
     7
 79
     3
170
     0
171
     0
290
     0
174
     0
 93
        5
 44
0.0
173
     0
291
     0
 45
0.0
1001
ACAD
1000
AcDbSavedByObjectVersion
1070
     0
  0
VISUALSTYLE
  5
9E29
102
{ACAD_XDICTIONARY
360
9E92
102
}
102
{ACAD_REACTORS
330
9E18
102
}
330
9E18
100
AcDbVisualStyle
  2
Shades of Gray
 70
    23
 71
     2
 72
     2
 73
     3
 90
        0
 40
-0.6
 41
-30.0
 62
     5
 63
     7
 74
     2
 91
        2
 64
     7
 65
     7
 75
     1
175
     1
 42
40.0
 92
        8
 66
     7
 43
1.0
 76
     1
 77
     6
 78
     2
 67
     7
 79
     3
170
     0
171
     0
290
     0
174
     0
 93
        1
 44
0.0
173
     0
291
     0
 45
0.0
1001
ACAD
1000
AcDbSavedByObjectVersion
1070
     0
  0
VISUALSTYLE
  5
9E2A
102
{ACAD_XDICTIONARY
360
9E94
102
}
102
{ACAD_REACTORS
330
9E18
102
}
330
9E18
100
AcDbVisualStyle
  2
Sketchy
 70
    24
 71
     1
 72
     2
 73
     2
 90
        0
 40
-0.6
 41
-30.0
 62
     5
 63
     7
 74
     2
 91
        2
 64
     7
 65
     7
 75
     1
175
     1
 42
40.0
 92
       11
 66
     7
 43
1.0
 76
     1
 77
     6
 78
     2
 67
     7
 79
     6
170
     0
171
     0
290
     0
174
     0
 93
        1
 44
0.0
173
     0
291
     0
 45
0.0
1001
ACAD
1000
AcDbSavedByObjectVersion
1070
     0
  0
VISUALSTYLE
  5
9E25
102
{ACAD_XDICTIONARY
360
9E8A
102
}
102
{ACAD_REACTORS
330
9E18
102
}
330
9E18
100
AcDbVisualStyle
  2
Thicken
 70
    13
 71
     2
 72
     2
 73
     0
 90
        0
 40
-0.6
 41
-30.0
 62
     5
 63
     7
 74
     1
 91
        4
 64
     7
 65
   257
 75
     1
175
     1
 42
1.0
 92
       12
 66
     7
 43
1.0
 76
     1
 77
     6
 78
     2
 67
     7
 79
     5
170
     0
171
     0
290
     0
174
     0
 93
        1
 44
0.0
173
     0
291
     1
 45
0.0
1001
ACAD
1000
AcDbSavedByObjectVersion
1070
     0
  0
VISUALSTYLE
  5
9E1F
102
{ACAD_XDICTIONARY
360
9E7E
102
}
102
{ACAD_REACTORS
330
9E18
102
}
330
9E18
100
AcDbVisualStyle
  2
Wireframe
 70
     5
 71
     0
 72
     2
 73
     0
 90
        0
 40
-0.6
 41
-30.0
 62
     5
 63
     7
 74
     1
 91
        4
 64
     7
 65
   257
 75
     1
175
     1
 42
1.0
 92
        0
 66
   257
 43
1.0
 76
     1
 77
     6
 78
     2
 67
     7
 79
     3
170
     0
171
     0
290
     0
174
     0
 93
        1
 44
0.0
173
     0
291
     0
 45
0.0
1001
ACAD
1000
AcDbSavedByObjectVersion
1070
     0
  0
VISUALSTYLE
  5
9E2B
102
{ACAD_XDICTIONARY
360
9E96
102
}
102
{ACAD_REACTORS
330
9E18
102
}
330
9E18
100
AcDbVisualStyle
  2
X-Ray
 70
    25
 71
     2
 72
     2
 73
     1
 90
        1
 40
0.5
 41
-30.0
 62
     5
 63
     7
 74
     1
 91
        0
 64
     7
 65
   257
 75
     1
175
     1
 42
1.0
 92
        8
 66
     7
 43
1.0
 76
     1
 77
     6
 78
     2
 67
     7
 79
     3
170
     0
171
     0
290
     0
174
     0
 93
       13
 44
0.0
173
     0
291
     0
 45
0.0
1001
ACAD
1000
AcDbSavedByObjectVersion
1070
     0
  0
DICTIONARYVAR
  5
9E65
102
{ACAD_REACTORS
330
9E60
102
}
330
9E60
100
DictionaryVariables
280
     0
  1
1:1
  0
DICTIONARYVAR
  5
9E62
102
{ACAD_REACTORS
330
9E60
102
}
330
9E60
100
DictionaryVariables
280
     0
  1
STANDARD
  0
DICTIONARYVAR
  5
9E61
102
{ACAD_REACTORS
330
9E60
102
}
330
9E60
100
DictionaryVariables
280
     0
  1
STANDARD
  0
DICTIONARYVAR
  5
9E63
102
{ACAD_REACTORS
330
9E60
102
}
330
9E60
100
DictionaryVariables
280
     0
  1
Imperial24
  0
DICTIONARYVAR
  5
9E64
102
{ACAD_REACTORS
330
9E60
102
}
330
9E60
100
DictionaryVariables
280
     0
  1
Imperial24
  0
DICTIONARYVAR
  5
9E68
102
{ACAD_REACTORS
330
9E60
102
}
330
9E60
100
DictionaryVariables
280
     0
  1
1
  0
DICTIONARYVAR
  5
9E67
102
{ACAD_REACTORS
330
9E60
102
}
330
9E60
100
DictionaryVariables
280
     0
  1
0
  0
DICTIONARYVAR
  5
9E66
102
{ACAD_REACTORS
330
9E60
102
}
330
9E60
100
DictionaryVariables
280
     0
  1
127
  0
DICTIONARYVAR
  5
9E69
102
{ACAD_REACTORS
330
9E60
102
}
330
9E60
100
DictionaryVariables
280
     0
  1
2
  0
DICTIONARY
  5
9EA6
330
9E4B
100
AcDbDictionary
280
     1
281
     1
  3
ACAD_XREC_ROUNDTRIP
360
9EA7
  0
DICTIONARY
  5
9EA8
330
9E4C
100
AcDbDictionary
280
     1
281
     1
  3
ACAD_XREC_ROUNDTRIP
360
9EA9
  0
DICTIONARY
  5
9EAA
330
9E4D
100
AcDbDictionary
280
     1
281
     1
  3
ACAD_XREC_ROUNDTRIP
360
9EAB
  0
DICTIONARY
  5
9E09
330
9E08
100
AcDbDictionary
280
     1
281
     1
  3
ACAD_XREC_ROUNDTRIP
360
9E70
  3
BUMPTILE
360
9E0B
  3
DIFFUSETILE
360
9E0A
  3
OPACITYTILE
360
9E0E
  3
REFLECTIONTILE
360
9E0D
  3
REFRACTIONTILE
360
9E0F
  3
SPECULARTILE
360
9E0C
  0
DICTIONARY
  5
9E01
330
9E00
100
AcDbDictionary
280
     1
281
     1
  3
ACAD_XREC_ROUNDTRIP
360
9E6F
  3
BUMPTILE
360
9E03
  3
DIFFUSETILE
360
9E02
  3
OPACITYTILE
360
9E06
  3
REFLECTIONTILE
360
9E05
  3
REFRACTIONTILE
360
9E07
  3
SPECULARTILE
360
9E04
  0
DICTIONARY
  5
9E11
330
9E10
100
AcDbDictionary
280
     1
281
     1
  3
ACAD_XREC_ROUNDTRIP
360
9E71
  3
BUMPTILE
360
9E13
  3
DIFFUSETILE
360
9E12
  3
OPACITYTILE
360
9E16
  3
REFLECTIONTILE
360
9E15
  3
REFRACTIONTILE
360
9E17
  3
SPECULARTILE
360
9E14
  0
DICTIONARY
  5
9EA4
330
9E49
100
AcDbDictionary
280
     1
281
     1
  3
ACAD_XREC_ROUNDTRIP
360
9EA5
  0
DICTIONARY
  5
9E6B
330
9E33
100
AcDbDictionary
280
     1
281
     1
  3
ACAD_ROUNDTRIP_2008_TABLESTYLE_CELLSTYLEMAP
360
9E6C
  3
ACAD_XREC_ROUNDTRIP
360
9EA2
  0
DICTIONARY
  5
9E7C
330
9E1E
100
AcDbDictionary
280
     1
281
     1
  3
ACAD_XREC_ROUNDTRIP
360
9E7D
  0
DICTIONARY
  5
9E7A
330
9E1D
100
AcDbDictionary
280
     1
281
     1
  3
ACAD_XREC_ROUNDTRIP
360
9E7B
  0
DICTIONARY
  5
9E88
330
9E24
100
AcDbDictionary
280
     1
281
     1
  3
ACAD_XREC_ROUNDTRIP
360
9E89
  0
DICTIONARY
  5
9E90
330
9E28
100
AcDbDictionary
280
     1
281
     1
  3
ACAD_XREC_ROUNDTRIP
360
9E91
  0
DICTIONARY
  5
9E82
330
9E21
100
AcDbDictionary
280
     1
281
     1
  3
ACAD_XREC_ROUNDTRIP
360
9E83
  0
DICTIONARY
  5
9E86
330
9E23
100
AcDbDictionary
280
     1
281
     1
  3
ACAD_XREC_ROUNDTRIP
360
9E87
  0
DICTIONARY
  5
9EA0
330
9E30
100
AcDbDictionary
280
     1
281
     1
  3
ACAD_XREC_ROUNDTRIP
360
9EA1
  0
DICTIONARY
  5
9E8E
330
9E27
100
AcDbDictionary
280
     1
281
     1
  3
ACAD_XREC_ROUNDTRIP
360
9E8F
  0
DICTIONARY
  5
9E72
330
9E19
100
AcDbDictionary
280
     1
281
     1
  3
ACAD_XREC_ROUNDTRIP
360
9E73
  0
DICTIONARY
  5
9E74
330
9E1A
100
AcDbDictionary
280
     1
281
     1
  3
ACAD_XREC_ROUNDTRIP
360
9E75
  0
DICTIONARY
  5
9E76
330
9E1B
100
AcDbDictionary
280
     1
281
     1
  3
ACAD_XREC_ROUNDTRIP
360
9E77
  0
DICTIONARY
  5
9E78
330
9E1C
100
AcDbDictionary
280
     1
281
     1
  3
ACAD_XREC_ROUNDTRIP
360
9E79
  0
DICTIONARY
  5
9E80
330
9E20
100
AcDbDictionary
280
     1
281
     1
  3
ACAD_XREC_ROUNDTRIP
360
9E81
  0
DICTIONARY
  5
9E9C
330
9E2E
100
AcDbDictionary
280
     1
281
     1
  3
ACAD_XREC_ROUNDTRIP
360
9E9D
  0
DICTIONARY
  5
9E8C
330
9E26
100
AcDbDictionary
280
     1
281
     1
  3
ACAD_XREC_ROUNDTRIP
360
9E8D
  0
DICTIONARY
  5
9E9E
330
9E2F
100
AcDbDictionary
280
     1
281
     1
  3
ACAD_XREC_ROUNDTRIP
360
9E9F
  0
DICTIONARY
  5
9E84
330
9E22
100
AcDbDictionary
280
     1
281
     1
  3
ACAD_XREC_ROUNDTRIP
360
9E85
  0
DICTIONARY
  5
9E9A
330
9E2D
100
AcDbDictionary
280
     1
281
     1
  3
ACAD_XREC_ROUNDTRIP
360
9E9B
  0
DICTIONARY
  5
9E98
330
9E2C
100
AcDbDictionary
280
     1
281
     1
  3
ACAD_XREC_ROUNDTRIP
360
9E99
  0
DICTIONARY
  5
9E92
330
9E29
100
AcDbDictionary
280
     1
281
     1
  3
ACAD_XREC_ROUNDTRIP
360
9E93
  0
DICTIONARY
  5
9E94
330
9E2A
100
AcDbDictionary
280
     1
281
     1
  3
ACAD_XREC_ROUNDTRIP
360
9E95
  0
DICTIONARY
  5
9E8A
330
9E25
100
AcDbDictionary
280
     1
281
     1
  3
ACAD_XREC_ROUNDTRIP
360
9E8B
  0
DICTIONARY
  5
9E7E
330
9E1F
100
AcDbDictionary
280
     1
281
     1
  3
ACAD_XREC_ROUNDTRIP
360
9E7F
  0
DICTIONARY
  5
9E96
330
9E2B
100
AcDbDictionary
280
     1
281
     1
  3
ACAD_XREC_ROUNDTRIP
360
9E97
  0
XRECORD
  5
9EA7
102
{ACAD_REACTORS
330
9EA6
102
}
330
9EA6
100
AcDbXrecord
280
     1
102
DISPLAYNAME
  1
Imperial24
102
FLAGS
 90
        0
  0
XRECORD
  5
9EA9
102
{ACAD_REACTORS
330
9EA8
102
}
330
9EA8
100
AcDbXrecord
280
     1
102
SHADEPLOT
 70
     0
102
SHADEPLOTRESLEVEL
 70
     2
102
SHADEPLOTCUSTOMDPI
 70
   300
  0
XRECORD
  5
9EAB
102
{ACAD_REACTORS
330
9EAA
102
}
330
9EAA
100
AcDbXrecord
280
     1
102
SHADEPLOT
 70
     0
102
SHADEPLOTRESLEVEL
 70
     2
102
SHADEPLOTCUSTOMDPI
 70
   300
  0
XRECORD
  5
9E70
102
{ACAD_REACTORS
330
9E09
102
}
330
9E09
100
AcDbXrecord
280
     1
102
MATERIAL
148
0.0
149
0.0
149
0.0
 93
        0
 94
      127
282
     0
 72
     0
 77
     0
171
     0
175
     0
179
     0
273
     0
  0
XRECORD
  5
9E0B
102
{ACAD_REACTORS
330
9E09
102
}
330
9E09
100
AcDbXrecord
280
     1
270
     1
271
     1
  0
XRECORD
  5
9E0A
102
{ACAD_REACTORS
330
9E09
102
}
330
9E09
100
AcDbXrecord
280
     1
270
     1
271
     1
  0
XRECORD
  5
9E0E
102
{ACAD_REACTORS
330
9E09
102
}
330
9E09
100
AcDbXrecord
280
     1
270
     1
271
     1
  0
XRECORD
  5
9E0D
102
{ACAD_REACTORS
330
9E09
102
}
330
9E09
100
AcDbXrecord
280
     1
270
     1
271
     1
  0
XRECORD
  5
9E0F
102
{ACAD_REACTORS
330
9E09
102
}
330
9E09
100
AcDbXrecord
280
     1
270
     1
271
     1
  0
XRECORD
  5
9E0C
102
{ACAD_REACTORS
330
9E09
102
}
330
9E09
100
AcDbXrecord
280
     1
270
     1
271
     1
  0
XRECORD
  5
9E6F
102
{ACAD_REACTORS
330
9E01
102
}
330
9E01
100
AcDbXrecord
280
     1
102
MATERIAL
148
0.0
149
0.0
149
0.0
 93
        0
 94
      127
282
     0
 72
     0
 77
     0
171
     0
175
     0
179
     0
273
     0
  0
XRECORD
  5
9E03
102
{ACAD_REACTORS
330
9E01
102
}
330
9E01
100
AcDbXrecord
280
     1
270
     1
271
     1
  0
XRECORD
  5
9E02
102
{ACAD_REACTORS
330
9E01
102
}
330
9E01
100
AcDbXrecord
280
     1
270
     1
271
     1
  0
XRECORD
  5
9E06
102
{ACAD_REACTORS
330
9E01
102
}
330
9E01
100
AcDbXrecord
280
     1
270
     1
271
     1
  0
XRECORD
  5
9E05
102
{ACAD_REACTORS
330
9E01
102
}
330
9E01
100
AcDbXrecord
280
     1
270
     1
271
     1
  0
XRECORD
  5
9E07
102
{ACAD_REACTORS
330
9E01
102
}
330
9E01
100
AcDbXrecord
280
     1
270
     1
271
     1
  0
XRECORD
  5
9E04
102
{ACAD_REACTORS
330
9E01
102
}
330
9E01
100
AcDbXrecord
280
     1
270
     1
271
     1
  0
XRECORD
  5
9E71
102
{ACAD_REACTORS
330
9E11
102
}
330
9E11
100
AcDbXrecord
280
     1
102
MATERIAL
148
0.0
149
0.0
149
0.0
 93
        0
 94
      127
282
     0
 72
     0
 77
     0
171
     0
175
     0
179
     0
273
     0
  0
XRECORD
  5
9E13
102
{ACAD_REACTORS
330
9E11
102
}
330
9E11
100
AcDbXrecord
280
     1
270
     1
271
     1
  0
XRECORD
  5
9E12
102
{ACAD_REACTORS
330
9E11
102
}
330
9E11
100
AcDbXrecord
280
     1
270
     1
271
     1
  0
XRECORD
  5
9E16
102
{ACAD_REACTORS
330
9E11
102
}
330
9E11
100
AcDbXrecord
280
     1
270
     1
271
     1
  0
XRECORD
  5
9E15
102
{ACAD_REACTORS
330
9E11
102
}
330
9E11
100
AcDbXrecord
280
     1
270
     1
271
     1
  0
XRECORD
  5
9E17
102
{ACAD_REACTORS
330
9E11
102
}
330
9E11
100
AcDbXrecord
280
     1
270
     1
271
     1
  0
XRECORD
  5
9E14
102
{ACAD_REACTORS
330
9E11
102
}
330
9E11
100
AcDbXrecord
280
     1
270
     1
271
     1
  0
XRECORD
  5
9EA5
102
{ACAD_REACTORS
330
9EA4
102
}
330
9EA4
100
AcDbXrecord
280
     1
102
DISPLAYNAME
  1
Imperial24
102
FLAGS
 90
        0
  0
CELLSTYLEMAP
  5
9E6C
102
{ACAD_REACTORS
330
9E6B
102
}
330
9E6B
100
AcDbCellStyleMap
 90
        3
300
CELLSTYLE
  1
TABLEFORMAT_BEGIN
 90
        5
170
     1
 91
        0
 92
    32768
 62
   257
 93
        1
300
CONTENTFORMAT
  1
CONTENTFORMAT_BEGIN
 90
        0
 91
        0
 92
      512
 93
        0
300

 40
0.0
140
1.0
 94
        5
 62
     0
340
9B70
144
0.25
309
CONTENTFORMAT_END
171
     0
 94
        0
309
TABLEFORMAT_END
  1
CELLSTYLE_BEGIN
 90
        1
 91
        1
300
_TITLE
309
CELLSTYLE_END
300
CELLSTYLE
  1
TABLEFORMAT_BEGIN
 90
        5
170
     1
 91
        0
 92
        0
 62
   257
 93
        1
300
CONTENTFORMAT
  1
CONTENTFORMAT_BEGIN
 90
        0
 91
        0
 92
      512
 93
        0
300

 40
0.0
140
1.0
 94
        5
 62
     0
340
9B70
144
0.18
309
CONTENTFORMAT_END
171
     0
 94
        0
309
TABLEFORMAT_END
  1
CELLSTYLE_BEGIN
 90
        2
 91
        1
300
_HEADER
309
CELLSTYLE_END
300
CELLSTYLE
  1
TABLEFORMAT_BEGIN
 90
        5
170
     1
 91
        0
 92
        0
 62
   257
 93
        1
300
CONTENTFORMAT
  1
CONTENTFORMAT_BEGIN
 90
        0
 91
        0
 92
      512
 93
        0
300

 40
0.0
140
1.0
 94
        2
 62
     0
340
9B70
144
0.18
309
CONTENTFORMAT_END
171
     0
 94
        0
309
TABLEFORMAT_END
  1
CELLSTYLE_BEGIN
 90
        3
 91
        2
300
_DATA
309
CELLSTYLE_END
  0
XRECORD
  5
9EA2
102
{ACAD_REACTORS
330
9E6B
102
}
330
9E6B
100
AcDbXrecord
280
     1
102
ACAD_ROUNDTRIP_PRE2007_TABLESTYLE
 90
      512
 91
        0
  1

 92
      512
 93
        0
  2

 94
      512
 95
        0
  3

  0
XRECORD
  5
9E7D
102
{ACAD_REACTORS
330
9E7C
102
}
330
9E7C
100
AcDbXrecord
280
     1
102
RTVSPost2010Prop28
280
     1
102
RTVSPost2010PropOp28
 70
     1
102
RTVSPost2010Prop29
280
     1
102
RTVSPost2010PropOp29
 70
     1
102
RTVSPost2010Prop30
280
     0
102
RTVSPost2010PropOp30
 70
     1
102
RTVSPost2010Prop31
280
     0
102
RTVSPost2010PropOp31
 70
     1
102
RTVSPost2010Prop32
280
     0
102
RTVSPost2010PropOp32
 70
     1
102
RTVSPost2010Prop33
280
     0
102
RTVSPost2010PropOp33
 70
     1
102
RTVSPost2010Prop34
280
     0
102
RTVSPost2010PropOp34
 70
     1
102
RTVSPost2010Prop35
280
     0
102
RTVSPost2010PropOp35
 70
     1
102
RTVSPost2010Prop36
280
     0
102
RTVSPost2010PropOp36
 70
     1
102
RTVSPost2010Prop37
 90
       50
102
RTVSPost2010PropOp37
 70
     1
102
RTVSPost2010Prop38
140
0.0
102
RTVSPost2010PropOp38
 70
     1
102
RTVSPost2010Prop39
140
1.0
102
RTVSPost2010PropOp39
 70
     1
102
RTVSPost2010Prop40
 90
        0
102
RTVSPost2010PropOp40
 70
     1
102
RTVSPost2010Prop41ColorIndex
 90
       18
102
RTVSPost2010Prop41ColorRGB
 90
        0
102
RTVSPost2010PropOp41
 70
     1
102
RTVSPost2010Prop42
 90
       50
102
RTVSPost2010PropOp42
 70
     1
102
RTVSPost2010Prop43
 90
        3
102
RTVSPost2010PropOp43
 70
     1
102
RTVSPost2010Prop44ColorIndex
 90
        5
102
RTVSPost2010Prop44ColorRGB
 90
      255
102
RTVSPost2010PropOp44
 70
     1
102
RTVSPost2010Prop45
280
     0
102
RTVSPost2010PropOp45
 70
     1
102
RTVSPost2010Prop46
 90
       50
102
RTVSPost2010PropOp46
 70
     1
102
RTVSPost2010Prop47
 90
       50
102
RTVSPost2010PropOp47
 70
     1
102
RTVSPost2010Prop48
 90
       50
102
RTVSPost2010PropOp48
 70
     1
102
RTVSPost2010Prop49
280
     0
102
RTVSPost2010PropOp49
 70
     1
102
RTVSPost2010Prop50
 90
       50
102
RTVSPost2010PropOp50
 70
     1
102
RTVSPost2010Prop51ColorIndex
 90
      256
102
RTVSPost2010Prop51ColorRGB
 90
-16777216
102
RTVSPost2010PropOp51
 70
     0
102
RTVSPost2010Prop52
140
1.0
102
RTVSPost2010PropOp52
 70
     0
102
RTVSPost2010Prop53
 90
        2
102
RTVSPost2010PropOp53
 70
     1
102
RTVSPost2010Prop54
  1
strokes_ogs.tif
102
RTVSPost2010PropOp54
 70
     1
102
RTVSPost2010Prop55
280
     0
102
RTVSPost2010PropOp55
 70
     1
102
RTVSPost2010Prop56
140
1.0
102
RTVSPost2010PropOp56
 70
     1
102
RTVSPost2010Prop57
140
1.0
102
RTVSPost2010PropOp57
 70
     1
102
RTVSPropertyOp0
 70
     1
102
RTVSPropertyOp1
 70
     1
102
RTVSPropertyOp2
 70
     1
102
RTVSPropertyOp3
 70
     1
102
RTVSPropertyOp4
 70
     1
102
RTVSPropertyOp5
 70
     1
102
RTVSPropertyOp6
 70
     1
102
RTVSPropertyOp7
 70
     1
102
RTVSPropertyOp8
 70
     1
102
RTVSPropertyOp9
 70
     1
102
RTVSPropertyOp10
 70
     1
102
RTVSPropertyOp11
 70
     1
102
RTVSPropertyOp12
 70
     1
102
RTVSPropertyOp13
 70
     1
102
RTVSPropertyOp14
 70
     1
102
RTVSPropertyOp15
 70
     1
102
RTVSPropertyOp16
 70
     1
102
RTVSPropertyOp17
 70
     1
102
RTVSPropertyOp18
 70
     1
102
RTVSPropertyOp19
 70
     1
102
RTVSPropertyOp20
 70
     1
102
RTVSPropertyOp21
 70
     1
102
RTVSPropertyOp22
 70
     1
102
RTVSPropertyOp23
 70
     1
102
RTVSPropertyOp24
 70
     1
102
RTVSPropertyOp25
 70
     1
102
RTVSPropertyOp26
 70
     1
102
RTVSPropertyOp27
 70
     1
102
RTVSPropertyOp28
 70
     1
102
RTVSPropertyOp29
 70
     1
102
RTVSPropertyOp30
 70
     1
102
RTVSPropertyOp31
 70
     1
102
RTVSPropertyOp32
 70
     1
102
RTVSPropertyOp33
 70
     1
102
RTVSPropertyOp34
 70
     1
102
RTVSPropertyOp35
 70
     1
102
RTVSPropertyOp36
 70
     1
102
RTVSPropertyOp37
 70
     1
102
RTVSPropertyOp38
 70
     1
102
RTVSPropertyOp39
 70
     1
102
RTVSPropertyOp40
 70
     1
102
RTVSPropertyOp41
 70
     1
102
RTVSPropertyOp42
 70
     1
102
RTVSPropertyOp43
 70
     1
102
RTVSPropertyOp44
 70
     1
102
RTVSPropertyOp45
 70
     1
102
RTVSPropertyOp46
 70
     1
102
RTVSPropertyOp47
 70
     1
102
RTVSPropertyOp48
 70
     1
102
RTVSPropertyOp49
 70
     1
102
RTVSPropertyOp50
 70
     1
102
RTVSPropertyOp51
 70
     0
102
RTVSPropertyOp52
 70
     0
102
RTVSPropertyOp53
 70
     1
102
RTVSPropertyOp54
 70
     1
102
RTVSPropertyOp55
 70
     1
102
RTVSPropertyOp56
 70
     1
102
RTVSPropertyOp57
 70
     1
102
RTVSPropertyOp58
 70
     1
102
RTVSPropertyOp59
 70
     1
102
RTVSPropertyOp60
 70
     1
102
RTVSPropertyOp61
 70
     1
102
RTVSPropertyOp62
 70
     1
  0
XRECORD
  5
9E7B
102
{ACAD_REACTORS
330
9E7A
102
}
330
9E7A
100
AcDbXrecord
280
     1
102
RTVSPost2010Prop28
280
     0
102
RTVSPost2010PropOp28
 70
     1
102
RTVSPost2010Prop29
280
     1
102
RTVSPost2010PropOp29
 70
     1
102
RTVSPost2010Prop30
280
     1
102
RTVSPost2010PropOp30
 70
     1
102
RTVSPost2010Prop31
280
     0
102
RTVSPost2010PropOp31
 70
     1
102
RTVSPost2010Prop32
280
     0
102
RTVSPost2010PropOp32
 70
     1
102
RTVSPost2010Prop33
280
     0
102
RTVSPost2010PropOp33
 70
     1
102
RTVSPost2010Prop34
280
     0
102
RTVSPost2010PropOp34
 70
     1
102
RTVSPost2010Prop35
280
     0
102
RTVSPost2010PropOp35
 70
     1
102
RTVSPost2010Prop36
280
     0
102
RTVSPost2010PropOp36
 70
     1
102
RTVSPost2010Prop37
 90
       50
102
RTVSPost2010PropOp37
 70
     1
102
RTVSPost2010Prop38
140
0.0
102
RTVSPost2010PropOp38
 70
     1
102
RTVSPost2010Prop39
140
1.0
102
RTVSPost2010PropOp39
 70
     1
102
RTVSPost2010Prop40
 90
        0
102
RTVSPost2010PropOp40
 70
     1
102
RTVSPost2010Prop41ColorIndex
 90
       18
102
RTVSPost2010Prop41ColorRGB
 90
        0
102
RTVSPost2010PropOp41
 70
     1
102
RTVSPost2010Prop42
 90
       50
102
RTVSPost2010PropOp42
 70
     1
102
RTVSPost2010Prop43
 90
        3
102
RTVSPost2010PropOp43
 70
     1
102
RTVSPost2010Prop44ColorIndex
 90
        5
102
RTVSPost2010Prop44ColorRGB
 90
      255
102
RTVSPost2010PropOp44
 70
     1
102
RTVSPost2010Prop45
280
     0
102
RTVSPost2010PropOp45
 70
     1
102
RTVSPost2010Prop46
 90
       50
102
RTVSPost2010PropOp46
 70
     1
102
RTVSPost2010Prop47
 90
       50
102
RTVSPost2010PropOp47
 70
     1
102
RTVSPost2010Prop48
 90
       50
102
RTVSPost2010PropOp48
 70
     1
102
RTVSPost2010Prop49
280
     0
102
RTVSPost2010PropOp49
 70
     1
102
RTVSPost2010Prop50
 90
       50
102
RTVSPost2010PropOp50
 70
     1
102
RTVSPost2010Prop51ColorIndex
 90
      256
102
RTVSPost2010Prop51ColorRGB
 90
-16777216
102
RTVSPost2010PropOp51
 70
     0
102
RTVSPost2010Prop52
140
1.0
102
RTVSPost2010PropOp52
 70
     0
102
RTVSPost2010Prop53
 90
        2
102
RTVSPost2010PropOp53
 70
     1
102
RTVSPost2010Prop54
  1
strokes_ogs.tif
102
RTVSPost2010PropOp54
 70
     1
102
RTVSPost2010Prop55
280
     0
102
RTVSPost2010PropOp55
 70
     1
102
RTVSPost2010Prop56
140
1.0
102
RTVSPost2010PropOp56
 70
     1
102
RTVSPost2010Prop57
140
1.0
102
RTVSPost2010PropOp57
 70
     1
102
RTVSPropertyOp0
 70
     1
102
RTVSPropertyOp1
 70
     1
102
RTVSPropertyOp2
 70
     1
102
RTVSPropertyOp3
 70
     1
102
RTVSPropertyOp4
 70
     1
102
RTVSPropertyOp5
 70
     1
102
RTVSPropertyOp6
 70
     1
102
RTVSPropertyOp7
 70
     1
102
RTVSPropertyOp8
 70
     1
102
RTVSPropertyOp9
 70
     1
102
RTVSPropertyOp10
 70
     1
102
RTVSPropertyOp11
 70
     1
102
RTVSPropertyOp12
 70
     1
102
RTVSPropertyOp13
 70
     1
102
RTVSPropertyOp14
 70
     1
102
RTVSPropertyOp15
 70
     1
102
RTVSPropertyOp16
 70
     1
102
RTVSPropertyOp17
 70
     1
102
RTVSPropertyOp18
 70
     1
102
RTVSPropertyOp19
 70
     1
102
RTVSPropertyOp20
 70
     1
102
RTVSPropertyOp21
 70
     1
102
RTVSPropertyOp22
 70
     1
102
RTVSPropertyOp23
 70
     1
102
RTVSPropertyOp24
 70
     1
102
RTVSPropertyOp25
 70
     1
102
RTVSPropertyOp26
 70
     1
102
RTVSPropertyOp27
 70
     1
102
RTVSPropertyOp28
 70
     1
102
RTVSPropertyOp29
 70
     1
102
RTVSPropertyOp30
 70
     1
102
RTVSPropertyOp31
 70
     1
102
RTVSPropertyOp32
 70
     1
102
RTVSPropertyOp33
 70
     1
102
RTVSPropertyOp34
 70
     1
102
RTVSPropertyOp35
 70
     1
102
RTVSPropertyOp36
 70
     1
102
RTVSPropertyOp37
 70
     1
102
RTVSPropertyOp38
 70
     1
102
RTVSPropertyOp39
 70
     1
102
RTVSPropertyOp40
 70
     1
102
RTVSPropertyOp41
 70
     1
102
RTVSPropertyOp42
 70
     1
102
RTVSPropertyOp43
 70
     1
102
RTVSPropertyOp44
 70
     1
102
RTVSPropertyOp45
 70
     1
102
RTVSPropertyOp46
 70
     1
102
RTVSPropertyOp47
 70
     1
102
RTVSPropertyOp48
 70
     1
102
RTVSPropertyOp49
 70
     1
102
RTVSPropertyOp50
 70
     1
102
RTVSPropertyOp51
 70
     0
102
RTVSPropertyOp52
 70
     0
102
RTVSPropertyOp53
 70
     1
102
RTVSPropertyOp54
 70
     1
102
RTVSPropertyOp55
 70
     1
102
RTVSPropertyOp56
 70
     1
102
RTVSPropertyOp57
 70
     1
102
RTVSPropertyOp58
 70
     1
102
RTVSPropertyOp59
 70
     1
102
RTVSPropertyOp60
 70
     1
102
RTVSPropertyOp61
 70
     1
102
RTVSPropertyOp62
 70
     1
  0
XRECORD
  5
9E89
102
{ACAD_REACTORS
330
9E88
102
}
330
9E88
100
AcDbXrecord
280
     1
102
RTVSPost2010Prop28
280
     0
102
RTVSPost2010PropOp28
 70
     1
102
RTVSPost2010Prop29
280
     1
102
RTVSPost2010PropOp29
 70
     1
102
RTVSPost2010Prop30
280
     1
102
RTVSPost2010PropOp30
 70
     1
102
RTVSPost2010Prop31
280
     0
102
RTVSPost2010PropOp31
 70
     1
102
RTVSPost2010Prop32
280
     0
102
RTVSPost2010PropOp32
 70
     1
102
RTVSPost2010Prop33
280
     0
102
RTVSPost2010PropOp33
 70
     1
102
RTVSPost2010Prop34
280
     0
102
RTVSPost2010PropOp34
 70
     1
102
RTVSPost2010Prop35
280
     0
102
RTVSPost2010PropOp35
 70
     1
102
RTVSPost2010Prop36
280
     0
102
RTVSPost2010PropOp36
 70
     1
102
RTVSPost2010Prop37
 90
       50
102
RTVSPost2010PropOp37
 70
     1
102
RTVSPost2010Prop38
140
0.0
102
RTVSPost2010PropOp38
 70
     1
102
RTVSPost2010Prop39
140
1.0
102
RTVSPost2010PropOp39
 70
     1
102
RTVSPost2010Prop40
 90
        0
102
RTVSPost2010PropOp40
 70
     1
102
RTVSPost2010Prop41ColorIndex
 90
       18
102
RTVSPost2010Prop41ColorRGB
 90
        0
102
RTVSPost2010PropOp41
 70
     1
102
RTVSPost2010Prop42
 90
       50
102
RTVSPost2010PropOp42
 70
     1
102
RTVSPost2010Prop43
 90
        3
102
RTVSPost2010PropOp43
 70
     1
102
RTVSPost2010Prop44ColorIndex
 90
        5
102
RTVSPost2010Prop44ColorRGB
 90
      255
102
RTVSPost2010PropOp44
 70
     1
102
RTVSPost2010Prop45
280
     0
102
RTVSPost2010PropOp45
 70
     1
102
RTVSPost2010Prop46
 90
       50
102
RTVSPost2010PropOp46
 70
     1
102
RTVSPost2010Prop47
 90
       50
102
RTVSPost2010PropOp47
 70
     1
102
RTVSPost2010Prop48
 90
       50
102
RTVSPost2010PropOp48
 70
     1
102
RTVSPost2010Prop49
280
     0
102
RTVSPost2010PropOp49
 70
     1
102
RTVSPost2010Prop50
 90
       50
102
RTVSPost2010PropOp50
 70
     1
102
RTVSPost2010Prop51ColorIndex
 90
      256
102
RTVSPost2010Prop51ColorRGB
 90
-16777216
102
RTVSPost2010PropOp51
 70
     0
102
RTVSPost2010Prop52
140
1.0
102
RTVSPost2010PropOp52
 70
     0
102
RTVSPost2010Prop53
 90
        2
102
RTVSPost2010PropOp53
 70
     1
102
RTVSPost2010Prop54
  1
strokes_ogs.tif
102
RTVSPost2010PropOp54
 70
     1
102
RTVSPost2010Prop55
280
     0
102
RTVSPost2010PropOp55
 70
     1
102
RTVSPost2010Prop56
140
1.0
102
RTVSPost2010PropOp56
 70
     1
102
RTVSPost2010Prop57
140
1.0
102
RTVSPost2010PropOp57
 70
     1
102
RTVSPropertyOp0
 70
     1
102
RTVSPropertyOp1
 70
     1
102
RTVSPropertyOp2
 70
     1
102
RTVSPropertyOp3
 70
     1
102
RTVSPropertyOp4
 70
     1
102
RTVSPropertyOp5
 70
     1
102
RTVSPropertyOp6
 70
     1
102
RTVSPropertyOp7
 70
     1
102
RTVSPropertyOp8
 70
     1
102
RTVSPropertyOp9
 70
     1
102
RTVSPropertyOp10
 70
     1
102
RTVSPropertyOp11
 70
     1
102
RTVSPropertyOp12
 70
     1
102
RTVSPropertyOp13
 70
     1
102
RTVSPropertyOp14
 70
     1
102
RTVSPropertyOp15
 70
     1
102
RTVSPropertyOp16
 70
     1
102
RTVSPropertyOp17
 70
     1
102
RTVSPropertyOp18
 70
     1
102
RTVSPropertyOp19
 70
     1
102
RTVSPropertyOp20
 70
     1
102
RTVSPropertyOp21
 70
     1
102
RTVSPropertyOp22
 70
     1
102
RTVSPropertyOp23
 70
     1
102
RTVSPropertyOp24
 70
     1
102
RTVSPropertyOp25
 70
     1
102
RTVSPropertyOp26
 70
     1
102
RTVSPropertyOp27
 70
     1
102
RTVSPropertyOp28
 70
     1
102
RTVSPropertyOp29
 70
     1
102
RTVSPropertyOp30
 70
     1
102
RTVSPropertyOp31
 70
     1
102
RTVSPropertyOp32
 70
     1
102
RTVSPropertyOp33
 70
     1
102
RTVSPropertyOp34
 70
     1
102
RTVSPropertyOp35
 70
     1
102
RTVSPropertyOp36
 70
     1
102
RTVSPropertyOp37
 70
     1
102
RTVSPropertyOp38
 70
     1
102
RTVSPropertyOp39
 70
     1
102
RTVSPropertyOp40
 70
     1
102
RTVSPropertyOp41
 70
     1
102
RTVSPropertyOp42
 70
     1
102
RTVSPropertyOp43
 70
     1
102
RTVSPropertyOp44
 70
     1
102
RTVSPropertyOp45
 70
     1
102
RTVSPropertyOp46
 70
     1
102
RTVSPropertyOp47
 70
     1
102
RTVSPropertyOp48
 70
     1
102
RTVSPropertyOp49
 70
     1
102
RTVSPropertyOp50
 70
     1
102
RTVSPropertyOp51
 70
     0
102
RTVSPropertyOp52
 70
     0
102
RTVSPropertyOp53
 70
     1
102
RTVSPropertyOp54
 70
     1
102
RTVSPropertyOp55
 70
     1
102
RTVSPropertyOp56
 70
     1
102
RTVSPropertyOp57
 70
     1
102
RTVSPropertyOp58
 70
     1
102
RTVSPropertyOp59
 70
     1
102
RTVSPropertyOp60
 70
     1
102
RTVSPropertyOp61
 70
     1
102
RTVSPropertyOp62
 70
     1
  0
XRECORD
  5
9E91
102
{ACAD_REACTORS
330
9E90
102
}
330
9E90
100
AcDbXrecord
280
     1
102
RTVSPost2010Prop28
280
     0
102
RTVSPost2010PropOp28
 70
     1
102
RTVSPost2010Prop29
280
     1
102
RTVSPost2010PropOp29
 70
     1
102
RTVSPost2010Prop30
280
     1
102
RTVSPost2010PropOp30
 70
     1
102
RTVSPost2010Prop31
280
     0
102
RTVSPost2010PropOp31
 70
     1
102
RTVSPost2010Prop32
280
     0
102
RTVSPost2010PropOp32
 70
     1
102
RTVSPost2010Prop33
280
     0
102
RTVSPost2010PropOp33
 70
     1
102
RTVSPost2010Prop34
280
     0
102
RTVSPost2010PropOp34
 70
     1
102
RTVSPost2010Prop35
280
     0
102
RTVSPost2010PropOp35
 70
     1
102
RTVSPost2010Prop36
280
     0
102
RTVSPost2010PropOp36
 70
     1
102
RTVSPost2010Prop37
 90
       50
102
RTVSPost2010PropOp37
 70
     1
102
RTVSPost2010Prop38
140
0.0
102
RTVSPost2010PropOp38
 70
     1
102
RTVSPost2010Prop39
140
1.0
102
RTVSPost2010PropOp39
 70
     1
102
RTVSPost2010Prop40
 90
        0
102
RTVSPost2010PropOp40
 70
     1
102
RTVSPost2010Prop41ColorIndex
 90
       18
102
RTVSPost2010Prop41ColorRGB
 90
        0
102
RTVSPost2010PropOp41
 70
     1
102
RTVSPost2010Prop42
 90
       50
102
RTVSPost2010PropOp42
 70
     1
102
RTVSPost2010Prop43
 90
        3
102
RTVSPost2010PropOp43
 70
     1
102
RTVSPost2010Prop44ColorIndex
 90
        5
102
RTVSPost2010Prop44ColorRGB
 90
      255
102
RTVSPost2010PropOp44
 70
     1
102
RTVSPost2010Prop45
280
     0
102
RTVSPost2010PropOp45
 70
     1
102
RTVSPost2010Prop46
 90
       50
102
RTVSPost2010PropOp46
 70
     1
102
RTVSPost2010Prop47
 90
       50
102
RTVSPost2010PropOp47
 70
     1
102
RTVSPost2010Prop48
 90
       50
102
RTVSPost2010PropOp48
 70
     1
102
RTVSPost2010Prop49
280
     0
102
RTVSPost2010PropOp49
 70
     1
102
RTVSPost2010Prop50
 90
       50
102
RTVSPost2010PropOp50
 70
     1
102
RTVSPost2010Prop51ColorIndex
 90
      256
102
RTVSPost2010Prop51ColorRGB
 90
-16777216
102
RTVSPost2010PropOp51
 70
     0
102
RTVSPost2010Prop52
140
1.0
102
RTVSPost2010PropOp52
 70
     0
102
RTVSPost2010Prop53
 90
        2
102
RTVSPost2010PropOp53
 70
     1
102
RTVSPost2010Prop54
  1
strokes_ogs.tif
102
RTVSPost2010PropOp54
 70
     1
102
RTVSPost2010Prop55
280
     0
102
RTVSPost2010PropOp55
 70
     1
102
RTVSPost2010Prop56
140
1.0
102
RTVSPost2010PropOp56
 70
     1
102
RTVSPost2010Prop57
140
1.0
102
RTVSPost2010PropOp57
 70
     1
102
RTVSPropertyOp0
 70
     1
102
RTVSPropertyOp1
 70
     1
102
RTVSPropertyOp2
 70
     1
102
RTVSPropertyOp3
 70
     1
102
RTVSPropertyOp4
 70
     1
102
RTVSPropertyOp5
 70
     1
102
RTVSPropertyOp6
 70
     1
102
RTVSPropertyOp7
 70
     1
102
RTVSPropertyOp8
 70
     1
102
RTVSPropertyOp9
 70
     1
102
RTVSPropertyOp10
 70
     1
102
RTVSPropertyOp11
 70
     1
102
RTVSPropertyOp12
 70
     1
102
RTVSPropertyOp13
 70
     1
102
RTVSPropertyOp14
 70
     1
102
RTVSPropertyOp15
 70
     1
102
RTVSPropertyOp16
 70
     1
102
RTVSPropertyOp17
 70
     1
102
RTVSPropertyOp18
 70
     1
102
RTVSPropertyOp19
 70
     1
102
RTVSPropertyOp20
 70
     1
102
RTVSPropertyOp21
 70
     1
102
RTVSPropertyOp22
 70
     1
102
RTVSPropertyOp23
 70
     1
102
RTVSPropertyOp24
 70
     1
102
RTVSPropertyOp25
 70
     1
102
RTVSPropertyOp26
 70
     1
102
RTVSPropertyOp27
 70
     1
102
RTVSPropertyOp28
 70
     1
102
RTVSPropertyOp29
 70
     1
102
RTVSPropertyOp30
 70
     1
102
RTVSPropertyOp31
 70
     1
102
RTVSPropertyOp32
 70
     1
102
RTVSPropertyOp33
 70
     1
102
RTVSPropertyOp34
 70
     1
102
RTVSPropertyOp35
 70
     1
102
RTVSPropertyOp36
 70
     1
102
RTVSPropertyOp37
 70
     1
102
RTVSPropertyOp38
 70
     1
102
RTVSPropertyOp39
 70
     1
102
RTVSPropertyOp40
 70
     1
102
RTVSPropertyOp41
 70
     1
102
RTVSPropertyOp42
 70
     1
102
RTVSPropertyOp43
 70
     1
102
RTVSPropertyOp44
 70
     1
102
RTVSPropertyOp45
 70
     1
102
RTVSPropertyOp46
 70
     1
102
RTVSPropertyOp47
 70
     1
102
RTVSPropertyOp48
 70
     1
102
RTVSPropertyOp49
 70
     1
102
RTVSPropertyOp50
 70
     1
102
RTVSPropertyOp51
 70
     0
102
RTVSPropertyOp52
 70
     0
102
RTVSPropertyOp53
 70
     1
102
RTVSPropertyOp54
 70
     1
102
RTVSPropertyOp55
 70
     1
102
RTVSPropertyOp56
 70
     1
102
RTVSPropertyOp57
 70
     1
102
RTVSPropertyOp58
 70
     1
102
RTVSPropertyOp59
 70
     1
102
RTVSPropertyOp60
 70
     1
102
RTVSPropertyOp61
 70
     1
102
RTVSPropertyOp62
 70
     1
  0
XRECORD
  5
9E83
102
{ACAD_REACTORS
330
9E82
102
}
330
9E82
100
AcDbXrecord
280
     1
102
RTVSPost2010Prop28
280
     0
102
RTVSPost2010PropOp28
 70
     1
102
RTVSPost2010Prop29
280
     1
102
RTVSPost2010PropOp29
 70
     1
102
RTVSPost2010Prop30
280
     1
102
RTVSPost2010PropOp30
 70
     1
102
RTVSPost2010Prop31
280
     0
102
RTVSPost2010PropOp31
 70
     1
102
RTVSPost2010Prop32
280
     0
102
RTVSPost2010PropOp32
 70
     1
102
RTVSPost2010Prop33
280
     0
102
RTVSPost2010PropOp33
 70
     1
102
RTVSPost2010Prop34
280
     0
102
RTVSPost2010PropOp34
 70
     1
102
RTVSPost2010Prop35
280
     0
102
RTVSPost2010PropOp35
 70
     1
102
RTVSPost2010Prop36
280
     0
102
RTVSPost2010PropOp36
 70
     1
102
RTVSPost2010Prop37
 90
       50
102
RTVSPost2010PropOp37
 70
     1
102
RTVSPost2010Prop38
140
0.0
102
RTVSPost2010PropOp38
 70
     1
102
RTVSPost2010Prop39
140
1.0
102
RTVSPost2010PropOp39
 70
     1
102
RTVSPost2010Prop40
 90
        0
102
RTVSPost2010PropOp40
 70
     1
102
RTVSPost2010Prop41ColorIndex
 90
       18
102
RTVSPost2010Prop41ColorRGB
 90
        0
102
RTVSPost2010PropOp41
 70
     1
102
RTVSPost2010Prop42
 90
       50
102
RTVSPost2010PropOp42
 70
     1
102
RTVSPost2010Prop43
 90
        3
102
RTVSPost2010PropOp43
 70
     1
102
RTVSPost2010Prop44ColorIndex
 90
        5
102
RTVSPost2010Prop44ColorRGB
 90
      255
102
RTVSPost2010PropOp44
 70
     1
102
RTVSPost2010Prop45
280
     0
102
RTVSPost2010PropOp45
 70
     1
102
RTVSPost2010Prop46
 90
       50
102
RTVSPost2010PropOp46
 70
     1
102
RTVSPost2010Prop47
 90
       50
102
RTVSPost2010PropOp47
 70
     1
102
RTVSPost2010Prop48
 90
       50
102
RTVSPost2010PropOp48
 70
     1
102
RTVSPost2010Prop49
280
     0
102
RTVSPost2010PropOp49
 70
     1
102
RTVSPost2010Prop50
 90
       50
102
RTVSPost2010PropOp50
 70
     1
102
RTVSPost2010Prop51ColorIndex
 90
      256
102
RTVSPost2010Prop51ColorRGB
 90
-16777216
102
RTVSPost2010PropOp51
 70
     0
102
RTVSPost2010Prop52
140
1.0
102
RTVSPost2010PropOp52
 70
     0
102
RTVSPost2010Prop53
 90
        2
102
RTVSPost2010PropOp53
 70
     1
102
RTVSPost2010Prop54
  1
strokes_ogs.tif
102
RTVSPost2010PropOp54
 70
     1
102
RTVSPost2010Prop55
280
     0
102
RTVSPost2010PropOp55
 70
     1
102
RTVSPost2010Prop56
140
1.0
102
RTVSPost2010PropOp56
 70
     1
102
RTVSPost2010Prop57
140
1.0
102
RTVSPost2010PropOp57
 70
     1
102
RTVSPropertyOp0
 70
     1
102
RTVSPropertyOp1
 70
     1
102
RTVSPropertyOp2
 70
     1
102
RTVSPropertyOp3
 70
     1
102
RTVSPropertyOp4
 70
     1
102
RTVSPropertyOp5
 70
     1
102
RTVSPropertyOp6
 70
     1
102
RTVSPropertyOp7
 70
     1
102
RTVSPropertyOp8
 70
     1
102
RTVSPropertyOp9
 70
     1
102
RTVSPropertyOp10
 70
     1
102
RTVSPropertyOp11
 70
     1
102
RTVSPropertyOp12
 70
     1
102
RTVSPropertyOp13
 70
     1
102
RTVSPropertyOp14
 70
     1
102
RTVSPropertyOp15
 70
     1
102
RTVSPropertyOp16
 70
     1
102
RTVSPropertyOp17
 70
     1
102
RTVSPropertyOp18
 70
     1
102
RTVSPropertyOp19
 70
     1
102
RTVSPropertyOp20
 70
     1
102
RTVSPropertyOp21
 70
     1
102
RTVSPropertyOp22
 70
     1
102
RTVSPropertyOp23
 70
     1
102
RTVSPropertyOp24
 70
     1
102
RTVSPropertyOp25
 70
     1
102
RTVSPropertyOp26
 70
     1
102
RTVSPropertyOp27
 70
     1
102
RTVSPropertyOp28
 70
     1
102
RTVSPropertyOp29
 70
     1
102
RTVSPropertyOp30
 70
     1
102
RTVSPropertyOp31
 70
     1
102
RTVSPropertyOp32
 70
     1
102
RTVSPropertyOp33
 70
     1
102
RTVSPropertyOp34
 70
     1
102
RTVSPropertyOp35
 70
     1
102
RTVSPropertyOp36
 70
     1
102
RTVSPropertyOp37
 70
     1
102
RTVSPropertyOp38
 70
     1
102
RTVSPropertyOp39
 70
     1
102
RTVSPropertyOp40
 70
     1
102
RTVSPropertyOp41
 70
     1
102
RTVSPropertyOp42
 70
     1
102
RTVSPropertyOp43
 70
     1
102
RTVSPropertyOp44
 70
     1
102
RTVSPropertyOp45
 70
     1
102
RTVSPropertyOp46
 70
     1
102
RTVSPropertyOp47
 70
     1
102
RTVSPropertyOp48
 70
     1
102
RTVSPropertyOp49
 70
     1
102
RTVSPropertyOp50
 70
     1
102
RTVSPropertyOp51
 70
     0
102
RTVSPropertyOp52
 70
     0
102
RTVSPropertyOp53
 70
     1
102
RTVSPropertyOp54
 70
     1
102
RTVSPropertyOp55
 70
     1
102
RTVSPropertyOp56
 70
     1
102
RTVSPropertyOp57
 70
     1
102
RTVSPropertyOp58
 70
     1
102
RTVSPropertyOp59
 70
     1
102
RTVSPropertyOp60
 70
     1
102
RTVSPropertyOp61
 70
     1
102
RTVSPropertyOp62
 70
     1
  0
XRECORD
  5
9E87
102
{ACAD_REACTORS
330
9E86
102
}
330
9E86
100
AcDbXrecord
280
     1
102
RTVSPost2010Prop28
280
     0
102
RTVSPost2010PropOp28
 70
     1
102
RTVSPost2010Prop29
280
     1
102
RTVSPost2010PropOp29
 70
     1
102
RTVSPost2010Prop30
280
     1
102
RTVSPost2010PropOp30
 70
     1
102
RTVSPost2010Prop31
280
     0
102
RTVSPost2010PropOp31
 70
     1
102
RTVSPost2010Prop32
280
     0
102
RTVSPost2010PropOp32
 70
     1
102
RTVSPost2010Prop33
280
     0
102
RTVSPost2010PropOp33
 70
     1
102
RTVSPost2010Prop34
280
     0
102
RTVSPost2010PropOp34
 70
     1
102
RTVSPost2010Prop35
280
     0
102
RTVSPost2010PropOp35
 70
     1
102
RTVSPost2010Prop36
280
     0
102
RTVSPost2010PropOp36
 70
     1
102
RTVSPost2010Prop37
 90
       50
102
RTVSPost2010PropOp37
 70
     1
102
RTVSPost2010Prop38
140
0.0
102
RTVSPost2010PropOp38
 70
     1
102
RTVSPost2010Prop39
140
1.0
102
RTVSPost2010PropOp39
 70
     1
102
RTVSPost2010Prop40
 90
        0
102
RTVSPost2010PropOp40
 70
     1
102
RTVSPost2010Prop41ColorIndex
 90
       18
102
RTVSPost2010Prop41ColorRGB
 90
        0
102
RTVSPost2010PropOp41
 70
     1
102
RTVSPost2010Prop42
 90
       50
102
RTVSPost2010PropOp42
 70
     1
102
RTVSPost2010Prop43
 90
        3
102
RTVSPost2010PropOp43
 70
     1
102
RTVSPost2010Prop44ColorIndex
 90
        5
102
RTVSPost2010Prop44ColorRGB
 90
      255
102
RTVSPost2010PropOp44
 70
     1
102
RTVSPost2010Prop45
280
     0
102
RTVSPost2010PropOp45
 70
     1
102
RTVSPost2010Prop46
 90
       50
102
RTVSPost2010PropOp46
 70
     1
102
RTVSPost2010Prop47
 90
       50
102
RTVSPost2010PropOp47
 70
     1
102
RTVSPost2010Prop48
 90
       50
102
RTVSPost2010PropOp48
 70
     1
102
RTVSPost2010Prop49
280
     0
102
RTVSPost2010PropOp49
 70
     1
102
RTVSPost2010Prop50
 90
       50
102
RTVSPost2010PropOp50
 70
     1
102
RTVSPost2010Prop51ColorIndex
 90
      256
102
RTVSPost2010Prop51ColorRGB
 90
-16777216
102
RTVSPost2010PropOp51
 70
     0
102
RTVSPost2010Prop52
140
1.0
102
RTVSPost2010PropOp52
 70
     0
102
RTVSPost2010Prop53
 90
        2
102
RTVSPost2010PropOp53
 70
     1
102
RTVSPost2010Prop54
  1
strokes_ogs.tif
102
RTVSPost2010PropOp54
 70
     1
102
RTVSPost2010Prop55
280
     0
102
RTVSPost2010PropOp55
 70
     1
102
RTVSPost2010Prop56
140
1.0
102
RTVSPost2010PropOp56
 70
     1
102
RTVSPost2010Prop57
140
1.0
102
RTVSPost2010PropOp57
 70
     1
102
RTVSPropertyOp0
 70
     1
102
RTVSPropertyOp1
 70
     1
102
RTVSPropertyOp2
 70
     1
102
RTVSPropertyOp3
 70
     1
102
RTVSPropertyOp4
 70
     1
102
RTVSPropertyOp5
 70
     1
102
RTVSPropertyOp6
 70
     1
102
RTVSPropertyOp7
 70
     1
102
RTVSPropertyOp8
 70
     1
102
RTVSPropertyOp9
 70
     1
102
RTVSPropertyOp10
 70
     1
102
RTVSPropertyOp11
 70
     1
102
RTVSPropertyOp12
 70
     1
102
RTVSPropertyOp13
 70
     1
102
RTVSPropertyOp14
 70
     1
102
RTVSPropertyOp15
 70
     1
102
RTVSPropertyOp16
 70
     1
102
RTVSPropertyOp17
 70
     1
102
RTVSPropertyOp18
 70
     1
102
RTVSPropertyOp19
 70
     1
102
RTVSPropertyOp20
 70
     1
102
RTVSPropertyOp21
 70
     1
102
RTVSPropertyOp22
 70
     1
102
RTVSPropertyOp23
 70
     1
102
RTVSPropertyOp24
 70
     1
102
RTVSPropertyOp25
 70
     1
102
RTVSPropertyOp26
 70
     1
102
RTVSPropertyOp27
 70
     1
102
RTVSPropertyOp28
 70
     1
102
RTVSPropertyOp29
 70
     1
102
RTVSPropertyOp30
 70
     1
102
RTVSPropertyOp31
 70
     1
102
RTVSPropertyOp32
 70
     1
102
RTVSPropertyOp33
 70
     1
102
RTVSPropertyOp34
 70
     1
102
RTVSPropertyOp35
 70
     1
102
RTVSPropertyOp36
 70
     1
102
RTVSPropertyOp37
 70
     1
102
RTVSPropertyOp38
 70
     1
102
RTVSPropertyOp39
 70
     1
102
RTVSPropertyOp40
 70
     1
102
RTVSPropertyOp41
 70
     1
102
RTVSPropertyOp42
 70
     1
102
RTVSPropertyOp43
 70
     1
102
RTVSPropertyOp44
 70
     1
102
RTVSPropertyOp45
 70
     1
102
RTVSPropertyOp46
 70
     1
102
RTVSPropertyOp47
 70
     1
102
RTVSPropertyOp48
 70
     1
102
RTVSPropertyOp49
 70
     1
102
RTVSPropertyOp50
 70
     1
102
RTVSPropertyOp51
 70
     0
102
RTVSPropertyOp52
 70
     0
102
RTVSPropertyOp53
 70
     1
102
RTVSPropertyOp54
 70
     1
102
RTVSPropertyOp55
 70
     1
102
RTVSPropertyOp56
 70
     1
102
RTVSPropertyOp57
 70
     1
102
RTVSPropertyOp58
 70
     1
102
RTVSPropertyOp59
 70
     1
102
RTVSPropertyOp60
 70
     1
102
RTVSPropertyOp61
 70
     1
102
RTVSPropertyOp62
 70
     1
  0
XRECORD
  5
9EA1
102
{ACAD_REACTORS
330
9EA0
102
}
330
9EA0
100
AcDbXrecord
280
     1
102
RTVSPost2010Prop28
280
     0
102
RTVSPost2010PropOp28
 70
     1
102
RTVSPost2010Prop29
280
     1
102
RTVSPost2010PropOp29
 70
     1
102
RTVSPost2010Prop30
280
     1
102
RTVSPost2010PropOp30
 70
     1
102
RTVSPost2010Prop31
280
     0
102
RTVSPost2010PropOp31
 70
     1
102
RTVSPost2010Prop32
280
     0
102
RTVSPost2010PropOp32
 70
     1
102
RTVSPost2010Prop33
280
     0
102
RTVSPost2010PropOp33
 70
     1
102
RTVSPost2010Prop34
280
     0
102
RTVSPost2010PropOp34
 70
     1
102
RTVSPost2010Prop35
280
     0
102
RTVSPost2010PropOp35
 70
     1
102
RTVSPost2010Prop36
280
     0
102
RTVSPost2010PropOp36
 70
     1
102
RTVSPost2010Prop37
 90
       50
102
RTVSPost2010PropOp37
 70
     0
102
RTVSPost2010Prop38
140
0.0
102
RTVSPost2010PropOp38
 70
     0
102
RTVSPost2010Prop39
140
1.0
102
RTVSPost2010PropOp39
 70
     0
102
RTVSPost2010Prop40
 90
        0
102
RTVSPost2010PropOp40
 70
     0
102
RTVSPost2010Prop41ColorIndex
 90
       18
102
RTVSPost2010Prop41ColorRGB
 90
        0
102
RTVSPost2010PropOp41
 70
     0
102
RTVSPost2010Prop42
 90
       50
102
RTVSPost2010PropOp42
 70
     0
102
RTVSPost2010Prop43
 90
        3
102
RTVSPost2010PropOp43
 70
     0
102
RTVSPost2010Prop44ColorIndex
 90
        5
102
RTVSPost2010Prop44ColorRGB
 90
      255
102
RTVSPost2010PropOp44
 70
     0
102
RTVSPost2010Prop45
280
     0
102
RTVSPost2010PropOp45
 70
     1
102
RTVSPost2010Prop46
 90
       50
102
RTVSPost2010PropOp46
 70
     0
102
RTVSPost2010Prop47
 90
       50
102
RTVSPost2010PropOp47
 70
     0
102
RTVSPost2010Prop48
 90
       50
102
RTVSPost2010PropOp48
 70
     0
102
RTVSPost2010Prop49
280
     0
102
RTVSPost2010PropOp49
 70
     1
102
RTVSPost2010Prop50
 90
       50
102
RTVSPost2010PropOp50
 70
     0
102
RTVSPost2010Prop51ColorIndex
 90
      256
102
RTVSPost2010Prop51ColorRGB
 90
-16777216
102
RTVSPost2010PropOp51
 70
     0
102
RTVSPost2010Prop52
140
1.0
102
RTVSPost2010PropOp52
 70
     0
102
RTVSPost2010Prop53
 90
        2
102
RTVSPost2010PropOp53
 70
     0
102
RTVSPost2010Prop54
  1
strokes_ogs.tif
102
RTVSPost2010PropOp54
 70
     0
102
RTVSPost2010Prop55
280
     0
102
RTVSPost2010PropOp55
 70
     1
102
RTVSPost2010Prop56
140
1.0
102
RTVSPost2010PropOp56
 70
     0
102
RTVSPost2010Prop57
140
1.0
102
RTVSPost2010PropOp57
 70
     0
102
RTVSPropertyOp0
 70
     0
102
RTVSPropertyOp1
 70
     0
102
RTVSPropertyOp2
 70
     0
102
RTVSPropertyOp3
 70
     0
102
RTVSPropertyOp4
 70
     0
102
RTVSPropertyOp5
 70
     0
102
RTVSPropertyOp6
 70
     0
102
RTVSPropertyOp7
 70
     0
102
RTVSPropertyOp8
 70
     0
102
RTVSPropertyOp9
 70
     0
102
RTVSPropertyOp10
 70
     0
102
RTVSPropertyOp11
 70
     0
102
RTVSPropertyOp12
 70
     0
102
RTVSPropertyOp13
 70
     0
102
RTVSPropertyOp14
 70
     2
102
RTVSPropertyOp15
 70
     0
102
RTVSPropertyOp16
 70
     0
102
RTVSPropertyOp17
 70
     0
102
RTVSPropertyOp18
 70
     0
102
RTVSPropertyOp19
 70
     0
102
RTVSPropertyOp20
 70
     0
102
RTVSPropertyOp21
 70
     0
102
RTVSPropertyOp22
 70
     0
102
RTVSPropertyOp23
 70
     0
102
RTVSPropertyOp24
 70
     0
102
RTVSPropertyOp25
 70
     0
102
RTVSPropertyOp26
 70
     0
102
RTVSPropertyOp27
 70
     0
102
RTVSPropertyOp28
 70
     1
102
RTVSPropertyOp29
 70
     1
102
RTVSPropertyOp30
 70
     1
102
RTVSPropertyOp31
 70
     1
102
RTVSPropertyOp32
 70
     1
102
RTVSPropertyOp33
 70
     1
102
RTVSPropertyOp34
 70
     1
102
RTVSPropertyOp35
 70
     1
102
RTVSPropertyOp36
 70
     1
102
RTVSPropertyOp37
 70
     0
102
RTVSPropertyOp38
 70
     0
102
RTVSPropertyOp39
 70
     0
102
RTVSPropertyOp40
 70
     0
102
RTVSPropertyOp41
 70
     0
102
RTVSPropertyOp42
 70
     0
102
RTVSPropertyOp43
 70
     0
102
RTVSPropertyOp44
 70
     0
102
RTVSPropertyOp45
 70
     1
102
RTVSPropertyOp46
 70
     0
102
RTVSPropertyOp47
 70
     0
102
RTVSPropertyOp48
 70
     0
102
RTVSPropertyOp49
 70
     1
102
RTVSPropertyOp50
 70
     0
102
RTVSPropertyOp51
 70
     0
102
RTVSPropertyOp52
 70
     0
102
RTVSPropertyOp53
 70
     0
102
RTVSPropertyOp54
 70
     0
102
RTVSPropertyOp55
 70
     1
102
RTVSPropertyOp56
 70
     0
102
RTVSPropertyOp57
 70
     0
102
RTVSPropertyOp58
 70
     0
102
RTVSPropertyOp59
 70
     0
102
RTVSPropertyOp60
 70
     0
102
RTVSPropertyOp61
 70
     0
102
RTVSPropertyOp62
 70
     0
  0
XRECORD
  5
9E8F
102
{ACAD_REACTORS
330
9E8E
102
}
330
9E8E
100
AcDbXrecord
280
     1
102
RTVSPost2010Prop28
280
     0
102
RTVSPost2010PropOp28
 70
     1
102
RTVSPost2010Prop29
280
     1
102
RTVSPost2010PropOp29
 70
     1
102
RTVSPost2010Prop30
280
     1
102
RTVSPost2010PropOp30
 70
     1
102
RTVSPost2010Prop31
280
     0
102
RTVSPost2010PropOp31
 70
     1
102
RTVSPost2010Prop32
280
     0
102
RTVSPost2010PropOp32
 70
     1
102
RTVSPost2010Prop33
280
     0
102
RTVSPost2010PropOp33
 70
     1
102
RTVSPost2010Prop34
280
     0
102
RTVSPost2010PropOp34
 70
     1
102
RTVSPost2010Prop35
280
     0
102
RTVSPost2010PropOp35
 70
     1
102
RTVSPost2010Prop36
280
     0
102
RTVSPost2010PropOp36
 70
     1
102
RTVSPost2010Prop37
 90
       50
102
RTVSPost2010PropOp37
 70
     1
102
RTVSPost2010Prop38
140
0.0
102
RTVSPost2010PropOp38
 70
     1
102
RTVSPost2010Prop39
140
1.0
102
RTVSPost2010PropOp39
 70
     1
102
RTVSPost2010Prop40
 90
        0
102
RTVSPost2010PropOp40
 70
     1
102
RTVSPost2010Prop41ColorIndex
 90
       18
102
RTVSPost2010Prop41ColorRGB
 90
        0
102
RTVSPost2010PropOp41
 70
     1
102
RTVSPost2010Prop42
 90
       50
102
RTVSPost2010PropOp42
 70
     1
102
RTVSPost2010Prop43
 90
        3
102
RTVSPost2010PropOp43
 70
     1
102
RTVSPost2010Prop44ColorIndex
 90
        5
102
RTVSPost2010Prop44ColorRGB
 90
      255
102
RTVSPost2010PropOp44
 70
     1
102
RTVSPost2010Prop45
280
     0
102
RTVSPost2010PropOp45
 70
     1
102
RTVSPost2010Prop46
 90
       50
102
RTVSPost2010PropOp46
 70
     1
102
RTVSPost2010Prop47
 90
       50
102
RTVSPost2010PropOp47
 70
     1
102
RTVSPost2010Prop48
 90
       50
102
RTVSPost2010PropOp48
 70
     1
102
RTVSPost2010Prop49
280
     0
102
RTVSPost2010PropOp49
 70
     1
102
RTVSPost2010Prop50
 90
       50
102
RTVSPost2010PropOp50
 70
     1
102
RTVSPost2010Prop51ColorIndex
 90
      256
102
RTVSPost2010Prop51ColorRGB
 90
-16777216
102
RTVSPost2010PropOp51
 70
     0
102
RTVSPost2010Prop52
140
1.0
102
RTVSPost2010PropOp52
 70
     0
102
RTVSPost2010Prop53
 90
        2
102
RTVSPost2010PropOp53
 70
     1
102
RTVSPost2010Prop54
  1
strokes_ogs.tif
102
RTVSPost2010PropOp54
 70
     1
102
RTVSPost2010Prop55
280
     0
102
RTVSPost2010PropOp55
 70
     1
102
RTVSPost2010Prop56
140
1.0
102
RTVSPost2010PropOp56
 70
     1
102
RTVSPost2010Prop57
140
1.0
102
RTVSPost2010PropOp57
 70
     1
102
RTVSPropertyOp0
 70
     1
102
RTVSPropertyOp1
 70
     1
102
RTVSPropertyOp2
 70
     1
102
RTVSPropertyOp3
 70
     1
102
RTVSPropertyOp4
 70
     1
102
RTVSPropertyOp5
 70
     1
102
RTVSPropertyOp6
 70
     1
102
RTVSPropertyOp7
 70
     1
102
RTVSPropertyOp8
 70
     1
102
RTVSPropertyOp9
 70
     1
102
RTVSPropertyOp10
 70
     1
102
RTVSPropertyOp11
 70
     1
102
RTVSPropertyOp12
 70
     1
102
RTVSPropertyOp13
 70
     1
102
RTVSPropertyOp14
 70
     1
102
RTVSPropertyOp15
 70
     1
102
RTVSPropertyOp16
 70
     1
102
RTVSPropertyOp17
 70
     1
102
RTVSPropertyOp18
 70
     1
102
RTVSPropertyOp19
 70
     1
102
RTVSPropertyOp20
 70
     1
102
RTVSPropertyOp21
 70
     1
102
RTVSPropertyOp22
 70
     1
102
RTVSPropertyOp23
 70
     1
102
RTVSPropertyOp24
 70
     1
102
RTVSPropertyOp25
 70
     1
102
RTVSPropertyOp26
 70
     1
102
RTVSPropertyOp27
 70
     1
102
RTVSPropertyOp28
 70
     1
102
RTVSPropertyOp29
 70
     1
102
RTVSPropertyOp30
 70
     1
102
RTVSPropertyOp31
 70
     1
102
RTVSPropertyOp32
 70
     1
102
RTVSPropertyOp33
 70
     1
102
RTVSPropertyOp34
 70
     1
102
RTVSPropertyOp35
 70
     1
102
RTVSPropertyOp36
 70
     1
102
RTVSPropertyOp37
 70
     1
102
RTVSPropertyOp38
 70
     1
102
RTVSPropertyOp39
 70
     1
102
RTVSPropertyOp40
 70
     1
102
RTVSPropertyOp41
 70
     1
102
RTVSPropertyOp42
 70
     1
102
RTVSPropertyOp43
 70
     1
102
RTVSPropertyOp44
 70
     1
102
RTVSPropertyOp45
 70
     1
102
RTVSPropertyOp46
 70
     1
102
RTVSPropertyOp47
 70
     1
102
RTVSPropertyOp48
 70
     1
102
RTVSPropertyOp49
 70
     1
102
RTVSPropertyOp50
 70
     1
102
RTVSPropertyOp51
 70
     0
102
RTVSPropertyOp52
 70
     0
102
RTVSPropertyOp53
 70
     1
102
RTVSPropertyOp54
 70
     1
102
RTVSPropertyOp55
 70
     1
102
RTVSPropertyOp56
 70
     1
102
RTVSPropertyOp57
 70
     1
102
RTVSPropertyOp58
 70
     1
102
RTVSPropertyOp59
 70
     1
102
RTVSPropertyOp60
 70
     1
102
RTVSPropertyOp61
 70
     1
102
RTVSPropertyOp62
 70
     1
  0
XRECORD
  5
9E73
102
{ACAD_REACTORS
330
9E72
102
}
330
9E72
100
AcDbXrecord
280
     1
102
RTVSPost2010Prop28
280
     0
102
RTVSPost2010PropOp28
 70
     1
102
RTVSPost2010Prop29
280
     1
102
RTVSPost2010PropOp29
 70
     1
102
RTVSPost2010Prop30
280
     1
102
RTVSPost2010PropOp30
 70
     1
102
RTVSPost2010Prop31
280
     0
102
RTVSPost2010PropOp31
 70
     1
102
RTVSPost2010Prop32
280
     0
102
RTVSPost2010PropOp32
 70
     1
102
RTVSPost2010Prop33
280
     0
102
RTVSPost2010PropOp33
 70
     1
102
RTVSPost2010Prop34
280
     0
102
RTVSPost2010PropOp34
 70
     1
102
RTVSPost2010Prop35
280
     0
102
RTVSPost2010PropOp35
 70
     1
102
RTVSPost2010Prop36
280
     0
102
RTVSPost2010PropOp36
 70
     1
102
RTVSPost2010Prop37
 90
       50
102
RTVSPost2010PropOp37
 70
     1
102
RTVSPost2010Prop38
140
0.0
102
RTVSPost2010PropOp38
 70
     1
102
RTVSPost2010Prop39
140
1.0
102
RTVSPost2010PropOp39
 70
     1
102
RTVSPost2010Prop40
 90
        0
102
RTVSPost2010PropOp40
 70
     1
102
RTVSPost2010Prop41ColorIndex
 90
       18
102
RTVSPost2010Prop41ColorRGB
 90
        0
102
RTVSPost2010PropOp41
 70
     1
102
RTVSPost2010Prop42
 90
       50
102
RTVSPost2010PropOp42
 70
     1
102
RTVSPost2010Prop43
 90
        3
102
RTVSPost2010PropOp43
 70
     1
102
RTVSPost2010Prop44ColorIndex
 90
        5
102
RTVSPost2010Prop44ColorRGB
 90
      255
102
RTVSPost2010PropOp44
 70
     1
102
RTVSPost2010Prop45
280
     0
102
RTVSPost2010PropOp45
 70
     1
102
RTVSPost2010Prop46
 90
       50
102
RTVSPost2010PropOp46
 70
     1
102
RTVSPost2010Prop47
 90
       50
102
RTVSPost2010PropOp47
 70
     1
102
RTVSPost2010Prop48
 90
       50
102
RTVSPost2010PropOp48
 70
     1
102
RTVSPost2010Prop49
280
     0
102
RTVSPost2010PropOp49
 70
     1
102
RTVSPost2010Prop50
 90
       50
102
RTVSPost2010PropOp50
 70
     1
102
RTVSPost2010Prop51ColorIndex
 90
      256
102
RTVSPost2010Prop51ColorRGB
 90
-16777216
102
RTVSPost2010PropOp51
 70
     0
102
RTVSPost2010Prop52
140
1.0
102
RTVSPost2010PropOp52
 70
     0
102
RTVSPost2010Prop53
 90
        2
102
RTVSPost2010PropOp53
 70
     1
102
RTVSPost2010Prop54
  1
strokes_ogs.tif
102
RTVSPost2010PropOp54
 70
     1
102
RTVSPost2010Prop55
280
     0
102
RTVSPost2010PropOp55
 70
     1
102
RTVSPost2010Prop56
140
1.0
102
RTVSPost2010PropOp56
 70
     1
102
RTVSPost2010Prop57
140
1.0
102
RTVSPost2010PropOp57
 70
     1
102
RTVSPropertyOp0
 70
     1
102
RTVSPropertyOp1
 70
     1
102
RTVSPropertyOp2
 70
     1
102
RTVSPropertyOp3
 70
     1
102
RTVSPropertyOp4
 70
     1
102
RTVSPropertyOp5
 70
     1
102
RTVSPropertyOp6
 70
     1
102
RTVSPropertyOp7
 70
     1
102
RTVSPropertyOp8
 70
     1
102
RTVSPropertyOp9
 70
     1
102
RTVSPropertyOp10
 70
     1
102
RTVSPropertyOp11
 70
     1
102
RTVSPropertyOp12
 70
     1
102
RTVSPropertyOp13
 70
     1
102
RTVSPropertyOp14
 70
     1
102
RTVSPropertyOp15
 70
     1
102
RTVSPropertyOp16
 70
     1
102
RTVSPropertyOp17
 70
     1
102
RTVSPropertyOp18
 70
     1
102
RTVSPropertyOp19
 70
     1
102
RTVSPropertyOp20
 70
     1
102
RTVSPropertyOp21
 70
     1
102
RTVSPropertyOp22
 70
     1
102
RTVSPropertyOp23
 70
     1
102
RTVSPropertyOp24
 70
     1
102
RTVSPropertyOp25
 70
     1
102
RTVSPropertyOp26
 70
     1
102
RTVSPropertyOp27
 70
     1
102
RTVSPropertyOp28
 70
     1
102
RTVSPropertyOp29
 70
     1
102
RTVSPropertyOp30
 70
     1
102
RTVSPropertyOp31
 70
     1
102
RTVSPropertyOp32
 70
     1
102
RTVSPropertyOp33
 70
     1
102
RTVSPropertyOp34
 70
     1
102
RTVSPropertyOp35
 70
     1
102
RTVSPropertyOp36
 70
     1
102
RTVSPropertyOp37
 70
     1
102
RTVSPropertyOp38
 70
     1
102
RTVSPropertyOp39
 70
     1
102
RTVSPropertyOp40
 70
     1
102
RTVSPropertyOp41
 70
     1
102
RTVSPropertyOp42
 70
     1
102
RTVSPropertyOp43
 70
     1
102
RTVSPropertyOp44
 70
     1
102
RTVSPropertyOp45
 70
     1
102
RTVSPropertyOp46
 70
     1
102
RTVSPropertyOp47
 70
     1
102
RTVSPropertyOp48
 70
     1
102
RTVSPropertyOp49
 70
     1
102
RTVSPropertyOp50
 70
     1
102
RTVSPropertyOp51
 70
     0
102
RTVSPropertyOp52
 70
     0
102
RTVSPropertyOp53
 70
     1
102
RTVSPropertyOp54
 70
     1
102
RTVSPropertyOp55
 70
     1
102
RTVSPropertyOp56
 70
     1
102
RTVSPropertyOp57
 70
     1
102
RTVSPropertyOp58
 70
     1
102
RTVSPropertyOp59
 70
     1
102
RTVSPropertyOp60
 70
     1
102
RTVSPropertyOp61
 70
     1
102
RTVSPropertyOp62
 70
     1
  0
XRECORD
  5
9E75
102
{ACAD_REACTORS
330
9E74
102
}
330
9E74
100
AcDbXrecord
280
     1
102
RTVSPost2010Prop28
280
     0
102
RTVSPost2010PropOp28
 70
     1
102
RTVSPost2010Prop29
280
     1
102
RTVSPost2010PropOp29
 70
     1
102
RTVSPost2010Prop30
280
     1
102
RTVSPost2010PropOp30
 70
     1
102
RTVSPost2010Prop31
280
     0
102
RTVSPost2010PropOp31
 70
     1
102
RTVSPost2010Prop32
280
     0
102
RTVSPost2010PropOp32
 70
     1
102
RTVSPost2010Prop33
280
     0
102
RTVSPost2010PropOp33
 70
     1
102
RTVSPost2010Prop34
280
     0
102
RTVSPost2010PropOp34
 70
     1
102
RTVSPost2010Prop35
280
     0
102
RTVSPost2010PropOp35
 70
     1
102
RTVSPost2010Prop36
280
     0
102
RTVSPost2010PropOp36
 70
     1
102
RTVSPost2010Prop37
 90
       50
102
RTVSPost2010PropOp37
 70
     1
102
RTVSPost2010Prop38
140
0.0
102
RTVSPost2010PropOp38
 70
     1
102
RTVSPost2010Prop39
140
1.0
102
RTVSPost2010PropOp39
 70
     1
102
RTVSPost2010Prop40
 90
        0
102
RTVSPost2010PropOp40
 70
     1
102
RTVSPost2010Prop41ColorIndex
 90
       18
102
RTVSPost2010Prop41ColorRGB
 90
        0
102
RTVSPost2010PropOp41
 70
     1
102
RTVSPost2010Prop42
 90
       50
102
RTVSPost2010PropOp42
 70
     1
102
RTVSPost2010Prop43
 90
        3
102
RTVSPost2010PropOp43
 70
     1
102
RTVSPost2010Prop44ColorIndex
 90
        5
102
RTVSPost2010Prop44ColorRGB
 90
      255
102
RTVSPost2010PropOp44
 70
     1
102
RTVSPost2010Prop45
280
     0
102
RTVSPost2010PropOp45
 70
     1
102
RTVSPost2010Prop46
 90
       50
102
RTVSPost2010PropOp46
 70
     1
102
RTVSPost2010Prop47
 90
       50
102
RTVSPost2010PropOp47
 70
     1
102
RTVSPost2010Prop48
 90
       50
102
RTVSPost2010PropOp48
 70
     1
102
RTVSPost2010Prop49
280
     0
102
RTVSPost2010PropOp49
 70
     1
102
RTVSPost2010Prop50
 90
       50
102
RTVSPost2010PropOp50
 70
     1
102
RTVSPost2010Prop51ColorIndex
 90
      256
102
RTVSPost2010Prop51ColorRGB
 90
-16777216
102
RTVSPost2010PropOp51
 70
     0
102
RTVSPost2010Prop52
140
1.0
102
RTVSPost2010PropOp52
 70
     0
102
RTVSPost2010Prop53
 90
        2
102
RTVSPost2010PropOp53
 70
     1
102
RTVSPost2010Prop54
  1
strokes_ogs.tif
102
RTVSPost2010PropOp54
 70
     1
102
RTVSPost2010Prop55
280
     0
102
RTVSPost2010PropOp55
 70
     1
102
RTVSPost2010Prop56
140
1.0
102
RTVSPost2010PropOp56
 70
     1
102
RTVSPost2010Prop57
140
1.0
102
RTVSPost2010PropOp57
 70
     1
102
RTVSPropertyOp0
 70
     1
102
RTVSPropertyOp1
 70
     1
102
RTVSPropertyOp2
 70
     1
102
RTVSPropertyOp3
 70
     1
102
RTVSPropertyOp4
 70
     1
102
RTVSPropertyOp5
 70
     1
102
RTVSPropertyOp6
 70
     1
102
RTVSPropertyOp7
 70
     1
102
RTVSPropertyOp8
 70
     1
102
RTVSPropertyOp9
 70
     1
102
RTVSPropertyOp10
 70
     1
102
RTVSPropertyOp11
 70
     1
102
RTVSPropertyOp12
 70
     1
102
RTVSPropertyOp13
 70
     1
102
RTVSPropertyOp14
 70
     1
102
RTVSPropertyOp15
 70
     1
102
RTVSPropertyOp16
 70
     1
102
RTVSPropertyOp17
 70
     1
102
RTVSPropertyOp18
 70
     1
102
RTVSPropertyOp19
 70
     1
102
RTVSPropertyOp20
 70
     1
102
RTVSPropertyOp21
 70
     1
102
RTVSPropertyOp22
 70
     1
102
RTVSPropertyOp23
 70
     1
102
RTVSPropertyOp24
 70
     1
102
RTVSPropertyOp25
 70
     1
102
RTVSPropertyOp26
 70
     1
102
RTVSPropertyOp27
 70
     1
102
RTVSPropertyOp28
 70
     1
102
RTVSPropertyOp29
 70
     1
102
RTVSPropertyOp30
 70
     1
102
RTVSPropertyOp31
 70
     1
102
RTVSPropertyOp32
 70
     1
102
RTVSPropertyOp33
 70
     1
102
RTVSPropertyOp34
 70
     1
102
RTVSPropertyOp35
 70
     1
102
RTVSPropertyOp36
 70
     1
102
RTVSPropertyOp37
 70
     1
102
RTVSPropertyOp38
 70
     1
102
RTVSPropertyOp39
 70
     1
102
RTVSPropertyOp40
 70
     1
102
RTVSPropertyOp41
 70
     1
102
RTVSPropertyOp42
 70
     1
102
RTVSPropertyOp43
 70
     1
102
RTVSPropertyOp44
 70
     1
102
RTVSPropertyOp45
 70
     1
102
RTVSPropertyOp46
 70
     1
102
RTVSPropertyOp47
 70
     1
102
RTVSPropertyOp48
 70
     1
102
RTVSPropertyOp49
 70
     1
102
RTVSPropertyOp50
 70
     1
102
RTVSPropertyOp51
 70
     0
102
RTVSPropertyOp52
 70
     0
102
RTVSPropertyOp53
 70
     1
102
RTVSPropertyOp54
 70
     1
102
RTVSPropertyOp55
 70
     1
102
RTVSPropertyOp56
 70
     1
102
RTVSPropertyOp57
 70
     1
102
RTVSPropertyOp58
 70
     1
102
RTVSPropertyOp59
 70
     1
102
RTVSPropertyOp60
 70
     1
102
RTVSPropertyOp61
 70
     1
102
RTVSPropertyOp62
 70
     1
  0
XRECORD
  5
9E77
102
{ACAD_REACTORS
330
9E76
102
}
330
9E76
100
AcDbXrecord
280
     1
102
RTVSPost2010Prop28
280
     0
102
RTVSPost2010PropOp28
 70
     1
102
RTVSPost2010Prop29
280
     1
102
RTVSPost2010PropOp29
 70
     1
102
RTVSPost2010Prop30
280
     1
102
RTVSPost2010PropOp30
 70
     1
102
RTVSPost2010Prop31
280
     0
102
RTVSPost2010PropOp31
 70
     1
102
RTVSPost2010Prop32
280
     0
102
RTVSPost2010PropOp32
 70
     1
102
RTVSPost2010Prop33
280
     0
102
RTVSPost2010PropOp33
 70
     1
102
RTVSPost2010Prop34
280
     0
102
RTVSPost2010PropOp34
 70
     1
102
RTVSPost2010Prop35
280
     0
102
RTVSPost2010PropOp35
 70
     1
102
RTVSPost2010Prop36
280
     0
102
RTVSPost2010PropOp36
 70
     1
102
RTVSPost2010Prop37
 90
       50
102
RTVSPost2010PropOp37
 70
     1
102
RTVSPost2010Prop38
140
0.0
102
RTVSPost2010PropOp38
 70
     1
102
RTVSPost2010Prop39
140
1.0
102
RTVSPost2010PropOp39
 70
     1
102
RTVSPost2010Prop40
 90
        0
102
RTVSPost2010PropOp40
 70
     1
102
RTVSPost2010Prop41ColorIndex
 90
       18
102
RTVSPost2010Prop41ColorRGB
 90
        0
102
RTVSPost2010PropOp41
 70
     1
102
RTVSPost2010Prop42
 90
       50
102
RTVSPost2010PropOp42
 70
     1
102
RTVSPost2010Prop43
 90
        3
102
RTVSPost2010PropOp43
 70
     1
102
RTVSPost2010Prop44ColorIndex
 90
        5
102
RTVSPost2010Prop44ColorRGB
 90
      255
102
RTVSPost2010PropOp44
 70
     1
102
RTVSPost2010Prop45
280
     0
102
RTVSPost2010PropOp45
 70
     1
102
RTVSPost2010Prop46
 90
       50
102
RTVSPost2010PropOp46
 70
     1
102
RTVSPost2010Prop47
 90
       50
102
RTVSPost2010PropOp47
 70
     1
102
RTVSPost2010Prop48
 90
       50
102
RTVSPost2010PropOp48
 70
     1
102
RTVSPost2010Prop49
280
     0
102
RTVSPost2010PropOp49
 70
     1
102
RTVSPost2010Prop50
 90
       50
102
RTVSPost2010PropOp50
 70
     1
102
RTVSPost2010Prop51ColorIndex
 90
      256
102
RTVSPost2010Prop51ColorRGB
 90
-16777216
102
RTVSPost2010PropOp51
 70
     0
102
RTVSPost2010Prop52
140
1.0
102
RTVSPost2010PropOp52
 70
     0
102
RTVSPost2010Prop53
 90
        2
102
RTVSPost2010PropOp53
 70
     1
102
RTVSPost2010Prop54
  1
strokes_ogs.tif
102
RTVSPost2010PropOp54
 70
     1
102
RTVSPost2010Prop55
280
     0
102
RTVSPost2010PropOp55
 70
     1
102
RTVSPost2010Prop56
140
1.0
102
RTVSPost2010PropOp56
 70
     1
102
RTVSPost2010Prop57
140
1.0
102
RTVSPost2010PropOp57
 70
     1
102
RTVSPropertyOp0
 70
     1
102
RTVSPropertyOp1
 70
     1
102
RTVSPropertyOp2
 70
     1
102
RTVSPropertyOp3
 70
     1
102
RTVSPropertyOp4
 70
     1
102
RTVSPropertyOp5
 70
     1
102
RTVSPropertyOp6
 70
     1
102
RTVSPropertyOp7
 70
     1
102
RTVSPropertyOp8
 70
     1
102
RTVSPropertyOp9
 70
     1
102
RTVSPropertyOp10
 70
     1
102
RTVSPropertyOp11
 70
     1
102
RTVSPropertyOp12
 70
     1
102
RTVSPropertyOp13
 70
     1
102
RTVSPropertyOp14
 70
     1
102
RTVSPropertyOp15
 70
     1
102
RTVSPropertyOp16
 70
     1
102
RTVSPropertyOp17
 70
     1
102
RTVSPropertyOp18
 70
     1
102
RTVSPropertyOp19
 70
     1
102
RTVSPropertyOp20
 70
     1
102
RTVSPropertyOp21
 70
     1
102
RTVSPropertyOp22
 70
     1
102
RTVSPropertyOp23
 70
     1
102
RTVSPropertyOp24
 70
     1
102
RTVSPropertyOp25
 70
     1
102
RTVSPropertyOp26
 70
     1
102
RTVSPropertyOp27
 70
     1
102
RTVSPropertyOp28
 70
     1
102
RTVSPropertyOp29
 70
     1
102
RTVSPropertyOp30
 70
     1
102
RTVSPropertyOp31
 70
     1
102
RTVSPropertyOp32
 70
     1
102
RTVSPropertyOp33
 70
     1
102
RTVSPropertyOp34
 70
     1
102
RTVSPropertyOp35
 70
     1
102
RTVSPropertyOp36
 70
     1
102
RTVSPropertyOp37
 70
     1
102
RTVSPropertyOp38
 70
     1
102
RTVSPropertyOp39
 70
     1
102
RTVSPropertyOp40
 70
     1
102
RTVSPropertyOp41
 70
     1
102
RTVSPropertyOp42
 70
     1
102
RTVSPropertyOp43
 70
     1
102
RTVSPropertyOp44
 70
     1
102
RTVSPropertyOp45
 70
     1
102
RTVSPropertyOp46
 70
     1
102
RTVSPropertyOp47
 70
     1
102
RTVSPropertyOp48
 70
     1
102
RTVSPropertyOp49
 70
     1
102
RTVSPropertyOp50
 70
     1
102
RTVSPropertyOp51
 70
     0
102
RTVSPropertyOp52
 70
     0
102
RTVSPropertyOp53
 70
     1
102
RTVSPropertyOp54
 70
     1
102
RTVSPropertyOp55
 70
     1
102
RTVSPropertyOp56
 70
     1
102
RTVSPropertyOp57
 70
     1
102
RTVSPropertyOp58
 70
     1
102
RTVSPropertyOp59
 70
     1
102
RTVSPropertyOp60
 70
     1
102
RTVSPropertyOp61
 70
     1
102
RTVSPropertyOp62
 70
     1
  0
XRECORD
  5
9E79
102
{ACAD_REACTORS
330
9E78
102
}
330
9E78
100
AcDbXrecord
280
     1
102
RTVSPost2010Prop28
280
     0
102
RTVSPost2010PropOp28
 70
     1
102
RTVSPost2010Prop29
280
     1
102
RTVSPost2010PropOp29
 70
     1
102
RTVSPost2010Prop30
280
     1
102
RTVSPost2010PropOp30
 70
     1
102
RTVSPost2010Prop31
280
     0
102
RTVSPost2010PropOp31
 70
     1
102
RTVSPost2010Prop32
280
     0
102
RTVSPost2010PropOp32
 70
     1
102
RTVSPost2010Prop33
280
     0
102
RTVSPost2010PropOp33
 70
     1
102
RTVSPost2010Prop34
280
     0
102
RTVSPost2010PropOp34
 70
     1
102
RTVSPost2010Prop35
280
     0
102
RTVSPost2010PropOp35
 70
     1
102
RTVSPost2010Prop36
280
     0
102
RTVSPost2010PropOp36
 70
     1
102
RTVSPost2010Prop37
 90
       50
102
RTVSPost2010PropOp37
 70
     1
102
RTVSPost2010Prop38
140
0.0
102
RTVSPost2010PropOp38
 70
     1
102
RTVSPost2010Prop39
140
1.0
102
RTVSPost2010PropOp39
 70
     1
102
RTVSPost2010Prop40
 90
        0
102
RTVSPost2010PropOp40
 70
     1
102
RTVSPost2010Prop41ColorIndex
 90
       18
102
RTVSPost2010Prop41ColorRGB
 90
        0
102
RTVSPost2010PropOp41
 70
     1
102
RTVSPost2010Prop42
 90
       50
102
RTVSPost2010PropOp42
 70
     1
102
RTVSPost2010Prop43
 90
        3
102
RTVSPost2010PropOp43
 70
     1
102
RTVSPost2010Prop44ColorIndex
 90
        5
102
RTVSPost2010Prop44ColorRGB
 90
      255
102
RTVSPost2010PropOp44
 70
     1
102
RTVSPost2010Prop45
280
     0
102
RTVSPost2010PropOp45
 70
     1
102
RTVSPost2010Prop46
 90
       50
102
RTVSPost2010PropOp46
 70
     1
102
RTVSPost2010Prop47
 90
       50
102
RTVSPost2010PropOp47
 70
     1
102
RTVSPost2010Prop48
 90
       50
102
RTVSPost2010PropOp48
 70
     1
102
RTVSPost2010Prop49
280
     0
102
RTVSPost2010PropOp49
 70
     1
102
RTVSPost2010Prop50
 90
       50
102
RTVSPost2010PropOp50
 70
     1
102
RTVSPost2010Prop51ColorIndex
 90
      256
102
RTVSPost2010Prop51ColorRGB
 90
-16777216
102
RTVSPost2010PropOp51
 70
     0
102
RTVSPost2010Prop52
140
1.0
102
RTVSPost2010PropOp52
 70
     0
102
RTVSPost2010Prop53
 90
        2
102
RTVSPost2010PropOp53
 70
     1
102
RTVSPost2010Prop54
  1
strokes_ogs.tif
102
RTVSPost2010PropOp54
 70
     1
102
RTVSPost2010Prop55
280
     0
102
RTVSPost2010PropOp55
 70
     1
102
RTVSPost2010Prop56
140
1.0
102
RTVSPost2010PropOp56
 70
     1
102
RTVSPost2010Prop57
140
1.0
102
RTVSPost2010PropOp57
 70
     1
102
RTVSPropertyOp0
 70
     1
102
RTVSPropertyOp1
 70
     1
102
RTVSPropertyOp2
 70
     1
102
RTVSPropertyOp3
 70
     1
102
RTVSPropertyOp4
 70
     1
102
RTVSPropertyOp5
 70
     1
102
RTVSPropertyOp6
 70
     1
102
RTVSPropertyOp7
 70
     1
102
RTVSPropertyOp8
 70
     1
102
RTVSPropertyOp9
 70
     1
102
RTVSPropertyOp10
 70
     1
102
RTVSPropertyOp11
 70
     1
102
RTVSPropertyOp12
 70
     1
102
RTVSPropertyOp13
 70
     1
102
RTVSPropertyOp14
 70
     1
102
RTVSPropertyOp15
 70
     1
102
RTVSPropertyOp16
 70
     1
102
RTVSPropertyOp17
 70
     1
102
RTVSPropertyOp18
 70
     1
102
RTVSPropertyOp19
 70
     1
102
RTVSPropertyOp20
 70
     1
102
RTVSPropertyOp21
 70
     1
102
RTVSPropertyOp22
 70
     1
102
RTVSPropertyOp23
 70
     1
102
RTVSPropertyOp24
 70
     1
102
RTVSPropertyOp25
 70
     1
102
RTVSPropertyOp26
 70
     1
102
RTVSPropertyOp27
 70
     1
102
RTVSPropertyOp28
 70
     1
102
RTVSPropertyOp29
 70
     1
102
RTVSPropertyOp30
 70
     1
102
RTVSPropertyOp31
 70
     1
102
RTVSPropertyOp32
 70
     1
102
RTVSPropertyOp33
 70
     1
102
RTVSPropertyOp34
 70
     1
102
RTVSPropertyOp35
 70
     1
102
RTVSPropertyOp36
 70
     1
102
RTVSPropertyOp37
 70
     1
102
RTVSPropertyOp38
 70
     1
102
RTVSPropertyOp39
 70
     1
102
RTVSPropertyOp40
 70
     1
102
RTVSPropertyOp41
 70
     1
102
RTVSPropertyOp42
 70
     1
102
RTVSPropertyOp43
 70
     1
102
RTVSPropertyOp44
 70
     1
102
RTVSPropertyOp45
 70
     1
102
RTVSPropertyOp46
 70
     1
102
RTVSPropertyOp47
 70
     1
102
RTVSPropertyOp48
 70
     1
102
RTVSPropertyOp49
 70
     1
102
RTVSPropertyOp50
 70
     1
102
RTVSPropertyOp51
 70
     0
102
RTVSPropertyOp52
 70
     0
102
RTVSPropertyOp53
 70
     1
102
RTVSPropertyOp54
 70
     1
102
RTVSPropertyOp55
 70
     1
102
RTVSPropertyOp56
 70
     1
102
RTVSPropertyOp57
 70
     1
102
RTVSPropertyOp58
 70
     1
102
RTVSPropertyOp59
 70
     1
102
RTVSPropertyOp60
 70
     1
102
RTVSPropertyOp61
 70
     1
102
RTVSPropertyOp62
 70
     1
  0
XRECORD
  5
9E81
102
{ACAD_REACTORS
330
9E80
102
}
330
9E80
100
AcDbXrecord
280
     1
102
RTVSPost2010Prop28
280
     0
102
RTVSPost2010PropOp28
 70
     1
102
RTVSPost2010Prop29
280
     1
102
RTVSPost2010PropOp29
 70
     1
102
RTVSPost2010Prop30
280
     1
102
RTVSPost2010PropOp30
 70
     1
102
RTVSPost2010Prop31
280
     0
102
RTVSPost2010PropOp31
 70
     1
102
RTVSPost2010Prop32
280
     0
102
RTVSPost2010PropOp32
 70
     1
102
RTVSPost2010Prop33
280
     0
102
RTVSPost2010PropOp33
 70
     1
102
RTVSPost2010Prop34
280
     0
102
RTVSPost2010PropOp34
 70
     1
102
RTVSPost2010Prop35
280
     0
102
RTVSPost2010PropOp35
 70
     1
102
RTVSPost2010Prop36
280
     0
102
RTVSPost2010PropOp36
 70
     1
102
RTVSPost2010Prop37
 90
       50
102
RTVSPost2010PropOp37
 70
     1
102
RTVSPost2010Prop38
140
0.0
102
RTVSPost2010PropOp38
 70
     1
102
RTVSPost2010Prop39
140
1.0
102
RTVSPost2010PropOp39
 70
     1
102
RTVSPost2010Prop40
 90
        0
102
RTVSPost2010PropOp40
 70
     1
102
RTVSPost2010Prop41ColorIndex
 90
       18
102
RTVSPost2010Prop41ColorRGB
 90
        0
102
RTVSPost2010PropOp41
 70
     1
102
RTVSPost2010Prop42
 90
       50
102
RTVSPost2010PropOp42
 70
     1
102
RTVSPost2010Prop43
 90
        3
102
RTVSPost2010PropOp43
 70
     1
102
RTVSPost2010Prop44ColorIndex
 90
        5
102
RTVSPost2010Prop44ColorRGB
 90
      255
102
RTVSPost2010PropOp44
 70
     1
102
RTVSPost2010Prop45
280
     0
102
RTVSPost2010PropOp45
 70
     1
102
RTVSPost2010Prop46
 90
       50
102
RTVSPost2010PropOp46
 70
     1
102
RTVSPost2010Prop47
 90
       50
102
RTVSPost2010PropOp47
 70
     1
102
RTVSPost2010Prop48
 90
       50
102
RTVSPost2010PropOp48
 70
     1
102
RTVSPost2010Prop49
280
     0
102
RTVSPost2010PropOp49
 70
     1
102
RTVSPost2010Prop50
 90
       50
102
RTVSPost2010PropOp50
 70
     1
102
RTVSPost2010Prop51ColorIndex
 90
      256
102
RTVSPost2010Prop51ColorRGB
 90
-16777216
102
RTVSPost2010PropOp51
 70
     0
102
RTVSPost2010Prop52
140
1.0
102
RTVSPost2010PropOp52
 70
     0
102
RTVSPost2010Prop53
 90
        2
102
RTVSPost2010PropOp53
 70
     1
102
RTVSPost2010Prop54
  1
strokes_ogs.tif
102
RTVSPost2010PropOp54
 70
     1
102
RTVSPost2010Prop55
280
     0
102
RTVSPost2010PropOp55
 70
     1
102
RTVSPost2010Prop56
140
1.0
102
RTVSPost2010PropOp56
 70
     1
102
RTVSPost2010Prop57
140
1.0
102
RTVSPost2010PropOp57
 70
     1
102
RTVSPropertyOp0
 70
     1
102
RTVSPropertyOp1
 70
     1
102
RTVSPropertyOp2
 70
     1
102
RTVSPropertyOp3
 70
     1
102
RTVSPropertyOp4
 70
     1
102
RTVSPropertyOp5
 70
     1
102
RTVSPropertyOp6
 70
     1
102
RTVSPropertyOp7
 70
     1
102
RTVSPropertyOp8
 70
     1
102
RTVSPropertyOp9
 70
     1
102
RTVSPropertyOp10
 70
     1
102
RTVSPropertyOp11
 70
     1
102
RTVSPropertyOp12
 70
     1
102
RTVSPropertyOp13
 70
     1
102
RTVSPropertyOp14
 70
     1
102
RTVSPropertyOp15
 70
     1
102
RTVSPropertyOp16
 70
     1
102
RTVSPropertyOp17
 70
     1
102
RTVSPropertyOp18
 70
     1
102
RTVSPropertyOp19
 70
     1
102
RTVSPropertyOp20
 70
     1
102
RTVSPropertyOp21
 70
     1
102
RTVSPropertyOp22
 70
     1
102
RTVSPropertyOp23
 70
     1
102
RTVSPropertyOp24
 70
     1
102
RTVSPropertyOp25
 70
     1
102
RTVSPropertyOp26
 70
     1
102
RTVSPropertyOp27
 70
     1
102
RTVSPropertyOp28
 70
     1
102
RTVSPropertyOp29
 70
     1
102
RTVSPropertyOp30
 70
     1
102
RTVSPropertyOp31
 70
     1
102
RTVSPropertyOp32
 70
     1
102
RTVSPropertyOp33
 70
     1
102
RTVSPropertyOp34
 70
     1
102
RTVSPropertyOp35
 70
     1
102
RTVSPropertyOp36
 70
     1
102
RTVSPropertyOp37
 70
     1
102
RTVSPropertyOp38
 70
     1
102
RTVSPropertyOp39
 70
     1
102
RTVSPropertyOp40
 70
     1
102
RTVSPropertyOp41
 70
     1
102
RTVSPropertyOp42
 70
     1
102
RTVSPropertyOp43
 70
     1
102
RTVSPropertyOp44
 70
     1
102
RTVSPropertyOp45
 70
     1
102
RTVSPropertyOp46
 70
     1
102
RTVSPropertyOp47
 70
     1
102
RTVSPropertyOp48
 70
     1
102
RTVSPropertyOp49
 70
     1
102
RTVSPropertyOp50
 70
     1
102
RTVSPropertyOp51
 70
     0
102
RTVSPropertyOp52
 70
     0
102
RTVSPropertyOp53
 70
     1
102
RTVSPropertyOp54
 70
     1
102
RTVSPropertyOp55
 70
     1
102
RTVSPropertyOp56
 70
     1
102
RTVSPropertyOp57
 70
     1
102
RTVSPropertyOp58
 70
     1
102
RTVSPropertyOp59
 70
     1
102
RTVSPropertyOp60
 70
     1
102
RTVSPropertyOp61
 70
     1
102
RTVSPropertyOp62
 70
     1
  0
XRECORD
  5
9E9D
102
{ACAD_REACTORS
330
9E9C
102
}
330
9E9C
100
AcDbXrecord
280
     1
102
RTVSPost2010Prop28
280
     0
102
RTVSPost2010PropOp28
 70
     1
102
RTVSPost2010Prop29
280
     1
102
RTVSPost2010PropOp29
 70
     1
102
RTVSPost2010Prop30
280
     1
102
RTVSPost2010PropOp30
 70
     1
102
RTVSPost2010Prop31
280
     0
102
RTVSPost2010PropOp31
 70
     1
102
RTVSPost2010Prop32
280
     0
102
RTVSPost2010PropOp32
 70
     1
102
RTVSPost2010Prop33
280
     0
102
RTVSPost2010PropOp33
 70
     1
102
RTVSPost2010Prop34
280
     0
102
RTVSPost2010PropOp34
 70
     1
102
RTVSPost2010Prop35
280
     0
102
RTVSPost2010PropOp35
 70
     1
102
RTVSPost2010Prop36
280
     0
102
RTVSPost2010PropOp36
 70
     1
102
RTVSPost2010Prop37
 90
       50
102
RTVSPost2010PropOp37
 70
     0
102
RTVSPost2010Prop38
140
0.0
102
RTVSPost2010PropOp38
 70
     0
102
RTVSPost2010Prop39
140
1.0
102
RTVSPost2010PropOp39
 70
     0
102
RTVSPost2010Prop40
 90
        0
102
RTVSPost2010PropOp40
 70
     0
102
RTVSPost2010Prop41ColorIndex
 90
       18
102
RTVSPost2010Prop41ColorRGB
 90
        0
102
RTVSPost2010PropOp41
 70
     0
102
RTVSPost2010Prop42
 90
       50
102
RTVSPost2010PropOp42
 70
     0
102
RTVSPost2010Prop43
 90
        3
102
RTVSPost2010PropOp43
 70
     0
102
RTVSPost2010Prop44ColorIndex
 90
        5
102
RTVSPost2010Prop44ColorRGB
 90
      255
102
RTVSPost2010PropOp44
 70
     0
102
RTVSPost2010Prop45
280
     0
102
RTVSPost2010PropOp45
 70
     1
102
RTVSPost2010Prop46
 90
       50
102
RTVSPost2010PropOp46
 70
     0
102
RTVSPost2010Prop47
 90
       50
102
RTVSPost2010PropOp47
 70
     0
102
RTVSPost2010Prop48
 90
       50
102
RTVSPost2010PropOp48
 70
     0
102
RTVSPost2010Prop49
280
     0
102
RTVSPost2010PropOp49
 70
     1
102
RTVSPost2010Prop50
 90
       50
102
RTVSPost2010PropOp50
 70
     0
102
RTVSPost2010Prop51ColorIndex
 90
      256
102
RTVSPost2010Prop51ColorRGB
 90
-16777216
102
RTVSPost2010PropOp51
 70
     0
102
RTVSPost2010Prop52
140
1.0
102
RTVSPost2010PropOp52
 70
     0
102
RTVSPost2010Prop53
 90
        2
102
RTVSPost2010PropOp53
 70
     0
102
RTVSPost2010Prop54
  1
strokes_ogs.tif
102
RTVSPost2010PropOp54
 70
     0
102
RTVSPost2010Prop55
280
     0
102
RTVSPost2010PropOp55
 70
     1
102
RTVSPost2010Prop56
140
1.0
102
RTVSPost2010PropOp56
 70
     0
102
RTVSPost2010Prop57
140
1.0
102
RTVSPost2010PropOp57
 70
     0
102
RTVSPropertyOp0
 70
     0
102
RTVSPropertyOp1
 70
     0
102
RTVSPropertyOp2
 70
     0
102
RTVSPropertyOp3
 70
     0
102
RTVSPropertyOp4
 70
     0
102
RTVSPropertyOp5
 70
     0
102
RTVSPropertyOp6
 70
     0
102
RTVSPropertyOp7
 70
     0
102
RTVSPropertyOp8
 70
     0
102
RTVSPropertyOp9
 70
     0
102
RTVSPropertyOp10
 70
     0
102
RTVSPropertyOp11
 70
     0
102
RTVSPropertyOp12
 70
     0
102
RTVSPropertyOp13
 70
     0
102
RTVSPropertyOp14
 70
     2
102
RTVSPropertyOp15
 70
     0
102
RTVSPropertyOp16
 70
     0
102
RTVSPropertyOp17
 70
     0
102
RTVSPropertyOp18
 70
     0
102
RTVSPropertyOp19
 70
     0
102
RTVSPropertyOp20
 70
     0
102
RTVSPropertyOp21
 70
     0
102
RTVSPropertyOp22
 70
     0
102
RTVSPropertyOp23
 70
     0
102
RTVSPropertyOp24
 70
     0
102
RTVSPropertyOp25
 70
     0
102
RTVSPropertyOp26
 70
     0
102
RTVSPropertyOp27
 70
     0
102
RTVSPropertyOp28
 70
     1
102
RTVSPropertyOp29
 70
     1
102
RTVSPropertyOp30
 70
     1
102
RTVSPropertyOp31
 70
     1
102
RTVSPropertyOp32
 70
     1
102
RTVSPropertyOp33
 70
     1
102
RTVSPropertyOp34
 70
     1
102
RTVSPropertyOp35
 70
     1
102
RTVSPropertyOp36
 70
     1
102
RTVSPropertyOp37
 70
     0
102
RTVSPropertyOp38
 70
     0
102
RTVSPropertyOp39
 70
     0
102
RTVSPropertyOp40
 70
     0
102
RTVSPropertyOp41
 70
     0
102
RTVSPropertyOp42
 70
     0
102
RTVSPropertyOp43
 70
     0
102
RTVSPropertyOp44
 70
     0
102
RTVSPropertyOp45
 70
     1
102
RTVSPropertyOp46
 70
     0
102
RTVSPropertyOp47
 70
     0
102
RTVSPropertyOp48
 70
     0
102
RTVSPropertyOp49
 70
     1
102
RTVSPropertyOp50
 70
     0
102
RTVSPropertyOp51
 70
     0
102
RTVSPropertyOp52
 70
     0
102
RTVSPropertyOp53
 70
     0
102
RTVSPropertyOp54
 70
     0
102
RTVSPropertyOp55
 70
     1
102
RTVSPropertyOp56
 70
     0
102
RTVSPropertyOp57
 70
     0
102
RTVSPropertyOp58
 70
     0
102
RTVSPropertyOp59
 70
     0
102
RTVSPropertyOp60
 70
     0
102
RTVSPropertyOp61
 70
     0
102
RTVSPropertyOp62
 70
     0
  0
XRECORD
  5
9E8D
102
{ACAD_REACTORS
330
9E8C
102
}
330
9E8C
100
AcDbXrecord
280
     1
102
RTVSPost2010Prop28
280
     0
102
RTVSPost2010PropOp28
 70
     1
102
RTVSPost2010Prop29
280
     1
102
RTVSPost2010PropOp29
 70
     1
102
RTVSPost2010Prop30
280
     1
102
RTVSPost2010PropOp30
 70
     1
102
RTVSPost2010Prop31
280
     0
102
RTVSPost2010PropOp31
 70
     1
102
RTVSPost2010Prop32
280
     0
102
RTVSPost2010PropOp32
 70
     1
102
RTVSPost2010Prop33
280
     0
102
RTVSPost2010PropOp33
 70
     1
102
RTVSPost2010Prop34
280
     0
102
RTVSPost2010PropOp34
 70
     1
102
RTVSPost2010Prop35
280
     0
102
RTVSPost2010PropOp35
 70
     1
102
RTVSPost2010Prop36
280
     0
102
RTVSPost2010PropOp36
 70
     1
102
RTVSPost2010Prop37
 90
       50
102
RTVSPost2010PropOp37
 70
     1
102
RTVSPost2010Prop38
140
0.0
102
RTVSPost2010PropOp38
 70
     1
102
RTVSPost2010Prop39
140
1.0
102
RTVSPost2010PropOp39
 70
     1
102
RTVSPost2010Prop40
 90
        0
102
RTVSPost2010PropOp40
 70
     1
102
RTVSPost2010Prop41ColorIndex
 90
       18
102
RTVSPost2010Prop41ColorRGB
 90
        0
102
RTVSPost2010PropOp41
 70
     1
102
RTVSPost2010Prop42
 90
       50
102
RTVSPost2010PropOp42
 70
     1
102
RTVSPost2010Prop43
 90
        3
102
RTVSPost2010PropOp43
 70
     1
102
RTVSPost2010Prop44ColorIndex
 90
        5
102
RTVSPost2010Prop44ColorRGB
 90
      255
102
RTVSPost2010PropOp44
 70
     1
102
RTVSPost2010Prop45
280
     0
102
RTVSPost2010PropOp45
 70
     1
102
RTVSPost2010Prop46
 90
       50
102
RTVSPost2010PropOp46
 70
     1
102
RTVSPost2010Prop47
 90
       50
102
RTVSPost2010PropOp47
 70
     1
102
RTVSPost2010Prop48
 90
       50
102
RTVSPost2010PropOp48
 70
     1
102
RTVSPost2010Prop49
280
     0
102
RTVSPost2010PropOp49
 70
     1
102
RTVSPost2010Prop50
 90
       50
102
RTVSPost2010PropOp50
 70
     1
102
RTVSPost2010Prop51ColorIndex
 90
      256
102
RTVSPost2010Prop51ColorRGB
 90
-16777216
102
RTVSPost2010PropOp51
 70
     0
102
RTVSPost2010Prop52
140
1.0
102
RTVSPost2010PropOp52
 70
     0
102
RTVSPost2010Prop53
 90
        2
102
RTVSPost2010PropOp53
 70
     1
102
RTVSPost2010Prop54
  1
strokes_ogs.tif
102
RTVSPost2010PropOp54
 70
     1
102
RTVSPost2010Prop55
280
     0
102
RTVSPost2010PropOp55
 70
     1
102
RTVSPost2010Prop56
140
1.0
102
RTVSPost2010PropOp56
 70
     1
102
RTVSPost2010Prop57
140
1.0
102
RTVSPost2010PropOp57
 70
     1
102
RTVSPropertyOp0
 70
     1
102
RTVSPropertyOp1
 70
     1
102
RTVSPropertyOp2
 70
     1
102
RTVSPropertyOp3
 70
     1
102
RTVSPropertyOp4
 70
     1
102
RTVSPropertyOp5
 70
     1
102
RTVSPropertyOp6
 70
     1
102
RTVSPropertyOp7
 70
     1
102
RTVSPropertyOp8
 70
     1
102
RTVSPropertyOp9
 70
     1
102
RTVSPropertyOp10
 70
     1
102
RTVSPropertyOp11
 70
     1
102
RTVSPropertyOp12
 70
     1
102
RTVSPropertyOp13
 70
     1
102
RTVSPropertyOp14
 70
     1
102
RTVSPropertyOp15
 70
     1
102
RTVSPropertyOp16
 70
     1
102
RTVSPropertyOp17
 70
     1
102
RTVSPropertyOp18
 70
     1
102
RTVSPropertyOp19
 70
     1
102
RTVSPropertyOp20
 70
     1
102
RTVSPropertyOp21
 70
     1
102
RTVSPropertyOp22
 70
     1
102
RTVSPropertyOp23
 70
     1
102
RTVSPropertyOp24
 70
     1
102
RTVSPropertyOp25
 70
     1
102
RTVSPropertyOp26
 70
     1
102
RTVSPropertyOp27
 70
     1
102
RTVSPropertyOp28
 70
     1
102
RTVSPropertyOp29
 70
     1
102
RTVSPropertyOp30
 70
     1
102
RTVSPropertyOp31
 70
     1
102
RTVSPropertyOp32
 70
     1
102
RTVSPropertyOp33
 70
     1
102
RTVSPropertyOp34
 70
     1
102
RTVSPropertyOp35
 70
     1
102
RTVSPropertyOp36
 70
     1
102
RTVSPropertyOp37
 70
     1
102
RTVSPropertyOp38
 70
     1
102
RTVSPropertyOp39
 70
     1
102
RTVSPropertyOp40
 70
     1
102
RTVSPropertyOp41
 70
     1
102
RTVSPropertyOp42
 70
     1
102
RTVSPropertyOp43
 70
     1
102
RTVSPropertyOp44
 70
     1
102
RTVSPropertyOp45
 70
     1
102
RTVSPropertyOp46
 70
     1
102
RTVSPropertyOp47
 70
     1
102
RTVSPropertyOp48
 70
     1
102
RTVSPropertyOp49
 70
     1
102
RTVSPropertyOp50
 70
     1
102
RTVSPropertyOp51
 70
     0
102
RTVSPropertyOp52
 70
     0
102
RTVSPropertyOp53
 70
     1
102
RTVSPropertyOp54
 70
     1
102
RTVSPropertyOp55
 70
     1
102
RTVSPropertyOp56
 70
     1
102
RTVSPropertyOp57
 70
     1
102
RTVSPropertyOp58
 70
     1
102
RTVSPropertyOp59
 70
     1
102
RTVSPropertyOp60
 70
     1
102
RTVSPropertyOp61
 70
     1
102
RTVSPropertyOp62
 70
     1
  0
XRECORD
  5
9E9F
102
{ACAD_REACTORS
330
9E9E
102
}
330
9E9E
100
AcDbXrecord
280
     1
102
RTVSPost2010Prop28
280
     0
102
RTVSPost2010PropOp28
 70
     1
102
RTVSPost2010Prop29
280
     1
102
RTVSPost2010PropOp29
 70
     1
102
RTVSPost2010Prop30
280
     1
102
RTVSPost2010PropOp30
 70
     1
102
RTVSPost2010Prop31
280
     0
102
RTVSPost2010PropOp31
 70
     1
102
RTVSPost2010Prop32
280
     0
102
RTVSPost2010PropOp32
 70
     1
102
RTVSPost2010Prop33
280
     0
102
RTVSPost2010PropOp33
 70
     1
102
RTVSPost2010Prop34
280
     0
102
RTVSPost2010PropOp34
 70
     1
102
RTVSPost2010Prop35
280
     0
102
RTVSPost2010PropOp35
 70
     1
102
RTVSPost2010Prop36
280
     0
102
RTVSPost2010PropOp36
 70
     1
102
RTVSPost2010Prop37
 90
       50
102
RTVSPost2010PropOp37
 70
     0
102
RTVSPost2010Prop38
140
0.0
102
RTVSPost2010PropOp38
 70
     0
102
RTVSPost2010Prop39
140
1.0
102
RTVSPost2010PropOp39
 70
     0
102
RTVSPost2010Prop40
 90
        0
102
RTVSPost2010PropOp40
 70
     0
102
RTVSPost2010Prop41ColorIndex
 90
       18
102
RTVSPost2010Prop41ColorRGB
 90
        0
102
RTVSPost2010PropOp41
 70
     0
102
RTVSPost2010Prop42
 90
       50
102
RTVSPost2010PropOp42
 70
     0
102
RTVSPost2010Prop43
 90
        3
102
RTVSPost2010PropOp43
 70
     0
102
RTVSPost2010Prop44ColorIndex
 90
        5
102
RTVSPost2010Prop44ColorRGB
 90
      255
102
RTVSPost2010PropOp44
 70
     0
102
RTVSPost2010Prop45
280
     0
102
RTVSPost2010PropOp45
 70
     1
102
RTVSPost2010Prop46
 90
       50
102
RTVSPost2010PropOp46
 70
     0
102
RTVSPost2010Prop47
 90
       50
102
RTVSPost2010PropOp47
 70
     0
102
RTVSPost2010Prop48
 90
       50
102
RTVSPost2010PropOp48
 70
     0
102
RTVSPost2010Prop49
280
     0
102
RTVSPost2010PropOp49
 70
     1
102
RTVSPost2010Prop50
 90
       50
102
RTVSPost2010PropOp50
 70
     0
102
RTVSPost2010Prop51ColorIndex
 90
      256
102
RTVSPost2010Prop51ColorRGB
 90
-16777216
102
RTVSPost2010PropOp51
 70
     0
102
RTVSPost2010Prop52
140
1.0
102
RTVSPost2010PropOp52
 70
     0
102
RTVSPost2010Prop53
 90
        2
102
RTVSPost2010PropOp53
 70
     0
102
RTVSPost2010Prop54
  1
strokes_ogs.tif
102
RTVSPost2010PropOp54
 70
     0
102
RTVSPost2010Prop55
280
     0
102
RTVSPost2010PropOp55
 70
     1
102
RTVSPost2010Prop56
140
1.0
102
RTVSPost2010PropOp56
 70
     0
102
RTVSPost2010Prop57
140
1.0
102
RTVSPost2010PropOp57
 70
     0
102
RTVSPropertyOp0
 70
     0
102
RTVSPropertyOp1
 70
     0
102
RTVSPropertyOp2
 70
     0
102
RTVSPropertyOp3
 70
     0
102
RTVSPropertyOp4
 70
     0
102
RTVSPropertyOp5
 70
     0
102
RTVSPropertyOp6
 70
     0
102
RTVSPropertyOp7
 70
     0
102
RTVSPropertyOp8
 70
     0
102
RTVSPropertyOp9
 70
     0
102
RTVSPropertyOp10
 70
     0
102
RTVSPropertyOp11
 70
     0
102
RTVSPropertyOp12
 70
     0
102
RTVSPropertyOp13
 70
     0
102
RTVSPropertyOp14
 70
     2
102
RTVSPropertyOp15
 70
     0
102
RTVSPropertyOp16
 70
     0
102
RTVSPropertyOp17
 70
     0
102
RTVSPropertyOp18
 70
     0
102
RTVSPropertyOp19
 70
     0
102
RTVSPropertyOp20
 70
     0
102
RTVSPropertyOp21
 70
     0
102
RTVSPropertyOp22
 70
     0
102
RTVSPropertyOp23
 70
     0
102
RTVSPropertyOp24
 70
     0
102
RTVSPropertyOp25
 70
     0
102
RTVSPropertyOp26
 70
     0
102
RTVSPropertyOp27
 70
     0
102
RTVSPropertyOp28
 70
     1
102
RTVSPropertyOp29
 70
     1
102
RTVSPropertyOp30
 70
     1
102
RTVSPropertyOp31
 70
     1
102
RTVSPropertyOp32
 70
     1
102
RTVSPropertyOp33
 70
     1
102
RTVSPropertyOp34
 70
     1
102
RTVSPropertyOp35
 70
     1
102
RTVSPropertyOp36
 70
     1
102
RTVSPropertyOp37
 70
     0
102
RTVSPropertyOp38
 70
     0
102
RTVSPropertyOp39
 70
     0
102
RTVSPropertyOp40
 70
     0
102
RTVSPropertyOp41
 70
     0
102
RTVSPropertyOp42
 70
     0
102
RTVSPropertyOp43
 70
     0
102
RTVSPropertyOp44
 70
     0
102
RTVSPropertyOp45
 70
     1
102
RTVSPropertyOp46
 70
     0
102
RTVSPropertyOp47
 70
     0
102
RTVSPropertyOp48
 70
     0
102
RTVSPropertyOp49
 70
     1
102
RTVSPropertyOp50
 70
     0
102
RTVSPropertyOp51
 70
     0
102
RTVSPropertyOp52
 70
     0
102
RTVSPropertyOp53
 70
     0
102
RTVSPropertyOp54
 70
     0
102
RTVSPropertyOp55
 70
     1
102
RTVSPropertyOp56
 70
     0
102
RTVSPropertyOp57
 70
     0
102
RTVSPropertyOp58
 70
     0
102
RTVSPropertyOp59
 70
     0
102
RTVSPropertyOp60
 70
     0
102
RTVSPropertyOp61
 70
     0
102
RTVSPropertyOp62
 70
     0
  0
XRECORD
  5
9E85
102
{ACAD_REACTORS
330
9E84
102
}
330
9E84
100
AcDbXrecord
280
     1
102
RTVSPost2010Prop28
280
     0
102
RTVSPost2010PropOp28
 70
     1
102
RTVSPost2010Prop29
280
     1
102
RTVSPost2010PropOp29
 70
     1
102
RTVSPost2010Prop30
280
     1
102
RTVSPost2010PropOp30
 70
     1
102
RTVSPost2010Prop31
280
     0
102
RTVSPost2010PropOp31
 70
     1
102
RTVSPost2010Prop32
280
     0
102
RTVSPost2010PropOp32
 70
     1
102
RTVSPost2010Prop33
280
     0
102
RTVSPost2010PropOp33
 70
     1
102
RTVSPost2010Prop34
280
     0
102
RTVSPost2010PropOp34
 70
     1
102
RTVSPost2010Prop35
280
     0
102
RTVSPost2010PropOp35
 70
     1
102
RTVSPost2010Prop36
280
     0
102
RTVSPost2010PropOp36
 70
     1
102
RTVSPost2010Prop37
 90
       50
102
RTVSPost2010PropOp37
 70
     1
102
RTVSPost2010Prop38
140
0.0
102
RTVSPost2010PropOp38
 70
     1
102
RTVSPost2010Prop39
140
1.0
102
RTVSPost2010PropOp39
 70
     1
102
RTVSPost2010Prop40
 90
        0
102
RTVSPost2010PropOp40
 70
     1
102
RTVSPost2010Prop41ColorIndex
 90
       18
102
RTVSPost2010Prop41ColorRGB
 90
        0
102
RTVSPost2010PropOp41
 70
     1
102
RTVSPost2010Prop42
 90
       50
102
RTVSPost2010PropOp42
 70
     1
102
RTVSPost2010Prop43
 90
        3
102
RTVSPost2010PropOp43
 70
     1
102
RTVSPost2010Prop44ColorIndex
 90
        5
102
RTVSPost2010Prop44ColorRGB
 90
      255
102
RTVSPost2010PropOp44
 70
     1
102
RTVSPost2010Prop45
280
     0
102
RTVSPost2010PropOp45
 70
     1
102
RTVSPost2010Prop46
 90
       50
102
RTVSPost2010PropOp46
 70
     1
102
RTVSPost2010Prop47
 90
       50
102
RTVSPost2010PropOp47
 70
     1
102
RTVSPost2010Prop48
 90
       50
102
RTVSPost2010PropOp48
 70
     1
102
RTVSPost2010Prop49
280
     0
102
RTVSPost2010PropOp49
 70
     1
102
RTVSPost2010Prop50
 90
       50
102
RTVSPost2010PropOp50
 70
     1
102
RTVSPost2010Prop51ColorIndex
 90
      256
102
RTVSPost2010Prop51ColorRGB
 90
-16777216
102
RTVSPost2010PropOp51
 70
     0
102
RTVSPost2010Prop52
140
1.0
102
RTVSPost2010PropOp52
 70
     0
102
RTVSPost2010Prop53
 90
        2
102
RTVSPost2010PropOp53
 70
     1
102
RTVSPost2010Prop54
  1
strokes_ogs.tif
102
RTVSPost2010PropOp54
 70
     1
102
RTVSPost2010Prop55
280
     0
102
RTVSPost2010PropOp55
 70
     1
102
RTVSPost2010Prop56
140
1.0
102
RTVSPost2010PropOp56
 70
     1
102
RTVSPost2010Prop57
140
1.0
102
RTVSPost2010PropOp57
 70
     1
102
RTVSPropertyOp0
 70
     1
102
RTVSPropertyOp1
 70
     1
102
RTVSPropertyOp2
 70
     1
102
RTVSPropertyOp3
 70
     1
102
RTVSPropertyOp4
 70
     1
102
RTVSPropertyOp5
 70
     1
102
RTVSPropertyOp6
 70
     1
102
RTVSPropertyOp7
 70
     1
102
RTVSPropertyOp8
 70
     1
102
RTVSPropertyOp9
 70
     1
102
RTVSPropertyOp10
 70
     1
102
RTVSPropertyOp11
 70
     1
102
RTVSPropertyOp12
 70
     1
102
RTVSPropertyOp13
 70
     1
102
RTVSPropertyOp14
 70
     1
102
RTVSPropertyOp15
 70
     1
102
RTVSPropertyOp16
 70
     1
102
RTVSPropertyOp17
 70
     1
102
RTVSPropertyOp18
 70
     1
102
RTVSPropertyOp19
 70
     1
102
RTVSPropertyOp20
 70
     1
102
RTVSPropertyOp21
 70
     1
102
RTVSPropertyOp22
 70
     1
102
RTVSPropertyOp23
 70
     1
102
RTVSPropertyOp24
 70
     1
102
RTVSPropertyOp25
 70
     1
102
RTVSPropertyOp26
 70
     1
102
RTVSPropertyOp27
 70
     1
102
RTVSPropertyOp28
 70
     1
102
RTVSPropertyOp29
 70
     1
102
RTVSPropertyOp30
 70
     1
102
RTVSPropertyOp31
 70
     1
102
RTVSPropertyOp32
 70
     1
102
RTVSPropertyOp33
 70
     1
102
RTVSPropertyOp34
 70
     1
102
RTVSPropertyOp35
 70
     1
102
RTVSPropertyOp36
 70
     1
102
RTVSPropertyOp37
 70
     1
102
RTVSPropertyOp38
 70
     1
102
RTVSPropertyOp39
 70
     1
102
RTVSPropertyOp40
 70
     1
102
RTVSPropertyOp41
 70
     1
102
RTVSPropertyOp42
 70
     1
102
RTVSPropertyOp43
 70
     1
102
RTVSPropertyOp44
 70
     1
102
RTVSPropertyOp45
 70
     1
102
RTVSPropertyOp46
 70
     1
102
RTVSPropertyOp47
 70
     1
102
RTVSPropertyOp48
 70
     1
102
RTVSPropertyOp49
 70
     1
102
RTVSPropertyOp50
 70
     1
102
RTVSPropertyOp51
 70
     0
102
RTVSPropertyOp52
 70
     0
102
RTVSPropertyOp53
 70
     1
102
RTVSPropertyOp54
 70
     1
102
RTVSPropertyOp55
 70
     1
102
RTVSPropertyOp56
 70
     1
102
RTVSPropertyOp57
 70
     1
102
RTVSPropertyOp58
 70
     1
102
RTVSPropertyOp59
 70
     1
102
RTVSPropertyOp60
 70
     1
102
RTVSPropertyOp61
 70
     1
102
RTVSPropertyOp62
 70
     1
  0
XRECORD
  5
9E9B
102
{ACAD_REACTORS
330
9E9A
102
}
330
9E9A
100
AcDbXrecord
280
     1
102
RTVSPost2010Prop28
280
     0
102
RTVSPost2010PropOp28
 70
     1
102
RTVSPost2010Prop29
280
     1
102
RTVSPost2010PropOp29
 70
     1
102
RTVSPost2010Prop30
280
     1
102
RTVSPost2010PropOp30
 70
     1
102
RTVSPost2010Prop31
280
     0
102
RTVSPost2010PropOp31
 70
     1
102
RTVSPost2010Prop32
280
     0
102
RTVSPost2010PropOp32
 70
     1
102
RTVSPost2010Prop33
280
     0
102
RTVSPost2010PropOp33
 70
     1
102
RTVSPost2010Prop34
280
     0
102
RTVSPost2010PropOp34
 70
     1
102
RTVSPost2010Prop35
280
     0
102
RTVSPost2010PropOp35
 70
     1
102
RTVSPost2010Prop36
280
     0
102
RTVSPost2010PropOp36
 70
     1
102
RTVSPost2010Prop37
 90
       50
102
RTVSPost2010PropOp37
 70
     1
102
RTVSPost2010Prop38
140
0.0
102
RTVSPost2010PropOp38
 70
     1
102
RTVSPost2010Prop39
140
1.0
102
RTVSPost2010PropOp39
 70
     1
102
RTVSPost2010Prop40
 90
        0
102
RTVSPost2010PropOp40
 70
     1
102
RTVSPost2010Prop41ColorIndex
 90
       18
102
RTVSPost2010Prop41ColorRGB
 90
        0
102
RTVSPost2010PropOp41
 70
     1
102
RTVSPost2010Prop42
 90
       50
102
RTVSPost2010PropOp42
 70
     1
102
RTVSPost2010Prop43
 90
        3
102
RTVSPost2010PropOp43
 70
     1
102
RTVSPost2010Prop44ColorIndex
 90
        5
102
RTVSPost2010Prop44ColorRGB
 90
      255
102
RTVSPost2010PropOp44
 70
     1
102
RTVSPost2010Prop45
280
     0
102
RTVSPost2010PropOp45
 70
     1
102
RTVSPost2010Prop46
 90
       50
102
RTVSPost2010PropOp46
 70
     1
102
RTVSPost2010Prop47
 90
       50
102
RTVSPost2010PropOp47
 70
     1
102
RTVSPost2010Prop48
 90
       50
102
RTVSPost2010PropOp48
 70
     1
102
RTVSPost2010Prop49
280
     0
102
RTVSPost2010PropOp49
 70
     1
102
RTVSPost2010Prop50
 90
       50
102
RTVSPost2010PropOp50
 70
     1
102
RTVSPost2010Prop51ColorIndex
 90
      256
102
RTVSPost2010Prop51ColorRGB
 90
-16777216
102
RTVSPost2010PropOp51
 70
     0
102
RTVSPost2010Prop52
140
1.0
102
RTVSPost2010PropOp52
 70
     0
102
RTVSPost2010Prop53
 90
        2
102
RTVSPost2010PropOp53
 70
     1
102
RTVSPost2010Prop54
  1
strokes_ogs.tif
102
RTVSPost2010PropOp54
 70
     1
102
RTVSPost2010Prop55
280
     0
102
RTVSPost2010PropOp55
 70
     1
102
RTVSPost2010Prop56
140
1.0
102
RTVSPost2010PropOp56
 70
     1
102
RTVSPost2010Prop57
140
1.0
102
RTVSPost2010PropOp57
 70
     1
102
RTVSPropertyOp0
 70
     1
102
RTVSPropertyOp1
 70
     1
102
RTVSPropertyOp2
 70
     1
102
RTVSPropertyOp3
 70
     1
102
RTVSPropertyOp4
 70
     1
102
RTVSPropertyOp5
 70
     1
102
RTVSPropertyOp6
 70
     1
102
RTVSPropertyOp7
 70
     1
102
RTVSPropertyOp8
 70
     1
102
RTVSPropertyOp9
 70
     1
102
RTVSPropertyOp10
 70
     1
102
RTVSPropertyOp11
 70
     1
102
RTVSPropertyOp12
 70
     1
102
RTVSPropertyOp13
 70
     1
102
RTVSPropertyOp14
 70
     1
102
RTVSPropertyOp15
 70
     1
102
RTVSPropertyOp16
 70
     1
102
RTVSPropertyOp17
 70
     1
102
RTVSPropertyOp18
 70
     1
102
RTVSPropertyOp19
 70
     1
102
RTVSPropertyOp20
 70
     1
102
RTVSPropertyOp21
 70
     1
102
RTVSPropertyOp22
 70
     1
102
RTVSPropertyOp23
 70
     1
102
RTVSPropertyOp24
 70
     1
102
RTVSPropertyOp25
 70
     1
102
RTVSPropertyOp26
 70
     1
102
RTVSPropertyOp27
 70
     1
102
RTVSPropertyOp28
 70
     1
102
RTVSPropertyOp29
 70
     1
102
RTVSPropertyOp30
 70
     1
102
RTVSPropertyOp31
 70
     1
102
RTVSPropertyOp32
 70
     1
102
RTVSPropertyOp33
 70
     1
102
RTVSPropertyOp34
 70
     1
102
RTVSPropertyOp35
 70
     1
102
RTVSPropertyOp36
 70
     1
102
RTVSPropertyOp37
 70
     1
102
RTVSPropertyOp38
 70
     1
102
RTVSPropertyOp39
 70
     1
102
RTVSPropertyOp40
 70
     1
102
RTVSPropertyOp41
 70
     1
102
RTVSPropertyOp42
 70
     1
102
RTVSPropertyOp43
 70
     1
102
RTVSPropertyOp44
 70
     1
102
RTVSPropertyOp45
 70
     1
102
RTVSPropertyOp46
 70
     1
102
RTVSPropertyOp47
 70
     1
102
RTVSPropertyOp48
 70
     1
102
RTVSPropertyOp49
 70
     1
102
RTVSPropertyOp50
 70
     1
102
RTVSPropertyOp51
 70
     0
102
RTVSPropertyOp52
 70
     0
102
RTVSPropertyOp53
 70
     1
102
RTVSPropertyOp54
 70
     1
102
RTVSPropertyOp55
 70
     1
102
RTVSPropertyOp56
 70
     1
102
RTVSPropertyOp57
 70
     1
102
RTVSPropertyOp58
 70
     1
102
RTVSPropertyOp59
 70
     1
102
RTVSPropertyOp60
 70
     1
102
RTVSPropertyOp61
 70
     1
102
RTVSPropertyOp62
 70
     1
  0
XRECORD
  5
9E99
102
{ACAD_REACTORS
330
9E98
102
}
330
9E98
100
AcDbXrecord
280
     1
102
RTVSPost2010Prop28
280
     0
102
RTVSPost2010PropOp28
 70
     1
102
RTVSPost2010Prop29
280
     1
102
RTVSPost2010PropOp29
 70
     1
102
RTVSPost2010Prop30
280
     1
102
RTVSPost2010PropOp30
 70
     1
102
RTVSPost2010Prop31
280
     0
102
RTVSPost2010PropOp31
 70
     1
102
RTVSPost2010Prop32
280
     0
102
RTVSPost2010PropOp32
 70
     1
102
RTVSPost2010Prop33
280
     0
102
RTVSPost2010PropOp33
 70
     1
102
RTVSPost2010Prop34
280
     0
102
RTVSPost2010PropOp34
 70
     1
102
RTVSPost2010Prop35
280
     0
102
RTVSPost2010PropOp35
 70
     1
102
RTVSPost2010Prop36
280
     0
102
RTVSPost2010PropOp36
 70
     1
102
RTVSPost2010Prop37
 90
       50
102
RTVSPost2010PropOp37
 70
     1
102
RTVSPost2010Prop38
140
0.0
102
RTVSPost2010PropOp38
 70
     1
102
RTVSPost2010Prop39
140
1.0
102
RTVSPost2010PropOp39
 70
     1
102
RTVSPost2010Prop40
 90
        0
102
RTVSPost2010PropOp40
 70
     1
102
RTVSPost2010Prop41ColorIndex
 90
       18
102
RTVSPost2010Prop41ColorRGB
 90
        0
102
RTVSPost2010PropOp41
 70
     1
102
RTVSPost2010Prop42
 90
       50
102
RTVSPost2010PropOp42
 70
     1
102
RTVSPost2010Prop43
 90
        3
102
RTVSPost2010PropOp43
 70
     1
102
RTVSPost2010Prop44ColorIndex
 90
        5
102
RTVSPost2010Prop44ColorRGB
 90
      255
102
RTVSPost2010PropOp44
 70
     1
102
RTVSPost2010Prop45
280
     0
102
RTVSPost2010PropOp45
 70
     1
102
RTVSPost2010Prop46
 90
       50
102
RTVSPost2010PropOp46
 70
     1
102
RTVSPost2010Prop47
 90
       50
102
RTVSPost2010PropOp47
 70
     1
102
RTVSPost2010Prop48
 90
       50
102
RTVSPost2010PropOp48
 70
     1
102
RTVSPost2010Prop49
280
     0
102
RTVSPost2010PropOp49
 70
     1
102
RTVSPost2010Prop50
 90
       50
102
RTVSPost2010PropOp50
 70
     1
102
RTVSPost2010Prop51ColorIndex
 90
      256
102
RTVSPost2010Prop51ColorRGB
 90
-16777216
102
RTVSPost2010PropOp51
 70
     0
102
RTVSPost2010Prop52
140
1.0
102
RTVSPost2010PropOp52
 70
     0
102
RTVSPost2010Prop53
 90
        2
102
RTVSPost2010PropOp53
 70
     1
102
RTVSPost2010Prop54
  1
strokes_ogs.tif
102
RTVSPost2010PropOp54
 70
     1
102
RTVSPost2010Prop55
280
     0
102
RTVSPost2010PropOp55
 70
     1
102
RTVSPost2010Prop56
140
1.0
102
RTVSPost2010PropOp56
 70
     1
102
RTVSPost2010Prop57
140
1.0
102
RTVSPost2010PropOp57
 70
     1
102
RTVSPropertyOp0
 70
     1
102
RTVSPropertyOp1
 70
     1
102
RTVSPropertyOp2
 70
     1
102
RTVSPropertyOp3
 70
     1
102
RTVSPropertyOp4
 70
     1
102
RTVSPropertyOp5
 70
     1
102
RTVSPropertyOp6
 70
     1
102
RTVSPropertyOp7
 70
     1
102
RTVSPropertyOp8
 70
     1
102
RTVSPropertyOp9
 70
     1
102
RTVSPropertyOp10
 70
     1
102
RTVSPropertyOp11
 70
     1
102
RTVSPropertyOp12
 70
     1
102
RTVSPropertyOp13
 70
     1
102
RTVSPropertyOp14
 70
     1
102
RTVSPropertyOp15
 70
     1
102
RTVSPropertyOp16
 70
     1
102
RTVSPropertyOp17
 70
     1
102
RTVSPropertyOp18
 70
     1
102
RTVSPropertyOp19
 70
     1
102
RTVSPropertyOp20
 70
     1
102
RTVSPropertyOp21
 70
     1
102
RTVSPropertyOp22
 70
     1
102
RTVSPropertyOp23
 70
     1
102
RTVSPropertyOp24
 70
     1
102
RTVSPropertyOp25
 70
     1
102
RTVSPropertyOp26
 70
     1
102
RTVSPropertyOp27
 70
     1
102
RTVSPropertyOp28
 70
     1
102
RTVSPropertyOp29
 70
     1
102
RTVSPropertyOp30
 70
     1
102
RTVSPropertyOp31
 70
     1
102
RTVSPropertyOp32
 70
     1
102
RTVSPropertyOp33
 70
     1
102
RTVSPropertyOp34
 70
     1
102
RTVSPropertyOp35
 70
     1
102
RTVSPropertyOp36
 70
     1
102
RTVSPropertyOp37
 70
     1
102
RTVSPropertyOp38
 70
     1
102
RTVSPropertyOp39
 70
     1
102
RTVSPropertyOp40
 70
     1
102
RTVSPropertyOp41
 70
     1
102
RTVSPropertyOp42
 70
     1
102
RTVSPropertyOp43
 70
     1
102
RTVSPropertyOp44
 70
     1
102
RTVSPropertyOp45
 70
     1
102
RTVSPropertyOp46
 70
     1
102
RTVSPropertyOp47
 70
     1
102
RTVSPropertyOp48
 70
     1
102
RTVSPropertyOp49
 70
     1
102
RTVSPropertyOp50
 70
     1
102
RTVSPropertyOp51
 70
     0
102
RTVSPropertyOp52
 70
     0
102
RTVSPropertyOp53
 70
     1
102
RTVSPropertyOp54
 70
     1
102
RTVSPropertyOp55
 70
     1
102
RTVSPropertyOp56
 70
     1
102
RTVSPropertyOp57
 70
     1
102
RTVSPropertyOp58
 70
     1
102
RTVSPropertyOp59
 70
     1
102
RTVSPropertyOp60
 70
     1
102
RTVSPropertyOp61
 70
     1
102
RTVSPropertyOp62
 70
     1
  0
XRECORD
  5
9E93
102
{ACAD_REACTORS
330
9E92
102
}
330
9E92
100
AcDbXrecord
280
     1
102
RTVSPost2010Prop28
280
     0
102
RTVSPost2010PropOp28
 70
     1
102
RTVSPost2010Prop29
280
     1
102
RTVSPost2010PropOp29
 70
     1
102
RTVSPost2010Prop30
280
     1
102
RTVSPost2010PropOp30
 70
     1
102
RTVSPost2010Prop31
280
     0
102
RTVSPost2010PropOp31
 70
     1
102
RTVSPost2010Prop32
280
     0
102
RTVSPost2010PropOp32
 70
     1
102
RTVSPost2010Prop33
280
     0
102
RTVSPost2010PropOp33
 70
     1
102
RTVSPost2010Prop34
280
     0
102
RTVSPost2010PropOp34
 70
     1
102
RTVSPost2010Prop35
280
     0
102
RTVSPost2010PropOp35
 70
     1
102
RTVSPost2010Prop36
280
     0
102
RTVSPost2010PropOp36
 70
     1
102
RTVSPost2010Prop37
 90
       50
102
RTVSPost2010PropOp37
 70
     1
102
RTVSPost2010Prop38
140
0.0
102
RTVSPost2010PropOp38
 70
     1
102
RTVSPost2010Prop39
140
1.0
102
RTVSPost2010PropOp39
 70
     1
102
RTVSPost2010Prop40
 90
        0
102
RTVSPost2010PropOp40
 70
     1
102
RTVSPost2010Prop41ColorIndex
 90
       18
102
RTVSPost2010Prop41ColorRGB
 90
        0
102
RTVSPost2010PropOp41
 70
     1
102
RTVSPost2010Prop42
 90
       50
102
RTVSPost2010PropOp42
 70
     1
102
RTVSPost2010Prop43
 90
        3
102
RTVSPost2010PropOp43
 70
     1
102
RTVSPost2010Prop44ColorIndex
 90
        5
102
RTVSPost2010Prop44ColorRGB
 90
      255
102
RTVSPost2010PropOp44
 70
     1
102
RTVSPost2010Prop45
280
     0
102
RTVSPost2010PropOp45
 70
     1
102
RTVSPost2010Prop46
 90
       50
102
RTVSPost2010PropOp46
 70
     1
102
RTVSPost2010Prop47
 90
       50
102
RTVSPost2010PropOp47
 70
     1
102
RTVSPost2010Prop48
 90
       50
102
RTVSPost2010PropOp48
 70
     1
102
RTVSPost2010Prop49
280
     0
102
RTVSPost2010PropOp49
 70
     1
102
RTVSPost2010Prop50
 90
       50
102
RTVSPost2010PropOp50
 70
     1
102
RTVSPost2010Prop51ColorIndex
 90
      256
102
RTVSPost2010Prop51ColorRGB
 90
-16777216
102
RTVSPost2010PropOp51
 70
     0
102
RTVSPost2010Prop52
140
1.0
102
RTVSPost2010PropOp52
 70
     0
102
RTVSPost2010Prop53
 90
        2
102
RTVSPost2010PropOp53
 70
     1
102
RTVSPost2010Prop54
  1
strokes_ogs.tif
102
RTVSPost2010PropOp54
 70
     1
102
RTVSPost2010Prop55
280
     0
102
RTVSPost2010PropOp55
 70
     1
102
RTVSPost2010Prop56
140
1.0
102
RTVSPost2010PropOp56
 70
     1
102
RTVSPost2010Prop57
140
1.0
102
RTVSPost2010PropOp57
 70
     1
102
RTVSPropertyOp0
 70
     1
102
RTVSPropertyOp1
 70
     1
102
RTVSPropertyOp2
 70
     1
102
RTVSPropertyOp3
 70
     1
102
RTVSPropertyOp4
 70
     1
102
RTVSPropertyOp5
 70
     1
102
RTVSPropertyOp6
 70
     1
102
RTVSPropertyOp7
 70
     1
102
RTVSPropertyOp8
 70
     1
102
RTVSPropertyOp9
 70
     1
102
RTVSPropertyOp10
 70
     1
102
RTVSPropertyOp11
 70
     1
102
RTVSPropertyOp12
 70
     1
102
RTVSPropertyOp13
 70
     1
102
RTVSPropertyOp14
 70
     1
102
RTVSPropertyOp15
 70
     1
102
RTVSPropertyOp16
 70
     1
102
RTVSPropertyOp17
 70
     1
102
RTVSPropertyOp18
 70
     1
102
RTVSPropertyOp19
 70
     1
102
RTVSPropertyOp20
 70
     1
102
RTVSPropertyOp21
 70
     1
102
RTVSPropertyOp22
 70
     1
102
RTVSPropertyOp23
 70
     1
102
RTVSPropertyOp24
 70
     1
102
RTVSPropertyOp25
 70
     1
102
RTVSPropertyOp26
 70
     1
102
RTVSPropertyOp27
 70
     1
102
RTVSPropertyOp28
 70
     1
102
RTVSPropertyOp29
 70
     1
102
RTVSPropertyOp30
 70
     1
102
RTVSPropertyOp31
 70
     1
102
RTVSPropertyOp32
 70
     1
102
RTVSPropertyOp33
 70
     1
102
RTVSPropertyOp34
 70
     1
102
RTVSPropertyOp35
 70
     1
102
RTVSPropertyOp36
 70
     1
102
RTVSPropertyOp37
 70
     1
102
RTVSPropertyOp38
 70
     1
102
RTVSPropertyOp39
 70
     1
102
RTVSPropertyOp40
 70
     1
102
RTVSPropertyOp41
 70
     1
102
RTVSPropertyOp42
 70
     1
102
RTVSPropertyOp43
 70
     1
102
RTVSPropertyOp44
 70
     1
102
RTVSPropertyOp45
 70
     1
102
RTVSPropertyOp46
 70
     1
102
RTVSPropertyOp47
 70
     1
102
RTVSPropertyOp48
 70
     1
102
RTVSPropertyOp49
 70
     1
102
RTVSPropertyOp50
 70
     1
102
RTVSPropertyOp51
 70
     0
102
RTVSPropertyOp52
 70
     0
102
RTVSPropertyOp53
 70
     1
102
RTVSPropertyOp54
 70
     1
102
RTVSPropertyOp55
 70
     1
102
RTVSPropertyOp56
 70
     1
102
RTVSPropertyOp57
 70
     1
102
RTVSPropertyOp58
 70
     1
102
RTVSPropertyOp59
 70
     1
102
RTVSPropertyOp60
 70
     1
102
RTVSPropertyOp61
 70
     1
102
RTVSPropertyOp62
 70
     1
  0
XRECORD
  5
9E95
102
{ACAD_REACTORS
330
9E94
102
}
330
9E94
100
AcDbXrecord
280
     1
102
RTVSPost2010Prop28
280
     0
102
RTVSPost2010PropOp28
 70
     1
102
RTVSPost2010Prop29
280
     1
102
RTVSPost2010PropOp29
 70
     1
102
RTVSPost2010Prop30
280
     1
102
RTVSPost2010PropOp30
 70
     1
102
RTVSPost2010Prop31
280
     0
102
RTVSPost2010PropOp31
 70
     1
102
RTVSPost2010Prop32
280
     0
102
RTVSPost2010PropOp32
 70
     1
102
RTVSPost2010Prop33
280
     0
102
RTVSPost2010PropOp33
 70
     1
102
RTVSPost2010Prop34
280
     0
102
RTVSPost2010PropOp34
 70
     1
102
RTVSPost2010Prop35
280
     0
102
RTVSPost2010PropOp35
 70
     1
102
RTVSPost2010Prop36
280
     0
102
RTVSPost2010PropOp36
 70
     1
102
RTVSPost2010Prop37
 90
       50
102
RTVSPost2010PropOp37
 70
     1
102
RTVSPost2010Prop38
140
0.0
102
RTVSPost2010PropOp38
 70
     1
102
RTVSPost2010Prop39
140
1.0
102
RTVSPost2010PropOp39
 70
     1
102
RTVSPost2010Prop40
 90
        0
102
RTVSPost2010PropOp40
 70
     1
102
RTVSPost2010Prop41ColorIndex
 90
       18
102
RTVSPost2010Prop41ColorRGB
 90
        0
102
RTVSPost2010PropOp41
 70
     1
102
RTVSPost2010Prop42
 90
       50
102
RTVSPost2010PropOp42
 70
     1
102
RTVSPost2010Prop43
 90
        3
102
RTVSPost2010PropOp43
 70
     1
102
RTVSPost2010Prop44ColorIndex
 90
        5
102
RTVSPost2010Prop44ColorRGB
 90
      255
102
RTVSPost2010PropOp44
 70
     1
102
RTVSPost2010Prop45
280
     0
102
RTVSPost2010PropOp45
 70
     1
102
RTVSPost2010Prop46
 90
       50
102
RTVSPost2010PropOp46
 70
     1
102
RTVSPost2010Prop47
 90
       50
102
RTVSPost2010PropOp47
 70
     1
102
RTVSPost2010Prop48
 90
       50
102
RTVSPost2010PropOp48
 70
     1
102
RTVSPost2010Prop49
280
     0
102
RTVSPost2010PropOp49
 70
     1
102
RTVSPost2010Prop50
 90
       50
102
RTVSPost2010PropOp50
 70
     1
102
RTVSPost2010Prop51ColorIndex
 90
      256
102
RTVSPost2010Prop51ColorRGB
 90
-16777216
102
RTVSPost2010PropOp51
 70
     0
102
RTVSPost2010Prop52
140
1.0
102
RTVSPost2010PropOp52
 70
     0
102
RTVSPost2010Prop53
 90
        2
102
RTVSPost2010PropOp53
 70
     1
102
RTVSPost2010Prop54
  1
strokes_ogs.tif
102
RTVSPost2010PropOp54
 70
     1
102
RTVSPost2010Prop55
280
     0
102
RTVSPost2010PropOp55
 70
     1
102
RTVSPost2010Prop56
140
1.0
102
RTVSPost2010PropOp56
 70
     1
102
RTVSPost2010Prop57
140
1.0
102
RTVSPost2010PropOp57
 70
     1
102
RTVSPropertyOp0
 70
     1
102
RTVSPropertyOp1
 70
     1
102
RTVSPropertyOp2
 70
     1
102
RTVSPropertyOp3
 70
     1
102
RTVSPropertyOp4
 70
     1
102
RTVSPropertyOp5
 70
     1
102
RTVSPropertyOp6
 70
     1
102
RTVSPropertyOp7
 70
     1
102
RTVSPropertyOp8
 70
     1
102
RTVSPropertyOp9
 70
     1
102
RTVSPropertyOp10
 70
     1
102
RTVSPropertyOp11
 70
     1
102
RTVSPropertyOp12
 70
     1
102
RTVSPropertyOp13
 70
     1
102
RTVSPropertyOp14
 70
     1
102
RTVSPropertyOp15
 70
     1
102
RTVSPropertyOp16
 70
     1
102
RTVSPropertyOp17
 70
     1
102
RTVSPropertyOp18
 70
     1
102
RTVSPropertyOp19
 70
     1
102
RTVSPropertyOp20
 70
     1
102
RTVSPropertyOp21
 70
     1
102
RTVSPropertyOp22
 70
     1
102
RTVSPropertyOp23
 70
     1
102
RTVSPropertyOp24
 70
     1
102
RTVSPropertyOp25
 70
     1
102
RTVSPropertyOp26
 70
     1
102
RTVSPropertyOp27
 70
     1
102
RTVSPropertyOp28
 70
     1
102
RTVSPropertyOp29
 70
     1
102
RTVSPropertyOp30
 70
     1
102
RTVSPropertyOp31
 70
     1
102
RTVSPropertyOp32
 70
     1
102
RTVSPropertyOp33
 70
     1
102
RTVSPropertyOp34
 70
     1
102
RTVSPropertyOp35
 70
     1
102
RTVSPropertyOp36
 70
     1
102
RTVSPropertyOp37
 70
     1
102
RTVSPropertyOp38
 70
     1
102
RTVSPropertyOp39
 70
     1
102
RTVSPropertyOp40
 70
     1
102
RTVSPropertyOp41
 70
     1
102
RTVSPropertyOp42
 70
     1
102
RTVSPropertyOp43
 70
     1
102
RTVSPropertyOp44
 70
     1
102
RTVSPropertyOp45
 70
     1
102
RTVSPropertyOp46
 70
     1
102
RTVSPropertyOp47
 70
     1
102
RTVSPropertyOp48
 70
     1
102
RTVSPropertyOp49
 70
     1
102
RTVSPropertyOp50
 70
     1
102
RTVSPropertyOp51
 70
     0
102
RTVSPropertyOp52
 70
     0
102
RTVSPropertyOp53
 70
     1
102
RTVSPropertyOp54
 70
     1
102
RTVSPropertyOp55
 70
     1
102
RTVSPropertyOp56
 70
     1
102
RTVSPropertyOp57
 70
     1
102
RTVSPropertyOp58
 70
     1
102
RTVSPropertyOp59
 70
     1
102
RTVSPropertyOp60
 70
     1
102
RTVSPropertyOp61
 70
     1
102
RTVSPropertyOp62
 70
     1
  0
XRECORD
  5
9E8B
102
{ACAD_REACTORS
330
9E8A
102
}
330
9E8A
100
AcDbXrecord
280
     1
102
RTVSPost2010Prop28
280
     0
102
RTVSPost2010PropOp28
 70
     1
102
RTVSPost2010Prop29
280
     1
102
RTVSPost2010PropOp29
 70
     1
102
RTVSPost2010Prop30
280
     1
102
RTVSPost2010PropOp30
 70
     1
102
RTVSPost2010Prop31
280
     0
102
RTVSPost2010PropOp31
 70
     1
102
RTVSPost2010Prop32
280
     0
102
RTVSPost2010PropOp32
 70
     1
102
RTVSPost2010Prop33
280
     0
102
RTVSPost2010PropOp33
 70
     1
102
RTVSPost2010Prop34
280
     0
102
RTVSPost2010PropOp34
 70
     1
102
RTVSPost2010Prop35
280
     0
102
RTVSPost2010PropOp35
 70
     1
102
RTVSPost2010Prop36
280
     0
102
RTVSPost2010PropOp36
 70
     1
102
RTVSPost2010Prop37
 90
       50
102
RTVSPost2010PropOp37
 70
     1
102
RTVSPost2010Prop38
140
0.0
102
RTVSPost2010PropOp38
 70
     1
102
RTVSPost2010Prop39
140
1.0
102
RTVSPost2010PropOp39
 70
     1
102
RTVSPost2010Prop40
 90
        0
102
RTVSPost2010PropOp40
 70
     1
102
RTVSPost2010Prop41ColorIndex
 90
       18
102
RTVSPost2010Prop41ColorRGB
 90
        0
102
RTVSPost2010PropOp41
 70
     1
102
RTVSPost2010Prop42
 90
       50
102
RTVSPost2010PropOp42
 70
     1
102
RTVSPost2010Prop43
 90
        3
102
RTVSPost2010PropOp43
 70
     1
102
RTVSPost2010Prop44ColorIndex
 90
        5
102
RTVSPost2010Prop44ColorRGB
 90
      255
102
RTVSPost2010PropOp44
 70
     1
102
RTVSPost2010Prop45
280
     0
102
RTVSPost2010PropOp45
 70
     1
102
RTVSPost2010Prop46
 90
       50
102
RTVSPost2010PropOp46
 70
     1
102
RTVSPost2010Prop47
 90
       50
102
RTVSPost2010PropOp47
 70
     1
102
RTVSPost2010Prop48
 90
       50
102
RTVSPost2010PropOp48
 70
     1
102
RTVSPost2010Prop49
280
     0
102
RTVSPost2010PropOp49
 70
     1
102
RTVSPost2010Prop50
 90
       50
102
RTVSPost2010PropOp50
 70
     1
102
RTVSPost2010Prop51ColorIndex
 90
      256
102
RTVSPost2010Prop51ColorRGB
 90
-16777216
102
RTVSPost2010PropOp51
 70
     0
102
RTVSPost2010Prop52
140
1.0
102
RTVSPost2010PropOp52
 70
     0
102
RTVSPost2010Prop53
 90
        2
102
RTVSPost2010PropOp53
 70
     1
102
RTVSPost2010Prop54
  1
strokes_ogs.tif
102
RTVSPost2010PropOp54
 70
     1
102
RTVSPost2010Prop55
280
     0
102
RTVSPost2010PropOp55
 70
     1
102
RTVSPost2010Prop56
140
1.0
102
RTVSPost2010PropOp56
 70
     1
102
RTVSPost2010Prop57
140
1.0
102
RTVSPost2010PropOp57
 70
     1
102
RTVSPropertyOp0
 70
     1
102
RTVSPropertyOp1
 70
     1
102
RTVSPropertyOp2
 70
     1
102
RTVSPropertyOp3
 70
     1
102
RTVSPropertyOp4
 70
     1
102
RTVSPropertyOp5
 70
     1
102
RTVSPropertyOp6
 70
     1
102
RTVSPropertyOp7
 70
     1
102
RTVSPropertyOp8
 70
     1
102
RTVSPropertyOp9
 70
     1
102
RTVSPropertyOp10
 70
     1
102
RTVSPropertyOp11
 70
     1
102
RTVSPropertyOp12
 70
     1
102
RTVSPropertyOp13
 70
     1
102
RTVSPropertyOp14
 70
     1
102
RTVSPropertyOp15
 70
     1
102
RTVSPropertyOp16
 70
     1
102
RTVSPropertyOp17
 70
     1
102
RTVSPropertyOp18
 70
     1
102
RTVSPropertyOp19
 70
     1
102
RTVSPropertyOp20
 70
     1
102
RTVSPropertyOp21
 70
     1
102
RTVSPropertyOp22
 70
     1
102
RTVSPropertyOp23
 70
     1
102
RTVSPropertyOp24
 70
     1
102
RTVSPropertyOp25
 70
     1
102
RTVSPropertyOp26
 70
     1
102
RTVSPropertyOp27
 70
     1
102
RTVSPropertyOp28
 70
     1
102
RTVSPropertyOp29
 70
     1
102
RTVSPropertyOp30
 70
     1
102
RTVSPropertyOp31
 70
     1
102
RTVSPropertyOp32
 70
     1
102
RTVSPropertyOp33
 70
     1
102
RTVSPropertyOp34
 70
     1
102
RTVSPropertyOp35
 70
     1
102
RTVSPropertyOp36
 70
     1
102
RTVSPropertyOp37
 70
     1
102
RTVSPropertyOp38
 70
     1
102
RTVSPropertyOp39
 70
     1
102
RTVSPropertyOp40
 70
     1
102
RTVSPropertyOp41
 70
     1
102
RTVSPropertyOp42
 70
     1
102
RTVSPropertyOp43
 70
     1
102
RTVSPropertyOp44
 70
     1
102
RTVSPropertyOp45
 70
     1
102
RTVSPropertyOp46
 70
     1
102
RTVSPropertyOp47
 70
     1
102
RTVSPropertyOp48
 70
     1
102
RTVSPropertyOp49
 70
     1
102
RTVSPropertyOp50
 70
     1
102
RTVSPropertyOp51
 70
     0
102
RTVSPropertyOp52
 70
     0
102
RTVSPropertyOp53
 70
     1
102
RTVSPropertyOp54
 70
     1
102
RTVSPropertyOp55
 70
     1
102
RTVSPropertyOp56
 70
     1
102
RTVSPropertyOp57
 70
     1
102
RTVSPropertyOp58
 70
     1
102
RTVSPropertyOp59
 70
     1
102
RTVSPropertyOp60
 70
     1
102
RTVSPropertyOp61
 70
     1
102
RTVSPropertyOp62
 70
     1
  0
XRECORD
  5
9E7F
102
{ACAD_REACTORS
330
9E7E
102
}
330
9E7E
100
AcDbXrecord
280
     1
102
RTVSPost2010Prop28
280
     0
102
RTVSPost2010PropOp28
 70
     1
102
RTVSPost2010Prop29
280
     1
102
RTVSPost2010PropOp29
 70
     1
102
RTVSPost2010Prop30
280
     1
102
RTVSPost2010PropOp30
 70
     1
102
RTVSPost2010Prop31
280
     0
102
RTVSPost2010PropOp31
 70
     1
102
RTVSPost2010Prop32
280
     0
102
RTVSPost2010PropOp32
 70
     1
102
RTVSPost2010Prop33
280
     0
102
RTVSPost2010PropOp33
 70
     1
102
RTVSPost2010Prop34
280
     0
102
RTVSPost2010PropOp34
 70
     1
102
RTVSPost2010Prop35
280
     0
102
RTVSPost2010PropOp35
 70
     1
102
RTVSPost2010Prop36
280
     0
102
RTVSPost2010PropOp36
 70
     1
102
RTVSPost2010Prop37
 90
       50
102
RTVSPost2010PropOp37
 70
     1
102
RTVSPost2010Prop38
140
0.0
102
RTVSPost2010PropOp38
 70
     1
102
RTVSPost2010Prop39
140
1.0
102
RTVSPost2010PropOp39
 70
     1
102
RTVSPost2010Prop40
 90
        0
102
RTVSPost2010PropOp40
 70
     1
102
RTVSPost2010Prop41ColorIndex
 90
       18
102
RTVSPost2010Prop41ColorRGB
 90
        0
102
RTVSPost2010PropOp41
 70
     1
102
RTVSPost2010Prop42
 90
       50
102
RTVSPost2010PropOp42
 70
     1
102
RTVSPost2010Prop43
 90
        3
102
RTVSPost2010PropOp43
 70
     1
102
RTVSPost2010Prop44ColorIndex
 90
        5
102
RTVSPost2010Prop44ColorRGB
 90
      255
102
RTVSPost2010PropOp44
 70
     1
102
RTVSPost2010Prop45
280
     0
102
RTVSPost2010PropOp45
 70
     1
102
RTVSPost2010Prop46
 90
       50
102
RTVSPost2010PropOp46
 70
     1
102
RTVSPost2010Prop47
 90
       50
102
RTVSPost2010PropOp47
 70
     1
102
RTVSPost2010Prop48
 90
       50
102
RTVSPost2010PropOp48
 70
     1
102
RTVSPost2010Prop49
280
     0
102
RTVSPost2010PropOp49
 70
     1
102
RTVSPost2010Prop50
 90
       50
102
RTVSPost2010PropOp50
 70
     1
102
RTVSPost2010Prop51ColorIndex
 90
      256
102
RTVSPost2010Prop51ColorRGB
 90
-16777216
102
RTVSPost2010PropOp51
 70
     0
102
RTVSPost2010Prop52
140
1.0
102
RTVSPost2010PropOp52
 70
     0
102
RTVSPost2010Prop53
 90
        2
102
RTVSPost2010PropOp53
 70
     1
102
RTVSPost2010Prop54
  1
strokes_ogs.tif
102
RTVSPost2010PropOp54
 70
     1
102
RTVSPost2010Prop55
280
     0
102
RTVSPost2010PropOp55
 70
     1
102
RTVSPost2010Prop56
140
1.0
102
RTVSPost2010PropOp56
 70
     1
102
RTVSPost2010Prop57
140
1.0
102
RTVSPost2010PropOp57
 70
     1
102
RTVSPropertyOp0
 70
     1
102
RTVSPropertyOp1
 70
     1
102
RTVSPropertyOp2
 70
     1
102
RTVSPropertyOp3
 70
     1
102
RTVSPropertyOp4
 70
     1
102
RTVSPropertyOp5
 70
     1
102
RTVSPropertyOp6
 70
     1
102
RTVSPropertyOp7
 70
     1
102
RTVSPropertyOp8
 70
     1
102
RTVSPropertyOp9
 70
     1
102
RTVSPropertyOp10
 70
     1
102
RTVSPropertyOp11
 70
     1
102
RTVSPropertyOp12
 70
     1
102
RTVSPropertyOp13
 70
     1
102
RTVSPropertyOp14
 70
     1
102
RTVSPropertyOp15
 70
     1
102
RTVSPropertyOp16
 70
     1
102
RTVSPropertyOp17
 70
     1
102
RTVSPropertyOp18
 70
     1
102
RTVSPropertyOp19
 70
     1
102
RTVSPropertyOp20
 70
     1
102
RTVSPropertyOp21
 70
     1
102
RTVSPropertyOp22
 70
     1
102
RTVSPropertyOp23
 70
     1
102
RTVSPropertyOp24
 70
     1
102
RTVSPropertyOp25
 70
     1
102
RTVSPropertyOp26
 70
     1
102
RTVSPropertyOp27
 70
     1
102
RTVSPropertyOp28
 70
     1
102
RTVSPropertyOp29
 70
     1
102
RTVSPropertyOp30
 70
     1
102
RTVSPropertyOp31
 70
     1
102
RTVSPropertyOp32
 70
     1
102
RTVSPropertyOp33
 70
     1
102
RTVSPropertyOp34
 70
     1
102
RTVSPropertyOp35
 70
     1
102
RTVSPropertyOp36
 70
     1
102
RTVSPropertyOp37
 70
     1
102
RTVSPropertyOp38
 70
     1
102
RTVSPropertyOp39
 70
     1
102
RTVSPropertyOp40
 70
     1
102
RTVSPropertyOp41
 70
     1
102
RTVSPropertyOp42
 70
     1
102
RTVSPropertyOp43
 70
     1
102
RTVSPropertyOp44
 70
     1
102
RTVSPropertyOp45
 70
     1
102
RTVSPropertyOp46
 70
     1
102
RTVSPropertyOp47
 70
     1
102
RTVSPropertyOp48
 70
     1
102
RTVSPropertyOp49
 70
     1
102
RTVSPropertyOp50
 70
     1
102
RTVSPropertyOp51
 70
     0
102
RTVSPropertyOp52
 70
     0
102
RTVSPropertyOp53
 70
     1
102
RTVSPropertyOp54
 70
     1
102
RTVSPropertyOp55
 70
     1
102
RTVSPropertyOp56
 70
     1
102
RTVSPropertyOp57
 70
     1
102
RTVSPropertyOp58
 70
     1
102
RTVSPropertyOp59
 70
     1
102
RTVSPropertyOp60
 70
     1
102
RTVSPropertyOp61
 70
     1
102
RTVSPropertyOp62
 70
     1
  0
XRECORD
  5
9E97
102
{ACAD_REACTORS
330
9E96
102
}
330
9E96
100
AcDbXrecord
280
     1
102
RTVSPost2010Prop28
280
     0
102
RTVSPost2010PropOp28
 70
     1
102
RTVSPost2010Prop29
280
     1
102
RTVSPost2010PropOp29
 70
     1
102
RTVSPost2010Prop30
280
     1
102
RTVSPost2010PropOp30
 70
     1
102
RTVSPost2010Prop31
280
     0
102
RTVSPost2010PropOp31
 70
     1
102
RTVSPost2010Prop32
280
     0
102
RTVSPost2010PropOp32
 70
     1
102
RTVSPost2010Prop33
280
     0
102
RTVSPost2010PropOp33
 70
     1
102
RTVSPost2010Prop34
280
     0
102
RTVSPost2010PropOp34
 70
     1
102
RTVSPost2010Prop35
280
     0
102
RTVSPost2010PropOp35
 70
     1
102
RTVSPost2010Prop36
280
     0
102
RTVSPost2010PropOp36
 70
     1
102
RTVSPost2010Prop37
 90
       50
102
RTVSPost2010PropOp37
 70
     1
102
RTVSPost2010Prop38
140
0.0
102
RTVSPost2010PropOp38
 70
     1
102
RTVSPost2010Prop39
140
1.0
102
RTVSPost2010PropOp39
 70
     1
102
RTVSPost2010Prop40
 90
        0
102
RTVSPost2010PropOp40
 70
     1
102
RTVSPost2010Prop41ColorIndex
 90
       18
102
RTVSPost2010Prop41ColorRGB
 90
        0
102
RTVSPost2010PropOp41
 70
     1
102
RTVSPost2010Prop42
 90
       50
102
RTVSPost2010PropOp42
 70
     1
102
RTVSPost2010Prop43
 90
        3
102
RTVSPost2010PropOp43
 70
     1
102
RTVSPost2010Prop44ColorIndex
 90
        5
102
RTVSPost2010Prop44ColorRGB
 90
      255
102
RTVSPost2010PropOp44
 70
     1
102
RTVSPost2010Prop45
280
     0
102
RTVSPost2010PropOp45
 70
     1
102
RTVSPost2010Prop46
 90
       50
102
RTVSPost2010PropOp46
 70
     1
102
RTVSPost2010Prop47
 90
       50
102
RTVSPost2010PropOp47
 70
     1
102
RTVSPost2010Prop48
 90
       50
102
RTVSPost2010PropOp48
 70
     1
102
RTVSPost2010Prop49
280
     0
102
RTVSPost2010PropOp49
 70
     1
102
RTVSPost2010Prop50
 90
       50
102
RTVSPost2010PropOp50
 70
     1
102
RTVSPost2010Prop51ColorIndex
 90
      256
102
RTVSPost2010Prop51ColorRGB
 90
-16777216
102
RTVSPost2010PropOp51
 70
     0
102
RTVSPost2010Prop52
140
1.0
102
RTVSPost2010PropOp52
 70
     0
102
RTVSPost2010Prop53
 90
        2
102
RTVSPost2010PropOp53
 70
     1
102
RTVSPost2010Prop54
  1
strokes_ogs.tif
102
RTVSPost2010PropOp54
 70
     1
102
RTVSPost2010Prop55
280
     0
102
RTVSPost2010PropOp55
 70
     1
102
RTVSPost2010Prop56
140
1.0
102
RTVSPost2010PropOp56
 70
     1
102
RTVSPost2010Prop57
140
1.0
102
RTVSPost2010PropOp57
 70
     1
102
RTVSPropertyOp0
 70
     1
102
RTVSPropertyOp1
 70
     1
102
RTVSPropertyOp2
 70
     1
102
RTVSPropertyOp3
 70
     1
102
RTVSPropertyOp4
 70
     1
102
RTVSPropertyOp5
 70
     1
102
RTVSPropertyOp6
 70
     1
102
RTVSPropertyOp7
 70
     1
102
RTVSPropertyOp8
 70
     1
102
RTVSPropertyOp9
 70
     1
102
RTVSPropertyOp10
 70
     1
102
RTVSPropertyOp11
 70
     1
102
RTVSPropertyOp12
 70
     1
102
RTVSPropertyOp13
 70
     1
102
RTVSPropertyOp14
 70
     1
102
RTVSPropertyOp15
 70
     1
102
RTVSPropertyOp16
 70
     1
102
RTVSPropertyOp17
 70
     1
102
RTVSPropertyOp18
 70
     1
102
RTVSPropertyOp19
 70
     1
102
RTVSPropertyOp20
 70
     1
102
RTVSPropertyOp21
 70
     1
102
RTVSPropertyOp22
 70
     1
102
RTVSPropertyOp23
 70
     1
102
RTVSPropertyOp24
 70
     1
102
RTVSPropertyOp25
 70
     1
102
RTVSPropertyOp26
 70
     1
102
RTVSPropertyOp27
 70
     1
102
RTVSPropertyOp28
 70
     1
102
RTVSPropertyOp29
 70
     1
102
RTVSPropertyOp30
 70
     1
102
RTVSPropertyOp31
 70
     1
102
RTVSPropertyOp32
 70
     1
102
RTVSPropertyOp33
 70
     1
102
RTVSPropertyOp34
 70
     1
102
RTVSPropertyOp35
 70
     1
102
RTVSPropertyOp36
 70
     1
102
RTVSPropertyOp37
 70
     1
102
RTVSPropertyOp38
 70
     1
102
RTVSPropertyOp39
 70
     1
102
RTVSPropertyOp40
 70
     1
102
RTVSPropertyOp41
 70
     1
102
RTVSPropertyOp42
 70
     1
102
RTVSPropertyOp43
 70
     1
102
RTVSPropertyOp44
 70
     1
102
RTVSPropertyOp45
 70
     1
102
RTVSPropertyOp46
 70
     1
102
RTVSPropertyOp47
 70
     1
102
RTVSPropertyOp48
 70
     1
102
RTVSPropertyOp49
 70
     1
102
RTVSPropertyOp50
 70
     1
102
RTVSPropertyOp51
 70
     0
102
RTVSPropertyOp52
 70
     0
102
RTVSPropertyOp53
 70
     1
102
RTVSPropertyOp54
 70
     1
102
RTVSPropertyOp55
 70
     1
102
RTVSPropertyOp56
 70
     1
102
RTVSPropertyOp57
 70
     1
102
RTVSPropertyOp58
 70
     1
102
RTVSPropertyOp59
 70
     1
102
RTVSPropertyOp60
 70
     1
102
RTVSPropertyOp61
 70
     1
102
RTVSPropertyOp62
 70
     1
  0
ENDSEC
  0
EOF
