  0
SECTION
  2
HEADER
  9
$ACADVER
  1
AC1015
  9
$ACADMAINTVER
 70
    20
  9
$DWGCODEPAGE
  3
ANSI_932
  9
$INSBASE
 10
0.0
 20
0.0
 30
0.0
  9
$EXTMIN
 10
8.800102
 20
9.999999999999998
 30
0.0
  9
$EXTMAX
 10
420.1041339999998
 20
241.9368899999998
 30
0.0
  9
$LIMMIN
 10
0.000002
 20
0.0
  9
$LIMMAX
 10
495.0000019999998
 20
341.25
  9
$ORTHOMODE
 70
     1
  9
$REGENMODE
 70
     1
  9
$FILLMODE
 70
     1
  9
$QTEXTMODE
 70
     0
  9
$MIRRTEXT
 70
     1
  9
$LTSCALE
 40
1.0
  9
$ATTMODE
 70
     1
  9
$TEXTSIZE
 40
2.5
  9
$TRACEWID
 40
1.0
  9
$TEXTSTYLE
  7
STANDARD
  9
$CLAYER
  8
0
  9
$CELTYPE
  6
BYLAYER
  9
$CECOLOR
 62
   256
  9
$CELTSCALE
 40
1.0
  9
$DISPSILH
 70
     0
  9
$DIMSCALE
 40
1.0
  9
$DIMASZ
 40
3.0
  9
$DIMEXO
 40
1.0
  9
$DIMDLI
 40
10.0
  9
$DIMRND
 40
0.0
  9
$DIMDLE
 40
0.0
  9
$DIMEXE
 40
1.0
  9
$DIMTP
 40
0.0
  9
$DIMTM
 40
0.0
  9
$DIMTXT
 40
3.2
  9
$DIMCEN
 40
0.0
  9
$DIMTSZ
 40
0.0
  9
$DIMTOL
 70
     0
  9
$DIMLIM
 70
     0
  9
$DIMTIH
 70
     0
  9
$DIMTOH
 70
     0
  9
$DIMSE1
 70
     0
  9
$DIMSE2
 70
     0
  9
$DIMTAD
 70
     3
  9
$DIMZIN
 70
     8
  9
$DIMBLK
  1

  9
$DIMASO
 70
     1
  9
$DIMSHO
 70
     1
  9
$DIMPOST
  1

  9
$DIMAPOST
  1

  9
$DIMALT
 70
     0
  9
$DIMALTD
 70
     2
  9
$DIMALTF
 40
25.4
  9
$DIMLFAC
 40
1.0
  9
$DIMTOFL
 70
     1
  9
$DIMTVP
 40
0.0
  9
$DIMTIX
 70
     0
  9
$DIMSOXD
 70
     0
  9
$DIMSAH
 70
     1
  9
$DIMBLK1
  1
OPEN
  9
$DIMBLK2
  1
OPEN
  9
$DIMSTYLE
  2
STANDARD
  9
$DIMCLRD
 70
     0
  9
$DIMCLRE
 70
     0
  9
$DIMCLRT
 70
     0
  9
$DIMTFAC
 40
1.0
  9
$DIMGAP
 40
1.0
  9
$DIMJUST
 70
     0
  9
$DIMSD1
 70
     0
  9
$DIMSD2
 70
     0
  9
$DIMTOLJ
 70
     1
  9
$DIMTZIN
 70
     0
  9
$DIMALTZ
 70
     0
  9
$DIMALTTZ
 70
     0
  9
$DIMUPT
 70
     0
  9
$DIMDEC
 70
     4
  9
$DIMTDEC
 70
     4
  9
$DIMALTU
 70
     2
  9
$DIMALTTD
 70
     2
  9
$DIMTXSTY
  7
STANDARD
  9
$DIMAUNIT
 70
     0
  9
$DIMADEC
 70
     0
  9
$DIMALTRND
 40
0.0
  9
$DIMAZIN
 70
     0
  9
$DIMDSEP
 70
    46
  9
$DIMATFIT
 70
     3
  9
$DIMFRAC
 70
     0
  9
$DIMLDRBLK
  1
OPEN
  9
$DIMLUNIT
 70
     2
  9
$DIMLWD
 70
    -2
  9
$DIMLWE
 70
    -2
  9
$DIMTMOVE
 70
     0
  9
$LUNITS
 70
     2
  9
$LUPREC
 70
     4
  9
$SKETCHINC
 40
1.0
  9
$FILLETRAD
 40
10.0
  9
$AUNITS
 70
     0
  9
$AUPREC
 70
     0
  9
$MENU
  1
.
  9
$ELEVATION
 40
0.0
  9
$PELEVATION
 40
0.0
  9
$THICKNESS
 40
0.0
  9
$LIMCHECK
 70
     0
  9
$CHAMFERA
 40
10.0
  9
$CHAMFERB
 40
10.0
  9
$CHAMFERC
 40
0.0
  9
$CHAMFERD
 40
0.0
  9
$SKPOLY
 70
     0
  9
$TDCREATE
 40
2451640.629092003
  9
$TDUCREATE
 40
2451640.254092002
  9
$TDUPDATE
 40
2457192.600801771
  9
$TDUUPDATE
 40
2457192.225801771
  9
$TDINDWG
 40
0.0008327778
  9
$TDUSRTIMER
 40
0.0008322801
  9
$USRTIMER
 70
     1
  9
$ANGBASE
 50
0.0
  9
$ANGDIR
 70
     0
  9
$PDMODE
 70
     0
  9
$PDSIZE
 40
0.0
  9
$PLINEWID
 40
0.0
  9
$SPLFRAME
 70
     0
  9
$SPLINETYPE
 70
     6
  9
$SPLINESEGS
 70
     8
  9
$HANDSEED
  5
1072
  9
$SURFTAB1
 70
     6
  9
$SURFTAB2
 70
     6
  9
$SURFTYPE
 70
     6
  9
$SURFU
 70
     6
  9
$SURFV
 70
     6
  9
$UCSBASE
  2

  9
$UCSNAME
  2

  9
$UCSORG
 10
0.0
 20
0.0
 30
0.0
  9
$UCSXDIR
 10
1.0
 20
0.0
 30
0.0
  9
$UCSYDIR
 10
0.0
 20
1.0
 30
0.0
  9
$UCSORTHOREF
  2

  9
$UCSORTHOVIEW
 70
     0
  9
$UCSORGTOP
 10
0.0
 20
0.0
 30
0.0
  9
$UCSORGBOTTOM
 10
0.0
 20
0.0
 30
0.0
  9
$UCSORGLEFT
 10
0.0
 20
0.0
 30
0.0
  9
$UCSORGRIGHT
 10
0.0
 20
0.0
 30
0.0
  9
$UCSORGFRONT
 10
0.0
 20
0.0
 30
0.0
  9
$UCSORGBACK
 10
0.0
 20
0.0
 30
0.0
  9
$PUCSBASE
  2

  9
$PUCSNAME
  2

  9
$PUCSORG
 10
0.0
 20
0.0
 30
0.0
  9
$PUCSXDIR
 10
1.0
 20
0.0
 30
0.0
  9
$PUCSYDIR
 10
0.0
 20
1.0
 30
0.0
  9
$PUCSORTHOREF
  2

  9
$PUCSORTHOVIEW
 70
     0
  9
$PUCSORGTOP
 10
0.0
 20
0.0
 30
0.0
  9
$PUCSORGBOTTOM
 10
0.0
 20
0.0
 30
0.0
  9
$PUCSORGLEFT
 10
0.0
 20
0.0
 30
0.0
  9
$PUCSORGRIGHT
 10
0.0
 20
0.0
 30
0.0
  9
$PUCSORGFRONT
 10
0.0
 20
0.0
 30
0.0
  9
$PUCSORGBACK
 10
0.0
 20
0.0
 30
0.0
  9
$USERI1
 70
     0
  9
$USERI2
 70
     0
  9
$USERI3
 70
     0
  9
$USERI4
 70
     0
  9
$USERI5
 70
     0
  9
$USERR1
 40
0.0
  9
$USERR2
 40
0.0
  9
$USERR3
 40
0.0
  9
$USERR4
 40
0.0
  9
$USERR5
 40
0.0
  9
$WORLDVIEW
 70
     1
  9
$SHADEDGE
 70
     3
  9
$SHADEDIF
 70
    70
  9
$TILEMODE
 70
     1
  9
$MAXACTVP
 70
    48
  9
$PINSBASE
 10
0.0
 20
0.0
 30
0.0
  9
$PLIMCHECK
 70
     0
  9
$PEXTMIN
 10
1.000000000000000E+20
 20
1.000000000000000E+20
 30
1.000000000000000E+20
  9
$PEXTMAX
 10
-1.000000000000000E+20
 20
-1.000000000000000E+20
 30
-1.000000000000000E+20
  9
$PLIMMIN
 10
0.0
 20
0.0
  9
$PLIMMAX
 10
420.0
 20
297.0
  9
$UNITMODE
 70
     0
  9
$VISRETAIN
 70
     1
  9
$PLINEGEN
 70
     0
  9
$PSLTSCALE
 70
     1
  9
$TREEDEPTH
 70
  3020
  9
$CMLSTYLE
  2
STANDARD
  9
$CMLJUST
 70
     0
  9
$CMLSCALE
 40
1.0
  9
$PROXYGRAPHICS
 70
     1
  9
$MEASUREMENT
 70
     0
  9
$CELWEIGHT
370
    -1
  9
$ENDCAPS
280
     0
  9
$JOINSTYLE
280
     0
  9
$LWDISPLAY
290
     0
  9
$INSUNITS
 70
     0
  9
$HYPERLINKBASE
  1

  9
$STYLESHEET
  1

  9
$XEDIT
290
     1
  9
$CEPSNTYPE
380
     0
  9
$PSTYLEMODE
290
     1
  9
$FINGERPRINTGUID
  2
{4F904F46-B4ED-4D4C-91AB-2C61A0D1C8B8}
  9
$VERSIONGUID
  2
{FB526277-C38C-4F3A-8B95-CB4207270EBD}
  9
$EXTNAMES
290
     1
  9
$PSVPSCALE
 40
0.0
  9
$OLESTARTUP
290
     0
  0
ENDSEC
  0
SECTION
  2
CLASSES
  0
CLASS
  1
ACDBDICTIONARYWDFLT
  2
AcDbDictionaryWithDefault
  3
ObjectDBX Classes
 90
        0
280
     0
281
     0
  0
CLASS
  1
ACDBPLACEHOLDER
  2
AcDbPlaceHolder
  3
ObjectDBX Classes
 90
        0
280
     0
281
     0
  0
CLASS
  1
LAYOUT
  2
AcDbLayout
  3
ObjectDBX Classes
 90
        0
280
     0
281
     0
  0
CLASS
  1
DICTIONARYVAR
  2
AcDbDictionaryVar
  3
ObjectDBX Classes
 90
        0
280
     0
281
     0
  0
CLASS
  1
MATERIAL
  2
AcDbMaterial
  3
ObjectDBX Classes
 90
     1153
280
     0
281
     0
  0
CLASS
  1
VISUALSTYLE
  2
AcDbVisualStyle
  3
ObjectDBX Classes
 90
     4095
280
     0
281
     0
  0
CLASS
  1
TABLESTYLE
  2
AcDbTableStyle
  3
ObjectDBX Classes
 90
     4095
280
     0
281
     0
  0
CLASS
  1
SCALE
  2
AcDbScale
  3
ObjectDBX Classes
 90
     1153
280
     0
281
     0
  0
CLASS
  1
MLEADERSTYLE
  2
AcDbMLeaderStyle
  3
ACDB_MLEADERSTYLE_CLASS
 90
     4095
280
     0
281
     0
  0
CLASS
  1
ACDBSECTIONVIEWSTYLE
  2
AcDbSectionViewStyle
  3
ObjectDBX Classes
 90
     1025
280
     0
281
     0
  0
CLASS
  1
ACDBDETAILVIEWSTYLE
  2
AcDbDetailViewStyle
  3
ObjectDBX Classes
 90
     1025
280
     0
281
     0
  0
CLASS
  1
CELLSTYLEMAP
  2
AcDbCellStyleMap
  3
ObjectDBX Classes
 90
     1152
280
     0
281
     0
  0
ENDSEC
  0
SECTION
  2
TABLES
  0
TABLE
  2
VPORT
  5
C25
330
0
100
AcDbSymbolTable
 70
     1
  0
VPORT
  5
FBB
330
C25
100
AcDbSymbolTableRecord
100
AcDbViewportTableRecord
  2
*ACTIVE
 70
     0
 10
0.0
 20
0.0
 11
1.0
 21
1.0
 12
285.2773205699185
 22
125.974446085572
 13
0.0
 23
0.0
 14
10.0
 24
10.0
 15
10.0
 25
10.0
 16
0.0
 26
0.0
 36
1.0
 17
0.0
 27
0.0
 37
0.0
 40
236.4427311041091
 41
1.899603698811096
 42
50.0
 43
0.0
 44
0.0
 50
0.0
 51
0.0
 71
     0
 72
   100
 73
     1
 74
     0
 75
     0
 76
     0
 77
     0
 78
     0
281
     0
 65
     1
110
0.0
120
0.0
130
0.0
111
1.0
121
0.0
131
0.0
112
0.0
122
1.0
132
0.0
 79
     0
146
0.0
1001
ACAD_NAV_VCDISPLAY
1070
     3
  0
ENDTAB
  0
TABLE
  2
LTYPE
  5
C22
330
0
100
AcDbSymbolTable
 70
     4
  0
LTYPE
  5
C30
330
C22
100
AcDbSymbolTableRecord
100
AcDbLinetypeTableRecord
  2
BYBLOCK
 70
     0
  3

 72
    65
 73
     0
 40
0.0
  0
LTYPE
  5
C31
330
C22
100
AcDbSymbolTableRecord
100
AcDbLinetypeTableRecord
  2
BYLAYER
 70
     0
  3

 72
    65
 73
     0
 40
0.0
  0
LTYPE
  5
C32
330
C22
100
AcDbSymbolTableRecord
100
AcDbLinetypeTableRecord
  2
CONTINUOUS
 70
     0
  3
Solid line
 72
    65
 73
     0
 40
0.0
  0
LTYPE
  5
C40
330
C22
100
AcDbSymbolTableRecord
100
AcDbLinetypeTableRecord
  2
DASHED
 70
     0
  3
Dashed __ __ __ __ __ __ __ __ __ __ __ __ __ _
 72
    65
 73
     2
 40
19.05
 49
12.7
 74
     0
 49
-6.349999999999997
 74
     0
  0
LTYPE
  5
C41
330
C22
100
AcDbSymbolTableRecord
100
AcDbLinetypeTableRecord
  2
CENTER
 70
     0
  3
Center ____ _ ____ _ ____ _ ____ _ ____ _ ____
 72
    65
 73
     4
 40
50.8
 49
31.75
 74
     0
 49
-6.349999999999997
 74
     0
 49
6.349999999999997
 74
     0
 49
-6.349999999999997
 74
     0
  0
LTYPE
  5
C42
330
C22
100
AcDbSymbolTableRecord
100
AcDbLinetypeTableRecord
  2
PHANTOM
 70
     0
  3
Phantom ______  __  __  ______  __  __  ______
 72
    65
 73
     6
 40
63.5
 49
31.75
 74
     0
 49
-6.349999999999997
 74
     0
 49
6.349999999999997
 74
     0
 49
-6.349999999999997
 74
     0
 49
6.349999999999997
 74
     0
 49
-6.349999999999997
 74
     0
  0
ENDTAB
  0
TABLE
  2
LAYER
  5
C1F
330
0
100
AcDbSymbolTable
 70
     8
  0
LAYER
  5
C2D
102
{ACAD_XDICTIONARY
360
1016
102
}
330
C1F
100
AcDbSymbolTableRecord
100
AcDbLayerTableRecord
  2
0
 70
     0
 62
     7
  6
CONTINUOUS
370
    -3
390
FC4
  0
LAYER
  5
C43
102
{ACAD_XDICTIONARY
360
1018
102
}
330
C1F
100
AcDbSymbolTableRecord
100
AcDbLayerTableRecord
  2
4
 70
     0
 62
     1
  6
CENTER
370
    -3
390
FC4
  0
LAYER
  5
C44
102
{ACAD_XDICTIONARY
360
101A
102
}
330
C1F
100
AcDbSymbolTableRecord
100
AcDbLayerTableRecord
  2
5
 70
     0
 62
     6
  6
PHANTOM
370
    -3
390
FC4
  0
LAYER
  5
C45
102
{ACAD_XDICTIONARY
360
101C
102
}
330
C1F
100
AcDbSymbolTableRecord
100
AcDbLayerTableRecord
  2
1
 70
     0
 62
     7
  6
CONTINUOUS
370
    -3
390
FC4
  0
LAYER
  5
C46
102
{ACAD_XDICTIONARY
360
101E
102
}
330
C1F
100
AcDbSymbolTableRecord
100
AcDbLayerTableRecord
  2
2
 70
     0
 62
     4
  6
CONTINUOUS
370
    -3
390
FC4
  0
LAYER
  5
C47
102
{ACAD_XDICTIONARY
360
1020
102
}
330
C1F
100
AcDbSymbolTableRecord
100
AcDbLayerTableRecord
  2
3
 70
     0
 62
     2
  6
DASHED
370
    -3
390
FC4
  0
LAYER
  5
C48
102
{ACAD_XDICTIONARY
360
1022
102
}
330
C1F
100
AcDbSymbolTableRecord
100
AcDbLayerTableRecord
  2
6
 70
     0
 62
     5
  6
CONTINUOUS
370
    -3
390
FC4
  0
LAYER
  5
C49
102
{ACAD_XDICTIONARY
360
1024
102
}
330
C1F
100
AcDbSymbolTableRecord
100
AcDbLayerTableRecord
  2
7
 70
     0
 62
     3
  6
CONTINUOUS
370
    -3
390
FC4
  0
ENDTAB
  0
TABLE
  2
STYLE
  5
C20
330
0
100
AcDbSymbolTable
 70
     1
  0
STYLE
  5
C2E
330
C20
100
AcDbSymbolTableRecord
100
AcDbTextStyleTableRecord
  2
STANDARD
 70
     0
 40
0.0
 41
1.0
 50
0.0
 71
     0
 42
2.5
  3
txt
  4

  0
ENDTAB
  0
TABLE
  2
VIEW
  5
C23
330
0
100
AcDbSymbolTable
 70
     0
  0
ENDTAB
  0
TABLE
  2
UCS
  5
C24
330
0
100
AcDbSymbolTable
 70
     0
  0
ENDTAB
  0
TABLE
  2
APPID
  5
C26
330
0
100
AcDbSymbolTable
 70
     7
  0
APPID
  5
C2F
330
C26
100
AcDbSymbolTableRecord
100
AcDbRegAppTableRecord
  2
ACAD
 70
     0
  0
APPID
  5
C4A
330
C26
100
AcDbSymbolTableRecord
100
AcDbRegAppTableRecord
  2
CONTENTTABDATA
 70
     0
  0
APPID
  5
C4B
330
C26
100
AcDbSymbolTableRecord
100
AcDbRegAppTableRecord
  2
CONTENTCURRENTTAB
 70
     0
  0
APPID
  5
C4C
330
C26
100
AcDbSymbolTableRecord
100
AcDbRegAppTableRecord
  2
CONTENTBLOCKDESCRIPTION
 70
     0
  0
APPID
  5
C4D
330
C26
100
AcDbSymbolTableRecord
100
AcDbRegAppTableRecord
  2
CONTENTBLOCKICON
 70
     0
  0
APPID
  5
1030
330
C26
100
AcDbSymbolTableRecord
100
AcDbRegAppTableRecord
  2
ACAD_NAV_VCDISPLAY
 70
     0
  0
APPID
  5
1069
330
C26
100
AcDbSymbolTableRecord
100
AcDbRegAppTableRecord
  2
ACAD_MLEADERVER
 70
     0
  0
ENDTAB
  0
TABLE
  2
DIMSTYLE
  5
C27
330
0
100
AcDbSymbolTable
 70
     1
100
AcDbDimStyleTable
 71
     0
  0
DIMSTYLE
105
C4E
330
C27
100
AcDbSymbolTableRecord
100
AcDbDimStyleTableRecord
  2
STANDARD
 70
     0
 41
3.0
 42
1.0
 43
10.0
 44
1.0
 73
     0
 74
     0
 77
     3
 78
     8
140
3.2
141
0.0
147
1.0
172
     1
173
     1
284
     8
285
     8
286
     8
340
C2E
  0
ENDTAB
  0
TABLE
  2
BLOCK_RECORD
  5
C1E
330
0
100
AcDbSymbolTable
 70
     1
  0
BLOCK_RECORD
  5
C3B
102
{ACAD_XDICTIONARY
360
FBE
102
}
330
C1E
100
AcDbSymbolTableRecord
100
AcDbBlockTableRecord
  2
*MODEL_SPACE
340
1012
  0
BLOCK_RECORD
  5
C37
102
{ACAD_XDICTIONARY
360
FBC
102
}
330
C1E
100
AcDbSymbolTableRecord
100
AcDbBlockTableRecord
  2
*PAPER_SPACE
340
1013
  0
BLOCK_RECORD
  5
C56
330
C1E
100
AcDbSymbolTableRecord
100
AcDbBlockTableRecord
  2
_OPEN
340
0
  0
ENDTAB
  0
ENDSEC
  0
SECTION
  2
BLOCKS
  0
BLOCK
  5
C3C
330
C3B
100
AcDbEntity
  8
0
100
AcDbBlockBegin
  2
*MODEL_SPACE
 70
     0
 10
0.0
 20
0.0
 30
0.0
  3
*MODEL_SPACE
  1

  0
ENDBLK
  5
C3D
330
C3B
100
AcDbEntity
  8
0
100
AcDbBlockEnd
  0
BLOCK
  5
C38
330
C37
100
AcDbEntity
 67
     1
  8
0
100
AcDbBlockBegin
  2
*PAPER_SPACE
 70
     0
 10
0.0
 20
0.0
 30
0.0
  3
*PAPER_SPACE
  1

  0
ENDBLK
  5
C39
330
C37
100
AcDbEntity
 67
     1
  8
0
100
AcDbBlockEnd
  0
BLOCK
  5
C57
330
C56
100
AcDbEntity
  8
0
100
AcDbBlockBegin
  2
_OPEN
 70
     0
 10
0.0
 20
0.0
 30
0.0
  3
_OPEN
  1

  0
LINE
  5
C58
330
C56
100
AcDbEntity
  8
0
  6
ByBlock
 62
     0
100
AcDbLine
 10
-1.0
 20
0.166667
 30
0.0
 11
0.0
 21
0.0
 31
0.0
  0
LINE
  5
C59
330
C56
100
AcDbEntity
  8
0
  6
ByBlock
 62
     0
100
AcDbLine
 10
0.0
 20
0.0
 30
0.0
 11
-1.0
 21
-0.166667
 31
0.0
  0
LINE
  5
C5A
330
C56
100
AcDbEntity
  8
0
  6
ByBlock
 62
     0
100
AcDbLine
 10
0.0
 20
0.0
 30
0.0
 11
-1.0
 21
0.0
 31
0.0
  0
ENDBLK
  5
C5B
330
C56
100
AcDbEntity
  8
0
100
AcDbBlockEnd
  0
ENDSEC
  0
SECTION
  2
ENTITIES
  0
TEXT
  5
C5C
330
C3B
100
AcDbEntity
  8
7
  6
Continuous
100
AcDbText
 10
10.0
 20
18.0
 30
0.0
 40
3.0
  1
TYPE No.TL-259-1
100
AcDbText
  0
TEXT
  5
C5D
330
C3B
100
AcDbEntity
  8
7
  6
Continuous
100
AcDbText
 10
10.0
 20
26.0
 30
0.0
 40
3.0
  1
CODE No.1739
100
AcDbText
  0
TEXT
  5
C5E
330
C3B
100
AcDbEntity
  8
1
  6
Continuous
100
AcDbText
 10
10.0
 20
10.0
 30
0.0
 40
1.399999999999999
  1
LAYER
100
AcDbText
  0
TEXT
  5
C5F
330
C3B
100
AcDbEntity
  8
1
  6
Continuous
100
AcDbText
 10
17.97951099999998
 20
10.04873699999998
 30
0.0
 40
1.399999999999999
  1
1
100
AcDbText
  0
TEXT
  5
C60
330
C3B
100
AcDbEntity
  8
7
  6
Continuous
100
AcDbText
 10
29.97951099999999
 20
10.04873699999998
 30
0.0
 40
1.399999999999999
  1
7
100
AcDbText
  0
TEXT
  5
C61
330
C3B
100
AcDbEntity
  8
4
  6
CENTER
100
AcDbText
 10
23.97951099999999
 20
10.04873699999998
 30
0.0
 40
1.399999999999999
  1
4
100
AcDbText
  0
TEXT
  5
C62
330
C3B
100
AcDbEntity
  8
3
  6
DASHED
100
AcDbText
 10
21.979511
 20
10.04873699999998
 30
0.0
 40
1.399999999999999
  1
3
100
AcDbText
  0
TEXT
  5
C63
330
C3B
100
AcDbEntity
  8
2
  6
Continuous
100
AcDbText
 10
19.97951099999999
 20
10.04873699999998
 30
0.0
 40
1.399999999999999
  1
2
100
AcDbText
  0
TEXT
  5
C64
330
C3B
100
AcDbEntity
  8
6
  6
Continuous
100
AcDbText
 10
27.979511
 20
10.04873699999998
 30
0.0
 40
1.399999999999999
  1
6
100
AcDbText
  0
TEXT
  5
C65
330
C3B
100
AcDbEntity
  8
5
  6
PHANTOM
100
AcDbText
 10
25.97951099999999
 20
10.04873699999998
 30
0.0
 40
1.399999999999999
  1
5
100
AcDbText
  0
LINE
  5
C66
330
C3B
100
AcDbEntity
  8
1
  6
Continuous
100
AcDbLine
 10
15.245299
 20
224.9368899999999
 30
0.0
 11
16.645301
 21
224.9368899999999
 31
0.0
  0
LINE
  5
C67
330
C3B
100
AcDbEntity
  8
1
  6
Continuous
100
AcDbLine
 10
15.245299
 20
228.9368899999999
 30
0.0
 11
16.645301
 21
228.9368899999999
 31
0.0
  0
LINE
  5
C68
330
C3B
100
AcDbEntity
  8
1
  6
Continuous
100
AcDbLine
 10
17.49124799999999
 20
216.9368899999998
 30
0.0
 11
21.290053
 21
216.9368899999998
 31
0.0
  0
LINE
  5
C69
330
C3B
100
AcDbEntity
  8
1
  6
Continuous
100
AcDbLine
 10
17.49124799999999
 20
236.93689
 30
0.0
 11
21.290053
 21
236.93689
 31
0.0
  0
LINE
  5
C6A
330
C3B
100
AcDbEntity
  8
1
  6
Continuous
100
AcDbLine
 10
12.445304
 20
224.230591
 30
0.0
 11
12.445304
 21
229.6431879999999
 31
0.0
  0
LINE
  5
C6B
330
C3B
100
AcDbEntity
  8
1
  6
Continuous
100
AcDbLine
 10
12.604146
 20
230.183929
 30
0.0
 11
16.65009999999999
 21
236.4776309999998
 31
0.0
  0
LINE
  5
C6C
330
C3B
100
AcDbEntity
  8
1
  6
Continuous
100
AcDbLine
 10
12.60415599999999
 20
223.689835
 30
0.0
 11
16.650109
 21
217.396133
 31
0.0
  0
LINE
  5
C6D
330
C3B
100
AcDbEntity
  8
1
  6
Continuous
100
AcDbLine
 10
17.445304
 20
225.7368769999999
 30
0.0
 11
17.445304
 21
228.136887
 31
0.0
  0
LINE
  5
C6E
330
C3B
100
AcDbEntity
  8
1
  6
Continuous
100
AcDbLine
 10
14.445304
 20
225.7368769999999
 30
0.0
 11
14.445304
 21
228.136887
 31
0.0
  0
LINE
  5
C6F
330
C3B
100
AcDbEntity
  8
1
  6
Continuous
100
AcDbLine
 10
32.445304
 20
233.4368739999999
 30
0.0
 11
21.593257
 21
236.889786
 31
0.0
  0
LINE
  5
C70
330
C3B
100
AcDbEntity
  8
1
  6
Continuous
100
AcDbLine
 10
30.354957
 20
219.7717589999998
 30
0.0
 11
21.593259
 21
216.9839629999999
 31
0.0
  0
LINE
  5
C71
330
C3B
100
AcDbEntity
  8
1
  6
Continuous
100
AcDbLine
 10
29.54029699999999
 20
223.836884
 30
0.0
 11
29.945304
 21
223.836884
 31
0.0
  0
LINE
  5
C72
330
C3B
100
AcDbEntity
  8
1
  6
Continuous
100
AcDbLine
 10
29.54029699999999
 20
230.0368799999999
 30
0.0
 11
29.945304
 21
230.0368799999999
 31
0.0
  0
LINE
  5
C73
330
C3B
100
AcDbEntity
  8
1
  6
Continuous
100
AcDbLine
 10
26.545302
 20
226.136887
 30
0.0
 11
26.545302
 21
227.7368769999999
 31
0.0
  0
LINE
  5
C74
330
C3B
100
AcDbEntity
  8
1
  6
Continuous
100
AcDbLine
 10
30.44529999999999
 20
220.8499299999998
 30
0.0
 11
21.29005
 21
217.936874
 31
0.0
  0
LINE
  5
C75
330
C3B
100
AcDbEntity
  8
1
  6
Continuous
100
AcDbLine
 10
17.49124799999999
 20
217.9368899999999
 30
0.0
 11
21.290053
 21
217.9368899999999
 31
0.0
  0
LINE
  5
C76
330
C3B
100
AcDbEntity
  8
1
  6
Continuous
100
AcDbLine
 10
13.4453
 20
224.230591
 30
0.0
 11
17.491254
 21
217.9368899999999
 31
0.0
  0
LINE
  5
C77
330
C3B
100
AcDbEntity
  8
1
  6
Continuous
100
AcDbLine
 10
13.445304
 20
224.230591
 30
0.0
 11
13.445304
 21
229.6431879999999
 31
0.0
  0
LINE
  5
C78
330
C3B
100
AcDbEntity
  8
1
  6
Continuous
100
AcDbLine
 10
13.4453
 20
229.6431879999999
 30
0.0
 11
17.49124399999999
 21
235.9368739999999
 31
0.0
  0
LINE
  5
C79
330
C3B
100
AcDbEntity
  8
1
  6
Continuous
100
AcDbLine
 10
17.49124799999999
 20
235.9368899999998
 30
0.0
 11
21.290053
 21
235.9368899999998
 31
0.0
  0
LINE
  5
C7A
330
C3B
100
AcDbEntity
  8
1
  6
Continuous
100
AcDbLine
 10
30.44529999999999
 20
233.023819
 30
0.0
 11
21.290048
 21
235.9368739999999
 31
0.0
  0
LINE
  5
C7B
330
C3B
100
AcDbEntity
  8
1
  6
Continuous
100
AcDbLine
 10
29.54530200000001
 20
231.2368769999999
 30
0.0
 11
30.44530399999999
 21
231.2368769999999
 31
0.0
  0
LINE
  5
C7C
330
C3B
100
AcDbEntity
  8
1
  6
Continuous
100
AcDbLine
 10
29.54530200000001
 20
222.6368869999999
 30
0.0
 11
30.44530399999999
 21
222.6368869999999
 31
0.0
  0
LINE
  5
C7D
330
C3B
100
AcDbEntity
  8
1
  6
Continuous
100
AcDbLine
 10
30.44530399999999
 20
220.8499299999998
 30
0.0
 11
30.44530399999999
 21
222.6368869999999
 31
0.0
  0
LINE
  5
C7E
330
C3B
100
AcDbEntity
  8
1
  6
Continuous
100
AcDbLine
 10
30.44530399999999
 20
231.2368769999999
 30
0.0
 11
30.44530399999999
 21
233.023834
 31
0.0
  0
LINE
  5
C7F
330
C3B
100
AcDbEntity
  8
4
  6
CENTER
100
AcDbLine
 10
8.800102
 20
226.9368899999999
 30
0.0
 11
48.655042
 21
226.9368899999999
 31
0.0
  0
LINE
  5
C80
330
C3B
100
AcDbEntity
  8
1
  6
Continuous
100
AcDbLine
 10
43.54530599999999
 20
230.3806299999999
 30
0.0
 11
43.54530599999999
 21
230.486877
 31
0.0
  0
LINE
  5
C81
330
C3B
100
AcDbEntity
  8
1
  6
Continuous
100
AcDbLine
 10
32.445304
 20
233.4368899999998
 30
0.0
 11
38.045302
 21
233.4368899999998
 31
0.0
  0
LINE
  5
C82
330
C3B
100
AcDbEntity
  8
1
  6
Continuous
100
AcDbLine
 10
42.345302
 20
231.1368869999999
 30
0.0
 11
43.74530299999999
 21
231.1368869999999
 31
0.0
  0
LINE
  5
C83
330
C3B
100
AcDbEntity
  8
1
  6
Continuous
100
AcDbLine
 10
42.345302
 20
230.3806299999999
 30
0.0
 11
42.345302
 21
231.1368869999999
 31
0.0
  0
LINE
  5
C84
330
C3B
100
AcDbEntity
  8
1
  6
Continuous
100
AcDbLine
 10
43.54530599999999
 20
230.486877
 30
0.0
 11
43.74531499999998
 21
230.586884
 31
0.0
  0
LINE
  5
C85
330
C3B
100
AcDbEntity
  8
1
  6
Continuous
100
AcDbLine
 10
43.74530299999999
 20
230.586884
 30
0.0
 11
43.74530299999999
 21
231.1368869999999
 31
0.0
  0
LINE
  5
C86
330
C3B
100
AcDbEntity
  8
1
  6
Continuous
100
AcDbLine
 10
39.24529899999999
 20
230.3806299999999
 30
0.0
 11
39.24529899999999
 21
232.236877
 31
0.0
  0
LINE
  5
C87
330
C3B
100
AcDbEntity
  8
1
  6
Continuous
100
AcDbLine
 10
37.14530100000001
 20
230.3806299999999
 30
0.0
 11
37.14530100000001
 21
230.5368799999999
 31
0.0
  0
LINE
  5
C88
330
C3B
100
AcDbEntity
  8
1
  6
Continuous
100
AcDbLine
 10
32.645301
 20
230.5368799999999
 30
0.0
 11
37.14530100000001
 21
230.5368799999999
 31
0.0
  0
LINE
  5
C89
330
C3B
100
AcDbEntity
  8
1
  6
Continuous
100
AcDbLine
 10
44.24530299999999
 20
223.4368899999998
 30
0.0
 11
33.645301
 21
223.4368899999998
 31
0.0
  0
LINE
  5
C8A
330
C3B
100
AcDbEntity
  8
1
  6
Continuous
100
AcDbLine
 10
44.44530799999999
 20
230.236877
 30
0.0
 11
44.44530799999999
 21
223.636887
 31
0.0
  0
LINE
  5
C8B
330
C3B
100
AcDbEntity
  8
1
  6
Continuous
100
AcDbLine
 10
26.94530399999999
 20
228.1738279999999
 30
0.0
 11
26.94530399999999
 21
225.699936
 31
0.0
  0
LINE
  5
C8C
330
C3B
100
AcDbEntity
  8
1
  6
Continuous
100
AcDbLine
 10
33.445304
 20
229.636887
 30
0.0
 11
29.34529799999999
 21
229.636887
 31
0.0
  0
LINE
  5
C8D
330
C3B
100
AcDbEntity
  8
1
  6
Continuous
100
AcDbLine
 10
33.445304
 20
224.236877
 30
0.0
 11
29.34529799999999
 21
224.236877
 31
0.0
  0
LINE
  5
C8E
330
C3B
100
AcDbEntity
  8
1
  6
Continuous
100
AcDbLine
 10
33.445304
 20
230.236877
 30
0.0
 11
33.445304
 21
223.636887
 31
0.0
  0
LINE
  5
C8F
330
C3B
100
AcDbEntity
  8
1
  6
Continuous
100
AcDbLine
 10
44.445304
 20
230.236893
 30
0.0
 11
44.24530299999999
 21
230.4368899999999
 31
0.0
  0
LINE
  5
C90
330
C3B
100
AcDbEntity
  8
1
  6
Continuous
100
AcDbLine
 10
44.445304
 20
223.636887
 30
0.0
 11
44.245311
 21
223.4368899999998
 31
0.0
  0
LINE
  5
C91
330
C3B
100
AcDbEntity
  8
1
  6
Continuous
100
AcDbLine
 10
33.645312
 20
223.4368899999998
 30
0.0
 11
33.445304
 21
223.636902
 31
0.0
  0
LINE
  5
C92
330
C3B
100
AcDbEntity
  8
1
  6
Continuous
100
AcDbLine
 10
33.445304
 20
230.236893
 30
0.0
 11
33.645301
 21
230.4368899999999
 31
0.0
  0
LINE
  5
C93
330
C3B
100
AcDbEntity
  8
1
  6
Continuous
100
AcDbLine
 10
43.54530599999999
 20
230.3806299999999
 30
0.0
 11
36.84529799999999
 21
230.3806299999999
 31
0.0
  0
LINE
  5
C94
330
C3B
100
AcDbEntity
  8
1
  6
Continuous
100
AcDbLine
 10
44.24530299999999
 20
230.4368899999999
 30
0.0
 11
43.54530599999999
 21
230.4368899999999
 31
0.0
  0
LINE
  5
C95
330
C3B
100
AcDbEntity
  8
1
  6
Continuous
100
AcDbLine
 10
36.84529799999999
 20
230.4368899999999
 30
0.0
 11
33.645301
 21
230.4368899999999
 31
0.0
  0
LINE
  5
C96
330
C3B
100
AcDbEntity
  8
1
  6
Continuous
100
AcDbLine
 10
33.645301
 20
230.4368899999999
 30
0.0
 11
33.645301
 21
223.4368899999998
 31
0.0
  0
LINE
  5
C97
330
C3B
100
AcDbEntity
  8
1
  6
Continuous
100
AcDbLine
 10
44.24530299999999
 20
230.4368899999999
 30
0.0
 11
44.24530299999999
 21
223.4368899999998
 31
0.0
  0
LINE
  5
C98
330
C3B
100
AcDbEntity
  8
1
  6
Continuous
100
AcDbLine
 10
36.84529799999999
 20
230.4368899999999
 30
0.0
 11
36.84529799999999
 21
230.3806299999999
 31
0.0
  0
LINE
  5
C99
330
C3B
100
AcDbEntity
  8
1
  6
Continuous
100
AcDbLine
 10
29.945304
 20
223.836884
 30
0.0
 11
29.945304
 21
224.236877
 31
0.0
  0
LINE
  5
C9A
330
C3B
100
AcDbEntity
  8
1
  6
Continuous
100
AcDbLine
 10
29.945304
 20
229.636887
 30
0.0
 11
29.945304
 21
230.0368799999999
 31
0.0
  0
LINE
  5
C9B
330
C3B
100
AcDbEntity
  8
1
  6
Continuous
100
AcDbLine
 10
32.445304
 20
222.6305389999999
 30
0.0
 11
32.445304
 21
224.236877
 31
0.0
  0
LINE
  5
C9C
330
C3B
100
AcDbEntity
  8
1
  6
Continuous
100
AcDbLine
 10
32.445304
 20
229.636887
 30
0.0
 11
32.445304
 21
230.336884
 31
0.0
  0
LINE
  5
C9D
330
C3B
100
AcDbEntity
  8
1
  6
Continuous
100
AcDbLine
 10
113.0880179999999
 20
148.4368899999998
 30
0.0
 11
113.0880179999999
 21
123.4368899999999
 31
0.0
  0
LINE
  5
C9E
330
C3B
100
AcDbEntity
  8
1
  6
Continuous
100
AcDbLine
 10
188.1880179999998
 20
148.4368899999998
 30
0.0
 11
188.1880179999998
 21
123.4368899999999
 31
0.0
  0
LINE
  5
C9F
330
C3B
100
AcDbEntity
  8
4
  6
CENTER
100
AcDbLine
 10
95.370962
 20
135.9368899999997
 30
0.0
 11
194.610076
 21
135.9368899999997
 31
0.0
  0
LINE
  5
CA0
330
C3B
100
AcDbEntity
  8
1
  6
Continuous
100
AcDbLine
 10
113.0880179999999
 20
123.4368899999999
 30
0.0
 11
188.1880179999998
 21
123.4368899999999
 31
0.0
  0
LINE
  5
CA1
330
C3B
100
AcDbEntity
  8
1
  6
Continuous
100
AcDbLine
 10
140.3123159999998
 20
148.4368899999998
 30
0.0
 11
188.1880179999998
 21
148.4368899999998
 31
0.0
  0
LINE
  5
CA2
330
C3B
100
AcDbEntity
  8
1
  6
Continuous
100
AcDbLine
 10
113.0880179999999
 20
148.4368899999998
 30
0.0
 11
118.0637199999999
 21
148.4368899999998
 31
0.0
  0
LINE
  5
CA3
330
C3B
100
AcDbEntity
  8
4
  6
CENTER
100
AcDbLine
 10
116.4380179999999
 20
137.4368899999998
 30
0.0
 11
122.9380179999999
 21
137.4368899999998
 31
0.0
  0
LINE
  5
CA4
330
C3B
100
AcDbEntity
  8
4
  6
CENTER
100
AcDbLine
 10
119.6880179999999
 20
140.6868899999998
 30
0.0
 11
119.6880179999999
 21
134.1868899999997
 31
0.0
  0
LINE
  5
CA5
330
C3B
100
AcDbEntity
  8
4
  6
CENTER
100
AcDbLine
 10
181.1880179999998
 20
149.6868899999998
 30
0.0
 11
181.1880179999998
 21
140.1868899999997
 31
0.0
  0
LINE
  5
CA6
330
C3B
100
AcDbEntity
  8
4
  6
CENTER
100
AcDbLine
 10
176.438018
 20
144.9368899999998
 30
0.0
 11
185.938018
 21
144.9368899999998
 31
0.0
  0
LINE
  5
CA7
330
C3B
100
AcDbEntity
  8
1
  6
Continuous
100
AcDbLine
 10
181.8168169999999
 20
144.308105
 30
0.0
 11
182.238357
 21
144.504669
 31
0.0
  0
LINE
  5
CA8
330
C3B
100
AcDbEntity
  8
1
  6
Continuous
100
AcDbLine
 10
182.238357
 20
144.504669
 30
0.0
 11
182.9383379999999
 21
144.5168909999999
 31
0.0
  0
LINE
  5
CA9
330
C3B
100
AcDbEntity
  8
1
  6
Continuous
100
AcDbLine
 10
182.238341
 20
145.36911
 30
0.0
 11
182.9383229999999
 21
145.3568879999999
 31
0.0
  0
LINE
  5
CAA
330
C3B
100
AcDbEntity
  8
1
  6
Continuous
100
AcDbLine
 10
181.8168019999999
 20
145.565674
 30
0.0
 11
182.238341
 21
145.36911
 31
0.0
  0
LINE
  5
CAB
330
C3B
100
AcDbEntity
  8
1
  6
Continuous
100
AcDbLine
 10
181.6202539999999
 20
145.9872279999999
 30
0.0
 11
181.608046
 21
146.6872099999999
 31
0.0
  0
LINE
  5
CAC
330
C3B
100
AcDbEntity
  8
1
  6
Continuous
100
AcDbLine
 10
181.8168019999999
 20
145.565674
 30
0.0
 11
181.620238
 21
145.9872129999999
 31
0.0
  0
LINE
  5
CAD
330
C3B
100
AcDbEntity
  8
1
  6
Continuous
100
AcDbLine
 10
180.7558129999999
 20
145.9872129999999
 30
0.0
 11
180.76802
 21
146.6872099999999
 31
0.0
  0
LINE
  5
CAE
330
C3B
100
AcDbEntity
  8
1
  6
Continuous
100
AcDbLine
 10
180.559234
 20
145.565674
 30
0.0
 11
180.7558129999999
 21
145.9872129999999
 31
0.0
  0
LINE
  5
CAF
330
C3B
100
AcDbEntity
  8
1
  6
Continuous
100
AcDbLine
 10
180.1376939999999
 20
145.36911
 30
0.0
 11
179.4377129999998
 21
145.3568879999999
 31
0.0
  0
LINE
  5
CB0
330
C3B
100
AcDbEntity
  8
1
  6
Continuous
100
AcDbLine
 10
180.559249
 20
145.565674
 30
0.0
 11
180.13771
 21
145.36911
 31
0.0
  0
LINE
  5
CB1
330
C3B
100
AcDbEntity
  8
1
  6
Continuous
100
AcDbLine
 10
180.1376939999999
 20
144.504669
 30
0.0
 11
179.4377129999998
 21
144.5168909999999
 31
0.0
  0
LINE
  5
CB2
330
C3B
100
AcDbEntity
  8
1
  6
Continuous
100
AcDbLine
 10
180.559234
 20
144.308105
 30
0.0
 11
180.1376939999999
 21
144.504669
 31
0.0
  0
LINE
  5
CB3
330
C3B
100
AcDbEntity
  8
1
  6
Continuous
100
AcDbLine
 10
180.7558129999999
 20
143.8865659999999
 30
0.0
 11
180.768035
 21
143.186584
 31
0.0
  0
LINE
  5
CB4
330
C3B
100
AcDbEntity
  8
1
  6
Continuous
100
AcDbLine
 10
180.559234
 20
144.308105
 30
0.0
 11
180.7557969999998
 21
143.8865659999999
 31
0.0
  0
LINE
  5
CB5
330
C3B
100
AcDbEntity
  8
1
  6
Continuous
100
AcDbLine
 10
181.6202539999999
 20
143.8865659999999
 30
0.0
 11
181.608031
 21
143.1865689999999
 31
0.0
  0
LINE
  5
CB6
330
C3B
100
AcDbEntity
  8
1
  6
Continuous
100
AcDbLine
 10
181.8168019999999
 20
144.308105
 30
0.0
 11
181.620238
 21
143.8865659999999
 31
0.0
  0
LINE
  5
CB7
330
C3B
100
AcDbEntity
  8
4
  6
CENTER
100
AcDbLine
 10
129.1880179999998
 20
157.4368899999998
 30
0.0
 11
129.1880179999998
 21
136.4368899999998
 31
0.0
  0
LINE
  5
CB8
330
C3B
100
AcDbEntity
  8
4
  6
CENTER
100
AcDbLine
 10
118.688033
 20
146.9368899999998
 30
0.0
 11
139.6880179999998
 21
146.9368899999998
 31
0.0
  0
LINE
  5
CB9
330
C3B
100
AcDbEntity
  8
1
  6
Continuous
100
AcDbLine
 10
124.688018
 20
147.6118929999999
 30
0.0
 11
124.688018
 21
146.261887
 31
0.0
  0
LINE
  5
CBA
330
C3B
100
AcDbEntity
  8
1
  6
Continuous
100
AcDbLine
 10
124.688018
 20
147.6118929999999
 30
0.0
 11
125.651854
 21
147.6118929999999
 31
0.0
  0
LINE
  5
CBB
330
C3B
100
AcDbEntity
  8
1
  6
Continuous
100
AcDbLine
 10
126.6254259999999
 20
147.6118929999999
 30
0.0
 11
128.1880179999998
 21
147.6118929999999
 31
0.0
  0
LINE
  5
CBC
330
C3B
100
AcDbEntity
  8
1
  6
Continuous
100
AcDbLine
 10
128.1880179999998
 20
147.6118929999999
 30
0.0
 11
128.1880179999998
 21
146.261887
 31
0.0
  0
LINE
  5
CBD
330
C3B
100
AcDbEntity
  8
1
  6
Continuous
100
AcDbLine
 10
126.6254259999999
 20
146.261887
 30
0.0
 11
128.1880179999998
 21
146.261887
 31
0.0
  0
LINE
  5
CBE
330
C3B
100
AcDbEntity
  8
1
  6
Continuous
100
AcDbLine
 10
124.688018
 20
146.261887
 30
0.0
 11
125.651854
 21
146.261887
 31
0.0
  0
LINE
  5
CBF
330
C3B
100
AcDbEntity
  8
4
  6
CENTER
100
AcDbLine
 10
181.1880179999998
 20
131.6868899999998
 30
0.0
 11
181.1880179999998
 21
122.18689
 31
0.0
  0
LINE
  5
CC0
330
C3B
100
AcDbEntity
  8
4
  6
CENTER
100
AcDbLine
 10
176.438018
 20
126.9368899999999
 30
0.0
 11
185.938018
 21
126.9368899999999
 31
0.0
  0
LINE
  5
CC1
330
C3B
100
AcDbEntity
  8
1
  6
Continuous
100
AcDbLine
 10
181.8168169999999
 20
126.308105
 30
0.0
 11
182.238357
 21
126.5046689999998
 31
0.0
  0
LINE
  5
CC2
330
C3B
100
AcDbEntity
  8
1
  6
Continuous
100
AcDbLine
 10
182.238357
 20
126.504662
 30
0.0
 11
182.9383379999999
 21
126.5168759999999
 31
0.0
  0
LINE
  5
CC3
330
C3B
100
AcDbEntity
  8
1
  6
Continuous
100
AcDbLine
 10
182.238357
 20
127.369102
 30
0.0
 11
182.9383379999999
 21
127.3568879999998
 31
0.0
  0
LINE
  5
CC4
330
C3B
100
AcDbEntity
  8
1
  6
Continuous
100
AcDbLine
 10
181.8168169999999
 20
127.565674
 30
0.0
 11
182.238357
 21
127.369102
 31
0.0
  0
LINE
  5
CC5
330
C3B
100
AcDbEntity
  8
1
  6
Continuous
100
AcDbLine
 10
181.6202539999999
 20
127.9872209999999
 30
0.0
 11
181.608031
 21
128.687195
 31
0.0
  0
LINE
  5
CC6
330
C3B
100
AcDbEntity
  8
1
  6
Continuous
100
AcDbLine
 10
181.8168019999999
 20
127.565674
 30
0.0
 11
181.620238
 21
127.9872209999999
 31
0.0
  0
LINE
  5
CC7
330
C3B
100
AcDbEntity
  8
1
  6
Continuous
100
AcDbLine
 10
180.7558129999999
 20
127.9872059999999
 30
0.0
 11
180.768035
 21
128.687195
 31
0.0
  0
LINE
  5
CC8
330
C3B
100
AcDbEntity
  8
1
  6
Continuous
100
AcDbLine
 10
180.559249
 20
127.565681
 30
0.0
 11
180.7558129999999
 21
127.9872209999999
 31
0.0
  0
LINE
  5
CC9
330
C3B
100
AcDbEntity
  8
1
  6
Continuous
100
AcDbLine
 10
180.1376939999999
 20
127.369102
 30
0.0
 11
179.4377129999998
 21
127.35688
 31
0.0
  0
LINE
  5
CCA
330
C3B
100
AcDbEntity
  8
1
  6
Continuous
100
AcDbLine
 10
180.559234
 20
127.565674
 30
0.0
 11
180.1376939999999
 21
127.36911
 31
0.0
  0
LINE
  5
CCB
330
C3B
100
AcDbEntity
  8
1
  6
Continuous
100
AcDbLine
 10
180.1376939999999
 20
126.504662
 30
0.0
 11
179.4377129999998
 21
126.516884
 31
0.0
  0
LINE
  5
CCC
330
C3B
100
AcDbEntity
  8
1
  6
Continuous
100
AcDbLine
 10
180.559234
 20
126.308098
 30
0.0
 11
180.1376939999999
 21
126.5046689999998
 31
0.0
  0
LINE
  5
CCD
330
C3B
100
AcDbEntity
  8
1
  6
Continuous
100
AcDbLine
 10
180.7558129999999
 20
125.886559
 30
0.0
 11
180.768035
 21
125.1865769999999
 31
0.0
  0
LINE
  5
CCE
330
C3B
100
AcDbEntity
  8
1
  6
Continuous
100
AcDbLine
 10
180.559234
 20
126.308105
 30
0.0
 11
180.7557969999998
 21
125.8865659999998
 31
0.0
  0
LINE
  5
CCF
330
C3B
100
AcDbEntity
  8
1
  6
Continuous
100
AcDbLine
 10
181.6202539999999
 20
125.886559
 30
0.0
 11
181.608031
 21
125.186562
 31
0.0
  0
LINE
  5
CD0
330
C3B
100
AcDbEntity
  8
1
  6
Continuous
100
AcDbLine
 10
181.8168169999999
 20
126.308105
 30
0.0
 11
181.620238
 21
125.8865659999998
 31
0.0
  0
LINE
  5
CD1
330
C3B
100
AcDbEntity
  8
4
  6
CENTER
100
AcDbLine
 10
148.188018
 20
140.6868899999998
 30
0.0
 11
148.188018
 21
131.1868899999998
 31
0.0
  0
LINE
  5
CD2
330
C3B
100
AcDbEntity
  8
1
  6
Continuous
100
AcDbLine
 10
148.8168019999999
 20
135.308105
 30
0.0
 11
149.2383409999999
 21
135.5046689999997
 31
0.0
  0
LINE
  5
CD3
330
C3B
100
AcDbEntity
  8
1
  6
Continuous
100
AcDbLine
 10
149.238357
 20
135.5046539999999
 30
0.0
 11
149.9383379999999
 21
135.5168759999999
 31
0.0
  0
LINE
  5
CD4
330
C3B
100
AcDbEntity
  8
1
  6
Continuous
100
AcDbLine
 10
149.2383409999999
 20
136.3690949999998
 30
0.0
 11
149.938323
 21
136.356888
 31
0.0
  0
LINE
  5
CD5
330
C3B
100
AcDbEntity
  8
1
  6
Continuous
100
AcDbLine
 10
148.8168019999999
 20
136.565659
 30
0.0
 11
149.2383409999999
 21
136.3690949999998
 31
0.0
  0
LINE
  5
CD6
330
C3B
100
AcDbEntity
  8
1
  6
Continuous
100
AcDbLine
 10
148.6202539999999
 20
136.987213
 30
0.0
 11
148.608031
 21
137.6871949999998
 31
0.0
  0
LINE
  5
CD7
330
C3B
100
AcDbEntity
  8
1
  6
Continuous
100
AcDbLine
 10
148.8168019999999
 20
136.565674
 30
0.0
 11
148.620223
 21
136.987213
 31
0.0
  0
LINE
  5
CD8
330
C3B
100
AcDbEntity
  8
1
  6
Continuous
100
AcDbLine
 10
147.755797
 20
136.987198
 30
0.0
 11
147.7680199999998
 21
137.6871949999998
 31
0.0
  0
LINE
  5
CD9
330
C3B
100
AcDbEntity
  8
1
  6
Continuous
100
AcDbLine
 10
147.559234
 20
136.565674
 30
0.0
 11
147.755797
 21
136.987213
 31
0.0
  0
LINE
  5
CDA
330
C3B
100
AcDbEntity
  8
1
  6
Continuous
100
AcDbLine
 10
147.1376939999998
 20
136.3690949999998
 30
0.0
 11
146.437713
 21
136.356873
 31
0.0
  0
LINE
  5
CDB
330
C3B
100
AcDbEntity
  8
1
  6
Continuous
100
AcDbLine
 10
147.559234
 20
136.565674
 30
0.0
 11
147.1376939999998
 21
136.36911
 31
0.0
  0
LINE
  5
CDC
330
C3B
100
AcDbEntity
  8
1
  6
Continuous
100
AcDbLine
 10
147.1376789999998
 20
135.5046689999997
 30
0.0
 11
146.4376969999999
 21
135.5168759999999
 31
0.0
  0
LINE
  5
CDD
330
C3B
100
AcDbEntity
  8
1
  6
Continuous
100
AcDbLine
 10
147.559234
 20
135.3080899999999
 30
0.0
 11
147.1376939999998
 21
135.5046539999999
 31
0.0
  0
LINE
  5
CDE
330
C3B
100
AcDbEntity
  8
1
  6
Continuous
100
AcDbLine
 10
147.755813
 20
134.8865509999999
 30
0.0
 11
147.7680199999998
 21
134.1865689999999
 31
0.0
  0
LINE
  5
CDF
330
C3B
100
AcDbEntity
  8
1
  6
Continuous
100
AcDbLine
 10
147.559234
 20
135.308105
 30
0.0
 11
147.755797
 21
134.8865659999999
 31
0.0
  0
LINE
  5
CE0
330
C3B
100
AcDbEntity
  8
1
  6
Continuous
100
AcDbLine
 10
148.6202379999998
 20
134.8865659999999
 30
0.0
 11
148.608031
 21
134.1865689999999
 31
0.0
  0
LINE
  5
CE1
330
C3B
100
AcDbEntity
  8
1
  6
Continuous
100
AcDbLine
 10
148.8168019999999
 20
135.308105
 30
0.0
 11
148.6202379999998
 21
134.8865509999999
 31
0.0
  0
LINE
  5
CE2
330
C3B
100
AcDbEntity
  8
4
  6
CENTER
100
AcDbLine
 10
47.83850799999998
 20
139.1868899999997
 30
0.0
 11
47.83850799999998
 21
132.6868899999998
 31
0.0
  0
LINE
  5
CE3
330
C3B
100
AcDbEntity
  8
1
  6
Continuous
100
AcDbLine
 10
125.338012
 20
134.2868959999999
 30
0.0
 11
141.538024
 21
134.2868959999999
 31
0.0
  0
LINE
  5
CE4
330
C3B
100
AcDbEntity
  8
1
  6
Continuous
100
AcDbLine
 10
125.338012
 20
137.586884
 30
0.0
 11
141.538024
 21
137.586884
 31
0.0
  0
LINE
  5
CE5
330
C3B
100
AcDbEntity
  8
1
  6
Continuous
100
AcDbLine
 10
22.838506
 20
123.4368899999999
 30
0.0
 11
55.438508
 21
123.4368899999999
 31
0.0
  0
LINE
  5
CE6
330
C3B
100
AcDbEntity
  8
1
  6
Continuous
100
AcDbLine
 10
22.838506
 20
148.4368899999998
 30
0.0
 11
55.438508
 21
148.4368899999998
 31
0.0
  0
LINE
  5
CE7
330
C3B
100
AcDbEntity
  8
4
  6
CENTER
100
AcDbLine
 10
17.552098
 20
135.9368899999997
 30
0.0
 11
62.281373
 21
135.9368899999997
 31
0.0
  0
LINE
  5
CE8
330
C3B
100
AcDbEntity
  8
1
  6
Continuous
100
AcDbLine
 10
22.838506
 20
148.4368899999998
 30
0.0
 11
22.838506
 21
123.4368899999999
 31
0.0
  0
LINE
  5
CE9
330
C3B
100
AcDbEntity
  8
1
  6
Continuous
100
AcDbLine
 10
55.438508
 20
155.9368899999998
 30
0.0
 11
55.438508
 21
123.4368899999999
 31
0.0
  0
LINE
  5
CEA
330
C3B
100
AcDbEntity
  8
1
  6
Continuous
100
AcDbLine
 10
52.83850799999999
 20
155.9368899999998
 30
0.0
 11
52.83850799999999
 21
148.4368899999998
 31
0.0
  0
LINE
  5
CEB
330
C3B
100
AcDbEntity
  8
1
  6
Continuous
100
AcDbLine
 10
52.83850799999999
 20
155.9368899999998
 30
0.0
 11
55.438508
 21
155.9368899999998
 31
0.0
  0
LINE
  5
CEC
330
C3B
100
AcDbEntity
  8
4
  6
CENTER
100
AcDbLine
 10
35.18221599999999
 20
146.9368899999998
 30
0.0
 11
64.531304
 21
146.9368899999998
 31
0.0
  0
LINE
  5
CED
330
C3B
100
AcDbEntity
  8
1
  6
Continuous
100
AcDbLine
 10
55.438508
 20
154.4368899999998
 30
0.0
 11
59.43850799999999
 21
154.4368899999998
 31
0.0
  0
LINE
  5
CEE
330
C3B
100
AcDbEntity
  8
1
  6
Continuous
100
AcDbLine
 10
55.438508
 20
139.4368899999998
 30
0.0
 11
59.43850799999999
 21
139.4368899999998
 31
0.0
  0
LINE
  5
CEF
330
C3B
100
AcDbEntity
  8
1
  6
Continuous
100
AcDbLine
 10
59.43850799999999
 20
154.4368899999998
 30
0.0
 11
59.43850799999999
 21
139.4368899999998
 31
0.0
  0
LINE
  5
CF0
330
C3B
100
AcDbEntity
  8
4
  6
CENTER
100
AcDbLine
 10
37.83850799999999
 20
143.212051
 30
0.0
 11
37.83850799999999
 21
128.587509
 31
0.0
  0
LINE
  5
CF1
330
C3B
100
AcDbEntity
  8
4
  6
CENTER
100
AcDbLine
 10
136.4380179999998
 20
127.43689
 30
0.0
 11
142.938018
 21
127.43689
 31
0.0
  0
LINE
  5
CF2
330
C3B
100
AcDbEntity
  8
4
  6
CENTER
100
AcDbLine
 10
139.6880179999998
 20
130.6868899999998
 30
0.0
 11
139.6880179999998
 21
124.1868899999999
 31
0.0
  0
LINE
  5
CF3
330
C3B
100
AcDbEntity
  8
4
  6
CENTER
100
AcDbLine
 10
24.588508
 20
128.4368899999998
 30
0.0
 11
31.088508
 21
128.4368899999998
 31
0.0
  0
LINE
  5
CF4
330
C3B
100
AcDbEntity
  8
4
  6
CENTER
100
AcDbLine
 10
27.838508
 20
131.6868899999998
 30
0.0
 11
27.838508
 21
125.1868899999999
 31
0.0
  0
LINE
  5
CF5
330
C3B
100
AcDbEntity
  8
4
  6
CENTER
100
AcDbLine
 10
24.588508
 20
143.4368899999998
 30
0.0
 11
31.088508
 21
143.4368899999998
 31
0.0
  0
LINE
  5
CF6
330
C3B
100
AcDbEntity
  8
4
  6
CENTER
100
AcDbLine
 10
27.838508
 20
146.6868899999998
 30
0.0
 11
27.838508
 21
140.1868899999997
 31
0.0
  0
LINE
  5
CF7
330
C3B
100
AcDbEntity
  8
1
  6
Continuous
100
AcDbLine
 10
40.83850799999999
 20
138.5826419999999
 30
0.0
 11
40.83850799999999
 21
133.2911379999998
 31
0.0
  0
LINE
  5
CF8
330
C3B
100
AcDbEntity
  8
1
  6
Continuous
100
AcDbLine
 10
178.6743149999999
 20
137.7795869999999
 30
0.0
 11
180.008498
 21
137.7795869999999
 31
0.0
  0
LINE
  5
CF9
330
C3B
100
AcDbEntity
  8
1
  6
Continuous
100
AcDbLine
 10
170.407317
 20
138.3321989999998
 30
0.0
 11
172.028594
 21
138.3321989999998
 31
0.0
  0
LINE
  5
CFA
330
C3B
100
AcDbEntity
  8
1
  6
Continuous
100
AcDbLine
 10
170.407317
 20
139.5368959999998
 30
0.0
 11
170.407317
 21
137.0368959999999
 31
0.0
  0
LINE
  5
CFB
330
C3B
100
AcDbEntity
  8
1
  6
Continuous
100
AcDbLine
 10
174.5543969999999
 20
138.2053989999998
 30
0.0
 11
175.432998
 21
138.2053989999998
 31
0.0
  0
LINE
  5
CFC
330
C3B
100
AcDbEntity
  8
1
  6
Continuous
100
AcDbLine
 10
172.028594
 20
139.5368959999998
 30
0.0
 11
172.028594
 21
137.0368959999999
 31
0.0
  0
LINE
  5
CFD
330
C3B
100
AcDbEntity
  8
1
  6
Continuous
100
AcDbLine
 10
172.907317
 20
139.5368959999998
 30
0.0
 11
172.907317
 21
137.0368959999999
 31
0.0
  0
LINE
  5
CFE
330
C3B
100
AcDbEntity
  8
1
  6
Continuous
100
AcDbLine
 10
179.355773
 20
139.534683
 30
0.0
 11
178.385955
 21
137.0368959999999
 31
0.0
  0
LINE
  5
CFF
330
C3B
100
AcDbEntity
  8
1
  6
Continuous
100
AcDbLine
 10
177.70581
 20
138.1962889999998
 30
0.0
 11
177.70581
 21
137.0368959999999
 31
0.0
  0
LINE
  5
D00
330
C3B
100
AcDbEntity
  8
1
  6
Continuous
100
AcDbLine
 10
175.432998
 20
137.8328089999999
 30
0.0
 11
175.432998
 21
137.0368959999999
 31
0.0
  0
LINE
  5
D01
330
C3B
100
AcDbEntity
  8
1
  6
Continuous
100
AcDbLine
 10
176.157607
 20
139.5368959999998
 30
0.0
 11
176.157607
 21
137.0368959999999
 31
0.0
  0
LINE
  5
D02
330
C3B
100
AcDbEntity
  8
1
  6
Continuous
100
AcDbLine
 10
177.70581
 20
138.1962889999998
 30
0.0
 11
178.479873
 21
139.536911
 31
0.0
  0
LINE
  5
D03
330
C3B
100
AcDbEntity
  8
1
  6
Continuous
100
AcDbLine
 10
177.70581
 20
138.2008059999998
 30
0.0
 11
176.936812
 21
139.5368959999998
 31
0.0
  0
LINE
  5
D04
330
C3B
100
AcDbEntity
  8
1
  6
Continuous
100
AcDbLine
 10
164.4232169999999
 20
139.5368959999998
 30
0.0
 11
164.4232169999999
 21
137.0368959999999
 31
0.0
  0
LINE
  5
D05
330
C3B
100
AcDbEntity
  8
1
  6
Continuous
100
AcDbLine
 10
163.4086899999998
 20
139.5368959999998
 30
0.0
 11
165.4467149999998
 21
139.5368959999998
 31
0.0
  0
LINE
  5
D06
330
C3B
100
AcDbEntity
  8
1
  6
Continuous
100
AcDbLine
 10
156.6566149999998
 20
139.8373569999999
 30
0.0
 11
156.6566149999998
 21
136.736435
 31
0.0
  0
LINE
  5
D07
330
C3B
100
AcDbEntity
  8
1
  6
Continuous
100
AcDbLine
 10
156.2127369999998
 20
139.8003689999999
 30
0.0
 11
156.2127369999998
 21
136.773422
 31
0.0
  0
LINE
  5
D08
330
C3B
100
AcDbEntity
  8
1
  6
Continuous
100
AcDbLine
 10
155.767943
 20
136.905151
 30
0.0
 11
155.767943
 21
137.7541349999999
 31
0.0
  0
LINE
  5
D09
330
C3B
100
AcDbEntity
  8
1
  6
Continuous
100
AcDbLine
 10
155.32315
 20
139.4412839999999
 30
0.0
 11
155.32315
 21
137.132507
 31
0.0
  0
LINE
  5
D0A
330
C3B
100
AcDbEntity
  8
1
  6
Continuous
100
AcDbLine
 10
156.6566149999998
 20
138.2873379999997
 30
0.0
 11
156.2127369999998
 21
138.2873379999997
 31
0.0
  0
LINE
  5
D0B
330
C3B
100
AcDbEntity
  8
1
  6
Continuous
100
AcDbLine
 10
155.767943
 20
138.820557
 30
0.0
 11
155.767943
 21
139.6686399999999
 31
0.0
  0
LINE
  5
D0C
330
C3B
100
AcDbEntity
  8
1
  6
Continuous
100
AcDbLine
 10
154.879256
 20
139.383545
 30
0.0
 11
154.879256
 21
137.191147
 31
0.0
  0
LINE
  5
D0D
330
C3B
100
AcDbEntity
  8
1
  6
Continuous
100
AcDbLine
 10
154.4344629999999
 20
137.4672239999999
 30
0.0
 11
154.4344629999999
 21
139.1065519999999
 31
0.0
  0
LINE
  5
D0E
330
C3B
100
AcDbEntity
  8
1
  6
Continuous
100
AcDbLine
 10
153.9905689999999
 20
139.5062409999999
 30
0.0
 11
153.9905689999999
 21
137.589935
 31
0.0
  0
LINE
  5
D0F
330
C3B
100
AcDbEntity
  8
1
  6
Continuous
100
AcDbLine
 10
158.433989
 20
139.7480319999999
 30
0.0
 11
158.433989
 21
136.9655909999998
 31
0.0
  0
LINE
  5
D10
330
C3B
100
AcDbEntity
  8
1
  6
Continuous
100
AcDbLine
 10
157.9900959999999
 20
137.032364
 30
0.0
 11
157.9900959999999
 21
138.2873379999997
 31
0.0
  0
LINE
  5
D11
330
C3B
100
AcDbEntity
  8
1
  6
Continuous
100
AcDbLine
 10
157.5453019999999
 20
139.7498319999999
 30
0.0
 11
157.5453019999999
 21
136.8239439999999
 31
0.0
  0
LINE
  5
D12
330
C3B
100
AcDbEntity
  8
1
  6
Continuous
100
AcDbLine
 10
157.101409
 20
139.8373569999999
 30
0.0
 11
157.101409
 21
136.736435
 31
0.0
  0
LINE
  5
D13
330
C3B
100
AcDbEntity
  8
1
  6
Continuous
100
AcDbLine
 10
160.6904439999999
 20
138.2873379999997
 30
0.0
 11
159.771987
 21
138.2873379999997
 31
0.0
  0
LINE
  5
D14
330
C3B
100
AcDbEntity
  8
1
  6
Continuous
100
AcDbLine
 10
159.5491319999999
 20
137.4555049999999
 30
0.0
 11
160.0516649999998
 21
139.3285059999997
 31
0.0
  0
LINE
  5
D15
330
C3B
100
AcDbEntity
  8
1
  6
Continuous
100
AcDbLine
 10
159.1007219999999
 20
138.2873379999997
 30
0.0
 11
159.1007219999999
 21
137.2209169999998
 31
0.0
  0
LINE
  5
D16
330
C3B
100
AcDbEntity
  8
1
  6
Continuous
100
AcDbLine
 10
159.3235769999998
 20
138.5092929999999
 30
0.0
 11
159.3235769999998
 21
139.4584199999999
 31
0.0
  0
LINE
  5
D17
330
C3B
100
AcDbEntity
  8
1
  6
Continuous
100
AcDbLine
 10
158.878783
 20
139.538712
 30
0.0
 11
158.878783
 21
138.5092929999999
 31
0.0
  0
LINE
  5
D18
330
C3B
100
AcDbEntity
  8
1
  6
Continuous
100
AcDbLine
 10
157.9900959999999
 20
138.2873379999997
 30
0.0
 11
157.768157
 21
138.2873379999997
 31
0.0
  0
LINE
  5
D19
330
C3B
100
AcDbEntity
  8
1
  6
Continuous
100
AcDbLine
 10
157.9900959999999
 20
138.820557
 30
0.0
 11
157.9900959999999
 21
139.5414279999999
 31
0.0
  0
LINE
  5
D1A
330
C3B
100
AcDbEntity
  8
1
  6
Continuous
100
AcDbLine
 10
179.3557879999999
 20
139.5391689999998
 30
0.0
 11
180.2814469999999
 21
137.0368959999999
 31
0.0
  0
LINE
  5
D1B
330
C3B
100
AcDbEntity
  8
1
  6
Continuous
100
AcDbLine
 10
154.0232229999998
 20
135.4368899999998
 30
0.0
 11
154.0232229999998
 21
132.9368899999997
 31
0.0
  0
LINE
  5
D1C
330
C3B
100
AcDbEntity
  8
1
  6
Continuous
100
AcDbLine
 10
153.0086969999999
 20
135.4368899999998
 30
0.0
 11
155.0467209999998
 21
135.4368899999998
 31
0.0
  0
LINE
  5
D1D
330
C3B
100
AcDbEntity
  8
1
  6
Continuous
100
AcDbLine
 10
159.227691
 20
132.9369049999999
 30
0.0
 11
160.55371
 21
134.323303
 31
0.0
  0
LINE
  5
D1E
330
C3B
100
AcDbEntity
  8
1
  6
Continuous
100
AcDbLine
 10
161.538131
 20
135.4368899999998
 30
0.0
 11
162.778335
 21
135.4368899999998
 31
0.0
  0
LINE
  5
D1F
330
C3B
100
AcDbEntity
  8
1
  6
Continuous
100
AcDbLine
 10
161.538131
 20
135.4368899999998
 30
0.0
 11
161.538131
 21
134.0085449999999
 31
0.0
  0
LINE
  5
D20
330
C3B
100
AcDbEntity
  8
1
  6
Continuous
100
AcDbLine
 10
159.227675
 20
132.9368899999997
 30
0.0
 11
160.7307419999998
 21
132.9368899999997
 31
0.0
  0
LINE
  5
D21
330
C3B
100
AcDbEntity
  8
1
  6
Continuous
100
AcDbLine
 10
155.528686
 20
132.9368899999997
 30
0.0
 11
157.0286859999999
 21
132.9368899999997
 31
0.0
  0
LINE
  5
D22
330
C3B
100
AcDbEntity
  8
1
  6
Continuous
100
AcDbLine
 10
155.528686
 20
135.4368899999998
 30
0.0
 11
155.528686
 21
132.9368899999997
 31
0.0
  0
LINE
  5
D23
330
C3B
100
AcDbEntity
  8
1
  6
Continuous
100
AcDbLine
 10
157.303084
 20
134.1868899999997
 30
0.0
 11
158.4654229999999
 21
134.1868899999997
 31
0.0
  0
LINE
  5
D24
330
C3B
100
AcDbEntity
  8
1
  6
Continuous
100
AcDbLine
 10
165.097686
 20
134.6719359999999
 30
0.0
 11
165.097686
 21
133.702087
 31
0.0
  0
LINE
  5
D25
330
C3B
100
AcDbEntity
  8
1
  6
Continuous
100
AcDbLine
 10
379.2870629999999
 20
123.4368899999999
 30
0.0
 11
379.2870629999999
 21
148.4368899999998
 31
0.0
  0
LINE
  5
D26
330
C3B
100
AcDbEntity
  8
1
  6
Continuous
100
AcDbLine
 10
188.1880179999998
 20
138.1868899999997
 30
0.0
 11
189.188018
 21
138.1868899999997
 31
0.0
  0
LINE
  5
D27
330
C3B
100
AcDbEntity
  8
1
  6
Continuous
100
AcDbLine
 10
188.1880179999998
 20
133.6868899999998
 30
0.0
 11
189.188018
 21
133.6868899999998
 31
0.0
  0
LINE
  5
D28
330
C3B
100
AcDbEntity
  8
1
  6
Continuous
100
AcDbLine
 10
189.188018
 20
138.1868899999997
 30
0.0
 11
189.188018
 21
133.6868899999998
 31
0.0
  0
LINE
  5
D29
330
C3B
100
AcDbEntity
  8
1
  6
Continuous
100
AcDbLine
 10
163.288024
 20
153.4368899999998
 30
0.0
 11
163.688018
 21
153.4368899999998
 31
0.0
  0
LINE
  5
D2A
330
C3B
100
AcDbEntity
  8
1
  6
Continuous
100
AcDbLine
 10
41.19779499999999
 20
148.4368899999998
 30
0.0
 11
42.814578
 21
151.9757689999998
 31
0.0
  0
LINE
  5
D2B
330
C3B
100
AcDbEntity
  8
1
  6
Continuous
100
AcDbLine
 10
34.479217
 20
148.4368899999998
 30
0.0
 11
32.86243699999999
 21
151.9757689999998
 31
0.0
  0
LINE
  5
D2C
330
C3B
100
AcDbEntity
  8
1
  6
Continuous
100
AcDbLine
 10
28.98211599999999
 20
148.4368899999998
 30
0.0
 11
28.314582
 21
149.8980099999999
 31
0.0
  0
LINE
  5
D2D
330
C3B
100
AcDbEntity
  8
1
  6
Continuous
100
AcDbLine
 10
163.688018
 20
153.4368899999998
 30
0.0
 11
163.688018
 21
148.4368899999998
 31
0.0
  0
LINE
  5
D2E
330
C3B
100
AcDbEntity
  8
1
  6
Continuous
100
AcDbLine
 10
163.288024
 20
153.4368899999998
 30
0.0
 11
163.288024
 21
148.4368899999998
 31
0.0
  0
LINE
  5
D2F
330
C3B
100
AcDbEntity
  8
4
  6
CENTER
100
AcDbLine
 10
41.62240899999999
 20
152.520432
 30
0.0
 11
48.673884
 21
149.298874
 31
0.0
  0
LINE
  5
D30
330
C3B
100
AcDbEntity
  8
4
  6
CENTER
100
AcDbLine
 10
27.30679199999999
 20
149.4375919999999
 30
0.0
 11
34.015658
 21
152.5026249999999
 31
0.0
  0
LINE
  5
D31
330
C3B
100
AcDbEntity
  8
4
  6
CENTER
100
AcDbLine
 10
28.87797799999999
 20
154.680969
 30
0.0
 11
32.69741299999999
 21
146.3208309999999
 31
0.0
  0
LINE
  5
D32
330
C3B
100
AcDbEntity
  8
4
  6
CENTER
100
AcDbLine
 10
46.73694499999998
 20
154.545059
 30
0.0
 11
42.86782699999998
 21
146.0761869999998
 31
0.0
  0
LINE
  5
D33
330
C3B
100
AcDbEntity
  8
1
  6
Continuous
100
AcDbLine
 10
31.538478
 20
151.865631
 30
0.0
 11
31.912471
 21
151.047012
 31
0.0
  0
LINE
  5
D34
330
C3B
100
AcDbEntity
  8
1
  6
Continuous
100
AcDbLine
 10
29.264548
 20
150.8267519999999
 30
0.0
 11
29.638545
 21
150.008148
 31
0.0
  0
LINE
  5
D35
330
C3B
100
AcDbEntity
  8
1
  6
Continuous
100
AcDbLine
 10
101.088018
 20
138.5826419999999
 30
0.0
 11
101.088018
 21
133.2911379999998
 31
0.0
  0
LINE
  5
D36
330
C3B
100
AcDbEntity
  8
1
  6
Continuous
100
AcDbLine
 10
102.442266
 20
139.9368899999998
 30
0.0
 11
113.0880179999999
 21
139.9368899999998
 31
0.0
  0
LINE
  5
D37
330
C3B
100
AcDbEntity
  8
1
  6
Continuous
100
AcDbLine
 10
102.442266
 20
131.9368899999997
 30
0.0
 11
113.0880179999999
 21
131.9368899999997
 31
0.0
  0
LINE
  5
D38
330
C3B
100
AcDbEntity
  8
4
  6
CENTER
100
AcDbLine
 10
126.188018
 20
139.082535
 30
0.0
 11
126.188018
 21
132.6850279999999
 31
0.0
  0
LINE
  5
D39
330
C3B
100
AcDbEntity
  8
1
  6
Continuous
100
AcDbLine
 10
127.088012
 20
135.9368899999997
 30
0.0
 11
127.688018
 21
135.9368899999997
 31
0.0
  0
LINE
  5
D3A
330
C3B
100
AcDbEntity
  8
1
  6
Continuous
100
AcDbLine
 10
138.188018
 20
137.586884
 30
0.0
 11
138.188018
 21
134.2868959999999
 31
0.0
  0
LINE
  5
D3B
330
C3B
100
AcDbEntity
  8
1
  6
Continuous
100
AcDbLine
 10
45.73850199999998
 20
148.4368899999998
 30
0.0
 11
45.73850199999998
 21
152.1868899999998
 31
0.0
  0
LINE
  5
D3C
330
C3B
100
AcDbEntity
  8
1
  6
Continuous
100
AcDbLine
 10
46.838508
 20
148.4368899999998
 30
0.0
 11
46.838508
 21
152.1868899999998
 31
0.0
  0
LINE
  5
D3D
330
C3B
100
AcDbEntity
  8
1
  6
Continuous
100
AcDbLine
 10
45.33850799999998
 20
148.4368899999998
 30
0.0
 11
45.33850799999998
 21
151.9368899999998
 31
0.0
  0
LINE
  5
D3E
330
C3B
100
AcDbEntity
  8
1
  6
Continuous
100
AcDbLine
 10
45.73850199999998
 20
151.6368869999998
 30
0.0
 11
45.33850799999998
 21
151.6368869999998
 31
0.0
  0
LINE
  5
D3F
330
C3B
100
AcDbEntity
  8
1
  6
Continuous
100
AcDbLine
 10
49.83850799999999
 20
152.1868899999998
 30
0.0
 11
45.73850199999998
 21
152.1868899999998
 31
0.0
  0
LINE
  5
D40
330
C3B
100
AcDbEntity
  8
1
  6
Continuous
100
AcDbLine
 10
46.338508
 20
148.4368899999998
 30
0.0
 11
46.338508
 21
152.1868899999998
 31
0.0
  0
LINE
  5
D41
330
C3B
100
AcDbEntity
  8
1
  6
Continuous
100
AcDbLine
 10
52.83850799999999
 20
154.4368899999998
 30
0.0
 11
49.83850799999999
 21
154.4368899999998
 31
0.0
  0
LINE
  5
D42
330
C3B
100
AcDbEntity
  8
1
  6
Continuous
100
AcDbLine
 10
49.83850799999999
 20
148.4368899999998
 30
0.0
 11
49.83850799999999
 21
154.4368899999998
 31
0.0
  0
LINE
  5
D43
330
C3B
100
AcDbEntity
  8
1
  6
Continuous
100
AcDbLine
 10
43.23850199999998
 20
148.4368899999998
 30
0.0
 11
43.23850199999998
 21
150.4368899999998
 31
0.0
  0
LINE
  5
D44
330
C3B
100
AcDbEntity
  8
1
  6
Continuous
100
AcDbLine
 10
43.23850199999998
 20
150.4368899999998
 30
0.0
 11
43.73850199999998
 21
150.4368899999998
 31
0.0
  0
LINE
  5
D45
330
C3B
100
AcDbEntity
  8
1
  6
Continuous
100
AcDbLine
 10
42.391261
 20
149.612732
 30
0.0
 11
43.23852099999998
 21
149.686859
 31
0.0
  0
LINE
  5
D46
330
C3B
100
AcDbEntity
  8
1
  6
Continuous
100
AcDbLine
 10
43.73850199999998
 20
148.4368899999998
 30
0.0
 11
43.73850199999998
 21
151.9368899999998
 31
0.0
  0
LINE
  5
D47
330
C3B
100
AcDbEntity
  8
1
  6
Continuous
100
AcDbLine
 10
118.6797699999999
 20
151.9368899999998
 30
0.0
 11
121.704696
 21
151.9368899999998
 31
0.0
  0
LINE
  5
D48
330
C3B
100
AcDbEntity
  8
1
  6
Continuous
100
AcDbLine
 10
273.7375329999999
 20
123.4368899999999
 30
0.0
 11
241.1375329999999
 21
123.4368899999999
 31
0.0
  0
LINE
  5
D49
330
C3B
100
AcDbEntity
  8
1
  6
Continuous
100
AcDbLine
 10
273.7375329999999
 20
148.4368899999998
 30
0.0
 11
243.737533
 21
148.4368899999998
 31
0.0
  0
LINE
  5
D4A
330
C3B
100
AcDbEntity
  8
4
  6
CENTER
100
AcDbLine
 10
279.0239399999999
 20
135.9368899999997
 30
0.0
 11
234.294668
 21
135.9368899999997
 31
0.0
  0
LINE
  5
D4B
330
C3B
100
AcDbEntity
  8
1
  6
Continuous
100
AcDbLine
 10
273.7375329999999
 20
148.4368899999998
 30
0.0
 11
273.7375329999999
 21
123.4368899999999
 31
0.0
  0
LINE
  5
D4C
330
C3B
100
AcDbEntity
  8
1
  6
Continuous
100
AcDbLine
 10
241.1375329999999
 20
155.9368899999998
 30
0.0
 11
241.1375329999999
 21
123.4368899999999
 31
0.0
  0
LINE
  5
D4D
330
C3B
100
AcDbEntity
  8
1
  6
Continuous
100
AcDbLine
 10
243.737533
 20
155.9368899999998
 30
0.0
 11
243.737533
 21
123.4368899999999
 31
0.0
  0
LINE
  5
D4E
330
C3B
100
AcDbEntity
  8
1
  6
Continuous
100
AcDbLine
 10
243.737533
 20
155.9368899999998
 30
0.0
 11
241.1375329999999
 21
155.9368899999998
 31
0.0
  0
LINE
  5
D4F
330
C3B
100
AcDbEntity
  8
4
  6
CENTER
100
AcDbLine
 10
261.393844
 20
146.9368899999998
 30
0.0
 11
232.044744
 21
146.9368899999998
 31
0.0
  0
LINE
  5
D50
330
C3B
100
AcDbEntity
  8
1
  6
Continuous
100
AcDbLine
 10
241.1375329999999
 20
154.4368899999998
 30
0.0
 11
237.1375329999999
 21
154.4368899999998
 31
0.0
  0
LINE
  5
D51
330
C3B
100
AcDbEntity
  8
1
  6
Continuous
100
AcDbLine
 10
241.1375329999999
 20
139.4368899999998
 30
0.0
 11
237.1375329999999
 21
139.4368899999998
 31
0.0
  0
LINE
  5
D52
330
C3B
100
AcDbEntity
  8
1
  6
Continuous
100
AcDbLine
 10
237.1375329999999
 20
154.4368899999998
 30
0.0
 11
237.1375329999999
 21
139.4368899999998
 31
0.0
  0
LINE
  5
D53
330
C3B
100
AcDbEntity
  8
4
  6
CENTER
100
AcDbLine
 10
258.7375329999999
 20
141.2868349999999
 30
0.0
 11
258.7375329999999
 21
130.4378809999998
 31
0.0
  0
LINE
  5
D54
330
C3B
100
AcDbEntity
  8
1
  6
Continuous
100
AcDbLine
 10
255.378249
 20
148.4368899999998
 30
0.0
 11
253.7614889999999
 21
151.9757689999998
 31
0.0
  0
LINE
  5
D55
330
C3B
100
AcDbEntity
  8
1
  6
Continuous
100
AcDbLine
 10
262.096847
 20
148.4368899999998
 30
0.0
 11
263.7136069999999
 21
151.975754
 31
0.0
  0
LINE
  5
D56
330
C3B
100
AcDbEntity
  8
1
  6
Continuous
100
AcDbLine
 10
267.593947
 20
148.4368899999998
 30
0.0
 11
268.261458
 21
149.8980099999999
 31
0.0
  0
LINE
  5
D57
330
C3B
100
AcDbEntity
  8
4
  6
CENTER
100
AcDbLine
 10
254.9536579999999
 20
152.520432
 30
0.0
 11
247.902175
 21
149.298874
 31
0.0
  0
LINE
  5
D58
330
C3B
100
AcDbEntity
  8
4
  6
CENTER
100
AcDbLine
 10
269.269271
 20
149.4375919999999
 30
0.0
 11
262.5603779999999
 21
152.5026249999999
 31
0.0
  0
LINE
  5
D59
330
C3B
100
AcDbEntity
  8
4
  6
CENTER
100
AcDbLine
 10
267.698073
 20
154.680969
 30
0.0
 11
263.8786459999999
 21
146.3208309999999
 31
0.0
  0
LINE
  5
D5A
330
C3B
100
AcDbEntity
  8
4
  6
CENTER
100
AcDbLine
 10
249.839126
 20
154.545059
 30
0.0
 11
253.7082359999998
 21
146.0761869999998
 31
0.0
  0
LINE
  5
D5B
330
C3B
100
AcDbEntity
  8
1
  6
Continuous
100
AcDbLine
 10
265.0375809999998
 20
151.865631
 30
0.0
 11
264.663588
 21
151.047012
 31
0.0
  0
LINE
  5
D5C
330
C3B
100
AcDbEntity
  8
1
  6
Continuous
100
AcDbLine
 10
267.311507
 20
150.8267519999999
 30
0.0
 11
266.937514
 21
150.008148
 31
0.0
  0
LINE
  5
D5D
330
C3B
100
AcDbEntity
  8
1
  6
Continuous
100
AcDbLine
 10
252.437514
 20
151.865631
 30
0.0
 11
252.8115069999998
 21
151.047028
 31
0.0
  0
LINE
  5
D5E
330
C3B
100
AcDbEntity
  8
1
  6
Continuous
100
AcDbLine
 10
250.1635879999998
 20
150.8267669999999
 30
0.0
 11
250.5375809999999
 21
150.008148
 31
0.0
  0
LINE
  5
D5F
330
C3B
100
AcDbEntity
  8
1
  6
Continuous
100
AcDbLine
 10
249.737533
 20
148.4368899999998
 30
0.0
 11
249.737533
 21
148.751236
 31
0.0
  0
LINE
  5
D60
330
C3B
100
AcDbEntity
  8
1
  6
Continuous
100
AcDbLine
 10
246.737533
 20
152.1868899999998
 30
0.0
 11
249.3224629999999
 21
152.1868899999998
 31
0.0
  0
LINE
  5
D61
330
C3B
100
AcDbEntity
  8
1
  6
Continuous
100
AcDbLine
 10
243.737533
 20
154.4368899999998
 30
0.0
 11
246.737533
 21
154.4368899999998
 31
0.0
  0
LINE
  5
D62
330
C3B
100
AcDbEntity
  8
1
  6
Continuous
100
AcDbLine
 10
246.737533
 20
148.4368899999998
 30
0.0
 11
246.737533
 21
154.4368899999998
 31
0.0
  0
LINE
  5
D63
330
C3B
100
AcDbEntity
  8
1
  6
Continuous
100
AcDbLine
 10
404.3870629999998
 20
148.4368899999998
 30
0.0
 11
404.3870629999998
 21
123.4368899999999
 31
0.0
  0
LINE
  5
D64
330
C3B
100
AcDbEntity
  8
1
  6
Continuous
100
AcDbLine
 10
329.2870629999999
 20
148.4368899999998
 30
0.0
 11
329.2870629999999
 21
123.4368899999999
 31
0.0
  0
LINE
  5
D65
330
C3B
100
AcDbEntity
  8
4
  6
CENTER
100
AcDbLine
 10
420.1041339999998
 20
135.9368899999997
 30
0.0
 11
322.852889
 21
135.9368899999997
 31
0.0
  0
LINE
  5
D66
330
C3B
100
AcDbEntity
  8
1
  6
Continuous
100
AcDbLine
 10
404.3870629999998
 20
123.4368899999999
 30
0.0
 11
329.2870629999999
 21
123.4368899999999
 31
0.0
  0
LINE
  5
D67
330
C3B
100
AcDbEntity
  8
1
  6
Continuous
100
AcDbLine
 10
379.2870629999999
 20
148.4368899999998
 30
0.0
 11
329.2870629999999
 21
148.4368899999998
 31
0.0
  0
LINE
  5
D68
330
C3B
100
AcDbEntity
  8
1
  6
Continuous
100
AcDbLine
 10
404.3870629999998
 20
148.4368899999998
 30
0.0
 11
400.488814
 21
148.4368899999998
 31
0.0
  0
LINE
  5
D69
330
C3B
100
AcDbEntity
  8
4
  6
CENTER
100
AcDbLine
 10
388.2870629999999
 20
157.4368899999998
 30
0.0
 11
388.2870629999999
 21
137.4368899999998
 31
0.0
  0
LINE
  5
D6A
330
C3B
100
AcDbEntity
  8
4
  6
CENTER
100
AcDbLine
 10
402.6317279999998
 20
146.9368899999998
 30
0.0
 11
377.7870629999999
 21
146.9368899999998
 31
0.0
  0
LINE
  5
D6B
330
C3B
100
AcDbEntity
  8
1
  6
Continuous
100
AcDbLine
 10
329.2870629999999
 20
138.1868899999997
 30
0.0
 11
328.287063
 21
138.1868899999997
 31
0.0
  0
LINE
  5
D6C
330
C3B
100
AcDbEntity
  8
1
  6
Continuous
100
AcDbLine
 10
329.2870629999999
 20
133.6868899999998
 30
0.0
 11
328.287063
 21
133.6868899999998
 31
0.0
  0
LINE
  5
D6D
330
C3B
100
AcDbEntity
  8
1
  6
Continuous
100
AcDbLine
 10
328.287063
 20
138.1868899999997
 30
0.0
 11
328.287063
 21
133.6868899999998
 31
0.0
  0
LINE
  5
D6E
330
C3B
100
AcDbEntity
  8
1
  6
Continuous
100
AcDbLine
 10
354.1870569999999
 20
153.4368899999998
 30
0.0
 11
353.787063
 21
153.4368899999998
 31
0.0
  0
LINE
  5
D6F
330
C3B
100
AcDbEntity
  8
1
  6
Continuous
100
AcDbLine
 10
353.787063
 20
153.4368899999998
 30
0.0
 11
353.787063
 21
148.4368899999998
 31
0.0
  0
LINE
  5
D70
330
C3B
100
AcDbEntity
  8
1
  6
Continuous
100
AcDbLine
 10
354.1870569999999
 20
153.4368899999998
 30
0.0
 11
354.1870569999999
 21
148.4368899999998
 31
0.0
  0
LINE
  5
D71
330
C3B
100
AcDbEntity
  8
1
  6
Continuous
100
AcDbLine
 10
416.3870629999998
 20
138.5826419999999
 30
0.0
 11
416.3870629999998
 21
133.2911379999998
 31
0.0
  0
LINE
  5
D72
330
C3B
100
AcDbEntity
  8
1
  6
Continuous
100
AcDbLine
 10
415.0328149999998
 20
139.9368899999998
 30
0.0
 11
404.3870629999998
 21
139.9368899999998
 31
0.0
  0
LINE
  5
D73
330
C3B
100
AcDbEntity
  8
1
  6
Continuous
100
AcDbLine
 10
415.0328149999998
 20
131.9368899999997
 30
0.0
 11
404.3870629999998
 21
131.9368899999997
 31
0.0
  0
LINE
  5
D74
330
C3B
100
AcDbEntity
  8
4
  6
CENTER
100
AcDbLine
 10
391.287063
 20
139.082535
 30
0.0
 11
391.287063
 21
132.6850279999999
 31
0.0
  0
LINE
  5
D75
330
C3B
100
AcDbEntity
  8
1
  6
Continuous
100
AcDbLine
 10
390.387069
 20
135.9368899999997
 30
0.0
 11
389.7870629999999
 21
135.9368899999997
 31
0.0
  0
LINE
  5
D76
330
C3B
100
AcDbEntity
  8
1
  6
Continuous
100
AcDbLine
 10
395.0185989999998
 20
144.5368959999998
 30
0.0
 11
393.235793
 21
144.5368959999998
 31
0.0
  0
LINE
  5
D77
330
C3B
100
AcDbEntity
  8
1
  6
Continuous
100
AcDbLine
 10
398.7953019999998
 20
151.9368899999998
 30
0.0
 11
385.995772
 21
151.9368899999998
 31
0.0
  0
LINE
  5
D78
330
C3B
100
AcDbEntity
  8
1
  6
Continuous
100
AcDbLine
 10
43.73850199999998
 20
151.9368899999998
 30
0.0
 11
45.33850799999998
 21
151.9368899999998
 31
0.0
  0
LINE
  5
D79
330
C3B
100
AcDbEntity
  8
1
  6
Continuous
100
AcDbLine
 10
249.881148
 20
148.4368899999998
 30
0.0
 11
249.213637
 21
149.8980259999999
 31
0.0
  0
LINE
  5
D7A
330
C3B
100
AcDbEntity
  8
1
  6
Continuous
100
AcDbLine
 10
252.404952
 20
151.9368899999998
 30
0.0
 11
251.237533
 21
151.9368899999998
 31
0.0
  0
LINE
  5
D7B
330
C3B
100
AcDbEntity
  8
1
  6
Continuous
100
AcDbLine
 10
250.8375389999999
 20
151.6368869999998
 30
0.0
 11
251.237533
 21
151.6368869999998
 31
0.0
  0
LINE
  5
D7C
330
C3B
100
AcDbEntity
  8
1
  6
Continuous
100
AcDbLine
 10
251.237533
 20
149.356461
 30
0.0
 11
251.237533
 21
151.9368899999998
 31
0.0
  0
LINE
  5
D7D
330
C3B
100
AcDbEntity
  8
1
  6
Continuous
100
AcDbLine
 10
250.8375389999999
 20
149.599182
 30
0.0
 11
250.8375389999999
 21
152.1868899999998
 31
0.0
  0
LINE
  5
D7E
330
C3B
100
AcDbEntity
  8
1
  6
Continuous
100
AcDbLine
 10
250.237533
 20
150.664886
 30
0.0
 11
250.237533
 21
152.00386
 31
0.0
  0
LINE
  5
D7F
330
C3B
100
AcDbEntity
  8
1
  6
Continuous
100
AcDbLine
 10
250.3755029999999
 20
152.1868899999998
 30
0.0
 11
250.8375389999999
 21
152.1868899999998
 31
0.0
  0
LINE
  5
D80
330
C3B
100
AcDbEntity
  8
4
  6
CENTER
100
AcDbLine
 10
95.96337
 20
44.93688999999998
 30
0.0
 11
194.8465109999999
 21
44.93688999999998
 31
0.0
  0
LINE
  5
D81
330
C3B
100
AcDbEntity
  8
1
  6
Continuous
100
AcDbLine
 10
188.1880179999998
 20
31.93689
 30
0.0
 11
188.1880179999998
 21
57.93689
 31
0.0
  0
LINE
  5
D82
330
C3B
100
AcDbEntity
  8
1
  6
Continuous
100
AcDbLine
 10
113.0880179999999
 20
29.93688999999999
 30
0.0
 11
113.0880179999999
 21
59.93688999999999
 31
0.0
  0
LINE
  5
D83
330
C3B
100
AcDbEntity
  8
1
  6
Continuous
100
AcDbLine
 10
115.6880179999999
 20
62.53689
 30
0.0
 11
188.1880179999998
 21
62.53689
 31
0.0
  0
LINE
  5
D84
330
C3B
100
AcDbEntity
  8
1
  6
Continuous
100
AcDbLine
 10
113.0880179999999
 20
29.93688999999999
 30
0.0
 11
115.6880179999999
 21
29.93688999999999
 31
0.0
  0
LINE
  5
D85
330
C3B
100
AcDbEntity
  8
1
  6
Continuous
100
AcDbLine
 10
115.6880179999999
 20
59.93688999999999
 30
0.0
 11
188.1880179999998
 21
59.93688999999999
 31
0.0
  0
LINE
  5
D86
330
C3B
100
AcDbEntity
  8
1
  6
Continuous
100
AcDbLine
 10
115.6880179999999
 20
29.93688999999999
 30
0.0
 11
115.6880179999999
 21
59.93688999999999
 31
0.0
  0
LINE
  5
D87
330
C3B
100
AcDbEntity
  8
1
  6
Continuous
100
AcDbLine
 10
121.6880179999999
 20
62.53689
 30
0.0
 11
121.6880179999999
 21
66.53688999999999
 31
0.0
  0
LINE
  5
D88
330
C3B
100
AcDbEntity
  8
1
  6
Continuous
100
AcDbLine
 10
136.688018
 20
62.53689
 30
0.0
 11
136.688018
 21
66.53688999999999
 31
0.0
  0
LINE
  5
D89
330
C3B
100
AcDbEntity
  8
4
  6
CENTER
100
AcDbLine
 10
129.1880179999998
 20
45.927177
 30
0.0
 11
129.1880179999998
 21
71.951447
 31
0.0
  0
LINE
  5
D8A
330
C3B
100
AcDbEntity
  8
1
  6
Continuous
100
AcDbLine
 10
121.6880179999999
 20
66.53688999999999
 30
0.0
 11
136.688018
 21
66.53688999999999
 31
0.0
  0
LINE
  5
D8B
330
C3B
100
AcDbEntity
  8
1
  6
Continuous
100
AcDbLine
 10
138.188018
 20
29.93688999999999
 30
0.0
 11
186.1880179999998
 21
29.93688999999999
 31
0.0
  0
LINE
  5
D8C
330
C3B
100
AcDbEntity
  8
1
  6
Continuous
100
AcDbLine
 10
138.188018
 20
29.93688999999999
 30
0.0
 11
138.188018
 21
59.93688999999999
 31
0.0
  0
LINE
  5
D8D
330
C3B
100
AcDbEntity
  8
1
  6
Continuous
100
AcDbLine
 10
140.188018
 20
29.93688999999999
 30
0.0
 11
140.188018
 21
59.93688999999999
 31
0.0
  0
LINE
  5
D8E
330
C3B
100
AcDbEntity
  8
1
  6
Continuous
100
AcDbLine
 10
140.188018
 20
31.93689
 30
0.0
 11
186.1880179999998
 21
31.93689
 31
0.0
  0
LINE
  5
D8F
330
C3B
100
AcDbEntity
  8
1
  6
Continuous
100
AcDbLine
 10
140.188018
 20
57.93689
 30
0.0
 11
186.1880179999998
 21
57.93689
 31
0.0
  0
LINE
  5
D90
330
C3B
100
AcDbEntity
  8
1
  6
Continuous
100
AcDbLine
 10
188.1880179999998
 20
59.93688999999999
 30
0.0
 11
188.1880179999998
 21
62.53689
 31
0.0
  0
LINE
  5
D91
330
C3B
100
AcDbEntity
  8
1
  6
Continuous
100
AcDbLine
 10
186.1880179999998
 20
31.93689
 30
0.0
 11
186.1880179999998
 21
57.93689
 31
0.0
  0
LINE
  5
D92
330
C3B
100
AcDbEntity
  8
1
  6
Continuous
100
AcDbLine
 10
140.188018
 20
33.43688999999999
 30
0.0
 11
186.1880179999998
 21
33.43688999999999
 31
0.0
  0
LINE
  5
D93
330
C3B
100
AcDbEntity
  8
1
  6
Continuous
100
AcDbLine
 10
140.188018
 20
56.43689000000001
 30
0.0
 11
186.1880179999998
 21
56.43689000000001
 31
0.0
  0
LINE
  5
D94
330
C3B
100
AcDbEntity
  8
1
  6
Continuous
100
AcDbLine
 10
189.188018
 20
42.68689000000001
 30
0.0
 11
189.188018
 21
47.18689
 31
0.0
  0
LINE
  5
D95
330
C3B
100
AcDbEntity
  8
1
  6
Continuous
100
AcDbLine
 10
188.1880179999998
 20
47.18689
 30
0.0
 11
189.188018
 21
47.18689
 31
0.0
  0
LINE
  5
D96
330
C3B
100
AcDbEntity
  8
1
  6
Continuous
100
AcDbLine
 10
188.1880179999998
 20
42.68689000000001
 30
0.0
 11
189.188018
 21
42.68689000000001
 31
0.0
  0
LINE
  5
D97
330
C3B
100
AcDbEntity
  8
1
  6
Continuous
100
AcDbLine
 10
101.088018
 20
48.93689000000001
 30
0.0
 11
113.0880179999999
 21
48.93689000000001
 31
0.0
  0
LINE
  5
D98
330
C3B
100
AcDbEntity
  8
1
  6
Continuous
100
AcDbLine
 10
105.9894689999999
 20
40.93689
 30
0.0
 11
113.0880179999999
 21
40.93689
 31
0.0
  0
LINE
  5
D99
330
C3B
100
AcDbEntity
  8
4
  6
CENTER
100
AcDbLine
 10
126.188018
 20
33.170105
 30
0.0
 11
126.188018
 21
65.192299
 31
0.0
  0
LINE
  5
D9A
330
C3B
100
AcDbEntity
  8
1
  6
Continuous
100
AcDbLine
 10
121.188018
 20
46.43689000000001
 30
0.0
 11
121.188018
 21
48.93689000000001
 31
0.0
  0
LINE
  5
D9B
330
C3B
100
AcDbEntity
  8
1
  6
Continuous
100
AcDbLine
 10
121.188018
 20
43.43689
 30
0.0
 11
127.688018
 21
43.43689
 31
0.0
  0
LINE
  5
D9C
330
C3B
100
AcDbEntity
  8
1
  6
Continuous
100
AcDbLine
 10
121.188018
 20
46.43689000000001
 30
0.0
 11
127.688018
 21
46.43689000000001
 31
0.0
  0
LINE
  5
D9D
330
C3B
100
AcDbEntity
  8
1
  6
Continuous
100
AcDbLine
 10
121.188018
 20
40.93689
 30
0.0
 11
121.188018
 21
43.43689
 31
0.0
  0
LINE
  5
D9E
330
C3B
100
AcDbEntity
  8
1
  6
Continuous
100
AcDbLine
 10
116.5880189999999
 20
48.93689000000001
 30
0.0
 11
121.188018
 21
48.93689000000001
 31
0.0
  0
LINE
  5
D9F
330
C3B
100
AcDbEntity
  8
1
  6
Continuous
100
AcDbLine
 10
116.5880189999999
 20
40.93689
 30
0.0
 11
121.188018
 21
40.93689
 31
0.0
  0
LINE
  5
DA0
330
C3B
100
AcDbEntity
  8
1
  6
Continuous
100
AcDbLine
 10
116.5880189999999
 20
38.93689000000001
 30
0.0
 11
116.5880189999999
 21
50.93689000000001
 31
0.0
  0
LINE
  5
DA1
330
C3B
100
AcDbEntity
  8
1
  6
Continuous
100
AcDbLine
 10
115.6880179999999
 20
50.93689000000001
 30
0.0
 11
116.5880189999999
 21
50.93689000000001
 31
0.0
  0
LINE
  5
DA2
330
C3B
100
AcDbEntity
  8
1
  6
Continuous
100
AcDbLine
 10
115.6880179999999
 20
38.93689000000001
 30
0.0
 11
116.5880189999999
 21
38.93689000000001
 31
0.0
  0
LINE
  5
DA3
330
C3B
100
AcDbEntity
  8
1
  6
Continuous
100
AcDbLine
 10
122.188018
 20
39.93688999999999
 30
0.0
 11
127.688018
 21
39.93688999999999
 31
0.0
  0
LINE
  5
DA4
330
C3B
100
AcDbEntity
  8
1
  6
Continuous
100
AcDbLine
 10
122.188018
 20
49.93688999999999
 30
0.0
 11
127.688018
 21
49.93688999999999
 31
0.0
  0
LINE
  5
DA5
330
C3B
100
AcDbEntity
  8
1
  6
Continuous
100
AcDbLine
 10
122.188018
 20
39.93688999999999
 30
0.0
 11
122.188018
 21
43.43689
 31
0.0
  0
LINE
  5
DA6
330
C3B
100
AcDbEntity
  8
1
  6
Continuous
100
AcDbLine
 10
122.188018
 20
46.43689000000001
 30
0.0
 11
122.188018
 21
49.93688999999999
 31
0.0
  0
LINE
  5
DA7
330
C3B
100
AcDbEntity
  8
1
  6
Continuous
100
AcDbLine
 10
130.1880179999998
 20
43.43689
 30
0.0
 11
130.1880179999998
 21
46.43689000000001
 31
0.0
  0
LINE
  5
DA8
330
C3B
100
AcDbEntity
  8
1
  6
Continuous
100
AcDbLine
 10
124.688018
 20
37.43688999999999
 30
0.0
 11
127.688018
 21
37.43688999999999
 31
0.0
  0
LINE
  5
DA9
330
C3B
100
AcDbEntity
  8
1
  6
Continuous
100
AcDbLine
 10
124.688018
 20
37.43688999999999
 30
0.0
 11
124.688018
 21
39.93688999999999
 31
0.0
  0
LINE
  5
DAA
330
C3B
100
AcDbEntity
  8
1
  6
Continuous
100
AcDbLine
 10
101.088018
 20
47.936882
 30
0.0
 11
105.989461
 21
40.936893
 31
0.0
  0
LINE
  5
DAB
330
C3B
100
AcDbEntity
  8
1
  6
Continuous
100
AcDbLine
 10
101.088018
 20
47.93688999999999
 30
0.0
 11
101.088018
 21
48.93689000000001
 31
0.0
  0
LINE
  5
DAC
330
C3B
100
AcDbEntity
  8
1
  6
Continuous
100
AcDbLine
 10
116.8880149999999
 20
50.83688399999999
 30
0.0
 11
124.688018
 21
50.83688399999999
 31
0.0
  0
LINE
  5
DAD
330
C3B
100
AcDbEntity
  8
1
  6
Continuous
100
AcDbLine
 10
131.9029989999999
 20
49.93688999999999
 30
0.0
 11
131.9379869999999
 21
50.336895
 31
0.0
  0
LINE
  5
DAE
330
C3B
100
AcDbEntity
  8
1
  6
Continuous
100
AcDbLine
 10
132.688018
 20
50.33688399999999
 30
0.0
 11
132.688018
 21
50.83688399999999
 31
0.0
  0
LINE
  5
DAF
330
C3B
100
AcDbEntity
  8
1
  6
Continuous
100
AcDbLine
 10
134.0665729999998
 20
50.83688399999999
 30
0.0
 11
134.0665729999998
 21
52.43688999999999
 31
0.0
  0
LINE
  5
DB0
330
C3B
100
AcDbEntity
  8
1
  6
Continuous
100
AcDbLine
 10
116.8880149999999
 20
52.43688999999999
 30
0.0
 11
124.688018
 21
52.43688999999999
 31
0.0
  0
LINE
  5
DB1
330
C3B
100
AcDbEntity
  8
1
  6
Continuous
100
AcDbLine
 10
124.488021
 20
52.83688399999999
 30
0.0
 11
124.488021
 21
52.43688999999999
 31
0.0
  0
LINE
  5
DB2
330
C3B
100
AcDbEntity
  8
1
  6
Continuous
100
AcDbLine
 10
133.888015
 20
52.83688399999999
 30
0.0
 11
133.888015
 21
52.43688999999999
 31
0.0
  0
LINE
  5
DB3
330
C3B
100
AcDbEntity
  8
1
  6
Continuous
100
AcDbLine
 10
134.3114919999998
 20
52.83688399999999
 30
0.0
 11
134.3114919999998
 21
51.236893
 31
0.0
  0
LINE
  5
DB4
330
C3B
100
AcDbEntity
  8
1
  6
Continuous
100
AcDbLine
 10
134.0665729999998
 20
51.236893
 30
0.0
 11
134.688018
 21
51.236893
 31
0.0
  0
LINE
  5
DB5
330
C3B
100
AcDbEntity
  8
1
  6
Continuous
100
AcDbLine
 10
134.688018
 20
53.43689000000001
 30
0.0
 11
134.688018
 21
51.236893
 31
0.0
  0
LINE
  5
DB6
330
C3B
100
AcDbEntity
  8
1
  6
Continuous
100
AcDbLine
 10
123.6880179999999
 20
52.83688399999999
 30
0.0
 11
124.688018
 21
52.83688399999999
 31
0.0
  0
LINE
  5
DB7
330
C3B
100
AcDbEntity
  8
1
  6
Continuous
100
AcDbLine
 10
135.1880179999998
 20
56.93689
 30
0.0
 11
135.1880179999998
 21
53.93689000000001
 31
0.0
  0
LINE
  5
DB8
330
C3B
100
AcDbEntity
  8
2
  6
Continuous
100
AcDbLine
 10
134.782012
 20
56.93689
 30
0.0
 11
134.782012
 21
53.93689000000001
 31
0.0
  0
LINE
  5
DB9
330
C3B
100
AcDbEntity
  8
1
  6
Continuous
100
AcDbLine
 10
132.0927419999998
 20
56.93689
 30
0.0
 11
132.0927419999998
 21
53.93689000000001
 31
0.0
  0
LINE
  5
DBA
330
C3B
100
AcDbEntity
  8
1
  6
Continuous
100
AcDbLine
 10
135.1880329999999
 20
53.936878
 30
0.0
 11
134.6880329999999
 21
53.436878
 31
0.0
  0
LINE
  5
DBB
330
C3B
100
AcDbEntity
  8
1
  6
Continuous
100
AcDbLine
 10
132.0927419999998
 20
53.93689000000001
 30
0.0
 11
135.1880179999998
 21
53.93689000000001
 31
0.0
  0
LINE
  5
DBC
330
C3B
100
AcDbEntity
  8
1
  6
Continuous
100
AcDbLine
 10
132.0927419999998
 20
53.93689000000001
 30
0.0
 11
130.992736
 21
52.83688699999999
 31
0.0
  0
LINE
  5
DBD
330
C3B
100
AcDbEntity
  8
2
  6
Continuous
100
AcDbLine
 10
130.042357
 20
56.936886
 30
0.0
 11
132.092757
 21
53.93689300000001
 31
0.0
  0
LINE
  5
DBE
330
C3B
100
AcDbEntity
  8
1
  6
Continuous
100
AcDbLine
 10
133.5181419999998
 20
57.606766
 30
0.0
 11
133.5181419999998
 21
59.93688999999999
 31
0.0
  0
LINE
  5
DBF
330
C3B
100
AcDbEntity
  8
1
  6
Continuous
100
AcDbLine
 10
121.6880179999999
 20
56.93689
 30
0.0
 11
124.688018
 21
56.93689
 31
0.0
  0
LINE
  5
DC0
330
C3B
100
AcDbEntity
  8
2
  6
Continuous
100
AcDbLine
 10
123.5940079999999
 20
56.93689
 30
0.0
 11
123.5940079999999
 21
53.93689000000001
 31
0.0
  0
LINE
  5
DC1
330
C3B
100
AcDbEntity
  8
1
  6
Continuous
100
AcDbLine
 10
123.188018
 20
56.93689
 30
0.0
 11
123.188018
 21
53.93689000000001
 31
0.0
  0
LINE
  5
DC2
330
C3B
100
AcDbEntity
  8
1
  6
Continuous
100
AcDbLine
 10
123.188018
 20
53.93689000000001
 30
0.0
 11
124.688018
 21
53.93689000000001
 31
0.0
  0
LINE
  5
DC3
330
C3B
100
AcDbEntity
  8
1
  6
Continuous
100
AcDbLine
 10
123.1880029999999
 20
53.93689000000001
 30
0.0
 11
123.688003
 21
53.436886
 31
0.0
  0
LINE
  5
DC4
330
C3B
100
AcDbEntity
  8
1
  6
Continuous
100
AcDbLine
 10
123.6880179999999
 20
53.43689000000001
 30
0.0
 11
123.6880179999999
 21
52.83688399999999
 31
0.0
  0
LINE
  5
DC5
330
C3B
100
AcDbEntity
  8
2
  6
Continuous
100
AcDbLine
 10
127.688018
 20
55.992195
 30
0.0
 11
128.3336929999999
 21
56.936886
 31
0.0
  0
LINE
  5
DC6
330
C3B
100
AcDbEntity
  8
1
  6
Continuous
100
AcDbLine
 10
120.5277549999999
 20
57.606766
 30
0.0
 11
120.5277549999999
 21
59.93688999999999
 31
0.0
  0
LINE
  5
DC7
330
C3B
100
AcDbEntity
  8
1
  6
Continuous
100
AcDbLine
 10
121.6880179999999
 20
56.936901
 30
0.0
 11
120.5277549999999
 21
57.606777
 31
0.0
  0
LINE
  5
DC8
330
C3B
100
AcDbEntity
  8
1
  6
Continuous
100
AcDbLine
 10
137.8482659999999
 20
57.606766
 30
0.0
 11
137.8482659999999
 21
59.93688999999999
 31
0.0
  0
LINE
  5
DC9
330
C3B
100
AcDbEntity
  8
1
  6
Continuous
100
AcDbLine
 10
136.688018
 20
56.936878
 30
0.0
 11
137.8482809999999
 21
57.606754
 31
0.0
  0
LINE
  5
DCA
330
C3B
100
AcDbEntity
  8
1
  6
Continuous
100
AcDbLine
 10
116.8880149999999
 20
50.83688399999999
 30
0.0
 11
116.8880149999999
 21
52.43688999999999
 31
0.0
  0
LINE
  5
DCB
330
C3B
100
AcDbEntity
  8
1
  6
Continuous
100
AcDbLine
 10
124.688018
 20
49.93688999999999
 30
0.0
 11
124.688018
 21
59.93688999999999
 31
0.0
  0
LINE
  5
DCC
330
C3B
100
AcDbEntity
  8
1
  6
Continuous
100
AcDbLine
 10
127.688018
 20
37.43688999999999
 30
0.0
 11
127.688018
 21
59.93688999999999
 31
0.0
  0
LINE
  5
DCD
330
C3B
100
AcDbEntity
  8
1
  6
Continuous
100
AcDbLine
 10
127.688018
 20
50.83688399999999
 30
0.0
 11
134.0665729999998
 21
50.83688399999999
 31
0.0
  0
LINE
  5
DCE
330
C3B
100
AcDbEntity
  8
1
  6
Continuous
100
AcDbLine
 10
127.688018
 20
52.83688399999999
 30
0.0
 11
134.688018
 21
52.83688399999999
 31
0.0
  0
LINE
  5
DCF
330
C3B
100
AcDbEntity
  8
1
  6
Continuous
100
AcDbLine
 10
127.688018
 20
52.43688999999999
 30
0.0
 11
134.0665729999998
 21
52.43688999999999
 31
0.0
  0
LINE
  5
DD0
330
C3B
100
AcDbEntity
  8
1
  6
Continuous
100
AcDbLine
 10
127.688018
 20
56.93689
 30
0.0
 11
136.688018
 21
56.93689
 31
0.0
  0
LINE
  5
DD1
330
C3B
100
AcDbEntity
  8
4
  6
CENTER
100
AcDbLine
 10
95.580677
 20
226.9368899999999
 30
0.0
 11
195.080284
 21
226.9368899999999
 31
0.0
  0
LINE
  5
DD2
330
C3B
100
AcDbEntity
  8
1
  6
Continuous
100
AcDbLine
 10
188.1880179999998
 20
239.9368899999998
 30
0.0
 11
188.1880179999998
 21
213.93689
 31
0.0
  0
LINE
  5
DD3
330
C3B
100
AcDbEntity
  8
1
  6
Continuous
100
AcDbLine
 10
113.0880179999999
 20
241.9368899999998
 30
0.0
 11
113.0880179999999
 21
211.93689
 31
0.0
  0
LINE
  5
DD4
330
C3B
100
AcDbEntity
  8
1
  6
Continuous
100
AcDbLine
 10
115.6880179999999
 20
209.3368899999999
 30
0.0
 11
188.1880179999998
 21
209.3368899999999
 31
0.0
  0
LINE
  5
DD5
330
C3B
100
AcDbEntity
  8
1
  6
Continuous
100
AcDbLine
 10
113.0880179999999
 20
241.9368899999998
 30
0.0
 11
115.6880179999999
 21
241.9368899999998
 31
0.0
  0
LINE
  5
DD6
330
C3B
100
AcDbEntity
  8
1
  6
Continuous
100
AcDbLine
 10
115.6880179999999
 20
211.93689
 30
0.0
 11
188.1880179999998
 21
211.93689
 31
0.0
  0
LINE
  5
DD7
330
C3B
100
AcDbEntity
  8
1
  6
Continuous
100
AcDbLine
 10
115.6880179999999
 20
241.9368899999998
 30
0.0
 11
115.6880179999999
 21
211.93689
 31
0.0
  0
LINE
  5
DD8
330
C3B
100
AcDbEntity
  8
1
  6
Continuous
100
AcDbLine
 10
121.6880179999999
 20
209.3368899999999
 30
0.0
 11
121.6880179999999
 21
205.3368899999999
 31
0.0
  0
LINE
  5
DD9
330
C3B
100
AcDbEntity
  8
1
  6
Continuous
100
AcDbLine
 10
136.688018
 20
209.3368899999999
 30
0.0
 11
136.688018
 21
205.3368899999999
 31
0.0
  0
LINE
  5
DDA
330
C3B
100
AcDbEntity
  8
4
  6
CENTER
100
AcDbLine
 10
129.1880179999998
 20
230.9466089999999
 30
0.0
 11
129.1880179999998
 21
198.583172
 31
0.0
  0
LINE
  5
DDB
330
C3B
100
AcDbEntity
  8
1
  6
Continuous
100
AcDbLine
 10
121.6880179999999
 20
205.3368899999999
 30
0.0
 11
136.688018
 21
205.3368899999999
 31
0.0
  0
LINE
  5
DDC
330
C3B
100
AcDbEntity
  8
1
  6
Continuous
100
AcDbLine
 10
138.188018
 20
241.9368899999998
 30
0.0
 11
186.1880179999998
 21
241.9368899999998
 31
0.0
  0
LINE
  5
DDD
330
C3B
100
AcDbEntity
  8
1
  6
Continuous
100
AcDbLine
 10
138.188018
 20
241.9368899999998
 30
0.0
 11
138.188018
 21
211.93689
 31
0.0
  0
LINE
  5
DDE
330
C3B
100
AcDbEntity
  8
1
  6
Continuous
100
AcDbLine
 10
140.188018
 20
241.9368899999998
 30
0.0
 11
140.188018
 21
211.93689
 31
0.0
  0
LINE
  5
DDF
330
C3B
100
AcDbEntity
  8
1
  6
Continuous
100
AcDbLine
 10
140.188018
 20
239.9368899999998
 30
0.0
 11
186.1880179999998
 21
239.9368899999998
 31
0.0
  0
LINE
  5
DE0
330
C3B
100
AcDbEntity
  8
1
  6
Continuous
100
AcDbLine
 10
140.188018
 20
213.93689
 30
0.0
 11
186.1880179999998
 21
213.93689
 31
0.0
  0
LINE
  5
DE1
330
C3B
100
AcDbEntity
  8
1
  6
Continuous
100
AcDbLine
 10
188.1880179999998
 20
211.93689
 30
0.0
 11
188.1880179999998
 21
209.3368899999999
 31
0.0
  0
LINE
  5
DE2
330
C3B
100
AcDbEntity
  8
1
  6
Continuous
100
AcDbLine
 10
186.1880179999998
 20
239.9368899999998
 30
0.0
 11
186.1880179999998
 21
213.93689
 31
0.0
  0
LINE
  5
DE3
330
C3B
100
AcDbEntity
  8
1
  6
Continuous
100
AcDbLine
 10
140.188018
 20
238.4368899999998
 30
0.0
 11
186.1880179999998
 21
238.4368899999998
 31
0.0
  0
LINE
  5
DE4
330
C3B
100
AcDbEntity
  8
1
  6
Continuous
100
AcDbLine
 10
140.188018
 20
215.4368899999998
 30
0.0
 11
186.1880179999998
 21
215.4368899999998
 31
0.0
  0
LINE
  5
DE5
330
C3B
100
AcDbEntity
  8
1
  6
Continuous
100
AcDbLine
 10
189.188018
 20
229.1868899999998
 30
0.0
 11
189.188018
 21
224.6868899999999
 31
0.0
  0
LINE
  5
DE6
330
C3B
100
AcDbEntity
  8
1
  6
Continuous
100
AcDbLine
 10
188.1880179999998
 20
224.6868899999999
 30
0.0
 11
189.188018
 21
224.6868899999999
 31
0.0
  0
LINE
  5
DE7
330
C3B
100
AcDbEntity
  8
1
  6
Continuous
100
AcDbLine
 10
188.1880179999998
 20
229.1868899999998
 30
0.0
 11
189.188018
 21
229.1868899999998
 31
0.0
  0
LINE
  5
DE8
330
C3B
100
AcDbEntity
  8
1
  6
Continuous
100
AcDbLine
 10
163.688018
 20
236.6868899999999
 30
0.0
 11
163.688018
 21
229.6868899999998
 31
0.0
  0
LINE
  5
DE9
330
C3B
100
AcDbEntity
  8
1
  6
Continuous
100
AcDbLine
 10
163.288024
 20
236.6868899999999
 30
0.0
 11
163.288024
 21
229.6868899999998
 31
0.0
  0
LINE
  5
DEA
330
C3B
100
AcDbEntity
  8
1
  6
Continuous
100
AcDbLine
 10
163.288024
 20
229.6868899999998
 30
0.0
 11
163.688018
 21
229.6868899999998
 31
0.0
  0
LINE
  5
DEB
330
C3B
100
AcDbEntity
  8
1
  6
Continuous
100
AcDbLine
 10
163.288024
 20
224.1868899999999
 30
0.0
 11
163.688018
 21
224.1868899999999
 31
0.0
  0
LINE
  5
DEC
330
C3B
100
AcDbEntity
  8
1
  6
Continuous
100
AcDbLine
 10
163.288024
 20
236.6868899999999
 30
0.0
 11
163.688018
 21
236.6868899999999
 31
0.0
  0
LINE
  5
DED
330
C3B
100
AcDbEntity
  8
1
  6
Continuous
100
AcDbLine
 10
163.288024
 20
217.1868899999998
 30
0.0
 11
163.688018
 21
217.1868899999998
 31
0.0
  0
LINE
  5
DEE
330
C3B
100
AcDbEntity
  8
1
  6
Continuous
100
AcDbLine
 10
163.688018
 20
224.1868899999999
 30
0.0
 11
163.688018
 21
217.1868899999998
 31
0.0
  0
LINE
  5
DEF
330
C3B
100
AcDbEntity
  8
1
  6
Continuous
100
AcDbLine
 10
163.288024
 20
224.1868899999999
 30
0.0
 11
163.288024
 21
217.1868899999998
 31
0.0
  0
LINE
  5
DF0
330
C3B
100
AcDbEntity
  8
1
  6
Continuous
100
AcDbLine
 10
101.088018
 20
222.9368899999998
 30
0.0
 11
113.0880179999999
 21
222.9368899999998
 31
0.0
  0
LINE
  5
DF1
330
C3B
100
AcDbEntity
  8
1
  6
Continuous
100
AcDbLine
 10
105.9894689999999
 20
230.9368899999999
 30
0.0
 11
113.0880179999999
 21
230.9368899999999
 31
0.0
  0
LINE
  5
DF2
330
C3B
100
AcDbEntity
  8
5
  6
PHANTOM
100
AcDbLine
 10
106.0880179999999
 20
223.9368899999998
 30
0.0
 11
106.0880179999999
 21
222.9368899999998
 31
0.0
  0
LINE
  5
DF3
330
C3B
100
AcDbEntity
  8
5
  6
PHANTOM
100
AcDbLine
 10
106.0880179999999
 20
223.9368899999998
 30
0.0
 11
110.9894689999999
 21
230.9368899999999
 31
0.0
  0
LINE
  5
DF4
330
C3B
100
AcDbEntity
  8
4
  6
CENTER
100
AcDbLine
 10
126.188018
 20
238.0428359999999
 30
0.0
 11
126.188018
 21
217.904572
 31
0.0
  0
LINE
  5
DF5
330
C3B
100
AcDbEntity
  8
1
  6
Continuous
100
AcDbLine
 10
121.188018
 20
225.4368899999998
 30
0.0
 11
121.188018
 21
222.9368899999998
 31
0.0
  0
LINE
  5
DF6
330
C3B
100
AcDbEntity
  8
1
  6
Continuous
100
AcDbLine
 10
121.188018
 20
228.43689
 30
0.0
 11
127.688018
 21
228.43689
 31
0.0
  0
LINE
  5
DF7
330
C3B
100
AcDbEntity
  8
1
  6
Continuous
100
AcDbLine
 10
121.188018
 20
225.4368899999998
 30
0.0
 11
127.688018
 21
225.4368899999998
 31
0.0
  0
LINE
  5
DF8
330
C3B
100
AcDbEntity
  8
1
  6
Continuous
100
AcDbLine
 10
121.188018
 20
230.9368899999999
 30
0.0
 11
121.188018
 21
228.43689
 31
0.0
  0
LINE
  5
DF9
330
C3B
100
AcDbEntity
  8
1
  6
Continuous
100
AcDbLine
 10
116.5880189999999
 20
222.9368899999998
 30
0.0
 11
121.188018
 21
222.9368899999998
 31
0.0
  0
LINE
  5
DFA
330
C3B
100
AcDbEntity
  8
1
  6
Continuous
100
AcDbLine
 10
116.5880189999999
 20
230.9368899999999
 30
0.0
 11
121.188018
 21
230.9368899999999
 31
0.0
  0
LINE
  5
DFB
330
C3B
100
AcDbEntity
  8
1
  6
Continuous
100
AcDbLine
 10
116.5880189999999
 20
232.9368899999999
 30
0.0
 11
116.5880189999999
 21
220.9368899999998
 31
0.0
  0
LINE
  5
DFC
330
C3B
100
AcDbEntity
  8
1
  6
Continuous
100
AcDbLine
 10
115.6880179999999
 20
220.9368899999998
 30
0.0
 11
116.5880189999999
 21
220.9368899999998
 31
0.0
  0
LINE
  5
DFD
330
C3B
100
AcDbEntity
  8
1
  6
Continuous
100
AcDbLine
 10
115.6880179999999
 20
232.9368899999999
 30
0.0
 11
116.5880189999999
 21
232.9368899999999
 31
0.0
  0
LINE
  5
DFE
330
C3B
100
AcDbEntity
  8
1
  6
Continuous
100
AcDbLine
 10
122.188018
 20
231.9368899999998
 30
0.0
 11
127.688018
 21
231.9368899999998
 31
0.0
  0
LINE
  5
DFF
330
C3B
100
AcDbEntity
  8
1
  6
Continuous
100
AcDbLine
 10
122.188018
 20
221.9368899999998
 30
0.0
 11
126.4730829999999
 21
221.9368899999998
 31
0.0
  0
LINE
  5
E00
330
C3B
100
AcDbEntity
  8
1
  6
Continuous
100
AcDbLine
 10
122.188018
 20
231.9368899999998
 30
0.0
 11
122.188018
 21
228.43689
 31
0.0
  0
LINE
  5
E01
330
C3B
100
AcDbEntity
  8
1
  6
Continuous
100
AcDbLine
 10
122.188018
 20
225.4368899999998
 30
0.0
 11
122.188018
 21
221.9368899999998
 31
0.0
  0
LINE
  5
E02
330
C3B
100
AcDbEntity
  8
1
  6
Continuous
100
AcDbLine
 10
130.1880179999998
 20
228.43689
 30
0.0
 11
130.1880179999998
 21
225.4368899999998
 31
0.0
  0
LINE
  5
E03
330
C3B
100
AcDbEntity
  8
1
  6
Continuous
100
AcDbLine
 10
124.688018
 20
234.4368899999998
 30
0.0
 11
127.688018
 21
234.4368899999998
 31
0.0
  0
LINE
  5
E04
330
C3B
100
AcDbEntity
  8
1
  6
Continuous
100
AcDbLine
 10
127.688018
 20
234.4368899999998
 30
0.0
 11
127.688018
 21
223.374298
 31
0.0
  0
LINE
  5
E05
330
C3B
100
AcDbEntity
  8
1
  6
Continuous
100
AcDbLine
 10
124.688018
 20
234.4368899999998
 30
0.0
 11
124.688018
 21
231.9368899999998
 31
0.0
  0
LINE
  5
E06
330
C3B
100
AcDbEntity
  8
1
  6
Continuous
100
AcDbLine
 10
101.088018
 20
223.9368899999998
 30
0.0
 11
105.9894689999999
 21
230.9368899999999
 31
0.0
  0
LINE
  5
E07
330
C3B
100
AcDbEntity
  8
1
  6
Continuous
100
AcDbLine
 10
101.088018
 20
223.9368899999998
 30
0.0
 11
101.088018
 21
222.9368899999998
 31
0.0
  0
LINE
  5
E08
330
C3B
100
AcDbEntity
  8
1
  6
Continuous
100
AcDbLine
 10
116.8880149999999
 20
221.0368959999999
 30
0.0
 11
134.0665729999998
 21
221.0368959999999
 31
0.0
  0
LINE
  5
E09
330
C3B
100
AcDbEntity
  8
1
  6
Continuous
100
AcDbLine
 10
125.438018
 20
221.5368959999999
 30
0.0
 11
125.438018
 21
221.0368959999999
 31
0.0
  0
LINE
  5
E0A
330
C3B
100
AcDbEntity
  8
1
  6
Continuous
100
AcDbLine
 10
125.438018
 20
221.5368959999999
 30
0.0
 11
132.938018
 21
221.5368959999999
 31
0.0
  0
LINE
  5
E0B
330
C3B
100
AcDbEntity
  8
1
  6
Continuous
100
AcDbLine
 10
126.512206
 20
222.3841249999999
 30
0.0
 11
126.438079
 21
221.5368799999999
 31
0.0
  0
LINE
  5
E0C
330
C3B
100
AcDbEntity
  8
1
  6
Continuous
100
AcDbLine
 10
131.8638599999999
 20
222.3841249999999
 30
0.0
 11
131.9379869999999
 21
221.5368799999999
 31
0.0
  0
LINE
  5
E0D
330
C3B
100
AcDbEntity
  8
1
  6
Continuous
100
AcDbLine
 10
132.938018
 20
221.5368959999999
 30
0.0
 11
132.938018
 21
221.0368959999999
 31
0.0
  0
LINE
  5
E0E
330
C3B
100
AcDbEntity
  8
1
  6
Continuous
100
AcDbLine
 10
134.0665729999998
 20
221.0368959999999
 30
0.0
 11
134.0665729999998
 21
219.4368899999998
 31
0.0
  0
LINE
  5
E0F
330
C3B
100
AcDbEntity
  8
1
  6
Continuous
100
AcDbLine
 10
116.8880149999999
 20
219.4368899999998
 30
0.0
 11
134.0665729999998
 21
219.4368899999998
 31
0.0
  0
LINE
  5
E10
330
C3B
100
AcDbEntity
  8
1
  6
Continuous
100
AcDbLine
 10
124.488021
 20
219.0368959999999
 30
0.0
 11
124.488021
 21
219.4368899999998
 31
0.0
  0
LINE
  5
E11
330
C3B
100
AcDbEntity
  8
1
  6
Continuous
100
AcDbLine
 10
133.888015
 20
219.0368959999999
 30
0.0
 11
133.888015
 21
219.4368899999998
 31
0.0
  0
LINE
  5
E12
330
C3B
100
AcDbEntity
  8
1
  6
Continuous
100
AcDbLine
 10
134.3114919999998
 20
219.0368959999999
 30
0.0
 11
134.3114919999998
 21
220.6368869999999
 31
0.0
  0
LINE
  5
E13
330
C3B
100
AcDbEntity
  8
1
  6
Continuous
100
AcDbLine
 10
134.0665729999998
 20
220.6368869999999
 30
0.0
 11
134.688018
 21
220.6368869999999
 31
0.0
  0
LINE
  5
E14
330
C3B
100
AcDbEntity
  8
1
  6
Continuous
100
AcDbLine
 10
134.688018
 20
218.4368899999999
 30
0.0
 11
134.688018
 21
220.6368869999999
 31
0.0
  0
LINE
  5
E15
330
C3B
100
AcDbEntity
  8
1
  6
Continuous
100
AcDbLine
 10
123.6880179999999
 20
219.0368959999999
 30
0.0
 11
134.688018
 21
219.0368959999999
 31
0.0
  0
LINE
  5
E16
330
C3B
100
AcDbEntity
  8
1
  6
Continuous
100
AcDbLine
 10
135.1880179999998
 20
214.9368899999998
 30
0.0
 11
135.1880179999998
 21
217.9368899999999
 31
0.0
  0
LINE
  5
E17
330
C3B
100
AcDbEntity
  8
2
  6
Continuous
100
AcDbLine
 10
134.782012
 20
214.9368899999998
 30
0.0
 11
134.782012
 21
217.9368899999999
 31
0.0
  0
LINE
  5
E18
330
C3B
100
AcDbEntity
  8
1
  6
Continuous
100
AcDbLine
 10
132.0927419999998
 20
214.9368899999998
 30
0.0
 11
132.0927419999998
 21
217.9368899999999
 31
0.0
  0
LINE
  5
E19
330
C3B
100
AcDbEntity
  8
1
  6
Continuous
100
AcDbLine
 10
135.1880329999999
 20
217.9369049999999
 30
0.0
 11
134.6880329999999
 21
218.4369049999999
 31
0.0
  0
LINE
  5
E1A
330
C3B
100
AcDbEntity
  8
1
  6
Continuous
100
AcDbLine
 10
132.0927419999998
 20
217.9368899999999
 30
0.0
 11
135.1880179999998
 21
217.9368899999999
 31
0.0
  0
LINE
  5
E1B
330
C3B
100
AcDbEntity
  8
1
  6
Continuous
100
AcDbLine
 10
132.0927419999998
 20
217.9368899999999
 30
0.0
 11
130.992751
 21
219.0368959999999
 31
0.0
  0
LINE
  5
E1C
330
C3B
100
AcDbEntity
  8
2
  6
Continuous
100
AcDbLine
 10
130.042357
 20
214.9368899999998
 30
0.0
 11
132.092757
 21
217.9368899999999
 31
0.0
  0
LINE
  5
E1D
330
C3B
100
AcDbEntity
  8
1
  6
Continuous
100
AcDbLine
 10
133.5181419999998
 20
214.2670139999999
 30
0.0
 11
133.5181419999998
 21
211.93689
 31
0.0
  0
LINE
  5
E1E
330
C3B
100
AcDbEntity
  8
1
  6
Continuous
100
AcDbLine
 10
121.6880179999999
 20
214.9368899999998
 30
0.0
 11
136.688018
 21
214.9368899999998
 31
0.0
  0
LINE
  5
E1F
330
C3B
100
AcDbEntity
  8
2
  6
Continuous
100
AcDbLine
 10
123.5940079999999
 20
214.9368899999998
 30
0.0
 11
123.5940079999999
 21
217.9368899999999
 31
0.0
  0
LINE
  5
E20
330
C3B
100
AcDbEntity
  8
1
  6
Continuous
100
AcDbLine
 10
123.188018
 20
214.9368899999998
 30
0.0
 11
123.188018
 21
217.9368899999999
 31
0.0
  0
LINE
  5
E21
330
C3B
100
AcDbEntity
  8
1
  6
Continuous
100
AcDbLine
 10
126.2832779999999
 20
214.9368899999998
 30
0.0
 11
126.2832779999999
 21
217.9368899999999
 31
0.0
  0
LINE
  5
E22
330
C3B
100
AcDbEntity
  8
1
  6
Continuous
100
AcDbLine
 10
123.188018
 20
217.9368899999999
 30
0.0
 11
126.2832779999999
 21
217.9368899999999
 31
0.0
  0
LINE
  5
E23
330
C3B
100
AcDbEntity
  8
1
  6
Continuous
100
AcDbLine
 10
123.1880029999999
 20
217.9368899999999
 30
0.0
 11
123.688003
 21
218.4368899999999
 31
0.0
  0
LINE
  5
E24
330
C3B
100
AcDbEntity
  8
1
  6
Continuous
100
AcDbLine
 10
123.6880179999999
 20
218.4368899999999
 30
0.0
 11
123.6880179999999
 21
219.0368959999999
 31
0.0
  0
LINE
  5
E25
330
C3B
100
AcDbEntity
  8
1
  6
Continuous
100
AcDbLine
 10
126.2832779999999
 20
217.9368899999999
 30
0.0
 11
127.383285
 21
219.0368959999999
 31
0.0
  0
LINE
  5
E26
330
C3B
100
AcDbEntity
  8
2
  6
Continuous
100
AcDbLine
 10
126.2832779999999
 20
217.9368899999999
 30
0.0
 11
128.3336779999999
 21
214.9368899999998
 31
0.0
  0
LINE
  5
E27
330
C3B
100
AcDbEntity
  8
1
  6
Continuous
100
AcDbLine
 10
120.5277549999999
 20
214.2670139999999
 30
0.0
 11
120.5277549999999
 21
211.93689
 31
0.0
  0
LINE
  5
E28
330
C3B
100
AcDbEntity
  8
1
  6
Continuous
100
AcDbLine
 10
124.8578939999999
 20
214.2670139999999
 30
0.0
 11
124.8578939999999
 21
211.93689
 31
0.0
  0
LINE
  5
E29
330
C3B
100
AcDbEntity
  8
1
  6
Continuous
100
AcDbLine
 10
121.6880179999999
 20
214.9368739999999
 30
0.0
 11
120.5277549999999
 21
214.2669979999999
 31
0.0
  0
LINE
  5
E2A
330
C3B
100
AcDbEntity
  8
1
  6
Continuous
100
AcDbLine
 10
137.8482659999999
 20
214.2670139999999
 30
0.0
 11
137.8482659999999
 21
211.93689
 31
0.0
  0
LINE
  5
E2B
330
C3B
100
AcDbEntity
  8
1
  6
Continuous
100
AcDbLine
 10
136.688018
 20
214.9368899999998
 30
0.0
 11
137.8482809999999
 21
214.2670139999999
 31
0.0
  0
LINE
  5
E2C
330
C3B
100
AcDbEntity
  8
1
  6
Continuous
100
AcDbLine
 10
116.8880149999999
 20
221.0368959999999
 30
0.0
 11
116.8880149999999
 21
219.4368899999998
 31
0.0
  0
LINE
  5
E2D
330
C3B
100
AcDbEntity
  8
1
  6
Continuous
100
AcDbLine
 10
395.2870629999999
 20
140.9368899999998
 30
0.0
 11
395.2870629999999
 21
130.9368899999997
 31
0.0
  0
LINE
  5
E2E
330
C3B
100
AcDbEntity
  8
1
  6
Continuous
100
AcDbLine
 10
396.2870629999999
 20
139.9368899999998
 30
0.0
 11
396.2870629999999
 21
131.9368899999997
 31
0.0
  0
LINE
  5
E2F
330
C3B
100
AcDbEntity
  8
1
  6
Continuous
100
AcDbLine
 10
395.2870629999999
 20
140.9368899999998
 30
0.0
 11
389.7870629999999
 21
140.9368899999998
 31
0.0
  0
LINE
  5
E30
330
C3B
100
AcDbEntity
  8
1
  6
Continuous
100
AcDbLine
 10
395.2870629999999
 20
130.9368899999997
 30
0.0
 11
389.7870629999999
 21
130.9368899999997
 31
0.0
  0
LINE
  5
E31
330
C3B
100
AcDbEntity
  8
1
  6
Continuous
100
AcDbLine
 10
401.7870629999999
 20
131.9368899999997
 30
0.0
 11
395.2870629999999
 21
131.9368899999997
 31
0.0
  0
LINE
  5
E32
330
C3B
100
AcDbEntity
  8
1
  6
Continuous
100
AcDbLine
 10
401.7870629999999
 20
139.9368899999998
 30
0.0
 11
395.2870629999999
 21
139.9368899999998
 31
0.0
  0
LINE
  5
E33
330
C3B
100
AcDbEntity
  8
1
  6
Continuous
100
AcDbLine
 10
401.7870629999999
 20
148.4368899999998
 30
0.0
 11
401.7870629999999
 21
123.4368899999999
 31
0.0
  0
LINE
  5
E34
330
C3B
100
AcDbEntity
  8
1
  6
Continuous
100
AcDbLine
 10
390.3649429999999
 20
142.9453429999998
 30
0.0
 11
390.826674
 21
142.058334
 31
0.0
  0
LINE
  5
E35
330
C3B
100
AcDbEntity
  8
1
  6
Continuous
100
AcDbLine
 10
384.295516
 20
149.0147859999999
 30
0.0
 11
383.4084919999999
 21
149.4765319999999
 31
0.0
  0
LINE
  5
E36
330
C3B
100
AcDbEntity
  8
1
  6
Continuous
100
AcDbLine
 10
388.9158469999999
 20
146.308105
 30
0.0
 11
389.337386
 21
146.504669
 31
0.0
  0
LINE
  5
E37
330
C3B
100
AcDbEntity
  8
1
  6
Continuous
100
AcDbLine
 10
389.337356
 20
146.504669
 30
0.0
 11
390.037368
 21
146.5168909999998
 31
0.0
  0
LINE
  5
E38
330
C3B
100
AcDbEntity
  8
1
  6
Continuous
100
AcDbLine
 10
389.337356
 20
147.3690949999999
 30
0.0
 11
390.037368
 21
147.356888
 31
0.0
  0
LINE
  5
E39
330
C3B
100
AcDbEntity
  8
1
  6
Continuous
100
AcDbLine
 10
388.9158469999999
 20
147.5656739999998
 30
0.0
 11
389.337386
 21
147.36911
 31
0.0
  0
LINE
  5
E3A
330
C3B
100
AcDbEntity
  8
1
  6
Continuous
100
AcDbLine
 10
388.719253
 20
147.9872129999999
 30
0.0
 11
388.7070459999998
 21
148.68721
 31
0.0
  0
LINE
  5
E3B
330
C3B
100
AcDbEntity
  8
1
  6
Continuous
100
AcDbLine
 10
388.9158469999999
 20
147.5656889999999
 30
0.0
 11
388.719283
 21
147.9872279999999
 31
0.0
  0
LINE
  5
E3C
330
C3B
100
AcDbEntity
  8
1
  6
Continuous
100
AcDbLine
 10
387.8548119999999
 20
147.9872129999999
 30
0.0
 11
387.8670189999998
 21
148.687195
 31
0.0
  0
LINE
  5
E3D
330
C3B
100
AcDbEntity
  8
1
  6
Continuous
100
AcDbLine
 10
387.658278
 20
147.5656429999999
 30
0.0
 11
387.854842
 21
147.987198
 31
0.0
  0
LINE
  5
E3E
330
C3B
100
AcDbEntity
  8
1
  6
Continuous
100
AcDbLine
 10
387.2367389999998
 20
147.36911
 30
0.0
 11
386.536727
 21
147.356888
 31
0.0
  0
LINE
  5
E3F
330
C3B
100
AcDbEntity
  8
1
  6
Continuous
100
AcDbLine
 10
387.658309
 20
147.5656889999999
 30
0.0
 11
387.2367389999998
 21
147.36911
 31
0.0
  0
LINE
  5
E40
330
C3B
100
AcDbEntity
  8
1
  6
Continuous
100
AcDbLine
 10
387.2367089999999
 20
146.504669
 30
0.0
 11
386.536727
 21
146.5168909999998
 31
0.0
  0
LINE
  5
E41
330
C3B
100
AcDbEntity
  8
1
  6
Continuous
100
AcDbLine
 10
387.658278
 20
146.30809
 30
0.0
 11
387.2367389999998
 21
146.5046539999999
 31
0.0
  0
LINE
  5
E42
330
C3B
100
AcDbEntity
  8
1
  6
Continuous
100
AcDbLine
 10
387.8548119999999
 20
145.8865659999998
 30
0.0
 11
387.867049
 21
145.1865689999999
 31
0.0
  0
LINE
  5
E43
330
C3B
100
AcDbEntity
  8
1
  6
Continuous
100
AcDbLine
 10
387.658278
 20
146.308105
 30
0.0
 11
387.854842
 21
145.8865659999998
 31
0.0
  0
LINE
  5
E44
330
C3B
100
AcDbEntity
  8
1
  6
Continuous
100
AcDbLine
 10
388.719253
 20
145.8865659999998
 30
0.0
 11
388.7070459999998
 21
145.186584
 31
0.0
  0
LINE
  5
E45
330
C3B
100
AcDbEntity
  8
1
  6
Continuous
100
AcDbLine
 10
388.9158469999999
 20
146.30809
 30
0.0
 11
388.719283
 21
145.886536
 31
0.0
  0
LINE
  5
E46
330
C3B
100
AcDbEntity
  8
1
  6
Continuous
100
AcDbLine
 10
379.626784
 20
146.9368899999998
 30
0.0
 11
382.6307209999998
 21
141.733932
 31
0.0
  0
LINE
  5
E47
330
C3B
100
AcDbEntity
  8
1
  6
Continuous
100
AcDbLine
 10
392.6171709999999
 20
154.4368899999998
 30
0.0
 11
394.060561
 21
151.9368899999998
 31
0.0
  0
LINE
  5
E48
330
C3B
100
AcDbEntity
  8
1
  6
Continuous
100
AcDbLine
 10
392.6171709999999
 20
154.4368899999998
 30
0.0
 11
383.956923
 21
154.4368899999998
 31
0.0
  0
LINE
  5
E49
330
C3B
100
AcDbEntity
  8
1
  6
Continuous
100
AcDbLine
 10
383.956923
 20
154.4368739999999
 30
0.0
 11
379.626784
 21
146.9368899999998
 31
0.0
  0
LINE
  5
E4A
330
C3B
100
AcDbEntity
  8
1
  6
Continuous
100
AcDbLine
 10
396.7918539999999
 20
146.6676479999998
 30
0.0
 11
393.483199
 21
140.9368899999998
 31
0.0
  0
LINE
  5
E4B
330
C3B
100
AcDbEntity
  8
1
  6
Continuous
100
AcDbLine
 10
391.1917869999999
 20
141.6868899999998
 30
0.0
 11
389.6529069999999
 21
141.6868899999998
 31
0.0
  0
LINE
  5
E4C
330
C3B
100
AcDbEntity
  8
1
  6
Continuous
100
AcDbLine
 10
391.1917869999999
 20
152.1868899999998
 30
0.0
 11
385.382308
 21
152.1868899999998
 31
0.0
  0
LINE
  5
E4D
330
C3B
100
AcDbEntity
  8
1
  6
Continuous
100
AcDbLine
 10
382.630172
 20
148.9368739999999
 30
0.0
 11
383.841292
 21
148.508682
 31
0.0
  0
LINE
  5
E4E
330
C3B
100
AcDbEntity
  8
1
  6
Continuous
100
AcDbLine
 10
383.841292
 20
145.365082
 30
0.0
 11
382.6302019999998
 21
144.9368899999998
 31
0.0
  0
LINE
  5
E4F
330
C3B
100
AcDbEntity
  8
1
  6
Continuous
100
AcDbLine
 10
137.5880119999999
 20
39.43689000000001
 30
0.0
 11
137.5880119999999
 21
50.43689
 31
0.0
  0
LINE
  5
E50
330
C3B
100
AcDbEntity
  8
1
  6
Continuous
100
AcDbLine
 10
128.8861229999999
 20
50.47057
 30
0.0
 11
130.128982
 21
39.47057
 31
0.0
  0
LINE
  5
E51
330
C3B
100
AcDbEntity
  8
1
  6
Continuous
100
AcDbLine
 10
130.775634
 20
50.40320999999998
 30
0.0
 11
132.018493
 21
39.40320599999999
 31
0.0
  0
LINE
  5
E52
330
C3B
100
AcDbEntity
  8
1
  6
Continuous
100
AcDbLine
 10
133.2613519999999
 20
50.403206
 30
0.0
 11
134.50421
 21
39.40320999999999
 31
0.0
  0
LINE
  5
E53
330
C3B
100
AcDbEntity
  8
1
  6
Continuous
100
AcDbLine
 10
135.1004019999998
 20
39.47057
 30
0.0
 11
133.8575429999999
 21
50.47057
 31
0.0
  0
LINE
  5
E54
330
C3B
100
AcDbEntity
  8
1
  6
Continuous
100
AcDbLine
 10
135.747054
 20
50.40320999999998
 30
0.0
 11
136.989913
 21
39.40320599999999
 31
0.0
  0
LINE
  5
E55
330
C3B
100
AcDbEntity
  8
1
  6
Continuous
100
AcDbLine
 10
137.5861199999999
 20
39.47057
 30
0.0
 11
136.343261
 21
50.470573
 31
0.0
  0
LINE
  5
E56
330
C3B
100
AcDbEntity
  8
1
  6
Continuous
100
AcDbLine
 10
128.315734
 20
39.93688999999999
 30
0.0
 11
128.2875659999999
 21
39.42055100000001
 31
0.0
  0
LINE
  5
E57
330
C3B
100
AcDbEntity
  8
1
  6
Continuous
100
AcDbLine
 10
130.775634
 20
50.47057
 30
0.0
 11
130.7153309999999
 21
49.93689299999999
 31
0.0
  0
LINE
  5
E58
330
C3B
100
AcDbEntity
  8
1
  6
Continuous
100
AcDbLine
 10
130.1289659999999
 20
39.40320599999999
 30
0.0
 11
130.189269
 21
39.93688999999999
 31
0.0
  0
LINE
  5
E59
330
C3B
100
AcDbEntity
  8
1
  6
Continuous
100
AcDbLine
 10
133.261336
 20
50.470573
 30
0.0
 11
133.2010339999999
 21
49.93689299999999
 31
0.0
  0
LINE
  5
E5A
330
C3B
100
AcDbEntity
  8
1
  6
Continuous
100
AcDbLine
 10
132.614684
 20
39.40320999999999
 30
0.0
 11
132.6749869999999
 21
39.93688999999999
 31
0.0
  0
LINE
  5
E5B
330
C3B
100
AcDbEntity
  8
1
  6
Continuous
100
AcDbLine
 10
135.747054
 20
50.470573
 30
0.0
 11
135.6867509999998
 21
49.93688999999999
 31
0.0
  0
LINE
  5
E5C
330
C3B
100
AcDbEntity
  8
1
  6
Continuous
100
AcDbLine
 10
135.1004019999998
 20
39.40320599999999
 30
0.0
 11
135.160705
 21
39.93688999999999
 31
0.0
  0
LINE
  5
E5D
330
C3B
100
AcDbEntity
  8
1
  6
Continuous
100
AcDbLine
 10
137.588469
 20
50.453228
 30
0.0
 11
137.560302
 21
49.93688999999999
 31
0.0
  0
LINE
  5
E5E
330
C3B
100
AcDbEntity
  8
1
  6
Continuous
100
AcDbLine
 10
128.288024
 20
39.43689000000001
 30
0.0
 11
128.288024
 21
49.93688999999999
 31
0.0
  0
LINE
  5
E5F
330
C3B
100
AcDbEntity
  8
1
  6
Continuous
100
AcDbLine
 10
129.532775
 20
39.40320599999999
 30
0.0
 11
128.289916
 21
50.403206
 31
0.0
  0
LINE
  5
E60
330
C3B
100
AcDbEntity
  8
1
  6
Continuous
100
AcDbLine
 10
132.614684
 20
39.47057
 30
0.0
 11
131.3718249999998
 21
50.47057
 31
0.0
  0
LINE
  5
E61
330
C3B
100
AcDbEntity
  8
1
  6
Continuous
100
AcDbLine
 10
128.288024
 20
39.93688999999999
 30
0.0
 11
129.472472
 21
39.93688999999999
 31
0.0
  0
LINE
  5
E62
330
C3B
100
AcDbEntity
  8
1
  6
Continuous
100
AcDbLine
 10
130.0762929999999
 20
39.93688999999999
 30
0.0
 11
131.9581899999998
 21
39.93688999999999
 31
0.0
  0
LINE
  5
E63
330
C3B
100
AcDbEntity
  8
1
  6
Continuous
100
AcDbLine
 10
132.562011
 20
39.93688999999999
 30
0.0
 11
134.4439079999999
 21
39.93688999999999
 31
0.0
  0
LINE
  5
E64
330
C3B
100
AcDbEntity
  8
1
  6
Continuous
100
AcDbLine
 10
135.0477129999999
 20
39.93688999999999
 30
0.0
 11
136.9296099999999
 21
39.93688999999999
 31
0.0
  0
LINE
  5
E65
330
C3B
100
AcDbEntity
  8
1
  6
Continuous
100
AcDbLine
 10
136.4035629999999
 20
49.93688999999999
 30
0.0
 11
137.5880119999999
 21
49.93688999999999
 31
0.0
  0
LINE
  5
E66
330
C3B
100
AcDbEntity
  8
1
  6
Continuous
100
AcDbLine
 10
133.917846
 20
49.93688999999999
 30
0.0
 11
135.799743
 21
49.93688999999999
 31
0.0
  0
LINE
  5
E67
330
C3B
100
AcDbEntity
  8
1
  6
Continuous
100
AcDbLine
 10
131.432128
 20
49.93688999999999
 30
0.0
 11
133.3140249999999
 21
49.93688999999999
 31
0.0
  0
LINE
  5
E68
330
C3B
100
AcDbEntity
  8
1
  6
Continuous
100
AcDbLine
 10
128.9464249999997
 20
49.93688999999999
 30
0.0
 11
130.8283219999998
 21
49.93688999999999
 31
0.0
  0
LINE
  5
E69
330
C3B
100
AcDbEntity
  8
1
  6
Continuous
100
AcDbLine
 10
128.288024
 20
43.43689
 30
0.0
 11
129.077025
 21
43.43689
 31
0.0
  0
LINE
  5
E6A
330
C3B
100
AcDbEntity
  8
1
  6
Continuous
100
AcDbLine
 10
129.680831
 20
43.43689
 30
0.0
 11
130.1880179999998
 21
43.43689
 31
0.0
  0
LINE
  5
E6B
330
C3B
100
AcDbEntity
  8
1
  6
Continuous
100
AcDbLine
 10
129.341872
 20
46.43689000000001
 30
0.0
 11
130.1880179999998
 21
46.43689000000001
 31
0.0
  0
LINE
  5
E6C
330
C3B
100
AcDbEntity
  8
1
  6
Continuous
100
AcDbLine
 10
128.288024
 20
46.43689000000001
 30
0.0
 11
128.738051
 21
46.43689000000001
 31
0.0
  0
LINE
  5
E6D
330
C3B
100
AcDbEntity
  8
1
  6
Continuous
100
AcDbLine
 10
131.3869469999999
 20
50.33688399999999
 30
0.0
 11
132.688018
 21
50.33688399999999
 31
0.0
  0
LINE
  5
E6E
330
C3B
100
AcDbEntity
  8
1
  6
Continuous
100
AcDbLine
 10
128.901229
 20
50.33688399999999
 30
0.0
 11
130.783126
 21
50.33688399999999
 31
0.0
  0
LINE
  5
E6F
330
C3B
100
AcDbEntity
  8
1
  6
Continuous
100
AcDbLine
 10
137.5880119999999
 20
221.4368899999998
 30
0.0
 11
137.5880119999999
 21
232.4368899999999
 31
0.0
  0
LINE
  5
E70
330
C3B
100
AcDbEntity
  8
1
  6
Continuous
100
AcDbLine
 10
128.8861229999999
 20
232.4705659999999
 30
0.0
 11
129.899611
 21
223.5006409999999
 31
0.0
  0
LINE
  5
E71
330
C3B
100
AcDbEntity
  8
1
  6
Continuous
100
AcDbLine
 10
130.775634
 20
232.4032139999999
 30
0.0
 11
132.003386
 21
221.5368959999999
 31
0.0
  0
LINE
  5
E72
330
C3B
100
AcDbEntity
  8
1
  6
Continuous
100
AcDbLine
 10
130.775634
 20
232.470581
 30
0.0
 11
130.7153309999999
 21
231.9368899999998
 31
0.0
  0
LINE
  5
E73
330
C3B
100
AcDbEntity
  8
1
  6
Continuous
100
AcDbLine
 10
135.1004019999998
 20
221.4705659999999
 30
0.0
 11
133.8575429999999
 21
232.4705659999999
 31
0.0
  0
LINE
  5
E74
330
C3B
100
AcDbEntity
  8
1
  6
Continuous
100
AcDbLine
 10
135.747054
 20
232.4031979999999
 30
0.0
 11
136.989913
 21
221.403198
 31
0.0
  0
LINE
  5
E75
330
C3B
100
AcDbEntity
  8
1
  6
Continuous
100
AcDbLine
 10
137.5861199999999
 20
221.4705659999999
 30
0.0
 11
136.343261
 21
232.4705659999999
 31
0.0
  0
LINE
  5
E76
330
C3B
100
AcDbEntity
  8
1
  6
Continuous
100
AcDbLine
 10
132.629806
 20
221.5368959999999
 30
0.0
 11
132.6749869999999
 21
221.9368899999998
 31
0.0
  0
LINE
  5
E77
330
C3B
100
AcDbEntity
  8
1
  6
Continuous
100
AcDbLine
 10
135.1004019999998
 20
221.403214
 30
0.0
 11
135.160705
 21
221.9368899999998
 31
0.0
  0
LINE
  5
E78
330
C3B
100
AcDbEntity
  8
1
  6
Continuous
100
AcDbLine
 10
128.288024
 20
223.47879
 30
0.0
 11
128.288024
 21
231.9368899999998
 31
0.0
  0
LINE
  5
E79
330
C3B
100
AcDbEntity
  8
1
  6
Continuous
100
AcDbLine
 10
129.291778
 20
223.5361329999999
 30
0.0
 11
128.289916
 21
232.4031979999999
 31
0.0
  0
LINE
  5
E7A
330
C3B
100
AcDbEntity
  8
1
  6
Continuous
100
AcDbLine
 10
132.6071919999999
 20
221.5368959999999
 30
0.0
 11
131.3718249999998
 21
232.470581
 31
0.0
  0
LINE
  5
E7B
330
C3B
100
AcDbEntity
  8
1
  6
Continuous
100
AcDbLine
 10
135.747054
 20
232.470581
 30
0.0
 11
135.6867509999998
 21
231.9368899999998
 31
0.0
  0
LINE
  5
E7C
330
C3B
100
AcDbEntity
  8
1
  6
Continuous
100
AcDbLine
 10
137.588469
 20
232.4532319999999
 30
0.0
 11
137.560302
 21
231.9368899999998
 31
0.0
  0
LINE
  5
E7D
330
C3B
100
AcDbEntity
  8
1
  6
Continuous
100
AcDbLine
 10
133.261336
 20
232.4705659999999
 30
0.0
 11
133.2010339999999
 21
231.9368899999998
 31
0.0
  0
LINE
  5
E7E
330
C3B
100
AcDbEntity
  8
1
  6
Continuous
100
AcDbLine
 10
133.2613519999999
 20
232.4032139999999
 30
0.0
 11
134.50421
 21
221.403214
 31
0.0
  0
LINE
  5
E7F
330
C3B
100
AcDbEntity
  8
1
  6
Continuous
100
AcDbLine
 10
132.562011
 20
221.9368899999998
 30
0.0
 11
134.4439079999999
 21
221.9368899999998
 31
0.0
  0
LINE
  5
E80
330
C3B
100
AcDbEntity
  8
1
  6
Continuous
100
AcDbLine
 10
135.0477129999999
 20
221.9368899999998
 30
0.0
 11
136.9296099999999
 21
221.9368899999998
 31
0.0
  0
LINE
  5
E81
330
C3B
100
AcDbEntity
  8
1
  6
Continuous
100
AcDbLine
 10
128.9464249999997
 20
231.9368899999998
 30
0.0
 11
130.8283219999998
 21
231.9368899999998
 31
0.0
  0
LINE
  5
E82
330
C3B
100
AcDbEntity
  8
1
  6
Continuous
100
AcDbLine
 10
131.432128
 20
231.9368899999998
 30
0.0
 11
133.3140249999999
 21
231.9368899999998
 31
0.0
  0
LINE
  5
E83
330
C3B
100
AcDbEntity
  8
1
  6
Continuous
100
AcDbLine
 10
133.917846
 20
231.9368899999998
 30
0.0
 11
135.799743
 21
231.9368899999998
 31
0.0
  0
LINE
  5
E84
330
C3B
100
AcDbEntity
  8
1
  6
Continuous
100
AcDbLine
 10
136.4035629999999
 20
231.9368899999998
 30
0.0
 11
137.5880119999999
 21
231.9368899999998
 31
0.0
  0
LINE
  5
E85
330
C3B
100
AcDbEntity
  8
1
  6
Continuous
100
AcDbLine
 10
128.2797379999998
 20
225.4368899999998
 30
0.0
 11
129.077025
 21
225.4368899999998
 31
0.0
  0
LINE
  5
E86
330
C3B
100
AcDbEntity
  8
1
  6
Continuous
100
AcDbLine
 10
128.288024
 20
228.43689
 30
0.0
 11
128.738051
 21
228.43689
 31
0.0
  0
LINE
  5
E87
330
C3B
100
AcDbEntity
  8
1
  6
Continuous
100
AcDbLine
 10
129.341872
 20
228.43689
 30
0.0
 11
130.1880179999998
 21
228.43689
 31
0.0
  0
LINE
  5
E88
330
C3B
100
AcDbEntity
  8
1
  6
Continuous
100
AcDbLine
 10
129.680831
 20
225.4368899999998
 30
0.0
 11
130.1880179999998
 21
225.4368899999998
 31
0.0
  0
LINE
  5
E89
330
C3B
100
AcDbEntity
  8
1
  6
Continuous
100
AcDbLine
 10
389.187057
 20
130.4368899999998
 30
0.0
 11
389.187057
 21
141.4368899999998
 31
0.0
  0
LINE
  5
E8A
330
C3B
100
AcDbEntity
  8
1
  6
Continuous
100
AcDbLine
 10
380.485152
 20
141.4705659999999
 30
0.0
 11
381.728011
 21
130.4705659999999
 31
0.0
  0
LINE
  5
E8B
330
C3B
100
AcDbEntity
  8
1
  6
Continuous
100
AcDbLine
 10
382.374679
 20
141.403198
 30
0.0
 11
383.617537
 21
130.4032139999999
 31
0.0
  0
LINE
  5
E8C
330
C3B
100
AcDbEntity
  8
1
  6
Continuous
100
AcDbLine
 10
382.374679
 20
141.470581
 30
0.0
 11
382.3143759999999
 21
140.9368899999998
 31
0.0
  0
LINE
  5
E8D
330
C3B
100
AcDbEntity
  8
1
  6
Continuous
100
AcDbLine
 10
386.699447
 20
130.4705659999999
 30
0.0
 11
385.4565879999999
 21
141.4705659999999
 31
0.0
  0
LINE
  5
E8E
330
C3B
100
AcDbEntity
  8
1
  6
Continuous
100
AcDbLine
 10
387.346114
 20
141.4032139999999
 30
0.0
 11
388.588973
 21
130.4032139999999
 31
0.0
  0
LINE
  5
E8F
330
C3B
100
AcDbEntity
  8
1
  6
Continuous
100
AcDbLine
 10
389.185164
 20
130.4705659999999
 30
0.0
 11
387.9423059999999
 21
141.4705659999999
 31
0.0
  0
LINE
  5
E90
330
C3B
100
AcDbEntity
  8
1
  6
Continuous
100
AcDbLine
 10
379.914779
 20
130.9368899999997
 30
0.0
 11
379.8866109999999
 21
130.420547
 31
0.0
  0
LINE
  5
E91
330
C3B
100
AcDbEntity
  8
1
  6
Continuous
100
AcDbLine
 10
381.728011
 20
130.4032139999999
 30
0.0
 11
381.788314
 21
130.9369049999999
 31
0.0
  0
LINE
  5
E92
330
C3B
100
AcDbEntity
  8
1
  6
Continuous
100
AcDbLine
 10
384.213729
 20
130.4032139999999
 30
0.0
 11
384.2740319999998
 21
130.9368899999997
 31
0.0
  0
LINE
  5
E93
330
C3B
100
AcDbEntity
  8
1
  6
Continuous
100
AcDbLine
 10
386.699447
 20
130.4032139999999
 30
0.0
 11
386.7597489999998
 21
130.9368899999997
 31
0.0
  0
LINE
  5
E94
330
C3B
100
AcDbEntity
  8
1
  6
Continuous
100
AcDbLine
 10
379.887069
 20
130.4368899999998
 30
0.0
 11
379.887069
 21
140.9368899999998
 31
0.0
  0
LINE
  5
E95
330
C3B
100
AcDbEntity
  8
1
  6
Continuous
100
AcDbLine
 10
381.13182
 20
130.4032139999999
 30
0.0
 11
379.8889609999998
 21
141.4032139999999
 31
0.0
  0
LINE
  5
E96
330
C3B
100
AcDbEntity
  8
1
  6
Continuous
100
AcDbLine
 10
384.213729
 20
130.470581
 30
0.0
 11
382.9708699999998
 21
141.4705659999999
 31
0.0
  0
LINE
  5
E97
330
C3B
100
AcDbEntity
  8
1
  6
Continuous
100
AcDbLine
 10
387.3460839999999
 20
141.470581
 30
0.0
 11
387.2857809999999
 21
140.9368899999998
 31
0.0
  0
LINE
  5
E98
330
C3B
100
AcDbEntity
  8
1
  6
Continuous
100
AcDbLine
 10
389.1874839999999
 20
141.453232
 30
0.0
 11
389.159347
 21
140.9368899999998
 31
0.0
  0
LINE
  5
E99
330
C3B
100
AcDbEntity
  8
1
  6
Continuous
100
AcDbLine
 10
384.8603959999999
 20
141.4705659999999
 30
0.0
 11
384.800094
 21
140.9368899999998
 31
0.0
  0
LINE
  5
E9A
330
C3B
100
AcDbEntity
  8
1
  6
Continuous
100
AcDbLine
 10
384.8603959999999
 20
141.403198
 30
0.0
 11
386.103255
 21
130.4031979999998
 31
0.0
  0
LINE
  5
E9B
330
C3B
100
AcDbEntity
  8
1
  6
Continuous
100
AcDbLine
 10
389.7870629999999
 20
141.4368899999998
 30
0.0
 11
389.7870629999999
 21
130.4368899999998
 31
0.0
  0
LINE
  5
E9C
330
C3B
100
AcDbEntity
  8
1
  6
Continuous
100
AcDbLine
 10
381.0715169999999
 20
130.9368899999997
 30
0.0
 11
379.887069
 21
130.9368899999997
 31
0.0
  0
LINE
  5
E9D
330
C3B
100
AcDbEntity
  8
1
  6
Continuous
100
AcDbLine
 10
383.541701
 20
130.9368899999997
 30
0.0
 11
381.675338
 21
130.9368899999997
 31
0.0
  0
LINE
  5
E9E
330
C3B
100
AcDbEntity
  8
1
  6
Continuous
100
AcDbLine
 10
386.042952
 20
130.9368899999997
 30
0.0
 11
384.1610559999999
 21
130.9368899999997
 31
0.0
  0
LINE
  5
E9F
330
C3B
100
AcDbEntity
  8
1
  6
Continuous
100
AcDbLine
 10
388.5286699999999
 20
130.9368899999997
 30
0.0
 11
386.646773
 21
130.9368899999997
 31
0.0
  0
LINE
  5
EA0
330
C3B
100
AcDbEntity
  8
1
  6
Continuous
100
AcDbLine
 10
389.187057
 20
140.9368899999998
 30
0.0
 11
388.002608
 21
140.9368899999998
 31
0.0
  0
LINE
  5
EA1
330
C3B
100
AcDbEntity
  8
1
  6
Continuous
100
AcDbLine
 10
387.398787
 20
140.9368899999998
 30
0.0
 11
385.5168899999999
 21
140.9368899999998
 31
0.0
  0
LINE
  5
EA2
330
C3B
100
AcDbEntity
  8
1
  6
Continuous
100
AcDbLine
 10
384.91307
 20
140.9368899999998
 30
0.0
 11
383.031173
 21
140.9368899999998
 31
0.0
  0
LINE
  5
EA3
330
C3B
100
AcDbEntity
  8
1
  6
Continuous
100
AcDbLine
 10
382.4273519999999
 20
140.9368899999998
 30
0.0
 11
380.545455
 21
140.9368899999998
 31
0.0
  0
LINE
  5
EA4
330
C3B
100
AcDbEntity
  8
1
  6
Continuous
100
AcDbLine
 10
387.478377
 20
141.6868899999998
 30
0.0
 11
385.382308
 21
141.6868899999998
 31
0.0
  0
LINE
  5
EA5
330
C3B
100
AcDbEntity
  8
1
  6
Continuous
100
AcDbLine
 10
389.3212419999999
 20
141.6868899999998
 30
0.0
 11
387.8100419999999
 21
141.6868899999998
 31
0.0
  0
LINE
  5
EA6
330
C3B
100
AcDbEntity
  8
1
  6
Continuous
100
AcDbLine
 10
395.661666
 20
146.9368899999998
 30
0.0
 11
400.51335
 21
145.636887
 31
0.0
  0
LINE
  5
EA7
330
C3B
100
AcDbEntity
  8
1
  6
Continuous
100
AcDbLine
 10
395.661666
 20
146.9368899999998
 30
0.0
 11
395.0185989999998
 21
144.5368959999998
 31
0.0
  0
ARC
  5
EA8
330
C3B
100
AcDbEntity
  8
1
  6
Continuous
100
AcDbCircle
 10
29.44530399999999
 20
222.6305389999999
 30
0.0
 40
3.0
100
AcDbArc
 50
287.6500809999999
 51
359.99997
  0
ARC
  5
EA9
330
C3B
100
AcDbEntity
  8
1
  6
Continuous
100
AcDbCircle
 10
21.290053
 20
217.9368899999999
 30
0.0
 40
1.0
100
AcDbArc
 50
269.999977
 51
287.650074
  0
ARC
  5
EAA
330
C3B
100
AcDbEntity
  8
1
  6
Continuous
100
AcDbCircle
 10
17.49124799999999
 20
217.9368899999999
 30
0.0
 40
1.0
100
AcDbArc
 50
212.735179
 51
269.999977
  0
ARC
  5
EAB
330
C3B
100
AcDbEntity
  8
1
  6
Continuous
100
AcDbCircle
 10
13.445304
 20
224.230591
 30
0.0
 40
1.0
100
AcDbArc
 50
179.9999909999999
 51
212.7351759999998
  0
ARC
  5
EAC
330
C3B
100
AcDbEntity
  8
1
  6
Continuous
100
AcDbCircle
 10
13.445304
 20
229.6431879999999
 30
0.0
 40
1.0
100
AcDbArc
 50
147.2647929999999
 51
179.9999909999999
  0
ARC
  5
EAD
330
C3B
100
AcDbEntity
  8
1
  6
Continuous
100
AcDbCircle
 10
17.49124799999999
 20
235.9368899999998
 30
0.0
 40
1.0
100
AcDbArc
 50
90.00000300000001
 51
147.2647929999999
  0
ARC
  5
EAE
330
C3B
100
AcDbEntity
  8
1
  6
Continuous
100
AcDbCircle
 10
21.290053
 20
235.9368899999998
 30
0.0
 40
1.0
100
AcDbArc
 50
72.349858
 51
90.00000300000001
  0
ARC
  5
EAF
330
C3B
100
AcDbEntity
  8
1
  6
Continuous
100
AcDbCircle
 10
15.245299
 20
225.7368769999999
 30
0.0
 40
0.8
100
AcDbArc
 50
179.9999909999999
 51
269.999973
  0
ARC
  5
EB0
330
C3B
100
AcDbEntity
  8
1
  6
Continuous
100
AcDbCircle
 10
15.245299
 20
228.136887
 30
0.0
 40
0.8
100
AcDbArc
 50
90.00000300000001
 51
179.9999909999999
  0
ARC
  5
EB1
330
C3B
100
AcDbEntity
  8
1
  6
Continuous
100
AcDbCircle
 10
16.645301
 20
228.136887
 30
0.0
 40
0.8
100
AcDbArc
 50
359.99997
 51
90.00000300000001
  0
ARC
  5
EB2
330
C3B
100
AcDbEntity
  8
1
  6
Continuous
100
AcDbCircle
 10
16.645301
 20
225.7368769999999
 30
0.0
 40
0.8
100
AcDbArc
 50
269.999977
 51
359.999973
  0
ARC
  5
EB3
330
C3B
100
AcDbEntity
  8
1
  6
Continuous
100
AcDbCircle
 10
29.54029699999999
 20
226.9368899999999
 30
0.0
 40
3.1
100
AcDbArc
 50
90.00000300000001
 51
165.044787
  0
ARC
  5
EB4
330
C3B
100
AcDbEntity
  8
1
  6
Continuous
100
AcDbCircle
 10
29.54029699999999
 20
226.9368899999999
 30
0.0
 40
3.1
100
AcDbArc
 50
194.9551859999998
 51
269.999977
  0
ARC
  5
EB5
330
C3B
100
AcDbEntity
  8
1
  6
Continuous
100
AcDbCircle
 10
29.54530200000001
 20
226.9368899999999
 30
0.0
 40
4.299999999999998
100
AcDbArc
 50
90.00000300000001
 51
269.999973
  0
ARC
  5
EB6
330
C3B
100
AcDbEntity
  8
1
  6
Continuous
100
AcDbCircle
 10
38.045302
 20
232.236877
 30
0.0
 40
1.199999999999999
100
AcDbArc
 50
359.99997
 51
90.00000300000001
  0
ARC
  5
EB7
330
C3B
100
AcDbEntity
  8
1
  6
Continuous
100
AcDbCircle
 10
32.645301
 20
230.336884
 30
0.0
 40
0.2
100
AcDbArc
 50
90.00000300000001
 51
179.9999909999999
  0
ARC
  5
EB8
330
C3B
100
AcDbEntity
  8
1
  6
Continuous
100
AcDbCircle
 10
29.34529799999999
 20
226.9368899999999
 30
0.0
 40
2.7
100
AcDbArc
 50
207.265987
 51
269.999977
  0
ARC
  5
EB9
330
C3B
100
AcDbEntity
  8
1
  6
Continuous
100
AcDbCircle
 10
29.34529799999999
 20
226.9368899999999
 30
0.0
 40
2.7
100
AcDbArc
 50
90.00000300000001
 51
152.7339849999999
  0
ARC
  5
EBA
330
C3B
100
AcDbEntity
  8
1
  6
Continuous
100
AcDbCircle
 10
129.1880179999998
 20
146.9368899999998
 30
0.0
 40
9.0
100
AcDbArc
 50
22.02431199999999
 51
157.9756909999999
  0
ARC
  5
EBB
330
C3B
100
AcDbEntity
  8
1
  6
Continuous
100
AcDbCircle
 10
140.3123159999998
 20
151.4368899999998
 30
0.0
 40
3.0
100
AcDbArc
 50
202.024309
 51
269.9999969999999
  0
ARC
  5
EBC
330
C3B
100
AcDbEntity
  8
1
  6
Continuous
100
AcDbCircle
 10
118.0637199999999
 20
151.4368899999998
 30
0.0
 40
3.0
100
AcDbArc
 50
269.9999969999999
 51
337.9756879999998
  0
ARC
  5
EBD
330
C3B
100
AcDbEntity
  8
1
  6
Continuous
100
AcDbCircle
 10
185.188018
 20
145.4368899999998
 30
0.0
 40
3.0
100
AcDbArc
 50
0.0
 51
90.00000300000001
  0
ARC
  5
EBE
330
C3B
100
AcDbEntity
  8
1
  6
Continuous
100
AcDbCircle
 10
185.188018
 20
126.43689
 30
0.0
 40
3.0
100
AcDbArc
 50
269.9999969999999
 51
0.0
  0
CIRCLE
  5
EBF
330
C3B
100
AcDbEntity
  8
2
  6
Continuous
100
AcDbCircle
 10
119.6880179999999
 20
137.4368899999998
 30
0.0
 40
1.5
  0
CIRCLE
  5
EC0
330
C3B
100
AcDbEntity
  8
1
  6
Continuous
100
AcDbCircle
 10
119.6880179999999
 20
137.4368899999998
 30
0.0
 40
1.2295
  0
ARC
  5
EC1
330
C3B
100
AcDbEntity
  8
1
  6
Continuous
100
AcDbCircle
 10
181.1880179999998
 20
144.9368899999998
 30
0.0
 40
1.8
100
AcDbArc
 50
346.506601
 51
13.49339899999998
  0
ARC
  5
EC2
330
C3B
100
AcDbEntity
  8
1
  6
Continuous
100
AcDbCircle
 10
181.1880179999998
 20
144.9368899999998
 30
0.0
 40
1.8
100
AcDbArc
 50
76.506602
 51
103.4933959999998
  0
ARC
  5
EC3
330
C3B
100
AcDbEntity
  8
1
  6
Continuous
100
AcDbCircle
 10
181.1880179999998
 20
144.9368899999998
 30
0.0
 40
1.8
100
AcDbArc
 50
166.506597
 51
193.4933989999999
  0
ARC
  5
EC4
330
C3B
100
AcDbEntity
  8
1
  6
Continuous
100
AcDbCircle
 10
181.1880179999998
 20
144.9368899999998
 30
0.0
 40
1.8
100
AcDbArc
 50
256.506604
 51
283.493398
  0
CIRCLE
  5
EC5
330
C3B
100
AcDbEntity
  8
1
  6
Continuous
100
AcDbCircle
 10
181.1880179999998
 20
144.9368899999998
 30
0.0
 40
3.0
  0
CIRCLE
  5
EC6
330
C3B
100
AcDbEntity
  8
1
  6
Continuous
100
AcDbCircle
 10
129.1880179999998
 20
146.9368899999998
 30
0.0
 40
7.5
  0
ARC
  5
EC7
330
C3B
100
AcDbEntity
  8
1
  6
Continuous
100
AcDbCircle
 10
129.1880179999998
 20
146.9368899999998
 30
0.0
 40
3.6
100
AcDbArc
 50
190.8069249999998
 51
169.193075
  0
ARC
  5
EC8
330
C3B
100
AcDbEntity
  8
1
  6
Continuous
100
AcDbCircle
 10
129.1880179999998
 20
146.9368899999998
 30
0.0
 40
2.649999999999999
100
AcDbArc
 50
194.756824
 51
165.2431759999998
  0
ARC
  5
EC9
330
C3B
100
AcDbEntity
  8
1
  6
Continuous
100
AcDbCircle
 10
181.1880179999998
 20
126.9368899999999
 30
0.0
 40
1.8
100
AcDbArc
 50
346.506601
 51
13.49339899999998
  0
ARC
  5
ECA
330
C3B
100
AcDbEntity
  8
1
  6
Continuous
100
AcDbCircle
 10
181.1880179999998
 20
126.9368899999999
 30
0.0
 40
1.8
100
AcDbArc
 50
76.506602
 51
103.4933959999998
  0
ARC
  5
ECB
330
C3B
100
AcDbEntity
  8
1
  6
Continuous
100
AcDbCircle
 10
181.1880179999998
 20
126.9368899999999
 30
0.0
 40
1.8
100
AcDbArc
 50
166.506597
 51
193.4933989999999
  0
ARC
  5
ECC
330
C3B
100
AcDbEntity
  8
1
  6
Continuous
100
AcDbCircle
 10
181.1880179999998
 20
126.9368899999999
 30
0.0
 40
1.8
100
AcDbArc
 50
256.506604
 51
283.493398
  0
CIRCLE
  5
ECD
330
C3B
100
AcDbEntity
  8
1
  6
Continuous
100
AcDbCircle
 10
181.1880179999998
 20
126.9368899999999
 30
0.0
 40
3.0
  0
ARC
  5
ECE
330
C3B
100
AcDbEntity
  8
1
  6
Continuous
100
AcDbCircle
 10
148.188018
 20
135.9368899999997
 30
0.0
 40
1.8
100
AcDbArc
 50
346.506601
 51
13.49339899999998
  0
ARC
  5
ECF
330
C3B
100
AcDbEntity
  8
1
  6
Continuous
100
AcDbCircle
 10
148.188018
 20
135.9368899999997
 30
0.0
 40
1.8
100
AcDbArc
 50
76.506602
 51
103.4933959999998
  0
ARC
  5
ED0
330
C3B
100
AcDbEntity
  8
1
  6
Continuous
100
AcDbCircle
 10
148.188018
 20
135.9368899999997
 30
0.0
 40
1.8
100
AcDbArc
 50
166.506597
 51
193.4933989999999
  0
ARC
  5
ED1
330
C3B
100
AcDbEntity
  8
1
  6
Continuous
100
AcDbCircle
 10
148.188018
 20
135.9368899999997
 30
0.0
 40
1.8
100
AcDbArc
 50
256.506604
 51
283.493398
  0
CIRCLE
  5
ED2
330
C3B
100
AcDbEntity
  8
1
  6
Continuous
100
AcDbCircle
 10
148.188018
 20
135.9368899999997
 30
0.0
 40
3.0
  0
CIRCLE
  5
ED3
330
C3B
100
AcDbEntity
  8
2
  6
Continuous
100
AcDbCircle
 10
47.83850799999998
 20
135.9368899999997
 30
0.0
 40
1.5
  0
CIRCLE
  5
ED4
330
C3B
100
AcDbEntity
  8
1
  6
Continuous
100
AcDbCircle
 10
47.83850799999998
 20
135.9368899999997
 30
0.0
 40
1.2295
  0
ARC
  5
ED5
330
C3B
100
AcDbEntity
  8
1
  6
Continuous
100
AcDbCircle
 10
125.338012
 20
135.9368899999997
 30
0.0
 40
1.649999999999999
100
AcDbArc
 50
90.00000300000001
 51
270.000001
  0
ARC
  5
ED6
330
C3B
100
AcDbEntity
  8
1
  6
Continuous
100
AcDbCircle
 10
141.538024
 20
135.9368899999997
 30
0.0
 40
1.649999999999999
100
AcDbArc
 50
269.9999969999999
 51
90.00000300000001
  0
ARC
  5
ED7
330
C3B
100
AcDbEntity
  8
1
  6
Continuous
100
AcDbCircle
 10
25.838508
 20
145.4368899999998
 30
0.0
 40
3.0
100
AcDbArc
 50
90.00000300000001
 51
180.000005
  0
ARC
  5
ED8
330
C3B
100
AcDbEntity
  8
1
  6
Continuous
100
AcDbCircle
 10
25.838508
 20
126.43689
 30
0.0
 40
3.0
100
AcDbArc
 50
179.9999909999999
 51
270.000001
  0
CIRCLE
  5
ED9
330
C3B
100
AcDbEntity
  8
1
  6
Continuous
100
AcDbCircle
 10
37.83850799999999
 20
135.9368899999997
 30
0.0
 40
4.0
  0
CIRCLE
  5
EDA
330
C3B
100
AcDbEntity
  8
2
  6
Continuous
100
AcDbCircle
 10
139.6880179999998
 20
127.43689
 30
0.0
 40
1.5
  0
CIRCLE
  5
EDB
330
C3B
100
AcDbEntity
  8
1
  6
Continuous
100
AcDbCircle
 10
139.6880179999998
 20
127.43689
 30
0.0
 40
1.2295
  0
CIRCLE
  5
EDC
330
C3B
100
AcDbEntity
  8
2
  6
Continuous
100
AcDbCircle
 10
27.838508
 20
128.4368899999998
 30
0.0
 40
1.5
  0
CIRCLE
  5
EDD
330
C3B
100
AcDbEntity
  8
1
  6
Continuous
100
AcDbCircle
 10
27.838508
 20
128.4368899999998
 30
0.0
 40
1.2295
  0
CIRCLE
  5
EDE
330
C3B
100
AcDbEntity
  8
2
  6
Continuous
100
AcDbCircle
 10
27.838508
 20
143.4368899999998
 30
0.0
 40
1.5
  0
CIRCLE
  5
EDF
330
C3B
100
AcDbEntity
  8
1
  6
Continuous
100
AcDbCircle
 10
27.838508
 20
143.4368899999998
 30
0.0
 40
1.2295
  0
ARC
  5
EE0
330
C3B
100
AcDbEntity
  8
1
  6
Continuous
100
AcDbCircle
 10
169.2188559999999
 20
138.2935939999998
 30
0.0
 40
1.334408999999998
100
AcDbArc
 50
138.9320989999999
 51
221.067897
  0
ARC
  5
EE1
330
C3B
100
AcDbEntity
  8
1
  6
Continuous
100
AcDbCircle
 10
168.9344469999998
 20
138.045761
 30
0.0
 40
0.957174
100
AcDbArc
 50
221.0679009999999
 51
289.1928019999999
  0
ARC
  5
EE2
330
C3B
100
AcDbEntity
  8
1
  6
Continuous
100
AcDbCircle
 10
168.9344469999998
 20
138.541412
 30
0.0
 40
0.957174
100
AcDbArc
 50
70.807198
 51
138.9320989999999
  0
ARC
  5
EE3
330
C3B
100
AcDbEntity
  8
1
  6
Continuous
100
AcDbCircle
 10
169.0382529999999
 20
138.8396149999999
 30
0.0
 40
0.6414290000000003
100
AcDbArc
 50
5.659243
 51
70.807198
  0
ARC
  5
EE4
330
C3B
100
AcDbEntity
  8
1
  6
Continuous
100
AcDbCircle
 10
169.0382529999999
 20
137.7475739999999
 30
0.0
 40
0.6414290000000003
100
AcDbArc
 50
289.1928019999999
 51
354.3407569999998
  0
ARC
  5
EE5
330
C3B
100
AcDbEntity
  8
1
  6
Continuous
100
AcDbCircle
 10
174.6487869999999
 20
138.8742369999999
 30
0.0
 40
0.6414290000000003
100
AcDbArc
 50
5.659243
 51
70.807198
  0
ARC
  5
EE6
330
C3B
100
AcDbEntity
  8
1
  6
Continuous
100
AcDbCircle
 10
174.5449969999999
 20
138.5760349999999
 30
0.0
 40
0.957174
100
AcDbArc
 50
70.807198
 51
138.9320989999999
  0
ARC
  5
EE7
330
C3B
100
AcDbEntity
  8
1
  6
Continuous
100
AcDbCircle
 10
174.829406
 20
138.3282169999999
 30
0.0
 40
1.334408999999998
100
AcDbArc
 50
138.9320989999999
 51
221.067897
  0
ARC
  5
EE8
330
C3B
100
AcDbEntity
  8
1
  6
Continuous
100
AcDbCircle
 10
174.5449969999999
 20
138.080383
 30
0.0
 40
0.957174
100
AcDbArc
 50
221.0679009999999
 51
276.5913959999999
  0
ARC
  5
EE9
330
C3B
100
AcDbEntity
  8
1
  6
Continuous
100
AcDbCircle
 10
174.5515579999998
 20
138.0235899999999
 30
0.0
 40
0.9
100
AcDbArc
 50
269.582188
 51
11.654105
  0
ARC
  5
EEA
330
C3B
100
AcDbEntity
  8
1
  6
Continuous
100
AcDbCircle
 10
166.5955649999999
 20
138.3003389999998
 30
0.0
 40
1.334408999999998
100
AcDbArc
 50
138.9320989999999
 51
221.067897
  0
ARC
  5
EEB
330
C3B
100
AcDbEntity
  8
1
  6
Continuous
100
AcDbCircle
 10
166.0267479999999
 20
138.3003389999998
 30
0.0
 40
1.334408999999998
100
AcDbArc
 50
318.9321049999999
 51
41.067895
  0
ARC
  5
EEC
330
C3B
100
AcDbEntity
  8
1
  6
Continuous
100
AcDbCircle
 10
166.311156
 20
138.0525209999998
 30
0.0
 40
0.957174
100
AcDbArc
 50
221.0679009999999
 51
318.9321049999999
  0
ARC
  5
EED
330
C3B
100
AcDbEntity
  8
1
  6
Continuous
100
AcDbCircle
 10
166.311156
 20
138.548172
 30
0.0
 40
0.957174
100
AcDbArc
 50
41.067895
 51
138.9320989999999
  0
ARC
  5
EEE
330
C3B
100
AcDbEntity
  8
1
  6
Continuous
100
AcDbCircle
 10
159.1007219999999
 20
138.5092929999999
 30
0.0
 40
0.222261
100
AcDbArc
 50
180.000009
 51
0.0
  0
ARC
  5
EEF
330
C3B
100
AcDbEntity
  8
1
  6
Continuous
100
AcDbCircle
 10
159.545516
 20
138.2873379999997
 30
0.0
 40
1.145318999999998
100
AcDbArc
 50
332.25
 51
54.46199899999999
  0
ARC
  5
EF0
330
C3B
100
AcDbEntity
  8
1
  6
Continuous
100
AcDbCircle
 10
159.545516
 20
138.2873379999997
 30
0.0
 40
1.145318999999998
100
AcDbArc
 50
305.5380009999999
 51
315.699
  0
ARC
  5
EF1
330
C3B
100
AcDbEntity
  8
1
  6
Continuous
100
AcDbCircle
 10
156.87857
 20
134.55397
 30
0.0
 40
5.732929999999998
100
AcDbArc
 50
54.46199899999999
 51
125.537702
  0
ARC
  5
EF2
330
C3B
100
AcDbEntity
  8
1
  6
Continuous
100
AcDbCircle
 10
156.87857
 20
142.019821
 30
0.0
 40
5.732929999999998
100
AcDbArc
 50
234.461997
 51
305.5380009999999
  0
ARC
  5
EF3
330
C3B
100
AcDbEntity
  8
1
  6
Continuous
100
AcDbCircle
 10
156.87857
 20
142.019821
 30
0.0
 40
5.288524999999999
100
AcDbArc
 50
243.985999
 51
247.055999
  0
ARC
  5
EF4
330
C3B
100
AcDbEntity
  8
1
  6
Continuous
100
AcDbCircle
 10
154.8350509999998
 20
137.191147
 30
0.0
 40
0.044452
100
AcDbArc
 50
247.055999
 51
0.0
  0
ARC
  5
EF5
330
C3B
100
AcDbEntity
  8
1
  6
Continuous
100
AcDbCircle
 10
155.723723
 20
136.905151
 30
0.0
 40
0.044452
100
AcDbArc
 50
257.270997
 51
0.0
  0
ARC
  5
EF6
330
C3B
100
AcDbEntity
  8
1
  6
Continuous
100
AcDbCircle
 10
156.87857
 20
142.019821
 30
0.0
 40
5.288524999999999
100
AcDbArc
 50
254.794002
 51
257.270997
  0
ARC
  5
EF7
330
C3B
100
AcDbEntity
  8
1
  6
Continuous
100
AcDbCircle
 10
156.87857
 20
142.019821
 30
0.0
 40
5.288524999999999
100
AcDbArc
 50
254.741997
 51
254.794002
  0
ARC
  5
EF8
330
C3B
100
AcDbEntity
  8
1
  6
Continuous
100
AcDbCircle
 10
155.5459889999999
 20
137.132507
 30
0.0
 40
0.222261
100
AcDbArc
 50
180.000009
 51
254.7419829999999
  0
ARC
  5
EF9
330
C3B
100
AcDbEntity
  8
1
  6
Continuous
100
AcDbCircle
 10
155.5459889999999
 20
139.4412839999999
 30
0.0
 40
0.222261
100
AcDbArc
 50
105.2574979999999
 51
180.000005
  0
ARC
  5
EFA
330
C3B
100
AcDbEntity
  8
1
  6
Continuous
100
AcDbCircle
 10
156.87857
 20
134.55397
 30
0.0
 40
5.288524999999999
100
AcDbArc
 50
103.2681029999999
 51
105.2574979999999
  0
ARC
  5
EFB
330
C3B
100
AcDbEntity
  8
1
  6
Continuous
100
AcDbCircle
 10
156.87857
 20
134.55397
 30
0.0
 40
5.288524999999999
100
AcDbArc
 50
102.7288999999999
 51
103.2681029999999
  0
ARC
  5
EFC
330
C3B
100
AcDbEntity
  8
1
  6
Continuous
100
AcDbCircle
 10
155.723723
 20
139.6686399999999
 30
0.0
 40
0.044452
100
AcDbArc
 50
0.0
 51
102.7288999999999
  0
ARC
  5
EFD
330
C3B
100
AcDbEntity
  8
1
  6
Continuous
100
AcDbCircle
 10
154.657317
 20
137.4672239999999
 30
0.0
 40
0.222261
100
AcDbArc
 50
180.000009
 51
243.985999
  0
ARC
  5
EFE
330
C3B
100
AcDbEntity
  8
1
  6
Continuous
100
AcDbCircle
 10
154.8350509999998
 20
139.383545
 30
0.0
 40
0.044452
100
AcDbArc
 50
0.0
 51
112.944001
  0
ARC
  5
EFF
330
C3B
100
AcDbEntity
  8
1
  6
Continuous
100
AcDbCircle
 10
156.87857
 20
134.55397
 30
0.0
 40
5.288524999999999
100
AcDbArc
 50
112.944001
 51
116.0143969999999
  0
ARC
  5
F00
330
C3B
100
AcDbEntity
  8
1
  6
Continuous
100
AcDbCircle
 10
154.657317
 20
139.1065519999999
 30
0.0
 40
0.222261
100
AcDbArc
 50
116.0143969999999
 51
180.000005
  0
ARC
  5
F01
330
C3B
100
AcDbEntity
  8
1
  6
Continuous
100
AcDbCircle
 10
154.212523
 20
138.2873379999997
 30
0.0
 40
1.145318999999998
100
AcDbArc
 50
180.000009
 51
234.462011
  0
ARC
  5
F02
330
C3B
100
AcDbEntity
  8
1
  6
Continuous
100
AcDbCircle
 10
154.212523
 20
138.2873379999997
 30
0.0
 40
1.145318999999998
100
AcDbArc
 50
125.537702
 51
166.5374019999999
  0
ARC
  5
F03
330
C3B
100
AcDbEntity
  8
1
  6
Continuous
100
AcDbCircle
 10
156.87857
 20
142.019821
 30
0.0
 40
5.288524999999999
100
AcDbArc
 50
277.792997
 51
280.1039989999999
  0
ARC
  5
F04
330
C3B
100
AcDbEntity
  8
1
  6
Continuous
100
AcDbCircle
 10
157.5904229999999
 20
136.8239439999999
 30
0.0
 40
0.044452
100
AcDbArc
 50
180.000009
 51
277.792997
  0
ARC
  5
F05
330
C3B
100
AcDbEntity
  8
1
  6
Continuous
100
AcDbCircle
 10
157.768157
 20
137.032364
 30
0.0
 40
0.222261
100
AcDbArc
 50
280.1039989999999
 51
0.0
  0
ARC
  5
F06
330
C3B
100
AcDbEntity
  8
1
  6
Continuous
100
AcDbCircle
 10
157.5904229999999
 20
139.7498319999999
 30
0.0
 40
0.044452
100
AcDbArc
 50
82.20700300000002
 51
180.000005
  0
ARC
  5
F07
330
C3B
100
AcDbEntity
  8
1
  6
Continuous
100
AcDbCircle
 10
156.87857
 20
134.55397
 30
0.0
 40
5.288524999999999
100
AcDbArc
 50
79.896001
 51
82.20700300000002
  0
ARC
  5
F08
330
C3B
100
AcDbEntity
  8
1
  6
Continuous
100
AcDbCircle
 10
157.768157
 20
139.5414279999999
 30
0.0
 40
0.222261
100
AcDbArc
 50
0.0
 51
79.896001
  0
ARC
  5
F09
330
C3B
100
AcDbEntity
  8
1
  6
Continuous
100
AcDbCircle
 10
159.988784
 20
134.675171
 30
0.0
 40
0.7817210000000001
100
AcDbArc
 50
47.130371
 51
132.869623
  0
ARC
  5
F0A
330
C3B
100
AcDbEntity
  8
1
  6
Continuous
100
AcDbCircle
 10
160.076247
 20
134.769394
 30
0.0
 40
0.6531630000000001
100
AcDbArc
 50
312.8696289999999
 51
47.130371
  0
ARC
  5
F0B
330
C3B
100
AcDbEntity
  8
1
  6
Continuous
100
AcDbCircle
 10
159.9013199999999
 20
134.769394
 30
0.0
 40
0.6531630000000001
100
AcDbArc
 50
132.869623
 51
204.2768199999999
  0
ARC
  5
F0C
330
C3B
100
AcDbEntity
  8
1
  6
Continuous
100
AcDbCircle
 10
162.2585589999999
 20
133.7020259999998
 30
0.0
 40
0.7829229999999999
100
AcDbArc
 50
135.934712
 51
156.9510809999999
  0
ARC
  5
F0D
330
C3B
100
AcDbEntity
  8
1
  6
Continuous
100
AcDbCircle
 10
162.1739639999999
 20
133.7020259999998
 30
0.0
 40
0.7829229999999999
100
AcDbArc
 50
315.927497
 51
44.072503
  0
ARC
  5
F0E
330
C3B
100
AcDbEntity
  8
1
  6
Continuous
100
AcDbCircle
 10
162.216262
 20
133.6610719999999
 30
0.0
 40
0.72405
100
AcDbArc
 50
205.5969759999999
 51
315.927497
  0
ARC
  5
F0F
330
C3B
100
AcDbEntity
  8
1
  6
Continuous
100
AcDbCircle
 10
162.216262
 20
133.7429659999999
 30
0.0
 40
0.72405
100
AcDbArc
 50
44.072503
 51
135.934712
  0
ARC
  5
F10
330
C3B
100
AcDbEntity
  8
1
  6
Continuous
100
AcDbCircle
 10
164.399291
 20
134.6719359999999
 30
0.0
 40
0.783003
100
AcDbArc
 50
135.927499
 51
224.072497
  0
ARC
  5
F11
330
C3B
100
AcDbEntity
  8
1
  6
Continuous
100
AcDbCircle
 10
164.314681
 20
134.6719359999999
 30
0.0
 40
0.783003
100
AcDbArc
 50
315.927497
 51
44.072503
  0
ARC
  5
F12
330
C3B
100
AcDbEntity
  8
1
  6
Continuous
100
AcDbCircle
 10
164.3569939999999
 20
134.6309809999999
 30
0.0
 40
0.724124
100
AcDbArc
 50
224.0725009999999
 51
315.927497
  0
ARC
  5
F13
330
C3B
100
AcDbEntity
  8
1
  6
Continuous
100
AcDbCircle
 10
164.3569939999999
 20
134.7128909999999
 30
0.0
 40
0.724124
100
AcDbArc
 50
44.072503
 51
135.927499
  0
ARC
  5
F14
330
C3B
100
AcDbEntity
  8
1
  6
Continuous
100
AcDbCircle
 10
164.399291
 20
133.702087
 30
0.0
 40
0.783003
100
AcDbArc
 50
199.3495519999999
 51
224.0725009999999
  0
ARC
  5
F15
330
C3B
100
AcDbEntity
  8
1
  6
Continuous
100
AcDbCircle
 10
164.314681
 20
133.702087
 30
0.0
 40
0.783003
100
AcDbArc
 50
315.927497
 51
0.0
  0
ARC
  5
F16
330
C3B
100
AcDbEntity
  8
1
  6
Continuous
100
AcDbCircle
 10
164.3569939999999
 20
133.6611329999997
 30
0.0
 40
0.724124
100
AcDbArc
 50
224.0725009999999
 51
315.927497
  0
ARC
  5
F17
330
C3B
100
AcDbEntity
  8
1
  6
Continuous
100
AcDbCircle
 10
30.588508
 20
150.9368899999998
 30
0.0
 40
2.5
100
AcDbArc
 50
24.55391
 51
204.553907
  0
ARC
  5
F18
330
C3B
100
AcDbEntity
  8
1
  6
Continuous
100
AcDbCircle
 10
45.088508
 20
150.9368899999998
 30
0.0
 40
2.5
100
AcDbArc
 50
30.000001
 51
155.44609
  0
ARC
  5
F19
330
C3B
100
AcDbEntity
  8
1
  6
Continuous
100
AcDbCircle
 10
30.401511
 20
151.346191
 30
0.0
 40
1.25
100
AcDbArc
 50
24.55391
 51
204.553907
  0
ARC
  5
F1A
330
C3B
100
AcDbEntity
  8
1
  6
Continuous
100
AcDbCircle
 10
30.77550399999999
 20
150.5275879999998
 30
0.0
 40
1.25
100
AcDbArc
 50
204.55391
 51
24.55391
  0
ARC
  5
F1B
330
C3B
100
AcDbEntity
  8
1
  6
Continuous
100
AcDbCircle
 10
45.27550399999999
 20
151.346191
 30
0.0
 40
1.25
100
AcDbArc
 50
42.264845
 51
151.7994929999999
  0
ARC
  5
F1C
330
C3B
100
AcDbEntity
  8
1
  6
Continuous
100
AcDbCircle
 10
102.442266
 20
138.5826419999999
 30
0.0
 40
1.354247999999999
100
AcDbArc
 50
90.00000300000001
 51
180.000005
  0
ARC
  5
F1D
330
C3B
100
AcDbEntity
  8
1
  6
Continuous
100
AcDbCircle
 10
102.442266
 20
133.2911379999998
 30
0.0
 40
1.354247999999999
100
AcDbArc
 50
179.9999909999999
 51
270.000001
  0
CIRCLE
  5
F1E
330
C3B
100
AcDbEntity
  8
1
  6
Continuous
100
AcDbCircle
 10
126.188018
 20
135.9368899999997
 30
0.0
 40
1.5
  0
CIRCLE
  5
F1F
330
C3B
100
AcDbEntity
  8
1
  6
Continuous
100
AcDbCircle
 10
126.188018
 20
135.9368899999997
 30
0.0
 40
0.9
  0
ARC
  5
F20
330
C3B
100
AcDbEntity
  8
1
  6
Continuous
100
AcDbCircle
 10
60.66982199999999
 20
150.6868899999998
 30
0.0
 40
10.831317
100
AcDbArc
 50
159.7438219999999
 51
191.9894189999999
  0
ARC
  5
F21
330
C3B
100
AcDbEntity
  8
1
  6
Continuous
100
AcDbCircle
 10
42.478408
 20
148.616577
 30
0.0
 40
1.0
100
AcDbArc
 50
95.00004900000002
 51
163.7429799999999
  0
ARC
  5
F22
330
C3B
100
AcDbEntity
  8
1
  6
Continuous
100
AcDbCircle
 10
48.23850199999998
 20
146.9368899999998
 30
0.0
 40
7.0
100
AcDbArc
 50
163.742966
 51
167.62638
  0
ARC
  5
F23
330
C3B
100
AcDbEntity
  8
1
  6
Continuous
100
AcDbCircle
 10
128.3880149999999
 20
146.9368899999998
 30
0.0
 40
11.5
100
AcDbArc
 50
157.607312
 51
172.505279
  0
ARC
  5
F24
330
C3B
100
AcDbEntity
  8
1
  6
Continuous
100
AcDbCircle
 10
118.6797699999999
 20
150.9368899999998
 30
0.0
 40
1.0
100
AcDbArc
 50
90.00000300000001
 51
157.607312
  0
ARC
  5
F25
330
C3B
100
AcDbEntity
  8
1
  6
Continuous
100
AcDbCircle
 10
265.9875329999999
 20
150.9368899999998
 30
0.0
 40
2.5
100
AcDbArc
 50
335.446093
 51
155.44609
  0
ARC
  5
F26
330
C3B
100
AcDbEntity
  8
1
  6
Continuous
100
AcDbCircle
 10
251.487533
 20
150.9368899999998
 30
0.0
 40
2.5
100
AcDbArc
 50
24.55391
 51
204.553907
  0
ARC
  5
F27
330
C3B
100
AcDbEntity
  8
1
  6
Continuous
100
AcDbCircle
 10
266.1745439999999
 20
151.346191
 30
0.0
 40
1.25
100
AcDbArc
 50
335.446093
 51
155.44609
  0
ARC
  5
F28
330
C3B
100
AcDbEntity
  8
1
  6
Continuous
100
AcDbCircle
 10
265.8005509999999
 20
150.5275879999998
 30
0.0
 40
1.25
100
AcDbArc
 50
155.44609
 51
335.4460809999999
  0
ARC
  5
F29
330
C3B
100
AcDbEntity
  8
1
  6
Continuous
100
AcDbCircle
 10
251.674544
 20
150.5275879999998
 30
0.0
 40
1.25
100
AcDbArc
 50
204.553924
 51
24.55391
  0
ARC
  5
F2A
330
C3B
100
AcDbEntity
  8
1
  6
Continuous
100
AcDbCircle
 10
251.3005509999999
 20
151.346191
 30
0.0
 40
1.25
100
AcDbArc
 50
24.55391
 51
204.553907
  0
ARC
  5
F2B
330
C3B
100
AcDbEntity
  8
1
  6
Continuous
100
AcDbCircle
 10
235.9062339999999
 20
150.6868899999998
 30
0.0
 40
10.831317
100
AcDbArc
 50
348.010586
 51
20.256178
  0
ARC
  5
F2C
330
C3B
100
AcDbEntity
  8
1
  6
Continuous
100
AcDbCircle
 10
388.2870629999999
 20
146.9368899999998
 30
0.0
 40
9.0
100
AcDbArc
 50
33.748989
 51
157.9756909999999
  0
ARC
  5
F2D
330
C3B
100
AcDbEntity
  8
1
  6
Continuous
100
AcDbCircle
 10
377.1627649999999
 20
151.4368899999998
 30
0.0
 40
3.0
100
AcDbArc
 50
270.0000039999998
 51
337.9756909999999
  0
ARC
  5
F2E
330
C3B
100
AcDbEntity
  8
1
  6
Continuous
100
AcDbCircle
 10
415.0328149999998
 20
138.5826419999999
 30
0.0
 40
1.354247999999999
100
AcDbArc
 50
359.999995
 51
89.99999599999998
  0
ARC
  5
F2F
330
C3B
100
AcDbEntity
  8
1
  6
Continuous
100
AcDbCircle
 10
415.0328149999998
 20
133.2911379999998
 30
0.0
 40
1.354247999999999
100
AcDbArc
 50
270.0000039999998
 51
0.000005
  0
CIRCLE
  5
F30
330
C3B
100
AcDbEntity
  8
1
  6
Continuous
100
AcDbCircle
 10
391.287063
 20
135.9368899999997
 30
0.0
 40
1.5
  0
CIRCLE
  5
F31
330
C3B
100
AcDbEntity
  8
1
  6
Continuous
100
AcDbCircle
 10
391.287063
 20
135.9368899999997
 30
0.0
 40
0.9
  0
ARC
  5
F32
330
C3B
100
AcDbEntity
  8
1
  6
Continuous
100
AcDbCircle
 10
389.0870499999999
 20
146.9368899999998
 30
0.0
 40
11.5
100
AcDbArc
 50
353.5092109999998
 51
22.392688
  0
ARC
  5
F33
330
C3B
100
AcDbEntity
  8
1
  6
Continuous
100
AcDbCircle
 10
398.7953019999998
 20
150.9368899999998
 30
0.0
 40
1.0
100
AcDbArc
 50
22.392688
 51
90.00000300000001
  0
CIRCLE
  5
F34
330
C3B
100
AcDbEntity
  8
1
  6
Continuous
100
AcDbCircle
 10
258.7375329999999
 20
135.9368899999997
 30
0.0
 40
2.25
  0
ARC
  5
F35
330
C3B
100
AcDbEntity
  8
1
  6
Continuous
100
AcDbCircle
 10
186.1880179999998
 20
31.93689
 30
0.0
 40
2.0
100
AcDbArc
 50
269.9999969999999
 51
0.0
  0
ARC
  5
F36
330
C3B
100
AcDbEntity
  8
1
  6
Continuous
100
AcDbCircle
 10
186.1880179999998
 20
57.93689
 30
0.0
 40
2.0
100
AcDbArc
 50
0.0
 51
90.00000300000001
  0
ARC
  5
F37
330
C3B
100
AcDbEntity
  8
1
  6
Continuous
100
AcDbCircle
 10
135.683211
 20
60.77062999999998
 30
0.0
 40
3.833737999999998
100
AcDbArc
 50
235.6157529999999
 51
295.6157479999999
  0
ARC
  5
F38
330
C3B
100
AcDbEntity
  8
1
  6
Continuous
100
AcDbCircle
 10
122.692824
 20
60.77062999999998
 30
0.0
 40
3.833737999999998
100
AcDbArc
 50
244.3842539999999
 51
301.361125
  0
ARC
  5
F39
330
C3B
100
AcDbEntity
  8
1
  6
Continuous
100
AcDbCircle
 10
129.1880179999998
 20
71.266983
 30
0.0
 40
14.330091
100
AcDbArc
 50
263.9915689999999
 51
287.5879869999998
  0
ARC
  5
F3A
330
C3B
100
AcDbEntity
  8
1
  6
Continuous
100
AcDbCircle
 10
186.1880179999998
 20
239.9368899999998
 30
0.0
 40
2.0
100
AcDbArc
 50
0.0
 51
90.00000300000001
  0
ARC
  5
F3B
330
C3B
100
AcDbEntity
  8
1
  6
Continuous
100
AcDbCircle
 10
186.1880179999998
 20
213.93689
 30
0.0
 40
2.0
100
AcDbArc
 50
269.9999969999999
 51
0.0
  0
ARC
  5
F3C
330
C3B
100
AcDbEntity
  8
1
  6
Continuous
100
AcDbCircle
 10
127.50833
 20
222.296997
 30
0.0
 40
1.0
100
AcDbArc
 50
106.2569929999998
 51
174.99991
  0
ARC
  5
F3D
330
C3B
100
AcDbEntity
  8
1
  6
Continuous
100
AcDbCircle
 10
129.1880179999998
 20
216.5368959999999
 30
0.0
 40
7.0
100
AcDbArc
 50
73.742964
 51
106.256918
  0
ARC
  5
F3E
330
C3B
100
AcDbEntity
  8
1
  6
Continuous
100
AcDbCircle
 10
130.867705
 20
222.296997
 30
0.0
 40
1.0
100
AcDbArc
 50
5.000048999999997
 51
73.74297699999998
  0
ARC
  5
F3F
330
C3B
100
AcDbEntity
  8
1
  6
Continuous
100
AcDbCircle
 10
135.683211
 20
211.103149
 30
0.0
 40
3.833737999999998
100
AcDbArc
 50
64.38425200000001
 51
124.384247
  0
ARC
  5
F40
330
C3B
100
AcDbEntity
  8
1
  6
Continuous
100
AcDbCircle
 10
129.1880179999998
 20
200.606796
 30
0.0
 40
14.330091
100
AcDbArc
 50
72.412013
 51
107.587986
  0
ARC
  5
F41
330
C3B
100
AcDbEntity
  8
1
  6
Continuous
100
AcDbCircle
 10
122.692824
 20
211.103149
 30
0.0
 40
3.833737999999998
100
AcDbArc
 50
55.61574799999998
 51
115.6157459999999
  0
ARC
  5
F42
330
C3B
100
AcDbEntity
  8
1
  6
Continuous
100
AcDbCircle
 10
415.5145039999998
 20
135.9368899999997
 30
0.0
 40
4.028899
100
AcDbArc
 50
96.866699
 51
263.1333109999999
  0
ARC
  5
F43
330
C3B
100
AcDbEntity
  8
1
  6
Continuous
100
AcDbCircle
 10
388.2870629999999
 20
146.9368899999998
 30
0.0
 40
5.5
100
AcDbArc
 50
114.619973
 51
152.499997
  0
ARC
  5
F44
330
C3B
100
AcDbEntity
  8
1
  6
Continuous
100
AcDbCircle
 10
388.2870629999999
 20
146.9368899999998
 30
0.0
 40
4.5
100
AcDbArc
 50
152.499997
 51
297.5000089999999
  0
ARC
  5
F45
330
C3B
100
AcDbEntity
  8
1
  6
Continuous
100
AcDbCircle
 10
388.2870629999999
 20
146.9368899999998
 30
0.0
 40
5.5
100
AcDbArc
 50
297.499999
 51
334.1279039999998
  0
ARC
  5
F46
330
C3B
100
AcDbEntity
  8
1
  6
Continuous
100
AcDbCircle
 10
388.2870629999999
 20
146.9368899999998
 30
0.0
 40
4.715432999999999
100
AcDbArc
 50
160.528775
 51
199.4712209999999
  0
ARC
  5
F47
330
C3B
100
AcDbEntity
  8
1
  6
Continuous
100
AcDbCircle
 10
388.2870629999999
 20
146.9368899999998
 30
0.0
 40
1.8
100
AcDbArc
 50
346.506601
 51
13.49339899999998
  0
ARC
  5
F48
330
C3B
100
AcDbEntity
  8
1
  6
Continuous
100
AcDbCircle
 10
388.2870629999999
 20
146.9368899999998
 30
0.0
 40
1.8
100
AcDbArc
 50
76.506602
 51
103.4933959999998
  0
ARC
  5
F49
330
C3B
100
AcDbEntity
  8
1
  6
Continuous
100
AcDbCircle
 10
388.2870629999999
 20
146.9368899999998
 30
0.0
 40
1.8
100
AcDbArc
 50
166.506597
 51
193.4933989999999
  0
ARC
  5
F4A
330
C3B
100
AcDbEntity
  8
1
  6
Continuous
100
AcDbCircle
 10
388.2870629999999
 20
146.9368899999998
 30
0.0
 40
1.8
100
AcDbArc
 50
256.506604
 51
283.493398
  0
CIRCLE
  5
F4B
330
C3B
100
AcDbEntity
  8
1
  6
Continuous
100
AcDbCircle
 10
388.2870629999999
 20
146.9368899999998
 30
0.0
 40
2.75
  0
ARC
  5
F4C
330
C3B
100
AcDbEntity
  8
2
  6
Continuous
100
AcDbCircle
 10
388.2870629999999
 20
146.9368899999998
 30
0.0
 40
5.593999999999999
100
AcDbArc
 50
63.356603
 51
69.80207400000001
  0
ARC
  5
F4D
330
C3B
100
AcDbEntity
  8
1
  6
Continuous
100
AcDbCircle
 10
388.2870629999999
 20
146.9368899999998
 30
0.0
 40
6.0
100
AcDbArc
 50
56.442689
 51
61.044973
  0
ARC
  5
F4E
330
C3B
100
AcDbEntity
  8
2
  6
Continuous
100
AcDbCircle
 10
388.2870629999999
 20
146.9368899999998
 30
0.0
 40
6.0
100
AcDbArc
 50
241.044975
 51
260.4840689999999
  0
ARC
  5
F4F
330
C3B
100
AcDbEntity
  8
1
  6
Continuous
100
AcDbCircle
 10
388.2870629999999
 20
146.9368899999998
 30
0.0
 40
5.593999999999999
100
AcDbArc
 50
249.8020759999999
 51
260.300002
  0
ARC
  5
F50
330
C3B
100
AcDbEntity
  8
2
  6
Continuous
100
AcDbCircle
 10
388.2870629999999
 20
146.9368899999998
 30
0.0
 40
5.593999999999999
100
AcDbArc
 50
290.197926
 51
334.593913
  0
ARC
  5
F51
330
C3B
100
AcDbEntity
  8
1
  6
Continuous
100
AcDbCircle
 10
388.2870629999999
 20
146.9368899999998
 30
0.0
 40
6.0
100
AcDbArc
 50
298.9550269999999
 51
336.421822
  0
ARC
  5
F52
330
C3B
100
AcDbEntity
  8
2
  6
Continuous
100
AcDbCircle
 10
388.2870629999999
 20
146.9368899999998
 30
0.0
 40
6.0
100
AcDbArc
 50
61.044973
 51
118.955025
  0
ARC
  5
F53
330
C3B
100
AcDbEntity
  8
1
  6
Continuous
100
AcDbCircle
 10
388.2870629999999
 20
146.9368899999998
 30
0.0
 40
5.593999999999999
100
AcDbArc
 50
69.80207400000001
 51
110.1979239999999
  0
ARC
  5
F54
330
C3B
100
AcDbEntity
  8
1
  6
Continuous
100
AcDbCircle
 10
388.2870629999999
 20
146.9368899999998
 30
0.0
 40
6.0
100
AcDbArc
 50
118.955025
 51
241.0449709999999
  0
ARC
  5
F55
330
C3B
100
AcDbEntity
  8
2
  6
Continuous
100
AcDbCircle
 10
388.2870629999999
 20
146.9368899999998
 30
0.0
 40
5.593999999999999
100
AcDbArc
 50
110.1979239999999
 51
249.8020659999999
  0
ARC
  5
F56
330
C3B
100
AcDbEntity
  8
1
  6
Continuous
100
AcDbCircle
 10
137.888015
 20
39.43689000000001
 30
0.0
 40
0.3
100
AcDbArc
 50
179.9999909999999
 51
0.00001
  0
ARC
  5
F57
330
C3B
100
AcDbEntity
  8
1
  6
Continuous
100
AcDbCircle
 10
127.9880209999999
 20
39.43689000000001
 30
0.0
 40
0.3
100
AcDbArc
 50
179.9999909999999
 51
356.877876
  0
ARC
  5
F58
330
C3B
100
AcDbEntity
  8
1
  6
Continuous
100
AcDbCircle
 10
128.5880119999999
 20
50.43689
 30
0.0
 40
0.3
100
AcDbArc
 50
6.446340000000001
 51
180.000005
  0
ARC
  5
F59
330
C3B
100
AcDbEntity
  8
1
  6
Continuous
100
AcDbCircle
 10
137.888015
 20
50.43689
 30
0.0
 40
0.3
100
AcDbArc
 50
0.0
 51
180.000005
  0
ARC
  5
F5A
330
C3B
100
AcDbEntity
  8
1
  6
Continuous
100
AcDbCircle
 10
127.9880209999999
 20
50.43689
 30
0.0
 40
0.3
100
AcDbArc
 50
0.0
 51
180.000005
  0
ARC
  5
F5B
330
C3B
100
AcDbEntity
  8
1
  6
Continuous
100
AcDbCircle
 10
137.288024
 20
39.43689000000001
 30
0.0
 40
0.3
100
AcDbArc
 50
186.4463409999999
 51
0.0
  0
ARC
  5
F5C
330
C3B
100
AcDbEntity
  8
1
  6
Continuous
100
AcDbCircle
 10
131.0737289999999
 20
50.43689
 30
0.0
 40
0.3
100
AcDbArc
 50
6.446340000000001
 51
173.553659
  0
ARC
  5
F5D
330
C3B
100
AcDbEntity
  8
1
  6
Continuous
100
AcDbCircle
 10
133.5594469999997
 20
50.43689
 30
0.0
 40
0.3
100
AcDbArc
 50
6.446340000000001
 51
173.553659
  0
ARC
  5
F5E
330
C3B
100
AcDbEntity
  8
1
  6
Continuous
100
AcDbCircle
 10
136.0451649999999
 20
50.43689
 30
0.0
 40
0.3
100
AcDbArc
 50
6.446340000000001
 51
173.553659
  0
ARC
  5
F5F
330
C3B
100
AcDbEntity
  8
1
  6
Continuous
100
AcDbCircle
 10
129.830871
 20
39.43689000000001
 30
0.0
 40
0.3
100
AcDbArc
 50
186.4463409999999
 51
353.5536599999999
  0
ARC
  5
F60
330
C3B
100
AcDbEntity
  8
1
  6
Continuous
100
AcDbCircle
 10
132.3165879999999
 20
39.43689000000001
 30
0.0
 40
0.3
100
AcDbArc
 50
186.4463409999999
 51
353.5536599999999
  0
ARC
  5
F61
330
C3B
100
AcDbEntity
  8
1
  6
Continuous
100
AcDbCircle
 10
134.8023059999999
 20
39.43689000000001
 30
0.0
 40
0.3
100
AcDbArc
 50
186.4463409999999
 51
353.5536599999999
  0
ARC
  5
F62
330
C3B
100
AcDbEntity
  8
1
  6
Continuous
100
AcDbCircle
 10
137.888015
 20
232.4368899999999
 30
0.0
 40
0.3
100
AcDbArc
 50
0.0
 51
180.000005
  0
ARC
  5
F63
330
C3B
100
AcDbEntity
  8
1
  6
Continuous
100
AcDbCircle
 10
136.0451649999999
 20
232.4368899999999
 30
0.0
 40
0.3
100
AcDbArc
 50
6.446340000000001
 51
173.553659
  0
ARC
  5
F64
330
C3B
100
AcDbEntity
  8
1
  6
Continuous
100
AcDbCircle
 10
137.888015
 20
221.4368899999998
 30
0.0
 40
0.3
100
AcDbArc
 50
179.9999909999999
 51
0.00001
  0
ARC
  5
F65
330
C3B
100
AcDbEntity
  8
1
  6
Continuous
100
AcDbCircle
 10
137.288024
 20
221.4368899999998
 30
0.0
 40
0.3
100
AcDbArc
 50
186.4463409999999
 51
0.0
  0
ARC
  5
F66
330
C3B
100
AcDbEntity
  8
1
  6
Continuous
100
AcDbCircle
 10
134.8023059999999
 20
221.4368899999998
 30
0.0
 40
0.3
100
AcDbArc
 50
186.4463409999999
 51
353.5536599999999
  0
ARC
  5
F67
330
C3B
100
AcDbEntity
  8
1
  6
Continuous
100
AcDbCircle
 10
127.9880209999999
 20
232.4368899999999
 30
0.0
 40
0.3
100
AcDbArc
 50
0.0
 51
180.000005
  0
ARC
  5
F68
330
C3B
100
AcDbEntity
  8
1
  6
Continuous
100
AcDbCircle
 10
128.5880119999999
 20
232.4368899999999
 30
0.0
 40
0.3
100
AcDbArc
 50
6.446340000000001
 51
180.000005
  0
ARC
  5
F69
330
C3B
100
AcDbEntity
  8
1
  6
Continuous
100
AcDbCircle
 10
131.0737289999999
 20
232.4368899999999
 30
0.0
 40
0.3
100
AcDbArc
 50
6.446340000000001
 51
173.553659
  0
ARC
  5
F6A
330
C3B
100
AcDbEntity
  8
1
  6
Continuous
100
AcDbCircle
 10
133.5594469999997
 20
232.4368899999999
 30
0.0
 40
0.3
100
AcDbArc
 50
6.446340000000001
 51
173.553659
  0
ARC
  5
F6B
330
C3B
100
AcDbEntity
  8
1
  6
Continuous
100
AcDbCircle
 10
389.4870749999999
 20
141.4368899999998
 30
0.0
 40
0.3
100
AcDbArc
 50
0.0
 51
180.000005
  0
ARC
  5
F6C
330
C3B
100
AcDbEntity
  8
1
  6
Continuous
100
AcDbCircle
 10
387.6442099999999
 20
141.4368899999998
 30
0.0
 40
0.3
100
AcDbArc
 50
6.446340000000001
 51
173.553659
  0
ARC
  5
F6D
330
C3B
100
AcDbEntity
  8
1
  6
Continuous
100
AcDbCircle
 10
389.4870749999999
 20
130.4368899999998
 30
0.0
 40
0.3
100
AcDbArc
 50
179.9999909999999
 51
0.00001
  0
ARC
  5
F6E
330
C3B
100
AcDbEntity
  8
1
  6
Continuous
100
AcDbCircle
 10
379.5870499999999
 20
130.4368899999998
 30
0.0
 40
0.3
100
AcDbArc
 50
179.9999909999999
 51
356.877876
  0
ARC
  5
F6F
330
C3B
100
AcDbEntity
  8
1
  6
Continuous
100
AcDbCircle
 10
388.887069
 20
130.4368899999998
 30
0.0
 40
0.3
100
AcDbArc
 50
186.4463409999999
 51
0.0
  0
ARC
  5
F70
330
C3B
100
AcDbEntity
  8
1
  6
Continuous
100
AcDbCircle
 10
381.429915
 20
130.4368899999998
 30
0.0
 40
0.3
100
AcDbArc
 50
186.4463409999999
 51
353.5536599999999
  0
ARC
  5
F71
330
C3B
100
AcDbEntity
  8
1
  6
Continuous
100
AcDbCircle
 10
383.915633
 20
130.4368899999998
 30
0.0
 40
0.3
100
AcDbArc
 50
186.4463409999999
 51
353.5536599999999
  0
ARC
  5
F72
330
C3B
100
AcDbEntity
  8
1
  6
Continuous
100
AcDbCircle
 10
386.4013509999999
 20
130.4368899999998
 30
0.0
 40
0.3
100
AcDbArc
 50
186.4463409999999
 51
353.5536599999999
  0
ARC
  5
F73
330
C3B
100
AcDbEntity
  8
1
  6
Continuous
100
AcDbCircle
 10
379.5870499999999
 20
141.4368899999998
 30
0.0
 40
0.3
100
AcDbArc
 50
0.0
 51
180.000005
  0
ARC
  5
F74
330
C3B
100
AcDbEntity
  8
1
  6
Continuous
100
AcDbCircle
 10
380.1870569999999
 20
141.4368899999998
 30
0.0
 40
0.3
100
AcDbArc
 50
6.446340000000001
 51
180.000005
  0
ARC
  5
F75
330
C3B
100
AcDbEntity
  8
1
  6
Continuous
100
AcDbCircle
 10
382.6727739999999
 20
141.4368899999998
 30
0.0
 40
0.3
100
AcDbArc
 50
6.446340000000001
 51
173.553659
  0
ARC
  5
F76
330
C3B
100
AcDbEntity
  8
1
  6
Continuous
100
AcDbCircle
 10
385.1584919999999
 20
141.4368899999998
 30
0.0
 40
0.3
100
AcDbArc
 50
6.446340000000001
 51
173.553659
  0
ARC
  5
F77
330
C3B
100
AcDbEntity
  8
2
  6
Continuous
100
AcDbCircle
 10
388.2870629999999
 20
146.9368899999998
 30
0.0
 40
6.0
100
AcDbArc
 50
284.4775119999998
 51
298.9550269999999
  0
ARC
  5
F78
330
C3B
100
AcDbEntity
  8
2
  6
Continuous
100
AcDbCircle
 10
388.2870629999999
 20
146.9368899999998
 30
0.0
 40
6.0
100
AcDbArc
 50
267.2753119999999
 51
278.3931319999999
  0
ARC
  5
F79
330
C3B
100
AcDbEntity
  8
1
  6
Continuous
100
AcDbCircle
 10
388.2870629999999
 20
146.9368899999998
 30
0.0
 40
5.593999999999999
100
AcDbArc
 50
266.6033029999999
 51
279.2660099999998
  0
ARC
  5
F7A
330
C3B
100
AcDbEntity
  8
1
  6
Continuous
100
AcDbCircle
 10
388.2870629999999
 20
146.9368899999998
 30
0.0
 40
5.593999999999999
100
AcDbArc
 50
285.3500279999999
 51
290.197926
  0
ARC
  5
F7B
330
C3B
100
AcDbEntity
  8
1
  6
Continuous
100
AcDbCircle
 10
27.044688
 20
226.9368899999999
 30
0.0
 40
7.932788
100
AcDbArc
 50
169.896
 51
172.2069999999999
  0
ARC
  5
F7C
330
C3B
100
AcDbEntity
  8
1
  6
Continuous
100
AcDbCircle
 10
15.84592
 20
226.9368899999999
 30
0.0
 40
7.932788
100
AcDbArc
 50
7.792999999999999
 51
10.10399999999999
  0
ARC
  5
F7D
330
C3B
100
AcDbEntity
  8
1
  6
Continuous
100
AcDbCircle
 10
19.25088699999999
 20
228.004663
 30
0.0
 40
0.066678
100
AcDbArc
 50
172.2069999999999
 51
270.0
  0
ARC
  5
F7E
330
C3B
100
AcDbEntity
  8
1
  6
Continuous
100
AcDbCircle
 10
23.63972099999999
 20
228.004663
 30
0.0
 40
0.066678
100
AcDbArc
 50
270.0
 51
7.792999999999999
  0
LINE
  5
F7F
330
C3B
100
AcDbEntity
  8
1
  6
Continuous
100
AcDbLine
 10
19.119614
 20
227.2711609999999
 30
0.0
 11
23.770994
 21
227.2711609999999
 31
0.0
  0
LINE
  5
F80
330
C3B
100
AcDbEntity
  8
1
  6
Continuous
100
AcDbLine
 10
19.25088699999999
 20
227.9369969999999
 30
0.0
 11
23.63972099999999
 21
227.9369969999999
 31
0.0
  0
LINE
  5
F81
330
C3B
100
AcDbEntity
  8
1
  6
Continuous
100
AcDbLine
 10
20.64481199999999
 20
228.604187
 30
0.0
 11
19.563505
 21
228.604187
 31
0.0
  0
LINE
  5
F82
330
C3B
100
AcDbEntity
  8
1
  6
Continuous
100
AcDbLine
 10
21.444627
 20
228.604187
 30
0.0
 11
21.444627
 21
228.2712689999999
 31
0.0
  0
LINE
  5
F83
330
C3B
100
AcDbEntity
  8
1
  6
Continuous
100
AcDbLine
 10
19.567565
 20
229.937212
 30
0.0
 11
21.111709
 21
229.937212
 31
0.0
  0
LINE
  5
F84
330
C3B
100
AcDbEntity
  8
1
  6
Continuous
100
AcDbLine
 10
21.111709
 20
230.6044019999999
 30
0.0
 11
19.688011
 21
230.6044019999999
 31
0.0
  0
LINE
  5
F85
330
C3B
100
AcDbEntity
  8
1
  6
Continuous
100
AcDbLine
 10
21.444627
 20
230.2701299999999
 30
0.0
 11
23.044258
 21
230.2701299999999
 31
0.0
  0
LINE
  5
F86
330
C3B
100
AcDbEntity
  8
1
  6
Continuous
100
AcDbLine
 10
22.692393
 20
230.942733
 30
0.0
 11
19.88288999999999
 21
231.696535
 31
0.0
  0
LINE
  5
F87
330
C3B
100
AcDbEntity
  8
1
  6
Continuous
100
AcDbLine
 10
21.444627
 20
232.6546899999999
 30
0.0
 11
21.444627
 21
231.2770049999998
 31
0.0
  0
ARC
  5
F88
330
C3B
100
AcDbEntity
  8
1
  6
Continuous
100
AcDbCircle
 10
21.111709
 20
230.2701299999999
 30
0.0
 40
0.333392
100
AcDbArc
 50
270.0
 51
90.0
  0
ARC
  5
F89
330
C3B
100
AcDbEntity
  8
1
  6
Continuous
100
AcDbCircle
 10
21.444627
 20
230.93732
 30
0.0
 40
1.717978999999998
100
AcDbArc
 50
62.24999999999999
 51
144.462
  0
ARC
  5
F8A
330
C3B
100
AcDbEntity
  8
1
  6
Continuous
100
AcDbCircle
 10
21.444627
 20
230.93732
 30
0.0
 40
1.717978999999998
100
AcDbArc
 50
35.53799999999999
 51
45.69899999999999
  0
ARC
  5
F8B
330
C3B
100
AcDbEntity
  8
1
  6
Continuous
100
AcDbCircle
 10
19.563505
 20
228.2712689999999
 30
0.0
 40
0.333392
100
AcDbArc
 50
90.0
 51
169.896
  0
ARC
  5
F8C
330
C3B
100
AcDbEntity
  8
1
  6
Continuous
100
AcDbCircle
 10
23.327103
 20
228.2712689999999
 30
0.0
 40
0.333392
100
AcDbArc
 50
10.10399999999999
 51
90.0
  0
LINE
  5
F8D
330
C3B
100
AcDbEntity
  8
1
  6
Continuous
100
AcDbLine
 10
23.327103
 20
228.604187
 30
0.0
 11
21.444627
 21
228.604187
 31
0.0
  0
LINE
  5
F8E
330
C3B
100
AcDbEntity
  8
1
  6
Continuous
100
AcDbLine
 10
19.253593
 20
229.270023
 30
0.0
 11
23.42724899999998
 21
229.270023
 31
0.0
  0
LINE
  5
F8F
330
C3B
100
AcDbEntity
  8
1
  6
Continuous
100
AcDbLine
 10
19.616284
 20
222.604895
 30
0.0
 11
22.490748
 21
222.604895
 31
0.0
  0
LINE
  5
F90
330
C3B
100
AcDbEntity
  8
1
  6
Continuous
100
AcDbLine
 10
22.6748
 20
223.270731
 30
0.0
 11
20.215808
 21
223.270731
 31
0.0
  0
LINE
  5
F91
330
C3B
100
AcDbEntity
  8
1
  6
Continuous
100
AcDbLine
 10
19.80033699999999
 20
223.93792
 30
0.0
 11
23.088918
 21
223.93792
 31
0.0
  0
LINE
  5
F92
330
C3B
100
AcDbEntity
  8
1
  6
Continuous
100
AcDbLine
 10
20.64481199999999
 20
225.270946
 30
0.0
 11
19.37268599999999
 21
225.270946
 31
0.0
  0
LINE
  5
F93
330
C3B
100
AcDbEntity
  8
1
  6
Continuous
100
AcDbLine
 10
21.444627
 20
226.603972
 30
0.0
 11
21.444627
 21
225.9381349999999
 31
0.0
  0
ARC
  5
F94
330
C3B
100
AcDbEntity
  8
1
  6
Continuous
100
AcDbCircle
 10
21.444627
 20
222.9378129999998
 30
0.0
 40
1.717978999999998
100
AcDbArc
 50
215.5377
 51
256.5374
  0
ARC
  5
F95
330
C3B
100
AcDbEntity
  8
1
  6
Continuous
100
AcDbCircle
 10
21.444627
 20
222.9378129999998
 30
0.0
 40
1.717978999999998
100
AcDbArc
 50
270.0
 51
324.4619999999998
  0
ARC
  5
F96
330
C3B
100
AcDbEntity
  8
1
  6
Continuous
100
AcDbCircle
 10
20.215808
 20
223.6050019999999
 30
0.0
 40
0.333392
100
AcDbArc
 50
206.0144
 51
270.0
  0
ARC
  5
F97
330
C3B
100
AcDbEntity
  8
1
  6
Continuous
100
AcDbCircle
 10
27.044688
 20
226.9368899999999
 30
0.0
 40
7.932788
100
AcDbArc
 50
202.944
 51
206.0144
  0
ARC
  5
F98
330
C3B
100
AcDbEntity
  8
1
  6
Continuous
100
AcDbCircle
 10
19.80033699999999
 20
223.8716069999999
 30
0.0
 40
0.066678
100
AcDbArc
 50
90.0
 51
202.944
  0
ARC
  5
F99
330
C3B
100
AcDbEntity
  8
1
  6
Continuous
100
AcDbCircle
 10
22.6748
 20
223.6050019999999
 30
0.0
 40
0.333392
100
AcDbArc
 50
270.0
 51
333.9859999999998
  0
ARC
  5
F9A
330
C3B
100
AcDbEntity
  8
1
  6
Continuous
100
AcDbCircle
 10
19.37268599999999
 20
225.204633
 30
0.0
 40
0.066678
100
AcDbArc
 50
90.0
 51
192.7289
  0
ARC
  5
F9B
330
C3B
100
AcDbEntity
  8
1
  6
Continuous
100
AcDbCircle
 10
27.044688
 20
226.9368899999999
 30
0.0
 40
7.932788
100
AcDbArc
 50
192.7289
 51
193.2680999999999
  0
ARC
  5
F9C
330
C3B
100
AcDbEntity
  8
1
  6
Continuous
100
AcDbCircle
 10
27.044688
 20
226.9368899999999
 30
0.0
 40
7.932788
100
AcDbArc
 50
193.2680999999999
 51
195.2574999999999
  0
ARC
  5
F9D
330
C3B
100
AcDbEntity
  8
1
  6
Continuous
100
AcDbCircle
 10
19.71372399999999
 20
224.938028
 30
0.0
 40
0.333392
100
AcDbArc
 50
195.2574999999999
 51
270.0
  0
ARC
  5
F9E
330
C3B
100
AcDbEntity
  8
1
  6
Continuous
100
AcDbCircle
 10
23.176884
 20
224.938028
 30
0.0
 40
0.333392
100
AcDbArc
 50
270.0
 51
344.7419999999998
  0
ARC
  5
F9F
330
C3B
100
AcDbEntity
  8
1
  6
Continuous
100
AcDbCircle
 10
15.84592
 20
226.9368899999999
 30
0.0
 40
7.932788
100
AcDbArc
 50
344.7419999999998
 51
344.794
  0
ARC
  5
FA0
330
C3B
100
AcDbEntity
  8
1
  6
Continuous
100
AcDbCircle
 10
15.84592
 20
226.9368899999999
 30
0.0
 40
7.932788
100
AcDbArc
 50
344.794
 51
347.2709999999998
  0
ARC
  5
FA1
330
C3B
100
AcDbEntity
  8
1
  6
Continuous
100
AcDbCircle
 10
23.51792199999999
 20
225.204633
 30
0.0
 40
0.066678
100
AcDbArc
 50
347.2709999999998
 51
90.0
  0
LINE
  5
FA2
330
C3B
100
AcDbEntity
  8
1
  6
Continuous
100
AcDbLine
 10
19.71372399999999
 20
224.6037559999999
 30
0.0
 11
23.176884
 21
224.6037559999999
 31
0.0
  0
LINE
  5
FA3
330
C3B
100
AcDbEntity
  8
1
  6
Continuous
100
AcDbLine
 10
23.51792199999999
 20
225.270946
 30
0.0
 11
22.244443
 21
225.270946
 31
0.0
  0
LINE
  5
FA4
330
C3B
100
AcDbEntity
  8
1
  6
Continuous
100
AcDbLine
 10
19.1751
 20
225.9381349999999
 30
0.0
 11
23.71550699999999
 21
225.9381349999999
 31
0.0
  0
LINE
  5
FA5
330
C3B
100
AcDbEntity
  8
1
  6
Continuous
100
AcDbLine
 10
19.119614
 20
226.603972
 30
0.0
 11
23.770994
 21
226.603972
 31
0.0
  0
ARC
  5
FA6
330
C3B
100
AcDbEntity
  8
1
  6
Continuous
100
AcDbCircle
 10
23.088918
 20
223.8716069999999
 30
0.0
 40
0.066678
100
AcDbArc
 50
337.0559999999999
 51
90.0
  0
ARC
  5
FA7
330
C3B
100
AcDbEntity
  8
1
  6
Continuous
100
AcDbCircle
 10
15.84592
 20
226.9368899999999
 30
0.0
 40
7.932788
100
AcDbArc
 50
333.9859999999998
 51
337.0559999999999
  0
ARC
  5
FA8
330
C3B
100
AcDbEntity
  8
1
  6
Continuous
100
AcDbCircle
 10
15.84592
 20
226.9368899999999
 30
0.0
 40
8.599396
100
AcDbArc
 50
324.4619999999998
 51
35.53799999999999
  0
ARC
  5
FA9
330
C3B
100
AcDbEntity
  8
1
  6
Continuous
100
AcDbCircle
 10
27.044688
 20
226.9368899999999
 30
0.0
 40
8.599396
100
AcDbArc
 50
144.462
 51
215.5377
  0
CIRCLE
  5
FAA
330
C3B
100
AcDbEntity
  8
1
  6
Continuous
100
AcDbCircle
 10
388.2870629999999
 20
146.9368899999998
 30
0.0
 40
3.75
  0
LINE
  5
FAB
330
C3B
100
AcDbEntity
  8
4
  6
CENTER
100
AcDbLine
 10
248.737533
 20
139.1868899999997
 30
0.0
 11
248.737533
 21
132.6868899999998
 31
0.0
  0
LINE
  5
FAC
330
C3B
100
AcDbEntity
  8
4
  6
CENTER
100
AcDbLine
 10
271.9875329999999
 20
143.4368899999998
 30
0.0
 11
265.4875329999999
 21
143.4368899999998
 31
0.0
  0
LINE
  5
FAD
330
C3B
100
AcDbEntity
  8
4
  6
CENTER
100
AcDbLine
 10
268.737533
 20
146.6868899999998
 30
0.0
 11
268.737533
 21
140.1868899999997
 31
0.0
  0
LINE
  5
FAE
330
C3B
100
AcDbEntity
  8
4
  6
CENTER
100
AcDbLine
 10
268.737533
 20
131.6868899999998
 30
0.0
 11
268.737533
 21
125.1868899999999
 31
0.0
  0
LINE
  5
FAF
330
C3B
100
AcDbEntity
  8
4
  6
CENTER
100
AcDbLine
 10
271.9875329999999
 20
128.4368899999998
 30
0.0
 11
265.4875329999999
 21
128.4368899999998
 31
0.0
  0
ARC
  5
FB0
330
C3B
100
AcDbEntity
  8
1
  6
Continuous
100
AcDbCircle
 10
115.6880179999999
 20
211.93689
 30
0.0
 40
2.6
100
AcDbArc
 50
180.0
 51
270.0
  0
ARC
  5
FB1
330
C3B
100
AcDbEntity
  8
1
  6
Continuous
100
AcDbCircle
 10
115.6880179999999
 20
59.93688999999999
 30
0.0
 40
2.6
100
AcDbArc
 50
90.0
 51
180.0
  0
ENDSEC
  0
SECTION
  2
OBJECTS
  0
DICTIONARY
  5
C29
330
0
100
AcDbDictionary
281
     1
  3
ACAD_CIP_PREVIOUS_PRODUCT_INFO
350
1015
  3
ACAD_COLOR
350
FF7
  3
ACAD_DETAILVIEWSTYLE
350
1010
  3
ACAD_GROUP
350
C2A
  3
ACAD_LAYOUT
350
C36
  3
ACAD_MATERIAL
350
FC5
  3
ACAD_MLEADERSTYLE
350
100C
  3
ACAD_MLINESTYLE
350
C33
  3
ACAD_PLOTSETTINGS
350
C35
  3
ACAD_PLOTSTYLENAME
350
FC3
  3
ACAD_SCALELIST
350
FFA
  3
ACAD_SECTIONVIEWSTYLE
350
100E
  3
ACAD_TABLESTYLE
350
FF8
  3
ACAD_VISUALSTYLE
350
FDE
  3
ACDB_RECOMPOSE_DATA
350
1033
  3
AcDbVariableDictionary
350
1026
  3
DWGPROPS
350
1034
  0
DICTIONARY
  5
1016
330
C2D
100
AcDbDictionary
280
     1
281
     1
  3
ADSK_XREC_LAYER_RECONCILED
360
1017
  0
DICTIONARY
  5
1018
330
C43
100
AcDbDictionary
280
     1
281
     1
  3
ADSK_XREC_LAYER_RECONCILED
360
1019
  0
DICTIONARY
  5
101A
330
C44
100
AcDbDictionary
280
     1
281
     1
  3
ADSK_XREC_LAYER_RECONCILED
360
101B
  0
DICTIONARY
  5
101C
330
C45
100
AcDbDictionary
280
     1
281
     1
  3
ADSK_XREC_LAYER_RECONCILED
360
101D
  0
DICTIONARY
  5
101E
330
C46
100
AcDbDictionary
280
     1
281
     1
  3
ADSK_XREC_LAYER_RECONCILED
360
101F
  0
DICTIONARY
  5
1020
330
C47
100
AcDbDictionary
280
     1
281
     1
  3
ADSK_XREC_LAYER_RECONCILED
360
1021
  0
DICTIONARY
  5
1022
330
C48
100
AcDbDictionary
280
     1
281
     1
  3
ADSK_XREC_LAYER_RECONCILED
360
1023
  0
DICTIONARY
  5
1024
330
C49
100
AcDbDictionary
280
     1
281
     1
  3
ADSK_XREC_LAYER_RECONCILED
360
1025
  0
DICTIONARY
  5
FBE
330
C3B
100
AcDbDictionary
281
     1
  3
ACAD_LAYOUTSELFREF
350
FBF
  0
DICTIONARY
  5
FBC
330
C37
100
AcDbDictionary
281
     1
  3
ACAD_LAYOUTSELFREF
350
FBD
  0
XRECORD
  5
1015
102
{ACAD_REACTORS
330
C29
102
}
330
C29
100
AcDbXrecord
280
     1
300
ACDLT
300
2014
300
ACDLT_F_S
  0
DICTIONARY
  5
FF7
102
{ACAD_REACTORS
330
C29
102
}
330
C29
100
AcDbDictionary
281
     1
  0
DICTIONARY
  5
1010
102
{ACAD_REACTORS
330
C29
102
}
330
C29
100
AcDbDictionary
281
     1
  3
Imperial24
350
1011
  0
DICTIONARY
  5
C2A
102
{ACAD_REACTORS
330
C29
102
}
330
C29
100
AcDbDictionary
281
     1
  0
DICTIONARY
  5
C36
102
{ACAD_REACTORS
330
C29
102
}
330
C29
100
AcDbDictionary
281
     1
  3
Model
350
1012
  3
レイアウト1
350
1013
  0
DICTIONARY
  5
FC5
102
{ACAD_REACTORS
330
C29
102
}
330
C29
100
AcDbDictionary
281
     1
  3
ByBlock
350
FCE
  3
ByLayer
350
FC6
  3
Global
350
FD6
  0
DICTIONARY
  5
100C
102
{ACAD_REACTORS
330
C29
102
}
330
C29
100
AcDbDictionary
281
     1
  3
Standard
350
100D
  0
DICTIONARY
  5
C33
102
{ACAD_REACTORS
330
C29
102
}
330
C29
100
AcDbDictionary
281
     1
  3
STANDARD
350
C34
  0
DICTIONARY
  5
C35
102
{ACAD_REACTORS
330
C29
102
}
330
C29
100
AcDbDictionary
281
     1
  0
ACDBDICTIONARYWDFLT
  5
FC3
102
{ACAD_REACTORS
330
C29
102
}
330
C29
100
AcDbDictionary
281
     1
  3
Normal
350
FC4
100
AcDbDictionaryWithDefault
340
FC4
  0
DICTIONARY
  5
FFA
102
{ACAD_REACTORS
330
C29
102
}
330
C29
100
AcDbDictionary
281
     1
  3
A0
350
FFB
  3
A1
350
FFC
  3
A2
350
FFD
  3
A3
350
FFE
  3
A4
350
FFF
  3
A5
350
1000
  3
A6
350
1001
  3
A7
350
1002
  3
A8
350
1003
  3
A9
350
1004
  3
B0
350
1005
  3
B1
350
1006
  3
B2
350
1007
  3
B3
350
1008
  3
B4
350
1009
  3
B5
350
100A
  3
B6
350
100B
  0
DICTIONARY
  5
100E
102
{ACAD_REACTORS
330
C29
102
}
330
C29
100
AcDbDictionary
281
     1
  3
Imperial24
350
100F
  0
DICTIONARY
  5
FF8
102
{ACAD_REACTORS
330
C29
102
}
330
C29
100
AcDbDictionary
281
     1
  3
Standard
350
FF9
  0
DICTIONARY
  5
FDE
102
{ACAD_REACTORS
330
C29
102
}
330
C29
100
AcDbDictionary
281
     1
  3
2dWireframe
350
FE4
  3
Basic
350
FE3
  3
Brighten
350
FEA
  3
ColorChange
350
FEE
  3
Conceptual
350
FE7
  3
Dim
350
FE9
  3
EdgeColorOff
350
FF6
  3
Facepattern
350
FED
  3
Flat
350
FDF
  3
FlatWithEdges
350
FE0
  3
Gouraud
350
FE1
  3
GouraudWithEdges
350
FE2
  3
Hidden
350
FE6
  3
JitterOff
350
FF4
  3
Linepattern
350
FEC
  3
OverhangOff
350
FF5
  3
Realistic
350
FE8
  3
Shaded
350
FF3
  3
Shaded with edges
350
FF2
  3
Shades of Gray
350
FEF
  3
Sketchy
350
FF0
  3
Thicken
350
FEB
  3
Wireframe
350
FE5
  3
X-Ray
350
FF1
  0
XRECORD
  5
1033
102
{ACAD_REACTORS
330
C29
102
}
330
C29
100
AcDbXrecord
280
     1
 90
        1
330
FF9
  0
DICTIONARY
  5
1026
102
{ACAD_REACTORS
330
C29
102
}
330
C29
100
AcDbDictionary
281
     1
  3
CANNOSCALE
350
102B
  3
CMLEADERSTYLE
350
1028
  3
CTABLESTYLE
350
1027
  3
CVIEWDETAILSTYLE
350
1029
  3
CVIEWSECTIONSTYLE
350
102A
  3
DIMASSOC
350
102E
  3
INDEXCTL
350
102D
  3
SORTENTS
350
102C
  3
XCLIPFRAME
350
102F
  0
XRECORD
  5
1034
102
{ACAD_REACTORS
330
C29
102
}
330
C29
100
AcDbXrecord
280
     1
  1
DWGPROPS COOKIE
  2

  3

  4

  6

  7

  8
Yoshitsune
  9

300
=
301
=
302
=
303
=
304
=
305
=
306
=
307
=
308
=
309
=
 40
0.0008320949074074
 41
2451640.629092003
 42
2457192.600801771
  1

 90
        0
  0
XRECORD
  5
1017
102
{ACAD_REACTORS
330
1016
102
}
330
1016
100
AcDbXrecord
280
     1
290
     1
  0
XRECORD
  5
1019
102
{ACAD_REACTORS
330
1018
102
}
330
1018
100
AcDbXrecord
280
     1
290
     1
  0
XRECORD
  5
101B
102
{ACAD_REACTORS
330
101A
102
}
330
101A
100
AcDbXrecord
280
     1
290
     1
  0
XRECORD
  5
101D
102
{ACAD_REACTORS
330
101C
102
}
330
101C
100
AcDbXrecord
280
     1
290
     1
  0
XRECORD
  5
101F
102
{ACAD_REACTORS
330
101E
102
}
330
101E
100
AcDbXrecord
280
     1
290
     1
  0
XRECORD
  5
1021
102
{ACAD_REACTORS
330
1020
102
}
330
1020
100
AcDbXrecord
280
     1
290
     1
  0
XRECORD
  5
1023
102
{ACAD_REACTORS
330
1022
102
}
330
1022
100
AcDbXrecord
280
     1
290
     1
  0
XRECORD
  5
1025
102
{ACAD_REACTORS
330
1024
102
}
330
1024
100
AcDbXrecord
280
     1
290
     1
  0
XRECORD
  5
FBF
102
{ACAD_REACTORS
330
FBE
102
}
330
FBE
100
AcDbXrecord
280
     1
340
C3B
  0
XRECORD
  5
FBD
102
{ACAD_REACTORS
330
FBC
102
}
330
FBC
100
AcDbXrecord
280
     1
340
C37
  0
ACDBDETAILVIEWSTYLE
  5
1011
102
{ACAD_XDICTIONARY
360
106C
102
}
102
{ACAD_REACTORS
330
1010
102
}
330
1010
100
AcDbModelDocViewStyle
 70
     0
  3
Imperial24
290
     0
100
AcDbDetailViewStyle
 70
     0
 71
     0
 90
        3
 71
     1
340
C2E
 40
0.24
340
0
 40
0.24
300

 40
0.36
280
     3
 71
     2
340
C32
 90
       25
 71
     3
340
C2E
 40
0.24
 90
        1
 40
0.75
 90
        1
300
%<\AcVar ViewType \f "%tc1">% %<\AcVar ViewDetailId>%\PSCALE %<\AcVar ViewScale \f "%sn">%
 71
     4
340
C32
 90
       25
340
C32
 90
       25
280
     0
  0
LAYOUT
  5
1012
102
{ACAD_XDICTIONARY
360
106E
102
}
102
{ACAD_REACTORS
330
C36
102
}
330
C36
100
AcDbPlotSettings
  1

  2
Canon LBP9100C
  4

  6

 40
0.0
 41
0.0
 42
0.0
 43
0.0
 44
0.0
 45
0.0
 46
0.0
 47
0.0
 48
0.0
 49
0.0
140
0.0
141
0.0
142
1.0
143
1.0
 70
  1712
 72
     0
 73
     0
 74
     0
  7

 75
     0
147
1.0
148
0.0
149
0.0
100
AcDbLayout
  1
Model
 70
     1
 71
     0
 10
0.0
 20
0.0
 11
12.0
 21
9.0
 12
0.0
 22
0.0
 32
0.0
 14
0.0
 24
0.0
 34
0.0
 15
0.0
 25
0.0
 35
0.0
146
0.0
 13
0.0
 23
0.0
 33
0.0
 16
1.0
 26
0.0
 36
0.0
 17
0.0
 27
1.0
 37
0.0
 76
     0
330
C3B
331
FBB
  0
LAYOUT
  5
1013
102
{ACAD_XDICTIONARY
360
1070
102
}
102
{ACAD_REACTORS
330
C36
102
}
330
C36
100
AcDbPlotSettings
  1

  2
Canon LBP9100C
  4

  6

 40
0.0
 41
0.0
 42
0.0
 43
0.0
 44
0.0
 45
0.0
 46
0.0
 47
0.0
 48
0.0
 49
0.0
140
0.0
141
0.0
142
1.0
143
1.0
 70
   688
 72
     0
 73
     0
 74
     5
  7

 75
    16
147
1.0
148
0.0
149
0.0
100
AcDbLayout
  1
レイアウト1
 70
     1
 71
     1
 10
0.0
 20
0.0
 11
420.0
 21
297.0
 12
0.0
 22
0.0
 32
0.0
 14
1.000000000000000E+20
 24
1.000000000000000E+20
 34
1.000000000000000E+20
 15
-1.000000000000000E+20
 25
-1.000000000000000E+20
 35
-1.000000000000000E+20
146
0.0
 13
0.0
 23
0.0
 33
0.0
 16
1.0
 26
0.0
 36
0.0
 17
0.0
 27
1.0
 37
0.0
 76
     0
330
C37
  0
MATERIAL
  5
FCE
102
{ACAD_XDICTIONARY
360
FCF
102
}
102
{ACAD_REACTORS
330
FC5
102
}
330
FC5
100
AcDbMaterial
  1
ByBlock
 72
     0
 43
0.0208333333333333
 43
0.0
 43
0.0
 43
0.0
 43
0.0
 43
0.0208333333333333
 43
0.0
 43
0.0
 43
0.0
 43
0.0
 43
1.0
 43
0.0
 43
0.0
 43
0.0
 43
0.0
 43
1.0
 77
     0
 47
0.0208333333333333
 47
0.0
 47
0.0
 47
0.0
 47
0.0
 47
0.0208333333333333
 47
0.0
 47
0.0
 47
0.0
 47
0.0
 47
1.0
 47
0.0
 47
0.0
 47
0.0
 47
0.0
 47
1.0
171
     0
 49
0.0208333333333333
 49
0.0
 49
0.0
 49
0.0
 49
0.0
 49
0.0208333333333333
 49
0.0
 49
0.0
 49
0.0
 49
0.0
 49
1.0
 49
0.0
 49
0.0
 49
0.0
 49
0.0
 49
1.0
175
     0
142
0.0208333333333333
142
0.0
142
0.0
142
0.0
142
0.0
142
0.0208333333333333
142
0.0
142
0.0
142
0.0
142
0.0
142
1.0
142
0.0
142
0.0
142
0.0
142
0.0
142
1.0
179
     0
144
0.0208333333333333
144
0.0
144
0.0
144
0.0
144
0.0
144
0.0208333333333333
144
0.0
144
0.0
144
0.0
144
0.0
144
1.0
144
0.0
144
0.0
144
0.0
144
0.0
144
1.0
147
0.0208333333333333
147
0.0
147
0.0
147
0.0
147
0.0
147
0.0208333333333333
147
0.0
147
0.0
147
0.0
147
0.0
147
1.0
147
0.0
147
0.0
147
0.0
147
0.0
147
1.0
  0
MATERIAL
  5
FC6
102
{ACAD_XDICTIONARY
360
FC7
102
}
102
{ACAD_REACTORS
330
FC5
102
}
330
FC5
100
AcDbMaterial
  1
ByLayer
 72
     0
 43
0.0208333333333333
 43
0.0
 43
0.0
 43
0.0
 43
0.0
 43
0.0208333333333333
 43
0.0
 43
0.0
 43
0.0
 43
0.0
 43
1.0
 43
0.0
 43
0.0
 43
0.0
 43
0.0
 43
1.0
 77
     0
 47
0.0208333333333333
 47
0.0
 47
0.0
 47
0.0
 47
0.0
 47
0.0208333333333333
 47
0.0
 47
0.0
 47
0.0
 47
0.0
 47
1.0
 47
0.0
 47
0.0
 47
0.0
 47
0.0
 47
1.0
171
     0
 49
0.0208333333333333
 49
0.0
 49
0.0
 49
0.0
 49
0.0
 49
0.0208333333333333
 49
0.0
 49
0.0
 49
0.0
 49
0.0
 49
1.0
 49
0.0
 49
0.0
 49
0.0
 49
0.0
 49
1.0
175
     0
142
0.0208333333333333
142
0.0
142
0.0
142
0.0
142
0.0
142
0.0208333333333333
142
0.0
142
0.0
142
0.0
142
0.0
142
1.0
142
0.0
142
0.0
142
0.0
142
0.0
142
1.0
179
     0
144
0.0208333333333333
144
0.0
144
0.0
144
0.0
144
0.0
144
0.0208333333333333
144
0.0
144
0.0
144
0.0
144
0.0
144
1.0
144
0.0
144
0.0
144
0.0
144
0.0
144
1.0
147
0.0208333333333333
147
0.0
147
0.0
147
0.0
147
0.0
147
0.0208333333333333
147
0.0
147
0.0
147
0.0
147
0.0
147
1.0
147
0.0
147
0.0
147
0.0
147
0.0
147
1.0
  0
MATERIAL
  5
FD6
102
{ACAD_XDICTIONARY
360
FD7
102
}
102
{ACAD_REACTORS
330
FC5
102
}
330
FC5
100
AcDbMaterial
  1
Global
 72
     0
 43
0.0208333333333333
 43
0.0
 43
0.0
 43
0.0
 43
0.0
 43
0.0208333333333333
 43
0.0
 43
0.0
 43
0.0
 43
0.0
 43
1.0
 43
0.0
 43
0.0
 43
0.0
 43
0.0
 43
1.0
 77
     0
 47
0.0208333333333333
 47
0.0
 47
0.0
 47
0.0
 47
0.0
 47
0.0208333333333333
 47
0.0
 47
0.0
 47
0.0
 47
0.0
 47
1.0
 47
0.0
 47
0.0
 47
0.0
 47
0.0
 47
1.0
171
     0
 49
0.0208333333333333
 49
0.0
 49
0.0
 49
0.0
 49
0.0
 49
0.0208333333333333
 49
0.0
 49
0.0
 49
0.0
 49
0.0
 49
1.0
 49
0.0
 49
0.0
 49
0.0
 49
0.0
 49
1.0
175
     0
142
0.0208333333333333
142
0.0
142
0.0
142
0.0
142
0.0
142
0.0208333333333333
142
0.0
142
0.0
142
0.0
142
0.0
142
1.0
142
0.0
142
0.0
142
0.0
142
0.0
142
1.0
179
     0
144
0.0208333333333333
144
0.0
144
0.0
144
0.0
144
0.0
144
0.0208333333333333
144
0.0
144
0.0
144
0.0
144
0.0
144
1.0
144
0.0
144
0.0
144
0.0
144
0.0
144
1.0
147
0.0208333333333333
147
0.0
147
0.0
147
0.0
147
0.0
147
0.0208333333333333
147
0.0
147
0.0
147
0.0
147
0.0
147
1.0
147
0.0
147
0.0
147
0.0
147
0.0
147
1.0
  0
MLEADERSTYLE
  5
100D
102
{ACAD_REACTORS
330
100C
102
}
330
100C
100
AcDbMLeaderStyle
170
     2
171
     1
172
     0
 90
        2
 40
0.0
 41
0.0
173
     1
 91
-1056964608
340
C30
 92
       -2
290
     1
 42
0.09
291
     1
 43
0.36
  3
Standard
 44
0.18
300

342
C2E
174
     1
178
     6
175
     1
176
     0
 93
-1056964608
 45
0.18
292
     0
297
     0
 46
0.18
 94
-1056964608
 47
1.0
 49
1.0
140
1.0
293
     1
141
0.0
294
     1
177
     0
142
1.0
295
     0
296
     0
143
0.125
1001
ACAD_MLEADERVER
1070
     2
  0
MLINESTYLE
  5
C34
102
{ACAD_REACTORS
330
C33
102
}
330
C33
100
AcDbMlineStyle
  2
STANDARD
 70
     0
  3

 62
   256
 51
90.0
 52
90.0
 71
     2
 49
0.5
 62
   256
  6
BYLAYER
 49
-0.5
 62
   256
  6
BYLAYER
  0
ACDBPLACEHOLDER
  5
FC4
102
{ACAD_REACTORS
330
FC3
102
}
330
FC3
  0
SCALE
  5
FFB
102
{ACAD_REACTORS
330
FFA
102
}
330
FFA
100
AcDbScale
 70
     0
300
1:1
140
1.0
141
1.0
290
     1
  0
SCALE
  5
FFC
102
{ACAD_REACTORS
330
FFA
102
}
330
FFA
100
AcDbScale
 70
     0
300
1/128" = 1'-0"
140
0.0078125
141
12.0
290
     0
  0
SCALE
  5
FFD
102
{ACAD_REACTORS
330
FFA
102
}
330
FFA
100
AcDbScale
 70
     0
300
1/64" = 1'-0"
140
0.015625
141
12.0
290
     0
  0
SCALE
  5
FFE
102
{ACAD_REACTORS
330
FFA
102
}
330
FFA
100
AcDbScale
 70
     0
300
1/32" = 1'-0"
140
0.03125
141
12.0
290
     0
  0
SCALE
  5
FFF
102
{ACAD_REACTORS
330
FFA
102
}
330
FFA
100
AcDbScale
 70
     0
300
1/16" = 1'-0"
140
0.0625
141
12.0
290
     0
  0
SCALE
  5
1000
102
{ACAD_REACTORS
330
FFA
102
}
330
FFA
100
AcDbScale
 70
     0
300
3/32" = 1'-0"
140
0.09375
141
12.0
290
     0
  0
SCALE
  5
1001
102
{ACAD_REACTORS
330
FFA
102
}
330
FFA
100
AcDbScale
 70
     0
300
1/8" = 1'-0"
140
0.125
141
12.0
290
     0
  0
SCALE
  5
1002
102
{ACAD_REACTORS
330
FFA
102
}
330
FFA
100
AcDbScale
 70
     0
300
3/16" = 1'-0"
140
0.1875
141
12.0
290
     0
  0
SCALE
  5
1003
102
{ACAD_REACTORS
330
FFA
102
}
330
FFA
100
AcDbScale
 70
     0
300
1/4" = 1'-0"
140
0.25
141
12.0
290
     0
  0
SCALE
  5
1004
102
{ACAD_REACTORS
330
FFA
102
}
330
FFA
100
AcDbScale
 70
     0
300
3/8" = 1'-0"
140
0.375
141
12.0
290
     0
  0
SCALE
  5
1005
102
{ACAD_REACTORS
330
FFA
102
}
330
FFA
100
AcDbScale
 70
     0
300
1/2" = 1'-0"
140
0.5
141
12.0
290
     0
  0
SCALE
  5
1006
102
{ACAD_REACTORS
330
FFA
102
}
330
FFA
100
AcDbScale
 70
     0
300
3/4" = 1'-0"
140
0.75
141
12.0
290
     0
  0
SCALE
  5
1007
102
{ACAD_REACTORS
330
FFA
102
}
330
FFA
100
AcDbScale
 70
     0
300
1" = 1'-0"
140
1.0
141
12.0
290
     0
  0
SCALE
  5
1008
102
{ACAD_REACTORS
330
FFA
102
}
330
FFA
100
AcDbScale
 70
     0
300
1-1/2" = 1'-0"
140
1.5
141
12.0
290
     0
  0
SCALE
  5
1009
102
{ACAD_REACTORS
330
FFA
102
}
330
FFA
100
AcDbScale
 70
     0
300
3" = 1'-0"
140
3.0
141
12.0
290
     0
  0
SCALE
  5
100A
102
{ACAD_REACTORS
330
FFA
102
}
330
FFA
100
AcDbScale
 70
     0
300
6" = 1'-0"
140
6.0
141
12.0
290
     0
  0
SCALE
  5
100B
102
{ACAD_REACTORS
330
FFA
102
}
330
FFA
100
AcDbScale
 70
     0
300
1'-0" = 1'-0"
140
12.0
141
12.0
290
     0
  0
ACDBSECTIONVIEWSTYLE
  5
100F
102
{ACAD_XDICTIONARY
360
106A
102
}
102
{ACAD_REACTORS
330
100E
102
}
330
100E
100
AcDbModelDocViewStyle
 70
     0
  3
Imperial24
290
     0
100
AcDbSectionViewStyle
 70
     0
 71
     0
 90
       78
 71
     1
340
C2E
 40
0.24
340
0
340
0
 40
0.24
300
I, O, Q, S, X, Z
 40
0.48
 90
        3
 40
0.18
 90
        1
 71
     2
340
C32
 90
       25
340
C32
 90
       50
 40
0.24
 40
0.0
 40
0.24
 71
     3
340
C2E
 40
0.24
 90
        1
 40
0.75
 90
        1
300
%<\AcVar ViewType \f "%tc1">% %<\AcVar ViewSectionStartId>%-%<\AcVar ViewSectionEndId>%\PSCALE %<\AcVar ViewScale \f "%sn">%
 71
     4
300
ANSI31
 40
1.0
 90
        0
290
     0
290
     0
 90
        6
 40
0.0
 40
1.570796326794896
 40
0.2617993877991494
 40
1.308996938995747
 40
-0.2617993877991494
 40
1.832595714594046
  0
TABLESTYLE
  5
FF9
102
{ACAD_XDICTIONARY
360
1031
102
}
102
{ACAD_REACTORS
330
FF8
102
}
330
FF8
100
AcDbTableStyle
  3
Standard
 70
     0
 71
     0
 40
0.06
 41
0.06
280
     0
281
     0
  7
STANDARD
140
0.18
170
     2
 62
     0
 63
     7
283
     0
274
    -2
284
     1
 64
     0
275
    -2
285
     1
 65
     0
276
    -2
286
     1
 66
     0
277
    -2
287
     1
 67
     0
278
    -2
288
     1
 68
     0
279
    -2
289
     1
 69
     0
  7
STANDARD
140
0.25
170
     5
 62
     0
 63
     7
283
     0
274
    -2
284
     1
 64
     0
275
    -2
285
     1
 65
     0
276
    -2
286
     1
 66
     0
277
    -2
287
     1
 67
     0
278
    -2
288
     1
 68
     0
279
    -2
289
     1
 69
     0
  7
STANDARD
140
0.18
170
     5
 62
     0
 63
     7
283
     0
274
    -2
284
     1
 64
     0
275
    -2
285
     1
 65
     0
276
    -2
286
     1
 66
     0
277
    -2
287
     1
 67
     0
278
    -2
288
     1
 68
     0
279
    -2
289
     1
 69
     0
  0
VISUALSTYLE
  5
FE4
102
{ACAD_XDICTIONARY
360
1042
102
}
102
{ACAD_REACTORS
330
FDE
102
}
330
FDE
100
AcDbVisualStyle
  2
2dWireframe
 70
     4
 71
     0
 72
     2
 73
     0
 90
        0
 40
-0.6
 41
-30.0
 62
     5
 63
     7
 74
     1
 91
        4
 64
     7
 65
   257
 75
     1
175
     1
 42
1.0
 92
        0
 66
   257
 43
1.0
 76
     1
 77
     6
 78
     2
 67
     7
 79
     5
170
     0
171
     0
290
     0
174
     0
 93
        1
 44
0.0
173
     0
291
     0
 45
0.0
1001
ACAD
1000
AcDbSavedByObjectVersion
1070
     0
  0
VISUALSTYLE
  5
FE3
102
{ACAD_XDICTIONARY
360
1040
102
}
102
{ACAD_REACTORS
330
FDE
102
}
330
FDE
100
AcDbVisualStyle
  2
Basic
 70
     7
 71
     1
 72
     0
 73
     1
 90
        0
 40
-0.6
 41
-30.0
 62
     5
 63
     7
 74
     0
 91
        4
 64
     7
 65
   257
 75
     1
175
     1
 42
1.0
 92
        8
 66
     7
 43
1.0
 76
     1
 77
     6
 78
     2
 67
     7
 79
     5
170
     0
171
     0
290
     0
174
     0
 93
        1
 44
0.0
173
     0
291
     1
 45
0.0
1001
ACAD
1000
AcDbSavedByObjectVersion
1070
     0
  0
VISUALSTYLE
  5
FEA
102
{ACAD_XDICTIONARY
360
104E
102
}
102
{ACAD_REACTORS
330
FDE
102
}
330
FDE
100
AcDbVisualStyle
  2
Brighten
 70
    12
 71
     2
 72
     2
 73
     0
 90
        0
 40
-0.6
 41
-30.0
 62
     5
 63
     7
 74
     1
 91
        4
 64
     7
 65
   257
 75
     1
175
     1
 42
1.0
 92
        8
 66
     7
 43
1.0
 76
     1
 77
     6
 78
     2
 67
     7
 79
     5
170
     0
171
     0
290
     0
174
     0
 93
        1
 44
50.0
173
     0
291
     1
 45
0.0
1001
ACAD
1000
AcDbSavedByObjectVersion
1070
     0
  0
VISUALSTYLE
  5
FEE
102
{ACAD_XDICTIONARY
360
1056
102
}
102
{ACAD_REACTORS
330
FDE
102
}
330
FDE
100
AcDbVisualStyle
  2
ColorChange
 70
    16
 71
     2
 72
     2
 73
     3
 90
        0
 40
-0.6
 41
-30.0
 62
     5
 63
     8
 74
     1
 91
        4
 64
     7
 65
   257
 75
     1
175
     1
 42
1.0
 92
        8
 66
     8
 43
1.0
 76
     1
 77
     6
 78
     2
 67
     7
 79
     5
170
     0
171
     0
290
     0
174
     0
 93
        1
 44
0.0
173
     0
291
     1
 45
0.0
1001
ACAD
1000
AcDbSavedByObjectVersion
1070
     0
  0
VISUALSTYLE
  5
FE7
102
{ACAD_XDICTIONARY
360
1048
102
}
102
{ACAD_REACTORS
330
FDE
102
}
330
FDE
100
AcDbVisualStyle
  2
Conceptual
 70
     9
 71
     3
 72
     2
 73
     0
 90
        0
 40
-0.6
 41
-30.0
 62
     5
 63
     7
 74
     2
 91
        2
 64
     7
 65
   257
 75
     1
175
     1
 42
179.0
 92
        8
 66
     7
 43
1.0
 76
     1
 77
     6
 78
     2
 67
     7
 79
     3
170
     0
171
     0
290
     0
174
     0
 93
        1
 44
0.0
173
     0
291
     0
 45
0.0
1001
ACAD
1000
AcDbSavedByObjectVersion
1070
     0
  0
VISUALSTYLE
  5
FE9
102
{ACAD_XDICTIONARY
360
104C
102
}
102
{ACAD_REACTORS
330
FDE
102
}
330
FDE
100
AcDbVisualStyle
  2
Dim
 70
    11
 71
     2
 72
     2
 73
     0
 90
        0
 40
-0.6
 41
-30.0
 62
     5
 63
     7
 74
     1
 91
        4
 64
     7
 65
   257
 75
     1
175
     1
 42
1.0
 92
        8
 66
     7
 43
1.0
 76
     1
 77
     6
 78
     2
 67
     7
 79
     5
170
     0
171
     0
290
     0
174
     0
 93
        1
 44
-50.0
173
     0
291
     1
 45
0.0
1001
ACAD
1000
AcDbSavedByObjectVersion
1070
     0
  0
VISUALSTYLE
  5
FF6
102
{ACAD_XDICTIONARY
360
1066
102
}
102
{ACAD_REACTORS
330
FDE
102
}
330
FDE
100
AcDbVisualStyle
  2
EdgeColorOff
 70
    22
 71
     2
 72
     2
 73
     0
 90
        0
 40
-0.6
 41
-30.0
 62
     5
 63
     7
 74
     1
 91
        4
 64
     7
 65
   257
 75
     1
175
     1
 42
1.0
 92
        8
 66
     7
 43
1.0
 76
     1
 77
     6
 78
     2
 67
     7
 79
     5
170
     0
171
     0
290
     0
174
     0
 93
        1
 44
0.0
173
     0
291
     1
 45
0.0
1001
ACAD
1000
AcDbSavedByObjectVersion
1070
     0
  0
VISUALSTYLE
  5
FED
102
{ACAD_XDICTIONARY
360
1054
102
}
102
{ACAD_REACTORS
330
FDE
102
}
330
FDE
100
AcDbVisualStyle
  2
Facepattern
 70
    15
 71
     2
 72
     2
 73
     0
 90
        0
 40
-0.6
 41
-30.0
 62
     5
 63
     7
 74
     1
 91
        4
 64
     7
 65
   257
 75
     1
175
     1
 42
1.0
 92
        8
 66
     7
 43
1.0
 76
     1
 77
     6
 78
     2
 67
     7
 79
     5
170
     0
171
     0
290
     0
174
     0
 93
        1
 44
0.0
173
     0
291
     1
 45
0.0
1001
ACAD
1000
AcDbSavedByObjectVersion
1070
     0
  0
VISUALSTYLE
  5
FDF
102
{ACAD_XDICTIONARY
360
1038
102
}
102
{ACAD_REACTORS
330
FDE
102
}
330
FDE
100
AcDbVisualStyle
  2
Flat
 70
     0
 71
     2
 72
     1
 73
     1
 90
        2
 40
-0.6
 41
30.0
 62
     5
 63
     7
 74
     0
 91
        0
 64
     7
 65
   257
 75
     1
175
     1
 42
1.0
 92
        8
 66
     7
 43
1.0
 76
     1
 77
     6
 78
     2
 67
     7
 79
     5
170
     0
171
     0
290
     0
174
     0
 93
       13
 44
0.0
173
     0
291
     1
 45
0.0
1001
ACAD
1000
AcDbSavedByObjectVersion
1070
     0
  0
VISUALSTYLE
  5
FE0
102
{ACAD_XDICTIONARY
360
103A
102
}
102
{ACAD_REACTORS
330
FDE
102
}
330
FDE
100
AcDbVisualStyle
  2
FlatWithEdges
 70
     1
 71
     2
 72
     1
 73
     1
 90
        2
 40
-0.6
 41
30.0
 62
     5
 63
     7
 74
     1
 91
        0
 64
     7
 65
   257
 75
     1
175
     1
 42
1.0
 92
        0
 66
   257
 43
1.0
 76
     1
 77
     6
 78
     2
 67
     7
 79
     5
170
     0
171
     0
290
     0
174
     0
 93
       13
 44
0.0
173
     0
291
     1
 45
0.0
1001
ACAD
1000
AcDbSavedByObjectVersion
1070
     0
  0
VISUALSTYLE
  5
FE1
102
{ACAD_XDICTIONARY
360
103C
102
}
102
{ACAD_REACTORS
330
FDE
102
}
330
FDE
100
AcDbVisualStyle
  2
Gouraud
 70
     2
 71
     2
 72
     2
 73
     1
 90
        2
 40
-0.6
 41
30.0
 62
     5
 63
     7
 74
     0
 91
        0
 64
     7
 65
   257
 75
     1
175
     1
 42
1.0
 92
        0
 66
     7
 43
1.0
 76
     1
 77
     6
 78
     2
 67
     7
 79
     5
170
     0
171
     0
290
     0
174
     0
 93
       13
 44
0.0
173
     0
291
     1
 45
0.0
1001
ACAD
1000
AcDbSavedByObjectVersion
1070
     0
  0
VISUALSTYLE
  5
FE2
102
{ACAD_XDICTIONARY
360
103E
102
}
102
{ACAD_REACTORS
330
FDE
102
}
330
FDE
100
AcDbVisualStyle
  2
GouraudWithEdges
 70
     3
 71
     2
 72
     2
 73
     1
 90
        2
 40
-0.6
 41
30.0
 62
     5
 63
     7
 74
     1
 91
        0
 64
     7
 65
   257
 75
     1
175
     1
 42
1.0
 92
        0
 66
   257
 43
1.0
 76
     1
 77
     6
 78
     2
 67
     7
 79
     5
170
     0
171
     0
290
     0
174
     0
 93
       13
 44
0.0
173
     0
291
     1
 45
0.0
1001
ACAD
1000
AcDbSavedByObjectVersion
1070
     0
  0
VISUALSTYLE
  5
FE6
102
{ACAD_XDICTIONARY
360
1046
102
}
102
{ACAD_REACTORS
330
FDE
102
}
330
FDE
100
AcDbVisualStyle
  2
Hidden
 70
     6
 71
     1
 72
     2
 73
     2
 90
        0
 40
-0.6
 41
-30.0
 62
     5
 63
     7
 74
     2
 91
        2
 64
     7
 65
   257
 75
     2
175
     1
 42
40.0
 92
        0
 66
   257
 43
1.0
 76
     1
 77
     6
 78
     2
 67
     7
 79
     3
170
     0
171
     0
290
     0
174
     0
 93
        1
 44
0.0
173
     0
291
     0
 45
0.0
1001
ACAD
1000
AcDbSavedByObjectVersion
1070
     0
  0
VISUALSTYLE
  5
FF4
102
{ACAD_XDICTIONARY
360
1062
102
}
102
{ACAD_REACTORS
330
FDE
102
}
330
FDE
100
AcDbVisualStyle
  2
JitterOff
 70
    20
 71
     2
 72
     2
 73
     0
 90
        0
 40
-0.6
 41
-30.0
 62
     5
 63
     7
 74
     1
 91
        4
 64
     7
 65
   257
 75
     1
175
     1
 42
1.0
 92
       10
 66
     7
 43
1.0
 76
     1
 77
     6
 78
     2
 67
     7
 79
     5
170
     0
171
     0
290
     0
174
     0
 93
        1
 44
0.0
173
     0
291
     1
 45
0.0
1001
ACAD
1000
AcDbSavedByObjectVersion
1070
     0
  0
VISUALSTYLE
  5
FEC
102
{ACAD_XDICTIONARY
360
1052
102
}
102
{ACAD_REACTORS
330
FDE
102
}
330
FDE
100
AcDbVisualStyle
  2
Linepattern
 70
    14
 71
     2
 72
     2
 73
     0
 90
        0
 40
-0.6
 41
-30.0
 62
     5
 63
     7
 74
     1
 91
        4
 64
     7
 65
   257
 75
     7
175
     7
 42
1.0
 92
        8
 66
     7
 43
1.0
 76
     1
 77
     6
 78
     2
 67
     7
 79
     5
170
     0
171
     0
290
     0
174
     0
 93
        1
 44
0.0
173
     0
291
     1
 45
0.0
1001
ACAD
1000
AcDbSavedByObjectVersion
1070
     0
  0
VISUALSTYLE
  5
FF5
102
{ACAD_XDICTIONARY
360
1064
102
}
102
{ACAD_REACTORS
330
FDE
102
}
330
FDE
100
AcDbVisualStyle
  2
OverhangOff
 70
    21
 71
     2
 72
     2
 73
     0
 90
        0
 40
-0.6
 41
-30.0
 62
     5
 63
     7
 74
     1
 91
        4
 64
     7
 65
   257
 75
     1
175
     1
 42
1.0
 92
        9
 66
     7
 43
1.0
 76
     1
 77
     6
 78
     2
 67
     7
 79
     5
170
     0
171
     0
290
     0
174
     0
 93
        1
 44
0.0
173
     0
291
     1
 45
0.0
1001
ACAD
1000
AcDbSavedByObjectVersion
1070
     0
  0
VISUALSTYLE
  5
FE8
102
{ACAD_XDICTIONARY
360
104A
102
}
102
{ACAD_REACTORS
330
FDE
102
}
330
FDE
100
AcDbVisualStyle
  2
Realistic
 70
     8
 71
     2
 72
     3
 73
     0
 90
        2
 40
-0.6
 41
30.0
 62
     5
 63
     7
 74
     0
 91
        0
 64
     7
 65
   257
 75
     1
175
     1
 42
1.0
 92
        8
 66
   257
 43
1.0
 76
     1
 77
     6
 78
     2
 67
     7
 79
     3
170
     0
171
     0
290
     0
174
     0
 93
       13
 44
0.0
173
     0
291
     0
 45
0.0
1001
ACAD
1000
AcDbSavedByObjectVersion
1070
     0
  0
VISUALSTYLE
  5
FF3
102
{ACAD_XDICTIONARY
360
1060
102
}
102
{ACAD_REACTORS
330
FDE
102
}
330
FDE
100
AcDbVisualStyle
  2
Shaded
 70
    27
 71
     2
 72
     2
 73
     1
 90
        2
 40
-0.6
 41
30.0
 62
     5
 63
     7
 74
     0
 91
        4
 64
     7
 65
   257
 75
     1
175
     1
 42
1.0
 92
        8
 66
   257
 43
1.0
 76
     1
 77
     6
 78
     2
 67
     8
 79
     3
170
     0
171
     0
290
     0
174
     0
 93
        5
 44
0.0
173
     0
291
     0
 45
0.0
1001
ACAD
1000
AcDbSavedByObjectVersion
1070
     0
  0
VISUALSTYLE
  5
FF2
102
{ACAD_XDICTIONARY
360
105E
102
}
102
{ACAD_REACTORS
330
FDE
102
}
330
FDE
100
AcDbVisualStyle
  2
Shaded with edges
 70
    26
 71
     2
 72
     2
 73
     1
 90
        2
 40
-0.6
 41
30.0
 62
     5
 63
     7
 74
     1
 91
       10
 64
     7
 65
   257
 75
     2
175
     1
 42
1.0
 92
        8
 66
   257
 43
1.0
 76
     1
 77
     6
 78
     2
 67
     7
 79
     3
170
     0
171
     0
290
     0
174
     0
 93
        5
 44
0.0
173
     0
291
     0
 45
0.0
1001
ACAD
1000
AcDbSavedByObjectVersion
1070
     0
  0
VISUALSTYLE
  5
FEF
102
{ACAD_XDICTIONARY
360
1058
102
}
102
{ACAD_REACTORS
330
FDE
102
}
330
FDE
100
AcDbVisualStyle
  2
Shades of Gray
 70
    23
 71
     2
 72
     2
 73
     3
 90
        0
 40
-0.6
 41
-30.0
 62
     5
 63
     7
 74
     2
 91
        2
 64
     7
 65
     7
 75
     1
175
     1
 42
40.0
 92
        8
 66
     7
 43
1.0
 76
     1
 77
     6
 78
     2
 67
     7
 79
     3
170
     0
171
     0
290
     0
174
     0
 93
        1
 44
0.0
173
     0
291
     0
 45
0.0
1001
ACAD
1000
AcDbSavedByObjectVersion
1070
     0
  0
VISUALSTYLE
  5
FF0
102
{ACAD_XDICTIONARY
360
105A
102
}
102
{ACAD_REACTORS
330
FDE
102
}
330
FDE
100
AcDbVisualStyle
  2
Sketchy
 70
    24
 71
     1
 72
     2
 73
     2
 90
        0
 40
-0.6
 41
-30.0
 62
     5
 63
     7
 74
     2
 91
        2
 64
     7
 65
     7
 75
     1
175
     1
 42
40.0
 92
       11
 66
     7
 43
1.0
 76
     1
 77
     6
 78
     2
 67
     7
 79
     6
170
     0
171
     0
290
     0
174
     0
 93
        1
 44
0.0
173
     0
291
     0
 45
0.0
1001
ACAD
1000
AcDbSavedByObjectVersion
1070
     0
  0
VISUALSTYLE
  5
FEB
102
{ACAD_XDICTIONARY
360
1050
102
}
102
{ACAD_REACTORS
330
FDE
102
}
330
FDE
100
AcDbVisualStyle
  2
Thicken
 70
    13
 71
     2
 72
     2
 73
     0
 90
        0
 40
-0.6
 41
-30.0
 62
     5
 63
     7
 74
     1
 91
        4
 64
     7
 65
   257
 75
     1
175
     1
 42
1.0
 92
       12
 66
     7
 43
1.0
 76
     1
 77
     6
 78
     2
 67
     7
 79
     5
170
     0
171
     0
290
     0
174
     0
 93
        1
 44
0.0
173
     0
291
     1
 45
0.0
1001
ACAD
1000
AcDbSavedByObjectVersion
1070
     0
  0
VISUALSTYLE
  5
FE5
102
{ACAD_XDICTIONARY
360
1044
102
}
102
{ACAD_REACTORS
330
FDE
102
}
330
FDE
100
AcDbVisualStyle
  2
Wireframe
 70
     5
 71
     0
 72
     2
 73
     0
 90
        0
 40
-0.6
 41
-30.0
 62
     5
 63
     7
 74
     1
 91
        4
 64
     7
 65
   257
 75
     1
175
     1
 42
1.0
 92
        0
 66
   257
 43
1.0
 76
     1
 77
     6
 78
     2
 67
     7
 79
     3
170
     0
171
     0
290
     0
174
     0
 93
        1
 44
0.0
173
     0
291
     0
 45
0.0
1001
ACAD
1000
AcDbSavedByObjectVersion
1070
     0
  0
VISUALSTYLE
  5
FF1
102
{ACAD_XDICTIONARY
360
105C
102
}
102
{ACAD_REACTORS
330
FDE
102
}
330
FDE
100
AcDbVisualStyle
  2
X-Ray
 70
    25
 71
     2
 72
     2
 73
     1
 90
        1
 40
0.5
 41
-30.0
 62
     5
 63
     7
 74
     1
 91
        0
 64
     7
 65
   257
 75
     1
175
     1
 42
1.0
 92
        8
 66
     7
 43
1.0
 76
     1
 77
     6
 78
     2
 67
     7
 79
     3
170
     0
171
     0
290
     0
174
     0
 93
       13
 44
0.0
173
     0
291
     0
 45
0.0
1001
ACAD
1000
AcDbSavedByObjectVersion
1070
     0
  0
DICTIONARYVAR
  5
102B
102
{ACAD_REACTORS
330
1026
102
}
330
1026
100
DictionaryVariables
280
     0
  1
1:1
  0
DICTIONARYVAR
  5
1028
102
{ACAD_REACTORS
330
1026
102
}
330
1026
100
DictionaryVariables
280
     0
  1
STANDARD
  0
DICTIONARYVAR
  5
1027
102
{ACAD_REACTORS
330
1026
102
}
330
1026
100
DictionaryVariables
280
     0
  1
STANDARD
  0
DICTIONARYVAR
  5
1029
102
{ACAD_REACTORS
330
1026
102
}
330
1026
100
DictionaryVariables
280
     0
  1
Imperial24
  0
DICTIONARYVAR
  5
102A
102
{ACAD_REACTORS
330
1026
102
}
330
1026
100
DictionaryVariables
280
     0
  1
Imperial24
  0
DICTIONARYVAR
  5
102E
102
{ACAD_REACTORS
330
1026
102
}
330
1026
100
DictionaryVariables
280
     0
  1
1
  0
DICTIONARYVAR
  5
102D
102
{ACAD_REACTORS
330
1026
102
}
330
1026
100
DictionaryVariables
280
     0
  1
0
  0
DICTIONARYVAR
  5
102C
102
{ACAD_REACTORS
330
1026
102
}
330
1026
100
DictionaryVariables
280
     0
  1
127
  0
DICTIONARYVAR
  5
102F
102
{ACAD_REACTORS
330
1026
102
}
330
1026
100
DictionaryVariables
280
     0
  1
2
  0
DICTIONARY
  5
106C
330
1011
100
AcDbDictionary
280
     1
281
     1
  3
ACAD_XREC_ROUNDTRIP
360
106D
  0
DICTIONARY
  5
106E
330
1012
100
AcDbDictionary
280
     1
281
     1
  3
ACAD_XREC_ROUNDTRIP
360
106F
  0
DICTIONARY
  5
1070
330
1013
100
AcDbDictionary
280
     1
281
     1
  3
ACAD_XREC_ROUNDTRIP
360
1071
  0
DICTIONARY
  5
FCF
330
FCE
100
AcDbDictionary
280
     1
281
     1
  3
ACAD_XREC_ROUNDTRIP
360
1036
  3
BUMPTILE
360
FD1
  3
DIFFUSETILE
360
FD0
  3
OPACITYTILE
360
FD4
  3
REFLECTIONTILE
360
FD3
  3
REFRACTIONTILE
360
FD5
  3
SPECULARTILE
360
FD2
  0
DICTIONARY
  5
FC7
330
FC6
100
AcDbDictionary
280
     1
281
     1
  3
ACAD_XREC_ROUNDTRIP
360
1035
  3
BUMPTILE
360
FC9
  3
DIFFUSETILE
360
FC8
  3
OPACITYTILE
360
FCC
  3
REFLECTIONTILE
360
FCB
  3
REFRACTIONTILE
360
FCD
  3
SPECULARTILE
360
FCA
  0
DICTIONARY
  5
FD7
330
FD6
100
AcDbDictionary
280
     1
281
     1
  3
ACAD_XREC_ROUNDTRIP
360
1037
  3
BUMPTILE
360
FD9
  3
DIFFUSETILE
360
FD8
  3
OPACITYTILE
360
FDC
  3
REFLECTIONTILE
360
FDB
  3
REFRACTIONTILE
360
FDD
  3
SPECULARTILE
360
FDA
  0
DICTIONARY
  5
106A
330
100F
100
AcDbDictionary
280
     1
281
     1
  3
ACAD_XREC_ROUNDTRIP
360
106B
  0
DICTIONARY
  5
1031
330
FF9
100
AcDbDictionary
280
     1
281
     1
  3
ACAD_ROUNDTRIP_2008_TABLESTYLE_CELLSTYLEMAP
360
1032
  3
ACAD_XREC_ROUNDTRIP
360
1068
  0
DICTIONARY
  5
1042
330
FE4
100
AcDbDictionary
280
     1
281
     1
  3
ACAD_XREC_ROUNDTRIP
360
1043
  0
DICTIONARY
  5
1040
330
FE3
100
AcDbDictionary
280
     1
281
     1
  3
ACAD_XREC_ROUNDTRIP
360
1041
  0
DICTIONARY
  5
104E
330
FEA
100
AcDbDictionary
280
     1
281
     1
  3
ACAD_XREC_ROUNDTRIP
360
104F
  0
DICTIONARY
  5
1056
330
FEE
100
AcDbDictionary
280
     1
281
     1
  3
ACAD_XREC_ROUNDTRIP
360
1057
  0
DICTIONARY
  5
1048
330
FE7
100
AcDbDictionary
280
     1
281
     1
  3
ACAD_XREC_ROUNDTRIP
360
1049
  0
DICTIONARY
  5
104C
330
FE9
100
AcDbDictionary
280
     1
281
     1
  3
ACAD_XREC_ROUNDTRIP
360
104D
  0
DICTIONARY
  5
1066
330
FF6
100
AcDbDictionary
280
     1
281
     1
  3
ACAD_XREC_ROUNDTRIP
360
1067
  0
DICTIONARY
  5
1054
330
FED
100
AcDbDictionary
280
     1
281
     1
  3
ACAD_XREC_ROUNDTRIP
360
1055
  0
DICTIONARY
  5
1038
330
FDF
100
AcDbDictionary
280
     1
281
     1
  3
ACAD_XREC_ROUNDTRIP
360
1039
  0
DICTIONARY
  5
103A
330
FE0
100
AcDbDictionary
280
     1
281
     1
  3
ACAD_XREC_ROUNDTRIP
360
103B
  0
DICTIONARY
  5
103C
330
FE1
100
AcDbDictionary
280
     1
281
     1
  3
ACAD_XREC_ROUNDTRIP
360
103D
  0
DICTIONARY
  5
103E
330
FE2
100
AcDbDictionary
280
     1
281
     1
  3
ACAD_XREC_ROUNDTRIP
360
103F
  0
DICTIONARY
  5
1046
330
FE6
100
AcDbDictionary
280
     1
281
     1
  3
ACAD_XREC_ROUNDTRIP
360
1047
  0
DICTIONARY
  5
1062
330
FF4
100
AcDbDictionary
280
     1
281
     1
  3
ACAD_XREC_ROUNDTRIP
360
1063
  0
DICTIONARY
  5
1052
330
FEC
100
AcDbDictionary
280
     1
281
     1
  3
ACAD_XREC_ROUNDTRIP
360
1053
  0
DICTIONARY
  5
1064
330
FF5
100
AcDbDictionary
280
     1
281
     1
  3
ACAD_XREC_ROUNDTRIP
360
1065
  0
DICTIONARY
  5
104A
330
FE8
100
AcDbDictionary
280
     1
281
     1
  3
ACAD_XREC_ROUNDTRIP
360
104B
  0
DICTIONARY
  5
1060
330
FF3
100
AcDbDictionary
280
     1
281
     1
  3
ACAD_XREC_ROUNDTRIP
360
1061
  0
DICTIONARY
  5
105E
330
FF2
100
AcDbDictionary
280
     1
281
     1
  3
ACAD_XREC_ROUNDTRIP
360
105F
  0
DICTIONARY
  5
1058
330
FEF
100
AcDbDictionary
280
     1
281
     1
  3
ACAD_XREC_ROUNDTRIP
360
1059
  0
DICTIONARY
  5
105A
330
FF0
100
AcDbDictionary
280
     1
281
     1
  3
ACAD_XREC_ROUNDTRIP
360
105B
  0
DICTIONARY
  5
1050
330
FEB
100
AcDbDictionary
280
     1
281
     1
  3
ACAD_XREC_ROUNDTRIP
360
1051
  0
DICTIONARY
  5
1044
330
FE5
100
AcDbDictionary
280
     1
281
     1
  3
ACAD_XREC_ROUNDTRIP
360
1045
  0
DICTIONARY
  5
105C
330
FF1
100
AcDbDictionary
280
     1
281
     1
  3
ACAD_XREC_ROUNDTRIP
360
105D
  0
XRECORD
  5
106D
102
{ACAD_REACTORS
330
106C
102
}
330
106C
100
AcDbXrecord
280
     1
102
DISPLAYNAME
  1
Imperial24
102
FLAGS
 90
        0
  0
XRECORD
  5
106F
102
{ACAD_REACTORS
330
106E
102
}
330
106E
100
AcDbXrecord
280
     1
102
SHADEPLOT
 70
     0
102
SHADEPLOTRESLEVEL
 70
     2
102
SHADEPLOTCUSTOMDPI
 70
   300
  0
XRECORD
  5
1071
102
{ACAD_REACTORS
330
1070
102
}
330
1070
100
AcDbXrecord
280
     1
102
SHADEPLOT
 70
     0
102
SHADEPLOTRESLEVEL
 70
     2
102
SHADEPLOTCUSTOMDPI
 70
   300
  0
XRECORD
  5
1036
102
{ACAD_REACTORS
330
FCF
102
}
330
FCF
100
AcDbXrecord
280
     1
102
MATERIAL
148
0.0
149
0.0
149
0.0
 93
        0
 94
      127
282
     0
 72
     0
 77
     0
171
     0
175
     0
179
     0
273
     0
  0
XRECORD
  5
FD1
102
{ACAD_REACTORS
330
FCF
102
}
330
FCF
100
AcDbXrecord
280
     1
270
     1
271
     1
  0
XRECORD
  5
FD0
102
{ACAD_REACTORS
330
FCF
102
}
330
FCF
100
AcDbXrecord
280
     1
270
     1
271
     1
  0
XRECORD
  5
FD4
102
{ACAD_REACTORS
330
FCF
102
}
330
FCF
100
AcDbXrecord
280
     1
270
     1
271
     1
  0
XRECORD
  5
FD3
102
{ACAD_REACTORS
330
FCF
102
}
330
FCF
100
AcDbXrecord
280
     1
270
     1
271
     1
  0
XRECORD
  5
FD5
102
{ACAD_REACTORS
330
FCF
102
}
330
FCF
100
AcDbXrecord
280
     1
270
     1
271
     1
  0
XRECORD
  5
FD2
102
{ACAD_REACTORS
330
FCF
102
}
330
FCF
100
AcDbXrecord
280
     1
270
     1
271
     1
  0
XRECORD
  5
1035
102
{ACAD_REACTORS
330
FC7
102
}
330
FC7
100
AcDbXrecord
280
     1
102
MATERIAL
148
0.0
149
0.0
149
0.0
 93
        0
 94
      127
282
     0
 72
     0
 77
     0
171
     0
175
     0
179
     0
273
     0
  0
XRECORD
  5
FC9
102
{ACAD_REACTORS
330
FC7
102
}
330
FC7
100
AcDbXrecord
280
     1
270
     1
271
     1
  0
XRECORD
  5
FC8
102
{ACAD_REACTORS
330
FC7
102
}
330
FC7
100
AcDbXrecord
280
     1
270
     1
271
     1
  0
XRECORD
  5
FCC
102
{ACAD_REACTORS
330
FC7
102
}
330
FC7
100
AcDbXrecord
280
     1
270
     1
271
     1
  0
XRECORD
  5
FCB
102
{ACAD_REACTORS
330
FC7
102
}
330
FC7
100
AcDbXrecord
280
     1
270
     1
271
     1
  0
XRECORD
  5
FCD
102
{ACAD_REACTORS
330
FC7
102
}
330
FC7
100
AcDbXrecord
280
     1
270
     1
271
     1
  0
XRECORD
  5
FCA
102
{ACAD_REACTORS
330
FC7
102
}
330
FC7
100
AcDbXrecord
280
     1
270
     1
271
     1
  0
XRECORD
  5
1037
102
{ACAD_REACTORS
330
FD7
102
}
330
FD7
100
AcDbXrecord
280
     1
102
MATERIAL
148
0.0
149
0.0
149
0.0
 93
        0
 94
      127
282
     0
 72
     0
 77
     0
171
     0
175
     0
179
     0
273
     0
  0
XRECORD
  5
FD9
102
{ACAD_REACTORS
330
FD7
102
}
330
FD7
100
AcDbXrecord
280
     1
270
     1
271
     1
  0
XRECORD
  5
FD8
102
{ACAD_REACTORS
330
FD7
102
}
330
FD7
100
AcDbXrecord
280
     1
270
     1
271
     1
  0
XRECORD
  5
FDC
102
{ACAD_REACTORS
330
FD7
102
}
330
FD7
100
AcDbXrecord
280
     1
270
     1
271
     1
  0
XRECORD
  5
FDB
102
{ACAD_REACTORS
330
FD7
102
}
330
FD7
100
AcDbXrecord
280
     1
270
     1
271
     1
  0
XRECORD
  5
FDD
102
{ACAD_REACTORS
330
FD7
102
}
330
FD7
100
AcDbXrecord
280
     1
270
     1
271
     1
  0
XRECORD
  5
FDA
102
{ACAD_REACTORS
330
FD7
102
}
330
FD7
100
AcDbXrecord
280
     1
270
     1
271
     1
  0
XRECORD
  5
106B
102
{ACAD_REACTORS
330
106A
102
}
330
106A
100
AcDbXrecord
280
     1
102
DISPLAYNAME
  1
Imperial24
102
FLAGS
 90
        0
  0
CELLSTYLEMAP
  5
1032
102
{ACAD_REACTORS
330
1031
102
}
330
1031
100
AcDbCellStyleMap
 90
        3
300
CELLSTYLE
  1
TABLEFORMAT_BEGIN
 90
        5
170
     1
 91
        0
 92
    32768
 62
   257
 93
        1
300
CONTENTFORMAT
  1
CONTENTFORMAT_BEGIN
 90
        0
 91
        0
 92
      512
 93
        0
300

 40
0.0
140
1.0
 94
        5
 62
     0
340
C2E
144
0.25
309
CONTENTFORMAT_END
171
     0
 94
        0
309
TABLEFORMAT_END
  1
CELLSTYLE_BEGIN
 90
        1
 91
        1
300
_TITLE
309
CELLSTYLE_END
300
CELLSTYLE
  1
TABLEFORMAT_BEGIN
 90
        5
170
     1
 91
        0
 92
        0
 62
   257
 93
        1
300
CONTENTFORMAT
  1
CONTENTFORMAT_BEGIN
 90
        0
 91
        0
 92
      512
 93
        0
300

 40
0.0
140
1.0
 94
        5
 62
     0
340
C2E
144
0.18
309
CONTENTFORMAT_END
171
     0
 94
        0
309
TABLEFORMAT_END
  1
CELLSTYLE_BEGIN
 90
        2
 91
        1
300
_HEADER
309
CELLSTYLE_END
300
CELLSTYLE
  1
TABLEFORMAT_BEGIN
 90
        5
170
     1
 91
        0
 92
        0
 62
   257
 93
        1
300
CONTENTFORMAT
  1
CONTENTFORMAT_BEGIN
 90
        0
 91
        0
 92
      512
 93
        0
300

 40
0.0
140
1.0
 94
        2
 62
     0
340
C2E
144
0.18
309
CONTENTFORMAT_END
171
     0
 94
        0
309
TABLEFORMAT_END
  1
CELLSTYLE_BEGIN
 90
        3
 91
        2
300
_DATA
309
CELLSTYLE_END
  0
XRECORD
  5
1068
102
{ACAD_REACTORS
330
1031
102
}
330
1031
100
AcDbXrecord
280
     1
102
ACAD_ROUNDTRIP_PRE2007_TABLESTYLE
 90
      512
 91
        0
  1

 92
      512
 93
        0
  2

 94
      512
 95
        0
  3

  0
XRECORD
  5
1043
102
{ACAD_REACTORS
330
1042
102
}
330
1042
100
AcDbXrecord
280
     1
102
RTVSPost2010Prop28
280
     1
102
RTVSPost2010PropOp28
 70
     1
102
RTVSPost2010Prop29
280
     1
102
RTVSPost2010PropOp29
 70
     1
102
RTVSPost2010Prop30
280
     0
102
RTVSPost2010PropOp30
 70
     1
102
RTVSPost2010Prop31
280
     0
102
RTVSPost2010PropOp31
 70
     1
102
RTVSPost2010Prop32
280
     0
102
RTVSPost2010PropOp32
 70
     1
102
RTVSPost2010Prop33
280
     0
102
RTVSPost2010PropOp33
 70
     1
102
RTVSPost2010Prop34
280
     0
102
RTVSPost2010PropOp34
 70
     1
102
RTVSPost2010Prop35
280
     0
102
RTVSPost2010PropOp35
 70
     1
102
RTVSPost2010Prop36
280
     0
102
RTVSPost2010PropOp36
 70
     1
102
RTVSPost2010Prop37
 90
       50
102
RTVSPost2010PropOp37
 70
     1
102
RTVSPost2010Prop38
140
0.0
102
RTVSPost2010PropOp38
 70
     1
102
RTVSPost2010Prop39
140
1.0
102
RTVSPost2010PropOp39
 70
     1
102
RTVSPost2010Prop40
 90
        0
102
RTVSPost2010PropOp40
 70
     1
102
RTVSPost2010Prop41ColorIndex
 90
       18
102
RTVSPost2010Prop41ColorRGB
 90
        0
102
RTVSPost2010PropOp41
 70
     1
102
RTVSPost2010Prop42
 90
       50
102
RTVSPost2010PropOp42
 70
     1
102
RTVSPost2010Prop43
 90
        3
102
RTVSPost2010PropOp43
 70
     1
102
RTVSPost2010Prop44ColorIndex
 90
        5
102
RTVSPost2010Prop44ColorRGB
 90
      255
102
RTVSPost2010PropOp44
 70
     1
102
RTVSPost2010Prop45
280
     0
102
RTVSPost2010PropOp45
 70
     1
102
RTVSPost2010Prop46
 90
       50
102
RTVSPost2010PropOp46
 70
     1
102
RTVSPost2010Prop47
 90
       50
102
RTVSPost2010PropOp47
 70
     1
102
RTVSPost2010Prop48
 90
       50
102
RTVSPost2010PropOp48
 70
     1
102
RTVSPost2010Prop49
280
     0
102
RTVSPost2010PropOp49
 70
     1
102
RTVSPost2010Prop50
 90
       50
102
RTVSPost2010PropOp50
 70
     1
102
RTVSPost2010Prop51ColorIndex
 90
      256
102
RTVSPost2010Prop51ColorRGB
 90
-16777216
102
RTVSPost2010PropOp51
 70
     0
102
RTVSPost2010Prop52
140
1.0
102
RTVSPost2010PropOp52
 70
     0
102
RTVSPost2010Prop53
 90
        2
102
RTVSPost2010PropOp53
 70
     1
102
RTVSPost2010Prop54
  1
strokes_ogs.tif
102
RTVSPost2010PropOp54
 70
     1
102
RTVSPost2010Prop55
280
     0
102
RTVSPost2010PropOp55
 70
     1
102
RTVSPost2010Prop56
140
1.0
102
RTVSPost2010PropOp56
 70
     1
102
RTVSPost2010Prop57
140
1.0
102
RTVSPost2010PropOp57
 70
     1
102
RTVSPropertyOp0
 70
     1
102
RTVSPropertyOp1
 70
     1
102
RTVSPropertyOp2
 70
     1
102
RTVSPropertyOp3
 70
     1
102
RTVSPropertyOp4
 70
     1
102
RTVSPropertyOp5
 70
     1
102
RTVSPropertyOp6
 70
     1
102
RTVSPropertyOp7
 70
     1
102
RTVSPropertyOp8
 70
     1
102
RTVSPropertyOp9
 70
     1
102
RTVSPropertyOp10
 70
     1
102
RTVSPropertyOp11
 70
     1
102
RTVSPropertyOp12
 70
     1
102
RTVSPropertyOp13
 70
     1
102
RTVSPropertyOp14
 70
     1
102
RTVSPropertyOp15
 70
     1
102
RTVSPropertyOp16
 70
     1
102
RTVSPropertyOp17
 70
     1
102
RTVSPropertyOp18
 70
     1
102
RTVSPropertyOp19
 70
     1
102
RTVSPropertyOp20
 70
     1
102
RTVSPropertyOp21
 70
     1
102
RTVSPropertyOp22
 70
     1
102
RTVSPropertyOp23
 70
     1
102
RTVSPropertyOp24
 70
     1
102
RTVSPropertyOp25
 70
     1
102
RTVSPropertyOp26
 70
     1
102
RTVSPropertyOp27
 70
     1
102
RTVSPropertyOp28
 70
     1
102
RTVSPropertyOp29
 70
     1
102
RTVSPropertyOp30
 70
     1
102
RTVSPropertyOp31
 70
     1
102
RTVSPropertyOp32
 70
     1
102
RTVSPropertyOp33
 70
     1
102
RTVSPropertyOp34
 70
     1
102
RTVSPropertyOp35
 70
     1
102
RTVSPropertyOp36
 70
     1
102
RTVSPropertyOp37
 70
     1
102
RTVSPropertyOp38
 70
     1
102
RTVSPropertyOp39
 70
     1
102
RTVSPropertyOp40
 70
     1
102
RTVSPropertyOp41
 70
     1
102
RTVSPropertyOp42
 70
     1
102
RTVSPropertyOp43
 70
     1
102
RTVSPropertyOp44
 70
     1
102
RTVSPropertyOp45
 70
     1
102
RTVSPropertyOp46
 70
     1
102
RTVSPropertyOp47
 70
     1
102
RTVSPropertyOp48
 70
     1
102
RTVSPropertyOp49
 70
     1
102
RTVSPropertyOp50
 70
     1
102
RTVSPropertyOp51
 70
     0
102
RTVSPropertyOp52
 70
     0
102
RTVSPropertyOp53
 70
     1
102
RTVSPropertyOp54
 70
     1
102
RTVSPropertyOp55
 70
     1
102
RTVSPropertyOp56
 70
     1
102
RTVSPropertyOp57
 70
     1
102
RTVSPropertyOp58
 70
     1
102
RTVSPropertyOp59
 70
     1
102
RTVSPropertyOp60
 70
     1
102
RTVSPropertyOp61
 70
     1
102
RTVSPropertyOp62
 70
     1
  0
XRECORD
  5
1041
102
{ACAD_REACTORS
330
1040
102
}
330
1040
100
AcDbXrecord
280
     1
102
RTVSPost2010Prop28
280
     0
102
RTVSPost2010PropOp28
 70
     1
102
RTVSPost2010Prop29
280
     1
102
RTVSPost2010PropOp29
 70
     1
102
RTVSPost2010Prop30
280
     1
102
RTVSPost2010PropOp30
 70
     1
102
RTVSPost2010Prop31
280
     0
102
RTVSPost2010PropOp31
 70
     1
102
RTVSPost2010Prop32
280
     0
102
RTVSPost2010PropOp32
 70
     1
102
RTVSPost2010Prop33
280
     0
102
RTVSPost2010PropOp33
 70
     1
102
RTVSPost2010Prop34
280
     0
102
RTVSPost2010PropOp34
 70
     1
102
RTVSPost2010Prop35
280
     0
102
RTVSPost2010PropOp35
 70
     1
102
RTVSPost2010Prop36
280
     0
102
RTVSPost2010PropOp36
 70
     1
102
RTVSPost2010Prop37
 90
       50
102
RTVSPost2010PropOp37
 70
     1
102
RTVSPost2010Prop38
140
0.0
102
RTVSPost2010PropOp38
 70
     1
102
RTVSPost2010Prop39
140
1.0
102
RTVSPost2010PropOp39
 70
     1
102
RTVSPost2010Prop40
 90
        0
102
RTVSPost2010PropOp40
 70
     1
102
RTVSPost2010Prop41ColorIndex
 90
       18
102
RTVSPost2010Prop41ColorRGB
 90
        0
102
RTVSPost2010PropOp41
 70
     1
102
RTVSPost2010Prop42
 90
       50
102
RTVSPost2010PropOp42
 70
     1
102
RTVSPost2010Prop43
 90
        3
102
RTVSPost2010PropOp43
 70
     1
102
RTVSPost2010Prop44ColorIndex
 90
        5
102
RTVSPost2010Prop44ColorRGB
 90
      255
102
RTVSPost2010PropOp44
 70
     1
102
RTVSPost2010Prop45
280
     0
102
RTVSPost2010PropOp45
 70
     1
102
RTVSPost2010Prop46
 90
       50
102
RTVSPost2010PropOp46
 70
     1
102
RTVSPost2010Prop47
 90
       50
102
RTVSPost2010PropOp47
 70
     1
102
RTVSPost2010Prop48
 90
       50
102
RTVSPost2010PropOp48
 70
     1
102
RTVSPost2010Prop49
280
     0
102
RTVSPost2010PropOp49
 70
     1
102
RTVSPost2010Prop50
 90
       50
102
RTVSPost2010PropOp50
 70
     1
102
RTVSPost2010Prop51ColorIndex
 90
      256
102
RTVSPost2010Prop51ColorRGB
 90
-16777216
102
RTVSPost2010PropOp51
 70
     0
102
RTVSPost2010Prop52
140
1.0
102
RTVSPost2010PropOp52
 70
     0
102
RTVSPost2010Prop53
 90
        2
102
RTVSPost2010PropOp53
 70
     1
102
RTVSPost2010Prop54
  1
strokes_ogs.tif
102
RTVSPost2010PropOp54
 70
     1
102
RTVSPost2010Prop55
280
     0
102
RTVSPost2010PropOp55
 70
     1
102
RTVSPost2010Prop56
140
1.0
102
RTVSPost2010PropOp56
 70
     1
102
RTVSPost2010Prop57
140
1.0
102
RTVSPost2010PropOp57
 70
     1
102
RTVSPropertyOp0
 70
     1
102
RTVSPropertyOp1
 70
     1
102
RTVSPropertyOp2
 70
     1
102
RTVSPropertyOp3
 70
     1
102
RTVSPropertyOp4
 70
     1
102
RTVSPropertyOp5
 70
     1
102
RTVSPropertyOp6
 70
     1
102
RTVSPropertyOp7
 70
     1
102
RTVSPropertyOp8
 70
     1
102
RTVSPropertyOp9
 70
     1
102
RTVSPropertyOp10
 70
     1
102
RTVSPropertyOp11
 70
     1
102
RTVSPropertyOp12
 70
     1
102
RTVSPropertyOp13
 70
     1
102
RTVSPropertyOp14
 70
     1
102
RTVSPropertyOp15
 70
     1
102
RTVSPropertyOp16
 70
     1
102
RTVSPropertyOp17
 70
     1
102
RTVSPropertyOp18
 70
     1
102
RTVSPropertyOp19
 70
     1
102
RTVSPropertyOp20
 70
     1
102
RTVSPropertyOp21
 70
     1
102
RTVSPropertyOp22
 70
     1
102
RTVSPropertyOp23
 70
     1
102
RTVSPropertyOp24
 70
     1
102
RTVSPropertyOp25
 70
     1
102
RTVSPropertyOp26
 70
     1
102
RTVSPropertyOp27
 70
     1
102
RTVSPropertyOp28
 70
     1
102
RTVSPropertyOp29
 70
     1
102
RTVSPropertyOp30
 70
     1
102
RTVSPropertyOp31
 70
     1
102
RTVSPropertyOp32
 70
     1
102
RTVSPropertyOp33
 70
     1
102
RTVSPropertyOp34
 70
     1
102
RTVSPropertyOp35
 70
     1
102
RTVSPropertyOp36
 70
     1
102
RTVSPropertyOp37
 70
     1
102
RTVSPropertyOp38
 70
     1
102
RTVSPropertyOp39
 70
     1
102
RTVSPropertyOp40
 70
     1
102
RTVSPropertyOp41
 70
     1
102
RTVSPropertyOp42
 70
     1
102
RTVSPropertyOp43
 70
     1
102
RTVSPropertyOp44
 70
     1
102
RTVSPropertyOp45
 70
     1
102
RTVSPropertyOp46
 70
     1
102
RTVSPropertyOp47
 70
     1
102
RTVSPropertyOp48
 70
     1
102
RTVSPropertyOp49
 70
     1
102
RTVSPropertyOp50
 70
     1
102
RTVSPropertyOp51
 70
     0
102
RTVSPropertyOp52
 70
     0
102
RTVSPropertyOp53
 70
     1
102
RTVSPropertyOp54
 70
     1
102
RTVSPropertyOp55
 70
     1
102
RTVSPropertyOp56
 70
     1
102
RTVSPropertyOp57
 70
     1
102
RTVSPropertyOp58
 70
     1
102
RTVSPropertyOp59
 70
     1
102
RTVSPropertyOp60
 70
     1
102
RTVSPropertyOp61
 70
     1
102
RTVSPropertyOp62
 70
     1
  0
XRECORD
  5
104F
102
{ACAD_REACTORS
330
104E
102
}
330
104E
100
AcDbXrecord
280
     1
102
RTVSPost2010Prop28
280
     0
102
RTVSPost2010PropOp28
 70
     1
102
RTVSPost2010Prop29
280
     1
102
RTVSPost2010PropOp29
 70
     1
102
RTVSPost2010Prop30
280
     1
102
RTVSPost2010PropOp30
 70
     1
102
RTVSPost2010Prop31
280
     0
102
RTVSPost2010PropOp31
 70
     1
102
RTVSPost2010Prop32
280
     0
102
RTVSPost2010PropOp32
 70
     1
102
RTVSPost2010Prop33
280
     0
102
RTVSPost2010PropOp33
 70
     1
102
RTVSPost2010Prop34
280
     0
102
RTVSPost2010PropOp34
 70
     1
102
RTVSPost2010Prop35
280
     0
102
RTVSPost2010PropOp35
 70
     1
102
RTVSPost2010Prop36
280
     0
102
RTVSPost2010PropOp36
 70
     1
102
RTVSPost2010Prop37
 90
       50
102
RTVSPost2010PropOp37
 70
     1
102
RTVSPost2010Prop38
140
0.0
102
RTVSPost2010PropOp38
 70
     1
102
RTVSPost2010Prop39
140
1.0
102
RTVSPost2010PropOp39
 70
     1
102
RTVSPost2010Prop40
 90
        0
102
RTVSPost2010PropOp40
 70
     1
102
RTVSPost2010Prop41ColorIndex
 90
       18
102
RTVSPost2010Prop41ColorRGB
 90
        0
102
RTVSPost2010PropOp41
 70
     1
102
RTVSPost2010Prop42
 90
       50
102
RTVSPost2010PropOp42
 70
     1
102
RTVSPost2010Prop43
 90
        3
102
RTVSPost2010PropOp43
 70
     1
102
RTVSPost2010Prop44ColorIndex
 90
        5
102
RTVSPost2010Prop44ColorRGB
 90
      255
102
RTVSPost2010PropOp44
 70
     1
102
RTVSPost2010Prop45
280
     0
102
RTVSPost2010PropOp45
 70
     1
102
RTVSPost2010Prop46
 90
       50
102
RTVSPost2010PropOp46
 70
     1
102
RTVSPost2010Prop47
 90
       50
102
RTVSPost2010PropOp47
 70
     1
102
RTVSPost2010Prop48
 90
       50
102
RTVSPost2010PropOp48
 70
     1
102
RTVSPost2010Prop49
280
     0
102
RTVSPost2010PropOp49
 70
     1
102
RTVSPost2010Prop50
 90
       50
102
RTVSPost2010PropOp50
 70
     1
102
RTVSPost2010Prop51ColorIndex
 90
      256
102
RTVSPost2010Prop51ColorRGB
 90
-16777216
102
RTVSPost2010PropOp51
 70
     0
102
RTVSPost2010Prop52
140
1.0
102
RTVSPost2010PropOp52
 70
     0
102
RTVSPost2010Prop53
 90
        2
102
RTVSPost2010PropOp53
 70
     1
102
RTVSPost2010Prop54
  1
strokes_ogs.tif
102
RTVSPost2010PropOp54
 70
     1
102
RTVSPost2010Prop55
280
     0
102
RTVSPost2010PropOp55
 70
     1
102
RTVSPost2010Prop56
140
1.0
102
RTVSPost2010PropOp56
 70
     1
102
RTVSPost2010Prop57
140
1.0
102
RTVSPost2010PropOp57
 70
     1
102
RTVSPropertyOp0
 70
     1
102
RTVSPropertyOp1
 70
     1
102
RTVSPropertyOp2
 70
     1
102
RTVSPropertyOp3
 70
     1
102
RTVSPropertyOp4
 70
     1
102
RTVSPropertyOp5
 70
     1
102
RTVSPropertyOp6
 70
     1
102
RTVSPropertyOp7
 70
     1
102
RTVSPropertyOp8
 70
     1
102
RTVSPropertyOp9
 70
     1
102
RTVSPropertyOp10
 70
     1
102
RTVSPropertyOp11
 70
     1
102
RTVSPropertyOp12
 70
     1
102
RTVSPropertyOp13
 70
     1
102
RTVSPropertyOp14
 70
     1
102
RTVSPropertyOp15
 70
     1
102
RTVSPropertyOp16
 70
     1
102
RTVSPropertyOp17
 70
     1
102
RTVSPropertyOp18
 70
     1
102
RTVSPropertyOp19
 70
     1
102
RTVSPropertyOp20
 70
     1
102
RTVSPropertyOp21
 70
     1
102
RTVSPropertyOp22
 70
     1
102
RTVSPropertyOp23
 70
     1
102
RTVSPropertyOp24
 70
     1
102
RTVSPropertyOp25
 70
     1
102
RTVSPropertyOp26
 70
     1
102
RTVSPropertyOp27
 70
     1
102
RTVSPropertyOp28
 70
     1
102
RTVSPropertyOp29
 70
     1
102
RTVSPropertyOp30
 70
     1
102
RTVSPropertyOp31
 70
     1
102
RTVSPropertyOp32
 70
     1
102
RTVSPropertyOp33
 70
     1
102
RTVSPropertyOp34
 70
     1
102
RTVSPropertyOp35
 70
     1
102
RTVSPropertyOp36
 70
     1
102
RTVSPropertyOp37
 70
     1
102
RTVSPropertyOp38
 70
     1
102
RTVSPropertyOp39
 70
     1
102
RTVSPropertyOp40
 70
     1
102
RTVSPropertyOp41
 70
     1
102
RTVSPropertyOp42
 70
     1
102
RTVSPropertyOp43
 70
     1
102
RTVSPropertyOp44
 70
     1
102
RTVSPropertyOp45
 70
     1
102
RTVSPropertyOp46
 70
     1
102
RTVSPropertyOp47
 70
     1
102
RTVSPropertyOp48
 70
     1
102
RTVSPropertyOp49
 70
     1
102
RTVSPropertyOp50
 70
     1
102
RTVSPropertyOp51
 70
     0
102
RTVSPropertyOp52
 70
     0
102
RTVSPropertyOp53
 70
     1
102
RTVSPropertyOp54
 70
     1
102
RTVSPropertyOp55
 70
     1
102
RTVSPropertyOp56
 70
     1
102
RTVSPropertyOp57
 70
     1
102
RTVSPropertyOp58
 70
     1
102
RTVSPropertyOp59
 70
     1
102
RTVSPropertyOp60
 70
     1
102
RTVSPropertyOp61
 70
     1
102
RTVSPropertyOp62
 70
     1
  0
XRECORD
  5
1057
102
{ACAD_REACTORS
330
1056
102
}
330
1056
100
AcDbXrecord
280
     1
102
RTVSPost2010Prop28
280
     0
102
RTVSPost2010PropOp28
 70
     1
102
RTVSPost2010Prop29
280
     1
102
RTVSPost2010PropOp29
 70
     1
102
RTVSPost2010Prop30
280
     1
102
RTVSPost2010PropOp30
 70
     1
102
RTVSPost2010Prop31
280
     0
102
RTVSPost2010PropOp31
 70
     1
102
RTVSPost2010Prop32
280
     0
102
RTVSPost2010PropOp32
 70
     1
102
RTVSPost2010Prop33
280
     0
102
RTVSPost2010PropOp33
 70
     1
102
RTVSPost2010Prop34
280
     0
102
RTVSPost2010PropOp34
 70
     1
102
RTVSPost2010Prop35
280
     0
102
RTVSPost2010PropOp35
 70
     1
102
RTVSPost2010Prop36
280
     0
102
RTVSPost2010PropOp36
 70
     1
102
RTVSPost2010Prop37
 90
       50
102
RTVSPost2010PropOp37
 70
     1
102
RTVSPost2010Prop38
140
0.0
102
RTVSPost2010PropOp38
 70
     1
102
RTVSPost2010Prop39
140
1.0
102
RTVSPost2010PropOp39
 70
     1
102
RTVSPost2010Prop40
 90
        0
102
RTVSPost2010PropOp40
 70
     1
102
RTVSPost2010Prop41ColorIndex
 90
       18
102
RTVSPost2010Prop41ColorRGB
 90
        0
102
RTVSPost2010PropOp41
 70
     1
102
RTVSPost2010Prop42
 90
       50
102
RTVSPost2010PropOp42
 70
     1
102
RTVSPost2010Prop43
 90
        3
102
RTVSPost2010PropOp43
 70
     1
102
RTVSPost2010Prop44ColorIndex
 90
        5
102
RTVSPost2010Prop44ColorRGB
 90
      255
102
RTVSPost2010PropOp44
 70
     1
102
RTVSPost2010Prop45
280
     0
102
RTVSPost2010PropOp45
 70
     1
102
RTVSPost2010Prop46
 90
       50
102
RTVSPost2010PropOp46
 70
     1
102
RTVSPost2010Prop47
 90
       50
102
RTVSPost2010PropOp47
 70
     1
102
RTVSPost2010Prop48
 90
       50
102
RTVSPost2010PropOp48
 70
     1
102
RTVSPost2010Prop49
280
     0
102
RTVSPost2010PropOp49
 70
     1
102
RTVSPost2010Prop50
 90
       50
102
RTVSPost2010PropOp50
 70
     1
102
RTVSPost2010Prop51ColorIndex
 90
      256
102
RTVSPost2010Prop51ColorRGB
 90
-16777216
102
RTVSPost2010PropOp51
 70
     0
102
RTVSPost2010Prop52
140
1.0
102
RTVSPost2010PropOp52
 70
     0
102
RTVSPost2010Prop53
 90
        2
102
RTVSPost2010PropOp53
 70
     1
102
RTVSPost2010Prop54
  1
strokes_ogs.tif
102
RTVSPost2010PropOp54
 70
     1
102
RTVSPost2010Prop55
280
     0
102
RTVSPost2010PropOp55
 70
     1
102
RTVSPost2010Prop56
140
1.0
102
RTVSPost2010PropOp56
 70
     1
102
RTVSPost2010Prop57
140
1.0
102
RTVSPost2010PropOp57
 70
     1
102
RTVSPropertyOp0
 70
     1
102
RTVSPropertyOp1
 70
     1
102
RTVSPropertyOp2
 70
     1
102
RTVSPropertyOp3
 70
     1
102
RTVSPropertyOp4
 70
     1
102
RTVSPropertyOp5
 70
     1
102
RTVSPropertyOp6
 70
     1
102
RTVSPropertyOp7
 70
     1
102
RTVSPropertyOp8
 70
     1
102
RTVSPropertyOp9
 70
     1
102
RTVSPropertyOp10
 70
     1
102
RTVSPropertyOp11
 70
     1
102
RTVSPropertyOp12
 70
     1
102
RTVSPropertyOp13
 70
     1
102
RTVSPropertyOp14
 70
     1
102
RTVSPropertyOp15
 70
     1
102
RTVSPropertyOp16
 70
     1
102
RTVSPropertyOp17
 70
     1
102
RTVSPropertyOp18
 70
     1
102
RTVSPropertyOp19
 70
     1
102
RTVSPropertyOp20
 70
     1
102
RTVSPropertyOp21
 70
     1
102
RTVSPropertyOp22
 70
     1
102
RTVSPropertyOp23
 70
     1
102
RTVSPropertyOp24
 70
     1
102
RTVSPropertyOp25
 70
     1
102
RTVSPropertyOp26
 70
     1
102
RTVSPropertyOp27
 70
     1
102
RTVSPropertyOp28
 70
     1
102
RTVSPropertyOp29
 70
     1
102
RTVSPropertyOp30
 70
     1
102
RTVSPropertyOp31
 70
     1
102
RTVSPropertyOp32
 70
     1
102
RTVSPropertyOp33
 70
     1
102
RTVSPropertyOp34
 70
     1
102
RTVSPropertyOp35
 70
     1
102
RTVSPropertyOp36
 70
     1
102
RTVSPropertyOp37
 70
     1
102
RTVSPropertyOp38
 70
     1
102
RTVSPropertyOp39
 70
     1
102
RTVSPropertyOp40
 70
     1
102
RTVSPropertyOp41
 70
     1
102
RTVSPropertyOp42
 70
     1
102
RTVSPropertyOp43
 70
     1
102
RTVSPropertyOp44
 70
     1
102
RTVSPropertyOp45
 70
     1
102
RTVSPropertyOp46
 70
     1
102
RTVSPropertyOp47
 70
     1
102
RTVSPropertyOp48
 70
     1
102
RTVSPropertyOp49
 70
     1
102
RTVSPropertyOp50
 70
     1
102
RTVSPropertyOp51
 70
     0
102
RTVSPropertyOp52
 70
     0
102
RTVSPropertyOp53
 70
     1
102
RTVSPropertyOp54
 70
     1
102
RTVSPropertyOp55
 70
     1
102
RTVSPropertyOp56
 70
     1
102
RTVSPropertyOp57
 70
     1
102
RTVSPropertyOp58
 70
     1
102
RTVSPropertyOp59
 70
     1
102
RTVSPropertyOp60
 70
     1
102
RTVSPropertyOp61
 70
     1
102
RTVSPropertyOp62
 70
     1
  0
XRECORD
  5
1049
102
{ACAD_REACTORS
330
1048
102
}
330
1048
100
AcDbXrecord
280
     1
102
RTVSPost2010Prop28
280
     0
102
RTVSPost2010PropOp28
 70
     1
102
RTVSPost2010Prop29
280
     1
102
RTVSPost2010PropOp29
 70
     1
102
RTVSPost2010Prop30
280
     1
102
RTVSPost2010PropOp30
 70
     1
102
RTVSPost2010Prop31
280
     0
102
RTVSPost2010PropOp31
 70
     1
102
RTVSPost2010Prop32
280
     0
102
RTVSPost2010PropOp32
 70
     1
102
RTVSPost2010Prop33
280
     0
102
RTVSPost2010PropOp33
 70
     1
102
RTVSPost2010Prop34
280
     0
102
RTVSPost2010PropOp34
 70
     1
102
RTVSPost2010Prop35
280
     0
102
RTVSPost2010PropOp35
 70
     1
102
RTVSPost2010Prop36
280
     0
102
RTVSPost2010PropOp36
 70
     1
102
RTVSPost2010Prop37
 90
       50
102
RTVSPost2010PropOp37
 70
     1
102
RTVSPost2010Prop38
140
0.0
102
RTVSPost2010PropOp38
 70
     1
102
RTVSPost2010Prop39
140
1.0
102
RTVSPost2010PropOp39
 70
     1
102
RTVSPost2010Prop40
 90
        0
102
RTVSPost2010PropOp40
 70
     1
102
RTVSPost2010Prop41ColorIndex
 90
       18
102
RTVSPost2010Prop41ColorRGB
 90
        0
102
RTVSPost2010PropOp41
 70
     1
102
RTVSPost2010Prop42
 90
       50
102
RTVSPost2010PropOp42
 70
     1
102
RTVSPost2010Prop43
 90
        3
102
RTVSPost2010PropOp43
 70
     1
102
RTVSPost2010Prop44ColorIndex
 90
        5
102
RTVSPost2010Prop44ColorRGB
 90
      255
102
RTVSPost2010PropOp44
 70
     1
102
RTVSPost2010Prop45
280
     0
102
RTVSPost2010PropOp45
 70
     1
102
RTVSPost2010Prop46
 90
       50
102
RTVSPost2010PropOp46
 70
     1
102
RTVSPost2010Prop47
 90
       50
102
RTVSPost2010PropOp47
 70
     1
102
RTVSPost2010Prop48
 90
       50
102
RTVSPost2010PropOp48
 70
     1
102
RTVSPost2010Prop49
280
     0
102
RTVSPost2010PropOp49
 70
     1
102
RTVSPost2010Prop50
 90
       50
102
RTVSPost2010PropOp50
 70
     1
102
RTVSPost2010Prop51ColorIndex
 90
      256
102
RTVSPost2010Prop51ColorRGB
 90
-16777216
102
RTVSPost2010PropOp51
 70
     0
102
RTVSPost2010Prop52
140
1.0
102
RTVSPost2010PropOp52
 70
     0
102
RTVSPost2010Prop53
 90
        2
102
RTVSPost2010PropOp53
 70
     1
102
RTVSPost2010Prop54
  1
strokes_ogs.tif
102
RTVSPost2010PropOp54
 70
     1
102
RTVSPost2010Prop55
280
     0
102
RTVSPost2010PropOp55
 70
     1
102
RTVSPost2010Prop56
140
1.0
102
RTVSPost2010PropOp56
 70
     1
102
RTVSPost2010Prop57
140
1.0
102
RTVSPost2010PropOp57
 70
     1
102
RTVSPropertyOp0
 70
     1
102
RTVSPropertyOp1
 70
     1
102
RTVSPropertyOp2
 70
     1
102
RTVSPropertyOp3
 70
     1
102
RTVSPropertyOp4
 70
     1
102
RTVSPropertyOp5
 70
     1
102
RTVSPropertyOp6
 70
     1
102
RTVSPropertyOp7
 70
     1
102
RTVSPropertyOp8
 70
     1
102
RTVSPropertyOp9
 70
     1
102
RTVSPropertyOp10
 70
     1
102
RTVSPropertyOp11
 70
     1
102
RTVSPropertyOp12
 70
     1
102
RTVSPropertyOp13
 70
     1
102
RTVSPropertyOp14
 70
     1
102
RTVSPropertyOp15
 70
     1
102
RTVSPropertyOp16
 70
     1
102
RTVSPropertyOp17
 70
     1
102
RTVSPropertyOp18
 70
     1
102
RTVSPropertyOp19
 70
     1
102
RTVSPropertyOp20
 70
     1
102
RTVSPropertyOp21
 70
     1
102
RTVSPropertyOp22
 70
     1
102
RTVSPropertyOp23
 70
     1
102
RTVSPropertyOp24
 70
     1
102
RTVSPropertyOp25
 70
     1
102
RTVSPropertyOp26
 70
     1
102
RTVSPropertyOp27
 70
     1
102
RTVSPropertyOp28
 70
     1
102
RTVSPropertyOp29
 70
     1
102
RTVSPropertyOp30
 70
     1
102
RTVSPropertyOp31
 70
     1
102
RTVSPropertyOp32
 70
     1
102
RTVSPropertyOp33
 70
     1
102
RTVSPropertyOp34
 70
     1
102
RTVSPropertyOp35
 70
     1
102
RTVSPropertyOp36
 70
     1
102
RTVSPropertyOp37
 70
     1
102
RTVSPropertyOp38
 70
     1
102
RTVSPropertyOp39
 70
     1
102
RTVSPropertyOp40
 70
     1
102
RTVSPropertyOp41
 70
     1
102
RTVSPropertyOp42
 70
     1
102
RTVSPropertyOp43
 70
     1
102
RTVSPropertyOp44
 70
     1
102
RTVSPropertyOp45
 70
     1
102
RTVSPropertyOp46
 70
     1
102
RTVSPropertyOp47
 70
     1
102
RTVSPropertyOp48
 70
     1
102
RTVSPropertyOp49
 70
     1
102
RTVSPropertyOp50
 70
     1
102
RTVSPropertyOp51
 70
     0
102
RTVSPropertyOp52
 70
     0
102
RTVSPropertyOp53
 70
     1
102
RTVSPropertyOp54
 70
     1
102
RTVSPropertyOp55
 70
     1
102
RTVSPropertyOp56
 70
     1
102
RTVSPropertyOp57
 70
     1
102
RTVSPropertyOp58
 70
     1
102
RTVSPropertyOp59
 70
     1
102
RTVSPropertyOp60
 70
     1
102
RTVSPropertyOp61
 70
     1
102
RTVSPropertyOp62
 70
     1
  0
XRECORD
  5
104D
102
{ACAD_REACTORS
330
104C
102
}
330
104C
100
AcDbXrecord
280
     1
102
RTVSPost2010Prop28
280
     0
102
RTVSPost2010PropOp28
 70
     1
102
RTVSPost2010Prop29
280
     1
102
RTVSPost2010PropOp29
 70
     1
102
RTVSPost2010Prop30
280
     1
102
RTVSPost2010PropOp30
 70
     1
102
RTVSPost2010Prop31
280
     0
102
RTVSPost2010PropOp31
 70
     1
102
RTVSPost2010Prop32
280
     0
102
RTVSPost2010PropOp32
 70
     1
102
RTVSPost2010Prop33
280
     0
102
RTVSPost2010PropOp33
 70
     1
102
RTVSPost2010Prop34
280
     0
102
RTVSPost2010PropOp34
 70
     1
102
RTVSPost2010Prop35
280
     0
102
RTVSPost2010PropOp35
 70
     1
102
RTVSPost2010Prop36
280
     0
102
RTVSPost2010PropOp36
 70
     1
102
RTVSPost2010Prop37
 90
       50
102
RTVSPost2010PropOp37
 70
     1
102
RTVSPost2010Prop38
140
0.0
102
RTVSPost2010PropOp38
 70
     1
102
RTVSPost2010Prop39
140
1.0
102
RTVSPost2010PropOp39
 70
     1
102
RTVSPost2010Prop40
 90
        0
102
RTVSPost2010PropOp40
 70
     1
102
RTVSPost2010Prop41ColorIndex
 90
       18
102
RTVSPost2010Prop41ColorRGB
 90
        0
102
RTVSPost2010PropOp41
 70
     1
102
RTVSPost2010Prop42
 90
       50
102
RTVSPost2010PropOp42
 70
     1
102
RTVSPost2010Prop43
 90
        3
102
RTVSPost2010PropOp43
 70
     1
102
RTVSPost2010Prop44ColorIndex
 90
        5
102
RTVSPost2010Prop44ColorRGB
 90
      255
102
RTVSPost2010PropOp44
 70
     1
102
RTVSPost2010Prop45
280
     0
102
RTVSPost2010PropOp45
 70
     1
102
RTVSPost2010Prop46
 90
       50
102
RTVSPost2010PropOp46
 70
     1
102
RTVSPost2010Prop47
 90
       50
102
RTVSPost2010PropOp47
 70
     1
102
RTVSPost2010Prop48
 90
       50
102
RTVSPost2010PropOp48
 70
     1
102
RTVSPost2010Prop49
280
     0
102
RTVSPost2010PropOp49
 70
     1
102
RTVSPost2010Prop50
 90
       50
102
RTVSPost2010PropOp50
 70
     1
102
RTVSPost2010Prop51ColorIndex
 90
      256
102
RTVSPost2010Prop51ColorRGB
 90
-16777216
102
RTVSPost2010PropOp51
 70
     0
102
RTVSPost2010Prop52
140
1.0
102
RTVSPost2010PropOp52
 70
     0
102
RTVSPost2010Prop53
 90
        2
102
RTVSPost2010PropOp53
 70
     1
102
RTVSPost2010Prop54
  1
strokes_ogs.tif
102
RTVSPost2010PropOp54
 70
     1
102
RTVSPost2010Prop55
280
     0
102
RTVSPost2010PropOp55
 70
     1
102
RTVSPost2010Prop56
140
1.0
102
RTVSPost2010PropOp56
 70
     1
102
RTVSPost2010Prop57
140
1.0
102
RTVSPost2010PropOp57
 70
     1
102
RTVSPropertyOp0
 70
     1
102
RTVSPropertyOp1
 70
     1
102
RTVSPropertyOp2
 70
     1
102
RTVSPropertyOp3
 70
     1
102
RTVSPropertyOp4
 70
     1
102
RTVSPropertyOp5
 70
     1
102
RTVSPropertyOp6
 70
     1
102
RTVSPropertyOp7
 70
     1
102
RTVSPropertyOp8
 70
     1
102
RTVSPropertyOp9
 70
     1
102
RTVSPropertyOp10
 70
     1
102
RTVSPropertyOp11
 70
     1
102
RTVSPropertyOp12
 70
     1
102
RTVSPropertyOp13
 70
     1
102
RTVSPropertyOp14
 70
     1
102
RTVSPropertyOp15
 70
     1
102
RTVSPropertyOp16
 70
     1
102
RTVSPropertyOp17
 70
     1
102
RTVSPropertyOp18
 70
     1
102
RTVSPropertyOp19
 70
     1
102
RTVSPropertyOp20
 70
     1
102
RTVSPropertyOp21
 70
     1
102
RTVSPropertyOp22
 70
     1
102
RTVSPropertyOp23
 70
     1
102
RTVSPropertyOp24
 70
     1
102
RTVSPropertyOp25
 70
     1
102
RTVSPropertyOp26
 70
     1
102
RTVSPropertyOp27
 70
     1
102
RTVSPropertyOp28
 70
     1
102
RTVSPropertyOp29
 70
     1
102
RTVSPropertyOp30
 70
     1
102
RTVSPropertyOp31
 70
     1
102
RTVSPropertyOp32
 70
     1
102
RTVSPropertyOp33
 70
     1
102
RTVSPropertyOp34
 70
     1
102
RTVSPropertyOp35
 70
     1
102
RTVSPropertyOp36
 70
     1
102
RTVSPropertyOp37
 70
     1
102
RTVSPropertyOp38
 70
     1
102
RTVSPropertyOp39
 70
     1
102
RTVSPropertyOp40
 70
     1
102
RTVSPropertyOp41
 70
     1
102
RTVSPropertyOp42
 70
     1
102
RTVSPropertyOp43
 70
     1
102
RTVSPropertyOp44
 70
     1
102
RTVSPropertyOp45
 70
     1
102
RTVSPropertyOp46
 70
     1
102
RTVSPropertyOp47
 70
     1
102
RTVSPropertyOp48
 70
     1
102
RTVSPropertyOp49
 70
     1
102
RTVSPropertyOp50
 70
     1
102
RTVSPropertyOp51
 70
     0
102
RTVSPropertyOp52
 70
     0
102
RTVSPropertyOp53
 70
     1
102
RTVSPropertyOp54
 70
     1
102
RTVSPropertyOp55
 70
     1
102
RTVSPropertyOp56
 70
     1
102
RTVSPropertyOp57
 70
     1
102
RTVSPropertyOp58
 70
     1
102
RTVSPropertyOp59
 70
     1
102
RTVSPropertyOp60
 70
     1
102
RTVSPropertyOp61
 70
     1
102
RTVSPropertyOp62
 70
     1
  0
XRECORD
  5
1067
102
{ACAD_REACTORS
330
1066
102
}
330
1066
100
AcDbXrecord
280
     1
102
RTVSPost2010Prop28
280
     0
102
RTVSPost2010PropOp28
 70
     1
102
RTVSPost2010Prop29
280
     1
102
RTVSPost2010PropOp29
 70
     1
102
RTVSPost2010Prop30
280
     1
102
RTVSPost2010PropOp30
 70
     1
102
RTVSPost2010Prop31
280
     0
102
RTVSPost2010PropOp31
 70
     1
102
RTVSPost2010Prop32
280
     0
102
RTVSPost2010PropOp32
 70
     1
102
RTVSPost2010Prop33
280
     0
102
RTVSPost2010PropOp33
 70
     1
102
RTVSPost2010Prop34
280
     0
102
RTVSPost2010PropOp34
 70
     1
102
RTVSPost2010Prop35
280
     0
102
RTVSPost2010PropOp35
 70
     1
102
RTVSPost2010Prop36
280
     0
102
RTVSPost2010PropOp36
 70
     1
102
RTVSPost2010Prop37
 90
       50
102
RTVSPost2010PropOp37
 70
     0
102
RTVSPost2010Prop38
140
0.0
102
RTVSPost2010PropOp38
 70
     0
102
RTVSPost2010Prop39
140
1.0
102
RTVSPost2010PropOp39
 70
     0
102
RTVSPost2010Prop40
 90
        0
102
RTVSPost2010PropOp40
 70
     0
102
RTVSPost2010Prop41ColorIndex
 90
       18
102
RTVSPost2010Prop41ColorRGB
 90
        0
102
RTVSPost2010PropOp41
 70
     0
102
RTVSPost2010Prop42
 90
       50
102
RTVSPost2010PropOp42
 70
     0
102
RTVSPost2010Prop43
 90
        3
102
RTVSPost2010PropOp43
 70
     0
102
RTVSPost2010Prop44ColorIndex
 90
        5
102
RTVSPost2010Prop44ColorRGB
 90
      255
102
RTVSPost2010PropOp44
 70
     0
102
RTVSPost2010Prop45
280
     0
102
RTVSPost2010PropOp45
 70
     1
102
RTVSPost2010Prop46
 90
       50
102
RTVSPost2010PropOp46
 70
     0
102
RTVSPost2010Prop47
 90
       50
102
RTVSPost2010PropOp47
 70
     0
102
RTVSPost2010Prop48
 90
       50
102
RTVSPost2010PropOp48
 70
     0
102
RTVSPost2010Prop49
280
     0
102
RTVSPost2010PropOp49
 70
     1
102
RTVSPost2010Prop50
 90
       50
102
RTVSPost2010PropOp50
 70
     0
102
RTVSPost2010Prop51ColorIndex
 90
      256
102
RTVSPost2010Prop51ColorRGB
 90
-16777216
102
RTVSPost2010PropOp51
 70
     0
102
RTVSPost2010Prop52
140
1.0
102
RTVSPost2010PropOp52
 70
     0
102
RTVSPost2010Prop53
 90
        2
102
RTVSPost2010PropOp53
 70
     0
102
RTVSPost2010Prop54
  1
strokes_ogs.tif
102
RTVSPost2010PropOp54
 70
     0
102
RTVSPost2010Prop55
280
     0
102
RTVSPost2010PropOp55
 70
     1
102
RTVSPost2010Prop56
140
1.0
102
RTVSPost2010PropOp56
 70
     0
102
RTVSPost2010Prop57
140
1.0
102
RTVSPost2010PropOp57
 70
     0
102
RTVSPropertyOp0
 70
     0
102
RTVSPropertyOp1
 70
     0
102
RTVSPropertyOp2
 70
     0
102
RTVSPropertyOp3
 70
     0
102
RTVSPropertyOp4
 70
     0
102
RTVSPropertyOp5
 70
     0
102
RTVSPropertyOp6
 70
     0
102
RTVSPropertyOp7
 70
     0
102
RTVSPropertyOp8
 70
     0
102
RTVSPropertyOp9
 70
     0
102
RTVSPropertyOp10
 70
     0
102
RTVSPropertyOp11
 70
     0
102
RTVSPropertyOp12
 70
     0
102
RTVSPropertyOp13
 70
     0
102
RTVSPropertyOp14
 70
     2
102
RTVSPropertyOp15
 70
     0
102
RTVSPropertyOp16
 70
     0
102
RTVSPropertyOp17
 70
     0
102
RTVSPropertyOp18
 70
     0
102
RTVSPropertyOp19
 70
     0
102
RTVSPropertyOp20
 70
     0
102
RTVSPropertyOp21
 70
     0
102
RTVSPropertyOp22
 70
     0
102
RTVSPropertyOp23
 70
     0
102
RTVSPropertyOp24
 70
     0
102
RTVSPropertyOp25
 70
     0
102
RTVSPropertyOp26
 70
     0
102
RTVSPropertyOp27
 70
     0
102
RTVSPropertyOp28
 70
     1
102
RTVSPropertyOp29
 70
     1
102
RTVSPropertyOp30
 70
     1
102
RTVSPropertyOp31
 70
     1
102
RTVSPropertyOp32
 70
     1
102
RTVSPropertyOp33
 70
     1
102
RTVSPropertyOp34
 70
     1
102
RTVSPropertyOp35
 70
     1
102
RTVSPropertyOp36
 70
     1
102
RTVSPropertyOp37
 70
     0
102
RTVSPropertyOp38
 70
     0
102
RTVSPropertyOp39
 70
     0
102
RTVSPropertyOp40
 70
     0
102
RTVSPropertyOp41
 70
     0
102
RTVSPropertyOp42
 70
     0
102
RTVSPropertyOp43
 70
     0
102
RTVSPropertyOp44
 70
     0
102
RTVSPropertyOp45
 70
     1
102
RTVSPropertyOp46
 70
     0
102
RTVSPropertyOp47
 70
     0
102
RTVSPropertyOp48
 70
     0
102
RTVSPropertyOp49
 70
     1
102
RTVSPropertyOp50
 70
     0
102
RTVSPropertyOp51
 70
     0
102
RTVSPropertyOp52
 70
     0
102
RTVSPropertyOp53
 70
     0
102
RTVSPropertyOp54
 70
     0
102
RTVSPropertyOp55
 70
     1
102
RTVSPropertyOp56
 70
     0
102
RTVSPropertyOp57
 70
     0
102
RTVSPropertyOp58
 70
     0
102
RTVSPropertyOp59
 70
     0
102
RTVSPropertyOp60
 70
     0
102
RTVSPropertyOp61
 70
     0
102
RTVSPropertyOp62
 70
     0
  0
XRECORD
  5
1055
102
{ACAD_REACTORS
330
1054
102
}
330
1054
100
AcDbXrecord
280
     1
102
RTVSPost2010Prop28
280
     0
102
RTVSPost2010PropOp28
 70
     1
102
RTVSPost2010Prop29
280
     1
102
RTVSPost2010PropOp29
 70
     1
102
RTVSPost2010Prop30
280
     1
102
RTVSPost2010PropOp30
 70
     1
102
RTVSPost2010Prop31
280
     0
102
RTVSPost2010PropOp31
 70
     1
102
RTVSPost2010Prop32
280
     0
102
RTVSPost2010PropOp32
 70
     1
102
RTVSPost2010Prop33
280
     0
102
RTVSPost2010PropOp33
 70
     1
102
RTVSPost2010Prop34
280
     0
102
RTVSPost2010PropOp34
 70
     1
102
RTVSPost2010Prop35
280
     0
102
RTVSPost2010PropOp35
 70
     1
102
RTVSPost2010Prop36
280
     0
102
RTVSPost2010PropOp36
 70
     1
102
RTVSPost2010Prop37
 90
       50
102
RTVSPost2010PropOp37
 70
     1
102
RTVSPost2010Prop38
140
0.0
102
RTVSPost2010PropOp38
 70
     1
102
RTVSPost2010Prop39
140
1.0
102
RTVSPost2010PropOp39
 70
     1
102
RTVSPost2010Prop40
 90
        0
102
RTVSPost2010PropOp40
 70
     1
102
RTVSPost2010Prop41ColorIndex
 90
       18
102
RTVSPost2010Prop41ColorRGB
 90
        0
102
RTVSPost2010PropOp41
 70
     1
102
RTVSPost2010Prop42
 90
       50
102
RTVSPost2010PropOp42
 70
     1
102
RTVSPost2010Prop43
 90
        3
102
RTVSPost2010PropOp43
 70
     1
102
RTVSPost2010Prop44ColorIndex
 90
        5
102
RTVSPost2010Prop44ColorRGB
 90
      255
102
RTVSPost2010PropOp44
 70
     1
102
RTVSPost2010Prop45
280
     0
102
RTVSPost2010PropOp45
 70
     1
102
RTVSPost2010Prop46
 90
       50
102
RTVSPost2010PropOp46
 70
     1
102
RTVSPost2010Prop47
 90
       50
102
RTVSPost2010PropOp47
 70
     1
102
RTVSPost2010Prop48
 90
       50
102
RTVSPost2010PropOp48
 70
     1
102
RTVSPost2010Prop49
280
     0
102
RTVSPost2010PropOp49
 70
     1
102
RTVSPost2010Prop50
 90
       50
102
RTVSPost2010PropOp50
 70
     1
102
RTVSPost2010Prop51ColorIndex
 90
      256
102
RTVSPost2010Prop51ColorRGB
 90
-16777216
102
RTVSPost2010PropOp51
 70
     0
102
RTVSPost2010Prop52
140
1.0
102
RTVSPost2010PropOp52
 70
     0
102
RTVSPost2010Prop53
 90
        2
102
RTVSPost2010PropOp53
 70
     1
102
RTVSPost2010Prop54
  1
strokes_ogs.tif
102
RTVSPost2010PropOp54
 70
     1
102
RTVSPost2010Prop55
280
     0
102
RTVSPost2010PropOp55
 70
     1
102
RTVSPost2010Prop56
140
1.0
102
RTVSPost2010PropOp56
 70
     1
102
RTVSPost2010Prop57
140
1.0
102
RTVSPost2010PropOp57
 70
     1
102
RTVSPropertyOp0
 70
     1
102
RTVSPropertyOp1
 70
     1
102
RTVSPropertyOp2
 70
     1
102
RTVSPropertyOp3
 70
     1
102
RTVSPropertyOp4
 70
     1
102
RTVSPropertyOp5
 70
     1
102
RTVSPropertyOp6
 70
     1
102
RTVSPropertyOp7
 70
     1
102
RTVSPropertyOp8
 70
     1
102
RTVSPropertyOp9
 70
     1
102
RTVSPropertyOp10
 70
     1
102
RTVSPropertyOp11
 70
     1
102
RTVSPropertyOp12
 70
     1
102
RTVSPropertyOp13
 70
     1
102
RTVSPropertyOp14
 70
     1
102
RTVSPropertyOp15
 70
     1
102
RTVSPropertyOp16
 70
     1
102
RTVSPropertyOp17
 70
     1
102
RTVSPropertyOp18
 70
     1
102
RTVSPropertyOp19
 70
     1
102
RTVSPropertyOp20
 70
     1
102
RTVSPropertyOp21
 70
     1
102
RTVSPropertyOp22
 70
     1
102
RTVSPropertyOp23
 70
     1
102
RTVSPropertyOp24
 70
     1
102
RTVSPropertyOp25
 70
     1
102
RTVSPropertyOp26
 70
     1
102
RTVSPropertyOp27
 70
     1
102
RTVSPropertyOp28
 70
     1
102
RTVSPropertyOp29
 70
     1
102
RTVSPropertyOp30
 70
     1
102
RTVSPropertyOp31
 70
     1
102
RTVSPropertyOp32
 70
     1
102
RTVSPropertyOp33
 70
     1
102
RTVSPropertyOp34
 70
     1
102
RTVSPropertyOp35
 70
     1
102
RTVSPropertyOp36
 70
     1
102
RTVSPropertyOp37
 70
     1
102
RTVSPropertyOp38
 70
     1
102
RTVSPropertyOp39
 70
     1
102
RTVSPropertyOp40
 70
     1
102
RTVSPropertyOp41
 70
     1
102
RTVSPropertyOp42
 70
     1
102
RTVSPropertyOp43
 70
     1
102
RTVSPropertyOp44
 70
     1
102
RTVSPropertyOp45
 70
     1
102
RTVSPropertyOp46
 70
     1
102
RTVSPropertyOp47
 70
     1
102
RTVSPropertyOp48
 70
     1
102
RTVSPropertyOp49
 70
     1
102
RTVSPropertyOp50
 70
     1
102
RTVSPropertyOp51
 70
     0
102
RTVSPropertyOp52
 70
     0
102
RTVSPropertyOp53
 70
     1
102
RTVSPropertyOp54
 70
     1
102
RTVSPropertyOp55
 70
     1
102
RTVSPropertyOp56
 70
     1
102
RTVSPropertyOp57
 70
     1
102
RTVSPropertyOp58
 70
     1
102
RTVSPropertyOp59
 70
     1
102
RTVSPropertyOp60
 70
     1
102
RTVSPropertyOp61
 70
     1
102
RTVSPropertyOp62
 70
     1
  0
XRECORD
  5
1039
102
{ACAD_REACTORS
330
1038
102
}
330
1038
100
AcDbXrecord
280
     1
102
RTVSPost2010Prop28
280
     0
102
RTVSPost2010PropOp28
 70
     1
102
RTVSPost2010Prop29
280
     1
102
RTVSPost2010PropOp29
 70
     1
102
RTVSPost2010Prop30
280
     1
102
RTVSPost2010PropOp30
 70
     1
102
RTVSPost2010Prop31
280
     0
102
RTVSPost2010PropOp31
 70
     1
102
RTVSPost2010Prop32
280
     0
102
RTVSPost2010PropOp32
 70
     1
102
RTVSPost2010Prop33
280
     0
102
RTVSPost2010PropOp33
 70
     1
102
RTVSPost2010Prop34
280
     0
102
RTVSPost2010PropOp34
 70
     1
102
RTVSPost2010Prop35
280
     0
102
RTVSPost2010PropOp35
 70
     1
102
RTVSPost2010Prop36
280
     0
102
RTVSPost2010PropOp36
 70
     1
102
RTVSPost2010Prop37
 90
       50
102
RTVSPost2010PropOp37
 70
     1
102
RTVSPost2010Prop38
140
0.0
102
RTVSPost2010PropOp38
 70
     1
102
RTVSPost2010Prop39
140
1.0
102
RTVSPost2010PropOp39
 70
     1
102
RTVSPost2010Prop40
 90
        0
102
RTVSPost2010PropOp40
 70
     1
102
RTVSPost2010Prop41ColorIndex
 90
       18
102
RTVSPost2010Prop41ColorRGB
 90
        0
102
RTVSPost2010PropOp41
 70
     1
102
RTVSPost2010Prop42
 90
       50
102
RTVSPost2010PropOp42
 70
     1
102
RTVSPost2010Prop43
 90
        3
102
RTVSPost2010PropOp43
 70
     1
102
RTVSPost2010Prop44ColorIndex
 90
        5
102
RTVSPost2010Prop44ColorRGB
 90
      255
102
RTVSPost2010PropOp44
 70
     1
102
RTVSPost2010Prop45
280
     0
102
RTVSPost2010PropOp45
 70
     1
102
RTVSPost2010Prop46
 90
       50
102
RTVSPost2010PropOp46
 70
     1
102
RTVSPost2010Prop47
 90
       50
102
RTVSPost2010PropOp47
 70
     1
102
RTVSPost2010Prop48
 90
       50
102
RTVSPost2010PropOp48
 70
     1
102
RTVSPost2010Prop49
280
     0
102
RTVSPost2010PropOp49
 70
     1
102
RTVSPost2010Prop50
 90
       50
102
RTVSPost2010PropOp50
 70
     1
102
RTVSPost2010Prop51ColorIndex
 90
      256
102
RTVSPost2010Prop51ColorRGB
 90
-16777216
102
RTVSPost2010PropOp51
 70
     0
102
RTVSPost2010Prop52
140
1.0
102
RTVSPost2010PropOp52
 70
     0
102
RTVSPost2010Prop53
 90
        2
102
RTVSPost2010PropOp53
 70
     1
102
RTVSPost2010Prop54
  1
strokes_ogs.tif
102
RTVSPost2010PropOp54
 70
     1
102
RTVSPost2010Prop55
280
     0
102
RTVSPost2010PropOp55
 70
     1
102
RTVSPost2010Prop56
140
1.0
102
RTVSPost2010PropOp56
 70
     1
102
RTVSPost2010Prop57
140
1.0
102
RTVSPost2010PropOp57
 70
     1
102
RTVSPropertyOp0
 70
     1
102
RTVSPropertyOp1
 70
     1
102
RTVSPropertyOp2
 70
     1
102
RTVSPropertyOp3
 70
     1
102
RTVSPropertyOp4
 70
     1
102
RTVSPropertyOp5
 70
     1
102
RTVSPropertyOp6
 70
     1
102
RTVSPropertyOp7
 70
     1
102
RTVSPropertyOp8
 70
     1
102
RTVSPropertyOp9
 70
     1
102
RTVSPropertyOp10
 70
     1
102
RTVSPropertyOp11
 70
     1
102
RTVSPropertyOp12
 70
     1
102
RTVSPropertyOp13
 70
     1
102
RTVSPropertyOp14
 70
     1
102
RTVSPropertyOp15
 70
     1
102
RTVSPropertyOp16
 70
     1
102
RTVSPropertyOp17
 70
     1
102
RTVSPropertyOp18
 70
     1
102
RTVSPropertyOp19
 70
     1
102
RTVSPropertyOp20
 70
     1
102
RTVSPropertyOp21
 70
     1
102
RTVSPropertyOp22
 70
     1
102
RTVSPropertyOp23
 70
     1
102
RTVSPropertyOp24
 70
     1
102
RTVSPropertyOp25
 70
     1
102
RTVSPropertyOp26
 70
     1
102
RTVSPropertyOp27
 70
     1
102
RTVSPropertyOp28
 70
     1
102
RTVSPropertyOp29
 70
     1
102
RTVSPropertyOp30
 70
     1
102
RTVSPropertyOp31
 70
     1
102
RTVSPropertyOp32
 70
     1
102
RTVSPropertyOp33
 70
     1
102
RTVSPropertyOp34
 70
     1
102
RTVSPropertyOp35
 70
     1
102
RTVSPropertyOp36
 70
     1
102
RTVSPropertyOp37
 70
     1
102
RTVSPropertyOp38
 70
     1
102
RTVSPropertyOp39
 70
     1
102
RTVSPropertyOp40
 70
     1
102
RTVSPropertyOp41
 70
     1
102
RTVSPropertyOp42
 70
     1
102
RTVSPropertyOp43
 70
     1
102
RTVSPropertyOp44
 70
     1
102
RTVSPropertyOp45
 70
     1
102
RTVSPropertyOp46
 70
     1
102
RTVSPropertyOp47
 70
     1
102
RTVSPropertyOp48
 70
     1
102
RTVSPropertyOp49
 70
     1
102
RTVSPropertyOp50
 70
     1
102
RTVSPropertyOp51
 70
     0
102
RTVSPropertyOp52
 70
     0
102
RTVSPropertyOp53
 70
     1
102
RTVSPropertyOp54
 70
     1
102
RTVSPropertyOp55
 70
     1
102
RTVSPropertyOp56
 70
     1
102
RTVSPropertyOp57
 70
     1
102
RTVSPropertyOp58
 70
     1
102
RTVSPropertyOp59
 70
     1
102
RTVSPropertyOp60
 70
     1
102
RTVSPropertyOp61
 70
     1
102
RTVSPropertyOp62
 70
     1
  0
XRECORD
  5
103B
102
{ACAD_REACTORS
330
103A
102
}
330
103A
100
AcDbXrecord
280
     1
102
RTVSPost2010Prop28
280
     0
102
RTVSPost2010PropOp28
 70
     1
102
RTVSPost2010Prop29
280
     1
102
RTVSPost2010PropOp29
 70
     1
102
RTVSPost2010Prop30
280
     1
102
RTVSPost2010PropOp30
 70
     1
102
RTVSPost2010Prop31
280
     0
102
RTVSPost2010PropOp31
 70
     1
102
RTVSPost2010Prop32
280
     0
102
RTVSPost2010PropOp32
 70
     1
102
RTVSPost2010Prop33
280
     0
102
RTVSPost2010PropOp33
 70
     1
102
RTVSPost2010Prop34
280
     0
102
RTVSPost2010PropOp34
 70
     1
102
RTVSPost2010Prop35
280
     0
102
RTVSPost2010PropOp35
 70
     1
102
RTVSPost2010Prop36
280
     0
102
RTVSPost2010PropOp36
 70
     1
102
RTVSPost2010Prop37
 90
       50
102
RTVSPost2010PropOp37
 70
     1
102
RTVSPost2010Prop38
140
0.0
102
RTVSPost2010PropOp38
 70
     1
102
RTVSPost2010Prop39
140
1.0
102
RTVSPost2010PropOp39
 70
     1
102
RTVSPost2010Prop40
 90
        0
102
RTVSPost2010PropOp40
 70
     1
102
RTVSPost2010Prop41ColorIndex
 90
       18
102
RTVSPost2010Prop41ColorRGB
 90
        0
102
RTVSPost2010PropOp41
 70
     1
102
RTVSPost2010Prop42
 90
       50
102
RTVSPost2010PropOp42
 70
     1
102
RTVSPost2010Prop43
 90
        3
102
RTVSPost2010PropOp43
 70
     1
102
RTVSPost2010Prop44ColorIndex
 90
        5
102
RTVSPost2010Prop44ColorRGB
 90
      255
102
RTVSPost2010PropOp44
 70
     1
102
RTVSPost2010Prop45
280
     0
102
RTVSPost2010PropOp45
 70
     1
102
RTVSPost2010Prop46
 90
       50
102
RTVSPost2010PropOp46
 70
     1
102
RTVSPost2010Prop47
 90
       50
102
RTVSPost2010PropOp47
 70
     1
102
RTVSPost2010Prop48
 90
       50
102
RTVSPost2010PropOp48
 70
     1
102
RTVSPost2010Prop49
280
     0
102
RTVSPost2010PropOp49
 70
     1
102
RTVSPost2010Prop50
 90
       50
102
RTVSPost2010PropOp50
 70
     1
102
RTVSPost2010Prop51ColorIndex
 90
      256
102
RTVSPost2010Prop51ColorRGB
 90
-16777216
102
RTVSPost2010PropOp51
 70
     0
102
RTVSPost2010Prop52
140
1.0
102
RTVSPost2010PropOp52
 70
     0
102
RTVSPost2010Prop53
 90
        2
102
RTVSPost2010PropOp53
 70
     1
102
RTVSPost2010Prop54
  1
strokes_ogs.tif
102
RTVSPost2010PropOp54
 70
     1
102
RTVSPost2010Prop55
280
     0
102
RTVSPost2010PropOp55
 70
     1
102
RTVSPost2010Prop56
140
1.0
102
RTVSPost2010PropOp56
 70
     1
102
RTVSPost2010Prop57
140
1.0
102
RTVSPost2010PropOp57
 70
     1
102
RTVSPropertyOp0
 70
     1
102
RTVSPropertyOp1
 70
     1
102
RTVSPropertyOp2
 70
     1
102
RTVSPropertyOp3
 70
     1
102
RTVSPropertyOp4
 70
     1
102
RTVSPropertyOp5
 70
     1
102
RTVSPropertyOp6
 70
     1
102
RTVSPropertyOp7
 70
     1
102
RTVSPropertyOp8
 70
     1
102
RTVSPropertyOp9
 70
     1
102
RTVSPropertyOp10
 70
     1
102
RTVSPropertyOp11
 70
     1
102
RTVSPropertyOp12
 70
     1
102
RTVSPropertyOp13
 70
     1
102
RTVSPropertyOp14
 70
     1
102
RTVSPropertyOp15
 70
     1
102
RTVSPropertyOp16
 70
     1
102
RTVSPropertyOp17
 70
     1
102
RTVSPropertyOp18
 70
     1
102
RTVSPropertyOp19
 70
     1
102
RTVSPropertyOp20
 70
     1
102
RTVSPropertyOp21
 70
     1
102
RTVSPropertyOp22
 70
     1
102
RTVSPropertyOp23
 70
     1
102
RTVSPropertyOp24
 70
     1
102
RTVSPropertyOp25
 70
     1
102
RTVSPropertyOp26
 70
     1
102
RTVSPropertyOp27
 70
     1
102
RTVSPropertyOp28
 70
     1
102
RTVSPropertyOp29
 70
     1
102
RTVSPropertyOp30
 70
     1
102
RTVSPropertyOp31
 70
     1
102
RTVSPropertyOp32
 70
     1
102
RTVSPropertyOp33
 70
     1
102
RTVSPropertyOp34
 70
     1
102
RTVSPropertyOp35
 70
     1
102
RTVSPropertyOp36
 70
     1
102
RTVSPropertyOp37
 70
     1
102
RTVSPropertyOp38
 70
     1
102
RTVSPropertyOp39
 70
     1
102
RTVSPropertyOp40
 70
     1
102
RTVSPropertyOp41
 70
     1
102
RTVSPropertyOp42
 70
     1
102
RTVSPropertyOp43
 70
     1
102
RTVSPropertyOp44
 70
     1
102
RTVSPropertyOp45
 70
     1
102
RTVSPropertyOp46
 70
     1
102
RTVSPropertyOp47
 70
     1
102
RTVSPropertyOp48
 70
     1
102
RTVSPropertyOp49
 70
     1
102
RTVSPropertyOp50
 70
     1
102
RTVSPropertyOp51
 70
     0
102
RTVSPropertyOp52
 70
     0
102
RTVSPropertyOp53
 70
     1
102
RTVSPropertyOp54
 70
     1
102
RTVSPropertyOp55
 70
     1
102
RTVSPropertyOp56
 70
     1
102
RTVSPropertyOp57
 70
     1
102
RTVSPropertyOp58
 70
     1
102
RTVSPropertyOp59
 70
     1
102
RTVSPropertyOp60
 70
     1
102
RTVSPropertyOp61
 70
     1
102
RTVSPropertyOp62
 70
     1
  0
XRECORD
  5
103D
102
{ACAD_REACTORS
330
103C
102
}
330
103C
100
AcDbXrecord
280
     1
102
RTVSPost2010Prop28
280
     0
102
RTVSPost2010PropOp28
 70
     1
102
RTVSPost2010Prop29
280
     1
102
RTVSPost2010PropOp29
 70
     1
102
RTVSPost2010Prop30
280
     1
102
RTVSPost2010PropOp30
 70
     1
102
RTVSPost2010Prop31
280
     0
102
RTVSPost2010PropOp31
 70
     1
102
RTVSPost2010Prop32
280
     0
102
RTVSPost2010PropOp32
 70
     1
102
RTVSPost2010Prop33
280
     0
102
RTVSPost2010PropOp33
 70
     1
102
RTVSPost2010Prop34
280
     0
102
RTVSPost2010PropOp34
 70
     1
102
RTVSPost2010Prop35
280
     0
102
RTVSPost2010PropOp35
 70
     1
102
RTVSPost2010Prop36
280
     0
102
RTVSPost2010PropOp36
 70
     1
102
RTVSPost2010Prop37
 90
       50
102
RTVSPost2010PropOp37
 70
     1
102
RTVSPost2010Prop38
140
0.0
102
RTVSPost2010PropOp38
 70
     1
102
RTVSPost2010Prop39
140
1.0
102
RTVSPost2010PropOp39
 70
     1
102
RTVSPost2010Prop40
 90
        0
102
RTVSPost2010PropOp40
 70
     1
102
RTVSPost2010Prop41ColorIndex
 90
       18
102
RTVSPost2010Prop41ColorRGB
 90
        0
102
RTVSPost2010PropOp41
 70
     1
102
RTVSPost2010Prop42
 90
       50
102
RTVSPost2010PropOp42
 70
     1
102
RTVSPost2010Prop43
 90
        3
102
RTVSPost2010PropOp43
 70
     1
102
RTVSPost2010Prop44ColorIndex
 90
        5
102
RTVSPost2010Prop44ColorRGB
 90
      255
102
RTVSPost2010PropOp44
 70
     1
102
RTVSPost2010Prop45
280
     0
102
RTVSPost2010PropOp45
 70
     1
102
RTVSPost2010Prop46
 90
       50
102
RTVSPost2010PropOp46
 70
     1
102
RTVSPost2010Prop47
 90
       50
102
RTVSPost2010PropOp47
 70
     1
102
RTVSPost2010Prop48
 90
       50
102
RTVSPost2010PropOp48
 70
     1
102
RTVSPost2010Prop49
280
     0
102
RTVSPost2010PropOp49
 70
     1
102
RTVSPost2010Prop50
 90
       50
102
RTVSPost2010PropOp50
 70
     1
102
RTVSPost2010Prop51ColorIndex
 90
      256
102
RTVSPost2010Prop51ColorRGB
 90
-16777216
102
RTVSPost2010PropOp51
 70
     0
102
RTVSPost2010Prop52
140
1.0
102
RTVSPost2010PropOp52
 70
     0
102
RTVSPost2010Prop53
 90
        2
102
RTVSPost2010PropOp53
 70
     1
102
RTVSPost2010Prop54
  1
strokes_ogs.tif
102
RTVSPost2010PropOp54
 70
     1
102
RTVSPost2010Prop55
280
     0
102
RTVSPost2010PropOp55
 70
     1
102
RTVSPost2010Prop56
140
1.0
102
RTVSPost2010PropOp56
 70
     1
102
RTVSPost2010Prop57
140
1.0
102
RTVSPost2010PropOp57
 70
     1
102
RTVSPropertyOp0
 70
     1
102
RTVSPropertyOp1
 70
     1
102
RTVSPropertyOp2
 70
     1
102
RTVSPropertyOp3
 70
     1
102
RTVSPropertyOp4
 70
     1
102
RTVSPropertyOp5
 70
     1
102
RTVSPropertyOp6
 70
     1
102
RTVSPropertyOp7
 70
     1
102
RTVSPropertyOp8
 70
     1
102
RTVSPropertyOp9
 70
     1
102
RTVSPropertyOp10
 70
     1
102
RTVSPropertyOp11
 70
     1
102
RTVSPropertyOp12
 70
     1
102
RTVSPropertyOp13
 70
     1
102
RTVSPropertyOp14
 70
     1
102
RTVSPropertyOp15
 70
     1
102
RTVSPropertyOp16
 70
     1
102
RTVSPropertyOp17
 70
     1
102
RTVSPropertyOp18
 70
     1
102
RTVSPropertyOp19
 70
     1
102
RTVSPropertyOp20
 70
     1
102
RTVSPropertyOp21
 70
     1
102
RTVSPropertyOp22
 70
     1
102
RTVSPropertyOp23
 70
     1
102
RTVSPropertyOp24
 70
     1
102
RTVSPropertyOp25
 70
     1
102
RTVSPropertyOp26
 70
     1
102
RTVSPropertyOp27
 70
     1
102
RTVSPropertyOp28
 70
     1
102
RTVSPropertyOp29
 70
     1
102
RTVSPropertyOp30
 70
     1
102
RTVSPropertyOp31
 70
     1
102
RTVSPropertyOp32
 70
     1
102
RTVSPropertyOp33
 70
     1
102
RTVSPropertyOp34
 70
     1
102
RTVSPropertyOp35
 70
     1
102
RTVSPropertyOp36
 70
     1
102
RTVSPropertyOp37
 70
     1
102
RTVSPropertyOp38
 70
     1
102
RTVSPropertyOp39
 70
     1
102
RTVSPropertyOp40
 70
     1
102
RTVSPropertyOp41
 70
     1
102
RTVSPropertyOp42
 70
     1
102
RTVSPropertyOp43
 70
     1
102
RTVSPropertyOp44
 70
     1
102
RTVSPropertyOp45
 70
     1
102
RTVSPropertyOp46
 70
     1
102
RTVSPropertyOp47
 70
     1
102
RTVSPropertyOp48
 70
     1
102
RTVSPropertyOp49
 70
     1
102
RTVSPropertyOp50
 70
     1
102
RTVSPropertyOp51
 70
     0
102
RTVSPropertyOp52
 70
     0
102
RTVSPropertyOp53
 70
     1
102
RTVSPropertyOp54
 70
     1
102
RTVSPropertyOp55
 70
     1
102
RTVSPropertyOp56
 70
     1
102
RTVSPropertyOp57
 70
     1
102
RTVSPropertyOp58
 70
     1
102
RTVSPropertyOp59
 70
     1
102
RTVSPropertyOp60
 70
     1
102
RTVSPropertyOp61
 70
     1
102
RTVSPropertyOp62
 70
     1
  0
XRECORD
  5
103F
102
{ACAD_REACTORS
330
103E
102
}
330
103E
100
AcDbXrecord
280
     1
102
RTVSPost2010Prop28
280
     0
102
RTVSPost2010PropOp28
 70
     1
102
RTVSPost2010Prop29
280
     1
102
RTVSPost2010PropOp29
 70
     1
102
RTVSPost2010Prop30
280
     1
102
RTVSPost2010PropOp30
 70
     1
102
RTVSPost2010Prop31
280
     0
102
RTVSPost2010PropOp31
 70
     1
102
RTVSPost2010Prop32
280
     0
102
RTVSPost2010PropOp32
 70
     1
102
RTVSPost2010Prop33
280
     0
102
RTVSPost2010PropOp33
 70
     1
102
RTVSPost2010Prop34
280
     0
102
RTVSPost2010PropOp34
 70
     1
102
RTVSPost2010Prop35
280
     0
102
RTVSPost2010PropOp35
 70
     1
102
RTVSPost2010Prop36
280
     0
102
RTVSPost2010PropOp36
 70
     1
102
RTVSPost2010Prop37
 90
       50
102
RTVSPost2010PropOp37
 70
     1
102
RTVSPost2010Prop38
140
0.0
102
RTVSPost2010PropOp38
 70
     1
102
RTVSPost2010Prop39
140
1.0
102
RTVSPost2010PropOp39
 70
     1
102
RTVSPost2010Prop40
 90
        0
102
RTVSPost2010PropOp40
 70
     1
102
RTVSPost2010Prop41ColorIndex
 90
       18
102
RTVSPost2010Prop41ColorRGB
 90
        0
102
RTVSPost2010PropOp41
 70
     1
102
RTVSPost2010Prop42
 90
       50
102
RTVSPost2010PropOp42
 70
     1
102
RTVSPost2010Prop43
 90
        3
102
RTVSPost2010PropOp43
 70
     1
102
RTVSPost2010Prop44ColorIndex
 90
        5
102
RTVSPost2010Prop44ColorRGB
 90
      255
102
RTVSPost2010PropOp44
 70
     1
102
RTVSPost2010Prop45
280
     0
102
RTVSPost2010PropOp45
 70
     1
102
RTVSPost2010Prop46
 90
       50
102
RTVSPost2010PropOp46
 70
     1
102
RTVSPost2010Prop47
 90
       50
102
RTVSPost2010PropOp47
 70
     1
102
RTVSPost2010Prop48
 90
       50
102
RTVSPost2010PropOp48
 70
     1
102
RTVSPost2010Prop49
280
     0
102
RTVSPost2010PropOp49
 70
     1
102
RTVSPost2010Prop50
 90
       50
102
RTVSPost2010PropOp50
 70
     1
102
RTVSPost2010Prop51ColorIndex
 90
      256
102
RTVSPost2010Prop51ColorRGB
 90
-16777216
102
RTVSPost2010PropOp51
 70
     0
102
RTVSPost2010Prop52
140
1.0
102
RTVSPost2010PropOp52
 70
     0
102
RTVSPost2010Prop53
 90
        2
102
RTVSPost2010PropOp53
 70
     1
102
RTVSPost2010Prop54
  1
strokes_ogs.tif
102
RTVSPost2010PropOp54
 70
     1
102
RTVSPost2010Prop55
280
     0
102
RTVSPost2010PropOp55
 70
     1
102
RTVSPost2010Prop56
140
1.0
102
RTVSPost2010PropOp56
 70
     1
102
RTVSPost2010Prop57
140
1.0
102
RTVSPost2010PropOp57
 70
     1
102
RTVSPropertyOp0
 70
     1
102
RTVSPropertyOp1
 70
     1
102
RTVSPropertyOp2
 70
     1
102
RTVSPropertyOp3
 70
     1
102
RTVSPropertyOp4
 70
     1
102
RTVSPropertyOp5
 70
     1
102
RTVSPropertyOp6
 70
     1
102
RTVSPropertyOp7
 70
     1
102
RTVSPropertyOp8
 70
     1
102
RTVSPropertyOp9
 70
     1
102
RTVSPropertyOp10
 70
     1
102
RTVSPropertyOp11
 70
     1
102
RTVSPropertyOp12
 70
     1
102
RTVSPropertyOp13
 70
     1
102
RTVSPropertyOp14
 70
     1
102
RTVSPropertyOp15
 70
     1
102
RTVSPropertyOp16
 70
     1
102
RTVSPropertyOp17
 70
     1
102
RTVSPropertyOp18
 70
     1
102
RTVSPropertyOp19
 70
     1
102
RTVSPropertyOp20
 70
     1
102
RTVSPropertyOp21
 70
     1
102
RTVSPropertyOp22
 70
     1
102
RTVSPropertyOp23
 70
     1
102
RTVSPropertyOp24
 70
     1
102
RTVSPropertyOp25
 70
     1
102
RTVSPropertyOp26
 70
     1
102
RTVSPropertyOp27
 70
     1
102
RTVSPropertyOp28
 70
     1
102
RTVSPropertyOp29
 70
     1
102
RTVSPropertyOp30
 70
     1
102
RTVSPropertyOp31
 70
     1
102
RTVSPropertyOp32
 70
     1
102
RTVSPropertyOp33
 70
     1
102
RTVSPropertyOp34
 70
     1
102
RTVSPropertyOp35
 70
     1
102
RTVSPropertyOp36
 70
     1
102
RTVSPropertyOp37
 70
     1
102
RTVSPropertyOp38
 70
     1
102
RTVSPropertyOp39
 70
     1
102
RTVSPropertyOp40
 70
     1
102
RTVSPropertyOp41
 70
     1
102
RTVSPropertyOp42
 70
     1
102
RTVSPropertyOp43
 70
     1
102
RTVSPropertyOp44
 70
     1
102
RTVSPropertyOp45
 70
     1
102
RTVSPropertyOp46
 70
     1
102
RTVSPropertyOp47
 70
     1
102
RTVSPropertyOp48
 70
     1
102
RTVSPropertyOp49
 70
     1
102
RTVSPropertyOp50
 70
     1
102
RTVSPropertyOp51
 70
     0
102
RTVSPropertyOp52
 70
     0
102
RTVSPropertyOp53
 70
     1
102
RTVSPropertyOp54
 70
     1
102
RTVSPropertyOp55
 70
     1
102
RTVSPropertyOp56
 70
     1
102
RTVSPropertyOp57
 70
     1
102
RTVSPropertyOp58
 70
     1
102
RTVSPropertyOp59
 70
     1
102
RTVSPropertyOp60
 70
     1
102
RTVSPropertyOp61
 70
     1
102
RTVSPropertyOp62
 70
     1
  0
XRECORD
  5
1047
102
{ACAD_REACTORS
330
1046
102
}
330
1046
100
AcDbXrecord
280
     1
102
RTVSPost2010Prop28
280
     0
102
RTVSPost2010PropOp28
 70
     1
102
RTVSPost2010Prop29
280
     1
102
RTVSPost2010PropOp29
 70
     1
102
RTVSPost2010Prop30
280
     1
102
RTVSPost2010PropOp30
 70
     1
102
RTVSPost2010Prop31
280
     0
102
RTVSPost2010PropOp31
 70
     1
102
RTVSPost2010Prop32
280
     0
102
RTVSPost2010PropOp32
 70
     1
102
RTVSPost2010Prop33
280
     0
102
RTVSPost2010PropOp33
 70
     1
102
RTVSPost2010Prop34
280
     0
102
RTVSPost2010PropOp34
 70
     1
102
RTVSPost2010Prop35
280
     0
102
RTVSPost2010PropOp35
 70
     1
102
RTVSPost2010Prop36
280
     0
102
RTVSPost2010PropOp36
 70
     1
102
RTVSPost2010Prop37
 90
       50
102
RTVSPost2010PropOp37
 70
     1
102
RTVSPost2010Prop38
140
0.0
102
RTVSPost2010PropOp38
 70
     1
102
RTVSPost2010Prop39
140
1.0
102
RTVSPost2010PropOp39
 70
     1
102
RTVSPost2010Prop40
 90
        0
102
RTVSPost2010PropOp40
 70
     1
102
RTVSPost2010Prop41ColorIndex
 90
       18
102
RTVSPost2010Prop41ColorRGB
 90
        0
102
RTVSPost2010PropOp41
 70
     1
102
RTVSPost2010Prop42
 90
       50
102
RTVSPost2010PropOp42
 70
     1
102
RTVSPost2010Prop43
 90
        3
102
RTVSPost2010PropOp43
 70
     1
102
RTVSPost2010Prop44ColorIndex
 90
        5
102
RTVSPost2010Prop44ColorRGB
 90
      255
102
RTVSPost2010PropOp44
 70
     1
102
RTVSPost2010Prop45
280
     0
102
RTVSPost2010PropOp45
 70
     1
102
RTVSPost2010Prop46
 90
       50
102
RTVSPost2010PropOp46
 70
     1
102
RTVSPost2010Prop47
 90
       50
102
RTVSPost2010PropOp47
 70
     1
102
RTVSPost2010Prop48
 90
       50
102
RTVSPost2010PropOp48
 70
     1
102
RTVSPost2010Prop49
280
     0
102
RTVSPost2010PropOp49
 70
     1
102
RTVSPost2010Prop50
 90
       50
102
RTVSPost2010PropOp50
 70
     1
102
RTVSPost2010Prop51ColorIndex
 90
      256
102
RTVSPost2010Prop51ColorRGB
 90
-16777216
102
RTVSPost2010PropOp51
 70
     0
102
RTVSPost2010Prop52
140
1.0
102
RTVSPost2010PropOp52
 70
     0
102
RTVSPost2010Prop53
 90
        2
102
RTVSPost2010PropOp53
 70
     1
102
RTVSPost2010Prop54
  1
strokes_ogs.tif
102
RTVSPost2010PropOp54
 70
     1
102
RTVSPost2010Prop55
280
     0
102
RTVSPost2010PropOp55
 70
     1
102
RTVSPost2010Prop56
140
1.0
102
RTVSPost2010PropOp56
 70
     1
102
RTVSPost2010Prop57
140
1.0
102
RTVSPost2010PropOp57
 70
     1
102
RTVSPropertyOp0
 70
     1
102
RTVSPropertyOp1
 70
     1
102
RTVSPropertyOp2
 70
     1
102
RTVSPropertyOp3
 70
     1
102
RTVSPropertyOp4
 70
     1
102
RTVSPropertyOp5
 70
     1
102
RTVSPropertyOp6
 70
     1
102
RTVSPropertyOp7
 70
     1
102
RTVSPropertyOp8
 70
     1
102
RTVSPropertyOp9
 70
     1
102
RTVSPropertyOp10
 70
     1
102
RTVSPropertyOp11
 70
     1
102
RTVSPropertyOp12
 70
     1
102
RTVSPropertyOp13
 70
     1
102
RTVSPropertyOp14
 70
     1
102
RTVSPropertyOp15
 70
     1
102
RTVSPropertyOp16
 70
     1
102
RTVSPropertyOp17
 70
     1
102
RTVSPropertyOp18
 70
     1
102
RTVSPropertyOp19
 70
     1
102
RTVSPropertyOp20
 70
     1
102
RTVSPropertyOp21
 70
     1
102
RTVSPropertyOp22
 70
     1
102
RTVSPropertyOp23
 70
     1
102
RTVSPropertyOp24
 70
     1
102
RTVSPropertyOp25
 70
     1
102
RTVSPropertyOp26
 70
     1
102
RTVSPropertyOp27
 70
     1
102
RTVSPropertyOp28
 70
     1
102
RTVSPropertyOp29
 70
     1
102
RTVSPropertyOp30
 70
     1
102
RTVSPropertyOp31
 70
     1
102
RTVSPropertyOp32
 70
     1
102
RTVSPropertyOp33
 70
     1
102
RTVSPropertyOp34
 70
     1
102
RTVSPropertyOp35
 70
     1
102
RTVSPropertyOp36
 70
     1
102
RTVSPropertyOp37
 70
     1
102
RTVSPropertyOp38
 70
     1
102
RTVSPropertyOp39
 70
     1
102
RTVSPropertyOp40
 70
     1
102
RTVSPropertyOp41
 70
     1
102
RTVSPropertyOp42
 70
     1
102
RTVSPropertyOp43
 70
     1
102
RTVSPropertyOp44
 70
     1
102
RTVSPropertyOp45
 70
     1
102
RTVSPropertyOp46
 70
     1
102
RTVSPropertyOp47
 70
     1
102
RTVSPropertyOp48
 70
     1
102
RTVSPropertyOp49
 70
     1
102
RTVSPropertyOp50
 70
     1
102
RTVSPropertyOp51
 70
     0
102
RTVSPropertyOp52
 70
     0
102
RTVSPropertyOp53
 70
     1
102
RTVSPropertyOp54
 70
     1
102
RTVSPropertyOp55
 70
     1
102
RTVSPropertyOp56
 70
     1
102
RTVSPropertyOp57
 70
     1
102
RTVSPropertyOp58
 70
     1
102
RTVSPropertyOp59
 70
     1
102
RTVSPropertyOp60
 70
     1
102
RTVSPropertyOp61
 70
     1
102
RTVSPropertyOp62
 70
     1
  0
XRECORD
  5
1063
102
{ACAD_REACTORS
330
1062
102
}
330
1062
100
AcDbXrecord
280
     1
102
RTVSPost2010Prop28
280
     0
102
RTVSPost2010PropOp28
 70
     1
102
RTVSPost2010Prop29
280
     1
102
RTVSPost2010PropOp29
 70
     1
102
RTVSPost2010Prop30
280
     1
102
RTVSPost2010PropOp30
 70
     1
102
RTVSPost2010Prop31
280
     0
102
RTVSPost2010PropOp31
 70
     1
102
RTVSPost2010Prop32
280
     0
102
RTVSPost2010PropOp32
 70
     1
102
RTVSPost2010Prop33
280
     0
102
RTVSPost2010PropOp33
 70
     1
102
RTVSPost2010Prop34
280
     0
102
RTVSPost2010PropOp34
 70
     1
102
RTVSPost2010Prop35
280
     0
102
RTVSPost2010PropOp35
 70
     1
102
RTVSPost2010Prop36
280
     0
102
RTVSPost2010PropOp36
 70
     1
102
RTVSPost2010Prop37
 90
       50
102
RTVSPost2010PropOp37
 70
     0
102
RTVSPost2010Prop38
140
0.0
102
RTVSPost2010PropOp38
 70
     0
102
RTVSPost2010Prop39
140
1.0
102
RTVSPost2010PropOp39
 70
     0
102
RTVSPost2010Prop40
 90
        0
102
RTVSPost2010PropOp40
 70
     0
102
RTVSPost2010Prop41ColorIndex
 90
       18
102
RTVSPost2010Prop41ColorRGB
 90
        0
102
RTVSPost2010PropOp41
 70
     0
102
RTVSPost2010Prop42
 90
       50
102
RTVSPost2010PropOp42
 70
     0
102
RTVSPost2010Prop43
 90
        3
102
RTVSPost2010PropOp43
 70
     0
102
RTVSPost2010Prop44ColorIndex
 90
        5
102
RTVSPost2010Prop44ColorRGB
 90
      255
102
RTVSPost2010PropOp44
 70
     0
102
RTVSPost2010Prop45
280
     0
102
RTVSPost2010PropOp45
 70
     1
102
RTVSPost2010Prop46
 90
       50
102
RTVSPost2010PropOp46
 70
     0
102
RTVSPost2010Prop47
 90
       50
102
RTVSPost2010PropOp47
 70
     0
102
RTVSPost2010Prop48
 90
       50
102
RTVSPost2010PropOp48
 70
     0
102
RTVSPost2010Prop49
280
     0
102
RTVSPost2010PropOp49
 70
     1
102
RTVSPost2010Prop50
 90
       50
102
RTVSPost2010PropOp50
 70
     0
102
RTVSPost2010Prop51ColorIndex
 90
      256
102
RTVSPost2010Prop51ColorRGB
 90
-16777216
102
RTVSPost2010PropOp51
 70
     0
102
RTVSPost2010Prop52
140
1.0
102
RTVSPost2010PropOp52
 70
     0
102
RTVSPost2010Prop53
 90
        2
102
RTVSPost2010PropOp53
 70
     0
102
RTVSPost2010Prop54
  1
strokes_ogs.tif
102
RTVSPost2010PropOp54
 70
     0
102
RTVSPost2010Prop55
280
     0
102
RTVSPost2010PropOp55
 70
     1
102
RTVSPost2010Prop56
140
1.0
102
RTVSPost2010PropOp56
 70
     0
102
RTVSPost2010Prop57
140
1.0
102
RTVSPost2010PropOp57
 70
     0
102
RTVSPropertyOp0
 70
     0
102
RTVSPropertyOp1
 70
     0
102
RTVSPropertyOp2
 70
     0
102
RTVSPropertyOp3
 70
     0
102
RTVSPropertyOp4
 70
     0
102
RTVSPropertyOp5
 70
     0
102
RTVSPropertyOp6
 70
     0
102
RTVSPropertyOp7
 70
     0
102
RTVSPropertyOp8
 70
     0
102
RTVSPropertyOp9
 70
     0
102
RTVSPropertyOp10
 70
     0
102
RTVSPropertyOp11
 70
     0
102
RTVSPropertyOp12
 70
     0
102
RTVSPropertyOp13
 70
     0
102
RTVSPropertyOp14
 70
     2
102
RTVSPropertyOp15
 70
     0
102
RTVSPropertyOp16
 70
     0
102
RTVSPropertyOp17
 70
     0
102
RTVSPropertyOp18
 70
     0
102
RTVSPropertyOp19
 70
     0
102
RTVSPropertyOp20
 70
     0
102
RTVSPropertyOp21
 70
     0
102
RTVSPropertyOp22
 70
     0
102
RTVSPropertyOp23
 70
     0
102
RTVSPropertyOp24
 70
     0
102
RTVSPropertyOp25
 70
     0
102
RTVSPropertyOp26
 70
     0
102
RTVSPropertyOp27
 70
     0
102
RTVSPropertyOp28
 70
     1
102
RTVSPropertyOp29
 70
     1
102
RTVSPropertyOp30
 70
     1
102
RTVSPropertyOp31
 70
     1
102
RTVSPropertyOp32
 70
     1
102
RTVSPropertyOp33
 70
     1
102
RTVSPropertyOp34
 70
     1
102
RTVSPropertyOp35
 70
     1
102
RTVSPropertyOp36
 70
     1
102
RTVSPropertyOp37
 70
     0
102
RTVSPropertyOp38
 70
     0
102
RTVSPropertyOp39
 70
     0
102
RTVSPropertyOp40
 70
     0
102
RTVSPropertyOp41
 70
     0
102
RTVSPropertyOp42
 70
     0
102
RTVSPropertyOp43
 70
     0
102
RTVSPropertyOp44
 70
     0
102
RTVSPropertyOp45
 70
     1
102
RTVSPropertyOp46
 70
     0
102
RTVSPropertyOp47
 70
     0
102
RTVSPropertyOp48
 70
     0
102
RTVSPropertyOp49
 70
     1
102
RTVSPropertyOp50
 70
     0
102
RTVSPropertyOp51
 70
     0
102
RTVSPropertyOp52
 70
     0
102
RTVSPropertyOp53
 70
     0
102
RTVSPropertyOp54
 70
     0
102
RTVSPropertyOp55
 70
     1
102
RTVSPropertyOp56
 70
     0
102
RTVSPropertyOp57
 70
     0
102
RTVSPropertyOp58
 70
     0
102
RTVSPropertyOp59
 70
     0
102
RTVSPropertyOp60
 70
     0
102
RTVSPropertyOp61
 70
     0
102
RTVSPropertyOp62
 70
     0
  0
XRECORD
  5
1053
102
{ACAD_REACTORS
330
1052
102
}
330
1052
100
AcDbXrecord
280
     1
102
RTVSPost2010Prop28
280
     0
102
RTVSPost2010PropOp28
 70
     1
102
RTVSPost2010Prop29
280
     1
102
RTVSPost2010PropOp29
 70
     1
102
RTVSPost2010Prop30
280
     1
102
RTVSPost2010PropOp30
 70
     1
102
RTVSPost2010Prop31
280
     0
102
RTVSPost2010PropOp31
 70
     1
102
RTVSPost2010Prop32
280
     0
102
RTVSPost2010PropOp32
 70
     1
102
RTVSPost2010Prop33
280
     0
102
RTVSPost2010PropOp33
 70
     1
102
RTVSPost2010Prop34
280
     0
102
RTVSPost2010PropOp34
 70
     1
102
RTVSPost2010Prop35
280
     0
102
RTVSPost2010PropOp35
 70
     1
102
RTVSPost2010Prop36
280
     0
102
RTVSPost2010PropOp36
 70
     1
102
RTVSPost2010Prop37
 90
       50
102
RTVSPost2010PropOp37
 70
     1
102
RTVSPost2010Prop38
140
0.0
102
RTVSPost2010PropOp38
 70
     1
102
RTVSPost2010Prop39
140
1.0
102
RTVSPost2010PropOp39
 70
     1
102
RTVSPost2010Prop40
 90
        0
102
RTVSPost2010PropOp40
 70
     1
102
RTVSPost2010Prop41ColorIndex
 90
       18
102
RTVSPost2010Prop41ColorRGB
 90
        0
102
RTVSPost2010PropOp41
 70
     1
102
RTVSPost2010Prop42
 90
       50
102
RTVSPost2010PropOp42
 70
     1
102
RTVSPost2010Prop43
 90
        3
102
RTVSPost2010PropOp43
 70
     1
102
RTVSPost2010Prop44ColorIndex
 90
        5
102
RTVSPost2010Prop44ColorRGB
 90
      255
102
RTVSPost2010PropOp44
 70
     1
102
RTVSPost2010Prop45
280
     0
102
RTVSPost2010PropOp45
 70
     1
102
RTVSPost2010Prop46
 90
       50
102
RTVSPost2010PropOp46
 70
     1
102
RTVSPost2010Prop47
 90
       50
102
RTVSPost2010PropOp47
 70
     1
102
RTVSPost2010Prop48
 90
       50
102
RTVSPost2010PropOp48
 70
     1
102
RTVSPost2010Prop49
280
     0
102
RTVSPost2010PropOp49
 70
     1
102
RTVSPost2010Prop50
 90
       50
102
RTVSPost2010PropOp50
 70
     1
102
RTVSPost2010Prop51ColorIndex
 90
      256
102
RTVSPost2010Prop51ColorRGB
 90
-16777216
102
RTVSPost2010PropOp51
 70
     0
102
RTVSPost2010Prop52
140
1.0
102
RTVSPost2010PropOp52
 70
     0
102
RTVSPost2010Prop53
 90
        2
102
RTVSPost2010PropOp53
 70
     1
102
RTVSPost2010Prop54
  1
strokes_ogs.tif
102
RTVSPost2010PropOp54
 70
     1
102
RTVSPost2010Prop55
280
     0
102
RTVSPost2010PropOp55
 70
     1
102
RTVSPost2010Prop56
140
1.0
102
RTVSPost2010PropOp56
 70
     1
102
RTVSPost2010Prop57
140
1.0
102
RTVSPost2010PropOp57
 70
     1
102
RTVSPropertyOp0
 70
     1
102
RTVSPropertyOp1
 70
     1
102
RTVSPropertyOp2
 70
     1
102
RTVSPropertyOp3
 70
     1
102
RTVSPropertyOp4
 70
     1
102
RTVSPropertyOp5
 70
     1
102
RTVSPropertyOp6
 70
     1
102
RTVSPropertyOp7
 70
     1
102
RTVSPropertyOp8
 70
     1
102
RTVSPropertyOp9
 70
     1
102
RTVSPropertyOp10
 70
     1
102
RTVSPropertyOp11
 70
     1
102
RTVSPropertyOp12
 70
     1
102
RTVSPropertyOp13
 70
     1
102
RTVSPropertyOp14
 70
     1
102
RTVSPropertyOp15
 70
     1
102
RTVSPropertyOp16
 70
     1
102
RTVSPropertyOp17
 70
     1
102
RTVSPropertyOp18
 70
     1
102
RTVSPropertyOp19
 70
     1
102
RTVSPropertyOp20
 70
     1
102
RTVSPropertyOp21
 70
     1
102
RTVSPropertyOp22
 70
     1
102
RTVSPropertyOp23
 70
     1
102
RTVSPropertyOp24
 70
     1
102
RTVSPropertyOp25
 70
     1
102
RTVSPropertyOp26
 70
     1
102
RTVSPropertyOp27
 70
     1
102
RTVSPropertyOp28
 70
     1
102
RTVSPropertyOp29
 70
     1
102
RTVSPropertyOp30
 70
     1
102
RTVSPropertyOp31
 70
     1
102
RTVSPropertyOp32
 70
     1
102
RTVSPropertyOp33
 70
     1
102
RTVSPropertyOp34
 70
     1
102
RTVSPropertyOp35
 70
     1
102
RTVSPropertyOp36
 70
     1
102
RTVSPropertyOp37
 70
     1
102
RTVSPropertyOp38
 70
     1
102
RTVSPropertyOp39
 70
     1
102
RTVSPropertyOp40
 70
     1
102
RTVSPropertyOp41
 70
     1
102
RTVSPropertyOp42
 70
     1
102
RTVSPropertyOp43
 70
     1
102
RTVSPropertyOp44
 70
     1
102
RTVSPropertyOp45
 70
     1
102
RTVSPropertyOp46
 70
     1
102
RTVSPropertyOp47
 70
     1
102
RTVSPropertyOp48
 70
     1
102
RTVSPropertyOp49
 70
     1
102
RTVSPropertyOp50
 70
     1
102
RTVSPropertyOp51
 70
     0
102
RTVSPropertyOp52
 70
     0
102
RTVSPropertyOp53
 70
     1
102
RTVSPropertyOp54
 70
     1
102
RTVSPropertyOp55
 70
     1
102
RTVSPropertyOp56
 70
     1
102
RTVSPropertyOp57
 70
     1
102
RTVSPropertyOp58
 70
     1
102
RTVSPropertyOp59
 70
     1
102
RTVSPropertyOp60
 70
     1
102
RTVSPropertyOp61
 70
     1
102
RTVSPropertyOp62
 70
     1
  0
XRECORD
  5
1065
102
{ACAD_REACTORS
330
1064
102
}
330
1064
100
AcDbXrecord
280
     1
102
RTVSPost2010Prop28
280
     0
102
RTVSPost2010PropOp28
 70
     1
102
RTVSPost2010Prop29
280
     1
102
RTVSPost2010PropOp29
 70
     1
102
RTVSPost2010Prop30
280
     1
102
RTVSPost2010PropOp30
 70
     1
102
RTVSPost2010Prop31
280
     0
102
RTVSPost2010PropOp31
 70
     1
102
RTVSPost2010Prop32
280
     0
102
RTVSPost2010PropOp32
 70
     1
102
RTVSPost2010Prop33
280
     0
102
RTVSPost2010PropOp33
 70
     1
102
RTVSPost2010Prop34
280
     0
102
RTVSPost2010PropOp34
 70
     1
102
RTVSPost2010Prop35
280
     0
102
RTVSPost2010PropOp35
 70
     1
102
RTVSPost2010Prop36
280
     0
102
RTVSPost2010PropOp36
 70
     1
102
RTVSPost2010Prop37
 90
       50
102
RTVSPost2010PropOp37
 70
     0
102
RTVSPost2010Prop38
140
0.0
102
RTVSPost2010PropOp38
 70
     0
102
RTVSPost2010Prop39
140
1.0
102
RTVSPost2010PropOp39
 70
     0
102
RTVSPost2010Prop40
 90
        0
102
RTVSPost2010PropOp40
 70
     0
102
RTVSPost2010Prop41ColorIndex
 90
       18
102
RTVSPost2010Prop41ColorRGB
 90
        0
102
RTVSPost2010PropOp41
 70
     0
102
RTVSPost2010Prop42
 90
       50
102
RTVSPost2010PropOp42
 70
     0
102
RTVSPost2010Prop43
 90
        3
102
RTVSPost2010PropOp43
 70
     0
102
RTVSPost2010Prop44ColorIndex
 90
        5
102
RTVSPost2010Prop44ColorRGB
 90
      255
102
RTVSPost2010PropOp44
 70
     0
102
RTVSPost2010Prop45
280
     0
102
RTVSPost2010PropOp45
 70
     1
102
RTVSPost2010Prop46
 90
       50
102
RTVSPost2010PropOp46
 70
     0
102
RTVSPost2010Prop47
 90
       50
102
RTVSPost2010PropOp47
 70
     0
102
RTVSPost2010Prop48
 90
       50
102
RTVSPost2010PropOp48
 70
     0
102
RTVSPost2010Prop49
280
     0
102
RTVSPost2010PropOp49
 70
     1
102
RTVSPost2010Prop50
 90
       50
102
RTVSPost2010PropOp50
 70
     0
102
RTVSPost2010Prop51ColorIndex
 90
      256
102
RTVSPost2010Prop51ColorRGB
 90
-16777216
102
RTVSPost2010PropOp51
 70
     0
102
RTVSPost2010Prop52
140
1.0
102
RTVSPost2010PropOp52
 70
     0
102
RTVSPost2010Prop53
 90
        2
102
RTVSPost2010PropOp53
 70
     0
102
RTVSPost2010Prop54
  1
strokes_ogs.tif
102
RTVSPost2010PropOp54
 70
     0
102
RTVSPost2010Prop55
280
     0
102
RTVSPost2010PropOp55
 70
     1
102
RTVSPost2010Prop56
140
1.0
102
RTVSPost2010PropOp56
 70
     0
102
RTVSPost2010Prop57
140
1.0
102
RTVSPost2010PropOp57
 70
     0
102
RTVSPropertyOp0
 70
     0
102
RTVSPropertyOp1
 70
     0
102
RTVSPropertyOp2
 70
     0
102
RTVSPropertyOp3
 70
     0
102
RTVSPropertyOp4
 70
     0
102
RTVSPropertyOp5
 70
     0
102
RTVSPropertyOp6
 70
     0
102
RTVSPropertyOp7
 70
     0
102
RTVSPropertyOp8
 70
     0
102
RTVSPropertyOp9
 70
     0
102
RTVSPropertyOp10
 70
     0
102
RTVSPropertyOp11
 70
     0
102
RTVSPropertyOp12
 70
     0
102
RTVSPropertyOp13
 70
     0
102
RTVSPropertyOp14
 70
     2
102
RTVSPropertyOp15
 70
     0
102
RTVSPropertyOp16
 70
     0
102
RTVSPropertyOp17
 70
     0
102
RTVSPropertyOp18
 70
     0
102
RTVSPropertyOp19
 70
     0
102
RTVSPropertyOp20
 70
     0
102
RTVSPropertyOp21
 70
     0
102
RTVSPropertyOp22
 70
     0
102
RTVSPropertyOp23
 70
     0
102
RTVSPropertyOp24
 70
     0
102
RTVSPropertyOp25
 70
     0
102
RTVSPropertyOp26
 70
     0
102
RTVSPropertyOp27
 70
     0
102
RTVSPropertyOp28
 70
     1
102
RTVSPropertyOp29
 70
     1
102
RTVSPropertyOp30
 70
     1
102
RTVSPropertyOp31
 70
     1
102
RTVSPropertyOp32
 70
     1
102
RTVSPropertyOp33
 70
     1
102
RTVSPropertyOp34
 70
     1
102
RTVSPropertyOp35
 70
     1
102
RTVSPropertyOp36
 70
     1
102
RTVSPropertyOp37
 70
     0
102
RTVSPropertyOp38
 70
     0
102
RTVSPropertyOp39
 70
     0
102
RTVSPropertyOp40
 70
     0
102
RTVSPropertyOp41
 70
     0
102
RTVSPropertyOp42
 70
     0
102
RTVSPropertyOp43
 70
     0
102
RTVSPropertyOp44
 70
     0
102
RTVSPropertyOp45
 70
     1
102
RTVSPropertyOp46
 70
     0
102
RTVSPropertyOp47
 70
     0
102
RTVSPropertyOp48
 70
     0
102
RTVSPropertyOp49
 70
     1
102
RTVSPropertyOp50
 70
     0
102
RTVSPropertyOp51
 70
     0
102
RTVSPropertyOp52
 70
     0
102
RTVSPropertyOp53
 70
     0
102
RTVSPropertyOp54
 70
     0
102
RTVSPropertyOp55
 70
     1
102
RTVSPropertyOp56
 70
     0
102
RTVSPropertyOp57
 70
     0
102
RTVSPropertyOp58
 70
     0
102
RTVSPropertyOp59
 70
     0
102
RTVSPropertyOp60
 70
     0
102
RTVSPropertyOp61
 70
     0
102
RTVSPropertyOp62
 70
     0
  0
XRECORD
  5
104B
102
{ACAD_REACTORS
330
104A
102
}
330
104A
100
AcDbXrecord
280
     1
102
RTVSPost2010Prop28
280
     0
102
RTVSPost2010PropOp28
 70
     1
102
RTVSPost2010Prop29
280
     1
102
RTVSPost2010PropOp29
 70
     1
102
RTVSPost2010Prop30
280
     1
102
RTVSPost2010PropOp30
 70
     1
102
RTVSPost2010Prop31
280
     0
102
RTVSPost2010PropOp31
 70
     1
102
RTVSPost2010Prop32
280
     0
102
RTVSPost2010PropOp32
 70
     1
102
RTVSPost2010Prop33
280
     0
102
RTVSPost2010PropOp33
 70
     1
102
RTVSPost2010Prop34
280
     0
102
RTVSPost2010PropOp34
 70
     1
102
RTVSPost2010Prop35
280
     0
102
RTVSPost2010PropOp35
 70
     1
102
RTVSPost2010Prop36
280
     0
102
RTVSPost2010PropOp36
 70
     1
102
RTVSPost2010Prop37
 90
       50
102
RTVSPost2010PropOp37
 70
     1
102
RTVSPost2010Prop38
140
0.0
102
RTVSPost2010PropOp38
 70
     1
102
RTVSPost2010Prop39
140
1.0
102
RTVSPost2010PropOp39
 70
     1
102
RTVSPost2010Prop40
 90
        0
102
RTVSPost2010PropOp40
 70
     1
102
RTVSPost2010Prop41ColorIndex
 90
       18
102
RTVSPost2010Prop41ColorRGB
 90
        0
102
RTVSPost2010PropOp41
 70
     1
102
RTVSPost2010Prop42
 90
       50
102
RTVSPost2010PropOp42
 70
     1
102
RTVSPost2010Prop43
 90
        3
102
RTVSPost2010PropOp43
 70
     1
102
RTVSPost2010Prop44ColorIndex
 90
        5
102
RTVSPost2010Prop44ColorRGB
 90
      255
102
RTVSPost2010PropOp44
 70
     1
102
RTVSPost2010Prop45
280
     0
102
RTVSPost2010PropOp45
 70
     1
102
RTVSPost2010Prop46
 90
       50
102
RTVSPost2010PropOp46
 70
     1
102
RTVSPost2010Prop47
 90
       50
102
RTVSPost2010PropOp47
 70
     1
102
RTVSPost2010Prop48
 90
       50
102
RTVSPost2010PropOp48
 70
     1
102
RTVSPost2010Prop49
280
     0
102
RTVSPost2010PropOp49
 70
     1
102
RTVSPost2010Prop50
 90
       50
102
RTVSPost2010PropOp50
 70
     1
102
RTVSPost2010Prop51ColorIndex
 90
      256
102
RTVSPost2010Prop51ColorRGB
 90
-16777216
102
RTVSPost2010PropOp51
 70
     0
102
RTVSPost2010Prop52
140
1.0
102
RTVSPost2010PropOp52
 70
     0
102
RTVSPost2010Prop53
 90
        2
102
RTVSPost2010PropOp53
 70
     1
102
RTVSPost2010Prop54
  1
strokes_ogs.tif
102
RTVSPost2010PropOp54
 70
     1
102
RTVSPost2010Prop55
280
     0
102
RTVSPost2010PropOp55
 70
     1
102
RTVSPost2010Prop56
140
1.0
102
RTVSPost2010PropOp56
 70
     1
102
RTVSPost2010Prop57
140
1.0
102
RTVSPost2010PropOp57
 70
     1
102
RTVSPropertyOp0
 70
     1
102
RTVSPropertyOp1
 70
     1
102
RTVSPropertyOp2
 70
     1
102
RTVSPropertyOp3
 70
     1
102
RTVSPropertyOp4
 70
     1
102
RTVSPropertyOp5
 70
     1
102
RTVSPropertyOp6
 70
     1
102
RTVSPropertyOp7
 70
     1
102
RTVSPropertyOp8
 70
     1
102
RTVSPropertyOp9
 70
     1
102
RTVSPropertyOp10
 70
     1
102
RTVSPropertyOp11
 70
     1
102
RTVSPropertyOp12
 70
     1
102
RTVSPropertyOp13
 70
     1
102
RTVSPropertyOp14
 70
     1
102
RTVSPropertyOp15
 70
     1
102
RTVSPropertyOp16
 70
     1
102
RTVSPropertyOp17
 70
     1
102
RTVSPropertyOp18
 70
     1
102
RTVSPropertyOp19
 70
     1
102
RTVSPropertyOp20
 70
     1
102
RTVSPropertyOp21
 70
     1
102
RTVSPropertyOp22
 70
     1
102
RTVSPropertyOp23
 70
     1
102
RTVSPropertyOp24
 70
     1
102
RTVSPropertyOp25
 70
     1
102
RTVSPropertyOp26
 70
     1
102
RTVSPropertyOp27
 70
     1
102
RTVSPropertyOp28
 70
     1
102
RTVSPropertyOp29
 70
     1
102
RTVSPropertyOp30
 70
     1
102
RTVSPropertyOp31
 70
     1
102
RTVSPropertyOp32
 70
     1
102
RTVSPropertyOp33
 70
     1
102
RTVSPropertyOp34
 70
     1
102
RTVSPropertyOp35
 70
     1
102
RTVSPropertyOp36
 70
     1
102
RTVSPropertyOp37
 70
     1
102
RTVSPropertyOp38
 70
     1
102
RTVSPropertyOp39
 70
     1
102
RTVSPropertyOp40
 70
     1
102
RTVSPropertyOp41
 70
     1
102
RTVSPropertyOp42
 70
     1
102
RTVSPropertyOp43
 70
     1
102
RTVSPropertyOp44
 70
     1
102
RTVSPropertyOp45
 70
     1
102
RTVSPropertyOp46
 70
     1
102
RTVSPropertyOp47
 70
     1
102
RTVSPropertyOp48
 70
     1
102
RTVSPropertyOp49
 70
     1
102
RTVSPropertyOp50
 70
     1
102
RTVSPropertyOp51
 70
     0
102
RTVSPropertyOp52
 70
     0
102
RTVSPropertyOp53
 70
     1
102
RTVSPropertyOp54
 70
     1
102
RTVSPropertyOp55
 70
     1
102
RTVSPropertyOp56
 70
     1
102
RTVSPropertyOp57
 70
     1
102
RTVSPropertyOp58
 70
     1
102
RTVSPropertyOp59
 70
     1
102
RTVSPropertyOp60
 70
     1
102
RTVSPropertyOp61
 70
     1
102
RTVSPropertyOp62
 70
     1
  0
XRECORD
  5
1061
102
{ACAD_REACTORS
330
1060
102
}
330
1060
100
AcDbXrecord
280
     1
102
RTVSPost2010Prop28
280
     0
102
RTVSPost2010PropOp28
 70
     1
102
RTVSPost2010Prop29
280
     1
102
RTVSPost2010PropOp29
 70
     1
102
RTVSPost2010Prop30
280
     1
102
RTVSPost2010PropOp30
 70
     1
102
RTVSPost2010Prop31
280
     0
102
RTVSPost2010PropOp31
 70
     1
102
RTVSPost2010Prop32
280
     0
102
RTVSPost2010PropOp32
 70
     1
102
RTVSPost2010Prop33
280
     0
102
RTVSPost2010PropOp33
 70
     1
102
RTVSPost2010Prop34
280
     0
102
RTVSPost2010PropOp34
 70
     1
102
RTVSPost2010Prop35
280
     0
102
RTVSPost2010PropOp35
 70
     1
102
RTVSPost2010Prop36
280
     0
102
RTVSPost2010PropOp36
 70
     1
102
RTVSPost2010Prop37
 90
       50
102
RTVSPost2010PropOp37
 70
     1
102
RTVSPost2010Prop38
140
0.0
102
RTVSPost2010PropOp38
 70
     1
102
RTVSPost2010Prop39
140
1.0
102
RTVSPost2010PropOp39
 70
     1
102
RTVSPost2010Prop40
 90
        0
102
RTVSPost2010PropOp40
 70
     1
102
RTVSPost2010Prop41ColorIndex
 90
       18
102
RTVSPost2010Prop41ColorRGB
 90
        0
102
RTVSPost2010PropOp41
 70
     1
102
RTVSPost2010Prop42
 90
       50
102
RTVSPost2010PropOp42
 70
     1
102
RTVSPost2010Prop43
 90
        3
102
RTVSPost2010PropOp43
 70
     1
102
RTVSPost2010Prop44ColorIndex
 90
        5
102
RTVSPost2010Prop44ColorRGB
 90
      255
102
RTVSPost2010PropOp44
 70
     1
102
RTVSPost2010Prop45
280
     0
102
RTVSPost2010PropOp45
 70
     1
102
RTVSPost2010Prop46
 90
       50
102
RTVSPost2010PropOp46
 70
     1
102
RTVSPost2010Prop47
 90
       50
102
RTVSPost2010PropOp47
 70
     1
102
RTVSPost2010Prop48
 90
       50
102
RTVSPost2010PropOp48
 70
     1
102
RTVSPost2010Prop49
280
     0
102
RTVSPost2010PropOp49
 70
     1
102
RTVSPost2010Prop50
 90
       50
102
RTVSPost2010PropOp50
 70
     1
102
RTVSPost2010Prop51ColorIndex
 90
      256
102
RTVSPost2010Prop51ColorRGB
 90
-16777216
102
RTVSPost2010PropOp51
 70
     0
102
RTVSPost2010Prop52
140
1.0
102
RTVSPost2010PropOp52
 70
     0
102
RTVSPost2010Prop53
 90
        2
102
RTVSPost2010PropOp53
 70
     1
102
RTVSPost2010Prop54
  1
strokes_ogs.tif
102
RTVSPost2010PropOp54
 70
     1
102
RTVSPost2010Prop55
280
     0
102
RTVSPost2010PropOp55
 70
     1
102
RTVSPost2010Prop56
140
1.0
102
RTVSPost2010PropOp56
 70
     1
102
RTVSPost2010Prop57
140
1.0
102
RTVSPost2010PropOp57
 70
     1
102
RTVSPropertyOp0
 70
     1
102
RTVSPropertyOp1
 70
     1
102
RTVSPropertyOp2
 70
     1
102
RTVSPropertyOp3
 70
     1
102
RTVSPropertyOp4
 70
     1
102
RTVSPropertyOp5
 70
     1
102
RTVSPropertyOp6
 70
     1
102
RTVSPropertyOp7
 70
     1
102
RTVSPropertyOp8
 70
     1
102
RTVSPropertyOp9
 70
     1
102
RTVSPropertyOp10
 70
     1
102
RTVSPropertyOp11
 70
     1
102
RTVSPropertyOp12
 70
     1
102
RTVSPropertyOp13
 70
     1
102
RTVSPropertyOp14
 70
     1
102
RTVSPropertyOp15
 70
     1
102
RTVSPropertyOp16
 70
     1
102
RTVSPropertyOp17
 70
     1
102
RTVSPropertyOp18
 70
     1
102
RTVSPropertyOp19
 70
     1
102
RTVSPropertyOp20
 70
     1
102
RTVSPropertyOp21
 70
     1
102
RTVSPropertyOp22
 70
     1
102
RTVSPropertyOp23
 70
     1
102
RTVSPropertyOp24
 70
     1
102
RTVSPropertyOp25
 70
     1
102
RTVSPropertyOp26
 70
     1
102
RTVSPropertyOp27
 70
     1
102
RTVSPropertyOp28
 70
     1
102
RTVSPropertyOp29
 70
     1
102
RTVSPropertyOp30
 70
     1
102
RTVSPropertyOp31
 70
     1
102
RTVSPropertyOp32
 70
     1
102
RTVSPropertyOp33
 70
     1
102
RTVSPropertyOp34
 70
     1
102
RTVSPropertyOp35
 70
     1
102
RTVSPropertyOp36
 70
     1
102
RTVSPropertyOp37
 70
     1
102
RTVSPropertyOp38
 70
     1
102
RTVSPropertyOp39
 70
     1
102
RTVSPropertyOp40
 70
     1
102
RTVSPropertyOp41
 70
     1
102
RTVSPropertyOp42
 70
     1
102
RTVSPropertyOp43
 70
     1
102
RTVSPropertyOp44
 70
     1
102
RTVSPropertyOp45
 70
     1
102
RTVSPropertyOp46
 70
     1
102
RTVSPropertyOp47
 70
     1
102
RTVSPropertyOp48
 70
     1
102
RTVSPropertyOp49
 70
     1
102
RTVSPropertyOp50
 70
     1
102
RTVSPropertyOp51
 70
     0
102
RTVSPropertyOp52
 70
     0
102
RTVSPropertyOp53
 70
     1
102
RTVSPropertyOp54
 70
     1
102
RTVSPropertyOp55
 70
     1
102
RTVSPropertyOp56
 70
     1
102
RTVSPropertyOp57
 70
     1
102
RTVSPropertyOp58
 70
     1
102
RTVSPropertyOp59
 70
     1
102
RTVSPropertyOp60
 70
     1
102
RTVSPropertyOp61
 70
     1
102
RTVSPropertyOp62
 70
     1
  0
XRECORD
  5
105F
102
{ACAD_REACTORS
330
105E
102
}
330
105E
100
AcDbXrecord
280
     1
102
RTVSPost2010Prop28
280
     0
102
RTVSPost2010PropOp28
 70
     1
102
RTVSPost2010Prop29
280
     1
102
RTVSPost2010PropOp29
 70
     1
102
RTVSPost2010Prop30
280
     1
102
RTVSPost2010PropOp30
 70
     1
102
RTVSPost2010Prop31
280
     0
102
RTVSPost2010PropOp31
 70
     1
102
RTVSPost2010Prop32
280
     0
102
RTVSPost2010PropOp32
 70
     1
102
RTVSPost2010Prop33
280
     0
102
RTVSPost2010PropOp33
 70
     1
102
RTVSPost2010Prop34
280
     0
102
RTVSPost2010PropOp34
 70
     1
102
RTVSPost2010Prop35
280
     0
102
RTVSPost2010PropOp35
 70
     1
102
RTVSPost2010Prop36
280
     0
102
RTVSPost2010PropOp36
 70
     1
102
RTVSPost2010Prop37
 90
       50
102
RTVSPost2010PropOp37
 70
     1
102
RTVSPost2010Prop38
140
0.0
102
RTVSPost2010PropOp38
 70
     1
102
RTVSPost2010Prop39
140
1.0
102
RTVSPost2010PropOp39
 70
     1
102
RTVSPost2010Prop40
 90
        0
102
RTVSPost2010PropOp40
 70
     1
102
RTVSPost2010Prop41ColorIndex
 90
       18
102
RTVSPost2010Prop41ColorRGB
 90
        0
102
RTVSPost2010PropOp41
 70
     1
102
RTVSPost2010Prop42
 90
       50
102
RTVSPost2010PropOp42
 70
     1
102
RTVSPost2010Prop43
 90
        3
102
RTVSPost2010PropOp43
 70
     1
102
RTVSPost2010Prop44ColorIndex
 90
        5
102
RTVSPost2010Prop44ColorRGB
 90
      255
102
RTVSPost2010PropOp44
 70
     1
102
RTVSPost2010Prop45
280
     0
102
RTVSPost2010PropOp45
 70
     1
102
RTVSPost2010Prop46
 90
       50
102
RTVSPost2010PropOp46
 70
     1
102
RTVSPost2010Prop47
 90
       50
102
RTVSPost2010PropOp47
 70
     1
102
RTVSPost2010Prop48
 90
       50
102
RTVSPost2010PropOp48
 70
     1
102
RTVSPost2010Prop49
280
     0
102
RTVSPost2010PropOp49
 70
     1
102
RTVSPost2010Prop50
 90
       50
102
RTVSPost2010PropOp50
 70
     1
102
RTVSPost2010Prop51ColorIndex
 90
      256
102
RTVSPost2010Prop51ColorRGB
 90
-16777216
102
RTVSPost2010PropOp51
 70
     0
102
RTVSPost2010Prop52
140
1.0
102
RTVSPost2010PropOp52
 70
     0
102
RTVSPost2010Prop53
 90
        2
102
RTVSPost2010PropOp53
 70
     1
102
RTVSPost2010Prop54
  1
strokes_ogs.tif
102
RTVSPost2010PropOp54
 70
     1
102
RTVSPost2010Prop55
280
     0
102
RTVSPost2010PropOp55
 70
     1
102
RTVSPost2010Prop56
140
1.0
102
RTVSPost2010PropOp56
 70
     1
102
RTVSPost2010Prop57
140
1.0
102
RTVSPost2010PropOp57
 70
     1
102
RTVSPropertyOp0
 70
     1
102
RTVSPropertyOp1
 70
     1
102
RTVSPropertyOp2
 70
     1
102
RTVSPropertyOp3
 70
     1
102
RTVSPropertyOp4
 70
     1
102
RTVSPropertyOp5
 70
     1
102
RTVSPropertyOp6
 70
     1
102
RTVSPropertyOp7
 70
     1
102
RTVSPropertyOp8
 70
     1
102
RTVSPropertyOp9
 70
     1
102
RTVSPropertyOp10
 70
     1
102
RTVSPropertyOp11
 70
     1
102
RTVSPropertyOp12
 70
     1
102
RTVSPropertyOp13
 70
     1
102
RTVSPropertyOp14
 70
     1
102
RTVSPropertyOp15
 70
     1
102
RTVSPropertyOp16
 70
     1
102
RTVSPropertyOp17
 70
     1
102
RTVSPropertyOp18
 70
     1
102
RTVSPropertyOp19
 70
     1
102
RTVSPropertyOp20
 70
     1
102
RTVSPropertyOp21
 70
     1
102
RTVSPropertyOp22
 70
     1
102
RTVSPropertyOp23
 70
     1
102
RTVSPropertyOp24
 70
     1
102
RTVSPropertyOp25
 70
     1
102
RTVSPropertyOp26
 70
     1
102
RTVSPropertyOp27
 70
     1
102
RTVSPropertyOp28
 70
     1
102
RTVSPropertyOp29
 70
     1
102
RTVSPropertyOp30
 70
     1
102
RTVSPropertyOp31
 70
     1
102
RTVSPropertyOp32
 70
     1
102
RTVSPropertyOp33
 70
     1
102
RTVSPropertyOp34
 70
     1
102
RTVSPropertyOp35
 70
     1
102
RTVSPropertyOp36
 70
     1
102
RTVSPropertyOp37
 70
     1
102
RTVSPropertyOp38
 70
     1
102
RTVSPropertyOp39
 70
     1
102
RTVSPropertyOp40
 70
     1
102
RTVSPropertyOp41
 70
     1
102
RTVSPropertyOp42
 70
     1
102
RTVSPropertyOp43
 70
     1
102
RTVSPropertyOp44
 70
     1
102
RTVSPropertyOp45
 70
     1
102
RTVSPropertyOp46
 70
     1
102
RTVSPropertyOp47
 70
     1
102
RTVSPropertyOp48
 70
     1
102
RTVSPropertyOp49
 70
     1
102
RTVSPropertyOp50
 70
     1
102
RTVSPropertyOp51
 70
     0
102
RTVSPropertyOp52
 70
     0
102
RTVSPropertyOp53
 70
     1
102
RTVSPropertyOp54
 70
     1
102
RTVSPropertyOp55
 70
     1
102
RTVSPropertyOp56
 70
     1
102
RTVSPropertyOp57
 70
     1
102
RTVSPropertyOp58
 70
     1
102
RTVSPropertyOp59
 70
     1
102
RTVSPropertyOp60
 70
     1
102
RTVSPropertyOp61
 70
     1
102
RTVSPropertyOp62
 70
     1
  0
XRECORD
  5
1059
102
{ACAD_REACTORS
330
1058
102
}
330
1058
100
AcDbXrecord
280
     1
102
RTVSPost2010Prop28
280
     0
102
RTVSPost2010PropOp28
 70
     1
102
RTVSPost2010Prop29
280
     1
102
RTVSPost2010PropOp29
 70
     1
102
RTVSPost2010Prop30
280
     1
102
RTVSPost2010PropOp30
 70
     1
102
RTVSPost2010Prop31
280
     0
102
RTVSPost2010PropOp31
 70
     1
102
RTVSPost2010Prop32
280
     0
102
RTVSPost2010PropOp32
 70
     1
102
RTVSPost2010Prop33
280
     0
102
RTVSPost2010PropOp33
 70
     1
102
RTVSPost2010Prop34
280
     0
102
RTVSPost2010PropOp34
 70
     1
102
RTVSPost2010Prop35
280
     0
102
RTVSPost2010PropOp35
 70
     1
102
RTVSPost2010Prop36
280
     0
102
RTVSPost2010PropOp36
 70
     1
102
RTVSPost2010Prop37
 90
       50
102
RTVSPost2010PropOp37
 70
     1
102
RTVSPost2010Prop38
140
0.0
102
RTVSPost2010PropOp38
 70
     1
102
RTVSPost2010Prop39
140
1.0
102
RTVSPost2010PropOp39
 70
     1
102
RTVSPost2010Prop40
 90
        0
102
RTVSPost2010PropOp40
 70
     1
102
RTVSPost2010Prop41ColorIndex
 90
       18
102
RTVSPost2010Prop41ColorRGB
 90
        0
102
RTVSPost2010PropOp41
 70
     1
102
RTVSPost2010Prop42
 90
       50
102
RTVSPost2010PropOp42
 70
     1
102
RTVSPost2010Prop43
 90
        3
102
RTVSPost2010PropOp43
 70
     1
102
RTVSPost2010Prop44ColorIndex
 90
        5
102
RTVSPost2010Prop44ColorRGB
 90
      255
102
RTVSPost2010PropOp44
 70
     1
102
RTVSPost2010Prop45
280
     0
102
RTVSPost2010PropOp45
 70
     1
102
RTVSPost2010Prop46
 90
       50
102
RTVSPost2010PropOp46
 70
     1
102
RTVSPost2010Prop47
 90
       50
102
RTVSPost2010PropOp47
 70
     1
102
RTVSPost2010Prop48
 90
       50
102
RTVSPost2010PropOp48
 70
     1
102
RTVSPost2010Prop49
280
     0
102
RTVSPost2010PropOp49
 70
     1
102
RTVSPost2010Prop50
 90
       50
102
RTVSPost2010PropOp50
 70
     1
102
RTVSPost2010Prop51ColorIndex
 90
      256
102
RTVSPost2010Prop51ColorRGB
 90
-16777216
102
RTVSPost2010PropOp51
 70
     0
102
RTVSPost2010Prop52
140
1.0
102
RTVSPost2010PropOp52
 70
     0
102
RTVSPost2010Prop53
 90
        2
102
RTVSPost2010PropOp53
 70
     1
102
RTVSPost2010Prop54
  1
strokes_ogs.tif
102
RTVSPost2010PropOp54
 70
     1
102
RTVSPost2010Prop55
280
     0
102
RTVSPost2010PropOp55
 70
     1
102
RTVSPost2010Prop56
140
1.0
102
RTVSPost2010PropOp56
 70
     1
102
RTVSPost2010Prop57
140
1.0
102
RTVSPost2010PropOp57
 70
     1
102
RTVSPropertyOp0
 70
     1
102
RTVSPropertyOp1
 70
     1
102
RTVSPropertyOp2
 70
     1
102
RTVSPropertyOp3
 70
     1
102
RTVSPropertyOp4
 70
     1
102
RTVSPropertyOp5
 70
     1
102
RTVSPropertyOp6
 70
     1
102
RTVSPropertyOp7
 70
     1
102
RTVSPropertyOp8
 70
     1
102
RTVSPropertyOp9
 70
     1
102
RTVSPropertyOp10
 70
     1
102
RTVSPropertyOp11
 70
     1
102
RTVSPropertyOp12
 70
     1
102
RTVSPropertyOp13
 70
     1
102
RTVSPropertyOp14
 70
     1
102
RTVSPropertyOp15
 70
     1
102
RTVSPropertyOp16
 70
     1
102
RTVSPropertyOp17
 70
     1
102
RTVSPropertyOp18
 70
     1
102
RTVSPropertyOp19
 70
     1
102
RTVSPropertyOp20
 70
     1
102
RTVSPropertyOp21
 70
     1
102
RTVSPropertyOp22
 70
     1
102
RTVSPropertyOp23
 70
     1
102
RTVSPropertyOp24
 70
     1
102
RTVSPropertyOp25
 70
     1
102
RTVSPropertyOp26
 70
     1
102
RTVSPropertyOp27
 70
     1
102
RTVSPropertyOp28
 70
     1
102
RTVSPropertyOp29
 70
     1
102
RTVSPropertyOp30
 70
     1
102
RTVSPropertyOp31
 70
     1
102
RTVSPropertyOp32
 70
     1
102
RTVSPropertyOp33
 70
     1
102
RTVSPropertyOp34
 70
     1
102
RTVSPropertyOp35
 70
     1
102
RTVSPropertyOp36
 70
     1
102
RTVSPropertyOp37
 70
     1
102
RTVSPropertyOp38
 70
     1
102
RTVSPropertyOp39
 70
     1
102
RTVSPropertyOp40
 70
     1
102
RTVSPropertyOp41
 70
     1
102
RTVSPropertyOp42
 70
     1
102
RTVSPropertyOp43
 70
     1
102
RTVSPropertyOp44
 70
     1
102
RTVSPropertyOp45
 70
     1
102
RTVSPropertyOp46
 70
     1
102
RTVSPropertyOp47
 70
     1
102
RTVSPropertyOp48
 70
     1
102
RTVSPropertyOp49
 70
     1
102
RTVSPropertyOp50
 70
     1
102
RTVSPropertyOp51
 70
     0
102
RTVSPropertyOp52
 70
     0
102
RTVSPropertyOp53
 70
     1
102
RTVSPropertyOp54
 70
     1
102
RTVSPropertyOp55
 70
     1
102
RTVSPropertyOp56
 70
     1
102
RTVSPropertyOp57
 70
     1
102
RTVSPropertyOp58
 70
     1
102
RTVSPropertyOp59
 70
     1
102
RTVSPropertyOp60
 70
     1
102
RTVSPropertyOp61
 70
     1
102
RTVSPropertyOp62
 70
     1
  0
XRECORD
  5
105B
102
{ACAD_REACTORS
330
105A
102
}
330
105A
100
AcDbXrecord
280
     1
102
RTVSPost2010Prop28
280
     0
102
RTVSPost2010PropOp28
 70
     1
102
RTVSPost2010Prop29
280
     1
102
RTVSPost2010PropOp29
 70
     1
102
RTVSPost2010Prop30
280
     1
102
RTVSPost2010PropOp30
 70
     1
102
RTVSPost2010Prop31
280
     0
102
RTVSPost2010PropOp31
 70
     1
102
RTVSPost2010Prop32
280
     0
102
RTVSPost2010PropOp32
 70
     1
102
RTVSPost2010Prop33
280
     0
102
RTVSPost2010PropOp33
 70
     1
102
RTVSPost2010Prop34
280
     0
102
RTVSPost2010PropOp34
 70
     1
102
RTVSPost2010Prop35
280
     0
102
RTVSPost2010PropOp35
 70
     1
102
RTVSPost2010Prop36
280
     0
102
RTVSPost2010PropOp36
 70
     1
102
RTVSPost2010Prop37
 90
       50
102
RTVSPost2010PropOp37
 70
     1
102
RTVSPost2010Prop38
140
0.0
102
RTVSPost2010PropOp38
 70
     1
102
RTVSPost2010Prop39
140
1.0
102
RTVSPost2010PropOp39
 70
     1
102
RTVSPost2010Prop40
 90
        0
102
RTVSPost2010PropOp40
 70
     1
102
RTVSPost2010Prop41ColorIndex
 90
       18
102
RTVSPost2010Prop41ColorRGB
 90
        0
102
RTVSPost2010PropOp41
 70
     1
102
RTVSPost2010Prop42
 90
       50
102
RTVSPost2010PropOp42
 70
     1
102
RTVSPost2010Prop43
 90
        3
102
RTVSPost2010PropOp43
 70
     1
102
RTVSPost2010Prop44ColorIndex
 90
        5
102
RTVSPost2010Prop44ColorRGB
 90
      255
102
RTVSPost2010PropOp44
 70
     1
102
RTVSPost2010Prop45
280
     0
102
RTVSPost2010PropOp45
 70
     1
102
RTVSPost2010Prop46
 90
       50
102
RTVSPost2010PropOp46
 70
     1
102
RTVSPost2010Prop47
 90
       50
102
RTVSPost2010PropOp47
 70
     1
102
RTVSPost2010Prop48
 90
       50
102
RTVSPost2010PropOp48
 70
     1
102
RTVSPost2010Prop49
280
     0
102
RTVSPost2010PropOp49
 70
     1
102
RTVSPost2010Prop50
 90
       50
102
RTVSPost2010PropOp50
 70
     1
102
RTVSPost2010Prop51ColorIndex
 90
      256
102
RTVSPost2010Prop51ColorRGB
 90
-16777216
102
RTVSPost2010PropOp51
 70
     0
102
RTVSPost2010Prop52
140
1.0
102
RTVSPost2010PropOp52
 70
     0
102
RTVSPost2010Prop53
 90
        2
102
RTVSPost2010PropOp53
 70
     1
102
RTVSPost2010Prop54
  1
strokes_ogs.tif
102
RTVSPost2010PropOp54
 70
     1
102
RTVSPost2010Prop55
280
     0
102
RTVSPost2010PropOp55
 70
     1
102
RTVSPost2010Prop56
140
1.0
102
RTVSPost2010PropOp56
 70
     1
102
RTVSPost2010Prop57
140
1.0
102
RTVSPost2010PropOp57
 70
     1
102
RTVSPropertyOp0
 70
     1
102
RTVSPropertyOp1
 70
     1
102
RTVSPropertyOp2
 70
     1
102
RTVSPropertyOp3
 70
     1
102
RTVSPropertyOp4
 70
     1
102
RTVSPropertyOp5
 70
     1
102
RTVSPropertyOp6
 70
     1
102
RTVSPropertyOp7
 70
     1
102
RTVSPropertyOp8
 70
     1
102
RTVSPropertyOp9
 70
     1
102
RTVSPropertyOp10
 70
     1
102
RTVSPropertyOp11
 70
     1
102
RTVSPropertyOp12
 70
     1
102
RTVSPropertyOp13
 70
     1
102
RTVSPropertyOp14
 70
     1
102
RTVSPropertyOp15
 70
     1
102
RTVSPropertyOp16
 70
     1
102
RTVSPropertyOp17
 70
     1
102
RTVSPropertyOp18
 70
     1
102
RTVSPropertyOp19
 70
     1
102
RTVSPropertyOp20
 70
     1
102
RTVSPropertyOp21
 70
     1
102
RTVSPropertyOp22
 70
     1
102
RTVSPropertyOp23
 70
     1
102
RTVSPropertyOp24
 70
     1
102
RTVSPropertyOp25
 70
     1
102
RTVSPropertyOp26
 70
     1
102
RTVSPropertyOp27
 70
     1
102
RTVSPropertyOp28
 70
     1
102
RTVSPropertyOp29
 70
     1
102
RTVSPropertyOp30
 70
     1
102
RTVSPropertyOp31
 70
     1
102
RTVSPropertyOp32
 70
     1
102
RTVSPropertyOp33
 70
     1
102
RTVSPropertyOp34
 70
     1
102
RTVSPropertyOp35
 70
     1
102
RTVSPropertyOp36
 70
     1
102
RTVSPropertyOp37
 70
     1
102
RTVSPropertyOp38
 70
     1
102
RTVSPropertyOp39
 70
     1
102
RTVSPropertyOp40
 70
     1
102
RTVSPropertyOp41
 70
     1
102
RTVSPropertyOp42
 70
     1
102
RTVSPropertyOp43
 70
     1
102
RTVSPropertyOp44
 70
     1
102
RTVSPropertyOp45
 70
     1
102
RTVSPropertyOp46
 70
     1
102
RTVSPropertyOp47
 70
     1
102
RTVSPropertyOp48
 70
     1
102
RTVSPropertyOp49
 70
     1
102
RTVSPropertyOp50
 70
     1
102
RTVSPropertyOp51
 70
     0
102
RTVSPropertyOp52
 70
     0
102
RTVSPropertyOp53
 70
     1
102
RTVSPropertyOp54
 70
     1
102
RTVSPropertyOp55
 70
     1
102
RTVSPropertyOp56
 70
     1
102
RTVSPropertyOp57
 70
     1
102
RTVSPropertyOp58
 70
     1
102
RTVSPropertyOp59
 70
     1
102
RTVSPropertyOp60
 70
     1
102
RTVSPropertyOp61
 70
     1
102
RTVSPropertyOp62
 70
     1
  0
XRECORD
  5
1051
102
{ACAD_REACTORS
330
1050
102
}
330
1050
100
AcDbXrecord
280
     1
102
RTVSPost2010Prop28
280
     0
102
RTVSPost2010PropOp28
 70
     1
102
RTVSPost2010Prop29
280
     1
102
RTVSPost2010PropOp29
 70
     1
102
RTVSPost2010Prop30
280
     1
102
RTVSPost2010PropOp30
 70
     1
102
RTVSPost2010Prop31
280
     0
102
RTVSPost2010PropOp31
 70
     1
102
RTVSPost2010Prop32
280
     0
102
RTVSPost2010PropOp32
 70
     1
102
RTVSPost2010Prop33
280
     0
102
RTVSPost2010PropOp33
 70
     1
102
RTVSPost2010Prop34
280
     0
102
RTVSPost2010PropOp34
 70
     1
102
RTVSPost2010Prop35
280
     0
102
RTVSPost2010PropOp35
 70
     1
102
RTVSPost2010Prop36
280
     0
102
RTVSPost2010PropOp36
 70
     1
102
RTVSPost2010Prop37
 90
       50
102
RTVSPost2010PropOp37
 70
     1
102
RTVSPost2010Prop38
140
0.0
102
RTVSPost2010PropOp38
 70
     1
102
RTVSPost2010Prop39
140
1.0
102
RTVSPost2010PropOp39
 70
     1
102
RTVSPost2010Prop40
 90
        0
102
RTVSPost2010PropOp40
 70
     1
102
RTVSPost2010Prop41ColorIndex
 90
       18
102
RTVSPost2010Prop41ColorRGB
 90
        0
102
RTVSPost2010PropOp41
 70
     1
102
RTVSPost2010Prop42
 90
       50
102
RTVSPost2010PropOp42
 70
     1
102
RTVSPost2010Prop43
 90
        3
102
RTVSPost2010PropOp43
 70
     1
102
RTVSPost2010Prop44ColorIndex
 90
        5
102
RTVSPost2010Prop44ColorRGB
 90
      255
102
RTVSPost2010PropOp44
 70
     1
102
RTVSPost2010Prop45
280
     0
102
RTVSPost2010PropOp45
 70
     1
102
RTVSPost2010Prop46
 90
       50
102
RTVSPost2010PropOp46
 70
     1
102
RTVSPost2010Prop47
 90
       50
102
RTVSPost2010PropOp47
 70
     1
102
RTVSPost2010Prop48
 90
       50
102
RTVSPost2010PropOp48
 70
     1
102
RTVSPost2010Prop49
280
     0
102
RTVSPost2010PropOp49
 70
     1
102
RTVSPost2010Prop50
 90
       50
102
RTVSPost2010PropOp50
 70
     1
102
RTVSPost2010Prop51ColorIndex
 90
      256
102
RTVSPost2010Prop51ColorRGB
 90
-16777216
102
RTVSPost2010PropOp51
 70
     0
102
RTVSPost2010Prop52
140
1.0
102
RTVSPost2010PropOp52
 70
     0
102
RTVSPost2010Prop53
 90
        2
102
RTVSPost2010PropOp53
 70
     1
102
RTVSPost2010Prop54
  1
strokes_ogs.tif
102
RTVSPost2010PropOp54
 70
     1
102
RTVSPost2010Prop55
280
     0
102
RTVSPost2010PropOp55
 70
     1
102
RTVSPost2010Prop56
140
1.0
102
RTVSPost2010PropOp56
 70
     1
102
RTVSPost2010Prop57
140
1.0
102
RTVSPost2010PropOp57
 70
     1
102
RTVSPropertyOp0
 70
     1
102
RTVSPropertyOp1
 70
     1
102
RTVSPropertyOp2
 70
     1
102
RTVSPropertyOp3
 70
     1
102
RTVSPropertyOp4
 70
     1
102
RTVSPropertyOp5
 70
     1
102
RTVSPropertyOp6
 70
     1
102
RTVSPropertyOp7
 70
     1
102
RTVSPropertyOp8
 70
     1
102
RTVSPropertyOp9
 70
     1
102
RTVSPropertyOp10
 70
     1
102
RTVSPropertyOp11
 70
     1
102
RTVSPropertyOp12
 70
     1
102
RTVSPropertyOp13
 70
     1
102
RTVSPropertyOp14
 70
     1
102
RTVSPropertyOp15
 70
     1
102
RTVSPropertyOp16
 70
     1
102
RTVSPropertyOp17
 70
     1
102
RTVSPropertyOp18
 70
     1
102
RTVSPropertyOp19
 70
     1
102
RTVSPropertyOp20
 70
     1
102
RTVSPropertyOp21
 70
     1
102
RTVSPropertyOp22
 70
     1
102
RTVSPropertyOp23
 70
     1
102
RTVSPropertyOp24
 70
     1
102
RTVSPropertyOp25
 70
     1
102
RTVSPropertyOp26
 70
     1
102
RTVSPropertyOp27
 70
     1
102
RTVSPropertyOp28
 70
     1
102
RTVSPropertyOp29
 70
     1
102
RTVSPropertyOp30
 70
     1
102
RTVSPropertyOp31
 70
     1
102
RTVSPropertyOp32
 70
     1
102
RTVSPropertyOp33
 70
     1
102
RTVSPropertyOp34
 70
     1
102
RTVSPropertyOp35
 70
     1
102
RTVSPropertyOp36
 70
     1
102
RTVSPropertyOp37
 70
     1
102
RTVSPropertyOp38
 70
     1
102
RTVSPropertyOp39
 70
     1
102
RTVSPropertyOp40
 70
     1
102
RTVSPropertyOp41
 70
     1
102
RTVSPropertyOp42
 70
     1
102
RTVSPropertyOp43
 70
     1
102
RTVSPropertyOp44
 70
     1
102
RTVSPropertyOp45
 70
     1
102
RTVSPropertyOp46
 70
     1
102
RTVSPropertyOp47
 70
     1
102
RTVSPropertyOp48
 70
     1
102
RTVSPropertyOp49
 70
     1
102
RTVSPropertyOp50
 70
     1
102
RTVSPropertyOp51
 70
     0
102
RTVSPropertyOp52
 70
     0
102
RTVSPropertyOp53
 70
     1
102
RTVSPropertyOp54
 70
     1
102
RTVSPropertyOp55
 70
     1
102
RTVSPropertyOp56
 70
     1
102
RTVSPropertyOp57
 70
     1
102
RTVSPropertyOp58
 70
     1
102
RTVSPropertyOp59
 70
     1
102
RTVSPropertyOp60
 70
     1
102
RTVSPropertyOp61
 70
     1
102
RTVSPropertyOp62
 70
     1
  0
XRECORD
  5
1045
102
{ACAD_REACTORS
330
1044
102
}
330
1044
100
AcDbXrecord
280
     1
102
RTVSPost2010Prop28
280
     0
102
RTVSPost2010PropOp28
 70
     1
102
RTVSPost2010Prop29
280
     1
102
RTVSPost2010PropOp29
 70
     1
102
RTVSPost2010Prop30
280
     1
102
RTVSPost2010PropOp30
 70
     1
102
RTVSPost2010Prop31
280
     0
102
RTVSPost2010PropOp31
 70
     1
102
RTVSPost2010Prop32
280
     0
102
RTVSPost2010PropOp32
 70
     1
102
RTVSPost2010Prop33
280
     0
102
RTVSPost2010PropOp33
 70
     1
102
RTVSPost2010Prop34
280
     0
102
RTVSPost2010PropOp34
 70
     1
102
RTVSPost2010Prop35
280
     0
102
RTVSPost2010PropOp35
 70
     1
102
RTVSPost2010Prop36
280
     0
102
RTVSPost2010PropOp36
 70
     1
102
RTVSPost2010Prop37
 90
       50
102
RTVSPost2010PropOp37
 70
     1
102
RTVSPost2010Prop38
140
0.0
102
RTVSPost2010PropOp38
 70
     1
102
RTVSPost2010Prop39
140
1.0
102
RTVSPost2010PropOp39
 70
     1
102
RTVSPost2010Prop40
 90
        0
102
RTVSPost2010PropOp40
 70
     1
102
RTVSPost2010Prop41ColorIndex
 90
       18
102
RTVSPost2010Prop41ColorRGB
 90
        0
102
RTVSPost2010PropOp41
 70
     1
102
RTVSPost2010Prop42
 90
       50
102
RTVSPost2010PropOp42
 70
     1
102
RTVSPost2010Prop43
 90
        3
102
RTVSPost2010PropOp43
 70
     1
102
RTVSPost2010Prop44ColorIndex
 90
        5
102
RTVSPost2010Prop44ColorRGB
 90
      255
102
RTVSPost2010PropOp44
 70
     1
102
RTVSPost2010Prop45
280
     0
102
RTVSPost2010PropOp45
 70
     1
102
RTVSPost2010Prop46
 90
       50
102
RTVSPost2010PropOp46
 70
     1
102
RTVSPost2010Prop47
 90
       50
102
RTVSPost2010PropOp47
 70
     1
102
RTVSPost2010Prop48
 90
       50
102
RTVSPost2010PropOp48
 70
     1
102
RTVSPost2010Prop49
280
     0
102
RTVSPost2010PropOp49
 70
     1
102
RTVSPost2010Prop50
 90
       50
102
RTVSPost2010PropOp50
 70
     1
102
RTVSPost2010Prop51ColorIndex
 90
      256
102
RTVSPost2010Prop51ColorRGB
 90
-16777216
102
RTVSPost2010PropOp51
 70
     0
102
RTVSPost2010Prop52
140
1.0
102
RTVSPost2010PropOp52
 70
     0
102
RTVSPost2010Prop53
 90
        2
102
RTVSPost2010PropOp53
 70
     1
102
RTVSPost2010Prop54
  1
strokes_ogs.tif
102
RTVSPost2010PropOp54
 70
     1
102
RTVSPost2010Prop55
280
     0
102
RTVSPost2010PropOp55
 70
     1
102
RTVSPost2010Prop56
140
1.0
102
RTVSPost2010PropOp56
 70
     1
102
RTVSPost2010Prop57
140
1.0
102
RTVSPost2010PropOp57
 70
     1
102
RTVSPropertyOp0
 70
     1
102
RTVSPropertyOp1
 70
     1
102
RTVSPropertyOp2
 70
     1
102
RTVSPropertyOp3
 70
     1
102
RTVSPropertyOp4
 70
     1
102
RTVSPropertyOp5
 70
     1
102
RTVSPropertyOp6
 70
     1
102
RTVSPropertyOp7
 70
     1
102
RTVSPropertyOp8
 70
     1
102
RTVSPropertyOp9
 70
     1
102
RTVSPropertyOp10
 70
     1
102
RTVSPropertyOp11
 70
     1
102
RTVSPropertyOp12
 70
     1
102
RTVSPropertyOp13
 70
     1
102
RTVSPropertyOp14
 70
     1
102
RTVSPropertyOp15
 70
     1
102
RTVSPropertyOp16
 70
     1
102
RTVSPropertyOp17
 70
     1
102
RTVSPropertyOp18
 70
     1
102
RTVSPropertyOp19
 70
     1
102
RTVSPropertyOp20
 70
     1
102
RTVSPropertyOp21
 70
     1
102
RTVSPropertyOp22
 70
     1
102
RTVSPropertyOp23
 70
     1
102
RTVSPropertyOp24
 70
     1
102
RTVSPropertyOp25
 70
     1
102
RTVSPropertyOp26
 70
     1
102
RTVSPropertyOp27
 70
     1
102
RTVSPropertyOp28
 70
     1
102
RTVSPropertyOp29
 70
     1
102
RTVSPropertyOp30
 70
     1
102
RTVSPropertyOp31
 70
     1
102
RTVSPropertyOp32
 70
     1
102
RTVSPropertyOp33
 70
     1
102
RTVSPropertyOp34
 70
     1
102
RTVSPropertyOp35
 70
     1
102
RTVSPropertyOp36
 70
     1
102
RTVSPropertyOp37
 70
     1
102
RTVSPropertyOp38
 70
     1
102
RTVSPropertyOp39
 70
     1
102
RTVSPropertyOp40
 70
     1
102
RTVSPropertyOp41
 70
     1
102
RTVSPropertyOp42
 70
     1
102
RTVSPropertyOp43
 70
     1
102
RTVSPropertyOp44
 70
     1
102
RTVSPropertyOp45
 70
     1
102
RTVSPropertyOp46
 70
     1
102
RTVSPropertyOp47
 70
     1
102
RTVSPropertyOp48
 70
     1
102
RTVSPropertyOp49
 70
     1
102
RTVSPropertyOp50
 70
     1
102
RTVSPropertyOp51
 70
     0
102
RTVSPropertyOp52
 70
     0
102
RTVSPropertyOp53
 70
     1
102
RTVSPropertyOp54
 70
     1
102
RTVSPropertyOp55
 70
     1
102
RTVSPropertyOp56
 70
     1
102
RTVSPropertyOp57
 70
     1
102
RTVSPropertyOp58
 70
     1
102
RTVSPropertyOp59
 70
     1
102
RTVSPropertyOp60
 70
     1
102
RTVSPropertyOp61
 70
     1
102
RTVSPropertyOp62
 70
     1
  0
XRECORD
  5
105D
102
{ACAD_REACTORS
330
105C
102
}
330
105C
100
AcDbXrecord
280
     1
102
RTVSPost2010Prop28
280
     0
102
RTVSPost2010PropOp28
 70
     1
102
RTVSPost2010Prop29
280
     1
102
RTVSPost2010PropOp29
 70
     1
102
RTVSPost2010Prop30
280
     1
102
RTVSPost2010PropOp30
 70
     1
102
RTVSPost2010Prop31
280
     0
102
RTVSPost2010PropOp31
 70
     1
102
RTVSPost2010Prop32
280
     0
102
RTVSPost2010PropOp32
 70
     1
102
RTVSPost2010Prop33
280
     0
102
RTVSPost2010PropOp33
 70
     1
102
RTVSPost2010Prop34
280
     0
102
RTVSPost2010PropOp34
 70
     1
102
RTVSPost2010Prop35
280
     0
102
RTVSPost2010PropOp35
 70
     1
102
RTVSPost2010Prop36
280
     0
102
RTVSPost2010PropOp36
 70
     1
102
RTVSPost2010Prop37
 90
       50
102
RTVSPost2010PropOp37
 70
     1
102
RTVSPost2010Prop38
140
0.0
102
RTVSPost2010PropOp38
 70
     1
102
RTVSPost2010Prop39
140
1.0
102
RTVSPost2010PropOp39
 70
     1
102
RTVSPost2010Prop40
 90
        0
102
RTVSPost2010PropOp40
 70
     1
102
RTVSPost2010Prop41ColorIndex
 90
       18
102
RTVSPost2010Prop41ColorRGB
 90
        0
102
RTVSPost2010PropOp41
 70
     1
102
RTVSPost2010Prop42
 90
       50
102
RTVSPost2010PropOp42
 70
     1
102
RTVSPost2010Prop43
 90
        3
102
RTVSPost2010PropOp43
 70
     1
102
RTVSPost2010Prop44ColorIndex
 90
        5
102
RTVSPost2010Prop44ColorRGB
 90
      255
102
RTVSPost2010PropOp44
 70
     1
102
RTVSPost2010Prop45
280
     0
102
RTVSPost2010PropOp45
 70
     1
102
RTVSPost2010Prop46
 90
       50
102
RTVSPost2010PropOp46
 70
     1
102
RTVSPost2010Prop47
 90
       50
102
RTVSPost2010PropOp47
 70
     1
102
RTVSPost2010Prop48
 90
       50
102
RTVSPost2010PropOp48
 70
     1
102
RTVSPost2010Prop49
280
     0
102
RTVSPost2010PropOp49
 70
     1
102
RTVSPost2010Prop50
 90
       50
102
RTVSPost2010PropOp50
 70
     1
102
RTVSPost2010Prop51ColorIndex
 90
      256
102
RTVSPost2010Prop51ColorRGB
 90
-16777216
102
RTVSPost2010PropOp51
 70
     0
102
RTVSPost2010Prop52
140
1.0
102
RTVSPost2010PropOp52
 70
     0
102
RTVSPost2010Prop53
 90
        2
102
RTVSPost2010PropOp53
 70
     1
102
RTVSPost2010Prop54
  1
strokes_ogs.tif
102
RTVSPost2010PropOp54
 70
     1
102
RTVSPost2010Prop55
280
     0
102
RTVSPost2010PropOp55
 70
     1
102
RTVSPost2010Prop56
140
1.0
102
RTVSPost2010PropOp56
 70
     1
102
RTVSPost2010Prop57
140
1.0
102
RTVSPost2010PropOp57
 70
     1
102
RTVSPropertyOp0
 70
     1
102
RTVSPropertyOp1
 70
     1
102
RTVSPropertyOp2
 70
     1
102
RTVSPropertyOp3
 70
     1
102
RTVSPropertyOp4
 70
     1
102
RTVSPropertyOp5
 70
     1
102
RTVSPropertyOp6
 70
     1
102
RTVSPropertyOp7
 70
     1
102
RTVSPropertyOp8
 70
     1
102
RTVSPropertyOp9
 70
     1
102
RTVSPropertyOp10
 70
     1
102
RTVSPropertyOp11
 70
     1
102
RTVSPropertyOp12
 70
     1
102
RTVSPropertyOp13
 70
     1
102
RTVSPropertyOp14
 70
     1
102
RTVSPropertyOp15
 70
     1
102
RTVSPropertyOp16
 70
     1
102
RTVSPropertyOp17
 70
     1
102
RTVSPropertyOp18
 70
     1
102
RTVSPropertyOp19
 70
     1
102
RTVSPropertyOp20
 70
     1
102
RTVSPropertyOp21
 70
     1
102
RTVSPropertyOp22
 70
     1
102
RTVSPropertyOp23
 70
     1
102
RTVSPropertyOp24
 70
     1
102
RTVSPropertyOp25
 70
     1
102
RTVSPropertyOp26
 70
     1
102
RTVSPropertyOp27
 70
     1
102
RTVSPropertyOp28
 70
     1
102
RTVSPropertyOp29
 70
     1
102
RTVSPropertyOp30
 70
     1
102
RTVSPropertyOp31
 70
     1
102
RTVSPropertyOp32
 70
     1
102
RTVSPropertyOp33
 70
     1
102
RTVSPropertyOp34
 70
     1
102
RTVSPropertyOp35
 70
     1
102
RTVSPropertyOp36
 70
     1
102
RTVSPropertyOp37
 70
     1
102
RTVSPropertyOp38
 70
     1
102
RTVSPropertyOp39
 70
     1
102
RTVSPropertyOp40
 70
     1
102
RTVSPropertyOp41
 70
     1
102
RTVSPropertyOp42
 70
     1
102
RTVSPropertyOp43
 70
     1
102
RTVSPropertyOp44
 70
     1
102
RTVSPropertyOp45
 70
     1
102
RTVSPropertyOp46
 70
     1
102
RTVSPropertyOp47
 70
     1
102
RTVSPropertyOp48
 70
     1
102
RTVSPropertyOp49
 70
     1
102
RTVSPropertyOp50
 70
     1
102
RTVSPropertyOp51
 70
     0
102
RTVSPropertyOp52
 70
     0
102
RTVSPropertyOp53
 70
     1
102
RTVSPropertyOp54
 70
     1
102
RTVSPropertyOp55
 70
     1
102
RTVSPropertyOp56
 70
     1
102
RTVSPropertyOp57
 70
     1
102
RTVSPropertyOp58
 70
     1
102
RTVSPropertyOp59
 70
     1
102
RTVSPropertyOp60
 70
     1
102
RTVSPropertyOp61
 70
     1
102
RTVSPropertyOp62
 70
     1
  0
ENDSEC
  0
EOF
