  0
SECTION
  2
HEADER
  9
$ACADVER
  1
AC1015
  9
$ACADMAINTVER
 70
    20
  9
$DWGCODEPAGE
  3
ANSI_932
  9
$INSBASE
 10
0.0
 20
0.0
 30
0.0
  9
$EXTMIN
 10
10.0
 20
9.999999999999998
 30
0.0
  9
$EXTMAX
 10
415.2971589999998
 20
241.9368899999998
 30
0.0
  9
$LIMMIN
 10
0.000002
 20
0.0
  9
$LIMMAX
 10
495.0000019999998
 20
341.25
  9
$ORTHOMODE
 70
     1
  9
$REGENMODE
 70
     1
  9
$FILLMODE
 70
     1
  9
$QTEXTMODE
 70
     0
  9
$MIRRTEXT
 70
     1
  9
$LTSCALE
 40
1.0
  9
$ATTMODE
 70
     1
  9
$TEXTSIZE
 40
2.5
  9
$TRACEWID
 40
1.0
  9
$TEXTSTYLE
  7
STANDARD
  9
$CLAYER
  8
0
  9
$CELTYPE
  6
BYLAYER
  9
$CECOLOR
 62
   256
  9
$CELTSCALE
 40
1.0
  9
$DISPSILH
 70
     0
  9
$DIMSCALE
 40
1.0
  9
$DIMASZ
 40
3.0
  9
$DIMEXO
 40
1.0
  9
$DIMDLI
 40
10.0
  9
$DIMRND
 40
0.0
  9
$DIMDLE
 40
0.0
  9
$DIMEXE
 40
1.0
  9
$DIMTP
 40
0.0
  9
$DIMTM
 40
0.0
  9
$DIMTXT
 40
3.2
  9
$DIMCEN
 40
0.0
  9
$DIMTSZ
 40
0.0
  9
$DIMTOL
 70
     0
  9
$DIMLIM
 70
     0
  9
$DIMTIH
 70
     0
  9
$DIMTOH
 70
     0
  9
$DIMSE1
 70
     0
  9
$DIMSE2
 70
     0
  9
$DIMTAD
 70
     3
  9
$DIMZIN
 70
     8
  9
$DIMBLK
  1

  9
$DIMASO
 70
     1
  9
$DIMSHO
 70
     1
  9
$DIMPOST
  1

  9
$DIMAPOST
  1

  9
$DIMALT
 70
     0
  9
$DIMALTD
 70
     2
  9
$DIMALTF
 40
25.4
  9
$DIMLFAC
 40
1.0
  9
$DIMTOFL
 70
     1
  9
$DIMTVP
 40
0.0
  9
$DIMTIX
 70
     0
  9
$DIMSOXD
 70
     0
  9
$DIMSAH
 70
     1
  9
$DIMBLK1
  1
OPEN
  9
$DIMBLK2
  1
OPEN
  9
$DIMSTYLE
  2
STANDARD
  9
$DIMCLRD
 70
     0
  9
$DIMCLRE
 70
     0
  9
$DIMCLRT
 70
     0
  9
$DIMTFAC
 40
1.0
  9
$DIMGAP
 40
1.0
  9
$DIMJUST
 70
     0
  9
$DIMSD1
 70
     0
  9
$DIMSD2
 70
     0
  9
$DIMTOLJ
 70
     1
  9
$DIMTZIN
 70
     0
  9
$DIMALTZ
 70
     0
  9
$DIMALTTZ
 70
     0
  9
$DIMUPT
 70
     0
  9
$DIMDEC
 70
     4
  9
$DIMTDEC
 70
     4
  9
$DIMALTU
 70
     2
  9
$DIMALTTD
 70
     2
  9
$DIMTXSTY
  7
STANDARD
  9
$DIMAUNIT
 70
     0
  9
$DIMADEC
 70
     0
  9
$DIMALTRND
 40
0.0
  9
$DIMAZIN
 70
     0
  9
$DIMDSEP
 70
    46
  9
$DIMATFIT
 70
     3
  9
$DIMFRAC
 70
     0
  9
$DIMLDRBLK
  1
OPEN
  9
$DIMLUNIT
 70
     2
  9
$DIMLWD
 70
    -2
  9
$DIMLWE
 70
    -2
  9
$DIMTMOVE
 70
     0
  9
$LUNITS
 70
     2
  9
$LUPREC
 70
     4
  9
$SKETCHINC
 40
1.0
  9
$FILLETRAD
 40
10.0
  9
$AUNITS
 70
     0
  9
$AUPREC
 70
     0
  9
$MENU
  1
.
  9
$ELEVATION
 40
0.0
  9
$PELEVATION
 40
0.0
  9
$THICKNESS
 40
0.0
  9
$LIMCHECK
 70
     0
  9
$CHAMFERA
 40
10.0
  9
$CHAMFERB
 40
10.0
  9
$CHAMFERC
 40
0.0
  9
$CHAMFERD
 40
0.0
  9
$SKPOLY
 70
     0
  9
$TDCREATE
 40
2451640.629935996
  9
$TDUCREATE
 40
2451640.254935995
  9
$TDUPDATE
 40
2457192.600810845
  9
$TDUUPDATE
 40
2457192.225810845
  9
$TDINDWG
 40
0.0126443866
  9
$TDUSRTIMER
 40
0.0126440625
  9
$USRTIMER
 70
     1
  9
$ANGBASE
 50
0.0
  9
$ANGDIR
 70
     0
  9
$PDMODE
 70
     0
  9
$PDSIZE
 40
0.0
  9
$PLINEWID
 40
0.0
  9
$SPLFRAME
 70
     0
  9
$SPLINETYPE
 70
     6
  9
$SPLINESEGS
 70
     8
  9
$HANDSEED
  5
BDE
  9
$SURFTAB1
 70
     6
  9
$SURFTAB2
 70
     6
  9
$SURFTYPE
 70
     6
  9
$SURFU
 70
     6
  9
$SURFV
 70
     6
  9
$UCSBASE
  2

  9
$UCSNAME
  2

  9
$UCSORG
 10
0.0
 20
0.0
 30
0.0
  9
$UCSXDIR
 10
1.0
 20
0.0
 30
0.0
  9
$UCSYDIR
 10
0.0
 20
1.0
 30
0.0
  9
$UCSORTHOREF
  2

  9
$UCSORTHOVIEW
 70
     0
  9
$UCSORGTOP
 10
0.0
 20
0.0
 30
0.0
  9
$UCSORGBOTTOM
 10
0.0
 20
0.0
 30
0.0
  9
$UCSORGLEFT
 10
0.0
 20
0.0
 30
0.0
  9
$UCSORGRIGHT
 10
0.0
 20
0.0
 30
0.0
  9
$UCSORGFRONT
 10
0.0
 20
0.0
 30
0.0
  9
$UCSORGBACK
 10
0.0
 20
0.0
 30
0.0
  9
$PUCSBASE
  2

  9
$PUCSNAME
  2

  9
$PUCSORG
 10
0.0
 20
0.0
 30
0.0
  9
$PUCSXDIR
 10
1.0
 20
0.0
 30
0.0
  9
$PUCSYDIR
 10
0.0
 20
1.0
 30
0.0
  9
$PUCSORTHOREF
  2

  9
$PUCSORTHOVIEW
 70
     0
  9
$PUCSORGTOP
 10
0.0
 20
0.0
 30
0.0
  9
$PUCSORGBOTTOM
 10
0.0
 20
0.0
 30
0.0
  9
$PUCSORGLEFT
 10
0.0
 20
0.0
 30
0.0
  9
$PUCSORGRIGHT
 10
0.0
 20
0.0
 30
0.0
  9
$PUCSORGFRONT
 10
0.0
 20
0.0
 30
0.0
  9
$PUCSORGBACK
 10
0.0
 20
0.0
 30
0.0
  9
$USERI1
 70
     0
  9
$USERI2
 70
     0
  9
$USERI3
 70
     0
  9
$USERI4
 70
     0
  9
$USERI5
 70
     0
  9
$USERR1
 40
0.0
  9
$USERR2
 40
0.0
  9
$USERR3
 40
0.0
  9
$USERR4
 40
0.0
  9
$USERR5
 40
0.0
  9
$WORLDVIEW
 70
     1
  9
$SHADEDGE
 70
     3
  9
$SHADEDIF
 70
    70
  9
$TILEMODE
 70
     1
  9
$MAXACTVP
 70
    48
  9
$PINSBASE
 10
0.0
 20
0.0
 30
0.0
  9
$PLIMCHECK
 70
     0
  9
$PEXTMIN
 10
1.000000000000000E+20
 20
1.000000000000000E+20
 30
1.000000000000000E+20
  9
$PEXTMAX
 10
-1.000000000000000E+20
 20
-1.000000000000000E+20
 30
-1.000000000000000E+20
  9
$PLIMMIN
 10
0.0
 20
0.0
  9
$PLIMMAX
 10
420.0
 20
297.0
  9
$UNITMODE
 70
     0
  9
$VISRETAIN
 70
     1
  9
$PLINEGEN
 70
     0
  9
$PSLTSCALE
 70
     1
  9
$TREEDEPTH
 70
  3020
  9
$CMLSTYLE
  2
STANDARD
  9
$CMLJUST
 70
     0
  9
$CMLSCALE
 40
1.0
  9
$PROXYGRAPHICS
 70
     1
  9
$MEASUREMENT
 70
     0
  9
$CELWEIGHT
370
    -1
  9
$ENDCAPS
280
     0
  9
$JOINSTYLE
280
     0
  9
$LWDISPLAY
290
     0
  9
$INSUNITS
 70
     0
  9
$HYPERLINKBASE
  1

  9
$STYLESHEET
  1

  9
$XEDIT
290
     1
  9
$CEPSNTYPE
380
     0
  9
$PSTYLEMODE
290
     1
  9
$FINGERPRINTGUID
  2
{95B7BBAC-24A4-4D4C-B3E5-09586EF645D1}
  9
$VERSIONGUID
  2
{54CBBF54-D208-4F92-82A9-4284CAFF3398}
  9
$EXTNAMES
290
     1
  9
$PSVPSCALE
 40
0.0
  9
$OLESTARTUP
290
     0
  0
ENDSEC
  0
SECTION
  2
CLASSES
  0
CLASS
  1
ACDBDICTIONARYWDFLT
  2
AcDbDictionaryWithDefault
  3
ObjectDBX Classes
 90
        0
280
     0
281
     0
  0
CLASS
  1
ACDBPLACEHOLDER
  2
AcDbPlaceHolder
  3
ObjectDBX Classes
 90
        0
280
     0
281
     0
  0
CLASS
  1
LAYOUT
  2
AcDbLayout
  3
ObjectDBX Classes
 90
        0
280
     0
281
     0
  0
CLASS
  1
DICTIONARYVAR
  2
AcDbDictionaryVar
  3
ObjectDBX Classes
 90
        0
280
     0
281
     0
  0
CLASS
  1
MATERIAL
  2
AcDbMaterial
  3
ObjectDBX Classes
 90
     1153
280
     0
281
     0
  0
CLASS
  1
VISUALSTYLE
  2
AcDbVisualStyle
  3
ObjectDBX Classes
 90
     4095
280
     0
281
     0
  0
CLASS
  1
TABLESTYLE
  2
AcDbTableStyle
  3
ObjectDBX Classes
 90
     4095
280
     0
281
     0
  0
CLASS
  1
SCALE
  2
AcDbScale
  3
ObjectDBX Classes
 90
     1153
280
     0
281
     0
  0
CLASS
  1
MLEADERSTYLE
  2
AcDbMLeaderStyle
  3
ACDB_MLEADERSTYLE_CLASS
 90
     4095
280
     0
281
     0
  0
CLASS
  1
ACDBSECTIONVIEWSTYLE
  2
AcDbSectionViewStyle
  3
ObjectDBX Classes
 90
     1025
280
     0
281
     0
  0
CLASS
  1
ACDBDETAILVIEWSTYLE
  2
AcDbDetailViewStyle
  3
ObjectDBX Classes
 90
     1025
280
     0
281
     0
  0
CLASS
  1
CELLSTYLEMAP
  2
AcDbCellStyleMap
  3
ObjectDBX Classes
 90
     1152
280
     0
281
     0
  0
ENDSEC
  0
SECTION
  2
TABLES
  0
TABLE
  2
VPORT
  5
8B6
330
0
100
AcDbSymbolTable
 70
     1
  0
VPORT
  5
B27
330
8B6
100
AcDbSymbolTableRecord
100
AcDbViewportTableRecord
  2
*ACTIVE
 70
     0
 10
0.0
 20
0.0
 11
1.0
 21
1.0
 12
282.9222476924412
 22
125.974446085572
 13
0.0
 23
0.0
 14
10.0
 24
10.0
 15
10.0
 25
10.0
 16
0.0
 26
0.0
 36
1.0
 17
0.0
 27
0.0
 37
0.0
 40
234.5691024542698
 41
1.899603698811096
 42
50.0
 43
0.0
 44
0.0
 50
0.0
 51
0.0
 71
     0
 72
   100
 73
     1
 74
     0
 75
     0
 76
     0
 77
     0
 78
     0
281
     0
 65
     1
110
0.0
120
0.0
130
0.0
111
1.0
121
0.0
131
0.0
112
0.0
122
1.0
132
0.0
 79
     0
146
0.0
1001
ACAD_NAV_VCDISPLAY
1070
     3
  0
ENDTAB
  0
TABLE
  2
LTYPE
  5
8B3
330
0
100
AcDbSymbolTable
 70
     4
  0
LTYPE
  5
8C1
330
8B3
100
AcDbSymbolTableRecord
100
AcDbLinetypeTableRecord
  2
BYBLOCK
 70
     0
  3

 72
    65
 73
     0
 40
0.0
  0
LTYPE
  5
8C2
330
8B3
100
AcDbSymbolTableRecord
100
AcDbLinetypeTableRecord
  2
BYLAYER
 70
     0
  3

 72
    65
 73
     0
 40
0.0
  0
LTYPE
  5
8C3
330
8B3
100
AcDbSymbolTableRecord
100
AcDbLinetypeTableRecord
  2
CONTINUOUS
 70
     0
  3
Solid line
 72
    65
 73
     0
 40
0.0
  0
LTYPE
  5
8D1
330
8B3
100
AcDbSymbolTableRecord
100
AcDbLinetypeTableRecord
  2
DASHED
 70
     0
  3
Dashed __ __ __ __ __ __ __ __ __ __ __ __ __ _
 72
    65
 73
     2
 40
19.05
 49
12.7
 74
     0
 49
-6.349999999999997
 74
     0
  0
LTYPE
  5
8D2
330
8B3
100
AcDbSymbolTableRecord
100
AcDbLinetypeTableRecord
  2
CENTER
 70
     0
  3
Center ____ _ ____ _ ____ _ ____ _ ____ _ ____
 72
    65
 73
     4
 40
50.8
 49
31.75
 74
     0
 49
-6.349999999999997
 74
     0
 49
6.349999999999997
 74
     0
 49
-6.349999999999997
 74
     0
  0
LTYPE
  5
8D3
330
8B3
100
AcDbSymbolTableRecord
100
AcDbLinetypeTableRecord
  2
PHANTOM
 70
     0
  3
Phantom ______  __  __  ______  __  __  ______
 72
    65
 73
     6
 40
63.5
 49
31.75
 74
     0
 49
-6.349999999999997
 74
     0
 49
6.349999999999997
 74
     0
 49
-6.349999999999997
 74
     0
 49
6.349999999999997
 74
     0
 49
-6.349999999999997
 74
     0
  0
ENDTAB
  0
TABLE
  2
LAYER
  5
8B0
330
0
100
AcDbSymbolTable
 70
     8
  0
LAYER
  5
8BE
102
{ACAD_XDICTIONARY
360
B82
102
}
330
8B0
100
AcDbSymbolTableRecord
100
AcDbLayerTableRecord
  2
0
 70
     0
 62
     7
  6
CONTINUOUS
370
    -3
390
B30
  0
LAYER
  5
8D4
102
{ACAD_XDICTIONARY
360
B84
102
}
330
8B0
100
AcDbSymbolTableRecord
100
AcDbLayerTableRecord
  2
4
 70
     0
 62
     1
  6
CENTER
370
    -3
390
B30
  0
LAYER
  5
8D5
102
{ACAD_XDICTIONARY
360
B86
102
}
330
8B0
100
AcDbSymbolTableRecord
100
AcDbLayerTableRecord
  2
5
 70
     0
 62
     6
  6
PHANTOM
370
    -3
390
B30
  0
LAYER
  5
8D6
102
{ACAD_XDICTIONARY
360
B88
102
}
330
8B0
100
AcDbSymbolTableRecord
100
AcDbLayerTableRecord
  2
1
 70
     0
 62
     7
  6
CONTINUOUS
370
    -3
390
B30
  0
LAYER
  5
8D7
102
{ACAD_XDICTIONARY
360
B8A
102
}
330
8B0
100
AcDbSymbolTableRecord
100
AcDbLayerTableRecord
  2
2
 70
     0
 62
     4
  6
CONTINUOUS
370
    -3
390
B30
  0
LAYER
  5
8D8
102
{ACAD_XDICTIONARY
360
B8C
102
}
330
8B0
100
AcDbSymbolTableRecord
100
AcDbLayerTableRecord
  2
3
 70
     0
 62
     2
  6
DASHED
370
    -3
390
B30
  0
LAYER
  5
8D9
102
{ACAD_XDICTIONARY
360
B8E
102
}
330
8B0
100
AcDbSymbolTableRecord
100
AcDbLayerTableRecord
  2
6
 70
     0
 62
     5
  6
CONTINUOUS
370
    -3
390
B30
  0
LAYER
  5
8DA
102
{ACAD_XDICTIONARY
360
B90
102
}
330
8B0
100
AcDbSymbolTableRecord
100
AcDbLayerTableRecord
  2
7
 70
     0
 62
     3
  6
CONTINUOUS
370
    -3
390
B30
  0
ENDTAB
  0
TABLE
  2
STYLE
  5
8B1
330
0
100
AcDbSymbolTable
 70
     1
  0
STYLE
  5
8BF
330
8B1
100
AcDbSymbolTableRecord
100
AcDbTextStyleTableRecord
  2
STANDARD
 70
     0
 40
0.0
 41
1.0
 50
0.0
 71
     0
 42
2.5
  3
txt
  4

  0
ENDTAB
  0
TABLE
  2
VIEW
  5
8B4
330
0
100
AcDbSymbolTable
 70
     0
  0
ENDTAB
  0
TABLE
  2
UCS
  5
8B5
330
0
100
AcDbSymbolTable
 70
     0
  0
ENDTAB
  0
TABLE
  2
APPID
  5
8B7
330
0
100
AcDbSymbolTable
 70
     7
  0
APPID
  5
8C0
330
8B7
100
AcDbSymbolTableRecord
100
AcDbRegAppTableRecord
  2
ACAD
 70
     0
  0
APPID
  5
8DB
330
8B7
100
AcDbSymbolTableRecord
100
AcDbRegAppTableRecord
  2
CONTENTTABDATA
 70
     0
  0
APPID
  5
8DC
330
8B7
100
AcDbSymbolTableRecord
100
AcDbRegAppTableRecord
  2
CONTENTCURRENTTAB
 70
     0
  0
APPID
  5
8DD
330
8B7
100
AcDbSymbolTableRecord
100
AcDbRegAppTableRecord
  2
CONTENTBLOCKDESCRIPTION
 70
     0
  0
APPID
  5
8DE
330
8B7
100
AcDbSymbolTableRecord
100
AcDbRegAppTableRecord
  2
CONTENTBLOCKICON
 70
     0
  0
APPID
  5
B9C
330
8B7
100
AcDbSymbolTableRecord
100
AcDbRegAppTableRecord
  2
ACAD_NAV_VCDISPLAY
 70
     0
  0
APPID
  5
BD5
330
8B7
100
AcDbSymbolTableRecord
100
AcDbRegAppTableRecord
  2
ACAD_MLEADERVER
 70
     0
  0
ENDTAB
  0
TABLE
  2
DIMSTYLE
  5
8B8
330
0
100
AcDbSymbolTable
 70
     1
100
AcDbDimStyleTable
 71
     0
  0
DIMSTYLE
105
8DF
330
8B8
100
AcDbSymbolTableRecord
100
AcDbDimStyleTableRecord
  2
STANDARD
 70
     0
 41
3.0
 42
1.0
 43
10.0
 44
1.0
 73
     0
 74
     0
 77
     3
 78
     8
140
3.2
141
0.0
147
1.0
172
     1
173
     1
284
     8
285
     8
286
     8
340
8BF
  0
ENDTAB
  0
TABLE
  2
BLOCK_RECORD
  5
8AF
330
0
100
AcDbSymbolTable
 70
     1
  0
BLOCK_RECORD
  5
8CC
102
{ACAD_XDICTIONARY
360
B2A
102
}
330
8AF
100
AcDbSymbolTableRecord
100
AcDbBlockTableRecord
  2
*MODEL_SPACE
340
B7E
  0
BLOCK_RECORD
  5
8C8
102
{ACAD_XDICTIONARY
360
B28
102
}
330
8AF
100
AcDbSymbolTableRecord
100
AcDbBlockTableRecord
  2
*PAPER_SPACE
340
B7F
  0
BLOCK_RECORD
  5
8E7
330
8AF
100
AcDbSymbolTableRecord
100
AcDbBlockTableRecord
  2
_OPEN
340
0
  0
ENDTAB
  0
ENDSEC
  0
SECTION
  2
BLOCKS
  0
BLOCK
  5
8CD
330
8CC
100
AcDbEntity
  8
0
100
AcDbBlockBegin
  2
*MODEL_SPACE
 70
     0
 10
0.0
 20
0.0
 30
0.0
  3
*MODEL_SPACE
  1

  0
ENDBLK
  5
8CE
330
8CC
100
AcDbEntity
  8
0
100
AcDbBlockEnd
  0
BLOCK
  5
8C9
330
8C8
100
AcDbEntity
 67
     1
  8
0
100
AcDbBlockBegin
  2
*PAPER_SPACE
 70
     0
 10
0.0
 20
0.0
 30
0.0
  3
*PAPER_SPACE
  1

  0
ENDBLK
  5
8CA
330
8C8
100
AcDbEntity
 67
     1
  8
0
100
AcDbBlockEnd
  0
BLOCK
  5
8E8
330
8E7
100
AcDbEntity
  8
0
100
AcDbBlockBegin
  2
_OPEN
 70
     0
 10
0.0
 20
0.0
 30
0.0
  3
_OPEN
  1

  0
LINE
  5
8E9
330
8E7
100
AcDbEntity
  8
0
  6
ByBlock
 62
     0
100
AcDbLine
 10
-1.0
 20
0.166667
 30
0.0
 11
0.0
 21
0.0
 31
0.0
  0
LINE
  5
8EA
330
8E7
100
AcDbEntity
  8
0
  6
ByBlock
 62
     0
100
AcDbLine
 10
0.0
 20
0.0
 30
0.0
 11
-1.0
 21
-0.166667
 31
0.0
  0
LINE
  5
8EB
330
8E7
100
AcDbEntity
  8
0
  6
ByBlock
 62
     0
100
AcDbLine
 10
0.0
 20
0.0
 30
0.0
 11
-1.0
 21
0.0
 31
0.0
  0
ENDBLK
  5
8EC
330
8E7
100
AcDbEntity
  8
0
100
AcDbBlockEnd
  0
ENDSEC
  0
SECTION
  2
ENTITIES
  0
TEXT
  5
8ED
330
8CC
100
AcDbEntity
  8
7
  6
Continuous
100
AcDbText
 10
10.0
 20
18.0
 30
0.0
 40
3.0
  1
TYPE No.TL-259-2
100
AcDbText
  0
TEXT
  5
8EE
330
8CC
100
AcDbEntity
  8
7
  6
Continuous
100
AcDbText
 10
10.0
 20
26.0
 30
0.0
 40
3.0
  1
CODE No.1740
100
AcDbText
  0
TEXT
  5
8EF
330
8CC
100
AcDbEntity
  8
1
  6
Continuous
100
AcDbText
 10
10.0
 20
10.0
 30
0.0
 40
1.399999999999999
  1
LAYER
100
AcDbText
  0
TEXT
  5
8F0
330
8CC
100
AcDbEntity
  8
1
  6
Continuous
100
AcDbText
 10
17.97951099999998
 20
10.04873699999998
 30
0.0
 40
1.399999999999999
  1
1
100
AcDbText
  0
TEXT
  5
8F1
330
8CC
100
AcDbEntity
  8
7
  6
Continuous
100
AcDbText
 10
29.97951099999999
 20
10.04873699999998
 30
0.0
 40
1.399999999999999
  1
7
100
AcDbText
  0
TEXT
  5
8F2
330
8CC
100
AcDbEntity
  8
4
  6
CENTER
100
AcDbText
 10
23.97951099999999
 20
10.04873699999998
 30
0.0
 40
1.399999999999999
  1
4
100
AcDbText
  0
TEXT
  5
8F3
330
8CC
100
AcDbEntity
  8
3
  6
DASHED
100
AcDbText
 10
21.979511
 20
10.04873699999998
 30
0.0
 40
1.399999999999999
  1
3
100
AcDbText
  0
TEXT
  5
8F4
330
8CC
100
AcDbEntity
  8
2
  6
Continuous
100
AcDbText
 10
19.97951099999999
 20
10.04873699999998
 30
0.0
 40
1.399999999999999
  1
2
100
AcDbText
  0
TEXT
  5
8F5
330
8CC
100
AcDbEntity
  8
6
  6
Continuous
100
AcDbText
 10
27.979511
 20
10.04873699999998
 30
0.0
 40
1.399999999999999
  1
6
100
AcDbText
  0
TEXT
  5
8F6
330
8CC
100
AcDbEntity
  8
5
  6
PHANTOM
100
AcDbText
 10
25.97951099999999
 20
10.04873699999998
 30
0.0
 40
1.399999999999999
  1
5
100
AcDbText
  0
LINE
  5
8F7
330
8CC
100
AcDbEntity
  8
1
  6
Continuous
100
AcDbLine
 10
108.281043
 20
148.4368899999998
 30
0.0
 11
108.281043
 21
123.4368899999999
 31
0.0
  0
LINE
  5
8F8
330
8CC
100
AcDbEntity
  8
1
  6
Continuous
100
AcDbLine
 10
183.3810429999998
 20
148.4368899999998
 30
0.0
 11
183.3810429999998
 21
123.4368899999999
 31
0.0
  0
LINE
  5
8F9
330
8CC
100
AcDbEntity
  8
4
  6
CENTER
100
AcDbLine
 10
92.563986
 20
135.9368899999997
 30
0.0
 11
187.8031009999999
 21
135.9368899999997
 31
0.0
  0
LINE
  5
8FA
330
8CC
100
AcDbEntity
  8
1
  6
Continuous
100
AcDbLine
 10
108.281043
 20
123.4368899999999
 30
0.0
 11
183.3810429999998
 21
123.4368899999999
 31
0.0
  0
LINE
  5
8FB
330
8CC
100
AcDbEntity
  8
1
  6
Continuous
100
AcDbLine
 10
135.5053409999999
 20
148.4368899999998
 30
0.0
 11
183.3810429999998
 21
148.4368899999998
 31
0.0
  0
LINE
  5
8FC
330
8CC
100
AcDbEntity
  8
1
  6
Continuous
100
AcDbLine
 10
108.281043
 20
148.4368899999998
 30
0.0
 11
113.256745
 21
148.4368899999998
 31
0.0
  0
LINE
  5
8FD
330
8CC
100
AcDbEntity
  8
4
  6
CENTER
100
AcDbLine
 10
111.6310429999999
 20
137.4368899999998
 30
0.0
 11
118.1310429999999
 21
137.4368899999998
 31
0.0
  0
LINE
  5
8FE
330
8CC
100
AcDbEntity
  8
4
  6
CENTER
100
AcDbLine
 10
114.8810429999999
 20
140.6868899999998
 30
0.0
 11
114.8810429999999
 21
134.1868899999997
 31
0.0
  0
LINE
  5
8FF
330
8CC
100
AcDbEntity
  8
4
  6
CENTER
100
AcDbLine
 10
176.381043
 20
149.6868899999998
 30
0.0
 11
176.381043
 21
140.1868899999997
 31
0.0
  0
LINE
  5
900
330
8CC
100
AcDbEntity
  8
4
  6
CENTER
100
AcDbLine
 10
171.631043
 20
144.9368899999998
 30
0.0
 11
181.1310429999998
 21
144.9368899999998
 31
0.0
  0
LINE
  5
901
330
8CC
100
AcDbEntity
  8
1
  6
Continuous
100
AcDbLine
 10
177.009842
 20
144.308105
 30
0.0
 11
177.4313809999999
 21
144.504669
 31
0.0
  0
LINE
  5
902
330
8CC
100
AcDbEntity
  8
1
  6
Continuous
100
AcDbLine
 10
177.4313809999999
 20
144.504669
 30
0.0
 11
178.1313629999999
 21
144.5168909999999
 31
0.0
  0
LINE
  5
903
330
8CC
100
AcDbEntity
  8
1
  6
Continuous
100
AcDbLine
 10
177.4313659999999
 20
145.36911
 30
0.0
 11
178.131348
 21
145.3568879999999
 31
0.0
  0
LINE
  5
904
330
8CC
100
AcDbEntity
  8
1
  6
Continuous
100
AcDbLine
 10
177.009827
 20
145.565674
 30
0.0
 11
177.4313659999999
 21
145.36911
 31
0.0
  0
LINE
  5
905
330
8CC
100
AcDbEntity
  8
1
  6
Continuous
100
AcDbLine
 10
176.813278
 20
145.9872279999999
 30
0.0
 11
176.801071
 21
146.6872099999999
 31
0.0
  0
LINE
  5
906
330
8CC
100
AcDbEntity
  8
1
  6
Continuous
100
AcDbLine
 10
177.009827
 20
145.565674
 30
0.0
 11
176.8132629999998
 21
145.9872129999999
 31
0.0
  0
LINE
  5
907
330
8CC
100
AcDbEntity
  8
1
  6
Continuous
100
AcDbLine
 10
175.9488369999999
 20
145.9872129999999
 30
0.0
 11
175.9610449999999
 21
146.6872099999999
 31
0.0
  0
LINE
  5
908
330
8CC
100
AcDbEntity
  8
1
  6
Continuous
100
AcDbLine
 10
175.752259
 20
145.565674
 30
0.0
 11
175.9488369999999
 21
145.9872129999999
 31
0.0
  0
LINE
  5
909
330
8CC
100
AcDbEntity
  8
1
  6
Continuous
100
AcDbLine
 10
175.3307189999999
 20
145.36911
 30
0.0
 11
174.6307379999999
 21
145.3568879999999
 31
0.0
  0
LINE
  5
90A
330
8CC
100
AcDbEntity
  8
1
  6
Continuous
100
AcDbLine
 10
175.7522739999998
 20
145.565674
 30
0.0
 11
175.330734
 21
145.36911
 31
0.0
  0
LINE
  5
90B
330
8CC
100
AcDbEntity
  8
1
  6
Continuous
100
AcDbLine
 10
175.3307189999999
 20
144.504669
 30
0.0
 11
174.6307379999999
 21
144.5168909999999
 31
0.0
  0
LINE
  5
90C
330
8CC
100
AcDbEntity
  8
1
  6
Continuous
100
AcDbLine
 10
175.752259
 20
144.308105
 30
0.0
 11
175.3307189999999
 21
144.504669
 31
0.0
  0
LINE
  5
90D
330
8CC
100
AcDbEntity
  8
1
  6
Continuous
100
AcDbLine
 10
175.9488369999999
 20
143.8865659999999
 30
0.0
 11
175.96106
 21
143.186584
 31
0.0
  0
LINE
  5
90E
330
8CC
100
AcDbEntity
  8
1
  6
Continuous
100
AcDbLine
 10
175.752259
 20
144.308105
 30
0.0
 11
175.948822
 21
143.8865659999999
 31
0.0
  0
LINE
  5
90F
330
8CC
100
AcDbEntity
  8
1
  6
Continuous
100
AcDbLine
 10
176.813278
 20
143.8865659999999
 30
0.0
 11
176.801056
 21
143.1865689999999
 31
0.0
  0
LINE
  5
910
330
8CC
100
AcDbEntity
  8
1
  6
Continuous
100
AcDbLine
 10
177.009827
 20
144.308105
 30
0.0
 11
176.8132629999998
 21
143.8865659999999
 31
0.0
  0
LINE
  5
911
330
8CC
100
AcDbEntity
  8
4
  6
CENTER
100
AcDbLine
 10
124.3810429999999
 20
157.4368899999998
 30
0.0
 11
124.3810429999999
 21
137.4368899999998
 31
0.0
  0
LINE
  5
912
330
8CC
100
AcDbEntity
  8
4
  6
CENTER
100
AcDbLine
 10
113.881058
 20
146.9368899999998
 30
0.0
 11
134.881043
 21
146.9368899999998
 31
0.0
  0
LINE
  5
913
330
8CC
100
AcDbEntity
  8
4
  6
CENTER
100
AcDbLine
 10
176.381043
 20
131.6868899999998
 30
0.0
 11
176.381043
 21
122.18689
 31
0.0
  0
LINE
  5
914
330
8CC
100
AcDbEntity
  8
4
  6
CENTER
100
AcDbLine
 10
171.631043
 20
126.9368899999999
 30
0.0
 11
181.1310429999998
 21
126.9368899999999
 31
0.0
  0
LINE
  5
915
330
8CC
100
AcDbEntity
  8
1
  6
Continuous
100
AcDbLine
 10
177.009842
 20
126.308105
 30
0.0
 11
177.4313809999999
 21
126.5046689999998
 31
0.0
  0
LINE
  5
916
330
8CC
100
AcDbEntity
  8
1
  6
Continuous
100
AcDbLine
 10
177.4313809999999
 20
126.504662
 30
0.0
 11
178.1313629999999
 21
126.5168759999999
 31
0.0
  0
LINE
  5
917
330
8CC
100
AcDbEntity
  8
1
  6
Continuous
100
AcDbLine
 10
177.4313809999999
 20
127.369102
 30
0.0
 11
178.1313629999999
 21
127.3568879999998
 31
0.0
  0
LINE
  5
918
330
8CC
100
AcDbEntity
  8
1
  6
Continuous
100
AcDbLine
 10
177.009842
 20
127.565674
 30
0.0
 11
177.4313809999999
 21
127.369102
 31
0.0
  0
LINE
  5
919
330
8CC
100
AcDbEntity
  8
1
  6
Continuous
100
AcDbLine
 10
176.813278
 20
127.9872209999999
 30
0.0
 11
176.801056
 21
128.687195
 31
0.0
  0
LINE
  5
91A
330
8CC
100
AcDbEntity
  8
1
  6
Continuous
100
AcDbLine
 10
177.009827
 20
127.565674
 30
0.0
 11
176.8132629999998
 21
127.9872209999999
 31
0.0
  0
LINE
  5
91B
330
8CC
100
AcDbEntity
  8
1
  6
Continuous
100
AcDbLine
 10
175.9488369999999
 20
127.9872059999999
 30
0.0
 11
175.96106
 21
128.687195
 31
0.0
  0
LINE
  5
91C
330
8CC
100
AcDbEntity
  8
1
  6
Continuous
100
AcDbLine
 10
175.7522739999998
 20
127.565681
 30
0.0
 11
175.9488369999999
 21
127.9872209999999
 31
0.0
  0
LINE
  5
91D
330
8CC
100
AcDbEntity
  8
1
  6
Continuous
100
AcDbLine
 10
175.3307189999999
 20
127.369102
 30
0.0
 11
174.6307379999999
 21
127.35688
 31
0.0
  0
LINE
  5
91E
330
8CC
100
AcDbEntity
  8
1
  6
Continuous
100
AcDbLine
 10
175.752259
 20
127.565674
 30
0.0
 11
175.3307189999999
 21
127.36911
 31
0.0
  0
LINE
  5
91F
330
8CC
100
AcDbEntity
  8
1
  6
Continuous
100
AcDbLine
 10
175.3307189999999
 20
126.504662
 30
0.0
 11
174.6307379999999
 21
126.516884
 31
0.0
  0
LINE
  5
920
330
8CC
100
AcDbEntity
  8
1
  6
Continuous
100
AcDbLine
 10
175.752259
 20
126.308098
 30
0.0
 11
175.3307189999999
 21
126.5046689999998
 31
0.0
  0
LINE
  5
921
330
8CC
100
AcDbEntity
  8
1
  6
Continuous
100
AcDbLine
 10
175.9488369999999
 20
125.886559
 30
0.0
 11
175.96106
 21
125.1865769999999
 31
0.0
  0
LINE
  5
922
330
8CC
100
AcDbEntity
  8
1
  6
Continuous
100
AcDbLine
 10
175.752259
 20
126.308105
 30
0.0
 11
175.948822
 21
125.8865659999998
 31
0.0
  0
LINE
  5
923
330
8CC
100
AcDbEntity
  8
1
  6
Continuous
100
AcDbLine
 10
176.813278
 20
125.886559
 30
0.0
 11
176.801056
 21
125.186562
 31
0.0
  0
LINE
  5
924
330
8CC
100
AcDbEntity
  8
1
  6
Continuous
100
AcDbLine
 10
177.009842
 20
126.308105
 30
0.0
 11
176.8132629999998
 21
125.8865659999998
 31
0.0
  0
LINE
  5
925
330
8CC
100
AcDbEntity
  8
4
  6
CENTER
100
AcDbLine
 10
143.381043
 20
140.6868899999998
 30
0.0
 11
143.381043
 21
131.1868899999998
 31
0.0
  0
LINE
  5
926
330
8CC
100
AcDbEntity
  8
1
  6
Continuous
100
AcDbLine
 10
144.009827
 20
135.308105
 30
0.0
 11
144.4313659999999
 21
135.5046689999997
 31
0.0
  0
LINE
  5
927
330
8CC
100
AcDbEntity
  8
1
  6
Continuous
100
AcDbLine
 10
144.4313809999999
 20
135.5046539999999
 30
0.0
 11
145.131363
 21
135.5168759999999
 31
0.0
  0
LINE
  5
928
330
8CC
100
AcDbEntity
  8
1
  6
Continuous
100
AcDbLine
 10
144.4313659999999
 20
136.3690949999998
 30
0.0
 11
145.131348
 21
136.356888
 31
0.0
  0
LINE
  5
929
330
8CC
100
AcDbEntity
  8
1
  6
Continuous
100
AcDbLine
 10
144.009827
 20
136.565659
 30
0.0
 11
144.4313659999999
 21
136.3690949999998
 31
0.0
  0
LINE
  5
92A
330
8CC
100
AcDbEntity
  8
1
  6
Continuous
100
AcDbLine
 10
143.8132779999999
 20
136.987213
 30
0.0
 11
143.8010559999999
 21
137.6871949999998
 31
0.0
  0
LINE
  5
92B
330
8CC
100
AcDbEntity
  8
1
  6
Continuous
100
AcDbLine
 10
144.009827
 20
136.565674
 30
0.0
 11
143.8132479999999
 21
136.987213
 31
0.0
  0
LINE
  5
92C
330
8CC
100
AcDbEntity
  8
1
  6
Continuous
100
AcDbLine
 10
142.948822
 20
136.987198
 30
0.0
 11
142.961045
 21
137.6871949999998
 31
0.0
  0
LINE
  5
92D
330
8CC
100
AcDbEntity
  8
1
  6
Continuous
100
AcDbLine
 10
142.752259
 20
136.565674
 30
0.0
 11
142.948822
 21
136.987213
 31
0.0
  0
LINE
  5
92E
330
8CC
100
AcDbEntity
  8
1
  6
Continuous
100
AcDbLine
 10
142.3307189999998
 20
136.3690949999998
 30
0.0
 11
141.6307379999998
 21
136.356873
 31
0.0
  0
LINE
  5
92F
330
8CC
100
AcDbEntity
  8
1
  6
Continuous
100
AcDbLine
 10
142.752259
 20
136.565674
 30
0.0
 11
142.3307189999998
 21
136.36911
 31
0.0
  0
LINE
  5
930
330
8CC
100
AcDbEntity
  8
1
  6
Continuous
100
AcDbLine
 10
142.330704
 20
135.5046689999997
 30
0.0
 11
141.630722
 21
135.5168759999999
 31
0.0
  0
LINE
  5
931
330
8CC
100
AcDbEntity
  8
1
  6
Continuous
100
AcDbLine
 10
142.752259
 20
135.3080899999999
 30
0.0
 11
142.3307189999998
 21
135.5046539999999
 31
0.0
  0
LINE
  5
932
330
8CC
100
AcDbEntity
  8
1
  6
Continuous
100
AcDbLine
 10
142.948837
 20
134.8865509999999
 30
0.0
 11
142.961045
 21
134.1865689999999
 31
0.0
  0
LINE
  5
933
330
8CC
100
AcDbEntity
  8
1
  6
Continuous
100
AcDbLine
 10
142.752259
 20
135.308105
 30
0.0
 11
142.948822
 21
134.8865659999999
 31
0.0
  0
LINE
  5
934
330
8CC
100
AcDbEntity
  8
1
  6
Continuous
100
AcDbLine
 10
143.8132629999998
 20
134.8865659999999
 30
0.0
 11
143.8010559999999
 21
134.1865689999999
 31
0.0
  0
LINE
  5
935
330
8CC
100
AcDbEntity
  8
1
  6
Continuous
100
AcDbLine
 10
144.009827
 20
135.308105
 30
0.0
 11
143.8132629999998
 21
134.8865509999999
 31
0.0
  0
LINE
  5
936
330
8CC
100
AcDbEntity
  8
4
  6
CENTER
100
AcDbLine
 10
43.03153199999999
 20
139.1868899999997
 30
0.0
 11
43.03153199999999
 21
132.6868899999998
 31
0.0
  0
LINE
  5
937
330
8CC
100
AcDbEntity
  8
1
  6
Continuous
100
AcDbLine
 10
120.531037
 20
134.2868959999999
 30
0.0
 11
136.731049
 21
134.2868959999999
 31
0.0
  0
LINE
  5
938
330
8CC
100
AcDbEntity
  8
1
  6
Continuous
100
AcDbLine
 10
120.531037
 20
137.586884
 30
0.0
 11
136.731049
 21
137.586884
 31
0.0
  0
LINE
  5
939
330
8CC
100
AcDbEntity
  8
1
  6
Continuous
100
AcDbLine
 10
18.031531
 20
123.4368899999999
 30
0.0
 11
50.631532
 21
123.4368899999999
 31
0.0
  0
LINE
  5
93A
330
8CC
100
AcDbEntity
  8
1
  6
Continuous
100
AcDbLine
 10
18.031531
 20
148.4368899999998
 30
0.0
 11
50.631532
 21
148.4368899999998
 31
0.0
  0
LINE
  5
93B
330
8CC
100
AcDbEntity
  8
4
  6
CENTER
100
AcDbLine
 10
12.745123
 20
135.9368899999997
 30
0.0
 11
57.47439700000001
 21
135.9368899999997
 31
0.0
  0
LINE
  5
93C
330
8CC
100
AcDbEntity
  8
1
  6
Continuous
100
AcDbLine
 10
18.031531
 20
148.4368899999998
 30
0.0
 11
18.031531
 21
123.4368899999999
 31
0.0
  0
LINE
  5
93D
330
8CC
100
AcDbEntity
  8
1
  6
Continuous
100
AcDbLine
 10
50.631532
 20
155.9368899999998
 30
0.0
 11
50.631532
 21
123.4368899999999
 31
0.0
  0
LINE
  5
93E
330
8CC
100
AcDbEntity
  8
1
  6
Continuous
100
AcDbLine
 10
48.031532
 20
155.9368899999998
 30
0.0
 11
48.031532
 21
148.4368899999998
 31
0.0
  0
LINE
  5
93F
330
8CC
100
AcDbEntity
  8
1
  6
Continuous
100
AcDbLine
 10
48.031532
 20
155.9368899999998
 30
0.0
 11
50.631532
 21
155.9368899999998
 31
0.0
  0
LINE
  5
940
330
8CC
100
AcDbEntity
  8
4
  6
CENTER
100
AcDbLine
 10
33.031532
 20
143.212051
 30
0.0
 11
33.031532
 21
128.587509
 31
0.0
  0
LINE
  5
941
330
8CC
100
AcDbEntity
  8
4
  6
CENTER
100
AcDbLine
 10
131.631043
 20
127.43689
 30
0.0
 11
138.131043
 21
127.43689
 31
0.0
  0
LINE
  5
942
330
8CC
100
AcDbEntity
  8
4
  6
CENTER
100
AcDbLine
 10
134.881043
 20
130.6868899999998
 30
0.0
 11
134.881043
 21
124.1868899999999
 31
0.0
  0
LINE
  5
943
330
8CC
100
AcDbEntity
  8
4
  6
CENTER
100
AcDbLine
 10
19.78153199999999
 20
128.4368899999998
 30
0.0
 11
26.28153199999999
 21
128.4368899999998
 31
0.0
  0
LINE
  5
944
330
8CC
100
AcDbEntity
  8
4
  6
CENTER
100
AcDbLine
 10
23.031532
 20
131.6868899999998
 30
0.0
 11
23.031532
 21
125.1868899999999
 31
0.0
  0
LINE
  5
945
330
8CC
100
AcDbEntity
  8
4
  6
CENTER
100
AcDbLine
 10
19.78153199999999
 20
143.4368899999998
 30
0.0
 11
26.28153199999999
 21
143.4368899999998
 31
0.0
  0
LINE
  5
946
330
8CC
100
AcDbEntity
  8
4
  6
CENTER
100
AcDbLine
 10
23.031532
 20
146.6868899999998
 30
0.0
 11
23.031532
 21
140.1868899999997
 31
0.0
  0
LINE
  5
947
330
8CC
100
AcDbEntity
  8
1
  6
Continuous
100
AcDbLine
 10
36.03153199999999
 20
138.5826419999999
 30
0.0
 11
36.03153199999999
 21
133.2911379999998
 31
0.0
  0
LINE
  5
948
330
8CC
100
AcDbEntity
  8
1
  6
Continuous
100
AcDbLine
 10
173.8673399999999
 20
137.7795869999999
 30
0.0
 11
175.201523
 21
137.7795869999999
 31
0.0
  0
LINE
  5
949
330
8CC
100
AcDbEntity
  8
1
  6
Continuous
100
AcDbLine
 10
165.6003419999999
 20
138.3321989999998
 30
0.0
 11
167.221619
 21
138.3321989999998
 31
0.0
  0
LINE
  5
94A
330
8CC
100
AcDbEntity
  8
1
  6
Continuous
100
AcDbLine
 10
165.6003419999999
 20
139.5368959999998
 30
0.0
 11
165.6003419999999
 21
137.0368959999999
 31
0.0
  0
LINE
  5
94B
330
8CC
100
AcDbEntity
  8
1
  6
Continuous
100
AcDbLine
 10
169.747421
 20
138.2053989999998
 30
0.0
 11
170.6260229999998
 21
138.2053989999998
 31
0.0
  0
LINE
  5
94C
330
8CC
100
AcDbEntity
  8
1
  6
Continuous
100
AcDbLine
 10
167.221619
 20
139.5368959999998
 30
0.0
 11
167.221619
 21
137.0368959999999
 31
0.0
  0
LINE
  5
94D
330
8CC
100
AcDbEntity
  8
1
  6
Continuous
100
AcDbLine
 10
168.1003419999998
 20
139.5368959999998
 30
0.0
 11
168.1003419999998
 21
137.0368959999999
 31
0.0
  0
LINE
  5
94E
330
8CC
100
AcDbEntity
  8
1
  6
Continuous
100
AcDbLine
 10
174.548798
 20
139.534683
 30
0.0
 11
173.57898
 21
137.0368959999999
 31
0.0
  0
LINE
  5
94F
330
8CC
100
AcDbEntity
  8
1
  6
Continuous
100
AcDbLine
 10
172.8988339999999
 20
138.1962889999998
 30
0.0
 11
172.8988339999999
 21
137.0368959999999
 31
0.0
  0
LINE
  5
950
330
8CC
100
AcDbEntity
  8
1
  6
Continuous
100
AcDbLine
 10
170.6260229999998
 20
137.8328089999999
 30
0.0
 11
170.6260229999998
 21
137.0368959999999
 31
0.0
  0
LINE
  5
951
330
8CC
100
AcDbEntity
  8
1
  6
Continuous
100
AcDbLine
 10
171.350632
 20
139.5368959999998
 30
0.0
 11
171.350632
 21
137.0368959999999
 31
0.0
  0
LINE
  5
952
330
8CC
100
AcDbEntity
  8
1
  6
Continuous
100
AcDbLine
 10
172.8988339999999
 20
138.1962889999998
 30
0.0
 11
173.672898
 21
139.536911
 31
0.0
  0
LINE
  5
953
330
8CC
100
AcDbEntity
  8
1
  6
Continuous
100
AcDbLine
 10
172.8988339999999
 20
138.2008059999998
 30
0.0
 11
172.129837
 21
139.5368959999998
 31
0.0
  0
LINE
  5
954
330
8CC
100
AcDbEntity
  8
1
  6
Continuous
100
AcDbLine
 10
159.6162419999998
 20
139.5368959999998
 30
0.0
 11
159.6162419999998
 21
137.0368959999999
 31
0.0
  0
LINE
  5
955
330
8CC
100
AcDbEntity
  8
1
  6
Continuous
100
AcDbLine
 10
158.6017149999999
 20
139.5368959999998
 30
0.0
 11
160.6397399999998
 21
139.5368959999998
 31
0.0
  0
LINE
  5
956
330
8CC
100
AcDbEntity
  8
1
  6
Continuous
100
AcDbLine
 10
151.84964
 20
139.8373569999999
 30
0.0
 11
151.84964
 21
136.736435
 31
0.0
  0
LINE
  5
957
330
8CC
100
AcDbEntity
  8
1
  6
Continuous
100
AcDbLine
 10
151.405762
 20
139.8003689999999
 30
0.0
 11
151.405762
 21
136.773422
 31
0.0
  0
LINE
  5
958
330
8CC
100
AcDbEntity
  8
1
  6
Continuous
100
AcDbLine
 10
150.9609679999998
 20
136.905151
 30
0.0
 11
150.9609679999998
 21
137.7541349999999
 31
0.0
  0
LINE
  5
959
330
8CC
100
AcDbEntity
  8
1
  6
Continuous
100
AcDbLine
 10
150.516175
 20
139.4412839999999
 30
0.0
 11
150.516175
 21
137.132507
 31
0.0
  0
LINE
  5
95A
330
8CC
100
AcDbEntity
  8
1
  6
Continuous
100
AcDbLine
 10
151.84964
 20
138.2873379999997
 30
0.0
 11
151.405762
 21
138.2873379999997
 31
0.0
  0
LINE
  5
95B
330
8CC
100
AcDbEntity
  8
1
  6
Continuous
100
AcDbLine
 10
150.9609679999998
 20
138.820557
 30
0.0
 11
150.9609679999998
 21
139.6686399999999
 31
0.0
  0
LINE
  5
95C
330
8CC
100
AcDbEntity
  8
1
  6
Continuous
100
AcDbLine
 10
150.072281
 20
139.383545
 30
0.0
 11
150.072281
 21
137.191147
 31
0.0
  0
LINE
  5
95D
330
8CC
100
AcDbEntity
  8
1
  6
Continuous
100
AcDbLine
 10
149.627487
 20
137.4672239999999
 30
0.0
 11
149.627487
 21
139.1065519999999
 31
0.0
  0
LINE
  5
95E
330
8CC
100
AcDbEntity
  8
1
  6
Continuous
100
AcDbLine
 10
149.183594
 20
139.5062409999999
 30
0.0
 11
149.183594
 21
137.589935
 31
0.0
  0
LINE
  5
95F
330
8CC
100
AcDbEntity
  8
1
  6
Continuous
100
AcDbLine
 10
153.627014
 20
139.7480319999999
 30
0.0
 11
153.627014
 21
136.9655909999998
 31
0.0
  0
LINE
  5
960
330
8CC
100
AcDbEntity
  8
1
  6
Continuous
100
AcDbLine
 10
153.1831209999998
 20
137.032364
 30
0.0
 11
153.1831209999998
 21
138.2873379999997
 31
0.0
  0
LINE
  5
961
330
8CC
100
AcDbEntity
  8
1
  6
Continuous
100
AcDbLine
 10
152.738327
 20
139.7498319999999
 30
0.0
 11
152.738327
 21
136.8239439999999
 31
0.0
  0
LINE
  5
962
330
8CC
100
AcDbEntity
  8
1
  6
Continuous
100
AcDbLine
 10
152.294434
 20
139.8373569999999
 30
0.0
 11
152.294434
 21
136.736435
 31
0.0
  0
LINE
  5
963
330
8CC
100
AcDbEntity
  8
1
  6
Continuous
100
AcDbLine
 10
155.8834689999999
 20
138.2873379999997
 30
0.0
 11
154.965012
 21
138.2873379999997
 31
0.0
  0
LINE
  5
964
330
8CC
100
AcDbEntity
  8
1
  6
Continuous
100
AcDbLine
 10
154.742157
 20
137.4555049999999
 30
0.0
 11
155.2446899999999
 21
139.3285059999997
 31
0.0
  0
LINE
  5
965
330
8CC
100
AcDbEntity
  8
1
  6
Continuous
100
AcDbLine
 10
154.293747
 20
138.2873379999997
 30
0.0
 11
154.293747
 21
137.2209169999998
 31
0.0
  0
LINE
  5
966
330
8CC
100
AcDbEntity
  8
1
  6
Continuous
100
AcDbLine
 10
154.516602
 20
138.5092929999999
 30
0.0
 11
154.516602
 21
139.4584199999999
 31
0.0
  0
LINE
  5
967
330
8CC
100
AcDbEntity
  8
1
  6
Continuous
100
AcDbLine
 10
154.0718079999998
 20
139.538712
 30
0.0
 11
154.0718079999998
 21
138.5092929999999
 31
0.0
  0
LINE
  5
968
330
8CC
100
AcDbEntity
  8
1
  6
Continuous
100
AcDbLine
 10
153.1831209999998
 20
138.2873379999997
 30
0.0
 11
152.961182
 21
138.2873379999997
 31
0.0
  0
LINE
  5
969
330
8CC
100
AcDbEntity
  8
1
  6
Continuous
100
AcDbLine
 10
153.1831209999998
 20
138.820557
 30
0.0
 11
153.1831209999998
 21
139.5414279999999
 31
0.0
  0
LINE
  5
96A
330
8CC
100
AcDbEntity
  8
1
  6
Continuous
100
AcDbLine
 10
174.548813
 20
139.5391689999998
 30
0.0
 11
175.4744719999999
 21
137.0368959999999
 31
0.0
  0
LINE
  5
96B
330
8CC
100
AcDbEntity
  8
1
  6
Continuous
100
AcDbLine
 10
149.216248
 20
135.4368899999998
 30
0.0
 11
149.216248
 21
132.9368899999997
 31
0.0
  0
LINE
  5
96C
330
8CC
100
AcDbEntity
  8
1
  6
Continuous
100
AcDbLine
 10
148.2017209999999
 20
135.4368899999998
 30
0.0
 11
150.239746
 21
135.4368899999998
 31
0.0
  0
LINE
  5
96D
330
8CC
100
AcDbEntity
  8
1
  6
Continuous
100
AcDbLine
 10
154.420716
 20
132.9369049999999
 30
0.0
 11
155.746735
 21
134.323303
 31
0.0
  0
LINE
  5
96E
330
8CC
100
AcDbEntity
  8
1
  6
Continuous
100
AcDbLine
 10
156.731156
 20
135.4368899999998
 30
0.0
 11
157.971359
 21
135.4368899999998
 31
0.0
  0
LINE
  5
96F
330
8CC
100
AcDbEntity
  8
1
  6
Continuous
100
AcDbLine
 10
156.731156
 20
135.4368899999998
 30
0.0
 11
156.731156
 21
134.0085449999999
 31
0.0
  0
LINE
  5
970
330
8CC
100
AcDbEntity
  8
1
  6
Continuous
100
AcDbLine
 10
154.4207
 20
132.9368899999997
 30
0.0
 11
155.9237669999999
 21
132.9368899999997
 31
0.0
  0
LINE
  5
971
330
8CC
100
AcDbEntity
  8
1
  6
Continuous
100
AcDbLine
 10
150.72171
 20
132.9368899999997
 30
0.0
 11
152.2217099999998
 21
132.9368899999997
 31
0.0
  0
LINE
  5
972
330
8CC
100
AcDbEntity
  8
1
  6
Continuous
100
AcDbLine
 10
150.72171
 20
135.4368899999998
 30
0.0
 11
150.72171
 21
132.9368899999997
 31
0.0
  0
LINE
  5
973
330
8CC
100
AcDbEntity
  8
1
  6
Continuous
100
AcDbLine
 10
152.4961089999999
 20
134.1868899999997
 30
0.0
 11
153.658447
 21
134.1868899999997
 31
0.0
  0
LINE
  5
974
330
8CC
100
AcDbEntity
  8
1
  6
Continuous
100
AcDbLine
 10
160.2907109999999
 20
134.6719359999999
 30
0.0
 11
160.2907109999999
 21
133.702087
 31
0.0
  0
LINE
  5
975
330
8CC
100
AcDbEntity
  8
1
  6
Continuous
100
AcDbLine
 10
374.480087
 20
123.4368899999999
 30
0.0
 11
374.480087
 21
148.4368899999998
 31
0.0
  0
LINE
  5
976
330
8CC
100
AcDbEntity
  8
1
  6
Continuous
100
AcDbLine
 10
183.3810429999998
 20
138.1868899999997
 30
0.0
 11
184.3810429999998
 21
138.1868899999997
 31
0.0
  0
LINE
  5
977
330
8CC
100
AcDbEntity
  8
1
  6
Continuous
100
AcDbLine
 10
183.3810429999998
 20
133.6868899999998
 30
0.0
 11
184.3810429999998
 21
133.6868899999998
 31
0.0
  0
LINE
  5
978
330
8CC
100
AcDbEntity
  8
1
  6
Continuous
100
AcDbLine
 10
184.3810429999998
 20
138.1868899999997
 30
0.0
 11
184.3810429999998
 21
133.6868899999998
 31
0.0
  0
LINE
  5
979
330
8CC
100
AcDbEntity
  8
1
  6
Continuous
100
AcDbLine
 10
158.481049
 20
153.4368899999998
 30
0.0
 11
158.881043
 21
153.4368899999998
 31
0.0
  0
LINE
  5
97A
330
8CC
100
AcDbEntity
  8
1
  6
Continuous
100
AcDbLine
 10
29.67224099999999
 20
148.4368899999998
 30
0.0
 11
28.055462
 21
151.9757689999998
 31
0.0
  0
LINE
  5
97B
330
8CC
100
AcDbEntity
  8
1
  6
Continuous
100
AcDbLine
 10
24.17514099999999
 20
148.4368899999998
 30
0.0
 11
23.50760699999999
 21
149.8980099999999
 31
0.0
  0
LINE
  5
97C
330
8CC
100
AcDbEntity
  8
1
  6
Continuous
100
AcDbLine
 10
158.881043
 20
153.4368899999998
 30
0.0
 11
158.881043
 21
148.4368899999998
 31
0.0
  0
LINE
  5
97D
330
8CC
100
AcDbEntity
  8
1
  6
Continuous
100
AcDbLine
 10
158.481049
 20
153.4368899999998
 30
0.0
 11
158.481049
 21
148.4368899999998
 31
0.0
  0
LINE
  5
97E
330
8CC
100
AcDbEntity
  8
4
  6
CENTER
100
AcDbLine
 10
22.499817
 20
149.4375919999999
 30
0.0
 11
29.208683
 21
152.5026249999999
 31
0.0
  0
LINE
  5
97F
330
8CC
100
AcDbEntity
  8
4
  6
CENTER
100
AcDbLine
 10
24.071003
 20
154.680969
 30
0.0
 11
27.89043799999999
 21
146.3208309999999
 31
0.0
  0
LINE
  5
980
330
8CC
100
AcDbEntity
  8
1
  6
Continuous
100
AcDbLine
 10
26.731503
 20
151.865631
 30
0.0
 11
27.105496
 21
151.047012
 31
0.0
  0
LINE
  5
981
330
8CC
100
AcDbEntity
  8
1
  6
Continuous
100
AcDbLine
 10
24.457573
 20
150.8267519999999
 30
0.0
 11
24.83157
 21
150.008148
 31
0.0
  0
LINE
  5
982
330
8CC
100
AcDbEntity
  8
1
  6
Continuous
100
AcDbLine
 10
96.28104300000003
 20
138.5826419999999
 30
0.0
 11
96.28104300000003
 21
133.2911379999998
 31
0.0
  0
LINE
  5
983
330
8CC
100
AcDbEntity
  8
1
  6
Continuous
100
AcDbLine
 10
97.63529100000004
 20
139.9368899999998
 30
0.0
 11
108.281043
 21
139.9368899999998
 31
0.0
  0
LINE
  5
984
330
8CC
100
AcDbEntity
  8
1
  6
Continuous
100
AcDbLine
 10
97.63529100000004
 20
131.9368899999997
 30
0.0
 11
108.281043
 21
131.9368899999997
 31
0.0
  0
LINE
  5
985
330
8CC
100
AcDbEntity
  8
4
  6
CENTER
100
AcDbLine
 10
121.3810429999999
 20
139.082535
 30
0.0
 11
121.3810429999999
 21
132.6850279999999
 31
0.0
  0
LINE
  5
986
330
8CC
100
AcDbEntity
  8
1
  6
Continuous
100
AcDbLine
 10
122.281037
 20
135.9368899999997
 30
0.0
 11
122.881043
 21
135.9368899999997
 31
0.0
  0
LINE
  5
987
330
8CC
100
AcDbEntity
  8
1
  6
Continuous
100
AcDbLine
 10
133.3810429999997
 20
137.586884
 30
0.0
 11
133.3810429999997
 21
134.2868959999999
 31
0.0
  0
LINE
  5
988
330
8CC
100
AcDbEntity
  8
1
  6
Continuous
100
AcDbLine
 10
268.9305569999999
 20
123.4368899999999
 30
0.0
 11
236.3305569999999
 21
123.4368899999999
 31
0.0
  0
LINE
  5
989
330
8CC
100
AcDbEntity
  8
1
  6
Continuous
100
AcDbLine
 10
268.9305569999999
 20
148.4368899999998
 30
0.0
 11
238.9305569999999
 21
148.4368899999998
 31
0.0
  0
LINE
  5
98A
330
8CC
100
AcDbEntity
  8
4
  6
CENTER
100
AcDbLine
 10
274.216965
 20
135.9368899999997
 30
0.0
 11
229.4876919999999
 21
135.9368899999997
 31
0.0
  0
LINE
  5
98B
330
8CC
100
AcDbEntity
  8
1
  6
Continuous
100
AcDbLine
 10
268.9305569999999
 20
148.4368899999998
 30
0.0
 11
268.9305569999999
 21
123.4368899999999
 31
0.0
  0
LINE
  5
98C
330
8CC
100
AcDbEntity
  8
1
  6
Continuous
100
AcDbLine
 10
236.3305569999999
 20
155.9368899999998
 30
0.0
 11
236.3305569999999
 21
123.4368899999999
 31
0.0
  0
LINE
  5
98D
330
8CC
100
AcDbEntity
  8
1
  6
Continuous
100
AcDbLine
 10
238.9305569999999
 20
155.9368899999998
 30
0.0
 11
238.9305569999999
 21
123.4368899999999
 31
0.0
  0
LINE
  5
98E
330
8CC
100
AcDbEntity
  8
1
  6
Continuous
100
AcDbLine
 10
238.9305569999999
 20
155.9368899999998
 30
0.0
 11
236.3305569999999
 21
155.9368899999998
 31
0.0
  0
LINE
  5
98F
330
8CC
100
AcDbEntity
  8
4
  6
CENTER
100
AcDbLine
 10
253.9305569999999
 20
140.286835
 30
0.0
 11
253.9305569999999
 21
130.937881
 31
0.0
  0
LINE
  5
990
330
8CC
100
AcDbEntity
  8
1
  6
Continuous
100
AcDbLine
 10
250.5712739999999
 20
148.4368899999998
 30
0.0
 11
248.954514
 21
151.9757689999998
 31
0.0
  0
LINE
  5
991
330
8CC
100
AcDbEntity
  8
1
  6
Continuous
100
AcDbLine
 10
257.289871
 20
148.4368899999998
 30
0.0
 11
258.906632
 21
151.975754
 31
0.0
  0
LINE
  5
992
330
8CC
100
AcDbEntity
  8
1
  6
Continuous
100
AcDbLine
 10
262.786972
 20
148.4368899999998
 30
0.0
 11
263.4544829999999
 21
149.8980099999999
 31
0.0
  0
LINE
  5
993
330
8CC
100
AcDbEntity
  8
4
  6
CENTER
100
AcDbLine
 10
250.146683
 20
152.520432
 30
0.0
 11
243.0952
 21
149.298874
 31
0.0
  0
LINE
  5
994
330
8CC
100
AcDbEntity
  8
4
  6
CENTER
100
AcDbLine
 10
264.4622959999999
 20
149.4375919999999
 30
0.0
 11
257.7534029999998
 21
152.5026249999999
 31
0.0
  0
LINE
  5
995
330
8CC
100
AcDbEntity
  8
4
  6
CENTER
100
AcDbLine
 10
262.891098
 20
154.680969
 30
0.0
 11
259.0716709999999
 21
146.3208309999999
 31
0.0
  0
LINE
  5
996
330
8CC
100
AcDbEntity
  8
4
  6
CENTER
100
AcDbLine
 10
245.03215
 20
154.545059
 30
0.0
 11
248.9012609999999
 21
146.0761869999998
 31
0.0
  0
LINE
  5
997
330
8CC
100
AcDbEntity
  8
1
  6
Continuous
100
AcDbLine
 10
260.230606
 20
151.865631
 30
0.0
 11
259.856613
 21
151.047012
 31
0.0
  0
LINE
  5
998
330
8CC
100
AcDbEntity
  8
1
  6
Continuous
100
AcDbLine
 10
262.5045319999999
 20
150.8267519999999
 30
0.0
 11
262.1305389999998
 21
150.008148
 31
0.0
  0
LINE
  5
999
330
8CC
100
AcDbEntity
  8
1
  6
Continuous
100
AcDbLine
 10
247.6305389999999
 20
151.865631
 30
0.0
 11
248.0045319999999
 21
151.047028
 31
0.0
  0
LINE
  5
99A
330
8CC
100
AcDbEntity
  8
1
  6
Continuous
100
AcDbLine
 10
245.356613
 20
150.8267669999999
 30
0.0
 11
245.730606
 21
150.008148
 31
0.0
  0
LINE
  5
99B
330
8CC
100
AcDbEntity
  8
1
  6
Continuous
100
AcDbLine
 10
399.580087
 20
148.4368899999998
 30
0.0
 11
399.580087
 21
123.4368899999999
 31
0.0
  0
LINE
  5
99C
330
8CC
100
AcDbEntity
  8
1
  6
Continuous
100
AcDbLine
 10
324.4800870000001
 20
148.4368899999998
 30
0.0
 11
324.4800870000001
 21
123.4368899999999
 31
0.0
  0
LINE
  5
99D
330
8CC
100
AcDbEntity
  8
4
  6
CENTER
100
AcDbLine
 10
415.2971589999998
 20
135.9368899999997
 30
0.0
 11
318.0459139999999
 21
135.9368899999997
 31
0.0
  0
LINE
  5
99E
330
8CC
100
AcDbEntity
  8
1
  6
Continuous
100
AcDbLine
 10
399.580087
 20
123.4368899999999
 30
0.0
 11
324.4800870000001
 21
123.4368899999999
 31
0.0
  0
LINE
  5
99F
330
8CC
100
AcDbEntity
  8
1
  6
Continuous
100
AcDbLine
 10
374.480087
 20
148.4368899999998
 30
0.0
 11
324.4800870000001
 21
148.4368899999998
 31
0.0
  0
LINE
  5
9A0
330
8CC
100
AcDbEntity
  8
1
  6
Continuous
100
AcDbLine
 10
399.580087
 20
148.4368899999998
 30
0.0
 11
394.6043859999999
 21
148.4368899999998
 31
0.0
  0
LINE
  5
9A1
330
8CC
100
AcDbEntity
  8
4
  6
CENTER
100
AcDbLine
 10
383.480087
 20
156.4368899999998
 30
0.0
 11
383.480087
 21
137.4368899999998
 31
0.0
  0
LINE
  5
9A2
330
8CC
100
AcDbEntity
  8
4
  6
CENTER
100
AcDbLine
 10
396.8247529999999
 20
146.9368899999998
 30
0.0
 11
373.980087
 21
146.9368899999998
 31
0.0
  0
LINE
  5
9A3
330
8CC
100
AcDbEntity
  8
1
  6
Continuous
100
AcDbLine
 10
324.4800870000001
 20
138.1868899999997
 30
0.0
 11
323.480087
 21
138.1868899999997
 31
0.0
  0
LINE
  5
9A4
330
8CC
100
AcDbEntity
  8
1
  6
Continuous
100
AcDbLine
 10
324.4800870000001
 20
133.6868899999998
 30
0.0
 11
323.480087
 21
133.6868899999998
 31
0.0
  0
LINE
  5
9A5
330
8CC
100
AcDbEntity
  8
1
  6
Continuous
100
AcDbLine
 10
323.480087
 20
138.1868899999997
 30
0.0
 11
323.480087
 21
133.6868899999998
 31
0.0
  0
LINE
  5
9A6
330
8CC
100
AcDbEntity
  8
1
  6
Continuous
100
AcDbLine
 10
349.380081
 20
153.4368899999998
 30
0.0
 11
348.980087
 21
153.4368899999998
 31
0.0
  0
LINE
  5
9A7
330
8CC
100
AcDbEntity
  8
1
  6
Continuous
100
AcDbLine
 10
348.980087
 20
153.4368899999998
 30
0.0
 11
348.980087
 21
148.4368899999998
 31
0.0
  0
LINE
  5
9A8
330
8CC
100
AcDbEntity
  8
1
  6
Continuous
100
AcDbLine
 10
349.380081
 20
153.4368899999998
 30
0.0
 11
349.380081
 21
148.4368899999998
 31
0.0
  0
LINE
  5
9A9
330
8CC
100
AcDbEntity
  8
1
  6
Continuous
100
AcDbLine
 10
411.580087
 20
138.5826419999999
 30
0.0
 11
411.580087
 21
133.2911379999998
 31
0.0
  0
LINE
  5
9AA
330
8CC
100
AcDbEntity
  8
1
  6
Continuous
100
AcDbLine
 10
410.225839
 20
139.9368899999998
 30
0.0
 11
399.580087
 21
139.9368899999998
 31
0.0
  0
LINE
  5
9AB
330
8CC
100
AcDbEntity
  8
1
  6
Continuous
100
AcDbLine
 10
410.225839
 20
131.9368899999997
 30
0.0
 11
399.580087
 21
131.9368899999997
 31
0.0
  0
LINE
  5
9AC
330
8CC
100
AcDbEntity
  8
4
  6
CENTER
100
AcDbLine
 10
386.480087
 20
139.082535
 30
0.0
 11
386.480087
 21
132.6850279999999
 31
0.0
  0
LINE
  5
9AD
330
8CC
100
AcDbEntity
  8
1
  6
Continuous
100
AcDbLine
 10
385.5800939999999
 20
135.9368899999997
 30
0.0
 11
384.980087
 21
135.9368899999997
 31
0.0
  0
LINE
  5
9AE
330
8CC
100
AcDbEntity
  8
1
  6
Continuous
100
AcDbLine
 10
245.074173
 20
148.4368899999998
 30
0.0
 11
244.406662
 21
149.8980259999999
 31
0.0
  0
LINE
  5
9AF
330
8CC
100
AcDbEntity
  8
4
  6
CENTER
100
AcDbLine
 10
91.056395
 20
44.93688999999998
 30
0.0
 11
190.039536
 21
44.93688999999998
 31
0.0
  0
LINE
  5
9B0
330
8CC
100
AcDbEntity
  8
1
  6
Continuous
100
AcDbLine
 10
183.3810429999998
 20
31.93689
 30
0.0
 11
183.3810429999998
 21
57.93689
 31
0.0
  0
LINE
  5
9B1
330
8CC
100
AcDbEntity
  8
1
  6
Continuous
100
AcDbLine
 10
108.281043
 20
29.93688999999999
 30
0.0
 11
108.281043
 21
59.93688999999999
 31
0.0
  0
LINE
  5
9B2
330
8CC
100
AcDbEntity
  8
1
  6
Continuous
100
AcDbLine
 10
110.8810429999999
 20
62.53689
 30
0.0
 11
183.3810429999998
 21
62.53689
 31
0.0
  0
LINE
  5
9B3
330
8CC
100
AcDbEntity
  8
1
  6
Continuous
100
AcDbLine
 10
108.281043
 20
29.93688999999999
 30
0.0
 11
110.8810429999999
 21
29.93688999999999
 31
0.0
  0
LINE
  5
9B4
330
8CC
100
AcDbEntity
  8
1
  6
Continuous
100
AcDbLine
 10
110.8810429999999
 20
59.93688999999999
 30
0.0
 11
183.3810429999998
 21
59.93688999999999
 31
0.0
  0
LINE
  5
9B5
330
8CC
100
AcDbEntity
  8
1
  6
Continuous
100
AcDbLine
 10
110.8810429999999
 20
29.93688999999999
 30
0.0
 11
110.8810429999999
 21
59.93688999999999
 31
0.0
  0
LINE
  5
9B6
330
8CC
100
AcDbEntity
  8
4
  6
CENTER
100
AcDbLine
 10
124.3810429999999
 20
52.24902199999998
 30
0.0
 11
124.3810429999999
 21
66.55106500000001
 31
0.0
  0
LINE
  5
9B7
330
8CC
100
AcDbEntity
  8
1
  6
Continuous
100
AcDbLine
 10
133.3810429999997
 20
29.93688999999999
 30
0.0
 11
181.381043
 21
29.93688999999999
 31
0.0
  0
LINE
  5
9B8
330
8CC
100
AcDbEntity
  8
1
  6
Continuous
100
AcDbLine
 10
133.3810429999997
 20
29.93688999999999
 30
0.0
 11
133.3810429999997
 21
59.93688999999999
 31
0.0
  0
LINE
  5
9B9
330
8CC
100
AcDbEntity
  8
1
  6
Continuous
100
AcDbLine
 10
135.381043
 20
29.93688999999999
 30
0.0
 11
135.381043
 21
59.93688999999999
 31
0.0
  0
LINE
  5
9BA
330
8CC
100
AcDbEntity
  8
1
  6
Continuous
100
AcDbLine
 10
135.381043
 20
31.93689
 30
0.0
 11
181.381043
 21
31.93689
 31
0.0
  0
LINE
  5
9BB
330
8CC
100
AcDbEntity
  8
1
  6
Continuous
100
AcDbLine
 10
135.381043
 20
57.93689
 30
0.0
 11
181.381043
 21
57.93689
 31
0.0
  0
LINE
  5
9BC
330
8CC
100
AcDbEntity
  8
1
  6
Continuous
100
AcDbLine
 10
183.3810429999998
 20
59.93688999999999
 30
0.0
 11
183.3810429999998
 21
62.53689
 31
0.0
  0
LINE
  5
9BD
330
8CC
100
AcDbEntity
  8
1
  6
Continuous
100
AcDbLine
 10
181.381043
 20
31.93689
 30
0.0
 11
181.381043
 21
57.93689
 31
0.0
  0
LINE
  5
9BE
330
8CC
100
AcDbEntity
  8
1
  6
Continuous
100
AcDbLine
 10
135.381043
 20
33.43688999999999
 30
0.0
 11
181.381043
 21
33.43688999999999
 31
0.0
  0
LINE
  5
9BF
330
8CC
100
AcDbEntity
  8
1
  6
Continuous
100
AcDbLine
 10
135.381043
 20
56.43689000000001
 30
0.0
 11
181.381043
 21
56.43689000000001
 31
0.0
  0
LINE
  5
9C0
330
8CC
100
AcDbEntity
  8
1
  6
Continuous
100
AcDbLine
 10
184.3810429999998
 20
42.68689000000001
 30
0.0
 11
184.3810429999998
 21
47.18689
 31
0.0
  0
LINE
  5
9C1
330
8CC
100
AcDbEntity
  8
1
  6
Continuous
100
AcDbLine
 10
183.3810429999998
 20
47.18689
 30
0.0
 11
184.3810429999998
 21
47.18689
 31
0.0
  0
LINE
  5
9C2
330
8CC
100
AcDbEntity
  8
1
  6
Continuous
100
AcDbLine
 10
183.3810429999998
 20
42.68689000000001
 30
0.0
 11
184.3810429999998
 21
42.68689000000001
 31
0.0
  0
LINE
  5
9C3
330
8CC
100
AcDbEntity
  8
1
  6
Continuous
100
AcDbLine
 10
96.28104300000003
 20
48.93689000000001
 30
0.0
 11
108.281043
 21
48.93689000000001
 31
0.0
  0
LINE
  5
9C4
330
8CC
100
AcDbEntity
  8
1
  6
Continuous
100
AcDbLine
 10
101.1824939999999
 20
40.93689
 30
0.0
 11
108.281043
 21
40.93689
 31
0.0
  0
LINE
  5
9C5
330
8CC
100
AcDbEntity
  8
4
  6
CENTER
100
AcDbLine
 10
121.3810429999999
 20
35.170105
 30
0.0
 11
121.3810429999999
 21
64.292299
 31
0.0
  0
LINE
  5
9C6
330
8CC
100
AcDbEntity
  8
1
  6
Continuous
100
AcDbLine
 10
116.3810429999999
 20
46.43689000000001
 30
0.0
 11
116.3810429999999
 21
48.93689000000001
 31
0.0
  0
LINE
  5
9C7
330
8CC
100
AcDbEntity
  8
1
  6
Continuous
100
AcDbLine
 10
116.3810429999999
 20
43.43689
 30
0.0
 11
122.881043
 21
43.43689
 31
0.0
  0
LINE
  5
9C8
330
8CC
100
AcDbEntity
  8
1
  6
Continuous
100
AcDbLine
 10
116.3810429999999
 20
46.43689000000001
 30
0.0
 11
122.881043
 21
46.43689000000001
 31
0.0
  0
LINE
  5
9C9
330
8CC
100
AcDbEntity
  8
1
  6
Continuous
100
AcDbLine
 10
116.3810429999999
 20
40.93689
 30
0.0
 11
116.3810429999999
 21
43.43689
 31
0.0
  0
LINE
  5
9CA
330
8CC
100
AcDbEntity
  8
1
  6
Continuous
100
AcDbLine
 10
111.7810439999998
 20
48.93689000000001
 30
0.0
 11
116.3810429999999
 21
48.93689000000001
 31
0.0
  0
LINE
  5
9CB
330
8CC
100
AcDbEntity
  8
1
  6
Continuous
100
AcDbLine
 10
111.7810439999998
 20
40.93689
 30
0.0
 11
116.3810429999999
 21
40.93689
 31
0.0
  0
LINE
  5
9CC
330
8CC
100
AcDbEntity
  8
1
  6
Continuous
100
AcDbLine
 10
111.7810439999998
 20
38.93689000000001
 30
0.0
 11
111.7810439999998
 21
50.93689000000001
 31
0.0
  0
LINE
  5
9CD
330
8CC
100
AcDbEntity
  8
1
  6
Continuous
100
AcDbLine
 10
110.8810429999999
 20
50.93689000000001
 30
0.0
 11
111.7810439999998
 21
50.93689000000001
 31
0.0
  0
LINE
  5
9CE
330
8CC
100
AcDbEntity
  8
1
  6
Continuous
100
AcDbLine
 10
110.8810429999999
 20
38.93689000000001
 30
0.0
 11
111.7810439999998
 21
38.93689000000001
 31
0.0
  0
LINE
  5
9CF
330
8CC
100
AcDbEntity
  8
1
  6
Continuous
100
AcDbLine
 10
117.3810429999999
 20
39.93688999999999
 30
0.0
 11
122.881043
 21
39.93688999999999
 31
0.0
  0
LINE
  5
9D0
330
8CC
100
AcDbEntity
  8
1
  6
Continuous
100
AcDbLine
 10
117.3810429999999
 20
49.93688999999999
 30
0.0
 11
122.881043
 21
49.93688999999999
 31
0.0
  0
LINE
  5
9D1
330
8CC
100
AcDbEntity
  8
1
  6
Continuous
100
AcDbLine
 10
117.3810429999999
 20
39.93688999999999
 30
0.0
 11
117.3810429999999
 21
43.43689
 31
0.0
  0
LINE
  5
9D2
330
8CC
100
AcDbEntity
  8
1
  6
Continuous
100
AcDbLine
 10
117.3810429999999
 20
46.43689000000001
 30
0.0
 11
117.3810429999999
 21
49.93688999999999
 31
0.0
  0
LINE
  5
9D3
330
8CC
100
AcDbEntity
  8
1
  6
Continuous
100
AcDbLine
 10
125.3810429999999
 20
43.43689
 30
0.0
 11
125.3810429999999
 21
46.43689000000001
 31
0.0
  0
LINE
  5
9D4
330
8CC
100
AcDbEntity
  8
1
  6
Continuous
100
AcDbLine
 10
119.8810429999999
 20
37.43688999999999
 30
0.0
 11
122.881043
 21
37.43688999999999
 31
0.0
  0
LINE
  5
9D5
330
8CC
100
AcDbEntity
  8
1
  6
Continuous
100
AcDbLine
 10
119.8810429999999
 20
37.43688999999999
 30
0.0
 11
119.8810429999999
 21
39.93688999999999
 31
0.0
  0
LINE
  5
9D6
330
8CC
100
AcDbEntity
  8
1
  6
Continuous
100
AcDbLine
 10
96.28104300000003
 20
47.936882
 30
0.0
 11
101.1824859999999
 21
40.936893
 31
0.0
  0
LINE
  5
9D7
330
8CC
100
AcDbEntity
  8
1
  6
Continuous
100
AcDbLine
 10
96.28104300000003
 20
47.93688999999999
 30
0.0
 11
96.28104300000003
 21
48.93689000000001
 31
0.0
  0
LINE
  5
9D8
330
8CC
100
AcDbEntity
  8
1
  6
Continuous
100
AcDbLine
 10
119.8810429999999
 20
49.93688999999999
 30
0.0
 11
119.8810429999999
 21
59.93688999999999
 31
0.0
  0
LINE
  5
9D9
330
8CC
100
AcDbEntity
  8
1
  6
Continuous
100
AcDbLine
 10
122.881043
 20
37.43688999999999
 30
0.0
 11
122.881043
 21
59.93688999999999
 31
0.0
  0
LINE
  5
9DA
330
8CC
100
AcDbEntity
  8
4
  6
CENTER
100
AcDbLine
 10
91.056395
 20
226.9368899999999
 30
0.0
 11
190.039536
 21
226.9368899999999
 31
0.0
  0
LINE
  5
9DB
330
8CC
100
AcDbEntity
  8
1
  6
Continuous
100
AcDbLine
 10
183.3810429999998
 20
239.9368899999998
 30
0.0
 11
183.3810429999998
 21
213.93689
 31
0.0
  0
LINE
  5
9DC
330
8CC
100
AcDbEntity
  8
1
  6
Continuous
100
AcDbLine
 10
108.281043
 20
241.9368899999998
 30
0.0
 11
108.281043
 21
211.93689
 31
0.0
  0
LINE
  5
9DD
330
8CC
100
AcDbEntity
  8
1
  6
Continuous
100
AcDbLine
 10
110.8810429999999
 20
209.3368899999999
 30
0.0
 11
183.3810429999998
 21
209.3368899999999
 31
0.0
  0
LINE
  5
9DE
330
8CC
100
AcDbEntity
  8
1
  6
Continuous
100
AcDbLine
 10
108.281043
 20
241.9368899999998
 30
0.0
 11
110.8810429999999
 21
241.9368899999998
 31
0.0
  0
LINE
  5
9DF
330
8CC
100
AcDbEntity
  8
1
  6
Continuous
100
AcDbLine
 10
110.8810429999999
 20
211.93689
 30
0.0
 11
183.3810429999998
 21
211.93689
 31
0.0
  0
LINE
  5
9E0
330
8CC
100
AcDbEntity
  8
1
  6
Continuous
100
AcDbLine
 10
110.8810429999999
 20
241.9368899999998
 30
0.0
 11
110.8810429999999
 21
211.93689
 31
0.0
  0
LINE
  5
9E1
330
8CC
100
AcDbEntity
  8
4
  6
CENTER
100
AcDbLine
 10
124.3810429999999
 20
217.621506
 30
0.0
 11
124.3810429999999
 21
204.067465
 31
0.0
  0
LINE
  5
9E2
330
8CC
100
AcDbEntity
  8
1
  6
Continuous
100
AcDbLine
 10
133.3810429999997
 20
241.9368899999998
 30
0.0
 11
181.381043
 21
241.9368899999998
 31
0.0
  0
LINE
  5
9E3
330
8CC
100
AcDbEntity
  8
1
  6
Continuous
100
AcDbLine
 10
133.3810429999997
 20
241.9368899999998
 30
0.0
 11
133.3810429999997
 21
211.93689
 31
0.0
  0
LINE
  5
9E4
330
8CC
100
AcDbEntity
  8
1
  6
Continuous
100
AcDbLine
 10
135.381043
 20
241.9368899999998
 30
0.0
 11
135.381043
 21
211.93689
 31
0.0
  0
LINE
  5
9E5
330
8CC
100
AcDbEntity
  8
1
  6
Continuous
100
AcDbLine
 10
135.381043
 20
239.9368899999998
 30
0.0
 11
181.381043
 21
239.9368899999998
 31
0.0
  0
LINE
  5
9E6
330
8CC
100
AcDbEntity
  8
1
  6
Continuous
100
AcDbLine
 10
135.381043
 20
213.93689
 30
0.0
 11
181.381043
 21
213.93689
 31
0.0
  0
LINE
  5
9E7
330
8CC
100
AcDbEntity
  8
1
  6
Continuous
100
AcDbLine
 10
183.3810429999998
 20
211.93689
 30
0.0
 11
183.3810429999998
 21
209.3368899999999
 31
0.0
  0
LINE
  5
9E8
330
8CC
100
AcDbEntity
  8
1
  6
Continuous
100
AcDbLine
 10
181.381043
 20
239.9368899999998
 30
0.0
 11
181.381043
 21
213.93689
 31
0.0
  0
LINE
  5
9E9
330
8CC
100
AcDbEntity
  8
1
  6
Continuous
100
AcDbLine
 10
135.381043
 20
238.4368899999998
 30
0.0
 11
181.381043
 21
238.4368899999998
 31
0.0
  0
LINE
  5
9EA
330
8CC
100
AcDbEntity
  8
1
  6
Continuous
100
AcDbLine
 10
135.381043
 20
215.4368899999998
 30
0.0
 11
181.381043
 21
215.4368899999998
 31
0.0
  0
LINE
  5
9EB
330
8CC
100
AcDbEntity
  8
1
  6
Continuous
100
AcDbLine
 10
184.3810429999998
 20
229.1868899999998
 30
0.0
 11
184.3810429999998
 21
224.6868899999999
 31
0.0
  0
LINE
  5
9EC
330
8CC
100
AcDbEntity
  8
1
  6
Continuous
100
AcDbLine
 10
183.3810429999998
 20
224.6868899999999
 30
0.0
 11
184.3810429999998
 21
224.6868899999999
 31
0.0
  0
LINE
  5
9ED
330
8CC
100
AcDbEntity
  8
1
  6
Continuous
100
AcDbLine
 10
183.3810429999998
 20
229.1868899999998
 30
0.0
 11
184.3810429999998
 21
229.1868899999998
 31
0.0
  0
LINE
  5
9EE
330
8CC
100
AcDbEntity
  8
1
  6
Continuous
100
AcDbLine
 10
158.881043
 20
236.6868899999999
 30
0.0
 11
158.881043
 21
229.6868899999998
 31
0.0
  0
LINE
  5
9EF
330
8CC
100
AcDbEntity
  8
1
  6
Continuous
100
AcDbLine
 10
158.481049
 20
236.6868899999999
 30
0.0
 11
158.481049
 21
229.6868899999998
 31
0.0
  0
LINE
  5
9F0
330
8CC
100
AcDbEntity
  8
1
  6
Continuous
100
AcDbLine
 10
158.481049
 20
229.6868899999998
 30
0.0
 11
158.881043
 21
229.6868899999998
 31
0.0
  0
LINE
  5
9F1
330
8CC
100
AcDbEntity
  8
1
  6
Continuous
100
AcDbLine
 10
158.481049
 20
224.1868899999999
 30
0.0
 11
158.881043
 21
224.1868899999999
 31
0.0
  0
LINE
  5
9F2
330
8CC
100
AcDbEntity
  8
1
  6
Continuous
100
AcDbLine
 10
158.481049
 20
236.6868899999999
 30
0.0
 11
158.881043
 21
236.6868899999999
 31
0.0
  0
LINE
  5
9F3
330
8CC
100
AcDbEntity
  8
1
  6
Continuous
100
AcDbLine
 10
158.481049
 20
217.1868899999998
 30
0.0
 11
158.881043
 21
217.1868899999998
 31
0.0
  0
LINE
  5
9F4
330
8CC
100
AcDbEntity
  8
1
  6
Continuous
100
AcDbLine
 10
158.881043
 20
224.1868899999999
 30
0.0
 11
158.881043
 21
217.1868899999998
 31
0.0
  0
LINE
  5
9F5
330
8CC
100
AcDbEntity
  8
1
  6
Continuous
100
AcDbLine
 10
158.481049
 20
224.1868899999999
 30
0.0
 11
158.481049
 21
217.1868899999998
 31
0.0
  0
LINE
  5
9F6
330
8CC
100
AcDbEntity
  8
1
  6
Continuous
100
AcDbLine
 10
96.28104300000003
 20
222.9368899999998
 30
0.0
 11
108.281043
 21
222.9368899999998
 31
0.0
  0
LINE
  5
9F7
330
8CC
100
AcDbEntity
  8
1
  6
Continuous
100
AcDbLine
 10
101.1824939999999
 20
230.9368899999999
 30
0.0
 11
108.281043
 21
230.9368899999999
 31
0.0
  0
LINE
  5
9F8
330
8CC
100
AcDbEntity
  8
5
  6
PHANTOM
100
AcDbLine
 10
101.281043
 20
223.9368899999998
 30
0.0
 11
101.281043
 21
222.9368899999998
 31
0.0
  0
LINE
  5
9F9
330
8CC
100
AcDbEntity
  8
5
  6
PHANTOM
100
AcDbLine
 10
101.281043
 20
223.9368899999998
 30
0.0
 11
106.1824939999999
 21
230.9368899999999
 31
0.0
  0
LINE
  5
9FA
330
8CC
100
AcDbEntity
  8
4
  6
CENTER
100
AcDbLine
 10
121.3810429999999
 20
239.703674
 30
0.0
 11
121.3810429999999
 21
207.751236
 31
0.0
  0
LINE
  5
9FB
330
8CC
100
AcDbEntity
  8
1
  6
Continuous
100
AcDbLine
 10
116.3810429999999
 20
225.4368899999998
 30
0.0
 11
116.3810429999999
 21
222.9368899999998
 31
0.0
  0
LINE
  5
9FC
330
8CC
100
AcDbEntity
  8
1
  6
Continuous
100
AcDbLine
 10
116.3810429999999
 20
228.43689
 30
0.0
 11
122.881043
 21
228.43689
 31
0.0
  0
LINE
  5
9FD
330
8CC
100
AcDbEntity
  8
1
  6
Continuous
100
AcDbLine
 10
116.3810429999999
 20
225.4368899999998
 30
0.0
 11
122.881043
 21
225.4368899999998
 31
0.0
  0
LINE
  5
9FE
330
8CC
100
AcDbEntity
  8
1
  6
Continuous
100
AcDbLine
 10
116.3810429999999
 20
230.9368899999999
 30
0.0
 11
116.3810429999999
 21
228.43689
 31
0.0
  0
LINE
  5
9FF
330
8CC
100
AcDbEntity
  8
1
  6
Continuous
100
AcDbLine
 10
111.7810439999998
 20
222.9368899999998
 30
0.0
 11
116.3810429999999
 21
222.9368899999998
 31
0.0
  0
LINE
  5
A00
330
8CC
100
AcDbEntity
  8
1
  6
Continuous
100
AcDbLine
 10
111.7810439999998
 20
230.9368899999999
 30
0.0
 11
116.3810429999999
 21
230.9368899999999
 31
0.0
  0
LINE
  5
A01
330
8CC
100
AcDbEntity
  8
1
  6
Continuous
100
AcDbLine
 10
111.7810439999998
 20
232.9368899999999
 30
0.0
 11
111.7810439999998
 21
220.9368899999998
 31
0.0
  0
LINE
  5
A02
330
8CC
100
AcDbEntity
  8
1
  6
Continuous
100
AcDbLine
 10
110.8810429999999
 20
220.9368899999998
 30
0.0
 11
111.7810439999998
 21
220.9368899999998
 31
0.0
  0
LINE
  5
A03
330
8CC
100
AcDbEntity
  8
1
  6
Continuous
100
AcDbLine
 10
110.8810429999999
 20
232.9368899999999
 30
0.0
 11
111.7810439999998
 21
232.9368899999999
 31
0.0
  0
LINE
  5
A04
330
8CC
100
AcDbEntity
  8
1
  6
Continuous
100
AcDbLine
 10
117.3810429999999
 20
231.9368899999998
 30
0.0
 11
122.881043
 21
231.9368899999998
 31
0.0
  0
LINE
  5
A05
330
8CC
100
AcDbEntity
  8
1
  6
Continuous
100
AcDbLine
 10
117.3810429999999
 20
221.9368899999998
 30
0.0
 11
122.881043
 21
221.9368899999998
 31
0.0
  0
LINE
  5
A06
330
8CC
100
AcDbEntity
  8
1
  6
Continuous
100
AcDbLine
 10
117.3810429999999
 20
231.9368899999998
 30
0.0
 11
117.3810429999999
 21
228.43689
 31
0.0
  0
LINE
  5
A07
330
8CC
100
AcDbEntity
  8
1
  6
Continuous
100
AcDbLine
 10
117.3810429999999
 20
225.4368899999998
 30
0.0
 11
117.3810429999999
 21
221.9368899999998
 31
0.0
  0
LINE
  5
A08
330
8CC
100
AcDbEntity
  8
1
  6
Continuous
100
AcDbLine
 10
125.3810429999999
 20
228.43689
 30
0.0
 11
125.3810429999999
 21
225.4368899999998
 31
0.0
  0
LINE
  5
A09
330
8CC
100
AcDbEntity
  8
1
  6
Continuous
100
AcDbLine
 10
119.8810429999999
 20
234.4368899999998
 30
0.0
 11
122.881043
 21
234.4368899999998
 31
0.0
  0
LINE
  5
A0A
330
8CC
100
AcDbEntity
  8
1
  6
Continuous
100
AcDbLine
 10
122.881043
 20
234.4368899999998
 30
0.0
 11
122.881043
 21
211.93689
 31
0.0
  0
LINE
  5
A0B
330
8CC
100
AcDbEntity
  8
1
  6
Continuous
100
AcDbLine
 10
119.8810429999999
 20
234.4368899999998
 30
0.0
 11
119.8810429999999
 21
231.9368899999998
 31
0.0
  0
LINE
  5
A0C
330
8CC
100
AcDbEntity
  8
1
  6
Continuous
100
AcDbLine
 10
96.28104300000003
 20
223.9368899999998
 30
0.0
 11
101.1824939999999
 21
230.9368899999999
 31
0.0
  0
LINE
  5
A0D
330
8CC
100
AcDbEntity
  8
1
  6
Continuous
100
AcDbLine
 10
96.28104300000003
 20
223.9368899999998
 30
0.0
 11
96.28104300000003
 21
222.9368899999998
 31
0.0
  0
LINE
  5
A0E
330
8CC
100
AcDbEntity
  8
1
  6
Continuous
100
AcDbLine
 10
390.480087
 20
140.9368899999998
 30
0.0
 11
390.480087
 21
130.9368899999997
 31
0.0
  0
LINE
  5
A0F
330
8CC
100
AcDbEntity
  8
1
  6
Continuous
100
AcDbLine
 10
391.480087
 20
139.9368899999998
 30
0.0
 11
391.480087
 21
131.9368899999997
 31
0.0
  0
LINE
  5
A10
330
8CC
100
AcDbEntity
  8
1
  6
Continuous
100
AcDbLine
 10
390.480087
 20
140.9368899999998
 30
0.0
 11
384.980087
 21
140.9368899999998
 31
0.0
  0
LINE
  5
A11
330
8CC
100
AcDbEntity
  8
1
  6
Continuous
100
AcDbLine
 10
390.480087
 20
130.9368899999997
 30
0.0
 11
384.980087
 21
130.9368899999997
 31
0.0
  0
LINE
  5
A12
330
8CC
100
AcDbEntity
  8
1
  6
Continuous
100
AcDbLine
 10
396.980087
 20
131.9368899999997
 30
0.0
 11
390.480087
 21
131.9368899999997
 31
0.0
  0
LINE
  5
A13
330
8CC
100
AcDbEntity
  8
1
  6
Continuous
100
AcDbLine
 10
396.980087
 20
139.9368899999998
 30
0.0
 11
390.480087
 21
139.9368899999998
 31
0.0
  0
LINE
  5
A14
330
8CC
100
AcDbEntity
  8
1
  6
Continuous
100
AcDbLine
 10
396.980087
 20
148.4368899999998
 30
0.0
 11
396.980087
 21
123.4368899999999
 31
0.0
  0
LINE
  5
A15
330
8CC
100
AcDbEntity
  8
1
  6
Continuous
100
AcDbLine
 10
132.7810369999999
 20
39.43689000000001
 30
0.0
 11
132.7810369999999
 21
50.43689
 31
0.0
  0
LINE
  5
A16
330
8CC
100
AcDbEntity
  8
1
  6
Continuous
100
AcDbLine
 10
124.079148
 20
50.47057
 30
0.0
 11
125.322006
 21
39.47057
 31
0.0
  0
LINE
  5
A17
330
8CC
100
AcDbEntity
  8
1
  6
Continuous
100
AcDbLine
 10
125.968659
 20
50.40320999999998
 30
0.0
 11
127.2115179999999
 21
39.40320599999999
 31
0.0
  0
LINE
  5
A18
330
8CC
100
AcDbEntity
  8
1
  6
Continuous
100
AcDbLine
 10
128.454376
 20
50.403206
 30
0.0
 11
129.697235
 21
39.40320999999999
 31
0.0
  0
LINE
  5
A19
330
8CC
100
AcDbEntity
  8
1
  6
Continuous
100
AcDbLine
 10
130.293427
 20
39.47057
 30
0.0
 11
129.050568
 21
50.47057
 31
0.0
  0
LINE
  5
A1A
330
8CC
100
AcDbEntity
  8
1
  6
Continuous
100
AcDbLine
 10
130.9400789999999
 20
50.40320999999998
 30
0.0
 11
132.1829379999998
 21
39.40320599999999
 31
0.0
  0
LINE
  5
A1B
330
8CC
100
AcDbEntity
  8
1
  6
Continuous
100
AcDbLine
 10
132.779144
 20
39.47057
 30
0.0
 11
131.536286
 21
50.470573
 31
0.0
  0
LINE
  5
A1C
330
8CC
100
AcDbEntity
  8
1
  6
Continuous
100
AcDbLine
 10
123.508759
 20
39.93688999999999
 30
0.0
 11
123.4805909999999
 21
39.42055100000001
 31
0.0
  0
LINE
  5
A1D
330
8CC
100
AcDbEntity
  8
1
  6
Continuous
100
AcDbLine
 10
125.968659
 20
50.47057
 30
0.0
 11
125.908356
 21
49.93689299999999
 31
0.0
  0
LINE
  5
A1E
330
8CC
100
AcDbEntity
  8
1
  6
Continuous
100
AcDbLine
 10
125.321991
 20
39.40320599999999
 30
0.0
 11
125.3822939999998
 21
39.93688999999999
 31
0.0
  0
LINE
  5
A1F
330
8CC
100
AcDbEntity
  8
1
  6
Continuous
100
AcDbLine
 10
128.454361
 20
50.470573
 30
0.0
 11
128.394058
 21
49.93689299999999
 31
0.0
  0
LINE
  5
A20
330
8CC
100
AcDbEntity
  8
1
  6
Continuous
100
AcDbLine
 10
127.807709
 20
39.40320999999999
 30
0.0
 11
127.8680119999999
 21
39.93688999999999
 31
0.0
  0
LINE
  5
A21
330
8CC
100
AcDbEntity
  8
1
  6
Continuous
100
AcDbLine
 10
130.9400789999999
 20
50.470573
 30
0.0
 11
130.879776
 21
49.93688999999999
 31
0.0
  0
LINE
  5
A22
330
8CC
100
AcDbEntity
  8
1
  6
Continuous
100
AcDbLine
 10
130.293427
 20
39.40320599999999
 30
0.0
 11
130.3537289999999
 21
39.93688999999999
 31
0.0
  0
LINE
  5
A23
330
8CC
100
AcDbEntity
  8
1
  6
Continuous
100
AcDbLine
 10
132.7814939999998
 20
50.453228
 30
0.0
 11
132.753327
 21
49.93688999999999
 31
0.0
  0
LINE
  5
A24
330
8CC
100
AcDbEntity
  8
1
  6
Continuous
100
AcDbLine
 10
123.481049
 20
39.43689000000001
 30
0.0
 11
123.481049
 21
50.41993
 31
0.0
  0
LINE
  5
A25
330
8CC
100
AcDbEntity
  8
1
  6
Continuous
100
AcDbLine
 10
124.7258
 20
39.40320599999999
 30
0.0
 11
123.4829409999999
 21
50.403206
 31
0.0
  0
LINE
  5
A26
330
8CC
100
AcDbEntity
  8
1
  6
Continuous
100
AcDbLine
 10
127.807709
 20
39.47057
 30
0.0
 11
126.56485
 21
50.47057
 31
0.0
  0
LINE
  5
A27
330
8CC
100
AcDbEntity
  8
1
  6
Continuous
100
AcDbLine
 10
123.481049
 20
39.93688999999999
 30
0.0
 11
124.665497
 21
39.93688999999999
 31
0.0
  0
LINE
  5
A28
330
8CC
100
AcDbEntity
  8
1
  6
Continuous
100
AcDbLine
 10
125.269318
 20
39.93688999999999
 30
0.0
 11
127.1512149999998
 21
39.93688999999999
 31
0.0
  0
LINE
  5
A29
330
8CC
100
AcDbEntity
  8
1
  6
Continuous
100
AcDbLine
 10
127.7550359999999
 20
39.93688999999999
 30
0.0
 11
129.636933
 21
39.93688999999999
 31
0.0
  0
LINE
  5
A2A
330
8CC
100
AcDbEntity
  8
1
  6
Continuous
100
AcDbLine
 10
130.240738
 20
39.93688999999999
 30
0.0
 11
132.122635
 21
39.93688999999999
 31
0.0
  0
LINE
  5
A2B
330
8CC
100
AcDbEntity
  8
1
  6
Continuous
100
AcDbLine
 10
131.596588
 20
49.93688999999999
 30
0.0
 11
132.7810369999999
 21
49.93688999999999
 31
0.0
  0
LINE
  5
A2C
330
8CC
100
AcDbEntity
  8
1
  6
Continuous
100
AcDbLine
 10
129.110871
 20
49.93688999999999
 30
0.0
 11
130.9927679999999
 21
49.93688999999999
 31
0.0
  0
LINE
  5
A2D
330
8CC
100
AcDbEntity
  8
1
  6
Continuous
100
AcDbLine
 10
126.6251529999999
 20
49.93688999999999
 30
0.0
 11
128.5070499999999
 21
49.93688999999999
 31
0.0
  0
LINE
  5
A2E
330
8CC
100
AcDbEntity
  8
1
  6
Continuous
100
AcDbLine
 10
124.1394499999999
 20
49.93688999999999
 30
0.0
 11
126.0213469999999
 21
49.93688999999999
 31
0.0
  0
LINE
  5
A2F
330
8CC
100
AcDbEntity
  8
1
  6
Continuous
100
AcDbLine
 10
123.481049
 20
43.43689
 30
0.0
 11
124.2700499999999
 21
43.43689
 31
0.0
  0
LINE
  5
A30
330
8CC
100
AcDbEntity
  8
1
  6
Continuous
100
AcDbLine
 10
124.873856
 20
43.43689
 30
0.0
 11
125.3810429999999
 21
43.43689
 31
0.0
  0
LINE
  5
A31
330
8CC
100
AcDbEntity
  8
1
  6
Continuous
100
AcDbLine
 10
124.5348969999999
 20
46.43689000000001
 30
0.0
 11
125.3810429999999
 21
46.43689000000001
 31
0.0
  0
LINE
  5
A32
330
8CC
100
AcDbEntity
  8
1
  6
Continuous
100
AcDbLine
 10
123.481049
 20
46.43689000000001
 30
0.0
 11
123.931076
 21
46.43689000000001
 31
0.0
  0
LINE
  5
A33
330
8CC
100
AcDbEntity
  8
1
  6
Continuous
100
AcDbLine
 10
132.7810369999999
 20
221.4368899999998
 30
0.0
 11
132.7810369999999
 21
232.4368899999999
 31
0.0
  0
LINE
  5
A34
330
8CC
100
AcDbEntity
  8
1
  6
Continuous
100
AcDbLine
 10
124.079148
 20
232.4705659999999
 30
0.0
 11
125.322006
 21
221.4705659999999
 31
0.0
  0
LINE
  5
A35
330
8CC
100
AcDbEntity
  8
1
  6
Continuous
100
AcDbLine
 10
125.968659
 20
232.4032139999999
 30
0.0
 11
127.2115179999999
 21
221.403214
 31
0.0
  0
LINE
  5
A36
330
8CC
100
AcDbEntity
  8
1
  6
Continuous
100
AcDbLine
 10
125.968659
 20
232.470581
 30
0.0
 11
125.908356
 21
231.9368899999998
 31
0.0
  0
LINE
  5
A37
330
8CC
100
AcDbEntity
  8
1
  6
Continuous
100
AcDbLine
 10
130.293427
 20
221.4705659999999
 30
0.0
 11
129.050568
 21
232.4705659999999
 31
0.0
  0
LINE
  5
A38
330
8CC
100
AcDbEntity
  8
1
  6
Continuous
100
AcDbLine
 10
130.9400789999999
 20
232.4031979999999
 30
0.0
 11
132.1829379999998
 21
221.403198
 31
0.0
  0
LINE
  5
A39
330
8CC
100
AcDbEntity
  8
1
  6
Continuous
100
AcDbLine
 10
132.779144
 20
221.4705659999999
 30
0.0
 11
131.536286
 21
232.4705659999999
 31
0.0
  0
LINE
  5
A3A
330
8CC
100
AcDbEntity
  8
1
  6
Continuous
100
AcDbLine
 10
125.321991
 20
221.403214
 30
0.0
 11
125.3822939999998
 21
221.9369049999999
 31
0.0
  0
LINE
  5
A3B
330
8CC
100
AcDbEntity
  8
1
  6
Continuous
100
AcDbLine
 10
123.481049
 20
221.4368899999998
 30
0.0
 11
123.481049
 21
231.9368899999998
 31
0.0
  0
LINE
  5
A3C
330
8CC
100
AcDbEntity
  8
1
  6
Continuous
100
AcDbLine
 10
124.7258
 20
221.403198
 30
0.0
 11
123.4829409999999
 21
232.4031979999999
 31
0.0
  0
LINE
  5
A3D
330
8CC
100
AcDbEntity
  8
1
  6
Continuous
100
AcDbLine
 10
127.8002169999999
 20
221.5368959999999
 30
0.0
 11
126.56485
 21
232.470581
 31
0.0
  0
LINE
  5
A3E
330
8CC
100
AcDbEntity
  8
1
  6
Continuous
100
AcDbLine
 10
130.9400789999999
 20
232.470581
 30
0.0
 11
130.879776
 21
231.9368899999998
 31
0.0
  0
LINE
  5
A3F
330
8CC
100
AcDbEntity
  8
1
  6
Continuous
100
AcDbLine
 10
132.7814939999998
 20
232.4532319999999
 30
0.0
 11
132.753327
 21
231.9368899999998
 31
0.0
  0
LINE
  5
A40
330
8CC
100
AcDbEntity
  8
1
  6
Continuous
100
AcDbLine
 10
128.454361
 20
232.4705659999999
 30
0.0
 11
128.394058
 21
231.9368899999998
 31
0.0
  0
LINE
  5
A41
330
8CC
100
AcDbEntity
  8
1
  6
Continuous
100
AcDbLine
 10
128.454376
 20
232.4032139999999
 30
0.0
 11
129.697235
 21
221.403214
 31
0.0
  0
LINE
  5
A42
330
8CC
100
AcDbEntity
  8
1
  6
Continuous
100
AcDbLine
 10
127.7550359999999
 20
221.9368899999998
 30
0.0
 11
129.636933
 21
221.9368899999998
 31
0.0
  0
LINE
  5
A43
330
8CC
100
AcDbEntity
  8
1
  6
Continuous
100
AcDbLine
 10
130.240738
 20
221.9368899999998
 30
0.0
 11
132.122635
 21
221.9368899999998
 31
0.0
  0
LINE
  5
A44
330
8CC
100
AcDbEntity
  8
1
  6
Continuous
100
AcDbLine
 10
124.1394499999999
 20
231.9368899999998
 30
0.0
 11
126.0213469999999
 21
231.9368899999998
 31
0.0
  0
LINE
  5
A45
330
8CC
100
AcDbEntity
  8
1
  6
Continuous
100
AcDbLine
 10
126.6251529999999
 20
231.9368899999998
 30
0.0
 11
128.5070499999999
 21
231.9368899999998
 31
0.0
  0
LINE
  5
A46
330
8CC
100
AcDbEntity
  8
1
  6
Continuous
100
AcDbLine
 10
129.110871
 20
231.9368899999998
 30
0.0
 11
130.9927679999999
 21
231.9368899999998
 31
0.0
  0
LINE
  5
A47
330
8CC
100
AcDbEntity
  8
1
  6
Continuous
100
AcDbLine
 10
131.596588
 20
231.9368899999998
 30
0.0
 11
132.7810369999999
 21
231.9368899999998
 31
0.0
  0
LINE
  5
A48
330
8CC
100
AcDbEntity
  8
1
  6
Continuous
100
AcDbLine
 10
123.4727629999998
 20
225.4368899999998
 30
0.0
 11
124.2700499999999
 21
225.4368899999998
 31
0.0
  0
LINE
  5
A49
330
8CC
100
AcDbEntity
  8
1
  6
Continuous
100
AcDbLine
 10
123.481049
 20
228.43689
 30
0.0
 11
123.931076
 21
228.43689
 31
0.0
  0
LINE
  5
A4A
330
8CC
100
AcDbEntity
  8
1
  6
Continuous
100
AcDbLine
 10
124.5348969999999
 20
228.43689
 30
0.0
 11
125.3810429999999
 21
228.43689
 31
0.0
  0
LINE
  5
A4B
330
8CC
100
AcDbEntity
  8
1
  6
Continuous
100
AcDbLine
 10
124.873856
 20
225.4368899999998
 30
0.0
 11
125.3810429999999
 21
225.4368899999998
 31
0.0
  0
LINE
  5
A4C
330
8CC
100
AcDbEntity
  8
1
  6
Continuous
100
AcDbLine
 10
384.380081
 20
130.4368899999998
 30
0.0
 11
384.380081
 21
141.4368899999998
 31
0.0
  0
LINE
  5
A4D
330
8CC
100
AcDbEntity
  8
1
  6
Continuous
100
AcDbLine
 10
375.6781769999999
 20
141.4705659999999
 30
0.0
 11
376.921036
 21
130.4705659999999
 31
0.0
  0
LINE
  5
A4E
330
8CC
100
AcDbEntity
  8
1
  6
Continuous
100
AcDbLine
 10
377.567703
 20
141.403198
 30
0.0
 11
378.810562
 21
130.4032139999999
 31
0.0
  0
LINE
  5
A4F
330
8CC
100
AcDbEntity
  8
1
  6
Continuous
100
AcDbLine
 10
377.567703
 20
141.470581
 30
0.0
 11
377.5074009999999
 21
140.9368899999998
 31
0.0
  0
LINE
  5
A50
330
8CC
100
AcDbEntity
  8
1
  6
Continuous
100
AcDbLine
 10
381.892472
 20
130.4705659999999
 30
0.0
 11
380.6496129999999
 21
141.4705659999999
 31
0.0
  0
LINE
  5
A51
330
8CC
100
AcDbEntity
  8
1
  6
Continuous
100
AcDbLine
 10
382.539139
 20
141.4032139999999
 30
0.0
 11
383.7819979999999
 21
130.4032139999999
 31
0.0
  0
LINE
  5
A52
330
8CC
100
AcDbEntity
  8
1
  6
Continuous
100
AcDbLine
 10
384.378189
 20
130.4705659999999
 30
0.0
 11
383.1353299999999
 21
141.4705659999999
 31
0.0
  0
LINE
  5
A53
330
8CC
100
AcDbEntity
  8
1
  6
Continuous
100
AcDbLine
 10
375.1078039999999
 20
130.9368899999997
 30
0.0
 11
375.0796359999998
 21
130.420547
 31
0.0
  0
LINE
  5
A54
330
8CC
100
AcDbEntity
  8
1
  6
Continuous
100
AcDbLine
 10
376.921036
 20
130.4032139999999
 30
0.0
 11
376.9813389999998
 21
130.9369049999999
 31
0.0
  0
LINE
  5
A55
330
8CC
100
AcDbEntity
  8
1
  6
Continuous
100
AcDbLine
 10
379.4067539999999
 20
130.4032139999999
 30
0.0
 11
379.467056
 21
130.9368899999997
 31
0.0
  0
LINE
  5
A56
330
8CC
100
AcDbEntity
  8
1
  6
Continuous
100
AcDbLine
 10
381.892472
 20
130.4032139999999
 30
0.0
 11
381.9527739999998
 21
130.9368899999997
 31
0.0
  0
LINE
  5
A57
330
8CC
100
AcDbEntity
  8
1
  6
Continuous
100
AcDbLine
 10
375.0800939999999
 20
130.4368899999998
 30
0.0
 11
375.0800939999999
 21
140.9368899999998
 31
0.0
  0
LINE
  5
A58
330
8CC
100
AcDbEntity
  8
1
  6
Continuous
100
AcDbLine
 10
376.3248449999999
 20
130.4032139999999
 30
0.0
 11
375.081986
 21
141.4032139999999
 31
0.0
  0
LINE
  5
A59
330
8CC
100
AcDbEntity
  8
1
  6
Continuous
100
AcDbLine
 10
379.4067539999999
 20
130.470581
 30
0.0
 11
378.163895
 21
141.4705659999999
 31
0.0
  0
LINE
  5
A5A
330
8CC
100
AcDbEntity
  8
1
  6
Continuous
100
AcDbLine
 10
382.539108
 20
141.470581
 30
0.0
 11
382.478806
 21
140.9368899999998
 31
0.0
  0
LINE
  5
A5B
330
8CC
100
AcDbEntity
  8
1
  6
Continuous
100
AcDbLine
 10
384.3805089999999
 20
141.453232
 30
0.0
 11
384.3523709999999
 21
140.9368899999998
 31
0.0
  0
LINE
  5
A5C
330
8CC
100
AcDbEntity
  8
1
  6
Continuous
100
AcDbLine
 10
380.053421
 20
141.4705659999999
 30
0.0
 11
379.9931179999999
 21
140.9368899999998
 31
0.0
  0
LINE
  5
A5D
330
8CC
100
AcDbEntity
  8
1
  6
Continuous
100
AcDbLine
 10
380.053421
 20
141.403198
 30
0.0
 11
381.2962799999998
 21
130.4031979999998
 31
0.0
  0
LINE
  5
A5E
330
8CC
100
AcDbEntity
  8
1
  6
Continuous
100
AcDbLine
 10
384.980087
 20
141.4368899999998
 30
0.0
 11
384.980087
 21
130.4368899999998
 31
0.0
  0
LINE
  5
A5F
330
8CC
100
AcDbEntity
  8
1
  6
Continuous
100
AcDbLine
 10
376.264542
 20
130.9368899999997
 30
0.0
 11
375.0800939999999
 21
130.9368899999997
 31
0.0
  0
LINE
  5
A60
330
8CC
100
AcDbEntity
  8
1
  6
Continuous
100
AcDbLine
 10
378.7347259999998
 20
130.9368899999997
 30
0.0
 11
376.8683629999999
 21
130.9368899999997
 31
0.0
  0
LINE
  5
A61
330
8CC
100
AcDbEntity
  8
1
  6
Continuous
100
AcDbLine
 10
381.235977
 20
130.9368899999997
 30
0.0
 11
379.3540799999998
 21
130.9368899999997
 31
0.0
  0
LINE
  5
A62
330
8CC
100
AcDbEntity
  8
1
  6
Continuous
100
AcDbLine
 10
383.721695
 20
130.9368899999997
 30
0.0
 11
381.8397979999998
 21
130.9368899999997
 31
0.0
  0
LINE
  5
A63
330
8CC
100
AcDbEntity
  8
1
  6
Continuous
100
AcDbLine
 10
384.380081
 20
140.9368899999998
 30
0.0
 11
383.195633
 21
140.9368899999998
 31
0.0
  0
LINE
  5
A64
330
8CC
100
AcDbEntity
  8
1
  6
Continuous
100
AcDbLine
 10
382.591812
 20
140.9368899999998
 30
0.0
 11
380.7099149999999
 21
140.9368899999998
 31
0.0
  0
LINE
  5
A65
330
8CC
100
AcDbEntity
  8
1
  6
Continuous
100
AcDbLine
 10
380.106095
 20
140.9368899999998
 30
0.0
 11
378.224198
 21
140.9368899999998
 31
0.0
  0
LINE
  5
A66
330
8CC
100
AcDbEntity
  8
1
  6
Continuous
100
AcDbLine
 10
377.620377
 20
140.9368899999998
 30
0.0
 11
375.73848
 21
140.9368899999998
 31
0.0
  0
LINE
  5
A67
330
8CC
100
AcDbEntity
  8
1
  6
Continuous
100
AcDbLine
 10
36.39082
 20
148.4368899999998
 30
0.0
 11
38.007607
 21
151.9757689999998
 31
0.0
  0
LINE
  5
A68
330
8CC
100
AcDbEntity
  8
4
  6
CENTER
100
AcDbLine
 10
43.56325199999999
 20
149.4375919999999
 30
0.0
 11
36.854382
 21
152.5026249999999
 31
0.0
  0
LINE
  5
A69
330
8CC
100
AcDbEntity
  8
4
  6
CENTER
100
AcDbLine
 10
41.992058
 20
154.680954
 30
0.0
 11
38.172627
 21
146.3208309999999
 31
0.0
  0
LINE
  5
A6A
330
8CC
100
AcDbEntity
  8
1
  6
Continuous
100
AcDbLine
 10
41.88792099999999
 20
148.4368899999998
 30
0.0
 11
42.555458
 21
149.8980259999999
 31
0.0
  0
LINE
  5
A6B
330
8CC
100
AcDbEntity
  8
1
  6
Continuous
100
AcDbLine
 10
41.605492
 20
150.8267669999999
 30
0.0
 11
41.231495
 21
150.0081329999999
 31
0.0
  0
LINE
  5
A6C
330
8CC
100
AcDbEntity
  8
1
  6
Continuous
100
AcDbLine
 10
39.33156599999998
 20
151.865631
 30
0.0
 11
38.957566
 21
151.047012
 31
0.0
  0
LINE
  5
A6D
330
8CC
100
AcDbEntity
  8
1
  6
Continuous
100
AcDbLine
 10
121.568573
 20
141.636887
 30
0.0
 11
127.193512
 21
141.636887
 31
0.0
  0
LINE
  5
A6E
330
8CC
100
AcDbEntity
  8
1
  6
Continuous
100
AcDbLine
 10
121.568573
 20
152.2368929999998
 30
0.0
 11
127.193512
 21
152.2368929999998
 31
0.0
  0
LINE
  5
A6F
330
8CC
100
AcDbEntity
  8
1
  6
Continuous
100
AcDbLine
 10
119.8810429999999
 20
211.93689
 30
0.0
 11
119.8810429999999
 21
221.9368899999998
 31
0.0
  0
LINE
  5
A70
330
8CC
100
AcDbEntity
  8
1
  6
Continuous
100
AcDbLine
 10
130.293427
 20
221.403214
 30
0.0
 11
130.3537289999999
 21
221.9368899999998
 31
0.0
  0
LINE
  5
A71
330
8CC
100
AcDbEntity
  8
1
  6
Continuous
100
AcDbLine
 10
127.807709
 20
221.403198
 30
0.0
 11
127.8680119999999
 21
221.9368899999998
 31
0.0
  0
LINE
  5
A72
330
8CC
100
AcDbEntity
  8
1
  6
Continuous
100
AcDbLine
 10
123.481049
 20
221.9368899999998
 30
0.0
 11
124.665497
 21
221.9368899999998
 31
0.0
  0
LINE
  5
A73
330
8CC
100
AcDbEntity
  8
1
  6
Continuous
100
AcDbLine
 10
125.269318
 20
221.9368899999998
 30
0.0
 11
127.1512149999998
 21
221.9368899999998
 31
0.0
  0
LINE
  5
A74
330
8CC
100
AcDbEntity
  8
1
  6
Continuous
100
AcDbLine
 10
386.2925569999999
 20
152.2368929999998
 30
0.0
 11
380.667618
 21
152.2368929999998
 31
0.0
  0
LINE
  5
A75
330
8CC
100
AcDbEntity
  8
1
  6
Continuous
100
AcDbLine
 10
386.2925569999999
 20
141.636887
 30
0.0
 11
384.903702
 21
141.636887
 31
0.0
  0
LINE
  5
A76
330
8CC
100
AcDbEntity
  8
1
  6
Continuous
100
AcDbLine
 10
382.6136319999998
 20
141.636887
 30
0.0
 11
380.667618
 21
141.636887
 31
0.0
  0
LINE
  5
A77
330
8CC
100
AcDbEntity
  8
1
  6
Continuous
100
AcDbLine
 10
384.456497
 20
141.636887
 30
0.0
 11
383.060837
 21
141.636887
 31
0.0
  0
ARC
  5
A78
330
8CC
100
AcDbEntity
  8
1
  6
Continuous
100
AcDbCircle
 10
124.3810429999999
 20
146.9368899999998
 30
0.0
 40
9.0
100
AcDbArc
 50
22.02431199999999
 51
157.9756909999999
  0
ARC
  5
A79
330
8CC
100
AcDbEntity
  8
1
  6
Continuous
100
AcDbCircle
 10
135.5053409999999
 20
151.4368899999998
 30
0.0
 40
3.0
100
AcDbArc
 50
202.024309
 51
269.9999969999999
  0
ARC
  5
A7A
330
8CC
100
AcDbEntity
  8
1
  6
Continuous
100
AcDbCircle
 10
113.256745
 20
151.4368899999998
 30
0.0
 40
3.0
100
AcDbArc
 50
269.9999969999999
 51
337.9756879999998
  0
ARC
  5
A7B
330
8CC
100
AcDbEntity
  8
1
  6
Continuous
100
AcDbCircle
 10
180.381043
 20
145.4368899999998
 30
0.0
 40
3.0
100
AcDbArc
 50
0.0
 51
90.00000300000001
  0
ARC
  5
A7C
330
8CC
100
AcDbEntity
  8
1
  6
Continuous
100
AcDbCircle
 10
180.381043
 20
126.43689
 30
0.0
 40
3.0
100
AcDbArc
 50
269.9999969999999
 51
0.0
  0
CIRCLE
  5
A7D
330
8CC
100
AcDbEntity
  8
2
  6
Continuous
100
AcDbCircle
 10
114.8810429999999
 20
137.4368899999998
 30
0.0
 40
1.5
  0
CIRCLE
  5
A7E
330
8CC
100
AcDbEntity
  8
1
  6
Continuous
100
AcDbCircle
 10
114.8810429999999
 20
137.4368899999998
 30
0.0
 40
1.2295
  0
ARC
  5
A7F
330
8CC
100
AcDbEntity
  8
1
  6
Continuous
100
AcDbCircle
 10
176.381043
 20
144.9368899999998
 30
0.0
 40
1.8
100
AcDbArc
 50
346.506601
 51
13.49339899999998
  0
ARC
  5
A80
330
8CC
100
AcDbEntity
  8
1
  6
Continuous
100
AcDbCircle
 10
176.381043
 20
144.9368899999998
 30
0.0
 40
1.8
100
AcDbArc
 50
76.506602
 51
103.4933959999998
  0
ARC
  5
A81
330
8CC
100
AcDbEntity
  8
1
  6
Continuous
100
AcDbCircle
 10
176.381043
 20
144.9368899999998
 30
0.0
 40
1.8
100
AcDbArc
 50
166.506597
 51
193.4933989999999
  0
ARC
  5
A82
330
8CC
100
AcDbEntity
  8
1
  6
Continuous
100
AcDbCircle
 10
176.381043
 20
144.9368899999998
 30
0.0
 40
1.8
100
AcDbArc
 50
256.506604
 51
283.493398
  0
CIRCLE
  5
A83
330
8CC
100
AcDbEntity
  8
1
  6
Continuous
100
AcDbCircle
 10
176.381043
 20
144.9368899999998
 30
0.0
 40
3.0
  0
ARC
  5
A84
330
8CC
100
AcDbEntity
  8
1
  6
Continuous
100
AcDbCircle
 10
176.381043
 20
126.9368899999999
 30
0.0
 40
1.8
100
AcDbArc
 50
346.506601
 51
13.49339899999998
  0
ARC
  5
A85
330
8CC
100
AcDbEntity
  8
1
  6
Continuous
100
AcDbCircle
 10
176.381043
 20
126.9368899999999
 30
0.0
 40
1.8
100
AcDbArc
 50
76.506602
 51
103.4933959999998
  0
ARC
  5
A86
330
8CC
100
AcDbEntity
  8
1
  6
Continuous
100
AcDbCircle
 10
176.381043
 20
126.9368899999999
 30
0.0
 40
1.8
100
AcDbArc
 50
166.506597
 51
193.4933989999999
  0
ARC
  5
A87
330
8CC
100
AcDbEntity
  8
1
  6
Continuous
100
AcDbCircle
 10
176.381043
 20
126.9368899999999
 30
0.0
 40
1.8
100
AcDbArc
 50
256.506604
 51
283.493398
  0
CIRCLE
  5
A88
330
8CC
100
AcDbEntity
  8
1
  6
Continuous
100
AcDbCircle
 10
176.381043
 20
126.9368899999999
 30
0.0
 40
3.0
  0
ARC
  5
A89
330
8CC
100
AcDbEntity
  8
1
  6
Continuous
100
AcDbCircle
 10
143.381043
 20
135.9368899999997
 30
0.0
 40
1.8
100
AcDbArc
 50
346.506601
 51
13.49339899999998
  0
ARC
  5
A8A
330
8CC
100
AcDbEntity
  8
1
  6
Continuous
100
AcDbCircle
 10
143.381043
 20
135.9368899999997
 30
0.0
 40
1.8
100
AcDbArc
 50
76.506602
 51
103.4933959999998
  0
ARC
  5
A8B
330
8CC
100
AcDbEntity
  8
1
  6
Continuous
100
AcDbCircle
 10
143.381043
 20
135.9368899999997
 30
0.0
 40
1.8
100
AcDbArc
 50
166.506597
 51
193.4933989999999
  0
ARC
  5
A8C
330
8CC
100
AcDbEntity
  8
1
  6
Continuous
100
AcDbCircle
 10
143.381043
 20
135.9368899999997
 30
0.0
 40
1.8
100
AcDbArc
 50
256.506604
 51
283.493398
  0
CIRCLE
  5
A8D
330
8CC
100
AcDbEntity
  8
1
  6
Continuous
100
AcDbCircle
 10
143.381043
 20
135.9368899999997
 30
0.0
 40
3.0
  0
CIRCLE
  5
A8E
330
8CC
100
AcDbEntity
  8
2
  6
Continuous
100
AcDbCircle
 10
43.03153199999999
 20
135.9368899999997
 30
0.0
 40
1.5
  0
CIRCLE
  5
A8F
330
8CC
100
AcDbEntity
  8
1
  6
Continuous
100
AcDbCircle
 10
43.03153199999999
 20
135.9368899999997
 30
0.0
 40
1.2295
  0
ARC
  5
A90
330
8CC
100
AcDbEntity
  8
1
  6
Continuous
100
AcDbCircle
 10
120.531037
 20
135.9368899999997
 30
0.0
 40
1.649999999999999
100
AcDbArc
 50
90.00000300000001
 51
270.000001
  0
ARC
  5
A91
330
8CC
100
AcDbEntity
  8
1
  6
Continuous
100
AcDbCircle
 10
136.731049
 20
135.9368899999997
 30
0.0
 40
1.649999999999999
100
AcDbArc
 50
269.9999969999999
 51
90.00000300000001
  0
ARC
  5
A92
330
8CC
100
AcDbEntity
  8
1
  6
Continuous
100
AcDbCircle
 10
21.03153199999999
 20
145.4368899999998
 30
0.0
 40
3.0
100
AcDbArc
 50
90.00000300000001
 51
180.000005
  0
ARC
  5
A93
330
8CC
100
AcDbEntity
  8
1
  6
Continuous
100
AcDbCircle
 10
21.03153199999999
 20
126.43689
 30
0.0
 40
3.0
100
AcDbArc
 50
179.9999909999999
 51
270.000001
  0
CIRCLE
  5
A94
330
8CC
100
AcDbEntity
  8
1
  6
Continuous
100
AcDbCircle
 10
33.031532
 20
135.9368899999997
 30
0.0
 40
4.0
  0
CIRCLE
  5
A95
330
8CC
100
AcDbEntity
  8
2
  6
Continuous
100
AcDbCircle
 10
134.881043
 20
127.43689
 30
0.0
 40
1.5
  0
CIRCLE
  5
A96
330
8CC
100
AcDbEntity
  8
1
  6
Continuous
100
AcDbCircle
 10
134.881043
 20
127.43689
 30
0.0
 40
1.2295
  0
CIRCLE
  5
A97
330
8CC
100
AcDbEntity
  8
2
  6
Continuous
100
AcDbCircle
 10
23.031532
 20
128.4368899999998
 30
0.0
 40
1.5
  0
CIRCLE
  5
A98
330
8CC
100
AcDbEntity
  8
1
  6
Continuous
100
AcDbCircle
 10
23.031532
 20
128.4368899999998
 30
0.0
 40
1.2295
  0
CIRCLE
  5
A99
330
8CC
100
AcDbEntity
  8
2
  6
Continuous
100
AcDbCircle
 10
23.031532
 20
143.4368899999998
 30
0.0
 40
1.5
  0
CIRCLE
  5
A9A
330
8CC
100
AcDbEntity
  8
1
  6
Continuous
100
AcDbCircle
 10
23.031532
 20
143.4368899999998
 30
0.0
 40
1.2295
  0
ARC
  5
A9B
330
8CC
100
AcDbEntity
  8
1
  6
Continuous
100
AcDbCircle
 10
164.4118809999999
 20
138.2935939999998
 30
0.0
 40
1.334408999999998
100
AcDbArc
 50
138.9320989999999
 51
221.067897
  0
ARC
  5
A9C
330
8CC
100
AcDbEntity
  8
1
  6
Continuous
100
AcDbCircle
 10
164.127472
 20
138.045761
 30
0.0
 40
0.957174
100
AcDbArc
 50
221.0679009999999
 51
289.1928019999999
  0
ARC
  5
A9D
330
8CC
100
AcDbEntity
  8
1
  6
Continuous
100
AcDbCircle
 10
164.127472
 20
138.541412
 30
0.0
 40
0.957174
100
AcDbArc
 50
70.807198
 51
138.9320989999999
  0
ARC
  5
A9E
330
8CC
100
AcDbEntity
  8
1
  6
Continuous
100
AcDbCircle
 10
164.231278
 20
138.8396149999999
 30
0.0
 40
0.6414290000000003
100
AcDbArc
 50
5.659243
 51
70.807198
  0
ARC
  5
A9F
330
8CC
100
AcDbEntity
  8
1
  6
Continuous
100
AcDbCircle
 10
164.231278
 20
137.7475739999999
 30
0.0
 40
0.6414290000000003
100
AcDbArc
 50
289.1928019999999
 51
354.3407569999998
  0
ARC
  5
AA0
330
8CC
100
AcDbEntity
  8
1
  6
Continuous
100
AcDbCircle
 10
169.841812
 20
138.8742369999999
 30
0.0
 40
0.6414290000000003
100
AcDbArc
 50
5.659243
 51
70.807198
  0
ARC
  5
AA1
330
8CC
100
AcDbEntity
  8
1
  6
Continuous
100
AcDbCircle
 10
169.738022
 20
138.5760349999999
 30
0.0
 40
0.957174
100
AcDbArc
 50
70.807198
 51
138.9320989999999
  0
ARC
  5
AA2
330
8CC
100
AcDbEntity
  8
1
  6
Continuous
100
AcDbCircle
 10
170.022431
 20
138.3282169999999
 30
0.0
 40
1.334408999999998
100
AcDbArc
 50
138.9320989999999
 51
221.067897
  0
ARC
  5
AA3
330
8CC
100
AcDbEntity
  8
1
  6
Continuous
100
AcDbCircle
 10
169.738022
 20
138.080383
 30
0.0
 40
0.957174
100
AcDbArc
 50
221.0679009999999
 51
276.5913959999999
  0
ARC
  5
AA4
330
8CC
100
AcDbEntity
  8
1
  6
Continuous
100
AcDbCircle
 10
169.744583
 20
138.0235899999999
 30
0.0
 40
0.9
100
AcDbArc
 50
269.582188
 51
11.654105
  0
ARC
  5
AA5
330
8CC
100
AcDbEntity
  8
1
  6
Continuous
100
AcDbCircle
 10
161.78859
 20
138.3003389999998
 30
0.0
 40
1.334408999999998
100
AcDbArc
 50
138.9320989999999
 51
221.067897
  0
ARC
  5
AA6
330
8CC
100
AcDbEntity
  8
1
  6
Continuous
100
AcDbCircle
 10
161.219773
 20
138.3003389999998
 30
0.0
 40
1.334408999999998
100
AcDbArc
 50
318.9321049999999
 51
41.067895
  0
ARC
  5
AA7
330
8CC
100
AcDbEntity
  8
1
  6
Continuous
100
AcDbCircle
 10
161.5041809999999
 20
138.0525209999998
 30
0.0
 40
0.957174
100
AcDbArc
 50
221.0679009999999
 51
318.9321049999999
  0
ARC
  5
AA8
330
8CC
100
AcDbEntity
  8
1
  6
Continuous
100
AcDbCircle
 10
161.5041809999999
 20
138.548172
 30
0.0
 40
0.957174
100
AcDbArc
 50
41.067895
 51
138.9320989999999
  0
ARC
  5
AA9
330
8CC
100
AcDbEntity
  8
1
  6
Continuous
100
AcDbCircle
 10
154.293747
 20
138.5092929999999
 30
0.0
 40
0.222261
100
AcDbArc
 50
180.000009
 51
0.0
  0
ARC
  5
AAA
330
8CC
100
AcDbEntity
  8
1
  6
Continuous
100
AcDbCircle
 10
154.7385409999999
 20
138.2873379999997
 30
0.0
 40
1.145318999999998
100
AcDbArc
 50
332.25
 51
54.46199899999999
  0
ARC
  5
AAB
330
8CC
100
AcDbEntity
  8
1
  6
Continuous
100
AcDbCircle
 10
154.7385409999999
 20
138.2873379999997
 30
0.0
 40
1.145318999999998
100
AcDbArc
 50
305.5380009999999
 51
315.699
  0
ARC
  5
AAC
330
8CC
100
AcDbEntity
  8
1
  6
Continuous
100
AcDbCircle
 10
152.071594
 20
134.55397
 30
0.0
 40
5.732929999999998
100
AcDbArc
 50
54.46199899999999
 51
125.537702
  0
ARC
  5
AAD
330
8CC
100
AcDbEntity
  8
1
  6
Continuous
100
AcDbCircle
 10
152.071594
 20
142.019821
 30
0.0
 40
5.732929999999998
100
AcDbArc
 50
234.461997
 51
305.5380009999999
  0
ARC
  5
AAE
330
8CC
100
AcDbEntity
  8
1
  6
Continuous
100
AcDbCircle
 10
152.071594
 20
142.019821
 30
0.0
 40
5.288524999999999
100
AcDbArc
 50
243.985999
 51
247.055999
  0
ARC
  5
AAF
330
8CC
100
AcDbEntity
  8
1
  6
Continuous
100
AcDbCircle
 10
150.028076
 20
137.191147
 30
0.0
 40
0.044452
100
AcDbArc
 50
247.055999
 51
0.0
  0
ARC
  5
AB0
330
8CC
100
AcDbEntity
  8
1
  6
Continuous
100
AcDbCircle
 10
150.9167479999999
 20
136.905151
 30
0.0
 40
0.044452
100
AcDbArc
 50
257.270997
 51
0.0
  0
ARC
  5
AB1
330
8CC
100
AcDbEntity
  8
1
  6
Continuous
100
AcDbCircle
 10
152.071594
 20
142.019821
 30
0.0
 40
5.288524999999999
100
AcDbArc
 50
254.794002
 51
257.270997
  0
ARC
  5
AB2
330
8CC
100
AcDbEntity
  8
1
  6
Continuous
100
AcDbCircle
 10
152.071594
 20
142.019821
 30
0.0
 40
5.288524999999999
100
AcDbArc
 50
254.741997
 51
254.794002
  0
ARC
  5
AB3
330
8CC
100
AcDbEntity
  8
1
  6
Continuous
100
AcDbCircle
 10
150.739014
 20
137.132507
 30
0.0
 40
0.222261
100
AcDbArc
 50
180.000009
 51
254.7419829999999
  0
ARC
  5
AB4
330
8CC
100
AcDbEntity
  8
1
  6
Continuous
100
AcDbCircle
 10
150.739014
 20
139.4412839999999
 30
0.0
 40
0.222261
100
AcDbArc
 50
105.2574979999999
 51
180.000005
  0
ARC
  5
AB5
330
8CC
100
AcDbEntity
  8
1
  6
Continuous
100
AcDbCircle
 10
152.071594
 20
134.55397
 30
0.0
 40
5.288524999999999
100
AcDbArc
 50
103.2681029999999
 51
105.2574979999999
  0
ARC
  5
AB6
330
8CC
100
AcDbEntity
  8
1
  6
Continuous
100
AcDbCircle
 10
152.071594
 20
134.55397
 30
0.0
 40
5.288524999999999
100
AcDbArc
 50
102.7288999999999
 51
103.2681029999999
  0
ARC
  5
AB7
330
8CC
100
AcDbEntity
  8
1
  6
Continuous
100
AcDbCircle
 10
150.9167479999999
 20
139.6686399999999
 30
0.0
 40
0.044452
100
AcDbArc
 50
0.0
 51
102.7288999999999
  0
ARC
  5
AB8
330
8CC
100
AcDbEntity
  8
1
  6
Continuous
100
AcDbCircle
 10
149.8503419999998
 20
137.4672239999999
 30
0.0
 40
0.222261
100
AcDbArc
 50
180.000009
 51
243.985999
  0
ARC
  5
AB9
330
8CC
100
AcDbEntity
  8
1
  6
Continuous
100
AcDbCircle
 10
150.028076
 20
139.383545
 30
0.0
 40
0.044452
100
AcDbArc
 50
0.0
 51
112.944001
  0
ARC
  5
ABA
330
8CC
100
AcDbEntity
  8
1
  6
Continuous
100
AcDbCircle
 10
152.071594
 20
134.55397
 30
0.0
 40
5.288524999999999
100
AcDbArc
 50
112.944001
 51
116.0143969999999
  0
ARC
  5
ABB
330
8CC
100
AcDbEntity
  8
1
  6
Continuous
100
AcDbCircle
 10
149.8503419999998
 20
139.1065519999999
 30
0.0
 40
0.222261
100
AcDbArc
 50
116.0143969999999
 51
180.000005
  0
ARC
  5
ABC
330
8CC
100
AcDbEntity
  8
1
  6
Continuous
100
AcDbCircle
 10
149.405548
 20
138.2873379999997
 30
0.0
 40
1.145318999999998
100
AcDbArc
 50
180.000009
 51
234.462011
  0
ARC
  5
ABD
330
8CC
100
AcDbEntity
  8
1
  6
Continuous
100
AcDbCircle
 10
149.405548
 20
138.2873379999997
 30
0.0
 40
1.145318999999998
100
AcDbArc
 50
125.537702
 51
166.5374019999999
  0
ARC
  5
ABE
330
8CC
100
AcDbEntity
  8
1
  6
Continuous
100
AcDbCircle
 10
152.071594
 20
142.019821
 30
0.0
 40
5.288524999999999
100
AcDbArc
 50
277.792997
 51
280.1039989999999
  0
ARC
  5
ABF
330
8CC
100
AcDbEntity
  8
1
  6
Continuous
100
AcDbCircle
 10
152.7834469999999
 20
136.8239439999999
 30
0.0
 40
0.044452
100
AcDbArc
 50
180.000009
 51
277.792997
  0
ARC
  5
AC0
330
8CC
100
AcDbEntity
  8
1
  6
Continuous
100
AcDbCircle
 10
152.961182
 20
137.032364
 30
0.0
 40
0.222261
100
AcDbArc
 50
280.1039989999999
 51
0.0
  0
ARC
  5
AC1
330
8CC
100
AcDbEntity
  8
1
  6
Continuous
100
AcDbCircle
 10
152.7834469999999
 20
139.7498319999999
 30
0.0
 40
0.044452
100
AcDbArc
 50
82.20700300000002
 51
180.000005
  0
ARC
  5
AC2
330
8CC
100
AcDbEntity
  8
1
  6
Continuous
100
AcDbCircle
 10
152.071594
 20
134.55397
 30
0.0
 40
5.288524999999999
100
AcDbArc
 50
79.896001
 51
82.20700300000002
  0
ARC
  5
AC3
330
8CC
100
AcDbEntity
  8
1
  6
Continuous
100
AcDbCircle
 10
152.961182
 20
139.5414279999999
 30
0.0
 40
0.222261
100
AcDbArc
 50
0.0
 51
79.896001
  0
ARC
  5
AC4
330
8CC
100
AcDbEntity
  8
1
  6
Continuous
100
AcDbCircle
 10
155.1818089999999
 20
134.675171
 30
0.0
 40
0.7817210000000001
100
AcDbArc
 50
47.130371
 51
132.869623
  0
ARC
  5
AC5
330
8CC
100
AcDbEntity
  8
1
  6
Continuous
100
AcDbCircle
 10
155.269272
 20
134.769394
 30
0.0
 40
0.6531630000000001
100
AcDbArc
 50
312.8696289999999
 51
47.130371
  0
ARC
  5
AC6
330
8CC
100
AcDbEntity
  8
1
  6
Continuous
100
AcDbCircle
 10
155.094345
 20
134.769394
 30
0.0
 40
0.6531630000000001
100
AcDbArc
 50
132.869623
 51
204.2768199999999
  0
ARC
  5
AC7
330
8CC
100
AcDbEntity
  8
1
  6
Continuous
100
AcDbCircle
 10
157.451584
 20
133.7020259999998
 30
0.0
 40
0.7829229999999999
100
AcDbArc
 50
135.934712
 51
156.9510809999999
  0
ARC
  5
AC8
330
8CC
100
AcDbEntity
  8
1
  6
Continuous
100
AcDbCircle
 10
157.3669889999998
 20
133.7020259999998
 30
0.0
 40
0.7829229999999999
100
AcDbArc
 50
315.927497
 51
44.072503
  0
ARC
  5
AC9
330
8CC
100
AcDbEntity
  8
1
  6
Continuous
100
AcDbCircle
 10
157.409287
 20
133.6610719999999
 30
0.0
 40
0.72405
100
AcDbArc
 50
205.5969759999999
 51
315.927497
  0
ARC
  5
ACA
330
8CC
100
AcDbEntity
  8
1
  6
Continuous
100
AcDbCircle
 10
157.409287
 20
133.7429659999999
 30
0.0
 40
0.72405
100
AcDbArc
 50
44.072503
 51
135.934712
  0
ARC
  5
ACB
330
8CC
100
AcDbEntity
  8
1
  6
Continuous
100
AcDbCircle
 10
159.5923159999999
 20
134.6719359999999
 30
0.0
 40
0.783003
100
AcDbArc
 50
135.927499
 51
224.072497
  0
ARC
  5
ACC
330
8CC
100
AcDbEntity
  8
1
  6
Continuous
100
AcDbCircle
 10
159.507706
 20
134.6719359999999
 30
0.0
 40
0.783003
100
AcDbArc
 50
315.927497
 51
44.072503
  0
ARC
  5
ACD
330
8CC
100
AcDbEntity
  8
1
  6
Continuous
100
AcDbCircle
 10
159.5500189999999
 20
134.6309809999999
 30
0.0
 40
0.724124
100
AcDbArc
 50
224.0725009999999
 51
315.927497
  0
ARC
  5
ACE
330
8CC
100
AcDbEntity
  8
1
  6
Continuous
100
AcDbCircle
 10
159.5500189999999
 20
134.7128909999999
 30
0.0
 40
0.724124
100
AcDbArc
 50
44.072503
 51
135.927499
  0
ARC
  5
ACF
330
8CC
100
AcDbEntity
  8
1
  6
Continuous
100
AcDbCircle
 10
159.5923159999999
 20
133.702087
 30
0.0
 40
0.783003
100
AcDbArc
 50
199.3495519999999
 51
224.0725009999999
  0
ARC
  5
AD0
330
8CC
100
AcDbEntity
  8
1
  6
Continuous
100
AcDbCircle
 10
159.507706
 20
133.702087
 30
0.0
 40
0.783003
100
AcDbArc
 50
315.927497
 51
0.0
  0
ARC
  5
AD1
330
8CC
100
AcDbEntity
  8
1
  6
Continuous
100
AcDbCircle
 10
159.5500189999999
 20
133.6611329999997
 30
0.0
 40
0.724124
100
AcDbArc
 50
224.0725009999999
 51
315.927497
  0
ARC
  5
AD2
330
8CC
100
AcDbEntity
  8
1
  6
Continuous
100
AcDbCircle
 10
25.781532
 20
150.9368899999998
 30
0.0
 40
2.5
100
AcDbArc
 50
24.55391
 51
204.553907
  0
ARC
  5
AD3
330
8CC
100
AcDbEntity
  8
1
  6
Continuous
100
AcDbCircle
 10
25.59453599999999
 20
151.346191
 30
0.0
 40
1.25
100
AcDbArc
 50
24.55391
 51
204.553907
  0
ARC
  5
AD4
330
8CC
100
AcDbEntity
  8
1
  6
Continuous
100
AcDbCircle
 10
25.968529
 20
150.5275879999998
 30
0.0
 40
1.25
100
AcDbArc
 50
204.55391
 51
24.55391
  0
ARC
  5
AD5
330
8CC
100
AcDbEntity
  8
1
  6
Continuous
100
AcDbCircle
 10
97.63529100000004
 20
138.5826419999999
 30
0.0
 40
1.354247999999999
100
AcDbArc
 50
90.00000300000001
 51
180.000005
  0
ARC
  5
AD6
330
8CC
100
AcDbEntity
  8
1
  6
Continuous
100
AcDbCircle
 10
97.63529100000004
 20
133.2911379999998
 30
0.0
 40
1.354247999999999
100
AcDbArc
 50
179.9999909999999
 51
270.000001
  0
CIRCLE
  5
AD7
330
8CC
100
AcDbEntity
  8
1
  6
Continuous
100
AcDbCircle
 10
121.3810429999999
 20
135.9368899999997
 30
0.0
 40
1.5
  0
CIRCLE
  5
AD8
330
8CC
100
AcDbEntity
  8
1
  6
Continuous
100
AcDbCircle
 10
121.3810429999999
 20
135.9368899999997
 30
0.0
 40
0.9
  0
ARC
  5
AD9
330
8CC
100
AcDbEntity
  8
1
  6
Continuous
100
AcDbCircle
 10
261.1805569999999
 20
150.9368899999998
 30
0.0
 40
2.5
100
AcDbArc
 50
335.446093
 51
155.44609
  0
ARC
  5
ADA
330
8CC
100
AcDbEntity
  8
1
  6
Continuous
100
AcDbCircle
 10
246.680557
 20
150.9368899999998
 30
0.0
 40
2.5
100
AcDbArc
 50
24.55391
 51
204.553907
  0
ARC
  5
ADB
330
8CC
100
AcDbEntity
  8
1
  6
Continuous
100
AcDbCircle
 10
261.3675689999999
 20
151.346191
 30
0.0
 40
1.25
100
AcDbArc
 50
335.446093
 51
155.44609
  0
ARC
  5
ADC
330
8CC
100
AcDbEntity
  8
1
  6
Continuous
100
AcDbCircle
 10
260.9935759999999
 20
150.5275879999998
 30
0.0
 40
1.25
100
AcDbArc
 50
155.44609
 51
335.4460809999999
  0
ARC
  5
ADD
330
8CC
100
AcDbEntity
  8
1
  6
Continuous
100
AcDbCircle
 10
246.8675689999999
 20
150.5275879999998
 30
0.0
 40
1.25
100
AcDbArc
 50
204.553924
 51
24.55391
  0
ARC
  5
ADE
330
8CC
100
AcDbEntity
  8
1
  6
Continuous
100
AcDbCircle
 10
246.4935759999999
 20
151.346191
 30
0.0
 40
1.25
100
AcDbArc
 50
24.55391
 51
204.553907
  0
ARC
  5
ADF
330
8CC
100
AcDbEntity
  8
1
  6
Continuous
100
AcDbCircle
 10
383.480087
 20
146.9368899999998
 30
0.0
 40
9.0
100
AcDbArc
 50
22.02431199999999
 51
157.9756909999999
  0
ARC
  5
AE0
330
8CC
100
AcDbEntity
  8
1
  6
Continuous
100
AcDbCircle
 10
372.355789
 20
151.4368899999998
 30
0.0
 40
3.0
100
AcDbArc
 50
270.0000039999998
 51
337.9756909999999
  0
ARC
  5
AE1
330
8CC
100
AcDbEntity
  8
1
  6
Continuous
100
AcDbCircle
 10
410.225839
 20
138.5826419999999
 30
0.0
 40
1.354247999999999
100
AcDbArc
 50
359.999995
 51
89.99999599999998
  0
ARC
  5
AE2
330
8CC
100
AcDbEntity
  8
1
  6
Continuous
100
AcDbCircle
 10
410.225839
 20
133.2911379999998
 30
0.0
 40
1.354247999999999
100
AcDbArc
 50
270.0000039999998
 51
0.000005
  0
CIRCLE
  5
AE3
330
8CC
100
AcDbEntity
  8
1
  6
Continuous
100
AcDbCircle
 10
386.480087
 20
135.9368899999997
 30
0.0
 40
1.5
  0
CIRCLE
  5
AE4
330
8CC
100
AcDbEntity
  8
1
  6
Continuous
100
AcDbCircle
 10
386.480087
 20
135.9368899999997
 30
0.0
 40
0.9
  0
CIRCLE
  5
AE5
330
8CC
100
AcDbEntity
  8
1
  6
Continuous
100
AcDbCircle
 10
253.9305569999999
 20
135.9368899999997
 30
0.0
 40
2.25
  0
ARC
  5
AE6
330
8CC
100
AcDbEntity
  8
1
  6
Continuous
100
AcDbCircle
 10
181.381043
 20
31.93689
 30
0.0
 40
2.0
100
AcDbArc
 50
269.9999969999999
 51
0.0
  0
ARC
  5
AE7
330
8CC
100
AcDbEntity
  8
1
  6
Continuous
100
AcDbCircle
 10
181.381043
 20
57.93689
 30
0.0
 40
2.0
100
AcDbArc
 50
0.0
 51
90.00000300000001
  0
ARC
  5
AE8
330
8CC
100
AcDbEntity
  8
1
  6
Continuous
100
AcDbCircle
 10
181.381043
 20
239.9368899999998
 30
0.0
 40
2.0
100
AcDbArc
 50
0.0
 51
90.00000300000001
  0
ARC
  5
AE9
330
8CC
100
AcDbEntity
  8
1
  6
Continuous
100
AcDbCircle
 10
181.381043
 20
213.93689
 30
0.0
 40
2.0
100
AcDbArc
 50
269.9999969999999
 51
0.0
  0
ARC
  5
AEA
330
8CC
100
AcDbEntity
  8
1
  6
Continuous
100
AcDbCircle
 10
410.707529
 20
135.9368899999997
 30
0.0
 40
4.028899
100
AcDbArc
 50
96.866699
 51
263.1333109999999
  0
ARC
  5
AEB
330
8CC
100
AcDbEntity
  8
1
  6
Continuous
100
AcDbCircle
 10
133.08104
 20
39.43689000000001
 30
0.0
 40
0.3
100
AcDbArc
 50
179.9999909999999
 51
0.00001
  0
ARC
  5
AEC
330
8CC
100
AcDbEntity
  8
1
  6
Continuous
100
AcDbCircle
 10
123.1810459999999
 20
39.43689000000001
 30
0.0
 40
0.3
100
AcDbArc
 50
179.9999909999999
 51
356.877876
  0
ARC
  5
AED
330
8CC
100
AcDbEntity
  8
1
  6
Continuous
100
AcDbCircle
 10
123.781037
 20
50.43689
 30
0.0
 40
0.3
100
AcDbArc
 50
6.446340000000001
 51
180.000005
  0
ARC
  5
AEE
330
8CC
100
AcDbEntity
  8
1
  6
Continuous
100
AcDbCircle
 10
133.08104
 20
50.43689
 30
0.0
 40
0.3
100
AcDbArc
 50
0.0
 51
180.000005
  0
ARC
  5
AEF
330
8CC
100
AcDbEntity
  8
1
  6
Continuous
100
AcDbCircle
 10
123.1810459999999
 20
50.43689
 30
0.0
 40
0.3
100
AcDbArc
 50
0.0
 51
180.000005
  0
ARC
  5
AF0
330
8CC
100
AcDbEntity
  8
1
  6
Continuous
100
AcDbCircle
 10
132.481049
 20
39.43689000000001
 30
0.0
 40
0.3
100
AcDbArc
 50
186.4463409999999
 51
0.0
  0
ARC
  5
AF1
330
8CC
100
AcDbEntity
  8
1
  6
Continuous
100
AcDbCircle
 10
126.266754
 20
50.43689
 30
0.0
 40
0.3
100
AcDbArc
 50
6.446340000000001
 51
173.553659
  0
ARC
  5
AF2
330
8CC
100
AcDbEntity
  8
1
  6
Continuous
100
AcDbCircle
 10
128.7524719999999
 20
50.43689
 30
0.0
 40
0.3
100
AcDbArc
 50
6.446340000000001
 51
173.553659
  0
ARC
  5
AF3
330
8CC
100
AcDbEntity
  8
1
  6
Continuous
100
AcDbCircle
 10
131.23819
 20
50.43689
 30
0.0
 40
0.3
100
AcDbArc
 50
6.446340000000001
 51
173.553659
  0
ARC
  5
AF4
330
8CC
100
AcDbEntity
  8
1
  6
Continuous
100
AcDbCircle
 10
125.0238949999999
 20
39.43689000000001
 30
0.0
 40
0.3
100
AcDbArc
 50
186.4463409999999
 51
353.5536599999999
  0
ARC
  5
AF5
330
8CC
100
AcDbEntity
  8
1
  6
Continuous
100
AcDbCircle
 10
127.5096129999998
 20
39.43689000000001
 30
0.0
 40
0.3
100
AcDbArc
 50
186.4463409999999
 51
353.5536599999999
  0
ARC
  5
AF6
330
8CC
100
AcDbEntity
  8
1
  6
Continuous
100
AcDbCircle
 10
129.995331
 20
39.43689000000001
 30
0.0
 40
0.3
100
AcDbArc
 50
186.4463409999999
 51
353.5536599999999
  0
ARC
  5
AF7
330
8CC
100
AcDbEntity
  8
1
  6
Continuous
100
AcDbCircle
 10
133.08104
 20
232.4368899999999
 30
0.0
 40
0.3
100
AcDbArc
 50
0.0
 51
180.000005
  0
ARC
  5
AF8
330
8CC
100
AcDbEntity
  8
1
  6
Continuous
100
AcDbCircle
 10
131.23819
 20
232.4368899999999
 30
0.0
 40
0.3
100
AcDbArc
 50
6.446340000000001
 51
173.553659
  0
ARC
  5
AF9
330
8CC
100
AcDbEntity
  8
1
  6
Continuous
100
AcDbCircle
 10
133.08104
 20
221.4368899999998
 30
0.0
 40
0.3
100
AcDbArc
 50
179.9999909999999
 51
0.00001
  0
ARC
  5
AFA
330
8CC
100
AcDbEntity
  8
1
  6
Continuous
100
AcDbCircle
 10
129.995331
 20
221.4368899999998
 30
0.0
 40
0.3
100
AcDbArc
 50
186.4463409999999
 51
0.0
  0
ARC
  5
AFB
330
8CC
100
AcDbEntity
  8
1
  6
Continuous
100
AcDbCircle
 10
125.0238949999999
 20
221.4368899999998
 30
0.0
 40
0.3
100
AcDbArc
 50
186.4463409999999
 51
353.5536599999999
  0
ARC
  5
AFC
330
8CC
100
AcDbEntity
  8
1
  6
Continuous
100
AcDbCircle
 10
123.1810459999999
 20
232.4368899999999
 30
0.0
 40
0.3
100
AcDbArc
 50
0.0
 51
180.000005
  0
ARC
  5
AFD
330
8CC
100
AcDbEntity
  8
1
  6
Continuous
100
AcDbCircle
 10
123.781037
 20
232.4368899999999
 30
0.0
 40
0.3
100
AcDbArc
 50
6.446340000000001
 51
180.000005
  0
ARC
  5
AFE
330
8CC
100
AcDbEntity
  8
1
  6
Continuous
100
AcDbCircle
 10
126.266754
 20
232.4368899999999
 30
0.0
 40
0.3
100
AcDbArc
 50
6.446340000000001
 51
173.553659
  0
ARC
  5
AFF
330
8CC
100
AcDbEntity
  8
1
  6
Continuous
100
AcDbCircle
 10
128.7524719999999
 20
232.4368899999999
 30
0.0
 40
0.3
100
AcDbArc
 50
6.446340000000001
 51
173.553659
  0
ARC
  5
B00
330
8CC
100
AcDbEntity
  8
1
  6
Continuous
100
AcDbCircle
 10
384.6800999999999
 20
141.4368899999998
 30
0.0
 40
0.3
100
AcDbArc
 50
0.0
 51
180.000005
  0
ARC
  5
B01
330
8CC
100
AcDbEntity
  8
1
  6
Continuous
100
AcDbCircle
 10
382.837235
 20
141.4368899999998
 30
0.0
 40
0.3
100
AcDbArc
 50
6.446340000000001
 51
173.553659
  0
ARC
  5
B02
330
8CC
100
AcDbEntity
  8
1
  6
Continuous
100
AcDbCircle
 10
384.6800999999999
 20
130.4368899999998
 30
0.0
 40
0.3
100
AcDbArc
 50
179.9999909999999
 51
0.00001
  0
ARC
  5
B03
330
8CC
100
AcDbEntity
  8
1
  6
Continuous
100
AcDbCircle
 10
374.780075
 20
130.4368899999998
 30
0.0
 40
0.3
100
AcDbArc
 50
179.9999909999999
 51
356.877876
  0
ARC
  5
B04
330
8CC
100
AcDbEntity
  8
1
  6
Continuous
100
AcDbCircle
 10
384.0800939999999
 20
130.4368899999998
 30
0.0
 40
0.3
100
AcDbArc
 50
186.4463409999999
 51
0.0
  0
ARC
  5
B05
330
8CC
100
AcDbEntity
  8
1
  6
Continuous
100
AcDbCircle
 10
376.6229399999998
 20
130.4368899999998
 30
0.0
 40
0.3
100
AcDbArc
 50
186.4463409999999
 51
353.5536599999999
  0
ARC
  5
B06
330
8CC
100
AcDbEntity
  8
1
  6
Continuous
100
AcDbCircle
 10
379.1086579999998
 20
130.4368899999998
 30
0.0
 40
0.3
100
AcDbArc
 50
186.4463409999999
 51
353.5536599999999
  0
ARC
  5
B07
330
8CC
100
AcDbEntity
  8
1
  6
Continuous
100
AcDbCircle
 10
381.5943759999998
 20
130.4368899999998
 30
0.0
 40
0.3
100
AcDbArc
 50
186.4463409999999
 51
353.5536599999999
  0
ARC
  5
B08
330
8CC
100
AcDbEntity
  8
1
  6
Continuous
100
AcDbCircle
 10
374.780075
 20
141.4368899999998
 30
0.0
 40
0.3
100
AcDbArc
 50
0.0
 51
180.000005
  0
ARC
  5
B09
330
8CC
100
AcDbEntity
  8
1
  6
Continuous
100
AcDbCircle
 10
375.380081
 20
141.4368899999998
 30
0.0
 40
0.3
100
AcDbArc
 50
6.446340000000001
 51
180.000005
  0
ARC
  5
B0A
330
8CC
100
AcDbEntity
  8
1
  6
Continuous
100
AcDbCircle
 10
377.8657989999999
 20
141.4368899999998
 30
0.0
 40
0.3
100
AcDbArc
 50
6.446340000000001
 51
173.553659
  0
ARC
  5
B0B
330
8CC
100
AcDbEntity
  8
1
  6
Continuous
100
AcDbCircle
 10
380.351517
 20
141.4368899999998
 30
0.0
 40
0.3
100
AcDbArc
 50
6.446340000000001
 51
173.553659
  0
ARC
  5
B0C
330
8CC
100
AcDbEntity
  8
1
  6
Continuous
100
AcDbCircle
 10
40.468529
 20
151.346191
 30
0.0
 40
1.25
100
AcDbArc
 50
335.446093
 51
155.44609
  0
ARC
  5
B0D
330
8CC
100
AcDbEntity
  8
1
  6
Continuous
100
AcDbCircle
 10
40.281532
 20
150.9368899999998
 30
0.0
 40
2.5
100
AcDbArc
 50
335.446093
 51
155.44609
  0
ARC
  5
B0E
330
8CC
100
AcDbEntity
  8
1
  6
Continuous
100
AcDbCircle
 10
40.09453599999999
 20
150.5275879999998
 30
0.0
 40
1.25
100
AcDbArc
 50
155.44609
 51
335.4460809999999
  0
ARC
  5
B0F
330
8CC
100
AcDbEntity
  8
1
  6
Continuous
100
AcDbCircle
 10
124.3810429999999
 20
146.9368899999998
 30
0.0
 40
6.0
100
AcDbArc
 50
297.9528879999999
 51
62.047112
  0
ARC
  5
B10
330
8CC
100
AcDbEntity
  8
1
  6
Continuous
100
AcDbCircle
 10
124.3810429999999
 20
146.9368899999998
 30
0.0
 40
6.0
100
AcDbArc
 50
117.952886
 51
242.047124
  0
ARC
  5
B11
330
8CC
100
AcDbEntity
  8
1
  6
Continuous
100
AcDbCircle
 10
123.1810459999999
 20
221.4368899999998
 30
0.0
 40
0.3
100
AcDbArc
 50
179.9999909999999
 51
0.00001
  0
ARC
  5
B12
330
8CC
100
AcDbEntity
  8
1
  6
Continuous
100
AcDbCircle
 10
132.481049
 20
221.4368899999998
 30
0.0
 40
0.3
100
AcDbArc
 50
186.4463409999999
 51
0.0
  0
ARC
  5
B13
330
8CC
100
AcDbEntity
  8
1
  6
Continuous
100
AcDbCircle
 10
127.5096129999998
 20
221.4368899999998
 30
0.0
 40
0.3
100
AcDbArc
 50
186.4463409999999
 51
353.5536599999999
  0
ARC
  5
B14
330
8CC
100
AcDbEntity
  8
1
  6
Continuous
100
AcDbCircle
 10
394.6043859999999
 20
151.4368899999998
 30
0.0
 40
3.0
100
AcDbArc
 50
202.024309
 51
269.9999969999999
  0
ARC
  5
B15
330
8CC
100
AcDbEntity
  8
1
  6
Continuous
100
AcDbCircle
 10
383.480087
 20
146.9368899999998
 30
0.0
 40
6.0
100
AcDbArc
 50
117.952886
 51
242.047124
  0
ARC
  5
B16
330
8CC
100
AcDbEntity
  8
1
  6
Continuous
100
AcDbCircle
 10
383.480087
 20
146.9368899999998
 30
0.0
 40
6.0
100
AcDbArc
 50
297.9528879999999
 51
62.047112
  0
LINE
  5
B17
330
8CC
100
AcDbEntity
  8
4
  6
CENTER
100
AcDbLine
 10
243.930557
 20
139.1868899999997
 30
0.0
 11
243.930557
 21
132.6868899999998
 31
0.0
  0
LINE
  5
B18
330
8CC
100
AcDbEntity
  8
4
  6
CENTER
100
AcDbLine
 10
263.9305569999998
 20
146.6868899999998
 30
0.0
 11
263.9305569999998
 21
140.1868899999997
 31
0.0
  0
LINE
  5
B19
330
8CC
100
AcDbEntity
  8
4
  6
CENTER
100
AcDbLine
 10
267.1805569999999
 20
143.4368899999998
 30
0.0
 11
260.6805569999999
 21
143.4368899999998
 31
0.0
  0
LINE
  5
B1A
330
8CC
100
AcDbEntity
  8
4
  6
CENTER
100
AcDbLine
 10
263.9305569999998
 20
131.6868899999998
 30
0.0
 11
263.9305569999998
 21
125.1868899999999
 31
0.0
  0
LINE
  5
B1B
330
8CC
100
AcDbEntity
  8
4
  6
CENTER
100
AcDbLine
 10
267.1805569999999
 20
128.4368899999998
 30
0.0
 11
260.6805569999999
 21
128.4368899999998
 31
0.0
  0
ARC
  5
B1C
330
8CC
100
AcDbEntity
  8
1
  6
Continuous
100
AcDbCircle
 10
110.8810429999999
 20
211.93689
 30
0.0
 40
2.6
100
AcDbArc
 50
180.0
 51
270.0
  0
ARC
  5
B1D
330
8CC
100
AcDbEntity
  8
1
  6
Continuous
100
AcDbCircle
 10
110.8810429999999
 20
59.93688999999999
 30
0.0
 40
2.6
100
AcDbArc
 50
90.0
 51
180.0
  0
ENDSEC
  0
SECTION
  2
OBJECTS
  0
DICTIONARY
  5
8BA
330
0
100
AcDbDictionary
281
     1
  3
ACAD_CIP_PREVIOUS_PRODUCT_INFO
350
B81
  3
ACAD_COLOR
350
B63
  3
ACAD_DETAILVIEWSTYLE
350
B7C
  3
ACAD_GROUP
350
8BB
  3
ACAD_LAYOUT
350
8C7
  3
ACAD_MATERIAL
350
B31
  3
ACAD_MLEADERSTYLE
350
B78
  3
ACAD_MLINESTYLE
350
8C4
  3
ACAD_PLOTSETTINGS
350
8C6
  3
ACAD_PLOTSTYLENAME
350
B2F
  3
ACAD_SCALELIST
350
B66
  3
ACAD_SECTIONVIEWSTYLE
350
B7A
  3
ACAD_TABLESTYLE
350
B64
  3
ACAD_VISUALSTYLE
350
B4A
  3
ACDB_RECOMPOSE_DATA
350
B9F
  3
AcDbVariableDictionary
350
B92
  3
DWGPROPS
350
BA0
  0
DICTIONARY
  5
B82
330
8BE
100
AcDbDictionary
280
     1
281
     1
  3
ADSK_XREC_LAYER_RECONCILED
360
B83
  0
DICTIONARY
  5
B84
330
8D4
100
AcDbDictionary
280
     1
281
     1
  3
ADSK_XREC_LAYER_RECONCILED
360
B85
  0
DICTIONARY
  5
B86
330
8D5
100
AcDbDictionary
280
     1
281
     1
  3
ADSK_XREC_LAYER_RECONCILED
360
B87
  0
DICTIONARY
  5
B88
330
8D6
100
AcDbDictionary
280
     1
281
     1
  3
ADSK_XREC_LAYER_RECONCILED
360
B89
  0
DICTIONARY
  5
B8A
330
8D7
100
AcDbDictionary
280
     1
281
     1
  3
ADSK_XREC_LAYER_RECONCILED
360
B8B
  0
DICTIONARY
  5
B8C
330
8D8
100
AcDbDictionary
280
     1
281
     1
  3
ADSK_XREC_LAYER_RECONCILED
360
B8D
  0
DICTIONARY
  5
B8E
330
8D9
100
AcDbDictionary
280
     1
281
     1
  3
ADSK_XREC_LAYER_RECONCILED
360
B8F
  0
DICTIONARY
  5
B90
330
8DA
100
AcDbDictionary
280
     1
281
     1
  3
ADSK_XREC_LAYER_RECONCILED
360
B91
  0
DICTIONARY
  5
B2A
330
8CC
100
AcDbDictionary
281
     1
  3
ACAD_LAYOUTSELFREF
350
B2B
  0
DICTIONARY
  5
B28
330
8C8
100
AcDbDictionary
281
     1
  3
ACAD_LAYOUTSELFREF
350
B29
  0
XRECORD
  5
B81
102
{ACAD_REACTORS
330
8BA
102
}
330
8BA
100
AcDbXrecord
280
     1
300
ACDLT
300
2014
300
ACDLT_F_S
  0
DICTIONARY
  5
B63
102
{ACAD_REACTORS
330
8BA
102
}
330
8BA
100
AcDbDictionary
281
     1
  0
DICTIONARY
  5
B7C
102
{ACAD_REACTORS
330
8BA
102
}
330
8BA
100
AcDbDictionary
281
     1
  3
Imperial24
350
B7D
  0
DICTIONARY
  5
8BB
102
{ACAD_REACTORS
330
8BA
102
}
330
8BA
100
AcDbDictionary
281
     1
  0
DICTIONARY
  5
8C7
102
{ACAD_REACTORS
330
8BA
102
}
330
8BA
100
AcDbDictionary
281
     1
  3
Model
350
B7E
  3
レイアウト1
350
B7F
  0
DICTIONARY
  5
B31
102
{ACAD_REACTORS
330
8BA
102
}
330
8BA
100
AcDbDictionary
281
     1
  3
ByBlock
350
B3A
  3
ByLayer
350
B32
  3
Global
350
B42
  0
DICTIONARY
  5
B78
102
{ACAD_REACTORS
330
8BA
102
}
330
8BA
100
AcDbDictionary
281
     1
  3
Standard
350
B79
  0
DICTIONARY
  5
8C4
102
{ACAD_REACTORS
330
8BA
102
}
330
8BA
100
AcDbDictionary
281
     1
  3
STANDARD
350
8C5
  0
DICTIONARY
  5
8C6
102
{ACAD_REACTORS
330
8BA
102
}
330
8BA
100
AcDbDictionary
281
     1
  0
ACDBDICTIONARYWDFLT
  5
B2F
102
{ACAD_REACTORS
330
8BA
102
}
330
8BA
100
AcDbDictionary
281
     1
  3
Normal
350
B30
100
AcDbDictionaryWithDefault
340
B30
  0
DICTIONARY
  5
B66
102
{ACAD_REACTORS
330
8BA
102
}
330
8BA
100
AcDbDictionary
281
     1
  3
A0
350
B67
  3
A1
350
B68
  3
A2
350
B69
  3
A3
350
B6A
  3
A4
350
B6B
  3
A5
350
B6C
  3
A6
350
B6D
  3
A7
350
B6E
  3
A8
350
B6F
  3
A9
350
B70
  3
B0
350
B71
  3
B1
350
B72
  3
B2
350
B73
  3
B3
350
B74
  3
B4
350
B75
  3
B5
350
B76
  3
B6
350
B77
  0
DICTIONARY
  5
B7A
102
{ACAD_REACTORS
330
8BA
102
}
330
8BA
100
AcDbDictionary
281
     1
  3
Imperial24
350
B7B
  0
DICTIONARY
  5
B64
102
{ACAD_REACTORS
330
8BA
102
}
330
8BA
100
AcDbDictionary
281
     1
  3
Standard
350
B65
  0
DICTIONARY
  5
B4A
102
{ACAD_REACTORS
330
8BA
102
}
330
8BA
100
AcDbDictionary
281
     1
  3
2dWireframe
350
B50
  3
Basic
350
B4F
  3
Brighten
350
B56
  3
ColorChange
350
B5A
  3
Conceptual
350
B53
  3
Dim
350
B55
  3
EdgeColorOff
350
B62
  3
Facepattern
350
B59
  3
Flat
350
B4B
  3
FlatWithEdges
350
B4C
  3
Gouraud
350
B4D
  3
GouraudWithEdges
350
B4E
  3
Hidden
350
B52
  3
JitterOff
350
B60
  3
Linepattern
350
B58
  3
OverhangOff
350
B61
  3
Realistic
350
B54
  3
Shaded
350
B5F
  3
Shaded with edges
350
B5E
  3
Shades of Gray
350
B5B
  3
Sketchy
350
B5C
  3
Thicken
350
B57
  3
Wireframe
350
B51
  3
X-Ray
350
B5D
  0
XRECORD
  5
B9F
102
{ACAD_REACTORS
330
8BA
102
}
330
8BA
100
AcDbXrecord
280
     1
 90
        1
330
B65
  0
DICTIONARY
  5
B92
102
{ACAD_REACTORS
330
8BA
102
}
330
8BA
100
AcDbDictionary
281
     1
  3
CANNOSCALE
350
B97
  3
CMLEADERSTYLE
350
B94
  3
CTABLESTYLE
350
B93
  3
CVIEWDETAILSTYLE
350
B95
  3
CVIEWSECTIONSTYLE
350
B96
  3
DIMASSOC
350
B9A
  3
INDEXCTL
350
B99
  3
SORTENTS
350
B98
  3
XCLIPFRAME
350
B9B
  0
XRECORD
  5
BA0
102
{ACAD_REACTORS
330
8BA
102
}
330
8BA
100
AcDbXrecord
280
     1
  1
DWGPROPS COOKIE
  2

  3

  4

  6

  7

  8
Yoshitsune
  9

300
=
301
=
302
=
303
=
304
=
305
=
306
=
307
=
308
=
309
=
 40
0.0126437268518519
 41
2451640.629935996
 42
2457192.600810845
  1

 90
        0
  0
XRECORD
  5
B83
102
{ACAD_REACTORS
330
B82
102
}
330
B82
100
AcDbXrecord
280
     1
290
     1
  0
XRECORD
  5
B85
102
{ACAD_REACTORS
330
B84
102
}
330
B84
100
AcDbXrecord
280
     1
290
     1
  0
XRECORD
  5
B87
102
{ACAD_REACTORS
330
B86
102
}
330
B86
100
AcDbXrecord
280
     1
290
     1
  0
XRECORD
  5
B89
102
{ACAD_REACTORS
330
B88
102
}
330
B88
100
AcDbXrecord
280
     1
290
     1
  0
XRECORD
  5
B8B
102
{ACAD_REACTORS
330
B8A
102
}
330
B8A
100
AcDbXrecord
280
     1
290
     1
  0
XRECORD
  5
B8D
102
{ACAD_REACTORS
330
B8C
102
}
330
B8C
100
AcDbXrecord
280
     1
290
     1
  0
XRECORD
  5
B8F
102
{ACAD_REACTORS
330
B8E
102
}
330
B8E
100
AcDbXrecord
280
     1
290
     1
  0
XRECORD
  5
B91
102
{ACAD_REACTORS
330
B90
102
}
330
B90
100
AcDbXrecord
280
     1
290
     1
  0
XRECORD
  5
B2B
102
{ACAD_REACTORS
330
B2A
102
}
330
B2A
100
AcDbXrecord
280
     1
340
8CC
  0
XRECORD
  5
B29
102
{ACAD_REACTORS
330
B28
102
}
330
B28
100
AcDbXrecord
280
     1
340
8C8
  0
ACDBDETAILVIEWSTYLE
  5
B7D
102
{ACAD_XDICTIONARY
360
BD8
102
}
102
{ACAD_REACTORS
330
B7C
102
}
330
B7C
100
AcDbModelDocViewStyle
 70
     0
  3
Imperial24
290
     0
100
AcDbDetailViewStyle
 70
     0
 71
     0
 90
        3
 71
     1
340
8BF
 40
0.24
340
0
 40
0.24
300

 40
0.36
280
     3
 71
     2
340
8C3
 90
       25
 71
     3
340
8BF
 40
0.24
 90
        1
 40
0.75
 90
        1
300
%<\AcVar ViewType \f "%tc1">% %<\AcVar ViewDetailId>%\PSCALE %<\AcVar ViewScale \f "%sn">%
 71
     4
340
8C3
 90
       25
340
8C3
 90
       25
280
     0
  0
LAYOUT
  5
B7E
102
{ACAD_XDICTIONARY
360
BDA
102
}
102
{ACAD_REACTORS
330
8C7
102
}
330
8C7
100
AcDbPlotSettings
  1

  2
Canon LBP9100C
  4

  6

 40
0.0
 41
0.0
 42
0.0
 43
0.0
 44
0.0
 45
0.0
 46
0.0
 47
0.0
 48
0.0
 49
0.0
140
0.0
141
0.0
142
1.0
143
1.0
 70
  1712
 72
     0
 73
     0
 74
     0
  7

 75
     0
147
1.0
148
0.0
149
0.0
100
AcDbLayout
  1
Model
 70
     1
 71
     0
 10
0.0
 20
0.0
 11
12.0
 21
9.0
 12
0.0
 22
0.0
 32
0.0
 14
0.0
 24
0.0
 34
0.0
 15
0.0
 25
0.0
 35
0.0
146
0.0
 13
0.0
 23
0.0
 33
0.0
 16
1.0
 26
0.0
 36
0.0
 17
0.0
 27
1.0
 37
0.0
 76
     0
330
8CC
331
B27
  0
LAYOUT
  5
B7F
102
{ACAD_XDICTIONARY
360
BDC
102
}
102
{ACAD_REACTORS
330
8C7
102
}
330
8C7
100
AcDbPlotSettings
  1

  2
Canon LBP9100C
  4

  6

 40
0.0
 41
0.0
 42
0.0
 43
0.0
 44
0.0
 45
0.0
 46
0.0
 47
0.0
 48
0.0
 49
0.0
140
0.0
141
0.0
142
1.0
143
1.0
 70
   688
 72
     0
 73
     0
 74
     5
  7

 75
    16
147
1.0
148
0.0
149
0.0
100
AcDbLayout
  1
レイアウト1
 70
     1
 71
     1
 10
0.0
 20
0.0
 11
420.0
 21
297.0
 12
0.0
 22
0.0
 32
0.0
 14
1.000000000000000E+20
 24
1.000000000000000E+20
 34
1.000000000000000E+20
 15
-1.000000000000000E+20
 25
-1.000000000000000E+20
 35
-1.000000000000000E+20
146
0.0
 13
0.0
 23
0.0
 33
0.0
 16
1.0
 26
0.0
 36
0.0
 17
0.0
 27
1.0
 37
0.0
 76
     0
330
8C8
  0
MATERIAL
  5
B3A
102
{ACAD_XDICTIONARY
360
B3B
102
}
102
{ACAD_REACTORS
330
B31
102
}
330
B31
100
AcDbMaterial
  1
ByBlock
 72
     0
 43
0.0208333333333333
 43
0.0
 43
0.0
 43
0.0
 43
0.0
 43
0.0208333333333333
 43
0.0
 43
0.0
 43
0.0
 43
0.0
 43
1.0
 43
0.0
 43
0.0
 43
0.0
 43
0.0
 43
1.0
 77
     0
 47
0.0208333333333333
 47
0.0
 47
0.0
 47
0.0
 47
0.0
 47
0.0208333333333333
 47
0.0
 47
0.0
 47
0.0
 47
0.0
 47
1.0
 47
0.0
 47
0.0
 47
0.0
 47
0.0
 47
1.0
171
     0
 49
0.0208333333333333
 49
0.0
 49
0.0
 49
0.0
 49
0.0
 49
0.0208333333333333
 49
0.0
 49
0.0
 49
0.0
 49
0.0
 49
1.0
 49
0.0
 49
0.0
 49
0.0
 49
0.0
 49
1.0
175
     0
142
0.0208333333333333
142
0.0
142
0.0
142
0.0
142
0.0
142
0.0208333333333333
142
0.0
142
0.0
142
0.0
142
0.0
142
1.0
142
0.0
142
0.0
142
0.0
142
0.0
142
1.0
179
     0
144
0.0208333333333333
144
0.0
144
0.0
144
0.0
144
0.0
144
0.0208333333333333
144
0.0
144
0.0
144
0.0
144
0.0
144
1.0
144
0.0
144
0.0
144
0.0
144
0.0
144
1.0
147
0.0208333333333333
147
0.0
147
0.0
147
0.0
147
0.0
147
0.0208333333333333
147
0.0
147
0.0
147
0.0
147
0.0
147
1.0
147
0.0
147
0.0
147
0.0
147
0.0
147
1.0
  0
MATERIAL
  5
B32
102
{ACAD_XDICTIONARY
360
B33
102
}
102
{ACAD_REACTORS
330
B31
102
}
330
B31
100
AcDbMaterial
  1
ByLayer
 72
     0
 43
0.0208333333333333
 43
0.0
 43
0.0
 43
0.0
 43
0.0
 43
0.0208333333333333
 43
0.0
 43
0.0
 43
0.0
 43
0.0
 43
1.0
 43
0.0
 43
0.0
 43
0.0
 43
0.0
 43
1.0
 77
     0
 47
0.0208333333333333
 47
0.0
 47
0.0
 47
0.0
 47
0.0
 47
0.0208333333333333
 47
0.0
 47
0.0
 47
0.0
 47
0.0
 47
1.0
 47
0.0
 47
0.0
 47
0.0
 47
0.0
 47
1.0
171
     0
 49
0.0208333333333333
 49
0.0
 49
0.0
 49
0.0
 49
0.0
 49
0.0208333333333333
 49
0.0
 49
0.0
 49
0.0
 49
0.0
 49
1.0
 49
0.0
 49
0.0
 49
0.0
 49
0.0
 49
1.0
175
     0
142
0.0208333333333333
142
0.0
142
0.0
142
0.0
142
0.0
142
0.0208333333333333
142
0.0
142
0.0
142
0.0
142
0.0
142
1.0
142
0.0
142
0.0
142
0.0
142
0.0
142
1.0
179
     0
144
0.0208333333333333
144
0.0
144
0.0
144
0.0
144
0.0
144
0.0208333333333333
144
0.0
144
0.0
144
0.0
144
0.0
144
1.0
144
0.0
144
0.0
144
0.0
144
0.0
144
1.0
147
0.0208333333333333
147
0.0
147
0.0
147
0.0
147
0.0
147
0.0208333333333333
147
0.0
147
0.0
147
0.0
147
0.0
147
1.0
147
0.0
147
0.0
147
0.0
147
0.0
147
1.0
  0
MATERIAL
  5
B42
102
{ACAD_XDICTIONARY
360
B43
102
}
102
{ACAD_REACTORS
330
B31
102
}
330
B31
100
AcDbMaterial
  1
Global
 72
     0
 43
0.0208333333333333
 43
0.0
 43
0.0
 43
0.0
 43
0.0
 43
0.0208333333333333
 43
0.0
 43
0.0
 43
0.0
 43
0.0
 43
1.0
 43
0.0
 43
0.0
 43
0.0
 43
0.0
 43
1.0
 77
     0
 47
0.0208333333333333
 47
0.0
 47
0.0
 47
0.0
 47
0.0
 47
0.0208333333333333
 47
0.0
 47
0.0
 47
0.0
 47
0.0
 47
1.0
 47
0.0
 47
0.0
 47
0.0
 47
0.0
 47
1.0
171
     0
 49
0.0208333333333333
 49
0.0
 49
0.0
 49
0.0
 49
0.0
 49
0.0208333333333333
 49
0.0
 49
0.0
 49
0.0
 49
0.0
 49
1.0
 49
0.0
 49
0.0
 49
0.0
 49
0.0
 49
1.0
175
     0
142
0.0208333333333333
142
0.0
142
0.0
142
0.0
142
0.0
142
0.0208333333333333
142
0.0
142
0.0
142
0.0
142
0.0
142
1.0
142
0.0
142
0.0
142
0.0
142
0.0
142
1.0
179
     0
144
0.0208333333333333
144
0.0
144
0.0
144
0.0
144
0.0
144
0.0208333333333333
144
0.0
144
0.0
144
0.0
144
0.0
144
1.0
144
0.0
144
0.0
144
0.0
144
0.0
144
1.0
147
0.0208333333333333
147
0.0
147
0.0
147
0.0
147
0.0
147
0.0208333333333333
147
0.0
147
0.0
147
0.0
147
0.0
147
1.0
147
0.0
147
0.0
147
0.0
147
0.0
147
1.0
  0
MLEADERSTYLE
  5
B79
102
{ACAD_REACTORS
330
B78
102
}
330
B78
100
AcDbMLeaderStyle
170
     2
171
     1
172
     0
 90
        2
 40
0.0
 41
0.0
173
     1
 91
-1056964608
340
8C1
 92
       -2
290
     1
 42
0.09
291
     1
 43
0.36
  3
Standard
 44
0.18
300

342
8BF
174
     1
178
     6
175
     1
176
     0
 93
-1056964608
 45
0.18
292
     0
297
     0
 46
0.18
 94
-1056964608
 47
1.0
 49
1.0
140
1.0
293
     1
141
0.0
294
     1
177
     0
142
1.0
295
     0
296
     0
143
0.125
1001
ACAD_MLEADERVER
1070
     2
  0
MLINESTYLE
  5
8C5
102
{ACAD_REACTORS
330
8C4
102
}
330
8C4
100
AcDbMlineStyle
  2
STANDARD
 70
     0
  3

 62
   256
 51
90.0
 52
90.0
 71
     2
 49
0.5
 62
   256
  6
BYLAYER
 49
-0.5
 62
   256
  6
BYLAYER
  0
ACDBPLACEHOLDER
  5
B30
102
{ACAD_REACTORS
330
B2F
102
}
330
B2F
  0
SCALE
  5
B67
102
{ACAD_REACTORS
330
B66
102
}
330
B66
100
AcDbScale
 70
     0
300
1:1
140
1.0
141
1.0
290
     1
  0
SCALE
  5
B68
102
{ACAD_REACTORS
330
B66
102
}
330
B66
100
AcDbScale
 70
     0
300
1/128" = 1'-0"
140
0.0078125
141
12.0
290
     0
  0
SCALE
  5
B69
102
{ACAD_REACTORS
330
B66
102
}
330
B66
100
AcDbScale
 70
     0
300
1/64" = 1'-0"
140
0.015625
141
12.0
290
     0
  0
SCALE
  5
B6A
102
{ACAD_REACTORS
330
B66
102
}
330
B66
100
AcDbScale
 70
     0
300
1/32" = 1'-0"
140
0.03125
141
12.0
290
     0
  0
SCALE
  5
B6B
102
{ACAD_REACTORS
330
B66
102
}
330
B66
100
AcDbScale
 70
     0
300
1/16" = 1'-0"
140
0.0625
141
12.0
290
     0
  0
SCALE
  5
B6C
102
{ACAD_REACTORS
330
B66
102
}
330
B66
100
AcDbScale
 70
     0
300
3/32" = 1'-0"
140
0.09375
141
12.0
290
     0
  0
SCALE
  5
B6D
102
{ACAD_REACTORS
330
B66
102
}
330
B66
100
AcDbScale
 70
     0
300
1/8" = 1'-0"
140
0.125
141
12.0
290
     0
  0
SCALE
  5
B6E
102
{ACAD_REACTORS
330
B66
102
}
330
B66
100
AcDbScale
 70
     0
300
3/16" = 1'-0"
140
0.1875
141
12.0
290
     0
  0
SCALE
  5
B6F
102
{ACAD_REACTORS
330
B66
102
}
330
B66
100
AcDbScale
 70
     0
300
1/4" = 1'-0"
140
0.25
141
12.0
290
     0
  0
SCALE
  5
B70
102
{ACAD_REACTORS
330
B66
102
}
330
B66
100
AcDbScale
 70
     0
300
3/8" = 1'-0"
140
0.375
141
12.0
290
     0
  0
SCALE
  5
B71
102
{ACAD_REACTORS
330
B66
102
}
330
B66
100
AcDbScale
 70
     0
300
1/2" = 1'-0"
140
0.5
141
12.0
290
     0
  0
SCALE
  5
B72
102
{ACAD_REACTORS
330
B66
102
}
330
B66
100
AcDbScale
 70
     0
300
3/4" = 1'-0"
140
0.75
141
12.0
290
     0
  0
SCALE
  5
B73
102
{ACAD_REACTORS
330
B66
102
}
330
B66
100
AcDbScale
 70
     0
300
1" = 1'-0"
140
1.0
141
12.0
290
     0
  0
SCALE
  5
B74
102
{ACAD_REACTORS
330
B66
102
}
330
B66
100
AcDbScale
 70
     0
300
1-1/2" = 1'-0"
140
1.5
141
12.0
290
     0
  0
SCALE
  5
B75
102
{ACAD_REACTORS
330
B66
102
}
330
B66
100
AcDbScale
 70
     0
300
3" = 1'-0"
140
3.0
141
12.0
290
     0
  0
SCALE
  5
B76
102
{ACAD_REACTORS
330
B66
102
}
330
B66
100
AcDbScale
 70
     0
300
6" = 1'-0"
140
6.0
141
12.0
290
     0
  0
SCALE
  5
B77
102
{ACAD_REACTORS
330
B66
102
}
330
B66
100
AcDbScale
 70
     0
300
1'-0" = 1'-0"
140
12.0
141
12.0
290
     0
  0
ACDBSECTIONVIEWSTYLE
  5
B7B
102
{ACAD_XDICTIONARY
360
BD6
102
}
102
{ACAD_REACTORS
330
B7A
102
}
330
B7A
100
AcDbModelDocViewStyle
 70
     0
  3
Imperial24
290
     0
100
AcDbSectionViewStyle
 70
     0
 71
     0
 90
       78
 71
     1
340
8BF
 40
0.24
340
0
340
0
 40
0.24
300
I, O, Q, S, X, Z
 40
0.48
 90
        3
 40
0.18
 90
        1
 71
     2
340
8C3
 90
       25
340
8C3
 90
       50
 40
0.24
 40
0.0
 40
0.24
 71
     3
340
8BF
 40
0.24
 90
        1
 40
0.75
 90
        1
300
%<\AcVar ViewType \f "%tc1">% %<\AcVar ViewSectionStartId>%-%<\AcVar ViewSectionEndId>%\PSCALE %<\AcVar ViewScale \f "%sn">%
 71
     4
300
ANSI31
 40
1.0
 90
        0
290
     0
290
     0
 90
        6
 40
0.0
 40
1.570796326794896
 40
0.2617993877991494
 40
1.308996938995747
 40
-0.2617993877991494
 40
1.832595714594046
  0
TABLESTYLE
  5
B65
102
{ACAD_XDICTIONARY
360
B9D
102
}
102
{ACAD_REACTORS
330
B64
102
}
330
B64
100
AcDbTableStyle
  3
Standard
 70
     0
 71
     0
 40
0.06
 41
0.06
280
     0
281
     0
  7
STANDARD
140
0.18
170
     2
 62
     0
 63
     7
283
     0
274
    -2
284
     1
 64
     0
275
    -2
285
     1
 65
     0
276
    -2
286
     1
 66
     0
277
    -2
287
     1
 67
     0
278
    -2
288
     1
 68
     0
279
    -2
289
     1
 69
     0
  7
STANDARD
140
0.25
170
     5
 62
     0
 63
     7
283
     0
274
    -2
284
     1
 64
     0
275
    -2
285
     1
 65
     0
276
    -2
286
     1
 66
     0
277
    -2
287
     1
 67
     0
278
    -2
288
     1
 68
     0
279
    -2
289
     1
 69
     0
  7
STANDARD
140
0.18
170
     5
 62
     0
 63
     7
283
     0
274
    -2
284
     1
 64
     0
275
    -2
285
     1
 65
     0
276
    -2
286
     1
 66
     0
277
    -2
287
     1
 67
     0
278
    -2
288
     1
 68
     0
279
    -2
289
     1
 69
     0
  0
VISUALSTYLE
  5
B50
102
{ACAD_XDICTIONARY
360
BAE
102
}
102
{ACAD_REACTORS
330
B4A
102
}
330
B4A
100
AcDbVisualStyle
  2
2dWireframe
 70
     4
 71
     0
 72
     2
 73
     0
 90
        0
 40
-0.6
 41
-30.0
 62
     5
 63
     7
 74
     1
 91
        4
 64
     7
 65
   257
 75
     1
175
     1
 42
1.0
 92
        0
 66
   257
 43
1.0
 76
     1
 77
     6
 78
     2
 67
     7
 79
     5
170
     0
171
     0
290
     0
174
     0
 93
        1
 44
0.0
173
     0
291
     0
 45
0.0
1001
ACAD
1000
AcDbSavedByObjectVersion
1070
     0
  0
VISUALSTYLE
  5
B4F
102
{ACAD_XDICTIONARY
360
BAC
102
}
102
{ACAD_REACTORS
330
B4A
102
}
330
B4A
100
AcDbVisualStyle
  2
Basic
 70
     7
 71
     1
 72
     0
 73
     1
 90
        0
 40
-0.6
 41
-30.0
 62
     5
 63
     7
 74
     0
 91
        4
 64
     7
 65
   257
 75
     1
175
     1
 42
1.0
 92
        8
 66
     7
 43
1.0
 76
     1
 77
     6
 78
     2
 67
     7
 79
     5
170
     0
171
     0
290
     0
174
     0
 93
        1
 44
0.0
173
     0
291
     1
 45
0.0
1001
ACAD
1000
AcDbSavedByObjectVersion
1070
     0
  0
VISUALSTYLE
  5
B56
102
{ACAD_XDICTIONARY
360
BBA
102
}
102
{ACAD_REACTORS
330
B4A
102
}
330
B4A
100
AcDbVisualStyle
  2
Brighten
 70
    12
 71
     2
 72
     2
 73
     0
 90
        0
 40
-0.6
 41
-30.0
 62
     5
 63
     7
 74
     1
 91
        4
 64
     7
 65
   257
 75
     1
175
     1
 42
1.0
 92
        8
 66
     7
 43
1.0
 76
     1
 77
     6
 78
     2
 67
     7
 79
     5
170
     0
171
     0
290
     0
174
     0
 93
        1
 44
50.0
173
     0
291
     1
 45
0.0
1001
ACAD
1000
AcDbSavedByObjectVersion
1070
     0
  0
VISUALSTYLE
  5
B5A
102
{ACAD_XDICTIONARY
360
BC2
102
}
102
{ACAD_REACTORS
330
B4A
102
}
330
B4A
100
AcDbVisualStyle
  2
ColorChange
 70
    16
 71
     2
 72
     2
 73
     3
 90
        0
 40
-0.6
 41
-30.0
 62
     5
 63
     8
 74
     1
 91
        4
 64
     7
 65
   257
 75
     1
175
     1
 42
1.0
 92
        8
 66
     8
 43
1.0
 76
     1
 77
     6
 78
     2
 67
     7
 79
     5
170
     0
171
     0
290
     0
174
     0
 93
        1
 44
0.0
173
     0
291
     1
 45
0.0
1001
ACAD
1000
AcDbSavedByObjectVersion
1070
     0
  0
VISUALSTYLE
  5
B53
102
{ACAD_XDICTIONARY
360
BB4
102
}
102
{ACAD_REACTORS
330
B4A
102
}
330
B4A
100
AcDbVisualStyle
  2
Conceptual
 70
     9
 71
     3
 72
     2
 73
     0
 90
        0
 40
-0.6
 41
-30.0
 62
     5
 63
     7
 74
     2
 91
        2
 64
     7
 65
   257
 75
     1
175
     1
 42
179.0
 92
        8
 66
     7
 43
1.0
 76
     1
 77
     6
 78
     2
 67
     7
 79
     3
170
     0
171
     0
290
     0
174
     0
 93
        1
 44
0.0
173
     0
291
     0
 45
0.0
1001
ACAD
1000
AcDbSavedByObjectVersion
1070
     0
  0
VISUALSTYLE
  5
B55
102
{ACAD_XDICTIONARY
360
BB8
102
}
102
{ACAD_REACTORS
330
B4A
102
}
330
B4A
100
AcDbVisualStyle
  2
Dim
 70
    11
 71
     2
 72
     2
 73
     0
 90
        0
 40
-0.6
 41
-30.0
 62
     5
 63
     7
 74
     1
 91
        4
 64
     7
 65
   257
 75
     1
175
     1
 42
1.0
 92
        8
 66
     7
 43
1.0
 76
     1
 77
     6
 78
     2
 67
     7
 79
     5
170
     0
171
     0
290
     0
174
     0
 93
        1
 44
-50.0
173
     0
291
     1
 45
0.0
1001
ACAD
1000
AcDbSavedByObjectVersion
1070
     0
  0
VISUALSTYLE
  5
B62
102
{ACAD_XDICTIONARY
360
BD2
102
}
102
{ACAD_REACTORS
330
B4A
102
}
330
B4A
100
AcDbVisualStyle
  2
EdgeColorOff
 70
    22
 71
     2
 72
     2
 73
     0
 90
        0
 40
-0.6
 41
-30.0
 62
     5
 63
     7
 74
     1
 91
        4
 64
     7
 65
   257
 75
     1
175
     1
 42
1.0
 92
        8
 66
     7
 43
1.0
 76
     1
 77
     6
 78
     2
 67
     7
 79
     5
170
     0
171
     0
290
     0
174
     0
 93
        1
 44
0.0
173
     0
291
     1
 45
0.0
1001
ACAD
1000
AcDbSavedByObjectVersion
1070
     0
  0
VISUALSTYLE
  5
B59
102
{ACAD_XDICTIONARY
360
BC0
102
}
102
{ACAD_REACTORS
330
B4A
102
}
330
B4A
100
AcDbVisualStyle
  2
Facepattern
 70
    15
 71
     2
 72
     2
 73
     0
 90
        0
 40
-0.6
 41
-30.0
 62
     5
 63
     7
 74
     1
 91
        4
 64
     7
 65
   257
 75
     1
175
     1
 42
1.0
 92
        8
 66
     7
 43
1.0
 76
     1
 77
     6
 78
     2
 67
     7
 79
     5
170
     0
171
     0
290
     0
174
     0
 93
        1
 44
0.0
173
     0
291
     1
 45
0.0
1001
ACAD
1000
AcDbSavedByObjectVersion
1070
     0
  0
VISUALSTYLE
  5
B4B
102
{ACAD_XDICTIONARY
360
BA4
102
}
102
{ACAD_REACTORS
330
B4A
102
}
330
B4A
100
AcDbVisualStyle
  2
Flat
 70
     0
 71
     2
 72
     1
 73
     1
 90
        2
 40
-0.6
 41
30.0
 62
     5
 63
     7
 74
     0
 91
        0
 64
     7
 65
   257
 75
     1
175
     1
 42
1.0
 92
        8
 66
     7
 43
1.0
 76
     1
 77
     6
 78
     2
 67
     7
 79
     5
170
     0
171
     0
290
     0
174
     0
 93
       13
 44
0.0
173
     0
291
     1
 45
0.0
1001
ACAD
1000
AcDbSavedByObjectVersion
1070
     0
  0
VISUALSTYLE
  5
B4C
102
{ACAD_XDICTIONARY
360
BA6
102
}
102
{ACAD_REACTORS
330
B4A
102
}
330
B4A
100
AcDbVisualStyle
  2
FlatWithEdges
 70
     1
 71
     2
 72
     1
 73
     1
 90
        2
 40
-0.6
 41
30.0
 62
     5
 63
     7
 74
     1
 91
        0
 64
     7
 65
   257
 75
     1
175
     1
 42
1.0
 92
        0
 66
   257
 43
1.0
 76
     1
 77
     6
 78
     2
 67
     7
 79
     5
170
     0
171
     0
290
     0
174
     0
 93
       13
 44
0.0
173
     0
291
     1
 45
0.0
1001
ACAD
1000
AcDbSavedByObjectVersion
1070
     0
  0
VISUALSTYLE
  5
B4D
102
{ACAD_XDICTIONARY
360
BA8
102
}
102
{ACAD_REACTORS
330
B4A
102
}
330
B4A
100
AcDbVisualStyle
  2
Gouraud
 70
     2
 71
     2
 72
     2
 73
     1
 90
        2
 40
-0.6
 41
30.0
 62
     5
 63
     7
 74
     0
 91
        0
 64
     7
 65
   257
 75
     1
175
     1
 42
1.0
 92
        0
 66
     7
 43
1.0
 76
     1
 77
     6
 78
     2
 67
     7
 79
     5
170
     0
171
     0
290
     0
174
     0
 93
       13
 44
0.0
173
     0
291
     1
 45
0.0
1001
ACAD
1000
AcDbSavedByObjectVersion
1070
     0
  0
VISUALSTYLE
  5
B4E
102
{ACAD_XDICTIONARY
360
BAA
102
}
102
{ACAD_REACTORS
330
B4A
102
}
330
B4A
100
AcDbVisualStyle
  2
GouraudWithEdges
 70
     3
 71
     2
 72
     2
 73
     1
 90
        2
 40
-0.6
 41
30.0
 62
     5
 63
     7
 74
     1
 91
        0
 64
     7
 65
   257
 75
     1
175
     1
 42
1.0
 92
        0
 66
   257
 43
1.0
 76
     1
 77
     6
 78
     2
 67
     7
 79
     5
170
     0
171
     0
290
     0
174
     0
 93
       13
 44
0.0
173
     0
291
     1
 45
0.0
1001
ACAD
1000
AcDbSavedByObjectVersion
1070
     0
  0
VISUALSTYLE
  5
B52
102
{ACAD_XDICTIONARY
360
BB2
102
}
102
{ACAD_REACTORS
330
B4A
102
}
330
B4A
100
AcDbVisualStyle
  2
Hidden
 70
     6
 71
     1
 72
     2
 73
     2
 90
        0
 40
-0.6
 41
-30.0
 62
     5
 63
     7
 74
     2
 91
        2
 64
     7
 65
   257
 75
     2
175
     1
 42
40.0
 92
        0
 66
   257
 43
1.0
 76
     1
 77
     6
 78
     2
 67
     7
 79
     3
170
     0
171
     0
290
     0
174
     0
 93
        1
 44
0.0
173
     0
291
     0
 45
0.0
1001
ACAD
1000
AcDbSavedByObjectVersion
1070
     0
  0
VISUALSTYLE
  5
B60
102
{ACAD_XDICTIONARY
360
BCE
102
}
102
{ACAD_REACTORS
330
B4A
102
}
330
B4A
100
AcDbVisualStyle
  2
JitterOff
 70
    20
 71
     2
 72
     2
 73
     0
 90
        0
 40
-0.6
 41
-30.0
 62
     5
 63
     7
 74
     1
 91
        4
 64
     7
 65
   257
 75
     1
175
     1
 42
1.0
 92
       10
 66
     7
 43
1.0
 76
     1
 77
     6
 78
     2
 67
     7
 79
     5
170
     0
171
     0
290
     0
174
     0
 93
        1
 44
0.0
173
     0
291
     1
 45
0.0
1001
ACAD
1000
AcDbSavedByObjectVersion
1070
     0
  0
VISUALSTYLE
  5
B58
102
{ACAD_XDICTIONARY
360
BBE
102
}
102
{ACAD_REACTORS
330
B4A
102
}
330
B4A
100
AcDbVisualStyle
  2
Linepattern
 70
    14
 71
     2
 72
     2
 73
     0
 90
        0
 40
-0.6
 41
-30.0
 62
     5
 63
     7
 74
     1
 91
        4
 64
     7
 65
   257
 75
     7
175
     7
 42
1.0
 92
        8
 66
     7
 43
1.0
 76
     1
 77
     6
 78
     2
 67
     7
 79
     5
170
     0
171
     0
290
     0
174
     0
 93
        1
 44
0.0
173
     0
291
     1
 45
0.0
1001
ACAD
1000
AcDbSavedByObjectVersion
1070
     0
  0
VISUALSTYLE
  5
B61
102
{ACAD_XDICTIONARY
360
BD0
102
}
102
{ACAD_REACTORS
330
B4A
102
}
330
B4A
100
AcDbVisualStyle
  2
OverhangOff
 70
    21
 71
     2
 72
     2
 73
     0
 90
        0
 40
-0.6
 41
-30.0
 62
     5
 63
     7
 74
     1
 91
        4
 64
     7
 65
   257
 75
     1
175
     1
 42
1.0
 92
        9
 66
     7
 43
1.0
 76
     1
 77
     6
 78
     2
 67
     7
 79
     5
170
     0
171
     0
290
     0
174
     0
 93
        1
 44
0.0
173
     0
291
     1
 45
0.0
1001
ACAD
1000
AcDbSavedByObjectVersion
1070
     0
  0
VISUALSTYLE
  5
B54
102
{ACAD_XDICTIONARY
360
BB6
102
}
102
{ACAD_REACTORS
330
B4A
102
}
330
B4A
100
AcDbVisualStyle
  2
Realistic
 70
     8
 71
     2
 72
     3
 73
     0
 90
        2
 40
-0.6
 41
30.0
 62
     5
 63
     7
 74
     0
 91
        0
 64
     7
 65
   257
 75
     1
175
     1
 42
1.0
 92
        8
 66
   257
 43
1.0
 76
     1
 77
     6
 78
     2
 67
     7
 79
     3
170
     0
171
     0
290
     0
174
     0
 93
       13
 44
0.0
173
     0
291
     0
 45
0.0
1001
ACAD
1000
AcDbSavedByObjectVersion
1070
     0
  0
VISUALSTYLE
  5
B5F
102
{ACAD_XDICTIONARY
360
BCC
102
}
102
{ACAD_REACTORS
330
B4A
102
}
330
B4A
100
AcDbVisualStyle
  2
Shaded
 70
    27
 71
     2
 72
     2
 73
     1
 90
        2
 40
-0.6
 41
30.0
 62
     5
 63
     7
 74
     0
 91
        4
 64
     7
 65
   257
 75
     1
175
     1
 42
1.0
 92
        8
 66
   257
 43
1.0
 76
     1
 77
     6
 78
     2
 67
     8
 79
     3
170
     0
171
     0
290
     0
174
     0
 93
        5
 44
0.0
173
     0
291
     0
 45
0.0
1001
ACAD
1000
AcDbSavedByObjectVersion
1070
     0
  0
VISUALSTYLE
  5
B5E
102
{ACAD_XDICTIONARY
360
BCA
102
}
102
{ACAD_REACTORS
330
B4A
102
}
330
B4A
100
AcDbVisualStyle
  2
Shaded with edges
 70
    26
 71
     2
 72
     2
 73
     1
 90
        2
 40
-0.6
 41
30.0
 62
     5
 63
     7
 74
     1
 91
       10
 64
     7
 65
   257
 75
     2
175
     1
 42
1.0
 92
        8
 66
   257
 43
1.0
 76
     1
 77
     6
 78
     2
 67
     7
 79
     3
170
     0
171
     0
290
     0
174
     0
 93
        5
 44
0.0
173
     0
291
     0
 45
0.0
1001
ACAD
1000
AcDbSavedByObjectVersion
1070
     0
  0
VISUALSTYLE
  5
B5B
102
{ACAD_XDICTIONARY
360
BC4
102
}
102
{ACAD_REACTORS
330
B4A
102
}
330
B4A
100
AcDbVisualStyle
  2
Shades of Gray
 70
    23
 71
     2
 72
     2
 73
     3
 90
        0
 40
-0.6
 41
-30.0
 62
     5
 63
     7
 74
     2
 91
        2
 64
     7
 65
     7
 75
     1
175
     1
 42
40.0
 92
        8
 66
     7
 43
1.0
 76
     1
 77
     6
 78
     2
 67
     7
 79
     3
170
     0
171
     0
290
     0
174
     0
 93
        1
 44
0.0
173
     0
291
     0
 45
0.0
1001
ACAD
1000
AcDbSavedByObjectVersion
1070
     0
  0
VISUALSTYLE
  5
B5C
102
{ACAD_XDICTIONARY
360
BC6
102
}
102
{ACAD_REACTORS
330
B4A
102
}
330
B4A
100
AcDbVisualStyle
  2
Sketchy
 70
    24
 71
     1
 72
     2
 73
     2
 90
        0
 40
-0.6
 41
-30.0
 62
     5
 63
     7
 74
     2
 91
        2
 64
     7
 65
     7
 75
     1
175
     1
 42
40.0
 92
       11
 66
     7
 43
1.0
 76
     1
 77
     6
 78
     2
 67
     7
 79
     6
170
     0
171
     0
290
     0
174
     0
 93
        1
 44
0.0
173
     0
291
     0
 45
0.0
1001
ACAD
1000
AcDbSavedByObjectVersion
1070
     0
  0
VISUALSTYLE
  5
B57
102
{ACAD_XDICTIONARY
360
BBC
102
}
102
{ACAD_REACTORS
330
B4A
102
}
330
B4A
100
AcDbVisualStyle
  2
Thicken
 70
    13
 71
     2
 72
     2
 73
     0
 90
        0
 40
-0.6
 41
-30.0
 62
     5
 63
     7
 74
     1
 91
        4
 64
     7
 65
   257
 75
     1
175
     1
 42
1.0
 92
       12
 66
     7
 43
1.0
 76
     1
 77
     6
 78
     2
 67
     7
 79
     5
170
     0
171
     0
290
     0
174
     0
 93
        1
 44
0.0
173
     0
291
     1
 45
0.0
1001
ACAD
1000
AcDbSavedByObjectVersion
1070
     0
  0
VISUALSTYLE
  5
B51
102
{ACAD_XDICTIONARY
360
BB0
102
}
102
{ACAD_REACTORS
330
B4A
102
}
330
B4A
100
AcDbVisualStyle
  2
Wireframe
 70
     5
 71
     0
 72
     2
 73
     0
 90
        0
 40
-0.6
 41
-30.0
 62
     5
 63
     7
 74
     1
 91
        4
 64
     7
 65
   257
 75
     1
175
     1
 42
1.0
 92
        0
 66
   257
 43
1.0
 76
     1
 77
     6
 78
     2
 67
     7
 79
     3
170
     0
171
     0
290
     0
174
     0
 93
        1
 44
0.0
173
     0
291
     0
 45
0.0
1001
ACAD
1000
AcDbSavedByObjectVersion
1070
     0
  0
VISUALSTYLE
  5
B5D
102
{ACAD_XDICTIONARY
360
BC8
102
}
102
{ACAD_REACTORS
330
B4A
102
}
330
B4A
100
AcDbVisualStyle
  2
X-Ray
 70
    25
 71
     2
 72
     2
 73
     1
 90
        1
 40
0.5
 41
-30.0
 62
     5
 63
     7
 74
     1
 91
        0
 64
     7
 65
   257
 75
     1
175
     1
 42
1.0
 92
        8
 66
     7
 43
1.0
 76
     1
 77
     6
 78
     2
 67
     7
 79
     3
170
     0
171
     0
290
     0
174
     0
 93
       13
 44
0.0
173
     0
291
     0
 45
0.0
1001
ACAD
1000
AcDbSavedByObjectVersion
1070
     0
  0
DICTIONARYVAR
  5
B97
102
{ACAD_REACTORS
330
B92
102
}
330
B92
100
DictionaryVariables
280
     0
  1
1:1
  0
DICTIONARYVAR
  5
B94
102
{ACAD_REACTORS
330
B92
102
}
330
B92
100
DictionaryVariables
280
     0
  1
STANDARD
  0
DICTIONARYVAR
  5
B93
102
{ACAD_REACTORS
330
B92
102
}
330
B92
100
DictionaryVariables
280
     0
  1
STANDARD
  0
DICTIONARYVAR
  5
B95
102
{ACAD_REACTORS
330
B92
102
}
330
B92
100
DictionaryVariables
280
     0
  1
Imperial24
  0
DICTIONARYVAR
  5
B96
102
{ACAD_REACTORS
330
B92
102
}
330
B92
100
DictionaryVariables
280
     0
  1
Imperial24
  0
DICTIONARYVAR
  5
B9A
102
{ACAD_REACTORS
330
B92
102
}
330
B92
100
DictionaryVariables
280
     0
  1
1
  0
DICTIONARYVAR
  5
B99
102
{ACAD_REACTORS
330
B92
102
}
330
B92
100
DictionaryVariables
280
     0
  1
0
  0
DICTIONARYVAR
  5
B98
102
{ACAD_REACTORS
330
B92
102
}
330
B92
100
DictionaryVariables
280
     0
  1
127
  0
DICTIONARYVAR
  5
B9B
102
{ACAD_REACTORS
330
B92
102
}
330
B92
100
DictionaryVariables
280
     0
  1
2
  0
DICTIONARY
  5
BD8
330
B7D
100
AcDbDictionary
280
     1
281
     1
  3
ACAD_XREC_ROUNDTRIP
360
BD9
  0
DICTIONARY
  5
BDA
330
B7E
100
AcDbDictionary
280
     1
281
     1
  3
ACAD_XREC_ROUNDTRIP
360
BDB
  0
DICTIONARY
  5
BDC
330
B7F
100
AcDbDictionary
280
     1
281
     1
  3
ACAD_XREC_ROUNDTRIP
360
BDD
  0
DICTIONARY
  5
B3B
330
B3A
100
AcDbDictionary
280
     1
281
     1
  3
ACAD_XREC_ROUNDTRIP
360
BA2
  3
BUMPTILE
360
B3D
  3
DIFFUSETILE
360
B3C
  3
OPACITYTILE
360
B40
  3
REFLECTIONTILE
360
B3F
  3
REFRACTIONTILE
360
B41
  3
SPECULARTILE
360
B3E
  0
DICTIONARY
  5
B33
330
B32
100
AcDbDictionary
280
     1
281
     1
  3
ACAD_XREC_ROUNDTRIP
360
BA1
  3
BUMPTILE
360
B35
  3
DIFFUSETILE
360
B34
  3
OPACITYTILE
360
B38
  3
REFLECTIONTILE
360
B37
  3
REFRACTIONTILE
360
B39
  3
SPECULARTILE
360
B36
  0
DICTIONARY
  5
B43
330
B42
100
AcDbDictionary
280
     1
281
     1
  3
ACAD_XREC_ROUNDTRIP
360
BA3
  3
BUMPTILE
360
B45
  3
DIFFUSETILE
360
B44
  3
OPACITYTILE
360
B48
  3
REFLECTIONTILE
360
B47
  3
REFRACTIONTILE
360
B49
  3
SPECULARTILE
360
B46
  0
DICTIONARY
  5
BD6
330
B7B
100
AcDbDictionary
280
     1
281
     1
  3
ACAD_XREC_ROUNDTRIP
360
BD7
  0
DICTIONARY
  5
B9D
330
B65
100
AcDbDictionary
280
     1
281
     1
  3
ACAD_ROUNDTRIP_2008_TABLESTYLE_CELLSTYLEMAP
360
B9E
  3
ACAD_XREC_ROUNDTRIP
360
BD4
  0
DICTIONARY
  5
BAE
330
B50
100
AcDbDictionary
280
     1
281
     1
  3
ACAD_XREC_ROUNDTRIP
360
BAF
  0
DICTIONARY
  5
BAC
330
B4F
100
AcDbDictionary
280
     1
281
     1
  3
ACAD_XREC_ROUNDTRIP
360
BAD
  0
DICTIONARY
  5
BBA
330
B56
100
AcDbDictionary
280
     1
281
     1
  3
ACAD_XREC_ROUNDTRIP
360
BBB
  0
DICTIONARY
  5
BC2
330
B5A
100
AcDbDictionary
280
     1
281
     1
  3
ACAD_XREC_ROUNDTRIP
360
BC3
  0
DICTIONARY
  5
BB4
330
B53
100
AcDbDictionary
280
     1
281
     1
  3
ACAD_XREC_ROUNDTRIP
360
BB5
  0
DICTIONARY
  5
BB8
330
B55
100
AcDbDictionary
280
     1
281
     1
  3
ACAD_XREC_ROUNDTRIP
360
BB9
  0
DICTIONARY
  5
BD2
330
B62
100
AcDbDictionary
280
     1
281
     1
  3
ACAD_XREC_ROUNDTRIP
360
BD3
  0
DICTIONARY
  5
BC0
330
B59
100
AcDbDictionary
280
     1
281
     1
  3
ACAD_XREC_ROUNDTRIP
360
BC1
  0
DICTIONARY
  5
BA4
330
B4B
100
AcDbDictionary
280
     1
281
     1
  3
ACAD_XREC_ROUNDTRIP
360
BA5
  0
DICTIONARY
  5
BA6
330
B4C
100
AcDbDictionary
280
     1
281
     1
  3
ACAD_XREC_ROUNDTRIP
360
BA7
  0
DICTIONARY
  5
BA8
330
B4D
100
AcDbDictionary
280
     1
281
     1
  3
ACAD_XREC_ROUNDTRIP
360
BA9
  0
DICTIONARY
  5
BAA
330
B4E
100
AcDbDictionary
280
     1
281
     1
  3
ACAD_XREC_ROUNDTRIP
360
BAB
  0
DICTIONARY
  5
BB2
330
B52
100
AcDbDictionary
280
     1
281
     1
  3
ACAD_XREC_ROUNDTRIP
360
BB3
  0
DICTIONARY
  5
BCE
330
B60
100
AcDbDictionary
280
     1
281
     1
  3
ACAD_XREC_ROUNDTRIP
360
BCF
  0
DICTIONARY
  5
BBE
330
B58
100
AcDbDictionary
280
     1
281
     1
  3
ACAD_XREC_ROUNDTRIP
360
BBF
  0
DICTIONARY
  5
BD0
330
B61
100
AcDbDictionary
280
     1
281
     1
  3
ACAD_XREC_ROUNDTRIP
360
BD1
  0
DICTIONARY
  5
BB6
330
B54
100
AcDbDictionary
280
     1
281
     1
  3
ACAD_XREC_ROUNDTRIP
360
BB7
  0
DICTIONARY
  5
BCC
330
B5F
100
AcDbDictionary
280
     1
281
     1
  3
ACAD_XREC_ROUNDTRIP
360
BCD
  0
DICTIONARY
  5
BCA
330
B5E
100
AcDbDictionary
280
     1
281
     1
  3
ACAD_XREC_ROUNDTRIP
360
BCB
  0
DICTIONARY
  5
BC4
330
B5B
100
AcDbDictionary
280
     1
281
     1
  3
ACAD_XREC_ROUNDTRIP
360
BC5
  0
DICTIONARY
  5
BC6
330
B5C
100
AcDbDictionary
280
     1
281
     1
  3
ACAD_XREC_ROUNDTRIP
360
BC7
  0
DICTIONARY
  5
BBC
330
B57
100
AcDbDictionary
280
     1
281
     1
  3
ACAD_XREC_ROUNDTRIP
360
BBD
  0
DICTIONARY
  5
BB0
330
B51
100
AcDbDictionary
280
     1
281
     1
  3
ACAD_XREC_ROUNDTRIP
360
BB1
  0
DICTIONARY
  5
BC8
330
B5D
100
AcDbDictionary
280
     1
281
     1
  3
ACAD_XREC_ROUNDTRIP
360
BC9
  0
XRECORD
  5
BD9
102
{ACAD_REACTORS
330
BD8
102
}
330
BD8
100
AcDbXrecord
280
     1
102
DISPLAYNAME
  1
Imperial24
102
FLAGS
 90
        0
  0
XRECORD
  5
BDB
102
{ACAD_REACTORS
330
BDA
102
}
330
BDA
100
AcDbXrecord
280
     1
102
SHADEPLOT
 70
     0
102
SHADEPLOTRESLEVEL
 70
     2
102
SHADEPLOTCUSTOMDPI
 70
   300
  0
XRECORD
  5
BDD
102
{ACAD_REACTORS
330
BDC
102
}
330
BDC
100
AcDbXrecord
280
     1
102
SHADEPLOT
 70
     0
102
SHADEPLOTRESLEVEL
 70
     2
102
SHADEPLOTCUSTOMDPI
 70
   300
  0
XRECORD
  5
BA2
102
{ACAD_REACTORS
330
B3B
102
}
330
B3B
100
AcDbXrecord
280
     1
102
MATERIAL
148
0.0
149
0.0
149
0.0
 93
        0
 94
      127
282
     0
 72
     0
 77
     0
171
     0
175
     0
179
     0
273
     0
  0
XRECORD
  5
B3D
102
{ACAD_REACTORS
330
B3B
102
}
330
B3B
100
AcDbXrecord
280
     1
270
     1
271
     1
  0
XRECORD
  5
B3C
102
{ACAD_REACTORS
330
B3B
102
}
330
B3B
100
AcDbXrecord
280
     1
270
     1
271
     1
  0
XRECORD
  5
B40
102
{ACAD_REACTORS
330
B3B
102
}
330
B3B
100
AcDbXrecord
280
     1
270
     1
271
     1
  0
XRECORD
  5
B3F
102
{ACAD_REACTORS
330
B3B
102
}
330
B3B
100
AcDbXrecord
280
     1
270
     1
271
     1
  0
XRECORD
  5
B41
102
{ACAD_REACTORS
330
B3B
102
}
330
B3B
100
AcDbXrecord
280
     1
270
     1
271
     1
  0
XRECORD
  5
B3E
102
{ACAD_REACTORS
330
B3B
102
}
330
B3B
100
AcDbXrecord
280
     1
270
     1
271
     1
  0
XRECORD
  5
BA1
102
{ACAD_REACTORS
330
B33
102
}
330
B33
100
AcDbXrecord
280
     1
102
MATERIAL
148
0.0
149
0.0
149
0.0
 93
        0
 94
      127
282
     0
 72
     0
 77
     0
171
     0
175
     0
179
     0
273
     0
  0
XRECORD
  5
B35
102
{ACAD_REACTORS
330
B33
102
}
330
B33
100
AcDbXrecord
280
     1
270
     1
271
     1
  0
XRECORD
  5
B34
102
{ACAD_REACTORS
330
B33
102
}
330
B33
100
AcDbXrecord
280
     1
270
     1
271
     1
  0
XRECORD
  5
B38
102
{ACAD_REACTORS
330
B33
102
}
330
B33
100
AcDbXrecord
280
     1
270
     1
271
     1
  0
XRECORD
  5
B37
102
{ACAD_REACTORS
330
B33
102
}
330
B33
100
AcDbXrecord
280
     1
270
     1
271
     1
  0
XRECORD
  5
B39
102
{ACAD_REACTORS
330
B33
102
}
330
B33
100
AcDbXrecord
280
     1
270
     1
271
     1
  0
XRECORD
  5
B36
102
{ACAD_REACTORS
330
B33
102
}
330
B33
100
AcDbXrecord
280
     1
270
     1
271
     1
  0
XRECORD
  5
BA3
102
{ACAD_REACTORS
330
B43
102
}
330
B43
100
AcDbXrecord
280
     1
102
MATERIAL
148
0.0
149
0.0
149
0.0
 93
        0
 94
      127
282
     0
 72
     0
 77
     0
171
     0
175
     0
179
     0
273
     0
  0
XRECORD
  5
B45
102
{ACAD_REACTORS
330
B43
102
}
330
B43
100
AcDbXrecord
280
     1
270
     1
271
     1
  0
XRECORD
  5
B44
102
{ACAD_REACTORS
330
B43
102
}
330
B43
100
AcDbXrecord
280
     1
270
     1
271
     1
  0
XRECORD
  5
B48
102
{ACAD_REACTORS
330
B43
102
}
330
B43
100
AcDbXrecord
280
     1
270
     1
271
     1
  0
XRECORD
  5
B47
102
{ACAD_REACTORS
330
B43
102
}
330
B43
100
AcDbXrecord
280
     1
270
     1
271
     1
  0
XRECORD
  5
B49
102
{ACAD_REACTORS
330
B43
102
}
330
B43
100
AcDbXrecord
280
     1
270
     1
271
     1
  0
XRECORD
  5
B46
102
{ACAD_REACTORS
330
B43
102
}
330
B43
100
AcDbXrecord
280
     1
270
     1
271
     1
  0
XRECORD
  5
BD7
102
{ACAD_REACTORS
330
BD6
102
}
330
BD6
100
AcDbXrecord
280
     1
102
DISPLAYNAME
  1
Imperial24
102
FLAGS
 90
        0
  0
CELLSTYLEMAP
  5
B9E
102
{ACAD_REACTORS
330
B9D
102
}
330
B9D
100
AcDbCellStyleMap
 90
        3
300
CELLSTYLE
  1
TABLEFORMAT_BEGIN
 90
        5
170
     1
 91
        0
 92
    32768
 62
   257
 93
        1
300
CONTENTFORMAT
  1
CONTENTFORMAT_BEGIN
 90
        0
 91
        0
 92
      512
 93
        0
300

 40
0.0
140
1.0
 94
        5
 62
     0
340
8BF
144
0.25
309
CONTENTFORMAT_END
171
     0
 94
        0
309
TABLEFORMAT_END
  1
CELLSTYLE_BEGIN
 90
        1
 91
        1
300
_TITLE
309
CELLSTYLE_END
300
CELLSTYLE
  1
TABLEFORMAT_BEGIN
 90
        5
170
     1
 91
        0
 92
        0
 62
   257
 93
        1
300
CONTENTFORMAT
  1
CONTENTFORMAT_BEGIN
 90
        0
 91
        0
 92
      512
 93
        0
300

 40
0.0
140
1.0
 94
        5
 62
     0
340
8BF
144
0.18
309
CONTENTFORMAT_END
171
     0
 94
        0
309
TABLEFORMAT_END
  1
CELLSTYLE_BEGIN
 90
        2
 91
        1
300
_HEADER
309
CELLSTYLE_END
300
CELLSTYLE
  1
TABLEFORMAT_BEGIN
 90
        5
170
     1
 91
        0
 92
        0
 62
   257
 93
        1
300
CONTENTFORMAT
  1
CONTENTFORMAT_BEGIN
 90
        0
 91
        0
 92
      512
 93
        0
300

 40
0.0
140
1.0
 94
        2
 62
     0
340
8BF
144
0.18
309
CONTENTFORMAT_END
171
     0
 94
        0
309
TABLEFORMAT_END
  1
CELLSTYLE_BEGIN
 90
        3
 91
        2
300
_DATA
309
CELLSTYLE_END
  0
XRECORD
  5
BD4
102
{ACAD_REACTORS
330
B9D
102
}
330
B9D
100
AcDbXrecord
280
     1
102
ACAD_ROUNDTRIP_PRE2007_TABLESTYLE
 90
      512
 91
        0
  1

 92
      512
 93
        0
  2

 94
      512
 95
        0
  3

  0
XRECORD
  5
BAF
102
{ACAD_REACTORS
330
BAE
102
}
330
BAE
100
AcDbXrecord
280
     1
102
RTVSPost2010Prop28
280
     1
102
RTVSPost2010PropOp28
 70
     1
102
RTVSPost2010Prop29
280
     1
102
RTVSPost2010PropOp29
 70
     1
102
RTVSPost2010Prop30
280
     0
102
RTVSPost2010PropOp30
 70
     1
102
RTVSPost2010Prop31
280
     0
102
RTVSPost2010PropOp31
 70
     1
102
RTVSPost2010Prop32
280
     0
102
RTVSPost2010PropOp32
 70
     1
102
RTVSPost2010Prop33
280
     0
102
RTVSPost2010PropOp33
 70
     1
102
RTVSPost2010Prop34
280
     0
102
RTVSPost2010PropOp34
 70
     1
102
RTVSPost2010Prop35
280
     0
102
RTVSPost2010PropOp35
 70
     1
102
RTVSPost2010Prop36
280
     0
102
RTVSPost2010PropOp36
 70
     1
102
RTVSPost2010Prop37
 90
       50
102
RTVSPost2010PropOp37
 70
     1
102
RTVSPost2010Prop38
140
0.0
102
RTVSPost2010PropOp38
 70
     1
102
RTVSPost2010Prop39
140
1.0
102
RTVSPost2010PropOp39
 70
     1
102
RTVSPost2010Prop40
 90
        0
102
RTVSPost2010PropOp40
 70
     1
102
RTVSPost2010Prop41ColorIndex
 90
       18
102
RTVSPost2010Prop41ColorRGB
 90
        0
102
RTVSPost2010PropOp41
 70
     1
102
RTVSPost2010Prop42
 90
       50
102
RTVSPost2010PropOp42
 70
     1
102
RTVSPost2010Prop43
 90
        3
102
RTVSPost2010PropOp43
 70
     1
102
RTVSPost2010Prop44ColorIndex
 90
        5
102
RTVSPost2010Prop44ColorRGB
 90
      255
102
RTVSPost2010PropOp44
 70
     1
102
RTVSPost2010Prop45
280
     0
102
RTVSPost2010PropOp45
 70
     1
102
RTVSPost2010Prop46
 90
       50
102
RTVSPost2010PropOp46
 70
     1
102
RTVSPost2010Prop47
 90
       50
102
RTVSPost2010PropOp47
 70
     1
102
RTVSPost2010Prop48
 90
       50
102
RTVSPost2010PropOp48
 70
     1
102
RTVSPost2010Prop49
280
     0
102
RTVSPost2010PropOp49
 70
     1
102
RTVSPost2010Prop50
 90
       50
102
RTVSPost2010PropOp50
 70
     1
102
RTVSPost2010Prop51ColorIndex
 90
      256
102
RTVSPost2010Prop51ColorRGB
 90
-16777216
102
RTVSPost2010PropOp51
 70
     0
102
RTVSPost2010Prop52
140
1.0
102
RTVSPost2010PropOp52
 70
     0
102
RTVSPost2010Prop53
 90
        2
102
RTVSPost2010PropOp53
 70
     1
102
RTVSPost2010Prop54
  1
strokes_ogs.tif
102
RTVSPost2010PropOp54
 70
     1
102
RTVSPost2010Prop55
280
     0
102
RTVSPost2010PropOp55
 70
     1
102
RTVSPost2010Prop56
140
1.0
102
RTVSPost2010PropOp56
 70
     1
102
RTVSPost2010Prop57
140
1.0
102
RTVSPost2010PropOp57
 70
     1
102
RTVSPropertyOp0
 70
     1
102
RTVSPropertyOp1
 70
     1
102
RTVSPropertyOp2
 70
     1
102
RTVSPropertyOp3
 70
     1
102
RTVSPropertyOp4
 70
     1
102
RTVSPropertyOp5
 70
     1
102
RTVSPropertyOp6
 70
     1
102
RTVSPropertyOp7
 70
     1
102
RTVSPropertyOp8
 70
     1
102
RTVSPropertyOp9
 70
     1
102
RTVSPropertyOp10
 70
     1
102
RTVSPropertyOp11
 70
     1
102
RTVSPropertyOp12
 70
     1
102
RTVSPropertyOp13
 70
     1
102
RTVSPropertyOp14
 70
     1
102
RTVSPropertyOp15
 70
     1
102
RTVSPropertyOp16
 70
     1
102
RTVSPropertyOp17
 70
     1
102
RTVSPropertyOp18
 70
     1
102
RTVSPropertyOp19
 70
     1
102
RTVSPropertyOp20
 70
     1
102
RTVSPropertyOp21
 70
     1
102
RTVSPropertyOp22
 70
     1
102
RTVSPropertyOp23
 70
     1
102
RTVSPropertyOp24
 70
     1
102
RTVSPropertyOp25
 70
     1
102
RTVSPropertyOp26
 70
     1
102
RTVSPropertyOp27
 70
     1
102
RTVSPropertyOp28
 70
     1
102
RTVSPropertyOp29
 70
     1
102
RTVSPropertyOp30
 70
     1
102
RTVSPropertyOp31
 70
     1
102
RTVSPropertyOp32
 70
     1
102
RTVSPropertyOp33
 70
     1
102
RTVSPropertyOp34
 70
     1
102
RTVSPropertyOp35
 70
     1
102
RTVSPropertyOp36
 70
     1
102
RTVSPropertyOp37
 70
     1
102
RTVSPropertyOp38
 70
     1
102
RTVSPropertyOp39
 70
     1
102
RTVSPropertyOp40
 70
     1
102
RTVSPropertyOp41
 70
     1
102
RTVSPropertyOp42
 70
     1
102
RTVSPropertyOp43
 70
     1
102
RTVSPropertyOp44
 70
     1
102
RTVSPropertyOp45
 70
     1
102
RTVSPropertyOp46
 70
     1
102
RTVSPropertyOp47
 70
     1
102
RTVSPropertyOp48
 70
     1
102
RTVSPropertyOp49
 70
     1
102
RTVSPropertyOp50
 70
     1
102
RTVSPropertyOp51
 70
     0
102
RTVSPropertyOp52
 70
     0
102
RTVSPropertyOp53
 70
     1
102
RTVSPropertyOp54
 70
     1
102
RTVSPropertyOp55
 70
     1
102
RTVSPropertyOp56
 70
     1
102
RTVSPropertyOp57
 70
     1
102
RTVSPropertyOp58
 70
     1
102
RTVSPropertyOp59
 70
     1
102
RTVSPropertyOp60
 70
     1
102
RTVSPropertyOp61
 70
     1
102
RTVSPropertyOp62
 70
     1
  0
XRECORD
  5
BAD
102
{ACAD_REACTORS
330
BAC
102
}
330
BAC
100
AcDbXrecord
280
     1
102
RTVSPost2010Prop28
280
     0
102
RTVSPost2010PropOp28
 70
     1
102
RTVSPost2010Prop29
280
     1
102
RTVSPost2010PropOp29
 70
     1
102
RTVSPost2010Prop30
280
     1
102
RTVSPost2010PropOp30
 70
     1
102
RTVSPost2010Prop31
280
     0
102
RTVSPost2010PropOp31
 70
     1
102
RTVSPost2010Prop32
280
     0
102
RTVSPost2010PropOp32
 70
     1
102
RTVSPost2010Prop33
280
     0
102
RTVSPost2010PropOp33
 70
     1
102
RTVSPost2010Prop34
280
     0
102
RTVSPost2010PropOp34
 70
     1
102
RTVSPost2010Prop35
280
     0
102
RTVSPost2010PropOp35
 70
     1
102
RTVSPost2010Prop36
280
     0
102
RTVSPost2010PropOp36
 70
     1
102
RTVSPost2010Prop37
 90
       50
102
RTVSPost2010PropOp37
 70
     1
102
RTVSPost2010Prop38
140
0.0
102
RTVSPost2010PropOp38
 70
     1
102
RTVSPost2010Prop39
140
1.0
102
RTVSPost2010PropOp39
 70
     1
102
RTVSPost2010Prop40
 90
        0
102
RTVSPost2010PropOp40
 70
     1
102
RTVSPost2010Prop41ColorIndex
 90
       18
102
RTVSPost2010Prop41ColorRGB
 90
        0
102
RTVSPost2010PropOp41
 70
     1
102
RTVSPost2010Prop42
 90
       50
102
RTVSPost2010PropOp42
 70
     1
102
RTVSPost2010Prop43
 90
        3
102
RTVSPost2010PropOp43
 70
     1
102
RTVSPost2010Prop44ColorIndex
 90
        5
102
RTVSPost2010Prop44ColorRGB
 90
      255
102
RTVSPost2010PropOp44
 70
     1
102
RTVSPost2010Prop45
280
     0
102
RTVSPost2010PropOp45
 70
     1
102
RTVSPost2010Prop46
 90
       50
102
RTVSPost2010PropOp46
 70
     1
102
RTVSPost2010Prop47
 90
       50
102
RTVSPost2010PropOp47
 70
     1
102
RTVSPost2010Prop48
 90
       50
102
RTVSPost2010PropOp48
 70
     1
102
RTVSPost2010Prop49
280
     0
102
RTVSPost2010PropOp49
 70
     1
102
RTVSPost2010Prop50
 90
       50
102
RTVSPost2010PropOp50
 70
     1
102
RTVSPost2010Prop51ColorIndex
 90
      256
102
RTVSPost2010Prop51ColorRGB
 90
-16777216
102
RTVSPost2010PropOp51
 70
     0
102
RTVSPost2010Prop52
140
1.0
102
RTVSPost2010PropOp52
 70
     0
102
RTVSPost2010Prop53
 90
        2
102
RTVSPost2010PropOp53
 70
     1
102
RTVSPost2010Prop54
  1
strokes_ogs.tif
102
RTVSPost2010PropOp54
 70
     1
102
RTVSPost2010Prop55
280
     0
102
RTVSPost2010PropOp55
 70
     1
102
RTVSPost2010Prop56
140
1.0
102
RTVSPost2010PropOp56
 70
     1
102
RTVSPost2010Prop57
140
1.0
102
RTVSPost2010PropOp57
 70
     1
102
RTVSPropertyOp0
 70
     1
102
RTVSPropertyOp1
 70
     1
102
RTVSPropertyOp2
 70
     1
102
RTVSPropertyOp3
 70
     1
102
RTVSPropertyOp4
 70
     1
102
RTVSPropertyOp5
 70
     1
102
RTVSPropertyOp6
 70
     1
102
RTVSPropertyOp7
 70
     1
102
RTVSPropertyOp8
 70
     1
102
RTVSPropertyOp9
 70
     1
102
RTVSPropertyOp10
 70
     1
102
RTVSPropertyOp11
 70
     1
102
RTVSPropertyOp12
 70
     1
102
RTVSPropertyOp13
 70
     1
102
RTVSPropertyOp14
 70
     1
102
RTVSPropertyOp15
 70
     1
102
RTVSPropertyOp16
 70
     1
102
RTVSPropertyOp17
 70
     1
102
RTVSPropertyOp18
 70
     1
102
RTVSPropertyOp19
 70
     1
102
RTVSPropertyOp20
 70
     1
102
RTVSPropertyOp21
 70
     1
102
RTVSPropertyOp22
 70
     1
102
RTVSPropertyOp23
 70
     1
102
RTVSPropertyOp24
 70
     1
102
RTVSPropertyOp25
 70
     1
102
RTVSPropertyOp26
 70
     1
102
RTVSPropertyOp27
 70
     1
102
RTVSPropertyOp28
 70
     1
102
RTVSPropertyOp29
 70
     1
102
RTVSPropertyOp30
 70
     1
102
RTVSPropertyOp31
 70
     1
102
RTVSPropertyOp32
 70
     1
102
RTVSPropertyOp33
 70
     1
102
RTVSPropertyOp34
 70
     1
102
RTVSPropertyOp35
 70
     1
102
RTVSPropertyOp36
 70
     1
102
RTVSPropertyOp37
 70
     1
102
RTVSPropertyOp38
 70
     1
102
RTVSPropertyOp39
 70
     1
102
RTVSPropertyOp40
 70
     1
102
RTVSPropertyOp41
 70
     1
102
RTVSPropertyOp42
 70
     1
102
RTVSPropertyOp43
 70
     1
102
RTVSPropertyOp44
 70
     1
102
RTVSPropertyOp45
 70
     1
102
RTVSPropertyOp46
 70
     1
102
RTVSPropertyOp47
 70
     1
102
RTVSPropertyOp48
 70
     1
102
RTVSPropertyOp49
 70
     1
102
RTVSPropertyOp50
 70
     1
102
RTVSPropertyOp51
 70
     0
102
RTVSPropertyOp52
 70
     0
102
RTVSPropertyOp53
 70
     1
102
RTVSPropertyOp54
 70
     1
102
RTVSPropertyOp55
 70
     1
102
RTVSPropertyOp56
 70
     1
102
RTVSPropertyOp57
 70
     1
102
RTVSPropertyOp58
 70
     1
102
RTVSPropertyOp59
 70
     1
102
RTVSPropertyOp60
 70
     1
102
RTVSPropertyOp61
 70
     1
102
RTVSPropertyOp62
 70
     1
  0
XRECORD
  5
BBB
102
{ACAD_REACTORS
330
BBA
102
}
330
BBA
100
AcDbXrecord
280
     1
102
RTVSPost2010Prop28
280
     0
102
RTVSPost2010PropOp28
 70
     1
102
RTVSPost2010Prop29
280
     1
102
RTVSPost2010PropOp29
 70
     1
102
RTVSPost2010Prop30
280
     1
102
RTVSPost2010PropOp30
 70
     1
102
RTVSPost2010Prop31
280
     0
102
RTVSPost2010PropOp31
 70
     1
102
RTVSPost2010Prop32
280
     0
102
RTVSPost2010PropOp32
 70
     1
102
RTVSPost2010Prop33
280
     0
102
RTVSPost2010PropOp33
 70
     1
102
RTVSPost2010Prop34
280
     0
102
RTVSPost2010PropOp34
 70
     1
102
RTVSPost2010Prop35
280
     0
102
RTVSPost2010PropOp35
 70
     1
102
RTVSPost2010Prop36
280
     0
102
RTVSPost2010PropOp36
 70
     1
102
RTVSPost2010Prop37
 90
       50
102
RTVSPost2010PropOp37
 70
     1
102
RTVSPost2010Prop38
140
0.0
102
RTVSPost2010PropOp38
 70
     1
102
RTVSPost2010Prop39
140
1.0
102
RTVSPost2010PropOp39
 70
     1
102
RTVSPost2010Prop40
 90
        0
102
RTVSPost2010PropOp40
 70
     1
102
RTVSPost2010Prop41ColorIndex
 90
       18
102
RTVSPost2010Prop41ColorRGB
 90
        0
102
RTVSPost2010PropOp41
 70
     1
102
RTVSPost2010Prop42
 90
       50
102
RTVSPost2010PropOp42
 70
     1
102
RTVSPost2010Prop43
 90
        3
102
RTVSPost2010PropOp43
 70
     1
102
RTVSPost2010Prop44ColorIndex
 90
        5
102
RTVSPost2010Prop44ColorRGB
 90
      255
102
RTVSPost2010PropOp44
 70
     1
102
RTVSPost2010Prop45
280
     0
102
RTVSPost2010PropOp45
 70
     1
102
RTVSPost2010Prop46
 90
       50
102
RTVSPost2010PropOp46
 70
     1
102
RTVSPost2010Prop47
 90
       50
102
RTVSPost2010PropOp47
 70
     1
102
RTVSPost2010Prop48
 90
       50
102
RTVSPost2010PropOp48
 70
     1
102
RTVSPost2010Prop49
280
     0
102
RTVSPost2010PropOp49
 70
     1
102
RTVSPost2010Prop50
 90
       50
102
RTVSPost2010PropOp50
 70
     1
102
RTVSPost2010Prop51ColorIndex
 90
      256
102
RTVSPost2010Prop51ColorRGB
 90
-16777216
102
RTVSPost2010PropOp51
 70
     0
102
RTVSPost2010Prop52
140
1.0
102
RTVSPost2010PropOp52
 70
     0
102
RTVSPost2010Prop53
 90
        2
102
RTVSPost2010PropOp53
 70
     1
102
RTVSPost2010Prop54
  1
strokes_ogs.tif
102
RTVSPost2010PropOp54
 70
     1
102
RTVSPost2010Prop55
280
     0
102
RTVSPost2010PropOp55
 70
     1
102
RTVSPost2010Prop56
140
1.0
102
RTVSPost2010PropOp56
 70
     1
102
RTVSPost2010Prop57
140
1.0
102
RTVSPost2010PropOp57
 70
     1
102
RTVSPropertyOp0
 70
     1
102
RTVSPropertyOp1
 70
     1
102
RTVSPropertyOp2
 70
     1
102
RTVSPropertyOp3
 70
     1
102
RTVSPropertyOp4
 70
     1
102
RTVSPropertyOp5
 70
     1
102
RTVSPropertyOp6
 70
     1
102
RTVSPropertyOp7
 70
     1
102
RTVSPropertyOp8
 70
     1
102
RTVSPropertyOp9
 70
     1
102
RTVSPropertyOp10
 70
     1
102
RTVSPropertyOp11
 70
     1
102
RTVSPropertyOp12
 70
     1
102
RTVSPropertyOp13
 70
     1
102
RTVSPropertyOp14
 70
     1
102
RTVSPropertyOp15
 70
     1
102
RTVSPropertyOp16
 70
     1
102
RTVSPropertyOp17
 70
     1
102
RTVSPropertyOp18
 70
     1
102
RTVSPropertyOp19
 70
     1
102
RTVSPropertyOp20
 70
     1
102
RTVSPropertyOp21
 70
     1
102
RTVSPropertyOp22
 70
     1
102
RTVSPropertyOp23
 70
     1
102
RTVSPropertyOp24
 70
     1
102
RTVSPropertyOp25
 70
     1
102
RTVSPropertyOp26
 70
     1
102
RTVSPropertyOp27
 70
     1
102
RTVSPropertyOp28
 70
     1
102
RTVSPropertyOp29
 70
     1
102
RTVSPropertyOp30
 70
     1
102
RTVSPropertyOp31
 70
     1
102
RTVSPropertyOp32
 70
     1
102
RTVSPropertyOp33
 70
     1
102
RTVSPropertyOp34
 70
     1
102
RTVSPropertyOp35
 70
     1
102
RTVSPropertyOp36
 70
     1
102
RTVSPropertyOp37
 70
     1
102
RTVSPropertyOp38
 70
     1
102
RTVSPropertyOp39
 70
     1
102
RTVSPropertyOp40
 70
     1
102
RTVSPropertyOp41
 70
     1
102
RTVSPropertyOp42
 70
     1
102
RTVSPropertyOp43
 70
     1
102
RTVSPropertyOp44
 70
     1
102
RTVSPropertyOp45
 70
     1
102
RTVSPropertyOp46
 70
     1
102
RTVSPropertyOp47
 70
     1
102
RTVSPropertyOp48
 70
     1
102
RTVSPropertyOp49
 70
     1
102
RTVSPropertyOp50
 70
     1
102
RTVSPropertyOp51
 70
     0
102
RTVSPropertyOp52
 70
     0
102
RTVSPropertyOp53
 70
     1
102
RTVSPropertyOp54
 70
     1
102
RTVSPropertyOp55
 70
     1
102
RTVSPropertyOp56
 70
     1
102
RTVSPropertyOp57
 70
     1
102
RTVSPropertyOp58
 70
     1
102
RTVSPropertyOp59
 70
     1
102
RTVSPropertyOp60
 70
     1
102
RTVSPropertyOp61
 70
     1
102
RTVSPropertyOp62
 70
     1
  0
XRECORD
  5
BC3
102
{ACAD_REACTORS
330
BC2
102
}
330
BC2
100
AcDbXrecord
280
     1
102
RTVSPost2010Prop28
280
     0
102
RTVSPost2010PropOp28
 70
     1
102
RTVSPost2010Prop29
280
     1
102
RTVSPost2010PropOp29
 70
     1
102
RTVSPost2010Prop30
280
     1
102
RTVSPost2010PropOp30
 70
     1
102
RTVSPost2010Prop31
280
     0
102
RTVSPost2010PropOp31
 70
     1
102
RTVSPost2010Prop32
280
     0
102
RTVSPost2010PropOp32
 70
     1
102
RTVSPost2010Prop33
280
     0
102
RTVSPost2010PropOp33
 70
     1
102
RTVSPost2010Prop34
280
     0
102
RTVSPost2010PropOp34
 70
     1
102
RTVSPost2010Prop35
280
     0
102
RTVSPost2010PropOp35
 70
     1
102
RTVSPost2010Prop36
280
     0
102
RTVSPost2010PropOp36
 70
     1
102
RTVSPost2010Prop37
 90
       50
102
RTVSPost2010PropOp37
 70
     1
102
RTVSPost2010Prop38
140
0.0
102
RTVSPost2010PropOp38
 70
     1
102
RTVSPost2010Prop39
140
1.0
102
RTVSPost2010PropOp39
 70
     1
102
RTVSPost2010Prop40
 90
        0
102
RTVSPost2010PropOp40
 70
     1
102
RTVSPost2010Prop41ColorIndex
 90
       18
102
RTVSPost2010Prop41ColorRGB
 90
        0
102
RTVSPost2010PropOp41
 70
     1
102
RTVSPost2010Prop42
 90
       50
102
RTVSPost2010PropOp42
 70
     1
102
RTVSPost2010Prop43
 90
        3
102
RTVSPost2010PropOp43
 70
     1
102
RTVSPost2010Prop44ColorIndex
 90
        5
102
RTVSPost2010Prop44ColorRGB
 90
      255
102
RTVSPost2010PropOp44
 70
     1
102
RTVSPost2010Prop45
280
     0
102
RTVSPost2010PropOp45
 70
     1
102
RTVSPost2010Prop46
 90
       50
102
RTVSPost2010PropOp46
 70
     1
102
RTVSPost2010Prop47
 90
       50
102
RTVSPost2010PropOp47
 70
     1
102
RTVSPost2010Prop48
 90
       50
102
RTVSPost2010PropOp48
 70
     1
102
RTVSPost2010Prop49
280
     0
102
RTVSPost2010PropOp49
 70
     1
102
RTVSPost2010Prop50
 90
       50
102
RTVSPost2010PropOp50
 70
     1
102
RTVSPost2010Prop51ColorIndex
 90
      256
102
RTVSPost2010Prop51ColorRGB
 90
-16777216
102
RTVSPost2010PropOp51
 70
     0
102
RTVSPost2010Prop52
140
1.0
102
RTVSPost2010PropOp52
 70
     0
102
RTVSPost2010Prop53
 90
        2
102
RTVSPost2010PropOp53
 70
     1
102
RTVSPost2010Prop54
  1
strokes_ogs.tif
102
RTVSPost2010PropOp54
 70
     1
102
RTVSPost2010Prop55
280
     0
102
RTVSPost2010PropOp55
 70
     1
102
RTVSPost2010Prop56
140
1.0
102
RTVSPost2010PropOp56
 70
     1
102
RTVSPost2010Prop57
140
1.0
102
RTVSPost2010PropOp57
 70
     1
102
RTVSPropertyOp0
 70
     1
102
RTVSPropertyOp1
 70
     1
102
RTVSPropertyOp2
 70
     1
102
RTVSPropertyOp3
 70
     1
102
RTVSPropertyOp4
 70
     1
102
RTVSPropertyOp5
 70
     1
102
RTVSPropertyOp6
 70
     1
102
RTVSPropertyOp7
 70
     1
102
RTVSPropertyOp8
 70
     1
102
RTVSPropertyOp9
 70
     1
102
RTVSPropertyOp10
 70
     1
102
RTVSPropertyOp11
 70
     1
102
RTVSPropertyOp12
 70
     1
102
RTVSPropertyOp13
 70
     1
102
RTVSPropertyOp14
 70
     1
102
RTVSPropertyOp15
 70
     1
102
RTVSPropertyOp16
 70
     1
102
RTVSPropertyOp17
 70
     1
102
RTVSPropertyOp18
 70
     1
102
RTVSPropertyOp19
 70
     1
102
RTVSPropertyOp20
 70
     1
102
RTVSPropertyOp21
 70
     1
102
RTVSPropertyOp22
 70
     1
102
RTVSPropertyOp23
 70
     1
102
RTVSPropertyOp24
 70
     1
102
RTVSPropertyOp25
 70
     1
102
RTVSPropertyOp26
 70
     1
102
RTVSPropertyOp27
 70
     1
102
RTVSPropertyOp28
 70
     1
102
RTVSPropertyOp29
 70
     1
102
RTVSPropertyOp30
 70
     1
102
RTVSPropertyOp31
 70
     1
102
RTVSPropertyOp32
 70
     1
102
RTVSPropertyOp33
 70
     1
102
RTVSPropertyOp34
 70
     1
102
RTVSPropertyOp35
 70
     1
102
RTVSPropertyOp36
 70
     1
102
RTVSPropertyOp37
 70
     1
102
RTVSPropertyOp38
 70
     1
102
RTVSPropertyOp39
 70
     1
102
RTVSPropertyOp40
 70
     1
102
RTVSPropertyOp41
 70
     1
102
RTVSPropertyOp42
 70
     1
102
RTVSPropertyOp43
 70
     1
102
RTVSPropertyOp44
 70
     1
102
RTVSPropertyOp45
 70
     1
102
RTVSPropertyOp46
 70
     1
102
RTVSPropertyOp47
 70
     1
102
RTVSPropertyOp48
 70
     1
102
RTVSPropertyOp49
 70
     1
102
RTVSPropertyOp50
 70
     1
102
RTVSPropertyOp51
 70
     0
102
RTVSPropertyOp52
 70
     0
102
RTVSPropertyOp53
 70
     1
102
RTVSPropertyOp54
 70
     1
102
RTVSPropertyOp55
 70
     1
102
RTVSPropertyOp56
 70
     1
102
RTVSPropertyOp57
 70
     1
102
RTVSPropertyOp58
 70
     1
102
RTVSPropertyOp59
 70
     1
102
RTVSPropertyOp60
 70
     1
102
RTVSPropertyOp61
 70
     1
102
RTVSPropertyOp62
 70
     1
  0
XRECORD
  5
BB5
102
{ACAD_REACTORS
330
BB4
102
}
330
BB4
100
AcDbXrecord
280
     1
102
RTVSPost2010Prop28
280
     0
102
RTVSPost2010PropOp28
 70
     1
102
RTVSPost2010Prop29
280
     1
102
RTVSPost2010PropOp29
 70
     1
102
RTVSPost2010Prop30
280
     1
102
RTVSPost2010PropOp30
 70
     1
102
RTVSPost2010Prop31
280
     0
102
RTVSPost2010PropOp31
 70
     1
102
RTVSPost2010Prop32
280
     0
102
RTVSPost2010PropOp32
 70
     1
102
RTVSPost2010Prop33
280
     0
102
RTVSPost2010PropOp33
 70
     1
102
RTVSPost2010Prop34
280
     0
102
RTVSPost2010PropOp34
 70
     1
102
RTVSPost2010Prop35
280
     0
102
RTVSPost2010PropOp35
 70
     1
102
RTVSPost2010Prop36
280
     0
102
RTVSPost2010PropOp36
 70
     1
102
RTVSPost2010Prop37
 90
       50
102
RTVSPost2010PropOp37
 70
     1
102
RTVSPost2010Prop38
140
0.0
102
RTVSPost2010PropOp38
 70
     1
102
RTVSPost2010Prop39
140
1.0
102
RTVSPost2010PropOp39
 70
     1
102
RTVSPost2010Prop40
 90
        0
102
RTVSPost2010PropOp40
 70
     1
102
RTVSPost2010Prop41ColorIndex
 90
       18
102
RTVSPost2010Prop41ColorRGB
 90
        0
102
RTVSPost2010PropOp41
 70
     1
102
RTVSPost2010Prop42
 90
       50
102
RTVSPost2010PropOp42
 70
     1
102
RTVSPost2010Prop43
 90
        3
102
RTVSPost2010PropOp43
 70
     1
102
RTVSPost2010Prop44ColorIndex
 90
        5
102
RTVSPost2010Prop44ColorRGB
 90
      255
102
RTVSPost2010PropOp44
 70
     1
102
RTVSPost2010Prop45
280
     0
102
RTVSPost2010PropOp45
 70
     1
102
RTVSPost2010Prop46
 90
       50
102
RTVSPost2010PropOp46
 70
     1
102
RTVSPost2010Prop47
 90
       50
102
RTVSPost2010PropOp47
 70
     1
102
RTVSPost2010Prop48
 90
       50
102
RTVSPost2010PropOp48
 70
     1
102
RTVSPost2010Prop49
280
     0
102
RTVSPost2010PropOp49
 70
     1
102
RTVSPost2010Prop50
 90
       50
102
RTVSPost2010PropOp50
 70
     1
102
RTVSPost2010Prop51ColorIndex
 90
      256
102
RTVSPost2010Prop51ColorRGB
 90
-16777216
102
RTVSPost2010PropOp51
 70
     0
102
RTVSPost2010Prop52
140
1.0
102
RTVSPost2010PropOp52
 70
     0
102
RTVSPost2010Prop53
 90
        2
102
RTVSPost2010PropOp53
 70
     1
102
RTVSPost2010Prop54
  1
strokes_ogs.tif
102
RTVSPost2010PropOp54
 70
     1
102
RTVSPost2010Prop55
280
     0
102
RTVSPost2010PropOp55
 70
     1
102
RTVSPost2010Prop56
140
1.0
102
RTVSPost2010PropOp56
 70
     1
102
RTVSPost2010Prop57
140
1.0
102
RTVSPost2010PropOp57
 70
     1
102
RTVSPropertyOp0
 70
     1
102
RTVSPropertyOp1
 70
     1
102
RTVSPropertyOp2
 70
     1
102
RTVSPropertyOp3
 70
     1
102
RTVSPropertyOp4
 70
     1
102
RTVSPropertyOp5
 70
     1
102
RTVSPropertyOp6
 70
     1
102
RTVSPropertyOp7
 70
     1
102
RTVSPropertyOp8
 70
     1
102
RTVSPropertyOp9
 70
     1
102
RTVSPropertyOp10
 70
     1
102
RTVSPropertyOp11
 70
     1
102
RTVSPropertyOp12
 70
     1
102
RTVSPropertyOp13
 70
     1
102
RTVSPropertyOp14
 70
     1
102
RTVSPropertyOp15
 70
     1
102
RTVSPropertyOp16
 70
     1
102
RTVSPropertyOp17
 70
     1
102
RTVSPropertyOp18
 70
     1
102
RTVSPropertyOp19
 70
     1
102
RTVSPropertyOp20
 70
     1
102
RTVSPropertyOp21
 70
     1
102
RTVSPropertyOp22
 70
     1
102
RTVSPropertyOp23
 70
     1
102
RTVSPropertyOp24
 70
     1
102
RTVSPropertyOp25
 70
     1
102
RTVSPropertyOp26
 70
     1
102
RTVSPropertyOp27
 70
     1
102
RTVSPropertyOp28
 70
     1
102
RTVSPropertyOp29
 70
     1
102
RTVSPropertyOp30
 70
     1
102
RTVSPropertyOp31
 70
     1
102
RTVSPropertyOp32
 70
     1
102
RTVSPropertyOp33
 70
     1
102
RTVSPropertyOp34
 70
     1
102
RTVSPropertyOp35
 70
     1
102
RTVSPropertyOp36
 70
     1
102
RTVSPropertyOp37
 70
     1
102
RTVSPropertyOp38
 70
     1
102
RTVSPropertyOp39
 70
     1
102
RTVSPropertyOp40
 70
     1
102
RTVSPropertyOp41
 70
     1
102
RTVSPropertyOp42
 70
     1
102
RTVSPropertyOp43
 70
     1
102
RTVSPropertyOp44
 70
     1
102
RTVSPropertyOp45
 70
     1
102
RTVSPropertyOp46
 70
     1
102
RTVSPropertyOp47
 70
     1
102
RTVSPropertyOp48
 70
     1
102
RTVSPropertyOp49
 70
     1
102
RTVSPropertyOp50
 70
     1
102
RTVSPropertyOp51
 70
     0
102
RTVSPropertyOp52
 70
     0
102
RTVSPropertyOp53
 70
     1
102
RTVSPropertyOp54
 70
     1
102
RTVSPropertyOp55
 70
     1
102
RTVSPropertyOp56
 70
     1
102
RTVSPropertyOp57
 70
     1
102
RTVSPropertyOp58
 70
     1
102
RTVSPropertyOp59
 70
     1
102
RTVSPropertyOp60
 70
     1
102
RTVSPropertyOp61
 70
     1
102
RTVSPropertyOp62
 70
     1
  0
XRECORD
  5
BB9
102
{ACAD_REACTORS
330
BB8
102
}
330
BB8
100
AcDbXrecord
280
     1
102
RTVSPost2010Prop28
280
     0
102
RTVSPost2010PropOp28
 70
     1
102
RTVSPost2010Prop29
280
     1
102
RTVSPost2010PropOp29
 70
     1
102
RTVSPost2010Prop30
280
     1
102
RTVSPost2010PropOp30
 70
     1
102
RTVSPost2010Prop31
280
     0
102
RTVSPost2010PropOp31
 70
     1
102
RTVSPost2010Prop32
280
     0
102
RTVSPost2010PropOp32
 70
     1
102
RTVSPost2010Prop33
280
     0
102
RTVSPost2010PropOp33
 70
     1
102
RTVSPost2010Prop34
280
     0
102
RTVSPost2010PropOp34
 70
     1
102
RTVSPost2010Prop35
280
     0
102
RTVSPost2010PropOp35
 70
     1
102
RTVSPost2010Prop36
280
     0
102
RTVSPost2010PropOp36
 70
     1
102
RTVSPost2010Prop37
 90
       50
102
RTVSPost2010PropOp37
 70
     1
102
RTVSPost2010Prop38
140
0.0
102
RTVSPost2010PropOp38
 70
     1
102
RTVSPost2010Prop39
140
1.0
102
RTVSPost2010PropOp39
 70
     1
102
RTVSPost2010Prop40
 90
        0
102
RTVSPost2010PropOp40
 70
     1
102
RTVSPost2010Prop41ColorIndex
 90
       18
102
RTVSPost2010Prop41ColorRGB
 90
        0
102
RTVSPost2010PropOp41
 70
     1
102
RTVSPost2010Prop42
 90
       50
102
RTVSPost2010PropOp42
 70
     1
102
RTVSPost2010Prop43
 90
        3
102
RTVSPost2010PropOp43
 70
     1
102
RTVSPost2010Prop44ColorIndex
 90
        5
102
RTVSPost2010Prop44ColorRGB
 90
      255
102
RTVSPost2010PropOp44
 70
     1
102
RTVSPost2010Prop45
280
     0
102
RTVSPost2010PropOp45
 70
     1
102
RTVSPost2010Prop46
 90
       50
102
RTVSPost2010PropOp46
 70
     1
102
RTVSPost2010Prop47
 90
       50
102
RTVSPost2010PropOp47
 70
     1
102
RTVSPost2010Prop48
 90
       50
102
RTVSPost2010PropOp48
 70
     1
102
RTVSPost2010Prop49
280
     0
102
RTVSPost2010PropOp49
 70
     1
102
RTVSPost2010Prop50
 90
       50
102
RTVSPost2010PropOp50
 70
     1
102
RTVSPost2010Prop51ColorIndex
 90
      256
102
RTVSPost2010Prop51ColorRGB
 90
-16777216
102
RTVSPost2010PropOp51
 70
     0
102
RTVSPost2010Prop52
140
1.0
102
RTVSPost2010PropOp52
 70
     0
102
RTVSPost2010Prop53
 90
        2
102
RTVSPost2010PropOp53
 70
     1
102
RTVSPost2010Prop54
  1
strokes_ogs.tif
102
RTVSPost2010PropOp54
 70
     1
102
RTVSPost2010Prop55
280
     0
102
RTVSPost2010PropOp55
 70
     1
102
RTVSPost2010Prop56
140
1.0
102
RTVSPost2010PropOp56
 70
     1
102
RTVSPost2010Prop57
140
1.0
102
RTVSPost2010PropOp57
 70
     1
102
RTVSPropertyOp0
 70
     1
102
RTVSPropertyOp1
 70
     1
102
RTVSPropertyOp2
 70
     1
102
RTVSPropertyOp3
 70
     1
102
RTVSPropertyOp4
 70
     1
102
RTVSPropertyOp5
 70
     1
102
RTVSPropertyOp6
 70
     1
102
RTVSPropertyOp7
 70
     1
102
RTVSPropertyOp8
 70
     1
102
RTVSPropertyOp9
 70
     1
102
RTVSPropertyOp10
 70
     1
102
RTVSPropertyOp11
 70
     1
102
RTVSPropertyOp12
 70
     1
102
RTVSPropertyOp13
 70
     1
102
RTVSPropertyOp14
 70
     1
102
RTVSPropertyOp15
 70
     1
102
RTVSPropertyOp16
 70
     1
102
RTVSPropertyOp17
 70
     1
102
RTVSPropertyOp18
 70
     1
102
RTVSPropertyOp19
 70
     1
102
RTVSPropertyOp20
 70
     1
102
RTVSPropertyOp21
 70
     1
102
RTVSPropertyOp22
 70
     1
102
RTVSPropertyOp23
 70
     1
102
RTVSPropertyOp24
 70
     1
102
RTVSPropertyOp25
 70
     1
102
RTVSPropertyOp26
 70
     1
102
RTVSPropertyOp27
 70
     1
102
RTVSPropertyOp28
 70
     1
102
RTVSPropertyOp29
 70
     1
102
RTVSPropertyOp30
 70
     1
102
RTVSPropertyOp31
 70
     1
102
RTVSPropertyOp32
 70
     1
102
RTVSPropertyOp33
 70
     1
102
RTVSPropertyOp34
 70
     1
102
RTVSPropertyOp35
 70
     1
102
RTVSPropertyOp36
 70
     1
102
RTVSPropertyOp37
 70
     1
102
RTVSPropertyOp38
 70
     1
102
RTVSPropertyOp39
 70
     1
102
RTVSPropertyOp40
 70
     1
102
RTVSPropertyOp41
 70
     1
102
RTVSPropertyOp42
 70
     1
102
RTVSPropertyOp43
 70
     1
102
RTVSPropertyOp44
 70
     1
102
RTVSPropertyOp45
 70
     1
102
RTVSPropertyOp46
 70
     1
102
RTVSPropertyOp47
 70
     1
102
RTVSPropertyOp48
 70
     1
102
RTVSPropertyOp49
 70
     1
102
RTVSPropertyOp50
 70
     1
102
RTVSPropertyOp51
 70
     0
102
RTVSPropertyOp52
 70
     0
102
RTVSPropertyOp53
 70
     1
102
RTVSPropertyOp54
 70
     1
102
RTVSPropertyOp55
 70
     1
102
RTVSPropertyOp56
 70
     1
102
RTVSPropertyOp57
 70
     1
102
RTVSPropertyOp58
 70
     1
102
RTVSPropertyOp59
 70
     1
102
RTVSPropertyOp60
 70
     1
102
RTVSPropertyOp61
 70
     1
102
RTVSPropertyOp62
 70
     1
  0
XRECORD
  5
BD3
102
{ACAD_REACTORS
330
BD2
102
}
330
BD2
100
AcDbXrecord
280
     1
102
RTVSPost2010Prop28
280
     0
102
RTVSPost2010PropOp28
 70
     1
102
RTVSPost2010Prop29
280
     1
102
RTVSPost2010PropOp29
 70
     1
102
RTVSPost2010Prop30
280
     1
102
RTVSPost2010PropOp30
 70
     1
102
RTVSPost2010Prop31
280
     0
102
RTVSPost2010PropOp31
 70
     1
102
RTVSPost2010Prop32
280
     0
102
RTVSPost2010PropOp32
 70
     1
102
RTVSPost2010Prop33
280
     0
102
RTVSPost2010PropOp33
 70
     1
102
RTVSPost2010Prop34
280
     0
102
RTVSPost2010PropOp34
 70
     1
102
RTVSPost2010Prop35
280
     0
102
RTVSPost2010PropOp35
 70
     1
102
RTVSPost2010Prop36
280
     0
102
RTVSPost2010PropOp36
 70
     1
102
RTVSPost2010Prop37
 90
       50
102
RTVSPost2010PropOp37
 70
     0
102
RTVSPost2010Prop38
140
0.0
102
RTVSPost2010PropOp38
 70
     0
102
RTVSPost2010Prop39
140
1.0
102
RTVSPost2010PropOp39
 70
     0
102
RTVSPost2010Prop40
 90
        0
102
RTVSPost2010PropOp40
 70
     0
102
RTVSPost2010Prop41ColorIndex
 90
       18
102
RTVSPost2010Prop41ColorRGB
 90
        0
102
RTVSPost2010PropOp41
 70
     0
102
RTVSPost2010Prop42
 90
       50
102
RTVSPost2010PropOp42
 70
     0
102
RTVSPost2010Prop43
 90
        3
102
RTVSPost2010PropOp43
 70
     0
102
RTVSPost2010Prop44ColorIndex
 90
        5
102
RTVSPost2010Prop44ColorRGB
 90
      255
102
RTVSPost2010PropOp44
 70
     0
102
RTVSPost2010Prop45
280
     0
102
RTVSPost2010PropOp45
 70
     1
102
RTVSPost2010Prop46
 90
       50
102
RTVSPost2010PropOp46
 70
     0
102
RTVSPost2010Prop47
 90
       50
102
RTVSPost2010PropOp47
 70
     0
102
RTVSPost2010Prop48
 90
       50
102
RTVSPost2010PropOp48
 70
     0
102
RTVSPost2010Prop49
280
     0
102
RTVSPost2010PropOp49
 70
     1
102
RTVSPost2010Prop50
 90
       50
102
RTVSPost2010PropOp50
 70
     0
102
RTVSPost2010Prop51ColorIndex
 90
      256
102
RTVSPost2010Prop51ColorRGB
 90
-16777216
102
RTVSPost2010PropOp51
 70
     0
102
RTVSPost2010Prop52
140
1.0
102
RTVSPost2010PropOp52
 70
     0
102
RTVSPost2010Prop53
 90
        2
102
RTVSPost2010PropOp53
 70
     0
102
RTVSPost2010Prop54
  1
strokes_ogs.tif
102
RTVSPost2010PropOp54
 70
     0
102
RTVSPost2010Prop55
280
     0
102
RTVSPost2010PropOp55
 70
     1
102
RTVSPost2010Prop56
140
1.0
102
RTVSPost2010PropOp56
 70
     0
102
RTVSPost2010Prop57
140
1.0
102
RTVSPost2010PropOp57
 70
     0
102
RTVSPropertyOp0
 70
     0
102
RTVSPropertyOp1
 70
     0
102
RTVSPropertyOp2
 70
     0
102
RTVSPropertyOp3
 70
     0
102
RTVSPropertyOp4
 70
     0
102
RTVSPropertyOp5
 70
     0
102
RTVSPropertyOp6
 70
     0
102
RTVSPropertyOp7
 70
     0
102
RTVSPropertyOp8
 70
     0
102
RTVSPropertyOp9
 70
     0
102
RTVSPropertyOp10
 70
     0
102
RTVSPropertyOp11
 70
     0
102
RTVSPropertyOp12
 70
     0
102
RTVSPropertyOp13
 70
     0
102
RTVSPropertyOp14
 70
     2
102
RTVSPropertyOp15
 70
     0
102
RTVSPropertyOp16
 70
     0
102
RTVSPropertyOp17
 70
     0
102
RTVSPropertyOp18
 70
     0
102
RTVSPropertyOp19
 70
     0
102
RTVSPropertyOp20
 70
     0
102
RTVSPropertyOp21
 70
     0
102
RTVSPropertyOp22
 70
     0
102
RTVSPropertyOp23
 70
     0
102
RTVSPropertyOp24
 70
     0
102
RTVSPropertyOp25
 70
     0
102
RTVSPropertyOp26
 70
     0
102
RTVSPropertyOp27
 70
     0
102
RTVSPropertyOp28
 70
     1
102
RTVSPropertyOp29
 70
     1
102
RTVSPropertyOp30
 70
     1
102
RTVSPropertyOp31
 70
     1
102
RTVSPropertyOp32
 70
     1
102
RTVSPropertyOp33
 70
     1
102
RTVSPropertyOp34
 70
     1
102
RTVSPropertyOp35
 70
     1
102
RTVSPropertyOp36
 70
     1
102
RTVSPropertyOp37
 70
     0
102
RTVSPropertyOp38
 70
     0
102
RTVSPropertyOp39
 70
     0
102
RTVSPropertyOp40
 70
     0
102
RTVSPropertyOp41
 70
     0
102
RTVSPropertyOp42
 70
     0
102
RTVSPropertyOp43
 70
     0
102
RTVSPropertyOp44
 70
     0
102
RTVSPropertyOp45
 70
     1
102
RTVSPropertyOp46
 70
     0
102
RTVSPropertyOp47
 70
     0
102
RTVSPropertyOp48
 70
     0
102
RTVSPropertyOp49
 70
     1
102
RTVSPropertyOp50
 70
     0
102
RTVSPropertyOp51
 70
     0
102
RTVSPropertyOp52
 70
     0
102
RTVSPropertyOp53
 70
     0
102
RTVSPropertyOp54
 70
     0
102
RTVSPropertyOp55
 70
     1
102
RTVSPropertyOp56
 70
     0
102
RTVSPropertyOp57
 70
     0
102
RTVSPropertyOp58
 70
     0
102
RTVSPropertyOp59
 70
     0
102
RTVSPropertyOp60
 70
     0
102
RTVSPropertyOp61
 70
     0
102
RTVSPropertyOp62
 70
     0
  0
XRECORD
  5
BC1
102
{ACAD_REACTORS
330
BC0
102
}
330
BC0
100
AcDbXrecord
280
     1
102
RTVSPost2010Prop28
280
     0
102
RTVSPost2010PropOp28
 70
     1
102
RTVSPost2010Prop29
280
     1
102
RTVSPost2010PropOp29
 70
     1
102
RTVSPost2010Prop30
280
     1
102
RTVSPost2010PropOp30
 70
     1
102
RTVSPost2010Prop31
280
     0
102
RTVSPost2010PropOp31
 70
     1
102
RTVSPost2010Prop32
280
     0
102
RTVSPost2010PropOp32
 70
     1
102
RTVSPost2010Prop33
280
     0
102
RTVSPost2010PropOp33
 70
     1
102
RTVSPost2010Prop34
280
     0
102
RTVSPost2010PropOp34
 70
     1
102
RTVSPost2010Prop35
280
     0
102
RTVSPost2010PropOp35
 70
     1
102
RTVSPost2010Prop36
280
     0
102
RTVSPost2010PropOp36
 70
     1
102
RTVSPost2010Prop37
 90
       50
102
RTVSPost2010PropOp37
 70
     1
102
RTVSPost2010Prop38
140
0.0
102
RTVSPost2010PropOp38
 70
     1
102
RTVSPost2010Prop39
140
1.0
102
RTVSPost2010PropOp39
 70
     1
102
RTVSPost2010Prop40
 90
        0
102
RTVSPost2010PropOp40
 70
     1
102
RTVSPost2010Prop41ColorIndex
 90
       18
102
RTVSPost2010Prop41ColorRGB
 90
        0
102
RTVSPost2010PropOp41
 70
     1
102
RTVSPost2010Prop42
 90
       50
102
RTVSPost2010PropOp42
 70
     1
102
RTVSPost2010Prop43
 90
        3
102
RTVSPost2010PropOp43
 70
     1
102
RTVSPost2010Prop44ColorIndex
 90
        5
102
RTVSPost2010Prop44ColorRGB
 90
      255
102
RTVSPost2010PropOp44
 70
     1
102
RTVSPost2010Prop45
280
     0
102
RTVSPost2010PropOp45
 70
     1
102
RTVSPost2010Prop46
 90
       50
102
RTVSPost2010PropOp46
 70
     1
102
RTVSPost2010Prop47
 90
       50
102
RTVSPost2010PropOp47
 70
     1
102
RTVSPost2010Prop48
 90
       50
102
RTVSPost2010PropOp48
 70
     1
102
RTVSPost2010Prop49
280
     0
102
RTVSPost2010PropOp49
 70
     1
102
RTVSPost2010Prop50
 90
       50
102
RTVSPost2010PropOp50
 70
     1
102
RTVSPost2010Prop51ColorIndex
 90
      256
102
RTVSPost2010Prop51ColorRGB
 90
-16777216
102
RTVSPost2010PropOp51
 70
     0
102
RTVSPost2010Prop52
140
1.0
102
RTVSPost2010PropOp52
 70
     0
102
RTVSPost2010Prop53
 90
        2
102
RTVSPost2010PropOp53
 70
     1
102
RTVSPost2010Prop54
  1
strokes_ogs.tif
102
RTVSPost2010PropOp54
 70
     1
102
RTVSPost2010Prop55
280
     0
102
RTVSPost2010PropOp55
 70
     1
102
RTVSPost2010Prop56
140
1.0
102
RTVSPost2010PropOp56
 70
     1
102
RTVSPost2010Prop57
140
1.0
102
RTVSPost2010PropOp57
 70
     1
102
RTVSPropertyOp0
 70
     1
102
RTVSPropertyOp1
 70
     1
102
RTVSPropertyOp2
 70
     1
102
RTVSPropertyOp3
 70
     1
102
RTVSPropertyOp4
 70
     1
102
RTVSPropertyOp5
 70
     1
102
RTVSPropertyOp6
 70
     1
102
RTVSPropertyOp7
 70
     1
102
RTVSPropertyOp8
 70
     1
102
RTVSPropertyOp9
 70
     1
102
RTVSPropertyOp10
 70
     1
102
RTVSPropertyOp11
 70
     1
102
RTVSPropertyOp12
 70
     1
102
RTVSPropertyOp13
 70
     1
102
RTVSPropertyOp14
 70
     1
102
RTVSPropertyOp15
 70
     1
102
RTVSPropertyOp16
 70
     1
102
RTVSPropertyOp17
 70
     1
102
RTVSPropertyOp18
 70
     1
102
RTVSPropertyOp19
 70
     1
102
RTVSPropertyOp20
 70
     1
102
RTVSPropertyOp21
 70
     1
102
RTVSPropertyOp22
 70
     1
102
RTVSPropertyOp23
 70
     1
102
RTVSPropertyOp24
 70
     1
102
RTVSPropertyOp25
 70
     1
102
RTVSPropertyOp26
 70
     1
102
RTVSPropertyOp27
 70
     1
102
RTVSPropertyOp28
 70
     1
102
RTVSPropertyOp29
 70
     1
102
RTVSPropertyOp30
 70
     1
102
RTVSPropertyOp31
 70
     1
102
RTVSPropertyOp32
 70
     1
102
RTVSPropertyOp33
 70
     1
102
RTVSPropertyOp34
 70
     1
102
RTVSPropertyOp35
 70
     1
102
RTVSPropertyOp36
 70
     1
102
RTVSPropertyOp37
 70
     1
102
RTVSPropertyOp38
 70
     1
102
RTVSPropertyOp39
 70
     1
102
RTVSPropertyOp40
 70
     1
102
RTVSPropertyOp41
 70
     1
102
RTVSPropertyOp42
 70
     1
102
RTVSPropertyOp43
 70
     1
102
RTVSPropertyOp44
 70
     1
102
RTVSPropertyOp45
 70
     1
102
RTVSPropertyOp46
 70
     1
102
RTVSPropertyOp47
 70
     1
102
RTVSPropertyOp48
 70
     1
102
RTVSPropertyOp49
 70
     1
102
RTVSPropertyOp50
 70
     1
102
RTVSPropertyOp51
 70
     0
102
RTVSPropertyOp52
 70
     0
102
RTVSPropertyOp53
 70
     1
102
RTVSPropertyOp54
 70
     1
102
RTVSPropertyOp55
 70
     1
102
RTVSPropertyOp56
 70
     1
102
RTVSPropertyOp57
 70
     1
102
RTVSPropertyOp58
 70
     1
102
RTVSPropertyOp59
 70
     1
102
RTVSPropertyOp60
 70
     1
102
RTVSPropertyOp61
 70
     1
102
RTVSPropertyOp62
 70
     1
  0
XRECORD
  5
BA5
102
{ACAD_REACTORS
330
BA4
102
}
330
BA4
100
AcDbXrecord
280
     1
102
RTVSPost2010Prop28
280
     0
102
RTVSPost2010PropOp28
 70
     1
102
RTVSPost2010Prop29
280
     1
102
RTVSPost2010PropOp29
 70
     1
102
RTVSPost2010Prop30
280
     1
102
RTVSPost2010PropOp30
 70
     1
102
RTVSPost2010Prop31
280
     0
102
RTVSPost2010PropOp31
 70
     1
102
RTVSPost2010Prop32
280
     0
102
RTVSPost2010PropOp32
 70
     1
102
RTVSPost2010Prop33
280
     0
102
RTVSPost2010PropOp33
 70
     1
102
RTVSPost2010Prop34
280
     0
102
RTVSPost2010PropOp34
 70
     1
102
RTVSPost2010Prop35
280
     0
102
RTVSPost2010PropOp35
 70
     1
102
RTVSPost2010Prop36
280
     0
102
RTVSPost2010PropOp36
 70
     1
102
RTVSPost2010Prop37
 90
       50
102
RTVSPost2010PropOp37
 70
     1
102
RTVSPost2010Prop38
140
0.0
102
RTVSPost2010PropOp38
 70
     1
102
RTVSPost2010Prop39
140
1.0
102
RTVSPost2010PropOp39
 70
     1
102
RTVSPost2010Prop40
 90
        0
102
RTVSPost2010PropOp40
 70
     1
102
RTVSPost2010Prop41ColorIndex
 90
       18
102
RTVSPost2010Prop41ColorRGB
 90
        0
102
RTVSPost2010PropOp41
 70
     1
102
RTVSPost2010Prop42
 90
       50
102
RTVSPost2010PropOp42
 70
     1
102
RTVSPost2010Prop43
 90
        3
102
RTVSPost2010PropOp43
 70
     1
102
RTVSPost2010Prop44ColorIndex
 90
        5
102
RTVSPost2010Prop44ColorRGB
 90
      255
102
RTVSPost2010PropOp44
 70
     1
102
RTVSPost2010Prop45
280
     0
102
RTVSPost2010PropOp45
 70
     1
102
RTVSPost2010Prop46
 90
       50
102
RTVSPost2010PropOp46
 70
     1
102
RTVSPost2010Prop47
 90
       50
102
RTVSPost2010PropOp47
 70
     1
102
RTVSPost2010Prop48
 90
       50
102
RTVSPost2010PropOp48
 70
     1
102
RTVSPost2010Prop49
280
     0
102
RTVSPost2010PropOp49
 70
     1
102
RTVSPost2010Prop50
 90
       50
102
RTVSPost2010PropOp50
 70
     1
102
RTVSPost2010Prop51ColorIndex
 90
      256
102
RTVSPost2010Prop51ColorRGB
 90
-16777216
102
RTVSPost2010PropOp51
 70
     0
102
RTVSPost2010Prop52
140
1.0
102
RTVSPost2010PropOp52
 70
     0
102
RTVSPost2010Prop53
 90
        2
102
RTVSPost2010PropOp53
 70
     1
102
RTVSPost2010Prop54
  1
strokes_ogs.tif
102
RTVSPost2010PropOp54
 70
     1
102
RTVSPost2010Prop55
280
     0
102
RTVSPost2010PropOp55
 70
     1
102
RTVSPost2010Prop56
140
1.0
102
RTVSPost2010PropOp56
 70
     1
102
RTVSPost2010Prop57
140
1.0
102
RTVSPost2010PropOp57
 70
     1
102
RTVSPropertyOp0
 70
     1
102
RTVSPropertyOp1
 70
     1
102
RTVSPropertyOp2
 70
     1
102
RTVSPropertyOp3
 70
     1
102
RTVSPropertyOp4
 70
     1
102
RTVSPropertyOp5
 70
     1
102
RTVSPropertyOp6
 70
     1
102
RTVSPropertyOp7
 70
     1
102
RTVSPropertyOp8
 70
     1
102
RTVSPropertyOp9
 70
     1
102
RTVSPropertyOp10
 70
     1
102
RTVSPropertyOp11
 70
     1
102
RTVSPropertyOp12
 70
     1
102
RTVSPropertyOp13
 70
     1
102
RTVSPropertyOp14
 70
     1
102
RTVSPropertyOp15
 70
     1
102
RTVSPropertyOp16
 70
     1
102
RTVSPropertyOp17
 70
     1
102
RTVSPropertyOp18
 70
     1
102
RTVSPropertyOp19
 70
     1
102
RTVSPropertyOp20
 70
     1
102
RTVSPropertyOp21
 70
     1
102
RTVSPropertyOp22
 70
     1
102
RTVSPropertyOp23
 70
     1
102
RTVSPropertyOp24
 70
     1
102
RTVSPropertyOp25
 70
     1
102
RTVSPropertyOp26
 70
     1
102
RTVSPropertyOp27
 70
     1
102
RTVSPropertyOp28
 70
     1
102
RTVSPropertyOp29
 70
     1
102
RTVSPropertyOp30
 70
     1
102
RTVSPropertyOp31
 70
     1
102
RTVSPropertyOp32
 70
     1
102
RTVSPropertyOp33
 70
     1
102
RTVSPropertyOp34
 70
     1
102
RTVSPropertyOp35
 70
     1
102
RTVSPropertyOp36
 70
     1
102
RTVSPropertyOp37
 70
     1
102
RTVSPropertyOp38
 70
     1
102
RTVSPropertyOp39
 70
     1
102
RTVSPropertyOp40
 70
     1
102
RTVSPropertyOp41
 70
     1
102
RTVSPropertyOp42
 70
     1
102
RTVSPropertyOp43
 70
     1
102
RTVSPropertyOp44
 70
     1
102
RTVSPropertyOp45
 70
     1
102
RTVSPropertyOp46
 70
     1
102
RTVSPropertyOp47
 70
     1
102
RTVSPropertyOp48
 70
     1
102
RTVSPropertyOp49
 70
     1
102
RTVSPropertyOp50
 70
     1
102
RTVSPropertyOp51
 70
     0
102
RTVSPropertyOp52
 70
     0
102
RTVSPropertyOp53
 70
     1
102
RTVSPropertyOp54
 70
     1
102
RTVSPropertyOp55
 70
     1
102
RTVSPropertyOp56
 70
     1
102
RTVSPropertyOp57
 70
     1
102
RTVSPropertyOp58
 70
     1
102
RTVSPropertyOp59
 70
     1
102
RTVSPropertyOp60
 70
     1
102
RTVSPropertyOp61
 70
     1
102
RTVSPropertyOp62
 70
     1
  0
XRECORD
  5
BA7
102
{ACAD_REACTORS
330
BA6
102
}
330
BA6
100
AcDbXrecord
280
     1
102
RTVSPost2010Prop28
280
     0
102
RTVSPost2010PropOp28
 70
     1
102
RTVSPost2010Prop29
280
     1
102
RTVSPost2010PropOp29
 70
     1
102
RTVSPost2010Prop30
280
     1
102
RTVSPost2010PropOp30
 70
     1
102
RTVSPost2010Prop31
280
     0
102
RTVSPost2010PropOp31
 70
     1
102
RTVSPost2010Prop32
280
     0
102
RTVSPost2010PropOp32
 70
     1
102
RTVSPost2010Prop33
280
     0
102
RTVSPost2010PropOp33
 70
     1
102
RTVSPost2010Prop34
280
     0
102
RTVSPost2010PropOp34
 70
     1
102
RTVSPost2010Prop35
280
     0
102
RTVSPost2010PropOp35
 70
     1
102
RTVSPost2010Prop36
280
     0
102
RTVSPost2010PropOp36
 70
     1
102
RTVSPost2010Prop37
 90
       50
102
RTVSPost2010PropOp37
 70
     1
102
RTVSPost2010Prop38
140
0.0
102
RTVSPost2010PropOp38
 70
     1
102
RTVSPost2010Prop39
140
1.0
102
RTVSPost2010PropOp39
 70
     1
102
RTVSPost2010Prop40
 90
        0
102
RTVSPost2010PropOp40
 70
     1
102
RTVSPost2010Prop41ColorIndex
 90
       18
102
RTVSPost2010Prop41ColorRGB
 90
        0
102
RTVSPost2010PropOp41
 70
     1
102
RTVSPost2010Prop42
 90
       50
102
RTVSPost2010PropOp42
 70
     1
102
RTVSPost2010Prop43
 90
        3
102
RTVSPost2010PropOp43
 70
     1
102
RTVSPost2010Prop44ColorIndex
 90
        5
102
RTVSPost2010Prop44ColorRGB
 90
      255
102
RTVSPost2010PropOp44
 70
     1
102
RTVSPost2010Prop45
280
     0
102
RTVSPost2010PropOp45
 70
     1
102
RTVSPost2010Prop46
 90
       50
102
RTVSPost2010PropOp46
 70
     1
102
RTVSPost2010Prop47
 90
       50
102
RTVSPost2010PropOp47
 70
     1
102
RTVSPost2010Prop48
 90
       50
102
RTVSPost2010PropOp48
 70
     1
102
RTVSPost2010Prop49
280
     0
102
RTVSPost2010PropOp49
 70
     1
102
RTVSPost2010Prop50
 90
       50
102
RTVSPost2010PropOp50
 70
     1
102
RTVSPost2010Prop51ColorIndex
 90
      256
102
RTVSPost2010Prop51ColorRGB
 90
-16777216
102
RTVSPost2010PropOp51
 70
     0
102
RTVSPost2010Prop52
140
1.0
102
RTVSPost2010PropOp52
 70
     0
102
RTVSPost2010Prop53
 90
        2
102
RTVSPost2010PropOp53
 70
     1
102
RTVSPost2010Prop54
  1
strokes_ogs.tif
102
RTVSPost2010PropOp54
 70
     1
102
RTVSPost2010Prop55
280
     0
102
RTVSPost2010PropOp55
 70
     1
102
RTVSPost2010Prop56
140
1.0
102
RTVSPost2010PropOp56
 70
     1
102
RTVSPost2010Prop57
140
1.0
102
RTVSPost2010PropOp57
 70
     1
102
RTVSPropertyOp0
 70
     1
102
RTVSPropertyOp1
 70
     1
102
RTVSPropertyOp2
 70
     1
102
RTVSPropertyOp3
 70
     1
102
RTVSPropertyOp4
 70
     1
102
RTVSPropertyOp5
 70
     1
102
RTVSPropertyOp6
 70
     1
102
RTVSPropertyOp7
 70
     1
102
RTVSPropertyOp8
 70
     1
102
RTVSPropertyOp9
 70
     1
102
RTVSPropertyOp10
 70
     1
102
RTVSPropertyOp11
 70
     1
102
RTVSPropertyOp12
 70
     1
102
RTVSPropertyOp13
 70
     1
102
RTVSPropertyOp14
 70
     1
102
RTVSPropertyOp15
 70
     1
102
RTVSPropertyOp16
 70
     1
102
RTVSPropertyOp17
 70
     1
102
RTVSPropertyOp18
 70
     1
102
RTVSPropertyOp19
 70
     1
102
RTVSPropertyOp20
 70
     1
102
RTVSPropertyOp21
 70
     1
102
RTVSPropertyOp22
 70
     1
102
RTVSPropertyOp23
 70
     1
102
RTVSPropertyOp24
 70
     1
102
RTVSPropertyOp25
 70
     1
102
RTVSPropertyOp26
 70
     1
102
RTVSPropertyOp27
 70
     1
102
RTVSPropertyOp28
 70
     1
102
RTVSPropertyOp29
 70
     1
102
RTVSPropertyOp30
 70
     1
102
RTVSPropertyOp31
 70
     1
102
RTVSPropertyOp32
 70
     1
102
RTVSPropertyOp33
 70
     1
102
RTVSPropertyOp34
 70
     1
102
RTVSPropertyOp35
 70
     1
102
RTVSPropertyOp36
 70
     1
102
RTVSPropertyOp37
 70
     1
102
RTVSPropertyOp38
 70
     1
102
RTVSPropertyOp39
 70
     1
102
RTVSPropertyOp40
 70
     1
102
RTVSPropertyOp41
 70
     1
102
RTVSPropertyOp42
 70
     1
102
RTVSPropertyOp43
 70
     1
102
RTVSPropertyOp44
 70
     1
102
RTVSPropertyOp45
 70
     1
102
RTVSPropertyOp46
 70
     1
102
RTVSPropertyOp47
 70
     1
102
RTVSPropertyOp48
 70
     1
102
RTVSPropertyOp49
 70
     1
102
RTVSPropertyOp50
 70
     1
102
RTVSPropertyOp51
 70
     0
102
RTVSPropertyOp52
 70
     0
102
RTVSPropertyOp53
 70
     1
102
RTVSPropertyOp54
 70
     1
102
RTVSPropertyOp55
 70
     1
102
RTVSPropertyOp56
 70
     1
102
RTVSPropertyOp57
 70
     1
102
RTVSPropertyOp58
 70
     1
102
RTVSPropertyOp59
 70
     1
102
RTVSPropertyOp60
 70
     1
102
RTVSPropertyOp61
 70
     1
102
RTVSPropertyOp62
 70
     1
  0
XRECORD
  5
BA9
102
{ACAD_REACTORS
330
BA8
102
}
330
BA8
100
AcDbXrecord
280
     1
102
RTVSPost2010Prop28
280
     0
102
RTVSPost2010PropOp28
 70
     1
102
RTVSPost2010Prop29
280
     1
102
RTVSPost2010PropOp29
 70
     1
102
RTVSPost2010Prop30
280
     1
102
RTVSPost2010PropOp30
 70
     1
102
RTVSPost2010Prop31
280
     0
102
RTVSPost2010PropOp31
 70
     1
102
RTVSPost2010Prop32
280
     0
102
RTVSPost2010PropOp32
 70
     1
102
RTVSPost2010Prop33
280
     0
102
RTVSPost2010PropOp33
 70
     1
102
RTVSPost2010Prop34
280
     0
102
RTVSPost2010PropOp34
 70
     1
102
RTVSPost2010Prop35
280
     0
102
RTVSPost2010PropOp35
 70
     1
102
RTVSPost2010Prop36
280
     0
102
RTVSPost2010PropOp36
 70
     1
102
RTVSPost2010Prop37
 90
       50
102
RTVSPost2010PropOp37
 70
     1
102
RTVSPost2010Prop38
140
0.0
102
RTVSPost2010PropOp38
 70
     1
102
RTVSPost2010Prop39
140
1.0
102
RTVSPost2010PropOp39
 70
     1
102
RTVSPost2010Prop40
 90
        0
102
RTVSPost2010PropOp40
 70
     1
102
RTVSPost2010Prop41ColorIndex
 90
       18
102
RTVSPost2010Prop41ColorRGB
 90
        0
102
RTVSPost2010PropOp41
 70
     1
102
RTVSPost2010Prop42
 90
       50
102
RTVSPost2010PropOp42
 70
     1
102
RTVSPost2010Prop43
 90
        3
102
RTVSPost2010PropOp43
 70
     1
102
RTVSPost2010Prop44ColorIndex
 90
        5
102
RTVSPost2010Prop44ColorRGB
 90
      255
102
RTVSPost2010PropOp44
 70
     1
102
RTVSPost2010Prop45
280
     0
102
RTVSPost2010PropOp45
 70
     1
102
RTVSPost2010Prop46
 90
       50
102
RTVSPost2010PropOp46
 70
     1
102
RTVSPost2010Prop47
 90
       50
102
RTVSPost2010PropOp47
 70
     1
102
RTVSPost2010Prop48
 90
       50
102
RTVSPost2010PropOp48
 70
     1
102
RTVSPost2010Prop49
280
     0
102
RTVSPost2010PropOp49
 70
     1
102
RTVSPost2010Prop50
 90
       50
102
RTVSPost2010PropOp50
 70
     1
102
RTVSPost2010Prop51ColorIndex
 90
      256
102
RTVSPost2010Prop51ColorRGB
 90
-16777216
102
RTVSPost2010PropOp51
 70
     0
102
RTVSPost2010Prop52
140
1.0
102
RTVSPost2010PropOp52
 70
     0
102
RTVSPost2010Prop53
 90
        2
102
RTVSPost2010PropOp53
 70
     1
102
RTVSPost2010Prop54
  1
strokes_ogs.tif
102
RTVSPost2010PropOp54
 70
     1
102
RTVSPost2010Prop55
280
     0
102
RTVSPost2010PropOp55
 70
     1
102
RTVSPost2010Prop56
140
1.0
102
RTVSPost2010PropOp56
 70
     1
102
RTVSPost2010Prop57
140
1.0
102
RTVSPost2010PropOp57
 70
     1
102
RTVSPropertyOp0
 70
     1
102
RTVSPropertyOp1
 70
     1
102
RTVSPropertyOp2
 70
     1
102
RTVSPropertyOp3
 70
     1
102
RTVSPropertyOp4
 70
     1
102
RTVSPropertyOp5
 70
     1
102
RTVSPropertyOp6
 70
     1
102
RTVSPropertyOp7
 70
     1
102
RTVSPropertyOp8
 70
     1
102
RTVSPropertyOp9
 70
     1
102
RTVSPropertyOp10
 70
     1
102
RTVSPropertyOp11
 70
     1
102
RTVSPropertyOp12
 70
     1
102
RTVSPropertyOp13
 70
     1
102
RTVSPropertyOp14
 70
     1
102
RTVSPropertyOp15
 70
     1
102
RTVSPropertyOp16
 70
     1
102
RTVSPropertyOp17
 70
     1
102
RTVSPropertyOp18
 70
     1
102
RTVSPropertyOp19
 70
     1
102
RTVSPropertyOp20
 70
     1
102
RTVSPropertyOp21
 70
     1
102
RTVSPropertyOp22
 70
     1
102
RTVSPropertyOp23
 70
     1
102
RTVSPropertyOp24
 70
     1
102
RTVSPropertyOp25
 70
     1
102
RTVSPropertyOp26
 70
     1
102
RTVSPropertyOp27
 70
     1
102
RTVSPropertyOp28
 70
     1
102
RTVSPropertyOp29
 70
     1
102
RTVSPropertyOp30
 70
     1
102
RTVSPropertyOp31
 70
     1
102
RTVSPropertyOp32
 70
     1
102
RTVSPropertyOp33
 70
     1
102
RTVSPropertyOp34
 70
     1
102
RTVSPropertyOp35
 70
     1
102
RTVSPropertyOp36
 70
     1
102
RTVSPropertyOp37
 70
     1
102
RTVSPropertyOp38
 70
     1
102
RTVSPropertyOp39
 70
     1
102
RTVSPropertyOp40
 70
     1
102
RTVSPropertyOp41
 70
     1
102
RTVSPropertyOp42
 70
     1
102
RTVSPropertyOp43
 70
     1
102
RTVSPropertyOp44
 70
     1
102
RTVSPropertyOp45
 70
     1
102
RTVSPropertyOp46
 70
     1
102
RTVSPropertyOp47
 70
     1
102
RTVSPropertyOp48
 70
     1
102
RTVSPropertyOp49
 70
     1
102
RTVSPropertyOp50
 70
     1
102
RTVSPropertyOp51
 70
     0
102
RTVSPropertyOp52
 70
     0
102
RTVSPropertyOp53
 70
     1
102
RTVSPropertyOp54
 70
     1
102
RTVSPropertyOp55
 70
     1
102
RTVSPropertyOp56
 70
     1
102
RTVSPropertyOp57
 70
     1
102
RTVSPropertyOp58
 70
     1
102
RTVSPropertyOp59
 70
     1
102
RTVSPropertyOp60
 70
     1
102
RTVSPropertyOp61
 70
     1
102
RTVSPropertyOp62
 70
     1
  0
XRECORD
  5
BAB
102
{ACAD_REACTORS
330
BAA
102
}
330
BAA
100
AcDbXrecord
280
     1
102
RTVSPost2010Prop28
280
     0
102
RTVSPost2010PropOp28
 70
     1
102
RTVSPost2010Prop29
280
     1
102
RTVSPost2010PropOp29
 70
     1
102
RTVSPost2010Prop30
280
     1
102
RTVSPost2010PropOp30
 70
     1
102
RTVSPost2010Prop31
280
     0
102
RTVSPost2010PropOp31
 70
     1
102
RTVSPost2010Prop32
280
     0
102
RTVSPost2010PropOp32
 70
     1
102
RTVSPost2010Prop33
280
     0
102
RTVSPost2010PropOp33
 70
     1
102
RTVSPost2010Prop34
280
     0
102
RTVSPost2010PropOp34
 70
     1
102
RTVSPost2010Prop35
280
     0
102
RTVSPost2010PropOp35
 70
     1
102
RTVSPost2010Prop36
280
     0
102
RTVSPost2010PropOp36
 70
     1
102
RTVSPost2010Prop37
 90
       50
102
RTVSPost2010PropOp37
 70
     1
102
RTVSPost2010Prop38
140
0.0
102
RTVSPost2010PropOp38
 70
     1
102
RTVSPost2010Prop39
140
1.0
102
RTVSPost2010PropOp39
 70
     1
102
RTVSPost2010Prop40
 90
        0
102
RTVSPost2010PropOp40
 70
     1
102
RTVSPost2010Prop41ColorIndex
 90
       18
102
RTVSPost2010Prop41ColorRGB
 90
        0
102
RTVSPost2010PropOp41
 70
     1
102
RTVSPost2010Prop42
 90
       50
102
RTVSPost2010PropOp42
 70
     1
102
RTVSPost2010Prop43
 90
        3
102
RTVSPost2010PropOp43
 70
     1
102
RTVSPost2010Prop44ColorIndex
 90
        5
102
RTVSPost2010Prop44ColorRGB
 90
      255
102
RTVSPost2010PropOp44
 70
     1
102
RTVSPost2010Prop45
280
     0
102
RTVSPost2010PropOp45
 70
     1
102
RTVSPost2010Prop46
 90
       50
102
RTVSPost2010PropOp46
 70
     1
102
RTVSPost2010Prop47
 90
       50
102
RTVSPost2010PropOp47
 70
     1
102
RTVSPost2010Prop48
 90
       50
102
RTVSPost2010PropOp48
 70
     1
102
RTVSPost2010Prop49
280
     0
102
RTVSPost2010PropOp49
 70
     1
102
RTVSPost2010Prop50
 90
       50
102
RTVSPost2010PropOp50
 70
     1
102
RTVSPost2010Prop51ColorIndex
 90
      256
102
RTVSPost2010Prop51ColorRGB
 90
-16777216
102
RTVSPost2010PropOp51
 70
     0
102
RTVSPost2010Prop52
140
1.0
102
RTVSPost2010PropOp52
 70
     0
102
RTVSPost2010Prop53
 90
        2
102
RTVSPost2010PropOp53
 70
     1
102
RTVSPost2010Prop54
  1
strokes_ogs.tif
102
RTVSPost2010PropOp54
 70
     1
102
RTVSPost2010Prop55
280
     0
102
RTVSPost2010PropOp55
 70
     1
102
RTVSPost2010Prop56
140
1.0
102
RTVSPost2010PropOp56
 70
     1
102
RTVSPost2010Prop57
140
1.0
102
RTVSPost2010PropOp57
 70
     1
102
RTVSPropertyOp0
 70
     1
102
RTVSPropertyOp1
 70
     1
102
RTVSPropertyOp2
 70
     1
102
RTVSPropertyOp3
 70
     1
102
RTVSPropertyOp4
 70
     1
102
RTVSPropertyOp5
 70
     1
102
RTVSPropertyOp6
 70
     1
102
RTVSPropertyOp7
 70
     1
102
RTVSPropertyOp8
 70
     1
102
RTVSPropertyOp9
 70
     1
102
RTVSPropertyOp10
 70
     1
102
RTVSPropertyOp11
 70
     1
102
RTVSPropertyOp12
 70
     1
102
RTVSPropertyOp13
 70
     1
102
RTVSPropertyOp14
 70
     1
102
RTVSPropertyOp15
 70
     1
102
RTVSPropertyOp16
 70
     1
102
RTVSPropertyOp17
 70
     1
102
RTVSPropertyOp18
 70
     1
102
RTVSPropertyOp19
 70
     1
102
RTVSPropertyOp20
 70
     1
102
RTVSPropertyOp21
 70
     1
102
RTVSPropertyOp22
 70
     1
102
RTVSPropertyOp23
 70
     1
102
RTVSPropertyOp24
 70
     1
102
RTVSPropertyOp25
 70
     1
102
RTVSPropertyOp26
 70
     1
102
RTVSPropertyOp27
 70
     1
102
RTVSPropertyOp28
 70
     1
102
RTVSPropertyOp29
 70
     1
102
RTVSPropertyOp30
 70
     1
102
RTVSPropertyOp31
 70
     1
102
RTVSPropertyOp32
 70
     1
102
RTVSPropertyOp33
 70
     1
102
RTVSPropertyOp34
 70
     1
102
RTVSPropertyOp35
 70
     1
102
RTVSPropertyOp36
 70
     1
102
RTVSPropertyOp37
 70
     1
102
RTVSPropertyOp38
 70
     1
102
RTVSPropertyOp39
 70
     1
102
RTVSPropertyOp40
 70
     1
102
RTVSPropertyOp41
 70
     1
102
RTVSPropertyOp42
 70
     1
102
RTVSPropertyOp43
 70
     1
102
RTVSPropertyOp44
 70
     1
102
RTVSPropertyOp45
 70
     1
102
RTVSPropertyOp46
 70
     1
102
RTVSPropertyOp47
 70
     1
102
RTVSPropertyOp48
 70
     1
102
RTVSPropertyOp49
 70
     1
102
RTVSPropertyOp50
 70
     1
102
RTVSPropertyOp51
 70
     0
102
RTVSPropertyOp52
 70
     0
102
RTVSPropertyOp53
 70
     1
102
RTVSPropertyOp54
 70
     1
102
RTVSPropertyOp55
 70
     1
102
RTVSPropertyOp56
 70
     1
102
RTVSPropertyOp57
 70
     1
102
RTVSPropertyOp58
 70
     1
102
RTVSPropertyOp59
 70
     1
102
RTVSPropertyOp60
 70
     1
102
RTVSPropertyOp61
 70
     1
102
RTVSPropertyOp62
 70
     1
  0
XRECORD
  5
BB3
102
{ACAD_REACTORS
330
BB2
102
}
330
BB2
100
AcDbXrecord
280
     1
102
RTVSPost2010Prop28
280
     0
102
RTVSPost2010PropOp28
 70
     1
102
RTVSPost2010Prop29
280
     1
102
RTVSPost2010PropOp29
 70
     1
102
RTVSPost2010Prop30
280
     1
102
RTVSPost2010PropOp30
 70
     1
102
RTVSPost2010Prop31
280
     0
102
RTVSPost2010PropOp31
 70
     1
102
RTVSPost2010Prop32
280
     0
102
RTVSPost2010PropOp32
 70
     1
102
RTVSPost2010Prop33
280
     0
102
RTVSPost2010PropOp33
 70
     1
102
RTVSPost2010Prop34
280
     0
102
RTVSPost2010PropOp34
 70
     1
102
RTVSPost2010Prop35
280
     0
102
RTVSPost2010PropOp35
 70
     1
102
RTVSPost2010Prop36
280
     0
102
RTVSPost2010PropOp36
 70
     1
102
RTVSPost2010Prop37
 90
       50
102
RTVSPost2010PropOp37
 70
     1
102
RTVSPost2010Prop38
140
0.0
102
RTVSPost2010PropOp38
 70
     1
102
RTVSPost2010Prop39
140
1.0
102
RTVSPost2010PropOp39
 70
     1
102
RTVSPost2010Prop40
 90
        0
102
RTVSPost2010PropOp40
 70
     1
102
RTVSPost2010Prop41ColorIndex
 90
       18
102
RTVSPost2010Prop41ColorRGB
 90
        0
102
RTVSPost2010PropOp41
 70
     1
102
RTVSPost2010Prop42
 90
       50
102
RTVSPost2010PropOp42
 70
     1
102
RTVSPost2010Prop43
 90
        3
102
RTVSPost2010PropOp43
 70
     1
102
RTVSPost2010Prop44ColorIndex
 90
        5
102
RTVSPost2010Prop44ColorRGB
 90
      255
102
RTVSPost2010PropOp44
 70
     1
102
RTVSPost2010Prop45
280
     0
102
RTVSPost2010PropOp45
 70
     1
102
RTVSPost2010Prop46
 90
       50
102
RTVSPost2010PropOp46
 70
     1
102
RTVSPost2010Prop47
 90
       50
102
RTVSPost2010PropOp47
 70
     1
102
RTVSPost2010Prop48
 90
       50
102
RTVSPost2010PropOp48
 70
     1
102
RTVSPost2010Prop49
280
     0
102
RTVSPost2010PropOp49
 70
     1
102
RTVSPost2010Prop50
 90
       50
102
RTVSPost2010PropOp50
 70
     1
102
RTVSPost2010Prop51ColorIndex
 90
      256
102
RTVSPost2010Prop51ColorRGB
 90
-16777216
102
RTVSPost2010PropOp51
 70
     0
102
RTVSPost2010Prop52
140
1.0
102
RTVSPost2010PropOp52
 70
     0
102
RTVSPost2010Prop53
 90
        2
102
RTVSPost2010PropOp53
 70
     1
102
RTVSPost2010Prop54
  1
strokes_ogs.tif
102
RTVSPost2010PropOp54
 70
     1
102
RTVSPost2010Prop55
280
     0
102
RTVSPost2010PropOp55
 70
     1
102
RTVSPost2010Prop56
140
1.0
102
RTVSPost2010PropOp56
 70
     1
102
RTVSPost2010Prop57
140
1.0
102
RTVSPost2010PropOp57
 70
     1
102
RTVSPropertyOp0
 70
     1
102
RTVSPropertyOp1
 70
     1
102
RTVSPropertyOp2
 70
     1
102
RTVSPropertyOp3
 70
     1
102
RTVSPropertyOp4
 70
     1
102
RTVSPropertyOp5
 70
     1
102
RTVSPropertyOp6
 70
     1
102
RTVSPropertyOp7
 70
     1
102
RTVSPropertyOp8
 70
     1
102
RTVSPropertyOp9
 70
     1
102
RTVSPropertyOp10
 70
     1
102
RTVSPropertyOp11
 70
     1
102
RTVSPropertyOp12
 70
     1
102
RTVSPropertyOp13
 70
     1
102
RTVSPropertyOp14
 70
     1
102
RTVSPropertyOp15
 70
     1
102
RTVSPropertyOp16
 70
     1
102
RTVSPropertyOp17
 70
     1
102
RTVSPropertyOp18
 70
     1
102
RTVSPropertyOp19
 70
     1
102
RTVSPropertyOp20
 70
     1
102
RTVSPropertyOp21
 70
     1
102
RTVSPropertyOp22
 70
     1
102
RTVSPropertyOp23
 70
     1
102
RTVSPropertyOp24
 70
     1
102
RTVSPropertyOp25
 70
     1
102
RTVSPropertyOp26
 70
     1
102
RTVSPropertyOp27
 70
     1
102
RTVSPropertyOp28
 70
     1
102
RTVSPropertyOp29
 70
     1
102
RTVSPropertyOp30
 70
     1
102
RTVSPropertyOp31
 70
     1
102
RTVSPropertyOp32
 70
     1
102
RTVSPropertyOp33
 70
     1
102
RTVSPropertyOp34
 70
     1
102
RTVSPropertyOp35
 70
     1
102
RTVSPropertyOp36
 70
     1
102
RTVSPropertyOp37
 70
     1
102
RTVSPropertyOp38
 70
     1
102
RTVSPropertyOp39
 70
     1
102
RTVSPropertyOp40
 70
     1
102
RTVSPropertyOp41
 70
     1
102
RTVSPropertyOp42
 70
     1
102
RTVSPropertyOp43
 70
     1
102
RTVSPropertyOp44
 70
     1
102
RTVSPropertyOp45
 70
     1
102
RTVSPropertyOp46
 70
     1
102
RTVSPropertyOp47
 70
     1
102
RTVSPropertyOp48
 70
     1
102
RTVSPropertyOp49
 70
     1
102
RTVSPropertyOp50
 70
     1
102
RTVSPropertyOp51
 70
     0
102
RTVSPropertyOp52
 70
     0
102
RTVSPropertyOp53
 70
     1
102
RTVSPropertyOp54
 70
     1
102
RTVSPropertyOp55
 70
     1
102
RTVSPropertyOp56
 70
     1
102
RTVSPropertyOp57
 70
     1
102
RTVSPropertyOp58
 70
     1
102
RTVSPropertyOp59
 70
     1
102
RTVSPropertyOp60
 70
     1
102
RTVSPropertyOp61
 70
     1
102
RTVSPropertyOp62
 70
     1
  0
XRECORD
  5
BCF
102
{ACAD_REACTORS
330
BCE
102
}
330
BCE
100
AcDbXrecord
280
     1
102
RTVSPost2010Prop28
280
     0
102
RTVSPost2010PropOp28
 70
     1
102
RTVSPost2010Prop29
280
     1
102
RTVSPost2010PropOp29
 70
     1
102
RTVSPost2010Prop30
280
     1
102
RTVSPost2010PropOp30
 70
     1
102
RTVSPost2010Prop31
280
     0
102
RTVSPost2010PropOp31
 70
     1
102
RTVSPost2010Prop32
280
     0
102
RTVSPost2010PropOp32
 70
     1
102
RTVSPost2010Prop33
280
     0
102
RTVSPost2010PropOp33
 70
     1
102
RTVSPost2010Prop34
280
     0
102
RTVSPost2010PropOp34
 70
     1
102
RTVSPost2010Prop35
280
     0
102
RTVSPost2010PropOp35
 70
     1
102
RTVSPost2010Prop36
280
     0
102
RTVSPost2010PropOp36
 70
     1
102
RTVSPost2010Prop37
 90
       50
102
RTVSPost2010PropOp37
 70
     0
102
RTVSPost2010Prop38
140
0.0
102
RTVSPost2010PropOp38
 70
     0
102
RTVSPost2010Prop39
140
1.0
102
RTVSPost2010PropOp39
 70
     0
102
RTVSPost2010Prop40
 90
        0
102
RTVSPost2010PropOp40
 70
     0
102
RTVSPost2010Prop41ColorIndex
 90
       18
102
RTVSPost2010Prop41ColorRGB
 90
        0
102
RTVSPost2010PropOp41
 70
     0
102
RTVSPost2010Prop42
 90
       50
102
RTVSPost2010PropOp42
 70
     0
102
RTVSPost2010Prop43
 90
        3
102
RTVSPost2010PropOp43
 70
     0
102
RTVSPost2010Prop44ColorIndex
 90
        5
102
RTVSPost2010Prop44ColorRGB
 90
      255
102
RTVSPost2010PropOp44
 70
     0
102
RTVSPost2010Prop45
280
     0
102
RTVSPost2010PropOp45
 70
     1
102
RTVSPost2010Prop46
 90
       50
102
RTVSPost2010PropOp46
 70
     0
102
RTVSPost2010Prop47
 90
       50
102
RTVSPost2010PropOp47
 70
     0
102
RTVSPost2010Prop48
 90
       50
102
RTVSPost2010PropOp48
 70
     0
102
RTVSPost2010Prop49
280
     0
102
RTVSPost2010PropOp49
 70
     1
102
RTVSPost2010Prop50
 90
       50
102
RTVSPost2010PropOp50
 70
     0
102
RTVSPost2010Prop51ColorIndex
 90
      256
102
RTVSPost2010Prop51ColorRGB
 90
-16777216
102
RTVSPost2010PropOp51
 70
     0
102
RTVSPost2010Prop52
140
1.0
102
RTVSPost2010PropOp52
 70
     0
102
RTVSPost2010Prop53
 90
        2
102
RTVSPost2010PropOp53
 70
     0
102
RTVSPost2010Prop54
  1
strokes_ogs.tif
102
RTVSPost2010PropOp54
 70
     0
102
RTVSPost2010Prop55
280
     0
102
RTVSPost2010PropOp55
 70
     1
102
RTVSPost2010Prop56
140
1.0
102
RTVSPost2010PropOp56
 70
     0
102
RTVSPost2010Prop57
140
1.0
102
RTVSPost2010PropOp57
 70
     0
102
RTVSPropertyOp0
 70
     0
102
RTVSPropertyOp1
 70
     0
102
RTVSPropertyOp2
 70
     0
102
RTVSPropertyOp3
 70
     0
102
RTVSPropertyOp4
 70
     0
102
RTVSPropertyOp5
 70
     0
102
RTVSPropertyOp6
 70
     0
102
RTVSPropertyOp7
 70
     0
102
RTVSPropertyOp8
 70
     0
102
RTVSPropertyOp9
 70
     0
102
RTVSPropertyOp10
 70
     0
102
RTVSPropertyOp11
 70
     0
102
RTVSPropertyOp12
 70
     0
102
RTVSPropertyOp13
 70
     0
102
RTVSPropertyOp14
 70
     2
102
RTVSPropertyOp15
 70
     0
102
RTVSPropertyOp16
 70
     0
102
RTVSPropertyOp17
 70
     0
102
RTVSPropertyOp18
 70
     0
102
RTVSPropertyOp19
 70
     0
102
RTVSPropertyOp20
 70
     0
102
RTVSPropertyOp21
 70
     0
102
RTVSPropertyOp22
 70
     0
102
RTVSPropertyOp23
 70
     0
102
RTVSPropertyOp24
 70
     0
102
RTVSPropertyOp25
 70
     0
102
RTVSPropertyOp26
 70
     0
102
RTVSPropertyOp27
 70
     0
102
RTVSPropertyOp28
 70
     1
102
RTVSPropertyOp29
 70
     1
102
RTVSPropertyOp30
 70
     1
102
RTVSPropertyOp31
 70
     1
102
RTVSPropertyOp32
 70
     1
102
RTVSPropertyOp33
 70
     1
102
RTVSPropertyOp34
 70
     1
102
RTVSPropertyOp35
 70
     1
102
RTVSPropertyOp36
 70
     1
102
RTVSPropertyOp37
 70
     0
102
RTVSPropertyOp38
 70
     0
102
RTVSPropertyOp39
 70
     0
102
RTVSPropertyOp40
 70
     0
102
RTVSPropertyOp41
 70
     0
102
RTVSPropertyOp42
 70
     0
102
RTVSPropertyOp43
 70
     0
102
RTVSPropertyOp44
 70
     0
102
RTVSPropertyOp45
 70
     1
102
RTVSPropertyOp46
 70
     0
102
RTVSPropertyOp47
 70
     0
102
RTVSPropertyOp48
 70
     0
102
RTVSPropertyOp49
 70
     1
102
RTVSPropertyOp50
 70
     0
102
RTVSPropertyOp51
 70
     0
102
RTVSPropertyOp52
 70
     0
102
RTVSPropertyOp53
 70
     0
102
RTVSPropertyOp54
 70
     0
102
RTVSPropertyOp55
 70
     1
102
RTVSPropertyOp56
 70
     0
102
RTVSPropertyOp57
 70
     0
102
RTVSPropertyOp58
 70
     0
102
RTVSPropertyOp59
 70
     0
102
RTVSPropertyOp60
 70
     0
102
RTVSPropertyOp61
 70
     0
102
RTVSPropertyOp62
 70
     0
  0
XRECORD
  5
BBF
102
{ACAD_REACTORS
330
BBE
102
}
330
BBE
100
AcDbXrecord
280
     1
102
RTVSPost2010Prop28
280
     0
102
RTVSPost2010PropOp28
 70
     1
102
RTVSPost2010Prop29
280
     1
102
RTVSPost2010PropOp29
 70
     1
102
RTVSPost2010Prop30
280
     1
102
RTVSPost2010PropOp30
 70
     1
102
RTVSPost2010Prop31
280
     0
102
RTVSPost2010PropOp31
 70
     1
102
RTVSPost2010Prop32
280
     0
102
RTVSPost2010PropOp32
 70
     1
102
RTVSPost2010Prop33
280
     0
102
RTVSPost2010PropOp33
 70
     1
102
RTVSPost2010Prop34
280
     0
102
RTVSPost2010PropOp34
 70
     1
102
RTVSPost2010Prop35
280
     0
102
RTVSPost2010PropOp35
 70
     1
102
RTVSPost2010Prop36
280
     0
102
RTVSPost2010PropOp36
 70
     1
102
RTVSPost2010Prop37
 90
       50
102
RTVSPost2010PropOp37
 70
     1
102
RTVSPost2010Prop38
140
0.0
102
RTVSPost2010PropOp38
 70
     1
102
RTVSPost2010Prop39
140
1.0
102
RTVSPost2010PropOp39
 70
     1
102
RTVSPost2010Prop40
 90
        0
102
RTVSPost2010PropOp40
 70
     1
102
RTVSPost2010Prop41ColorIndex
 90
       18
102
RTVSPost2010Prop41ColorRGB
 90
        0
102
RTVSPost2010PropOp41
 70
     1
102
RTVSPost2010Prop42
 90
       50
102
RTVSPost2010PropOp42
 70
     1
102
RTVSPost2010Prop43
 90
        3
102
RTVSPost2010PropOp43
 70
     1
102
RTVSPost2010Prop44ColorIndex
 90
        5
102
RTVSPost2010Prop44ColorRGB
 90
      255
102
RTVSPost2010PropOp44
 70
     1
102
RTVSPost2010Prop45
280
     0
102
RTVSPost2010PropOp45
 70
     1
102
RTVSPost2010Prop46
 90
       50
102
RTVSPost2010PropOp46
 70
     1
102
RTVSPost2010Prop47
 90
       50
102
RTVSPost2010PropOp47
 70
     1
102
RTVSPost2010Prop48
 90
       50
102
RTVSPost2010PropOp48
 70
     1
102
RTVSPost2010Prop49
280
     0
102
RTVSPost2010PropOp49
 70
     1
102
RTVSPost2010Prop50
 90
       50
102
RTVSPost2010PropOp50
 70
     1
102
RTVSPost2010Prop51ColorIndex
 90
      256
102
RTVSPost2010Prop51ColorRGB
 90
-16777216
102
RTVSPost2010PropOp51
 70
     0
102
RTVSPost2010Prop52
140
1.0
102
RTVSPost2010PropOp52
 70
     0
102
RTVSPost2010Prop53
 90
        2
102
RTVSPost2010PropOp53
 70
     1
102
RTVSPost2010Prop54
  1
strokes_ogs.tif
102
RTVSPost2010PropOp54
 70
     1
102
RTVSPost2010Prop55
280
     0
102
RTVSPost2010PropOp55
 70
     1
102
RTVSPost2010Prop56
140
1.0
102
RTVSPost2010PropOp56
 70
     1
102
RTVSPost2010Prop57
140
1.0
102
RTVSPost2010PropOp57
 70
     1
102
RTVSPropertyOp0
 70
     1
102
RTVSPropertyOp1
 70
     1
102
RTVSPropertyOp2
 70
     1
102
RTVSPropertyOp3
 70
     1
102
RTVSPropertyOp4
 70
     1
102
RTVSPropertyOp5
 70
     1
102
RTVSPropertyOp6
 70
     1
102
RTVSPropertyOp7
 70
     1
102
RTVSPropertyOp8
 70
     1
102
RTVSPropertyOp9
 70
     1
102
RTVSPropertyOp10
 70
     1
102
RTVSPropertyOp11
 70
     1
102
RTVSPropertyOp12
 70
     1
102
RTVSPropertyOp13
 70
     1
102
RTVSPropertyOp14
 70
     1
102
RTVSPropertyOp15
 70
     1
102
RTVSPropertyOp16
 70
     1
102
RTVSPropertyOp17
 70
     1
102
RTVSPropertyOp18
 70
     1
102
RTVSPropertyOp19
 70
     1
102
RTVSPropertyOp20
 70
     1
102
RTVSPropertyOp21
 70
     1
102
RTVSPropertyOp22
 70
     1
102
RTVSPropertyOp23
 70
     1
102
RTVSPropertyOp24
 70
     1
102
RTVSPropertyOp25
 70
     1
102
RTVSPropertyOp26
 70
     1
102
RTVSPropertyOp27
 70
     1
102
RTVSPropertyOp28
 70
     1
102
RTVSPropertyOp29
 70
     1
102
RTVSPropertyOp30
 70
     1
102
RTVSPropertyOp31
 70
     1
102
RTVSPropertyOp32
 70
     1
102
RTVSPropertyOp33
 70
     1
102
RTVSPropertyOp34
 70
     1
102
RTVSPropertyOp35
 70
     1
102
RTVSPropertyOp36
 70
     1
102
RTVSPropertyOp37
 70
     1
102
RTVSPropertyOp38
 70
     1
102
RTVSPropertyOp39
 70
     1
102
RTVSPropertyOp40
 70
     1
102
RTVSPropertyOp41
 70
     1
102
RTVSPropertyOp42
 70
     1
102
RTVSPropertyOp43
 70
     1
102
RTVSPropertyOp44
 70
     1
102
RTVSPropertyOp45
 70
     1
102
RTVSPropertyOp46
 70
     1
102
RTVSPropertyOp47
 70
     1
102
RTVSPropertyOp48
 70
     1
102
RTVSPropertyOp49
 70
     1
102
RTVSPropertyOp50
 70
     1
102
RTVSPropertyOp51
 70
     0
102
RTVSPropertyOp52
 70
     0
102
RTVSPropertyOp53
 70
     1
102
RTVSPropertyOp54
 70
     1
102
RTVSPropertyOp55
 70
     1
102
RTVSPropertyOp56
 70
     1
102
RTVSPropertyOp57
 70
     1
102
RTVSPropertyOp58
 70
     1
102
RTVSPropertyOp59
 70
     1
102
RTVSPropertyOp60
 70
     1
102
RTVSPropertyOp61
 70
     1
102
RTVSPropertyOp62
 70
     1
  0
XRECORD
  5
BD1
102
{ACAD_REACTORS
330
BD0
102
}
330
BD0
100
AcDbXrecord
280
     1
102
RTVSPost2010Prop28
280
     0
102
RTVSPost2010PropOp28
 70
     1
102
RTVSPost2010Prop29
280
     1
102
RTVSPost2010PropOp29
 70
     1
102
RTVSPost2010Prop30
280
     1
102
RTVSPost2010PropOp30
 70
     1
102
RTVSPost2010Prop31
280
     0
102
RTVSPost2010PropOp31
 70
     1
102
RTVSPost2010Prop32
280
     0
102
RTVSPost2010PropOp32
 70
     1
102
RTVSPost2010Prop33
280
     0
102
RTVSPost2010PropOp33
 70
     1
102
RTVSPost2010Prop34
280
     0
102
RTVSPost2010PropOp34
 70
     1
102
RTVSPost2010Prop35
280
     0
102
RTVSPost2010PropOp35
 70
     1
102
RTVSPost2010Prop36
280
     0
102
RTVSPost2010PropOp36
 70
     1
102
RTVSPost2010Prop37
 90
       50
102
RTVSPost2010PropOp37
 70
     0
102
RTVSPost2010Prop38
140
0.0
102
RTVSPost2010PropOp38
 70
     0
102
RTVSPost2010Prop39
140
1.0
102
RTVSPost2010PropOp39
 70
     0
102
RTVSPost2010Prop40
 90
        0
102
RTVSPost2010PropOp40
 70
     0
102
RTVSPost2010Prop41ColorIndex
 90
       18
102
RTVSPost2010Prop41ColorRGB
 90
        0
102
RTVSPost2010PropOp41
 70
     0
102
RTVSPost2010Prop42
 90
       50
102
RTVSPost2010PropOp42
 70
     0
102
RTVSPost2010Prop43
 90
        3
102
RTVSPost2010PropOp43
 70
     0
102
RTVSPost2010Prop44ColorIndex
 90
        5
102
RTVSPost2010Prop44ColorRGB
 90
      255
102
RTVSPost2010PropOp44
 70
     0
102
RTVSPost2010Prop45
280
     0
102
RTVSPost2010PropOp45
 70
     1
102
RTVSPost2010Prop46
 90
       50
102
RTVSPost2010PropOp46
 70
     0
102
RTVSPost2010Prop47
 90
       50
102
RTVSPost2010PropOp47
 70
     0
102
RTVSPost2010Prop48
 90
       50
102
RTVSPost2010PropOp48
 70
     0
102
RTVSPost2010Prop49
280
     0
102
RTVSPost2010PropOp49
 70
     1
102
RTVSPost2010Prop50
 90
       50
102
RTVSPost2010PropOp50
 70
     0
102
RTVSPost2010Prop51ColorIndex
 90
      256
102
RTVSPost2010Prop51ColorRGB
 90
-16777216
102
RTVSPost2010PropOp51
 70
     0
102
RTVSPost2010Prop52
140
1.0
102
RTVSPost2010PropOp52
 70
     0
102
RTVSPost2010Prop53
 90
        2
102
RTVSPost2010PropOp53
 70
     0
102
RTVSPost2010Prop54
  1
strokes_ogs.tif
102
RTVSPost2010PropOp54
 70
     0
102
RTVSPost2010Prop55
280
     0
102
RTVSPost2010PropOp55
 70
     1
102
RTVSPost2010Prop56
140
1.0
102
RTVSPost2010PropOp56
 70
     0
102
RTVSPost2010Prop57
140
1.0
102
RTVSPost2010PropOp57
 70
     0
102
RTVSPropertyOp0
 70
     0
102
RTVSPropertyOp1
 70
     0
102
RTVSPropertyOp2
 70
     0
102
RTVSPropertyOp3
 70
     0
102
RTVSPropertyOp4
 70
     0
102
RTVSPropertyOp5
 70
     0
102
RTVSPropertyOp6
 70
     0
102
RTVSPropertyOp7
 70
     0
102
RTVSPropertyOp8
 70
     0
102
RTVSPropertyOp9
 70
     0
102
RTVSPropertyOp10
 70
     0
102
RTVSPropertyOp11
 70
     0
102
RTVSPropertyOp12
 70
     0
102
RTVSPropertyOp13
 70
     0
102
RTVSPropertyOp14
 70
     2
102
RTVSPropertyOp15
 70
     0
102
RTVSPropertyOp16
 70
     0
102
RTVSPropertyOp17
 70
     0
102
RTVSPropertyOp18
 70
     0
102
RTVSPropertyOp19
 70
     0
102
RTVSPropertyOp20
 70
     0
102
RTVSPropertyOp21
 70
     0
102
RTVSPropertyOp22
 70
     0
102
RTVSPropertyOp23
 70
     0
102
RTVSPropertyOp24
 70
     0
102
RTVSPropertyOp25
 70
     0
102
RTVSPropertyOp26
 70
     0
102
RTVSPropertyOp27
 70
     0
102
RTVSPropertyOp28
 70
     1
102
RTVSPropertyOp29
 70
     1
102
RTVSPropertyOp30
 70
     1
102
RTVSPropertyOp31
 70
     1
102
RTVSPropertyOp32
 70
     1
102
RTVSPropertyOp33
 70
     1
102
RTVSPropertyOp34
 70
     1
102
RTVSPropertyOp35
 70
     1
102
RTVSPropertyOp36
 70
     1
102
RTVSPropertyOp37
 70
     0
102
RTVSPropertyOp38
 70
     0
102
RTVSPropertyOp39
 70
     0
102
RTVSPropertyOp40
 70
     0
102
RTVSPropertyOp41
 70
     0
102
RTVSPropertyOp42
 70
     0
102
RTVSPropertyOp43
 70
     0
102
RTVSPropertyOp44
 70
     0
102
RTVSPropertyOp45
 70
     1
102
RTVSPropertyOp46
 70
     0
102
RTVSPropertyOp47
 70
     0
102
RTVSPropertyOp48
 70
     0
102
RTVSPropertyOp49
 70
     1
102
RTVSPropertyOp50
 70
     0
102
RTVSPropertyOp51
 70
     0
102
RTVSPropertyOp52
 70
     0
102
RTVSPropertyOp53
 70
     0
102
RTVSPropertyOp54
 70
     0
102
RTVSPropertyOp55
 70
     1
102
RTVSPropertyOp56
 70
     0
102
RTVSPropertyOp57
 70
     0
102
RTVSPropertyOp58
 70
     0
102
RTVSPropertyOp59
 70
     0
102
RTVSPropertyOp60
 70
     0
102
RTVSPropertyOp61
 70
     0
102
RTVSPropertyOp62
 70
     0
  0
XRECORD
  5
BB7
102
{ACAD_REACTORS
330
BB6
102
}
330
BB6
100
AcDbXrecord
280
     1
102
RTVSPost2010Prop28
280
     0
102
RTVSPost2010PropOp28
 70
     1
102
RTVSPost2010Prop29
280
     1
102
RTVSPost2010PropOp29
 70
     1
102
RTVSPost2010Prop30
280
     1
102
RTVSPost2010PropOp30
 70
     1
102
RTVSPost2010Prop31
280
     0
102
RTVSPost2010PropOp31
 70
     1
102
RTVSPost2010Prop32
280
     0
102
RTVSPost2010PropOp32
 70
     1
102
RTVSPost2010Prop33
280
     0
102
RTVSPost2010PropOp33
 70
     1
102
RTVSPost2010Prop34
280
     0
102
RTVSPost2010PropOp34
 70
     1
102
RTVSPost2010Prop35
280
     0
102
RTVSPost2010PropOp35
 70
     1
102
RTVSPost2010Prop36
280
     0
102
RTVSPost2010PropOp36
 70
     1
102
RTVSPost2010Prop37
 90
       50
102
RTVSPost2010PropOp37
 70
     1
102
RTVSPost2010Prop38
140
0.0
102
RTVSPost2010PropOp38
 70
     1
102
RTVSPost2010Prop39
140
1.0
102
RTVSPost2010PropOp39
 70
     1
102
RTVSPost2010Prop40
 90
        0
102
RTVSPost2010PropOp40
 70
     1
102
RTVSPost2010Prop41ColorIndex
 90
       18
102
RTVSPost2010Prop41ColorRGB
 90
        0
102
RTVSPost2010PropOp41
 70
     1
102
RTVSPost2010Prop42
 90
       50
102
RTVSPost2010PropOp42
 70
     1
102
RTVSPost2010Prop43
 90
        3
102
RTVSPost2010PropOp43
 70
     1
102
RTVSPost2010Prop44ColorIndex
 90
        5
102
RTVSPost2010Prop44ColorRGB
 90
      255
102
RTVSPost2010PropOp44
 70
     1
102
RTVSPost2010Prop45
280
     0
102
RTVSPost2010PropOp45
 70
     1
102
RTVSPost2010Prop46
 90
       50
102
RTVSPost2010PropOp46
 70
     1
102
RTVSPost2010Prop47
 90
       50
102
RTVSPost2010PropOp47
 70
     1
102
RTVSPost2010Prop48
 90
       50
102
RTVSPost2010PropOp48
 70
     1
102
RTVSPost2010Prop49
280
     0
102
RTVSPost2010PropOp49
 70
     1
102
RTVSPost2010Prop50
 90
       50
102
RTVSPost2010PropOp50
 70
     1
102
RTVSPost2010Prop51ColorIndex
 90
      256
102
RTVSPost2010Prop51ColorRGB
 90
-16777216
102
RTVSPost2010PropOp51
 70
     0
102
RTVSPost2010Prop52
140
1.0
102
RTVSPost2010PropOp52
 70
     0
102
RTVSPost2010Prop53
 90
        2
102
RTVSPost2010PropOp53
 70
     1
102
RTVSPost2010Prop54
  1
strokes_ogs.tif
102
RTVSPost2010PropOp54
 70
     1
102
RTVSPost2010Prop55
280
     0
102
RTVSPost2010PropOp55
 70
     1
102
RTVSPost2010Prop56
140
1.0
102
RTVSPost2010PropOp56
 70
     1
102
RTVSPost2010Prop57
140
1.0
102
RTVSPost2010PropOp57
 70
     1
102
RTVSPropertyOp0
 70
     1
102
RTVSPropertyOp1
 70
     1
102
RTVSPropertyOp2
 70
     1
102
RTVSPropertyOp3
 70
     1
102
RTVSPropertyOp4
 70
     1
102
RTVSPropertyOp5
 70
     1
102
RTVSPropertyOp6
 70
     1
102
RTVSPropertyOp7
 70
     1
102
RTVSPropertyOp8
 70
     1
102
RTVSPropertyOp9
 70
     1
102
RTVSPropertyOp10
 70
     1
102
RTVSPropertyOp11
 70
     1
102
RTVSPropertyOp12
 70
     1
102
RTVSPropertyOp13
 70
     1
102
RTVSPropertyOp14
 70
     1
102
RTVSPropertyOp15
 70
     1
102
RTVSPropertyOp16
 70
     1
102
RTVSPropertyOp17
 70
     1
102
RTVSPropertyOp18
 70
     1
102
RTVSPropertyOp19
 70
     1
102
RTVSPropertyOp20
 70
     1
102
RTVSPropertyOp21
 70
     1
102
RTVSPropertyOp22
 70
     1
102
RTVSPropertyOp23
 70
     1
102
RTVSPropertyOp24
 70
     1
102
RTVSPropertyOp25
 70
     1
102
RTVSPropertyOp26
 70
     1
102
RTVSPropertyOp27
 70
     1
102
RTVSPropertyOp28
 70
     1
102
RTVSPropertyOp29
 70
     1
102
RTVSPropertyOp30
 70
     1
102
RTVSPropertyOp31
 70
     1
102
RTVSPropertyOp32
 70
     1
102
RTVSPropertyOp33
 70
     1
102
RTVSPropertyOp34
 70
     1
102
RTVSPropertyOp35
 70
     1
102
RTVSPropertyOp36
 70
     1
102
RTVSPropertyOp37
 70
     1
102
RTVSPropertyOp38
 70
     1
102
RTVSPropertyOp39
 70
     1
102
RTVSPropertyOp40
 70
     1
102
RTVSPropertyOp41
 70
     1
102
RTVSPropertyOp42
 70
     1
102
RTVSPropertyOp43
 70
     1
102
RTVSPropertyOp44
 70
     1
102
RTVSPropertyOp45
 70
     1
102
RTVSPropertyOp46
 70
     1
102
RTVSPropertyOp47
 70
     1
102
RTVSPropertyOp48
 70
     1
102
RTVSPropertyOp49
 70
     1
102
RTVSPropertyOp50
 70
     1
102
RTVSPropertyOp51
 70
     0
102
RTVSPropertyOp52
 70
     0
102
RTVSPropertyOp53
 70
     1
102
RTVSPropertyOp54
 70
     1
102
RTVSPropertyOp55
 70
     1
102
RTVSPropertyOp56
 70
     1
102
RTVSPropertyOp57
 70
     1
102
RTVSPropertyOp58
 70
     1
102
RTVSPropertyOp59
 70
     1
102
RTVSPropertyOp60
 70
     1
102
RTVSPropertyOp61
 70
     1
102
RTVSPropertyOp62
 70
     1
  0
XRECORD
  5
BCD
102
{ACAD_REACTORS
330
BCC
102
}
330
BCC
100
AcDbXrecord
280
     1
102
RTVSPost2010Prop28
280
     0
102
RTVSPost2010PropOp28
 70
     1
102
RTVSPost2010Prop29
280
     1
102
RTVSPost2010PropOp29
 70
     1
102
RTVSPost2010Prop30
280
     1
102
RTVSPost2010PropOp30
 70
     1
102
RTVSPost2010Prop31
280
     0
102
RTVSPost2010PropOp31
 70
     1
102
RTVSPost2010Prop32
280
     0
102
RTVSPost2010PropOp32
 70
     1
102
RTVSPost2010Prop33
280
     0
102
RTVSPost2010PropOp33
 70
     1
102
RTVSPost2010Prop34
280
     0
102
RTVSPost2010PropOp34
 70
     1
102
RTVSPost2010Prop35
280
     0
102
RTVSPost2010PropOp35
 70
     1
102
RTVSPost2010Prop36
280
     0
102
RTVSPost2010PropOp36
 70
     1
102
RTVSPost2010Prop37
 90
       50
102
RTVSPost2010PropOp37
 70
     1
102
RTVSPost2010Prop38
140
0.0
102
RTVSPost2010PropOp38
 70
     1
102
RTVSPost2010Prop39
140
1.0
102
RTVSPost2010PropOp39
 70
     1
102
RTVSPost2010Prop40
 90
        0
102
RTVSPost2010PropOp40
 70
     1
102
RTVSPost2010Prop41ColorIndex
 90
       18
102
RTVSPost2010Prop41ColorRGB
 90
        0
102
RTVSPost2010PropOp41
 70
     1
102
RTVSPost2010Prop42
 90
       50
102
RTVSPost2010PropOp42
 70
     1
102
RTVSPost2010Prop43
 90
        3
102
RTVSPost2010PropOp43
 70
     1
102
RTVSPost2010Prop44ColorIndex
 90
        5
102
RTVSPost2010Prop44ColorRGB
 90
      255
102
RTVSPost2010PropOp44
 70
     1
102
RTVSPost2010Prop45
280
     0
102
RTVSPost2010PropOp45
 70
     1
102
RTVSPost2010Prop46
 90
       50
102
RTVSPost2010PropOp46
 70
     1
102
RTVSPost2010Prop47
 90
       50
102
RTVSPost2010PropOp47
 70
     1
102
RTVSPost2010Prop48
 90
       50
102
RTVSPost2010PropOp48
 70
     1
102
RTVSPost2010Prop49
280
     0
102
RTVSPost2010PropOp49
 70
     1
102
RTVSPost2010Prop50
 90
       50
102
RTVSPost2010PropOp50
 70
     1
102
RTVSPost2010Prop51ColorIndex
 90
      256
102
RTVSPost2010Prop51ColorRGB
 90
-16777216
102
RTVSPost2010PropOp51
 70
     0
102
RTVSPost2010Prop52
140
1.0
102
RTVSPost2010PropOp52
 70
     0
102
RTVSPost2010Prop53
 90
        2
102
RTVSPost2010PropOp53
 70
     1
102
RTVSPost2010Prop54
  1
strokes_ogs.tif
102
RTVSPost2010PropOp54
 70
     1
102
RTVSPost2010Prop55
280
     0
102
RTVSPost2010PropOp55
 70
     1
102
RTVSPost2010Prop56
140
1.0
102
RTVSPost2010PropOp56
 70
     1
102
RTVSPost2010Prop57
140
1.0
102
RTVSPost2010PropOp57
 70
     1
102
RTVSPropertyOp0
 70
     1
102
RTVSPropertyOp1
 70
     1
102
RTVSPropertyOp2
 70
     1
102
RTVSPropertyOp3
 70
     1
102
RTVSPropertyOp4
 70
     1
102
RTVSPropertyOp5
 70
     1
102
RTVSPropertyOp6
 70
     1
102
RTVSPropertyOp7
 70
     1
102
RTVSPropertyOp8
 70
     1
102
RTVSPropertyOp9
 70
     1
102
RTVSPropertyOp10
 70
     1
102
RTVSPropertyOp11
 70
     1
102
RTVSPropertyOp12
 70
     1
102
RTVSPropertyOp13
 70
     1
102
RTVSPropertyOp14
 70
     1
102
RTVSPropertyOp15
 70
     1
102
RTVSPropertyOp16
 70
     1
102
RTVSPropertyOp17
 70
     1
102
RTVSPropertyOp18
 70
     1
102
RTVSPropertyOp19
 70
     1
102
RTVSPropertyOp20
 70
     1
102
RTVSPropertyOp21
 70
     1
102
RTVSPropertyOp22
 70
     1
102
RTVSPropertyOp23
 70
     1
102
RTVSPropertyOp24
 70
     1
102
RTVSPropertyOp25
 70
     1
102
RTVSPropertyOp26
 70
     1
102
RTVSPropertyOp27
 70
     1
102
RTVSPropertyOp28
 70
     1
102
RTVSPropertyOp29
 70
     1
102
RTVSPropertyOp30
 70
     1
102
RTVSPropertyOp31
 70
     1
102
RTVSPropertyOp32
 70
     1
102
RTVSPropertyOp33
 70
     1
102
RTVSPropertyOp34
 70
     1
102
RTVSPropertyOp35
 70
     1
102
RTVSPropertyOp36
 70
     1
102
RTVSPropertyOp37
 70
     1
102
RTVSPropertyOp38
 70
     1
102
RTVSPropertyOp39
 70
     1
102
RTVSPropertyOp40
 70
     1
102
RTVSPropertyOp41
 70
     1
102
RTVSPropertyOp42
 70
     1
102
RTVSPropertyOp43
 70
     1
102
RTVSPropertyOp44
 70
     1
102
RTVSPropertyOp45
 70
     1
102
RTVSPropertyOp46
 70
     1
102
RTVSPropertyOp47
 70
     1
102
RTVSPropertyOp48
 70
     1
102
RTVSPropertyOp49
 70
     1
102
RTVSPropertyOp50
 70
     1
102
RTVSPropertyOp51
 70
     0
102
RTVSPropertyOp52
 70
     0
102
RTVSPropertyOp53
 70
     1
102
RTVSPropertyOp54
 70
     1
102
RTVSPropertyOp55
 70
     1
102
RTVSPropertyOp56
 70
     1
102
RTVSPropertyOp57
 70
     1
102
RTVSPropertyOp58
 70
     1
102
RTVSPropertyOp59
 70
     1
102
RTVSPropertyOp60
 70
     1
102
RTVSPropertyOp61
 70
     1
102
RTVSPropertyOp62
 70
     1
  0
XRECORD
  5
BCB
102
{ACAD_REACTORS
330
BCA
102
}
330
BCA
100
AcDbXrecord
280
     1
102
RTVSPost2010Prop28
280
     0
102
RTVSPost2010PropOp28
 70
     1
102
RTVSPost2010Prop29
280
     1
102
RTVSPost2010PropOp29
 70
     1
102
RTVSPost2010Prop30
280
     1
102
RTVSPost2010PropOp30
 70
     1
102
RTVSPost2010Prop31
280
     0
102
RTVSPost2010PropOp31
 70
     1
102
RTVSPost2010Prop32
280
     0
102
RTVSPost2010PropOp32
 70
     1
102
RTVSPost2010Prop33
280
     0
102
RTVSPost2010PropOp33
 70
     1
102
RTVSPost2010Prop34
280
     0
102
RTVSPost2010PropOp34
 70
     1
102
RTVSPost2010Prop35
280
     0
102
RTVSPost2010PropOp35
 70
     1
102
RTVSPost2010Prop36
280
     0
102
RTVSPost2010PropOp36
 70
     1
102
RTVSPost2010Prop37
 90
       50
102
RTVSPost2010PropOp37
 70
     1
102
RTVSPost2010Prop38
140
0.0
102
RTVSPost2010PropOp38
 70
     1
102
RTVSPost2010Prop39
140
1.0
102
RTVSPost2010PropOp39
 70
     1
102
RTVSPost2010Prop40
 90
        0
102
RTVSPost2010PropOp40
 70
     1
102
RTVSPost2010Prop41ColorIndex
 90
       18
102
RTVSPost2010Prop41ColorRGB
 90
        0
102
RTVSPost2010PropOp41
 70
     1
102
RTVSPost2010Prop42
 90
       50
102
RTVSPost2010PropOp42
 70
     1
102
RTVSPost2010Prop43
 90
        3
102
RTVSPost2010PropOp43
 70
     1
102
RTVSPost2010Prop44ColorIndex
 90
        5
102
RTVSPost2010Prop44ColorRGB
 90
      255
102
RTVSPost2010PropOp44
 70
     1
102
RTVSPost2010Prop45
280
     0
102
RTVSPost2010PropOp45
 70
     1
102
RTVSPost2010Prop46
 90
       50
102
RTVSPost2010PropOp46
 70
     1
102
RTVSPost2010Prop47
 90
       50
102
RTVSPost2010PropOp47
 70
     1
102
RTVSPost2010Prop48
 90
       50
102
RTVSPost2010PropOp48
 70
     1
102
RTVSPost2010Prop49
280
     0
102
RTVSPost2010PropOp49
 70
     1
102
RTVSPost2010Prop50
 90
       50
102
RTVSPost2010PropOp50
 70
     1
102
RTVSPost2010Prop51ColorIndex
 90
      256
102
RTVSPost2010Prop51ColorRGB
 90
-16777216
102
RTVSPost2010PropOp51
 70
     0
102
RTVSPost2010Prop52
140
1.0
102
RTVSPost2010PropOp52
 70
     0
102
RTVSPost2010Prop53
 90
        2
102
RTVSPost2010PropOp53
 70
     1
102
RTVSPost2010Prop54
  1
strokes_ogs.tif
102
RTVSPost2010PropOp54
 70
     1
102
RTVSPost2010Prop55
280
     0
102
RTVSPost2010PropOp55
 70
     1
102
RTVSPost2010Prop56
140
1.0
102
RTVSPost2010PropOp56
 70
     1
102
RTVSPost2010Prop57
140
1.0
102
RTVSPost2010PropOp57
 70
     1
102
RTVSPropertyOp0
 70
     1
102
RTVSPropertyOp1
 70
     1
102
RTVSPropertyOp2
 70
     1
102
RTVSPropertyOp3
 70
     1
102
RTVSPropertyOp4
 70
     1
102
RTVSPropertyOp5
 70
     1
102
RTVSPropertyOp6
 70
     1
102
RTVSPropertyOp7
 70
     1
102
RTVSPropertyOp8
 70
     1
102
RTVSPropertyOp9
 70
     1
102
RTVSPropertyOp10
 70
     1
102
RTVSPropertyOp11
 70
     1
102
RTVSPropertyOp12
 70
     1
102
RTVSPropertyOp13
 70
     1
102
RTVSPropertyOp14
 70
     1
102
RTVSPropertyOp15
 70
     1
102
RTVSPropertyOp16
 70
     1
102
RTVSPropertyOp17
 70
     1
102
RTVSPropertyOp18
 70
     1
102
RTVSPropertyOp19
 70
     1
102
RTVSPropertyOp20
 70
     1
102
RTVSPropertyOp21
 70
     1
102
RTVSPropertyOp22
 70
     1
102
RTVSPropertyOp23
 70
     1
102
RTVSPropertyOp24
 70
     1
102
RTVSPropertyOp25
 70
     1
102
RTVSPropertyOp26
 70
     1
102
RTVSPropertyOp27
 70
     1
102
RTVSPropertyOp28
 70
     1
102
RTVSPropertyOp29
 70
     1
102
RTVSPropertyOp30
 70
     1
102
RTVSPropertyOp31
 70
     1
102
RTVSPropertyOp32
 70
     1
102
RTVSPropertyOp33
 70
     1
102
RTVSPropertyOp34
 70
     1
102
RTVSPropertyOp35
 70
     1
102
RTVSPropertyOp36
 70
     1
102
RTVSPropertyOp37
 70
     1
102
RTVSPropertyOp38
 70
     1
102
RTVSPropertyOp39
 70
     1
102
RTVSPropertyOp40
 70
     1
102
RTVSPropertyOp41
 70
     1
102
RTVSPropertyOp42
 70
     1
102
RTVSPropertyOp43
 70
     1
102
RTVSPropertyOp44
 70
     1
102
RTVSPropertyOp45
 70
     1
102
RTVSPropertyOp46
 70
     1
102
RTVSPropertyOp47
 70
     1
102
RTVSPropertyOp48
 70
     1
102
RTVSPropertyOp49
 70
     1
102
RTVSPropertyOp50
 70
     1
102
RTVSPropertyOp51
 70
     0
102
RTVSPropertyOp52
 70
     0
102
RTVSPropertyOp53
 70
     1
102
RTVSPropertyOp54
 70
     1
102
RTVSPropertyOp55
 70
     1
102
RTVSPropertyOp56
 70
     1
102
RTVSPropertyOp57
 70
     1
102
RTVSPropertyOp58
 70
     1
102
RTVSPropertyOp59
 70
     1
102
RTVSPropertyOp60
 70
     1
102
RTVSPropertyOp61
 70
     1
102
RTVSPropertyOp62
 70
     1
  0
XRECORD
  5
BC5
102
{ACAD_REACTORS
330
BC4
102
}
330
BC4
100
AcDbXrecord
280
     1
102
RTVSPost2010Prop28
280
     0
102
RTVSPost2010PropOp28
 70
     1
102
RTVSPost2010Prop29
280
     1
102
RTVSPost2010PropOp29
 70
     1
102
RTVSPost2010Prop30
280
     1
102
RTVSPost2010PropOp30
 70
     1
102
RTVSPost2010Prop31
280
     0
102
RTVSPost2010PropOp31
 70
     1
102
RTVSPost2010Prop32
280
     0
102
RTVSPost2010PropOp32
 70
     1
102
RTVSPost2010Prop33
280
     0
102
RTVSPost2010PropOp33
 70
     1
102
RTVSPost2010Prop34
280
     0
102
RTVSPost2010PropOp34
 70
     1
102
RTVSPost2010Prop35
280
     0
102
RTVSPost2010PropOp35
 70
     1
102
RTVSPost2010Prop36
280
     0
102
RTVSPost2010PropOp36
 70
     1
102
RTVSPost2010Prop37
 90
       50
102
RTVSPost2010PropOp37
 70
     1
102
RTVSPost2010Prop38
140
0.0
102
RTVSPost2010PropOp38
 70
     1
102
RTVSPost2010Prop39
140
1.0
102
RTVSPost2010PropOp39
 70
     1
102
RTVSPost2010Prop40
 90
        0
102
RTVSPost2010PropOp40
 70
     1
102
RTVSPost2010Prop41ColorIndex
 90
       18
102
RTVSPost2010Prop41ColorRGB
 90
        0
102
RTVSPost2010PropOp41
 70
     1
102
RTVSPost2010Prop42
 90
       50
102
RTVSPost2010PropOp42
 70
     1
102
RTVSPost2010Prop43
 90
        3
102
RTVSPost2010PropOp43
 70
     1
102
RTVSPost2010Prop44ColorIndex
 90
        5
102
RTVSPost2010Prop44ColorRGB
 90
      255
102
RTVSPost2010PropOp44
 70
     1
102
RTVSPost2010Prop45
280
     0
102
RTVSPost2010PropOp45
 70
     1
102
RTVSPost2010Prop46
 90
       50
102
RTVSPost2010PropOp46
 70
     1
102
RTVSPost2010Prop47
 90
       50
102
RTVSPost2010PropOp47
 70
     1
102
RTVSPost2010Prop48
 90
       50
102
RTVSPost2010PropOp48
 70
     1
102
RTVSPost2010Prop49
280
     0
102
RTVSPost2010PropOp49
 70
     1
102
RTVSPost2010Prop50
 90
       50
102
RTVSPost2010PropOp50
 70
     1
102
RTVSPost2010Prop51ColorIndex
 90
      256
102
RTVSPost2010Prop51ColorRGB
 90
-16777216
102
RTVSPost2010PropOp51
 70
     0
102
RTVSPost2010Prop52
140
1.0
102
RTVSPost2010PropOp52
 70
     0
102
RTVSPost2010Prop53
 90
        2
102
RTVSPost2010PropOp53
 70
     1
102
RTVSPost2010Prop54
  1
strokes_ogs.tif
102
RTVSPost2010PropOp54
 70
     1
102
RTVSPost2010Prop55
280
     0
102
RTVSPost2010PropOp55
 70
     1
102
RTVSPost2010Prop56
140
1.0
102
RTVSPost2010PropOp56
 70
     1
102
RTVSPost2010Prop57
140
1.0
102
RTVSPost2010PropOp57
 70
     1
102
RTVSPropertyOp0
 70
     1
102
RTVSPropertyOp1
 70
     1
102
RTVSPropertyOp2
 70
     1
102
RTVSPropertyOp3
 70
     1
102
RTVSPropertyOp4
 70
     1
102
RTVSPropertyOp5
 70
     1
102
RTVSPropertyOp6
 70
     1
102
RTVSPropertyOp7
 70
     1
102
RTVSPropertyOp8
 70
     1
102
RTVSPropertyOp9
 70
     1
102
RTVSPropertyOp10
 70
     1
102
RTVSPropertyOp11
 70
     1
102
RTVSPropertyOp12
 70
     1
102
RTVSPropertyOp13
 70
     1
102
RTVSPropertyOp14
 70
     1
102
RTVSPropertyOp15
 70
     1
102
RTVSPropertyOp16
 70
     1
102
RTVSPropertyOp17
 70
     1
102
RTVSPropertyOp18
 70
     1
102
RTVSPropertyOp19
 70
     1
102
RTVSPropertyOp20
 70
     1
102
RTVSPropertyOp21
 70
     1
102
RTVSPropertyOp22
 70
     1
102
RTVSPropertyOp23
 70
     1
102
RTVSPropertyOp24
 70
     1
102
RTVSPropertyOp25
 70
     1
102
RTVSPropertyOp26
 70
     1
102
RTVSPropertyOp27
 70
     1
102
RTVSPropertyOp28
 70
     1
102
RTVSPropertyOp29
 70
     1
102
RTVSPropertyOp30
 70
     1
102
RTVSPropertyOp31
 70
     1
102
RTVSPropertyOp32
 70
     1
102
RTVSPropertyOp33
 70
     1
102
RTVSPropertyOp34
 70
     1
102
RTVSPropertyOp35
 70
     1
102
RTVSPropertyOp36
 70
     1
102
RTVSPropertyOp37
 70
     1
102
RTVSPropertyOp38
 70
     1
102
RTVSPropertyOp39
 70
     1
102
RTVSPropertyOp40
 70
     1
102
RTVSPropertyOp41
 70
     1
102
RTVSPropertyOp42
 70
     1
102
RTVSPropertyOp43
 70
     1
102
RTVSPropertyOp44
 70
     1
102
RTVSPropertyOp45
 70
     1
102
RTVSPropertyOp46
 70
     1
102
RTVSPropertyOp47
 70
     1
102
RTVSPropertyOp48
 70
     1
102
RTVSPropertyOp49
 70
     1
102
RTVSPropertyOp50
 70
     1
102
RTVSPropertyOp51
 70
     0
102
RTVSPropertyOp52
 70
     0
102
RTVSPropertyOp53
 70
     1
102
RTVSPropertyOp54
 70
     1
102
RTVSPropertyOp55
 70
     1
102
RTVSPropertyOp56
 70
     1
102
RTVSPropertyOp57
 70
     1
102
RTVSPropertyOp58
 70
     1
102
RTVSPropertyOp59
 70
     1
102
RTVSPropertyOp60
 70
     1
102
RTVSPropertyOp61
 70
     1
102
RTVSPropertyOp62
 70
     1
  0
XRECORD
  5
BC7
102
{ACAD_REACTORS
330
BC6
102
}
330
BC6
100
AcDbXrecord
280
     1
102
RTVSPost2010Prop28
280
     0
102
RTVSPost2010PropOp28
 70
     1
102
RTVSPost2010Prop29
280
     1
102
RTVSPost2010PropOp29
 70
     1
102
RTVSPost2010Prop30
280
     1
102
RTVSPost2010PropOp30
 70
     1
102
RTVSPost2010Prop31
280
     0
102
RTVSPost2010PropOp31
 70
     1
102
RTVSPost2010Prop32
280
     0
102
RTVSPost2010PropOp32
 70
     1
102
RTVSPost2010Prop33
280
     0
102
RTVSPost2010PropOp33
 70
     1
102
RTVSPost2010Prop34
280
     0
102
RTVSPost2010PropOp34
 70
     1
102
RTVSPost2010Prop35
280
     0
102
RTVSPost2010PropOp35
 70
     1
102
RTVSPost2010Prop36
280
     0
102
RTVSPost2010PropOp36
 70
     1
102
RTVSPost2010Prop37
 90
       50
102
RTVSPost2010PropOp37
 70
     1
102
RTVSPost2010Prop38
140
0.0
102
RTVSPost2010PropOp38
 70
     1
102
RTVSPost2010Prop39
140
1.0
102
RTVSPost2010PropOp39
 70
     1
102
RTVSPost2010Prop40
 90
        0
102
RTVSPost2010PropOp40
 70
     1
102
RTVSPost2010Prop41ColorIndex
 90
       18
102
RTVSPost2010Prop41ColorRGB
 90
        0
102
RTVSPost2010PropOp41
 70
     1
102
RTVSPost2010Prop42
 90
       50
102
RTVSPost2010PropOp42
 70
     1
102
RTVSPost2010Prop43
 90
        3
102
RTVSPost2010PropOp43
 70
     1
102
RTVSPost2010Prop44ColorIndex
 90
        5
102
RTVSPost2010Prop44ColorRGB
 90
      255
102
RTVSPost2010PropOp44
 70
     1
102
RTVSPost2010Prop45
280
     0
102
RTVSPost2010PropOp45
 70
     1
102
RTVSPost2010Prop46
 90
       50
102
RTVSPost2010PropOp46
 70
     1
102
RTVSPost2010Prop47
 90
       50
102
RTVSPost2010PropOp47
 70
     1
102
RTVSPost2010Prop48
 90
       50
102
RTVSPost2010PropOp48
 70
     1
102
RTVSPost2010Prop49
280
     0
102
RTVSPost2010PropOp49
 70
     1
102
RTVSPost2010Prop50
 90
       50
102
RTVSPost2010PropOp50
 70
     1
102
RTVSPost2010Prop51ColorIndex
 90
      256
102
RTVSPost2010Prop51ColorRGB
 90
-16777216
102
RTVSPost2010PropOp51
 70
     0
102
RTVSPost2010Prop52
140
1.0
102
RTVSPost2010PropOp52
 70
     0
102
RTVSPost2010Prop53
 90
        2
102
RTVSPost2010PropOp53
 70
     1
102
RTVSPost2010Prop54
  1
strokes_ogs.tif
102
RTVSPost2010PropOp54
 70
     1
102
RTVSPost2010Prop55
280
     0
102
RTVSPost2010PropOp55
 70
     1
102
RTVSPost2010Prop56
140
1.0
102
RTVSPost2010PropOp56
 70
     1
102
RTVSPost2010Prop57
140
1.0
102
RTVSPost2010PropOp57
 70
     1
102
RTVSPropertyOp0
 70
     1
102
RTVSPropertyOp1
 70
     1
102
RTVSPropertyOp2
 70
     1
102
RTVSPropertyOp3
 70
     1
102
RTVSPropertyOp4
 70
     1
102
RTVSPropertyOp5
 70
     1
102
RTVSPropertyOp6
 70
     1
102
RTVSPropertyOp7
 70
     1
102
RTVSPropertyOp8
 70
     1
102
RTVSPropertyOp9
 70
     1
102
RTVSPropertyOp10
 70
     1
102
RTVSPropertyOp11
 70
     1
102
RTVSPropertyOp12
 70
     1
102
RTVSPropertyOp13
 70
     1
102
RTVSPropertyOp14
 70
     1
102
RTVSPropertyOp15
 70
     1
102
RTVSPropertyOp16
 70
     1
102
RTVSPropertyOp17
 70
     1
102
RTVSPropertyOp18
 70
     1
102
RTVSPropertyOp19
 70
     1
102
RTVSPropertyOp20
 70
     1
102
RTVSPropertyOp21
 70
     1
102
RTVSPropertyOp22
 70
     1
102
RTVSPropertyOp23
 70
     1
102
RTVSPropertyOp24
 70
     1
102
RTVSPropertyOp25
 70
     1
102
RTVSPropertyOp26
 70
     1
102
RTVSPropertyOp27
 70
     1
102
RTVSPropertyOp28
 70
     1
102
RTVSPropertyOp29
 70
     1
102
RTVSPropertyOp30
 70
     1
102
RTVSPropertyOp31
 70
     1
102
RTVSPropertyOp32
 70
     1
102
RTVSPropertyOp33
 70
     1
102
RTVSPropertyOp34
 70
     1
102
RTVSPropertyOp35
 70
     1
102
RTVSPropertyOp36
 70
     1
102
RTVSPropertyOp37
 70
     1
102
RTVSPropertyOp38
 70
     1
102
RTVSPropertyOp39
 70
     1
102
RTVSPropertyOp40
 70
     1
102
RTVSPropertyOp41
 70
     1
102
RTVSPropertyOp42
 70
     1
102
RTVSPropertyOp43
 70
     1
102
RTVSPropertyOp44
 70
     1
102
RTVSPropertyOp45
 70
     1
102
RTVSPropertyOp46
 70
     1
102
RTVSPropertyOp47
 70
     1
102
RTVSPropertyOp48
 70
     1
102
RTVSPropertyOp49
 70
     1
102
RTVSPropertyOp50
 70
     1
102
RTVSPropertyOp51
 70
     0
102
RTVSPropertyOp52
 70
     0
102
RTVSPropertyOp53
 70
     1
102
RTVSPropertyOp54
 70
     1
102
RTVSPropertyOp55
 70
     1
102
RTVSPropertyOp56
 70
     1
102
RTVSPropertyOp57
 70
     1
102
RTVSPropertyOp58
 70
     1
102
RTVSPropertyOp59
 70
     1
102
RTVSPropertyOp60
 70
     1
102
RTVSPropertyOp61
 70
     1
102
RTVSPropertyOp62
 70
     1
  0
XRECORD
  5
BBD
102
{ACAD_REACTORS
330
BBC
102
}
330
BBC
100
AcDbXrecord
280
     1
102
RTVSPost2010Prop28
280
     0
102
RTVSPost2010PropOp28
 70
     1
102
RTVSPost2010Prop29
280
     1
102
RTVSPost2010PropOp29
 70
     1
102
RTVSPost2010Prop30
280
     1
102
RTVSPost2010PropOp30
 70
     1
102
RTVSPost2010Prop31
280
     0
102
RTVSPost2010PropOp31
 70
     1
102
RTVSPost2010Prop32
280
     0
102
RTVSPost2010PropOp32
 70
     1
102
RTVSPost2010Prop33
280
     0
102
RTVSPost2010PropOp33
 70
     1
102
RTVSPost2010Prop34
280
     0
102
RTVSPost2010PropOp34
 70
     1
102
RTVSPost2010Prop35
280
     0
102
RTVSPost2010PropOp35
 70
     1
102
RTVSPost2010Prop36
280
     0
102
RTVSPost2010PropOp36
 70
     1
102
RTVSPost2010Prop37
 90
       50
102
RTVSPost2010PropOp37
 70
     1
102
RTVSPost2010Prop38
140
0.0
102
RTVSPost2010PropOp38
 70
     1
102
RTVSPost2010Prop39
140
1.0
102
RTVSPost2010PropOp39
 70
     1
102
RTVSPost2010Prop40
 90
        0
102
RTVSPost2010PropOp40
 70
     1
102
RTVSPost2010Prop41ColorIndex
 90
       18
102
RTVSPost2010Prop41ColorRGB
 90
        0
102
RTVSPost2010PropOp41
 70
     1
102
RTVSPost2010Prop42
 90
       50
102
RTVSPost2010PropOp42
 70
     1
102
RTVSPost2010Prop43
 90
        3
102
RTVSPost2010PropOp43
 70
     1
102
RTVSPost2010Prop44ColorIndex
 90
        5
102
RTVSPost2010Prop44ColorRGB
 90
      255
102
RTVSPost2010PropOp44
 70
     1
102
RTVSPost2010Prop45
280
     0
102
RTVSPost2010PropOp45
 70
     1
102
RTVSPost2010Prop46
 90
       50
102
RTVSPost2010PropOp46
 70
     1
102
RTVSPost2010Prop47
 90
       50
102
RTVSPost2010PropOp47
 70
     1
102
RTVSPost2010Prop48
 90
       50
102
RTVSPost2010PropOp48
 70
     1
102
RTVSPost2010Prop49
280
     0
102
RTVSPost2010PropOp49
 70
     1
102
RTVSPost2010Prop50
 90
       50
102
RTVSPost2010PropOp50
 70
     1
102
RTVSPost2010Prop51ColorIndex
 90
      256
102
RTVSPost2010Prop51ColorRGB
 90
-16777216
102
RTVSPost2010PropOp51
 70
     0
102
RTVSPost2010Prop52
140
1.0
102
RTVSPost2010PropOp52
 70
     0
102
RTVSPost2010Prop53
 90
        2
102
RTVSPost2010PropOp53
 70
     1
102
RTVSPost2010Prop54
  1
strokes_ogs.tif
102
RTVSPost2010PropOp54
 70
     1
102
RTVSPost2010Prop55
280
     0
102
RTVSPost2010PropOp55
 70
     1
102
RTVSPost2010Prop56
140
1.0
102
RTVSPost2010PropOp56
 70
     1
102
RTVSPost2010Prop57
140
1.0
102
RTVSPost2010PropOp57
 70
     1
102
RTVSPropertyOp0
 70
     1
102
RTVSPropertyOp1
 70
     1
102
RTVSPropertyOp2
 70
     1
102
RTVSPropertyOp3
 70
     1
102
RTVSPropertyOp4
 70
     1
102
RTVSPropertyOp5
 70
     1
102
RTVSPropertyOp6
 70
     1
102
RTVSPropertyOp7
 70
     1
102
RTVSPropertyOp8
 70
     1
102
RTVSPropertyOp9
 70
     1
102
RTVSPropertyOp10
 70
     1
102
RTVSPropertyOp11
 70
     1
102
RTVSPropertyOp12
 70
     1
102
RTVSPropertyOp13
 70
     1
102
RTVSPropertyOp14
 70
     1
102
RTVSPropertyOp15
 70
     1
102
RTVSPropertyOp16
 70
     1
102
RTVSPropertyOp17
 70
     1
102
RTVSPropertyOp18
 70
     1
102
RTVSPropertyOp19
 70
     1
102
RTVSPropertyOp20
 70
     1
102
RTVSPropertyOp21
 70
     1
102
RTVSPropertyOp22
 70
     1
102
RTVSPropertyOp23
 70
     1
102
RTVSPropertyOp24
 70
     1
102
RTVSPropertyOp25
 70
     1
102
RTVSPropertyOp26
 70
     1
102
RTVSPropertyOp27
 70
     1
102
RTVSPropertyOp28
 70
     1
102
RTVSPropertyOp29
 70
     1
102
RTVSPropertyOp30
 70
     1
102
RTVSPropertyOp31
 70
     1
102
RTVSPropertyOp32
 70
     1
102
RTVSPropertyOp33
 70
     1
102
RTVSPropertyOp34
 70
     1
102
RTVSPropertyOp35
 70
     1
102
RTVSPropertyOp36
 70
     1
102
RTVSPropertyOp37
 70
     1
102
RTVSPropertyOp38
 70
     1
102
RTVSPropertyOp39
 70
     1
102
RTVSPropertyOp40
 70
     1
102
RTVSPropertyOp41
 70
     1
102
RTVSPropertyOp42
 70
     1
102
RTVSPropertyOp43
 70
     1
102
RTVSPropertyOp44
 70
     1
102
RTVSPropertyOp45
 70
     1
102
RTVSPropertyOp46
 70
     1
102
RTVSPropertyOp47
 70
     1
102
RTVSPropertyOp48
 70
     1
102
RTVSPropertyOp49
 70
     1
102
RTVSPropertyOp50
 70
     1
102
RTVSPropertyOp51
 70
     0
102
RTVSPropertyOp52
 70
     0
102
RTVSPropertyOp53
 70
     1
102
RTVSPropertyOp54
 70
     1
102
RTVSPropertyOp55
 70
     1
102
RTVSPropertyOp56
 70
     1
102
RTVSPropertyOp57
 70
     1
102
RTVSPropertyOp58
 70
     1
102
RTVSPropertyOp59
 70
     1
102
RTVSPropertyOp60
 70
     1
102
RTVSPropertyOp61
 70
     1
102
RTVSPropertyOp62
 70
     1
  0
XRECORD
  5
BB1
102
{ACAD_REACTORS
330
BB0
102
}
330
BB0
100
AcDbXrecord
280
     1
102
RTVSPost2010Prop28
280
     0
102
RTVSPost2010PropOp28
 70
     1
102
RTVSPost2010Prop29
280
     1
102
RTVSPost2010PropOp29
 70
     1
102
RTVSPost2010Prop30
280
     1
102
RTVSPost2010PropOp30
 70
     1
102
RTVSPost2010Prop31
280
     0
102
RTVSPost2010PropOp31
 70
     1
102
RTVSPost2010Prop32
280
     0
102
RTVSPost2010PropOp32
 70
     1
102
RTVSPost2010Prop33
280
     0
102
RTVSPost2010PropOp33
 70
     1
102
RTVSPost2010Prop34
280
     0
102
RTVSPost2010PropOp34
 70
     1
102
RTVSPost2010Prop35
280
     0
102
RTVSPost2010PropOp35
 70
     1
102
RTVSPost2010Prop36
280
     0
102
RTVSPost2010PropOp36
 70
     1
102
RTVSPost2010Prop37
 90
       50
102
RTVSPost2010PropOp37
 70
     1
102
RTVSPost2010Prop38
140
0.0
102
RTVSPost2010PropOp38
 70
     1
102
RTVSPost2010Prop39
140
1.0
102
RTVSPost2010PropOp39
 70
     1
102
RTVSPost2010Prop40
 90
        0
102
RTVSPost2010PropOp40
 70
     1
102
RTVSPost2010Prop41ColorIndex
 90
       18
102
RTVSPost2010Prop41ColorRGB
 90
        0
102
RTVSPost2010PropOp41
 70
     1
102
RTVSPost2010Prop42
 90
       50
102
RTVSPost2010PropOp42
 70
     1
102
RTVSPost2010Prop43
 90
        3
102
RTVSPost2010PropOp43
 70
     1
102
RTVSPost2010Prop44ColorIndex
 90
        5
102
RTVSPost2010Prop44ColorRGB
 90
      255
102
RTVSPost2010PropOp44
 70
     1
102
RTVSPost2010Prop45
280
     0
102
RTVSPost2010PropOp45
 70
     1
102
RTVSPost2010Prop46
 90
       50
102
RTVSPost2010PropOp46
 70
     1
102
RTVSPost2010Prop47
 90
       50
102
RTVSPost2010PropOp47
 70
     1
102
RTVSPost2010Prop48
 90
       50
102
RTVSPost2010PropOp48
 70
     1
102
RTVSPost2010Prop49
280
     0
102
RTVSPost2010PropOp49
 70
     1
102
RTVSPost2010Prop50
 90
       50
102
RTVSPost2010PropOp50
 70
     1
102
RTVSPost2010Prop51ColorIndex
 90
      256
102
RTVSPost2010Prop51ColorRGB
 90
-16777216
102
RTVSPost2010PropOp51
 70
     0
102
RTVSPost2010Prop52
140
1.0
102
RTVSPost2010PropOp52
 70
     0
102
RTVSPost2010Prop53
 90
        2
102
RTVSPost2010PropOp53
 70
     1
102
RTVSPost2010Prop54
  1
strokes_ogs.tif
102
RTVSPost2010PropOp54
 70
     1
102
RTVSPost2010Prop55
280
     0
102
RTVSPost2010PropOp55
 70
     1
102
RTVSPost2010Prop56
140
1.0
102
RTVSPost2010PropOp56
 70
     1
102
RTVSPost2010Prop57
140
1.0
102
RTVSPost2010PropOp57
 70
     1
102
RTVSPropertyOp0
 70
     1
102
RTVSPropertyOp1
 70
     1
102
RTVSPropertyOp2
 70
     1
102
RTVSPropertyOp3
 70
     1
102
RTVSPropertyOp4
 70
     1
102
RTVSPropertyOp5
 70
     1
102
RTVSPropertyOp6
 70
     1
102
RTVSPropertyOp7
 70
     1
102
RTVSPropertyOp8
 70
     1
102
RTVSPropertyOp9
 70
     1
102
RTVSPropertyOp10
 70
     1
102
RTVSPropertyOp11
 70
     1
102
RTVSPropertyOp12
 70
     1
102
RTVSPropertyOp13
 70
     1
102
RTVSPropertyOp14
 70
     1
102
RTVSPropertyOp15
 70
     1
102
RTVSPropertyOp16
 70
     1
102
RTVSPropertyOp17
 70
     1
102
RTVSPropertyOp18
 70
     1
102
RTVSPropertyOp19
 70
     1
102
RTVSPropertyOp20
 70
     1
102
RTVSPropertyOp21
 70
     1
102
RTVSPropertyOp22
 70
     1
102
RTVSPropertyOp23
 70
     1
102
RTVSPropertyOp24
 70
     1
102
RTVSPropertyOp25
 70
     1
102
RTVSPropertyOp26
 70
     1
102
RTVSPropertyOp27
 70
     1
102
RTVSPropertyOp28
 70
     1
102
RTVSPropertyOp29
 70
     1
102
RTVSPropertyOp30
 70
     1
102
RTVSPropertyOp31
 70
     1
102
RTVSPropertyOp32
 70
     1
102
RTVSPropertyOp33
 70
     1
102
RTVSPropertyOp34
 70
     1
102
RTVSPropertyOp35
 70
     1
102
RTVSPropertyOp36
 70
     1
102
RTVSPropertyOp37
 70
     1
102
RTVSPropertyOp38
 70
     1
102
RTVSPropertyOp39
 70
     1
102
RTVSPropertyOp40
 70
     1
102
RTVSPropertyOp41
 70
     1
102
RTVSPropertyOp42
 70
     1
102
RTVSPropertyOp43
 70
     1
102
RTVSPropertyOp44
 70
     1
102
RTVSPropertyOp45
 70
     1
102
RTVSPropertyOp46
 70
     1
102
RTVSPropertyOp47
 70
     1
102
RTVSPropertyOp48
 70
     1
102
RTVSPropertyOp49
 70
     1
102
RTVSPropertyOp50
 70
     1
102
RTVSPropertyOp51
 70
     0
102
RTVSPropertyOp52
 70
     0
102
RTVSPropertyOp53
 70
     1
102
RTVSPropertyOp54
 70
     1
102
RTVSPropertyOp55
 70
     1
102
RTVSPropertyOp56
 70
     1
102
RTVSPropertyOp57
 70
     1
102
RTVSPropertyOp58
 70
     1
102
RTVSPropertyOp59
 70
     1
102
RTVSPropertyOp60
 70
     1
102
RTVSPropertyOp61
 70
     1
102
RTVSPropertyOp62
 70
     1
  0
XRECORD
  5
BC9
102
{ACAD_REACTORS
330
BC8
102
}
330
BC8
100
AcDbXrecord
280
     1
102
RTVSPost2010Prop28
280
     0
102
RTVSPost2010PropOp28
 70
     1
102
RTVSPost2010Prop29
280
     1
102
RTVSPost2010PropOp29
 70
     1
102
RTVSPost2010Prop30
280
     1
102
RTVSPost2010PropOp30
 70
     1
102
RTVSPost2010Prop31
280
     0
102
RTVSPost2010PropOp31
 70
     1
102
RTVSPost2010Prop32
280
     0
102
RTVSPost2010PropOp32
 70
     1
102
RTVSPost2010Prop33
280
     0
102
RTVSPost2010PropOp33
 70
     1
102
RTVSPost2010Prop34
280
     0
102
RTVSPost2010PropOp34
 70
     1
102
RTVSPost2010Prop35
280
     0
102
RTVSPost2010PropOp35
 70
     1
102
RTVSPost2010Prop36
280
     0
102
RTVSPost2010PropOp36
 70
     1
102
RTVSPost2010Prop37
 90
       50
102
RTVSPost2010PropOp37
 70
     1
102
RTVSPost2010Prop38
140
0.0
102
RTVSPost2010PropOp38
 70
     1
102
RTVSPost2010Prop39
140
1.0
102
RTVSPost2010PropOp39
 70
     1
102
RTVSPost2010Prop40
 90
        0
102
RTVSPost2010PropOp40
 70
     1
102
RTVSPost2010Prop41ColorIndex
 90
       18
102
RTVSPost2010Prop41ColorRGB
 90
        0
102
RTVSPost2010PropOp41
 70
     1
102
RTVSPost2010Prop42
 90
       50
102
RTVSPost2010PropOp42
 70
     1
102
RTVSPost2010Prop43
 90
        3
102
RTVSPost2010PropOp43
 70
     1
102
RTVSPost2010Prop44ColorIndex
 90
        5
102
RTVSPost2010Prop44ColorRGB
 90
      255
102
RTVSPost2010PropOp44
 70
     1
102
RTVSPost2010Prop45
280
     0
102
RTVSPost2010PropOp45
 70
     1
102
RTVSPost2010Prop46
 90
       50
102
RTVSPost2010PropOp46
 70
     1
102
RTVSPost2010Prop47
 90
       50
102
RTVSPost2010PropOp47
 70
     1
102
RTVSPost2010Prop48
 90
       50
102
RTVSPost2010PropOp48
 70
     1
102
RTVSPost2010Prop49
280
     0
102
RTVSPost2010PropOp49
 70
     1
102
RTVSPost2010Prop50
 90
       50
102
RTVSPost2010PropOp50
 70
     1
102
RTVSPost2010Prop51ColorIndex
 90
      256
102
RTVSPost2010Prop51ColorRGB
 90
-16777216
102
RTVSPost2010PropOp51
 70
     0
102
RTVSPost2010Prop52
140
1.0
102
RTVSPost2010PropOp52
 70
     0
102
RTVSPost2010Prop53
 90
        2
102
RTVSPost2010PropOp53
 70
     1
102
RTVSPost2010Prop54
  1
strokes_ogs.tif
102
RTVSPost2010PropOp54
 70
     1
102
RTVSPost2010Prop55
280
     0
102
RTVSPost2010PropOp55
 70
     1
102
RTVSPost2010Prop56
140
1.0
102
RTVSPost2010PropOp56
 70
     1
102
RTVSPost2010Prop57
140
1.0
102
RTVSPost2010PropOp57
 70
     1
102
RTVSPropertyOp0
 70
     1
102
RTVSPropertyOp1
 70
     1
102
RTVSPropertyOp2
 70
     1
102
RTVSPropertyOp3
 70
     1
102
RTVSPropertyOp4
 70
     1
102
RTVSPropertyOp5
 70
     1
102
RTVSPropertyOp6
 70
     1
102
RTVSPropertyOp7
 70
     1
102
RTVSPropertyOp8
 70
     1
102
RTVSPropertyOp9
 70
     1
102
RTVSPropertyOp10
 70
     1
102
RTVSPropertyOp11
 70
     1
102
RTVSPropertyOp12
 70
     1
102
RTVSPropertyOp13
 70
     1
102
RTVSPropertyOp14
 70
     1
102
RTVSPropertyOp15
 70
     1
102
RTVSPropertyOp16
 70
     1
102
RTVSPropertyOp17
 70
     1
102
RTVSPropertyOp18
 70
     1
102
RTVSPropertyOp19
 70
     1
102
RTVSPropertyOp20
 70
     1
102
RTVSPropertyOp21
 70
     1
102
RTVSPropertyOp22
 70
     1
102
RTVSPropertyOp23
 70
     1
102
RTVSPropertyOp24
 70
     1
102
RTVSPropertyOp25
 70
     1
102
RTVSPropertyOp26
 70
     1
102
RTVSPropertyOp27
 70
     1
102
RTVSPropertyOp28
 70
     1
102
RTVSPropertyOp29
 70
     1
102
RTVSPropertyOp30
 70
     1
102
RTVSPropertyOp31
 70
     1
102
RTVSPropertyOp32
 70
     1
102
RTVSPropertyOp33
 70
     1
102
RTVSPropertyOp34
 70
     1
102
RTVSPropertyOp35
 70
     1
102
RTVSPropertyOp36
 70
     1
102
RTVSPropertyOp37
 70
     1
102
RTVSPropertyOp38
 70
     1
102
RTVSPropertyOp39
 70
     1
102
RTVSPropertyOp40
 70
     1
102
RTVSPropertyOp41
 70
     1
102
RTVSPropertyOp42
 70
     1
102
RTVSPropertyOp43
 70
     1
102
RTVSPropertyOp44
 70
     1
102
RTVSPropertyOp45
 70
     1
102
RTVSPropertyOp46
 70
     1
102
RTVSPropertyOp47
 70
     1
102
RTVSPropertyOp48
 70
     1
102
RTVSPropertyOp49
 70
     1
102
RTVSPropertyOp50
 70
     1
102
RTVSPropertyOp51
 70
     0
102
RTVSPropertyOp52
 70
     0
102
RTVSPropertyOp53
 70
     1
102
RTVSPropertyOp54
 70
     1
102
RTVSPropertyOp55
 70
     1
102
RTVSPropertyOp56
 70
     1
102
RTVSPropertyOp57
 70
     1
102
RTVSPropertyOp58
 70
     1
102
RTVSPropertyOp59
 70
     1
102
RTVSPropertyOp60
 70
     1
102
RTVSPropertyOp61
 70
     1
102
RTVSPropertyOp62
 70
     1
  0
ENDSEC
  0
EOF
