  0
SECTION
  2
HEADER
  9
$ACADVER
  1
AC1015
  9
$ACADMAINTVER
 70
    20
  9
$DWGCODEPAGE
  3
ANSI_932
  9
$INSBASE
 10
0.0
 20
0.0
 30
0.0
  9
$EXTMIN
 10
10.0
 20
9.999999999999998
 30
0.0
  9
$EXTMAX
 10
641.363873
 20
403.1110469999998
 30
0.0
  9
$LIMMIN
 10
0.0
 20
0.0
  9
$LIMMAX
 10
660.0
 20
455.0
  9
$ORTHOMODE
 70
     1
  9
$REGENMODE
 70
     1
  9
$FILLMODE
 70
     1
  9
$QTEXTMODE
 70
     0
  9
$MIRRTEXT
 70
     1
  9
$LTSCALE
 40
20.0
  9
$ATTMODE
 70
     1
  9
$TEXTSIZE
 40
5.0
  9
$TRACEWID
 40
1.0
  9
$TEXTSTYLE
  7
STANDARD
  9
$CLAYER
  8
0
  9
$CELTYPE
  6
BYLAYER
  9
$CECOLOR
 62
   256
  9
$CELTSCALE
 40
1.0
  9
$DISPSILH
 70
     0
  9
$DIMSCALE
 40
1.0
  9
$DIMASZ
 40
3.0
  9
$DIMEXO
 40
1.0
  9
$DIMDLI
 40
10.0
  9
$DIMRND
 40
0.0
  9
$DIMDLE
 40
0.0
  9
$DIMEXE
 40
1.0
  9
$DIMTP
 40
0.0
  9
$DIMTM
 40
0.0
  9
$DIMTXT
 40
3.2
  9
$DIMCEN
 40
0.0
  9
$DIMTSZ
 40
0.0
  9
$DIMTOL
 70
     0
  9
$DIMLIM
 70
     0
  9
$DIMTIH
 70
     0
  9
$DIMTOH
 70
     0
  9
$DIMSE1
 70
     0
  9
$DIMSE2
 70
     0
  9
$DIMTAD
 70
     3
  9
$DIMZIN
 70
     8
  9
$DIMBLK
  1

  9
$DIMASO
 70
     1
  9
$DIMSHO
 70
     1
  9
$DIMPOST
  1

  9
$DIMAPOST
  1

  9
$DIMALT
 70
     0
  9
$DIMALTD
 70
     2
  9
$DIMALTF
 40
25.4
  9
$DIMLFAC
 40
1.0
  9
$DIMTOFL
 70
     1
  9
$DIMTVP
 40
0.0
  9
$DIMTIX
 70
     0
  9
$DIMSOXD
 70
     0
  9
$DIMSAH
 70
     1
  9
$DIMBLK1
  1

  9
$DIMBLK2
  1

  9
$DIMSTYLE
  2
STANDARD
  9
$DIMCLRD
 70
     0
  9
$DIMCLRE
 70
     0
  9
$DIMCLRT
 70
     0
  9
$DIMTFAC
 40
1.0
  9
$DIMGAP
 40
1.0
  9
$DIMJUST
 70
     0
  9
$DIMSD1
 70
     0
  9
$DIMSD2
 70
     0
  9
$DIMTOLJ
 70
     1
  9
$DIMTZIN
 70
     0
  9
$DIMALTZ
 70
     0
  9
$DIMALTTZ
 70
     0
  9
$DIMUPT
 70
     0
  9
$DIMDEC
 70
     4
  9
$DIMTDEC
 70
     4
  9
$DIMALTU
 70
     2
  9
$DIMALTTD
 70
     2
  9
$DIMTXSTY
  7
STANDARD
  9
$DIMAUNIT
 70
     0
  9
$DIMADEC
 70
     0
  9
$DIMALTRND
 40
0.0
  9
$DIMAZIN
 70
     0
  9
$DIMDSEP
 70
    46
  9
$DIMATFIT
 70
     3
  9
$DIMFRAC
 70
     0
  9
$DIMLDRBLK
  1

  9
$DIMLUNIT
 70
     2
  9
$DIMLWD
 70
    -2
  9
$DIMLWE
 70
    -2
  9
$DIMTMOVE
 70
     0
  9
$LUNITS
 70
     2
  9
$LUPREC
 70
     4
  9
$SKETCHINC
 40
1.0
  9
$FILLETRAD
 40
1.0
  9
$AUNITS
 70
     0
  9
$AUPREC
 70
     2
  9
$MENU
  1
.
  9
$ELEVATION
 40
0.0
  9
$PELEVATION
 40
0.0
  9
$THICKNESS
 40
0.0
  9
$LIMCHECK
 70
     0
  9
$CHAMFERA
 40
10.0
  9
$CHAMFERB
 40
10.0
  9
$CHAMFERC
 40
0.0
  9
$CHAMFERD
 40
0.0
  9
$SKPOLY
 70
     0
  9
$TDCREATE
 40
2450955.748652894
  9
$TDUCREATE
 40
2450955.373652894
  9
$TDUPDATE
 40
2457192.600820486
  9
$TDUUPDATE
 40
2457192.225820486
  9
$TDINDWG
 40
0.0000153819
  9
$TDUSRTIMER
 40
0.0000150810
  9
$USRTIMER
 70
     1
  9
$ANGBASE
 50
0.0
  9
$ANGDIR
 70
     0
  9
$PDMODE
 70
     0
  9
$PDSIZE
 40
0.0
  9
$PLINEWID
 40
0.0
  9
$SPLFRAME
 70
     0
  9
$SPLINETYPE
 70
     6
  9
$SPLINESEGS
 70
     8
  9
$HANDSEED
  5
75B
  9
$SURFTAB1
 70
     6
  9
$SURFTAB2
 70
     6
  9
$SURFTYPE
 70
     6
  9
$SURFU
 70
     6
  9
$SURFV
 70
     6
  9
$UCSBASE
  2

  9
$UCSNAME
  2

  9
$UCSORG
 10
0.0
 20
0.0
 30
0.0
  9
$UCSXDIR
 10
1.0
 20
0.0
 30
0.0
  9
$UCSYDIR
 10
0.0
 20
1.0
 30
0.0
  9
$UCSORTHOREF
  2

  9
$UCSORTHOVIEW
 70
     0
  9
$UCSORGTOP
 10
0.0
 20
0.0
 30
0.0
  9
$UCSORGBOTTOM
 10
0.0
 20
0.0
 30
0.0
  9
$UCSORGLEFT
 10
0.0
 20
0.0
 30
0.0
  9
$UCSORGRIGHT
 10
0.0
 20
0.0
 30
0.0
  9
$UCSORGFRONT
 10
0.0
 20
0.0
 30
0.0
  9
$UCSORGBACK
 10
0.0
 20
0.0
 30
0.0
  9
$PUCSBASE
  2

  9
$PUCSNAME
  2

  9
$PUCSORG
 10
0.0
 20
0.0
 30
0.0
  9
$PUCSXDIR
 10
1.0
 20
0.0
 30
0.0
  9
$PUCSYDIR
 10
0.0
 20
1.0
 30
0.0
  9
$PUCSORTHOREF
  2

  9
$PUCSORTHOVIEW
 70
     0
  9
$PUCSORGTOP
 10
0.0
 20
0.0
 30
0.0
  9
$PUCSORGBOTTOM
 10
0.0
 20
0.0
 30
0.0
  9
$PUCSORGLEFT
 10
0.0
 20
0.0
 30
0.0
  9
$PUCSORGRIGHT
 10
0.0
 20
0.0
 30
0.0
  9
$PUCSORGFRONT
 10
0.0
 20
0.0
 30
0.0
  9
$PUCSORGBACK
 10
0.0
 20
0.0
 30
0.0
  9
$USERI1
 70
     0
  9
$USERI2
 70
     0
  9
$USERI3
 70
     0
  9
$USERI4
 70
     0
  9
$USERI5
 70
     0
  9
$USERR1
 40
0.0
  9
$USERR2
 40
0.0
  9
$USERR3
 40
0.0
  9
$USERR4
 40
0.0
  9
$USERR5
 40
0.0
  9
$WORLDVIEW
 70
     1
  9
$SHADEDGE
 70
     3
  9
$SHADEDIF
 70
    70
  9
$TILEMODE
 70
     1
  9
$MAXACTVP
 70
    16
  9
$PINSBASE
 10
0.0
 20
0.0
 30
0.0
  9
$PLIMCHECK
 70
     0
  9
$PEXTMIN
 10
1.000000000000000E+20
 20
1.000000000000000E+20
 30
1.000000000000000E+20
  9
$PEXTMAX
 10
-1.000000000000000E+20
 20
-1.000000000000000E+20
 30
-1.000000000000000E+20
  9
$PLIMMIN
 10
0.0
 20
0.0
  9
$PLIMMAX
 10
420.0
 20
297.0
  9
$UNITMODE
 70
     0
  9
$VISRETAIN
 70
     0
  9
$PLINEGEN
 70
     0
  9
$PSLTSCALE
 70
     0
  9
$TREEDEPTH
 70
  3020
  9
$CMLSTYLE
  2
STANDARD
  9
$CMLJUST
 70
     0
  9
$CMLSCALE
 40
1.0
  9
$PROXYGRAPHICS
 70
     1
  9
$MEASUREMENT
 70
     0
  9
$CELWEIGHT
370
    -1
  9
$ENDCAPS
280
     0
  9
$JOINSTYLE
280
     0
  9
$LWDISPLAY
290
     0
  9
$INSUNITS
 70
     0
  9
$HYPERLINKBASE
  1

  9
$STYLESHEET
  1

  9
$XEDIT
290
     1
  9
$CEPSNTYPE
380
     0
  9
$PSTYLEMODE
290
     1
  9
$FINGERPRINTGUID
  2
{722AE8B7-F800-420D-93FC-ABE745E6088F}
  9
$VERSIONGUID
  2
{87C7C1DE-3791-4E7A-9A79-AAF411FB702E}
  9
$EXTNAMES
290
     1
  9
$PSVPSCALE
 40
0.0
  9
$OLESTARTUP
290
     0
  0
ENDSEC
  0
SECTION
  2
CLASSES
  0
CLASS
  1
ACDBDICTIONARYWDFLT
  2
AcDbDictionaryWithDefault
  3
ObjectDBX Classes
 90
        0
280
     0
281
     0
  0
CLASS
  1
ACDBPLACEHOLDER
  2
AcDbPlaceHolder
  3
ObjectDBX Classes
 90
        0
280
     0
281
     0
  0
CLASS
  1
LAYOUT
  2
AcDbLayout
  3
ObjectDBX Classes
 90
        0
280
     0
281
     0
  0
CLASS
  1
DICTIONARYVAR
  2
AcDbDictionaryVar
  3
ObjectDBX Classes
 90
        0
280
     0
281
     0
  0
CLASS
  1
MATERIAL
  2
AcDbMaterial
  3
ObjectDBX Classes
 90
     1153
280
     0
281
     0
  0
CLASS
  1
VISUALSTYLE
  2
AcDbVisualStyle
  3
ObjectDBX Classes
 90
     4095
280
     0
281
     0
  0
CLASS
  1
TABLESTYLE
  2
AcDbTableStyle
  3
ObjectDBX Classes
 90
     4095
280
     0
281
     0
  0
CLASS
  1
SCALE
  2
AcDbScale
  3
ObjectDBX Classes
 90
     1153
280
     0
281
     0
  0
CLASS
  1
MLEADERSTYLE
  2
AcDbMLeaderStyle
  3
ACDB_MLEADERSTYLE_CLASS
 90
     4095
280
     0
281
     0
  0
CLASS
  1
ACDBSECTIONVIEWSTYLE
  2
AcDbSectionViewStyle
  3
ObjectDBX Classes
 90
     1025
280
     0
281
     0
  0
CLASS
  1
ACDBDETAILVIEWSTYLE
  2
AcDbDetailViewStyle
  3
ObjectDBX Classes
 90
     1025
280
     0
281
     0
  0
CLASS
  1
CELLSTYLEMAP
  2
AcDbCellStyleMap
  3
ObjectDBX Classes
 90
     1152
280
     0
281
     0
  0
ENDSEC
  0
SECTION
  2
TABLES
  0
TABLE
  2
VPORT
  5
355
330
0
100
AcDbSymbolTable
 70
     1
  0
VPORT
  5
6A4
330
355
100
AcDbSymbolTableRecord
100
AcDbViewportTableRecord
  2
*ACTIVE
 70
     0
 10
0.0
 20
0.0
 11
1.0
 21
1.0
 12
444.7424986084549
 22
206.5502558567681
 13
0.0
 23
0.0
 14
10.0
 24
10.0
 15
10.0
 25
10.0
 16
0.0
 26
0.0
 36
1.0
 17
0.0
 27
0.0
 37
0.0
 40
397.530128883612
 41
1.899603698811096
 42
50.0
 43
0.0
 44
0.0
 50
0.0
 51
0.0
 71
     0
 72
   100
 73
     1
 74
     0
 75
     0
 76
     0
 77
     0
 78
     0
281
     0
 65
     1
110
0.0
120
0.0
130
0.0
111
1.0
121
0.0
131
0.0
112
0.0
122
1.0
132
0.0
 79
     0
146
0.0
1001
ACAD_NAV_VCDISPLAY
1070
     3
  0
ENDTAB
  0
TABLE
  2
LTYPE
  5
352
330
0
100
AcDbSymbolTable
 70
     4
  0
LTYPE
  5
360
330
352
100
AcDbSymbolTableRecord
100
AcDbLinetypeTableRecord
  2
BYBLOCK
 70
     0
  3

 72
    65
 73
     0
 40
0.0
  0
LTYPE
  5
361
330
352
100
AcDbSymbolTableRecord
100
AcDbLinetypeTableRecord
  2
BYLAYER
 70
     0
  3

 72
    65
 73
     0
 40
0.0
  0
LTYPE
  5
362
330
352
100
AcDbSymbolTableRecord
100
AcDbLinetypeTableRecord
  2
CONTINUOUS
 70
     0
  3
Solid line
 72
    65
 73
     0
 40
0.0
  0
LTYPE
  5
370
330
352
100
AcDbSymbolTableRecord
100
AcDbLinetypeTableRecord
  2
DASHED
 70
     0
  3
__ __ __ __ __ __ __ __ __ __ __ __ __ __ __ __
 72
    65
 73
     2
 40
0.75
 49
0.5
 74
     0
 49
-0.25
 74
     0
  0
LTYPE
  5
371
330
352
100
AcDbSymbolTableRecord
100
AcDbLinetypeTableRecord
  2
CENTER
 70
     0
  3
____ _ ____ _ ____ _ ____ _ ____ _ ____ _ ____ 
 72
    65
 73
     4
 40
2.0
 49
1.25
 74
     0
 49
-0.25
 74
     0
 49
0.25
 74
     0
 49
-0.25
 74
     0
  0
LTYPE
  5
372
330
352
100
AcDbSymbolTableRecord
100
AcDbLinetypeTableRecord
  2
PHANTOM
 70
     0
  3
______  __  __  ______  __  __  ______  __  __ 
 72
    65
 73
     6
 40
2.5
 49
1.25
 74
     0
 49
-0.25
 74
     0
 49
0.25
 74
     0
 49
-0.25
 74
     0
 49
0.25
 74
     0
 49
-0.25
 74
     0
  0
ENDTAB
  0
TABLE
  2
LAYER
  5
34F
330
0
100
AcDbSymbolTable
 70
     8
  0
LAYER
  5
35D
102
{ACAD_XDICTIONARY
360
6FF
102
}
330
34F
100
AcDbSymbolTableRecord
100
AcDbLayerTableRecord
  2
0
 70
     0
 62
     7
  6
CONTINUOUS
370
    -3
390
6AD
  0
LAYER
  5
373
102
{ACAD_XDICTIONARY
360
701
102
}
330
34F
100
AcDbSymbolTableRecord
100
AcDbLayerTableRecord
  2
4
 70
     0
 62
     1
  6
CENTER
370
    -3
390
6AD
  0
LAYER
  5
374
102
{ACAD_XDICTIONARY
360
703
102
}
330
34F
100
AcDbSymbolTableRecord
100
AcDbLayerTableRecord
  2
5
 70
     0
 62
     6
  6
PHANTOM
370
    -3
390
6AD
  0
LAYER
  5
375
102
{ACAD_XDICTIONARY
360
705
102
}
330
34F
100
AcDbSymbolTableRecord
100
AcDbLayerTableRecord
  2
1
 70
     0
 62
     7
  6
CONTINUOUS
370
    -3
390
6AD
  0
LAYER
  5
376
102
{ACAD_XDICTIONARY
360
707
102
}
330
34F
100
AcDbSymbolTableRecord
100
AcDbLayerTableRecord
  2
2
 70
     0
 62
     4
  6
CONTINUOUS
370
    -3
390
6AD
  0
LAYER
  5
377
102
{ACAD_XDICTIONARY
360
709
102
}
330
34F
100
AcDbSymbolTableRecord
100
AcDbLayerTableRecord
  2
3
 70
     0
 62
     2
  6
DASHED
370
    -3
390
6AD
  0
LAYER
  5
378
102
{ACAD_XDICTIONARY
360
70B
102
}
330
34F
100
AcDbSymbolTableRecord
100
AcDbLayerTableRecord
  2
6
 70
     0
 62
     5
  6
CONTINUOUS
370
    -3
390
6AD
  0
LAYER
  5
379
102
{ACAD_XDICTIONARY
360
70D
102
}
330
34F
100
AcDbSymbolTableRecord
100
AcDbLayerTableRecord
  2
7
 70
     0
 62
     3
  6
CONTINUOUS
370
    -3
390
6AD
  0
ENDTAB
  0
TABLE
  2
STYLE
  5
350
330
0
100
AcDbSymbolTable
 70
     1
  0
STYLE
  5
35E
330
350
100
AcDbSymbolTableRecord
100
AcDbTextStyleTableRecord
  2
STANDARD
 70
     0
 40
0.0
 41
1.0
 50
0.0
 71
     0
 42
5.0
  3
txt
  4

  0
ENDTAB
  0
TABLE
  2
VIEW
  5
353
330
0
100
AcDbSymbolTable
 70
     0
  0
ENDTAB
  0
TABLE
  2
UCS
  5
354
330
0
100
AcDbSymbolTable
 70
     0
  0
ENDTAB
  0
TABLE
  2
APPID
  5
356
330
0
100
AcDbSymbolTable
 70
     3
  0
APPID
  5
35F
330
356
100
AcDbSymbolTableRecord
100
AcDbRegAppTableRecord
  2
ACAD
 70
     0
  0
APPID
  5
719
330
356
100
AcDbSymbolTableRecord
100
AcDbRegAppTableRecord
  2
ACAD_NAV_VCDISPLAY
 70
     0
  0
APPID
  5
752
330
356
100
AcDbSymbolTableRecord
100
AcDbRegAppTableRecord
  2
ACAD_MLEADERVER
 70
     0
  0
ENDTAB
  0
TABLE
  2
DIMSTYLE
  5
357
330
0
100
AcDbSymbolTable
 70
     1
100
AcDbDimStyleTable
 71
     0
  0
DIMSTYLE
105
37B
330
357
100
AcDbSymbolTableRecord
100
AcDbDimStyleTableRecord
  2
STANDARD
 70
     0
 41
3.0
 42
1.0
 43
10.0
 44
1.0
 73
     0
 74
     0
 77
     3
 78
     8
140
3.2
141
0.0
147
1.0
172
     1
173
     1
284
     8
285
     8
286
     8
340
35E
  0
ENDTAB
  0
TABLE
  2
BLOCK_RECORD
  5
34E
330
0
100
AcDbSymbolTable
 70
     0
  0
BLOCK_RECORD
  5
36B
102
{ACAD_XDICTIONARY
360
6A7
102
}
330
34E
100
AcDbSymbolTableRecord
100
AcDbBlockTableRecord
  2
*MODEL_SPACE
340
6FB
  0
BLOCK_RECORD
  5
367
102
{ACAD_XDICTIONARY
360
6A5
102
}
330
34E
100
AcDbSymbolTableRecord
100
AcDbBlockTableRecord
  2
*PAPER_SPACE
340
6FC
  0
ENDTAB
  0
ENDSEC
  0
SECTION
  2
BLOCKS
  0
BLOCK
  5
36C
330
36B
100
AcDbEntity
  8
0
100
AcDbBlockBegin
  2
*MODEL_SPACE
 70
     0
 10
0.0
 20
0.0
 30
0.0
  3
*MODEL_SPACE
  1

  0
ENDBLK
  5
36D
330
36B
100
AcDbEntity
  8
0
100
AcDbBlockEnd
  0
BLOCK
  5
368
330
367
100
AcDbEntity
 67
     1
  8
0
100
AcDbBlockBegin
  2
*PAPER_SPACE
 70
     0
 10
0.0
 20
0.0
 30
0.0
  3
*PAPER_SPACE
  1

  0
ENDBLK
  5
369
330
367
100
AcDbEntity
 67
     1
  8
0
100
AcDbBlockEnd
  0
ENDSEC
  0
SECTION
  2
ENTITIES
  0
TEXT
  5
383
330
36B
100
AcDbEntity
  8
7
  6
Continuous
100
AcDbText
 10
10.0
 20
18.0
 30
0.0
 40
3.0
  1
TYPE No.TL-260
100
AcDbText
  0
TEXT
  5
384
330
36B
100
AcDbEntity
  8
7
  6
Continuous
100
AcDbText
 10
10.0
 20
26.0
 30
0.0
 40
3.0
  1
CODE No.1750
100
AcDbText
  0
TEXT
  5
385
330
36B
100
AcDbEntity
  8
1
  6
Continuous
100
AcDbText
 10
10.0
 20
10.0
 30
0.0
 40
1.399999999999999
  1
LAYER
100
AcDbText
  0
TEXT
  5
386
330
36B
100
AcDbEntity
  8
1
  6
Continuous
100
AcDbText
 10
17.97951099999998
 20
10.04873699999998
 30
0.0
 40
1.399999999999999
  1
1
100
AcDbText
  0
TEXT
  5
387
330
36B
100
AcDbEntity
  8
7
  6
Continuous
100
AcDbText
 10
29.97951099999999
 20
10.04873699999998
 30
0.0
 40
1.399999999999999
  1
7
100
AcDbText
  0
TEXT
  5
388
330
36B
100
AcDbEntity
  8
4
  6
CENTER
100
AcDbText
 10
23.97951099999999
 20
10.04873699999998
 30
0.0
 40
1.399999999999999
  1
4
100
AcDbText
  0
TEXT
  5
389
330
36B
100
AcDbEntity
  8
3
  6
DASHED
100
AcDbText
 10
21.979511
 20
10.04873699999998
 30
0.0
 40
1.399999999999999
  1
3
100
AcDbText
  0
TEXT
  5
38A
330
36B
100
AcDbEntity
  8
2
  6
Continuous
100
AcDbText
 10
19.97951099999999
 20
10.04873699999998
 30
0.0
 40
1.399999999999999
  1
2
100
AcDbText
  0
TEXT
  5
38B
330
36B
100
AcDbEntity
  8
6
  6
Continuous
100
AcDbText
 10
27.979511
 20
10.04873699999998
 30
0.0
 40
1.399999999999999
  1
6
100
AcDbText
  0
TEXT
  5
38C
330
36B
100
AcDbEntity
  8
5
  6
PHANTOM
100
AcDbText
 10
25.97951099999999
 20
10.04873699999998
 30
0.0
 40
1.399999999999999
  1
5
100
AcDbText
  0
LINE
  5
38D
330
36B
100
AcDbEntity
  8
1
  6
Continuous
100
AcDbLine
 10
223.463849
 20
228.211037
 30
0.0
 11
241.963849
 21
228.211037
 31
0.0
  0
LINE
  5
38E
330
36B
100
AcDbEntity
  8
1
  6
Continuous
100
AcDbLine
 10
225.463849
 20
239.211037
 30
0.0
 11
276.4638489999999
 21
239.211037
 31
0.0
  0
LINE
  5
38F
330
36B
100
AcDbEntity
  8
1
  6
Continuous
100
AcDbLine
 10
278.4638489999999
 20
237.211037
 30
0.0
 11
278.4638489999999
 21
219.2110369999999
 31
0.0
  0
LINE
  5
390
330
36B
100
AcDbEntity
  8
1
  6
Continuous
100
AcDbLine
 10
223.463849
 20
237.211037
 30
0.0
 11
223.463849
 21
219.2110369999999
 31
0.0
  0
LINE
  5
391
330
36B
100
AcDbEntity
  8
1
  6
Continuous
100
AcDbLine
 10
223.463849
 20
229.211037
 30
0.0
 11
241.1055109999999
 21
229.211037
 31
0.0
  0
LINE
  5
392
330
36B
100
AcDbEntity
  8
1
  6
Continuous
100
AcDbLine
 10
246.963849
 20
230.8110439999999
 30
0.0
 11
256.8638429999999
 21
230.8110439999999
 31
0.0
  0
LINE
  5
393
330
36B
100
AcDbEntity
  8
1
  6
Continuous
100
AcDbLine
 10
260.322156
 20
229.211037
 30
0.0
 11
278.4638489999999
 21
229.211037
 31
0.0
  0
LINE
  5
394
330
36B
100
AcDbEntity
  8
1
  6
Continuous
100
AcDbLine
 10
246.963849
 20
231.8110439999999
 30
0.0
 11
256.8638429999999
 21
231.8110439999999
 31
0.0
  0
LINE
  5
395
330
36B
100
AcDbEntity
  8
1
  6
Continuous
100
AcDbLine
 10
259.4638429999998
 20
228.211037
 30
0.0
 11
278.4638489999999
 21
228.211037
 31
0.0
  0
LINE
  5
396
330
36B
100
AcDbEntity
  8
1
  6
Continuous
100
AcDbLine
 10
225.463849
 20
217.2110369999999
 30
0.0
 11
276.4638489999999
 21
217.2110369999999
 31
0.0
  0
LINE
  5
397
330
36B
100
AcDbEntity
  8
1
  6
Continuous
100
AcDbLine
 10
223.463849
 20
227.211037
 30
0.0
 11
241.1055109999999
 21
227.211037
 31
0.0
  0
LINE
  5
398
330
36B
100
AcDbEntity
  8
1
  6
Continuous
100
AcDbLine
 10
246.963849
 20
225.6110309999999
 30
0.0
 11
256.8638429999999
 21
225.6110309999999
 31
0.0
  0
LINE
  5
399
330
36B
100
AcDbEntity
  8
1
  6
Continuous
100
AcDbLine
 10
260.322156
 20
227.211037
 30
0.0
 11
278.4638489999999
 21
227.211037
 31
0.0
  0
LINE
  5
39A
330
36B
100
AcDbEntity
  8
1
  6
Continuous
100
AcDbLine
 10
246.963849
 20
224.611031
 30
0.0
 11
256.8638429999999
 21
224.611031
 31
0.0
  0
LINE
  5
39B
330
36B
100
AcDbEntity
  8
1
  6
Continuous
100
AcDbLine
 10
206.9638489999999
 20
221.2110369999999
 30
0.0
 11
223.463849
 21
221.2110369999999
 31
0.0
  0
LINE
  5
39C
330
36B
100
AcDbEntity
  8
1
  6
Continuous
100
AcDbLine
 10
206.9638489999999
 20
235.211037
 30
0.0
 11
223.463849
 21
235.211037
 31
0.0
  0
LINE
  5
39D
330
36B
100
AcDbEntity
  8
1
  6
Continuous
100
AcDbLine
 10
205.963849
 20
234.2110369999998
 30
0.0
 11
205.963849
 21
222.211037
 31
0.0
  0
LINE
  5
39E
330
36B
100
AcDbEntity
  8
1
  6
Continuous
100
AcDbLine
 10
215.963849
 20
234.2110369999998
 30
0.0
 11
215.963849
 21
222.211037
 31
0.0
  0
LINE
  5
39F
330
36B
100
AcDbEntity
  8
1
  6
Continuous
100
AcDbLine
 10
242.963849
 20
236.2110369999999
 30
0.0
 11
245.963849
 21
236.2110369999999
 31
0.0
  0
LINE
  5
3A0
330
36B
100
AcDbEntity
  8
1
  6
Continuous
100
AcDbLine
 10
242.963849
 20
220.211037
 30
0.0
 11
245.963849
 21
220.211037
 31
0.0
  0
LINE
  5
3A1
330
36B
100
AcDbEntity
  8
1
  6
Continuous
100
AcDbLine
 10
246.963849
 20
235.211037
 30
0.0
 11
246.963849
 21
221.2110369999999
 31
0.0
  0
LINE
  5
3A2
330
36B
100
AcDbEntity
  8
1
  6
Continuous
100
AcDbLine
 10
241.963849
 20
235.211037
 30
0.0
 11
241.963849
 21
221.2110369999999
 31
0.0
  0
LINE
  5
3A3
330
36B
100
AcDbEntity
  8
1
  6
Continuous
100
AcDbLine
 10
225.463849
 20
144.6110469999998
 30
0.0
 11
276.4638489999999
 21
144.6110469999998
 31
0.0
  0
LINE
  5
3A4
330
36B
100
AcDbEntity
  8
1
  6
Continuous
100
AcDbLine
 10
223.463849
 20
142.6110469999999
 30
0.0
 11
278.4638489999999
 21
142.6110469999999
 31
0.0
  0
LINE
  5
3A5
330
36B
100
AcDbEntity
  8
1
  6
Continuous
100
AcDbLine
 10
225.463849
 20
118.2110369999999
 30
0.0
 11
270.4638489999999
 21
118.2110369999999
 31
0.0
  0
LINE
  5
3A6
330
36B
100
AcDbEntity
  8
1
  6
Continuous
100
AcDbLine
 10
225.463849
 20
142.6110469999999
 30
0.0
 11
225.463849
 21
118.2110369999999
 31
0.0
  0
LINE
  5
3A7
330
36B
100
AcDbEntity
  8
1
  6
Continuous
100
AcDbLine
 10
276.9638489999999
 20
142.6110469999999
 30
0.0
 11
276.9638489999999
 21
141.1110469999998
 31
0.0
  0
LINE
  5
3A8
330
36B
100
AcDbEntity
  8
1
  6
Continuous
100
AcDbLine
 10
276.9638489999999
 20
141.1110469999998
 30
0.0
 11
274.463879
 21
138.6110619999997
 31
0.0
  0
LINE
  5
3A9
330
36B
100
AcDbEntity
  8
1
  6
Continuous
100
AcDbLine
 10
240.4638489999999
 20
126.211037
 30
0.0
 11
240.4638489999999
 21
118.2110369999999
 31
0.0
  0
LINE
  5
3AA
330
36B
100
AcDbEntity
  8
1
  6
Continuous
100
AcDbLine
 10
240.4638489999999
 20
126.211037
 30
0.0
 11
255.463849
 21
126.211037
 31
0.0
  0
LINE
  5
3AB
330
36B
100
AcDbEntity
  8
1
  6
Continuous
100
AcDbLine
 10
205.963849
 20
137.411034
 30
0.0
 11
205.963849
 21
136.411034
 31
0.0
  0
LINE
  5
3AC
330
36B
100
AcDbEntity
  8
1
  6
Continuous
100
AcDbLine
 10
206.463849
 20
137.9110339999998
 30
0.0
 11
215.963849
 21
137.9110339999998
 31
0.0
  0
LINE
  5
3AD
330
36B
100
AcDbEntity
  8
1
  6
Continuous
100
AcDbLine
 10
214.400601
 20
127.411034
 30
0.0
 11
225.463849
 21
127.411034
 31
0.0
  0
LINE
  5
3AE
330
36B
100
AcDbEntity
  8
1
  6
Continuous
100
AcDbLine
 10
205.963849
 20
136.41105
 30
0.0
 11
212.8641629999999
 21
128.1306849999998
 31
0.0
  0
LINE
  5
3AF
330
36B
100
AcDbEntity
  8
1
  6
Continuous
100
AcDbLine
 10
217.4638489999999
 20
139.411034
 30
0.0
 11
225.463849
 21
139.411034
 31
0.0
  0
LINE
  5
3B0
330
36B
100
AcDbEntity
  8
1
  6
Continuous
100
AcDbLine
 10
214.963849
 20
137.9110339999998
 30
0.0
 11
214.963849
 21
137.9110339999998
 31
0.0
  0
LINE
  5
3B1
330
36B
100
AcDbEntity
  8
1
  6
Continuous
100
AcDbLine
 10
241.963849
 20
151.911034
 30
0.0
 11
241.963849
 21
144.6110469999998
 31
0.0
  0
LINE
  5
3B2
330
36B
100
AcDbEntity
  8
1
  6
Continuous
100
AcDbLine
 10
246.963849
 20
151.911034
 30
0.0
 11
246.963849
 21
144.6110469999998
 31
0.0
  0
LINE
  5
3B3
330
36B
100
AcDbEntity
  8
1
  6
Continuous
100
AcDbLine
 10
242.963849
 20
145.911034
 30
0.0
 11
245.963849
 21
145.911034
 31
0.0
  0
LINE
  5
3B4
330
36B
100
AcDbEntity
  8
1
  6
Continuous
100
AcDbLine
 10
242.963849
 20
152.911034
 30
0.0
 11
245.963849
 21
152.911034
 31
0.0
  0
LINE
  5
3B5
330
36B
100
AcDbEntity
  8
1
  6
Continuous
100
AcDbLine
 10
225.463849
 20
291.8110589999999
 30
0.0
 11
276.4638489999999
 21
291.8110589999999
 31
0.0
  0
LINE
  5
3B6
330
36B
100
AcDbEntity
  8
1
  6
Continuous
100
AcDbLine
 10
223.463849
 20
293.8110589999999
 30
0.0
 11
278.4638489999999
 21
293.8110589999999
 31
0.0
  0
LINE
  5
3B7
330
36B
100
AcDbEntity
  8
1
  6
Continuous
100
AcDbLine
 10
225.463849
 20
293.8110589999999
 30
0.0
 11
225.463849
 21
318.211022
 31
0.0
  0
LINE
  5
3B8
330
36B
100
AcDbEntity
  8
1
  6
Continuous
100
AcDbLine
 10
276.9638489999999
 20
293.8110589999999
 30
0.0
 11
276.9638489999999
 21
295.311059
 31
0.0
  0
LINE
  5
3B9
330
36B
100
AcDbEntity
  8
1
  6
Continuous
100
AcDbLine
 10
276.963879
 20
295.311059
 30
0.0
 11
274.463879
 21
297.811059
 31
0.0
  0
LINE
  5
3BA
330
36B
100
AcDbEntity
  8
1
  6
Continuous
100
AcDbLine
 10
240.4638489999999
 20
310.211022
 30
0.0
 11
240.4638489999999
 21
318.211022
 31
0.0
  0
LINE
  5
3BB
330
36B
100
AcDbEntity
  8
1
  6
Continuous
100
AcDbLine
 10
205.963849
 20
299.0110399999999
 30
0.0
 11
205.963849
 21
300.01104
 31
0.0
  0
LINE
  5
3BC
330
36B
100
AcDbEntity
  8
1
  6
Continuous
100
AcDbLine
 10
206.463849
 20
298.5110399999999
 30
0.0
 11
215.963849
 21
298.5110399999999
 31
0.0
  0
LINE
  5
3BD
330
36B
100
AcDbEntity
  8
1
  6
Continuous
100
AcDbLine
 10
214.400601
 20
309.0110399999999
 30
0.0
 11
225.463849
 21
309.0110399999999
 31
0.0
  0
LINE
  5
3BE
330
36B
100
AcDbEntity
  8
1
  6
Continuous
100
AcDbLine
 10
205.963849
 20
300.01104
 30
0.0
 11
212.864148
 21
308.2914049999998
 31
0.0
  0
LINE
  5
3BF
330
36B
100
AcDbEntity
  8
1
  6
Continuous
100
AcDbLine
 10
217.4638489999999
 20
297.0110399999999
 30
0.0
 11
225.463849
 21
297.0110399999999
 31
0.0
  0
LINE
  5
3C0
330
36B
100
AcDbEntity
  8
1
  6
Continuous
100
AcDbLine
 10
214.963849
 20
298.5110399999999
 30
0.0
 11
214.963849
 21
298.5110399999999
 31
0.0
  0
LINE
  5
3C1
330
36B
100
AcDbEntity
  8
1
  6
Continuous
100
AcDbLine
 10
241.963849
 20
284.5110399999999
 30
0.0
 11
241.963849
 21
291.8110589999999
 31
0.0
  0
LINE
  5
3C2
330
36B
100
AcDbEntity
  8
1
  6
Continuous
100
AcDbLine
 10
246.963849
 20
284.5110399999999
 30
0.0
 11
246.963849
 21
291.8110589999999
 31
0.0
  0
LINE
  5
3C3
330
36B
100
AcDbEntity
  8
1
  6
Continuous
100
AcDbLine
 10
242.963849
 20
290.5110399999998
 30
0.0
 11
245.963849
 21
290.5110399999998
 31
0.0
  0
LINE
  5
3C4
330
36B
100
AcDbEntity
  8
1
  6
Continuous
100
AcDbLine
 10
242.963849
 20
283.5110399999999
 30
0.0
 11
245.963849
 21
283.5110399999999
 31
0.0
  0
LINE
  5
3C5
330
36B
100
AcDbEntity
  8
1
  6
Continuous
100
AcDbLine
 10
460.463849
 20
240.011025
 30
0.0
 11
484.863812
 21
240.011025
 31
0.0
  0
LINE
  5
3C6
330
36B
100
AcDbEntity
  8
1
  6
Continuous
100
AcDbLine
 10
460.463849
 20
216.4110189999999
 30
0.0
 11
484.863812
 21
216.4110189999999
 31
0.0
  0
LINE
  5
3C7
330
36B
100
AcDbEntity
  8
1
  6
Continuous
100
AcDbLine
 10
353.0638549999998
 20
237.211037
 30
0.0
 11
353.0638549999998
 21
229.211037
 31
0.0
  0
LINE
  5
3C8
330
36B
100
AcDbEntity
  8
1
  6
Continuous
100
AcDbLine
 10
355.0638549999998
 20
239.0110399999998
 30
0.0
 11
355.0638549999998
 21
217.4110339999999
 31
0.0
  0
LINE
  5
3C9
330
36B
100
AcDbEntity
  8
1
  6
Continuous
100
AcDbLine
 10
355.0638549999998
 20
228.211037
 30
0.0
 11
379.463849
 21
228.211037
 31
0.0
  0
LINE
  5
3CA
330
36B
100
AcDbEntity
  8
1
  6
Continuous
100
AcDbLine
 10
353.0638549999998
 20
227.211037
 30
0.0
 11
353.0638549999998
 21
219.2110369999999
 31
0.0
  0
LINE
  5
3CB
330
36B
100
AcDbEntity
  8
1
  6
Continuous
100
AcDbLine
 10
355.0638549999998
 20
232.211037
 30
0.0
 11
359.0638549999998
 21
232.211037
 31
0.0
  0
LINE
  5
3CC
330
36B
100
AcDbEntity
  8
1
  6
Continuous
100
AcDbLine
 10
355.0638549999998
 20
224.211037
 30
0.0
 11
359.0638549999998
 21
224.211037
 31
0.0
  0
LINE
  5
3CD
330
36B
100
AcDbEntity
  8
1
  6
Continuous
100
AcDbLine
 10
356.563855
 20
232.211037
 30
0.0
 11
356.563855
 21
224.211037
 31
0.0
  0
LINE
  5
3CE
330
36B
100
AcDbEntity
  8
1
  6
Continuous
100
AcDbLine
 10
359.0638549999998
 20
232.211037
 30
0.0
 11
359.0638549999998
 21
224.211037
 31
0.0
  0
LINE
  5
3CF
330
36B
100
AcDbEntity
  8
1
  6
Continuous
100
AcDbLine
 10
371.063855
 20
237.211037
 30
0.0
 11
371.063855
 21
219.2110369999999
 31
0.0
  0
LINE
  5
3D0
330
36B
100
AcDbEntity
  8
1
  6
Continuous
100
AcDbLine
 10
371.063855
 20
224.211037
 30
0.0
 11
379.463849
 21
224.211037
 31
0.0
  0
LINE
  5
3D1
330
36B
100
AcDbEntity
  8
1
  6
Continuous
100
AcDbLine
 10
371.063855
 20
232.211037
 30
0.0
 11
379.463849
 21
232.211037
 31
0.0
  0
LINE
  5
3D2
330
36B
100
AcDbEntity
  8
1
  6
Continuous
100
AcDbLine
 10
355.0638549999998
 20
237.211037
 30
0.0
 11
379.463849
 21
237.211037
 31
0.0
  0
LINE
  5
3D3
330
36B
100
AcDbEntity
  8
1
  6
Continuous
100
AcDbLine
 10
355.0638549999998
 20
219.2110369999999
 30
0.0
 11
379.463849
 21
219.2110369999999
 31
0.0
  0
LINE
  5
3D4
330
36B
100
AcDbEntity
  8
1
  6
Continuous
100
AcDbLine
 10
134.663846
 20
235.211037
 30
0.0
 11
144.6638609999999
 21
235.211037
 31
0.0
  0
LINE
  5
3D5
330
36B
100
AcDbEntity
  8
1
  6
Continuous
100
AcDbLine
 10
134.663846
 20
221.2110369999999
 30
0.0
 11
144.6638609999999
 21
221.2110369999999
 31
0.0
  0
LINE
  5
3D6
330
36B
100
AcDbEntity
  8
1
  6
Continuous
100
AcDbLine
 10
43.463856
 20
240.011025
 30
0.0
 11
19.063893
 21
240.011025
 31
0.0
  0
LINE
  5
3D7
330
36B
100
AcDbEntity
  8
1
  6
Continuous
100
AcDbLine
 10
43.463856
 20
216.4110189999999
 30
0.0
 11
19.063893
 21
216.4110189999999
 31
0.0
  0
LINE
  5
3D8
330
36B
100
AcDbEntity
  8
1
  6
Continuous
100
AcDbLine
 10
150.8638429999998
 20
237.211037
 30
0.0
 11
150.8638429999998
 21
229.211037
 31
0.0
  0
LINE
  5
3D9
330
36B
100
AcDbEntity
  8
1
  6
Continuous
100
AcDbLine
 10
148.8638429999998
 20
239.0110399999998
 30
0.0
 11
148.8638429999998
 21
217.4110339999999
 31
0.0
  0
LINE
  5
3DA
330
36B
100
AcDbEntity
  8
1
  6
Continuous
100
AcDbLine
 10
148.8638429999998
 20
228.211037
 30
0.0
 11
145.863843
 21
228.211037
 31
0.0
  0
LINE
  5
3DB
330
36B
100
AcDbEntity
  8
1
  6
Continuous
100
AcDbLine
 10
150.8638429999998
 20
227.211037
 30
0.0
 11
150.8638429999998
 21
219.2110369999999
 31
0.0
  0
LINE
  5
3DC
330
36B
100
AcDbEntity
  8
1
  6
Continuous
100
AcDbLine
 10
19.063893
 20
237.711037
 30
0.0
 11
19.063893
 21
218.711037
 31
0.0
  0
LINE
  5
3DD
330
36B
100
AcDbEntity
  8
1
  6
Continuous
100
AcDbLine
 10
43.463856
 20
237.711037
 30
0.0
 11
19.063893
 21
237.711037
 31
0.0
  0
LINE
  5
3DE
330
36B
100
AcDbEntity
  8
1
  6
Continuous
100
AcDbLine
 10
43.463856
 20
218.711037
 30
0.0
 11
19.063893
 21
218.711037
 31
0.0
  0
LINE
  5
3DF
330
36B
100
AcDbEntity
  8
1
  6
Continuous
100
AcDbLine
 10
145.6638609999999
 20
234.2110369999998
 30
0.0
 11
145.6638609999999
 21
222.211037
 31
0.0
  0
LINE
  5
3E0
330
36B
100
AcDbEntity
  8
1
  6
Continuous
100
AcDbLine
 10
144.163861
 20
235.211037
 30
0.0
 11
144.163861
 21
221.2110369999999
 31
0.0
  0
LINE
  5
3E1
330
36B
100
AcDbEntity
  8
1
  6
Continuous
100
AcDbLine
 10
133.663846
 20
234.2110369999998
 30
0.0
 11
133.663846
 21
233.7110369999999
 31
0.0
  0
LINE
  5
3E2
330
36B
100
AcDbEntity
  8
1
  6
Continuous
100
AcDbLine
 10
148.8638429999998
 20
219.2110369999999
 30
0.0
 11
124.463849
 21
219.2110369999999
 31
0.0
  0
LINE
  5
3E3
330
36B
100
AcDbEntity
  8
1
  6
Continuous
100
AcDbLine
 10
148.8638429999998
 20
237.211037
 30
0.0
 11
124.463849
 21
237.211037
 31
0.0
  0
LINE
  5
3E4
330
36B
100
AcDbEntity
  8
1
  6
Continuous
100
AcDbLine
 10
145.863843
 20
235.461037
 30
0.0
 11
145.863843
 21
220.961037
 31
0.0
  0
LINE
  5
3E5
330
36B
100
AcDbEntity
  8
1
  6
Continuous
100
AcDbLine
 10
132.863843
 20
235.461037
 30
0.0
 11
132.863843
 21
220.961037
 31
0.0
  0
LINE
  5
3E6
330
36B
100
AcDbEntity
  8
1
  6
Continuous
100
AcDbLine
 10
145.863843
 20
235.461037
 30
0.0
 11
132.863843
 21
235.461037
 31
0.0
  0
LINE
  5
3E7
330
36B
100
AcDbEntity
  8
1
  6
Continuous
100
AcDbLine
 10
145.863843
 20
220.961037
 30
0.0
 11
132.863843
 21
220.961037
 31
0.0
  0
LINE
  5
3E8
330
36B
100
AcDbEntity
  8
1
  6
Continuous
100
AcDbLine
 10
132.863843
 20
228.211037
 30
0.0
 11
124.463849
 21
228.211037
 31
0.0
  0
LINE
  5
3E9
330
36B
100
AcDbEntity
  8
1
  6
Continuous
100
AcDbLine
 10
135.1638459999997
 20
233.7110369999999
 30
0.0
 11
135.1638459999997
 21
222.711037
 31
0.0
  0
LINE
  5
3EA
330
36B
100
AcDbEntity
  8
1
  6
Continuous
100
AcDbLine
 10
133.663846
 20
233.7110369999999
 30
0.0
 11
142.6638609999999
 21
233.7110369999999
 31
0.0
  0
LINE
  5
3EB
330
36B
100
AcDbEntity
  8
1
  6
Continuous
100
AcDbLine
 10
133.663846
 20
222.711037
 30
0.0
 11
142.6638609999999
 21
222.711037
 31
0.0
  0
LINE
  5
3EC
330
36B
100
AcDbEntity
  8
1
  6
Continuous
100
AcDbLine
 10
142.6638609999999
 20
235.211037
 30
0.0
 11
142.6638609999999
 21
221.2110369999999
 31
0.0
  0
LINE
  5
3ED
330
36B
100
AcDbEntity
  8
1
  6
Continuous
100
AcDbLine
 10
133.663846
 20
222.711037
 30
0.0
 11
133.663846
 21
222.211037
 31
0.0
  0
LINE
  5
3EE
330
36B
100
AcDbEntity
  8
1
  6
Continuous
100
AcDbLine
 10
154.1638609999999
 20
236.2110369999999
 30
0.0
 11
157.1638609999999
 21
236.2110369999999
 31
0.0
  0
LINE
  5
3EF
330
36B
100
AcDbEntity
  8
1
  6
Continuous
100
AcDbLine
 10
154.1638609999999
 20
220.211037
 30
0.0
 11
157.1638609999999
 21
220.211037
 31
0.0
  0
LINE
  5
3F0
330
36B
100
AcDbEntity
  8
1
  6
Continuous
100
AcDbLine
 10
159.1638609999999
 20
234.2110369999998
 30
0.0
 11
159.1638609999999
 21
222.211037
 31
0.0
  0
LINE
  5
3F1
330
36B
100
AcDbEntity
  8
1
  6
Continuous
100
AcDbLine
 10
152.163861
 20
234.2110369999998
 30
0.0
 11
152.163861
 21
222.211037
 31
0.0
  0
LINE
  5
3F2
330
36B
100
AcDbEntity
  8
1
  6
Continuous
100
AcDbLine
 10
152.163861
 20
230.711037
 30
0.0
 11
150.8638429999998
 21
230.711037
 31
0.0
  0
LINE
  5
3F3
330
36B
100
AcDbEntity
  8
1
  6
Continuous
100
AcDbLine
 10
152.163861
 20
225.7110369999999
 30
0.0
 11
150.8638429999998
 21
225.7110369999999
 31
0.0
  0
LINE
  5
3F4
330
36B
100
AcDbEntity
  8
1
  6
Continuous
100
AcDbLine
 10
616.863873
 20
228.211037
 30
0.0
 11
615.8638729999998
 21
228.211037
 31
0.0
  0
LINE
  5
3F5
330
36B
100
AcDbEntity
  8
1
  6
Continuous
100
AcDbLine
 10
616.863873
 20
239.211037
 30
0.0
 11
597.863873
 21
239.211037
 31
0.0
  0
LINE
  5
3F6
330
36B
100
AcDbEntity
  8
1
  6
Continuous
100
AcDbLine
 10
563.863873
 20
237.211037
 30
0.0
 11
563.863873
 21
219.2110369999999
 31
0.0
  0
LINE
  5
3F7
330
36B
100
AcDbEntity
  8
1
  6
Continuous
100
AcDbLine
 10
618.863873
 20
237.211037
 30
0.0
 11
618.863873
 21
235.211037
 31
0.0
  0
LINE
  5
3F8
330
36B
100
AcDbEntity
  8
1
  6
Continuous
100
AcDbLine
 10
616.863873
 20
217.2110369999999
 30
0.0
 11
597.863873
 21
217.2110369999999
 31
0.0
  0
LINE
  5
3F9
330
36B
100
AcDbEntity
  8
1
  6
Continuous
100
AcDbLine
 10
636.3638729999999
 20
221.2110369999999
 30
0.0
 11
616.863873
 21
221.2110369999999
 31
0.0
  0
LINE
  5
3FA
330
36B
100
AcDbEntity
  8
1
  6
Continuous
100
AcDbLine
 10
636.3638729999999
 20
235.211037
 30
0.0
 11
616.863873
 21
235.211037
 31
0.0
  0
LINE
  5
3FB
330
36B
100
AcDbEntity
  8
1
  6
Continuous
100
AcDbLine
 10
636.3638729999999
 20
235.211037
 30
0.0
 11
636.3638729999999
 21
221.2110369999999
 31
0.0
  0
LINE
  5
3FC
330
36B
100
AcDbEntity
  8
1
  6
Continuous
100
AcDbLine
 10
615.8638729999998
 20
219.2110369999999
 30
0.0
 11
597.863873
 21
219.2110369999999
 31
0.0
  0
LINE
  5
3FD
330
36B
100
AcDbEntity
  8
1
  6
Continuous
100
AcDbLine
 10
601.863873
 20
224.211037
 30
0.0
 11
597.863873
 21
224.211037
 31
0.0
  0
LINE
  5
3FE
330
36B
100
AcDbEntity
  8
1
  6
Continuous
100
AcDbLine
 10
601.863873
 20
232.211037
 30
0.0
 11
597.863873
 21
232.211037
 31
0.0
  0
LINE
  5
3FF
330
36B
100
AcDbEntity
  8
1
  6
Continuous
100
AcDbLine
 10
616.863873
 20
236.2110369999999
 30
0.0
 11
616.863873
 21
220.211037
 31
0.0
  0
LINE
  5
400
330
36B
100
AcDbEntity
  8
1
  6
Continuous
100
AcDbLine
 10
618.863873
 20
221.2110369999999
 30
0.0
 11
618.863873
 21
219.2110369999999
 31
0.0
  0
LINE
  5
401
330
36B
100
AcDbEntity
  8
1
  6
Continuous
100
AcDbLine
 10
601.863873
 20
224.211037
 30
0.0
 11
601.863873
 21
219.2110369999999
 31
0.0
  0
LINE
  5
402
330
36B
100
AcDbEntity
  8
1
  6
Continuous
100
AcDbLine
 10
601.863873
 20
237.211037
 30
0.0
 11
601.863873
 21
232.211037
 31
0.0
  0
LINE
  5
403
330
36B
100
AcDbEntity
  8
1
  6
Continuous
100
AcDbLine
 10
601.863873
 20
228.211037
 30
0.0
 11
597.863873
 21
228.211037
 31
0.0
  0
LINE
  5
404
330
36B
100
AcDbEntity
  8
1
  6
Continuous
100
AcDbLine
 10
628.3638729999998
 20
232.211037
 30
0.0
 11
628.3638729999998
 21
224.211037
 31
0.0
  0
LINE
  5
405
330
36B
100
AcDbEntity
  8
1
  6
Continuous
100
AcDbLine
 10
616.863873
 20
233.211037
 30
0.0
 11
636.3638729999999
 21
233.211037
 31
0.0
  0
LINE
  5
406
330
36B
100
AcDbEntity
  8
1
  6
Continuous
100
AcDbLine
 10
616.863873
 20
223.211037
 30
0.0
 11
636.3638729999999
 21
223.211037
 31
0.0
  0
LINE
  5
407
330
36B
100
AcDbEntity
  8
1
  6
Continuous
100
AcDbLine
 10
624.863873
 20
233.211037
 30
0.0
 11
624.863873
 21
223.211037
 31
0.0
  0
LINE
  5
408
330
36B
100
AcDbEntity
  8
1
  6
Continuous
100
AcDbLine
 10
620.863873
 20
230.211037
 30
0.0
 11
624.863873
 21
230.211037
 31
0.0
  0
LINE
  5
409
330
36B
100
AcDbEntity
  8
1
  6
Continuous
100
AcDbLine
 10
620.863873
 20
226.211037
 30
0.0
 11
624.863873
 21
226.211037
 31
0.0
  0
LINE
  5
40A
330
36B
100
AcDbEntity
  8
1
  6
Continuous
100
AcDbLine
 10
630.363873
 20
233.211037
 30
0.0
 11
630.363873
 21
229.7110369999999
 31
0.0
  0
LINE
  5
40B
330
36B
100
AcDbEntity
  8
1
  6
Continuous
100
AcDbLine
 10
630.363873
 20
226.711037
 30
0.0
 11
630.363873
 21
223.211037
 31
0.0
  0
LINE
  5
40C
330
36B
100
AcDbEntity
  8
1
  6
Continuous
100
AcDbLine
 10
628.863873
 20
235.0110399999998
 30
0.0
 11
628.863873
 21
233.4110339999998
 31
0.0
  0
LINE
  5
40D
330
36B
100
AcDbEntity
  8
1
  6
Continuous
100
AcDbLine
 10
628.863873
 20
223.01104
 30
0.0
 11
628.863873
 21
221.4110339999999
 31
0.0
  0
LINE
  5
40E
330
36B
100
AcDbEntity
  8
1
  6
Continuous
100
AcDbLine
 10
236.963849
 20
118.2110369999999
 30
0.0
 11
236.963849
 21
118.0513539999999
 31
0.0
  0
LINE
  5
40F
330
36B
100
AcDbEntity
  8
1
  6
Continuous
100
AcDbLine
 10
133.863843
 20
232.711037
 30
0.0
 11
133.863843
 21
223.7110369999999
 31
0.0
  0
LINE
  5
410
330
36B
100
AcDbEntity
  8
1
  6
Continuous
100
AcDbLine
 10
133.863843
 20
223.7110369999999
 30
0.0
 11
132.863843
 21
223.7110369999999
 31
0.0
  0
LINE
  5
411
330
36B
100
AcDbEntity
  8
1
  6
Continuous
100
AcDbLine
 10
133.863843
 20
232.711037
 30
0.0
 11
132.863843
 21
232.711037
 31
0.0
  0
LINE
  5
412
330
36B
100
AcDbEntity
  8
1
  6
Continuous
100
AcDbLine
 10
135.1638459999997
 20
229.7110369999999
 30
0.0
 11
133.863843
 21
229.7110369999999
 31
0.0
  0
LINE
  5
413
330
36B
100
AcDbEntity
  8
1
  6
Continuous
100
AcDbLine
 10
135.1638459999997
 20
226.711037
 30
0.0
 11
133.863843
 21
226.711037
 31
0.0
  0
LINE
  5
414
330
36B
100
AcDbEntity
  8
1
  6
Continuous
100
AcDbLine
 10
227.5265779999998
 20
118.06498
 30
0.0
 11
228.9162569999998
 21
118.2110369999999
 31
0.0
  0
LINE
  5
415
330
36B
100
AcDbEntity
  8
1
  6
Continuous
100
AcDbLine
 10
227.41647
 20
118.0635459999999
 30
0.0
 11
229.9638489999999
 21
117.861687
 31
0.0
  0
LINE
  5
416
330
36B
100
AcDbEntity
  8
4
  6
CENTER
100
AcDbLine
 10
233.463849
 20
123.211037
 30
0.0
 11
233.463849
 21
102.211037
 31
0.0
  0
LINE
  5
417
330
36B
100
AcDbEntity
  8
1
  6
Continuous
100
AcDbLine
 10
226.463849
 20
107.211037
 30
0.0
 11
240.4638489999999
 21
107.211037
 31
0.0
  0
LINE
  5
418
330
36B
100
AcDbEntity
  8
1
  6
Continuous
100
AcDbLine
 10
226.463849
 20
109.211037
 30
0.0
 11
240.4638489999999
 21
109.211037
 31
0.0
  0
LINE
  5
419
330
36B
100
AcDbEntity
  8
1
  6
Continuous
100
AcDbLine
 10
240.4638489999999
 20
109.211037
 30
0.0
 11
240.4638489999999
 21
107.211037
 31
0.0
  0
LINE
  5
41A
330
36B
100
AcDbEntity
  8
1
  6
Continuous
100
AcDbLine
 10
226.463849
 20
109.211037
 30
0.0
 11
226.463849
 21
107.211037
 31
0.0
  0
LINE
  5
41B
330
36B
100
AcDbEntity
  8
1
  6
Continuous
100
AcDbLine
 10
229.9638489999999
 20
118.2110369999999
 30
0.0
 11
229.9638489999999
 21
117.315636
 31
0.0
  0
LINE
  5
41C
330
36B
100
AcDbEntity
  8
1
  6
Continuous
100
AcDbLine
 10
227.523862
 20
109.2140429999999
 30
0.0
 11
239.5238459999999
 21
110.4200899999999
 31
0.0
  0
LINE
  5
41D
330
36B
100
AcDbEntity
  8
1
  6
Continuous
100
AcDbLine
 10
227.4038659999999
 20
110.408028
 30
0.0
 11
239.4038509999998
 21
111.614075
 31
0.0
  0
LINE
  5
41E
330
36B
100
AcDbEntity
  8
1
  6
Continuous
100
AcDbLine
 10
227.5265469999999
 20
111.4264149999999
 30
0.0
 11
239.5265619999999
 21
112.687661
 31
0.0
  0
LINE
  5
41F
330
36B
100
AcDbEntity
  8
1
  6
Continuous
100
AcDbLine
 10
227.4011199999999
 20
112.619836
 30
0.0
 11
239.4011049999999
 21
113.881081
 31
0.0
  0
LINE
  5
420
330
36B
100
AcDbEntity
  8
1
  6
Continuous
100
AcDbLine
 10
227.526562
 20
113.639642
 30
0.0
 11
239.5265619999999
 21
114.900887
 31
0.0
  0
LINE
  5
421
330
36B
100
AcDbEntity
  8
1
  6
Continuous
100
AcDbLine
 10
227.4011199999999
 20
114.833062
 30
0.0
 11
239.4011349999999
 21
116.094308
 31
0.0
  0
LINE
  5
422
330
36B
100
AcDbEntity
  8
1
  6
Continuous
100
AcDbLine
 10
227.5265779999998
 20
115.8528529999999
 30
0.0
 11
239.5265619999999
 21
117.114098
 31
0.0
  0
LINE
  5
423
330
36B
100
AcDbEntity
  8
1
  6
Continuous
100
AcDbLine
 10
227.401135
 20
117.0462879999998
 30
0.0
 11
238.4830439999999
 21
118.2110369999999
 31
0.0
  0
LINE
  5
424
330
36B
100
AcDbEntity
  8
1
  6
Continuous
100
AcDbLine
 10
236.963849
 20
111.8287739999999
 30
0.0
 11
239.458874
 21
111.619599
 31
0.0
  0
LINE
  5
425
330
36B
100
AcDbEntity
  8
1
  6
Continuous
100
AcDbLine
 10
227.413724
 20
111.42521
 30
0.0
 11
229.9638489999999
 21
111.211419
 31
0.0
  0
LINE
  5
426
330
36B
100
AcDbEntity
  8
1
  6
Continuous
100
AcDbLine
 10
236.9638329999999
 20
114.0845879999999
 30
0.0
 11
239.456128
 21
113.8868639999998
 31
0.0
  0
LINE
  5
427
330
36B
100
AcDbEntity
  8
1
  6
Continuous
100
AcDbLine
 10
227.416394
 20
113.6382229999999
 30
0.0
 11
229.9638489999999
 21
113.436135
 31
0.0
  0
LINE
  5
428
330
36B
100
AcDbEntity
  8
1
  6
Continuous
100
AcDbLine
 10
236.963849
 20
116.2977989999999
 30
0.0
 11
239.456128
 21
116.100091
 31
0.0
  0
LINE
  5
429
330
36B
100
AcDbEntity
  8
1
  6
Continuous
100
AcDbLine
 10
227.416394
 20
115.8514489999999
 30
0.0
 11
229.963833
 21
115.6493459999998
 31
0.0
  0
LINE
  5
42A
330
36B
100
AcDbEntity
  8
1
  6
Continuous
100
AcDbLine
 10
229.9638489999999
 20
116.109032
 30
0.0
 11
229.9638489999999
 21
115.10241
 31
0.0
  0
LINE
  5
42B
330
36B
100
AcDbEntity
  8
1
  6
Continuous
100
AcDbLine
 10
229.9638489999999
 20
113.8958059999998
 30
0.0
 11
229.9638489999999
 21
112.889184
 31
0.0
  0
LINE
  5
42C
330
36B
100
AcDbEntity
  8
1
  6
Continuous
100
AcDbLine
 10
229.9638489999999
 20
111.6825799999999
 30
0.0
 11
229.9638489999999
 21
110.6653139999999
 31
0.0
  0
LINE
  5
42D
330
36B
100
AcDbEntity
  8
1
  6
Continuous
100
AcDbLine
 10
236.963849
 20
116.84475
 30
0.0
 11
236.963849
 21
115.8381429999999
 31
0.0
  0
LINE
  5
42E
330
36B
100
AcDbEntity
  8
1
  6
Continuous
100
AcDbLine
 10
236.963849
 20
114.631524
 30
0.0
 11
236.963849
 21
113.624932
 31
0.0
  0
LINE
  5
42F
330
36B
100
AcDbEntity
  8
1
  6
Continuous
100
AcDbLine
 10
236.963849
 20
112.4183129999998
 30
0.0
 11
236.963849
 21
111.368844
 31
0.0
  0
LINE
  5
430
330
36B
100
AcDbEntity
  8
1
  6
Continuous
100
AcDbLine
 10
236.963849
 20
110.162797
 30
0.0
 11
236.963849
 21
109.211037
 31
0.0
  0
LINE
  5
431
330
36B
100
AcDbEntity
  8
1
  6
Continuous
100
AcDbLine
 10
229.9638489999999
 20
109.459275
 30
0.0
 11
229.9638489999999
 21
109.211037
 31
0.0
  0
LINE
  5
432
330
36B
100
AcDbEntity
  8
4
  6
CENTER
100
AcDbLine
 10
339.763867
 20
228.211037
 30
0.0
 11
395.4638489999999
 21
228.211037
 31
0.0
  0
LINE
  5
433
330
36B
100
AcDbEntity
  8
1
  6
Continuous
100
AcDbLine
 10
390.4638489999999
 20
221.2110369999999
 30
0.0
 11
390.4638489999999
 21
235.211037
 31
0.0
  0
LINE
  5
434
330
36B
100
AcDbEntity
  8
1
  6
Continuous
100
AcDbLine
 10
388.463849
 20
221.2110369999999
 30
0.0
 11
388.463849
 21
235.211037
 31
0.0
  0
LINE
  5
435
330
36B
100
AcDbEntity
  8
1
  6
Continuous
100
AcDbLine
 10
388.463849
 20
235.211037
 30
0.0
 11
390.4638489999999
 21
235.211037
 31
0.0
  0
LINE
  5
436
330
36B
100
AcDbEntity
  8
1
  6
Continuous
100
AcDbLine
 10
388.463849
 20
221.2110369999999
 30
0.0
 11
390.4638489999999
 21
221.2110369999999
 31
0.0
  0
LINE
  5
437
330
36B
100
AcDbEntity
  8
1
  6
Continuous
100
AcDbLine
 10
387.800519
 20
222.271035
 30
0.0
 11
386.594464
 21
234.271035
 31
0.0
  0
LINE
  5
438
330
36B
100
AcDbEntity
  8
1
  6
Continuous
100
AcDbLine
 10
386.606518
 20
222.15104
 30
0.0
 11
385.4004639999999
 21
234.15104
 31
0.0
  0
LINE
  5
439
330
36B
100
AcDbEntity
  8
1
  6
Continuous
100
AcDbLine
 10
385.588208
 20
222.2737509999999
 30
0.0
 11
384.326947
 21
234.273766
 31
0.0
  0
LINE
  5
43A
330
36B
100
AcDbEntity
  8
1
  6
Continuous
100
AcDbLine
 10
384.3947569999999
 20
222.148324
 30
0.0
 11
383.1334959999999
 21
234.148324
 31
0.0
  0
LINE
  5
43B
330
36B
100
AcDbEntity
  8
1
  6
Continuous
100
AcDbLine
 10
383.3749509999998
 20
222.2737659999999
 30
0.0
 11
382.1137209999998
 21
234.273766
 31
0.0
  0
LINE
  5
43C
330
36B
100
AcDbEntity
  8
1
  6
Continuous
100
AcDbLine
 10
382.1815609999999
 20
222.1483389999999
 30
0.0
 11
380.9203
 21
234.148339
 31
0.0
  0
LINE
  5
43D
330
36B
100
AcDbEntity
  8
1
  6
Continuous
100
AcDbLine
 10
385.1857729999999
 20
231.7110219999999
 30
0.0
 11
385.394971
 21
234.206063
 31
0.0
  0
LINE
  5
43E
330
36B
100
AcDbEntity
  8
1
  6
Continuous
100
AcDbLine
 10
385.589337
 20
222.1608970000001
 30
0.0
 11
385.803143
 21
224.711022
 31
0.0
  0
LINE
  5
43F
330
36B
100
AcDbEntity
  8
1
  6
Continuous
100
AcDbLine
 10
382.930005
 20
231.7110369999999
 30
0.0
 11
383.1320919999998
 21
234.258477
 31
0.0
  0
LINE
  5
440
330
36B
100
AcDbEntity
  8
1
  6
Continuous
100
AcDbLine
 10
383.376324
 20
222.1635669999999
 30
0.0
 11
383.5784119999999
 21
224.711007
 31
0.0
  0
LINE
  5
441
330
36B
100
AcDbEntity
  8
1
  6
Continuous
100
AcDbLine
 10
380.906659
 20
224.711037
 30
0.0
 11
381.9121819999999
 21
224.711037
 31
0.0
  0
LINE
  5
442
330
36B
100
AcDbEntity
  8
1
  6
Continuous
100
AcDbLine
 10
383.118786
 20
224.711037
 30
0.0
 11
384.1253779999998
 21
224.711037
 31
0.0
  0
LINE
  5
443
330
36B
100
AcDbEntity
  8
1
  6
Continuous
100
AcDbLine
 10
385.3319819999999
 20
224.711037
 30
0.0
 11
386.3492549999999
 21
224.711037
 31
0.0
  0
LINE
  5
444
330
36B
100
AcDbEntity
  8
1
  6
Continuous
100
AcDbLine
 10
382.3830689999999
 20
231.7110369999999
 30
0.0
 11
383.38966
 21
231.7110369999999
 31
0.0
  0
LINE
  5
445
330
36B
100
AcDbEntity
  8
1
  6
Continuous
100
AcDbLine
 10
384.596264
 20
231.7110369999999
 30
0.0
 11
385.6457329999998
 21
231.7110369999999
 31
0.0
  0
LINE
  5
446
330
36B
100
AcDbEntity
  8
1
  6
Continuous
100
AcDbLine
 10
387.55531
 20
224.711037
 30
0.0
 11
388.463849
 21
224.711037
 31
0.0
  0
LINE
  5
447
330
36B
100
AcDbEntity
  8
1
  6
Continuous
100
AcDbLine
 10
16.76384399999999
 20
237.711037
 30
0.0
 11
16.76384399999999
 21
218.711037
 31
0.0
  0
LINE
  5
448
330
36B
100
AcDbEntity
  8
1
  6
Continuous
100
AcDbLine
 10
387.263867
 20
234.2110369999998
 30
0.0
 11
387.263867
 21
227.611047
 31
0.0
  0
LINE
  5
449
330
36B
100
AcDbEntity
  8
1
  6
Continuous
100
AcDbLine
 10
386.851788
 20
231.7110369999999
 30
0.0
 11
387.263867
 21
231.7110369999999
 31
0.0
  0
LINE
  5
44A
330
36B
100
AcDbEntity
  8
1
  6
Continuous
100
AcDbLine
 10
387.9419679999998
 20
224.711037
 30
0.0
 11
387.802594
 21
222.178063
 31
0.0
  0
LINE
  5
44B
330
36B
100
AcDbEntity
  8
4
  6
CENTER
100
AcDbLine
 10
164.163861
 20
228.211037
 30
0.0
 11
108.4638489999999
 21
228.211037
 31
0.0
  0
LINE
  5
44C
330
36B
100
AcDbEntity
  8
1
  6
Continuous
100
AcDbLine
 10
113.4638489999999
 20
221.2110369999999
 30
0.0
 11
113.4638489999999
 21
235.211037
 31
0.0
  0
LINE
  5
44D
330
36B
100
AcDbEntity
  8
1
  6
Continuous
100
AcDbLine
 10
115.4638489999999
 20
221.2110369999999
 30
0.0
 11
115.4638489999999
 21
235.211037
 31
0.0
  0
LINE
  5
44E
330
36B
100
AcDbEntity
  8
1
  6
Continuous
100
AcDbLine
 10
115.4638489999999
 20
235.211037
 30
0.0
 11
113.4638489999999
 21
235.211037
 31
0.0
  0
LINE
  5
44F
330
36B
100
AcDbEntity
  8
1
  6
Continuous
100
AcDbLine
 10
115.4638489999999
 20
221.2110369999999
 30
0.0
 11
113.4638489999999
 21
221.2110369999999
 31
0.0
  0
LINE
  5
450
330
36B
100
AcDbEntity
  8
1
  6
Continuous
100
AcDbLine
 10
117.0759249999999
 20
231.7110369999999
 30
0.0
 11
117.333203
 21
234.271035
 31
0.0
  0
LINE
  5
451
330
36B
100
AcDbEntity
  8
1
  6
Continuous
100
AcDbLine
 10
117.321149
 20
222.15104
 30
0.0
 11
117.578442
 21
224.711037
 31
0.0
  0
LINE
  5
452
330
36B
100
AcDbEntity
  8
1
  6
Continuous
100
AcDbLine
 10
119.3314329999999
 20
231.7110529999999
 30
0.0
 11
119.600781
 21
234.2737509999998
 31
0.0
  0
LINE
  5
453
330
36B
100
AcDbEntity
  8
1
  6
Continuous
100
AcDbLine
 10
119.532956
 20
222.148324
 30
0.0
 11
119.802304
 21
224.711037
 31
0.0
  0
LINE
  5
454
330
36B
100
AcDbEntity
  8
1
  6
Continuous
100
AcDbLine
 10
121.544644
 20
231.7110219999999
 30
0.0
 11
121.814007
 21
234.2737509999998
 31
0.0
  0
LINE
  5
455
330
36B
100
AcDbEntity
  8
1
  6
Continuous
100
AcDbLine
 10
119.5388909999998
 20
222.204705
 30
0.0
 11
118.5327269999999
 21
234.206063
 31
0.0
  0
LINE
  5
456
330
36B
100
AcDbEntity
  8
1
  6
Continuous
100
AcDbLine
 10
118.338345
 20
222.160912
 30
0.0
 11
117.332287
 21
234.160912
 31
0.0
  0
LINE
  5
457
330
36B
100
AcDbEntity
  8
1
  6
Continuous
100
AcDbLine
 10
121.747586
 20
222.258477
 30
0.0
 11
120.7999999999999
 21
234.203332
 31
0.0
  0
LINE
  5
458
330
36B
100
AcDbEntity
  8
1
  6
Continuous
100
AcDbLine
 10
120.5513579999999
 20
222.1635829999999
 30
0.0
 11
119.599377
 21
234.1635829999999
 31
0.0
  0
LINE
  5
459
330
36B
100
AcDbEntity
  8
1
  6
Continuous
100
AcDbLine
 10
120.3492549999999
 20
224.711037
 30
0.0
 11
119.3287629999999
 21
224.711037
 31
0.0
  0
LINE
  5
45A
330
36B
100
AcDbEntity
  8
1
  6
Continuous
100
AcDbLine
 10
118.124554
 20
224.711037
 30
0.0
 11
117.187512
 21
224.711037
 31
0.0
  0
LINE
  5
45B
330
36B
100
AcDbEntity
  8
1
  6
Continuous
100
AcDbLine
 10
122.0008509999999
 20
231.7110369999999
 30
0.0
 11
120.997708
 21
231.7110369999999
 31
0.0
  0
LINE
  5
45C
330
36B
100
AcDbEntity
  8
1
  6
Continuous
100
AcDbLine
 10
119.7939419999999
 20
231.7110369999999
 30
0.0
 11
118.7418939999999
 21
231.7110369999999
 31
0.0
  0
LINE
  5
45D
330
36B
100
AcDbEntity
  8
1
  6
Continuous
100
AcDbLine
 10
115.985684
 20
224.711037
 30
0.0
 11
115.4638489999999
 21
224.711037
 31
0.0
  0
LINE
  5
45E
330
36B
100
AcDbEntity
  8
1
  6
Continuous
100
AcDbLine
 10
117.537701
 20
231.7110369999999
 30
0.0
 11
116.8023189999999
 21
231.7110369999999
 31
0.0
  0
LINE
  5
45F
330
36B
100
AcDbEntity
  8
1
  6
Continuous
100
AcDbLine
 10
115.4647639999998
 20
234.1780629999999
 30
0.0
 11
116.125058
 21
222.178063
 31
0.0
  0
LINE
  5
460
330
36B
100
AcDbEntity
  8
1
  6
Continuous
100
AcDbLine
 10
116.662945
 20
234.243996
 30
0.0
 11
117.3232389999999
 21
222.2439959999999
 31
0.0
  0
LINE
  5
461
330
36B
100
AcDbEntity
  8
1
  6
Continuous
100
AcDbLine
 10
387.264722
 20
234.243996
 30
0.0
 11
387.125348
 21
231.7110369999999
 31
0.0
  0
LINE
  5
462
330
36B
100
AcDbEntity
  8
1
  6
Continuous
100
AcDbLine
 10
122.7582669999998
 20
222.1635829999999
 30
0.0
 11
121.796857
 21
234.282418
 31
0.0
  0
LINE
  5
463
330
36B
100
AcDbEntity
  8
1
  6
Continuous
100
AcDbLine
 10
123.940701
 20
222.432458
 30
0.0
 11
122.9931
 21
234.3773119999999
 31
0.0
  0
LINE
  5
464
330
36B
100
AcDbEntity
  8
1
  6
Continuous
100
AcDbLine
 10
124.463849
 20
228.482903
 30
0.0
 11
124.013196
 21
234.1635829999999
 31
0.0
  0
LINE
  5
465
330
36B
100
AcDbEntity
  8
1
  6
Continuous
100
AcDbLine
 10
123.204632
 20
231.7110369999999
 30
0.0
 11
124.20776
 21
231.7110369999999
 31
0.0
  0
LINE
  5
466
330
36B
100
AcDbEntity
  8
1
  6
Continuous
100
AcDbLine
 10
121.553021
 20
224.711037
 30
0.0
 11
122.556164
 21
224.711037
 31
0.0
  0
LINE
  5
467
330
36B
100
AcDbEntity
  8
1
  6
Continuous
100
AcDbLine
 10
123.75993
 20
224.711037
 30
0.0
 11
124.463849
 21
224.711037
 31
0.0
  0
LINE
  5
468
330
36B
100
AcDbEntity
  8
1
  6
Continuous
100
AcDbLine
 10
121.7462129999999
 20
222.148629
 30
0.0
 11
122.014187
 21
224.711037
 31
0.0
  0
LINE
  5
469
330
36B
100
AcDbEntity
  8
1
  6
Continuous
100
AcDbLine
 10
123.746609
 20
231.7110369999999
 30
0.0
 11
124.014584
 21
234.2734459999999
 31
0.0
  0
LINE
  5
46A
330
36B
100
AcDbEntity
  8
1
  6
Continuous
100
AcDbLine
 10
124.221097
 20
224.711037
 30
0.0
 11
123.9531219999998
 21
222.148629
 31
0.0
  0
LINE
  5
46B
330
36B
100
AcDbEntity
  8
1
  6
Continuous
100
AcDbLine
 10
115.4638489999999
 20
231.7110369999999
 30
0.0
 11
115.600506
 21
231.7110369999999
 31
0.0
  0
LINE
  5
46C
330
36B
100
AcDbEntity
  8
4
  6
CENTER
100
AcDbLine
 10
233.463849
 20
313.211022
 30
0.0
 11
233.463849
 21
334.2110529999998
 31
0.0
  0
LINE
  5
46D
330
36B
100
AcDbEntity
  8
1
  6
Continuous
100
AcDbLine
 10
226.463849
 20
329.2110529999998
 30
0.0
 11
240.4638489999999
 21
329.2110529999998
 31
0.0
  0
LINE
  5
46E
330
36B
100
AcDbEntity
  8
1
  6
Continuous
100
AcDbLine
 10
226.463849
 20
327.2110529999999
 30
0.0
 11
240.4638489999999
 21
327.2110529999999
 31
0.0
  0
LINE
  5
46F
330
36B
100
AcDbEntity
  8
1
  6
Continuous
100
AcDbLine
 10
240.4638489999999
 20
327.2110529999999
 30
0.0
 11
240.4638489999999
 21
329.2110529999998
 31
0.0
  0
LINE
  5
470
330
36B
100
AcDbEntity
  8
1
  6
Continuous
100
AcDbLine
 10
226.463849
 20
327.2110529999999
 30
0.0
 11
226.463849
 21
329.2110529999998
 31
0.0
  0
LINE
  5
471
330
36B
100
AcDbEntity
  8
1
  6
Continuous
100
AcDbLine
 10
239.4038509999998
 20
326.008019
 30
0.0
 11
227.403851
 21
324.8019949999999
 31
0.0
  0
LINE
  5
472
330
36B
100
AcDbEntity
  8
1
  6
Continuous
100
AcDbLine
 10
239.5238459999999
 20
324.81405
 30
0.0
 11
227.523846
 21
323.608025
 31
0.0
  0
LINE
  5
473
330
36B
100
AcDbEntity
  8
1
  6
Continuous
100
AcDbLine
 10
239.4011349999999
 20
323.7956469999998
 30
0.0
 11
227.401181
 21
322.534417
 31
0.0
  0
LINE
  5
474
330
36B
100
AcDbEntity
  8
1
  6
Continuous
100
AcDbLine
 10
239.5265929999999
 20
322.602227
 30
0.0
 11
227.526608
 21
321.3409659999999
 31
0.0
  0
LINE
  5
475
330
36B
100
AcDbEntity
  8
1
  6
Continuous
100
AcDbLine
 10
239.4011659999999
 20
321.582421
 30
0.0
 11
227.4011659999999
 21
320.32116
 31
0.0
  0
LINE
  5
476
330
36B
100
AcDbEntity
  8
1
  6
Continuous
100
AcDbLine
 10
239.5265929999999
 20
320.3890309999998
 30
0.0
 11
227.526608
 21
319.12777
 31
0.0
  0
LINE
  5
477
330
36B
100
AcDbEntity
  8
1
  6
Continuous
100
AcDbLine
 10
239.4011659999999
 20
319.3692249999998
 30
0.0
 11
228.381787
 21
318.211022
 31
0.0
  0
LINE
  5
478
330
36B
100
AcDbEntity
  8
1
  6
Continuous
100
AcDbLine
 10
229.9638639999999
 20
323.393304
 30
0.0
 11
227.4137389999999
 21
323.6070789999998
 31
0.0
  0
LINE
  5
479
330
36B
100
AcDbEntity
  8
1
  6
Continuous
100
AcDbLine
 10
239.513989
 20
323.796868
 30
0.0
 11
236.963864
 21
324.010644
 31
0.0
  0
LINE
  5
47A
330
36B
100
AcDbEntity
  8
1
  6
Continuous
100
AcDbLine
 10
229.9638489999999
 20
321.137475
 30
0.0
 11
227.4164089999999
 21
321.339562
 31
0.0
  0
LINE
  5
47B
330
36B
100
AcDbEntity
  8
1
  6
Continuous
100
AcDbLine
 10
239.4561579999999
 20
321.5882189999998
 30
0.0
 11
236.963864
 21
321.7859429999998
 31
0.0
  0
LINE
  5
47C
330
36B
100
AcDbEntity
  8
1
  6
Continuous
100
AcDbLine
 10
229.9638639999999
 20
318.9242489999998
 30
0.0
 11
227.4164089999999
 21
319.126366
 31
0.0
  0
LINE
  5
47D
330
36B
100
AcDbEntity
  8
1
  6
Continuous
100
AcDbLine
 10
239.4561579999999
 20
319.374993
 30
0.0
 11
236.963849
 21
319.5726859999999
 31
0.0
  0
LINE
  5
47E
330
36B
100
AcDbEntity
  8
1
  6
Continuous
100
AcDbLine
 10
236.963849
 20
319.1130609999999
 30
0.0
 11
236.963849
 21
320.1196529999998
 31
0.0
  0
LINE
  5
47F
330
36B
100
AcDbEntity
  8
1
  6
Continuous
100
AcDbLine
 10
236.963849
 20
321.3262569999999
 30
0.0
 11
236.963849
 21
322.332879
 31
0.0
  0
LINE
  5
480
330
36B
100
AcDbEntity
  8
1
  6
Continuous
100
AcDbLine
 10
236.963849
 20
323.539513
 30
0.0
 11
236.963849
 21
324.5567859999998
 31
0.0
  0
LINE
  5
481
330
36B
100
AcDbEntity
  8
1
  6
Continuous
100
AcDbLine
 10
229.9638489999999
 20
318.377343
 30
0.0
 11
229.9638489999999
 21
319.383935
 31
0.0
  0
LINE
  5
482
330
36B
100
AcDbEntity
  8
1
  6
Continuous
100
AcDbLine
 10
229.9638489999999
 20
320.5905389999998
 30
0.0
 11
229.9638489999999
 21
321.5971609999999
 31
0.0
  0
LINE
  5
483
330
36B
100
AcDbEntity
  8
1
  6
Continuous
100
AcDbLine
 10
229.9638489999999
 20
322.803765
 30
0.0
 11
229.9638489999999
 21
323.8532339999999
 31
0.0
  0
LINE
  5
484
330
36B
100
AcDbEntity
  8
1
  6
Continuous
100
AcDbLine
 10
229.9638489999999
 20
325.059289
 30
0.0
 11
229.9638489999999
 21
326.0110399999998
 31
0.0
  0
LINE
  5
485
330
36B
100
AcDbEntity
  8
1
  6
Continuous
100
AcDbLine
 10
236.963849
 20
325.762811
 30
0.0
 11
236.963849
 21
326.0110399999998
 31
0.0
  0
LINE
  5
486
330
36B
100
AcDbEntity
  8
1
  6
Continuous
100
AcDbLine
 10
225.463849
 20
318.211022
 30
0.0
 11
270.4638489999999
 21
318.211022
 31
0.0
  0
LINE
  5
487
330
36B
100
AcDbEntity
  8
1
  6
Continuous
100
AcDbLine
 10
240.4638489999999
 20
310.211022
 30
0.0
 11
255.463849
 21
310.211022
 31
0.0
  0
LINE
  5
488
330
36B
100
AcDbEntity
  8
4
  6
CENTER
100
AcDbLine
 10
374.9638489999999
 20
237.41105
 30
0.0
 11
374.9638489999999
 21
224.341531
 31
0.0
  0
LINE
  5
489
330
36B
100
AcDbEntity
  8
1
  6
Continuous
100
AcDbLine
 10
377.639691
 20
234.258294
 30
0.0
 11
377.713818
 21
233.4110339999998
 31
0.0
  0
LINE
  5
48A
330
36B
100
AcDbEntity
  8
1
  6
Continuous
100
AcDbLine
 10
372.2879759999998
 20
234.2582629999998
 30
0.0
 11
372.2138489999999
 21
233.4110339999998
 31
0.0
  0
LINE
  5
48B
330
36B
100
AcDbEntity
  8
1
  6
Continuous
100
AcDbLine
 10
372.0138359999999
 20
233.4110499999999
 30
0.0
 11
377.9138299999999
 21
233.4110499999999
 31
0.0
  0
LINE
  5
48C
330
36B
100
AcDbEntity
  8
1
  6
Continuous
100
AcDbLine
 10
372.0138359999999
 20
233.4110499999999
 30
0.0
 11
372.0138359999999
 21
232.711037
 31
0.0
  0
LINE
  5
48D
330
36B
100
AcDbEntity
  8
1
  6
Continuous
100
AcDbLine
 10
377.9138299999999
 20
233.4110499999999
 30
0.0
 11
377.9138299999999
 21
232.711037
 31
0.0
  0
LINE
  5
48E
330
36B
100
AcDbEntity
  8
1
  6
Continuous
100
AcDbLine
 10
375.179883
 20
233.411019
 30
0.0
 11
375.3674439999999
 21
232.711037
 31
0.0
  0
LINE
  5
48F
330
36B
100
AcDbEntity
  8
1
  6
Continuous
100
AcDbLine
 10
374.47987
 20
233.4110649999999
 30
0.0
 11
374.667431
 21
232.711022
 31
0.0
  0
LINE
  5
490
330
36B
100
AcDbEntity
  8
1
  6
Continuous
100
AcDbLine
 10
371.9638489999999
 20
232.711037
 30
0.0
 11
377.9638489999999
 21
232.711037
 31
0.0
  0
LINE
  5
491
330
36B
100
AcDbEntity
  8
1
  6
Continuous
100
AcDbLine
 10
377.9638489999999
 20
232.711037
 30
0.0
 11
377.9638489999999
 21
232.211037
 31
0.0
  0
LINE
  5
492
330
36B
100
AcDbEntity
  8
1
  6
Continuous
100
AcDbLine
 10
371.9638489999999
 20
232.711037
 30
0.0
 11
371.9638489999999
 21
232.211037
 31
0.0
  0
LINE
  5
493
330
36B
100
AcDbEntity
  8
1
  6
Continuous
100
AcDbLine
 10
274.4638489999999
 20
142.6110469999999
 30
0.0
 11
274.4638489999999
 21
126.211037
 31
0.0
  0
LINE
  5
494
330
36B
100
AcDbEntity
  8
1
  6
Continuous
100
AcDbLine
 10
255.463849
 20
126.211037
 30
0.0
 11
255.463849
 21
118.2110369999999
 31
0.0
  0
LINE
  5
495
330
36B
100
AcDbEntity
  8
1
  6
Continuous
100
AcDbLine
 10
263.4638489999999
 20
126.211037
 30
0.0
 11
263.4638489999999
 21
118.2110369999999
 31
0.0
  0
LINE
  5
496
330
36B
100
AcDbEntity
  8
1
  6
Continuous
100
AcDbLine
 10
274.4638489999999
 20
126.211037
 30
0.0
 11
270.4638489999999
 21
118.2110369999999
 31
0.0
  0
LINE
  5
497
330
36B
100
AcDbEntity
  8
1
  6
Continuous
100
AcDbLine
 10
263.4638489999999
 20
126.211037
 30
0.0
 11
274.4638489999999
 21
126.211037
 31
0.0
  0
LINE
  5
498
330
36B
100
AcDbEntity
  8
1
  6
Continuous
100
AcDbLine
 10
255.9892089999999
 20
134.601662
 30
0.0
 11
257.555432
 21
134.601662
 31
0.0
  0
LINE
  5
499
330
36B
100
AcDbEntity
  8
1
  6
Continuous
100
AcDbLine
 10
257.880719
 20
135.8329699999998
 30
0.0
 11
258.663922
 21
135.8329699999998
 31
0.0
  0
LINE
  5
49A
330
36B
100
AcDbEntity
  8
1
  6
Continuous
100
AcDbLine
 10
253.492291
 20
137.0829699999999
 30
0.0
 11
255.4610409999999
 21
137.0829699999999
 31
0.0
  0
LINE
  5
49B
330
36B
100
AcDbEntity
  8
1
  6
Continuous
100
AcDbLine
 10
254.472333
 20
137.0829699999999
 30
0.0
 11
254.472333
 21
134.5829699999999
 31
0.0
  0
LINE
  5
49C
330
36B
100
AcDbEntity
  8
1
  6
Continuous
100
AcDbLine
 10
255.9892089999999
 20
137.1016779999999
 30
0.0
 11
255.9892089999999
 21
134.601662
 31
0.0
  0
LINE
  5
49D
330
36B
100
AcDbEntity
  8
1
  6
Continuous
100
AcDbLine
 10
250.5857359999999
 20
135.3537219999997
 30
0.0
 11
251.9489259999998
 21
135.3537219999997
 31
0.0
  0
LINE
  5
49E
330
36B
100
AcDbEntity
  8
1
  6
Continuous
100
AcDbLine
 10
251.278668
 20
137.160851
 30
0.0
 11
252.2252619999999
 21
134.601937
 31
0.0
  0
LINE
  5
49F
330
36B
100
AcDbEntity
  8
1
  6
Continuous
100
AcDbLine
 10
242.247723
 20
135.906335
 30
0.0
 11
243.869
 21
135.906335
 31
0.0
  0
LINE
  5
4A0
330
36B
100
AcDbEntity
  8
1
  6
Continuous
100
AcDbLine
 10
235.963666
 20
137.1110469999998
 30
0.0
 11
235.963666
 21
134.6110469999999
 31
0.0
  0
LINE
  5
4A1
330
36B
100
AcDbEntity
  8
1
  6
Continuous
100
AcDbLine
 10
234.949139
 20
137.1110469999998
 30
0.0
 11
236.9871639999999
 21
137.1110469999998
 31
0.0
  0
LINE
  5
4A2
330
36B
100
AcDbEntity
  8
1
  6
Continuous
100
AcDbLine
 10
242.247723
 20
137.21975
 30
0.0
 11
242.247723
 21
134.59295
 31
0.0
  0
LINE
  5
4A3
330
36B
100
AcDbEntity
  8
1
  6
Continuous
100
AcDbLine
 10
246.394818
 20
135.779534
 30
0.0
 11
247.273419
 21
135.779534
 31
0.0
  0
LINE
  5
4A4
330
36B
100
AcDbEntity
  8
1
  6
Continuous
100
AcDbLine
 10
243.869
 20
137.21975
 30
0.0
 11
243.869
 21
134.59295
 31
0.0
  0
LINE
  5
4A5
330
36B
100
AcDbEntity
  8
1
  6
Continuous
100
AcDbLine
 10
244.747723
 20
137.21975
 30
0.0
 11
244.747723
 21
134.59295
 31
0.0
  0
LINE
  5
4A6
330
36B
100
AcDbEntity
  8
1
  6
Continuous
100
AcDbLine
 10
251.278638
 20
137.15635
 30
0.0
 11
250.286847
 21
134.601952
 31
0.0
  0
LINE
  5
4A7
330
36B
100
AcDbEntity
  8
1
  6
Continuous
100
AcDbLine
 10
249.546246
 20
135.7704399999998
 30
0.0
 11
249.546246
 21
134.59295
 31
0.0
  0
LINE
  5
4A8
330
36B
100
AcDbEntity
  8
1
  6
Continuous
100
AcDbLine
 10
247.273419
 20
135.406945
 30
0.0
 11
247.273419
 21
134.6110469999999
 31
0.0
  0
LINE
  5
4A9
330
36B
100
AcDbEntity
  8
1
  6
Continuous
100
AcDbLine
 10
247.9980279999999
 20
137.21975
 30
0.0
 11
247.9980279999999
 21
134.59295
 31
0.0
  0
LINE
  5
4AA
330
36B
100
AcDbEntity
  8
1
  6
Continuous
100
AcDbLine
 10
249.546246
 20
135.7704249999999
 30
0.0
 11
250.394543
 21
137.2396169999998
 31
0.0
  0
LINE
  5
4AB
330
36B
100
AcDbEntity
  8
1
  6
Continuous
100
AcDbLine
 10
249.546246
 20
135.7749409999998
 30
0.0
 11
248.704144
 21
137.238046
 31
0.0
  0
LINE
  5
4AC
330
36B
100
AcDbEntity
  8
1
  6
Continuous
100
AcDbLine
 10
259.310193
 20
134.602624
 30
0.0
 11
260.6171079999999
 21
135.969018
 31
0.0
  0
LINE
  5
4AD
330
36B
100
AcDbEntity
  8
1
  6
Continuous
100
AcDbLine
 10
261.6849179999999
 20
136.3704149999998
 30
0.0
 11
261.6849179999999
 21
135.4006889999998
 31
0.0
  0
LINE
  5
4AE
330
36B
100
AcDbEntity
  8
1
  6
Continuous
100
AcDbLine
 10
264.02406
 20
136.381234
 30
0.0
 11
264.02406
 21
135.4114919999998
 31
0.0
  0
LINE
  5
4AF
330
36B
100
AcDbEntity
  8
1
  6
Continuous
100
AcDbLine
 10
265.505292
 20
136.381234
 30
0.0
 11
265.505292
 21
135.4114919999998
 31
0.0
  0
LINE
  5
4B0
330
36B
100
AcDbEntity
  8
1
  6
Continuous
100
AcDbLine
 10
259.3102229999999
 20
134.602624
 30
0.0
 11
260.7941399999999
 21
134.602624
 31
0.0
  0
LINE
  5
4B1
330
36B
100
AcDbEntity
  8
1
  6
Continuous
100
AcDbLine
 10
274.4638489999999
 20
310.211022
 30
0.0
 11
274.4638489999999
 21
293.8110589999999
 31
0.0
  0
LINE
  5
4B2
330
36B
100
AcDbEntity
  8
1
  6
Continuous
100
AcDbLine
 10
255.463849
 20
310.211022
 30
0.0
 11
255.463849
 21
318.211022
 31
0.0
  0
LINE
  5
4B3
330
36B
100
AcDbEntity
  8
1
  6
Continuous
100
AcDbLine
 10
263.4638489999999
 20
310.211022
 30
0.0
 11
263.4638489999999
 21
318.211022
 31
0.0
  0
LINE
  5
4B4
330
36B
100
AcDbEntity
  8
1
  6
Continuous
100
AcDbLine
 10
263.4638489999999
 20
310.211022
 30
0.0
 11
274.4638489999999
 21
310.211022
 31
0.0
  0
LINE
  5
4B5
330
36B
100
AcDbEntity
  8
1
  6
Continuous
100
AcDbLine
 10
270.463879
 20
318.211053
 30
0.0
 11
274.463879
 21
310.211053
 31
0.0
  0
LINE
  5
4B6
330
36B
100
AcDbEntity
  8
1
  6
Continuous
100
AcDbLine
 10
227.463849
 20
326.0110399999998
 30
0.0
 11
239.463849
 21
326.0110399999998
 31
0.0
  0
LINE
  5
4B7
330
36B
100
AcDbEntity
  8
4
  6
CENTER
100
AcDbLine
 10
12.544789
 20
234.2110369999998
 30
0.0
 11
24.633412
 21
234.2110369999998
 31
0.0
  0
LINE
  5
4B8
330
36B
100
AcDbEntity
  8
1
  6
Continuous
100
AcDbLine
 10
19.063893
 20
232.711037
 30
0.0
 11
23.563893
 21
232.711037
 31
0.0
  0
LINE
  5
4B9
330
36B
100
AcDbEntity
  8
1
  6
Continuous
100
AcDbLine
 10
19.063893
 20
235.711037
 30
0.0
 11
23.563893
 21
235.711037
 31
0.0
  0
LINE
  5
4BA
330
36B
100
AcDbEntity
  8
2
  6
Continuous
100
AcDbLine
 10
19.063893
 20
235.4405299999999
 30
0.0
 11
23.563893
 21
235.4405299999999
 31
0.0
  0
LINE
  5
4BB
330
36B
100
AcDbEntity
  8
2
  6
Continuous
100
AcDbLine
 10
19.063893
 20
232.981545
 30
0.0
 11
23.563893
 21
232.981545
 31
0.0
  0
LINE
  5
4BC
330
36B
100
AcDbEntity
  8
1
  6
Continuous
100
AcDbLine
 10
14.716637
 20
231.535226
 30
0.0
 11
15.563836
 21
231.4610979999999
 31
0.0
  0
LINE
  5
4BD
330
36B
100
AcDbEntity
  8
1
  6
Continuous
100
AcDbLine
 10
14.716607
 20
236.886864
 30
0.0
 11
15.563897
 21
236.960992
 31
0.0
  0
LINE
  5
4BE
330
36B
100
AcDbEntity
  8
1
  6
Continuous
100
AcDbLine
 10
23.563893
 20
235.711037
 30
0.0
 11
23.563893
 21
232.711037
 31
0.0
  0
LINE
  5
4BF
330
36B
100
AcDbEntity
  8
1
  6
Continuous
100
AcDbLine
 10
15.563893
 20
237.16105
 30
0.0
 11
15.563893
 21
231.261025
 31
0.0
  0
LINE
  5
4C0
330
36B
100
AcDbEntity
  8
1
  6
Continuous
100
AcDbLine
 10
15.563893
 20
237.16105
 30
0.0
 11
16.263844
 21
237.16105
 31
0.0
  0
LINE
  5
4C1
330
36B
100
AcDbEntity
  8
1
  6
Continuous
100
AcDbLine
 10
15.563893
 20
231.261025
 30
0.0
 11
16.263844
 21
231.261025
 31
0.0
  0
LINE
  5
4C2
330
36B
100
AcDbEntity
  8
1
  6
Continuous
100
AcDbLine
 10
15.563862
 20
234.42701
 30
0.0
 11
16.26383999999999
 21
234.614571
 31
0.0
  0
LINE
  5
4C3
330
36B
100
AcDbEntity
  8
1
  6
Continuous
100
AcDbLine
 10
15.563817
 20
233.727044
 30
0.0
 11
16.263852
 21
233.914605
 31
0.0
  0
LINE
  5
4C4
330
36B
100
AcDbEntity
  8
1
  6
Continuous
100
AcDbLine
 10
16.263844
 20
237.211037
 30
0.0
 11
16.263844
 21
231.211037
 31
0.0
  0
LINE
  5
4C5
330
36B
100
AcDbEntity
  8
1
  6
Continuous
100
AcDbLine
 10
16.263844
 20
231.211037
 30
0.0
 11
16.76384399999999
 21
231.211037
 31
0.0
  0
LINE
  5
4C6
330
36B
100
AcDbEntity
  8
1
  6
Continuous
100
AcDbLine
 10
16.263844
 20
237.211037
 30
0.0
 11
16.76384399999999
 21
237.211037
 31
0.0
  0
LINE
  5
4C7
330
36B
100
AcDbEntity
  8
4
  6
CENTER
100
AcDbLine
 10
12.544789
 20
222.211037
 30
0.0
 11
24.633412
 21
222.211037
 31
0.0
  0
LINE
  5
4C8
330
36B
100
AcDbEntity
  8
1
  6
Continuous
100
AcDbLine
 10
19.063893
 20
220.711037
 30
0.0
 11
23.563893
 21
220.711037
 31
0.0
  0
LINE
  5
4C9
330
36B
100
AcDbEntity
  8
1
  6
Continuous
100
AcDbLine
 10
19.063893
 20
223.7110369999999
 30
0.0
 11
23.563893
 21
223.7110369999999
 31
0.0
  0
LINE
  5
4CA
330
36B
100
AcDbEntity
  8
2
  6
Continuous
100
AcDbLine
 10
19.063893
 20
223.44053
 30
0.0
 11
23.563893
 21
223.44053
 31
0.0
  0
LINE
  5
4CB
330
36B
100
AcDbEntity
  8
2
  6
Continuous
100
AcDbLine
 10
19.063893
 20
220.981545
 30
0.0
 11
23.563893
 21
220.981545
 31
0.0
  0
LINE
  5
4CC
330
36B
100
AcDbEntity
  8
1
  6
Continuous
100
AcDbLine
 10
14.71660299999999
 20
219.53521
 30
0.0
 11
15.563832
 21
219.461083
 31
0.0
  0
LINE
  5
4CD
330
36B
100
AcDbEntity
  8
1
  6
Continuous
100
AcDbLine
 10
14.716637
 20
224.8868799999999
 30
0.0
 11
15.563866
 21
224.961007
 31
0.0
  0
LINE
  5
4CE
330
36B
100
AcDbEntity
  8
1
  6
Continuous
100
AcDbLine
 10
23.563893
 20
223.7110369999999
 30
0.0
 11
23.563893
 21
220.711037
 31
0.0
  0
LINE
  5
4CF
330
36B
100
AcDbEntity
  8
1
  6
Continuous
100
AcDbLine
 10
15.563893
 20
225.1610499999999
 30
0.0
 11
15.563893
 21
219.2610249999999
 31
0.0
  0
LINE
  5
4D0
330
36B
100
AcDbEntity
  8
1
  6
Continuous
100
AcDbLine
 10
15.563893
 20
225.1610499999999
 30
0.0
 11
16.263844
 21
225.1610499999999
 31
0.0
  0
LINE
  5
4D1
330
36B
100
AcDbEntity
  8
1
  6
Continuous
100
AcDbLine
 10
15.563893
 20
219.2610249999999
 30
0.0
 11
16.263844
 21
219.2610249999999
 31
0.0
  0
LINE
  5
4D2
330
36B
100
AcDbEntity
  8
1
  6
Continuous
100
AcDbLine
 10
15.563855
 20
222.4270259999999
 30
0.0
 11
16.26383299999999
 21
222.6145869999998
 31
0.0
  0
LINE
  5
4D3
330
36B
100
AcDbEntity
  8
1
  6
Continuous
100
AcDbLine
 10
15.56381299999999
 20
221.727013
 30
0.0
 11
16.263852
 21
221.91459
 31
0.0
  0
LINE
  5
4D4
330
36B
100
AcDbEntity
  8
1
  6
Continuous
100
AcDbLine
 10
16.263844
 20
225.211037
 30
0.0
 11
16.263844
 21
219.2110369999999
 31
0.0
  0
LINE
  5
4D5
330
36B
100
AcDbEntity
  8
1
  6
Continuous
100
AcDbLine
 10
16.263844
 20
219.2110369999999
 30
0.0
 11
16.76384399999999
 21
219.2110369999999
 31
0.0
  0
LINE
  5
4D6
330
36B
100
AcDbEntity
  8
1
  6
Continuous
100
AcDbLine
 10
16.263844
 20
225.211037
 30
0.0
 11
16.76384399999999
 21
225.211037
 31
0.0
  0
LINE
  5
4D7
330
36B
100
AcDbEntity
  8
1
  6
Continuous
100
AcDbLine
 10
124.463849
 20
237.211037
 30
0.0
 11
124.463849
 21
219.2110369999999
 31
0.0
  0
LINE
  5
4D8
330
36B
100
AcDbEntity
  8
1
  6
Continuous
100
AcDbLine
 10
43.463856
 20
240.011025
 30
0.0
 11
43.463856
 21
237.711037
 31
0.0
  0
LINE
  5
4D9
330
36B
100
AcDbEntity
  8
1
  6
Continuous
100
AcDbLine
 10
43.463856
 20
218.711037
 30
0.0
 11
43.463856
 21
216.4110189999999
 31
0.0
  0
LINE
  5
4DA
330
36B
100
AcDbEntity
  8
1
  6
Continuous
100
AcDbLine
 10
601.039715
 20
234.2582629999998
 30
0.0
 11
601.1138120000001
 21
233.4110499999999
 31
0.0
  0
LINE
  5
4DB
330
36B
100
AcDbEntity
  8
1
  6
Continuous
100
AcDbLine
 10
597.863873
 20
232.711037
 30
0.0
 11
601.363873
 21
232.711037
 31
0.0
  0
LINE
  5
4DC
330
36B
100
AcDbEntity
  8
1
  6
Continuous
100
AcDbLine
 10
597.863873
 20
233.4110339999998
 30
0.0
 11
601.3138849999998
 21
233.4110339999998
 31
0.0
  0
LINE
  5
4DD
330
36B
100
AcDbEntity
  8
1
  6
Continuous
100
AcDbLine
 10
601.3138849999998
 20
233.4110339999998
 30
0.0
 11
601.3138849999998
 21
232.711037
 31
0.0
  0
LINE
  5
4DE
330
36B
100
AcDbEntity
  8
1
  6
Continuous
100
AcDbLine
 10
598.579877
 20
233.4110339999998
 30
0.0
 11
598.7674379999997
 21
232.711053
 31
0.0
  0
LINE
  5
4DF
330
36B
100
AcDbEntity
  8
1
  6
Continuous
100
AcDbLine
 10
597.8799249999997
 20
233.4110949999999
 30
0.0
 11
598.067486
 21
232.711053
 31
0.0
  0
LINE
  5
4E0
330
36B
100
AcDbEntity
  8
1
  6
Continuous
100
AcDbLine
 10
601.363873
 20
232.711037
 30
0.0
 11
601.363873
 21
232.211037
 31
0.0
  0
LINE
  5
4E1
330
36B
100
AcDbEntity
  8
1
  6
Continuous
100
AcDbLine
 10
379.463849
 20
237.211037
 30
0.0
 11
379.463849
 21
219.2110369999999
 31
0.0
  0
LINE
  5
4E2
330
36B
100
AcDbEntity
  8
1
  6
Continuous
100
AcDbLine
 10
381.162854
 20
222.2737659999999
 30
0.0
 11
379.9016229999998
 21
234.273766
 31
0.0
  0
LINE
  5
4E3
330
36B
100
AcDbEntity
  8
1
  6
Continuous
100
AcDbLine
 10
379.9694329999999
 20
222.1483389999999
 30
0.0
 11
379.463849
 21
226.9584129999998
 31
0.0
  0
LINE
  5
4E4
330
36B
100
AcDbEntity
  8
1
  6
Continuous
100
AcDbLine
 10
380.9188349999999
 20
234.2584309999999
 30
0.0
 11
380.7169609999998
 21
231.7110219999999
 31
0.0
  0
LINE
  5
4E5
330
36B
100
AcDbEntity
  8
1
  6
Continuous
100
AcDbLine
 10
381.3660699999999
 20
224.711037
 30
0.0
 11
381.164227
 21
222.1636279999999
 31
0.0
  0
LINE
  5
4E6
330
36B
100
AcDbEntity
  8
1
  6
Continuous
100
AcDbLine
 10
380.170941
 20
231.7110369999999
 30
0.0
 11
381.1764339999998
 21
231.7110369999999
 31
0.0
  0
LINE
  5
4E7
330
36B
100
AcDbEntity
  8
1
  6
Continuous
100
AcDbLine
 10
379.463849
 20
224.711037
 30
0.0
 11
379.7000549999999
 21
224.711037
 31
0.0
  0
LINE
  5
4E8
330
36B
100
AcDbEntity
  8
4
  6
CENTER
100
AcDbLine
 10
259.4638489999999
 20
403.1110469999998
 30
0.0
 11
259.4638489999999
 21
363.211022
 31
0.0
  0
LINE
  5
4E9
330
36B
100
AcDbEntity
  8
1
  6
Continuous
100
AcDbLine
 10
262.13966
 20
396.958306
 30
0.0
 11
262.2137879999999
 21
396.1110469999999
 31
0.0
  0
LINE
  5
4EA
330
36B
100
AcDbEntity
  8
1
  6
Continuous
100
AcDbLine
 10
256.7879759999998
 20
396.9582759999998
 30
0.0
 11
256.713849
 21
396.1110469999999
 31
0.0
  0
LINE
  5
4EB
330
36B
100
AcDbEntity
  8
1
  6
Continuous
100
AcDbLine
 10
256.5138359999999
 20
396.1110469999999
 30
0.0
 11
262.413861
 21
396.1110469999999
 31
0.0
  0
LINE
  5
4EC
330
36B
100
AcDbEntity
  8
1
  6
Continuous
100
AcDbLine
 10
256.5138359999999
 20
396.1110469999999
 30
0.0
 11
256.5138359999999
 21
395.4110339999999
 31
0.0
  0
LINE
  5
4ED
330
36B
100
AcDbEntity
  8
1
  6
Continuous
100
AcDbLine
 10
262.413861
 20
396.1110469999999
 30
0.0
 11
262.413861
 21
395.4110339999999
 31
0.0
  0
LINE
  5
4EE
330
36B
100
AcDbEntity
  8
1
  6
Continuous
100
AcDbLine
 10
259.6798519999999
 20
396.1110469999999
 30
0.0
 11
259.867413
 21
395.411065
 31
0.0
  0
LINE
  5
4EF
330
36B
100
AcDbEntity
  8
1
  6
Continuous
100
AcDbLine
 10
258.9798399999998
 20
396.111077
 30
0.0
 11
259.167431
 21
395.4110339999999
 31
0.0
  0
LINE
  5
4F0
330
36B
100
AcDbEntity
  8
1
  6
Continuous
100
AcDbLine
 10
256.4638489999999
 20
395.4110339999999
 30
0.0
 11
262.4638489999999
 21
395.4110339999999
 31
0.0
  0
LINE
  5
4F1
330
36B
100
AcDbEntity
  8
1
  6
Continuous
100
AcDbLine
 10
262.4638489999999
 20
395.4110339999999
 30
0.0
 11
262.4638489999999
 21
394.9110339999998
 31
0.0
  0
LINE
  5
4F2
330
36B
100
AcDbEntity
  8
1
  6
Continuous
100
AcDbLine
 10
256.4638489999999
 20
395.4110339999999
 30
0.0
 11
256.4638489999999
 21
394.9110339999998
 31
0.0
  0
LINE
  5
4F3
330
36B
100
AcDbEntity
  8
1
  6
Continuous
100
AcDbLine
 10
460.463849
 20
240.011025
 30
0.0
 11
460.463849
 21
237.711037
 31
0.0
  0
LINE
  5
4F4
330
36B
100
AcDbEntity
  8
1
  6
Continuous
100
AcDbLine
 10
460.463849
 20
218.711037
 30
0.0
 11
460.463849
 21
216.4110189999999
 31
0.0
  0
LINE
  5
4F5
330
36B
100
AcDbEntity
  8
1
  6
Continuous
100
AcDbLine
 10
567.863873
 20
224.211037
 30
0.0
 11
565.3638729999999
 21
224.211037
 31
0.0
  0
LINE
  5
4F6
330
36B
100
AcDbEntity
  8
1
  6
Continuous
100
AcDbLine
 10
567.863873
 20
232.211037
 30
0.0
 11
565.3638729999999
 21
232.211037
 31
0.0
  0
LINE
  5
4F7
330
36B
100
AcDbEntity
  8
1
  6
Continuous
100
AcDbLine
 10
565.3638729999999
 20
232.211037
 30
0.0
 11
565.3638729999999
 21
224.211037
 31
0.0
  0
LINE
  5
4F8
330
36B
100
AcDbEntity
  8
1
  6
Continuous
100
AcDbLine
 10
487.163861
 20
237.711037
 30
0.0
 11
487.163861
 21
218.711037
 31
0.0
  0
LINE
  5
4F9
330
36B
100
AcDbEntity
  8
1
  6
Continuous
100
AcDbLine
 10
484.863812
 20
237.711037
 30
0.0
 11
484.863812
 21
218.711037
 31
0.0
  0
LINE
  5
4FA
330
36B
100
AcDbEntity
  8
1
  6
Continuous
100
AcDbLine
 10
460.463849
 20
237.711037
 30
0.0
 11
484.863812
 21
237.711037
 31
0.0
  0
LINE
  5
4FB
330
36B
100
AcDbEntity
  8
1
  6
Continuous
100
AcDbLine
 10
460.463849
 20
218.711037
 30
0.0
 11
484.863812
 21
218.711037
 31
0.0
  0
LINE
  5
4FC
330
36B
100
AcDbEntity
  8
4
  6
CENTER
100
AcDbLine
 10
491.382916
 20
234.2110369999998
 30
0.0
 11
479.294354
 21
234.2110369999998
 31
0.0
  0
LINE
  5
4FD
330
36B
100
AcDbEntity
  8
1
  6
Continuous
100
AcDbLine
 10
484.863812
 20
232.711037
 30
0.0
 11
480.363812
 21
232.711037
 31
0.0
  0
LINE
  5
4FE
330
36B
100
AcDbEntity
  8
1
  6
Continuous
100
AcDbLine
 10
484.863812
 20
235.711037
 30
0.0
 11
480.363812
 21
235.711037
 31
0.0
  0
LINE
  5
4FF
330
36B
100
AcDbEntity
  8
2
  6
Continuous
100
AcDbLine
 10
484.863812
 20
235.44056
 30
0.0
 11
480.363812
 21
235.44056
 31
0.0
  0
LINE
  5
500
330
36B
100
AcDbEntity
  8
2
  6
Continuous
100
AcDbLine
 10
484.863812
 20
232.981545
 30
0.0
 11
480.363812
 21
232.981545
 31
0.0
  0
LINE
  5
501
330
36B
100
AcDbEntity
  8
1
  6
Continuous
100
AcDbLine
 10
489.2111019999998
 20
231.53521
 30
0.0
 11
488.363873
 21
231.4610979999999
 31
0.0
  0
LINE
  5
502
330
36B
100
AcDbEntity
  8
1
  6
Continuous
100
AcDbLine
 10
489.2110719999998
 20
236.8868949999999
 30
0.0
 11
488.3638429999998
 21
236.961022
 31
0.0
  0
LINE
  5
503
330
36B
100
AcDbEntity
  8
1
  6
Continuous
100
AcDbLine
 10
480.363812
 20
235.711037
 30
0.0
 11
480.363812
 21
232.711037
 31
0.0
  0
LINE
  5
504
330
36B
100
AcDbEntity
  8
1
  6
Continuous
100
AcDbLine
 10
488.3638119999998
 20
237.16105
 30
0.0
 11
488.3638119999998
 21
231.2610559999999
 31
0.0
  0
LINE
  5
505
330
36B
100
AcDbEntity
  8
1
  6
Continuous
100
AcDbLine
 10
488.3638119999998
 20
237.16105
 30
0.0
 11
487.663861
 21
237.16105
 31
0.0
  0
LINE
  5
506
330
36B
100
AcDbEntity
  8
1
  6
Continuous
100
AcDbLine
 10
488.3638119999998
 20
231.2610559999999
 30
0.0
 11
487.663861
 21
231.2610559999999
 31
0.0
  0
LINE
  5
507
330
36B
100
AcDbEntity
  8
1
  6
Continuous
100
AcDbLine
 10
488.363782
 20
233.9950339999998
 30
0.0
 11
487.6637999999998
 21
233.8074729999999
 31
0.0
  0
LINE
  5
508
330
36B
100
AcDbEntity
  8
1
  6
Continuous
100
AcDbLine
 10
488.3638429999998
 20
234.6950459999999
 30
0.0
 11
487.6637999999998
 21
234.50747
 31
0.0
  0
LINE
  5
509
330
36B
100
AcDbEntity
  8
1
  6
Continuous
100
AcDbLine
 10
487.663861
 20
237.211037
 30
0.0
 11
487.663861
 21
231.211037
 31
0.0
  0
LINE
  5
50A
330
36B
100
AcDbEntity
  8
1
  6
Continuous
100
AcDbLine
 10
487.663861
 20
231.211037
 30
0.0
 11
487.163861
 21
231.211037
 31
0.0
  0
LINE
  5
50B
330
36B
100
AcDbEntity
  8
1
  6
Continuous
100
AcDbLine
 10
487.663861
 20
237.211037
 30
0.0
 11
487.163861
 21
237.211037
 31
0.0
  0
LINE
  5
50C
330
36B
100
AcDbEntity
  8
4
  6
CENTER
100
AcDbLine
 10
491.382916
 20
222.211037
 30
0.0
 11
479.294354
 21
222.211037
 31
0.0
  0
LINE
  5
50D
330
36B
100
AcDbEntity
  8
1
  6
Continuous
100
AcDbLine
 10
484.863812
 20
220.711037
 30
0.0
 11
480.363812
 21
220.711037
 31
0.0
  0
LINE
  5
50E
330
36B
100
AcDbEntity
  8
1
  6
Continuous
100
AcDbLine
 10
484.863812
 20
223.7110369999999
 30
0.0
 11
480.363812
 21
223.7110369999999
 31
0.0
  0
LINE
  5
50F
330
36B
100
AcDbEntity
  8
2
  6
Continuous
100
AcDbLine
 10
484.863812
 20
223.44053
 30
0.0
 11
480.363812
 21
223.44053
 31
0.0
  0
LINE
  5
510
330
36B
100
AcDbEntity
  8
2
  6
Continuous
100
AcDbLine
 10
484.863812
 20
220.981545
 30
0.0
 11
480.363812
 21
220.981545
 31
0.0
  0
LINE
  5
511
330
36B
100
AcDbEntity
  8
1
  6
Continuous
100
AcDbLine
 10
489.211163
 20
219.53521
 30
0.0
 11
488.363934
 21
219.461083
 31
0.0
  0
LINE
  5
512
330
36B
100
AcDbEntity
  8
1
  6
Continuous
100
AcDbLine
 10
489.2110719999998
 20
224.8868799999999
 30
0.0
 11
488.3638429999998
 21
224.961007
 31
0.0
  0
LINE
  5
513
330
36B
100
AcDbEntity
  8
1
  6
Continuous
100
AcDbLine
 10
480.363812
 20
223.7110369999999
 30
0.0
 11
480.363812
 21
220.711037
 31
0.0
  0
LINE
  5
514
330
36B
100
AcDbEntity
  8
1
  6
Continuous
100
AcDbLine
 10
488.3638119999998
 20
225.1610499999999
 30
0.0
 11
488.3638119999998
 21
219.2610249999999
 31
0.0
  0
LINE
  5
515
330
36B
100
AcDbEntity
  8
1
  6
Continuous
100
AcDbLine
 10
488.3638119999998
 20
225.1610499999999
 30
0.0
 11
487.663861
 21
225.1610499999999
 31
0.0
  0
LINE
  5
516
330
36B
100
AcDbEntity
  8
1
  6
Continuous
100
AcDbLine
 10
488.3638119999998
 20
219.2610249999999
 30
0.0
 11
487.663861
 21
219.2610249999999
 31
0.0
  0
LINE
  5
517
330
36B
100
AcDbEntity
  8
1
  6
Continuous
100
AcDbLine
 10
488.363782
 20
221.9950489999999
 30
0.0
 11
487.6637999999998
 21
221.8074879999999
 31
0.0
  0
LINE
  5
518
330
36B
100
AcDbEntity
  8
1
  6
Continuous
100
AcDbLine
 10
488.3638429999998
 20
222.6950309999998
 30
0.0
 11
487.6637999999998
 21
222.5074549999999
 31
0.0
  0
LINE
  5
519
330
36B
100
AcDbEntity
  8
1
  6
Continuous
100
AcDbLine
 10
487.663861
 20
225.211037
 30
0.0
 11
487.663861
 21
219.2110369999999
 31
0.0
  0
LINE
  5
51A
330
36B
100
AcDbEntity
  8
1
  6
Continuous
100
AcDbLine
 10
487.663861
 20
219.2110369999999
 30
0.0
 11
487.163861
 21
219.2110369999999
 31
0.0
  0
LINE
  5
51B
330
36B
100
AcDbEntity
  8
1
  6
Continuous
100
AcDbLine
 10
487.663861
 20
225.211037
 30
0.0
 11
487.163861
 21
225.211037
 31
0.0
  0
LINE
  5
51C
330
36B
100
AcDbEntity
  8
1
  6
Continuous
100
AcDbLine
 10
349.763867
 20
236.2110369999999
 30
0.0
 11
346.7638669999999
 21
236.2110369999999
 31
0.0
  0
LINE
  5
51D
330
36B
100
AcDbEntity
  8
1
  6
Continuous
100
AcDbLine
 10
349.763867
 20
220.211037
 30
0.0
 11
346.7638669999999
 21
220.211037
 31
0.0
  0
LINE
  5
51E
330
36B
100
AcDbEntity
  8
1
  6
Continuous
100
AcDbLine
 10
344.7638669999999
 20
234.2110369999998
 30
0.0
 11
344.7638669999999
 21
222.211037
 31
0.0
  0
LINE
  5
51F
330
36B
100
AcDbEntity
  8
1
  6
Continuous
100
AcDbLine
 10
351.763867
 20
234.2110369999998
 30
0.0
 11
351.763867
 21
222.211037
 31
0.0
  0
LINE
  5
520
330
36B
100
AcDbEntity
  8
1
  6
Continuous
100
AcDbLine
 10
351.763867
 20
230.711037
 30
0.0
 11
353.0638549999998
 21
230.711037
 31
0.0
  0
LINE
  5
521
330
36B
100
AcDbEntity
  8
1
  6
Continuous
100
AcDbLine
 10
351.763867
 20
225.7110369999999
 30
0.0
 11
353.0638549999998
 21
225.7110369999999
 31
0.0
  0
LINE
  5
522
330
36B
100
AcDbEntity
  8
4
  6
CENTER
100
AcDbLine
 10
259.4638489999999
 20
238.2110369999999
 30
0.0
 11
259.4638489999999
 21
230.211037
 31
0.0
  0
LINE
  5
523
330
36B
100
AcDbEntity
  8
4
  6
CENTER
100
AcDbLine
 10
255.463849
 20
234.2110369999998
 30
0.0
 11
263.4638489999999
 21
234.2110369999998
 31
0.0
  0
LINE
  5
524
330
36B
100
AcDbEntity
  8
4
  6
CENTER
100
AcDbLine
 10
259.4638489999999
 20
226.211037
 30
0.0
 11
259.4638489999999
 21
218.211037
 31
0.0
  0
LINE
  5
525
330
36B
100
AcDbEntity
  8
4
  6
CENTER
100
AcDbLine
 10
255.463849
 20
222.211037
 30
0.0
 11
263.4638489999999
 21
222.211037
 31
0.0
  0
LINE
  5
526
330
36B
100
AcDbEntity
  8
4
  6
CENTER
100
AcDbLine
 10
374.4638489999999
 20
234.2110369999998
 30
0.0
 11
384.4638489999999
 21
234.2110369999998
 31
0.0
  0
LINE
  5
527
330
36B
100
AcDbEntity
  8
4
  6
CENTER
100
AcDbLine
 10
374.4638489999999
 20
222.211037
 30
0.0
 11
384.4638489999999
 21
222.211037
 31
0.0
  0
LINE
  5
528
330
36B
100
AcDbEntity
  8
4
  6
CENTER
100
AcDbLine
 10
243.963849
 20
126.311028
 30
0.0
 11
243.963849
 21
119.111031
 31
0.0
  0
LINE
  5
529
330
36B
100
AcDbEntity
  8
4
  6
CENTER
100
AcDbLine
 10
240.3638429999999
 20
122.711037
 30
0.0
 11
247.5638549999999
 21
122.711037
 31
0.0
  0
LINE
  5
52A
330
36B
100
AcDbEntity
  8
4
  6
CENTER
100
AcDbLine
 10
266.963849
 20
126.311028
 30
0.0
 11
266.963849
 21
119.111031
 31
0.0
  0
LINE
  5
52B
330
36B
100
AcDbEntity
  8
4
  6
CENTER
100
AcDbLine
 10
263.3638429999999
 20
122.711037
 30
0.0
 11
270.5638549999998
 21
122.711037
 31
0.0
  0
LINE
  5
52C
330
36B
100
AcDbEntity
  8
4
  6
CENTER
100
AcDbLine
 10
259.4638489999999
 20
123.211037
 30
0.0
 11
259.4638489999999
 21
113.211037
 31
0.0
  0
LINE
  5
52D
330
36B
100
AcDbEntity
  8
4
  6
CENTER
100
AcDbLine
 10
259.4638489999999
 20
323.211022
 30
0.0
 11
259.4638489999999
 21
313.211022
 31
0.0
  0
LINE
  5
52E
330
36B
100
AcDbEntity
  8
4
  6
CENTER
100
AcDbLine
 10
608.863873
 20
237.211037
 30
0.0
 11
608.863873
 21
219.2110369999999
 31
0.0
  0
LINE
  5
52F
330
36B
100
AcDbEntity
  8
4
  6
CENTER
100
AcDbLine
 10
200.9638489999999
 20
228.211037
 30
0.0
 11
283.4638489999999
 21
228.211037
 31
0.0
  0
LINE
  5
530
330
36B
100
AcDbEntity
  8
4
  6
CENTER
100
AcDbLine
 10
119.4638489999999
 20
222.211037
 30
0.0
 11
129.463849
 21
222.211037
 31
0.0
  0
LINE
  5
531
330
36B
100
AcDbEntity
  8
4
  6
CENTER
100
AcDbLine
 10
119.4638489999999
 20
234.2110369999998
 30
0.0
 11
129.463849
 21
234.2110369999998
 31
0.0
  0
LINE
  5
532
330
36B
100
AcDbEntity
  8
1
  6
Continuous
100
AcDbLine
 10
244.4638489999999
 20
394.9110339999998
 30
0.0
 11
244.4638489999999
 21
368.211022
 31
0.0
  0
LINE
  5
533
330
36B
100
AcDbEntity
  8
1
  6
Continuous
100
AcDbLine
 10
274.4638489999999
 20
394.9110339999998
 30
0.0
 11
274.4638489999999
 21
368.211022
 31
0.0
  0
LINE
  5
534
330
36B
100
AcDbEntity
  8
1
  6
Continuous
100
AcDbLine
 10
244.4638489999999
 20
368.211022
 30
0.0
 11
274.4638489999999
 21
368.211022
 31
0.0
  0
LINE
  5
535
330
36B
100
AcDbEntity
  8
1
  6
Continuous
100
AcDbLine
 10
244.4639099999999
 20
68.211037
 30
0.0
 11
274.46391
 21
68.211037
 31
0.0
  0
LINE
  5
536
330
36B
100
AcDbEntity
  8
1
  6
Continuous
100
AcDbLine
 10
244.4638489999999
 20
394.9110339999998
 30
0.0
 11
274.4638489999999
 21
394.9110339999998
 31
0.0
  0
LINE
  5
537
330
36B
100
AcDbEntity
  8
1
  6
Continuous
100
AcDbLine
 10
244.4639099999999
 20
41.511056
 30
0.0
 11
274.46391
 21
41.511056
 31
0.0
  0
LINE
  5
538
330
36B
100
AcDbEntity
  8
1
  6
Continuous
100
AcDbLine
 10
244.4639099999999
 20
68.211037
 30
0.0
 11
244.4639099999999
 21
41.511056
 31
0.0
  0
LINE
  5
539
330
36B
100
AcDbEntity
  8
1
  6
Continuous
100
AcDbLine
 10
274.46391
 20
68.211037
 30
0.0
 11
274.46391
 21
41.511056
 31
0.0
  0
LINE
  5
53A
330
36B
100
AcDbEntity
  8
4
  6
CENTER
100
AcDbLine
 10
259.46391
 20
33.311044
 30
0.0
 11
259.46391
 21
73.211037
 31
0.0
  0
LINE
  5
53B
330
36B
100
AcDbEntity
  8
1
  6
Continuous
100
AcDbLine
 10
262.139691
 20
39.463776
 30
0.0
 11
262.2138179999998
 21
40.31103199999999
 31
0.0
  0
LINE
  5
53C
330
36B
100
AcDbEntity
  8
1
  6
Continuous
100
AcDbLine
 10
256.7880059999998
 20
39.463776
 30
0.0
 11
256.713879
 21
40.31100499999999
 31
0.0
  0
LINE
  5
53D
330
36B
100
AcDbEntity
  8
1
  6
Continuous
100
AcDbLine
 10
256.5138979999999
 20
40.311044
 30
0.0
 11
262.4139219999999
 21
40.311044
 31
0.0
  0
LINE
  5
53E
330
36B
100
AcDbEntity
  8
1
  6
Continuous
100
AcDbLine
 10
256.5138979999999
 20
40.311044
 30
0.0
 11
256.5138979999999
 21
41.01105599999999
 31
0.0
  0
LINE
  5
53F
330
36B
100
AcDbEntity
  8
1
  6
Continuous
100
AcDbLine
 10
262.4139219999999
 20
40.311044
 30
0.0
 11
262.4139219999999
 21
41.01105599999999
 31
0.0
  0
LINE
  5
540
330
36B
100
AcDbEntity
  8
1
  6
Continuous
100
AcDbLine
 10
259.2479369999999
 20
40.311066
 30
0.0
 11
259.0603759999999
 21
41.01104399999999
 31
0.0
  0
LINE
  5
541
330
36B
100
AcDbEntity
  8
1
  6
Continuous
100
AcDbLine
 10
259.9479489999998
 20
40.311028
 30
0.0
 11
259.7603569999999
 21
41.011063
 31
0.0
  0
LINE
  5
542
330
36B
100
AcDbEntity
  8
1
  6
Continuous
100
AcDbLine
 10
256.4639099999999
 20
41.01105599999999
 30
0.0
 11
262.46391
 21
41.01105599999999
 31
0.0
  0
LINE
  5
543
330
36B
100
AcDbEntity
  8
1
  6
Continuous
100
AcDbLine
 10
262.46391
 20
41.01105599999999
 30
0.0
 11
262.46391
 21
41.511056
 31
0.0
  0
LINE
  5
544
330
36B
100
AcDbEntity
  8
1
  6
Continuous
100
AcDbLine
 10
256.4639099999999
 20
41.01105599999999
 30
0.0
 11
256.4639099999999
 21
41.511056
 31
0.0
  0
LINE
  5
545
330
36B
100
AcDbEntity
  8
1
  6
Continuous
100
AcDbLine
 10
244.592633
 20
313.0822379999999
 30
0.0
 11
245.0142029999999
 21
313.2788319999999
 31
0.0
  0
LINE
  5
546
330
36B
100
AcDbEntity
  8
1
  6
Continuous
100
AcDbLine
 10
245.014172
 20
313.278771
 30
0.0
 11
245.714154
 21
313.2910089999999
 31
0.0
  0
LINE
  5
547
330
36B
100
AcDbEntity
  8
1
  6
Continuous
100
AcDbLine
 10
245.014172
 20
314.143243
 30
0.0
 11
245.714154
 21
314.1310049999999
 31
0.0
  0
LINE
  5
548
330
36B
100
AcDbEntity
  8
1
  6
Continuous
100
AcDbLine
 10
244.592633
 20
314.3398059999999
 30
0.0
 11
245.014172
 21
314.143243
 31
0.0
  0
LINE
  5
549
330
36B
100
AcDbEntity
  8
1
  6
Continuous
100
AcDbLine
 10
244.3960689999999
 20
314.7613149999999
 30
0.0
 11
244.383862
 21
315.461327
 31
0.0
  0
LINE
  5
54A
330
36B
100
AcDbEntity
  8
1
  6
Continuous
100
AcDbLine
 10
244.5926629999999
 20
314.3398369999998
 30
0.0
 11
244.3960999999999
 21
314.761376
 31
0.0
  0
LINE
  5
54B
330
36B
100
AcDbEntity
  8
1
  6
Continuous
100
AcDbLine
 10
243.5316279999999
 20
314.761346
 30
0.0
 11
243.543835
 21
315.461327
 31
0.0
  0
LINE
  5
54C
330
36B
100
AcDbEntity
  8
1
  6
Continuous
100
AcDbLine
 10
243.3350649999999
 20
314.3398059999999
 30
0.0
 11
243.5316279999999
 21
314.761346
 31
0.0
  0
LINE
  5
54D
330
36B
100
AcDbEntity
  8
1
  6
Continuous
100
AcDbLine
 10
242.913495
 20
314.143212
 30
0.0
 11
242.2135439999999
 21
314.1310049999999
 31
0.0
  0
LINE
  5
54E
330
36B
100
AcDbEntity
  8
1
  6
Continuous
100
AcDbLine
 10
243.335095
 20
314.3398369999998
 30
0.0
 11
242.913556
 21
314.143273
 31
0.0
  0
LINE
  5
54F
330
36B
100
AcDbEntity
  8
1
  6
Continuous
100
AcDbLine
 10
242.9135249999999
 20
313.278802
 30
0.0
 11
242.2135439999999
 21
313.2910089999999
 31
0.0
  0
LINE
  5
550
330
36B
100
AcDbEntity
  8
1
  6
Continuous
100
AcDbLine
 10
243.3350649999999
 20
313.0822379999999
 30
0.0
 11
242.9135249999999
 21
313.278802
 31
0.0
  0
LINE
  5
551
330
36B
100
AcDbEntity
  8
1
  6
Continuous
100
AcDbLine
 10
243.5316279999999
 20
312.660699
 30
0.0
 11
243.5438659999999
 21
311.960686
 31
0.0
  0
LINE
  5
552
330
36B
100
AcDbEntity
  8
1
  6
Continuous
100
AcDbLine
 10
243.3350649999999
 20
313.0822379999999
 30
0.0
 11
243.5316279999999
 21
312.660699
 31
0.0
  0
LINE
  5
553
330
36B
100
AcDbEntity
  8
1
  6
Continuous
100
AcDbLine
 10
244.3960689999999
 20
312.660699
 30
0.0
 11
244.383862
 21
311.960686
 31
0.0
  0
LINE
  5
554
330
36B
100
AcDbEntity
  8
1
  6
Continuous
100
AcDbLine
 10
244.592633
 20
313.0822379999999
 30
0.0
 11
244.3960689999999
 21
312.660699
 31
0.0
  0
LINE
  5
555
330
36B
100
AcDbEntity
  8
4
  6
CENTER
100
AcDbLine
 10
243.963849
 20
318.711022
 30
0.0
 11
243.963849
 21
308.711022
 31
0.0
  0
LINE
  5
556
330
36B
100
AcDbEntity
  8
4
  6
CENTER
100
AcDbLine
 10
238.963849
 20
313.711022
 30
0.0
 11
248.963849
 21
313.711022
 31
0.0
  0
LINE
  5
557
330
36B
100
AcDbEntity
  8
1
  6
Continuous
100
AcDbLine
 10
267.5926329999999
 20
313.082269
 30
0.0
 11
268.0141719999999
 21
313.2788319999999
 31
0.0
  0
LINE
  5
558
330
36B
100
AcDbEntity
  8
1
  6
Continuous
100
AcDbLine
 10
268.0141719999999
 20
313.278802
 30
0.0
 11
268.714154
 21
313.2910089999999
 31
0.0
  0
LINE
  5
559
330
36B
100
AcDbEntity
  8
1
  6
Continuous
100
AcDbLine
 10
268.0142029999998
 20
314.143273
 30
0.0
 11
268.714154
 21
314.1310359999998
 31
0.0
  0
LINE
  5
55A
330
36B
100
AcDbEntity
  8
1
  6
Continuous
100
AcDbLine
 10
267.5926329999999
 20
314.3398059999999
 30
0.0
 11
268.0142029999998
 21
314.143243
 31
0.0
  0
LINE
  5
55B
330
36B
100
AcDbEntity
  8
1
  6
Continuous
100
AcDbLine
 10
267.396069
 20
314.761346
 30
0.0
 11
267.383862
 21
315.461327
 31
0.0
  0
LINE
  5
55C
330
36B
100
AcDbEntity
  8
1
  6
Continuous
100
AcDbLine
 10
267.5926329999999
 20
314.3398059999999
 30
0.0
 11
267.396069
 21
314.761346
 31
0.0
  0
LINE
  5
55D
330
36B
100
AcDbEntity
  8
1
  6
Continuous
100
AcDbLine
 10
266.5316589999998
 20
314.761346
 30
0.0
 11
266.5438659999999
 21
315.461358
 31
0.0
  0
LINE
  5
55E
330
36B
100
AcDbEntity
  8
1
  6
Continuous
100
AcDbLine
 10
266.3350649999998
 20
314.3398059999999
 30
0.0
 11
266.5316589999998
 21
314.761376
 31
0.0
  0
LINE
  5
55F
330
36B
100
AcDbEntity
  8
1
  6
Continuous
100
AcDbLine
 10
265.913495
 20
314.143243
 30
0.0
 11
265.213544
 21
314.1310049999999
 31
0.0
  0
LINE
  5
560
330
36B
100
AcDbEntity
  8
1
  6
Continuous
100
AcDbLine
 10
266.3350649999998
 20
314.3398369999998
 30
0.0
 11
265.9135249999998
 21
314.143273
 31
0.0
  0
LINE
  5
561
330
36B
100
AcDbEntity
  8
1
  6
Continuous
100
AcDbLine
 10
265.9135249999998
 20
313.2788319999999
 30
0.0
 11
265.213544
 21
313.291039
 31
0.0
  0
LINE
  5
562
330
36B
100
AcDbEntity
  8
1
  6
Continuous
100
AcDbLine
 10
266.3350649999998
 20
313.0822379999999
 30
0.0
 11
265.9135249999998
 21
313.278802
 31
0.0
  0
LINE
  5
563
330
36B
100
AcDbEntity
  8
1
  6
Continuous
100
AcDbLine
 10
266.5316279999998
 20
312.660699
 30
0.0
 11
266.5438659999999
 21
311.960686
 31
0.0
  0
LINE
  5
564
330
36B
100
AcDbEntity
  8
1
  6
Continuous
100
AcDbLine
 10
266.335095
 20
313.082269
 30
0.0
 11
266.5316589999998
 21
312.660699
 31
0.0
  0
LINE
  5
565
330
36B
100
AcDbEntity
  8
1
  6
Continuous
100
AcDbLine
 10
267.396069
 20
312.6607289999999
 30
0.0
 11
267.3838319999999
 21
311.960717
 31
0.0
  0
LINE
  5
566
330
36B
100
AcDbEntity
  8
1
  6
Continuous
100
AcDbLine
 10
267.5926329999999
 20
313.0822379999999
 30
0.0
 11
267.396069
 21
312.6607289999999
 31
0.0
  0
LINE
  5
567
330
36B
100
AcDbEntity
  8
4
  6
CENTER
100
AcDbLine
 10
266.963849
 20
318.711022
 30
0.0
 11
266.963849
 21
308.711022
 31
0.0
  0
LINE
  5
568
330
36B
100
AcDbEntity
  8
4
  6
CENTER
100
AcDbLine
 10
261.9638489999999
 20
313.711022
 30
0.0
 11
271.9638489999999
 21
313.711022
 31
0.0
  0
LINE
  5
569
330
36B
100
AcDbEntity
  8
4
  6
CENTER
100
AcDbLine
 10
48.463856
 20
228.211037
 30
0.0
 11
11.763844
 21
228.211037
 31
0.0
  0
LINE
  5
56A
330
36B
100
AcDbEntity
  8
4
  6
CENTER
100
AcDbLine
 10
455.463849
 20
228.211037
 30
0.0
 11
492.163861
 21
228.211037
 31
0.0
  0
LINE
  5
56B
330
36B
100
AcDbEntity
  8
1
  6
Continuous
100
AcDbLine
 10
230.7970699999999
 20
137.2738879999999
 30
0.0
 11
230.7970699999999
 21
134.9482049999998
 31
0.0
  0
LINE
  5
56C
330
36B
100
AcDbEntity
  8
1
  6
Continuous
100
AcDbLine
 10
230.4641539999999
 20
137.246148
 30
0.0
 11
230.4641539999999
 21
134.975945
 31
0.0
  0
LINE
  5
56D
330
36B
100
AcDbEntity
  8
1
  6
Continuous
100
AcDbLine
 10
230.1305509999999
 20
135.074731
 30
0.0
 11
230.1305509999999
 21
135.7114799999999
 31
0.0
  0
LINE
  5
56E
330
36B
100
AcDbEntity
  8
1
  6
Continuous
100
AcDbLine
 10
229.7969629999998
 20
136.97683
 30
0.0
 11
229.7969629999998
 21
135.2452479999997
 31
0.0
  0
LINE
  5
56F
330
36B
100
AcDbEntity
  8
1
  6
Continuous
100
AcDbLine
 10
230.7970699999999
 20
136.1113819999999
 30
0.0
 11
230.4641539999999
 21
136.1113819999999
 31
0.0
  0
LINE
  5
570
330
36B
100
AcDbEntity
  8
1
  6
Continuous
100
AcDbLine
 10
230.1305509999999
 20
136.5112849999999
 30
0.0
 11
230.1305509999999
 21
137.1473469999999
 31
0.0
  0
LINE
  5
571
330
36B
100
AcDbEntity
  8
1
  6
Continuous
100
AcDbLine
 10
229.464047
 20
136.9335259999998
 30
0.0
 11
229.464047
 21
135.2892389999998
 31
0.0
  0
LINE
  5
572
330
36B
100
AcDbEntity
  8
1
  6
Continuous
100
AcDbLine
 10
229.1304439999999
 20
135.4963009999998
 30
0.0
 11
229.1304439999999
 21
136.7257929999998
 31
0.0
  0
LINE
  5
573
330
36B
100
AcDbEntity
  8
1
  6
Continuous
100
AcDbLine
 10
228.7975279999999
 20
137.025552
 30
0.0
 11
228.7975279999999
 21
135.5883259999999
 31
0.0
  0
LINE
  5
574
330
36B
100
AcDbEntity
  8
1
  6
Continuous
100
AcDbLine
 10
232.130093
 20
137.206902
 30
0.0
 11
232.130093
 21
135.1200649999998
 31
0.0
  0
LINE
  5
575
330
36B
100
AcDbEntity
  8
1
  6
Continuous
100
AcDbLine
 10
231.797177
 20
135.170144
 30
0.0
 11
231.797177
 21
136.1113819999999
 31
0.0
  0
LINE
  5
576
330
36B
100
AcDbEntity
  8
1
  6
Continuous
100
AcDbLine
 10
231.4635739999999
 20
137.208245
 30
0.0
 11
231.4635739999999
 21
135.013833
 31
0.0
  0
LINE
  5
577
330
36B
100
AcDbEntity
  8
1
  6
Continuous
100
AcDbLine
 10
231.130658
 20
137.2738879999999
 30
0.0
 11
231.130658
 21
134.9482049999998
 31
0.0
  0
LINE
  5
578
330
36B
100
AcDbEntity
  8
1
  6
Continuous
100
AcDbLine
 10
233.8224299999999
 20
136.1113819999999
 30
0.0
 11
233.133587
 21
136.1113819999999
 31
0.0
  0
LINE
  5
579
330
36B
100
AcDbEntity
  8
1
  6
Continuous
100
AcDbLine
 10
232.9664579999999
 20
135.487511
 30
0.0
 11
233.3433499999999
 21
136.8922509999999
 31
0.0
  0
LINE
  5
57A
330
36B
100
AcDbEntity
  8
1
  6
Continuous
100
AcDbLine
 10
232.630139
 20
136.1113819999999
 30
0.0
 11
232.630139
 21
135.311562
 31
0.0
  0
LINE
  5
57B
330
36B
100
AcDbEntity
  8
1
  6
Continuous
100
AcDbLine
 10
232.797284
 20
136.27784
 30
0.0
 11
232.797284
 21
136.9896929999999
 31
0.0
  0
LINE
  5
57C
330
36B
100
AcDbEntity
  8
1
  6
Continuous
100
AcDbLine
 10
232.463681
 20
137.0499199999999
 30
0.0
 11
232.463681
 21
136.27784
 31
0.0
  0
LINE
  5
57D
330
36B
100
AcDbEntity
  8
1
  6
Continuous
100
AcDbLine
 10
231.797177
 20
136.1113819999999
 30
0.0
 11
231.6307189999999
 21
136.1113819999999
 31
0.0
  0
LINE
  5
57E
330
36B
100
AcDbEntity
  8
1
  6
Continuous
100
AcDbLine
 10
231.797177
 20
136.5112849999999
 30
0.0
 11
231.797177
 21
137.051949
 31
0.0
  0
LINE
  5
57F
330
36B
100
AcDbEntity
  8
1
  6
Continuous
100
AcDbLine
 10
244.4638489999999
 20
240.011025
 30
0.0
 11
274.4638489999999
 21
240.011025
 31
0.0
  0
LINE
  5
580
330
36B
100
AcDbEntity
  8
1
  6
Continuous
100
AcDbLine
 10
244.4638489999999
 20
216.4110189999999
 30
0.0
 11
274.4638489999999
 21
216.4110189999999
 31
0.0
  0
LINE
  5
581
330
36B
100
AcDbEntity
  8
1
  6
Continuous
100
AcDbLine
 10
244.4638489999999
 20
240.011025
 30
0.0
 11
244.4638489999999
 21
239.211037
 31
0.0
  0
LINE
  5
582
330
36B
100
AcDbEntity
  8
1
  6
Continuous
100
AcDbLine
 10
274.4638489999999
 20
240.011025
 30
0.0
 11
274.4638489999999
 21
239.211037
 31
0.0
  0
LINE
  5
583
330
36B
100
AcDbEntity
  8
1
  6
Continuous
100
AcDbLine
 10
244.4638489999999
 20
217.2110369999999
 30
0.0
 11
244.4638489999999
 21
216.4110189999999
 31
0.0
  0
LINE
  5
584
330
36B
100
AcDbEntity
  8
1
  6
Continuous
100
AcDbLine
 10
274.4638489999999
 20
217.2110369999999
 30
0.0
 11
274.4638489999999
 21
216.4110189999999
 31
0.0
  0
LINE
  5
585
330
36B
100
AcDbEntity
  8
1
  6
Continuous
100
AcDbLine
 10
567.863873
 20
228.211037
 30
0.0
 11
563.863873
 21
228.211037
 31
0.0
  0
LINE
  5
586
330
36B
100
AcDbEntity
  8
1
  6
Continuous
100
AcDbLine
 10
597.863873
 20
237.211037
 30
0.0
 11
615.8638729999998
 21
237.211037
 31
0.0
  0
LINE
  5
587
330
36B
100
AcDbEntity
  8
1
  6
Continuous
100
AcDbLine
 10
567.863873
 20
217.2110369999999
 30
0.0
 11
565.8638729999998
 21
217.2110369999999
 31
0.0
  0
LINE
  5
588
330
36B
100
AcDbEntity
  8
1
  6
Continuous
100
AcDbLine
 10
567.863873
 20
239.211037
 30
0.0
 11
565.8638729999998
 21
239.211037
 31
0.0
  0
LINE
  5
589
330
36B
100
AcDbEntity
  8
1
  6
Continuous
100
AcDbLine
 10
583.492657
 20
233.5822529999998
 30
0.0
 11
583.914166
 21
233.778817
 31
0.0
  0
LINE
  5
58A
330
36B
100
AcDbEntity
  8
1
  6
Continuous
100
AcDbLine
 10
583.914166
 20
233.778832
 30
0.0
 11
584.614117
 21
233.7910549999998
 31
0.0
  0
LINE
  5
58B
330
36B
100
AcDbEntity
  8
1
  6
Continuous
100
AcDbLine
 10
583.914166
 20
234.6433039999999
 30
0.0
 11
584.614178
 21
234.6310809999999
 31
0.0
  0
LINE
  5
58C
330
36B
100
AcDbEntity
  8
1
  6
Continuous
100
AcDbLine
 10
583.492718
 20
234.8398369999999
 30
0.0
 11
583.9142269999999
 21
234.643273
 31
0.0
  0
LINE
  5
58D
330
36B
100
AcDbEntity
  8
1
  6
Continuous
100
AcDbLine
 10
583.296063
 20
235.261376
 30
0.0
 11
583.2837950000001
 21
235.961343
 31
0.0
  0
LINE
  5
58E
330
36B
100
AcDbEntity
  8
1
  6
Continuous
100
AcDbLine
 10
583.4925960000001
 20
234.839806
 30
0.0
 11
583.2960019999998
 21
235.261346
 31
0.0
  0
LINE
  5
58F
330
36B
100
AcDbEntity
  8
1
  6
Continuous
100
AcDbLine
 10
582.4316219999998
 20
235.261391
 30
0.0
 11
582.44389
 21
235.9613879999999
 31
0.0
  0
LINE
  5
590
330
36B
100
AcDbEntity
  8
1
  6
Continuous
100
AcDbLine
 10
582.235089
 20
234.839822
 30
0.0
 11
582.4316829999998
 21
235.261391
 31
0.0
  0
LINE
  5
591
330
36B
100
AcDbEntity
  8
1
  6
Continuous
100
AcDbLine
 10
581.813519
 20
234.643243
 30
0.0
 11
581.1134459999998
 21
234.63102
 31
0.0
  0
LINE
  5
592
330
36B
100
AcDbEntity
  8
1
  6
Continuous
100
AcDbLine
 10
582.235089
 20
234.839806
 30
0.0
 11
581.813519
 21
234.643227
 31
0.0
  0
LINE
  5
593
330
36B
100
AcDbEntity
  8
1
  6
Continuous
100
AcDbLine
 10
581.813519
 20
233.7788629999999
 30
0.0
 11
581.1135679999997
 21
233.79107
 31
0.0
  0
LINE
  5
594
330
36B
100
AcDbEntity
  8
1
  6
Continuous
100
AcDbLine
 10
582.235089
 20
233.582223
 30
0.0
 11
581.813519
 21
233.778802
 31
0.0
  0
LINE
  5
595
330
36B
100
AcDbEntity
  8
1
  6
Continuous
100
AcDbLine
 10
582.431561
 20
233.160699
 30
0.0
 11
582.4437679999999
 21
232.4607319999998
 31
0.0
  0
LINE
  5
596
330
36B
100
AcDbEntity
  8
1
  6
Continuous
100
AcDbLine
 10
582.2350280000001
 20
233.5822379999999
 30
0.0
 11
582.4316219999998
 21
233.160699
 31
0.0
  0
LINE
  5
597
330
36B
100
AcDbEntity
  8
1
  6
Continuous
100
AcDbLine
 10
583.296063
 20
233.16076
 30
0.0
 11
583.2838559999999
 21
232.460763
 31
0.0
  0
LINE
  5
598
330
36B
100
AcDbEntity
  8
1
  6
Continuous
100
AcDbLine
 10
583.492657
 20
233.5822529999998
 30
0.0
 11
583.2961240000002
 21
233.1607439999999
 31
0.0
  0
LINE
  5
599
330
36B
100
AcDbEntity
  8
1
  6
Continuous
100
AcDbLine
 10
583.4925960000001
 20
221.582223
 30
0.0
 11
583.914166
 21
221.7788019999999
 31
0.0
  0
LINE
  5
59A
330
36B
100
AcDbEntity
  8
1
  6
Continuous
100
AcDbLine
 10
583.9141049999998
 20
221.7788319999999
 30
0.0
 11
584.614117
 21
221.7910549999998
 31
0.0
  0
LINE
  5
59B
330
36B
100
AcDbEntity
  8
1
  6
Continuous
100
AcDbLine
 10
583.914166
 20
222.6432579999999
 30
0.0
 11
584.614178
 21
222.6310359999999
 31
0.0
  0
LINE
  5
59C
330
36B
100
AcDbEntity
  8
1
  6
Continuous
100
AcDbLine
 10
583.492657
 20
222.8398059999999
 30
0.0
 11
583.914166
 21
222.643243
 31
0.0
  0
LINE
  5
59D
330
36B
100
AcDbEntity
  8
1
  6
Continuous
100
AcDbLine
 10
583.296063
 20
223.261376
 30
0.0
 11
583.2838559999999
 21
223.961343
 31
0.0
  0
LINE
  5
59E
330
36B
100
AcDbEntity
  8
1
  6
Continuous
100
AcDbLine
 10
583.4925960000001
 20
222.8398059999999
 30
0.0
 11
583.296063
 21
223.261346
 31
0.0
  0
LINE
  5
59F
330
36B
100
AcDbEntity
  8
1
  6
Continuous
100
AcDbLine
 10
582.4316219999998
 20
223.261361
 30
0.0
 11
582.4438290000001
 21
223.9613579999999
 31
0.0
  0
LINE
  5
5A0
330
36B
100
AcDbEntity
  8
1
  6
Continuous
100
AcDbLine
 10
582.235089
 20
222.8397909999999
 30
0.0
 11
582.4316829999998
 21
223.261361
 31
0.0
  0
LINE
  5
5A1
330
36B
100
AcDbEntity
  8
1
  6
Continuous
100
AcDbLine
 10
581.8134579999997
 20
222.643243
 30
0.0
 11
581.113507
 21
222.6310199999999
 31
0.0
  0
LINE
  5
5A2
330
36B
100
AcDbEntity
  8
1
  6
Continuous
100
AcDbLine
 10
582.235089
 20
222.8398369999999
 30
0.0
 11
581.813519
 21
222.6432579999999
 31
0.0
  0
LINE
  5
5A3
330
36B
100
AcDbEntity
  8
1
  6
Continuous
100
AcDbLine
 10
581.81358
 20
221.7788169999999
 30
0.0
 11
581.113507
 21
221.791039
 31
0.0
  0
LINE
  5
5A4
330
36B
100
AcDbEntity
  8
1
  6
Continuous
100
AcDbLine
 10
582.235089
 20
221.582253
 30
0.0
 11
581.813519
 21
221.7788319999999
 31
0.0
  0
LINE
  5
5A5
330
36B
100
AcDbEntity
  8
1
  6
Continuous
100
AcDbLine
 10
582.431561
 20
221.1606989999999
 30
0.0
 11
582.4438290000001
 21
220.460732
 31
0.0
  0
LINE
  5
5A6
330
36B
100
AcDbEntity
  8
1
  6
Continuous
100
AcDbLine
 10
582.2350280000001
 20
221.582238
 30
0.0
 11
582.4316219999998
 21
221.1606989999999
 31
0.0
  0
LINE
  5
5A7
330
36B
100
AcDbEntity
  8
1
  6
Continuous
100
AcDbLine
 10
583.2961240000002
 20
221.160714
 30
0.0
 11
583.2838559999999
 21
220.460717
 31
0.0
  0
LINE
  5
5A8
330
36B
100
AcDbEntity
  8
1
  6
Continuous
100
AcDbLine
 10
583.492657
 20
221.582223
 30
0.0
 11
583.296063
 21
221.160714
 31
0.0
  0
LINE
  5
5A9
330
36B
100
AcDbEntity
  8
1
  6
Continuous
100
AcDbLine
 10
567.863873
 20
239.9110499999999
 30
0.0
 11
597.863873
 21
239.9110499999999
 31
0.0
  0
LINE
  5
5AA
330
36B
100
AcDbEntity
  8
1
  6
Continuous
100
AcDbLine
 10
567.863873
 20
216.311044
 30
0.0
 11
597.863873
 21
216.311044
 31
0.0
  0
LINE
  5
5AB
330
36B
100
AcDbEntity
  8
1
  6
Continuous
100
AcDbLine
 10
567.863873
 20
239.9110499999999
 30
0.0
 11
567.863873
 21
216.311044
 31
0.0
  0
LINE
  5
5AC
330
36B
100
AcDbEntity
  8
1
  6
Continuous
100
AcDbLine
 10
597.863873
 20
239.9110499999999
 30
0.0
 11
597.863873
 21
216.311044
 31
0.0
  0
LINE
  5
5AD
330
36B
100
AcDbEntity
  8
4
  6
CENTER
100
AcDbLine
 10
587.863873
 20
234.2110369999998
 30
0.0
 11
577.8638729999999
 21
234.2110369999998
 31
0.0
  0
LINE
  5
5AE
330
36B
100
AcDbEntity
  8
4
  6
CENTER
100
AcDbLine
 10
582.863873
 20
239.211037
 30
0.0
 11
582.863873
 21
229.211037
 31
0.0
  0
LINE
  5
5AF
330
36B
100
AcDbEntity
  8
4
  6
CENTER
100
AcDbLine
 10
587.863873
 20
222.211037
 30
0.0
 11
577.8638729999999
 21
222.211037
 31
0.0
  0
LINE
  5
5B0
330
36B
100
AcDbEntity
  8
4
  6
CENTER
100
AcDbLine
 10
582.863873
 20
227.211037
 30
0.0
 11
582.863873
 21
217.2110369999999
 31
0.0
  0
ARC
  5
5B1
330
36B
100
AcDbEntity
  8
1
  6
Continuous
100
AcDbCircle
 10
276.4638489999999
 20
237.211037
 30
0.0
 40
2.0
100
AcDbArc
 50
0.0
 51
90.00000300000001
  0
ARC
  5
5B2
330
36B
100
AcDbEntity
  8
1
  6
Continuous
100
AcDbCircle
 10
225.463849
 20
237.211037
 30
0.0
 40
2.0
100
AcDbArc
 50
90.00000300000001
 51
180.000005
  0
ARC
  5
5B3
330
36B
100
AcDbEntity
  8
1
  6
Continuous
100
AcDbCircle
 10
256.8638429999999
 20
228.211037
 30
0.0
 40
2.6
100
AcDbArc
 50
269.9999969999999
 51
90.00000300000001
  0
ARC
  5
5B4
330
36B
100
AcDbEntity
  8
1
  6
Continuous
100
AcDbCircle
 10
244.563824
 20
228.211037
 30
0.0
 40
3.6
100
AcDbArc
 50
136.2380539999997
 51
163.872385
  0
ARC
  5
5B5
330
36B
100
AcDbEntity
  8
1
  6
Continuous
100
AcDbCircle
 10
256.8638429999999
 20
228.211037
 30
0.0
 40
3.6
100
AcDbArc
 50
16.12762
 51
90.00000300000001
  0
ARC
  5
5B6
330
36B
100
AcDbEntity
  8
1
  6
Continuous
100
AcDbCircle
 10
276.4638489999999
 20
219.2110369999999
 30
0.0
 40
2.0
100
AcDbArc
 50
269.9999969999999
 51
0.0
  0
ARC
  5
5B7
330
36B
100
AcDbEntity
  8
1
  6
Continuous
100
AcDbCircle
 10
225.463849
 20
219.2110369999999
 30
0.0
 40
2.0
100
AcDbArc
 50
179.9999909999999
 51
270.000001
  0
ARC
  5
5B8
330
36B
100
AcDbEntity
  8
1
  6
Continuous
100
AcDbCircle
 10
244.563824
 20
228.211037
 30
0.0
 40
3.6
100
AcDbArc
 50
196.1276149999999
 51
223.761946
  0
ARC
  5
5B9
330
36B
100
AcDbEntity
  8
1
  6
Continuous
100
AcDbCircle
 10
256.8638429999999
 20
228.211037
 30
0.0
 40
3.6
100
AcDbArc
 50
269.9999969999999
 51
343.8723799999999
  0
ARC
  5
5BA
330
36B
100
AcDbEntity
  8
1
  6
Continuous
100
AcDbCircle
 10
225.463849
 20
142.6110469999999
 30
0.0
 40
2.0
100
AcDbArc
 50
90.00000300000001
 51
180.000005
  0
ARC
  5
5BB
330
36B
100
AcDbEntity
  8
1
  6
Continuous
100
AcDbCircle
 10
276.4638489999999
 20
142.6110469999999
 30
0.0
 40
2.0
100
AcDbArc
 50
0.0
 51
90.00000300000001
  0
ARC
  5
5BC
330
36B
100
AcDbEntity
  8
1
  6
Continuous
100
AcDbCircle
 10
206.463849
 20
137.411034
 30
0.0
 40
0.5
100
AcDbArc
 50
90.00000300000001
 51
180.000005
  0
ARC
  5
5BD
330
36B
100
AcDbEntity
  8
1
  6
Continuous
100
AcDbCircle
 10
217.4638489999999
 20
137.9110339999998
 30
0.0
 40
1.5
100
AcDbArc
 50
90.00000300000001
 51
180.000005
  0
ARC
  5
5BE
330
36B
100
AcDbEntity
  8
1
  6
Continuous
100
AcDbCircle
 10
214.400601
 20
129.411034
 30
0.0
 40
2.0
100
AcDbArc
 50
219.805572
 51
269.9999969999999
  0
ARC
  5
5BF
330
36B
100
AcDbEntity
  8
1
  6
Continuous
100
AcDbCircle
 10
242.963849
 20
151.911034
 30
0.0
 40
1.0
100
AcDbArc
 50
90.00000300000001
 51
180.000005
  0
ARC
  5
5C0
330
36B
100
AcDbEntity
  8
1
  6
Continuous
100
AcDbCircle
 10
245.963849
 20
151.911034
 30
0.0
 40
1.0
100
AcDbArc
 50
0.0
 51
90.00000300000001
  0
ARC
  5
5C1
330
36B
100
AcDbEntity
  8
1
  6
Continuous
100
AcDbCircle
 10
242.963849
 20
146.911034
 30
0.0
 40
1.0
100
AcDbArc
 50
179.9999909999999
 51
270.000001
  0
ARC
  5
5C2
330
36B
100
AcDbEntity
  8
1
  6
Continuous
100
AcDbCircle
 10
245.963849
 20
146.911034
 30
0.0
 40
1.0
100
AcDbArc
 50
269.9999969999999
 51
0.0
  0
ARC
  5
5C3
330
36B
100
AcDbEntity
  8
1
  6
Continuous
100
AcDbCircle
 10
225.463849
 20
293.8110589999999
 30
0.0
 40
2.0
100
AcDbArc
 50
179.9999909999999
 51
270.000001
  0
ARC
  5
5C4
330
36B
100
AcDbEntity
  8
1
  6
Continuous
100
AcDbCircle
 10
276.4638489999999
 20
293.8110589999999
 30
0.0
 40
2.0
100
AcDbArc
 50
269.9999969999999
 51
0.0
  0
ARC
  5
5C5
330
36B
100
AcDbEntity
  8
1
  6
Continuous
100
AcDbCircle
 10
206.463849
 20
299.0110399999999
 30
0.0
 40
0.5
100
AcDbArc
 50
179.9999909999999
 51
270.000001
  0
ARC
  5
5C6
330
36B
100
AcDbEntity
  8
1
  6
Continuous
100
AcDbCircle
 10
217.4638489999999
 20
298.5110399999999
 30
0.0
 40
1.5
100
AcDbArc
 50
179.9999909999999
 51
270.000001
  0
ARC
  5
5C7
330
36B
100
AcDbEntity
  8
1
  6
Continuous
100
AcDbCircle
 10
214.400601
 20
307.0110399999999
 30
0.0
 40
2.0
100
AcDbArc
 50
90.00000300000001
 51
140.1944279999999
  0
ARC
  5
5C8
330
36B
100
AcDbEntity
  8
1
  6
Continuous
100
AcDbCircle
 10
242.963849
 20
284.5110399999999
 30
0.0
 40
1.0
100
AcDbArc
 50
179.9999909999999
 51
270.000001
  0
ARC
  5
5C9
330
36B
100
AcDbEntity
  8
1
  6
Continuous
100
AcDbCircle
 10
245.963849
 20
284.5110399999999
 30
0.0
 40
1.0
100
AcDbArc
 50
269.9999969999999
 51
0.0
  0
ARC
  5
5CA
330
36B
100
AcDbEntity
  8
1
  6
Continuous
100
AcDbCircle
 10
242.963849
 20
289.5110399999999
 30
0.0
 40
1.0
100
AcDbArc
 50
90.00000300000001
 51
180.000005
  0
ARC
  5
5CB
330
36B
100
AcDbEntity
  8
1
  6
Continuous
100
AcDbCircle
 10
245.963849
 20
289.5110399999999
 30
0.0
 40
1.0
100
AcDbArc
 50
0.0
 51
90.00000300000001
  0
ARC
  5
5CC
330
36B
100
AcDbEntity
  8
1
  6
Continuous
100
AcDbCircle
 10
355.0638549999998
 20
237.211037
 30
0.0
 40
2.0
100
AcDbArc
 50
90.00000300000001
 51
180.000005
  0
ARC
  5
5CD
330
36B
100
AcDbEntity
  8
1
  6
Continuous
100
AcDbCircle
 10
355.0638549999998
 20
219.2110369999999
 30
0.0
 40
2.0
100
AcDbArc
 50
179.9999909999999
 51
270.000001
  0
ARC
  5
5CE
330
36B
100
AcDbEntity
  8
1
  6
Continuous
100
AcDbCircle
 10
354.805493
 20
230.1942679999999
 30
0.0
 40
2.0
100
AcDbArc
 50
209.447113
 51
277.4228009999998
  0
ARC
  5
5CF
330
36B
100
AcDbEntity
  8
1
  6
Continuous
100
AcDbCircle
 10
354.805493
 20
226.2278069999999
 30
0.0
 40
2.0
100
AcDbArc
 50
82.57720600000004
 51
150.552901
  0
ARC
  5
5D0
330
36B
100
AcDbEntity
  8
1
  6
Continuous
100
AcDbCircle
 10
19.063893
 20
218.711037
 30
0.0
 40
2.299999999999998
100
AcDbArc
 50
180.000009
 51
269.9999969999999
  0
ARC
  5
5D1
330
36B
100
AcDbEntity
  8
1
  6
Continuous
100
AcDbCircle
 10
19.063893
 20
237.711037
 30
0.0
 40
2.299999999999998
100
AcDbArc
 50
89.99999599999998
 51
180.000005
  0
ARC
  5
5D2
330
36B
100
AcDbEntity
  8
1
  6
Continuous
100
AcDbCircle
 10
148.8638429999998
 20
237.211037
 30
0.0
 40
2.0
100
AcDbArc
 50
359.999995
 51
89.99999599999998
  0
ARC
  5
5D3
330
36B
100
AcDbEntity
  8
1
  6
Continuous
100
AcDbCircle
 10
148.8638429999998
 20
219.2110369999999
 30
0.0
 40
2.0
100
AcDbArc
 50
270.0000039999998
 51
0.000005
  0
ARC
  5
5D4
330
36B
100
AcDbEntity
  8
1
  6
Continuous
100
AcDbCircle
 10
149.1222349999999
 20
230.1942679999999
 30
0.0
 40
2.0
100
AcDbArc
 50
262.577194
 51
330.552893
  0
ARC
  5
5D5
330
36B
100
AcDbEntity
  8
1
  6
Continuous
100
AcDbCircle
 10
149.1222349999999
 20
226.2278069999999
 30
0.0
 40
2.0
100
AcDbArc
 50
29.4471
 51
97.42279299999999
  0
ARC
  5
5D6
330
36B
100
AcDbEntity
  8
1
  6
Continuous
100
AcDbCircle
 10
144.6638609999999
 20
222.211037
 30
0.0
 40
1.0
100
AcDbArc
 50
269.9999969999999
 51
0.0
  0
ARC
  5
5D7
330
36B
100
AcDbEntity
  8
1
  6
Continuous
100
AcDbCircle
 10
144.6638609999999
 20
234.2110369999998
 30
0.0
 40
1.0
100
AcDbArc
 50
0.0
 51
90.00000300000001
  0
ARC
  5
5D8
330
36B
100
AcDbEntity
  8
1
  6
Continuous
100
AcDbCircle
 10
134.663846
 20
234.2110369999998
 30
0.0
 40
1.0
100
AcDbArc
 50
90.00000300000001
 51
180.000005
  0
ARC
  5
5D9
330
36B
100
AcDbEntity
  8
1
  6
Continuous
100
AcDbCircle
 10
134.663846
 20
222.211037
 30
0.0
 40
1.0
100
AcDbArc
 50
179.9999909999999
 51
270.000001
  0
ARC
  5
5DA
330
36B
100
AcDbEntity
  8
1
  6
Continuous
100
AcDbCircle
 10
138.1638609999999
 20
227.211037
 30
0.0
 40
3.5
100
AcDbArc
 50
53.130102
 51
126.869903
  0
ARC
  5
5DB
330
36B
100
AcDbEntity
  8
1
  6
Continuous
100
AcDbCircle
 10
138.1638609999999
 20
229.211037
 30
0.0
 40
3.5
100
AcDbArc
 50
233.130097
 51
306.8698979999999
  0
ARC
  5
5DC
330
36B
100
AcDbEntity
  8
1
  6
Continuous
100
AcDbCircle
 10
137.4138609999999
 20
228.211037
 30
0.0
 40
2.25
100
AcDbArc
 50
126.869903
 51
233.1300929999999
  0
ARC
  5
5DD
330
36B
100
AcDbEntity
  8
1
  6
Continuous
100
AcDbCircle
 10
138.913861
 20
228.211037
 30
0.0
 40
2.25
100
AcDbArc
 50
306.8698979999999
 51
53.130102
  0
ARC
  5
5DE
330
36B
100
AcDbEntity
  8
1
  6
Continuous
100
AcDbCircle
 10
565.8638729999998
 20
237.211037
 30
0.0
 40
2.0
100
AcDbArc
 50
89.99999599999998
 51
180.000005
  0
ARC
  5
5DF
330
36B
100
AcDbEntity
  8
1
  6
Continuous
100
AcDbCircle
 10
616.863873
 20
237.211037
 30
0.0
 40
2.0
100
AcDbArc
 50
359.999995
 51
89.99999599999998
  0
ARC
  5
5E0
330
36B
100
AcDbEntity
  8
1
  6
Continuous
100
AcDbCircle
 10
565.8638729999998
 20
219.2110369999999
 30
0.0
 40
2.0
100
AcDbArc
 50
180.000009
 51
269.9999969999999
  0
ARC
  5
5E1
330
36B
100
AcDbEntity
  8
1
  6
Continuous
100
AcDbCircle
 10
616.863873
 20
219.2110369999999
 30
0.0
 40
2.0
100
AcDbArc
 50
269.9999969999999
 51
0.000009
  0
CIRCLE
  5
5E2
330
36B
100
AcDbEntity
  8
1
  6
Continuous
100
AcDbCircle
 10
608.863873
 20
228.211037
 30
0.0
 40
7.0
  0
ARC
  5
5E3
330
36B
100
AcDbEntity
  8
1
  6
Continuous
100
AcDbCircle
 10
627.363873
 20
232.211037
 30
0.0
 40
1.0
100
AcDbArc
 50
0.0
 51
90.00000300000001
  0
ARC
  5
5E4
330
36B
100
AcDbEntity
  8
1
  6
Continuous
100
AcDbCircle
 10
627.363873
 20
224.211037
 30
0.0
 40
1.0
100
AcDbArc
 50
269.9999969999999
 51
0.0
  0
ARC
  5
5E5
330
36B
100
AcDbEntity
  8
1
  6
Continuous
100
AcDbCircle
 10
620.863873
 20
228.211037
 30
0.0
 40
2.0
100
AcDbArc
 50
90.00000300000001
 51
270.000001
  0
CIRCLE
  5
5E6
330
36B
100
AcDbEntity
  8
1
  6
Continuous
100
AcDbCircle
 10
632.3638729999998
 20
228.211037
 30
0.0
 40
2.5
  0
ARC
  5
5E7
330
36B
100
AcDbEntity
  8
1
  6
Continuous
100
AcDbCircle
 10
615.8638729999998
 20
236.2110369999999
 30
0.0
 40
1.0
100
AcDbArc
 50
0.0
 51
90.00000300000001
  0
ARC
  5
5E8
330
36B
100
AcDbEntity
  8
1
  6
Continuous
100
AcDbCircle
 10
615.8638729999998
 20
220.211037
 30
0.0
 40
1.0
100
AcDbArc
 50
269.9999969999999
 51
0.0
  0
ARC
  5
5E9
330
36B
100
AcDbEntity
  8
1
  6
Continuous
100
AcDbCircle
 10
227.463849
 20
118.6616909999999
 30
0.0
 40
0.6
100
AcDbArc
 50
228.684122
 51
265.4694099999999
  0
CIRCLE
  5
5EA
330
36B
100
AcDbEntity
  8
1
  6
Continuous
100
AcDbCircle
 10
239.463849
 20
109.811036
 30
0.0
 40
0.6
  0
ARC
  5
5EB
330
36B
100
AcDbEntity
  8
1
  6
Continuous
100
AcDbCircle
 10
239.463849
 20
111.017083
 30
0.0
 40
0.6
100
AcDbArc
 50
275.73916
 51
95.739171
  0
ARC
  5
5EC
330
36B
100
AcDbEntity
  8
1
  6
Continuous
100
AcDbCircle
 10
227.463849
 20
109.811036
 30
0.0
 40
0.6
100
AcDbArc
 50
95.739171
 51
275.7391629999998
  0
ARC
  5
5ED
330
36B
100
AcDbEntity
  8
1
  6
Continuous
100
AcDbCircle
 10
227.463849
 20
112.023125
 30
0.0
 40
0.6
100
AcDbArc
 50
96.00000300000001
 51
265.207694
  0
ARC
  5
5EE
330
36B
100
AcDbEntity
  8
1
  6
Continuous
100
AcDbCircle
 10
239.463849
 20
113.284386
 30
0.0
 40
0.6
100
AcDbArc
 50
275.9999979999999
 51
96.00000300000001
  0
ARC
  5
5EF
330
36B
100
AcDbEntity
  8
1
  6
Continuous
100
AcDbCircle
 10
227.463849
 20
114.2363519999999
 30
0.0
 40
0.6
100
AcDbArc
 50
96.00000300000001
 51
265.464181
  0
ARC
  5
5F0
330
36B
100
AcDbEntity
  8
1
  6
Continuous
100
AcDbCircle
 10
239.463849
 20
115.4975979999999
 30
0.0
 40
0.6
100
AcDbArc
 50
275.9999979999999
 51
96.00000300000001
  0
ARC
  5
5F1
330
36B
100
AcDbEntity
  8
1
  6
Continuous
100
AcDbCircle
 10
227.463849
 20
116.4495629999999
 30
0.0
 40
0.6
100
AcDbArc
 50
96.00000300000001
 51
265.464181
  0
ARC
  5
5F2
330
36B
100
AcDbEntity
  8
1
  6
Continuous
100
AcDbCircle
 10
239.463849
 20
117.710824
 30
0.0
 40
0.6
100
AcDbArc
 50
275.9999979999999
 51
56.480487
  0
ARC
  5
5F3
330
36B
100
AcDbEntity
  8
1
  6
Continuous
100
AcDbCircle
 10
387.8638429999999
 20
234.2110369999998
 30
0.0
 40
0.6
100
AcDbArc
 50
90.00000300000001
 51
180.000005
  0
ARC
  5
5F4
330
36B
100
AcDbEntity
  8
1
  6
Continuous
100
AcDbCircle
 10
385.9975099999999
 20
234.2110369999998
 30
0.0
 40
0.6
100
AcDbArc
 50
5.739170999999998
 51
175.207698
  0
ARC
  5
5F5
330
36B
100
AcDbEntity
  8
1
  6
Continuous
100
AcDbCircle
 10
387.203564
 20
222.211037
 30
0.0
 40
0.6
100
AcDbArc
 50
185.7391709999999
 51
5.739170999999998
  0
ARC
  5
5F6
330
36B
100
AcDbEntity
  8
1
  6
Continuous
100
AcDbCircle
 10
384.991467
 20
222.211037
 30
0.0
 40
0.6
100
AcDbArc
 50
186.000002
 51
355.207694
  0
ARC
  5
5F7
330
36B
100
AcDbEntity
  8
1
  6
Continuous
100
AcDbCircle
 10
383.730206
 20
234.2110369999998
 30
0.0
 40
0.6
100
AcDbArc
 50
6.0
 51
175.464186
  0
ARC
  5
5F8
330
36B
100
AcDbEntity
  8
1
  6
Continuous
100
AcDbCircle
 10
382.7782409999999
 20
222.211037
 30
0.0
 40
0.6
100
AcDbArc
 50
186.000002
 51
355.464182
  0
ARC
  5
5F9
330
36B
100
AcDbEntity
  8
1
  6
Continuous
100
AcDbCircle
 10
381.5169799999998
 20
234.2110369999998
 30
0.0
 40
0.6
100
AcDbArc
 50
6.0
 51
185.9999979999998
  0
ARC
  5
5FA
330
36B
100
AcDbEntity
  8
1
  6
Continuous
100
AcDbCircle
 10
387.8638429999999
 20
227.611047
 30
0.0
 40
0.6
100
AcDbArc
 50
179.9999909999999
 51
0.00001
  0
ARC
  5
5FB
330
36B
100
AcDbEntity
  8
1
  6
Continuous
100
AcDbCircle
 10
387.8638429999999
 20
234.2110369999998
 30
0.0
 40
0.6
100
AcDbArc
 50
0.0
 51
89.99998900000001
  0
ARC
  5
5FC
330
36B
100
AcDbEntity
  8
1
  6
Continuous
100
AcDbCircle
 10
116.063855
 20
234.2110369999998
 30
0.0
 40
0.6
100
AcDbArc
 50
0.0
 51
90.00000300000001
  0
ARC
  5
5FD
330
36B
100
AcDbEntity
  8
1
  6
Continuous
100
AcDbCircle
 10
117.930203
 20
234.2110369999998
 30
0.0
 40
0.6
100
AcDbArc
 50
4.792305999999999
 51
174.2608289999998
  0
ARC
  5
5FE
330
36B
100
AcDbEntity
  8
1
  6
Continuous
100
AcDbCircle
 10
116.7241639999998
 20
222.211037
 30
0.0
 40
0.6
100
AcDbArc
 50
183.1495319999999
 51
354.26082
  0
ARC
  5
5FF
330
36B
100
AcDbEntity
  8
1
  6
Continuous
100
AcDbCircle
 10
118.9362459999999
 20
222.211037
 30
0.0
 40
0.6
100
AcDbArc
 50
184.7923019999998
 51
354.0
  0
ARC
  5
600
330
36B
100
AcDbEntity
  8
1
  6
Continuous
100
AcDbCircle
 10
120.1974909999999
 20
234.2110369999998
 30
0.0
 40
0.6
100
AcDbArc
 50
4.535817999999999
 51
173.999998
  0
ARC
  5
601
330
36B
100
AcDbEntity
  8
1
  6
Continuous
100
AcDbCircle
 10
121.149472
 20
222.211037
 30
0.0
 40
0.6
100
AcDbArc
 50
184.5358139999999
 51
354.0
  0
ARC
  5
602
330
36B
100
AcDbEntity
  8
1
  6
Continuous
100
AcDbCircle
 10
116.063855
 20
234.2110369999998
 30
0.0
 40
0.6
100
AcDbArc
 50
90.00000300000001
 51
180.000005
  0
ARC
  5
603
330
36B
100
AcDbEntity
  8
1
  6
Continuous
100
AcDbCircle
 10
123.3563809999999
 20
222.211037
 30
0.0
 40
0.6
100
AcDbArc
 50
184.535828
 51
354.029791
  0
ARC
  5
604
330
36B
100
AcDbEntity
  8
1
  6
Continuous
100
AcDbCircle
 10
122.404416
 20
234.2110369999998
 30
0.0
 40
0.6
100
AcDbArc
 50
4.535817999999999
 51
182.292681
  0
ARC
  5
605
330
36B
100
AcDbEntity
  8
1
  6
Continuous
100
AcDbCircle
 10
124.611325
 20
234.2110369999998
 30
0.0
 40
0.6
100
AcDbArc
 50
104.227888
 51
184.5358239999999
  0
ARC
  5
606
330
36B
100
AcDbEntity
  8
1
  6
Continuous
100
AcDbCircle
 10
227.463849
 20
326.611047
 30
0.0
 40
0.6
100
AcDbArc
 50
90.00000300000001
 51
270.000001
  0
ARC
  5
607
330
36B
100
AcDbEntity
  8
1
  6
Continuous
100
AcDbCircle
 10
227.463849
 20
324.20501
 30
0.0
 40
0.6
100
AcDbArc
 50
95.739171
 51
265.207694
  0
ARC
  5
608
330
36B
100
AcDbEntity
  8
1
  6
Continuous
100
AcDbCircle
 10
239.463849
 20
325.4110339999999
 30
0.0
 40
0.6
100
AcDbArc
 50
275.73916
 51
95.739171
  0
ARC
  5
609
330
36B
100
AcDbEntity
  8
1
  6
Continuous
100
AcDbCircle
 10
239.463849
 20
323.1989369999999
 30
0.0
 40
0.6
100
AcDbArc
 50
275.999991
 51
85.20769599999999
  0
ARC
  5
60A
330
36B
100
AcDbEntity
  8
1
  6
Continuous
100
AcDbCircle
 10
227.463849
 20
321.937707
 30
0.0
 40
0.6
100
AcDbArc
 50
95.999996
 51
265.464181
  0
ARC
  5
60B
330
36B
100
AcDbEntity
  8
1
  6
Continuous
100
AcDbCircle
 10
239.463849
 20
320.985741
 30
0.0
 40
0.6
100
AcDbArc
 50
275.999991
 51
96.00000300000001
  0
ARC
  5
60C
330
36B
100
AcDbEntity
  8
1
  6
Continuous
100
AcDbCircle
 10
227.463849
 20
319.7244799999999
 30
0.0
 40
0.6
100
AcDbArc
 50
95.999996
 51
265.464181
  0
ARC
  5
60D
330
36B
100
AcDbEntity
  8
1
  6
Continuous
100
AcDbCircle
 10
239.463849
 20
318.7725149999999
 30
0.0
 40
0.6
100
AcDbArc
 50
290.643691
 51
96.00000300000001
  0
ARC
  5
60E
330
36B
100
AcDbEntity
  8
1
  6
Continuous
100
AcDbCircle
 10
376.643536
 20
234.1711509999999
 30
0.0
 40
1.0
100
AcDbArc
 50
5.00009
 51
73.74300500000003
  0
ARC
  5
60F
330
36B
100
AcDbEntity
  8
1
  6
Continuous
100
AcDbCircle
 10
374.9638489999999
 20
228.41105
 30
0.0
 40
7.0
100
AcDbArc
 50
73.74308
 51
106.257034
  0
ARC
  5
610
330
36B
100
AcDbEntity
  8
1
  6
Continuous
100
AcDbCircle
 10
373.2841609999999
 20
234.1711509999999
 30
0.0
 40
1.0
100
AcDbArc
 50
106.2570209999999
 51
174.999951
  0
CIRCLE
  5
611
330
36B
100
AcDbEntity
  8
1
  6
Continuous
100
AcDbCircle
 10
266.963849
 20
122.711037
 30
0.0
 40
1.5
  0
CIRCLE
  5
612
330
36B
100
AcDbEntity
  8
1
  6
Continuous
100
AcDbCircle
 10
243.963849
 20
122.711037
 30
0.0
 40
1.5
  0
CIRCLE
  5
613
330
36B
100
AcDbEntity
  8
2
  6
Continuous
100
AcDbCircle
 10
266.963849
 20
122.711037
 30
0.0
 40
1.2295
  0
CIRCLE
  5
614
330
36B
100
AcDbEntity
  8
2
  6
Continuous
100
AcDbCircle
 10
243.963849
 20
122.711037
 30
0.0
 40
1.2295
  0
ARC
  5
615
330
36B
100
AcDbEntity
  8
1
  6
Continuous
100
AcDbCircle
 10
241.159283
 20
135.9477469999999
 30
0.0
 40
1.334408999999998
100
AcDbArc
 50
138.9320989999999
 51
221.067897
  0
ARC
  5
616
330
36B
100
AcDbEntity
  8
1
  6
Continuous
100
AcDbCircle
 10
240.8748899999999
 20
135.6999139999998
 30
0.0
 40
0.957174
100
AcDbArc
 50
221.0679009999999
 51
289.1928019999999
  0
ARC
  5
617
330
36B
100
AcDbEntity
  8
1
  6
Continuous
100
AcDbCircle
 10
240.8748899999999
 20
136.1955649999998
 30
0.0
 40
0.957174
100
AcDbArc
 50
70.807198
 51
138.9320989999999
  0
ARC
  5
618
330
36B
100
AcDbEntity
  8
1
  6
Continuous
100
AcDbCircle
 10
240.9786799999999
 20
136.4937679999999
 30
0.0
 40
0.6414290000000003
100
AcDbArc
 50
5.659243
 51
70.807198
  0
ARC
  5
619
330
36B
100
AcDbEntity
  8
1
  6
Continuous
100
AcDbCircle
 10
240.9786799999999
 20
135.4017269999999
 30
0.0
 40
0.6414290000000003
100
AcDbArc
 50
289.1928019999999
 51
354.3407569999998
  0
ARC
  5
61A
330
36B
100
AcDbEntity
  8
1
  6
Continuous
100
AcDbCircle
 10
246.489239
 20
136.4483879999999
 30
0.0
 40
0.6414290000000003
100
AcDbArc
 50
5.659243
 51
70.807198
  0
ARC
  5
61B
330
36B
100
AcDbEntity
  8
1
  6
Continuous
100
AcDbCircle
 10
246.3854189999999
 20
136.150185
 30
0.0
 40
0.957174
100
AcDbArc
 50
70.807198
 51
138.9320989999999
  0
ARC
  5
61C
330
36B
100
AcDbEntity
  8
1
  6
Continuous
100
AcDbCircle
 10
246.6698419999999
 20
135.902367
 30
0.0
 40
1.334408999999998
100
AcDbArc
 50
138.9320989999999
 51
221.067897
  0
ARC
  5
61D
330
36B
100
AcDbEntity
  8
1
  6
Continuous
100
AcDbCircle
 10
246.3854189999999
 20
135.654534
 30
0.0
 40
0.957174
100
AcDbArc
 50
221.0679009999999
 51
276.5913959999999
  0
ARC
  5
61E
330
36B
100
AcDbEntity
  8
1
  6
Continuous
100
AcDbCircle
 10
246.3919799999999
 20
135.5977409999999
 30
0.0
 40
0.9
100
AcDbArc
 50
269.582188
 51
11.654105
  0
ARC
  5
61F
330
36B
100
AcDbEntity
  8
1
  6
Continuous
100
AcDbCircle
 10
238.5359919999999
 20
135.9344869999999
 30
0.0
 40
1.334408999999998
100
AcDbArc
 50
138.9320989999999
 51
221.067897
  0
ARC
  5
620
330
36B
100
AcDbEntity
  8
1
  6
Continuous
100
AcDbCircle
 10
237.967206
 20
135.9344869999999
 30
0.0
 40
1.334408999999998
100
AcDbArc
 50
318.9321049999999
 51
41.067895
  0
ARC
  5
621
330
36B
100
AcDbEntity
  8
1
  6
Continuous
100
AcDbCircle
 10
238.251599
 20
135.6866689999999
 30
0.0
 40
0.957174
100
AcDbArc
 50
221.0679009999999
 51
318.9321049999999
  0
ARC
  5
622
330
36B
100
AcDbEntity
  8
1
  6
Continuous
100
AcDbCircle
 10
238.251599
 20
136.182305
 30
0.0
 40
0.957174
100
AcDbArc
 50
41.067895
 51
138.9320989999999
  0
ARC
  5
623
330
36B
100
AcDbEntity
  8
1
  6
Continuous
100
AcDbCircle
 10
260.052167
 20
136.5093469999999
 30
0.0
 40
0.7817210000000001
100
AcDbArc
 50
312.8696289999999
 51
316.275137
  0
ARC
  5
624
330
36B
100
AcDbEntity
  8
1
  6
Continuous
100
AcDbCircle
 10
260.052167
 20
136.3209159999998
 30
0.0
 40
0.7817210000000001
100
AcDbArc
 50
47.130371
 51
132.869623
  0
ARC
  5
625
330
36B
100
AcDbEntity
  8
1
  6
Continuous
100
AcDbCircle
 10
260.1396299999998
 20
136.4151239999999
 30
0.0
 40
0.6531630000000001
100
AcDbArc
 50
312.8696289999999
 51
47.130371
  0
ARC
  5
626
330
36B
100
AcDbEntity
  8
1
  6
Continuous
100
AcDbCircle
 10
259.9647029999998
 20
136.4151239999999
 30
0.0
 40
0.6531630000000001
100
AcDbArc
 50
132.869623
 51
204.2768199999999
  0
ARC
  5
627
330
36B
100
AcDbEntity
  8
1
  6
Continuous
100
AcDbCircle
 10
262.467816
 20
135.4006889999998
 30
0.0
 40
0.7829229999999999
100
AcDbArc
 50
135.927499
 51
224.072497
  0
ARC
  5
628
330
36B
100
AcDbEntity
  8
1
  6
Continuous
100
AcDbCircle
 10
262.3832209999998
 20
135.4006889999998
 30
0.0
 40
0.7829229999999999
100
AcDbArc
 50
315.927497
 51
44.072503
  0
ARC
  5
629
330
36B
100
AcDbEntity
  8
1
  6
Continuous
100
AcDbCircle
 10
262.4255189999999
 20
135.359734
 30
0.0
 40
0.72405
100
AcDbArc
 50
224.0725009999999
 51
315.927497
  0
ARC
  5
62A
330
36B
100
AcDbEntity
  8
1
  6
Continuous
100
AcDbCircle
 10
262.4255189999999
 20
135.441628
 30
0.0
 40
0.72405
100
AcDbArc
 50
44.072503
 51
135.927499
  0
ARC
  5
62B
330
36B
100
AcDbEntity
  8
1
  6
Continuous
100
AcDbCircle
 10
262.467816
 20
136.3704149999998
 30
0.0
 40
0.7829229999999999
100
AcDbArc
 50
135.927499
 51
180.000005
  0
ARC
  5
62C
330
36B
100
AcDbEntity
  8
1
  6
Continuous
100
AcDbCircle
 10
262.3832209999998
 20
136.3704149999998
 30
0.0
 40
0.7829229999999999
100
AcDbArc
 50
19.580718
 51
44.072503
  0
ARC
  5
62D
330
36B
100
AcDbEntity
  8
1
  6
Continuous
100
AcDbCircle
 10
262.4255189999999
 20
136.41137
 30
0.0
 40
0.72405
100
AcDbArc
 50
44.072503
 51
135.927499
  0
ARC
  5
62E
330
36B
100
AcDbEntity
  8
1
  6
Continuous
100
AcDbCircle
 10
264.8069879999998
 20
136.381234
 30
0.0
 40
0.7829229999999999
100
AcDbArc
 50
135.927499
 51
180.000005
  0
ARC
  5
62F
330
36B
100
AcDbEntity
  8
1
  6
Continuous
100
AcDbCircle
 10
264.7223939999999
 20
136.381234
 30
0.0
 40
0.7829229999999999
100
AcDbArc
 50
0.0
 51
44.072503
  0
ARC
  5
630
330
36B
100
AcDbEntity
  8
1
  6
Continuous
100
AcDbCircle
 10
264.764691
 20
136.4221729999999
 30
0.0
 40
0.72405
100
AcDbArc
 50
44.072503
 51
135.927499
  0
ARC
  5
631
330
36B
100
AcDbEntity
  8
1
  6
Continuous
100
AcDbCircle
 10
264.8069879999998
 20
135.4114919999998
 30
0.0
 40
0.7829229999999999
100
AcDbArc
 50
179.9999909999999
 51
224.072497
  0
ARC
  5
632
330
36B
100
AcDbEntity
  8
1
  6
Continuous
100
AcDbCircle
 10
264.7223939999999
 20
135.4114919999998
 30
0.0
 40
0.7829229999999999
100
AcDbArc
 50
315.927497
 51
0.0
  0
ARC
  5
633
330
36B
100
AcDbEntity
  8
1
  6
Continuous
100
AcDbCircle
 10
264.764691
 20
135.3705379999998
 30
0.0
 40
0.72405
100
AcDbArc
 50
224.0725009999999
 51
315.927497
  0
ARC
  5
634
330
36B
100
AcDbEntity
  8
1
  6
Continuous
100
AcDbCircle
 10
239.463849
 20
326.611047
 30
0.0
 40
0.600003
100
AcDbArc
 50
269.9999969999999
 51
90.00000300000001
  0
ARC
  5
635
330
36B
100
AcDbEntity
  8
1
  6
Continuous
100
AcDbCircle
 10
14.80376099999999
 20
232.53135
 30
0.0
 40
1.0
100
AcDbArc
 50
196.2569929999999
 51
264.99991
  0
ARC
  5
636
330
36B
100
AcDbEntity
  8
1
  6
Continuous
100
AcDbCircle
 10
20.563893
 20
234.2110369999998
 30
0.0
 40
7.0
100
AcDbArc
 50
163.742966
 51
196.256921
  0
ARC
  5
637
330
36B
100
AcDbEntity
  8
1
  6
Continuous
100
AcDbCircle
 10
14.80376099999999
 20
235.890725
 30
0.0
 40
1.0
100
AcDbArc
 50
95.00004900000002
 51
163.7429799999999
  0
ARC
  5
638
330
36B
100
AcDbEntity
  8
1
  6
Continuous
100
AcDbCircle
 10
14.80376099999999
 20
220.5313499999999
 30
0.0
 40
1.0
100
AcDbArc
 50
196.2569929999999
 51
264.99991
  0
ARC
  5
639
330
36B
100
AcDbEntity
  8
1
  6
Continuous
100
AcDbCircle
 10
20.563893
 20
222.211037
 30
0.0
 40
7.0
100
AcDbArc
 50
163.742966
 51
196.256921
  0
ARC
  5
63A
330
36B
100
AcDbEntity
  8
1
  6
Continuous
100
AcDbCircle
 10
14.80376099999999
 20
223.890725
 30
0.0
 40
1.0
100
AcDbArc
 50
95.00004900000002
 51
163.7429799999999
  0
ARC
  5
63B
330
36B
100
AcDbEntity
  8
1
  6
Continuous
100
AcDbCircle
 10
600.0435610000002
 20
234.171136
 30
0.0
 40
1.0
100
AcDbArc
 50
5.00009
 51
73.74300500000003
  0
ARC
  5
63C
330
36B
100
AcDbEntity
  8
1
  6
Continuous
100
AcDbCircle
 10
598.363873
 20
228.4110339999998
 30
0.0
 40
7.0
100
AcDbArc
 50
73.74308
 51
94.09604599999999
  0
ARC
  5
63D
330
36B
100
AcDbEntity
  8
1
  6
Continuous
100
AcDbCircle
 10
380.5661129999998
 20
222.211037
 30
0.0
 40
0.6
100
AcDbArc
 50
186.000002
 51
355.46946
  0
ARC
  5
63E
330
36B
100
AcDbEntity
  8
1
  6
Continuous
100
AcDbCircle
 10
379.304883
 20
234.2110369999998
 30
0.0
 40
0.6
100
AcDbArc
 50
6.0
 51
74.63540299999998
  0
ARC
  5
63F
330
36B
100
AcDbEntity
  8
1
  6
Continuous
100
AcDbCircle
 10
257.7841609999999
 20
396.8711169999999
 30
0.0
 40
1.0
100
AcDbArc
 50
106.2570209999999
 51
174.999951
  0
ARC
  5
640
330
36B
100
AcDbEntity
  8
1
  6
Continuous
100
AcDbCircle
 10
261.1435359999999
 20
396.8711169999999
 30
0.0
 40
1.0
100
AcDbArc
 50
5.00009
 51
73.74300500000003
  0
ARC
  5
641
330
36B
100
AcDbEntity
  8
1
  6
Continuous
100
AcDbCircle
 10
259.4638489999999
 20
391.111047
 30
0.0
 40
7.0
100
AcDbArc
 50
73.74308
 51
106.257034
  0
CIRCLE
  5
642
330
36B
100
AcDbEntity
  8
1
  6
Continuous
100
AcDbCircle
 10
243.963849
 20
122.711037
 30
0.0
 40
1.6
  0
CIRCLE
  5
643
330
36B
100
AcDbEntity
  8
1
  6
Continuous
100
AcDbCircle
 10
266.963849
 20
122.711037
 30
0.0
 40
1.6
  0
ARC
  5
644
330
36B
100
AcDbEntity
  8
1
  6
Continuous
100
AcDbCircle
 10
484.863812
 20
237.711037
 30
0.0
 40
2.299999999999998
100
AcDbArc
 50
0.0
 51
90.00000300000001
  0
ARC
  5
645
330
36B
100
AcDbEntity
  8
1
  6
Continuous
100
AcDbCircle
 10
484.863812
 20
218.711037
 30
0.0
 40
2.299999999999998
100
AcDbArc
 50
269.9999969999999
 51
0.0
  0
ARC
  5
646
330
36B
100
AcDbEntity
  8
1
  6
Continuous
100
AcDbCircle
 10
489.1239439999998
 20
232.53135
 30
0.0
 40
1.0
100
AcDbArc
 50
275.000092
 51
343.743007
  0
ARC
  5
647
330
36B
100
AcDbEntity
  8
1
  6
Continuous
100
AcDbCircle
 10
483.3638119999998
 20
234.2110369999998
 30
0.0
 40
7.0
100
AcDbArc
 50
343.743079
 51
16.257034
  0
ARC
  5
648
330
36B
100
AcDbEntity
  8
1
  6
Continuous
100
AcDbCircle
 10
489.1239439999998
 20
235.890725
 30
0.0
 40
1.0
100
AcDbArc
 50
16.25702
 51
84.999949
  0
ARC
  5
649
330
36B
100
AcDbEntity
  8
1
  6
Continuous
100
AcDbCircle
 10
489.1239439999998
 20
220.5313499999999
 30
0.0
 40
1.0
100
AcDbArc
 50
275.000092
 51
343.743007
  0
ARC
  5
64A
330
36B
100
AcDbEntity
  8
1
  6
Continuous
100
AcDbCircle
 10
483.3638119999998
 20
222.211037
 30
0.0
 40
7.0
100
AcDbArc
 50
343.743079
 51
16.257034
  0
ARC
  5
64B
330
36B
100
AcDbEntity
  8
1
  6
Continuous
100
AcDbCircle
 10
489.1239439999998
 20
223.890725
 30
0.0
 40
1.0
100
AcDbArc
 50
16.25702
 51
84.999949
  0
ARC
  5
64C
330
36B
100
AcDbEntity
  8
1
  6
Continuous
100
AcDbCircle
 10
259.46391
 20
45.311044
 30
0.0
 40
7.0
100
AcDbArc
 50
253.742966
 51
286.2569199999999
  0
ARC
  5
64D
330
36B
100
AcDbEntity
  8
1
  6
Continuous
100
AcDbCircle
 10
257.7842219999999
 20
39.55094199999999
 30
0.0
 40
1.0
100
AcDbArc
 50
185.000049
 51
253.742979
  0
ARC
  5
64E
330
36B
100
AcDbEntity
  8
1
  6
Continuous
100
AcDbCircle
 10
261.143597
 20
39.55094199999999
 30
0.0
 40
1.0
100
AcDbArc
 50
286.256995
 51
354.9999099999998
  0
ARC
  5
64F
330
36B
100
AcDbEntity
  8
1
  6
Continuous
100
AcDbCircle
 10
243.963849
 20
313.711022
 30
0.0
 40
1.8
100
AcDbArc
 50
346.506601
 51
13.49339899999998
  0
ARC
  5
650
330
36B
100
AcDbEntity
  8
1
  6
Continuous
100
AcDbCircle
 10
243.963849
 20
313.711022
 30
0.0
 40
1.8
100
AcDbArc
 50
76.506602
 51
103.4933959999998
  0
ARC
  5
651
330
36B
100
AcDbEntity
  8
1
  6
Continuous
100
AcDbCircle
 10
243.963849
 20
313.711022
 30
0.0
 40
1.8
100
AcDbArc
 50
166.506597
 51
193.4933989999999
  0
ARC
  5
652
330
36B
100
AcDbEntity
  8
1
  6
Continuous
100
AcDbCircle
 10
243.963849
 20
313.711022
 30
0.0
 40
1.8
100
AcDbArc
 50
256.506604
 51
283.493398
  0
CIRCLE
  5
653
330
36B
100
AcDbEntity
  8
1
  6
Continuous
100
AcDbCircle
 10
243.963849
 20
313.711022
 30
0.0
 40
2.75
  0
CIRCLE
  5
654
330
36B
100
AcDbEntity
  8
1
  6
Continuous
100
AcDbCircle
 10
243.963849
 20
313.711022
 30
0.0
 40
2.95
  0
CIRCLE
  5
655
330
36B
100
AcDbEntity
  8
1
  6
Continuous
100
AcDbCircle
 10
243.963849
 20
313.711022
 30
0.0
 40
3.0
  0
ARC
  5
656
330
36B
100
AcDbEntity
  8
1
  6
Continuous
100
AcDbCircle
 10
266.963849
 20
313.711022
 30
0.0
 40
1.8
100
AcDbArc
 50
346.506601
 51
13.49339899999998
  0
ARC
  5
657
330
36B
100
AcDbEntity
  8
1
  6
Continuous
100
AcDbCircle
 10
266.963849
 20
313.711022
 30
0.0
 40
1.8
100
AcDbArc
 50
76.506602
 51
103.4933959999998
  0
ARC
  5
658
330
36B
100
AcDbEntity
  8
1
  6
Continuous
100
AcDbCircle
 10
266.963849
 20
313.711022
 30
0.0
 40
1.8
100
AcDbArc
 50
166.506597
 51
193.4933989999999
  0
ARC
  5
659
330
36B
100
AcDbEntity
  8
1
  6
Continuous
100
AcDbCircle
 10
266.963849
 20
313.711022
 30
0.0
 40
1.8
100
AcDbArc
 50
256.506604
 51
283.493398
  0
CIRCLE
  5
65A
330
36B
100
AcDbEntity
  8
1
  6
Continuous
100
AcDbCircle
 10
266.963849
 20
313.711022
 30
0.0
 40
2.75
  0
CIRCLE
  5
65B
330
36B
100
AcDbEntity
  8
1
  6
Continuous
100
AcDbCircle
 10
266.963849
 20
313.711022
 30
0.0
 40
2.95
  0
CIRCLE
  5
65C
330
36B
100
AcDbEntity
  8
1
  6
Continuous
100
AcDbCircle
 10
266.963849
 20
313.711022
 30
0.0
 40
3.0
  0
ARC
  5
65D
330
36B
100
AcDbEntity
  8
1
  6
Continuous
100
AcDbCircle
 10
230.9635279999999
 20
138.910729
 30
0.0
 40
3.966394
100
AcDbArc
 50
243.985999
 51
247.055999
  0
ARC
  5
65E
330
36B
100
AcDbEntity
  8
1
  6
Continuous
100
AcDbCircle
 10
229.4308899999998
 20
135.2892389999998
 30
0.0
 40
0.033339
100
AcDbArc
 50
247.055999
 51
0.0
  0
ARC
  5
65F
330
36B
100
AcDbEntity
  8
1
  6
Continuous
100
AcDbCircle
 10
230.0973939999999
 20
135.074731
 30
0.0
 40
0.033339
100
AcDbArc
 50
257.270997
 51
0.0
  0
ARC
  5
660
330
36B
100
AcDbEntity
  8
1
  6
Continuous
100
AcDbCircle
 10
230.9635279999999
 20
138.910729
 30
0.0
 40
3.966394
100
AcDbArc
 50
254.794002
 51
257.270997
  0
ARC
  5
661
330
36B
100
AcDbEntity
  8
1
  6
Continuous
100
AcDbCircle
 10
230.9635279999999
 20
138.910729
 30
0.0
 40
3.966394
100
AcDbArc
 50
254.741997
 51
254.794002
  0
ARC
  5
662
330
36B
100
AcDbEntity
  8
1
  6
Continuous
100
AcDbCircle
 10
229.9640929999999
 20
135.2452479999997
 30
0.0
 40
0.166696
100
AcDbArc
 50
180.000009
 51
254.7419829999999
  0
ARC
  5
663
330
36B
100
AcDbEntity
  8
1
  6
Continuous
100
AcDbCircle
 10
229.9640929999999
 20
136.97683
 30
0.0
 40
0.166696
100
AcDbArc
 50
105.2574979999999
 51
180.000005
  0
ARC
  5
664
330
36B
100
AcDbEntity
  8
1
  6
Continuous
100
AcDbCircle
 10
230.9635279999999
 20
133.311349
 30
0.0
 40
3.966394
100
AcDbArc
 50
103.2681029999999
 51
105.2574979999999
  0
ARC
  5
665
330
36B
100
AcDbEntity
  8
1
  6
Continuous
100
AcDbCircle
 10
230.9635279999999
 20
133.311349
 30
0.0
 40
3.966394
100
AcDbArc
 50
102.7288999999999
 51
103.2681029999999
  0
ARC
  5
666
330
36B
100
AcDbEntity
  8
1
  6
Continuous
100
AcDbCircle
 10
230.0973939999999
 20
137.1473469999999
 30
0.0
 40
0.033339
100
AcDbArc
 50
0.0
 51
102.7288999999999
  0
ARC
  5
667
330
36B
100
AcDbEntity
  8
1
  6
Continuous
100
AcDbCircle
 10
229.297589
 20
135.4963009999998
 30
0.0
 40
0.166696
100
AcDbArc
 50
180.000009
 51
243.985999
  0
ARC
  5
668
330
36B
100
AcDbEntity
  8
1
  6
Continuous
100
AcDbCircle
 10
229.4308899999998
 20
136.9335259999998
 30
0.0
 40
0.033339
100
AcDbArc
 50
0.0
 51
112.944001
  0
ARC
  5
669
330
36B
100
AcDbEntity
  8
1
  6
Continuous
100
AcDbCircle
 10
230.9635279999999
 20
133.311349
 30
0.0
 40
3.966394
100
AcDbArc
 50
112.944001
 51
116.0143969999999
  0
ARC
  5
66A
330
36B
100
AcDbEntity
  8
1
  6
Continuous
100
AcDbCircle
 10
229.297589
 20
136.7257929999998
 30
0.0
 40
0.166696
100
AcDbArc
 50
116.0143969999999
 51
180.000005
  0
ARC
  5
66B
330
36B
100
AcDbEntity
  8
1
  6
Continuous
100
AcDbCircle
 10
228.9639859999998
 20
136.1113819999999
 30
0.0
 40
0.85899
100
AcDbArc
 50
180.000009
 51
234.462011
  0
ARC
  5
66C
330
36B
100
AcDbEntity
  8
1
  6
Continuous
100
AcDbCircle
 10
228.9639859999998
 20
136.1113819999999
 30
0.0
 40
0.85899
100
AcDbArc
 50
125.537702
 51
166.5374019999999
  0
ARC
  5
66D
330
36B
100
AcDbEntity
  8
1
  6
Continuous
100
AcDbCircle
 10
230.9635279999999
 20
138.910729
 30
0.0
 40
3.966394
100
AcDbArc
 50
277.792997
 51
280.1039989999999
  0
ARC
  5
66E
330
36B
100
AcDbEntity
  8
1
  6
Continuous
100
AcDbCircle
 10
231.497418
 20
135.013833
 30
0.0
 40
0.033339
100
AcDbArc
 50
180.000009
 51
277.792997
  0
ARC
  5
66F
330
36B
100
AcDbEntity
  8
1
  6
Continuous
100
AcDbCircle
 10
231.6307189999999
 20
135.170144
 30
0.0
 40
0.166696
100
AcDbArc
 50
280.1039989999999
 51
0.0
  0
ARC
  5
670
330
36B
100
AcDbEntity
  8
1
  6
Continuous
100
AcDbCircle
 10
231.497418
 20
137.208245
 30
0.0
 40
0.033339
100
AcDbArc
 50
82.20700300000002
 51
180.000005
  0
ARC
  5
671
330
36B
100
AcDbEntity
  8
1
  6
Continuous
100
AcDbCircle
 10
230.9635279999999
 20
133.311349
 30
0.0
 40
3.966394
100
AcDbArc
 50
79.896001
 51
82.20700300000002
  0
ARC
  5
672
330
36B
100
AcDbEntity
  8
1
  6
Continuous
100
AcDbCircle
 10
231.6307189999999
 20
137.051949
 30
0.0
 40
0.166696
100
AcDbArc
 50
0.0
 51
79.896001
  0
ARC
  5
673
330
36B
100
AcDbEntity
  8
1
  6
Continuous
100
AcDbCircle
 10
232.963742
 20
136.1113819999999
 30
0.0
 40
0.85899
100
AcDbArc
 50
305.5380009999999
 51
315.699
  0
ARC
  5
674
330
36B
100
AcDbEntity
  8
1
  6
Continuous
100
AcDbCircle
 10
232.963742
 20
136.1113819999999
 30
0.0
 40
0.85899
100
AcDbArc
 50
332.25
 51
54.46199899999999
  0
ARC
  5
675
330
36B
100
AcDbEntity
  8
1
  6
Continuous
100
AcDbCircle
 10
232.630139
 20
136.27784
 30
0.0
 40
0.166696
100
AcDbArc
 50
180.000009
 51
0.0
  0
ARC
  5
676
330
36B
100
AcDbEntity
  8
1
  6
Continuous
100
AcDbCircle
 10
230.9635279999999
 20
133.311349
 30
0.0
 40
4.299698
100
AcDbArc
 50
54.46199899999999
 51
125.537702
  0
ARC
  5
677
330
36B
100
AcDbEntity
  8
1
  6
Continuous
100
AcDbCircle
 10
230.9635279999999
 20
138.910729
 30
0.0
 40
4.299698
100
AcDbArc
 50
234.461997
 51
305.5380009999999
  0
ARC
  5
678
330
36B
100
AcDbEntity
  8
1
  6
Continuous
100
AcDbCircle
 10
154.1638609999999
 20
234.2110369999998
 30
0.0
 40
2.0
100
AcDbArc
 50
90.00000300000001
 51
180.000005
  0
ARC
  5
679
330
36B
100
AcDbEntity
  8
1
  6
Continuous
100
AcDbCircle
 10
154.1638609999999
 20
222.211037
 30
0.0
 40
2.0
100
AcDbArc
 50
179.9999909999999
 51
270.000001
  0
ARC
  5
67A
330
36B
100
AcDbEntity
  8
1
  6
Continuous
100
AcDbCircle
 10
157.1638609999999
 20
222.211037
 30
0.0
 40
2.0
100
AcDbArc
 50
269.9999969999999
 51
0.0
  0
ARC
  5
67B
330
36B
100
AcDbEntity
  8
1
  6
Continuous
100
AcDbCircle
 10
157.1638609999999
 20
234.2110369999998
 30
0.0
 40
2.0
100
AcDbArc
 50
0.0
 51
90.00000300000001
  0
ARC
  5
67C
330
36B
100
AcDbEntity
  8
1
  6
Continuous
100
AcDbCircle
 10
242.963849
 20
235.211037
 30
0.0
 40
1.0
100
AcDbArc
 50
90.00000300000001
 51
180.000005
  0
ARC
  5
67D
330
36B
100
AcDbEntity
  8
1
  6
Continuous
100
AcDbCircle
 10
242.963849
 20
221.2110369999999
 30
0.0
 40
1.0
100
AcDbArc
 50
179.9999909999999
 51
270.000001
  0
ARC
  5
67E
330
36B
100
AcDbEntity
  8
1
  6
Continuous
100
AcDbCircle
 10
245.963849
 20
221.2110369999999
 30
0.0
 40
1.0
100
AcDbArc
 50
269.9999969999999
 51
0.0
  0
ARC
  5
67F
330
36B
100
AcDbEntity
  8
1
  6
Continuous
100
AcDbCircle
 10
245.963849
 20
235.211037
 30
0.0
 40
1.0
100
AcDbArc
 50
0.0
 51
90.00000300000001
  0
ARC
  5
680
330
36B
100
AcDbEntity
  8
1
  6
Continuous
100
AcDbCircle
 10
346.7638669999999
 20
234.2110369999998
 30
0.0
 40
2.0
100
AcDbArc
 50
90.00000300000001
 51
180.000005
  0
ARC
  5
681
330
36B
100
AcDbEntity
  8
1
  6
Continuous
100
AcDbCircle
 10
346.7638669999999
 20
222.211037
 30
0.0
 40
2.0
100
AcDbArc
 50
179.9999909999999
 51
270.000001
  0
ARC
  5
682
330
36B
100
AcDbEntity
  8
1
  6
Continuous
100
AcDbCircle
 10
349.763867
 20
222.211037
 30
0.0
 40
2.0
100
AcDbArc
 50
269.9999969999999
 51
0.0
  0
ARC
  5
683
330
36B
100
AcDbEntity
  8
1
  6
Continuous
100
AcDbCircle
 10
349.763867
 20
234.2110369999998
 30
0.0
 40
2.0
100
AcDbArc
 50
0.0
 51
90.00000300000001
  0
ARC
  5
684
330
36B
100
AcDbEntity
  8
1
  6
Continuous
100
AcDbCircle
 10
582.863873
 20
234.2110369999998
 30
0.0
 40
1.8
100
AcDbArc
 50
346.506601
 51
13.49339899999998
  0
ARC
  5
685
330
36B
100
AcDbEntity
  8
1
  6
Continuous
100
AcDbCircle
 10
582.863873
 20
234.2110369999998
 30
0.0
 40
1.8
100
AcDbArc
 50
76.506602
 51
103.4933959999998
  0
ARC
  5
686
330
36B
100
AcDbEntity
  8
1
  6
Continuous
100
AcDbCircle
 10
582.863873
 20
234.2110369999998
 30
0.0
 40
1.8
100
AcDbArc
 50
166.506597
 51
193.4933989999999
  0
ARC
  5
687
330
36B
100
AcDbEntity
  8
1
  6
Continuous
100
AcDbCircle
 10
582.863873
 20
234.2110369999998
 30
0.0
 40
1.8
100
AcDbArc
 50
256.506604
 51
283.493398
  0
CIRCLE
  5
688
330
36B
100
AcDbEntity
  8
1
  6
Continuous
100
AcDbCircle
 10
582.863873
 20
234.2110369999998
 30
0.0
 40
2.75
  0
ARC
  5
689
330
36B
100
AcDbEntity
  8
1
  6
Continuous
100
AcDbCircle
 10
582.863873
 20
222.211037
 30
0.0
 40
1.8
100
AcDbArc
 50
346.506601
 51
13.49339899999998
  0
ARC
  5
68A
330
36B
100
AcDbEntity
  8
1
  6
Continuous
100
AcDbCircle
 10
582.863873
 20
222.211037
 30
0.0
 40
1.8
100
AcDbArc
 50
76.506602
 51
103.4933959999998
  0
ARC
  5
68B
330
36B
100
AcDbEntity
  8
1
  6
Continuous
100
AcDbCircle
 10
582.863873
 20
222.211037
 30
0.0
 40
1.8
100
AcDbArc
 50
166.506597
 51
193.4933989999999
  0
ARC
  5
68C
330
36B
100
AcDbEntity
  8
1
  6
Continuous
100
AcDbCircle
 10
582.863873
 20
222.211037
 30
0.0
 40
1.8
100
AcDbArc
 50
256.506604
 51
283.493398
  0
CIRCLE
  5
68D
330
36B
100
AcDbEntity
  8
1
  6
Continuous
100
AcDbCircle
 10
582.863873
 20
222.211037
 30
0.0
 40
2.75
  0
CIRCLE
  5
68E
330
36B
100
AcDbEntity
  8
1
  6
Continuous
100
AcDbCircle
 10
582.863873
 20
222.211037
 30
0.0
 40
2.95
  0
CIRCLE
  5
68F
330
36B
100
AcDbEntity
  8
1
  6
Continuous
100
AcDbCircle
 10
582.863873
 20
234.2110369999998
 30
0.0
 40
2.95
  0
CIRCLE
  5
690
330
36B
100
AcDbEntity
  8
1
  6
Continuous
100
AcDbCircle
 10
582.863873
 20
234.2110369999998
 30
0.0
 40
3.0
  0
CIRCLE
  5
691
330
36B
100
AcDbEntity
  8
1
  6
Continuous
100
AcDbCircle
 10
582.863873
 20
222.211037
 30
0.0
 40
3.0
  0
LINE
  5
692
330
36B
100
AcDbEntity
  8
4
  6
CENTER
100
AcDbLine
 10
558.863873
 20
228.211037
 30
0.0
 11
641.363873
 21
228.211037
 31
0.0
  0
LINE
  5
693
330
36B
100
AcDbEntity
  8
1
  6
Continuous
100
AcDbLine
 10
260.3221659999999
 20
229.211037
 30
0.0
 11
259.4638429999998
 21
228.211037
 31
0.0
  0
LINE
  5
694
330
36B
100
AcDbEntity
  8
1
  6
Continuous
100
AcDbLine
 10
259.4638429999998
 20
228.211037
 30
0.0
 11
260.3221659999999
 21
227.211037
 31
0.0
  0
LINE
  5
695
330
36B
100
AcDbEntity
  8
1
  6
Continuous
100
AcDbLine
 10
241.1055109999999
 20
229.211037
 30
0.0
 11
241.963849
 21
228.211037
 31
0.0
  0
LINE
  5
696
330
36B
100
AcDbEntity
  8
1
  6
Continuous
100
AcDbLine
 10
241.963849
 20
228.211037
 30
0.0
 11
241.1055109999999
 21
227.211037
 31
0.0
  0
ARC
  5
697
330
36B
100
AcDbEntity
  8
1
  6
Continuous
100
AcDbCircle
 10
216.963849
 20
234.2110369999998
 30
0.0
 40
1.0
100
AcDbArc
 50
90.0
 51
180.0
  0
ARC
  5
698
330
36B
100
AcDbEntity
  8
1
  6
Continuous
100
AcDbCircle
 10
216.963849
 20
222.211037
 30
0.0
 40
1.0
100
AcDbArc
 50
180.0
 51
270.0
  0
ARC
  5
699
330
36B
100
AcDbEntity
  8
1
  6
Continuous
100
AcDbCircle
 10
206.9638489999999
 20
222.211037
 30
0.0
 40
1.0
100
AcDbArc
 50
180.0
 51
270.0
  0
ARC
  5
69A
330
36B
100
AcDbEntity
  8
1
  6
Continuous
100
AcDbCircle
 10
206.9638489999999
 20
234.2110369999998
 30
0.0
 40
1.0
100
AcDbArc
 50
90.0
 51
180.0
  0
ENDSEC
  0
SECTION
  2
OBJECTS
  0
DICTIONARY
  5
359
330
0
100
AcDbDictionary
281
     1
  3
ACAD_CIP_PREVIOUS_PRODUCT_INFO
350
6FE
  3
ACAD_COLOR
350
6E0
  3
ACAD_DETAILVIEWSTYLE
350
6F9
  3
ACAD_GROUP
350
35A
  3
ACAD_LAYOUT
350
366
  3
ACAD_MATERIAL
350
6AE
  3
ACAD_MLEADERSTYLE
350
6F5
  3
ACAD_MLINESTYLE
350
363
  3
ACAD_PLOTSETTINGS
350
365
  3
ACAD_PLOTSTYLENAME
350
6AC
  3
ACAD_SCALELIST
350
6E3
  3
ACAD_SECTIONVIEWSTYLE
350
6F7
  3
ACAD_TABLESTYLE
350
6E1
  3
ACAD_VISUALSTYLE
350
6C7
  3
ACDB_RECOMPOSE_DATA
350
71C
  3
AcDbVariableDictionary
350
70F
  3
DWGPROPS
350
71D
  0
DICTIONARY
  5
6FF
330
35D
100
AcDbDictionary
280
     1
281
     1
  3
ADSK_XREC_LAYER_RECONCILED
360
700
  0
DICTIONARY
  5
701
330
373
100
AcDbDictionary
280
     1
281
     1
  3
ADSK_XREC_LAYER_RECONCILED
360
702
  0
DICTIONARY
  5
703
330
374
100
AcDbDictionary
280
     1
281
     1
  3
ADSK_XREC_LAYER_RECONCILED
360
704
  0
DICTIONARY
  5
705
330
375
100
AcDbDictionary
280
     1
281
     1
  3
ADSK_XREC_LAYER_RECONCILED
360
706
  0
DICTIONARY
  5
707
330
376
100
AcDbDictionary
280
     1
281
     1
  3
ADSK_XREC_LAYER_RECONCILED
360
708
  0
DICTIONARY
  5
709
330
377
100
AcDbDictionary
280
     1
281
     1
  3
ADSK_XREC_LAYER_RECONCILED
360
70A
  0
DICTIONARY
  5
70B
330
378
100
AcDbDictionary
280
     1
281
     1
  3
ADSK_XREC_LAYER_RECONCILED
360
70C
  0
DICTIONARY
  5
70D
330
379
100
AcDbDictionary
280
     1
281
     1
  3
ADSK_XREC_LAYER_RECONCILED
360
70E
  0
DICTIONARY
  5
6A7
330
36B
100
AcDbDictionary
281
     1
  3
ACAD_LAYOUTSELFREF
350
6A8
  0
DICTIONARY
  5
6A5
330
367
100
AcDbDictionary
281
     1
  3
ACAD_LAYOUTSELFREF
350
6A6
  0
XRECORD
  5
6FE
102
{ACAD_REACTORS
330
359
102
}
330
359
100
AcDbXrecord
280
     1
300
ACDLT
300
2014
300
ACDLT_F_S
  0
DICTIONARY
  5
6E0
102
{ACAD_REACTORS
330
359
102
}
330
359
100
AcDbDictionary
281
     1
  0
DICTIONARY
  5
6F9
102
{ACAD_REACTORS
330
359
102
}
330
359
100
AcDbDictionary
281
     1
  3
Imperial24
350
6FA
  0
DICTIONARY
  5
35A
102
{ACAD_REACTORS
330
359
102
}
330
359
100
AcDbDictionary
281
     1
  0
DICTIONARY
  5
366
102
{ACAD_REACTORS
330
359
102
}
330
359
100
AcDbDictionary
281
     1
  3
Model
350
6FB
  3
レイアウト1
350
6FC
  0
DICTIONARY
  5
6AE
102
{ACAD_REACTORS
330
359
102
}
330
359
100
AcDbDictionary
281
     1
  3
ByBlock
350
6B7
  3
ByLayer
350
6AF
  3
Global
350
6BF
  0
DICTIONARY
  5
6F5
102
{ACAD_REACTORS
330
359
102
}
330
359
100
AcDbDictionary
281
     1
  3
Standard
350
6F6
  0
DICTIONARY
  5
363
102
{ACAD_REACTORS
330
359
102
}
330
359
100
AcDbDictionary
281
     1
  3
STANDARD
350
364
  0
DICTIONARY
  5
365
102
{ACAD_REACTORS
330
359
102
}
330
359
100
AcDbDictionary
281
     1
  0
ACDBDICTIONARYWDFLT
  5
6AC
102
{ACAD_REACTORS
330
359
102
}
330
359
100
AcDbDictionary
281
     1
  3
Normal
350
6AD
100
AcDbDictionaryWithDefault
340
6AD
  0
DICTIONARY
  5
6E3
102
{ACAD_REACTORS
330
359
102
}
330
359
100
AcDbDictionary
281
     1
  3
A0
350
6E4
  3
A1
350
6E5
  3
A2
350
6E6
  3
A3
350
6E7
  3
A4
350
6E8
  3
A5
350
6E9
  3
A6
350
6EA
  3
A7
350
6EB
  3
A8
350
6EC
  3
A9
350
6ED
  3
B0
350
6EE
  3
B1
350
6EF
  3
B2
350
6F0
  3
B3
350
6F1
  3
B4
350
6F2
  3
B5
350
6F3
  3
B6
350
6F4
  0
DICTIONARY
  5
6F7
102
{ACAD_REACTORS
330
359
102
}
330
359
100
AcDbDictionary
281
     1
  3
Imperial24
350
6F8
  0
DICTIONARY
  5
6E1
102
{ACAD_REACTORS
330
359
102
}
330
359
100
AcDbDictionary
281
     1
  3
Standard
350
6E2
  0
DICTIONARY
  5
6C7
102
{ACAD_REACTORS
330
359
102
}
330
359
100
AcDbDictionary
281
     1
  3
2dWireframe
350
6CD
  3
Basic
350
6CC
  3
Brighten
350
6D3
  3
ColorChange
350
6D7
  3
Conceptual
350
6D0
  3
Dim
350
6D2
  3
EdgeColorOff
350
6DF
  3
Facepattern
350
6D6
  3
Flat
350
6C8
  3
FlatWithEdges
350
6C9
  3
Gouraud
350
6CA
  3
GouraudWithEdges
350
6CB
  3
Hidden
350
6CF
  3
JitterOff
350
6DD
  3
Linepattern
350
6D5
  3
OverhangOff
350
6DE
  3
Realistic
350
6D1
  3
Shaded
350
6DC
  3
Shaded with edges
350
6DB
  3
Shades of Gray
350
6D8
  3
Sketchy
350
6D9
  3
Thicken
350
6D4
  3
Wireframe
350
6CE
  3
X-Ray
350
6DA
  0
XRECORD
  5
71C
102
{ACAD_REACTORS
330
359
102
}
330
359
100
AcDbXrecord
280
     1
 90
        1
330
6E2
  0
DICTIONARY
  5
70F
102
{ACAD_REACTORS
330
359
102
}
330
359
100
AcDbDictionary
281
     1
  3
CANNOSCALE
350
714
  3
CMLEADERSTYLE
350
711
  3
CTABLESTYLE
350
710
  3
CVIEWDETAILSTYLE
350
712
  3
CVIEWSECTIONSTYLE
350
713
  3
DIMASSOC
350
717
  3
INDEXCTL
350
716
  3
SORTENTS
350
715
  3
XCLIPFRAME
350
718
  0
XRECORD
  5
71D
102
{ACAD_REACTORS
330
359
102
}
330
359
100
AcDbXrecord
280
     1
  1
DWGPROPS COOKIE
  2

  3

  4

  6

  7

  8
Yoshitsune
  9

300
=
301
=
302
=
303
=
304
=
305
=
306
=
307
=
308
=
309
=
 40
0.0000147222222222
 41
2450955.748652894
 42
2457192.600820486
  1

 90
        0
  0
XRECORD
  5
700
102
{ACAD_REACTORS
330
6FF
102
}
330
6FF
100
AcDbXrecord
280
     1
290
     1
  0
XRECORD
  5
702
102
{ACAD_REACTORS
330
701
102
}
330
701
100
AcDbXrecord
280
     1
290
     1
  0
XRECORD
  5
704
102
{ACAD_REACTORS
330
703
102
}
330
703
100
AcDbXrecord
280
     1
290
     1
  0
XRECORD
  5
706
102
{ACAD_REACTORS
330
705
102
}
330
705
100
AcDbXrecord
280
     1
290
     1
  0
XRECORD
  5
708
102
{ACAD_REACTORS
330
707
102
}
330
707
100
AcDbXrecord
280
     1
290
     1
  0
XRECORD
  5
70A
102
{ACAD_REACTORS
330
709
102
}
330
709
100
AcDbXrecord
280
     1
290
     1
  0
XRECORD
  5
70C
102
{ACAD_REACTORS
330
70B
102
}
330
70B
100
AcDbXrecord
280
     1
290
     1
  0
XRECORD
  5
70E
102
{ACAD_REACTORS
330
70D
102
}
330
70D
100
AcDbXrecord
280
     1
290
     1
  0
XRECORD
  5
6A8
102
{ACAD_REACTORS
330
6A7
102
}
330
6A7
100
AcDbXrecord
280
     1
340
36B
  0
XRECORD
  5
6A6
102
{ACAD_REACTORS
330
6A5
102
}
330
6A5
100
AcDbXrecord
280
     1
340
367
  0
ACDBDETAILVIEWSTYLE
  5
6FA
102
{ACAD_XDICTIONARY
360
755
102
}
102
{ACAD_REACTORS
330
6F9
102
}
330
6F9
100
AcDbModelDocViewStyle
 70
     0
  3
Imperial24
290
     0
100
AcDbDetailViewStyle
 70
     0
 71
     0
 90
        3
 71
     1
340
35E
 40
0.24
340
0
 40
0.24
300

 40
0.36
280
     3
 71
     2
340
362
 90
       25
 71
     3
340
35E
 40
0.24
 90
        1
 40
0.75
 90
        1
300
%<\AcVar ViewType \f "%tc1">% %<\AcVar ViewDetailId>%\PSCALE %<\AcVar ViewScale \f "%sn">%
 71
     4
340
362
 90
       25
340
362
 90
       25
280
     0
  0
LAYOUT
  5
6FB
102
{ACAD_XDICTIONARY
360
757
102
}
102
{ACAD_REACTORS
330
366
102
}
330
366
100
AcDbPlotSettings
  1

  2
Canon LBP9100C
  4

  6

 40
0.0
 41
0.0
 42
0.0
 43
0.0
 44
0.0
 45
0.0
 46
0.0
 47
0.0
 48
0.0
 49
0.0
140
0.0
141
0.0
142
1.0
143
1.0
 70
  1712
 72
     0
 73
     0
 74
     0
  7

 75
     0
147
1.0
148
0.0
149
0.0
100
AcDbLayout
  1
Model
 70
     1
 71
     0
 10
0.0
 20
0.0
 11
12.0
 21
9.0
 12
0.0
 22
0.0
 32
0.0
 14
0.0
 24
0.0
 34
0.0
 15
0.0
 25
0.0
 35
0.0
146
0.0
 13
0.0
 23
0.0
 33
0.0
 16
1.0
 26
0.0
 36
0.0
 17
0.0
 27
1.0
 37
0.0
 76
     0
330
36B
331
6A4
  0
LAYOUT
  5
6FC
102
{ACAD_XDICTIONARY
360
759
102
}
102
{ACAD_REACTORS
330
366
102
}
330
366
100
AcDbPlotSettings
  1

  2
Canon LBP9100C
  4

  6

 40
0.0
 41
0.0
 42
0.0
 43
0.0
 44
0.0
 45
0.0
 46
0.0
 47
0.0
 48
0.0
 49
0.0
140
0.0
141
0.0
142
1.0
143
1.0
 70
   688
 72
     0
 73
     0
 74
     5
  7

 75
    16
147
1.0
148
0.0
149
0.0
100
AcDbLayout
  1
レイアウト1
 70
     0
 71
     1
 10
0.0
 20
0.0
 11
420.0
 21
297.0
 12
0.0
 22
0.0
 32
0.0
 14
1.000000000000000E+20
 24
1.000000000000000E+20
 34
1.000000000000000E+20
 15
-1.000000000000000E+20
 25
-1.000000000000000E+20
 35
-1.000000000000000E+20
146
0.0
 13
0.0
 23
0.0
 33
0.0
 16
1.0
 26
0.0
 36
0.0
 17
0.0
 27
1.0
 37
0.0
 76
     0
330
367
  0
MATERIAL
  5
6B7
102
{ACAD_XDICTIONARY
360
6B8
102
}
102
{ACAD_REACTORS
330
6AE
102
}
330
6AE
100
AcDbMaterial
  1
ByBlock
 72
     0
 43
0.0208333333333333
 43
0.0
 43
0.0
 43
0.0
 43
0.0
 43
0.0208333333333333
 43
0.0
 43
0.0
 43
0.0
 43
0.0
 43
1.0
 43
0.0
 43
0.0
 43
0.0
 43
0.0
 43
1.0
 77
     0
 47
0.0208333333333333
 47
0.0
 47
0.0
 47
0.0
 47
0.0
 47
0.0208333333333333
 47
0.0
 47
0.0
 47
0.0
 47
0.0
 47
1.0
 47
0.0
 47
0.0
 47
0.0
 47
0.0
 47
1.0
171
     0
 49
0.0208333333333333
 49
0.0
 49
0.0
 49
0.0
 49
0.0
 49
0.0208333333333333
 49
0.0
 49
0.0
 49
0.0
 49
0.0
 49
1.0
 49
0.0
 49
0.0
 49
0.0
 49
0.0
 49
1.0
175
     0
142
0.0208333333333333
142
0.0
142
0.0
142
0.0
142
0.0
142
0.0208333333333333
142
0.0
142
0.0
142
0.0
142
0.0
142
1.0
142
0.0
142
0.0
142
0.0
142
0.0
142
1.0
179
     0
144
0.0208333333333333
144
0.0
144
0.0
144
0.0
144
0.0
144
0.0208333333333333
144
0.0
144
0.0
144
0.0
144
0.0
144
1.0
144
0.0
144
0.0
144
0.0
144
0.0
144
1.0
147
0.0208333333333333
147
0.0
147
0.0
147
0.0
147
0.0
147
0.0208333333333333
147
0.0
147
0.0
147
0.0
147
0.0
147
1.0
147
0.0
147
0.0
147
0.0
147
0.0
147
1.0
  0
MATERIAL
  5
6AF
102
{ACAD_XDICTIONARY
360
6B0
102
}
102
{ACAD_REACTORS
330
6AE
102
}
330
6AE
100
AcDbMaterial
  1
ByLayer
 72
     0
 43
0.0208333333333333
 43
0.0
 43
0.0
 43
0.0
 43
0.0
 43
0.0208333333333333
 43
0.0
 43
0.0
 43
0.0
 43
0.0
 43
1.0
 43
0.0
 43
0.0
 43
0.0
 43
0.0
 43
1.0
 77
     0
 47
0.0208333333333333
 47
0.0
 47
0.0
 47
0.0
 47
0.0
 47
0.0208333333333333
 47
0.0
 47
0.0
 47
0.0
 47
0.0
 47
1.0
 47
0.0
 47
0.0
 47
0.0
 47
0.0
 47
1.0
171
     0
 49
0.0208333333333333
 49
0.0
 49
0.0
 49
0.0
 49
0.0
 49
0.0208333333333333
 49
0.0
 49
0.0
 49
0.0
 49
0.0
 49
1.0
 49
0.0
 49
0.0
 49
0.0
 49
0.0
 49
1.0
175
     0
142
0.0208333333333333
142
0.0
142
0.0
142
0.0
142
0.0
142
0.0208333333333333
142
0.0
142
0.0
142
0.0
142
0.0
142
1.0
142
0.0
142
0.0
142
0.0
142
0.0
142
1.0
179
     0
144
0.0208333333333333
144
0.0
144
0.0
144
0.0
144
0.0
144
0.0208333333333333
144
0.0
144
0.0
144
0.0
144
0.0
144
1.0
144
0.0
144
0.0
144
0.0
144
0.0
144
1.0
147
0.0208333333333333
147
0.0
147
0.0
147
0.0
147
0.0
147
0.0208333333333333
147
0.0
147
0.0
147
0.0
147
0.0
147
1.0
147
0.0
147
0.0
147
0.0
147
0.0
147
1.0
  0
MATERIAL
  5
6BF
102
{ACAD_XDICTIONARY
360
6C0
102
}
102
{ACAD_REACTORS
330
6AE
102
}
330
6AE
100
AcDbMaterial
  1
Global
 72
     0
 43
0.0208333333333333
 43
0.0
 43
0.0
 43
0.0
 43
0.0
 43
0.0208333333333333
 43
0.0
 43
0.0
 43
0.0
 43
0.0
 43
1.0
 43
0.0
 43
0.0
 43
0.0
 43
0.0
 43
1.0
 77
     0
 47
0.0208333333333333
 47
0.0
 47
0.0
 47
0.0
 47
0.0
 47
0.0208333333333333
 47
0.0
 47
0.0
 47
0.0
 47
0.0
 47
1.0
 47
0.0
 47
0.0
 47
0.0
 47
0.0
 47
1.0
171
     0
 49
0.0208333333333333
 49
0.0
 49
0.0
 49
0.0
 49
0.0
 49
0.0208333333333333
 49
0.0
 49
0.0
 49
0.0
 49
0.0
 49
1.0
 49
0.0
 49
0.0
 49
0.0
 49
0.0
 49
1.0
175
     0
142
0.0208333333333333
142
0.0
142
0.0
142
0.0
142
0.0
142
0.0208333333333333
142
0.0
142
0.0
142
0.0
142
0.0
142
1.0
142
0.0
142
0.0
142
0.0
142
0.0
142
1.0
179
     0
144
0.0208333333333333
144
0.0
144
0.0
144
0.0
144
0.0
144
0.0208333333333333
144
0.0
144
0.0
144
0.0
144
0.0
144
1.0
144
0.0
144
0.0
144
0.0
144
0.0
144
1.0
147
0.0208333333333333
147
0.0
147
0.0
147
0.0
147
0.0
147
0.0208333333333333
147
0.0
147
0.0
147
0.0
147
0.0
147
1.0
147
0.0
147
0.0
147
0.0
147
0.0
147
1.0
  0
MLEADERSTYLE
  5
6F6
102
{ACAD_REACTORS
330
6F5
102
}
330
6F5
100
AcDbMLeaderStyle
170
     2
171
     1
172
     0
 90
        2
 40
0.0
 41
0.0
173
     1
 91
-1056964608
340
360
 92
       -2
290
     1
 42
0.09
291
     1
 43
0.36
  3
Standard
 44
0.18
300

342
35E
174
     1
178
     6
175
     1
176
     0
 93
-1056964608
 45
0.18
292
     0
297
     0
 46
0.18
 94
-1056964608
 47
1.0
 49
1.0
140
1.0
293
     1
141
0.0
294
     1
177
     0
142
1.0
295
     0
296
     0
143
0.125
1001
ACAD_MLEADERVER
1070
     2
  0
MLINESTYLE
  5
364
102
{ACAD_REACTORS
330
363
102
}
330
363
100
AcDbMlineStyle
  2
STANDARD
 70
     0
  3

 62
   256
 51
90.0
 52
90.0
 71
     2
 49
0.5
 62
   256
  6
BYLAYER
 49
-0.5
 62
   256
  6
BYLAYER
  0
ACDBPLACEHOLDER
  5
6AD
102
{ACAD_REACTORS
330
6AC
102
}
330
6AC
  0
SCALE
  5
6E4
102
{ACAD_REACTORS
330
6E3
102
}
330
6E3
100
AcDbScale
 70
     0
300
1:1
140
1.0
141
1.0
290
     1
  0
SCALE
  5
6E5
102
{ACAD_REACTORS
330
6E3
102
}
330
6E3
100
AcDbScale
 70
     0
300
1/128" = 1'-0"
140
0.0078125
141
12.0
290
     0
  0
SCALE
  5
6E6
102
{ACAD_REACTORS
330
6E3
102
}
330
6E3
100
AcDbScale
 70
     0
300
1/64" = 1'-0"
140
0.015625
141
12.0
290
     0
  0
SCALE
  5
6E7
102
{ACAD_REACTORS
330
6E3
102
}
330
6E3
100
AcDbScale
 70
     0
300
1/32" = 1'-0"
140
0.03125
141
12.0
290
     0
  0
SCALE
  5
6E8
102
{ACAD_REACTORS
330
6E3
102
}
330
6E3
100
AcDbScale
 70
     0
300
1/16" = 1'-0"
140
0.0625
141
12.0
290
     0
  0
SCALE
  5
6E9
102
{ACAD_REACTORS
330
6E3
102
}
330
6E3
100
AcDbScale
 70
     0
300
3/32" = 1'-0"
140
0.09375
141
12.0
290
     0
  0
SCALE
  5
6EA
102
{ACAD_REACTORS
330
6E3
102
}
330
6E3
100
AcDbScale
 70
     0
300
1/8" = 1'-0"
140
0.125
141
12.0
290
     0
  0
SCALE
  5
6EB
102
{ACAD_REACTORS
330
6E3
102
}
330
6E3
100
AcDbScale
 70
     0
300
3/16" = 1'-0"
140
0.1875
141
12.0
290
     0
  0
SCALE
  5
6EC
102
{ACAD_REACTORS
330
6E3
102
}
330
6E3
100
AcDbScale
 70
     0
300
1/4" = 1'-0"
140
0.25
141
12.0
290
     0
  0
SCALE
  5
6ED
102
{ACAD_REACTORS
330
6E3
102
}
330
6E3
100
AcDbScale
 70
     0
300
3/8" = 1'-0"
140
0.375
141
12.0
290
     0
  0
SCALE
  5
6EE
102
{ACAD_REACTORS
330
6E3
102
}
330
6E3
100
AcDbScale
 70
     0
300
1/2" = 1'-0"
140
0.5
141
12.0
290
     0
  0
SCALE
  5
6EF
102
{ACAD_REACTORS
330
6E3
102
}
330
6E3
100
AcDbScale
 70
     0
300
3/4" = 1'-0"
140
0.75
141
12.0
290
     0
  0
SCALE
  5
6F0
102
{ACAD_REACTORS
330
6E3
102
}
330
6E3
100
AcDbScale
 70
     0
300
1" = 1'-0"
140
1.0
141
12.0
290
     0
  0
SCALE
  5
6F1
102
{ACAD_REACTORS
330
6E3
102
}
330
6E3
100
AcDbScale
 70
     0
300
1-1/2" = 1'-0"
140
1.5
141
12.0
290
     0
  0
SCALE
  5
6F2
102
{ACAD_REACTORS
330
6E3
102
}
330
6E3
100
AcDbScale
 70
     0
300
3" = 1'-0"
140
3.0
141
12.0
290
     0
  0
SCALE
  5
6F3
102
{ACAD_REACTORS
330
6E3
102
}
330
6E3
100
AcDbScale
 70
     0
300
6" = 1'-0"
140
6.0
141
12.0
290
     0
  0
SCALE
  5
6F4
102
{ACAD_REACTORS
330
6E3
102
}
330
6E3
100
AcDbScale
 70
     0
300
1'-0" = 1'-0"
140
12.0
141
12.0
290
     0
  0
ACDBSECTIONVIEWSTYLE
  5
6F8
102
{ACAD_XDICTIONARY
360
753
102
}
102
{ACAD_REACTORS
330
6F7
102
}
330
6F7
100
AcDbModelDocViewStyle
 70
     0
  3
Imperial24
290
     0
100
AcDbSectionViewStyle
 70
     0
 71
     0
 90
       78
 71
     1
340
35E
 40
0.24
340
0
340
0
 40
0.24
300
I, O, Q, S, X, Z
 40
0.48
 90
        3
 40
0.18
 90
        1
 71
     2
340
362
 90
       25
340
362
 90
       50
 40
0.24
 40
0.0
 40
0.24
 71
     3
340
35E
 40
0.24
 90
        1
 40
0.75
 90
        1
300
%<\AcVar ViewType \f "%tc1">% %<\AcVar ViewSectionStartId>%-%<\AcVar ViewSectionEndId>%\PSCALE %<\AcVar ViewScale \f "%sn">%
 71
     4
300
ANSI31
 40
1.0
 90
        0
290
     0
290
     0
 90
        6
 40
0.0
 40
1.570796326794896
 40
0.2617993877991494
 40
1.308996938995747
 40
-0.2617993877991494
 40
1.832595714594046
  0
TABLESTYLE
  5
6E2
102
{ACAD_XDICTIONARY
360
71A
102
}
102
{ACAD_REACTORS
330
6E1
102
}
330
6E1
100
AcDbTableStyle
  3
Standard
 70
     0
 71
     0
 40
0.06
 41
0.06
280
     0
281
     0
  7
STANDARD
140
0.18
170
     2
 62
     0
 63
     7
283
     0
274
    -2
284
     1
 64
     0
275
    -2
285
     1
 65
     0
276
    -2
286
     1
 66
     0
277
    -2
287
     1
 67
     0
278
    -2
288
     1
 68
     0
279
    -2
289
     1
 69
     0
  7
STANDARD
140
0.25
170
     5
 62
     0
 63
     7
283
     0
274
    -2
284
     1
 64
     0
275
    -2
285
     1
 65
     0
276
    -2
286
     1
 66
     0
277
    -2
287
     1
 67
     0
278
    -2
288
     1
 68
     0
279
    -2
289
     1
 69
     0
  7
STANDARD
140
0.18
170
     5
 62
     0
 63
     7
283
     0
274
    -2
284
     1
 64
     0
275
    -2
285
     1
 65
     0
276
    -2
286
     1
 66
     0
277
    -2
287
     1
 67
     0
278
    -2
288
     1
 68
     0
279
    -2
289
     1
 69
     0
  0
VISUALSTYLE
  5
6CD
102
{ACAD_XDICTIONARY
360
72B
102
}
102
{ACAD_REACTORS
330
6C7
102
}
330
6C7
100
AcDbVisualStyle
  2
2dWireframe
 70
     4
 71
     0
 72
     2
 73
     0
 90
        0
 40
-0.6
 41
-30.0
 62
     5
 63
     7
 74
     1
 91
        4
 64
     7
 65
   257
 75
     1
175
     1
 42
1.0
 92
        0
 66
   257
 43
1.0
 76
     1
 77
     6
 78
     2
 67
     7
 79
     5
170
     0
171
     0
290
     0
174
     0
 93
        1
 44
0.0
173
     0
291
     0
 45
0.0
1001
ACAD
1000
AcDbSavedByObjectVersion
1070
     0
  0
VISUALSTYLE
  5
6CC
102
{ACAD_XDICTIONARY
360
729
102
}
102
{ACAD_REACTORS
330
6C7
102
}
330
6C7
100
AcDbVisualStyle
  2
Basic
 70
     7
 71
     1
 72
     0
 73
     1
 90
        0
 40
-0.6
 41
-30.0
 62
     5
 63
     7
 74
     0
 91
        4
 64
     7
 65
   257
 75
     1
175
     1
 42
1.0
 92
        8
 66
     7
 43
1.0
 76
     1
 77
     6
 78
     2
 67
     7
 79
     5
170
     0
171
     0
290
     0
174
     0
 93
        1
 44
0.0
173
     0
291
     1
 45
0.0
1001
ACAD
1000
AcDbSavedByObjectVersion
1070
     0
  0
VISUALSTYLE
  5
6D3
102
{ACAD_XDICTIONARY
360
737
102
}
102
{ACAD_REACTORS
330
6C7
102
}
330
6C7
100
AcDbVisualStyle
  2
Brighten
 70
    12
 71
     2
 72
     2
 73
     0
 90
        0
 40
-0.6
 41
-30.0
 62
     5
 63
     7
 74
     1
 91
        4
 64
     7
 65
   257
 75
     1
175
     1
 42
1.0
 92
        8
 66
     7
 43
1.0
 76
     1
 77
     6
 78
     2
 67
     7
 79
     5
170
     0
171
     0
290
     0
174
     0
 93
        1
 44
50.0
173
     0
291
     1
 45
0.0
1001
ACAD
1000
AcDbSavedByObjectVersion
1070
     0
  0
VISUALSTYLE
  5
6D7
102
{ACAD_XDICTIONARY
360
73F
102
}
102
{ACAD_REACTORS
330
6C7
102
}
330
6C7
100
AcDbVisualStyle
  2
ColorChange
 70
    16
 71
     2
 72
     2
 73
     3
 90
        0
 40
-0.6
 41
-30.0
 62
     5
 63
     8
 74
     1
 91
        4
 64
     7
 65
   257
 75
     1
175
     1
 42
1.0
 92
        8
 66
     8
 43
1.0
 76
     1
 77
     6
 78
     2
 67
     7
 79
     5
170
     0
171
     0
290
     0
174
     0
 93
        1
 44
0.0
173
     0
291
     1
 45
0.0
1001
ACAD
1000
AcDbSavedByObjectVersion
1070
     0
  0
VISUALSTYLE
  5
6D0
102
{ACAD_XDICTIONARY
360
731
102
}
102
{ACAD_REACTORS
330
6C7
102
}
330
6C7
100
AcDbVisualStyle
  2
Conceptual
 70
     9
 71
     3
 72
     2
 73
     0
 90
        0
 40
-0.6
 41
-30.0
 62
     5
 63
     7
 74
     2
 91
        2
 64
     7
 65
   257
 75
     1
175
     1
 42
179.0
 92
        8
 66
     7
 43
1.0
 76
     1
 77
     6
 78
     2
 67
     7
 79
     3
170
     0
171
     0
290
     0
174
     0
 93
        1
 44
0.0
173
     0
291
     0
 45
0.0
1001
ACAD
1000
AcDbSavedByObjectVersion
1070
     0
  0
VISUALSTYLE
  5
6D2
102
{ACAD_XDICTIONARY
360
735
102
}
102
{ACAD_REACTORS
330
6C7
102
}
330
6C7
100
AcDbVisualStyle
  2
Dim
 70
    11
 71
     2
 72
     2
 73
     0
 90
        0
 40
-0.6
 41
-30.0
 62
     5
 63
     7
 74
     1
 91
        4
 64
     7
 65
   257
 75
     1
175
     1
 42
1.0
 92
        8
 66
     7
 43
1.0
 76
     1
 77
     6
 78
     2
 67
     7
 79
     5
170
     0
171
     0
290
     0
174
     0
 93
        1
 44
-50.0
173
     0
291
     1
 45
0.0
1001
ACAD
1000
AcDbSavedByObjectVersion
1070
     0
  0
VISUALSTYLE
  5
6DF
102
{ACAD_XDICTIONARY
360
74F
102
}
102
{ACAD_REACTORS
330
6C7
102
}
330
6C7
100
AcDbVisualStyle
  2
EdgeColorOff
 70
    22
 71
     2
 72
     2
 73
     0
 90
        0
 40
-0.6
 41
-30.0
 62
     5
 63
     7
 74
     1
 91
        4
 64
     7
 65
   257
 75
     1
175
     1
 42
1.0
 92
        8
 66
     7
 43
1.0
 76
     1
 77
     6
 78
     2
 67
     7
 79
     5
170
     0
171
     0
290
     0
174
     0
 93
        1
 44
0.0
173
     0
291
     1
 45
0.0
1001
ACAD
1000
AcDbSavedByObjectVersion
1070
     0
  0
VISUALSTYLE
  5
6D6
102
{ACAD_XDICTIONARY
360
73D
102
}
102
{ACAD_REACTORS
330
6C7
102
}
330
6C7
100
AcDbVisualStyle
  2
Facepattern
 70
    15
 71
     2
 72
     2
 73
     0
 90
        0
 40
-0.6
 41
-30.0
 62
     5
 63
     7
 74
     1
 91
        4
 64
     7
 65
   257
 75
     1
175
     1
 42
1.0
 92
        8
 66
     7
 43
1.0
 76
     1
 77
     6
 78
     2
 67
     7
 79
     5
170
     0
171
     0
290
     0
174
     0
 93
        1
 44
0.0
173
     0
291
     1
 45
0.0
1001
ACAD
1000
AcDbSavedByObjectVersion
1070
     0
  0
VISUALSTYLE
  5
6C8
102
{ACAD_XDICTIONARY
360
721
102
}
102
{ACAD_REACTORS
330
6C7
102
}
330
6C7
100
AcDbVisualStyle
  2
Flat
 70
     0
 71
     2
 72
     1
 73
     1
 90
        2
 40
-0.6
 41
30.0
 62
     5
 63
     7
 74
     0
 91
        0
 64
     7
 65
   257
 75
     1
175
     1
 42
1.0
 92
        8
 66
     7
 43
1.0
 76
     1
 77
     6
 78
     2
 67
     7
 79
     5
170
     0
171
     0
290
     0
174
     0
 93
       13
 44
0.0
173
     0
291
     1
 45
0.0
1001
ACAD
1000
AcDbSavedByObjectVersion
1070
     0
  0
VISUALSTYLE
  5
6C9
102
{ACAD_XDICTIONARY
360
723
102
}
102
{ACAD_REACTORS
330
6C7
102
}
330
6C7
100
AcDbVisualStyle
  2
FlatWithEdges
 70
     1
 71
     2
 72
     1
 73
     1
 90
        2
 40
-0.6
 41
30.0
 62
     5
 63
     7
 74
     1
 91
        0
 64
     7
 65
   257
 75
     1
175
     1
 42
1.0
 92
        0
 66
   257
 43
1.0
 76
     1
 77
     6
 78
     2
 67
     7
 79
     5
170
     0
171
     0
290
     0
174
     0
 93
       13
 44
0.0
173
     0
291
     1
 45
0.0
1001
ACAD
1000
AcDbSavedByObjectVersion
1070
     0
  0
VISUALSTYLE
  5
6CA
102
{ACAD_XDICTIONARY
360
725
102
}
102
{ACAD_REACTORS
330
6C7
102
}
330
6C7
100
AcDbVisualStyle
  2
Gouraud
 70
     2
 71
     2
 72
     2
 73
     1
 90
        2
 40
-0.6
 41
30.0
 62
     5
 63
     7
 74
     0
 91
        0
 64
     7
 65
   257
 75
     1
175
     1
 42
1.0
 92
        0
 66
     7
 43
1.0
 76
     1
 77
     6
 78
     2
 67
     7
 79
     5
170
     0
171
     0
290
     0
174
     0
 93
       13
 44
0.0
173
     0
291
     1
 45
0.0
1001
ACAD
1000
AcDbSavedByObjectVersion
1070
     0
  0
VISUALSTYLE
  5
6CB
102
{ACAD_XDICTIONARY
360
727
102
}
102
{ACAD_REACTORS
330
6C7
102
}
330
6C7
100
AcDbVisualStyle
  2
GouraudWithEdges
 70
     3
 71
     2
 72
     2
 73
     1
 90
        2
 40
-0.6
 41
30.0
 62
     5
 63
     7
 74
     1
 91
        0
 64
     7
 65
   257
 75
     1
175
     1
 42
1.0
 92
        0
 66
   257
 43
1.0
 76
     1
 77
     6
 78
     2
 67
     7
 79
     5
170
     0
171
     0
290
     0
174
     0
 93
       13
 44
0.0
173
     0
291
     1
 45
0.0
1001
ACAD
1000
AcDbSavedByObjectVersion
1070
     0
  0
VISUALSTYLE
  5
6CF
102
{ACAD_XDICTIONARY
360
72F
102
}
102
{ACAD_REACTORS
330
6C7
102
}
330
6C7
100
AcDbVisualStyle
  2
Hidden
 70
     6
 71
     1
 72
     2
 73
     2
 90
        0
 40
-0.6
 41
-30.0
 62
     5
 63
     7
 74
     2
 91
        2
 64
     7
 65
   257
 75
     2
175
     1
 42
40.0
 92
        0
 66
   257
 43
1.0
 76
     1
 77
     6
 78
     2
 67
     7
 79
     3
170
     0
171
     0
290
     0
174
     0
 93
        1
 44
0.0
173
     0
291
     0
 45
0.0
1001
ACAD
1000
AcDbSavedByObjectVersion
1070
     0
  0
VISUALSTYLE
  5
6DD
102
{ACAD_XDICTIONARY
360
74B
102
}
102
{ACAD_REACTORS
330
6C7
102
}
330
6C7
100
AcDbVisualStyle
  2
JitterOff
 70
    20
 71
     2
 72
     2
 73
     0
 90
        0
 40
-0.6
 41
-30.0
 62
     5
 63
     7
 74
     1
 91
        4
 64
     7
 65
   257
 75
     1
175
     1
 42
1.0
 92
       10
 66
     7
 43
1.0
 76
     1
 77
     6
 78
     2
 67
     7
 79
     5
170
     0
171
     0
290
     0
174
     0
 93
        1
 44
0.0
173
     0
291
     1
 45
0.0
1001
ACAD
1000
AcDbSavedByObjectVersion
1070
     0
  0
VISUALSTYLE
  5
6D5
102
{ACAD_XDICTIONARY
360
73B
102
}
102
{ACAD_REACTORS
330
6C7
102
}
330
6C7
100
AcDbVisualStyle
  2
Linepattern
 70
    14
 71
     2
 72
     2
 73
     0
 90
        0
 40
-0.6
 41
-30.0
 62
     5
 63
     7
 74
     1
 91
        4
 64
     7
 65
   257
 75
     7
175
     7
 42
1.0
 92
        8
 66
     7
 43
1.0
 76
     1
 77
     6
 78
     2
 67
     7
 79
     5
170
     0
171
     0
290
     0
174
     0
 93
        1
 44
0.0
173
     0
291
     1
 45
0.0
1001
ACAD
1000
AcDbSavedByObjectVersion
1070
     0
  0
VISUALSTYLE
  5
6DE
102
{ACAD_XDICTIONARY
360
74D
102
}
102
{ACAD_REACTORS
330
6C7
102
}
330
6C7
100
AcDbVisualStyle
  2
OverhangOff
 70
    21
 71
     2
 72
     2
 73
     0
 90
        0
 40
-0.6
 41
-30.0
 62
     5
 63
     7
 74
     1
 91
        4
 64
     7
 65
   257
 75
     1
175
     1
 42
1.0
 92
        9
 66
     7
 43
1.0
 76
     1
 77
     6
 78
     2
 67
     7
 79
     5
170
     0
171
     0
290
     0
174
     0
 93
        1
 44
0.0
173
     0
291
     1
 45
0.0
1001
ACAD
1000
AcDbSavedByObjectVersion
1070
     0
  0
VISUALSTYLE
  5
6D1
102
{ACAD_XDICTIONARY
360
733
102
}
102
{ACAD_REACTORS
330
6C7
102
}
330
6C7
100
AcDbVisualStyle
  2
Realistic
 70
     8
 71
     2
 72
     3
 73
     0
 90
        2
 40
-0.6
 41
30.0
 62
     5
 63
     7
 74
     0
 91
        0
 64
     7
 65
   257
 75
     1
175
     1
 42
1.0
 92
        8
 66
   257
 43
1.0
 76
     1
 77
     6
 78
     2
 67
     7
 79
     3
170
     0
171
     0
290
     0
174
     0
 93
       13
 44
0.0
173
     0
291
     0
 45
0.0
1001
ACAD
1000
AcDbSavedByObjectVersion
1070
     0
  0
VISUALSTYLE
  5
6DC
102
{ACAD_XDICTIONARY
360
749
102
}
102
{ACAD_REACTORS
330
6C7
102
}
330
6C7
100
AcDbVisualStyle
  2
Shaded
 70
    27
 71
     2
 72
     2
 73
     1
 90
        2
 40
-0.6
 41
30.0
 62
     5
 63
     7
 74
     0
 91
        4
 64
     7
 65
   257
 75
     1
175
     1
 42
1.0
 92
        8
 66
   257
 43
1.0
 76
     1
 77
     6
 78
     2
 67
     8
 79
     3
170
     0
171
     0
290
     0
174
     0
 93
        5
 44
0.0
173
     0
291
     0
 45
0.0
1001
ACAD
1000
AcDbSavedByObjectVersion
1070
     0
  0
VISUALSTYLE
  5
6DB
102
{ACAD_XDICTIONARY
360
747
102
}
102
{ACAD_REACTORS
330
6C7
102
}
330
6C7
100
AcDbVisualStyle
  2
Shaded with edges
 70
    26
 71
     2
 72
     2
 73
     1
 90
        2
 40
-0.6
 41
30.0
 62
     5
 63
     7
 74
     1
 91
       10
 64
     7
 65
   257
 75
     2
175
     1
 42
1.0
 92
        8
 66
   257
 43
1.0
 76
     1
 77
     6
 78
     2
 67
     7
 79
     3
170
     0
171
     0
290
     0
174
     0
 93
        5
 44
0.0
173
     0
291
     0
 45
0.0
1001
ACAD
1000
AcDbSavedByObjectVersion
1070
     0
  0
VISUALSTYLE
  5
6D8
102
{ACAD_XDICTIONARY
360
741
102
}
102
{ACAD_REACTORS
330
6C7
102
}
330
6C7
100
AcDbVisualStyle
  2
Shades of Gray
 70
    23
 71
     2
 72
     2
 73
     3
 90
        0
 40
-0.6
 41
-30.0
 62
     5
 63
     7
 74
     2
 91
        2
 64
     7
 65
     7
 75
     1
175
     1
 42
40.0
 92
        8
 66
     7
 43
1.0
 76
     1
 77
     6
 78
     2
 67
     7
 79
     3
170
     0
171
     0
290
     0
174
     0
 93
        1
 44
0.0
173
     0
291
     0
 45
0.0
1001
ACAD
1000
AcDbSavedByObjectVersion
1070
     0
  0
VISUALSTYLE
  5
6D9
102
{ACAD_XDICTIONARY
360
743
102
}
102
{ACAD_REACTORS
330
6C7
102
}
330
6C7
100
AcDbVisualStyle
  2
Sketchy
 70
    24
 71
     1
 72
     2
 73
     2
 90
        0
 40
-0.6
 41
-30.0
 62
     5
 63
     7
 74
     2
 91
        2
 64
     7
 65
     7
 75
     1
175
     1
 42
40.0
 92
       11
 66
     7
 43
1.0
 76
     1
 77
     6
 78
     2
 67
     7
 79
     6
170
     0
171
     0
290
     0
174
     0
 93
        1
 44
0.0
173
     0
291
     0
 45
0.0
1001
ACAD
1000
AcDbSavedByObjectVersion
1070
     0
  0
VISUALSTYLE
  5
6D4
102
{ACAD_XDICTIONARY
360
739
102
}
102
{ACAD_REACTORS
330
6C7
102
}
330
6C7
100
AcDbVisualStyle
  2
Thicken
 70
    13
 71
     2
 72
     2
 73
     0
 90
        0
 40
-0.6
 41
-30.0
 62
     5
 63
     7
 74
     1
 91
        4
 64
     7
 65
   257
 75
     1
175
     1
 42
1.0
 92
       12
 66
     7
 43
1.0
 76
     1
 77
     6
 78
     2
 67
     7
 79
     5
170
     0
171
     0
290
     0
174
     0
 93
        1
 44
0.0
173
     0
291
     1
 45
0.0
1001
ACAD
1000
AcDbSavedByObjectVersion
1070
     0
  0
VISUALSTYLE
  5
6CE
102
{ACAD_XDICTIONARY
360
72D
102
}
102
{ACAD_REACTORS
330
6C7
102
}
330
6C7
100
AcDbVisualStyle
  2
Wireframe
 70
     5
 71
     0
 72
     2
 73
     0
 90
        0
 40
-0.6
 41
-30.0
 62
     5
 63
     7
 74
     1
 91
        4
 64
     7
 65
   257
 75
     1
175
     1
 42
1.0
 92
        0
 66
   257
 43
1.0
 76
     1
 77
     6
 78
     2
 67
     7
 79
     3
170
     0
171
     0
290
     0
174
     0
 93
        1
 44
0.0
173
     0
291
     0
 45
0.0
1001
ACAD
1000
AcDbSavedByObjectVersion
1070
     0
  0
VISUALSTYLE
  5
6DA
102
{ACAD_XDICTIONARY
360
745
102
}
102
{ACAD_REACTORS
330
6C7
102
}
330
6C7
100
AcDbVisualStyle
  2
X-Ray
 70
    25
 71
     2
 72
     2
 73
     1
 90
        1
 40
0.5
 41
-30.0
 62
     5
 63
     7
 74
     1
 91
        0
 64
     7
 65
   257
 75
     1
175
     1
 42
1.0
 92
        8
 66
     7
 43
1.0
 76
     1
 77
     6
 78
     2
 67
     7
 79
     3
170
     0
171
     0
290
     0
174
     0
 93
       13
 44
0.0
173
     0
291
     0
 45
0.0
1001
ACAD
1000
AcDbSavedByObjectVersion
1070
     0
  0
DICTIONARYVAR
  5
714
102
{ACAD_REACTORS
330
70F
102
}
330
70F
100
DictionaryVariables
280
     0
  1
1:1
  0
DICTIONARYVAR
  5
711
102
{ACAD_REACTORS
330
70F
102
}
330
70F
100
DictionaryVariables
280
     0
  1
STANDARD
  0
DICTIONARYVAR
  5
710
102
{ACAD_REACTORS
330
70F
102
}
330
70F
100
DictionaryVariables
280
     0
  1
STANDARD
  0
DICTIONARYVAR
  5
712
102
{ACAD_REACTORS
330
70F
102
}
330
70F
100
DictionaryVariables
280
     0
  1
Imperial24
  0
DICTIONARYVAR
  5
713
102
{ACAD_REACTORS
330
70F
102
}
330
70F
100
DictionaryVariables
280
     0
  1
Imperial24
  0
DICTIONARYVAR
  5
717
102
{ACAD_REACTORS
330
70F
102
}
330
70F
100
DictionaryVariables
280
     0
  1
1
  0
DICTIONARYVAR
  5
716
102
{ACAD_REACTORS
330
70F
102
}
330
70F
100
DictionaryVariables
280
     0
  1
0
  0
DICTIONARYVAR
  5
715
102
{ACAD_REACTORS
330
70F
102
}
330
70F
100
DictionaryVariables
280
     0
  1
127
  0
DICTIONARYVAR
  5
718
102
{ACAD_REACTORS
330
70F
102
}
330
70F
100
DictionaryVariables
280
     0
  1
2
  0
DICTIONARY
  5
755
330
6FA
100
AcDbDictionary
280
     1
281
     1
  3
ACAD_XREC_ROUNDTRIP
360
756
  0
DICTIONARY
  5
757
330
6FB
100
AcDbDictionary
280
     1
281
     1
  3
ACAD_XREC_ROUNDTRIP
360
758
  0
DICTIONARY
  5
759
330
6FC
100
AcDbDictionary
280
     1
281
     1
  3
ACAD_XREC_ROUNDTRIP
360
75A
  0
DICTIONARY
  5
6B8
330
6B7
100
AcDbDictionary
280
     1
281
     1
  3
ACAD_XREC_ROUNDTRIP
360
71F
  3
BUMPTILE
360
6BA
  3
DIFFUSETILE
360
6B9
  3
OPACITYTILE
360
6BD
  3
REFLECTIONTILE
360
6BC
  3
REFRACTIONTILE
360
6BE
  3
SPECULARTILE
360
6BB
  0
DICTIONARY
  5
6B0
330
6AF
100
AcDbDictionary
280
     1
281
     1
  3
ACAD_XREC_ROUNDTRIP
360
71E
  3
BUMPTILE
360
6B2
  3
DIFFUSETILE
360
6B1
  3
OPACITYTILE
360
6B5
  3
REFLECTIONTILE
360
6B4
  3
REFRACTIONTILE
360
6B6
  3
SPECULARTILE
360
6B3
  0
DICTIONARY
  5
6C0
330
6BF
100
AcDbDictionary
280
     1
281
     1
  3
ACAD_XREC_ROUNDTRIP
360
720
  3
BUMPTILE
360
6C2
  3
DIFFUSETILE
360
6C1
  3
OPACITYTILE
360
6C5
  3
REFLECTIONTILE
360
6C4
  3
REFRACTIONTILE
360
6C6
  3
SPECULARTILE
360
6C3
  0
DICTIONARY
  5
753
330
6F8
100
AcDbDictionary
280
     1
281
     1
  3
ACAD_XREC_ROUNDTRIP
360
754
  0
DICTIONARY
  5
71A
330
6E2
100
AcDbDictionary
280
     1
281
     1
  3
ACAD_ROUNDTRIP_2008_TABLESTYLE_CELLSTYLEMAP
360
71B
  3
ACAD_XREC_ROUNDTRIP
360
751
  0
DICTIONARY
  5
72B
330
6CD
100
AcDbDictionary
280
     1
281
     1
  3
ACAD_XREC_ROUNDTRIP
360
72C
  0
DICTIONARY
  5
729
330
6CC
100
AcDbDictionary
280
     1
281
     1
  3
ACAD_XREC_ROUNDTRIP
360
72A
  0
DICTIONARY
  5
737
330
6D3
100
AcDbDictionary
280
     1
281
     1
  3
ACAD_XREC_ROUNDTRIP
360
738
  0
DICTIONARY
  5
73F
330
6D7
100
AcDbDictionary
280
     1
281
     1
  3
ACAD_XREC_ROUNDTRIP
360
740
  0
DICTIONARY
  5
731
330
6D0
100
AcDbDictionary
280
     1
281
     1
  3
ACAD_XREC_ROUNDTRIP
360
732
  0
DICTIONARY
  5
735
330
6D2
100
AcDbDictionary
280
     1
281
     1
  3
ACAD_XREC_ROUNDTRIP
360
736
  0
DICTIONARY
  5
74F
330
6DF
100
AcDbDictionary
280
     1
281
     1
  3
ACAD_XREC_ROUNDTRIP
360
750
  0
DICTIONARY
  5
73D
330
6D6
100
AcDbDictionary
280
     1
281
     1
  3
ACAD_XREC_ROUNDTRIP
360
73E
  0
DICTIONARY
  5
721
330
6C8
100
AcDbDictionary
280
     1
281
     1
  3
ACAD_XREC_ROUNDTRIP
360
722
  0
DICTIONARY
  5
723
330
6C9
100
AcDbDictionary
280
     1
281
     1
  3
ACAD_XREC_ROUNDTRIP
360
724
  0
DICTIONARY
  5
725
330
6CA
100
AcDbDictionary
280
     1
281
     1
  3
ACAD_XREC_ROUNDTRIP
360
726
  0
DICTIONARY
  5
727
330
6CB
100
AcDbDictionary
280
     1
281
     1
  3
ACAD_XREC_ROUNDTRIP
360
728
  0
DICTIONARY
  5
72F
330
6CF
100
AcDbDictionary
280
     1
281
     1
  3
ACAD_XREC_ROUNDTRIP
360
730
  0
DICTIONARY
  5
74B
330
6DD
100
AcDbDictionary
280
     1
281
     1
  3
ACAD_XREC_ROUNDTRIP
360
74C
  0
DICTIONARY
  5
73B
330
6D5
100
AcDbDictionary
280
     1
281
     1
  3
ACAD_XREC_ROUNDTRIP
360
73C
  0
DICTIONARY
  5
74D
330
6DE
100
AcDbDictionary
280
     1
281
     1
  3
ACAD_XREC_ROUNDTRIP
360
74E
  0
DICTIONARY
  5
733
330
6D1
100
AcDbDictionary
280
     1
281
     1
  3
ACAD_XREC_ROUNDTRIP
360
734
  0
DICTIONARY
  5
749
330
6DC
100
AcDbDictionary
280
     1
281
     1
  3
ACAD_XREC_ROUNDTRIP
360
74A
  0
DICTIONARY
  5
747
330
6DB
100
AcDbDictionary
280
     1
281
     1
  3
ACAD_XREC_ROUNDTRIP
360
748
  0
DICTIONARY
  5
741
330
6D8
100
AcDbDictionary
280
     1
281
     1
  3
ACAD_XREC_ROUNDTRIP
360
742
  0
DICTIONARY
  5
743
330
6D9
100
AcDbDictionary
280
     1
281
     1
  3
ACAD_XREC_ROUNDTRIP
360
744
  0
DICTIONARY
  5
739
330
6D4
100
AcDbDictionary
280
     1
281
     1
  3
ACAD_XREC_ROUNDTRIP
360
73A
  0
DICTIONARY
  5
72D
330
6CE
100
AcDbDictionary
280
     1
281
     1
  3
ACAD_XREC_ROUNDTRIP
360
72E
  0
DICTIONARY
  5
745
330
6DA
100
AcDbDictionary
280
     1
281
     1
  3
ACAD_XREC_ROUNDTRIP
360
746
  0
XRECORD
  5
756
102
{ACAD_REACTORS
330
755
102
}
330
755
100
AcDbXrecord
280
     1
102
DISPLAYNAME
  1
Imperial24
102
FLAGS
 90
        0
  0
XRECORD
  5
758
102
{ACAD_REACTORS
330
757
102
}
330
757
100
AcDbXrecord
280
     1
102
SHADEPLOT
 70
     0
102
SHADEPLOTRESLEVEL
 70
     2
102
SHADEPLOTCUSTOMDPI
 70
   300
  0
XRECORD
  5
75A
102
{ACAD_REACTORS
330
759
102
}
330
759
100
AcDbXrecord
280
     1
102
SHADEPLOT
 70
     0
102
SHADEPLOTRESLEVEL
 70
     2
102
SHADEPLOTCUSTOMDPI
 70
   300
  0
XRECORD
  5
71F
102
{ACAD_REACTORS
330
6B8
102
}
330
6B8
100
AcDbXrecord
280
     1
102
MATERIAL
148
0.0
149
0.0
149
0.0
 93
        0
 94
      127
282
     0
 72
     0
 77
     0
171
     0
175
     0
179
     0
273
     0
  0
XRECORD
  5
6BA
102
{ACAD_REACTORS
330
6B8
102
}
330
6B8
100
AcDbXrecord
280
     1
270
     1
271
     1
  0
XRECORD
  5
6B9
102
{ACAD_REACTORS
330
6B8
102
}
330
6B8
100
AcDbXrecord
280
     1
270
     1
271
     1
  0
XRECORD
  5
6BD
102
{ACAD_REACTORS
330
6B8
102
}
330
6B8
100
AcDbXrecord
280
     1
270
     1
271
     1
  0
XRECORD
  5
6BC
102
{ACAD_REACTORS
330
6B8
102
}
330
6B8
100
AcDbXrecord
280
     1
270
     1
271
     1
  0
XRECORD
  5
6BE
102
{ACAD_REACTORS
330
6B8
102
}
330
6B8
100
AcDbXrecord
280
     1
270
     1
271
     1
  0
XRECORD
  5
6BB
102
{ACAD_REACTORS
330
6B8
102
}
330
6B8
100
AcDbXrecord
280
     1
270
     1
271
     1
  0
XRECORD
  5
71E
102
{ACAD_REACTORS
330
6B0
102
}
330
6B0
100
AcDbXrecord
280
     1
102
MATERIAL
148
0.0
149
0.0
149
0.0
 93
        0
 94
      127
282
     0
 72
     0
 77
     0
171
     0
175
     0
179
     0
273
     0
  0
XRECORD
  5
6B2
102
{ACAD_REACTORS
330
6B0
102
}
330
6B0
100
AcDbXrecord
280
     1
270
     1
271
     1
  0
XRECORD
  5
6B1
102
{ACAD_REACTORS
330
6B0
102
}
330
6B0
100
AcDbXrecord
280
     1
270
     1
271
     1
  0
XRECORD
  5
6B5
102
{ACAD_REACTORS
330
6B0
102
}
330
6B0
100
AcDbXrecord
280
     1
270
     1
271
     1
  0
XRECORD
  5
6B4
102
{ACAD_REACTORS
330
6B0
102
}
330
6B0
100
AcDbXrecord
280
     1
270
     1
271
     1
  0
XRECORD
  5
6B6
102
{ACAD_REACTORS
330
6B0
102
}
330
6B0
100
AcDbXrecord
280
     1
270
     1
271
     1
  0
XRECORD
  5
6B3
102
{ACAD_REACTORS
330
6B0
102
}
330
6B0
100
AcDbXrecord
280
     1
270
     1
271
     1
  0
XRECORD
  5
720
102
{ACAD_REACTORS
330
6C0
102
}
330
6C0
100
AcDbXrecord
280
     1
102
MATERIAL
148
0.0
149
0.0
149
0.0
 93
        0
 94
      127
282
     0
 72
     0
 77
     0
171
     0
175
     0
179
     0
273
     0
  0
XRECORD
  5
6C2
102
{ACAD_REACTORS
330
6C0
102
}
330
6C0
100
AcDbXrecord
280
     1
270
     1
271
     1
  0
XRECORD
  5
6C1
102
{ACAD_REACTORS
330
6C0
102
}
330
6C0
100
AcDbXrecord
280
     1
270
     1
271
     1
  0
XRECORD
  5
6C5
102
{ACAD_REACTORS
330
6C0
102
}
330
6C0
100
AcDbXrecord
280
     1
270
     1
271
     1
  0
XRECORD
  5
6C4
102
{ACAD_REACTORS
330
6C0
102
}
330
6C0
100
AcDbXrecord
280
     1
270
     1
271
     1
  0
XRECORD
  5
6C6
102
{ACAD_REACTORS
330
6C0
102
}
330
6C0
100
AcDbXrecord
280
     1
270
     1
271
     1
  0
XRECORD
  5
6C3
102
{ACAD_REACTORS
330
6C0
102
}
330
6C0
100
AcDbXrecord
280
     1
270
     1
271
     1
  0
XRECORD
  5
754
102
{ACAD_REACTORS
330
753
102
}
330
753
100
AcDbXrecord
280
     1
102
DISPLAYNAME
  1
Imperial24
102
FLAGS
 90
        0
  0
CELLSTYLEMAP
  5
71B
102
{ACAD_REACTORS
330
71A
102
}
330
71A
100
AcDbCellStyleMap
 90
        3
300
CELLSTYLE
  1
TABLEFORMAT_BEGIN
 90
        5
170
     1
 91
        0
 92
    32768
 62
   257
 93
        1
300
CONTENTFORMAT
  1
CONTENTFORMAT_BEGIN
 90
        0
 91
        0
 92
      512
 93
        0
300

 40
0.0
140
1.0
 94
        5
 62
     0
340
35E
144
0.25
309
CONTENTFORMAT_END
171
     0
 94
        0
309
TABLEFORMAT_END
  1
CELLSTYLE_BEGIN
 90
        1
 91
        1
300
_TITLE
309
CELLSTYLE_END
300
CELLSTYLE
  1
TABLEFORMAT_BEGIN
 90
        5
170
     1
 91
        0
 92
        0
 62
   257
 93
        1
300
CONTENTFORMAT
  1
CONTENTFORMAT_BEGIN
 90
        0
 91
        0
 92
      512
 93
        0
300

 40
0.0
140
1.0
 94
        5
 62
     0
340
35E
144
0.18
309
CONTENTFORMAT_END
171
     0
 94
        0
309
TABLEFORMAT_END
  1
CELLSTYLE_BEGIN
 90
        2
 91
        1
300
_HEADER
309
CELLSTYLE_END
300
CELLSTYLE
  1
TABLEFORMAT_BEGIN
 90
        5
170
     1
 91
        0
 92
        0
 62
   257
 93
        1
300
CONTENTFORMAT
  1
CONTENTFORMAT_BEGIN
 90
        0
 91
        0
 92
      512
 93
        0
300

 40
0.0
140
1.0
 94
        2
 62
     0
340
35E
144
0.18
309
CONTENTFORMAT_END
171
     0
 94
        0
309
TABLEFORMAT_END
  1
CELLSTYLE_BEGIN
 90
        3
 91
        2
300
_DATA
309
CELLSTYLE_END
  0
XRECORD
  5
751
102
{ACAD_REACTORS
330
71A
102
}
330
71A
100
AcDbXrecord
280
     1
102
ACAD_ROUNDTRIP_PRE2007_TABLESTYLE
 90
      512
 91
        0
  1

 92
      512
 93
        0
  2

 94
      512
 95
        0
  3

  0
XRECORD
  5
72C
102
{ACAD_REACTORS
330
72B
102
}
330
72B
100
AcDbXrecord
280
     1
102
RTVSPost2010Prop28
280
     1
102
RTVSPost2010PropOp28
 70
     1
102
RTVSPost2010Prop29
280
     1
102
RTVSPost2010PropOp29
 70
     1
102
RTVSPost2010Prop30
280
     0
102
RTVSPost2010PropOp30
 70
     1
102
RTVSPost2010Prop31
280
     0
102
RTVSPost2010PropOp31
 70
     1
102
RTVSPost2010Prop32
280
     0
102
RTVSPost2010PropOp32
 70
     1
102
RTVSPost2010Prop33
280
     0
102
RTVSPost2010PropOp33
 70
     1
102
RTVSPost2010Prop34
280
     0
102
RTVSPost2010PropOp34
 70
     1
102
RTVSPost2010Prop35
280
     0
102
RTVSPost2010PropOp35
 70
     1
102
RTVSPost2010Prop36
280
     0
102
RTVSPost2010PropOp36
 70
     1
102
RTVSPost2010Prop37
 90
       50
102
RTVSPost2010PropOp37
 70
     1
102
RTVSPost2010Prop38
140
0.0
102
RTVSPost2010PropOp38
 70
     1
102
RTVSPost2010Prop39
140
1.0
102
RTVSPost2010PropOp39
 70
     1
102
RTVSPost2010Prop40
 90
        0
102
RTVSPost2010PropOp40
 70
     1
102
RTVSPost2010Prop41ColorIndex
 90
       18
102
RTVSPost2010Prop41ColorRGB
 90
        0
102
RTVSPost2010PropOp41
 70
     1
102
RTVSPost2010Prop42
 90
       50
102
RTVSPost2010PropOp42
 70
     1
102
RTVSPost2010Prop43
 90
        3
102
RTVSPost2010PropOp43
 70
     1
102
RTVSPost2010Prop44ColorIndex
 90
        5
102
RTVSPost2010Prop44ColorRGB
 90
      255
102
RTVSPost2010PropOp44
 70
     1
102
RTVSPost2010Prop45
280
     0
102
RTVSPost2010PropOp45
 70
     1
102
RTVSPost2010Prop46
 90
       50
102
RTVSPost2010PropOp46
 70
     1
102
RTVSPost2010Prop47
 90
       50
102
RTVSPost2010PropOp47
 70
     1
102
RTVSPost2010Prop48
 90
       50
102
RTVSPost2010PropOp48
 70
     1
102
RTVSPost2010Prop49
280
     0
102
RTVSPost2010PropOp49
 70
     1
102
RTVSPost2010Prop50
 90
       50
102
RTVSPost2010PropOp50
 70
     1
102
RTVSPost2010Prop51ColorIndex
 90
      256
102
RTVSPost2010Prop51ColorRGB
 90
-16777216
102
RTVSPost2010PropOp51
 70
     0
102
RTVSPost2010Prop52
140
1.0
102
RTVSPost2010PropOp52
 70
     0
102
RTVSPost2010Prop53
 90
        2
102
RTVSPost2010PropOp53
 70
     1
102
RTVSPost2010Prop54
  1
strokes_ogs.tif
102
RTVSPost2010PropOp54
 70
     1
102
RTVSPost2010Prop55
280
     0
102
RTVSPost2010PropOp55
 70
     1
102
RTVSPost2010Prop56
140
1.0
102
RTVSPost2010PropOp56
 70
     1
102
RTVSPost2010Prop57
140
1.0
102
RTVSPost2010PropOp57
 70
     1
102
RTVSPropertyOp0
 70
     1
102
RTVSPropertyOp1
 70
     1
102
RTVSPropertyOp2
 70
     1
102
RTVSPropertyOp3
 70
     1
102
RTVSPropertyOp4
 70
     1
102
RTVSPropertyOp5
 70
     1
102
RTVSPropertyOp6
 70
     1
102
RTVSPropertyOp7
 70
     1
102
RTVSPropertyOp8
 70
     1
102
RTVSPropertyOp9
 70
     1
102
RTVSPropertyOp10
 70
     1
102
RTVSPropertyOp11
 70
     1
102
RTVSPropertyOp12
 70
     1
102
RTVSPropertyOp13
 70
     1
102
RTVSPropertyOp14
 70
     1
102
RTVSPropertyOp15
 70
     1
102
RTVSPropertyOp16
 70
     1
102
RTVSPropertyOp17
 70
     1
102
RTVSPropertyOp18
 70
     1
102
RTVSPropertyOp19
 70
     1
102
RTVSPropertyOp20
 70
     1
102
RTVSPropertyOp21
 70
     1
102
RTVSPropertyOp22
 70
     1
102
RTVSPropertyOp23
 70
     1
102
RTVSPropertyOp24
 70
     1
102
RTVSPropertyOp25
 70
     1
102
RTVSPropertyOp26
 70
     1
102
RTVSPropertyOp27
 70
     1
102
RTVSPropertyOp28
 70
     1
102
RTVSPropertyOp29
 70
     1
102
RTVSPropertyOp30
 70
     1
102
RTVSPropertyOp31
 70
     1
102
RTVSPropertyOp32
 70
     1
102
RTVSPropertyOp33
 70
     1
102
RTVSPropertyOp34
 70
     1
102
RTVSPropertyOp35
 70
     1
102
RTVSPropertyOp36
 70
     1
102
RTVSPropertyOp37
 70
     1
102
RTVSPropertyOp38
 70
     1
102
RTVSPropertyOp39
 70
     1
102
RTVSPropertyOp40
 70
     1
102
RTVSPropertyOp41
 70
     1
102
RTVSPropertyOp42
 70
     1
102
RTVSPropertyOp43
 70
     1
102
RTVSPropertyOp44
 70
     1
102
RTVSPropertyOp45
 70
     1
102
RTVSPropertyOp46
 70
     1
102
RTVSPropertyOp47
 70
     1
102
RTVSPropertyOp48
 70
     1
102
RTVSPropertyOp49
 70
     1
102
RTVSPropertyOp50
 70
     1
102
RTVSPropertyOp51
 70
     0
102
RTVSPropertyOp52
 70
     0
102
RTVSPropertyOp53
 70
     1
102
RTVSPropertyOp54
 70
     1
102
RTVSPropertyOp55
 70
     1
102
RTVSPropertyOp56
 70
     1
102
RTVSPropertyOp57
 70
     1
102
RTVSPropertyOp58
 70
     1
102
RTVSPropertyOp59
 70
     1
102
RTVSPropertyOp60
 70
     1
102
RTVSPropertyOp61
 70
     1
102
RTVSPropertyOp62
 70
     1
  0
XRECORD
  5
72A
102
{ACAD_REACTORS
330
729
102
}
330
729
100
AcDbXrecord
280
     1
102
RTVSPost2010Prop28
280
     0
102
RTVSPost2010PropOp28
 70
     1
102
RTVSPost2010Prop29
280
     1
102
RTVSPost2010PropOp29
 70
     1
102
RTVSPost2010Prop30
280
     1
102
RTVSPost2010PropOp30
 70
     1
102
RTVSPost2010Prop31
280
     0
102
RTVSPost2010PropOp31
 70
     1
102
RTVSPost2010Prop32
280
     0
102
RTVSPost2010PropOp32
 70
     1
102
RTVSPost2010Prop33
280
     0
102
RTVSPost2010PropOp33
 70
     1
102
RTVSPost2010Prop34
280
     0
102
RTVSPost2010PropOp34
 70
     1
102
RTVSPost2010Prop35
280
     0
102
RTVSPost2010PropOp35
 70
     1
102
RTVSPost2010Prop36
280
     0
102
RTVSPost2010PropOp36
 70
     1
102
RTVSPost2010Prop37
 90
       50
102
RTVSPost2010PropOp37
 70
     1
102
RTVSPost2010Prop38
140
0.0
102
RTVSPost2010PropOp38
 70
     1
102
RTVSPost2010Prop39
140
1.0
102
RTVSPost2010PropOp39
 70
     1
102
RTVSPost2010Prop40
 90
        0
102
RTVSPost2010PropOp40
 70
     1
102
RTVSPost2010Prop41ColorIndex
 90
       18
102
RTVSPost2010Prop41ColorRGB
 90
        0
102
RTVSPost2010PropOp41
 70
     1
102
RTVSPost2010Prop42
 90
       50
102
RTVSPost2010PropOp42
 70
     1
102
RTVSPost2010Prop43
 90
        3
102
RTVSPost2010PropOp43
 70
     1
102
RTVSPost2010Prop44ColorIndex
 90
        5
102
RTVSPost2010Prop44ColorRGB
 90
      255
102
RTVSPost2010PropOp44
 70
     1
102
RTVSPost2010Prop45
280
     0
102
RTVSPost2010PropOp45
 70
     1
102
RTVSPost2010Prop46
 90
       50
102
RTVSPost2010PropOp46
 70
     1
102
RTVSPost2010Prop47
 90
       50
102
RTVSPost2010PropOp47
 70
     1
102
RTVSPost2010Prop48
 90
       50
102
RTVSPost2010PropOp48
 70
     1
102
RTVSPost2010Prop49
280
     0
102
RTVSPost2010PropOp49
 70
     1
102
RTVSPost2010Prop50
 90
       50
102
RTVSPost2010PropOp50
 70
     1
102
RTVSPost2010Prop51ColorIndex
 90
      256
102
RTVSPost2010Prop51ColorRGB
 90
-16777216
102
RTVSPost2010PropOp51
 70
     0
102
RTVSPost2010Prop52
140
1.0
102
RTVSPost2010PropOp52
 70
     0
102
RTVSPost2010Prop53
 90
        2
102
RTVSPost2010PropOp53
 70
     1
102
RTVSPost2010Prop54
  1
strokes_ogs.tif
102
RTVSPost2010PropOp54
 70
     1
102
RTVSPost2010Prop55
280
     0
102
RTVSPost2010PropOp55
 70
     1
102
RTVSPost2010Prop56
140
1.0
102
RTVSPost2010PropOp56
 70
     1
102
RTVSPost2010Prop57
140
1.0
102
RTVSPost2010PropOp57
 70
     1
102
RTVSPropertyOp0
 70
     1
102
RTVSPropertyOp1
 70
     1
102
RTVSPropertyOp2
 70
     1
102
RTVSPropertyOp3
 70
     1
102
RTVSPropertyOp4
 70
     1
102
RTVSPropertyOp5
 70
     1
102
RTVSPropertyOp6
 70
     1
102
RTVSPropertyOp7
 70
     1
102
RTVSPropertyOp8
 70
     1
102
RTVSPropertyOp9
 70
     1
102
RTVSPropertyOp10
 70
     1
102
RTVSPropertyOp11
 70
     1
102
RTVSPropertyOp12
 70
     1
102
RTVSPropertyOp13
 70
     1
102
RTVSPropertyOp14
 70
     1
102
RTVSPropertyOp15
 70
     1
102
RTVSPropertyOp16
 70
     1
102
RTVSPropertyOp17
 70
     1
102
RTVSPropertyOp18
 70
     1
102
RTVSPropertyOp19
 70
     1
102
RTVSPropertyOp20
 70
     1
102
RTVSPropertyOp21
 70
     1
102
RTVSPropertyOp22
 70
     1
102
RTVSPropertyOp23
 70
     1
102
RTVSPropertyOp24
 70
     1
102
RTVSPropertyOp25
 70
     1
102
RTVSPropertyOp26
 70
     1
102
RTVSPropertyOp27
 70
     1
102
RTVSPropertyOp28
 70
     1
102
RTVSPropertyOp29
 70
     1
102
RTVSPropertyOp30
 70
     1
102
RTVSPropertyOp31
 70
     1
102
RTVSPropertyOp32
 70
     1
102
RTVSPropertyOp33
 70
     1
102
RTVSPropertyOp34
 70
     1
102
RTVSPropertyOp35
 70
     1
102
RTVSPropertyOp36
 70
     1
102
RTVSPropertyOp37
 70
     1
102
RTVSPropertyOp38
 70
     1
102
RTVSPropertyOp39
 70
     1
102
RTVSPropertyOp40
 70
     1
102
RTVSPropertyOp41
 70
     1
102
RTVSPropertyOp42
 70
     1
102
RTVSPropertyOp43
 70
     1
102
RTVSPropertyOp44
 70
     1
102
RTVSPropertyOp45
 70
     1
102
RTVSPropertyOp46
 70
     1
102
RTVSPropertyOp47
 70
     1
102
RTVSPropertyOp48
 70
     1
102
RTVSPropertyOp49
 70
     1
102
RTVSPropertyOp50
 70
     1
102
RTVSPropertyOp51
 70
     0
102
RTVSPropertyOp52
 70
     0
102
RTVSPropertyOp53
 70
     1
102
RTVSPropertyOp54
 70
     1
102
RTVSPropertyOp55
 70
     1
102
RTVSPropertyOp56
 70
     1
102
RTVSPropertyOp57
 70
     1
102
RTVSPropertyOp58
 70
     1
102
RTVSPropertyOp59
 70
     1
102
RTVSPropertyOp60
 70
     1
102
RTVSPropertyOp61
 70
     1
102
RTVSPropertyOp62
 70
     1
  0
XRECORD
  5
738
102
{ACAD_REACTORS
330
737
102
}
330
737
100
AcDbXrecord
280
     1
102
RTVSPost2010Prop28
280
     0
102
RTVSPost2010PropOp28
 70
     1
102
RTVSPost2010Prop29
280
     1
102
RTVSPost2010PropOp29
 70
     1
102
RTVSPost2010Prop30
280
     1
102
RTVSPost2010PropOp30
 70
     1
102
RTVSPost2010Prop31
280
     0
102
RTVSPost2010PropOp31
 70
     1
102
RTVSPost2010Prop32
280
     0
102
RTVSPost2010PropOp32
 70
     1
102
RTVSPost2010Prop33
280
     0
102
RTVSPost2010PropOp33
 70
     1
102
RTVSPost2010Prop34
280
     0
102
RTVSPost2010PropOp34
 70
     1
102
RTVSPost2010Prop35
280
     0
102
RTVSPost2010PropOp35
 70
     1
102
RTVSPost2010Prop36
280
     0
102
RTVSPost2010PropOp36
 70
     1
102
RTVSPost2010Prop37
 90
       50
102
RTVSPost2010PropOp37
 70
     1
102
RTVSPost2010Prop38
140
0.0
102
RTVSPost2010PropOp38
 70
     1
102
RTVSPost2010Prop39
140
1.0
102
RTVSPost2010PropOp39
 70
     1
102
RTVSPost2010Prop40
 90
        0
102
RTVSPost2010PropOp40
 70
     1
102
RTVSPost2010Prop41ColorIndex
 90
       18
102
RTVSPost2010Prop41ColorRGB
 90
        0
102
RTVSPost2010PropOp41
 70
     1
102
RTVSPost2010Prop42
 90
       50
102
RTVSPost2010PropOp42
 70
     1
102
RTVSPost2010Prop43
 90
        3
102
RTVSPost2010PropOp43
 70
     1
102
RTVSPost2010Prop44ColorIndex
 90
        5
102
RTVSPost2010Prop44ColorRGB
 90
      255
102
RTVSPost2010PropOp44
 70
     1
102
RTVSPost2010Prop45
280
     0
102
RTVSPost2010PropOp45
 70
     1
102
RTVSPost2010Prop46
 90
       50
102
RTVSPost2010PropOp46
 70
     1
102
RTVSPost2010Prop47
 90
       50
102
RTVSPost2010PropOp47
 70
     1
102
RTVSPost2010Prop48
 90
       50
102
RTVSPost2010PropOp48
 70
     1
102
RTVSPost2010Prop49
280
     0
102
RTVSPost2010PropOp49
 70
     1
102
RTVSPost2010Prop50
 90
       50
102
RTVSPost2010PropOp50
 70
     1
102
RTVSPost2010Prop51ColorIndex
 90
      256
102
RTVSPost2010Prop51ColorRGB
 90
-16777216
102
RTVSPost2010PropOp51
 70
     0
102
RTVSPost2010Prop52
140
1.0
102
RTVSPost2010PropOp52
 70
     0
102
RTVSPost2010Prop53
 90
        2
102
RTVSPost2010PropOp53
 70
     1
102
RTVSPost2010Prop54
  1
strokes_ogs.tif
102
RTVSPost2010PropOp54
 70
     1
102
RTVSPost2010Prop55
280
     0
102
RTVSPost2010PropOp55
 70
     1
102
RTVSPost2010Prop56
140
1.0
102
RTVSPost2010PropOp56
 70
     1
102
RTVSPost2010Prop57
140
1.0
102
RTVSPost2010PropOp57
 70
     1
102
RTVSPropertyOp0
 70
     1
102
RTVSPropertyOp1
 70
     1
102
RTVSPropertyOp2
 70
     1
102
RTVSPropertyOp3
 70
     1
102
RTVSPropertyOp4
 70
     1
102
RTVSPropertyOp5
 70
     1
102
RTVSPropertyOp6
 70
     1
102
RTVSPropertyOp7
 70
     1
102
RTVSPropertyOp8
 70
     1
102
RTVSPropertyOp9
 70
     1
102
RTVSPropertyOp10
 70
     1
102
RTVSPropertyOp11
 70
     1
102
RTVSPropertyOp12
 70
     1
102
RTVSPropertyOp13
 70
     1
102
RTVSPropertyOp14
 70
     1
102
RTVSPropertyOp15
 70
     1
102
RTVSPropertyOp16
 70
     1
102
RTVSPropertyOp17
 70
     1
102
RTVSPropertyOp18
 70
     1
102
RTVSPropertyOp19
 70
     1
102
RTVSPropertyOp20
 70
     1
102
RTVSPropertyOp21
 70
     1
102
RTVSPropertyOp22
 70
     1
102
RTVSPropertyOp23
 70
     1
102
RTVSPropertyOp24
 70
     1
102
RTVSPropertyOp25
 70
     1
102
RTVSPropertyOp26
 70
     1
102
RTVSPropertyOp27
 70
     1
102
RTVSPropertyOp28
 70
     1
102
RTVSPropertyOp29
 70
     1
102
RTVSPropertyOp30
 70
     1
102
RTVSPropertyOp31
 70
     1
102
RTVSPropertyOp32
 70
     1
102
RTVSPropertyOp33
 70
     1
102
RTVSPropertyOp34
 70
     1
102
RTVSPropertyOp35
 70
     1
102
RTVSPropertyOp36
 70
     1
102
RTVSPropertyOp37
 70
     1
102
RTVSPropertyOp38
 70
     1
102
RTVSPropertyOp39
 70
     1
102
RTVSPropertyOp40
 70
     1
102
RTVSPropertyOp41
 70
     1
102
RTVSPropertyOp42
 70
     1
102
RTVSPropertyOp43
 70
     1
102
RTVSPropertyOp44
 70
     1
102
RTVSPropertyOp45
 70
     1
102
RTVSPropertyOp46
 70
     1
102
RTVSPropertyOp47
 70
     1
102
RTVSPropertyOp48
 70
     1
102
RTVSPropertyOp49
 70
     1
102
RTVSPropertyOp50
 70
     1
102
RTVSPropertyOp51
 70
     0
102
RTVSPropertyOp52
 70
     0
102
RTVSPropertyOp53
 70
     1
102
RTVSPropertyOp54
 70
     1
102
RTVSPropertyOp55
 70
     1
102
RTVSPropertyOp56
 70
     1
102
RTVSPropertyOp57
 70
     1
102
RTVSPropertyOp58
 70
     1
102
RTVSPropertyOp59
 70
     1
102
RTVSPropertyOp60
 70
     1
102
RTVSPropertyOp61
 70
     1
102
RTVSPropertyOp62
 70
     1
  0
XRECORD
  5
740
102
{ACAD_REACTORS
330
73F
102
}
330
73F
100
AcDbXrecord
280
     1
102
RTVSPost2010Prop28
280
     0
102
RTVSPost2010PropOp28
 70
     1
102
RTVSPost2010Prop29
280
     1
102
RTVSPost2010PropOp29
 70
     1
102
RTVSPost2010Prop30
280
     1
102
RTVSPost2010PropOp30
 70
     1
102
RTVSPost2010Prop31
280
     0
102
RTVSPost2010PropOp31
 70
     1
102
RTVSPost2010Prop32
280
     0
102
RTVSPost2010PropOp32
 70
     1
102
RTVSPost2010Prop33
280
     0
102
RTVSPost2010PropOp33
 70
     1
102
RTVSPost2010Prop34
280
     0
102
RTVSPost2010PropOp34
 70
     1
102
RTVSPost2010Prop35
280
     0
102
RTVSPost2010PropOp35
 70
     1
102
RTVSPost2010Prop36
280
     0
102
RTVSPost2010PropOp36
 70
     1
102
RTVSPost2010Prop37
 90
       50
102
RTVSPost2010PropOp37
 70
     1
102
RTVSPost2010Prop38
140
0.0
102
RTVSPost2010PropOp38
 70
     1
102
RTVSPost2010Prop39
140
1.0
102
RTVSPost2010PropOp39
 70
     1
102
RTVSPost2010Prop40
 90
        0
102
RTVSPost2010PropOp40
 70
     1
102
RTVSPost2010Prop41ColorIndex
 90
       18
102
RTVSPost2010Prop41ColorRGB
 90
        0
102
RTVSPost2010PropOp41
 70
     1
102
RTVSPost2010Prop42
 90
       50
102
RTVSPost2010PropOp42
 70
     1
102
RTVSPost2010Prop43
 90
        3
102
RTVSPost2010PropOp43
 70
     1
102
RTVSPost2010Prop44ColorIndex
 90
        5
102
RTVSPost2010Prop44ColorRGB
 90
      255
102
RTVSPost2010PropOp44
 70
     1
102
RTVSPost2010Prop45
280
     0
102
RTVSPost2010PropOp45
 70
     1
102
RTVSPost2010Prop46
 90
       50
102
RTVSPost2010PropOp46
 70
     1
102
RTVSPost2010Prop47
 90
       50
102
RTVSPost2010PropOp47
 70
     1
102
RTVSPost2010Prop48
 90
       50
102
RTVSPost2010PropOp48
 70
     1
102
RTVSPost2010Prop49
280
     0
102
RTVSPost2010PropOp49
 70
     1
102
RTVSPost2010Prop50
 90
       50
102
RTVSPost2010PropOp50
 70
     1
102
RTVSPost2010Prop51ColorIndex
 90
      256
102
RTVSPost2010Prop51ColorRGB
 90
-16777216
102
RTVSPost2010PropOp51
 70
     0
102
RTVSPost2010Prop52
140
1.0
102
RTVSPost2010PropOp52
 70
     0
102
RTVSPost2010Prop53
 90
        2
102
RTVSPost2010PropOp53
 70
     1
102
RTVSPost2010Prop54
  1
strokes_ogs.tif
102
RTVSPost2010PropOp54
 70
     1
102
RTVSPost2010Prop55
280
     0
102
RTVSPost2010PropOp55
 70
     1
102
RTVSPost2010Prop56
140
1.0
102
RTVSPost2010PropOp56
 70
     1
102
RTVSPost2010Prop57
140
1.0
102
RTVSPost2010PropOp57
 70
     1
102
RTVSPropertyOp0
 70
     1
102
RTVSPropertyOp1
 70
     1
102
RTVSPropertyOp2
 70
     1
102
RTVSPropertyOp3
 70
     1
102
RTVSPropertyOp4
 70
     1
102
RTVSPropertyOp5
 70
     1
102
RTVSPropertyOp6
 70
     1
102
RTVSPropertyOp7
 70
     1
102
RTVSPropertyOp8
 70
     1
102
RTVSPropertyOp9
 70
     1
102
RTVSPropertyOp10
 70
     1
102
RTVSPropertyOp11
 70
     1
102
RTVSPropertyOp12
 70
     1
102
RTVSPropertyOp13
 70
     1
102
RTVSPropertyOp14
 70
     1
102
RTVSPropertyOp15
 70
     1
102
RTVSPropertyOp16
 70
     1
102
RTVSPropertyOp17
 70
     1
102
RTVSPropertyOp18
 70
     1
102
RTVSPropertyOp19
 70
     1
102
RTVSPropertyOp20
 70
     1
102
RTVSPropertyOp21
 70
     1
102
RTVSPropertyOp22
 70
     1
102
RTVSPropertyOp23
 70
     1
102
RTVSPropertyOp24
 70
     1
102
RTVSPropertyOp25
 70
     1
102
RTVSPropertyOp26
 70
     1
102
RTVSPropertyOp27
 70
     1
102
RTVSPropertyOp28
 70
     1
102
RTVSPropertyOp29
 70
     1
102
RTVSPropertyOp30
 70
     1
102
RTVSPropertyOp31
 70
     1
102
RTVSPropertyOp32
 70
     1
102
RTVSPropertyOp33
 70
     1
102
RTVSPropertyOp34
 70
     1
102
RTVSPropertyOp35
 70
     1
102
RTVSPropertyOp36
 70
     1
102
RTVSPropertyOp37
 70
     1
102
RTVSPropertyOp38
 70
     1
102
RTVSPropertyOp39
 70
     1
102
RTVSPropertyOp40
 70
     1
102
RTVSPropertyOp41
 70
     1
102
RTVSPropertyOp42
 70
     1
102
RTVSPropertyOp43
 70
     1
102
RTVSPropertyOp44
 70
     1
102
RTVSPropertyOp45
 70
     1
102
RTVSPropertyOp46
 70
     1
102
RTVSPropertyOp47
 70
     1
102
RTVSPropertyOp48
 70
     1
102
RTVSPropertyOp49
 70
     1
102
RTVSPropertyOp50
 70
     1
102
RTVSPropertyOp51
 70
     0
102
RTVSPropertyOp52
 70
     0
102
RTVSPropertyOp53
 70
     1
102
RTVSPropertyOp54
 70
     1
102
RTVSPropertyOp55
 70
     1
102
RTVSPropertyOp56
 70
     1
102
RTVSPropertyOp57
 70
     1
102
RTVSPropertyOp58
 70
     1
102
RTVSPropertyOp59
 70
     1
102
RTVSPropertyOp60
 70
     1
102
RTVSPropertyOp61
 70
     1
102
RTVSPropertyOp62
 70
     1
  0
XRECORD
  5
732
102
{ACAD_REACTORS
330
731
102
}
330
731
100
AcDbXrecord
280
     1
102
RTVSPost2010Prop28
280
     0
102
RTVSPost2010PropOp28
 70
     1
102
RTVSPost2010Prop29
280
     1
102
RTVSPost2010PropOp29
 70
     1
102
RTVSPost2010Prop30
280
     1
102
RTVSPost2010PropOp30
 70
     1
102
RTVSPost2010Prop31
280
     0
102
RTVSPost2010PropOp31
 70
     1
102
RTVSPost2010Prop32
280
     0
102
RTVSPost2010PropOp32
 70
     1
102
RTVSPost2010Prop33
280
     0
102
RTVSPost2010PropOp33
 70
     1
102
RTVSPost2010Prop34
280
     0
102
RTVSPost2010PropOp34
 70
     1
102
RTVSPost2010Prop35
280
     0
102
RTVSPost2010PropOp35
 70
     1
102
RTVSPost2010Prop36
280
     0
102
RTVSPost2010PropOp36
 70
     1
102
RTVSPost2010Prop37
 90
       50
102
RTVSPost2010PropOp37
 70
     1
102
RTVSPost2010Prop38
140
0.0
102
RTVSPost2010PropOp38
 70
     1
102
RTVSPost2010Prop39
140
1.0
102
RTVSPost2010PropOp39
 70
     1
102
RTVSPost2010Prop40
 90
        0
102
RTVSPost2010PropOp40
 70
     1
102
RTVSPost2010Prop41ColorIndex
 90
       18
102
RTVSPost2010Prop41ColorRGB
 90
        0
102
RTVSPost2010PropOp41
 70
     1
102
RTVSPost2010Prop42
 90
       50
102
RTVSPost2010PropOp42
 70
     1
102
RTVSPost2010Prop43
 90
        3
102
RTVSPost2010PropOp43
 70
     1
102
RTVSPost2010Prop44ColorIndex
 90
        5
102
RTVSPost2010Prop44ColorRGB
 90
      255
102
RTVSPost2010PropOp44
 70
     1
102
RTVSPost2010Prop45
280
     0
102
RTVSPost2010PropOp45
 70
     1
102
RTVSPost2010Prop46
 90
       50
102
RTVSPost2010PropOp46
 70
     1
102
RTVSPost2010Prop47
 90
       50
102
RTVSPost2010PropOp47
 70
     1
102
RTVSPost2010Prop48
 90
       50
102
RTVSPost2010PropOp48
 70
     1
102
RTVSPost2010Prop49
280
     0
102
RTVSPost2010PropOp49
 70
     1
102
RTVSPost2010Prop50
 90
       50
102
RTVSPost2010PropOp50
 70
     1
102
RTVSPost2010Prop51ColorIndex
 90
      256
102
RTVSPost2010Prop51ColorRGB
 90
-16777216
102
RTVSPost2010PropOp51
 70
     0
102
RTVSPost2010Prop52
140
1.0
102
RTVSPost2010PropOp52
 70
     0
102
RTVSPost2010Prop53
 90
        2
102
RTVSPost2010PropOp53
 70
     1
102
RTVSPost2010Prop54
  1
strokes_ogs.tif
102
RTVSPost2010PropOp54
 70
     1
102
RTVSPost2010Prop55
280
     0
102
RTVSPost2010PropOp55
 70
     1
102
RTVSPost2010Prop56
140
1.0
102
RTVSPost2010PropOp56
 70
     1
102
RTVSPost2010Prop57
140
1.0
102
RTVSPost2010PropOp57
 70
     1
102
RTVSPropertyOp0
 70
     1
102
RTVSPropertyOp1
 70
     1
102
RTVSPropertyOp2
 70
     1
102
RTVSPropertyOp3
 70
     1
102
RTVSPropertyOp4
 70
     1
102
RTVSPropertyOp5
 70
     1
102
RTVSPropertyOp6
 70
     1
102
RTVSPropertyOp7
 70
     1
102
RTVSPropertyOp8
 70
     1
102
RTVSPropertyOp9
 70
     1
102
RTVSPropertyOp10
 70
     1
102
RTVSPropertyOp11
 70
     1
102
RTVSPropertyOp12
 70
     1
102
RTVSPropertyOp13
 70
     1
102
RTVSPropertyOp14
 70
     1
102
RTVSPropertyOp15
 70
     1
102
RTVSPropertyOp16
 70
     1
102
RTVSPropertyOp17
 70
     1
102
RTVSPropertyOp18
 70
     1
102
RTVSPropertyOp19
 70
     1
102
RTVSPropertyOp20
 70
     1
102
RTVSPropertyOp21
 70
     1
102
RTVSPropertyOp22
 70
     1
102
RTVSPropertyOp23
 70
     1
102
RTVSPropertyOp24
 70
     1
102
RTVSPropertyOp25
 70
     1
102
RTVSPropertyOp26
 70
     1
102
RTVSPropertyOp27
 70
     1
102
RTVSPropertyOp28
 70
     1
102
RTVSPropertyOp29
 70
     1
102
RTVSPropertyOp30
 70
     1
102
RTVSPropertyOp31
 70
     1
102
RTVSPropertyOp32
 70
     1
102
RTVSPropertyOp33
 70
     1
102
RTVSPropertyOp34
 70
     1
102
RTVSPropertyOp35
 70
     1
102
RTVSPropertyOp36
 70
     1
102
RTVSPropertyOp37
 70
     1
102
RTVSPropertyOp38
 70
     1
102
RTVSPropertyOp39
 70
     1
102
RTVSPropertyOp40
 70
     1
102
RTVSPropertyOp41
 70
     1
102
RTVSPropertyOp42
 70
     1
102
RTVSPropertyOp43
 70
     1
102
RTVSPropertyOp44
 70
     1
102
RTVSPropertyOp45
 70
     1
102
RTVSPropertyOp46
 70
     1
102
RTVSPropertyOp47
 70
     1
102
RTVSPropertyOp48
 70
     1
102
RTVSPropertyOp49
 70
     1
102
RTVSPropertyOp50
 70
     1
102
RTVSPropertyOp51
 70
     0
102
RTVSPropertyOp52
 70
     0
102
RTVSPropertyOp53
 70
     1
102
RTVSPropertyOp54
 70
     1
102
RTVSPropertyOp55
 70
     1
102
RTVSPropertyOp56
 70
     1
102
RTVSPropertyOp57
 70
     1
102
RTVSPropertyOp58
 70
     1
102
RTVSPropertyOp59
 70
     1
102
RTVSPropertyOp60
 70
     1
102
RTVSPropertyOp61
 70
     1
102
RTVSPropertyOp62
 70
     1
  0
XRECORD
  5
736
102
{ACAD_REACTORS
330
735
102
}
330
735
100
AcDbXrecord
280
     1
102
RTVSPost2010Prop28
280
     0
102
RTVSPost2010PropOp28
 70
     1
102
RTVSPost2010Prop29
280
     1
102
RTVSPost2010PropOp29
 70
     1
102
RTVSPost2010Prop30
280
     1
102
RTVSPost2010PropOp30
 70
     1
102
RTVSPost2010Prop31
280
     0
102
RTVSPost2010PropOp31
 70
     1
102
RTVSPost2010Prop32
280
     0
102
RTVSPost2010PropOp32
 70
     1
102
RTVSPost2010Prop33
280
     0
102
RTVSPost2010PropOp33
 70
     1
102
RTVSPost2010Prop34
280
     0
102
RTVSPost2010PropOp34
 70
     1
102
RTVSPost2010Prop35
280
     0
102
RTVSPost2010PropOp35
 70
     1
102
RTVSPost2010Prop36
280
     0
102
RTVSPost2010PropOp36
 70
     1
102
RTVSPost2010Prop37
 90
       50
102
RTVSPost2010PropOp37
 70
     1
102
RTVSPost2010Prop38
140
0.0
102
RTVSPost2010PropOp38
 70
     1
102
RTVSPost2010Prop39
140
1.0
102
RTVSPost2010PropOp39
 70
     1
102
RTVSPost2010Prop40
 90
        0
102
RTVSPost2010PropOp40
 70
     1
102
RTVSPost2010Prop41ColorIndex
 90
       18
102
RTVSPost2010Prop41ColorRGB
 90
        0
102
RTVSPost2010PropOp41
 70
     1
102
RTVSPost2010Prop42
 90
       50
102
RTVSPost2010PropOp42
 70
     1
102
RTVSPost2010Prop43
 90
        3
102
RTVSPost2010PropOp43
 70
     1
102
RTVSPost2010Prop44ColorIndex
 90
        5
102
RTVSPost2010Prop44ColorRGB
 90
      255
102
RTVSPost2010PropOp44
 70
     1
102
RTVSPost2010Prop45
280
     0
102
RTVSPost2010PropOp45
 70
     1
102
RTVSPost2010Prop46
 90
       50
102
RTVSPost2010PropOp46
 70
     1
102
RTVSPost2010Prop47
 90
       50
102
RTVSPost2010PropOp47
 70
     1
102
RTVSPost2010Prop48
 90
       50
102
RTVSPost2010PropOp48
 70
     1
102
RTVSPost2010Prop49
280
     0
102
RTVSPost2010PropOp49
 70
     1
102
RTVSPost2010Prop50
 90
       50
102
RTVSPost2010PropOp50
 70
     1
102
RTVSPost2010Prop51ColorIndex
 90
      256
102
RTVSPost2010Prop51ColorRGB
 90
-16777216
102
RTVSPost2010PropOp51
 70
     0
102
RTVSPost2010Prop52
140
1.0
102
RTVSPost2010PropOp52
 70
     0
102
RTVSPost2010Prop53
 90
        2
102
RTVSPost2010PropOp53
 70
     1
102
RTVSPost2010Prop54
  1
strokes_ogs.tif
102
RTVSPost2010PropOp54
 70
     1
102
RTVSPost2010Prop55
280
     0
102
RTVSPost2010PropOp55
 70
     1
102
RTVSPost2010Prop56
140
1.0
102
RTVSPost2010PropOp56
 70
     1
102
RTVSPost2010Prop57
140
1.0
102
RTVSPost2010PropOp57
 70
     1
102
RTVSPropertyOp0
 70
     1
102
RTVSPropertyOp1
 70
     1
102
RTVSPropertyOp2
 70
     1
102
RTVSPropertyOp3
 70
     1
102
RTVSPropertyOp4
 70
     1
102
RTVSPropertyOp5
 70
     1
102
RTVSPropertyOp6
 70
     1
102
RTVSPropertyOp7
 70
     1
102
RTVSPropertyOp8
 70
     1
102
RTVSPropertyOp9
 70
     1
102
RTVSPropertyOp10
 70
     1
102
RTVSPropertyOp11
 70
     1
102
RTVSPropertyOp12
 70
     1
102
RTVSPropertyOp13
 70
     1
102
RTVSPropertyOp14
 70
     1
102
RTVSPropertyOp15
 70
     1
102
RTVSPropertyOp16
 70
     1
102
RTVSPropertyOp17
 70
     1
102
RTVSPropertyOp18
 70
     1
102
RTVSPropertyOp19
 70
     1
102
RTVSPropertyOp20
 70
     1
102
RTVSPropertyOp21
 70
     1
102
RTVSPropertyOp22
 70
     1
102
RTVSPropertyOp23
 70
     1
102
RTVSPropertyOp24
 70
     1
102
RTVSPropertyOp25
 70
     1
102
RTVSPropertyOp26
 70
     1
102
RTVSPropertyOp27
 70
     1
102
RTVSPropertyOp28
 70
     1
102
RTVSPropertyOp29
 70
     1
102
RTVSPropertyOp30
 70
     1
102
RTVSPropertyOp31
 70
     1
102
RTVSPropertyOp32
 70
     1
102
RTVSPropertyOp33
 70
     1
102
RTVSPropertyOp34
 70
     1
102
RTVSPropertyOp35
 70
     1
102
RTVSPropertyOp36
 70
     1
102
RTVSPropertyOp37
 70
     1
102
RTVSPropertyOp38
 70
     1
102
RTVSPropertyOp39
 70
     1
102
RTVSPropertyOp40
 70
     1
102
RTVSPropertyOp41
 70
     1
102
RTVSPropertyOp42
 70
     1
102
RTVSPropertyOp43
 70
     1
102
RTVSPropertyOp44
 70
     1
102
RTVSPropertyOp45
 70
     1
102
RTVSPropertyOp46
 70
     1
102
RTVSPropertyOp47
 70
     1
102
RTVSPropertyOp48
 70
     1
102
RTVSPropertyOp49
 70
     1
102
RTVSPropertyOp50
 70
     1
102
RTVSPropertyOp51
 70
     0
102
RTVSPropertyOp52
 70
     0
102
RTVSPropertyOp53
 70
     1
102
RTVSPropertyOp54
 70
     1
102
RTVSPropertyOp55
 70
     1
102
RTVSPropertyOp56
 70
     1
102
RTVSPropertyOp57
 70
     1
102
RTVSPropertyOp58
 70
     1
102
RTVSPropertyOp59
 70
     1
102
RTVSPropertyOp60
 70
     1
102
RTVSPropertyOp61
 70
     1
102
RTVSPropertyOp62
 70
     1
  0
XRECORD
  5
750
102
{ACAD_REACTORS
330
74F
102
}
330
74F
100
AcDbXrecord
280
     1
102
RTVSPost2010Prop28
280
     0
102
RTVSPost2010PropOp28
 70
     1
102
RTVSPost2010Prop29
280
     1
102
RTVSPost2010PropOp29
 70
     1
102
RTVSPost2010Prop30
280
     1
102
RTVSPost2010PropOp30
 70
     1
102
RTVSPost2010Prop31
280
     0
102
RTVSPost2010PropOp31
 70
     1
102
RTVSPost2010Prop32
280
     0
102
RTVSPost2010PropOp32
 70
     1
102
RTVSPost2010Prop33
280
     0
102
RTVSPost2010PropOp33
 70
     1
102
RTVSPost2010Prop34
280
     0
102
RTVSPost2010PropOp34
 70
     1
102
RTVSPost2010Prop35
280
     0
102
RTVSPost2010PropOp35
 70
     1
102
RTVSPost2010Prop36
280
     0
102
RTVSPost2010PropOp36
 70
     1
102
RTVSPost2010Prop37
 90
       50
102
RTVSPost2010PropOp37
 70
     0
102
RTVSPost2010Prop38
140
0.0
102
RTVSPost2010PropOp38
 70
     0
102
RTVSPost2010Prop39
140
1.0
102
RTVSPost2010PropOp39
 70
     0
102
RTVSPost2010Prop40
 90
        0
102
RTVSPost2010PropOp40
 70
     0
102
RTVSPost2010Prop41ColorIndex
 90
       18
102
RTVSPost2010Prop41ColorRGB
 90
        0
102
RTVSPost2010PropOp41
 70
     0
102
RTVSPost2010Prop42
 90
       50
102
RTVSPost2010PropOp42
 70
     0
102
RTVSPost2010Prop43
 90
        3
102
RTVSPost2010PropOp43
 70
     0
102
RTVSPost2010Prop44ColorIndex
 90
        5
102
RTVSPost2010Prop44ColorRGB
 90
      255
102
RTVSPost2010PropOp44
 70
     0
102
RTVSPost2010Prop45
280
     0
102
RTVSPost2010PropOp45
 70
     1
102
RTVSPost2010Prop46
 90
       50
102
RTVSPost2010PropOp46
 70
     0
102
RTVSPost2010Prop47
 90
       50
102
RTVSPost2010PropOp47
 70
     0
102
RTVSPost2010Prop48
 90
       50
102
RTVSPost2010PropOp48
 70
     0
102
RTVSPost2010Prop49
280
     0
102
RTVSPost2010PropOp49
 70
     1
102
RTVSPost2010Prop50
 90
       50
102
RTVSPost2010PropOp50
 70
     0
102
RTVSPost2010Prop51ColorIndex
 90
      256
102
RTVSPost2010Prop51ColorRGB
 90
-16777216
102
RTVSPost2010PropOp51
 70
     0
102
RTVSPost2010Prop52
140
1.0
102
RTVSPost2010PropOp52
 70
     0
102
RTVSPost2010Prop53
 90
        2
102
RTVSPost2010PropOp53
 70
     0
102
RTVSPost2010Prop54
  1
strokes_ogs.tif
102
RTVSPost2010PropOp54
 70
     0
102
RTVSPost2010Prop55
280
     0
102
RTVSPost2010PropOp55
 70
     1
102
RTVSPost2010Prop56
140
1.0
102
RTVSPost2010PropOp56
 70
     0
102
RTVSPost2010Prop57
140
1.0
102
RTVSPost2010PropOp57
 70
     0
102
RTVSPropertyOp0
 70
     0
102
RTVSPropertyOp1
 70
     0
102
RTVSPropertyOp2
 70
     0
102
RTVSPropertyOp3
 70
     0
102
RTVSPropertyOp4
 70
     0
102
RTVSPropertyOp5
 70
     0
102
RTVSPropertyOp6
 70
     0
102
RTVSPropertyOp7
 70
     0
102
RTVSPropertyOp8
 70
     0
102
RTVSPropertyOp9
 70
     0
102
RTVSPropertyOp10
 70
     0
102
RTVSPropertyOp11
 70
     0
102
RTVSPropertyOp12
 70
     0
102
RTVSPropertyOp13
 70
     0
102
RTVSPropertyOp14
 70
     2
102
RTVSPropertyOp15
 70
     0
102
RTVSPropertyOp16
 70
     0
102
RTVSPropertyOp17
 70
     0
102
RTVSPropertyOp18
 70
     0
102
RTVSPropertyOp19
 70
     0
102
RTVSPropertyOp20
 70
     0
102
RTVSPropertyOp21
 70
     0
102
RTVSPropertyOp22
 70
     0
102
RTVSPropertyOp23
 70
     0
102
RTVSPropertyOp24
 70
     0
102
RTVSPropertyOp25
 70
     0
102
RTVSPropertyOp26
 70
     0
102
RTVSPropertyOp27
 70
     0
102
RTVSPropertyOp28
 70
     1
102
RTVSPropertyOp29
 70
     1
102
RTVSPropertyOp30
 70
     1
102
RTVSPropertyOp31
 70
     1
102
RTVSPropertyOp32
 70
     1
102
RTVSPropertyOp33
 70
     1
102
RTVSPropertyOp34
 70
     1
102
RTVSPropertyOp35
 70
     1
102
RTVSPropertyOp36
 70
     1
102
RTVSPropertyOp37
 70
     0
102
RTVSPropertyOp38
 70
     0
102
RTVSPropertyOp39
 70
     0
102
RTVSPropertyOp40
 70
     0
102
RTVSPropertyOp41
 70
     0
102
RTVSPropertyOp42
 70
     0
102
RTVSPropertyOp43
 70
     0
102
RTVSPropertyOp44
 70
     0
102
RTVSPropertyOp45
 70
     1
102
RTVSPropertyOp46
 70
     0
102
RTVSPropertyOp47
 70
     0
102
RTVSPropertyOp48
 70
     0
102
RTVSPropertyOp49
 70
     1
102
RTVSPropertyOp50
 70
     0
102
RTVSPropertyOp51
 70
     0
102
RTVSPropertyOp52
 70
     0
102
RTVSPropertyOp53
 70
     0
102
RTVSPropertyOp54
 70
     0
102
RTVSPropertyOp55
 70
     1
102
RTVSPropertyOp56
 70
     0
102
RTVSPropertyOp57
 70
     0
102
RTVSPropertyOp58
 70
     0
102
RTVSPropertyOp59
 70
     0
102
RTVSPropertyOp60
 70
     0
102
RTVSPropertyOp61
 70
     0
102
RTVSPropertyOp62
 70
     0
  0
XRECORD
  5
73E
102
{ACAD_REACTORS
330
73D
102
}
330
73D
100
AcDbXrecord
280
     1
102
RTVSPost2010Prop28
280
     0
102
RTVSPost2010PropOp28
 70
     1
102
RTVSPost2010Prop29
280
     1
102
RTVSPost2010PropOp29
 70
     1
102
RTVSPost2010Prop30
280
     1
102
RTVSPost2010PropOp30
 70
     1
102
RTVSPost2010Prop31
280
     0
102
RTVSPost2010PropOp31
 70
     1
102
RTVSPost2010Prop32
280
     0
102
RTVSPost2010PropOp32
 70
     1
102
RTVSPost2010Prop33
280
     0
102
RTVSPost2010PropOp33
 70
     1
102
RTVSPost2010Prop34
280
     0
102
RTVSPost2010PropOp34
 70
     1
102
RTVSPost2010Prop35
280
     0
102
RTVSPost2010PropOp35
 70
     1
102
RTVSPost2010Prop36
280
     0
102
RTVSPost2010PropOp36
 70
     1
102
RTVSPost2010Prop37
 90
       50
102
RTVSPost2010PropOp37
 70
     1
102
RTVSPost2010Prop38
140
0.0
102
RTVSPost2010PropOp38
 70
     1
102
RTVSPost2010Prop39
140
1.0
102
RTVSPost2010PropOp39
 70
     1
102
RTVSPost2010Prop40
 90
        0
102
RTVSPost2010PropOp40
 70
     1
102
RTVSPost2010Prop41ColorIndex
 90
       18
102
RTVSPost2010Prop41ColorRGB
 90
        0
102
RTVSPost2010PropOp41
 70
     1
102
RTVSPost2010Prop42
 90
       50
102
RTVSPost2010PropOp42
 70
     1
102
RTVSPost2010Prop43
 90
        3
102
RTVSPost2010PropOp43
 70
     1
102
RTVSPost2010Prop44ColorIndex
 90
        5
102
RTVSPost2010Prop44ColorRGB
 90
      255
102
RTVSPost2010PropOp44
 70
     1
102
RTVSPost2010Prop45
280
     0
102
RTVSPost2010PropOp45
 70
     1
102
RTVSPost2010Prop46
 90
       50
102
RTVSPost2010PropOp46
 70
     1
102
RTVSPost2010Prop47
 90
       50
102
RTVSPost2010PropOp47
 70
     1
102
RTVSPost2010Prop48
 90
       50
102
RTVSPost2010PropOp48
 70
     1
102
RTVSPost2010Prop49
280
     0
102
RTVSPost2010PropOp49
 70
     1
102
RTVSPost2010Prop50
 90
       50
102
RTVSPost2010PropOp50
 70
     1
102
RTVSPost2010Prop51ColorIndex
 90
      256
102
RTVSPost2010Prop51ColorRGB
 90
-16777216
102
RTVSPost2010PropOp51
 70
     0
102
RTVSPost2010Prop52
140
1.0
102
RTVSPost2010PropOp52
 70
     0
102
RTVSPost2010Prop53
 90
        2
102
RTVSPost2010PropOp53
 70
     1
102
RTVSPost2010Prop54
  1
strokes_ogs.tif
102
RTVSPost2010PropOp54
 70
     1
102
RTVSPost2010Prop55
280
     0
102
RTVSPost2010PropOp55
 70
     1
102
RTVSPost2010Prop56
140
1.0
102
RTVSPost2010PropOp56
 70
     1
102
RTVSPost2010Prop57
140
1.0
102
RTVSPost2010PropOp57
 70
     1
102
RTVSPropertyOp0
 70
     1
102
RTVSPropertyOp1
 70
     1
102
RTVSPropertyOp2
 70
     1
102
RTVSPropertyOp3
 70
     1
102
RTVSPropertyOp4
 70
     1
102
RTVSPropertyOp5
 70
     1
102
RTVSPropertyOp6
 70
     1
102
RTVSPropertyOp7
 70
     1
102
RTVSPropertyOp8
 70
     1
102
RTVSPropertyOp9
 70
     1
102
RTVSPropertyOp10
 70
     1
102
RTVSPropertyOp11
 70
     1
102
RTVSPropertyOp12
 70
     1
102
RTVSPropertyOp13
 70
     1
102
RTVSPropertyOp14
 70
     1
102
RTVSPropertyOp15
 70
     1
102
RTVSPropertyOp16
 70
     1
102
RTVSPropertyOp17
 70
     1
102
RTVSPropertyOp18
 70
     1
102
RTVSPropertyOp19
 70
     1
102
RTVSPropertyOp20
 70
     1
102
RTVSPropertyOp21
 70
     1
102
RTVSPropertyOp22
 70
     1
102
RTVSPropertyOp23
 70
     1
102
RTVSPropertyOp24
 70
     1
102
RTVSPropertyOp25
 70
     1
102
RTVSPropertyOp26
 70
     1
102
RTVSPropertyOp27
 70
     1
102
RTVSPropertyOp28
 70
     1
102
RTVSPropertyOp29
 70
     1
102
RTVSPropertyOp30
 70
     1
102
RTVSPropertyOp31
 70
     1
102
RTVSPropertyOp32
 70
     1
102
RTVSPropertyOp33
 70
     1
102
RTVSPropertyOp34
 70
     1
102
RTVSPropertyOp35
 70
     1
102
RTVSPropertyOp36
 70
     1
102
RTVSPropertyOp37
 70
     1
102
RTVSPropertyOp38
 70
     1
102
RTVSPropertyOp39
 70
     1
102
RTVSPropertyOp40
 70
     1
102
RTVSPropertyOp41
 70
     1
102
RTVSPropertyOp42
 70
     1
102
RTVSPropertyOp43
 70
     1
102
RTVSPropertyOp44
 70
     1
102
RTVSPropertyOp45
 70
     1
102
RTVSPropertyOp46
 70
     1
102
RTVSPropertyOp47
 70
     1
102
RTVSPropertyOp48
 70
     1
102
RTVSPropertyOp49
 70
     1
102
RTVSPropertyOp50
 70
     1
102
RTVSPropertyOp51
 70
     0
102
RTVSPropertyOp52
 70
     0
102
RTVSPropertyOp53
 70
     1
102
RTVSPropertyOp54
 70
     1
102
RTVSPropertyOp55
 70
     1
102
RTVSPropertyOp56
 70
     1
102
RTVSPropertyOp57
 70
     1
102
RTVSPropertyOp58
 70
     1
102
RTVSPropertyOp59
 70
     1
102
RTVSPropertyOp60
 70
     1
102
RTVSPropertyOp61
 70
     1
102
RTVSPropertyOp62
 70
     1
  0
XRECORD
  5
722
102
{ACAD_REACTORS
330
721
102
}
330
721
100
AcDbXrecord
280
     1
102
RTVSPost2010Prop28
280
     0
102
RTVSPost2010PropOp28
 70
     1
102
RTVSPost2010Prop29
280
     1
102
RTVSPost2010PropOp29
 70
     1
102
RTVSPost2010Prop30
280
     1
102
RTVSPost2010PropOp30
 70
     1
102
RTVSPost2010Prop31
280
     0
102
RTVSPost2010PropOp31
 70
     1
102
RTVSPost2010Prop32
280
     0
102
RTVSPost2010PropOp32
 70
     1
102
RTVSPost2010Prop33
280
     0
102
RTVSPost2010PropOp33
 70
     1
102
RTVSPost2010Prop34
280
     0
102
RTVSPost2010PropOp34
 70
     1
102
RTVSPost2010Prop35
280
     0
102
RTVSPost2010PropOp35
 70
     1
102
RTVSPost2010Prop36
280
     0
102
RTVSPost2010PropOp36
 70
     1
102
RTVSPost2010Prop37
 90
       50
102
RTVSPost2010PropOp37
 70
     1
102
RTVSPost2010Prop38
140
0.0
102
RTVSPost2010PropOp38
 70
     1
102
RTVSPost2010Prop39
140
1.0
102
RTVSPost2010PropOp39
 70
     1
102
RTVSPost2010Prop40
 90
        0
102
RTVSPost2010PropOp40
 70
     1
102
RTVSPost2010Prop41ColorIndex
 90
       18
102
RTVSPost2010Prop41ColorRGB
 90
        0
102
RTVSPost2010PropOp41
 70
     1
102
RTVSPost2010Prop42
 90
       50
102
RTVSPost2010PropOp42
 70
     1
102
RTVSPost2010Prop43
 90
        3
102
RTVSPost2010PropOp43
 70
     1
102
RTVSPost2010Prop44ColorIndex
 90
        5
102
RTVSPost2010Prop44ColorRGB
 90
      255
102
RTVSPost2010PropOp44
 70
     1
102
RTVSPost2010Prop45
280
     0
102
RTVSPost2010PropOp45
 70
     1
102
RTVSPost2010Prop46
 90
       50
102
RTVSPost2010PropOp46
 70
     1
102
RTVSPost2010Prop47
 90
       50
102
RTVSPost2010PropOp47
 70
     1
102
RTVSPost2010Prop48
 90
       50
102
RTVSPost2010PropOp48
 70
     1
102
RTVSPost2010Prop49
280
     0
102
RTVSPost2010PropOp49
 70
     1
102
RTVSPost2010Prop50
 90
       50
102
RTVSPost2010PropOp50
 70
     1
102
RTVSPost2010Prop51ColorIndex
 90
      256
102
RTVSPost2010Prop51ColorRGB
 90
-16777216
102
RTVSPost2010PropOp51
 70
     0
102
RTVSPost2010Prop52
140
1.0
102
RTVSPost2010PropOp52
 70
     0
102
RTVSPost2010Prop53
 90
        2
102
RTVSPost2010PropOp53
 70
     1
102
RTVSPost2010Prop54
  1
strokes_ogs.tif
102
RTVSPost2010PropOp54
 70
     1
102
RTVSPost2010Prop55
280
     0
102
RTVSPost2010PropOp55
 70
     1
102
RTVSPost2010Prop56
140
1.0
102
RTVSPost2010PropOp56
 70
     1
102
RTVSPost2010Prop57
140
1.0
102
RTVSPost2010PropOp57
 70
     1
102
RTVSPropertyOp0
 70
     1
102
RTVSPropertyOp1
 70
     1
102
RTVSPropertyOp2
 70
     1
102
RTVSPropertyOp3
 70
     1
102
RTVSPropertyOp4
 70
     1
102
RTVSPropertyOp5
 70
     1
102
RTVSPropertyOp6
 70
     1
102
RTVSPropertyOp7
 70
     1
102
RTVSPropertyOp8
 70
     1
102
RTVSPropertyOp9
 70
     1
102
RTVSPropertyOp10
 70
     1
102
RTVSPropertyOp11
 70
     1
102
RTVSPropertyOp12
 70
     1
102
RTVSPropertyOp13
 70
     1
102
RTVSPropertyOp14
 70
     1
102
RTVSPropertyOp15
 70
     1
102
RTVSPropertyOp16
 70
     1
102
RTVSPropertyOp17
 70
     1
102
RTVSPropertyOp18
 70
     1
102
RTVSPropertyOp19
 70
     1
102
RTVSPropertyOp20
 70
     1
102
RTVSPropertyOp21
 70
     1
102
RTVSPropertyOp22
 70
     1
102
RTVSPropertyOp23
 70
     1
102
RTVSPropertyOp24
 70
     1
102
RTVSPropertyOp25
 70
     1
102
RTVSPropertyOp26
 70
     1
102
RTVSPropertyOp27
 70
     1
102
RTVSPropertyOp28
 70
     1
102
RTVSPropertyOp29
 70
     1
102
RTVSPropertyOp30
 70
     1
102
RTVSPropertyOp31
 70
     1
102
RTVSPropertyOp32
 70
     1
102
RTVSPropertyOp33
 70
     1
102
RTVSPropertyOp34
 70
     1
102
RTVSPropertyOp35
 70
     1
102
RTVSPropertyOp36
 70
     1
102
RTVSPropertyOp37
 70
     1
102
RTVSPropertyOp38
 70
     1
102
RTVSPropertyOp39
 70
     1
102
RTVSPropertyOp40
 70
     1
102
RTVSPropertyOp41
 70
     1
102
RTVSPropertyOp42
 70
     1
102
RTVSPropertyOp43
 70
     1
102
RTVSPropertyOp44
 70
     1
102
RTVSPropertyOp45
 70
     1
102
RTVSPropertyOp46
 70
     1
102
RTVSPropertyOp47
 70
     1
102
RTVSPropertyOp48
 70
     1
102
RTVSPropertyOp49
 70
     1
102
RTVSPropertyOp50
 70
     1
102
RTVSPropertyOp51
 70
     0
102
RTVSPropertyOp52
 70
     0
102
RTVSPropertyOp53
 70
     1
102
RTVSPropertyOp54
 70
     1
102
RTVSPropertyOp55
 70
     1
102
RTVSPropertyOp56
 70
     1
102
RTVSPropertyOp57
 70
     1
102
RTVSPropertyOp58
 70
     1
102
RTVSPropertyOp59
 70
     1
102
RTVSPropertyOp60
 70
     1
102
RTVSPropertyOp61
 70
     1
102
RTVSPropertyOp62
 70
     1
  0
XRECORD
  5
724
102
{ACAD_REACTORS
330
723
102
}
330
723
100
AcDbXrecord
280
     1
102
RTVSPost2010Prop28
280
     0
102
RTVSPost2010PropOp28
 70
     1
102
RTVSPost2010Prop29
280
     1
102
RTVSPost2010PropOp29
 70
     1
102
RTVSPost2010Prop30
280
     1
102
RTVSPost2010PropOp30
 70
     1
102
RTVSPost2010Prop31
280
     0
102
RTVSPost2010PropOp31
 70
     1
102
RTVSPost2010Prop32
280
     0
102
RTVSPost2010PropOp32
 70
     1
102
RTVSPost2010Prop33
280
     0
102
RTVSPost2010PropOp33
 70
     1
102
RTVSPost2010Prop34
280
     0
102
RTVSPost2010PropOp34
 70
     1
102
RTVSPost2010Prop35
280
     0
102
RTVSPost2010PropOp35
 70
     1
102
RTVSPost2010Prop36
280
     0
102
RTVSPost2010PropOp36
 70
     1
102
RTVSPost2010Prop37
 90
       50
102
RTVSPost2010PropOp37
 70
     1
102
RTVSPost2010Prop38
140
0.0
102
RTVSPost2010PropOp38
 70
     1
102
RTVSPost2010Prop39
140
1.0
102
RTVSPost2010PropOp39
 70
     1
102
RTVSPost2010Prop40
 90
        0
102
RTVSPost2010PropOp40
 70
     1
102
RTVSPost2010Prop41ColorIndex
 90
       18
102
RTVSPost2010Prop41ColorRGB
 90
        0
102
RTVSPost2010PropOp41
 70
     1
102
RTVSPost2010Prop42
 90
       50
102
RTVSPost2010PropOp42
 70
     1
102
RTVSPost2010Prop43
 90
        3
102
RTVSPost2010PropOp43
 70
     1
102
RTVSPost2010Prop44ColorIndex
 90
        5
102
RTVSPost2010Prop44ColorRGB
 90
      255
102
RTVSPost2010PropOp44
 70
     1
102
RTVSPost2010Prop45
280
     0
102
RTVSPost2010PropOp45
 70
     1
102
RTVSPost2010Prop46
 90
       50
102
RTVSPost2010PropOp46
 70
     1
102
RTVSPost2010Prop47
 90
       50
102
RTVSPost2010PropOp47
 70
     1
102
RTVSPost2010Prop48
 90
       50
102
RTVSPost2010PropOp48
 70
     1
102
RTVSPost2010Prop49
280
     0
102
RTVSPost2010PropOp49
 70
     1
102
RTVSPost2010Prop50
 90
       50
102
RTVSPost2010PropOp50
 70
     1
102
RTVSPost2010Prop51ColorIndex
 90
      256
102
RTVSPost2010Prop51ColorRGB
 90
-16777216
102
RTVSPost2010PropOp51
 70
     0
102
RTVSPost2010Prop52
140
1.0
102
RTVSPost2010PropOp52
 70
     0
102
RTVSPost2010Prop53
 90
        2
102
RTVSPost2010PropOp53
 70
     1
102
RTVSPost2010Prop54
  1
strokes_ogs.tif
102
RTVSPost2010PropOp54
 70
     1
102
RTVSPost2010Prop55
280
     0
102
RTVSPost2010PropOp55
 70
     1
102
RTVSPost2010Prop56
140
1.0
102
RTVSPost2010PropOp56
 70
     1
102
RTVSPost2010Prop57
140
1.0
102
RTVSPost2010PropOp57
 70
     1
102
RTVSPropertyOp0
 70
     1
102
RTVSPropertyOp1
 70
     1
102
RTVSPropertyOp2
 70
     1
102
RTVSPropertyOp3
 70
     1
102
RTVSPropertyOp4
 70
     1
102
RTVSPropertyOp5
 70
     1
102
RTVSPropertyOp6
 70
     1
102
RTVSPropertyOp7
 70
     1
102
RTVSPropertyOp8
 70
     1
102
RTVSPropertyOp9
 70
     1
102
RTVSPropertyOp10
 70
     1
102
RTVSPropertyOp11
 70
     1
102
RTVSPropertyOp12
 70
     1
102
RTVSPropertyOp13
 70
     1
102
RTVSPropertyOp14
 70
     1
102
RTVSPropertyOp15
 70
     1
102
RTVSPropertyOp16
 70
     1
102
RTVSPropertyOp17
 70
     1
102
RTVSPropertyOp18
 70
     1
102
RTVSPropertyOp19
 70
     1
102
RTVSPropertyOp20
 70
     1
102
RTVSPropertyOp21
 70
     1
102
RTVSPropertyOp22
 70
     1
102
RTVSPropertyOp23
 70
     1
102
RTVSPropertyOp24
 70
     1
102
RTVSPropertyOp25
 70
     1
102
RTVSPropertyOp26
 70
     1
102
RTVSPropertyOp27
 70
     1
102
RTVSPropertyOp28
 70
     1
102
RTVSPropertyOp29
 70
     1
102
RTVSPropertyOp30
 70
     1
102
RTVSPropertyOp31
 70
     1
102
RTVSPropertyOp32
 70
     1
102
RTVSPropertyOp33
 70
     1
102
RTVSPropertyOp34
 70
     1
102
RTVSPropertyOp35
 70
     1
102
RTVSPropertyOp36
 70
     1
102
RTVSPropertyOp37
 70
     1
102
RTVSPropertyOp38
 70
     1
102
RTVSPropertyOp39
 70
     1
102
RTVSPropertyOp40
 70
     1
102
RTVSPropertyOp41
 70
     1
102
RTVSPropertyOp42
 70
     1
102
RTVSPropertyOp43
 70
     1
102
RTVSPropertyOp44
 70
     1
102
RTVSPropertyOp45
 70
     1
102
RTVSPropertyOp46
 70
     1
102
RTVSPropertyOp47
 70
     1
102
RTVSPropertyOp48
 70
     1
102
RTVSPropertyOp49
 70
     1
102
RTVSPropertyOp50
 70
     1
102
RTVSPropertyOp51
 70
     0
102
RTVSPropertyOp52
 70
     0
102
RTVSPropertyOp53
 70
     1
102
RTVSPropertyOp54
 70
     1
102
RTVSPropertyOp55
 70
     1
102
RTVSPropertyOp56
 70
     1
102
RTVSPropertyOp57
 70
     1
102
RTVSPropertyOp58
 70
     1
102
RTVSPropertyOp59
 70
     1
102
RTVSPropertyOp60
 70
     1
102
RTVSPropertyOp61
 70
     1
102
RTVSPropertyOp62
 70
     1
  0
XRECORD
  5
726
102
{ACAD_REACTORS
330
725
102
}
330
725
100
AcDbXrecord
280
     1
102
RTVSPost2010Prop28
280
     0
102
RTVSPost2010PropOp28
 70
     1
102
RTVSPost2010Prop29
280
     1
102
RTVSPost2010PropOp29
 70
     1
102
RTVSPost2010Prop30
280
     1
102
RTVSPost2010PropOp30
 70
     1
102
RTVSPost2010Prop31
280
     0
102
RTVSPost2010PropOp31
 70
     1
102
RTVSPost2010Prop32
280
     0
102
RTVSPost2010PropOp32
 70
     1
102
RTVSPost2010Prop33
280
     0
102
RTVSPost2010PropOp33
 70
     1
102
RTVSPost2010Prop34
280
     0
102
RTVSPost2010PropOp34
 70
     1
102
RTVSPost2010Prop35
280
     0
102
RTVSPost2010PropOp35
 70
     1
102
RTVSPost2010Prop36
280
     0
102
RTVSPost2010PropOp36
 70
     1
102
RTVSPost2010Prop37
 90
       50
102
RTVSPost2010PropOp37
 70
     1
102
RTVSPost2010Prop38
140
0.0
102
RTVSPost2010PropOp38
 70
     1
102
RTVSPost2010Prop39
140
1.0
102
RTVSPost2010PropOp39
 70
     1
102
RTVSPost2010Prop40
 90
        0
102
RTVSPost2010PropOp40
 70
     1
102
RTVSPost2010Prop41ColorIndex
 90
       18
102
RTVSPost2010Prop41ColorRGB
 90
        0
102
RTVSPost2010PropOp41
 70
     1
102
RTVSPost2010Prop42
 90
       50
102
RTVSPost2010PropOp42
 70
     1
102
RTVSPost2010Prop43
 90
        3
102
RTVSPost2010PropOp43
 70
     1
102
RTVSPost2010Prop44ColorIndex
 90
        5
102
RTVSPost2010Prop44ColorRGB
 90
      255
102
RTVSPost2010PropOp44
 70
     1
102
RTVSPost2010Prop45
280
     0
102
RTVSPost2010PropOp45
 70
     1
102
RTVSPost2010Prop46
 90
       50
102
RTVSPost2010PropOp46
 70
     1
102
RTVSPost2010Prop47
 90
       50
102
RTVSPost2010PropOp47
 70
     1
102
RTVSPost2010Prop48
 90
       50
102
RTVSPost2010PropOp48
 70
     1
102
RTVSPost2010Prop49
280
     0
102
RTVSPost2010PropOp49
 70
     1
102
RTVSPost2010Prop50
 90
       50
102
RTVSPost2010PropOp50
 70
     1
102
RTVSPost2010Prop51ColorIndex
 90
      256
102
RTVSPost2010Prop51ColorRGB
 90
-16777216
102
RTVSPost2010PropOp51
 70
     0
102
RTVSPost2010Prop52
140
1.0
102
RTVSPost2010PropOp52
 70
     0
102
RTVSPost2010Prop53
 90
        2
102
RTVSPost2010PropOp53
 70
     1
102
RTVSPost2010Prop54
  1
strokes_ogs.tif
102
RTVSPost2010PropOp54
 70
     1
102
RTVSPost2010Prop55
280
     0
102
RTVSPost2010PropOp55
 70
     1
102
RTVSPost2010Prop56
140
1.0
102
RTVSPost2010PropOp56
 70
     1
102
RTVSPost2010Prop57
140
1.0
102
RTVSPost2010PropOp57
 70
     1
102
RTVSPropertyOp0
 70
     1
102
RTVSPropertyOp1
 70
     1
102
RTVSPropertyOp2
 70
     1
102
RTVSPropertyOp3
 70
     1
102
RTVSPropertyOp4
 70
     1
102
RTVSPropertyOp5
 70
     1
102
RTVSPropertyOp6
 70
     1
102
RTVSPropertyOp7
 70
     1
102
RTVSPropertyOp8
 70
     1
102
RTVSPropertyOp9
 70
     1
102
RTVSPropertyOp10
 70
     1
102
RTVSPropertyOp11
 70
     1
102
RTVSPropertyOp12
 70
     1
102
RTVSPropertyOp13
 70
     1
102
RTVSPropertyOp14
 70
     1
102
RTVSPropertyOp15
 70
     1
102
RTVSPropertyOp16
 70
     1
102
RTVSPropertyOp17
 70
     1
102
RTVSPropertyOp18
 70
     1
102
RTVSPropertyOp19
 70
     1
102
RTVSPropertyOp20
 70
     1
102
RTVSPropertyOp21
 70
     1
102
RTVSPropertyOp22
 70
     1
102
RTVSPropertyOp23
 70
     1
102
RTVSPropertyOp24
 70
     1
102
RTVSPropertyOp25
 70
     1
102
RTVSPropertyOp26
 70
     1
102
RTVSPropertyOp27
 70
     1
102
RTVSPropertyOp28
 70
     1
102
RTVSPropertyOp29
 70
     1
102
RTVSPropertyOp30
 70
     1
102
RTVSPropertyOp31
 70
     1
102
RTVSPropertyOp32
 70
     1
102
RTVSPropertyOp33
 70
     1
102
RTVSPropertyOp34
 70
     1
102
RTVSPropertyOp35
 70
     1
102
RTVSPropertyOp36
 70
     1
102
RTVSPropertyOp37
 70
     1
102
RTVSPropertyOp38
 70
     1
102
RTVSPropertyOp39
 70
     1
102
RTVSPropertyOp40
 70
     1
102
RTVSPropertyOp41
 70
     1
102
RTVSPropertyOp42
 70
     1
102
RTVSPropertyOp43
 70
     1
102
RTVSPropertyOp44
 70
     1
102
RTVSPropertyOp45
 70
     1
102
RTVSPropertyOp46
 70
     1
102
RTVSPropertyOp47
 70
     1
102
RTVSPropertyOp48
 70
     1
102
RTVSPropertyOp49
 70
     1
102
RTVSPropertyOp50
 70
     1
102
RTVSPropertyOp51
 70
     0
102
RTVSPropertyOp52
 70
     0
102
RTVSPropertyOp53
 70
     1
102
RTVSPropertyOp54
 70
     1
102
RTVSPropertyOp55
 70
     1
102
RTVSPropertyOp56
 70
     1
102
RTVSPropertyOp57
 70
     1
102
RTVSPropertyOp58
 70
     1
102
RTVSPropertyOp59
 70
     1
102
RTVSPropertyOp60
 70
     1
102
RTVSPropertyOp61
 70
     1
102
RTVSPropertyOp62
 70
     1
  0
XRECORD
  5
728
102
{ACAD_REACTORS
330
727
102
}
330
727
100
AcDbXrecord
280
     1
102
RTVSPost2010Prop28
280
     0
102
RTVSPost2010PropOp28
 70
     1
102
RTVSPost2010Prop29
280
     1
102
RTVSPost2010PropOp29
 70
     1
102
RTVSPost2010Prop30
280
     1
102
RTVSPost2010PropOp30
 70
     1
102
RTVSPost2010Prop31
280
     0
102
RTVSPost2010PropOp31
 70
     1
102
RTVSPost2010Prop32
280
     0
102
RTVSPost2010PropOp32
 70
     1
102
RTVSPost2010Prop33
280
     0
102
RTVSPost2010PropOp33
 70
     1
102
RTVSPost2010Prop34
280
     0
102
RTVSPost2010PropOp34
 70
     1
102
RTVSPost2010Prop35
280
     0
102
RTVSPost2010PropOp35
 70
     1
102
RTVSPost2010Prop36
280
     0
102
RTVSPost2010PropOp36
 70
     1
102
RTVSPost2010Prop37
 90
       50
102
RTVSPost2010PropOp37
 70
     1
102
RTVSPost2010Prop38
140
0.0
102
RTVSPost2010PropOp38
 70
     1
102
RTVSPost2010Prop39
140
1.0
102
RTVSPost2010PropOp39
 70
     1
102
RTVSPost2010Prop40
 90
        0
102
RTVSPost2010PropOp40
 70
     1
102
RTVSPost2010Prop41ColorIndex
 90
       18
102
RTVSPost2010Prop41ColorRGB
 90
        0
102
RTVSPost2010PropOp41
 70
     1
102
RTVSPost2010Prop42
 90
       50
102
RTVSPost2010PropOp42
 70
     1
102
RTVSPost2010Prop43
 90
        3
102
RTVSPost2010PropOp43
 70
     1
102
RTVSPost2010Prop44ColorIndex
 90
        5
102
RTVSPost2010Prop44ColorRGB
 90
      255
102
RTVSPost2010PropOp44
 70
     1
102
RTVSPost2010Prop45
280
     0
102
RTVSPost2010PropOp45
 70
     1
102
RTVSPost2010Prop46
 90
       50
102
RTVSPost2010PropOp46
 70
     1
102
RTVSPost2010Prop47
 90
       50
102
RTVSPost2010PropOp47
 70
     1
102
RTVSPost2010Prop48
 90
       50
102
RTVSPost2010PropOp48
 70
     1
102
RTVSPost2010Prop49
280
     0
102
RTVSPost2010PropOp49
 70
     1
102
RTVSPost2010Prop50
 90
       50
102
RTVSPost2010PropOp50
 70
     1
102
RTVSPost2010Prop51ColorIndex
 90
      256
102
RTVSPost2010Prop51ColorRGB
 90
-16777216
102
RTVSPost2010PropOp51
 70
     0
102
RTVSPost2010Prop52
140
1.0
102
RTVSPost2010PropOp52
 70
     0
102
RTVSPost2010Prop53
 90
        2
102
RTVSPost2010PropOp53
 70
     1
102
RTVSPost2010Prop54
  1
strokes_ogs.tif
102
RTVSPost2010PropOp54
 70
     1
102
RTVSPost2010Prop55
280
     0
102
RTVSPost2010PropOp55
 70
     1
102
RTVSPost2010Prop56
140
1.0
102
RTVSPost2010PropOp56
 70
     1
102
RTVSPost2010Prop57
140
1.0
102
RTVSPost2010PropOp57
 70
     1
102
RTVSPropertyOp0
 70
     1
102
RTVSPropertyOp1
 70
     1
102
RTVSPropertyOp2
 70
     1
102
RTVSPropertyOp3
 70
     1
102
RTVSPropertyOp4
 70
     1
102
RTVSPropertyOp5
 70
     1
102
RTVSPropertyOp6
 70
     1
102
RTVSPropertyOp7
 70
     1
102
RTVSPropertyOp8
 70
     1
102
RTVSPropertyOp9
 70
     1
102
RTVSPropertyOp10
 70
     1
102
RTVSPropertyOp11
 70
     1
102
RTVSPropertyOp12
 70
     1
102
RTVSPropertyOp13
 70
     1
102
RTVSPropertyOp14
 70
     1
102
RTVSPropertyOp15
 70
     1
102
RTVSPropertyOp16
 70
     1
102
RTVSPropertyOp17
 70
     1
102
RTVSPropertyOp18
 70
     1
102
RTVSPropertyOp19
 70
     1
102
RTVSPropertyOp20
 70
     1
102
RTVSPropertyOp21
 70
     1
102
RTVSPropertyOp22
 70
     1
102
RTVSPropertyOp23
 70
     1
102
RTVSPropertyOp24
 70
     1
102
RTVSPropertyOp25
 70
     1
102
RTVSPropertyOp26
 70
     1
102
RTVSPropertyOp27
 70
     1
102
RTVSPropertyOp28
 70
     1
102
RTVSPropertyOp29
 70
     1
102
RTVSPropertyOp30
 70
     1
102
RTVSPropertyOp31
 70
     1
102
RTVSPropertyOp32
 70
     1
102
RTVSPropertyOp33
 70
     1
102
RTVSPropertyOp34
 70
     1
102
RTVSPropertyOp35
 70
     1
102
RTVSPropertyOp36
 70
     1
102
RTVSPropertyOp37
 70
     1
102
RTVSPropertyOp38
 70
     1
102
RTVSPropertyOp39
 70
     1
102
RTVSPropertyOp40
 70
     1
102
RTVSPropertyOp41
 70
     1
102
RTVSPropertyOp42
 70
     1
102
RTVSPropertyOp43
 70
     1
102
RTVSPropertyOp44
 70
     1
102
RTVSPropertyOp45
 70
     1
102
RTVSPropertyOp46
 70
     1
102
RTVSPropertyOp47
 70
     1
102
RTVSPropertyOp48
 70
     1
102
RTVSPropertyOp49
 70
     1
102
RTVSPropertyOp50
 70
     1
102
RTVSPropertyOp51
 70
     0
102
RTVSPropertyOp52
 70
     0
102
RTVSPropertyOp53
 70
     1
102
RTVSPropertyOp54
 70
     1
102
RTVSPropertyOp55
 70
     1
102
RTVSPropertyOp56
 70
     1
102
RTVSPropertyOp57
 70
     1
102
RTVSPropertyOp58
 70
     1
102
RTVSPropertyOp59
 70
     1
102
RTVSPropertyOp60
 70
     1
102
RTVSPropertyOp61
 70
     1
102
RTVSPropertyOp62
 70
     1
  0
XRECORD
  5
730
102
{ACAD_REACTORS
330
72F
102
}
330
72F
100
AcDbXrecord
280
     1
102
RTVSPost2010Prop28
280
     0
102
RTVSPost2010PropOp28
 70
     1
102
RTVSPost2010Prop29
280
     1
102
RTVSPost2010PropOp29
 70
     1
102
RTVSPost2010Prop30
280
     1
102
RTVSPost2010PropOp30
 70
     1
102
RTVSPost2010Prop31
280
     0
102
RTVSPost2010PropOp31
 70
     1
102
RTVSPost2010Prop32
280
     0
102
RTVSPost2010PropOp32
 70
     1
102
RTVSPost2010Prop33
280
     0
102
RTVSPost2010PropOp33
 70
     1
102
RTVSPost2010Prop34
280
     0
102
RTVSPost2010PropOp34
 70
     1
102
RTVSPost2010Prop35
280
     0
102
RTVSPost2010PropOp35
 70
     1
102
RTVSPost2010Prop36
280
     0
102
RTVSPost2010PropOp36
 70
     1
102
RTVSPost2010Prop37
 90
       50
102
RTVSPost2010PropOp37
 70
     1
102
RTVSPost2010Prop38
140
0.0
102
RTVSPost2010PropOp38
 70
     1
102
RTVSPost2010Prop39
140
1.0
102
RTVSPost2010PropOp39
 70
     1
102
RTVSPost2010Prop40
 90
        0
102
RTVSPost2010PropOp40
 70
     1
102
RTVSPost2010Prop41ColorIndex
 90
       18
102
RTVSPost2010Prop41ColorRGB
 90
        0
102
RTVSPost2010PropOp41
 70
     1
102
RTVSPost2010Prop42
 90
       50
102
RTVSPost2010PropOp42
 70
     1
102
RTVSPost2010Prop43
 90
        3
102
RTVSPost2010PropOp43
 70
     1
102
RTVSPost2010Prop44ColorIndex
 90
        5
102
RTVSPost2010Prop44ColorRGB
 90
      255
102
RTVSPost2010PropOp44
 70
     1
102
RTVSPost2010Prop45
280
     0
102
RTVSPost2010PropOp45
 70
     1
102
RTVSPost2010Prop46
 90
       50
102
RTVSPost2010PropOp46
 70
     1
102
RTVSPost2010Prop47
 90
       50
102
RTVSPost2010PropOp47
 70
     1
102
RTVSPost2010Prop48
 90
       50
102
RTVSPost2010PropOp48
 70
     1
102
RTVSPost2010Prop49
280
     0
102
RTVSPost2010PropOp49
 70
     1
102
RTVSPost2010Prop50
 90
       50
102
RTVSPost2010PropOp50
 70
     1
102
RTVSPost2010Prop51ColorIndex
 90
      256
102
RTVSPost2010Prop51ColorRGB
 90
-16777216
102
RTVSPost2010PropOp51
 70
     0
102
RTVSPost2010Prop52
140
1.0
102
RTVSPost2010PropOp52
 70
     0
102
RTVSPost2010Prop53
 90
        2
102
RTVSPost2010PropOp53
 70
     1
102
RTVSPost2010Prop54
  1
strokes_ogs.tif
102
RTVSPost2010PropOp54
 70
     1
102
RTVSPost2010Prop55
280
     0
102
RTVSPost2010PropOp55
 70
     1
102
RTVSPost2010Prop56
140
1.0
102
RTVSPost2010PropOp56
 70
     1
102
RTVSPost2010Prop57
140
1.0
102
RTVSPost2010PropOp57
 70
     1
102
RTVSPropertyOp0
 70
     1
102
RTVSPropertyOp1
 70
     1
102
RTVSPropertyOp2
 70
     1
102
RTVSPropertyOp3
 70
     1
102
RTVSPropertyOp4
 70
     1
102
RTVSPropertyOp5
 70
     1
102
RTVSPropertyOp6
 70
     1
102
RTVSPropertyOp7
 70
     1
102
RTVSPropertyOp8
 70
     1
102
RTVSPropertyOp9
 70
     1
102
RTVSPropertyOp10
 70
     1
102
RTVSPropertyOp11
 70
     1
102
RTVSPropertyOp12
 70
     1
102
RTVSPropertyOp13
 70
     1
102
RTVSPropertyOp14
 70
     1
102
RTVSPropertyOp15
 70
     1
102
RTVSPropertyOp16
 70
     1
102
RTVSPropertyOp17
 70
     1
102
RTVSPropertyOp18
 70
     1
102
RTVSPropertyOp19
 70
     1
102
RTVSPropertyOp20
 70
     1
102
RTVSPropertyOp21
 70
     1
102
RTVSPropertyOp22
 70
     1
102
RTVSPropertyOp23
 70
     1
102
RTVSPropertyOp24
 70
     1
102
RTVSPropertyOp25
 70
     1
102
RTVSPropertyOp26
 70
     1
102
RTVSPropertyOp27
 70
     1
102
RTVSPropertyOp28
 70
     1
102
RTVSPropertyOp29
 70
     1
102
RTVSPropertyOp30
 70
     1
102
RTVSPropertyOp31
 70
     1
102
RTVSPropertyOp32
 70
     1
102
RTVSPropertyOp33
 70
     1
102
RTVSPropertyOp34
 70
     1
102
RTVSPropertyOp35
 70
     1
102
RTVSPropertyOp36
 70
     1
102
RTVSPropertyOp37
 70
     1
102
RTVSPropertyOp38
 70
     1
102
RTVSPropertyOp39
 70
     1
102
RTVSPropertyOp40
 70
     1
102
RTVSPropertyOp41
 70
     1
102
RTVSPropertyOp42
 70
     1
102
RTVSPropertyOp43
 70
     1
102
RTVSPropertyOp44
 70
     1
102
RTVSPropertyOp45
 70
     1
102
RTVSPropertyOp46
 70
     1
102
RTVSPropertyOp47
 70
     1
102
RTVSPropertyOp48
 70
     1
102
RTVSPropertyOp49
 70
     1
102
RTVSPropertyOp50
 70
     1
102
RTVSPropertyOp51
 70
     0
102
RTVSPropertyOp52
 70
     0
102
RTVSPropertyOp53
 70
     1
102
RTVSPropertyOp54
 70
     1
102
RTVSPropertyOp55
 70
     1
102
RTVSPropertyOp56
 70
     1
102
RTVSPropertyOp57
 70
     1
102
RTVSPropertyOp58
 70
     1
102
RTVSPropertyOp59
 70
     1
102
RTVSPropertyOp60
 70
     1
102
RTVSPropertyOp61
 70
     1
102
RTVSPropertyOp62
 70
     1
  0
XRECORD
  5
74C
102
{ACAD_REACTORS
330
74B
102
}
330
74B
100
AcDbXrecord
280
     1
102
RTVSPost2010Prop28
280
     0
102
RTVSPost2010PropOp28
 70
     1
102
RTVSPost2010Prop29
280
     1
102
RTVSPost2010PropOp29
 70
     1
102
RTVSPost2010Prop30
280
     1
102
RTVSPost2010PropOp30
 70
     1
102
RTVSPost2010Prop31
280
     0
102
RTVSPost2010PropOp31
 70
     1
102
RTVSPost2010Prop32
280
     0
102
RTVSPost2010PropOp32
 70
     1
102
RTVSPost2010Prop33
280
     0
102
RTVSPost2010PropOp33
 70
     1
102
RTVSPost2010Prop34
280
     0
102
RTVSPost2010PropOp34
 70
     1
102
RTVSPost2010Prop35
280
     0
102
RTVSPost2010PropOp35
 70
     1
102
RTVSPost2010Prop36
280
     0
102
RTVSPost2010PropOp36
 70
     1
102
RTVSPost2010Prop37
 90
       50
102
RTVSPost2010PropOp37
 70
     0
102
RTVSPost2010Prop38
140
0.0
102
RTVSPost2010PropOp38
 70
     0
102
RTVSPost2010Prop39
140
1.0
102
RTVSPost2010PropOp39
 70
     0
102
RTVSPost2010Prop40
 90
        0
102
RTVSPost2010PropOp40
 70
     0
102
RTVSPost2010Prop41ColorIndex
 90
       18
102
RTVSPost2010Prop41ColorRGB
 90
        0
102
RTVSPost2010PropOp41
 70
     0
102
RTVSPost2010Prop42
 90
       50
102
RTVSPost2010PropOp42
 70
     0
102
RTVSPost2010Prop43
 90
        3
102
RTVSPost2010PropOp43
 70
     0
102
RTVSPost2010Prop44ColorIndex
 90
        5
102
RTVSPost2010Prop44ColorRGB
 90
      255
102
RTVSPost2010PropOp44
 70
     0
102
RTVSPost2010Prop45
280
     0
102
RTVSPost2010PropOp45
 70
     1
102
RTVSPost2010Prop46
 90
       50
102
RTVSPost2010PropOp46
 70
     0
102
RTVSPost2010Prop47
 90
       50
102
RTVSPost2010PropOp47
 70
     0
102
RTVSPost2010Prop48
 90
       50
102
RTVSPost2010PropOp48
 70
     0
102
RTVSPost2010Prop49
280
     0
102
RTVSPost2010PropOp49
 70
     1
102
RTVSPost2010Prop50
 90
       50
102
RTVSPost2010PropOp50
 70
     0
102
RTVSPost2010Prop51ColorIndex
 90
      256
102
RTVSPost2010Prop51ColorRGB
 90
-16777216
102
RTVSPost2010PropOp51
 70
     0
102
RTVSPost2010Prop52
140
1.0
102
RTVSPost2010PropOp52
 70
     0
102
RTVSPost2010Prop53
 90
        2
102
RTVSPost2010PropOp53
 70
     0
102
RTVSPost2010Prop54
  1
strokes_ogs.tif
102
RTVSPost2010PropOp54
 70
     0
102
RTVSPost2010Prop55
280
     0
102
RTVSPost2010PropOp55
 70
     1
102
RTVSPost2010Prop56
140
1.0
102
RTVSPost2010PropOp56
 70
     0
102
RTVSPost2010Prop57
140
1.0
102
RTVSPost2010PropOp57
 70
     0
102
RTVSPropertyOp0
 70
     0
102
RTVSPropertyOp1
 70
     0
102
RTVSPropertyOp2
 70
     0
102
RTVSPropertyOp3
 70
     0
102
RTVSPropertyOp4
 70
     0
102
RTVSPropertyOp5
 70
     0
102
RTVSPropertyOp6
 70
     0
102
RTVSPropertyOp7
 70
     0
102
RTVSPropertyOp8
 70
     0
102
RTVSPropertyOp9
 70
     0
102
RTVSPropertyOp10
 70
     0
102
RTVSPropertyOp11
 70
     0
102
RTVSPropertyOp12
 70
     0
102
RTVSPropertyOp13
 70
     0
102
RTVSPropertyOp14
 70
     2
102
RTVSPropertyOp15
 70
     0
102
RTVSPropertyOp16
 70
     0
102
RTVSPropertyOp17
 70
     0
102
RTVSPropertyOp18
 70
     0
102
RTVSPropertyOp19
 70
     0
102
RTVSPropertyOp20
 70
     0
102
RTVSPropertyOp21
 70
     0
102
RTVSPropertyOp22
 70
     0
102
RTVSPropertyOp23
 70
     0
102
RTVSPropertyOp24
 70
     0
102
RTVSPropertyOp25
 70
     0
102
RTVSPropertyOp26
 70
     0
102
RTVSPropertyOp27
 70
     0
102
RTVSPropertyOp28
 70
     1
102
RTVSPropertyOp29
 70
     1
102
RTVSPropertyOp30
 70
     1
102
RTVSPropertyOp31
 70
     1
102
RTVSPropertyOp32
 70
     1
102
RTVSPropertyOp33
 70
     1
102
RTVSPropertyOp34
 70
     1
102
RTVSPropertyOp35
 70
     1
102
RTVSPropertyOp36
 70
     1
102
RTVSPropertyOp37
 70
     0
102
RTVSPropertyOp38
 70
     0
102
RTVSPropertyOp39
 70
     0
102
RTVSPropertyOp40
 70
     0
102
RTVSPropertyOp41
 70
     0
102
RTVSPropertyOp42
 70
     0
102
RTVSPropertyOp43
 70
     0
102
RTVSPropertyOp44
 70
     0
102
RTVSPropertyOp45
 70
     1
102
RTVSPropertyOp46
 70
     0
102
RTVSPropertyOp47
 70
     0
102
RTVSPropertyOp48
 70
     0
102
RTVSPropertyOp49
 70
     1
102
RTVSPropertyOp50
 70
     0
102
RTVSPropertyOp51
 70
     0
102
RTVSPropertyOp52
 70
     0
102
RTVSPropertyOp53
 70
     0
102
RTVSPropertyOp54
 70
     0
102
RTVSPropertyOp55
 70
     1
102
RTVSPropertyOp56
 70
     0
102
RTVSPropertyOp57
 70
     0
102
RTVSPropertyOp58
 70
     0
102
RTVSPropertyOp59
 70
     0
102
RTVSPropertyOp60
 70
     0
102
RTVSPropertyOp61
 70
     0
102
RTVSPropertyOp62
 70
     0
  0
XRECORD
  5
73C
102
{ACAD_REACTORS
330
73B
102
}
330
73B
100
AcDbXrecord
280
     1
102
RTVSPost2010Prop28
280
     0
102
RTVSPost2010PropOp28
 70
     1
102
RTVSPost2010Prop29
280
     1
102
RTVSPost2010PropOp29
 70
     1
102
RTVSPost2010Prop30
280
     1
102
RTVSPost2010PropOp30
 70
     1
102
RTVSPost2010Prop31
280
     0
102
RTVSPost2010PropOp31
 70
     1
102
RTVSPost2010Prop32
280
     0
102
RTVSPost2010PropOp32
 70
     1
102
RTVSPost2010Prop33
280
     0
102
RTVSPost2010PropOp33
 70
     1
102
RTVSPost2010Prop34
280
     0
102
RTVSPost2010PropOp34
 70
     1
102
RTVSPost2010Prop35
280
     0
102
RTVSPost2010PropOp35
 70
     1
102
RTVSPost2010Prop36
280
     0
102
RTVSPost2010PropOp36
 70
     1
102
RTVSPost2010Prop37
 90
       50
102
RTVSPost2010PropOp37
 70
     1
102
RTVSPost2010Prop38
140
0.0
102
RTVSPost2010PropOp38
 70
     1
102
RTVSPost2010Prop39
140
1.0
102
RTVSPost2010PropOp39
 70
     1
102
RTVSPost2010Prop40
 90
        0
102
RTVSPost2010PropOp40
 70
     1
102
RTVSPost2010Prop41ColorIndex
 90
       18
102
RTVSPost2010Prop41ColorRGB
 90
        0
102
RTVSPost2010PropOp41
 70
     1
102
RTVSPost2010Prop42
 90
       50
102
RTVSPost2010PropOp42
 70
     1
102
RTVSPost2010Prop43
 90
        3
102
RTVSPost2010PropOp43
 70
     1
102
RTVSPost2010Prop44ColorIndex
 90
        5
102
RTVSPost2010Prop44ColorRGB
 90
      255
102
RTVSPost2010PropOp44
 70
     1
102
RTVSPost2010Prop45
280
     0
102
RTVSPost2010PropOp45
 70
     1
102
RTVSPost2010Prop46
 90
       50
102
RTVSPost2010PropOp46
 70
     1
102
RTVSPost2010Prop47
 90
       50
102
RTVSPost2010PropOp47
 70
     1
102
RTVSPost2010Prop48
 90
       50
102
RTVSPost2010PropOp48
 70
     1
102
RTVSPost2010Prop49
280
     0
102
RTVSPost2010PropOp49
 70
     1
102
RTVSPost2010Prop50
 90
       50
102
RTVSPost2010PropOp50
 70
     1
102
RTVSPost2010Prop51ColorIndex
 90
      256
102
RTVSPost2010Prop51ColorRGB
 90
-16777216
102
RTVSPost2010PropOp51
 70
     0
102
RTVSPost2010Prop52
140
1.0
102
RTVSPost2010PropOp52
 70
     0
102
RTVSPost2010Prop53
 90
        2
102
RTVSPost2010PropOp53
 70
     1
102
RTVSPost2010Prop54
  1
strokes_ogs.tif
102
RTVSPost2010PropOp54
 70
     1
102
RTVSPost2010Prop55
280
     0
102
RTVSPost2010PropOp55
 70
     1
102
RTVSPost2010Prop56
140
1.0
102
RTVSPost2010PropOp56
 70
     1
102
RTVSPost2010Prop57
140
1.0
102
RTVSPost2010PropOp57
 70
     1
102
RTVSPropertyOp0
 70
     1
102
RTVSPropertyOp1
 70
     1
102
RTVSPropertyOp2
 70
     1
102
RTVSPropertyOp3
 70
     1
102
RTVSPropertyOp4
 70
     1
102
RTVSPropertyOp5
 70
     1
102
RTVSPropertyOp6
 70
     1
102
RTVSPropertyOp7
 70
     1
102
RTVSPropertyOp8
 70
     1
102
RTVSPropertyOp9
 70
     1
102
RTVSPropertyOp10
 70
     1
102
RTVSPropertyOp11
 70
     1
102
RTVSPropertyOp12
 70
     1
102
RTVSPropertyOp13
 70
     1
102
RTVSPropertyOp14
 70
     1
102
RTVSPropertyOp15
 70
     1
102
RTVSPropertyOp16
 70
     1
102
RTVSPropertyOp17
 70
     1
102
RTVSPropertyOp18
 70
     1
102
RTVSPropertyOp19
 70
     1
102
RTVSPropertyOp20
 70
     1
102
RTVSPropertyOp21
 70
     1
102
RTVSPropertyOp22
 70
     1
102
RTVSPropertyOp23
 70
     1
102
RTVSPropertyOp24
 70
     1
102
RTVSPropertyOp25
 70
     1
102
RTVSPropertyOp26
 70
     1
102
RTVSPropertyOp27
 70
     1
102
RTVSPropertyOp28
 70
     1
102
RTVSPropertyOp29
 70
     1
102
RTVSPropertyOp30
 70
     1
102
RTVSPropertyOp31
 70
     1
102
RTVSPropertyOp32
 70
     1
102
RTVSPropertyOp33
 70
     1
102
RTVSPropertyOp34
 70
     1
102
RTVSPropertyOp35
 70
     1
102
RTVSPropertyOp36
 70
     1
102
RTVSPropertyOp37
 70
     1
102
RTVSPropertyOp38
 70
     1
102
RTVSPropertyOp39
 70
     1
102
RTVSPropertyOp40
 70
     1
102
RTVSPropertyOp41
 70
     1
102
RTVSPropertyOp42
 70
     1
102
RTVSPropertyOp43
 70
     1
102
RTVSPropertyOp44
 70
     1
102
RTVSPropertyOp45
 70
     1
102
RTVSPropertyOp46
 70
     1
102
RTVSPropertyOp47
 70
     1
102
RTVSPropertyOp48
 70
     1
102
RTVSPropertyOp49
 70
     1
102
RTVSPropertyOp50
 70
     1
102
RTVSPropertyOp51
 70
     0
102
RTVSPropertyOp52
 70
     0
102
RTVSPropertyOp53
 70
     1
102
RTVSPropertyOp54
 70
     1
102
RTVSPropertyOp55
 70
     1
102
RTVSPropertyOp56
 70
     1
102
RTVSPropertyOp57
 70
     1
102
RTVSPropertyOp58
 70
     1
102
RTVSPropertyOp59
 70
     1
102
RTVSPropertyOp60
 70
     1
102
RTVSPropertyOp61
 70
     1
102
RTVSPropertyOp62
 70
     1
  0
XRECORD
  5
74E
102
{ACAD_REACTORS
330
74D
102
}
330
74D
100
AcDbXrecord
280
     1
102
RTVSPost2010Prop28
280
     0
102
RTVSPost2010PropOp28
 70
     1
102
RTVSPost2010Prop29
280
     1
102
RTVSPost2010PropOp29
 70
     1
102
RTVSPost2010Prop30
280
     1
102
RTVSPost2010PropOp30
 70
     1
102
RTVSPost2010Prop31
280
     0
102
RTVSPost2010PropOp31
 70
     1
102
RTVSPost2010Prop32
280
     0
102
RTVSPost2010PropOp32
 70
     1
102
RTVSPost2010Prop33
280
     0
102
RTVSPost2010PropOp33
 70
     1
102
RTVSPost2010Prop34
280
     0
102
RTVSPost2010PropOp34
 70
     1
102
RTVSPost2010Prop35
280
     0
102
RTVSPost2010PropOp35
 70
     1
102
RTVSPost2010Prop36
280
     0
102
RTVSPost2010PropOp36
 70
     1
102
RTVSPost2010Prop37
 90
       50
102
RTVSPost2010PropOp37
 70
     0
102
RTVSPost2010Prop38
140
0.0
102
RTVSPost2010PropOp38
 70
     0
102
RTVSPost2010Prop39
140
1.0
102
RTVSPost2010PropOp39
 70
     0
102
RTVSPost2010Prop40
 90
        0
102
RTVSPost2010PropOp40
 70
     0
102
RTVSPost2010Prop41ColorIndex
 90
       18
102
RTVSPost2010Prop41ColorRGB
 90
        0
102
RTVSPost2010PropOp41
 70
     0
102
RTVSPost2010Prop42
 90
       50
102
RTVSPost2010PropOp42
 70
     0
102
RTVSPost2010Prop43
 90
        3
102
RTVSPost2010PropOp43
 70
     0
102
RTVSPost2010Prop44ColorIndex
 90
        5
102
RTVSPost2010Prop44ColorRGB
 90
      255
102
RTVSPost2010PropOp44
 70
     0
102
RTVSPost2010Prop45
280
     0
102
RTVSPost2010PropOp45
 70
     1
102
RTVSPost2010Prop46
 90
       50
102
RTVSPost2010PropOp46
 70
     0
102
RTVSPost2010Prop47
 90
       50
102
RTVSPost2010PropOp47
 70
     0
102
RTVSPost2010Prop48
 90
       50
102
RTVSPost2010PropOp48
 70
     0
102
RTVSPost2010Prop49
280
     0
102
RTVSPost2010PropOp49
 70
     1
102
RTVSPost2010Prop50
 90
       50
102
RTVSPost2010PropOp50
 70
     0
102
RTVSPost2010Prop51ColorIndex
 90
      256
102
RTVSPost2010Prop51ColorRGB
 90
-16777216
102
RTVSPost2010PropOp51
 70
     0
102
RTVSPost2010Prop52
140
1.0
102
RTVSPost2010PropOp52
 70
     0
102
RTVSPost2010Prop53
 90
        2
102
RTVSPost2010PropOp53
 70
     0
102
RTVSPost2010Prop54
  1
strokes_ogs.tif
102
RTVSPost2010PropOp54
 70
     0
102
RTVSPost2010Prop55
280
     0
102
RTVSPost2010PropOp55
 70
     1
102
RTVSPost2010Prop56
140
1.0
102
RTVSPost2010PropOp56
 70
     0
102
RTVSPost2010Prop57
140
1.0
102
RTVSPost2010PropOp57
 70
     0
102
RTVSPropertyOp0
 70
     0
102
RTVSPropertyOp1
 70
     0
102
RTVSPropertyOp2
 70
     0
102
RTVSPropertyOp3
 70
     0
102
RTVSPropertyOp4
 70
     0
102
RTVSPropertyOp5
 70
     0
102
RTVSPropertyOp6
 70
     0
102
RTVSPropertyOp7
 70
     0
102
RTVSPropertyOp8
 70
     0
102
RTVSPropertyOp9
 70
     0
102
RTVSPropertyOp10
 70
     0
102
RTVSPropertyOp11
 70
     0
102
RTVSPropertyOp12
 70
     0
102
RTVSPropertyOp13
 70
     0
102
RTVSPropertyOp14
 70
     2
102
RTVSPropertyOp15
 70
     0
102
RTVSPropertyOp16
 70
     0
102
RTVSPropertyOp17
 70
     0
102
RTVSPropertyOp18
 70
     0
102
RTVSPropertyOp19
 70
     0
102
RTVSPropertyOp20
 70
     0
102
RTVSPropertyOp21
 70
     0
102
RTVSPropertyOp22
 70
     0
102
RTVSPropertyOp23
 70
     0
102
RTVSPropertyOp24
 70
     0
102
RTVSPropertyOp25
 70
     0
102
RTVSPropertyOp26
 70
     0
102
RTVSPropertyOp27
 70
     0
102
RTVSPropertyOp28
 70
     1
102
RTVSPropertyOp29
 70
     1
102
RTVSPropertyOp30
 70
     1
102
RTVSPropertyOp31
 70
     1
102
RTVSPropertyOp32
 70
     1
102
RTVSPropertyOp33
 70
     1
102
RTVSPropertyOp34
 70
     1
102
RTVSPropertyOp35
 70
     1
102
RTVSPropertyOp36
 70
     1
102
RTVSPropertyOp37
 70
     0
102
RTVSPropertyOp38
 70
     0
102
RTVSPropertyOp39
 70
     0
102
RTVSPropertyOp40
 70
     0
102
RTVSPropertyOp41
 70
     0
102
RTVSPropertyOp42
 70
     0
102
RTVSPropertyOp43
 70
     0
102
RTVSPropertyOp44
 70
     0
102
RTVSPropertyOp45
 70
     1
102
RTVSPropertyOp46
 70
     0
102
RTVSPropertyOp47
 70
     0
102
RTVSPropertyOp48
 70
     0
102
RTVSPropertyOp49
 70
     1
102
RTVSPropertyOp50
 70
     0
102
RTVSPropertyOp51
 70
     0
102
RTVSPropertyOp52
 70
     0
102
RTVSPropertyOp53
 70
     0
102
RTVSPropertyOp54
 70
     0
102
RTVSPropertyOp55
 70
     1
102
RTVSPropertyOp56
 70
     0
102
RTVSPropertyOp57
 70
     0
102
RTVSPropertyOp58
 70
     0
102
RTVSPropertyOp59
 70
     0
102
RTVSPropertyOp60
 70
     0
102
RTVSPropertyOp61
 70
     0
102
RTVSPropertyOp62
 70
     0
  0
XRECORD
  5
734
102
{ACAD_REACTORS
330
733
102
}
330
733
100
AcDbXrecord
280
     1
102
RTVSPost2010Prop28
280
     0
102
RTVSPost2010PropOp28
 70
     1
102
RTVSPost2010Prop29
280
     1
102
RTVSPost2010PropOp29
 70
     1
102
RTVSPost2010Prop30
280
     1
102
RTVSPost2010PropOp30
 70
     1
102
RTVSPost2010Prop31
280
     0
102
RTVSPost2010PropOp31
 70
     1
102
RTVSPost2010Prop32
280
     0
102
RTVSPost2010PropOp32
 70
     1
102
RTVSPost2010Prop33
280
     0
102
RTVSPost2010PropOp33
 70
     1
102
RTVSPost2010Prop34
280
     0
102
RTVSPost2010PropOp34
 70
     1
102
RTVSPost2010Prop35
280
     0
102
RTVSPost2010PropOp35
 70
     1
102
RTVSPost2010Prop36
280
     0
102
RTVSPost2010PropOp36
 70
     1
102
RTVSPost2010Prop37
 90
       50
102
RTVSPost2010PropOp37
 70
     1
102
RTVSPost2010Prop38
140
0.0
102
RTVSPost2010PropOp38
 70
     1
102
RTVSPost2010Prop39
140
1.0
102
RTVSPost2010PropOp39
 70
     1
102
RTVSPost2010Prop40
 90
        0
102
RTVSPost2010PropOp40
 70
     1
102
RTVSPost2010Prop41ColorIndex
 90
       18
102
RTVSPost2010Prop41ColorRGB
 90
        0
102
RTVSPost2010PropOp41
 70
     1
102
RTVSPost2010Prop42
 90
       50
102
RTVSPost2010PropOp42
 70
     1
102
RTVSPost2010Prop43
 90
        3
102
RTVSPost2010PropOp43
 70
     1
102
RTVSPost2010Prop44ColorIndex
 90
        5
102
RTVSPost2010Prop44ColorRGB
 90
      255
102
RTVSPost2010PropOp44
 70
     1
102
RTVSPost2010Prop45
280
     0
102
RTVSPost2010PropOp45
 70
     1
102
RTVSPost2010Prop46
 90
       50
102
RTVSPost2010PropOp46
 70
     1
102
RTVSPost2010Prop47
 90
       50
102
RTVSPost2010PropOp47
 70
     1
102
RTVSPost2010Prop48
 90
       50
102
RTVSPost2010PropOp48
 70
     1
102
RTVSPost2010Prop49
280
     0
102
RTVSPost2010PropOp49
 70
     1
102
RTVSPost2010Prop50
 90
       50
102
RTVSPost2010PropOp50
 70
     1
102
RTVSPost2010Prop51ColorIndex
 90
      256
102
RTVSPost2010Prop51ColorRGB
 90
-16777216
102
RTVSPost2010PropOp51
 70
     0
102
RTVSPost2010Prop52
140
1.0
102
RTVSPost2010PropOp52
 70
     0
102
RTVSPost2010Prop53
 90
        2
102
RTVSPost2010PropOp53
 70
     1
102
RTVSPost2010Prop54
  1
strokes_ogs.tif
102
RTVSPost2010PropOp54
 70
     1
102
RTVSPost2010Prop55
280
     0
102
RTVSPost2010PropOp55
 70
     1
102
RTVSPost2010Prop56
140
1.0
102
RTVSPost2010PropOp56
 70
     1
102
RTVSPost2010Prop57
140
1.0
102
RTVSPost2010PropOp57
 70
     1
102
RTVSPropertyOp0
 70
     1
102
RTVSPropertyOp1
 70
     1
102
RTVSPropertyOp2
 70
     1
102
RTVSPropertyOp3
 70
     1
102
RTVSPropertyOp4
 70
     1
102
RTVSPropertyOp5
 70
     1
102
RTVSPropertyOp6
 70
     1
102
RTVSPropertyOp7
 70
     1
102
RTVSPropertyOp8
 70
     1
102
RTVSPropertyOp9
 70
     1
102
RTVSPropertyOp10
 70
     1
102
RTVSPropertyOp11
 70
     1
102
RTVSPropertyOp12
 70
     1
102
RTVSPropertyOp13
 70
     1
102
RTVSPropertyOp14
 70
     1
102
RTVSPropertyOp15
 70
     1
102
RTVSPropertyOp16
 70
     1
102
RTVSPropertyOp17
 70
     1
102
RTVSPropertyOp18
 70
     1
102
RTVSPropertyOp19
 70
     1
102
RTVSPropertyOp20
 70
     1
102
RTVSPropertyOp21
 70
     1
102
RTVSPropertyOp22
 70
     1
102
RTVSPropertyOp23
 70
     1
102
RTVSPropertyOp24
 70
     1
102
RTVSPropertyOp25
 70
     1
102
RTVSPropertyOp26
 70
     1
102
RTVSPropertyOp27
 70
     1
102
RTVSPropertyOp28
 70
     1
102
RTVSPropertyOp29
 70
     1
102
RTVSPropertyOp30
 70
     1
102
RTVSPropertyOp31
 70
     1
102
RTVSPropertyOp32
 70
     1
102
RTVSPropertyOp33
 70
     1
102
RTVSPropertyOp34
 70
     1
102
RTVSPropertyOp35
 70
     1
102
RTVSPropertyOp36
 70
     1
102
RTVSPropertyOp37
 70
     1
102
RTVSPropertyOp38
 70
     1
102
RTVSPropertyOp39
 70
     1
102
RTVSPropertyOp40
 70
     1
102
RTVSPropertyOp41
 70
     1
102
RTVSPropertyOp42
 70
     1
102
RTVSPropertyOp43
 70
     1
102
RTVSPropertyOp44
 70
     1
102
RTVSPropertyOp45
 70
     1
102
RTVSPropertyOp46
 70
     1
102
RTVSPropertyOp47
 70
     1
102
RTVSPropertyOp48
 70
     1
102
RTVSPropertyOp49
 70
     1
102
RTVSPropertyOp50
 70
     1
102
RTVSPropertyOp51
 70
     0
102
RTVSPropertyOp52
 70
     0
102
RTVSPropertyOp53
 70
     1
102
RTVSPropertyOp54
 70
     1
102
RTVSPropertyOp55
 70
     1
102
RTVSPropertyOp56
 70
     1
102
RTVSPropertyOp57
 70
     1
102
RTVSPropertyOp58
 70
     1
102
RTVSPropertyOp59
 70
     1
102
RTVSPropertyOp60
 70
     1
102
RTVSPropertyOp61
 70
     1
102
RTVSPropertyOp62
 70
     1
  0
XRECORD
  5
74A
102
{ACAD_REACTORS
330
749
102
}
330
749
100
AcDbXrecord
280
     1
102
RTVSPost2010Prop28
280
     0
102
RTVSPost2010PropOp28
 70
     1
102
RTVSPost2010Prop29
280
     1
102
RTVSPost2010PropOp29
 70
     1
102
RTVSPost2010Prop30
280
     1
102
RTVSPost2010PropOp30
 70
     1
102
RTVSPost2010Prop31
280
     0
102
RTVSPost2010PropOp31
 70
     1
102
RTVSPost2010Prop32
280
     0
102
RTVSPost2010PropOp32
 70
     1
102
RTVSPost2010Prop33
280
     0
102
RTVSPost2010PropOp33
 70
     1
102
RTVSPost2010Prop34
280
     0
102
RTVSPost2010PropOp34
 70
     1
102
RTVSPost2010Prop35
280
     0
102
RTVSPost2010PropOp35
 70
     1
102
RTVSPost2010Prop36
280
     0
102
RTVSPost2010PropOp36
 70
     1
102
RTVSPost2010Prop37
 90
       50
102
RTVSPost2010PropOp37
 70
     1
102
RTVSPost2010Prop38
140
0.0
102
RTVSPost2010PropOp38
 70
     1
102
RTVSPost2010Prop39
140
1.0
102
RTVSPost2010PropOp39
 70
     1
102
RTVSPost2010Prop40
 90
        0
102
RTVSPost2010PropOp40
 70
     1
102
RTVSPost2010Prop41ColorIndex
 90
       18
102
RTVSPost2010Prop41ColorRGB
 90
        0
102
RTVSPost2010PropOp41
 70
     1
102
RTVSPost2010Prop42
 90
       50
102
RTVSPost2010PropOp42
 70
     1
102
RTVSPost2010Prop43
 90
        3
102
RTVSPost2010PropOp43
 70
     1
102
RTVSPost2010Prop44ColorIndex
 90
        5
102
RTVSPost2010Prop44ColorRGB
 90
      255
102
RTVSPost2010PropOp44
 70
     1
102
RTVSPost2010Prop45
280
     0
102
RTVSPost2010PropOp45
 70
     1
102
RTVSPost2010Prop46
 90
       50
102
RTVSPost2010PropOp46
 70
     1
102
RTVSPost2010Prop47
 90
       50
102
RTVSPost2010PropOp47
 70
     1
102
RTVSPost2010Prop48
 90
       50
102
RTVSPost2010PropOp48
 70
     1
102
RTVSPost2010Prop49
280
     0
102
RTVSPost2010PropOp49
 70
     1
102
RTVSPost2010Prop50
 90
       50
102
RTVSPost2010PropOp50
 70
     1
102
RTVSPost2010Prop51ColorIndex
 90
      256
102
RTVSPost2010Prop51ColorRGB
 90
-16777216
102
RTVSPost2010PropOp51
 70
     0
102
RTVSPost2010Prop52
140
1.0
102
RTVSPost2010PropOp52
 70
     0
102
RTVSPost2010Prop53
 90
        2
102
RTVSPost2010PropOp53
 70
     1
102
RTVSPost2010Prop54
  1
strokes_ogs.tif
102
RTVSPost2010PropOp54
 70
     1
102
RTVSPost2010Prop55
280
     0
102
RTVSPost2010PropOp55
 70
     1
102
RTVSPost2010Prop56
140
1.0
102
RTVSPost2010PropOp56
 70
     1
102
RTVSPost2010Prop57
140
1.0
102
RTVSPost2010PropOp57
 70
     1
102
RTVSPropertyOp0
 70
     1
102
RTVSPropertyOp1
 70
     1
102
RTVSPropertyOp2
 70
     1
102
RTVSPropertyOp3
 70
     1
102
RTVSPropertyOp4
 70
     1
102
RTVSPropertyOp5
 70
     1
102
RTVSPropertyOp6
 70
     1
102
RTVSPropertyOp7
 70
     1
102
RTVSPropertyOp8
 70
     1
102
RTVSPropertyOp9
 70
     1
102
RTVSPropertyOp10
 70
     1
102
RTVSPropertyOp11
 70
     1
102
RTVSPropertyOp12
 70
     1
102
RTVSPropertyOp13
 70
     1
102
RTVSPropertyOp14
 70
     1
102
RTVSPropertyOp15
 70
     1
102
RTVSPropertyOp16
 70
     1
102
RTVSPropertyOp17
 70
     1
102
RTVSPropertyOp18
 70
     1
102
RTVSPropertyOp19
 70
     1
102
RTVSPropertyOp20
 70
     1
102
RTVSPropertyOp21
 70
     1
102
RTVSPropertyOp22
 70
     1
102
RTVSPropertyOp23
 70
     1
102
RTVSPropertyOp24
 70
     1
102
RTVSPropertyOp25
 70
     1
102
RTVSPropertyOp26
 70
     1
102
RTVSPropertyOp27
 70
     1
102
RTVSPropertyOp28
 70
     1
102
RTVSPropertyOp29
 70
     1
102
RTVSPropertyOp30
 70
     1
102
RTVSPropertyOp31
 70
     1
102
RTVSPropertyOp32
 70
     1
102
RTVSPropertyOp33
 70
     1
102
RTVSPropertyOp34
 70
     1
102
RTVSPropertyOp35
 70
     1
102
RTVSPropertyOp36
 70
     1
102
RTVSPropertyOp37
 70
     1
102
RTVSPropertyOp38
 70
     1
102
RTVSPropertyOp39
 70
     1
102
RTVSPropertyOp40
 70
     1
102
RTVSPropertyOp41
 70
     1
102
RTVSPropertyOp42
 70
     1
102
RTVSPropertyOp43
 70
     1
102
RTVSPropertyOp44
 70
     1
102
RTVSPropertyOp45
 70
     1
102
RTVSPropertyOp46
 70
     1
102
RTVSPropertyOp47
 70
     1
102
RTVSPropertyOp48
 70
     1
102
RTVSPropertyOp49
 70
     1
102
RTVSPropertyOp50
 70
     1
102
RTVSPropertyOp51
 70
     0
102
RTVSPropertyOp52
 70
     0
102
RTVSPropertyOp53
 70
     1
102
RTVSPropertyOp54
 70
     1
102
RTVSPropertyOp55
 70
     1
102
RTVSPropertyOp56
 70
     1
102
RTVSPropertyOp57
 70
     1
102
RTVSPropertyOp58
 70
     1
102
RTVSPropertyOp59
 70
     1
102
RTVSPropertyOp60
 70
     1
102
RTVSPropertyOp61
 70
     1
102
RTVSPropertyOp62
 70
     1
  0
XRECORD
  5
748
102
{ACAD_REACTORS
330
747
102
}
330
747
100
AcDbXrecord
280
     1
102
RTVSPost2010Prop28
280
     0
102
RTVSPost2010PropOp28
 70
     1
102
RTVSPost2010Prop29
280
     1
102
RTVSPost2010PropOp29
 70
     1
102
RTVSPost2010Prop30
280
     1
102
RTVSPost2010PropOp30
 70
     1
102
RTVSPost2010Prop31
280
     0
102
RTVSPost2010PropOp31
 70
     1
102
RTVSPost2010Prop32
280
     0
102
RTVSPost2010PropOp32
 70
     1
102
RTVSPost2010Prop33
280
     0
102
RTVSPost2010PropOp33
 70
     1
102
RTVSPost2010Prop34
280
     0
102
RTVSPost2010PropOp34
 70
     1
102
RTVSPost2010Prop35
280
     0
102
RTVSPost2010PropOp35
 70
     1
102
RTVSPost2010Prop36
280
     0
102
RTVSPost2010PropOp36
 70
     1
102
RTVSPost2010Prop37
 90
       50
102
RTVSPost2010PropOp37
 70
     1
102
RTVSPost2010Prop38
140
0.0
102
RTVSPost2010PropOp38
 70
     1
102
RTVSPost2010Prop39
140
1.0
102
RTVSPost2010PropOp39
 70
     1
102
RTVSPost2010Prop40
 90
        0
102
RTVSPost2010PropOp40
 70
     1
102
RTVSPost2010Prop41ColorIndex
 90
       18
102
RTVSPost2010Prop41ColorRGB
 90
        0
102
RTVSPost2010PropOp41
 70
     1
102
RTVSPost2010Prop42
 90
       50
102
RTVSPost2010PropOp42
 70
     1
102
RTVSPost2010Prop43
 90
        3
102
RTVSPost2010PropOp43
 70
     1
102
RTVSPost2010Prop44ColorIndex
 90
        5
102
RTVSPost2010Prop44ColorRGB
 90
      255
102
RTVSPost2010PropOp44
 70
     1
102
RTVSPost2010Prop45
280
     0
102
RTVSPost2010PropOp45
 70
     1
102
RTVSPost2010Prop46
 90
       50
102
RTVSPost2010PropOp46
 70
     1
102
RTVSPost2010Prop47
 90
       50
102
RTVSPost2010PropOp47
 70
     1
102
RTVSPost2010Prop48
 90
       50
102
RTVSPost2010PropOp48
 70
     1
102
RTVSPost2010Prop49
280
     0
102
RTVSPost2010PropOp49
 70
     1
102
RTVSPost2010Prop50
 90
       50
102
RTVSPost2010PropOp50
 70
     1
102
RTVSPost2010Prop51ColorIndex
 90
      256
102
RTVSPost2010Prop51ColorRGB
 90
-16777216
102
RTVSPost2010PropOp51
 70
     0
102
RTVSPost2010Prop52
140
1.0
102
RTVSPost2010PropOp52
 70
     0
102
RTVSPost2010Prop53
 90
        2
102
RTVSPost2010PropOp53
 70
     1
102
RTVSPost2010Prop54
  1
strokes_ogs.tif
102
RTVSPost2010PropOp54
 70
     1
102
RTVSPost2010Prop55
280
     0
102
RTVSPost2010PropOp55
 70
     1
102
RTVSPost2010Prop56
140
1.0
102
RTVSPost2010PropOp56
 70
     1
102
RTVSPost2010Prop57
140
1.0
102
RTVSPost2010PropOp57
 70
     1
102
RTVSPropertyOp0
 70
     1
102
RTVSPropertyOp1
 70
     1
102
RTVSPropertyOp2
 70
     1
102
RTVSPropertyOp3
 70
     1
102
RTVSPropertyOp4
 70
     1
102
RTVSPropertyOp5
 70
     1
102
RTVSPropertyOp6
 70
     1
102
RTVSPropertyOp7
 70
     1
102
RTVSPropertyOp8
 70
     1
102
RTVSPropertyOp9
 70
     1
102
RTVSPropertyOp10
 70
     1
102
RTVSPropertyOp11
 70
     1
102
RTVSPropertyOp12
 70
     1
102
RTVSPropertyOp13
 70
     1
102
RTVSPropertyOp14
 70
     1
102
RTVSPropertyOp15
 70
     1
102
RTVSPropertyOp16
 70
     1
102
RTVSPropertyOp17
 70
     1
102
RTVSPropertyOp18
 70
     1
102
RTVSPropertyOp19
 70
     1
102
RTVSPropertyOp20
 70
     1
102
RTVSPropertyOp21
 70
     1
102
RTVSPropertyOp22
 70
     1
102
RTVSPropertyOp23
 70
     1
102
RTVSPropertyOp24
 70
     1
102
RTVSPropertyOp25
 70
     1
102
RTVSPropertyOp26
 70
     1
102
RTVSPropertyOp27
 70
     1
102
RTVSPropertyOp28
 70
     1
102
RTVSPropertyOp29
 70
     1
102
RTVSPropertyOp30
 70
     1
102
RTVSPropertyOp31
 70
     1
102
RTVSPropertyOp32
 70
     1
102
RTVSPropertyOp33
 70
     1
102
RTVSPropertyOp34
 70
     1
102
RTVSPropertyOp35
 70
     1
102
RTVSPropertyOp36
 70
     1
102
RTVSPropertyOp37
 70
     1
102
RTVSPropertyOp38
 70
     1
102
RTVSPropertyOp39
 70
     1
102
RTVSPropertyOp40
 70
     1
102
RTVSPropertyOp41
 70
     1
102
RTVSPropertyOp42
 70
     1
102
RTVSPropertyOp43
 70
     1
102
RTVSPropertyOp44
 70
     1
102
RTVSPropertyOp45
 70
     1
102
RTVSPropertyOp46
 70
     1
102
RTVSPropertyOp47
 70
     1
102
RTVSPropertyOp48
 70
     1
102
RTVSPropertyOp49
 70
     1
102
RTVSPropertyOp50
 70
     1
102
RTVSPropertyOp51
 70
     0
102
RTVSPropertyOp52
 70
     0
102
RTVSPropertyOp53
 70
     1
102
RTVSPropertyOp54
 70
     1
102
RTVSPropertyOp55
 70
     1
102
RTVSPropertyOp56
 70
     1
102
RTVSPropertyOp57
 70
     1
102
RTVSPropertyOp58
 70
     1
102
RTVSPropertyOp59
 70
     1
102
RTVSPropertyOp60
 70
     1
102
RTVSPropertyOp61
 70
     1
102
RTVSPropertyOp62
 70
     1
  0
XRECORD
  5
742
102
{ACAD_REACTORS
330
741
102
}
330
741
100
AcDbXrecord
280
     1
102
RTVSPost2010Prop28
280
     0
102
RTVSPost2010PropOp28
 70
     1
102
RTVSPost2010Prop29
280
     1
102
RTVSPost2010PropOp29
 70
     1
102
RTVSPost2010Prop30
280
     1
102
RTVSPost2010PropOp30
 70
     1
102
RTVSPost2010Prop31
280
     0
102
RTVSPost2010PropOp31
 70
     1
102
RTVSPost2010Prop32
280
     0
102
RTVSPost2010PropOp32
 70
     1
102
RTVSPost2010Prop33
280
     0
102
RTVSPost2010PropOp33
 70
     1
102
RTVSPost2010Prop34
280
     0
102
RTVSPost2010PropOp34
 70
     1
102
RTVSPost2010Prop35
280
     0
102
RTVSPost2010PropOp35
 70
     1
102
RTVSPost2010Prop36
280
     0
102
RTVSPost2010PropOp36
 70
     1
102
RTVSPost2010Prop37
 90
       50
102
RTVSPost2010PropOp37
 70
     1
102
RTVSPost2010Prop38
140
0.0
102
RTVSPost2010PropOp38
 70
     1
102
RTVSPost2010Prop39
140
1.0
102
RTVSPost2010PropOp39
 70
     1
102
RTVSPost2010Prop40
 90
        0
102
RTVSPost2010PropOp40
 70
     1
102
RTVSPost2010Prop41ColorIndex
 90
       18
102
RTVSPost2010Prop41ColorRGB
 90
        0
102
RTVSPost2010PropOp41
 70
     1
102
RTVSPost2010Prop42
 90
       50
102
RTVSPost2010PropOp42
 70
     1
102
RTVSPost2010Prop43
 90
        3
102
RTVSPost2010PropOp43
 70
     1
102
RTVSPost2010Prop44ColorIndex
 90
        5
102
RTVSPost2010Prop44ColorRGB
 90
      255
102
RTVSPost2010PropOp44
 70
     1
102
RTVSPost2010Prop45
280
     0
102
RTVSPost2010PropOp45
 70
     1
102
RTVSPost2010Prop46
 90
       50
102
RTVSPost2010PropOp46
 70
     1
102
RTVSPost2010Prop47
 90
       50
102
RTVSPost2010PropOp47
 70
     1
102
RTVSPost2010Prop48
 90
       50
102
RTVSPost2010PropOp48
 70
     1
102
RTVSPost2010Prop49
280
     0
102
RTVSPost2010PropOp49
 70
     1
102
RTVSPost2010Prop50
 90
       50
102
RTVSPost2010PropOp50
 70
     1
102
RTVSPost2010Prop51ColorIndex
 90
      256
102
RTVSPost2010Prop51ColorRGB
 90
-16777216
102
RTVSPost2010PropOp51
 70
     0
102
RTVSPost2010Prop52
140
1.0
102
RTVSPost2010PropOp52
 70
     0
102
RTVSPost2010Prop53
 90
        2
102
RTVSPost2010PropOp53
 70
     1
102
RTVSPost2010Prop54
  1
strokes_ogs.tif
102
RTVSPost2010PropOp54
 70
     1
102
RTVSPost2010Prop55
280
     0
102
RTVSPost2010PropOp55
 70
     1
102
RTVSPost2010Prop56
140
1.0
102
RTVSPost2010PropOp56
 70
     1
102
RTVSPost2010Prop57
140
1.0
102
RTVSPost2010PropOp57
 70
     1
102
RTVSPropertyOp0
 70
     1
102
RTVSPropertyOp1
 70
     1
102
RTVSPropertyOp2
 70
     1
102
RTVSPropertyOp3
 70
     1
102
RTVSPropertyOp4
 70
     1
102
RTVSPropertyOp5
 70
     1
102
RTVSPropertyOp6
 70
     1
102
RTVSPropertyOp7
 70
     1
102
RTVSPropertyOp8
 70
     1
102
RTVSPropertyOp9
 70
     1
102
RTVSPropertyOp10
 70
     1
102
RTVSPropertyOp11
 70
     1
102
RTVSPropertyOp12
 70
     1
102
RTVSPropertyOp13
 70
     1
102
RTVSPropertyOp14
 70
     1
102
RTVSPropertyOp15
 70
     1
102
RTVSPropertyOp16
 70
     1
102
RTVSPropertyOp17
 70
     1
102
RTVSPropertyOp18
 70
     1
102
RTVSPropertyOp19
 70
     1
102
RTVSPropertyOp20
 70
     1
102
RTVSPropertyOp21
 70
     1
102
RTVSPropertyOp22
 70
     1
102
RTVSPropertyOp23
 70
     1
102
RTVSPropertyOp24
 70
     1
102
RTVSPropertyOp25
 70
     1
102
RTVSPropertyOp26
 70
     1
102
RTVSPropertyOp27
 70
     1
102
RTVSPropertyOp28
 70
     1
102
RTVSPropertyOp29
 70
     1
102
RTVSPropertyOp30
 70
     1
102
RTVSPropertyOp31
 70
     1
102
RTVSPropertyOp32
 70
     1
102
RTVSPropertyOp33
 70
     1
102
RTVSPropertyOp34
 70
     1
102
RTVSPropertyOp35
 70
     1
102
RTVSPropertyOp36
 70
     1
102
RTVSPropertyOp37
 70
     1
102
RTVSPropertyOp38
 70
     1
102
RTVSPropertyOp39
 70
     1
102
RTVSPropertyOp40
 70
     1
102
RTVSPropertyOp41
 70
     1
102
RTVSPropertyOp42
 70
     1
102
RTVSPropertyOp43
 70
     1
102
RTVSPropertyOp44
 70
     1
102
RTVSPropertyOp45
 70
     1
102
RTVSPropertyOp46
 70
     1
102
RTVSPropertyOp47
 70
     1
102
RTVSPropertyOp48
 70
     1
102
RTVSPropertyOp49
 70
     1
102
RTVSPropertyOp50
 70
     1
102
RTVSPropertyOp51
 70
     0
102
RTVSPropertyOp52
 70
     0
102
RTVSPropertyOp53
 70
     1
102
RTVSPropertyOp54
 70
     1
102
RTVSPropertyOp55
 70
     1
102
RTVSPropertyOp56
 70
     1
102
RTVSPropertyOp57
 70
     1
102
RTVSPropertyOp58
 70
     1
102
RTVSPropertyOp59
 70
     1
102
RTVSPropertyOp60
 70
     1
102
RTVSPropertyOp61
 70
     1
102
RTVSPropertyOp62
 70
     1
  0
XRECORD
  5
744
102
{ACAD_REACTORS
330
743
102
}
330
743
100
AcDbXrecord
280
     1
102
RTVSPost2010Prop28
280
     0
102
RTVSPost2010PropOp28
 70
     1
102
RTVSPost2010Prop29
280
     1
102
RTVSPost2010PropOp29
 70
     1
102
RTVSPost2010Prop30
280
     1
102
RTVSPost2010PropOp30
 70
     1
102
RTVSPost2010Prop31
280
     0
102
RTVSPost2010PropOp31
 70
     1
102
RTVSPost2010Prop32
280
     0
102
RTVSPost2010PropOp32
 70
     1
102
RTVSPost2010Prop33
280
     0
102
RTVSPost2010PropOp33
 70
     1
102
RTVSPost2010Prop34
280
     0
102
RTVSPost2010PropOp34
 70
     1
102
RTVSPost2010Prop35
280
     0
102
RTVSPost2010PropOp35
 70
     1
102
RTVSPost2010Prop36
280
     0
102
RTVSPost2010PropOp36
 70
     1
102
RTVSPost2010Prop37
 90
       50
102
RTVSPost2010PropOp37
 70
     1
102
RTVSPost2010Prop38
140
0.0
102
RTVSPost2010PropOp38
 70
     1
102
RTVSPost2010Prop39
140
1.0
102
RTVSPost2010PropOp39
 70
     1
102
RTVSPost2010Prop40
 90
        0
102
RTVSPost2010PropOp40
 70
     1
102
RTVSPost2010Prop41ColorIndex
 90
       18
102
RTVSPost2010Prop41ColorRGB
 90
        0
102
RTVSPost2010PropOp41
 70
     1
102
RTVSPost2010Prop42
 90
       50
102
RTVSPost2010PropOp42
 70
     1
102
RTVSPost2010Prop43
 90
        3
102
RTVSPost2010PropOp43
 70
     1
102
RTVSPost2010Prop44ColorIndex
 90
        5
102
RTVSPost2010Prop44ColorRGB
 90
      255
102
RTVSPost2010PropOp44
 70
     1
102
RTVSPost2010Prop45
280
     0
102
RTVSPost2010PropOp45
 70
     1
102
RTVSPost2010Prop46
 90
       50
102
RTVSPost2010PropOp46
 70
     1
102
RTVSPost2010Prop47
 90
       50
102
RTVSPost2010PropOp47
 70
     1
102
RTVSPost2010Prop48
 90
       50
102
RTVSPost2010PropOp48
 70
     1
102
RTVSPost2010Prop49
280
     0
102
RTVSPost2010PropOp49
 70
     1
102
RTVSPost2010Prop50
 90
       50
102
RTVSPost2010PropOp50
 70
     1
102
RTVSPost2010Prop51ColorIndex
 90
      256
102
RTVSPost2010Prop51ColorRGB
 90
-16777216
102
RTVSPost2010PropOp51
 70
     0
102
RTVSPost2010Prop52
140
1.0
102
RTVSPost2010PropOp52
 70
     0
102
RTVSPost2010Prop53
 90
        2
102
RTVSPost2010PropOp53
 70
     1
102
RTVSPost2010Prop54
  1
strokes_ogs.tif
102
RTVSPost2010PropOp54
 70
     1
102
RTVSPost2010Prop55
280
     0
102
RTVSPost2010PropOp55
 70
     1
102
RTVSPost2010Prop56
140
1.0
102
RTVSPost2010PropOp56
 70
     1
102
RTVSPost2010Prop57
140
1.0
102
RTVSPost2010PropOp57
 70
     1
102
RTVSPropertyOp0
 70
     1
102
RTVSPropertyOp1
 70
     1
102
RTVSPropertyOp2
 70
     1
102
RTVSPropertyOp3
 70
     1
102
RTVSPropertyOp4
 70
     1
102
RTVSPropertyOp5
 70
     1
102
RTVSPropertyOp6
 70
     1
102
RTVSPropertyOp7
 70
     1
102
RTVSPropertyOp8
 70
     1
102
RTVSPropertyOp9
 70
     1
102
RTVSPropertyOp10
 70
     1
102
RTVSPropertyOp11
 70
     1
102
RTVSPropertyOp12
 70
     1
102
RTVSPropertyOp13
 70
     1
102
RTVSPropertyOp14
 70
     1
102
RTVSPropertyOp15
 70
     1
102
RTVSPropertyOp16
 70
     1
102
RTVSPropertyOp17
 70
     1
102
RTVSPropertyOp18
 70
     1
102
RTVSPropertyOp19
 70
     1
102
RTVSPropertyOp20
 70
     1
102
RTVSPropertyOp21
 70
     1
102
RTVSPropertyOp22
 70
     1
102
RTVSPropertyOp23
 70
     1
102
RTVSPropertyOp24
 70
     1
102
RTVSPropertyOp25
 70
     1
102
RTVSPropertyOp26
 70
     1
102
RTVSPropertyOp27
 70
     1
102
RTVSPropertyOp28
 70
     1
102
RTVSPropertyOp29
 70
     1
102
RTVSPropertyOp30
 70
     1
102
RTVSPropertyOp31
 70
     1
102
RTVSPropertyOp32
 70
     1
102
RTVSPropertyOp33
 70
     1
102
RTVSPropertyOp34
 70
     1
102
RTVSPropertyOp35
 70
     1
102
RTVSPropertyOp36
 70
     1
102
RTVSPropertyOp37
 70
     1
102
RTVSPropertyOp38
 70
     1
102
RTVSPropertyOp39
 70
     1
102
RTVSPropertyOp40
 70
     1
102
RTVSPropertyOp41
 70
     1
102
RTVSPropertyOp42
 70
     1
102
RTVSPropertyOp43
 70
     1
102
RTVSPropertyOp44
 70
     1
102
RTVSPropertyOp45
 70
     1
102
RTVSPropertyOp46
 70
     1
102
RTVSPropertyOp47
 70
     1
102
RTVSPropertyOp48
 70
     1
102
RTVSPropertyOp49
 70
     1
102
RTVSPropertyOp50
 70
     1
102
RTVSPropertyOp51
 70
     0
102
RTVSPropertyOp52
 70
     0
102
RTVSPropertyOp53
 70
     1
102
RTVSPropertyOp54
 70
     1
102
RTVSPropertyOp55
 70
     1
102
RTVSPropertyOp56
 70
     1
102
RTVSPropertyOp57
 70
     1
102
RTVSPropertyOp58
 70
     1
102
RTVSPropertyOp59
 70
     1
102
RTVSPropertyOp60
 70
     1
102
RTVSPropertyOp61
 70
     1
102
RTVSPropertyOp62
 70
     1
  0
XRECORD
  5
73A
102
{ACAD_REACTORS
330
739
102
}
330
739
100
AcDbXrecord
280
     1
102
RTVSPost2010Prop28
280
     0
102
RTVSPost2010PropOp28
 70
     1
102
RTVSPost2010Prop29
280
     1
102
RTVSPost2010PropOp29
 70
     1
102
RTVSPost2010Prop30
280
     1
102
RTVSPost2010PropOp30
 70
     1
102
RTVSPost2010Prop31
280
     0
102
RTVSPost2010PropOp31
 70
     1
102
RTVSPost2010Prop32
280
     0
102
RTVSPost2010PropOp32
 70
     1
102
RTVSPost2010Prop33
280
     0
102
RTVSPost2010PropOp33
 70
     1
102
RTVSPost2010Prop34
280
     0
102
RTVSPost2010PropOp34
 70
     1
102
RTVSPost2010Prop35
280
     0
102
RTVSPost2010PropOp35
 70
     1
102
RTVSPost2010Prop36
280
     0
102
RTVSPost2010PropOp36
 70
     1
102
RTVSPost2010Prop37
 90
       50
102
RTVSPost2010PropOp37
 70
     1
102
RTVSPost2010Prop38
140
0.0
102
RTVSPost2010PropOp38
 70
     1
102
RTVSPost2010Prop39
140
1.0
102
RTVSPost2010PropOp39
 70
     1
102
RTVSPost2010Prop40
 90
        0
102
RTVSPost2010PropOp40
 70
     1
102
RTVSPost2010Prop41ColorIndex
 90
       18
102
RTVSPost2010Prop41ColorRGB
 90
        0
102
RTVSPost2010PropOp41
 70
     1
102
RTVSPost2010Prop42
 90
       50
102
RTVSPost2010PropOp42
 70
     1
102
RTVSPost2010Prop43
 90
        3
102
RTVSPost2010PropOp43
 70
     1
102
RTVSPost2010Prop44ColorIndex
 90
        5
102
RTVSPost2010Prop44ColorRGB
 90
      255
102
RTVSPost2010PropOp44
 70
     1
102
RTVSPost2010Prop45
280
     0
102
RTVSPost2010PropOp45
 70
     1
102
RTVSPost2010Prop46
 90
       50
102
RTVSPost2010PropOp46
 70
     1
102
RTVSPost2010Prop47
 90
       50
102
RTVSPost2010PropOp47
 70
     1
102
RTVSPost2010Prop48
 90
       50
102
RTVSPost2010PropOp48
 70
     1
102
RTVSPost2010Prop49
280
     0
102
RTVSPost2010PropOp49
 70
     1
102
RTVSPost2010Prop50
 90
       50
102
RTVSPost2010PropOp50
 70
     1
102
RTVSPost2010Prop51ColorIndex
 90
      256
102
RTVSPost2010Prop51ColorRGB
 90
-16777216
102
RTVSPost2010PropOp51
 70
     0
102
RTVSPost2010Prop52
140
1.0
102
RTVSPost2010PropOp52
 70
     0
102
RTVSPost2010Prop53
 90
        2
102
RTVSPost2010PropOp53
 70
     1
102
RTVSPost2010Prop54
  1
strokes_ogs.tif
102
RTVSPost2010PropOp54
 70
     1
102
RTVSPost2010Prop55
280
     0
102
RTVSPost2010PropOp55
 70
     1
102
RTVSPost2010Prop56
140
1.0
102
RTVSPost2010PropOp56
 70
     1
102
RTVSPost2010Prop57
140
1.0
102
RTVSPost2010PropOp57
 70
     1
102
RTVSPropertyOp0
 70
     1
102
RTVSPropertyOp1
 70
     1
102
RTVSPropertyOp2
 70
     1
102
RTVSPropertyOp3
 70
     1
102
RTVSPropertyOp4
 70
     1
102
RTVSPropertyOp5
 70
     1
102
RTVSPropertyOp6
 70
     1
102
RTVSPropertyOp7
 70
     1
102
RTVSPropertyOp8
 70
     1
102
RTVSPropertyOp9
 70
     1
102
RTVSPropertyOp10
 70
     1
102
RTVSPropertyOp11
 70
     1
102
RTVSPropertyOp12
 70
     1
102
RTVSPropertyOp13
 70
     1
102
RTVSPropertyOp14
 70
     1
102
RTVSPropertyOp15
 70
     1
102
RTVSPropertyOp16
 70
     1
102
RTVSPropertyOp17
 70
     1
102
RTVSPropertyOp18
 70
     1
102
RTVSPropertyOp19
 70
     1
102
RTVSPropertyOp20
 70
     1
102
RTVSPropertyOp21
 70
     1
102
RTVSPropertyOp22
 70
     1
102
RTVSPropertyOp23
 70
     1
102
RTVSPropertyOp24
 70
     1
102
RTVSPropertyOp25
 70
     1
102
RTVSPropertyOp26
 70
     1
102
RTVSPropertyOp27
 70
     1
102
RTVSPropertyOp28
 70
     1
102
RTVSPropertyOp29
 70
     1
102
RTVSPropertyOp30
 70
     1
102
RTVSPropertyOp31
 70
     1
102
RTVSPropertyOp32
 70
     1
102
RTVSPropertyOp33
 70
     1
102
RTVSPropertyOp34
 70
     1
102
RTVSPropertyOp35
 70
     1
102
RTVSPropertyOp36
 70
     1
102
RTVSPropertyOp37
 70
     1
102
RTVSPropertyOp38
 70
     1
102
RTVSPropertyOp39
 70
     1
102
RTVSPropertyOp40
 70
     1
102
RTVSPropertyOp41
 70
     1
102
RTVSPropertyOp42
 70
     1
102
RTVSPropertyOp43
 70
     1
102
RTVSPropertyOp44
 70
     1
102
RTVSPropertyOp45
 70
     1
102
RTVSPropertyOp46
 70
     1
102
RTVSPropertyOp47
 70
     1
102
RTVSPropertyOp48
 70
     1
102
RTVSPropertyOp49
 70
     1
102
RTVSPropertyOp50
 70
     1
102
RTVSPropertyOp51
 70
     0
102
RTVSPropertyOp52
 70
     0
102
RTVSPropertyOp53
 70
     1
102
RTVSPropertyOp54
 70
     1
102
RTVSPropertyOp55
 70
     1
102
RTVSPropertyOp56
 70
     1
102
RTVSPropertyOp57
 70
     1
102
RTVSPropertyOp58
 70
     1
102
RTVSPropertyOp59
 70
     1
102
RTVSPropertyOp60
 70
     1
102
RTVSPropertyOp61
 70
     1
102
RTVSPropertyOp62
 70
     1
  0
XRECORD
  5
72E
102
{ACAD_REACTORS
330
72D
102
}
330
72D
100
AcDbXrecord
280
     1
102
RTVSPost2010Prop28
280
     0
102
RTVSPost2010PropOp28
 70
     1
102
RTVSPost2010Prop29
280
     1
102
RTVSPost2010PropOp29
 70
     1
102
RTVSPost2010Prop30
280
     1
102
RTVSPost2010PropOp30
 70
     1
102
RTVSPost2010Prop31
280
     0
102
RTVSPost2010PropOp31
 70
     1
102
RTVSPost2010Prop32
280
     0
102
RTVSPost2010PropOp32
 70
     1
102
RTVSPost2010Prop33
280
     0
102
RTVSPost2010PropOp33
 70
     1
102
RTVSPost2010Prop34
280
     0
102
RTVSPost2010PropOp34
 70
     1
102
RTVSPost2010Prop35
280
     0
102
RTVSPost2010PropOp35
 70
     1
102
RTVSPost2010Prop36
280
     0
102
RTVSPost2010PropOp36
 70
     1
102
RTVSPost2010Prop37
 90
       50
102
RTVSPost2010PropOp37
 70
     1
102
RTVSPost2010Prop38
140
0.0
102
RTVSPost2010PropOp38
 70
     1
102
RTVSPost2010Prop39
140
1.0
102
RTVSPost2010PropOp39
 70
     1
102
RTVSPost2010Prop40
 90
        0
102
RTVSPost2010PropOp40
 70
     1
102
RTVSPost2010Prop41ColorIndex
 90
       18
102
RTVSPost2010Prop41ColorRGB
 90
        0
102
RTVSPost2010PropOp41
 70
     1
102
RTVSPost2010Prop42
 90
       50
102
RTVSPost2010PropOp42
 70
     1
102
RTVSPost2010Prop43
 90
        3
102
RTVSPost2010PropOp43
 70
     1
102
RTVSPost2010Prop44ColorIndex
 90
        5
102
RTVSPost2010Prop44ColorRGB
 90
      255
102
RTVSPost2010PropOp44
 70
     1
102
RTVSPost2010Prop45
280
     0
102
RTVSPost2010PropOp45
 70
     1
102
RTVSPost2010Prop46
 90
       50
102
RTVSPost2010PropOp46
 70
     1
102
RTVSPost2010Prop47
 90
       50
102
RTVSPost2010PropOp47
 70
     1
102
RTVSPost2010Prop48
 90
       50
102
RTVSPost2010PropOp48
 70
     1
102
RTVSPost2010Prop49
280
     0
102
RTVSPost2010PropOp49
 70
     1
102
RTVSPost2010Prop50
 90
       50
102
RTVSPost2010PropOp50
 70
     1
102
RTVSPost2010Prop51ColorIndex
 90
      256
102
RTVSPost2010Prop51ColorRGB
 90
-16777216
102
RTVSPost2010PropOp51
 70
     0
102
RTVSPost2010Prop52
140
1.0
102
RTVSPost2010PropOp52
 70
     0
102
RTVSPost2010Prop53
 90
        2
102
RTVSPost2010PropOp53
 70
     1
102
RTVSPost2010Prop54
  1
strokes_ogs.tif
102
RTVSPost2010PropOp54
 70
     1
102
RTVSPost2010Prop55
280
     0
102
RTVSPost2010PropOp55
 70
     1
102
RTVSPost2010Prop56
140
1.0
102
RTVSPost2010PropOp56
 70
     1
102
RTVSPost2010Prop57
140
1.0
102
RTVSPost2010PropOp57
 70
     1
102
RTVSPropertyOp0
 70
     1
102
RTVSPropertyOp1
 70
     1
102
RTVSPropertyOp2
 70
     1
102
RTVSPropertyOp3
 70
     1
102
RTVSPropertyOp4
 70
     1
102
RTVSPropertyOp5
 70
     1
102
RTVSPropertyOp6
 70
     1
102
RTVSPropertyOp7
 70
     1
102
RTVSPropertyOp8
 70
     1
102
RTVSPropertyOp9
 70
     1
102
RTVSPropertyOp10
 70
     1
102
RTVSPropertyOp11
 70
     1
102
RTVSPropertyOp12
 70
     1
102
RTVSPropertyOp13
 70
     1
102
RTVSPropertyOp14
 70
     1
102
RTVSPropertyOp15
 70
     1
102
RTVSPropertyOp16
 70
     1
102
RTVSPropertyOp17
 70
     1
102
RTVSPropertyOp18
 70
     1
102
RTVSPropertyOp19
 70
     1
102
RTVSPropertyOp20
 70
     1
102
RTVSPropertyOp21
 70
     1
102
RTVSPropertyOp22
 70
     1
102
RTVSPropertyOp23
 70
     1
102
RTVSPropertyOp24
 70
     1
102
RTVSPropertyOp25
 70
     1
102
RTVSPropertyOp26
 70
     1
102
RTVSPropertyOp27
 70
     1
102
RTVSPropertyOp28
 70
     1
102
RTVSPropertyOp29
 70
     1
102
RTVSPropertyOp30
 70
     1
102
RTVSPropertyOp31
 70
     1
102
RTVSPropertyOp32
 70
     1
102
RTVSPropertyOp33
 70
     1
102
RTVSPropertyOp34
 70
     1
102
RTVSPropertyOp35
 70
     1
102
RTVSPropertyOp36
 70
     1
102
RTVSPropertyOp37
 70
     1
102
RTVSPropertyOp38
 70
     1
102
RTVSPropertyOp39
 70
     1
102
RTVSPropertyOp40
 70
     1
102
RTVSPropertyOp41
 70
     1
102
RTVSPropertyOp42
 70
     1
102
RTVSPropertyOp43
 70
     1
102
RTVSPropertyOp44
 70
     1
102
RTVSPropertyOp45
 70
     1
102
RTVSPropertyOp46
 70
     1
102
RTVSPropertyOp47
 70
     1
102
RTVSPropertyOp48
 70
     1
102
RTVSPropertyOp49
 70
     1
102
RTVSPropertyOp50
 70
     1
102
RTVSPropertyOp51
 70
     0
102
RTVSPropertyOp52
 70
     0
102
RTVSPropertyOp53
 70
     1
102
RTVSPropertyOp54
 70
     1
102
RTVSPropertyOp55
 70
     1
102
RTVSPropertyOp56
 70
     1
102
RTVSPropertyOp57
 70
     1
102
RTVSPropertyOp58
 70
     1
102
RTVSPropertyOp59
 70
     1
102
RTVSPropertyOp60
 70
     1
102
RTVSPropertyOp61
 70
     1
102
RTVSPropertyOp62
 70
     1
  0
XRECORD
  5
746
102
{ACAD_REACTORS
330
745
102
}
330
745
100
AcDbXrecord
280
     1
102
RTVSPost2010Prop28
280
     0
102
RTVSPost2010PropOp28
 70
     1
102
RTVSPost2010Prop29
280
     1
102
RTVSPost2010PropOp29
 70
     1
102
RTVSPost2010Prop30
280
     1
102
RTVSPost2010PropOp30
 70
     1
102
RTVSPost2010Prop31
280
     0
102
RTVSPost2010PropOp31
 70
     1
102
RTVSPost2010Prop32
280
     0
102
RTVSPost2010PropOp32
 70
     1
102
RTVSPost2010Prop33
280
     0
102
RTVSPost2010PropOp33
 70
     1
102
RTVSPost2010Prop34
280
     0
102
RTVSPost2010PropOp34
 70
     1
102
RTVSPost2010Prop35
280
     0
102
RTVSPost2010PropOp35
 70
     1
102
RTVSPost2010Prop36
280
     0
102
RTVSPost2010PropOp36
 70
     1
102
RTVSPost2010Prop37
 90
       50
102
RTVSPost2010PropOp37
 70
     1
102
RTVSPost2010Prop38
140
0.0
102
RTVSPost2010PropOp38
 70
     1
102
RTVSPost2010Prop39
140
1.0
102
RTVSPost2010PropOp39
 70
     1
102
RTVSPost2010Prop40
 90
        0
102
RTVSPost2010PropOp40
 70
     1
102
RTVSPost2010Prop41ColorIndex
 90
       18
102
RTVSPost2010Prop41ColorRGB
 90
        0
102
RTVSPost2010PropOp41
 70
     1
102
RTVSPost2010Prop42
 90
       50
102
RTVSPost2010PropOp42
 70
     1
102
RTVSPost2010Prop43
 90
        3
102
RTVSPost2010PropOp43
 70
     1
102
RTVSPost2010Prop44ColorIndex
 90
        5
102
RTVSPost2010Prop44ColorRGB
 90
      255
102
RTVSPost2010PropOp44
 70
     1
102
RTVSPost2010Prop45
280
     0
102
RTVSPost2010PropOp45
 70
     1
102
RTVSPost2010Prop46
 90
       50
102
RTVSPost2010PropOp46
 70
     1
102
RTVSPost2010Prop47
 90
       50
102
RTVSPost2010PropOp47
 70
     1
102
RTVSPost2010Prop48
 90
       50
102
RTVSPost2010PropOp48
 70
     1
102
RTVSPost2010Prop49
280
     0
102
RTVSPost2010PropOp49
 70
     1
102
RTVSPost2010Prop50
 90
       50
102
RTVSPost2010PropOp50
 70
     1
102
RTVSPost2010Prop51ColorIndex
 90
      256
102
RTVSPost2010Prop51ColorRGB
 90
-16777216
102
RTVSPost2010PropOp51
 70
     0
102
RTVSPost2010Prop52
140
1.0
102
RTVSPost2010PropOp52
 70
     0
102
RTVSPost2010Prop53
 90
        2
102
RTVSPost2010PropOp53
 70
     1
102
RTVSPost2010Prop54
  1
strokes_ogs.tif
102
RTVSPost2010PropOp54
 70
     1
102
RTVSPost2010Prop55
280
     0
102
RTVSPost2010PropOp55
 70
     1
102
RTVSPost2010Prop56
140
1.0
102
RTVSPost2010PropOp56
 70
     1
102
RTVSPost2010Prop57
140
1.0
102
RTVSPost2010PropOp57
 70
     1
102
RTVSPropertyOp0
 70
     1
102
RTVSPropertyOp1
 70
     1
102
RTVSPropertyOp2
 70
     1
102
RTVSPropertyOp3
 70
     1
102
RTVSPropertyOp4
 70
     1
102
RTVSPropertyOp5
 70
     1
102
RTVSPropertyOp6
 70
     1
102
RTVSPropertyOp7
 70
     1
102
RTVSPropertyOp8
 70
     1
102
RTVSPropertyOp9
 70
     1
102
RTVSPropertyOp10
 70
     1
102
RTVSPropertyOp11
 70
     1
102
RTVSPropertyOp12
 70
     1
102
RTVSPropertyOp13
 70
     1
102
RTVSPropertyOp14
 70
     1
102
RTVSPropertyOp15
 70
     1
102
RTVSPropertyOp16
 70
     1
102
RTVSPropertyOp17
 70
     1
102
RTVSPropertyOp18
 70
     1
102
RTVSPropertyOp19
 70
     1
102
RTVSPropertyOp20
 70
     1
102
RTVSPropertyOp21
 70
     1
102
RTVSPropertyOp22
 70
     1
102
RTVSPropertyOp23
 70
     1
102
RTVSPropertyOp24
 70
     1
102
RTVSPropertyOp25
 70
     1
102
RTVSPropertyOp26
 70
     1
102
RTVSPropertyOp27
 70
     1
102
RTVSPropertyOp28
 70
     1
102
RTVSPropertyOp29
 70
     1
102
RTVSPropertyOp30
 70
     1
102
RTVSPropertyOp31
 70
     1
102
RTVSPropertyOp32
 70
     1
102
RTVSPropertyOp33
 70
     1
102
RTVSPropertyOp34
 70
     1
102
RTVSPropertyOp35
 70
     1
102
RTVSPropertyOp36
 70
     1
102
RTVSPropertyOp37
 70
     1
102
RTVSPropertyOp38
 70
     1
102
RTVSPropertyOp39
 70
     1
102
RTVSPropertyOp40
 70
     1
102
RTVSPropertyOp41
 70
     1
102
RTVSPropertyOp42
 70
     1
102
RTVSPropertyOp43
 70
     1
102
RTVSPropertyOp44
 70
     1
102
RTVSPropertyOp45
 70
     1
102
RTVSPropertyOp46
 70
     1
102
RTVSPropertyOp47
 70
     1
102
RTVSPropertyOp48
 70
     1
102
RTVSPropertyOp49
 70
     1
102
RTVSPropertyOp50
 70
     1
102
RTVSPropertyOp51
 70
     0
102
RTVSPropertyOp52
 70
     0
102
RTVSPropertyOp53
 70
     1
102
RTVSPropertyOp54
 70
     1
102
RTVSPropertyOp55
 70
     1
102
RTVSPropertyOp56
 70
     1
102
RTVSPropertyOp57
 70
     1
102
RTVSPropertyOp58
 70
     1
102
RTVSPropertyOp59
 70
     1
102
RTVSPropertyOp60
 70
     1
102
RTVSPropertyOp61
 70
     1
102
RTVSPropertyOp62
 70
     1
  0
ENDSEC
  0
EOF
