  0
SECTION
  2
HEADER
  9
$ACADVER
  1
AC1015
  9
$ACADMAINTVER
 70
    20
  9
$DWGCODEPAGE
  3
ANSI_932
  9
$INSBASE
 10
0.0
 20
0.0
 30
0.0
  9
$EXTMIN
 10
10.0
 20
9.999999999999998
 30
0.0
  9
$EXTMAX
 10
336.549536
 20
239.4982569999999
 30
0.0
  9
$LIMMIN
 10
0.0
 20
0.0
  9
$LIMMAX
 10
396.0
 20
273.0
  9
$ORTHOMODE
 70
     0
  9
$REGENMODE
 70
     1
  9
$FILLMODE
 70
     1
  9
$QTEXTMODE
 70
     0
  9
$MIRRTEXT
 70
     1
  9
$LTSCALE
 40
20.0
  9
$ATTMODE
 70
     1
  9
$TEXTSIZE
 40
5.0
  9
$TRACEWID
 40
1.0
  9
$TEXTSTYLE
  7
STANDARD
  9
$CLAYER
  8
0
  9
$CELTYPE
  6
BYLAYER
  9
$CECOLOR
 62
   256
  9
$CELTSCALE
 40
1.0
  9
$DISPSILH
 70
     0
  9
$DIMSCALE
 40
1.0
  9
$DIMASZ
 40
3.0
  9
$DIMEXO
 40
1.0
  9
$DIMDLI
 40
10.0
  9
$DIMRND
 40
0.0
  9
$DIMDLE
 40
0.0
  9
$DIMEXE
 40
1.0
  9
$DIMTP
 40
0.0
  9
$DIMTM
 40
0.0
  9
$DIMTXT
 40
3.2
  9
$DIMCEN
 40
0.0
  9
$DIMTSZ
 40
0.0
  9
$DIMTOL
 70
     0
  9
$DIMLIM
 70
     0
  9
$DIMTIH
 70
     0
  9
$DIMTOH
 70
     0
  9
$DIMSE1
 70
     0
  9
$DIMSE2
 70
     0
  9
$DIMTAD
 70
     3
  9
$DIMZIN
 70
     8
  9
$DIMBLK
  1

  9
$DIMASO
 70
     1
  9
$DIMSHO
 70
     1
  9
$DIMPOST
  1

  9
$DIMAPOST
  1

  9
$DIMALT
 70
     0
  9
$DIMALTD
 70
     2
  9
$DIMALTF
 40
25.4
  9
$DIMLFAC
 40
1.0
  9
$DIMTOFL
 70
     1
  9
$DIMTVP
 40
0.0
  9
$DIMTIX
 70
     0
  9
$DIMSOXD
 70
     0
  9
$DIMSAH
 70
     1
  9
$DIMBLK1
  1

  9
$DIMBLK2
  1

  9
$DIMSTYLE
  2
STANDARD
  9
$DIMCLRD
 70
     0
  9
$DIMCLRE
 70
     0
  9
$DIMCLRT
 70
     0
  9
$DIMTFAC
 40
1.0
  9
$DIMGAP
 40
1.0
  9
$DIMJUST
 70
     0
  9
$DIMSD1
 70
     0
  9
$DIMSD2
 70
     0
  9
$DIMTOLJ
 70
     1
  9
$DIMTZIN
 70
     0
  9
$DIMALTZ
 70
     0
  9
$DIMALTTZ
 70
     0
  9
$DIMUPT
 70
     0
  9
$DIMDEC
 70
     4
  9
$DIMTDEC
 70
     4
  9
$DIMALTU
 70
     2
  9
$DIMALTTD
 70
     2
  9
$DIMTXSTY
  7
STANDARD
  9
$DIMAUNIT
 70
     0
  9
$DIMADEC
 70
     0
  9
$DIMALTRND
 40
0.0
  9
$DIMAZIN
 70
     0
  9
$DIMDSEP
 70
    46
  9
$DIMATFIT
 70
     3
  9
$DIMFRAC
 70
     0
  9
$DIMLDRBLK
  1

  9
$DIMLUNIT
 70
     2
  9
$DIMLWD
 70
    -2
  9
$DIMLWE
 70
    -2
  9
$DIMTMOVE
 70
     0
  9
$LUNITS
 70
     2
  9
$LUPREC
 70
     4
  9
$SKETCHINC
 40
1.0
  9
$FILLETRAD
 40
4.0
  9
$AUNITS
 70
     0
  9
$AUPREC
 70
     2
  9
$MENU
  1
.
  9
$ELEVATION
 40
0.0
  9
$PELEVATION
 40
0.0
  9
$THICKNESS
 40
0.0
  9
$LIMCHECK
 70
     0
  9
$CHAMFERA
 40
10.0
  9
$CHAMFERB
 40
10.0
  9
$CHAMFERC
 40
0.0
  9
$CHAMFERD
 40
0.0
  9
$SKPOLY
 70
     0
  9
$TDCREATE
 40
2450946.555221065
  9
$TDUCREATE
 40
2450946.180221065
  9
$TDUPDATE
 40
2457192.600932280
  9
$TDUUPDATE
 40
2457192.225932280
  9
$TDINDWG
 40
0.0016800926
  9
$TDUSRTIMER
 40
0.0016797917
  9
$USRTIMER
 70
     1
  9
$ANGBASE
 50
0.0
  9
$ANGDIR
 70
     0
  9
$PDMODE
 70
     0
  9
$PDSIZE
 40
0.0
  9
$PLINEWID
 40
0.0
  9
$SPLFRAME
 70
     0
  9
$SPLINETYPE
 70
     6
  9
$SPLINESEGS
 70
     8
  9
$HANDSEED
  5
9BB0
  9
$SURFTAB1
 70
     6
  9
$SURFTAB2
 70
     6
  9
$SURFTYPE
 70
     6
  9
$SURFU
 70
     6
  9
$SURFV
 70
     6
  9
$UCSBASE
  2

  9
$UCSNAME
  2

  9
$UCSORG
 10
0.0
 20
0.0
 30
0.0
  9
$UCSXDIR
 10
1.0
 20
0.0
 30
0.0
  9
$UCSYDIR
 10
0.0
 20
1.0
 30
0.0
  9
$UCSORTHOREF
  2

  9
$UCSORTHOVIEW
 70
     0
  9
$UCSORGTOP
 10
0.0
 20
0.0
 30
0.0
  9
$UCSORGBOTTOM
 10
0.0
 20
0.0
 30
0.0
  9
$UCSORGLEFT
 10
0.0
 20
0.0
 30
0.0
  9
$UCSORGRIGHT
 10
0.0
 20
0.0
 30
0.0
  9
$UCSORGFRONT
 10
0.0
 20
0.0
 30
0.0
  9
$UCSORGBACK
 10
0.0
 20
0.0
 30
0.0
  9
$PUCSBASE
  2

  9
$PUCSNAME
  2

  9
$PUCSORG
 10
0.0
 20
0.0
 30
0.0
  9
$PUCSXDIR
 10
1.0
 20
0.0
 30
0.0
  9
$PUCSYDIR
 10
0.0
 20
1.0
 30
0.0
  9
$PUCSORTHOREF
  2

  9
$PUCSORTHOVIEW
 70
     0
  9
$PUCSORGTOP
 10
0.0
 20
0.0
 30
0.0
  9
$PUCSORGBOTTOM
 10
0.0
 20
0.0
 30
0.0
  9
$PUCSORGLEFT
 10
0.0
 20
0.0
 30
0.0
  9
$PUCSORGRIGHT
 10
0.0
 20
0.0
 30
0.0
  9
$PUCSORGFRONT
 10
0.0
 20
0.0
 30
0.0
  9
$PUCSORGBACK
 10
0.0
 20
0.0
 30
0.0
  9
$USERI1
 70
     0
  9
$USERI2
 70
     0
  9
$USERI3
 70
     0
  9
$USERI4
 70
     0
  9
$USERI5
 70
     0
  9
$USERR1
 40
0.0
  9
$USERR2
 40
0.0
  9
$USERR3
 40
0.0
  9
$USERR4
 40
0.0
  9
$USERR5
 40
0.0
  9
$WORLDVIEW
 70
     1
  9
$SHADEDGE
 70
     3
  9
$SHADEDIF
 70
    70
  9
$TILEMODE
 70
     1
  9
$MAXACTVP
 70
    16
  9
$PINSBASE
 10
0.0
 20
0.0
 30
0.0
  9
$PLIMCHECK
 70
     0
  9
$PEXTMIN
 10
1.000000000000000E+20
 20
1.000000000000000E+20
 30
1.000000000000000E+20
  9
$PEXTMAX
 10
-1.000000000000000E+20
 20
-1.000000000000000E+20
 30
-1.000000000000000E+20
  9
$PLIMMIN
 10
0.0
 20
0.0
  9
$PLIMMAX
 10
420.0
 20
297.0
  9
$UNITMODE
 70
     0
  9
$VISRETAIN
 70
     0
  9
$PLINEGEN
 70
     0
  9
$PSLTSCALE
 70
     0
  9
$TREEDEPTH
 70
  3020
  9
$CMLSTYLE
  2
STANDARD
  9
$CMLJUST
 70
     0
  9
$CMLSCALE
 40
1.0
  9
$PROXYGRAPHICS
 70
     1
  9
$MEASUREMENT
 70
     0
  9
$CELWEIGHT
370
    -1
  9
$ENDCAPS
280
     0
  9
$JOINSTYLE
280
     0
  9
$LWDISPLAY
290
     0
  9
$INSUNITS
 70
     0
  9
$HYPERLINKBASE
  1

  9
$STYLESHEET
  1

  9
$XEDIT
290
     1
  9
$CEPSNTYPE
380
     0
  9
$PSTYLEMODE
290
     1
  9
$FINGERPRINTGUID
  2
{46E219B3-E30E-4481-99EF-8F308B9BB594}
  9
$VERSIONGUID
  2
{60521271-6E81-4CF8-BCEE-876A91B2AA6A}
  9
$EXTNAMES
290
     1
  9
$PSVPSCALE
 40
0.0
  9
$OLESTARTUP
290
     0
  0
ENDSEC
  0
SECTION
  2
CLASSES
  0
CLASS
  1
ACDBDICTIONARYWDFLT
  2
AcDbDictionaryWithDefault
  3
ObjectDBX Classes
 90
        0
280
     0
281
     0
  0
CLASS
  1
ACDBPLACEHOLDER
  2
AcDbPlaceHolder
  3
ObjectDBX Classes
 90
        0
280
     0
281
     0
  0
CLASS
  1
LAYOUT
  2
AcDbLayout
  3
ObjectDBX Classes
 90
        0
280
     0
281
     0
  0
CLASS
  1
DICTIONARYVAR
  2
AcDbDictionaryVar
  3
ObjectDBX Classes
 90
        0
280
     0
281
     0
  0
CLASS
  1
MATERIAL
  2
AcDbMaterial
  3
ObjectDBX Classes
 90
     1153
280
     0
281
     0
  0
CLASS
  1
VISUALSTYLE
  2
AcDbVisualStyle
  3
ObjectDBX Classes
 90
     4095
280
     0
281
     0
  0
CLASS
  1
TABLESTYLE
  2
AcDbTableStyle
  3
ObjectDBX Classes
 90
     4095
280
     0
281
     0
  0
CLASS
  1
SCALE
  2
AcDbScale
  3
ObjectDBX Classes
 90
     1153
280
     0
281
     0
  0
CLASS
  1
MLEADERSTYLE
  2
AcDbMLeaderStyle
  3
ACDB_MLEADERSTYLE_CLASS
 90
     4095
280
     0
281
     0
  0
CLASS
  1
ACDBSECTIONVIEWSTYLE
  2
AcDbSectionViewStyle
  3
ObjectDBX Classes
 90
     1025
280
     0
281
     0
  0
CLASS
  1
ACDBDETAILVIEWSTYLE
  2
AcDbDetailViewStyle
  3
ObjectDBX Classes
 90
     1025
280
     0
281
     0
  0
CLASS
  1
CELLSTYLEMAP
  2
AcDbCellStyleMap
  3
ObjectDBX Classes
 90
     1152
280
     0
281
     0
  0
ENDSEC
  0
SECTION
  2
TABLES
  0
TABLE
  2
VPORT
  5
9873
330
0
100
AcDbSymbolTable
 70
     1
  0
VPORT
  5
9AFB
330
9873
100
AcDbSymbolTableRecord
100
AcDbViewportTableRecord
  2
*ACTIVE
 70
     0
 10
0.0
 20
0.0
 11
1.0
 21
1.0
 12
247.0370420860062
 22
124.7528692742958
 13
0.0
 23
0.0
 14
10.0
 24
10.0
 15
10.0
 25
10.0
 16
0.0
 26
0.0
 36
1.0
 17
0.0
 27
0.0
 37
0.0
 40
231.7476018353006
 41
1.899603698811096
 42
50.0
 43
0.0
 44
0.0
 50
0.0
 51
0.0
 71
     0
 72
   100
 73
     1
 74
     0
 75
     0
 76
     0
 77
     0
 78
     0
281
     0
 65
     1
110
0.0
120
0.0
130
0.0
111
1.0
121
0.0
131
0.0
112
0.0
122
1.0
132
0.0
 79
     0
146
0.0
1001
ACAD_NAV_VCDISPLAY
1070
     3
  0
ENDTAB
  0
TABLE
  2
LTYPE
  5
9870
330
0
100
AcDbSymbolTable
 70
     4
  0
LTYPE
  5
987E
330
9870
100
AcDbSymbolTableRecord
100
AcDbLinetypeTableRecord
  2
BYBLOCK
 70
     0
  3

 72
    65
 73
     0
 40
0.0
  0
LTYPE
  5
987F
330
9870
100
AcDbSymbolTableRecord
100
AcDbLinetypeTableRecord
  2
BYLAYER
 70
     0
  3

 72
    65
 73
     0
 40
0.0
  0
LTYPE
  5
9880
330
9870
100
AcDbSymbolTableRecord
100
AcDbLinetypeTableRecord
  2
CONTINUOUS
 70
     0
  3
Solid line
 72
    65
 73
     0
 40
0.0
  0
LTYPE
  5
988E
330
9870
100
AcDbSymbolTableRecord
100
AcDbLinetypeTableRecord
  2
DASHED
 70
     0
  3
__ __ __ __ __ __ __ __ __ __ __ __ __ __ __ __
 72
    65
 73
     2
 40
0.75
 49
0.5
 74
     0
 49
-0.25
 74
     0
  0
LTYPE
  5
988F
330
9870
100
AcDbSymbolTableRecord
100
AcDbLinetypeTableRecord
  2
CENTER
 70
     0
  3
____ _ ____ _ ____ _ ____ _ ____ _ ____ _ ____ 
 72
    65
 73
     4
 40
2.0
 49
1.25
 74
     0
 49
-0.25
 74
     0
 49
0.25
 74
     0
 49
-0.25
 74
     0
  0
LTYPE
  5
9890
330
9870
100
AcDbSymbolTableRecord
100
AcDbLinetypeTableRecord
  2
PHANTOM
 70
     0
  3
______  __  __  ______  __  __  ______  __  __ 
 72
    65
 73
     6
 40
2.5
 49
1.25
 74
     0
 49
-0.25
 74
     0
 49
0.25
 74
     0
 49
-0.25
 74
     0
 49
0.25
 74
     0
 49
-0.25
 74
     0
  0
ENDTAB
  0
TABLE
  2
LAYER
  5
986D
330
0
100
AcDbSymbolTable
 70
     8
  0
LAYER
  5
987B
102
{ACAD_XDICTIONARY
360
9B54
102
}
330
986D
100
AcDbSymbolTableRecord
100
AcDbLayerTableRecord
  2
0
 70
     0
 62
     7
  6
CONTINUOUS
370
    -3
390
9B02
  0
LAYER
  5
9891
102
{ACAD_XDICTIONARY
360
9B56
102
}
330
986D
100
AcDbSymbolTableRecord
100
AcDbLayerTableRecord
  2
4
 70
     0
 62
     1
  6
CENTER
370
    -3
390
9B02
  0
LAYER
  5
9892
102
{ACAD_XDICTIONARY
360
9B58
102
}
330
986D
100
AcDbSymbolTableRecord
100
AcDbLayerTableRecord
  2
5
 70
     0
 62
     6
  6
PHANTOM
370
    -3
390
9B02
  0
LAYER
  5
9893
102
{ACAD_XDICTIONARY
360
9B5A
102
}
330
986D
100
AcDbSymbolTableRecord
100
AcDbLayerTableRecord
  2
1
 70
     0
 62
     7
  6
CONTINUOUS
370
    -3
390
9B02
  0
LAYER
  5
9894
102
{ACAD_XDICTIONARY
360
9B5C
102
}
330
986D
100
AcDbSymbolTableRecord
100
AcDbLayerTableRecord
  2
2
 70
     0
 62
     4
  6
CONTINUOUS
370
    -3
390
9B02
  0
LAYER
  5
9895
102
{ACAD_XDICTIONARY
360
9B5E
102
}
330
986D
100
AcDbSymbolTableRecord
100
AcDbLayerTableRecord
  2
3
 70
     0
 62
     2
  6
DASHED
370
    -3
390
9B02
  0
LAYER
  5
9896
102
{ACAD_XDICTIONARY
360
9B60
102
}
330
986D
100
AcDbSymbolTableRecord
100
AcDbLayerTableRecord
  2
6
 70
     0
 62
     5
  6
CONTINUOUS
370
    -3
390
9B02
  0
LAYER
  5
9897
102
{ACAD_XDICTIONARY
360
9B62
102
}
330
986D
100
AcDbSymbolTableRecord
100
AcDbLayerTableRecord
  2
7
 70
     0
 62
     3
  6
CONTINUOUS
370
    -3
390
9B02
  0
ENDTAB
  0
TABLE
  2
STYLE
  5
986E
330
0
100
AcDbSymbolTable
 70
     1
  0
STYLE
  5
987C
330
986E
100
AcDbSymbolTableRecord
100
AcDbTextStyleTableRecord
  2
STANDARD
 70
     0
 40
0.0
 41
1.0
 50
0.0
 71
     0
 42
5.0
  3
txt
  4

  0
ENDTAB
  0
TABLE
  2
VIEW
  5
9871
330
0
100
AcDbSymbolTable
 70
     0
  0
ENDTAB
  0
TABLE
  2
UCS
  5
9872
330
0
100
AcDbSymbolTable
 70
     0
  0
ENDTAB
  0
TABLE
  2
APPID
  5
9874
330
0
100
AcDbSymbolTable
 70
     3
  0
APPID
  5
987D
330
9874
100
AcDbSymbolTableRecord
100
AcDbRegAppTableRecord
  2
ACAD
 70
     0
  0
APPID
  5
9B6E
330
9874
100
AcDbSymbolTableRecord
100
AcDbRegAppTableRecord
  2
ACAD_NAV_VCDISPLAY
 70
     0
  0
APPID
  5
9BA7
330
9874
100
AcDbSymbolTableRecord
100
AcDbRegAppTableRecord
  2
ACAD_MLEADERVER
 70
     0
  0
ENDTAB
  0
TABLE
  2
DIMSTYLE
  5
9875
330
0
100
AcDbSymbolTable
 70
     1
100
AcDbDimStyleTable
 71
     0
  0
DIMSTYLE
105
9899
330
9875
100
AcDbSymbolTableRecord
100
AcDbDimStyleTableRecord
  2
STANDARD
 70
     0
 41
3.0
 42
1.0
 43
10.0
 44
1.0
 73
     0
 74
     0
 77
     3
 78
     8
140
3.2
141
0.0
147
1.0
172
     1
173
     1
284
     8
285
     8
286
     8
340
987C
  0
ENDTAB
  0
TABLE
  2
BLOCK_RECORD
  5
986C
330
0
100
AcDbSymbolTable
 70
     0
  0
BLOCK_RECORD
  5
9889
102
{ACAD_XDICTIONARY
360
9A9F
102
}
330
986C
100
AcDbSymbolTableRecord
100
AcDbBlockTableRecord
  2
*MODEL_SPACE
340
9B50
  0
BLOCK_RECORD
  5
9885
102
{ACAD_XDICTIONARY
360
9A9D
102
}
330
986C
100
AcDbSymbolTableRecord
100
AcDbBlockTableRecord
  2
*PAPER_SPACE
340
9B51
  0
ENDTAB
  0
ENDSEC
  0
SECTION
  2
BLOCKS
  0
BLOCK
  5
988A
330
9889
100
AcDbEntity
  8
0
100
AcDbBlockBegin
  2
*MODEL_SPACE
 70
     0
 10
0.0
 20
0.0
 30
0.0
  3
*MODEL_SPACE
  1

  0
ENDBLK
  5
988B
330
9889
100
AcDbEntity
  8
0
100
AcDbBlockEnd
  0
BLOCK
  5
9886
330
9885
100
AcDbEntity
 67
     1
  8
0
100
AcDbBlockBegin
  2
*PAPER_SPACE
 70
     0
 10
0.0
 20
0.0
 30
0.0
  3
*PAPER_SPACE
  1

  0
ENDBLK
  5
9887
330
9885
100
AcDbEntity
 67
     1
  8
0
100
AcDbBlockEnd
  0
ENDSEC
  0
SECTION
  2
ENTITIES
  0
TEXT
  5
98A1
330
9889
100
AcDbEntity
  8
7
  6
Continuous
100
AcDbText
 10
10.0
 20
18.0
 30
0.0
 40
3.0
  1
TYPE No.TL-269-3
100
AcDbText
  0
TEXT
  5
98A2
330
9889
100
AcDbEntity
  8
7
  6
Continuous
100
AcDbText
 10
10.0
 20
26.0
 30
0.0
 40
3.0
  1
CODE No.1780
100
AcDbText
  0
TEXT
  5
98A3
330
9889
100
AcDbEntity
  8
1
  6
Continuous
100
AcDbText
 10
10.0
 20
10.0
 30
0.0
 40
1.399999999999999
  1
LAYER
100
AcDbText
  0
TEXT
  5
98A4
330
9889
100
AcDbEntity
  8
1
  6
Continuous
100
AcDbText
 10
17.97951099999998
 20
10.04873699999998
 30
0.0
 40
1.399999999999999
  1
1
100
AcDbText
  0
TEXT
  5
98A5
330
9889
100
AcDbEntity
  8
7
  6
Continuous
100
AcDbText
 10
29.97951099999999
 20
10.04873699999998
 30
0.0
 40
1.399999999999999
  1
7
100
AcDbText
  0
TEXT
  5
98A6
330
9889
100
AcDbEntity
  8
4
  6
CENTER
100
AcDbText
 10
23.97951099999999
 20
10.04873699999998
 30
0.0
 40
1.399999999999999
  1
4
100
AcDbText
  0
TEXT
  5
98A7
330
9889
100
AcDbEntity
  8
3
  6
DASHED
100
AcDbText
 10
21.979511
 20
10.04873699999998
 30
0.0
 40
1.399999999999999
  1
3
100
AcDbText
  0
TEXT
  5
98A8
330
9889
100
AcDbEntity
  8
2
  6
Continuous
100
AcDbText
 10
19.97951099999998
 20
10.04873699999998
 30
0.0
 40
1.399999999999999
  1
2
100
AcDbText
  0
TEXT
  5
98A9
330
9889
100
AcDbEntity
  8
6
  6
Continuous
100
AcDbText
 10
27.979511
 20
10.04873699999998
 30
0.0
 40
1.399999999999999
  1
6
100
AcDbText
  0
TEXT
  5
98AA
330
9889
100
AcDbEntity
  8
5
  6
PHANTOM
100
AcDbText
 10
25.97951099999999
 20
10.04873699999998
 30
0.0
 40
1.399999999999999
  1
5
100
AcDbText
  0
LINE
  5
98AB
330
9889
100
AcDbEntity
  8
1
  6
Continuous
100
AcDbLine
 10
30.886236
 20
144.748257
 30
0.0
 11
30.886236
 21
139.631257
 31
0.0
  0
LINE
  5
98AC
330
9889
100
AcDbEntity
  8
1
  6
Continuous
100
AcDbLine
 10
16.886236
 20
144.748257
 30
0.0
 11
16.886236
 21
139.631257
 31
0.0
  0
LINE
  5
98AD
330
9889
100
AcDbEntity
  8
1
  6
Continuous
100
AcDbLine
 10
30.886236
 20
144.748257
 30
0.0
 11
18.78493599999998
 21
144.748257
 31
0.0
  0
LINE
  5
98AE
330
9889
100
AcDbEntity
  8
1
  6
Continuous
100
AcDbLine
 10
153.3411279999999
 20
144.748257
 30
0.0
 11
155.553536
 21
144.748257
 31
0.0
  0
LINE
  5
98AF
330
9889
100
AcDbEntity
  8
1
  6
Continuous
100
AcDbLine
 10
154.3535359999999
 20
107.748257
 30
0.0
 11
155.553536
 21
107.748257
 31
0.0
  0
LINE
  5
98B0
330
9889
100
AcDbEntity
  8
1
  6
Continuous
100
AcDbLine
 10
155.553536
 20
144.748257
 30
0.0
 11
155.553536
 21
107.748257
 31
0.0
  0
LINE
  5
98B1
330
9889
100
AcDbEntity
  8
1
  6
Continuous
100
AcDbLine
 10
153.9745359999997
 20
139.248257
 30
0.0
 11
155.553536
 21
139.248257
 31
0.0
  0
LINE
  5
98B2
330
9889
100
AcDbEntity
  8
1
  6
Continuous
100
AcDbLine
 10
154.3535359999999
 20
139.248257
 30
0.0
 11
154.3535359999999
 21
126.548257
 31
0.0
  0
LINE
  5
98B3
330
9889
100
AcDbEntity
  8
1
  6
Continuous
100
AcDbLine
 10
153.964536
 20
119.448257
 30
0.0
 11
155.553536
 21
119.448257
 31
0.0
  0
LINE
  5
98B4
330
9889
100
AcDbEntity
  8
1
  6
Continuous
100
AcDbLine
 10
153.967536
 20
126.548257
 30
0.0
 11
155.553536
 21
126.548257
 31
0.0
  0
LINE
  5
98B5
330
9889
100
AcDbEntity
  8
1
  6
Continuous
100
AcDbLine
 10
30.886236
 20
235.848257
 30
0.0
 11
30.886236
 21
235.048257
 31
0.0
  0
LINE
  5
98B6
330
9889
100
AcDbEntity
  8
1
  6
Continuous
100
AcDbLine
 10
16.886236
 20
232.0482569999998
 30
0.0
 11
16.886236
 21
229.0482569999999
 31
0.0
  0
LINE
  5
98B7
330
9889
100
AcDbEntity
  8
1
  6
Continuous
100
AcDbLine
 10
29.68623599999999
 20
237.0482569999999
 30
0.0
 11
18.08623599999998
 21
237.0482569999999
 31
0.0
  0
LINE
  5
98B8
330
9889
100
AcDbEntity
  8
1
  6
Continuous
100
AcDbLine
 10
30.886236
 20
229.0482569999999
 30
0.0
 11
29.68623599999999
 21
229.0482569999999
 31
0.0
  0
LINE
  5
98B9
330
9889
100
AcDbEntity
  8
1
  6
Continuous
100
AcDbLine
 10
29.68623599999999
 20
235.848257
 30
0.0
 11
18.58623599999998
 21
235.848257
 31
0.0
  0
LINE
  5
98BA
330
9889
100
AcDbEntity
  8
1
  6
Continuous
100
AcDbLine
 10
29.68623599999999
 20
235.848257
 30
0.0
 11
29.68623599999999
 21
235.048257
 31
0.0
  0
LINE
  5
98BB
330
9889
100
AcDbEntity
  8
1
  6
Continuous
100
AcDbLine
 10
18.08623599999998
 20
235.2482569999998
 30
0.0
 11
18.08623599999998
 21
235.048257
 31
0.0
  0
LINE
  5
98BC
330
9889
100
AcDbEntity
  8
4
  6
CENTER
100
AcDbLine
 10
23.886236
 20
239.4982569999999
 30
0.0
 11
23.886236
 21
226.4532569999999
 31
0.0
  0
LINE
  5
98BD
330
9889
100
AcDbEntity
  8
1
  6
Continuous
100
AcDbLine
 10
18.08623599999998
 20
229.0482569999999
 30
0.0
 11
16.886236
 21
229.0482569999999
 31
0.0
  0
LINE
  5
98BE
330
9889
100
AcDbEntity
  8
1
  6
Continuous
100
AcDbLine
 10
31.886236
 20
145.246257
 30
0.0
 11
31.886236
 21
108.2062569999999
 31
0.0
  0
LINE
  5
98BF
330
9889
100
AcDbEntity
  8
1
  6
Continuous
100
AcDbLine
 10
15.886236
 20
145.246257
 30
0.0
 11
15.886236
 21
108.2062569999999
 31
0.0
  0
LINE
  5
98C0
330
9889
100
AcDbEntity
  8
1
  6
Continuous
100
AcDbLine
 10
31.086236
 20
145.246257
 30
0.0
 11
31.086236
 21
139.631257
 31
0.0
  0
LINE
  5
98C1
330
9889
100
AcDbEntity
  8
1
  6
Continuous
100
AcDbLine
 10
16.68623599999999
 20
145.246257
 30
0.0
 11
16.68623599999999
 21
139.631257
 31
0.0
  0
LINE
  5
98C2
330
9889
100
AcDbEntity
  8
1
  6
Continuous
100
AcDbLine
 10
146.8775359999999
 20
139.482257
 30
0.0
 11
151.5855359999999
 21
114.744257
 31
0.0
  0
LINE
  5
98C3
330
9889
100
AcDbEntity
  8
1
  6
Continuous
100
AcDbLine
 10
146.8775359999999
 20
139.482257
 30
0.0
 11
147.8605359999999
 21
139.6692569999999
 31
0.0
  0
LINE
  5
98C4
330
9889
100
AcDbEntity
  8
1
  6
Continuous
100
AcDbLine
 10
147.532536
 20
141.388257
 30
0.0
 11
147.8605359999999
 21
139.6692569999999
 31
0.0
  0
LINE
  5
98C5
330
9889
100
AcDbEntity
  8
1
  6
Continuous
100
AcDbLine
 10
150.191536
 20
106.0232569999999
 30
0.0
 11
150.891536
 21
105.635257
 31
0.0
  0
LINE
  5
98C6
330
9889
100
AcDbEntity
  8
1
  6
Continuous
100
AcDbLine
 10
153.961536
 20
114.186257
 30
0.0
 11
153.975536
 21
141.994257
 31
0.0
  0
LINE
  5
98C7
330
9889
100
AcDbEntity
  8
1
  6
Continuous
100
AcDbLine
 10
150.891536
 20
105.636257
 30
0.0
 11
151.816536
 21
107.039257
 31
0.0
  0
LINE
  5
98C8
330
9889
100
AcDbEntity
  8
1
  6
Continuous
100
AcDbLine
 10
32.78623599999999
 20
140.3482569999999
 30
0.0
 11
32.78623599999999
 21
143.3482569999999
 31
0.0
  0
LINE
  5
98C9
330
9889
100
AcDbEntity
  8
1
  6
Continuous
100
AcDbLine
 10
16.68623599999999
 20
140.3482569999999
 30
0.0
 11
16.886236
 21
140.3482569999999
 31
0.0
  0
LINE
  5
98CA
330
9889
100
AcDbEntity
  8
1
  6
Continuous
100
AcDbLine
 10
16.68623599999999
 20
143.3482569999999
 30
0.0
 11
16.886236
 21
143.3482569999999
 31
0.0
  0
LINE
  5
98CB
330
9889
100
AcDbEntity
  8
1
  6
Continuous
100
AcDbLine
 10
31.886236
 20
134.113257
 30
0.0
 11
32.94063599999999
 21
134.113257
 31
0.0
  0
LINE
  5
98CC
330
9889
100
AcDbEntity
  8
1
  6
Continuous
100
AcDbLine
 10
31.886236
 20
137.113257
 30
0.0
 11
32.936236
 21
137.113257
 31
0.0
  0
LINE
  5
98CD
330
9889
100
AcDbEntity
  8
4
  6
CENTER
100
AcDbLine
 10
83.88653599999997
 20
173.2492569999998
 30
0.0
 11
83.88653599999997
 21
152.249257
 31
0.0
  0
LINE
  5
98CE
330
9889
100
AcDbEntity
  8
1
  6
Continuous
100
AcDbLine
 10
77.38653599999998
 20
154.249257
 30
0.0
 11
90.38653600000001
 21
154.249257
 31
0.0
  0
LINE
  5
98CF
330
9889
100
AcDbEntity
  8
1
  6
Continuous
100
AcDbLine
 10
90.38653600000001
 20
159.249257
 30
0.0
 11
90.38653600000001
 21
154.249257
 31
0.0
  0
LINE
  5
98D0
330
9889
100
AcDbEntity
  8
1
  6
Continuous
100
AcDbLine
 10
77.38653599999998
 20
159.249257
 30
0.0
 11
77.38653599999998
 21
154.249257
 31
0.0
  0
LINE
  5
98D1
330
9889
100
AcDbEntity
  8
1
  6
Continuous
100
AcDbLine
 10
90.38653600000001
 20
159.249257
 30
0.0
 11
95.331536
 21
163.870257
 31
0.0
  0
LINE
  5
98D2
330
9889
100
AcDbEntity
  8
1
  6
Continuous
100
AcDbLine
 10
77.38653599999998
 20
159.249257
 30
0.0
 11
72.441536
 21
163.870257
 31
0.0
  0
LINE
  5
98D3
330
9889
100
AcDbEntity
  8
4
  6
CENTER
100
AcDbLine
 10
79.13653599999998
 20
168.749257
 30
0.0
 11
79.13653599999998
 21
161.749257
 31
0.0
  0
LINE
  5
98D4
330
9889
100
AcDbEntity
  8
4
  6
CENTER
100
AcDbLine
 10
88.63653599999997
 20
168.749257
 30
0.0
 11
88.63653599999997
 21
161.749257
 31
0.0
  0
LINE
  5
98D5
330
9889
100
AcDbEntity
  8
4
  6
CENTER
100
AcDbLine
 10
75.63653599999998
 20
165.2492569999997
 30
0.0
 11
92.13653599999997
 21
165.2492569999997
 31
0.0
  0
LINE
  5
98D6
330
9889
100
AcDbEntity
  8
1
  6
Continuous
100
AcDbLine
 10
79.38653599999998
 20
158.749257
 30
0.0
 11
88.38653599999997
 21
158.749257
 31
0.0
  0
LINE
  5
98D7
330
9889
100
AcDbEntity
  8
1
  6
Continuous
100
AcDbLine
 10
79.38653599999998
 20
158.2882569999999
 30
0.0
 11
88.38653599999997
 21
158.2882569999999
 31
0.0
  0
LINE
  5
98D8
330
9889
100
AcDbEntity
  8
4
  6
CENTER
100
AcDbLine
 10
153.3535359999999
 20
134.749257
 30
0.0
 11
156.553536
 21
134.749257
 31
0.0
  0
LINE
  5
98D9
330
9889
100
AcDbEntity
  8
1
  6
Continuous
100
AcDbLine
 10
271.5495359999998
 20
144.748257
 30
0.0
 11
271.5495359999998
 21
139.248257
 31
0.0
  0
LINE
  5
98DA
330
9889
100
AcDbEntity
  8
1
  6
Continuous
100
AcDbLine
 10
257.549536
 20
144.748257
 30
0.0
 11
257.549536
 21
139.248257
 31
0.0
  0
LINE
  5
98DB
330
9889
100
AcDbEntity
  8
1
  6
Continuous
100
AcDbLine
 10
271.5495359999998
 20
144.748257
 30
0.0
 11
257.549536
 21
144.748257
 31
0.0
  0
LINE
  5
98DC
330
9889
100
AcDbEntity
  8
1
  6
Continuous
100
AcDbLine
 10
271.5495359999998
 20
139.248257
 30
0.0
 11
269.5495359999998
 21
139.248257
 31
0.0
  0
LINE
  5
98DD
330
9889
100
AcDbEntity
  8
1
  6
Continuous
100
AcDbLine
 10
269.5495359999998
 20
139.248257
 30
0.0
 11
269.5495359999998
 21
137.1482569999997
 31
0.0
  0
LINE
  5
98DE
330
9889
100
AcDbEntity
  8
1
  6
Continuous
100
AcDbLine
 10
259.549536
 20
139.248257
 30
0.0
 11
259.549536
 21
137.1482569999997
 31
0.0
  0
LINE
  5
98DF
330
9889
100
AcDbEntity
  8
1
  6
Continuous
100
AcDbLine
 10
270.7995359999998
 20
137.1482569999997
 30
0.0
 11
269.5495359999998
 21
137.1482569999997
 31
0.0
  0
LINE
  5
98E0
330
9889
100
AcDbEntity
  8
1
  6
Continuous
100
AcDbLine
 10
259.549536
 20
139.248257
 30
0.0
 11
257.549536
 21
139.248257
 31
0.0
  0
LINE
  5
98E1
330
9889
100
AcDbEntity
  8
1
  6
Continuous
100
AcDbLine
 10
259.549536
 20
137.1482569999997
 30
0.0
 11
258.2995359999998
 21
137.1482569999997
 31
0.0
  0
LINE
  5
98E2
330
9889
100
AcDbEntity
  8
1
  6
Continuous
100
AcDbLine
 10
258.2995359999998
 20
130.7482569999999
 30
0.0
 11
265.099536
 21
130.7482569999999
 31
0.0
  0
LINE
  5
98E3
330
9889
100
AcDbEntity
  8
1
  6
Continuous
100
AcDbLine
 10
258.3455359999999
 20
114.748257
 30
0.0
 11
265.099536
 21
114.748257
 31
0.0
  0
LINE
  5
98E4
330
9889
100
AcDbEntity
  8
1
  6
Continuous
100
AcDbLine
 10
263.899536
 20
126.548257
 30
0.0
 11
265.099536
 21
126.548257
 31
0.0
  0
LINE
  5
98E5
330
9889
100
AcDbEntity
  8
1
  6
Continuous
100
AcDbLine
 10
258.2995359999998
 20
137.1482569999997
 30
0.0
 11
258.2995359999998
 21
130.7482569999999
 31
0.0
  0
LINE
  5
98E6
330
9889
100
AcDbEntity
  8
1
  6
Continuous
100
AcDbLine
 10
270.7995359999998
 20
137.1482569999997
 30
0.0
 11
270.7995359999998
 21
113.998257
 31
0.0
  0
LINE
  5
98E7
330
9889
100
AcDbEntity
  8
1
  6
Continuous
100
AcDbLine
 10
263.899536
 20
119.448257
 30
0.0
 11
265.099536
 21
119.448257
 31
0.0
  0
LINE
  5
98E8
330
9889
100
AcDbEntity
  8
1
  6
Continuous
100
AcDbLine
 10
265.099536
 20
130.7482569999999
 30
0.0
 11
265.099536
 21
126.548257
 31
0.0
  0
LINE
  5
98E9
330
9889
100
AcDbEntity
  8
1
  6
Continuous
100
AcDbLine
 10
263.899536
 20
126.548257
 30
0.0
 11
263.899536
 21
119.448257
 31
0.0
  0
LINE
  5
98EA
330
9889
100
AcDbEntity
  8
1
  6
Continuous
100
AcDbLine
 10
272.549536
 20
145.246257
 30
0.0
 11
272.549536
 21
107.988257
 31
0.0
  0
LINE
  5
98EB
330
9889
100
AcDbEntity
  8
1
  6
Continuous
100
AcDbLine
 10
256.5495359999999
 20
145.246257
 30
0.0
 11
256.5495359999999
 21
107.988257
 31
0.0
  0
LINE
  5
98EC
330
9889
100
AcDbEntity
  8
1
  6
Continuous
100
AcDbLine
 10
271.749536
 20
145.246257
 30
0.0
 11
271.749536
 21
107.473257
 31
0.0
  0
LINE
  5
98ED
330
9889
100
AcDbEntity
  8
1
  6
Continuous
100
AcDbLine
 10
257.3495359999999
 20
145.246257
 30
0.0
 11
257.3495359999999
 21
107.473257
 31
0.0
  0
LINE
  5
98EE
330
9889
100
AcDbEntity
  8
1
  6
Continuous
100
AcDbLine
 10
258.2995359999998
 20
114.748257
 30
0.0
 11
258.2995359999998
 21
113.998257
 31
0.0
  0
LINE
  5
98EF
330
9889
100
AcDbEntity
  8
4
  6
CENTER
100
AcDbLine
 10
324.549536
 20
173.2492569999998
 30
0.0
 11
324.549536
 21
152.249257
 31
0.0
  0
LINE
  5
98F0
330
9889
100
AcDbEntity
  8
1
  6
Continuous
100
AcDbLine
 10
318.049536
 20
154.249257
 30
0.0
 11
331.0495359999998
 21
154.249257
 31
0.0
  0
LINE
  5
98F1
330
9889
100
AcDbEntity
  8
1
  6
Continuous
100
AcDbLine
 10
331.0495359999998
 20
159.249257
 30
0.0
 11
331.0495359999998
 21
154.249257
 31
0.0
  0
LINE
  5
98F2
330
9889
100
AcDbEntity
  8
1
  6
Continuous
100
AcDbLine
 10
318.049536
 20
159.249257
 30
0.0
 11
318.049536
 21
154.249257
 31
0.0
  0
LINE
  5
98F3
330
9889
100
AcDbEntity
  8
1
  6
Continuous
100
AcDbLine
 10
331.0495359999998
 20
159.249257
 30
0.0
 11
335.9945359999998
 21
163.870257
 31
0.0
  0
LINE
  5
98F4
330
9889
100
AcDbEntity
  8
1
  6
Continuous
100
AcDbLine
 10
318.049536
 20
159.249257
 30
0.0
 11
313.1045359999999
 21
163.870257
 31
0.0
  0
LINE
  5
98F5
330
9889
100
AcDbEntity
  8
4
  6
CENTER
100
AcDbLine
 10
319.799536
 20
168.749257
 30
0.0
 11
319.799536
 21
161.749257
 31
0.0
  0
LINE
  5
98F6
330
9889
100
AcDbEntity
  8
4
  6
CENTER
100
AcDbLine
 10
329.2995359999999
 20
168.749257
 30
0.0
 11
329.2995359999999
 21
161.749257
 31
0.0
  0
LINE
  5
98F7
330
9889
100
AcDbEntity
  8
4
  6
CENTER
100
AcDbLine
 10
316.299536
 20
165.2492569999997
 30
0.0
 11
332.799536
 21
165.2492569999997
 31
0.0
  0
LINE
  5
98F8
330
9889
100
AcDbEntity
  8
4
  6
CENTER
100
AcDbLine
 10
264.5495359999998
 20
160.107257
 30
0.0
 11
264.5495359999998
 21
103.635257
 31
0.0
  0
LINE
  5
98F9
330
9889
100
AcDbEntity
  8
1
  6
Continuous
100
AcDbLine
 10
31.886236
 20
143.3482569999999
 30
0.0
 11
32.78623599999999
 21
143.3482569999999
 31
0.0
  0
LINE
  5
98FA
330
9889
100
AcDbEntity
  8
1
  6
Continuous
100
AcDbLine
 10
31.886236
 20
140.3482569999999
 30
0.0
 11
32.78623599999999
 21
140.3482569999999
 31
0.0
  0
LINE
  5
98FB
330
9889
100
AcDbEntity
  8
1
  6
Continuous
100
AcDbLine
 10
29.39523599999999
 20
143.3482569999999
 30
0.0
 11
29.68623599999999
 21
143.3482569999999
 31
0.0
  0
LINE
  5
98FC
330
9889
100
AcDbEntity
  8
1
  6
Continuous
100
AcDbLine
 10
30.886236
 20
140.3482569999999
 30
0.0
 11
31.086236
 21
140.3482569999999
 31
0.0
  0
LINE
  5
98FD
330
9889
100
AcDbEntity
  8
1
  6
Continuous
100
AcDbLine
 10
18.08623599999998
 20
143.3482569999999
 30
0.0
 11
18.73323599999998
 21
143.3482569999999
 31
0.0
  0
LINE
  5
98FE
330
9889
100
AcDbEntity
  8
4
  6
CENTER
100
AcDbLine
 10
83.87053599999999
 20
227.5482569999998
 30
0.0
 11
83.87053599999999
 21
239.0482569999999
 31
0.0
  0
LINE
  5
98FF
330
9889
100
AcDbEntity
  8
1
  6
Continuous
100
AcDbLine
 10
95.870536
 20
237.0482569999999
 30
0.0
 11
71.870536
 21
237.0482569999999
 31
0.0
  0
LINE
  5
9900
330
9889
100
AcDbEntity
  8
1
  6
Continuous
100
AcDbLine
 10
95.870536
 20
235.5482569999999
 30
0.0
 11
71.870536
 21
235.5482569999999
 31
0.0
  0
LINE
  5
9901
330
9889
100
AcDbEntity
  8
1
  6
Continuous
100
AcDbLine
 10
90.370536
 20
229.5482569999999
 30
0.0
 11
77.370536
 21
229.5482569999999
 31
0.0
  0
LINE
  5
9902
330
9889
100
AcDbEntity
  8
1
  6
Continuous
100
AcDbLine
 10
71.870536
 20
235.5482569999999
 30
0.0
 11
71.870536
 21
237.0482569999999
 31
0.0
  0
LINE
  5
9903
330
9889
100
AcDbEntity
  8
1
  6
Continuous
100
AcDbLine
 10
95.870536
 20
235.5482569999999
 30
0.0
 11
95.870536
 21
237.0482569999999
 31
0.0
  0
LINE
  5
9904
330
9889
100
AcDbEntity
  8
1
  6
Continuous
100
AcDbLine
 10
77.370536
 20
229.5482569999999
 30
0.0
 11
77.370536
 21
235.5482569999999
 31
0.0
  0
LINE
  5
9905
330
9889
100
AcDbEntity
  8
1
  6
Continuous
100
AcDbLine
 10
90.370536
 20
229.5482569999999
 30
0.0
 11
90.370536
 21
235.5482569999999
 31
0.0
  0
LINE
  5
9906
330
9889
100
AcDbEntity
  8
1
  6
Continuous
100
AcDbLine
 10
90.370536
 20
230.9762569999997
 30
0.0
 11
77.370536
 21
230.9762569999997
 31
0.0
  0
LINE
  5
9907
330
9889
100
AcDbEntity
  8
1
  6
Continuous
100
AcDbLine
 10
17.78623599999998
 20
145.698257
 30
0.0
 11
16.886236
 21
145.698257
 31
0.0
  0
LINE
  5
9908
330
9889
100
AcDbEntity
  8
1
  6
Continuous
100
AcDbLine
 10
17.78623599999998
 20
144.9982569999999
 30
0.0
 11
16.886236
 21
144.9982569999999
 31
0.0
  0
LINE
  5
9909
330
9889
100
AcDbEntity
  8
1
  6
Continuous
100
AcDbLine
 10
16.886236
 20
145.698257
 30
0.0
 11
16.886236
 21
144.9982569999999
 31
0.0
  0
LINE
  5
990A
330
9889
100
AcDbEntity
  8
4
  6
CENTER
100
AcDbLine
 10
23.886236
 20
162.134025
 30
0.0
 11
23.886236
 21
103.635257
 31
0.0
  0
LINE
  5
990B
330
9889
100
AcDbEntity
  8
1
  6
Continuous
100
AcDbLine
 10
28.866236
 20
140.3482569999999
 30
0.0
 11
29.68623599999999
 21
140.3482569999999
 31
0.0
  0
LINE
  5
990C
330
9889
100
AcDbEntity
  8
4
  6
CENTER
100
AcDbLine
 10
275.5495359999998
 20
141.8482569999999
 30
0.0
 11
253.6495359999999
 21
141.8482569999999
 31
0.0
  0
LINE
  5
990D
330
9889
100
AcDbEntity
  8
1
  6
Continuous
100
AcDbLine
 10
258.659536
 20
126.658257
 30
0.0
 11
258.714536
 21
130.7482569999999
 31
0.0
  0
LINE
  5
990E
330
9889
100
AcDbEntity
  8
1
  6
Continuous
100
AcDbLine
 10
271.5495359999998
 20
145.698257
 30
0.0
 11
271.5495359999998
 21
144.9982569999999
 31
0.0
  0
LINE
  5
990F
330
9889
100
AcDbEntity
  8
1
  6
Continuous
100
AcDbLine
 10
259.359536
 20
126.6482569999999
 30
0.0
 11
259.414536
 21
130.7482569999999
 31
0.0
  0
LINE
  5
9910
330
9889
100
AcDbEntity
  8
1
  6
Continuous
100
AcDbLine
 10
270.849536
 20
144.9982569999999
 30
0.0
 11
271.5495359999998
 21
144.9982569999999
 31
0.0
  0
LINE
  5
9911
330
9889
100
AcDbEntity
  8
1
  6
Continuous
100
AcDbLine
 10
270.849536
 20
145.698257
 30
0.0
 11
271.5495359999998
 21
145.698257
 31
0.0
  0
LINE
  5
9912
330
9889
100
AcDbEntity
  8
1
  6
Continuous
100
AcDbLine
 10
258.659536
 20
126.658257
 30
0.0
 11
259.359536
 21
126.6482569999999
 31
0.0
  0
LINE
  5
9913
330
9889
100
AcDbEntity
  8
1
  6
Continuous
100
AcDbLine
 10
259.500536
 20
137.1482569999997
 30
0.0
 11
259.529536
 21
139.248257
 31
0.0
  0
LINE
  5
9914
330
9889
100
AcDbEntity
  8
1
  6
Continuous
100
AcDbLine
 10
258.8005359999999
 20
137.1482569999997
 30
0.0
 11
258.8295359999999
 21
139.248257
 31
0.0
  0
LINE
  5
9915
330
9889
100
AcDbEntity
  8
1
  6
Continuous
100
AcDbLine
 10
255.6495359999999
 20
140.3482569999999
 30
0.0
 11
255.6495359999999
 21
143.3482569999999
 31
0.0
  0
LINE
  5
9916
330
9889
100
AcDbEntity
  8
1
  6
Continuous
100
AcDbLine
 10
271.749536
 20
140.3482569999999
 30
0.0
 11
271.5495359999998
 21
140.3482569999999
 31
0.0
  0
LINE
  5
9917
330
9889
100
AcDbEntity
  8
1
  6
Continuous
100
AcDbLine
 10
271.749536
 20
143.3482569999999
 30
0.0
 11
271.5495359999998
 21
143.3482569999999
 31
0.0
  0
LINE
  5
9918
330
9889
100
AcDbEntity
  8
1
  6
Continuous
100
AcDbLine
 10
256.5495359999999
 20
140.3482569999999
 30
0.0
 11
255.6495359999999
 21
140.3482569999999
 31
0.0
  0
LINE
  5
9919
330
9889
100
AcDbEntity
  8
1
  6
Continuous
100
AcDbLine
 10
256.5495359999999
 20
143.3482569999999
 30
0.0
 11
255.6495359999999
 21
143.3482569999999
 31
0.0
  0
LINE
  5
991A
330
9889
100
AcDbEntity
  8
1
  6
Continuous
100
AcDbLine
 10
257.549536
 20
143.3482569999999
 30
0.0
 11
257.3495359999999
 21
143.3482569999999
 31
0.0
  0
LINE
  5
991B
330
9889
100
AcDbEntity
  8
1
  6
Continuous
100
AcDbLine
 10
257.549536
 20
140.3482569999999
 30
0.0
 11
257.3495359999999
 21
140.3482569999999
 31
0.0
  0
LINE
  5
991C
330
9889
100
AcDbEntity
  8
1
  6
Continuous
100
AcDbLine
 10
205.5535359999999
 20
171.249257
 30
0.0
 11
204.053536
 21
171.249257
 31
0.0
  0
LINE
  5
991D
330
9889
100
AcDbEntity
  8
1
  6
Continuous
100
AcDbLine
 10
205.5535359999999
 20
171.249257
 30
0.0
 11
205.5535359999999
 21
157.7492569999997
 31
0.0
  0
LINE
  5
991E
330
9889
100
AcDbEntity
  8
1
  6
Continuous
100
AcDbLine
 10
204.053536
 20
171.249257
 30
0.0
 11
204.053536
 21
157.7492569999997
 31
0.0
  0
LINE
  5
991F
330
9889
100
AcDbEntity
  8
1
  6
Continuous
100
AcDbLine
 10
199.481536
 20
158.749257
 30
0.0
 11
198.053536
 21
158.2882569999999
 31
0.0
  0
LINE
  5
9920
330
9889
100
AcDbEntity
  8
1
  6
Continuous
100
AcDbLine
 10
198.053536
 20
158.2882569999999
 30
0.0
 11
198.8125359999999
 21
156.4272569999999
 31
0.0
  0
LINE
  5
9921
330
9889
100
AcDbEntity
  8
1
  6
Continuous
100
AcDbLine
 10
199.481536
 20
158.749257
 30
0.0
 11
200.203536
 21
156.989257
 31
0.0
  0
LINE
  5
9922
330
9889
100
AcDbEntity
  8
4
  6
CENTER
100
AcDbLine
 10
202.053536
 20
165.2492569999997
 30
0.0
 11
207.5535359999999
 21
165.2492569999997
 31
0.0
  0
LINE
  5
9923
330
9889
100
AcDbEntity
  8
1
  6
Continuous
100
AcDbLine
 10
31.886236
 20
228.9982569999998
 30
0.0
 11
31.886236
 21
231.9943939999999
 31
0.0
  0
LINE
  5
9924
330
9889
100
AcDbEntity
  8
1
  6
Continuous
100
AcDbLine
 10
15.886236
 20
228.9982569999998
 30
0.0
 11
15.886236
 21
231.9943939999999
 31
0.0
  0
LINE
  5
9925
330
9889
100
AcDbEntity
  8
1
  6
Continuous
100
AcDbLine
 10
16.68623599999999
 20
228.9982569999998
 30
0.0
 11
16.68623599999999
 21
232.0482569999998
 31
0.0
  0
LINE
  5
9926
330
9889
100
AcDbEntity
  8
1
  6
Continuous
100
AcDbLine
 10
31.086236
 20
228.9982569999998
 30
0.0
 11
31.086236
 21
232.0482569999998
 31
0.0
  0
LINE
  5
9927
330
9889
100
AcDbEntity
  8
1
  6
Continuous
100
AcDbLine
 10
32.78623599999999
 20
230.7482569999999
 30
0.0
 11
32.78623599999999
 21
231.9120069999999
 31
0.0
  0
LINE
  5
9928
330
9889
100
AcDbEntity
  8
4
  6
CENTER
100
AcDbLine
 10
12.886236
 20
232.248257
 30
0.0
 11
34.78623599999998
 21
232.248257
 31
0.0
  0
LINE
  5
9929
330
9889
100
AcDbEntity
  8
1
  6
Continuous
100
AcDbLine
 10
16.68623599999999
 20
230.7482569999999
 30
0.0
 11
16.886236
 21
230.7482569999999
 31
0.0
  0
LINE
  5
992A
330
9889
100
AcDbEntity
  8
1
  6
Continuous
100
AcDbLine
 10
31.886236
 20
230.7482569999999
 30
0.0
 11
32.78623599999999
 21
230.7482569999999
 31
0.0
  0
LINE
  5
992B
330
9889
100
AcDbEntity
  8
1
  6
Continuous
100
AcDbLine
 10
30.886236
 20
230.7482569999999
 30
0.0
 11
31.086236
 21
230.7482569999999
 31
0.0
  0
LINE
  5
992C
330
9889
100
AcDbEntity
  8
1
  6
Continuous
100
AcDbLine
 10
18.08623599999998
 20
139.631257
 30
0.0
 11
18.08623599999998
 21
144.698257
 31
0.0
  0
LINE
  5
992D
330
9889
100
AcDbEntity
  8
1
  6
Continuous
100
AcDbLine
 10
29.68623599999999
 20
139.631257
 30
0.0
 11
29.68623599999999
 21
144.748257
 31
0.0
  0
LINE
  5
992E
330
9889
100
AcDbEntity
  8
1
  6
Continuous
100
AcDbLine
 10
18.09153599999998
 20
139.709257
 30
0.0
 11
18.86733599999998
 21
144.109257
 31
0.0
  0
LINE
  5
992F
330
9889
100
AcDbEntity
  8
1
  6
Continuous
100
AcDbLine
 10
18.788636
 20
139.631257
 30
0.0
 11
19.57813599999997
 21
144.109257
 31
0.0
  0
LINE
  5
9930
330
9889
100
AcDbEntity
  8
1
  6
Continuous
100
AcDbLine
 10
19.499436
 20
139.631257
 30
0.0
 11
20.28893599999999
 21
144.109257
 31
0.0
  0
LINE
  5
9931
330
9889
100
AcDbEntity
  8
1
  6
Continuous
100
AcDbLine
 10
20.21023599999999
 20
139.631257
 30
0.0
 11
20.99973599999998
 21
144.109257
 31
0.0
  0
LINE
  5
9932
330
9889
100
AcDbEntity
  8
1
  6
Continuous
100
AcDbLine
 10
20.92103599999997
 20
139.631257
 30
0.0
 11
21.710536
 21
144.109257
 31
0.0
  0
LINE
  5
9933
330
9889
100
AcDbEntity
  8
1
  6
Continuous
100
AcDbLine
 10
21.63183599999999
 20
139.631257
 30
0.0
 11
22.421336
 21
144.109257
 31
0.0
  0
LINE
  5
9934
330
9889
100
AcDbEntity
  8
1
  6
Continuous
100
AcDbLine
 10
22.34263599999999
 20
139.631257
 30
0.0
 11
23.132136
 21
144.109257
 31
0.0
  0
LINE
  5
9935
330
9889
100
AcDbEntity
  8
1
  6
Continuous
100
AcDbLine
 10
23.053436
 20
139.631257
 30
0.0
 11
23.84293599999999
 21
144.109257
 31
0.0
  0
LINE
  5
9936
330
9889
100
AcDbEntity
  8
1
  6
Continuous
100
AcDbLine
 10
23.764236
 20
139.631257
 30
0.0
 11
24.55373599999999
 21
144.109257
 31
0.0
  0
LINE
  5
9937
330
9889
100
AcDbEntity
  8
1
  6
Continuous
100
AcDbLine
 10
24.475036
 20
139.631257
 30
0.0
 11
25.26453599999999
 21
144.109257
 31
0.0
  0
LINE
  5
9938
330
9889
100
AcDbEntity
  8
1
  6
Continuous
100
AcDbLine
 10
25.18583599999999
 20
139.631257
 30
0.0
 11
25.975336
 21
144.109257
 31
0.0
  0
LINE
  5
9939
330
9889
100
AcDbEntity
  8
1
  6
Continuous
100
AcDbLine
 10
25.89663599999999
 20
139.631257
 30
0.0
 11
26.686136
 21
144.109257
 31
0.0
  0
LINE
  5
993A
330
9889
100
AcDbEntity
  8
1
  6
Continuous
100
AcDbLine
 10
26.60743599999999
 20
139.631257
 30
0.0
 11
27.396936
 21
144.109257
 31
0.0
  0
LINE
  5
993B
330
9889
100
AcDbEntity
  8
1
  6
Continuous
100
AcDbLine
 10
27.318236
 20
139.631257
 30
0.0
 11
28.107736
 21
144.109257
 31
0.0
  0
LINE
  5
993C
330
9889
100
AcDbEntity
  8
1
  6
Continuous
100
AcDbLine
 10
28.029036
 20
139.631257
 30
0.0
 11
28.81853599999999
 21
144.109257
 31
0.0
  0
LINE
  5
993D
330
9889
100
AcDbEntity
  8
1
  6
Continuous
100
AcDbLine
 10
28.73983599999998
 20
139.631257
 30
0.0
 11
29.50793599999999
 21
143.987257
 31
0.0
  0
LINE
  5
993E
330
9889
100
AcDbEntity
  8
1
  6
Continuous
100
AcDbLine
 10
29.589536
 20
139.631257
 30
0.0
 11
29.57713599999999
 21
140.3482569999999
 31
0.0
  0
LINE
  5
993F
330
9889
100
AcDbEntity
  8
1
  6
Continuous
100
AcDbLine
 10
28.889436
 20
139.631257
 30
0.0
 11
28.877036
 21
140.3482569999999
 31
0.0
  0
LINE
  5
9940
330
9889
100
AcDbEntity
  8
1
  6
Continuous
100
AcDbLine
 10
18.786236
 20
143.649257
 30
0.0
 11
18.786236
 21
144.698257
 31
0.0
  0
LINE
  5
9941
330
9889
100
AcDbEntity
  8
1
  6
Continuous
100
AcDbLine
 10
29.525336
 20
143.3482569999999
 30
0.0
 11
29.513236
 21
144.054257
 31
0.0
  0
LINE
  5
9942
330
9889
100
AcDbEntity
  8
1
  6
Continuous
100
AcDbLine
 10
30.886236
 20
143.3482569999999
 30
0.0
 11
31.086236
 21
143.3482569999999
 31
0.0
  0
LINE
  5
9943
330
9889
100
AcDbEntity
  8
1
  6
Continuous
100
AcDbLine
 10
18.08203599999998
 20
144.748257
 30
0.0
 11
16.886236
 21
144.748257
 31
0.0
  0
LINE
  5
9944
330
9889
100
AcDbEntity
  8
4
  6
CENTER
100
AcDbLine
 10
34.78623599999998
 20
141.8482569999999
 30
0.0
 11
12.886236
 21
141.8482569999999
 31
0.0
  0
LINE
  5
9945
330
9889
100
AcDbEntity
  8
1
  6
Continuous
100
AcDbLine
 10
28.73213599999999
 20
229.9872569999998
 30
0.0
 11
29.095462
 21
232.0482569999998
 31
0.0
  0
LINE
  5
9946
330
9889
100
AcDbEntity
  8
1
  6
Continuous
100
AcDbLine
 10
28.866236
 20
230.7482569999999
 30
0.0
 11
29.68623599999999
 21
230.7482569999999
 31
0.0
  0
LINE
  5
9947
330
9889
100
AcDbEntity
  8
1
  6
Continuous
100
AcDbLine
 10
28.042736
 20
230.1092569999999
 30
0.0
 11
28.384658
 21
232.0482569999998
 31
0.0
  0
LINE
  5
9948
330
9889
100
AcDbEntity
  8
1
  6
Continuous
100
AcDbLine
 10
27.33193599999999
 20
230.1092569999999
 30
0.0
 11
27.673858
 21
232.0482569999998
 31
0.0
  0
LINE
  5
9949
330
9889
100
AcDbEntity
  8
1
  6
Continuous
100
AcDbLine
 10
26.621136
 20
230.1092569999999
 30
0.0
 11
26.963058
 21
232.0482569999998
 31
0.0
  0
LINE
  5
994A
330
9889
100
AcDbEntity
  8
1
  6
Continuous
100
AcDbLine
 10
25.91033599999999
 20
230.1092569999999
 30
0.0
 11
26.252258
 21
232.0482569999998
 31
0.0
  0
LINE
  5
994B
330
9889
100
AcDbEntity
  8
1
  6
Continuous
100
AcDbLine
 10
25.199536
 20
230.1092569999999
 30
0.0
 11
25.541458
 21
232.0482569999998
 31
0.0
  0
LINE
  5
994C
330
9889
100
AcDbEntity
  8
1
  6
Continuous
100
AcDbLine
 10
24.488736
 20
230.1092569999999
 30
0.0
 11
24.830658
 21
232.0482569999998
 31
0.0
  0
LINE
  5
994D
330
9889
100
AcDbEntity
  8
1
  6
Continuous
100
AcDbLine
 10
23.77793599999999
 20
230.1092569999999
 30
0.0
 11
24.119858
 21
232.0482569999998
 31
0.0
  0
LINE
  5
994E
330
9889
100
AcDbEntity
  8
1
  6
Continuous
100
AcDbLine
 10
23.06713599999999
 20
230.1092569999999
 30
0.0
 11
23.40905799999999
 21
232.0482569999998
 31
0.0
  0
LINE
  5
994F
330
9889
100
AcDbEntity
  8
1
  6
Continuous
100
AcDbLine
 10
22.35633599999999
 20
230.1092569999999
 30
0.0
 11
22.698258
 21
232.0482569999998
 31
0.0
  0
LINE
  5
9950
330
9889
100
AcDbEntity
  8
1
  6
Continuous
100
AcDbLine
 10
21.645536
 20
230.1092569999999
 30
0.0
 11
21.987458
 21
232.0482569999998
 31
0.0
  0
LINE
  5
9951
330
9889
100
AcDbEntity
  8
1
  6
Continuous
100
AcDbLine
 10
20.93473599999998
 20
230.1092569999999
 30
0.0
 11
21.27665799999998
 21
232.0482569999998
 31
0.0
  0
LINE
  5
9952
330
9889
100
AcDbEntity
  8
1
  6
Continuous
100
AcDbLine
 10
20.223936
 20
230.1092569999999
 30
0.0
 11
20.565858
 21
232.0482569999998
 31
0.0
  0
LINE
  5
9953
330
9889
100
AcDbEntity
  8
1
  6
Continuous
100
AcDbLine
 10
19.51313599999998
 20
230.1092569999999
 30
0.0
 11
19.855058
 21
232.0482569999998
 31
0.0
  0
LINE
  5
9954
330
9889
100
AcDbEntity
  8
1
  6
Continuous
100
AcDbLine
 10
16.886236
 20
236.248257
 30
0.0
 11
16.886236
 21
235.5482569999999
 31
0.0
  0
LINE
  5
9955
330
9889
100
AcDbEntity
  8
1
  6
Continuous
100
AcDbLine
 10
17.78623599999998
 20
235.5482569999999
 30
0.0
 11
16.886236
 21
235.5482569999999
 31
0.0
  0
LINE
  5
9956
330
9889
100
AcDbEntity
  8
1
  6
Continuous
100
AcDbLine
 10
17.78623599999998
 20
236.248257
 30
0.0
 11
16.886236
 21
236.248257
 31
0.0
  0
LINE
  5
9957
330
9889
100
AcDbEntity
  8
1
  6
Continuous
100
AcDbLine
 10
18.09153599999998
 20
230.1092569999999
 30
0.0
 11
18.43345799999998
 21
232.0482569999998
 31
0.0
  0
LINE
  5
9958
330
9889
100
AcDbEntity
  8
1
  6
Continuous
100
AcDbLine
 10
18.80233599999998
 20
230.1092569999999
 30
0.0
 11
19.14425799999998
 21
232.0482569999998
 31
0.0
  0
LINE
  5
9959
330
9889
100
AcDbEntity
  8
1
  6
Continuous
100
AcDbLine
 10
18.786236
 20
235.048257
 30
0.0
 11
18.786236
 21
235.2482569999998
 31
0.0
  0
LINE
  5
995A
330
9889
100
AcDbEntity
  8
1
  6
Continuous
100
AcDbLine
 10
18.08623599999998
 20
230.7482569999999
 30
0.0
 11
18.20423599999998
 21
230.7482569999999
 31
0.0
  0
LINE
  5
995B
330
9889
100
AcDbEntity
  8
1
  6
Continuous
100
AcDbLine
 10
16.886236
 20
43.248457
 30
0.0
 11
16.886236
 21
44.444257
 31
0.0
  0
LINE
  5
995C
330
9889
100
AcDbEntity
  8
1
  6
Continuous
100
AcDbLine
 10
30.886236
 20
43.248457
 30
0.0
 11
30.886236
 21
44.444257
 31
0.0
  0
LINE
  5
995D
330
9889
100
AcDbEntity
  8
1
  6
Continuous
100
AcDbLine
 10
17.636236
 20
42.04845699999999
 30
0.0
 11
30.136236
 21
42.04845699999999
 31
0.0
  0
LINE
  5
995E
330
9889
100
AcDbEntity
  8
1
  6
Continuous
100
AcDbLine
 10
17.636236
 20
43.248457
 30
0.0
 11
30.136236
 21
43.248457
 31
0.0
  0
LINE
  5
995F
330
9889
100
AcDbEntity
  8
1
  6
Continuous
100
AcDbLine
 10
18.08623599999998
 20
43.248457
 30
0.0
 11
18.08623599999998
 21
44.444257
 31
0.0
  0
LINE
  5
9960
330
9889
100
AcDbEntity
  8
1
  6
Continuous
100
AcDbLine
 10
29.68623599999999
 20
43.248457
 30
0.0
 11
29.68623599999999
 21
44.444257
 31
0.0
  0
LINE
  5
9961
330
9889
100
AcDbEntity
  8
4
  6
CENTER
100
AcDbLine
 10
23.886236
 20
40.04845699999999
 30
0.0
 11
23.886236
 21
52.72435699999999
 31
0.0
  0
LINE
  5
9962
330
9889
100
AcDbEntity
  8
1
  6
Continuous
100
AcDbLine
 10
14.98623599999998
 20
48.348457
 30
0.0
 11
14.98623599999998
 21
47.44425699999999
 31
0.0
  0
LINE
  5
9963
330
9889
100
AcDbEntity
  8
4
  6
CENTER
100
AcDbLine
 10
34.88623599999999
 20
47.298457
 30
0.0
 11
12.98623599999998
 21
47.298457
 31
0.0
  0
LINE
  5
9964
330
9889
100
AcDbEntity
  8
1
  6
Continuous
100
AcDbLine
 10
16.68623599999999
 20
44.487057
 30
0.0
 11
16.68623599999999
 21
43.63335699999999
 31
0.0
  0
LINE
  5
9965
330
9889
100
AcDbEntity
  8
1
  6
Continuous
100
AcDbLine
 10
31.086236
 20
44.487057
 30
0.0
 11
31.086236
 21
43.63335699999999
 31
0.0
  0
LINE
  5
9966
330
9889
100
AcDbEntity
  8
1
  6
Continuous
100
AcDbLine
 10
15.886236
 20
49.924357
 30
0.0
 11
15.886236
 21
43.63335699999999
 31
0.0
  0
LINE
  5
9967
330
9889
100
AcDbEntity
  8
1
  6
Continuous
100
AcDbLine
 10
31.886236
 20
49.924357
 30
0.0
 11
31.886236
 21
43.63335699999999
 31
0.0
  0
LINE
  5
9968
330
9889
100
AcDbEntity
  8
1
  6
Continuous
100
AcDbLine
 10
15.886236
 20
48.348457
 30
0.0
 11
14.98623599999998
 21
48.348457
 31
0.0
  0
LINE
  5
9969
330
9889
100
AcDbEntity
  8
1
  6
Continuous
100
AcDbLine
 10
18.786236
 20
44.444257
 30
0.0
 11
18.786236
 21
43.848457
 31
0.0
  0
LINE
  5
996A
330
9889
100
AcDbEntity
  8
1
  6
Continuous
100
AcDbLine
 10
16.95486499999999
 20
42.848457
 30
0.0
 11
16.886236
 21
42.848457
 31
0.0
  0
LINE
  5
996B
330
9889
100
AcDbEntity
  8
1
  6
Continuous
100
AcDbLine
 10
16.886236
 20
42.848457
 30
0.0
 11
16.886236
 21
43.548457
 31
0.0
  0
LINE
  5
996C
330
9889
100
AcDbEntity
  8
1
  6
Continuous
100
AcDbLine
 10
27.136236
 20
44.959057
 30
0.0
 11
27.136236
 21
44.444257
 31
0.0
  0
LINE
  5
996D
330
9889
100
AcDbEntity
  8
1
  6
Continuous
100
AcDbLine
 10
20.636236
 20
44.959057
 30
0.0
 11
20.636236
 21
44.444257
 31
0.0
  0
LINE
  5
996E
330
9889
100
AcDbEntity
  8
4
  6
CENTER
100
AcDbLine
 10
153.3535359999999
 20
111.749257
 30
0.0
 11
156.553536
 21
111.749257
 31
0.0
  0
LINE
  5
996F
330
9889
100
AcDbEntity
  8
1
  6
Continuous
100
AcDbLine
 10
31.086236
 20
229.1862569999999
 30
0.0
 11
30.886236
 21
229.1862569999999
 31
0.0
  0
LINE
  5
9970
330
9889
100
AcDbEntity
  8
1
  6
Continuous
100
AcDbLine
 10
29.68623599999999
 20
229.1862569999999
 30
0.0
 11
18.08623599999998
 21
229.1862569999999
 31
0.0
  0
LINE
  5
9971
330
9889
100
AcDbEntity
  8
1
  6
Continuous
100
AcDbLine
 10
16.886236
 20
229.1862569999999
 30
0.0
 11
16.68623599999999
 21
229.1862569999999
 31
0.0
  0
LINE
  5
9972
330
9889
100
AcDbEntity
  8
1
  6
Continuous
100
AcDbLine
 10
16.68623599999999
 20
228.9982569999998
 30
0.0
 11
15.886236
 21
228.9982569999998
 31
0.0
  0
LINE
  5
9973
330
9889
100
AcDbEntity
  8
1
  6
Continuous
100
AcDbLine
 10
31.886236
 20
228.9982569999998
 30
0.0
 11
31.086236
 21
228.9982569999998
 31
0.0
  0
LINE
  5
9974
330
9889
100
AcDbEntity
  8
1
  6
Continuous
100
AcDbLine
 10
16.68623599999999
 20
50.72435699999999
 30
0.0
 11
31.086236
 21
50.72435699999999
 31
0.0
  0
LINE
  5
9975
330
9889
100
AcDbEntity
  8
1
  6
Continuous
100
AcDbLine
 10
15.886236
 20
43.63335699999999
 30
0.0
 11
16.68623599999999
 21
43.63335699999999
 31
0.0
  0
LINE
  5
9976
330
9889
100
AcDbEntity
  8
1
  6
Continuous
100
AcDbLine
 10
31.086236
 20
43.63335699999999
 30
0.0
 11
31.886236
 21
43.63335699999999
 31
0.0
  0
LINE
  5
9977
330
9889
100
AcDbEntity
  8
1
  6
Continuous
100
AcDbLine
 10
30.886236
 20
228.372257
 30
0.0
 11
16.886236
 21
228.372257
 31
0.0
  0
LINE
  5
9978
330
9889
100
AcDbEntity
  8
1
  6
Continuous
100
AcDbLine
 10
31.886236
 20
235.456257
 30
0.0
 11
31.086236
 21
235.456257
 31
0.0
  0
LINE
  5
9979
330
9889
100
AcDbEntity
  8
1
  6
Continuous
100
AcDbLine
 10
16.68623599999999
 20
235.456257
 30
0.0
 11
15.886236
 21
235.456257
 31
0.0
  0
LINE
  5
997A
330
9889
100
AcDbEntity
  8
1
  6
Continuous
100
AcDbLine
 10
31.086236
 20
43.97135699999998
 30
0.0
 11
30.886236
 21
43.97135699999998
 31
0.0
  0
LINE
  5
997B
330
9889
100
AcDbEntity
  8
1
  6
Continuous
100
AcDbLine
 10
16.887736
 20
43.97135699999998
 30
0.0
 11
16.68623599999999
 21
43.97135699999998
 31
0.0
  0
LINE
  5
997C
330
9889
100
AcDbEntity
  8
1
  6
Continuous
100
AcDbLine
 10
29.68623599999999
 20
43.97135699999998
 30
0.0
 11
24.536236
 21
43.97135699999998
 31
0.0
  0
LINE
  5
997D
330
9889
100
AcDbEntity
  8
1
  6
Continuous
100
AcDbLine
 10
16.68623599999999
 20
44.444257
 30
0.0
 11
20.636236
 21
44.444257
 31
0.0
  0
LINE
  5
997E
330
9889
100
AcDbEntity
  8
1
  6
Continuous
100
AcDbLine
 10
27.136236
 20
44.444257
 30
0.0
 11
28.636236
 21
44.444257
 31
0.0
  0
LINE
  5
997F
330
9889
100
AcDbEntity
  8
1
  6
Continuous
100
AcDbLine
 10
28.636236
 20
44.959057
 30
0.0
 11
28.636236
 21
44.444257
 31
0.0
  0
LINE
  5
9980
330
9889
100
AcDbEntity
  8
1
  6
Continuous
100
AcDbLine
 10
29.636236
 20
44.987057
 30
0.0
 11
29.636236
 21
44.444257
 31
0.0
  0
LINE
  5
9981
330
9889
100
AcDbEntity
  8
1
  6
Continuous
100
AcDbLine
 10
28.636236
 20
44.694257
 30
0.0
 11
29.636236
 21
44.694257
 31
0.0
  0
LINE
  5
9982
330
9889
100
AcDbEntity
  8
1
  6
Continuous
100
AcDbLine
 10
29.636236
 20
44.444257
 30
0.0
 11
31.086236
 21
44.444257
 31
0.0
  0
LINE
  5
9983
330
9889
100
AcDbEntity
  8
1
  6
Continuous
100
AcDbLine
 10
31.886236
 20
145.246257
 30
0.0
 11
31.086236
 21
145.246257
 31
0.0
  0
LINE
  5
9984
330
9889
100
AcDbEntity
  8
1
  6
Continuous
100
AcDbLine
 10
16.68623599999999
 20
145.246257
 30
0.0
 11
15.886236
 21
145.246257
 31
0.0
  0
LINE
  5
9985
330
9889
100
AcDbEntity
  8
1
  6
Continuous
100
AcDbLine
 10
272.549536
 20
145.246257
 30
0.0
 11
271.749536
 21
145.246257
 31
0.0
  0
LINE
  5
9986
330
9889
100
AcDbEntity
  8
1
  6
Continuous
100
AcDbLine
 10
257.3495359999999
 20
145.246257
 30
0.0
 11
256.5495359999999
 21
145.246257
 31
0.0
  0
LINE
  5
9987
330
9889
100
AcDbEntity
  8
1
  6
Continuous
100
AcDbLine
 10
15.886236
 20
137.113257
 30
0.0
 11
14.88623599999999
 21
137.113257
 31
0.0
  0
LINE
  5
9988
330
9889
100
AcDbEntity
  8
1
  6
Continuous
100
AcDbLine
 10
15.886236
 20
134.113257
 30
0.0
 11
14.88623599999999
 21
134.113257
 31
0.0
  0
LINE
  5
9989
330
9889
100
AcDbEntity
  8
1
  6
Continuous
100
AcDbLine
 10
258.2995359999998
 20
134.113257
 30
0.0
 11
257.3495359999999
 21
134.113257
 31
0.0
  0
LINE
  5
998A
330
9889
100
AcDbEntity
  8
1
  6
Continuous
100
AcDbLine
 10
258.2995359999998
 20
137.113257
 30
0.0
 11
257.3495359999999
 21
137.113257
 31
0.0
  0
LINE
  5
998B
330
9889
100
AcDbEntity
  8
1
  6
Continuous
100
AcDbLine
 10
270.7995359999998
 20
137.113257
 30
0.0
 11
271.749536
 21
137.113257
 31
0.0
  0
LINE
  5
998C
330
9889
100
AcDbEntity
  8
1
  6
Continuous
100
AcDbLine
 10
270.7995359999998
 20
134.113257
 30
0.0
 11
271.749536
 21
134.113257
 31
0.0
  0
LINE
  5
998D
330
9889
100
AcDbEntity
  8
1
  6
Continuous
100
AcDbLine
 10
31.886236
 20
139.482257
 30
0.0
 11
15.886236
 21
139.482257
 31
0.0
  0
LINE
  5
998E
330
9889
100
AcDbEntity
  8
1
  6
Continuous
100
AcDbLine
 10
31.886236
 20
139.631257
 30
0.0
 11
15.886236
 21
139.631257
 31
0.0
  0
LINE
  5
998F
330
9889
100
AcDbEntity
  8
1
  6
Continuous
100
AcDbLine
 10
271.749536
 20
139.631257
 30
0.0
 11
271.5495359999998
 21
139.631257
 31
0.0
  0
LINE
  5
9990
330
9889
100
AcDbEntity
  8
1
  6
Continuous
100
AcDbLine
 10
257.549536
 20
139.631257
 30
0.0
 11
257.3495359999999
 21
139.631257
 31
0.0
  0
LINE
  5
9991
330
9889
100
AcDbEntity
  8
1
  6
Continuous
100
AcDbLine
 10
26.84313599999999
 20
44.987057
 30
0.0
 11
26.77263599999999
 21
44.58765699999999
 31
0.0
  0
LINE
  5
9992
330
9889
100
AcDbEntity
  8
1
  6
Continuous
100
AcDbLine
 10
21.156736
 20
44.987057
 30
0.0
 11
21.086336
 21
44.58765699999999
 31
0.0
  0
LINE
  5
9993
330
9889
100
AcDbEntity
  8
1
  6
Continuous
100
AcDbLine
 10
21.86753599999998
 20
44.987057
 30
0.0
 11
21.79703599999999
 21
44.58765699999999
 31
0.0
  0
LINE
  5
9994
330
9889
100
AcDbEntity
  8
1
  6
Continuous
100
AcDbLine
 10
22.578336
 20
44.987057
 30
0.0
 11
22.50783599999999
 21
44.58765699999999
 31
0.0
  0
LINE
  5
9995
330
9889
100
AcDbEntity
  8
1
  6
Continuous
100
AcDbLine
 10
23.28913599999999
 20
44.987057
 30
0.0
 11
23.21863599999999
 21
44.58765699999999
 31
0.0
  0
LINE
  5
9996
330
9889
100
AcDbEntity
  8
1
  6
Continuous
100
AcDbLine
 10
24.71073599999999
 20
44.987157
 30
0.0
 11
24.64023599999999
 21
44.58765699999999
 31
0.0
  0
LINE
  5
9997
330
9889
100
AcDbEntity
  8
1
  6
Continuous
100
AcDbLine
 10
25.421536
 20
44.987057
 30
0.0
 11
25.35103599999999
 21
44.58765699999999
 31
0.0
  0
LINE
  5
9998
330
9889
100
AcDbEntity
  8
1
  6
Continuous
100
AcDbLine
 10
26.132336
 20
44.987057
 30
0.0
 11
26.061836
 21
44.58765699999999
 31
0.0
  0
LINE
  5
9999
330
9889
100
AcDbEntity
  8
1
  6
Continuous
100
AcDbLine
 10
28.923836
 20
44.694257
 30
0.0
 11
28.905036
 21
44.58765699999999
 31
0.0
  0
LINE
  5
999A
330
9889
100
AcDbEntity
  8
1
  6
Continuous
100
AcDbLine
 10
17.18623599999999
 20
44.987057
 30
0.0
 11
30.586236
 21
44.987057
 31
0.0
  0
LINE
  5
999B
330
9889
100
AcDbEntity
  8
1
  6
Continuous
100
AcDbLine
 10
29.636236
 20
44.70315699999999
 30
0.0
 11
29.61583599999999
 21
44.58765699999999
 31
0.0
  0
LINE
  5
999C
330
9889
100
AcDbEntity
  8
4
  6
CENTER
100
AcDbLine
 10
268.349536
 20
134.7482569999999
 30
0.0
 11
260.7495359999999
 21
134.7482569999999
 31
0.0
  0
LINE
  5
999D
330
9889
100
AcDbEntity
  8
4
  6
CENTER
100
AcDbLine
 10
268.349536
 20
111.748257
 30
0.0
 11
260.7495359999999
 21
111.748257
 31
0.0
  0
LINE
  5
999E
330
9889
100
AcDbEntity
  8
4
  6
CENTER
100
AcDbLine
 10
150.753536
 20
138.8482569999998
 30
0.0
 11
150.753536
 21
144.8482569999999
 31
0.0
  0
LINE
  5
999F
330
9889
100
AcDbEntity
  8
4
  6
CENTER
100
AcDbLine
 10
147.753536
 20
141.8482569999999
 30
0.0
 11
153.7535359999999
 21
141.8482569999999
 31
0.0
  0
LINE
  5
99A0
330
9889
100
AcDbEntity
  8
1
  6
Continuous
100
AcDbLine
 10
15.886236
 20
235.010198
 30
0.0
 11
15.886236
 21
235.456257
 31
0.0
  0
LINE
  5
99A1
330
9889
100
AcDbEntity
  8
1
  6
Continuous
100
AcDbLine
 10
16.68623599999999
 20
235.048257
 30
0.0
 11
16.68623599999999
 21
235.456257
 31
0.0
  0
LINE
  5
99A2
330
9889
100
AcDbEntity
  8
1
  6
Continuous
100
AcDbLine
 10
18.08623599999998
 20
232.0482569999998
 30
0.0
 11
18.08623599999998
 21
229.0482569999999
 31
0.0
  0
LINE
  5
99A3
330
9889
100
AcDbEntity
  8
1
  6
Continuous
100
AcDbLine
 10
31.886236
 20
235.010198
 30
0.0
 11
31.886236
 21
235.456257
 31
0.0
  0
LINE
  5
99A4
330
9889
100
AcDbEntity
  8
1
  6
Continuous
100
AcDbLine
 10
31.086236
 20
235.048257
 30
0.0
 11
31.086236
 21
235.456257
 31
0.0
  0
LINE
  5
99A5
330
9889
100
AcDbEntity
  8
1
  6
Continuous
100
AcDbLine
 10
29.68623599999999
 20
232.0482569999998
 30
0.0
 11
29.68623599999999
 21
229.0482569999999
 31
0.0
  0
LINE
  5
99A6
330
9889
100
AcDbEntity
  8
1
  6
Continuous
100
AcDbLine
 10
23.336236
 20
43.97135699999998
 30
0.0
 11
18.786236
 21
43.97135699999998
 31
0.0
  0
LINE
  5
99A7
330
9889
100
AcDbEntity
  8
4
  6
CENTER
100
AcDbLine
 10
153.935536
 20
135.6132569999997
 30
0.0
 11
149.435536
 21
135.6132569999997
 31
0.0
  0
LINE
  5
99A8
330
9889
100
AcDbEntity
  8
4
  6
CENTER
100
AcDbLine
 10
151.685536
 20
137.863257
 30
0.0
 11
151.685536
 21
133.363257
 31
0.0
  0
LINE
  5
99A9
330
9889
100
AcDbEntity
  8
1
  6
Continuous
100
AcDbLine
 10
24.536236
 20
43.248457
 30
0.0
 11
24.536236
 21
44.987057
 31
0.0
  0
LINE
  5
99AA
330
9889
100
AcDbEntity
  8
1
  6
Continuous
100
AcDbLine
 10
23.336236
 20
43.248457
 30
0.0
 11
23.336236
 21
44.987057
 31
0.0
  0
LINE
  5
99AB
330
9889
100
AcDbEntity
  8
1
  6
Continuous
100
AcDbLine
 10
30.136236
 20
42.04845699999999
 30
0.0
 11
30.136236
 21
43.248457
 31
0.0
  0
LINE
  5
99AC
330
9889
100
AcDbEntity
  8
1
  6
Continuous
100
AcDbLine
 10
17.636236
 20
42.04845699999999
 30
0.0
 11
17.636236
 21
43.248457
 31
0.0
  0
LINE
  5
99AD
330
9889
100
AcDbEntity
  8
1
  6
Continuous
100
AcDbLine
 10
23.336236
 20
235.848257
 30
0.0
 11
23.336236
 21
235.048257
 31
0.0
  0
LINE
  5
99AE
330
9889
100
AcDbEntity
  8
1
  6
Continuous
100
AcDbLine
 10
24.536236
 20
235.848257
 30
0.0
 11
24.536236
 21
235.048257
 31
0.0
  0
LINE
  5
99AF
330
9889
100
AcDbEntity
  8
1
  6
Continuous
100
AcDbLine
 10
268.7995359999998
 20
117.906257
 30
0.0
 11
268.7995359999998
 21
119.159257
 31
0.0
  0
LINE
  5
99B0
330
9889
100
AcDbEntity
  8
1
  6
Continuous
100
AcDbLine
 10
267.8145359999999
 20
120.329257
 30
0.0
 11
267.8145359999999
 21
120.955257
 31
0.0
  0
LINE
  5
99B1
330
9889
100
AcDbEntity
  8
1
  6
Continuous
100
AcDbLine
 10
267.8145359999999
 20
128.029257
 30
0.0
 11
267.8145359999999
 21
128.655257
 31
0.0
  0
LINE
  5
99B2
330
9889
100
AcDbEntity
  8
1
  6
Continuous
100
AcDbLine
 10
266.814536
 20
115.748257
 30
0.0
 11
266.814536
 21
117.323257
 31
0.0
  0
LINE
  5
99B3
330
9889
100
AcDbEntity
  8
1
  6
Continuous
100
AcDbLine
 10
266.814536
 20
116.532257
 30
0.0
 11
268.8145359999999
 21
116.532257
 31
0.0
  0
LINE
  5
99B4
330
9889
100
AcDbEntity
  8
1
  6
Continuous
100
AcDbLine
 10
266.7995359999998
 20
117.906257
 30
0.0
 11
268.7995359999998
 21
117.906257
 31
0.0
  0
LINE
  5
99B5
330
9889
100
AcDbEntity
  8
1
  6
Continuous
100
AcDbLine
 10
267.385536
 20
127.085257
 30
0.0
 11
268.322536
 21
127.085257
 31
0.0
  0
LINE
  5
99B6
330
9889
100
AcDbEntity
  8
1
  6
Continuous
100
AcDbLine
 10
268.8265359999999
 20
126.545257
 30
0.0
 11
268.8265359999999
 21
126.581257
 31
0.0
  0
LINE
  5
99B7
330
9889
100
AcDbEntity
  8
1
  6
Continuous
100
AcDbLine
 10
268.7995359999998
 20
121.969257
 30
0.0
 11
267.7065359999999
 21
123.0142569999999
 31
0.0
  0
LINE
  5
99B8
330
9889
100
AcDbEntity
  8
1
  6
Continuous
100
AcDbLine
 10
267.412536
 20
123.9642569999999
 30
0.0
 11
268.1875359999998
 21
123.9642569999999
 31
0.0
  0
LINE
  5
99B9
330
9889
100
AcDbEntity
  8
1
  6
Continuous
100
AcDbLine
 10
268.7995359999998
 20
121.969257
 30
0.0
 11
268.7995359999998
 21
123.156257
 31
0.0
  0
LINE
  5
99BA
330
9889
100
AcDbEntity
  8
1
  6
Continuous
100
AcDbLine
 10
267.799536
 20
130.202257
 30
0.0
 11
267.799536
 21
130.495257
 31
0.0
  0
LINE
  5
99BB
330
9889
100
AcDbEntity
  8
1
  6
Continuous
100
AcDbLine
 10
153.3572859999999
 20
145.698257
 30
0.0
 11
154.7535359999999
 21
145.698257
 31
0.0
  0
LINE
  5
99BC
330
9889
100
AcDbEntity
  8
1
  6
Continuous
100
AcDbLine
 10
153.34538
 20
144.9982569999999
 30
0.0
 11
154.7535359999999
 21
144.9982569999999
 31
0.0
  0
LINE
  5
99BD
330
9889
100
AcDbEntity
  8
1
  6
Continuous
100
AcDbLine
 10
154.7535359999999
 20
144.9982569999999
 30
0.0
 11
154.7535359999999
 21
145.698257
 31
0.0
  0
LINE
  5
99BE
330
9889
100
AcDbEntity
  8
1
  6
Continuous
100
AcDbLine
 10
154.3535359999999
 20
119.448257
 30
0.0
 11
154.3535359999999
 21
107.748257
 31
0.0
  0
LINE
  5
99BF
330
9889
100
AcDbEntity
  8
1
  6
Continuous
100
AcDbLine
 10
154.3535359999999
 20
137.1482569999997
 30
0.0
 11
155.553536
 21
137.1482569999997
 31
0.0
  0
LINE
  5
99C0
330
9889
100
AcDbEntity
  8
1
  6
Continuous
100
AcDbLine
 10
154.3535359999999
 20
114.748257
 30
0.0
 11
155.553536
 21
114.748257
 31
0.0
  0
LINE
  5
99C1
330
9889
100
AcDbEntity
  8
1
  6
Continuous
100
AcDbLine
 10
154.3535359999999
 20
130.7482569999999
 30
0.0
 11
155.553536
 21
130.7482569999999
 31
0.0
  0
LINE
  5
99C2
330
9889
100
AcDbEntity
  8
4
  6
CENTER
100
AcDbLine
 10
79.13653599999998
 20
238.248257
 30
0.0
 11
79.13653599999998
 21
234.3482569999999
 31
0.0
  0
LINE
  5
99C3
330
9889
100
AcDbEntity
  8
4
  6
CENTER
100
AcDbLine
 10
88.63653599999997
 20
238.248257
 30
0.0
 11
88.63653599999997
 21
234.3482569999999
 31
0.0
  0
LINE
  5
99C4
330
9889
100
AcDbEntity
  8
4
  6
CENTER
100
AcDbLine
 10
154.553536
 20
157.249257
 30
0.0
 11
149.553536
 21
157.249257
 31
0.0
  0
LINE
  5
99C5
330
9889
100
AcDbEntity
  8
4
  6
CENTER
100
AcDbLine
 10
152.053536
 20
159.862018
 30
0.0
 11
152.053536
 21
154.862018
 31
0.0
  0
LINE
  5
99C6
330
9889
100
AcDbEntity
  8
4
  6
CENTER
100
AcDbLine
 10
204.553536
 20
157.7492569999997
 30
0.0
 11
199.553536
 21
157.7492569999997
 31
0.0
  0
LINE
  5
99C7
330
9889
100
AcDbEntity
  8
4
  6
CENTER
100
AcDbLine
 10
202.053536
 20
160.249257
 30
0.0
 11
202.053536
 21
155.249257
 31
0.0
  0
ARC
  5
99C8
330
9889
100
AcDbEntity
  8
1
  6
Continuous
100
AcDbCircle
 10
150.725536
 20
141.996257
 30
0.0
 40
3.25
100
AcDbArc
 50
96.656779
 51
190.775
  0
ARC
  5
99C9
330
9889
100
AcDbEntity
  8
1
  6
Continuous
100
AcDbCircle
 10
151.685536
 20
135.6132569999997
 30
0.0
 40
1.6
100
AcDbArc
 50
180.0
 51
280.775
  0
ARC
  5
99CA
330
9889
100
AcDbEntity
  8
1
  6
Continuous
100
AcDbCircle
 10
138.814536
 20
112.3132569999998
 30
0.0
 40
13.0
100
AcDbArc
 50
331.0599999999999
 51
10.77539999999999
  0
ARC
  5
99CB
330
9889
100
AcDbEntity
  8
1
  6
Continuous
100
AcDbCircle
 10
140.961536
 20
114.193257
 30
0.0
 40
13.0
100
AcDbArc
 50
326.614
 51
359.972
  0
ARC
  5
99CC
330
9889
100
AcDbEntity
  8
1
  6
Continuous
100
AcDbCircle
 10
17.917436
 20
141.8482569999999
 30
0.0
 40
3.03125
100
AcDbArc
 50
132.075
 51
227.925
  0
ARC
  5
99CD
330
9889
100
AcDbEntity
  8
1
  6
Continuous
100
AcDbCircle
 10
150.753536
 20
141.8482569999999
 30
0.0
 40
2.25
100
AcDbArc
 50
100.877207
 51
257.173929
  0
ARC
  5
99CE
330
9889
100
AcDbEntity
  8
1
  6
Continuous
100
AcDbCircle
 10
151.685536
 20
135.6132569999997
 30
0.0
 40
1.5
100
AcDbArc
 50
179.025568
 51
359.025568
  0
CIRCLE
  5
99CF
330
9889
100
AcDbEntity
  8
1
  6
Continuous
100
AcDbCircle
 10
79.13653599999998
 20
165.2492569999997
 30
0.0
 40
2.799999999999998
  0
CIRCLE
  5
99D0
330
9889
100
AcDbEntity
  8
1
  6
Continuous
100
AcDbCircle
 10
79.13653599999998
 20
165.2492569999997
 30
0.0
 40
1.649999999999999
  0
ARC
  5
99D1
330
9889
100
AcDbEntity
  8
1
  6
Continuous
100
AcDbCircle
 10
83.88653599999997
 20
155.249257
 30
0.0
 40
16.0
100
AcDbArc
 50
44.0049
 51
135.9949999999997
  0
ARC
  5
99D2
330
9889
100
AcDbEntity
  8
1
  6
Continuous
100
AcDbCircle
 10
94.13653600000001
 20
165.149257
 30
0.0
 40
1.75
100
AcDbArc
 50
317.49
 51
44.0049
  0
ARC
  5
99D3
330
9889
100
AcDbEntity
  8
1
  6
Continuous
100
AcDbCircle
 10
73.63653599999998
 20
165.149257
 30
0.0
 40
1.75
100
AcDbArc
 50
135.9949999999997
 51
226.937
  0
CIRCLE
  5
99D4
330
9889
100
AcDbEntity
  8
1
  6
Continuous
100
AcDbCircle
 10
88.63653599999997
 20
165.2492569999997
 30
0.0
 40
2.799999999999998
  0
CIRCLE
  5
99D5
330
9889
100
AcDbEntity
  8
1
  6
Continuous
100
AcDbCircle
 10
88.63653599999997
 20
165.2492569999997
 30
0.0
 40
1.649999999999999
  0
ARC
  5
99D6
330
9889
100
AcDbEntity
  8
1
  6
Continuous
100
AcDbCircle
 10
79.38653599999998
 20
156.7492569999997
 30
0.0
 40
2.0
100
AcDbArc
 50
90.0
 51
180.0
  0
ARC
  5
99D7
330
9889
100
AcDbEntity
  8
1
  6
Continuous
100
AcDbCircle
 10
79.38653599999998
 20
156.288257
 30
0.0
 40
2.0
100
AcDbArc
 50
90.0
 51
180.0
  0
ARC
  5
99D8
330
9889
100
AcDbEntity
  8
1
  6
Continuous
100
AcDbCircle
 10
88.38653599999997
 20
156.7492569999997
 30
0.0
 40
2.0
100
AcDbArc
 50
0.0
 51
90.0
  0
ARC
  5
99D9
330
9889
100
AcDbEntity
  8
1
  6
Continuous
100
AcDbCircle
 10
88.38653599999997
 20
156.288257
 30
0.0
 40
2.0
100
AcDbArc
 50
0.0
 51
90.0
  0
ARC
  5
99DA
330
9889
100
AcDbEntity
  8
1
  6
Continuous
100
AcDbCircle
 10
264.5495359999998
 20
113.998257
 30
0.0
 40
6.25
100
AcDbArc
 50
180.0
 51
0.00001
  0
CIRCLE
  5
99DB
330
9889
100
AcDbEntity
  8
1
  6
Continuous
100
AcDbCircle
 10
264.5495359999998
 20
134.7482569999999
 30
0.0
 40
1.649999999999999
  0
CIRCLE
  5
99DC
330
9889
100
AcDbEntity
  8
1
  6
Continuous
100
AcDbCircle
 10
264.5495359999998
 20
111.748257
 30
0.0
 40
1.649999999999999
  0
CIRCLE
  5
99DD
330
9889
100
AcDbEntity
  8
1
  6
Continuous
100
AcDbCircle
 10
319.799536
 20
165.2492569999997
 30
0.0
 40
1.649999999999999
  0
ARC
  5
99DE
330
9889
100
AcDbEntity
  8
1
  6
Continuous
100
AcDbCircle
 10
324.549536
 20
155.249257
 30
0.0
 40
16.0
100
AcDbArc
 50
44.0049
 51
135.9949999999997
  0
ARC
  5
99DF
330
9889
100
AcDbEntity
  8
1
  6
Continuous
100
AcDbCircle
 10
334.799536
 20
165.149257
 30
0.0
 40
1.75
100
AcDbArc
 50
317.49
 51
44.0049
  0
ARC
  5
99E0
330
9889
100
AcDbEntity
  8
1
  6
Continuous
100
AcDbCircle
 10
314.299536
 20
165.149257
 30
0.0
 40
1.75
100
AcDbArc
 50
135.9949999999997
 51
226.937
  0
CIRCLE
  5
99E1
330
9889
100
AcDbEntity
  8
1
  6
Continuous
100
AcDbCircle
 10
329.2995359999999
 20
165.2492569999997
 30
0.0
 40
1.649999999999999
  0
ARC
  5
99E2
330
9889
100
AcDbEntity
  8
1
  6
Continuous
100
AcDbCircle
 10
270.849536
 20
144.698257
 30
0.0
 40
1.0
100
AcDbArc
 50
90.0
 51
177.1339999999999
  0
ARC
  5
99E3
330
9889
100
AcDbEntity
  8
1
  6
Continuous
100
AcDbCircle
 10
270.849536
 20
144.698257
 30
0.0
 40
0.3
100
AcDbArc
 50
90.0
 51
170.4059999999998
  0
ARC
  5
99E4
330
9889
100
AcDbEntity
  8
1
  6
Continuous
100
AcDbCircle
 10
270.5185359999999
 20
141.8482569999999
 30
0.0
 40
3.03125
100
AcDbArc
 50
312.075
 51
47.92499999999999
  0
ARC
  5
99E5
330
9889
100
AcDbEntity
  8
1
  6
Continuous
100
AcDbCircle
 10
202.053536
 20
157.7492569999997
 30
0.0
 40
2.0
100
AcDbArc
 50
202.3169999999999
 51
0.0
  0
ARC
  5
99E6
330
9889
100
AcDbEntity
  8
1
  6
Continuous
100
AcDbCircle
 10
202.053536
 20
157.7492569999997
 30
0.0
 40
3.5
100
AcDbArc
 50
202.189
 51
0.0
  0
ARC
  5
99E7
330
9889
100
AcDbEntity
  8
1
  6
Continuous
100
AcDbCircle
 10
17.917436
 20
232.248257
 30
0.0
 40
3.03125
100
AcDbArc
 50
186.5089839999999
 51
227.925
  0
ARC
  5
99E8
330
9889
100
AcDbEntity
  8
1
  6
Continuous
100
AcDbCircle
 10
18.43623599999998
 20
139.648257
 30
0.0
 40
0.35
100
AcDbArc
 50
170.0
 51
182.755
  0
ARC
  5
99E9
330
9889
100
AcDbEntity
  8
1
  6
Continuous
100
AcDbCircle
 10
29.163236
 20
144.048257
 30
0.0
 40
0.35
100
AcDbArc
 50
350.0
 51
170.0
  0
ARC
  5
99EA
330
9889
100
AcDbEntity
  8
1
  6
Continuous
100
AcDbCircle
 10
19.21203599999998
 20
144.048257
 30
0.0
 40
0.35
100
AcDbArc
 50
350.0
 51
170.0
  0
ARC
  5
99EB
330
9889
100
AcDbEntity
  8
1
  6
Continuous
100
AcDbCircle
 10
19.147036
 20
139.648257
 30
0.0
 40
0.35
100
AcDbArc
 50
170.0
 51
182.755
  0
ARC
  5
99EC
330
9889
100
AcDbEntity
  8
1
  6
Continuous
100
AcDbCircle
 10
19.922836
 20
144.048257
 30
0.0
 40
0.35
100
AcDbArc
 50
350.0
 51
170.0
  0
ARC
  5
99ED
330
9889
100
AcDbEntity
  8
1
  6
Continuous
100
AcDbCircle
 10
19.85783599999998
 20
139.648257
 30
0.0
 40
0.35
100
AcDbArc
 50
170.0
 51
182.755
  0
ARC
  5
99EE
330
9889
100
AcDbEntity
  8
1
  6
Continuous
100
AcDbCircle
 10
20.633636
 20
144.048257
 30
0.0
 40
0.35
100
AcDbArc
 50
350.0
 51
170.0
  0
ARC
  5
99EF
330
9889
100
AcDbEntity
  8
1
  6
Continuous
100
AcDbCircle
 10
20.56863599999998
 20
139.648257
 30
0.0
 40
0.35
100
AcDbArc
 50
170.0
 51
182.755
  0
ARC
  5
99F0
330
9889
100
AcDbEntity
  8
1
  6
Continuous
100
AcDbCircle
 10
21.34443599999998
 20
144.048257
 30
0.0
 40
0.35
100
AcDbArc
 50
350.0
 51
170.0
  0
ARC
  5
99F1
330
9889
100
AcDbEntity
  8
1
  6
Continuous
100
AcDbCircle
 10
21.27943599999999
 20
139.648257
 30
0.0
 40
0.35
100
AcDbArc
 50
170.0
 51
182.755
  0
ARC
  5
99F2
330
9889
100
AcDbEntity
  8
1
  6
Continuous
100
AcDbCircle
 10
22.05523599999998
 20
144.048257
 30
0.0
 40
0.35
100
AcDbArc
 50
350.0
 51
170.0
  0
ARC
  5
99F3
330
9889
100
AcDbEntity
  8
1
  6
Continuous
100
AcDbCircle
 10
21.99023599999998
 20
139.648257
 30
0.0
 40
0.35
100
AcDbArc
 50
170.0
 51
182.755
  0
ARC
  5
99F4
330
9889
100
AcDbEntity
  8
1
  6
Continuous
100
AcDbCircle
 10
22.766036
 20
144.048257
 30
0.0
 40
0.35
100
AcDbArc
 50
350.0
 51
170.0
  0
ARC
  5
99F5
330
9889
100
AcDbEntity
  8
1
  6
Continuous
100
AcDbCircle
 10
22.701036
 20
139.648257
 30
0.0
 40
0.35
100
AcDbArc
 50
170.0
 51
182.755
  0
ARC
  5
99F6
330
9889
100
AcDbEntity
  8
1
  6
Continuous
100
AcDbCircle
 10
23.47683599999999
 20
144.048257
 30
0.0
 40
0.35
100
AcDbArc
 50
350.0
 51
170.0
  0
ARC
  5
99F7
330
9889
100
AcDbEntity
  8
1
  6
Continuous
100
AcDbCircle
 10
23.41183599999999
 20
139.648257
 30
0.0
 40
0.35
100
AcDbArc
 50
170.0
 51
182.755
  0
ARC
  5
99F8
330
9889
100
AcDbEntity
  8
1
  6
Continuous
100
AcDbCircle
 10
24.187636
 20
144.048257
 30
0.0
 40
0.35
100
AcDbArc
 50
350.0
 51
170.0
  0
ARC
  5
99F9
330
9889
100
AcDbEntity
  8
1
  6
Continuous
100
AcDbCircle
 10
24.122636
 20
139.648257
 30
0.0
 40
0.35
100
AcDbArc
 50
170.0
 51
182.755
  0
ARC
  5
99FA
330
9889
100
AcDbEntity
  8
1
  6
Continuous
100
AcDbCircle
 10
24.898436
 20
144.048257
 30
0.0
 40
0.35
100
AcDbArc
 50
350.0
 51
170.0
  0
ARC
  5
99FB
330
9889
100
AcDbEntity
  8
1
  6
Continuous
100
AcDbCircle
 10
24.83343599999999
 20
139.648257
 30
0.0
 40
0.35
100
AcDbArc
 50
170.0
 51
182.755
  0
ARC
  5
99FC
330
9889
100
AcDbEntity
  8
1
  6
Continuous
100
AcDbCircle
 10
25.609236
 20
144.048257
 30
0.0
 40
0.35
100
AcDbArc
 50
350.0
 51
170.0
  0
ARC
  5
99FD
330
9889
100
AcDbEntity
  8
1
  6
Continuous
100
AcDbCircle
 10
25.54423599999999
 20
139.648257
 30
0.0
 40
0.35
100
AcDbArc
 50
170.0
 51
182.755
  0
ARC
  5
99FE
330
9889
100
AcDbEntity
  8
1
  6
Continuous
100
AcDbCircle
 10
26.32003599999999
 20
144.048257
 30
0.0
 40
0.35
100
AcDbArc
 50
350.0
 51
170.0
  0
ARC
  5
99FF
330
9889
100
AcDbEntity
  8
1
  6
Continuous
100
AcDbCircle
 10
26.255036
 20
139.648257
 30
0.0
 40
0.35
100
AcDbArc
 50
170.0
 51
182.755
  0
ARC
  5
9A00
330
9889
100
AcDbEntity
  8
1
  6
Continuous
100
AcDbCircle
 10
27.03083599999999
 20
144.048257
 30
0.0
 40
0.35
100
AcDbArc
 50
350.0
 51
170.0
  0
ARC
  5
9A01
330
9889
100
AcDbEntity
  8
1
  6
Continuous
100
AcDbCircle
 10
26.965836
 20
139.648257
 30
0.0
 40
0.35
100
AcDbArc
 50
170.0
 51
182.755
  0
ARC
  5
9A02
330
9889
100
AcDbEntity
  8
1
  6
Continuous
100
AcDbCircle
 10
27.741636
 20
144.048257
 30
0.0
 40
0.35
100
AcDbArc
 50
350.0
 51
170.0
  0
ARC
  5
9A03
330
9889
100
AcDbEntity
  8
1
  6
Continuous
100
AcDbCircle
 10
27.676636
 20
139.648257
 30
0.0
 40
0.35
100
AcDbArc
 50
170.0
 51
182.755
  0
ARC
  5
9A04
330
9889
100
AcDbEntity
  8
1
  6
Continuous
100
AcDbCircle
 10
28.45243599999999
 20
144.048257
 30
0.0
 40
0.35
100
AcDbArc
 50
350.0
 51
170.0
  0
ARC
  5
9A05
330
9889
100
AcDbEntity
  8
1
  6
Continuous
100
AcDbCircle
 10
28.38743599999999
 20
139.648257
 30
0.0
 40
0.35
100
AcDbArc
 50
170.0
 51
182.755
  0
ARC
  5
9A06
330
9889
100
AcDbEntity
  8
1
  6
Continuous
100
AcDbCircle
 10
17.78623599999998
 20
144.698257
 30
0.0
 40
1.0
100
AcDbArc
 50
0.0
 51
90.0
  0
ARC
  5
9A07
330
9889
100
AcDbEntity
  8
1
  6
Continuous
100
AcDbCircle
 10
17.78623599999998
 20
144.698257
 30
0.0
 40
0.3
100
AcDbArc
 50
0.0
 51
90.0
  0
ARC
  5
9A08
330
9889
100
AcDbEntity
  8
1
  6
Continuous
100
AcDbCircle
 10
18.43623599999998
 20
230.0482569999998
 30
0.0
 40
0.35
100
AcDbArc
 50
170.0
 51
350.0
  0
ARC
  5
9A09
330
9889
100
AcDbEntity
  8
1
  6
Continuous
100
AcDbCircle
 10
17.78623599999998
 20
235.2482569999998
 30
0.0
 40
0.3
100
AcDbArc
 50
0.0
 51
90.0
  0
ARC
  5
9A0A
330
9889
100
AcDbEntity
  8
1
  6
Continuous
100
AcDbCircle
 10
17.78623599999998
 20
235.2482569999998
 30
0.0
 40
1.0
100
AcDbArc
 50
0.0
 51
90.0
  0
ARC
  5
9A0B
330
9889
100
AcDbEntity
  8
1
  6
Continuous
100
AcDbCircle
 10
19.147036
 20
230.0482569999998
 30
0.0
 40
0.35
100
AcDbArc
 50
170.0
 51
350.0
  0
ARC
  5
9A0C
330
9889
100
AcDbEntity
  8
1
  6
Continuous
100
AcDbCircle
 10
19.85783599999998
 20
230.0482569999998
 30
0.0
 40
0.35
100
AcDbArc
 50
170.0
 51
350.0
  0
ARC
  5
9A0D
330
9889
100
AcDbEntity
  8
1
  6
Continuous
100
AcDbCircle
 10
20.56863599999998
 20
230.0482569999998
 30
0.0
 40
0.35
100
AcDbArc
 50
170.0
 51
350.0
  0
ARC
  5
9A0E
330
9889
100
AcDbEntity
  8
1
  6
Continuous
100
AcDbCircle
 10
21.27943599999999
 20
230.0482569999998
 30
0.0
 40
0.35
100
AcDbArc
 50
170.0
 51
350.0
  0
ARC
  5
9A0F
330
9889
100
AcDbEntity
  8
1
  6
Continuous
100
AcDbCircle
 10
21.99023599999998
 20
230.0482569999998
 30
0.0
 40
0.35
100
AcDbArc
 50
170.0
 51
350.0
  0
ARC
  5
9A10
330
9889
100
AcDbEntity
  8
1
  6
Continuous
100
AcDbCircle
 10
22.701036
 20
230.0482569999998
 30
0.0
 40
0.35
100
AcDbArc
 50
170.0
 51
350.0
  0
ARC
  5
9A11
330
9889
100
AcDbEntity
  8
1
  6
Continuous
100
AcDbCircle
 10
23.41183599999999
 20
230.0482569999998
 30
0.0
 40
0.35
100
AcDbArc
 50
170.0
 51
350.0
  0
ARC
  5
9A12
330
9889
100
AcDbEntity
  8
1
  6
Continuous
100
AcDbCircle
 10
24.122636
 20
230.0482569999998
 30
0.0
 40
0.35
100
AcDbArc
 50
170.0
 51
350.0
  0
ARC
  5
9A13
330
9889
100
AcDbEntity
  8
1
  6
Continuous
100
AcDbCircle
 10
24.83343599999999
 20
230.0482569999998
 30
0.0
 40
0.35
100
AcDbArc
 50
170.0
 51
350.0
  0
ARC
  5
9A14
330
9889
100
AcDbEntity
  8
1
  6
Continuous
100
AcDbCircle
 10
25.54423599999999
 20
230.0482569999998
 30
0.0
 40
0.35
100
AcDbArc
 50
170.0
 51
350.0
  0
ARC
  5
9A15
330
9889
100
AcDbEntity
  8
1
  6
Continuous
100
AcDbCircle
 10
26.255036
 20
230.0482569999998
 30
0.0
 40
0.35
100
AcDbArc
 50
170.0
 51
350.0
  0
ARC
  5
9A16
330
9889
100
AcDbEntity
  8
1
  6
Continuous
100
AcDbCircle
 10
26.965836
 20
230.0482569999998
 30
0.0
 40
0.35
100
AcDbArc
 50
170.0
 51
350.0
  0
ARC
  5
9A17
330
9889
100
AcDbEntity
  8
1
  6
Continuous
100
AcDbCircle
 10
27.676636
 20
230.0482569999998
 30
0.0
 40
0.35
100
AcDbArc
 50
170.0
 51
350.0
  0
ARC
  5
9A18
330
9889
100
AcDbEntity
  8
1
  6
Continuous
100
AcDbCircle
 10
28.38743599999999
 20
230.0482569999998
 30
0.0
 40
0.35
100
AcDbArc
 50
170.0
 51
350.0
  0
ARC
  5
9A19
330
9889
100
AcDbEntity
  8
1
  6
Continuous
100
AcDbCircle
 10
29.85493599999999
 20
46.848457
 30
0.0
 40
3.03125
100
AcDbArc
 50
11.3353
 51
47.92499999999999
  0
ARC
  5
9A1A
330
9889
100
AcDbEntity
  8
1
  6
Continuous
100
AcDbCircle
 10
19.32003599999998
 20
44.648457
 30
0.0
 40
0.35
100
AcDbArc
 50
215.694
 51
324.3059999999998
  0
ARC
  5
9A1B
330
9889
100
AcDbEntity
  8
1
  6
Continuous
100
AcDbCircle
 10
20.03083599999997
 20
44.648457
 30
0.0
 40
0.35
100
AcDbArc
 50
215.694
 51
324.3059999999998
  0
ARC
  5
9A1C
330
9889
100
AcDbEntity
  8
1
  6
Continuous
100
AcDbCircle
 10
20.74163599999998
 20
44.648457
 30
0.0
 40
0.35
100
AcDbArc
 50
215.694
 51
350.0
  0
ARC
  5
9A1D
330
9889
100
AcDbEntity
  8
1
  6
Continuous
100
AcDbCircle
 10
21.452436
 20
44.648457
 30
0.0
 40
0.35
100
AcDbArc
 50
170.0
 51
350.0
  0
ARC
  5
9A1E
330
9889
100
AcDbEntity
  8
1
  6
Continuous
100
AcDbCircle
 10
22.16323599999999
 20
44.648457
 30
0.0
 40
0.35
100
AcDbArc
 50
170.0
 51
350.0
  0
ARC
  5
9A1F
330
9889
100
AcDbEntity
  8
1
  6
Continuous
100
AcDbCircle
 10
22.874036
 20
44.648457
 30
0.0
 40
0.35
100
AcDbArc
 50
170.0
 51
350.0
  0
ARC
  5
9A20
330
9889
100
AcDbEntity
  8
1
  6
Continuous
100
AcDbCircle
 10
23.584836
 20
44.648457
 30
0.0
 40
0.35
100
AcDbArc
 50
170.0
 51
224.749
  0
ARC
  5
9A21
330
9889
100
AcDbEntity
  8
1
  6
Continuous
100
AcDbCircle
 10
24.29563599999999
 20
44.648457
 30
0.0
 40
0.35
100
AcDbArc
 50
313.434
 51
350.0
  0
ARC
  5
9A22
330
9889
100
AcDbEntity
  8
1
  6
Continuous
100
AcDbCircle
 10
25.006436
 20
44.648457
 30
0.0
 40
0.35
100
AcDbArc
 50
170.0
 51
350.0
  0
ARC
  5
9A23
330
9889
100
AcDbEntity
  8
1
  6
Continuous
100
AcDbCircle
 10
25.717236
 20
44.648457
 30
0.0
 40
0.35
100
AcDbArc
 50
170.0
 51
350.0
  0
ARC
  5
9A24
330
9889
100
AcDbEntity
  8
1
  6
Continuous
100
AcDbCircle
 10
26.428036
 20
44.648457
 30
0.0
 40
0.35
100
AcDbArc
 50
170.0
 51
350.0
  0
ARC
  5
9A25
330
9889
100
AcDbEntity
  8
1
  6
Continuous
100
AcDbCircle
 10
27.13883599999999
 20
44.648457
 30
0.0
 40
0.35
100
AcDbArc
 50
170.0
 51
324.3059999999998
  0
ARC
  5
9A26
330
9889
100
AcDbEntity
  8
1
  6
Continuous
100
AcDbCircle
 10
27.849636
 20
44.648457
 30
0.0
 40
0.35
100
AcDbArc
 50
215.694
 51
324.3059999999998
  0
ARC
  5
9A27
330
9889
100
AcDbEntity
  8
1
  6
Continuous
100
AcDbCircle
 10
17.78623599999998
 20
43.848457
 30
0.0
 40
1.0
100
AcDbArc
 50
323.13
 51
0.0
  0
ARC
  5
9A28
330
9889
100
AcDbEntity
  8
1
  6
Continuous
100
AcDbCircle
 10
28.56043599999999
 20
44.648457
 30
0.0
 40
0.35
100
AcDbArc
 50
215.694
 51
350.0
  0
ARC
  5
9A29
330
9889
100
AcDbEntity
  8
1
  6
Continuous
100
AcDbCircle
 10
23.886236
 20
0.6527569999999999
 30
0.0
 40
46.0576
100
AcDbArc
 50
79.9972
 51
100.0029999999999
  0
ARC
  5
9A2A
330
9889
100
AcDbEntity
  8
1
  6
Continuous
100
AcDbCircle
 10
23.886236
 20
1.352856999999999
 30
0.0
 40
46.0576
100
AcDbArc
 50
79.9972
 51
100.0029999999999
  0
ARC
  5
9A2B
330
9889
100
AcDbEntity
  8
1
  6
Continuous
100
AcDbCircle
 10
30.886236
 20
229.3722569999999
 30
0.0
 40
1.0
100
AcDbArc
 50
270.0
 51
338.032
  0
ARC
  5
9A2C
330
9889
100
AcDbEntity
  8
1
  6
Continuous
100
AcDbCircle
 10
16.886236
 20
229.3722569999999
 30
0.0
 40
1.0
100
AcDbArc
 50
201.968
 51
270.0
  0
ARC
  5
9A2D
330
9889
100
AcDbEntity
  8
1
  6
Continuous
100
AcDbCircle
 10
23.886236
 20
119.370257
 30
0.0
 40
13.73499999999999
100
AcDbArc
 50
234.377
 51
305.6229999999998
  0
ARC
  5
9A2E
330
9889
100
AcDbEntity
  8
1
  6
Continuous
100
AcDbCircle
 10
23.886236
 20
121.772257
 30
0.0
 40
15.749
100
AcDbArc
 50
239.4709999999999
 51
300.529
  0
ARC
  5
9A2F
330
9889
100
AcDbEntity
  8
1
  6
Continuous
100
AcDbCircle
 10
264.5495359999998
 20
120.414257
 30
0.0
 40
14.778
100
AcDbArc
 50
237.2249999999999
 51
302.7749999999998
  0
ARC
  5
9A30
330
9889
100
AcDbEntity
  8
1
  6
Continuous
100
AcDbCircle
 10
32.88623599999999
 20
138.113257
 30
0.0
 40
4.0
100
AcDbArc
 50
270.0
 51
11.176735
  0
ARC
  5
9A31
330
9889
100
AcDbEntity
  8
1
  6
Continuous
100
AcDbCircle
 10
14.88623599999999
 20
138.113257
 30
0.0
 40
4.0
100
AcDbArc
 50
168.8232649999999
 51
270.0
  0
ARC
  5
9A32
330
9889
100
AcDbEntity
  8
1
  6
Continuous
100
AcDbCircle
 10
32.88623599999999
 20
138.113257
 30
0.0
 40
1.0
100
AcDbArc
 50
270.0
 51
11.176735
  0
ARC
  5
9A33
330
9889
100
AcDbEntity
  8
1
  6
Continuous
100
AcDbCircle
 10
14.88623599999999
 20
138.113257
 30
0.0
 40
1.0
100
AcDbArc
 50
168.8232649999999
 51
270.0
  0
ARC
  5
9A34
330
9889
100
AcDbEntity
  8
1
  6
Continuous
100
AcDbCircle
 10
29.27123599999999
 20
44.648457
 30
0.0
 40
0.35
100
AcDbArc
 50
172.482
 51
350.0
  0
ARC
  5
9A35
330
9889
100
AcDbEntity
  8
1
  6
Continuous
100
AcDbCircle
 10
150.725536
 20
141.996257
 30
0.0
 40
3.25
100
AcDbArc
 50
359.972
 51
36.813827
  0
ARC
  5
9A36
330
9889
100
AcDbEntity
  8
1
  6
Continuous
100
AcDbCircle
 10
151.685536
 20
135.6132569999997
 30
0.0
 40
1.6
100
AcDbArc
 50
280.775
 51
19.389703
  0
ARC
  5
9A37
330
9889
100
AcDbEntity
  8
1
  6
Continuous
100
AcDbCircle
 10
268.3165359999999
 20
126.545257
 30
0.0
 40
0.5091200000000004
100
AcDbArc
 50
270.0
 51
0.0
  0
ARC
  5
9A38
330
9889
100
AcDbEntity
  8
1
  6
Continuous
100
AcDbCircle
 10
268.322536
 20
126.581257
 30
0.0
 40
0.504
100
AcDbArc
 50
0.0
 51
90.0
  0
ARC
  5
9A39
330
9889
100
AcDbEntity
  8
1
  6
Continuous
100
AcDbCircle
 10
267.385536
 20
126.636257
 30
0.0
 40
0.5909310000000004
100
AcDbArc
 50
227.1209999999999
 51
312.879
  0
ARC
  5
9A3A
330
9889
100
AcDbEntity
  8
1
  6
Continuous
100
AcDbCircle
 10
267.385536
 20
126.494257
 30
0.0
 40
0.5909310000000004
100
AcDbArc
 50
47.12109999999999
 51
132.8789999999999
  0
ARC
  5
9A3B
330
9889
100
AcDbEntity
  8
1
  6
Continuous
100
AcDbCircle
 10
267.451536
 20
126.565257
 30
0.0
 40
0.494136
100
AcDbArc
 50
312.879
 51
47.12109999999999
  0
ARC
  5
9A3C
330
9889
100
AcDbEntity
  8
1
  6
Continuous
100
AcDbCircle
 10
267.3195359999999
 20
126.565257
 30
0.0
 40
0.494136
100
AcDbArc
 50
132.8789999999999
 51
227.1209999999999
  0
ARC
  5
9A3D
330
9889
100
AcDbEntity
  8
1
  6
Continuous
100
AcDbCircle
 10
267.2745359999999
 20
122.562257
 30
0.0
 40
0.6253770000000002
100
AcDbArc
 50
42.86959999999999
 51
46.2751
  0
ARC
  5
9A3E
330
9889
100
AcDbEntity
  8
1
  6
Continuous
100
AcDbCircle
 10
267.4255359999999
 20
122.562257
 30
0.0
 40
0.6253770000000002
100
AcDbArc
 50
137.1299999999999
 51
222.8699999999999
  0
ARC
  5
9A3F
330
9889
100
AcDbEntity
  8
1
  6
Continuous
100
AcDbCircle
 10
267.3495359999999
 20
122.632257
 30
0.0
 40
0.5225300000000001
100
AcDbArc
 50
42.86959999999999
 51
137.1299999999999
  0
ARC
  5
9A40
330
9889
100
AcDbEntity
  8
1
  6
Continuous
100
AcDbCircle
 10
267.3495359999999
 20
122.492257
 30
0.0
 40
0.5225300000000001
100
AcDbArc
 50
222.8699999999999
 51
294.2769999999999
  0
ARC
  5
9A41
330
9889
100
AcDbEntity
  8
1
  6
Continuous
100
AcDbCircle
 10
267.2745359999999
 20
130.156257
 30
0.0
 40
0.6253770000000002
100
AcDbArc
 50
32.84969999999999
 51
42.86959999999999
  0
ARC
  5
9A42
330
9889
100
AcDbEntity
  8
1
  6
Continuous
100
AcDbCircle
 10
267.4255359999999
 20
130.156257
 30
0.0
 40
0.6253770000000002
100
AcDbArc
 50
137.1299999999999
 51
222.8699999999999
  0
ARC
  5
9A43
330
9889
100
AcDbEntity
  8
1
  6
Continuous
100
AcDbCircle
 10
267.3495359999999
 20
130.226257
 30
0.0
 40
0.5225300000000001
100
AcDbArc
 50
42.86959999999999
 51
137.1299999999999
  0
ARC
  5
9A44
330
9889
100
AcDbEntity
  8
1
  6
Continuous
100
AcDbCircle
 10
267.3495359999999
 20
130.0862569999999
 30
0.0
 40
0.5225300000000001
100
AcDbArc
 50
222.8699999999999
 51
288.2079999999999
  0
ARC
  5
9A45
330
9889
100
AcDbEntity
  8
1
  6
Continuous
100
AcDbCircle
 10
268.1745359999998
 20
130.156257
 30
0.0
 40
0.6253770000000002
100
AcDbArc
 50
317.13
 51
42.86959999999999
  0
ARC
  5
9A46
330
9889
100
AcDbEntity
  8
1
  6
Continuous
100
AcDbCircle
 10
268.3255359999999
 20
130.156257
 30
0.0
 40
0.6253770000000002
100
AcDbArc
 50
137.1299999999999
 51
147.1499999999998
  0
ARC
  5
9A47
330
9889
100
AcDbEntity
  8
1
  6
Continuous
100
AcDbCircle
 10
268.2495359999999
 20
130.226257
 30
0.0
 40
0.5225300000000001
100
AcDbArc
 50
42.86959999999999
 51
137.1299999999999
  0
ARC
  5
9A48
330
9889
100
AcDbEntity
  8
1
  6
Continuous
100
AcDbCircle
 10
268.2495359999999
 20
130.0862569999999
 30
0.0
 40
0.5225300000000001
100
AcDbArc
 50
283.014
 51
317.13
  0
ARC
  5
9A49
330
9889
100
AcDbEntity
  8
1
  6
Continuous
100
AcDbCircle
 10
268.1875359999998
 20
124.5902569999999
 30
0.0
 40
0.6263380000000001
100
AcDbArc
 50
225.9269999999999
 51
314.0719999999999
  0
ARC
  5
9A4A
330
9889
100
AcDbEntity
  8
1
  6
Continuous
100
AcDbCircle
 10
268.1875359999998
 20
124.522257
 30
0.0
 40
0.6263380000000001
100
AcDbArc
 50
45.92750000000001
 51
134.0729999999997
  0
ARC
  5
9A4B
330
9889
100
AcDbEntity
  8
1
  6
Continuous
100
AcDbCircle
 10
268.2205359999999
 20
124.556257
 30
0.0
 40
0.57924
100
AcDbArc
 50
314.073
 51
45.92750000000001
  0
ARC
  5
9A4C
330
9889
100
AcDbEntity
  8
1
  6
Continuous
100
AcDbCircle
 10
268.1555359999999
 20
124.556257
 30
0.0
 40
0.57924
100
AcDbArc
 50
134.0729999999997
 51
225.9269999999999
  0
ARC
  5
9A4D
330
9889
100
AcDbEntity
  8
1
  6
Continuous
100
AcDbCircle
 10
267.412536
 20
124.5902569999999
 30
0.0
 40
0.6263380000000001
100
AcDbArc
 50
225.9269999999999
 51
270.0
  0
ARC
  5
9A4E
330
9889
100
AcDbEntity
  8
1
  6
Continuous
100
AcDbCircle
 10
267.412536
 20
124.522257
 30
0.0
 40
0.6263380000000001
100
AcDbArc
 50
109.5809999999999
 51
134.0729999999997
  0
ARC
  5
9A4F
330
9889
100
AcDbEntity
  8
1
  6
Continuous
100
AcDbCircle
 10
267.3795359999999
 20
124.556257
 30
0.0
 40
0.57924
100
AcDbArc
 50
134.0729999999997
 51
225.9269999999999
  0
ARC
  5
9A50
330
9889
100
AcDbEntity
  8
1
  6
Continuous
100
AcDbCircle
 10
30.586236
 20
44.487057
 30
0.0
 40
0.5
100
AcDbArc
 50
0.0
 51
90.0
  0
ARC
  5
9A51
330
9889
100
AcDbEntity
  8
1
  6
Continuous
100
AcDbCircle
 10
17.18623599999999
 20
44.487057
 30
0.0
 40
0.5
100
AcDbArc
 50
90.0
 51
180.0
  0
LINE
  5
9A52
330
9889
100
AcDbEntity
  8
1
  6
Continuous
100
AcDbLine
 10
265.099536
 20
119.448257
 30
0.0
 11
265.099536
 21
114.748257
 31
0.0
  0
CIRCLE
  5
9A53
330
9889
100
AcDbEntity
  8
3
  6
DASHED
100
AcDbCircle
 10
264.5495359999998
 20
134.7482569999999
 30
0.0
 40
2.799999999999998
  0
CIRCLE
  5
9A54
330
9889
100
AcDbEntity
  8
3
  6
DASHED
100
AcDbCircle
 10
264.5495359999998
 20
111.748257
 30
0.0
 40
2.799999999999998
  0
LINE
  5
9A55
330
9889
100
AcDbEntity
  8
1
  6
Continuous
100
AcDbLine
 10
205.5535359999999
 20
159.249257
 30
0.0
 11
204.053536
 21
159.249257
 31
0.0
  0
LINE
  5
9A56
330
9889
100
AcDbEntity
  8
4
  6
CENTER
100
AcDbLine
 10
27.68623599999999
 20
134.7482569999999
 30
0.0
 11
20.08623599999999
 21
134.7482569999999
 31
0.0
  0
LINE
  5
9A57
330
9889
100
AcDbEntity
  8
4
  6
CENTER
100
AcDbLine
 10
27.68623599999999
 20
111.748257
 30
0.0
 11
20.08623599999999
 21
111.748257
 31
0.0
  0
ARC
  5
9A58
330
9889
100
AcDbEntity
  8
1
  6
Continuous
100
AcDbCircle
 10
152.053536
 20
157.249257
 30
0.0
 40
1.5
100
AcDbArc
 50
359.025568
 51
179.025568
  0
LINE
  5
9A59
330
9889
100
AcDbEntity
  8
1
  6
Continuous
100
AcDbLine
 10
150.185753
 20
135.6387659999997
 30
0.0
 11
150.5537529999998
 21
157.274766
 31
0.0
  0
LINE
  5
9A5A
330
9889
100
AcDbEntity
  8
1
  6
Continuous
100
AcDbLine
 10
153.5533189999999
 20
157.223747
 30
0.0
 11
153.1853189999999
 21
135.587747
 31
0.0
  0
LINE
  5
9A5B
330
9889
100
AcDbEntity
  8
1
  6
Continuous
100
AcDbLine
 10
31.47453599999999
 20
235.048257
 30
0.0
 11
16.297936
 21
235.048257
 31
0.0
  0
LINE
  5
9A5C
330
9889
100
AcDbEntity
  8
4
  6
CENTER
100
AcDbLine
 10
10.17257899999999
 20
233.1802569999999
 30
0.0
 11
38.71380999999999
 21
233.1802569999999
 31
0.0
  0
LINE
  5
9A5D
330
9889
100
AcDbEntity
  8
1
  6
Continuous
100
AcDbLine
 10
31.297836
 20
232.0482569999998
 30
0.0
 11
16.474636
 21
232.0482569999998
 31
0.0
  0
LINE
  5
9A5E
330
9889
100
AcDbEntity
  8
1
  6
Continuous
100
AcDbLine
 10
32.78623599999999
 20
231.6802569999999
 30
0.0
 11
35.38623599999999
 21
231.6802569999999
 31
0.0
  0
ARC
  5
9A5F
330
9889
100
AcDbEntity
  8
1
  6
Continuous
100
AcDbCircle
 10
35.38623599999999
 20
233.1802569999999
 30
0.0
 40
1.5
100
AcDbArc
 50
270.0
 51
84.71848599999999
  0
LINE
  5
9A60
330
9889
100
AcDbEntity
  8
1
  6
Continuous
100
AcDbLine
 10
31.47453599999999
 20
235.048257
 30
0.0
 11
35.52431
 21
234.6738879999997
 31
0.0
  0
LINE
  5
9A61
330
9889
100
AcDbEntity
  8
1
  6
Continuous
100
AcDbLine
 10
31.297836
 20
232.0482569999998
 30
0.0
 11
35.256382
 21
231.6858879999998
 31
0.0
  0
LINE
  5
9A62
330
9889
100
AcDbEntity
  8
1
  6
Continuous
100
AcDbLine
 10
16.297936
 20
235.048257
 30
0.0
 11
12.248162
 21
234.6738879999997
 31
0.0
  0
ARC
  5
9A63
330
9889
100
AcDbEntity
  8
1
  6
Continuous
100
AcDbCircle
 10
12.386236
 20
233.1802569999999
 30
0.0
 40
1.5
100
AcDbArc
 50
95.28151400000002
 51
270.0
  0
LINE
  5
9A64
330
9889
100
AcDbEntity
  8
1
  6
Continuous
100
AcDbLine
 10
16.474636
 20
232.0482569999998
 30
0.0
 11
12.516091
 21
231.6858879999998
 31
0.0
  0
LINE
  5
9A65
330
9889
100
AcDbEntity
  8
1
  6
Continuous
100
AcDbLine
 10
14.939878
 20
231.6802569999999
 30
0.0
 11
12.386236
 21
231.6802569999999
 31
0.0
  0
ARC
  5
9A66
330
9889
100
AcDbEntity
  8
1
  6
Continuous
100
AcDbCircle
 10
35.38623599999999
 20
45.916357
 30
0.0
 40
1.5
100
AcDbArc
 50
275.281514
 51
90.0
  0
LINE
  5
9A67
330
9889
100
AcDbEntity
  8
1
  6
Continuous
100
AcDbLine
 10
31.886236
 20
47.41635699999998
 30
0.0
 11
35.38623599999999
 21
47.41635699999998
 31
0.0
  0
LINE
  5
9A68
330
9889
100
AcDbEntity
  8
1
  6
Continuous
100
AcDbLine
 10
31.886236
 20
44.41635699999999
 30
0.0
 11
35.38623599999999
 21
44.41635699999999
 31
0.0
  0
LINE
  5
9A69
330
9889
100
AcDbEntity
  8
1
  6
Continuous
100
AcDbLine
 10
31.886236
 20
44.086415
 30
0.0
 11
35.52431
 21
44.422725
 31
0.0
  0
LINE
  5
9A6A
330
9889
100
AcDbEntity
  8
4
  6
CENTER
100
AcDbLine
 10
10.17257899999999
 20
45.916357
 30
0.0
 11
38.71380999999999
 21
45.916357
 31
0.0
  0
ARC
  5
9A6B
330
9889
100
AcDbEntity
  8
1
  6
Continuous
100
AcDbCircle
 10
12.386236
 20
45.916357
 30
0.0
 40
1.5
100
AcDbArc
 50
90.0
 51
264.7184859999999
  0
LINE
  5
9A6C
330
9889
100
AcDbEntity
  8
1
  6
Continuous
100
AcDbLine
 10
15.886236
 20
47.41635699999998
 30
0.0
 11
12.386236
 21
47.41635699999998
 31
0.0
  0
LINE
  5
9A6D
330
9889
100
AcDbEntity
  8
1
  6
Continuous
100
AcDbLine
 10
15.886236
 20
44.41635699999999
 30
0.0
 11
12.386236
 21
44.41635699999999
 31
0.0
  0
LINE
  5
9A6E
330
9889
100
AcDbEntity
  8
1
  6
Continuous
100
AcDbLine
 10
15.886236
 20
44.086415
 30
0.0
 11
12.248162
 21
44.422725
 31
0.0
  0
ARC
  5
9A6F
330
9889
100
AcDbEntity
  8
1
  6
Continuous
100
AcDbCircle
 10
18.08623599999998
 20
235.848257
 30
0.0
 40
1.199999999999999
100
AcDbArc
 50
90.0
 51
160.528779
  0
ARC
  5
9A70
330
9889
100
AcDbEntity
  8
1
  6
Continuous
100
AcDbCircle
 10
29.68623599999999
 20
235.848257
 30
0.0
 40
1.199999999999999
100
AcDbArc
 50
0.0
 51
90.0
  0
LINE
  5
9A71
330
9889
100
AcDbEntity
  8
1
  6
Continuous
100
AcDbLine
 10
30.886236
 20
232.0482569999998
 30
0.0
 11
30.886236
 21
229.0482569999999
 31
0.0
  0
LINE
  5
9A72
330
9889
100
AcDbEntity
  8
1
  6
Continuous
100
AcDbLine
 10
16.886236
 20
235.5482569999999
 30
0.0
 11
16.886236
 21
235.048257
 31
0.0
  0
ARC
  5
9A73
330
9889
100
AcDbEntity
  8
1
  6
Continuous
100
AcDbCircle
 10
16.68623599999999
 20
49.924357
 30
0.0
 40
0.8
100
AcDbArc
 50
90.0
 51
180.0
  0
ARC
  5
9A74
330
9889
100
AcDbEntity
  8
1
  6
Continuous
100
AcDbCircle
 10
31.086236
 20
49.924357
 30
0.0
 40
0.8
100
AcDbArc
 50
0.0
 51
90.0
  0
ARC
  5
9A75
330
9889
100
AcDbEntity
  8
1
  6
Continuous
100
AcDbCircle
 10
18.08623599999998
 20
43.248457
 30
0.0
 40
1.199999999999999
100
AcDbArc
 50
180.0
 51
247.975687
  0
ARC
  5
9A76
330
9889
100
AcDbEntity
  8
1
  6
Continuous
100
AcDbCircle
 10
29.68623599999999
 20
43.248457
 30
0.0
 40
1.199999999999999
100
AcDbArc
 50
292.024313
 51
0.0
  0
LINE
  5
9A77
330
9889
100
AcDbEntity
  8
1
  6
Continuous
100
AcDbLine
 10
29.599239
 20
158.749257
 30
0.0
 11
18.173234
 21
158.749257
 31
0.0
  0
LINE
  5
9A78
330
9889
100
AcDbEntity
  8
1
  6
Continuous
100
AcDbLine
 10
33.523375
 20
155.5246009999999
 30
0.0
 11
36.810372
 21
138.888601
 31
0.0
  0
LINE
  5
9A79
330
9889
100
AcDbEntity
  8
1
  6
Continuous
100
AcDbLine
 10
29.599239
 20
155.7492569999998
 30
0.0
 11
18.173234
 21
155.7492569999998
 31
0.0
  0
LINE
  5
9A7A
330
9889
100
AcDbEntity
  8
1
  6
Continuous
100
AcDbLine
 10
30.580273
 20
154.9430929999997
 30
0.0
 11
33.86727
 21
138.3070929999999
 31
0.0
  0
ARC
  5
9A7B
330
9889
100
AcDbEntity
  8
1
  6
Continuous
100
AcDbCircle
 10
29.599239
 20
154.749257
 30
0.0
 40
1.0
100
AcDbArc
 50
11.176735
 51
90.0
  0
ARC
  5
9A7C
330
9889
100
AcDbEntity
  8
1
  6
Continuous
100
AcDbCircle
 10
29.599239
 20
154.749257
 30
0.0
 40
4.0
100
AcDbArc
 50
11.176735
 51
90.0
  0
ARC
  5
9A7D
330
9889
100
AcDbEntity
  8
1
  6
Continuous
100
AcDbCircle
 10
18.173234
 20
154.749257
 30
0.0
 40
4.0
100
AcDbArc
 50
90.0
 51
168.8232649999999
  0
LINE
  5
9A7E
330
9889
100
AcDbEntity
  8
1
  6
Continuous
100
AcDbLine
 10
17.19219999999999
 20
154.9430929999997
 30
0.0
 11
13.905202
 21
138.3070929999999
 31
0.0
  0
ARC
  5
9A7F
330
9889
100
AcDbEntity
  8
1
  6
Continuous
100
AcDbCircle
 10
18.173234
 20
154.749257
 30
0.0
 40
1.0
100
AcDbArc
 50
90.0
 51
168.8232649999999
  0
LINE
  5
9A80
330
9889
100
AcDbEntity
  8
1
  6
Continuous
100
AcDbLine
 10
14.249098
 20
155.5246009999999
 30
0.0
 11
10.96209999999999
 21
138.888601
 31
0.0
  0
LINE
  5
9A81
330
9889
100
AcDbEntity
  8
1
  6
Continuous
100
AcDbLine
 10
271.243573
 20
154.9430929999997
 30
0.0
 11
274.53057
 21
138.3070929999999
 31
0.0
  0
ARC
  5
9A82
330
9889
100
AcDbEntity
  8
1
  6
Continuous
100
AcDbCircle
 10
270.262539
 20
154.749257
 30
0.0
 40
4.0
100
AcDbArc
 50
11.176735
 51
90.0
  0
ARC
  5
9A83
330
9889
100
AcDbEntity
  8
1
  6
Continuous
100
AcDbCircle
 10
270.262539
 20
154.749257
 30
0.0
 40
1.0
100
AcDbArc
 50
11.176735
 51
90.0
  0
LINE
  5
9A84
330
9889
100
AcDbEntity
  8
1
  6
Continuous
100
AcDbLine
 10
270.262539
 20
155.7492569999998
 30
0.0
 11
258.8365339999999
 21
155.7492569999998
 31
0.0
  0
LINE
  5
9A85
330
9889
100
AcDbEntity
  8
1
  6
Continuous
100
AcDbLine
 10
270.262539
 20
158.749257
 30
0.0
 11
258.8365339999999
 21
158.749257
 31
0.0
  0
LINE
  5
9A86
330
9889
100
AcDbEntity
  8
1
  6
Continuous
100
AcDbLine
 10
274.1866749999999
 20
155.5246009999999
 30
0.0
 11
277.473672
 21
138.888601
 31
0.0
  0
LINE
  5
9A87
330
9889
100
AcDbEntity
  8
1
  6
Continuous
100
AcDbLine
 10
257.8555
 20
154.9430929999997
 30
0.0
 11
254.568502
 21
138.3070929999999
 31
0.0
  0
LINE
  5
9A88
330
9889
100
AcDbEntity
  8
1
  6
Continuous
100
AcDbLine
 10
254.912398
 20
155.5246009999999
 30
0.0
 11
251.6253999999999
 21
138.888601
 31
0.0
  0
ARC
  5
9A89
330
9889
100
AcDbEntity
  8
1
  6
Continuous
100
AcDbCircle
 10
258.8365339999999
 20
154.749257
 30
0.0
 40
4.0
100
AcDbArc
 50
90.0
 51
168.8232649999999
  0
ARC
  5
9A8A
330
9889
100
AcDbEntity
  8
1
  6
Continuous
100
AcDbCircle
 10
258.8365339999999
 20
154.749257
 30
0.0
 40
1.0
100
AcDbArc
 50
90.0
 51
168.8232649999999
  0
ARC
  5
9A8B
330
9889
100
AcDbEntity
  8
1
  6
Continuous
100
AcDbCircle
 10
255.549536
 20
138.113257
 30
0.0
 40
1.0
100
AcDbArc
 50
168.8232649999999
 51
270.0
  0
LINE
  5
9A8C
330
9889
100
AcDbEntity
  8
1
  6
Continuous
100
AcDbLine
 10
256.5495359999999
 20
134.113257
 30
0.0
 11
255.549536
 21
134.113257
 31
0.0
  0
LINE
  5
9A8D
330
9889
100
AcDbEntity
  8
1
  6
Continuous
100
AcDbLine
 10
256.5495359999999
 20
137.113257
 30
0.0
 11
255.549536
 21
137.113257
 31
0.0
  0
LINE
  5
9A8E
330
9889
100
AcDbEntity
  8
1
  6
Continuous
100
AcDbLine
 10
272.549536
 20
137.113257
 30
0.0
 11
273.5995359999999
 21
137.113257
 31
0.0
  0
LINE
  5
9A8F
330
9889
100
AcDbEntity
  8
1
  6
Continuous
100
AcDbLine
 10
272.549536
 20
134.113257
 30
0.0
 11
273.6039359999999
 21
134.113257
 31
0.0
  0
ARC
  5
9A90
330
9889
100
AcDbEntity
  8
1
  6
Continuous
100
AcDbCircle
 10
273.5495359999998
 20
138.113257
 30
0.0
 40
1.0
100
AcDbArc
 50
270.0
 51
11.176735
  0
ARC
  5
9A91
330
9889
100
AcDbEntity
  8
1
  6
Continuous
100
AcDbCircle
 10
273.5495359999998
 20
138.113257
 30
0.0
 40
4.0
100
AcDbArc
 50
270.0
 51
11.176735
  0
ARC
  5
9A92
330
9889
100
AcDbEntity
  8
1
  6
Continuous
100
AcDbCircle
 10
255.549536
 20
138.113257
 30
0.0
 40
4.0
100
AcDbArc
 50
168.8232649999999
 51
270.0
  0
ENDSEC
  0
SECTION
  2
OBJECTS
  0
DICTIONARY
  5
9877
330
0
100
AcDbDictionary
281
     1
  3
ACAD_CIP_PREVIOUS_PRODUCT_INFO
350
9B53
  3
ACAD_COLOR
350
9B35
  3
ACAD_DETAILVIEWSTYLE
350
9B4E
  3
ACAD_GROUP
350
9878
  3
ACAD_LAYOUT
350
9884
  3
ACAD_MATERIAL
350
9B03
  3
ACAD_MLEADERSTYLE
350
9B4A
  3
ACAD_MLINESTYLE
350
9881
  3
ACAD_PLOTSETTINGS
350
9883
  3
ACAD_PLOTSTYLENAME
350
9B01
  3
ACAD_SCALELIST
350
9B38
  3
ACAD_SECTIONVIEWSTYLE
350
9B4C
  3
ACAD_TABLESTYLE
350
9B36
  3
ACAD_VISUALSTYLE
350
9B1C
  3
ACDB_RECOMPOSE_DATA
350
9B71
  3
AcDbVariableDictionary
350
9B64
  3
DWGPROPS
350
9B72
  0
DICTIONARY
  5
9B54
330
987B
100
AcDbDictionary
280
     1
281
     1
  3
ADSK_XREC_LAYER_RECONCILED
360
9B55
  0
DICTIONARY
  5
9B56
330
9891
100
AcDbDictionary
280
     1
281
     1
  3
ADSK_XREC_LAYER_RECONCILED
360
9B57
  0
DICTIONARY
  5
9B58
330
9892
100
AcDbDictionary
280
     1
281
     1
  3
ADSK_XREC_LAYER_RECONCILED
360
9B59
  0
DICTIONARY
  5
9B5A
330
9893
100
AcDbDictionary
280
     1
281
     1
  3
ADSK_XREC_LAYER_RECONCILED
360
9B5B
  0
DICTIONARY
  5
9B5C
330
9894
100
AcDbDictionary
280
     1
281
     1
  3
ADSK_XREC_LAYER_RECONCILED
360
9B5D
  0
DICTIONARY
  5
9B5E
330
9895
100
AcDbDictionary
280
     1
281
     1
  3
ADSK_XREC_LAYER_RECONCILED
360
9B5F
  0
DICTIONARY
  5
9B60
330
9896
100
AcDbDictionary
280
     1
281
     1
  3
ADSK_XREC_LAYER_RECONCILED
360
9B61
  0
DICTIONARY
  5
9B62
330
9897
100
AcDbDictionary
280
     1
281
     1
  3
ADSK_XREC_LAYER_RECONCILED
360
9B63
  0
DICTIONARY
  5
9A9F
330
9889
100
AcDbDictionary
281
     1
  3
ACAD_LAYOUTSELFREF
350
9AFD
  0
DICTIONARY
  5
9A9D
330
9885
100
AcDbDictionary
281
     1
  3
ACAD_LAYOUTSELFREF
350
9AFC
  0
XRECORD
  5
9B53
102
{ACAD_REACTORS
330
9877
102
}
330
9877
100
AcDbXrecord
280
     1
300
ACDLT
300
2014
300
ACDLT_F_S
  0
DICTIONARY
  5
9B35
102
{ACAD_REACTORS
330
9877
102
}
330
9877
100
AcDbDictionary
281
     1
  0
DICTIONARY
  5
9B4E
102
{ACAD_REACTORS
330
9877
102
}
330
9877
100
AcDbDictionary
281
     1
  3
Imperial24
350
9B4F
  0
DICTIONARY
  5
9878
102
{ACAD_REACTORS
330
9877
102
}
330
9877
100
AcDbDictionary
281
     1
  0
DICTIONARY
  5
9884
102
{ACAD_REACTORS
330
9877
102
}
330
9877
100
AcDbDictionary
281
     1
  3
Model
350
9B50
  3
レイアウト1
350
9B51
  0
DICTIONARY
  5
9B03
102
{ACAD_REACTORS
330
9877
102
}
330
9877
100
AcDbDictionary
281
     1
  3
ByBlock
350
9B0C
  3
ByLayer
350
9B04
  3
Global
350
9B14
  0
DICTIONARY
  5
9B4A
102
{ACAD_REACTORS
330
9877
102
}
330
9877
100
AcDbDictionary
281
     1
  3
Standard
350
9B4B
  0
DICTIONARY
  5
9881
102
{ACAD_REACTORS
330
9877
102
}
330
9877
100
AcDbDictionary
281
     1
  3
STANDARD
350
9882
  0
DICTIONARY
  5
9883
102
{ACAD_REACTORS
330
9877
102
}
330
9877
100
AcDbDictionary
281
     1
  0
ACDBDICTIONARYWDFLT
  5
9B01
102
{ACAD_REACTORS
330
9877
102
}
330
9877
100
AcDbDictionary
281
     1
  3
Normal
350
9B02
100
AcDbDictionaryWithDefault
340
9B02
  0
DICTIONARY
  5
9B38
102
{ACAD_REACTORS
330
9877
102
}
330
9877
100
AcDbDictionary
281
     1
  3
A0
350
9B39
  3
A1
350
9B3A
  3
A2
350
9B3B
  3
A3
350
9B3C
  3
A4
350
9B3D
  3
A5
350
9B3E
  3
A6
350
9B3F
  3
A7
350
9B40
  3
A8
350
9B41
  3
A9
350
9B42
  3
B0
350
9B43
  3
B1
350
9B44
  3
B2
350
9B45
  3
B3
350
9B46
  3
B4
350
9B47
  3
B5
350
9B48
  3
B6
350
9B49
  0
DICTIONARY
  5
9B4C
102
{ACAD_REACTORS
330
9877
102
}
330
9877
100
AcDbDictionary
281
     1
  3
Imperial24
350
9B4D
  0
DICTIONARY
  5
9B36
102
{ACAD_REACTORS
330
9877
102
}
330
9877
100
AcDbDictionary
281
     1
  3
Standard
350
9B37
  0
DICTIONARY
  5
9B1C
102
{ACAD_REACTORS
330
9877
102
}
330
9877
100
AcDbDictionary
281
     1
  3
2dWireframe
350
9B22
  3
Basic
350
9B21
  3
Brighten
350
9B28
  3
ColorChange
350
9B2C
  3
Conceptual
350
9B25
  3
Dim
350
9B27
  3
EdgeColorOff
350
9B34
  3
Facepattern
350
9B2B
  3
Flat
350
9B1D
  3
FlatWithEdges
350
9B1E
  3
Gouraud
350
9B1F
  3
GouraudWithEdges
350
9B20
  3
Hidden
350
9B24
  3
JitterOff
350
9B32
  3
Linepattern
350
9B2A
  3
OverhangOff
350
9B33
  3
Realistic
350
9B26
  3
Shaded
350
9B31
  3
Shaded with edges
350
9B30
  3
Shades of Gray
350
9B2D
  3
Sketchy
350
9B2E
  3
Thicken
350
9B29
  3
Wireframe
350
9B23
  3
X-Ray
350
9B2F
  0
XRECORD
  5
9B71
102
{ACAD_REACTORS
330
9877
102
}
330
9877
100
AcDbXrecord
280
     1
 90
        1
330
9B37
  0
DICTIONARY
  5
9B64
102
{ACAD_REACTORS
330
9877
102
}
330
9877
100
AcDbDictionary
281
     1
  3
CANNOSCALE
350
9B69
  3
CMLEADERSTYLE
350
9B66
  3
CTABLESTYLE
350
9B65
  3
CVIEWDETAILSTYLE
350
9B67
  3
CVIEWSECTIONSTYLE
350
9B68
  3
DIMASSOC
350
9B6C
  3
INDEXCTL
350
9B6B
  3
SORTENTS
350
9B6A
  3
XCLIPFRAME
350
9B6D
  0
XRECORD
  5
9B72
102
{ACAD_REACTORS
330
9877
102
}
330
9877
100
AcDbXrecord
280
     1
  1
DWGPROPS COOKIE
  2

  3

  4

  6

  7

  8
Yoshitsune
  9

300
=
301
=
302
=
303
=
304
=
305
=
306
=
307
=
308
=
309
=
 40
0.001679375
 41
2450946.555221065
 42
2457192.60093228
  1

 90
        0
  0
XRECORD
  5
9B55
102
{ACAD_REACTORS
330
9B54
102
}
330
9B54
100
AcDbXrecord
280
     1
290
     1
  0
XRECORD
  5
9B57
102
{ACAD_REACTORS
330
9B56
102
}
330
9B56
100
AcDbXrecord
280
     1
290
     1
  0
XRECORD
  5
9B59
102
{ACAD_REACTORS
330
9B58
102
}
330
9B58
100
AcDbXrecord
280
     1
290
     1
  0
XRECORD
  5
9B5B
102
{ACAD_REACTORS
330
9B5A
102
}
330
9B5A
100
AcDbXrecord
280
     1
290
     1
  0
XRECORD
  5
9B5D
102
{ACAD_REACTORS
330
9B5C
102
}
330
9B5C
100
AcDbXrecord
280
     1
290
     1
  0
XRECORD
  5
9B5F
102
{ACAD_REACTORS
330
9B5E
102
}
330
9B5E
100
AcDbXrecord
280
     1
290
     1
  0
XRECORD
  5
9B61
102
{ACAD_REACTORS
330
9B60
102
}
330
9B60
100
AcDbXrecord
280
     1
290
     1
  0
XRECORD
  5
9B63
102
{ACAD_REACTORS
330
9B62
102
}
330
9B62
100
AcDbXrecord
280
     1
290
     1
  0
XRECORD
  5
9AFD
102
{ACAD_REACTORS
330
9A9F
102
}
330
9A9F
100
AcDbXrecord
280
     1
340
9889
  0
XRECORD
  5
9AFC
102
{ACAD_REACTORS
330
9A9D
102
}
330
9A9D
100
AcDbXrecord
280
     1
340
9885
  0
ACDBDETAILVIEWSTYLE
  5
9B4F
102
{ACAD_XDICTIONARY
360
9BAA
102
}
102
{ACAD_REACTORS
330
9B4E
102
}
330
9B4E
100
AcDbModelDocViewStyle
 70
     0
  3
Imperial24
290
     0
100
AcDbDetailViewStyle
 70
     0
 71
     0
 90
        3
 71
     1
340
987C
 40
0.24
340
0
 40
0.24
300

 40
0.36
280
     3
 71
     2
340
9880
 90
       25
 71
     3
340
987C
 40
0.24
 90
        1
 40
0.75
 90
        1
300
%<\AcVar ViewType \f "%tc1">% %<\AcVar ViewDetailId>%\PSCALE %<\AcVar ViewScale \f "%sn">%
 71
     4
340
9880
 90
       25
340
9880
 90
       25
280
     0
  0
LAYOUT
  5
9B50
102
{ACAD_XDICTIONARY
360
9BAC
102
}
102
{ACAD_REACTORS
330
9884
102
}
330
9884
100
AcDbPlotSettings
  1

  2
Canon LBP9100C
  4

  6

 40
0.0
 41
0.0
 42
0.0
 43
0.0
 44
0.0
 45
0.0
 46
0.0
 47
0.0
 48
0.0
 49
0.0
140
0.0
141
0.0
142
1.0
143
1.0
 70
  1712
 72
     0
 73
     0
 74
     0
  7

 75
     0
147
1.0
148
0.0
149
0.0
100
AcDbLayout
  1
Model
 70
     1
 71
     0
 10
0.0
 20
0.0
 11
12.0
 21
9.0
 12
0.0
 22
0.0
 32
0.0
 14
0.0
 24
0.0
 34
0.0
 15
0.0
 25
0.0
 35
0.0
146
0.0
 13
0.0
 23
0.0
 33
0.0
 16
1.0
 26
0.0
 36
0.0
 17
0.0
 27
1.0
 37
0.0
 76
     0
330
9889
331
9AFB
  0
LAYOUT
  5
9B51
102
{ACAD_XDICTIONARY
360
9BAE
102
}
102
{ACAD_REACTORS
330
9884
102
}
330
9884
100
AcDbPlotSettings
  1

  2
Canon LBP9100C
  4

  6

 40
0.0
 41
0.0
 42
0.0
 43
0.0
 44
0.0
 45
0.0
 46
0.0
 47
0.0
 48
0.0
 49
0.0
140
0.0
141
0.0
142
1.0
143
1.0
 70
   688
 72
     0
 73
     0
 74
     5
  7

 75
    16
147
1.0
148
0.0
149
0.0
100
AcDbLayout
  1
レイアウト1
 70
     0
 71
     1
 10
0.0
 20
0.0
 11
420.0
 21
297.0
 12
0.0
 22
0.0
 32
0.0
 14
1.000000000000000E+20
 24
1.000000000000000E+20
 34
1.000000000000000E+20
 15
-1.000000000000000E+20
 25
-1.000000000000000E+20
 35
-1.000000000000000E+20
146
0.0
 13
0.0
 23
0.0
 33
0.0
 16
1.0
 26
0.0
 36
0.0
 17
0.0
 27
1.0
 37
0.0
 76
     0
330
9885
  0
MATERIAL
  5
9B0C
102
{ACAD_XDICTIONARY
360
9B0D
102
}
102
{ACAD_REACTORS
330
9B03
102
}
330
9B03
100
AcDbMaterial
  1
ByBlock
 72
     0
 43
0.0208333333333333
 43
0.0
 43
0.0
 43
0.0
 43
0.0
 43
0.0208333333333333
 43
0.0
 43
0.0
 43
0.0
 43
0.0
 43
1.0
 43
0.0
 43
0.0
 43
0.0
 43
0.0
 43
1.0
 77
     0
 47
0.0208333333333333
 47
0.0
 47
0.0
 47
0.0
 47
0.0
 47
0.0208333333333333
 47
0.0
 47
0.0
 47
0.0
 47
0.0
 47
1.0
 47
0.0
 47
0.0
 47
0.0
 47
0.0
 47
1.0
171
     0
 49
0.0208333333333333
 49
0.0
 49
0.0
 49
0.0
 49
0.0
 49
0.0208333333333333
 49
0.0
 49
0.0
 49
0.0
 49
0.0
 49
1.0
 49
0.0
 49
0.0
 49
0.0
 49
0.0
 49
1.0
175
     0
142
0.0208333333333333
142
0.0
142
0.0
142
0.0
142
0.0
142
0.0208333333333333
142
0.0
142
0.0
142
0.0
142
0.0
142
1.0
142
0.0
142
0.0
142
0.0
142
0.0
142
1.0
179
     0
144
0.0208333333333333
144
0.0
144
0.0
144
0.0
144
0.0
144
0.0208333333333333
144
0.0
144
0.0
144
0.0
144
0.0
144
1.0
144
0.0
144
0.0
144
0.0
144
0.0
144
1.0
147
0.0208333333333333
147
0.0
147
0.0
147
0.0
147
0.0
147
0.0208333333333333
147
0.0
147
0.0
147
0.0
147
0.0
147
1.0
147
0.0
147
0.0
147
0.0
147
0.0
147
1.0
  0
MATERIAL
  5
9B04
102
{ACAD_XDICTIONARY
360
9B05
102
}
102
{ACAD_REACTORS
330
9B03
102
}
330
9B03
100
AcDbMaterial
  1
ByLayer
 72
     0
 43
0.0208333333333333
 43
0.0
 43
0.0
 43
0.0
 43
0.0
 43
0.0208333333333333
 43
0.0
 43
0.0
 43
0.0
 43
0.0
 43
1.0
 43
0.0
 43
0.0
 43
0.0
 43
0.0
 43
1.0
 77
     0
 47
0.0208333333333333
 47
0.0
 47
0.0
 47
0.0
 47
0.0
 47
0.0208333333333333
 47
0.0
 47
0.0
 47
0.0
 47
0.0
 47
1.0
 47
0.0
 47
0.0
 47
0.0
 47
0.0
 47
1.0
171
     0
 49
0.0208333333333333
 49
0.0
 49
0.0
 49
0.0
 49
0.0
 49
0.0208333333333333
 49
0.0
 49
0.0
 49
0.0
 49
0.0
 49
1.0
 49
0.0
 49
0.0
 49
0.0
 49
0.0
 49
1.0
175
     0
142
0.0208333333333333
142
0.0
142
0.0
142
0.0
142
0.0
142
0.0208333333333333
142
0.0
142
0.0
142
0.0
142
0.0
142
1.0
142
0.0
142
0.0
142
0.0
142
0.0
142
1.0
179
     0
144
0.0208333333333333
144
0.0
144
0.0
144
0.0
144
0.0
144
0.0208333333333333
144
0.0
144
0.0
144
0.0
144
0.0
144
1.0
144
0.0
144
0.0
144
0.0
144
0.0
144
1.0
147
0.0208333333333333
147
0.0
147
0.0
147
0.0
147
0.0
147
0.0208333333333333
147
0.0
147
0.0
147
0.0
147
0.0
147
1.0
147
0.0
147
0.0
147
0.0
147
0.0
147
1.0
  0
MATERIAL
  5
9B14
102
{ACAD_XDICTIONARY
360
9B15
102
}
102
{ACAD_REACTORS
330
9B03
102
}
330
9B03
100
AcDbMaterial
  1
Global
 72
     0
 43
0.0208333333333333
 43
0.0
 43
0.0
 43
0.0
 43
0.0
 43
0.0208333333333333
 43
0.0
 43
0.0
 43
0.0
 43
0.0
 43
1.0
 43
0.0
 43
0.0
 43
0.0
 43
0.0
 43
1.0
 77
     0
 47
0.0208333333333333
 47
0.0
 47
0.0
 47
0.0
 47
0.0
 47
0.0208333333333333
 47
0.0
 47
0.0
 47
0.0
 47
0.0
 47
1.0
 47
0.0
 47
0.0
 47
0.0
 47
0.0
 47
1.0
171
     0
 49
0.0208333333333333
 49
0.0
 49
0.0
 49
0.0
 49
0.0
 49
0.0208333333333333
 49
0.0
 49
0.0
 49
0.0
 49
0.0
 49
1.0
 49
0.0
 49
0.0
 49
0.0
 49
0.0
 49
1.0
175
     0
142
0.0208333333333333
142
0.0
142
0.0
142
0.0
142
0.0
142
0.0208333333333333
142
0.0
142
0.0
142
0.0
142
0.0
142
1.0
142
0.0
142
0.0
142
0.0
142
0.0
142
1.0
179
     0
144
0.0208333333333333
144
0.0
144
0.0
144
0.0
144
0.0
144
0.0208333333333333
144
0.0
144
0.0
144
0.0
144
0.0
144
1.0
144
0.0
144
0.0
144
0.0
144
0.0
144
1.0
147
0.0208333333333333
147
0.0
147
0.0
147
0.0
147
0.0
147
0.0208333333333333
147
0.0
147
0.0
147
0.0
147
0.0
147
1.0
147
0.0
147
0.0
147
0.0
147
0.0
147
1.0
  0
MLEADERSTYLE
  5
9B4B
102
{ACAD_REACTORS
330
9B4A
102
}
330
9B4A
100
AcDbMLeaderStyle
170
     2
171
     1
172
     0
 90
        2
 40
0.0
 41
0.0
173
     1
 91
-1056964608
340
987E
 92
       -2
290
     1
 42
0.09
291
     1
 43
0.36
  3
Standard
 44
0.18
300

342
987C
174
     1
178
     6
175
     1
176
     0
 93
-1056964608
 45
0.18
292
     0
297
     0
 46
0.18
 94
-1056964608
 47
1.0
 49
1.0
140
1.0
293
     1
141
0.0
294
     1
177
     0
142
1.0
295
     0
296
     0
143
0.125
1001
ACAD_MLEADERVER
1070
     2
  0
MLINESTYLE
  5
9882
102
{ACAD_REACTORS
330
9881
102
}
330
9881
100
AcDbMlineStyle
  2
STANDARD
 70
     0
  3

 62
   256
 51
90.0
 52
90.0
 71
     2
 49
0.5
 62
   256
  6
BYLAYER
 49
-0.5
 62
   256
  6
BYLAYER
  0
ACDBPLACEHOLDER
  5
9B02
102
{ACAD_REACTORS
330
9B01
102
}
330
9B01
  0
SCALE
  5
9B39
102
{ACAD_REACTORS
330
9B38
102
}
330
9B38
100
AcDbScale
 70
     0
300
1:1
140
1.0
141
1.0
290
     1
  0
SCALE
  5
9B3A
102
{ACAD_REACTORS
330
9B38
102
}
330
9B38
100
AcDbScale
 70
     0
300
1/128" = 1'-0"
140
0.0078125
141
12.0
290
     0
  0
SCALE
  5
9B3B
102
{ACAD_REACTORS
330
9B38
102
}
330
9B38
100
AcDbScale
 70
     0
300
1/64" = 1'-0"
140
0.015625
141
12.0
290
     0
  0
SCALE
  5
9B3C
102
{ACAD_REACTORS
330
9B38
102
}
330
9B38
100
AcDbScale
 70
     0
300
1/32" = 1'-0"
140
0.03125
141
12.0
290
     0
  0
SCALE
  5
9B3D
102
{ACAD_REACTORS
330
9B38
102
}
330
9B38
100
AcDbScale
 70
     0
300
1/16" = 1'-0"
140
0.0625
141
12.0
290
     0
  0
SCALE
  5
9B3E
102
{ACAD_REACTORS
330
9B38
102
}
330
9B38
100
AcDbScale
 70
     0
300
3/32" = 1'-0"
140
0.09375
141
12.0
290
     0
  0
SCALE
  5
9B3F
102
{ACAD_REACTORS
330
9B38
102
}
330
9B38
100
AcDbScale
 70
     0
300
1/8" = 1'-0"
140
0.125
141
12.0
290
     0
  0
SCALE
  5
9B40
102
{ACAD_REACTORS
330
9B38
102
}
330
9B38
100
AcDbScale
 70
     0
300
3/16" = 1'-0"
140
0.1875
141
12.0
290
     0
  0
SCALE
  5
9B41
102
{ACAD_REACTORS
330
9B38
102
}
330
9B38
100
AcDbScale
 70
     0
300
1/4" = 1'-0"
140
0.25
141
12.0
290
     0
  0
SCALE
  5
9B42
102
{ACAD_REACTORS
330
9B38
102
}
330
9B38
100
AcDbScale
 70
     0
300
3/8" = 1'-0"
140
0.375
141
12.0
290
     0
  0
SCALE
  5
9B43
102
{ACAD_REACTORS
330
9B38
102
}
330
9B38
100
AcDbScale
 70
     0
300
1/2" = 1'-0"
140
0.5
141
12.0
290
     0
  0
SCALE
  5
9B44
102
{ACAD_REACTORS
330
9B38
102
}
330
9B38
100
AcDbScale
 70
     0
300
3/4" = 1'-0"
140
0.75
141
12.0
290
     0
  0
SCALE
  5
9B45
102
{ACAD_REACTORS
330
9B38
102
}
330
9B38
100
AcDbScale
 70
     0
300
1" = 1'-0"
140
1.0
141
12.0
290
     0
  0
SCALE
  5
9B46
102
{ACAD_REACTORS
330
9B38
102
}
330
9B38
100
AcDbScale
 70
     0
300
1-1/2" = 1'-0"
140
1.5
141
12.0
290
     0
  0
SCALE
  5
9B47
102
{ACAD_REACTORS
330
9B38
102
}
330
9B38
100
AcDbScale
 70
     0
300
3" = 1'-0"
140
3.0
141
12.0
290
     0
  0
SCALE
  5
9B48
102
{ACAD_REACTORS
330
9B38
102
}
330
9B38
100
AcDbScale
 70
     0
300
6" = 1'-0"
140
6.0
141
12.0
290
     0
  0
SCALE
  5
9B49
102
{ACAD_REACTORS
330
9B38
102
}
330
9B38
100
AcDbScale
 70
     0
300
1'-0" = 1'-0"
140
12.0
141
12.0
290
     0
  0
ACDBSECTIONVIEWSTYLE
  5
9B4D
102
{ACAD_XDICTIONARY
360
9BA8
102
}
102
{ACAD_REACTORS
330
9B4C
102
}
330
9B4C
100
AcDbModelDocViewStyle
 70
     0
  3
Imperial24
290
     0
100
AcDbSectionViewStyle
 70
     0
 71
     0
 90
       78
 71
     1
340
987C
 40
0.24
340
0
340
0
 40
0.24
300
I, O, Q, S, X, Z
 40
0.48
 90
        3
 40
0.18
 90
        1
 71
     2
340
9880
 90
       25
340
9880
 90
       50
 40
0.24
 40
0.0
 40
0.24
 71
     3
340
987C
 40
0.24
 90
        1
 40
0.75
 90
        1
300
%<\AcVar ViewType \f "%tc1">% %<\AcVar ViewSectionStartId>%-%<\AcVar ViewSectionEndId>%\PSCALE %<\AcVar ViewScale \f "%sn">%
 71
     4
300
ANSI31
 40
1.0
 90
        0
290
     0
290
     0
 90
        6
 40
0.0
 40
1.570796326794896
 40
0.2617993877991494
 40
1.308996938995747
 40
-0.2617993877991494
 40
1.832595714594046
  0
TABLESTYLE
  5
9B37
102
{ACAD_XDICTIONARY
360
9B6F
102
}
102
{ACAD_REACTORS
330
9B36
102
}
330
9B36
100
AcDbTableStyle
  3
Standard
 70
     0
 71
     0
 40
0.06
 41
0.06
280
     0
281
     0
  7
STANDARD
140
0.18
170
     2
 62
     0
 63
     7
283
     0
274
    -2
284
     1
 64
     0
275
    -2
285
     1
 65
     0
276
    -2
286
     1
 66
     0
277
    -2
287
     1
 67
     0
278
    -2
288
     1
 68
     0
279
    -2
289
     1
 69
     0
  7
STANDARD
140
0.25
170
     5
 62
     0
 63
     7
283
     0
274
    -2
284
     1
 64
     0
275
    -2
285
     1
 65
     0
276
    -2
286
     1
 66
     0
277
    -2
287
     1
 67
     0
278
    -2
288
     1
 68
     0
279
    -2
289
     1
 69
     0
  7
STANDARD
140
0.18
170
     5
 62
     0
 63
     7
283
     0
274
    -2
284
     1
 64
     0
275
    -2
285
     1
 65
     0
276
    -2
286
     1
 66
     0
277
    -2
287
     1
 67
     0
278
    -2
288
     1
 68
     0
279
    -2
289
     1
 69
     0
  0
VISUALSTYLE
  5
9B22
102
{ACAD_XDICTIONARY
360
9B80
102
}
102
{ACAD_REACTORS
330
9B1C
102
}
330
9B1C
100
AcDbVisualStyle
  2
2dWireframe
 70
     4
 71
     0
 72
     2
 73
     0
 90
        0
 40
-0.6
 41
-30.0
 62
     5
 63
     7
 74
     1
 91
        4
 64
     7
 65
   257
 75
     1
175
     1
 42
1.0
 92
        0
 66
   257
 43
1.0
 76
     1
 77
     6
 78
     2
 67
     7
 79
     5
170
     0
171
     0
290
     0
174
     0
 93
        1
 44
0.0
173
     0
291
     0
 45
0.0
1001
ACAD
1000
AcDbSavedByObjectVersion
1070
     0
  0
VISUALSTYLE
  5
9B21
102
{ACAD_XDICTIONARY
360
9B7E
102
}
102
{ACAD_REACTORS
330
9B1C
102
}
330
9B1C
100
AcDbVisualStyle
  2
Basic
 70
     7
 71
     1
 72
     0
 73
     1
 90
        0
 40
-0.6
 41
-30.0
 62
     5
 63
     7
 74
     0
 91
        4
 64
     7
 65
   257
 75
     1
175
     1
 42
1.0
 92
        8
 66
     7
 43
1.0
 76
     1
 77
     6
 78
     2
 67
     7
 79
     5
170
     0
171
     0
290
     0
174
     0
 93
        1
 44
0.0
173
     0
291
     1
 45
0.0
1001
ACAD
1000
AcDbSavedByObjectVersion
1070
     0
  0
VISUALSTYLE
  5
9B28
102
{ACAD_XDICTIONARY
360
9B8C
102
}
102
{ACAD_REACTORS
330
9B1C
102
}
330
9B1C
100
AcDbVisualStyle
  2
Brighten
 70
    12
 71
     2
 72
     2
 73
     0
 90
        0
 40
-0.6
 41
-30.0
 62
     5
 63
     7
 74
     1
 91
        4
 64
     7
 65
   257
 75
     1
175
     1
 42
1.0
 92
        8
 66
     7
 43
1.0
 76
     1
 77
     6
 78
     2
 67
     7
 79
     5
170
     0
171
     0
290
     0
174
     0
 93
        1
 44
50.0
173
     0
291
     1
 45
0.0
1001
ACAD
1000
AcDbSavedByObjectVersion
1070
     0
  0
VISUALSTYLE
  5
9B2C
102
{ACAD_XDICTIONARY
360
9B94
102
}
102
{ACAD_REACTORS
330
9B1C
102
}
330
9B1C
100
AcDbVisualStyle
  2
ColorChange
 70
    16
 71
     2
 72
     2
 73
     3
 90
        0
 40
-0.6
 41
-30.0
 62
     5
 63
     8
 74
     1
 91
        4
 64
     7
 65
   257
 75
     1
175
     1
 42
1.0
 92
        8
 66
     8
 43
1.0
 76
     1
 77
     6
 78
     2
 67
     7
 79
     5
170
     0
171
     0
290
     0
174
     0
 93
        1
 44
0.0
173
     0
291
     1
 45
0.0
1001
ACAD
1000
AcDbSavedByObjectVersion
1070
     0
  0
VISUALSTYLE
  5
9B25
102
{ACAD_XDICTIONARY
360
9B86
102
}
102
{ACAD_REACTORS
330
9B1C
102
}
330
9B1C
100
AcDbVisualStyle
  2
Conceptual
 70
     9
 71
     3
 72
     2
 73
     0
 90
        0
 40
-0.6
 41
-30.0
 62
     5
 63
     7
 74
     2
 91
        2
 64
     7
 65
   257
 75
     1
175
     1
 42
179.0
 92
        8
 66
     7
 43
1.0
 76
     1
 77
     6
 78
     2
 67
     7
 79
     3
170
     0
171
     0
290
     0
174
     0
 93
        1
 44
0.0
173
     0
291
     0
 45
0.0
1001
ACAD
1000
AcDbSavedByObjectVersion
1070
     0
  0
VISUALSTYLE
  5
9B27
102
{ACAD_XDICTIONARY
360
9B8A
102
}
102
{ACAD_REACTORS
330
9B1C
102
}
330
9B1C
100
AcDbVisualStyle
  2
Dim
 70
    11
 71
     2
 72
     2
 73
     0
 90
        0
 40
-0.6
 41
-30.0
 62
     5
 63
     7
 74
     1
 91
        4
 64
     7
 65
   257
 75
     1
175
     1
 42
1.0
 92
        8
 66
     7
 43
1.0
 76
     1
 77
     6
 78
     2
 67
     7
 79
     5
170
     0
171
     0
290
     0
174
     0
 93
        1
 44
-50.0
173
     0
291
     1
 45
0.0
1001
ACAD
1000
AcDbSavedByObjectVersion
1070
     0
  0
VISUALSTYLE
  5
9B34
102
{ACAD_XDICTIONARY
360
9BA4
102
}
102
{ACAD_REACTORS
330
9B1C
102
}
330
9B1C
100
AcDbVisualStyle
  2
EdgeColorOff
 70
    22
 71
     2
 72
     2
 73
     0
 90
        0
 40
-0.6
 41
-30.0
 62
     5
 63
     7
 74
     1
 91
        4
 64
     7
 65
   257
 75
     1
175
     1
 42
1.0
 92
        8
 66
     7
 43
1.0
 76
     1
 77
     6
 78
     2
 67
     7
 79
     5
170
     0
171
     0
290
     0
174
     0
 93
        1
 44
0.0
173
     0
291
     1
 45
0.0
1001
ACAD
1000
AcDbSavedByObjectVersion
1070
     0
  0
VISUALSTYLE
  5
9B2B
102
{ACAD_XDICTIONARY
360
9B92
102
}
102
{ACAD_REACTORS
330
9B1C
102
}
330
9B1C
100
AcDbVisualStyle
  2
Facepattern
 70
    15
 71
     2
 72
     2
 73
     0
 90
        0
 40
-0.6
 41
-30.0
 62
     5
 63
     7
 74
     1
 91
        4
 64
     7
 65
   257
 75
     1
175
     1
 42
1.0
 92
        8
 66
     7
 43
1.0
 76
     1
 77
     6
 78
     2
 67
     7
 79
     5
170
     0
171
     0
290
     0
174
     0
 93
        1
 44
0.0
173
     0
291
     1
 45
0.0
1001
ACAD
1000
AcDbSavedByObjectVersion
1070
     0
  0
VISUALSTYLE
  5
9B1D
102
{ACAD_XDICTIONARY
360
9B76
102
}
102
{ACAD_REACTORS
330
9B1C
102
}
330
9B1C
100
AcDbVisualStyle
  2
Flat
 70
     0
 71
     2
 72
     1
 73
     1
 90
        2
 40
-0.6
 41
30.0
 62
     5
 63
     7
 74
     0
 91
        0
 64
     7
 65
   257
 75
     1
175
     1
 42
1.0
 92
        8
 66
     7
 43
1.0
 76
     1
 77
     6
 78
     2
 67
     7
 79
     5
170
     0
171
     0
290
     0
174
     0
 93
       13
 44
0.0
173
     0
291
     1
 45
0.0
1001
ACAD
1000
AcDbSavedByObjectVersion
1070
     0
  0
VISUALSTYLE
  5
9B1E
102
{ACAD_XDICTIONARY
360
9B78
102
}
102
{ACAD_REACTORS
330
9B1C
102
}
330
9B1C
100
AcDbVisualStyle
  2
FlatWithEdges
 70
     1
 71
     2
 72
     1
 73
     1
 90
        2
 40
-0.6
 41
30.0
 62
     5
 63
     7
 74
     1
 91
        0
 64
     7
 65
   257
 75
     1
175
     1
 42
1.0
 92
        0
 66
   257
 43
1.0
 76
     1
 77
     6
 78
     2
 67
     7
 79
     5
170
     0
171
     0
290
     0
174
     0
 93
       13
 44
0.0
173
     0
291
     1
 45
0.0
1001
ACAD
1000
AcDbSavedByObjectVersion
1070
     0
  0
VISUALSTYLE
  5
9B1F
102
{ACAD_XDICTIONARY
360
9B7A
102
}
102
{ACAD_REACTORS
330
9B1C
102
}
330
9B1C
100
AcDbVisualStyle
  2
Gouraud
 70
     2
 71
     2
 72
     2
 73
     1
 90
        2
 40
-0.6
 41
30.0
 62
     5
 63
     7
 74
     0
 91
        0
 64
     7
 65
   257
 75
     1
175
     1
 42
1.0
 92
        0
 66
     7
 43
1.0
 76
     1
 77
     6
 78
     2
 67
     7
 79
     5
170
     0
171
     0
290
     0
174
     0
 93
       13
 44
0.0
173
     0
291
     1
 45
0.0
1001
ACAD
1000
AcDbSavedByObjectVersion
1070
     0
  0
VISUALSTYLE
  5
9B20
102
{ACAD_XDICTIONARY
360
9B7C
102
}
102
{ACAD_REACTORS
330
9B1C
102
}
330
9B1C
100
AcDbVisualStyle
  2
GouraudWithEdges
 70
     3
 71
     2
 72
     2
 73
     1
 90
        2
 40
-0.6
 41
30.0
 62
     5
 63
     7
 74
     1
 91
        0
 64
     7
 65
   257
 75
     1
175
     1
 42
1.0
 92
        0
 66
   257
 43
1.0
 76
     1
 77
     6
 78
     2
 67
     7
 79
     5
170
     0
171
     0
290
     0
174
     0
 93
       13
 44
0.0
173
     0
291
     1
 45
0.0
1001
ACAD
1000
AcDbSavedByObjectVersion
1070
     0
  0
VISUALSTYLE
  5
9B24
102
{ACAD_XDICTIONARY
360
9B84
102
}
102
{ACAD_REACTORS
330
9B1C
102
}
330
9B1C
100
AcDbVisualStyle
  2
Hidden
 70
     6
 71
     1
 72
     2
 73
     2
 90
        0
 40
-0.6
 41
-30.0
 62
     5
 63
     7
 74
     2
 91
        2
 64
     7
 65
   257
 75
     2
175
     1
 42
40.0
 92
        0
 66
   257
 43
1.0
 76
     1
 77
     6
 78
     2
 67
     7
 79
     3
170
     0
171
     0
290
     0
174
     0
 93
        1
 44
0.0
173
     0
291
     0
 45
0.0
1001
ACAD
1000
AcDbSavedByObjectVersion
1070
     0
  0
VISUALSTYLE
  5
9B32
102
{ACAD_XDICTIONARY
360
9BA0
102
}
102
{ACAD_REACTORS
330
9B1C
102
}
330
9B1C
100
AcDbVisualStyle
  2
JitterOff
 70
    20
 71
     2
 72
     2
 73
     0
 90
        0
 40
-0.6
 41
-30.0
 62
     5
 63
     7
 74
     1
 91
        4
 64
     7
 65
   257
 75
     1
175
     1
 42
1.0
 92
       10
 66
     7
 43
1.0
 76
     1
 77
     6
 78
     2
 67
     7
 79
     5
170
     0
171
     0
290
     0
174
     0
 93
        1
 44
0.0
173
     0
291
     1
 45
0.0
1001
ACAD
1000
AcDbSavedByObjectVersion
1070
     0
  0
VISUALSTYLE
  5
9B2A
102
{ACAD_XDICTIONARY
360
9B90
102
}
102
{ACAD_REACTORS
330
9B1C
102
}
330
9B1C
100
AcDbVisualStyle
  2
Linepattern
 70
    14
 71
     2
 72
     2
 73
     0
 90
        0
 40
-0.6
 41
-30.0
 62
     5
 63
     7
 74
     1
 91
        4
 64
     7
 65
   257
 75
     7
175
     7
 42
1.0
 92
        8
 66
     7
 43
1.0
 76
     1
 77
     6
 78
     2
 67
     7
 79
     5
170
     0
171
     0
290
     0
174
     0
 93
        1
 44
0.0
173
     0
291
     1
 45
0.0
1001
ACAD
1000
AcDbSavedByObjectVersion
1070
     0
  0
VISUALSTYLE
  5
9B33
102
{ACAD_XDICTIONARY
360
9BA2
102
}
102
{ACAD_REACTORS
330
9B1C
102
}
330
9B1C
100
AcDbVisualStyle
  2
OverhangOff
 70
    21
 71
     2
 72
     2
 73
     0
 90
        0
 40
-0.6
 41
-30.0
 62
     5
 63
     7
 74
     1
 91
        4
 64
     7
 65
   257
 75
     1
175
     1
 42
1.0
 92
        9
 66
     7
 43
1.0
 76
     1
 77
     6
 78
     2
 67
     7
 79
     5
170
     0
171
     0
290
     0
174
     0
 93
        1
 44
0.0
173
     0
291
     1
 45
0.0
1001
ACAD
1000
AcDbSavedByObjectVersion
1070
     0
  0
VISUALSTYLE
  5
9B26
102
{ACAD_XDICTIONARY
360
9B88
102
}
102
{ACAD_REACTORS
330
9B1C
102
}
330
9B1C
100
AcDbVisualStyle
  2
Realistic
 70
     8
 71
     2
 72
     3
 73
     0
 90
        2
 40
-0.6
 41
30.0
 62
     5
 63
     7
 74
     0
 91
        0
 64
     7
 65
   257
 75
     1
175
     1
 42
1.0
 92
        8
 66
   257
 43
1.0
 76
     1
 77
     6
 78
     2
 67
     7
 79
     3
170
     0
171
     0
290
     0
174
     0
 93
       13
 44
0.0
173
     0
291
     0
 45
0.0
1001
ACAD
1000
AcDbSavedByObjectVersion
1070
     0
  0
VISUALSTYLE
  5
9B31
102
{ACAD_XDICTIONARY
360
9B9E
102
}
102
{ACAD_REACTORS
330
9B1C
102
}
330
9B1C
100
AcDbVisualStyle
  2
Shaded
 70
    27
 71
     2
 72
     2
 73
     1
 90
        2
 40
-0.6
 41
30.0
 62
     5
 63
     7
 74
     0
 91
        4
 64
     7
 65
   257
 75
     1
175
     1
 42
1.0
 92
        8
 66
   257
 43
1.0
 76
     1
 77
     6
 78
     2
 67
     8
 79
     3
170
     0
171
     0
290
     0
174
     0
 93
        5
 44
0.0
173
     0
291
     0
 45
0.0
1001
ACAD
1000
AcDbSavedByObjectVersion
1070
     0
  0
VISUALSTYLE
  5
9B30
102
{ACAD_XDICTIONARY
360
9B9C
102
}
102
{ACAD_REACTORS
330
9B1C
102
}
330
9B1C
100
AcDbVisualStyle
  2
Shaded with edges
 70
    26
 71
     2
 72
     2
 73
     1
 90
        2
 40
-0.6
 41
30.0
 62
     5
 63
     7
 74
     1
 91
       10
 64
     7
 65
   257
 75
     2
175
     1
 42
1.0
 92
        8
 66
   257
 43
1.0
 76
     1
 77
     6
 78
     2
 67
     7
 79
     3
170
     0
171
     0
290
     0
174
     0
 93
        5
 44
0.0
173
     0
291
     0
 45
0.0
1001
ACAD
1000
AcDbSavedByObjectVersion
1070
     0
  0
VISUALSTYLE
  5
9B2D
102
{ACAD_XDICTIONARY
360
9B96
102
}
102
{ACAD_REACTORS
330
9B1C
102
}
330
9B1C
100
AcDbVisualStyle
  2
Shades of Gray
 70
    23
 71
     2
 72
     2
 73
     3
 90
        0
 40
-0.6
 41
-30.0
 62
     5
 63
     7
 74
     2
 91
        2
 64
     7
 65
     7
 75
     1
175
     1
 42
40.0
 92
        8
 66
     7
 43
1.0
 76
     1
 77
     6
 78
     2
 67
     7
 79
     3
170
     0
171
     0
290
     0
174
     0
 93
        1
 44
0.0
173
     0
291
     0
 45
0.0
1001
ACAD
1000
AcDbSavedByObjectVersion
1070
     0
  0
VISUALSTYLE
  5
9B2E
102
{ACAD_XDICTIONARY
360
9B98
102
}
102
{ACAD_REACTORS
330
9B1C
102
}
330
9B1C
100
AcDbVisualStyle
  2
Sketchy
 70
    24
 71
     1
 72
     2
 73
     2
 90
        0
 40
-0.6
 41
-30.0
 62
     5
 63
     7
 74
     2
 91
        2
 64
     7
 65
     7
 75
     1
175
     1
 42
40.0
 92
       11
 66
     7
 43
1.0
 76
     1
 77
     6
 78
     2
 67
     7
 79
     6
170
     0
171
     0
290
     0
174
     0
 93
        1
 44
0.0
173
     0
291
     0
 45
0.0
1001
ACAD
1000
AcDbSavedByObjectVersion
1070
     0
  0
VISUALSTYLE
  5
9B29
102
{ACAD_XDICTIONARY
360
9B8E
102
}
102
{ACAD_REACTORS
330
9B1C
102
}
330
9B1C
100
AcDbVisualStyle
  2
Thicken
 70
    13
 71
     2
 72
     2
 73
     0
 90
        0
 40
-0.6
 41
-30.0
 62
     5
 63
     7
 74
     1
 91
        4
 64
     7
 65
   257
 75
     1
175
     1
 42
1.0
 92
       12
 66
     7
 43
1.0
 76
     1
 77
     6
 78
     2
 67
     7
 79
     5
170
     0
171
     0
290
     0
174
     0
 93
        1
 44
0.0
173
     0
291
     1
 45
0.0
1001
ACAD
1000
AcDbSavedByObjectVersion
1070
     0
  0
VISUALSTYLE
  5
9B23
102
{ACAD_XDICTIONARY
360
9B82
102
}
102
{ACAD_REACTORS
330
9B1C
102
}
330
9B1C
100
AcDbVisualStyle
  2
Wireframe
 70
     5
 71
     0
 72
     2
 73
     0
 90
        0
 40
-0.6
 41
-30.0
 62
     5
 63
     7
 74
     1
 91
        4
 64
     7
 65
   257
 75
     1
175
     1
 42
1.0
 92
        0
 66
   257
 43
1.0
 76
     1
 77
     6
 78
     2
 67
     7
 79
     3
170
     0
171
     0
290
     0
174
     0
 93
        1
 44
0.0
173
     0
291
     0
 45
0.0
1001
ACAD
1000
AcDbSavedByObjectVersion
1070
     0
  0
VISUALSTYLE
  5
9B2F
102
{ACAD_XDICTIONARY
360
9B9A
102
}
102
{ACAD_REACTORS
330
9B1C
102
}
330
9B1C
100
AcDbVisualStyle
  2
X-Ray
 70
    25
 71
     2
 72
     2
 73
     1
 90
        1
 40
0.5
 41
-30.0
 62
     5
 63
     7
 74
     1
 91
        0
 64
     7
 65
   257
 75
     1
175
     1
 42
1.0
 92
        8
 66
     7
 43
1.0
 76
     1
 77
     6
 78
     2
 67
     7
 79
     3
170
     0
171
     0
290
     0
174
     0
 93
       13
 44
0.0
173
     0
291
     0
 45
0.0
1001
ACAD
1000
AcDbSavedByObjectVersion
1070
     0
  0
DICTIONARYVAR
  5
9B69
102
{ACAD_REACTORS
330
9B64
102
}
330
9B64
100
DictionaryVariables
280
     0
  1
1:1
  0
DICTIONARYVAR
  5
9B66
102
{ACAD_REACTORS
330
9B64
102
}
330
9B64
100
DictionaryVariables
280
     0
  1
STANDARD
  0
DICTIONARYVAR
  5
9B65
102
{ACAD_REACTORS
330
9B64
102
}
330
9B64
100
DictionaryVariables
280
     0
  1
STANDARD
  0
DICTIONARYVAR
  5
9B67
102
{ACAD_REACTORS
330
9B64
102
}
330
9B64
100
DictionaryVariables
280
     0
  1
Imperial24
  0
DICTIONARYVAR
  5
9B68
102
{ACAD_REACTORS
330
9B64
102
}
330
9B64
100
DictionaryVariables
280
     0
  1
Imperial24
  0
DICTIONARYVAR
  5
9B6C
102
{ACAD_REACTORS
330
9B64
102
}
330
9B64
100
DictionaryVariables
280
     0
  1
1
  0
DICTIONARYVAR
  5
9B6B
102
{ACAD_REACTORS
330
9B64
102
}
330
9B64
100
DictionaryVariables
280
     0
  1
0
  0
DICTIONARYVAR
  5
9B6A
102
{ACAD_REACTORS
330
9B64
102
}
330
9B64
100
DictionaryVariables
280
     0
  1
127
  0
DICTIONARYVAR
  5
9B6D
102
{ACAD_REACTORS
330
9B64
102
}
330
9B64
100
DictionaryVariables
280
     0
  1
2
  0
DICTIONARY
  5
9BAA
330
9B4F
100
AcDbDictionary
280
     1
281
     1
  3
ACAD_XREC_ROUNDTRIP
360
9BAB
  0
DICTIONARY
  5
9BAC
330
9B50
100
AcDbDictionary
280
     1
281
     1
  3
ACAD_XREC_ROUNDTRIP
360
9BAD
  0
DICTIONARY
  5
9BAE
330
9B51
100
AcDbDictionary
280
     1
281
     1
  3
ACAD_XREC_ROUNDTRIP
360
9BAF
  0
DICTIONARY
  5
9B0D
330
9B0C
100
AcDbDictionary
280
     1
281
     1
  3
ACAD_XREC_ROUNDTRIP
360
9B74
  3
BUMPTILE
360
9B0F
  3
DIFFUSETILE
360
9B0E
  3
OPACITYTILE
360
9B12
  3
REFLECTIONTILE
360
9B11
  3
REFRACTIONTILE
360
9B13
  3
SPECULARTILE
360
9B10
  0
DICTIONARY
  5
9B05
330
9B04
100
AcDbDictionary
280
     1
281
     1
  3
ACAD_XREC_ROUNDTRIP
360
9B73
  3
BUMPTILE
360
9B07
  3
DIFFUSETILE
360
9B06
  3
OPACITYTILE
360
9B0A
  3
REFLECTIONTILE
360
9B09
  3
REFRACTIONTILE
360
9B0B
  3
SPECULARTILE
360
9B08
  0
DICTIONARY
  5
9B15
330
9B14
100
AcDbDictionary
280
     1
281
     1
  3
ACAD_XREC_ROUNDTRIP
360
9B75
  3
BUMPTILE
360
9B17
  3
DIFFUSETILE
360
9B16
  3
OPACITYTILE
360
9B1A
  3
REFLECTIONTILE
360
9B19
  3
REFRACTIONTILE
360
9B1B
  3
SPECULARTILE
360
9B18
  0
DICTIONARY
  5
9BA8
330
9B4D
100
AcDbDictionary
280
     1
281
     1
  3
ACAD_XREC_ROUNDTRIP
360
9BA9
  0
DICTIONARY
  5
9B6F
330
9B37
100
AcDbDictionary
280
     1
281
     1
  3
ACAD_ROUNDTRIP_2008_TABLESTYLE_CELLSTYLEMAP
360
9B70
  3
ACAD_XREC_ROUNDTRIP
360
9BA6
  0
DICTIONARY
  5
9B80
330
9B22
100
AcDbDictionary
280
     1
281
     1
  3
ACAD_XREC_ROUNDTRIP
360
9B81
  0
DICTIONARY
  5
9B7E
330
9B21
100
AcDbDictionary
280
     1
281
     1
  3
ACAD_XREC_ROUNDTRIP
360
9B7F
  0
DICTIONARY
  5
9B8C
330
9B28
100
AcDbDictionary
280
     1
281
     1
  3
ACAD_XREC_ROUNDTRIP
360
9B8D
  0
DICTIONARY
  5
9B94
330
9B2C
100
AcDbDictionary
280
     1
281
     1
  3
ACAD_XREC_ROUNDTRIP
360
9B95
  0
DICTIONARY
  5
9B86
330
9B25
100
AcDbDictionary
280
     1
281
     1
  3
ACAD_XREC_ROUNDTRIP
360
9B87
  0
DICTIONARY
  5
9B8A
330
9B27
100
AcDbDictionary
280
     1
281
     1
  3
ACAD_XREC_ROUNDTRIP
360
9B8B
  0
DICTIONARY
  5
9BA4
330
9B34
100
AcDbDictionary
280
     1
281
     1
  3
ACAD_XREC_ROUNDTRIP
360
9BA5
  0
DICTIONARY
  5
9B92
330
9B2B
100
AcDbDictionary
280
     1
281
     1
  3
ACAD_XREC_ROUNDTRIP
360
9B93
  0
DICTIONARY
  5
9B76
330
9B1D
100
AcDbDictionary
280
     1
281
     1
  3
ACAD_XREC_ROUNDTRIP
360
9B77
  0
DICTIONARY
  5
9B78
330
9B1E
100
AcDbDictionary
280
     1
281
     1
  3
ACAD_XREC_ROUNDTRIP
360
9B79
  0
DICTIONARY
  5
9B7A
330
9B1F
100
AcDbDictionary
280
     1
281
     1
  3
ACAD_XREC_ROUNDTRIP
360
9B7B
  0
DICTIONARY
  5
9B7C
330
9B20
100
AcDbDictionary
280
     1
281
     1
  3
ACAD_XREC_ROUNDTRIP
360
9B7D
  0
DICTIONARY
  5
9B84
330
9B24
100
AcDbDictionary
280
     1
281
     1
  3
ACAD_XREC_ROUNDTRIP
360
9B85
  0
DICTIONARY
  5
9BA0
330
9B32
100
AcDbDictionary
280
     1
281
     1
  3
ACAD_XREC_ROUNDTRIP
360
9BA1
  0
DICTIONARY
  5
9B90
330
9B2A
100
AcDbDictionary
280
     1
281
     1
  3
ACAD_XREC_ROUNDTRIP
360
9B91
  0
DICTIONARY
  5
9BA2
330
9B33
100
AcDbDictionary
280
     1
281
     1
  3
ACAD_XREC_ROUNDTRIP
360
9BA3
  0
DICTIONARY
  5
9B88
330
9B26
100
AcDbDictionary
280
     1
281
     1
  3
ACAD_XREC_ROUNDTRIP
360
9B89
  0
DICTIONARY
  5
9B9E
330
9B31
100
AcDbDictionary
280
     1
281
     1
  3
ACAD_XREC_ROUNDTRIP
360
9B9F
  0
DICTIONARY
  5
9B9C
330
9B30
100
AcDbDictionary
280
     1
281
     1
  3
ACAD_XREC_ROUNDTRIP
360
9B9D
  0
DICTIONARY
  5
9B96
330
9B2D
100
AcDbDictionary
280
     1
281
     1
  3
ACAD_XREC_ROUNDTRIP
360
9B97
  0
DICTIONARY
  5
9B98
330
9B2E
100
AcDbDictionary
280
     1
281
     1
  3
ACAD_XREC_ROUNDTRIP
360
9B99
  0
DICTIONARY
  5
9B8E
330
9B29
100
AcDbDictionary
280
     1
281
     1
  3
ACAD_XREC_ROUNDTRIP
360
9B8F
  0
DICTIONARY
  5
9B82
330
9B23
100
AcDbDictionary
280
     1
281
     1
  3
ACAD_XREC_ROUNDTRIP
360
9B83
  0
DICTIONARY
  5
9B9A
330
9B2F
100
AcDbDictionary
280
     1
281
     1
  3
ACAD_XREC_ROUNDTRIP
360
9B9B
  0
XRECORD
  5
9BAB
102
{ACAD_REACTORS
330
9BAA
102
}
330
9BAA
100
AcDbXrecord
280
     1
102
DISPLAYNAME
  1
Imperial24
102
FLAGS
 90
        0
  0
XRECORD
  5
9BAD
102
{ACAD_REACTORS
330
9BAC
102
}
330
9BAC
100
AcDbXrecord
280
     1
102
SHADEPLOT
 70
     0
102
SHADEPLOTRESLEVEL
 70
     2
102
SHADEPLOTCUSTOMDPI
 70
   300
  0
XRECORD
  5
9BAF
102
{ACAD_REACTORS
330
9BAE
102
}
330
9BAE
100
AcDbXrecord
280
     1
102
SHADEPLOT
 70
     0
102
SHADEPLOTRESLEVEL
 70
     2
102
SHADEPLOTCUSTOMDPI
 70
   300
  0
XRECORD
  5
9B74
102
{ACAD_REACTORS
330
9B0D
102
}
330
9B0D
100
AcDbXrecord
280
     1
102
MATERIAL
148
0.0
149
0.0
149
0.0
 93
        0
 94
      127
282
     0
 72
     0
 77
     0
171
     0
175
     0
179
     0
273
     0
  0
XRECORD
  5
9B0F
102
{ACAD_REACTORS
330
9B0D
102
}
330
9B0D
100
AcDbXrecord
280
     1
270
     1
271
     1
  0
XRECORD
  5
9B0E
102
{ACAD_REACTORS
330
9B0D
102
}
330
9B0D
100
AcDbXrecord
280
     1
270
     1
271
     1
  0
XRECORD
  5
9B12
102
{ACAD_REACTORS
330
9B0D
102
}
330
9B0D
100
AcDbXrecord
280
     1
270
     1
271
     1
  0
XRECORD
  5
9B11
102
{ACAD_REACTORS
330
9B0D
102
}
330
9B0D
100
AcDbXrecord
280
     1
270
     1
271
     1
  0
XRECORD
  5
9B13
102
{ACAD_REACTORS
330
9B0D
102
}
330
9B0D
100
AcDbXrecord
280
     1
270
     1
271
     1
  0
XRECORD
  5
9B10
102
{ACAD_REACTORS
330
9B0D
102
}
330
9B0D
100
AcDbXrecord
280
     1
270
     1
271
     1
  0
XRECORD
  5
9B73
102
{ACAD_REACTORS
330
9B05
102
}
330
9B05
100
AcDbXrecord
280
     1
102
MATERIAL
148
0.0
149
0.0
149
0.0
 93
        0
 94
      127
282
     0
 72
     0
 77
     0
171
     0
175
     0
179
     0
273
     0
  0
XRECORD
  5
9B07
102
{ACAD_REACTORS
330
9B05
102
}
330
9B05
100
AcDbXrecord
280
     1
270
     1
271
     1
  0
XRECORD
  5
9B06
102
{ACAD_REACTORS
330
9B05
102
}
330
9B05
100
AcDbXrecord
280
     1
270
     1
271
     1
  0
XRECORD
  5
9B0A
102
{ACAD_REACTORS
330
9B05
102
}
330
9B05
100
AcDbXrecord
280
     1
270
     1
271
     1
  0
XRECORD
  5
9B09
102
{ACAD_REACTORS
330
9B05
102
}
330
9B05
100
AcDbXrecord
280
     1
270
     1
271
     1
  0
XRECORD
  5
9B0B
102
{ACAD_REACTORS
330
9B05
102
}
330
9B05
100
AcDbXrecord
280
     1
270
     1
271
     1
  0
XRECORD
  5
9B08
102
{ACAD_REACTORS
330
9B05
102
}
330
9B05
100
AcDbXrecord
280
     1
270
     1
271
     1
  0
XRECORD
  5
9B75
102
{ACAD_REACTORS
330
9B15
102
}
330
9B15
100
AcDbXrecord
280
     1
102
MATERIAL
148
0.0
149
0.0
149
0.0
 93
        0
 94
      127
282
     0
 72
     0
 77
     0
171
     0
175
     0
179
     0
273
     0
  0
XRECORD
  5
9B17
102
{ACAD_REACTORS
330
9B15
102
}
330
9B15
100
AcDbXrecord
280
     1
270
     1
271
     1
  0
XRECORD
  5
9B16
102
{ACAD_REACTORS
330
9B15
102
}
330
9B15
100
AcDbXrecord
280
     1
270
     1
271
     1
  0
XRECORD
  5
9B1A
102
{ACAD_REACTORS
330
9B15
102
}
330
9B15
100
AcDbXrecord
280
     1
270
     1
271
     1
  0
XRECORD
  5
9B19
102
{ACAD_REACTORS
330
9B15
102
}
330
9B15
100
AcDbXrecord
280
     1
270
     1
271
     1
  0
XRECORD
  5
9B1B
102
{ACAD_REACTORS
330
9B15
102
}
330
9B15
100
AcDbXrecord
280
     1
270
     1
271
     1
  0
XRECORD
  5
9B18
102
{ACAD_REACTORS
330
9B15
102
}
330
9B15
100
AcDbXrecord
280
     1
270
     1
271
     1
  0
XRECORD
  5
9BA9
102
{ACAD_REACTORS
330
9BA8
102
}
330
9BA8
100
AcDbXrecord
280
     1
102
DISPLAYNAME
  1
Imperial24
102
FLAGS
 90
        0
  0
CELLSTYLEMAP
  5
9B70
102
{ACAD_REACTORS
330
9B6F
102
}
330
9B6F
100
AcDbCellStyleMap
 90
        3
300
CELLSTYLE
  1
TABLEFORMAT_BEGIN
 90
        5
170
     1
 91
        0
 92
    32768
 62
   257
 93
        1
300
CONTENTFORMAT
  1
CONTENTFORMAT_BEGIN
 90
        0
 91
        0
 92
      512
 93
        0
300

 40
0.0
140
1.0
 94
        5
 62
     0
340
987C
144
0.25
309
CONTENTFORMAT_END
171
     0
 94
        0
309
TABLEFORMAT_END
  1
CELLSTYLE_BEGIN
 90
        1
 91
        1
300
_TITLE
309
CELLSTYLE_END
300
CELLSTYLE
  1
TABLEFORMAT_BEGIN
 90
        5
170
     1
 91
        0
 92
        0
 62
   257
 93
        1
300
CONTENTFORMAT
  1
CONTENTFORMAT_BEGIN
 90
        0
 91
        0
 92
      512
 93
        0
300

 40
0.0
140
1.0
 94
        5
 62
     0
340
987C
144
0.18
309
CONTENTFORMAT_END
171
     0
 94
        0
309
TABLEFORMAT_END
  1
CELLSTYLE_BEGIN
 90
        2
 91
        1
300
_HEADER
309
CELLSTYLE_END
300
CELLSTYLE
  1
TABLEFORMAT_BEGIN
 90
        5
170
     1
 91
        0
 92
        0
 62
   257
 93
        1
300
CONTENTFORMAT
  1
CONTENTFORMAT_BEGIN
 90
        0
 91
        0
 92
      512
 93
        0
300

 40
0.0
140
1.0
 94
        2
 62
     0
340
987C
144
0.18
309
CONTENTFORMAT_END
171
     0
 94
        0
309
TABLEFORMAT_END
  1
CELLSTYLE_BEGIN
 90
        3
 91
        2
300
_DATA
309
CELLSTYLE_END
  0
XRECORD
  5
9BA6
102
{ACAD_REACTORS
330
9B6F
102
}
330
9B6F
100
AcDbXrecord
280
     1
102
ACAD_ROUNDTRIP_PRE2007_TABLESTYLE
 90
      512
 91
        0
  1

 92
      512
 93
        0
  2

 94
      512
 95
        0
  3

  0
XRECORD
  5
9B81
102
{ACAD_REACTORS
330
9B80
102
}
330
9B80
100
AcDbXrecord
280
     1
102
RTVSPost2010Prop28
280
     1
102
RTVSPost2010PropOp28
 70
     1
102
RTVSPost2010Prop29
280
     1
102
RTVSPost2010PropOp29
 70
     1
102
RTVSPost2010Prop30
280
     0
102
RTVSPost2010PropOp30
 70
     1
102
RTVSPost2010Prop31
280
     0
102
RTVSPost2010PropOp31
 70
     1
102
RTVSPost2010Prop32
280
     0
102
RTVSPost2010PropOp32
 70
     1
102
RTVSPost2010Prop33
280
     0
102
RTVSPost2010PropOp33
 70
     1
102
RTVSPost2010Prop34
280
     0
102
RTVSPost2010PropOp34
 70
     1
102
RTVSPost2010Prop35
280
     0
102
RTVSPost2010PropOp35
 70
     1
102
RTVSPost2010Prop36
280
     0
102
RTVSPost2010PropOp36
 70
     1
102
RTVSPost2010Prop37
 90
       50
102
RTVSPost2010PropOp37
 70
     1
102
RTVSPost2010Prop38
140
0.0
102
RTVSPost2010PropOp38
 70
     1
102
RTVSPost2010Prop39
140
1.0
102
RTVSPost2010PropOp39
 70
     1
102
RTVSPost2010Prop40
 90
        0
102
RTVSPost2010PropOp40
 70
     1
102
RTVSPost2010Prop41ColorIndex
 90
       18
102
RTVSPost2010Prop41ColorRGB
 90
        0
102
RTVSPost2010PropOp41
 70
     1
102
RTVSPost2010Prop42
 90
       50
102
RTVSPost2010PropOp42
 70
     1
102
RTVSPost2010Prop43
 90
        3
102
RTVSPost2010PropOp43
 70
     1
102
RTVSPost2010Prop44ColorIndex
 90
        5
102
RTVSPost2010Prop44ColorRGB
 90
      255
102
RTVSPost2010PropOp44
 70
     1
102
RTVSPost2010Prop45
280
     0
102
RTVSPost2010PropOp45
 70
     1
102
RTVSPost2010Prop46
 90
       50
102
RTVSPost2010PropOp46
 70
     1
102
RTVSPost2010Prop47
 90
       50
102
RTVSPost2010PropOp47
 70
     1
102
RTVSPost2010Prop48
 90
       50
102
RTVSPost2010PropOp48
 70
     1
102
RTVSPost2010Prop49
280
     0
102
RTVSPost2010PropOp49
 70
     1
102
RTVSPost2010Prop50
 90
       50
102
RTVSPost2010PropOp50
 70
     1
102
RTVSPost2010Prop51ColorIndex
 90
      256
102
RTVSPost2010Prop51ColorRGB
 90
-16777216
102
RTVSPost2010PropOp51
 70
     0
102
RTVSPost2010Prop52
140
1.0
102
RTVSPost2010PropOp52
 70
     0
102
RTVSPost2010Prop53
 90
        2
102
RTVSPost2010PropOp53
 70
     1
102
RTVSPost2010Prop54
  1
strokes_ogs.tif
102
RTVSPost2010PropOp54
 70
     1
102
RTVSPost2010Prop55
280
     0
102
RTVSPost2010PropOp55
 70
     1
102
RTVSPost2010Prop56
140
1.0
102
RTVSPost2010PropOp56
 70
     1
102
RTVSPost2010Prop57
140
1.0
102
RTVSPost2010PropOp57
 70
     1
102
RTVSPropertyOp0
 70
     1
102
RTVSPropertyOp1
 70
     1
102
RTVSPropertyOp2
 70
     1
102
RTVSPropertyOp3
 70
     1
102
RTVSPropertyOp4
 70
     1
102
RTVSPropertyOp5
 70
     1
102
RTVSPropertyOp6
 70
     1
102
RTVSPropertyOp7
 70
     1
102
RTVSPropertyOp8
 70
     1
102
RTVSPropertyOp9
 70
     1
102
RTVSPropertyOp10
 70
     1
102
RTVSPropertyOp11
 70
     1
102
RTVSPropertyOp12
 70
     1
102
RTVSPropertyOp13
 70
     1
102
RTVSPropertyOp14
 70
     1
102
RTVSPropertyOp15
 70
     1
102
RTVSPropertyOp16
 70
     1
102
RTVSPropertyOp17
 70
     1
102
RTVSPropertyOp18
 70
     1
102
RTVSPropertyOp19
 70
     1
102
RTVSPropertyOp20
 70
     1
102
RTVSPropertyOp21
 70
     1
102
RTVSPropertyOp22
 70
     1
102
RTVSPropertyOp23
 70
     1
102
RTVSPropertyOp24
 70
     1
102
RTVSPropertyOp25
 70
     1
102
RTVSPropertyOp26
 70
     1
102
RTVSPropertyOp27
 70
     1
102
RTVSPropertyOp28
 70
     1
102
RTVSPropertyOp29
 70
     1
102
RTVSPropertyOp30
 70
     1
102
RTVSPropertyOp31
 70
     1
102
RTVSPropertyOp32
 70
     1
102
RTVSPropertyOp33
 70
     1
102
RTVSPropertyOp34
 70
     1
102
RTVSPropertyOp35
 70
     1
102
RTVSPropertyOp36
 70
     1
102
RTVSPropertyOp37
 70
     1
102
RTVSPropertyOp38
 70
     1
102
RTVSPropertyOp39
 70
     1
102
RTVSPropertyOp40
 70
     1
102
RTVSPropertyOp41
 70
     1
102
RTVSPropertyOp42
 70
     1
102
RTVSPropertyOp43
 70
     1
102
RTVSPropertyOp44
 70
     1
102
RTVSPropertyOp45
 70
     1
102
RTVSPropertyOp46
 70
     1
102
RTVSPropertyOp47
 70
     1
102
RTVSPropertyOp48
 70
     1
102
RTVSPropertyOp49
 70
     1
102
RTVSPropertyOp50
 70
     1
102
RTVSPropertyOp51
 70
     0
102
RTVSPropertyOp52
 70
     0
102
RTVSPropertyOp53
 70
     1
102
RTVSPropertyOp54
 70
     1
102
RTVSPropertyOp55
 70
     1
102
RTVSPropertyOp56
 70
     1
102
RTVSPropertyOp57
 70
     1
102
RTVSPropertyOp58
 70
     1
102
RTVSPropertyOp59
 70
     1
102
RTVSPropertyOp60
 70
     1
102
RTVSPropertyOp61
 70
     1
102
RTVSPropertyOp62
 70
     1
  0
XRECORD
  5
9B7F
102
{ACAD_REACTORS
330
9B7E
102
}
330
9B7E
100
AcDbXrecord
280
     1
102
RTVSPost2010Prop28
280
     0
102
RTVSPost2010PropOp28
 70
     1
102
RTVSPost2010Prop29
280
     1
102
RTVSPost2010PropOp29
 70
     1
102
RTVSPost2010Prop30
280
     1
102
RTVSPost2010PropOp30
 70
     1
102
RTVSPost2010Prop31
280
     0
102
RTVSPost2010PropOp31
 70
     1
102
RTVSPost2010Prop32
280
     0
102
RTVSPost2010PropOp32
 70
     1
102
RTVSPost2010Prop33
280
     0
102
RTVSPost2010PropOp33
 70
     1
102
RTVSPost2010Prop34
280
     0
102
RTVSPost2010PropOp34
 70
     1
102
RTVSPost2010Prop35
280
     0
102
RTVSPost2010PropOp35
 70
     1
102
RTVSPost2010Prop36
280
     0
102
RTVSPost2010PropOp36
 70
     1
102
RTVSPost2010Prop37
 90
       50
102
RTVSPost2010PropOp37
 70
     1
102
RTVSPost2010Prop38
140
0.0
102
RTVSPost2010PropOp38
 70
     1
102
RTVSPost2010Prop39
140
1.0
102
RTVSPost2010PropOp39
 70
     1
102
RTVSPost2010Prop40
 90
        0
102
RTVSPost2010PropOp40
 70
     1
102
RTVSPost2010Prop41ColorIndex
 90
       18
102
RTVSPost2010Prop41ColorRGB
 90
        0
102
RTVSPost2010PropOp41
 70
     1
102
RTVSPost2010Prop42
 90
       50
102
RTVSPost2010PropOp42
 70
     1
102
RTVSPost2010Prop43
 90
        3
102
RTVSPost2010PropOp43
 70
     1
102
RTVSPost2010Prop44ColorIndex
 90
        5
102
RTVSPost2010Prop44ColorRGB
 90
      255
102
RTVSPost2010PropOp44
 70
     1
102
RTVSPost2010Prop45
280
     0
102
RTVSPost2010PropOp45
 70
     1
102
RTVSPost2010Prop46
 90
       50
102
RTVSPost2010PropOp46
 70
     1
102
RTVSPost2010Prop47
 90
       50
102
RTVSPost2010PropOp47
 70
     1
102
RTVSPost2010Prop48
 90
       50
102
RTVSPost2010PropOp48
 70
     1
102
RTVSPost2010Prop49
280
     0
102
RTVSPost2010PropOp49
 70
     1
102
RTVSPost2010Prop50
 90
       50
102
RTVSPost2010PropOp50
 70
     1
102
RTVSPost2010Prop51ColorIndex
 90
      256
102
RTVSPost2010Prop51ColorRGB
 90
-16777216
102
RTVSPost2010PropOp51
 70
     0
102
RTVSPost2010Prop52
140
1.0
102
RTVSPost2010PropOp52
 70
     0
102
RTVSPost2010Prop53
 90
        2
102
RTVSPost2010PropOp53
 70
     1
102
RTVSPost2010Prop54
  1
strokes_ogs.tif
102
RTVSPost2010PropOp54
 70
     1
102
RTVSPost2010Prop55
280
     0
102
RTVSPost2010PropOp55
 70
     1
102
RTVSPost2010Prop56
140
1.0
102
RTVSPost2010PropOp56
 70
     1
102
RTVSPost2010Prop57
140
1.0
102
RTVSPost2010PropOp57
 70
     1
102
RTVSPropertyOp0
 70
     1
102
RTVSPropertyOp1
 70
     1
102
RTVSPropertyOp2
 70
     1
102
RTVSPropertyOp3
 70
     1
102
RTVSPropertyOp4
 70
     1
102
RTVSPropertyOp5
 70
     1
102
RTVSPropertyOp6
 70
     1
102
RTVSPropertyOp7
 70
     1
102
RTVSPropertyOp8
 70
     1
102
RTVSPropertyOp9
 70
     1
102
RTVSPropertyOp10
 70
     1
102
RTVSPropertyOp11
 70
     1
102
RTVSPropertyOp12
 70
     1
102
RTVSPropertyOp13
 70
     1
102
RTVSPropertyOp14
 70
     1
102
RTVSPropertyOp15
 70
     1
102
RTVSPropertyOp16
 70
     1
102
RTVSPropertyOp17
 70
     1
102
RTVSPropertyOp18
 70
     1
102
RTVSPropertyOp19
 70
     1
102
RTVSPropertyOp20
 70
     1
102
RTVSPropertyOp21
 70
     1
102
RTVSPropertyOp22
 70
     1
102
RTVSPropertyOp23
 70
     1
102
RTVSPropertyOp24
 70
     1
102
RTVSPropertyOp25
 70
     1
102
RTVSPropertyOp26
 70
     1
102
RTVSPropertyOp27
 70
     1
102
RTVSPropertyOp28
 70
     1
102
RTVSPropertyOp29
 70
     1
102
RTVSPropertyOp30
 70
     1
102
RTVSPropertyOp31
 70
     1
102
RTVSPropertyOp32
 70
     1
102
RTVSPropertyOp33
 70
     1
102
RTVSPropertyOp34
 70
     1
102
RTVSPropertyOp35
 70
     1
102
RTVSPropertyOp36
 70
     1
102
RTVSPropertyOp37
 70
     1
102
RTVSPropertyOp38
 70
     1
102
RTVSPropertyOp39
 70
     1
102
RTVSPropertyOp40
 70
     1
102
RTVSPropertyOp41
 70
     1
102
RTVSPropertyOp42
 70
     1
102
RTVSPropertyOp43
 70
     1
102
RTVSPropertyOp44
 70
     1
102
RTVSPropertyOp45
 70
     1
102
RTVSPropertyOp46
 70
     1
102
RTVSPropertyOp47
 70
     1
102
RTVSPropertyOp48
 70
     1
102
RTVSPropertyOp49
 70
     1
102
RTVSPropertyOp50
 70
     1
102
RTVSPropertyOp51
 70
     0
102
RTVSPropertyOp52
 70
     0
102
RTVSPropertyOp53
 70
     1
102
RTVSPropertyOp54
 70
     1
102
RTVSPropertyOp55
 70
     1
102
RTVSPropertyOp56
 70
     1
102
RTVSPropertyOp57
 70
     1
102
RTVSPropertyOp58
 70
     1
102
RTVSPropertyOp59
 70
     1
102
RTVSPropertyOp60
 70
     1
102
RTVSPropertyOp61
 70
     1
102
RTVSPropertyOp62
 70
     1
  0
XRECORD
  5
9B8D
102
{ACAD_REACTORS
330
9B8C
102
}
330
9B8C
100
AcDbXrecord
280
     1
102
RTVSPost2010Prop28
280
     0
102
RTVSPost2010PropOp28
 70
     1
102
RTVSPost2010Prop29
280
     1
102
RTVSPost2010PropOp29
 70
     1
102
RTVSPost2010Prop30
280
     1
102
RTVSPost2010PropOp30
 70
     1
102
RTVSPost2010Prop31
280
     0
102
RTVSPost2010PropOp31
 70
     1
102
RTVSPost2010Prop32
280
     0
102
RTVSPost2010PropOp32
 70
     1
102
RTVSPost2010Prop33
280
     0
102
RTVSPost2010PropOp33
 70
     1
102
RTVSPost2010Prop34
280
     0
102
RTVSPost2010PropOp34
 70
     1
102
RTVSPost2010Prop35
280
     0
102
RTVSPost2010PropOp35
 70
     1
102
RTVSPost2010Prop36
280
     0
102
RTVSPost2010PropOp36
 70
     1
102
RTVSPost2010Prop37
 90
       50
102
RTVSPost2010PropOp37
 70
     1
102
RTVSPost2010Prop38
140
0.0
102
RTVSPost2010PropOp38
 70
     1
102
RTVSPost2010Prop39
140
1.0
102
RTVSPost2010PropOp39
 70
     1
102
RTVSPost2010Prop40
 90
        0
102
RTVSPost2010PropOp40
 70
     1
102
RTVSPost2010Prop41ColorIndex
 90
       18
102
RTVSPost2010Prop41ColorRGB
 90
        0
102
RTVSPost2010PropOp41
 70
     1
102
RTVSPost2010Prop42
 90
       50
102
RTVSPost2010PropOp42
 70
     1
102
RTVSPost2010Prop43
 90
        3
102
RTVSPost2010PropOp43
 70
     1
102
RTVSPost2010Prop44ColorIndex
 90
        5
102
RTVSPost2010Prop44ColorRGB
 90
      255
102
RTVSPost2010PropOp44
 70
     1
102
RTVSPost2010Prop45
280
     0
102
RTVSPost2010PropOp45
 70
     1
102
RTVSPost2010Prop46
 90
       50
102
RTVSPost2010PropOp46
 70
     1
102
RTVSPost2010Prop47
 90
       50
102
RTVSPost2010PropOp47
 70
     1
102
RTVSPost2010Prop48
 90
       50
102
RTVSPost2010PropOp48
 70
     1
102
RTVSPost2010Prop49
280
     0
102
RTVSPost2010PropOp49
 70
     1
102
RTVSPost2010Prop50
 90
       50
102
RTVSPost2010PropOp50
 70
     1
102
RTVSPost2010Prop51ColorIndex
 90
      256
102
RTVSPost2010Prop51ColorRGB
 90
-16777216
102
RTVSPost2010PropOp51
 70
     0
102
RTVSPost2010Prop52
140
1.0
102
RTVSPost2010PropOp52
 70
     0
102
RTVSPost2010Prop53
 90
        2
102
RTVSPost2010PropOp53
 70
     1
102
RTVSPost2010Prop54
  1
strokes_ogs.tif
102
RTVSPost2010PropOp54
 70
     1
102
RTVSPost2010Prop55
280
     0
102
RTVSPost2010PropOp55
 70
     1
102
RTVSPost2010Prop56
140
1.0
102
RTVSPost2010PropOp56
 70
     1
102
RTVSPost2010Prop57
140
1.0
102
RTVSPost2010PropOp57
 70
     1
102
RTVSPropertyOp0
 70
     1
102
RTVSPropertyOp1
 70
     1
102
RTVSPropertyOp2
 70
     1
102
RTVSPropertyOp3
 70
     1
102
RTVSPropertyOp4
 70
     1
102
RTVSPropertyOp5
 70
     1
102
RTVSPropertyOp6
 70
     1
102
RTVSPropertyOp7
 70
     1
102
RTVSPropertyOp8
 70
     1
102
RTVSPropertyOp9
 70
     1
102
RTVSPropertyOp10
 70
     1
102
RTVSPropertyOp11
 70
     1
102
RTVSPropertyOp12
 70
     1
102
RTVSPropertyOp13
 70
     1
102
RTVSPropertyOp14
 70
     1
102
RTVSPropertyOp15
 70
     1
102
RTVSPropertyOp16
 70
     1
102
RTVSPropertyOp17
 70
     1
102
RTVSPropertyOp18
 70
     1
102
RTVSPropertyOp19
 70
     1
102
RTVSPropertyOp20
 70
     1
102
RTVSPropertyOp21
 70
     1
102
RTVSPropertyOp22
 70
     1
102
RTVSPropertyOp23
 70
     1
102
RTVSPropertyOp24
 70
     1
102
RTVSPropertyOp25
 70
     1
102
RTVSPropertyOp26
 70
     1
102
RTVSPropertyOp27
 70
     1
102
RTVSPropertyOp28
 70
     1
102
RTVSPropertyOp29
 70
     1
102
RTVSPropertyOp30
 70
     1
102
RTVSPropertyOp31
 70
     1
102
RTVSPropertyOp32
 70
     1
102
RTVSPropertyOp33
 70
     1
102
RTVSPropertyOp34
 70
     1
102
RTVSPropertyOp35
 70
     1
102
RTVSPropertyOp36
 70
     1
102
RTVSPropertyOp37
 70
     1
102
RTVSPropertyOp38
 70
     1
102
RTVSPropertyOp39
 70
     1
102
RTVSPropertyOp40
 70
     1
102
RTVSPropertyOp41
 70
     1
102
RTVSPropertyOp42
 70
     1
102
RTVSPropertyOp43
 70
     1
102
RTVSPropertyOp44
 70
     1
102
RTVSPropertyOp45
 70
     1
102
RTVSPropertyOp46
 70
     1
102
RTVSPropertyOp47
 70
     1
102
RTVSPropertyOp48
 70
     1
102
RTVSPropertyOp49
 70
     1
102
RTVSPropertyOp50
 70
     1
102
RTVSPropertyOp51
 70
     0
102
RTVSPropertyOp52
 70
     0
102
RTVSPropertyOp53
 70
     1
102
RTVSPropertyOp54
 70
     1
102
RTVSPropertyOp55
 70
     1
102
RTVSPropertyOp56
 70
     1
102
RTVSPropertyOp57
 70
     1
102
RTVSPropertyOp58
 70
     1
102
RTVSPropertyOp59
 70
     1
102
RTVSPropertyOp60
 70
     1
102
RTVSPropertyOp61
 70
     1
102
RTVSPropertyOp62
 70
     1
  0
XRECORD
  5
9B95
102
{ACAD_REACTORS
330
9B94
102
}
330
9B94
100
AcDbXrecord
280
     1
102
RTVSPost2010Prop28
280
     0
102
RTVSPost2010PropOp28
 70
     1
102
RTVSPost2010Prop29
280
     1
102
RTVSPost2010PropOp29
 70
     1
102
RTVSPost2010Prop30
280
     1
102
RTVSPost2010PropOp30
 70
     1
102
RTVSPost2010Prop31
280
     0
102
RTVSPost2010PropOp31
 70
     1
102
RTVSPost2010Prop32
280
     0
102
RTVSPost2010PropOp32
 70
     1
102
RTVSPost2010Prop33
280
     0
102
RTVSPost2010PropOp33
 70
     1
102
RTVSPost2010Prop34
280
     0
102
RTVSPost2010PropOp34
 70
     1
102
RTVSPost2010Prop35
280
     0
102
RTVSPost2010PropOp35
 70
     1
102
RTVSPost2010Prop36
280
     0
102
RTVSPost2010PropOp36
 70
     1
102
RTVSPost2010Prop37
 90
       50
102
RTVSPost2010PropOp37
 70
     1
102
RTVSPost2010Prop38
140
0.0
102
RTVSPost2010PropOp38
 70
     1
102
RTVSPost2010Prop39
140
1.0
102
RTVSPost2010PropOp39
 70
     1
102
RTVSPost2010Prop40
 90
        0
102
RTVSPost2010PropOp40
 70
     1
102
RTVSPost2010Prop41ColorIndex
 90
       18
102
RTVSPost2010Prop41ColorRGB
 90
        0
102
RTVSPost2010PropOp41
 70
     1
102
RTVSPost2010Prop42
 90
       50
102
RTVSPost2010PropOp42
 70
     1
102
RTVSPost2010Prop43
 90
        3
102
RTVSPost2010PropOp43
 70
     1
102
RTVSPost2010Prop44ColorIndex
 90
        5
102
RTVSPost2010Prop44ColorRGB
 90
      255
102
RTVSPost2010PropOp44
 70
     1
102
RTVSPost2010Prop45
280
     0
102
RTVSPost2010PropOp45
 70
     1
102
RTVSPost2010Prop46
 90
       50
102
RTVSPost2010PropOp46
 70
     1
102
RTVSPost2010Prop47
 90
       50
102
RTVSPost2010PropOp47
 70
     1
102
RTVSPost2010Prop48
 90
       50
102
RTVSPost2010PropOp48
 70
     1
102
RTVSPost2010Prop49
280
     0
102
RTVSPost2010PropOp49
 70
     1
102
RTVSPost2010Prop50
 90
       50
102
RTVSPost2010PropOp50
 70
     1
102
RTVSPost2010Prop51ColorIndex
 90
      256
102
RTVSPost2010Prop51ColorRGB
 90
-16777216
102
RTVSPost2010PropOp51
 70
     0
102
RTVSPost2010Prop52
140
1.0
102
RTVSPost2010PropOp52
 70
     0
102
RTVSPost2010Prop53
 90
        2
102
RTVSPost2010PropOp53
 70
     1
102
RTVSPost2010Prop54
  1
strokes_ogs.tif
102
RTVSPost2010PropOp54
 70
     1
102
RTVSPost2010Prop55
280
     0
102
RTVSPost2010PropOp55
 70
     1
102
RTVSPost2010Prop56
140
1.0
102
RTVSPost2010PropOp56
 70
     1
102
RTVSPost2010Prop57
140
1.0
102
RTVSPost2010PropOp57
 70
     1
102
RTVSPropertyOp0
 70
     1
102
RTVSPropertyOp1
 70
     1
102
RTVSPropertyOp2
 70
     1
102
RTVSPropertyOp3
 70
     1
102
RTVSPropertyOp4
 70
     1
102
RTVSPropertyOp5
 70
     1
102
RTVSPropertyOp6
 70
     1
102
RTVSPropertyOp7
 70
     1
102
RTVSPropertyOp8
 70
     1
102
RTVSPropertyOp9
 70
     1
102
RTVSPropertyOp10
 70
     1
102
RTVSPropertyOp11
 70
     1
102
RTVSPropertyOp12
 70
     1
102
RTVSPropertyOp13
 70
     1
102
RTVSPropertyOp14
 70
     1
102
RTVSPropertyOp15
 70
     1
102
RTVSPropertyOp16
 70
     1
102
RTVSPropertyOp17
 70
     1
102
RTVSPropertyOp18
 70
     1
102
RTVSPropertyOp19
 70
     1
102
RTVSPropertyOp20
 70
     1
102
RTVSPropertyOp21
 70
     1
102
RTVSPropertyOp22
 70
     1
102
RTVSPropertyOp23
 70
     1
102
RTVSPropertyOp24
 70
     1
102
RTVSPropertyOp25
 70
     1
102
RTVSPropertyOp26
 70
     1
102
RTVSPropertyOp27
 70
     1
102
RTVSPropertyOp28
 70
     1
102
RTVSPropertyOp29
 70
     1
102
RTVSPropertyOp30
 70
     1
102
RTVSPropertyOp31
 70
     1
102
RTVSPropertyOp32
 70
     1
102
RTVSPropertyOp33
 70
     1
102
RTVSPropertyOp34
 70
     1
102
RTVSPropertyOp35
 70
     1
102
RTVSPropertyOp36
 70
     1
102
RTVSPropertyOp37
 70
     1
102
RTVSPropertyOp38
 70
     1
102
RTVSPropertyOp39
 70
     1
102
RTVSPropertyOp40
 70
     1
102
RTVSPropertyOp41
 70
     1
102
RTVSPropertyOp42
 70
     1
102
RTVSPropertyOp43
 70
     1
102
RTVSPropertyOp44
 70
     1
102
RTVSPropertyOp45
 70
     1
102
RTVSPropertyOp46
 70
     1
102
RTVSPropertyOp47
 70
     1
102
RTVSPropertyOp48
 70
     1
102
RTVSPropertyOp49
 70
     1
102
RTVSPropertyOp50
 70
     1
102
RTVSPropertyOp51
 70
     0
102
RTVSPropertyOp52
 70
     0
102
RTVSPropertyOp53
 70
     1
102
RTVSPropertyOp54
 70
     1
102
RTVSPropertyOp55
 70
     1
102
RTVSPropertyOp56
 70
     1
102
RTVSPropertyOp57
 70
     1
102
RTVSPropertyOp58
 70
     1
102
RTVSPropertyOp59
 70
     1
102
RTVSPropertyOp60
 70
     1
102
RTVSPropertyOp61
 70
     1
102
RTVSPropertyOp62
 70
     1
  0
XRECORD
  5
9B87
102
{ACAD_REACTORS
330
9B86
102
}
330
9B86
100
AcDbXrecord
280
     1
102
RTVSPost2010Prop28
280
     0
102
RTVSPost2010PropOp28
 70
     1
102
RTVSPost2010Prop29
280
     1
102
RTVSPost2010PropOp29
 70
     1
102
RTVSPost2010Prop30
280
     1
102
RTVSPost2010PropOp30
 70
     1
102
RTVSPost2010Prop31
280
     0
102
RTVSPost2010PropOp31
 70
     1
102
RTVSPost2010Prop32
280
     0
102
RTVSPost2010PropOp32
 70
     1
102
RTVSPost2010Prop33
280
     0
102
RTVSPost2010PropOp33
 70
     1
102
RTVSPost2010Prop34
280
     0
102
RTVSPost2010PropOp34
 70
     1
102
RTVSPost2010Prop35
280
     0
102
RTVSPost2010PropOp35
 70
     1
102
RTVSPost2010Prop36
280
     0
102
RTVSPost2010PropOp36
 70
     1
102
RTVSPost2010Prop37
 90
       50
102
RTVSPost2010PropOp37
 70
     1
102
RTVSPost2010Prop38
140
0.0
102
RTVSPost2010PropOp38
 70
     1
102
RTVSPost2010Prop39
140
1.0
102
RTVSPost2010PropOp39
 70
     1
102
RTVSPost2010Prop40
 90
        0
102
RTVSPost2010PropOp40
 70
     1
102
RTVSPost2010Prop41ColorIndex
 90
       18
102
RTVSPost2010Prop41ColorRGB
 90
        0
102
RTVSPost2010PropOp41
 70
     1
102
RTVSPost2010Prop42
 90
       50
102
RTVSPost2010PropOp42
 70
     1
102
RTVSPost2010Prop43
 90
        3
102
RTVSPost2010PropOp43
 70
     1
102
RTVSPost2010Prop44ColorIndex
 90
        5
102
RTVSPost2010Prop44ColorRGB
 90
      255
102
RTVSPost2010PropOp44
 70
     1
102
RTVSPost2010Prop45
280
     0
102
RTVSPost2010PropOp45
 70
     1
102
RTVSPost2010Prop46
 90
       50
102
RTVSPost2010PropOp46
 70
     1
102
RTVSPost2010Prop47
 90
       50
102
RTVSPost2010PropOp47
 70
     1
102
RTVSPost2010Prop48
 90
       50
102
RTVSPost2010PropOp48
 70
     1
102
RTVSPost2010Prop49
280
     0
102
RTVSPost2010PropOp49
 70
     1
102
RTVSPost2010Prop50
 90
       50
102
RTVSPost2010PropOp50
 70
     1
102
RTVSPost2010Prop51ColorIndex
 90
      256
102
RTVSPost2010Prop51ColorRGB
 90
-16777216
102
RTVSPost2010PropOp51
 70
     0
102
RTVSPost2010Prop52
140
1.0
102
RTVSPost2010PropOp52
 70
     0
102
RTVSPost2010Prop53
 90
        2
102
RTVSPost2010PropOp53
 70
     1
102
RTVSPost2010Prop54
  1
strokes_ogs.tif
102
RTVSPost2010PropOp54
 70
     1
102
RTVSPost2010Prop55
280
     0
102
RTVSPost2010PropOp55
 70
     1
102
RTVSPost2010Prop56
140
1.0
102
RTVSPost2010PropOp56
 70
     1
102
RTVSPost2010Prop57
140
1.0
102
RTVSPost2010PropOp57
 70
     1
102
RTVSPropertyOp0
 70
     1
102
RTVSPropertyOp1
 70
     1
102
RTVSPropertyOp2
 70
     1
102
RTVSPropertyOp3
 70
     1
102
RTVSPropertyOp4
 70
     1
102
RTVSPropertyOp5
 70
     1
102
RTVSPropertyOp6
 70
     1
102
RTVSPropertyOp7
 70
     1
102
RTVSPropertyOp8
 70
     1
102
RTVSPropertyOp9
 70
     1
102
RTVSPropertyOp10
 70
     1
102
RTVSPropertyOp11
 70
     1
102
RTVSPropertyOp12
 70
     1
102
RTVSPropertyOp13
 70
     1
102
RTVSPropertyOp14
 70
     1
102
RTVSPropertyOp15
 70
     1
102
RTVSPropertyOp16
 70
     1
102
RTVSPropertyOp17
 70
     1
102
RTVSPropertyOp18
 70
     1
102
RTVSPropertyOp19
 70
     1
102
RTVSPropertyOp20
 70
     1
102
RTVSPropertyOp21
 70
     1
102
RTVSPropertyOp22
 70
     1
102
RTVSPropertyOp23
 70
     1
102
RTVSPropertyOp24
 70
     1
102
RTVSPropertyOp25
 70
     1
102
RTVSPropertyOp26
 70
     1
102
RTVSPropertyOp27
 70
     1
102
RTVSPropertyOp28
 70
     1
102
RTVSPropertyOp29
 70
     1
102
RTVSPropertyOp30
 70
     1
102
RTVSPropertyOp31
 70
     1
102
RTVSPropertyOp32
 70
     1
102
RTVSPropertyOp33
 70
     1
102
RTVSPropertyOp34
 70
     1
102
RTVSPropertyOp35
 70
     1
102
RTVSPropertyOp36
 70
     1
102
RTVSPropertyOp37
 70
     1
102
RTVSPropertyOp38
 70
     1
102
RTVSPropertyOp39
 70
     1
102
RTVSPropertyOp40
 70
     1
102
RTVSPropertyOp41
 70
     1
102
RTVSPropertyOp42
 70
     1
102
RTVSPropertyOp43
 70
     1
102
RTVSPropertyOp44
 70
     1
102
RTVSPropertyOp45
 70
     1
102
RTVSPropertyOp46
 70
     1
102
RTVSPropertyOp47
 70
     1
102
RTVSPropertyOp48
 70
     1
102
RTVSPropertyOp49
 70
     1
102
RTVSPropertyOp50
 70
     1
102
RTVSPropertyOp51
 70
     0
102
RTVSPropertyOp52
 70
     0
102
RTVSPropertyOp53
 70
     1
102
RTVSPropertyOp54
 70
     1
102
RTVSPropertyOp55
 70
     1
102
RTVSPropertyOp56
 70
     1
102
RTVSPropertyOp57
 70
     1
102
RTVSPropertyOp58
 70
     1
102
RTVSPropertyOp59
 70
     1
102
RTVSPropertyOp60
 70
     1
102
RTVSPropertyOp61
 70
     1
102
RTVSPropertyOp62
 70
     1
  0
XRECORD
  5
9B8B
102
{ACAD_REACTORS
330
9B8A
102
}
330
9B8A
100
AcDbXrecord
280
     1
102
RTVSPost2010Prop28
280
     0
102
RTVSPost2010PropOp28
 70
     1
102
RTVSPost2010Prop29
280
     1
102
RTVSPost2010PropOp29
 70
     1
102
RTVSPost2010Prop30
280
     1
102
RTVSPost2010PropOp30
 70
     1
102
RTVSPost2010Prop31
280
     0
102
RTVSPost2010PropOp31
 70
     1
102
RTVSPost2010Prop32
280
     0
102
RTVSPost2010PropOp32
 70
     1
102
RTVSPost2010Prop33
280
     0
102
RTVSPost2010PropOp33
 70
     1
102
RTVSPost2010Prop34
280
     0
102
RTVSPost2010PropOp34
 70
     1
102
RTVSPost2010Prop35
280
     0
102
RTVSPost2010PropOp35
 70
     1
102
RTVSPost2010Prop36
280
     0
102
RTVSPost2010PropOp36
 70
     1
102
RTVSPost2010Prop37
 90
       50
102
RTVSPost2010PropOp37
 70
     1
102
RTVSPost2010Prop38
140
0.0
102
RTVSPost2010PropOp38
 70
     1
102
RTVSPost2010Prop39
140
1.0
102
RTVSPost2010PropOp39
 70
     1
102
RTVSPost2010Prop40
 90
        0
102
RTVSPost2010PropOp40
 70
     1
102
RTVSPost2010Prop41ColorIndex
 90
       18
102
RTVSPost2010Prop41ColorRGB
 90
        0
102
RTVSPost2010PropOp41
 70
     1
102
RTVSPost2010Prop42
 90
       50
102
RTVSPost2010PropOp42
 70
     1
102
RTVSPost2010Prop43
 90
        3
102
RTVSPost2010PropOp43
 70
     1
102
RTVSPost2010Prop44ColorIndex
 90
        5
102
RTVSPost2010Prop44ColorRGB
 90
      255
102
RTVSPost2010PropOp44
 70
     1
102
RTVSPost2010Prop45
280
     0
102
RTVSPost2010PropOp45
 70
     1
102
RTVSPost2010Prop46
 90
       50
102
RTVSPost2010PropOp46
 70
     1
102
RTVSPost2010Prop47
 90
       50
102
RTVSPost2010PropOp47
 70
     1
102
RTVSPost2010Prop48
 90
       50
102
RTVSPost2010PropOp48
 70
     1
102
RTVSPost2010Prop49
280
     0
102
RTVSPost2010PropOp49
 70
     1
102
RTVSPost2010Prop50
 90
       50
102
RTVSPost2010PropOp50
 70
     1
102
RTVSPost2010Prop51ColorIndex
 90
      256
102
RTVSPost2010Prop51ColorRGB
 90
-16777216
102
RTVSPost2010PropOp51
 70
     0
102
RTVSPost2010Prop52
140
1.0
102
RTVSPost2010PropOp52
 70
     0
102
RTVSPost2010Prop53
 90
        2
102
RTVSPost2010PropOp53
 70
     1
102
RTVSPost2010Prop54
  1
strokes_ogs.tif
102
RTVSPost2010PropOp54
 70
     1
102
RTVSPost2010Prop55
280
     0
102
RTVSPost2010PropOp55
 70
     1
102
RTVSPost2010Prop56
140
1.0
102
RTVSPost2010PropOp56
 70
     1
102
RTVSPost2010Prop57
140
1.0
102
RTVSPost2010PropOp57
 70
     1
102
RTVSPropertyOp0
 70
     1
102
RTVSPropertyOp1
 70
     1
102
RTVSPropertyOp2
 70
     1
102
RTVSPropertyOp3
 70
     1
102
RTVSPropertyOp4
 70
     1
102
RTVSPropertyOp5
 70
     1
102
RTVSPropertyOp6
 70
     1
102
RTVSPropertyOp7
 70
     1
102
RTVSPropertyOp8
 70
     1
102
RTVSPropertyOp9
 70
     1
102
RTVSPropertyOp10
 70
     1
102
RTVSPropertyOp11
 70
     1
102
RTVSPropertyOp12
 70
     1
102
RTVSPropertyOp13
 70
     1
102
RTVSPropertyOp14
 70
     1
102
RTVSPropertyOp15
 70
     1
102
RTVSPropertyOp16
 70
     1
102
RTVSPropertyOp17
 70
     1
102
RTVSPropertyOp18
 70
     1
102
RTVSPropertyOp19
 70
     1
102
RTVSPropertyOp20
 70
     1
102
RTVSPropertyOp21
 70
     1
102
RTVSPropertyOp22
 70
     1
102
RTVSPropertyOp23
 70
     1
102
RTVSPropertyOp24
 70
     1
102
RTVSPropertyOp25
 70
     1
102
RTVSPropertyOp26
 70
     1
102
RTVSPropertyOp27
 70
     1
102
RTVSPropertyOp28
 70
     1
102
RTVSPropertyOp29
 70
     1
102
RTVSPropertyOp30
 70
     1
102
RTVSPropertyOp31
 70
     1
102
RTVSPropertyOp32
 70
     1
102
RTVSPropertyOp33
 70
     1
102
RTVSPropertyOp34
 70
     1
102
RTVSPropertyOp35
 70
     1
102
RTVSPropertyOp36
 70
     1
102
RTVSPropertyOp37
 70
     1
102
RTVSPropertyOp38
 70
     1
102
RTVSPropertyOp39
 70
     1
102
RTVSPropertyOp40
 70
     1
102
RTVSPropertyOp41
 70
     1
102
RTVSPropertyOp42
 70
     1
102
RTVSPropertyOp43
 70
     1
102
RTVSPropertyOp44
 70
     1
102
RTVSPropertyOp45
 70
     1
102
RTVSPropertyOp46
 70
     1
102
RTVSPropertyOp47
 70
     1
102
RTVSPropertyOp48
 70
     1
102
RTVSPropertyOp49
 70
     1
102
RTVSPropertyOp50
 70
     1
102
RTVSPropertyOp51
 70
     0
102
RTVSPropertyOp52
 70
     0
102
RTVSPropertyOp53
 70
     1
102
RTVSPropertyOp54
 70
     1
102
RTVSPropertyOp55
 70
     1
102
RTVSPropertyOp56
 70
     1
102
RTVSPropertyOp57
 70
     1
102
RTVSPropertyOp58
 70
     1
102
RTVSPropertyOp59
 70
     1
102
RTVSPropertyOp60
 70
     1
102
RTVSPropertyOp61
 70
     1
102
RTVSPropertyOp62
 70
     1
  0
XRECORD
  5
9BA5
102
{ACAD_REACTORS
330
9BA4
102
}
330
9BA4
100
AcDbXrecord
280
     1
102
RTVSPost2010Prop28
280
     0
102
RTVSPost2010PropOp28
 70
     1
102
RTVSPost2010Prop29
280
     1
102
RTVSPost2010PropOp29
 70
     1
102
RTVSPost2010Prop30
280
     1
102
RTVSPost2010PropOp30
 70
     1
102
RTVSPost2010Prop31
280
     0
102
RTVSPost2010PropOp31
 70
     1
102
RTVSPost2010Prop32
280
     0
102
RTVSPost2010PropOp32
 70
     1
102
RTVSPost2010Prop33
280
     0
102
RTVSPost2010PropOp33
 70
     1
102
RTVSPost2010Prop34
280
     0
102
RTVSPost2010PropOp34
 70
     1
102
RTVSPost2010Prop35
280
     0
102
RTVSPost2010PropOp35
 70
     1
102
RTVSPost2010Prop36
280
     0
102
RTVSPost2010PropOp36
 70
     1
102
RTVSPost2010Prop37
 90
       50
102
RTVSPost2010PropOp37
 70
     0
102
RTVSPost2010Prop38
140
0.0
102
RTVSPost2010PropOp38
 70
     0
102
RTVSPost2010Prop39
140
1.0
102
RTVSPost2010PropOp39
 70
     0
102
RTVSPost2010Prop40
 90
        0
102
RTVSPost2010PropOp40
 70
     0
102
RTVSPost2010Prop41ColorIndex
 90
       18
102
RTVSPost2010Prop41ColorRGB
 90
        0
102
RTVSPost2010PropOp41
 70
     0
102
RTVSPost2010Prop42
 90
       50
102
RTVSPost2010PropOp42
 70
     0
102
RTVSPost2010Prop43
 90
        3
102
RTVSPost2010PropOp43
 70
     0
102
RTVSPost2010Prop44ColorIndex
 90
        5
102
RTVSPost2010Prop44ColorRGB
 90
      255
102
RTVSPost2010PropOp44
 70
     0
102
RTVSPost2010Prop45
280
     0
102
RTVSPost2010PropOp45
 70
     1
102
RTVSPost2010Prop46
 90
       50
102
RTVSPost2010PropOp46
 70
     0
102
RTVSPost2010Prop47
 90
       50
102
RTVSPost2010PropOp47
 70
     0
102
RTVSPost2010Prop48
 90
       50
102
RTVSPost2010PropOp48
 70
     0
102
RTVSPost2010Prop49
280
     0
102
RTVSPost2010PropOp49
 70
     1
102
RTVSPost2010Prop50
 90
       50
102
RTVSPost2010PropOp50
 70
     0
102
RTVSPost2010Prop51ColorIndex
 90
      256
102
RTVSPost2010Prop51ColorRGB
 90
-16777216
102
RTVSPost2010PropOp51
 70
     0
102
RTVSPost2010Prop52
140
1.0
102
RTVSPost2010PropOp52
 70
     0
102
RTVSPost2010Prop53
 90
        2
102
RTVSPost2010PropOp53
 70
     0
102
RTVSPost2010Prop54
  1
strokes_ogs.tif
102
RTVSPost2010PropOp54
 70
     0
102
RTVSPost2010Prop55
280
     0
102
RTVSPost2010PropOp55
 70
     1
102
RTVSPost2010Prop56
140
1.0
102
RTVSPost2010PropOp56
 70
     0
102
RTVSPost2010Prop57
140
1.0
102
RTVSPost2010PropOp57
 70
     0
102
RTVSPropertyOp0
 70
     0
102
RTVSPropertyOp1
 70
     0
102
RTVSPropertyOp2
 70
     0
102
RTVSPropertyOp3
 70
     0
102
RTVSPropertyOp4
 70
     0
102
RTVSPropertyOp5
 70
     0
102
RTVSPropertyOp6
 70
     0
102
RTVSPropertyOp7
 70
     0
102
RTVSPropertyOp8
 70
     0
102
RTVSPropertyOp9
 70
     0
102
RTVSPropertyOp10
 70
     0
102
RTVSPropertyOp11
 70
     0
102
RTVSPropertyOp12
 70
     0
102
RTVSPropertyOp13
 70
     0
102
RTVSPropertyOp14
 70
     2
102
RTVSPropertyOp15
 70
     0
102
RTVSPropertyOp16
 70
     0
102
RTVSPropertyOp17
 70
     0
102
RTVSPropertyOp18
 70
     0
102
RTVSPropertyOp19
 70
     0
102
RTVSPropertyOp20
 70
     0
102
RTVSPropertyOp21
 70
     0
102
RTVSPropertyOp22
 70
     0
102
RTVSPropertyOp23
 70
     0
102
RTVSPropertyOp24
 70
     0
102
RTVSPropertyOp25
 70
     0
102
RTVSPropertyOp26
 70
     0
102
RTVSPropertyOp27
 70
     0
102
RTVSPropertyOp28
 70
     1
102
RTVSPropertyOp29
 70
     1
102
RTVSPropertyOp30
 70
     1
102
RTVSPropertyOp31
 70
     1
102
RTVSPropertyOp32
 70
     1
102
RTVSPropertyOp33
 70
     1
102
RTVSPropertyOp34
 70
     1
102
RTVSPropertyOp35
 70
     1
102
RTVSPropertyOp36
 70
     1
102
RTVSPropertyOp37
 70
     0
102
RTVSPropertyOp38
 70
     0
102
RTVSPropertyOp39
 70
     0
102
RTVSPropertyOp40
 70
     0
102
RTVSPropertyOp41
 70
     0
102
RTVSPropertyOp42
 70
     0
102
RTVSPropertyOp43
 70
     0
102
RTVSPropertyOp44
 70
     0
102
RTVSPropertyOp45
 70
     1
102
RTVSPropertyOp46
 70
     0
102
RTVSPropertyOp47
 70
     0
102
RTVSPropertyOp48
 70
     0
102
RTVSPropertyOp49
 70
     1
102
RTVSPropertyOp50
 70
     0
102
RTVSPropertyOp51
 70
     0
102
RTVSPropertyOp52
 70
     0
102
RTVSPropertyOp53
 70
     0
102
RTVSPropertyOp54
 70
     0
102
RTVSPropertyOp55
 70
     1
102
RTVSPropertyOp56
 70
     0
102
RTVSPropertyOp57
 70
     0
102
RTVSPropertyOp58
 70
     0
102
RTVSPropertyOp59
 70
     0
102
RTVSPropertyOp60
 70
     0
102
RTVSPropertyOp61
 70
     0
102
RTVSPropertyOp62
 70
     0
  0
XRECORD
  5
9B93
102
{ACAD_REACTORS
330
9B92
102
}
330
9B92
100
AcDbXrecord
280
     1
102
RTVSPost2010Prop28
280
     0
102
RTVSPost2010PropOp28
 70
     1
102
RTVSPost2010Prop29
280
     1
102
RTVSPost2010PropOp29
 70
     1
102
RTVSPost2010Prop30
280
     1
102
RTVSPost2010PropOp30
 70
     1
102
RTVSPost2010Prop31
280
     0
102
RTVSPost2010PropOp31
 70
     1
102
RTVSPost2010Prop32
280
     0
102
RTVSPost2010PropOp32
 70
     1
102
RTVSPost2010Prop33
280
     0
102
RTVSPost2010PropOp33
 70
     1
102
RTVSPost2010Prop34
280
     0
102
RTVSPost2010PropOp34
 70
     1
102
RTVSPost2010Prop35
280
     0
102
RTVSPost2010PropOp35
 70
     1
102
RTVSPost2010Prop36
280
     0
102
RTVSPost2010PropOp36
 70
     1
102
RTVSPost2010Prop37
 90
       50
102
RTVSPost2010PropOp37
 70
     1
102
RTVSPost2010Prop38
140
0.0
102
RTVSPost2010PropOp38
 70
     1
102
RTVSPost2010Prop39
140
1.0
102
RTVSPost2010PropOp39
 70
     1
102
RTVSPost2010Prop40
 90
        0
102
RTVSPost2010PropOp40
 70
     1
102
RTVSPost2010Prop41ColorIndex
 90
       18
102
RTVSPost2010Prop41ColorRGB
 90
        0
102
RTVSPost2010PropOp41
 70
     1
102
RTVSPost2010Prop42
 90
       50
102
RTVSPost2010PropOp42
 70
     1
102
RTVSPost2010Prop43
 90
        3
102
RTVSPost2010PropOp43
 70
     1
102
RTVSPost2010Prop44ColorIndex
 90
        5
102
RTVSPost2010Prop44ColorRGB
 90
      255
102
RTVSPost2010PropOp44
 70
     1
102
RTVSPost2010Prop45
280
     0
102
RTVSPost2010PropOp45
 70
     1
102
RTVSPost2010Prop46
 90
       50
102
RTVSPost2010PropOp46
 70
     1
102
RTVSPost2010Prop47
 90
       50
102
RTVSPost2010PropOp47
 70
     1
102
RTVSPost2010Prop48
 90
       50
102
RTVSPost2010PropOp48
 70
     1
102
RTVSPost2010Prop49
280
     0
102
RTVSPost2010PropOp49
 70
     1
102
RTVSPost2010Prop50
 90
       50
102
RTVSPost2010PropOp50
 70
     1
102
RTVSPost2010Prop51ColorIndex
 90
      256
102
RTVSPost2010Prop51ColorRGB
 90
-16777216
102
RTVSPost2010PropOp51
 70
     0
102
RTVSPost2010Prop52
140
1.0
102
RTVSPost2010PropOp52
 70
     0
102
RTVSPost2010Prop53
 90
        2
102
RTVSPost2010PropOp53
 70
     1
102
RTVSPost2010Prop54
  1
strokes_ogs.tif
102
RTVSPost2010PropOp54
 70
     1
102
RTVSPost2010Prop55
280
     0
102
RTVSPost2010PropOp55
 70
     1
102
RTVSPost2010Prop56
140
1.0
102
RTVSPost2010PropOp56
 70
     1
102
RTVSPost2010Prop57
140
1.0
102
RTVSPost2010PropOp57
 70
     1
102
RTVSPropertyOp0
 70
     1
102
RTVSPropertyOp1
 70
     1
102
RTVSPropertyOp2
 70
     1
102
RTVSPropertyOp3
 70
     1
102
RTVSPropertyOp4
 70
     1
102
RTVSPropertyOp5
 70
     1
102
RTVSPropertyOp6
 70
     1
102
RTVSPropertyOp7
 70
     1
102
RTVSPropertyOp8
 70
     1
102
RTVSPropertyOp9
 70
     1
102
RTVSPropertyOp10
 70
     1
102
RTVSPropertyOp11
 70
     1
102
RTVSPropertyOp12
 70
     1
102
RTVSPropertyOp13
 70
     1
102
RTVSPropertyOp14
 70
     1
102
RTVSPropertyOp15
 70
     1
102
RTVSPropertyOp16
 70
     1
102
RTVSPropertyOp17
 70
     1
102
RTVSPropertyOp18
 70
     1
102
RTVSPropertyOp19
 70
     1
102
RTVSPropertyOp20
 70
     1
102
RTVSPropertyOp21
 70
     1
102
RTVSPropertyOp22
 70
     1
102
RTVSPropertyOp23
 70
     1
102
RTVSPropertyOp24
 70
     1
102
RTVSPropertyOp25
 70
     1
102
RTVSPropertyOp26
 70
     1
102
RTVSPropertyOp27
 70
     1
102
RTVSPropertyOp28
 70
     1
102
RTVSPropertyOp29
 70
     1
102
RTVSPropertyOp30
 70
     1
102
RTVSPropertyOp31
 70
     1
102
RTVSPropertyOp32
 70
     1
102
RTVSPropertyOp33
 70
     1
102
RTVSPropertyOp34
 70
     1
102
RTVSPropertyOp35
 70
     1
102
RTVSPropertyOp36
 70
     1
102
RTVSPropertyOp37
 70
     1
102
RTVSPropertyOp38
 70
     1
102
RTVSPropertyOp39
 70
     1
102
RTVSPropertyOp40
 70
     1
102
RTVSPropertyOp41
 70
     1
102
RTVSPropertyOp42
 70
     1
102
RTVSPropertyOp43
 70
     1
102
RTVSPropertyOp44
 70
     1
102
RTVSPropertyOp45
 70
     1
102
RTVSPropertyOp46
 70
     1
102
RTVSPropertyOp47
 70
     1
102
RTVSPropertyOp48
 70
     1
102
RTVSPropertyOp49
 70
     1
102
RTVSPropertyOp50
 70
     1
102
RTVSPropertyOp51
 70
     0
102
RTVSPropertyOp52
 70
     0
102
RTVSPropertyOp53
 70
     1
102
RTVSPropertyOp54
 70
     1
102
RTVSPropertyOp55
 70
     1
102
RTVSPropertyOp56
 70
     1
102
RTVSPropertyOp57
 70
     1
102
RTVSPropertyOp58
 70
     1
102
RTVSPropertyOp59
 70
     1
102
RTVSPropertyOp60
 70
     1
102
RTVSPropertyOp61
 70
     1
102
RTVSPropertyOp62
 70
     1
  0
XRECORD
  5
9B77
102
{ACAD_REACTORS
330
9B76
102
}
330
9B76
100
AcDbXrecord
280
     1
102
RTVSPost2010Prop28
280
     0
102
RTVSPost2010PropOp28
 70
     1
102
RTVSPost2010Prop29
280
     1
102
RTVSPost2010PropOp29
 70
     1
102
RTVSPost2010Prop30
280
     1
102
RTVSPost2010PropOp30
 70
     1
102
RTVSPost2010Prop31
280
     0
102
RTVSPost2010PropOp31
 70
     1
102
RTVSPost2010Prop32
280
     0
102
RTVSPost2010PropOp32
 70
     1
102
RTVSPost2010Prop33
280
     0
102
RTVSPost2010PropOp33
 70
     1
102
RTVSPost2010Prop34
280
     0
102
RTVSPost2010PropOp34
 70
     1
102
RTVSPost2010Prop35
280
     0
102
RTVSPost2010PropOp35
 70
     1
102
RTVSPost2010Prop36
280
     0
102
RTVSPost2010PropOp36
 70
     1
102
RTVSPost2010Prop37
 90
       50
102
RTVSPost2010PropOp37
 70
     1
102
RTVSPost2010Prop38
140
0.0
102
RTVSPost2010PropOp38
 70
     1
102
RTVSPost2010Prop39
140
1.0
102
RTVSPost2010PropOp39
 70
     1
102
RTVSPost2010Prop40
 90
        0
102
RTVSPost2010PropOp40
 70
     1
102
RTVSPost2010Prop41ColorIndex
 90
       18
102
RTVSPost2010Prop41ColorRGB
 90
        0
102
RTVSPost2010PropOp41
 70
     1
102
RTVSPost2010Prop42
 90
       50
102
RTVSPost2010PropOp42
 70
     1
102
RTVSPost2010Prop43
 90
        3
102
RTVSPost2010PropOp43
 70
     1
102
RTVSPost2010Prop44ColorIndex
 90
        5
102
RTVSPost2010Prop44ColorRGB
 90
      255
102
RTVSPost2010PropOp44
 70
     1
102
RTVSPost2010Prop45
280
     0
102
RTVSPost2010PropOp45
 70
     1
102
RTVSPost2010Prop46
 90
       50
102
RTVSPost2010PropOp46
 70
     1
102
RTVSPost2010Prop47
 90
       50
102
RTVSPost2010PropOp47
 70
     1
102
RTVSPost2010Prop48
 90
       50
102
RTVSPost2010PropOp48
 70
     1
102
RTVSPost2010Prop49
280
     0
102
RTVSPost2010PropOp49
 70
     1
102
RTVSPost2010Prop50
 90
       50
102
RTVSPost2010PropOp50
 70
     1
102
RTVSPost2010Prop51ColorIndex
 90
      256
102
RTVSPost2010Prop51ColorRGB
 90
-16777216
102
RTVSPost2010PropOp51
 70
     0
102
RTVSPost2010Prop52
140
1.0
102
RTVSPost2010PropOp52
 70
     0
102
RTVSPost2010Prop53
 90
        2
102
RTVSPost2010PropOp53
 70
     1
102
RTVSPost2010Prop54
  1
strokes_ogs.tif
102
RTVSPost2010PropOp54
 70
     1
102
RTVSPost2010Prop55
280
     0
102
RTVSPost2010PropOp55
 70
     1
102
RTVSPost2010Prop56
140
1.0
102
RTVSPost2010PropOp56
 70
     1
102
RTVSPost2010Prop57
140
1.0
102
RTVSPost2010PropOp57
 70
     1
102
RTVSPropertyOp0
 70
     1
102
RTVSPropertyOp1
 70
     1
102
RTVSPropertyOp2
 70
     1
102
RTVSPropertyOp3
 70
     1
102
RTVSPropertyOp4
 70
     1
102
RTVSPropertyOp5
 70
     1
102
RTVSPropertyOp6
 70
     1
102
RTVSPropertyOp7
 70
     1
102
RTVSPropertyOp8
 70
     1
102
RTVSPropertyOp9
 70
     1
102
RTVSPropertyOp10
 70
     1
102
RTVSPropertyOp11
 70
     1
102
RTVSPropertyOp12
 70
     1
102
RTVSPropertyOp13
 70
     1
102
RTVSPropertyOp14
 70
     1
102
RTVSPropertyOp15
 70
     1
102
RTVSPropertyOp16
 70
     1
102
RTVSPropertyOp17
 70
     1
102
RTVSPropertyOp18
 70
     1
102
RTVSPropertyOp19
 70
     1
102
RTVSPropertyOp20
 70
     1
102
RTVSPropertyOp21
 70
     1
102
RTVSPropertyOp22
 70
     1
102
RTVSPropertyOp23
 70
     1
102
RTVSPropertyOp24
 70
     1
102
RTVSPropertyOp25
 70
     1
102
RTVSPropertyOp26
 70
     1
102
RTVSPropertyOp27
 70
     1
102
RTVSPropertyOp28
 70
     1
102
RTVSPropertyOp29
 70
     1
102
RTVSPropertyOp30
 70
     1
102
RTVSPropertyOp31
 70
     1
102
RTVSPropertyOp32
 70
     1
102
RTVSPropertyOp33
 70
     1
102
RTVSPropertyOp34
 70
     1
102
RTVSPropertyOp35
 70
     1
102
RTVSPropertyOp36
 70
     1
102
RTVSPropertyOp37
 70
     1
102
RTVSPropertyOp38
 70
     1
102
RTVSPropertyOp39
 70
     1
102
RTVSPropertyOp40
 70
     1
102
RTVSPropertyOp41
 70
     1
102
RTVSPropertyOp42
 70
     1
102
RTVSPropertyOp43
 70
     1
102
RTVSPropertyOp44
 70
     1
102
RTVSPropertyOp45
 70
     1
102
RTVSPropertyOp46
 70
     1
102
RTVSPropertyOp47
 70
     1
102
RTVSPropertyOp48
 70
     1
102
RTVSPropertyOp49
 70
     1
102
RTVSPropertyOp50
 70
     1
102
RTVSPropertyOp51
 70
     0
102
RTVSPropertyOp52
 70
     0
102
RTVSPropertyOp53
 70
     1
102
RTVSPropertyOp54
 70
     1
102
RTVSPropertyOp55
 70
     1
102
RTVSPropertyOp56
 70
     1
102
RTVSPropertyOp57
 70
     1
102
RTVSPropertyOp58
 70
     1
102
RTVSPropertyOp59
 70
     1
102
RTVSPropertyOp60
 70
     1
102
RTVSPropertyOp61
 70
     1
102
RTVSPropertyOp62
 70
     1
  0
XRECORD
  5
9B79
102
{ACAD_REACTORS
330
9B78
102
}
330
9B78
100
AcDbXrecord
280
     1
102
RTVSPost2010Prop28
280
     0
102
RTVSPost2010PropOp28
 70
     1
102
RTVSPost2010Prop29
280
     1
102
RTVSPost2010PropOp29
 70
     1
102
RTVSPost2010Prop30
280
     1
102
RTVSPost2010PropOp30
 70
     1
102
RTVSPost2010Prop31
280
     0
102
RTVSPost2010PropOp31
 70
     1
102
RTVSPost2010Prop32
280
     0
102
RTVSPost2010PropOp32
 70
     1
102
RTVSPost2010Prop33
280
     0
102
RTVSPost2010PropOp33
 70
     1
102
RTVSPost2010Prop34
280
     0
102
RTVSPost2010PropOp34
 70
     1
102
RTVSPost2010Prop35
280
     0
102
RTVSPost2010PropOp35
 70
     1
102
RTVSPost2010Prop36
280
     0
102
RTVSPost2010PropOp36
 70
     1
102
RTVSPost2010Prop37
 90
       50
102
RTVSPost2010PropOp37
 70
     1
102
RTVSPost2010Prop38
140
0.0
102
RTVSPost2010PropOp38
 70
     1
102
RTVSPost2010Prop39
140
1.0
102
RTVSPost2010PropOp39
 70
     1
102
RTVSPost2010Prop40
 90
        0
102
RTVSPost2010PropOp40
 70
     1
102
RTVSPost2010Prop41ColorIndex
 90
       18
102
RTVSPost2010Prop41ColorRGB
 90
        0
102
RTVSPost2010PropOp41
 70
     1
102
RTVSPost2010Prop42
 90
       50
102
RTVSPost2010PropOp42
 70
     1
102
RTVSPost2010Prop43
 90
        3
102
RTVSPost2010PropOp43
 70
     1
102
RTVSPost2010Prop44ColorIndex
 90
        5
102
RTVSPost2010Prop44ColorRGB
 90
      255
102
RTVSPost2010PropOp44
 70
     1
102
RTVSPost2010Prop45
280
     0
102
RTVSPost2010PropOp45
 70
     1
102
RTVSPost2010Prop46
 90
       50
102
RTVSPost2010PropOp46
 70
     1
102
RTVSPost2010Prop47
 90
       50
102
RTVSPost2010PropOp47
 70
     1
102
RTVSPost2010Prop48
 90
       50
102
RTVSPost2010PropOp48
 70
     1
102
RTVSPost2010Prop49
280
     0
102
RTVSPost2010PropOp49
 70
     1
102
RTVSPost2010Prop50
 90
       50
102
RTVSPost2010PropOp50
 70
     1
102
RTVSPost2010Prop51ColorIndex
 90
      256
102
RTVSPost2010Prop51ColorRGB
 90
-16777216
102
RTVSPost2010PropOp51
 70
     0
102
RTVSPost2010Prop52
140
1.0
102
RTVSPost2010PropOp52
 70
     0
102
RTVSPost2010Prop53
 90
        2
102
RTVSPost2010PropOp53
 70
     1
102
RTVSPost2010Prop54
  1
strokes_ogs.tif
102
RTVSPost2010PropOp54
 70
     1
102
RTVSPost2010Prop55
280
     0
102
RTVSPost2010PropOp55
 70
     1
102
RTVSPost2010Prop56
140
1.0
102
RTVSPost2010PropOp56
 70
     1
102
RTVSPost2010Prop57
140
1.0
102
RTVSPost2010PropOp57
 70
     1
102
RTVSPropertyOp0
 70
     1
102
RTVSPropertyOp1
 70
     1
102
RTVSPropertyOp2
 70
     1
102
RTVSPropertyOp3
 70
     1
102
RTVSPropertyOp4
 70
     1
102
RTVSPropertyOp5
 70
     1
102
RTVSPropertyOp6
 70
     1
102
RTVSPropertyOp7
 70
     1
102
RTVSPropertyOp8
 70
     1
102
RTVSPropertyOp9
 70
     1
102
RTVSPropertyOp10
 70
     1
102
RTVSPropertyOp11
 70
     1
102
RTVSPropertyOp12
 70
     1
102
RTVSPropertyOp13
 70
     1
102
RTVSPropertyOp14
 70
     1
102
RTVSPropertyOp15
 70
     1
102
RTVSPropertyOp16
 70
     1
102
RTVSPropertyOp17
 70
     1
102
RTVSPropertyOp18
 70
     1
102
RTVSPropertyOp19
 70
     1
102
RTVSPropertyOp20
 70
     1
102
RTVSPropertyOp21
 70
     1
102
RTVSPropertyOp22
 70
     1
102
RTVSPropertyOp23
 70
     1
102
RTVSPropertyOp24
 70
     1
102
RTVSPropertyOp25
 70
     1
102
RTVSPropertyOp26
 70
     1
102
RTVSPropertyOp27
 70
     1
102
RTVSPropertyOp28
 70
     1
102
RTVSPropertyOp29
 70
     1
102
RTVSPropertyOp30
 70
     1
102
RTVSPropertyOp31
 70
     1
102
RTVSPropertyOp32
 70
     1
102
RTVSPropertyOp33
 70
     1
102
RTVSPropertyOp34
 70
     1
102
RTVSPropertyOp35
 70
     1
102
RTVSPropertyOp36
 70
     1
102
RTVSPropertyOp37
 70
     1
102
RTVSPropertyOp38
 70
     1
102
RTVSPropertyOp39
 70
     1
102
RTVSPropertyOp40
 70
     1
102
RTVSPropertyOp41
 70
     1
102
RTVSPropertyOp42
 70
     1
102
RTVSPropertyOp43
 70
     1
102
RTVSPropertyOp44
 70
     1
102
RTVSPropertyOp45
 70
     1
102
RTVSPropertyOp46
 70
     1
102
RTVSPropertyOp47
 70
     1
102
RTVSPropertyOp48
 70
     1
102
RTVSPropertyOp49
 70
     1
102
RTVSPropertyOp50
 70
     1
102
RTVSPropertyOp51
 70
     0
102
RTVSPropertyOp52
 70
     0
102
RTVSPropertyOp53
 70
     1
102
RTVSPropertyOp54
 70
     1
102
RTVSPropertyOp55
 70
     1
102
RTVSPropertyOp56
 70
     1
102
RTVSPropertyOp57
 70
     1
102
RTVSPropertyOp58
 70
     1
102
RTVSPropertyOp59
 70
     1
102
RTVSPropertyOp60
 70
     1
102
RTVSPropertyOp61
 70
     1
102
RTVSPropertyOp62
 70
     1
  0
XRECORD
  5
9B7B
102
{ACAD_REACTORS
330
9B7A
102
}
330
9B7A
100
AcDbXrecord
280
     1
102
RTVSPost2010Prop28
280
     0
102
RTVSPost2010PropOp28
 70
     1
102
RTVSPost2010Prop29
280
     1
102
RTVSPost2010PropOp29
 70
     1
102
RTVSPost2010Prop30
280
     1
102
RTVSPost2010PropOp30
 70
     1
102
RTVSPost2010Prop31
280
     0
102
RTVSPost2010PropOp31
 70
     1
102
RTVSPost2010Prop32
280
     0
102
RTVSPost2010PropOp32
 70
     1
102
RTVSPost2010Prop33
280
     0
102
RTVSPost2010PropOp33
 70
     1
102
RTVSPost2010Prop34
280
     0
102
RTVSPost2010PropOp34
 70
     1
102
RTVSPost2010Prop35
280
     0
102
RTVSPost2010PropOp35
 70
     1
102
RTVSPost2010Prop36
280
     0
102
RTVSPost2010PropOp36
 70
     1
102
RTVSPost2010Prop37
 90
       50
102
RTVSPost2010PropOp37
 70
     1
102
RTVSPost2010Prop38
140
0.0
102
RTVSPost2010PropOp38
 70
     1
102
RTVSPost2010Prop39
140
1.0
102
RTVSPost2010PropOp39
 70
     1
102
RTVSPost2010Prop40
 90
        0
102
RTVSPost2010PropOp40
 70
     1
102
RTVSPost2010Prop41ColorIndex
 90
       18
102
RTVSPost2010Prop41ColorRGB
 90
        0
102
RTVSPost2010PropOp41
 70
     1
102
RTVSPost2010Prop42
 90
       50
102
RTVSPost2010PropOp42
 70
     1
102
RTVSPost2010Prop43
 90
        3
102
RTVSPost2010PropOp43
 70
     1
102
RTVSPost2010Prop44ColorIndex
 90
        5
102
RTVSPost2010Prop44ColorRGB
 90
      255
102
RTVSPost2010PropOp44
 70
     1
102
RTVSPost2010Prop45
280
     0
102
RTVSPost2010PropOp45
 70
     1
102
RTVSPost2010Prop46
 90
       50
102
RTVSPost2010PropOp46
 70
     1
102
RTVSPost2010Prop47
 90
       50
102
RTVSPost2010PropOp47
 70
     1
102
RTVSPost2010Prop48
 90
       50
102
RTVSPost2010PropOp48
 70
     1
102
RTVSPost2010Prop49
280
     0
102
RTVSPost2010PropOp49
 70
     1
102
RTVSPost2010Prop50
 90
       50
102
RTVSPost2010PropOp50
 70
     1
102
RTVSPost2010Prop51ColorIndex
 90
      256
102
RTVSPost2010Prop51ColorRGB
 90
-16777216
102
RTVSPost2010PropOp51
 70
     0
102
RTVSPost2010Prop52
140
1.0
102
RTVSPost2010PropOp52
 70
     0
102
RTVSPost2010Prop53
 90
        2
102
RTVSPost2010PropOp53
 70
     1
102
RTVSPost2010Prop54
  1
strokes_ogs.tif
102
RTVSPost2010PropOp54
 70
     1
102
RTVSPost2010Prop55
280
     0
102
RTVSPost2010PropOp55
 70
     1
102
RTVSPost2010Prop56
140
1.0
102
RTVSPost2010PropOp56
 70
     1
102
RTVSPost2010Prop57
140
1.0
102
RTVSPost2010PropOp57
 70
     1
102
RTVSPropertyOp0
 70
     1
102
RTVSPropertyOp1
 70
     1
102
RTVSPropertyOp2
 70
     1
102
RTVSPropertyOp3
 70
     1
102
RTVSPropertyOp4
 70
     1
102
RTVSPropertyOp5
 70
     1
102
RTVSPropertyOp6
 70
     1
102
RTVSPropertyOp7
 70
     1
102
RTVSPropertyOp8
 70
     1
102
RTVSPropertyOp9
 70
     1
102
RTVSPropertyOp10
 70
     1
102
RTVSPropertyOp11
 70
     1
102
RTVSPropertyOp12
 70
     1
102
RTVSPropertyOp13
 70
     1
102
RTVSPropertyOp14
 70
     1
102
RTVSPropertyOp15
 70
     1
102
RTVSPropertyOp16
 70
     1
102
RTVSPropertyOp17
 70
     1
102
RTVSPropertyOp18
 70
     1
102
RTVSPropertyOp19
 70
     1
102
RTVSPropertyOp20
 70
     1
102
RTVSPropertyOp21
 70
     1
102
RTVSPropertyOp22
 70
     1
102
RTVSPropertyOp23
 70
     1
102
RTVSPropertyOp24
 70
     1
102
RTVSPropertyOp25
 70
     1
102
RTVSPropertyOp26
 70
     1
102
RTVSPropertyOp27
 70
     1
102
RTVSPropertyOp28
 70
     1
102
RTVSPropertyOp29
 70
     1
102
RTVSPropertyOp30
 70
     1
102
RTVSPropertyOp31
 70
     1
102
RTVSPropertyOp32
 70
     1
102
RTVSPropertyOp33
 70
     1
102
RTVSPropertyOp34
 70
     1
102
RTVSPropertyOp35
 70
     1
102
RTVSPropertyOp36
 70
     1
102
RTVSPropertyOp37
 70
     1
102
RTVSPropertyOp38
 70
     1
102
RTVSPropertyOp39
 70
     1
102
RTVSPropertyOp40
 70
     1
102
RTVSPropertyOp41
 70
     1
102
RTVSPropertyOp42
 70
     1
102
RTVSPropertyOp43
 70
     1
102
RTVSPropertyOp44
 70
     1
102
RTVSPropertyOp45
 70
     1
102
RTVSPropertyOp46
 70
     1
102
RTVSPropertyOp47
 70
     1
102
RTVSPropertyOp48
 70
     1
102
RTVSPropertyOp49
 70
     1
102
RTVSPropertyOp50
 70
     1
102
RTVSPropertyOp51
 70
     0
102
RTVSPropertyOp52
 70
     0
102
RTVSPropertyOp53
 70
     1
102
RTVSPropertyOp54
 70
     1
102
RTVSPropertyOp55
 70
     1
102
RTVSPropertyOp56
 70
     1
102
RTVSPropertyOp57
 70
     1
102
RTVSPropertyOp58
 70
     1
102
RTVSPropertyOp59
 70
     1
102
RTVSPropertyOp60
 70
     1
102
RTVSPropertyOp61
 70
     1
102
RTVSPropertyOp62
 70
     1
  0
XRECORD
  5
9B7D
102
{ACAD_REACTORS
330
9B7C
102
}
330
9B7C
100
AcDbXrecord
280
     1
102
RTVSPost2010Prop28
280
     0
102
RTVSPost2010PropOp28
 70
     1
102
RTVSPost2010Prop29
280
     1
102
RTVSPost2010PropOp29
 70
     1
102
RTVSPost2010Prop30
280
     1
102
RTVSPost2010PropOp30
 70
     1
102
RTVSPost2010Prop31
280
     0
102
RTVSPost2010PropOp31
 70
     1
102
RTVSPost2010Prop32
280
     0
102
RTVSPost2010PropOp32
 70
     1
102
RTVSPost2010Prop33
280
     0
102
RTVSPost2010PropOp33
 70
     1
102
RTVSPost2010Prop34
280
     0
102
RTVSPost2010PropOp34
 70
     1
102
RTVSPost2010Prop35
280
     0
102
RTVSPost2010PropOp35
 70
     1
102
RTVSPost2010Prop36
280
     0
102
RTVSPost2010PropOp36
 70
     1
102
RTVSPost2010Prop37
 90
       50
102
RTVSPost2010PropOp37
 70
     1
102
RTVSPost2010Prop38
140
0.0
102
RTVSPost2010PropOp38
 70
     1
102
RTVSPost2010Prop39
140
1.0
102
RTVSPost2010PropOp39
 70
     1
102
RTVSPost2010Prop40
 90
        0
102
RTVSPost2010PropOp40
 70
     1
102
RTVSPost2010Prop41ColorIndex
 90
       18
102
RTVSPost2010Prop41ColorRGB
 90
        0
102
RTVSPost2010PropOp41
 70
     1
102
RTVSPost2010Prop42
 90
       50
102
RTVSPost2010PropOp42
 70
     1
102
RTVSPost2010Prop43
 90
        3
102
RTVSPost2010PropOp43
 70
     1
102
RTVSPost2010Prop44ColorIndex
 90
        5
102
RTVSPost2010Prop44ColorRGB
 90
      255
102
RTVSPost2010PropOp44
 70
     1
102
RTVSPost2010Prop45
280
     0
102
RTVSPost2010PropOp45
 70
     1
102
RTVSPost2010Prop46
 90
       50
102
RTVSPost2010PropOp46
 70
     1
102
RTVSPost2010Prop47
 90
       50
102
RTVSPost2010PropOp47
 70
     1
102
RTVSPost2010Prop48
 90
       50
102
RTVSPost2010PropOp48
 70
     1
102
RTVSPost2010Prop49
280
     0
102
RTVSPost2010PropOp49
 70
     1
102
RTVSPost2010Prop50
 90
       50
102
RTVSPost2010PropOp50
 70
     1
102
RTVSPost2010Prop51ColorIndex
 90
      256
102
RTVSPost2010Prop51ColorRGB
 90
-16777216
102
RTVSPost2010PropOp51
 70
     0
102
RTVSPost2010Prop52
140
1.0
102
RTVSPost2010PropOp52
 70
     0
102
RTVSPost2010Prop53
 90
        2
102
RTVSPost2010PropOp53
 70
     1
102
RTVSPost2010Prop54
  1
strokes_ogs.tif
102
RTVSPost2010PropOp54
 70
     1
102
RTVSPost2010Prop55
280
     0
102
RTVSPost2010PropOp55
 70
     1
102
RTVSPost2010Prop56
140
1.0
102
RTVSPost2010PropOp56
 70
     1
102
RTVSPost2010Prop57
140
1.0
102
RTVSPost2010PropOp57
 70
     1
102
RTVSPropertyOp0
 70
     1
102
RTVSPropertyOp1
 70
     1
102
RTVSPropertyOp2
 70
     1
102
RTVSPropertyOp3
 70
     1
102
RTVSPropertyOp4
 70
     1
102
RTVSPropertyOp5
 70
     1
102
RTVSPropertyOp6
 70
     1
102
RTVSPropertyOp7
 70
     1
102
RTVSPropertyOp8
 70
     1
102
RTVSPropertyOp9
 70
     1
102
RTVSPropertyOp10
 70
     1
102
RTVSPropertyOp11
 70
     1
102
RTVSPropertyOp12
 70
     1
102
RTVSPropertyOp13
 70
     1
102
RTVSPropertyOp14
 70
     1
102
RTVSPropertyOp15
 70
     1
102
RTVSPropertyOp16
 70
     1
102
RTVSPropertyOp17
 70
     1
102
RTVSPropertyOp18
 70
     1
102
RTVSPropertyOp19
 70
     1
102
RTVSPropertyOp20
 70
     1
102
RTVSPropertyOp21
 70
     1
102
RTVSPropertyOp22
 70
     1
102
RTVSPropertyOp23
 70
     1
102
RTVSPropertyOp24
 70
     1
102
RTVSPropertyOp25
 70
     1
102
RTVSPropertyOp26
 70
     1
102
RTVSPropertyOp27
 70
     1
102
RTVSPropertyOp28
 70
     1
102
RTVSPropertyOp29
 70
     1
102
RTVSPropertyOp30
 70
     1
102
RTVSPropertyOp31
 70
     1
102
RTVSPropertyOp32
 70
     1
102
RTVSPropertyOp33
 70
     1
102
RTVSPropertyOp34
 70
     1
102
RTVSPropertyOp35
 70
     1
102
RTVSPropertyOp36
 70
     1
102
RTVSPropertyOp37
 70
     1
102
RTVSPropertyOp38
 70
     1
102
RTVSPropertyOp39
 70
     1
102
RTVSPropertyOp40
 70
     1
102
RTVSPropertyOp41
 70
     1
102
RTVSPropertyOp42
 70
     1
102
RTVSPropertyOp43
 70
     1
102
RTVSPropertyOp44
 70
     1
102
RTVSPropertyOp45
 70
     1
102
RTVSPropertyOp46
 70
     1
102
RTVSPropertyOp47
 70
     1
102
RTVSPropertyOp48
 70
     1
102
RTVSPropertyOp49
 70
     1
102
RTVSPropertyOp50
 70
     1
102
RTVSPropertyOp51
 70
     0
102
RTVSPropertyOp52
 70
     0
102
RTVSPropertyOp53
 70
     1
102
RTVSPropertyOp54
 70
     1
102
RTVSPropertyOp55
 70
     1
102
RTVSPropertyOp56
 70
     1
102
RTVSPropertyOp57
 70
     1
102
RTVSPropertyOp58
 70
     1
102
RTVSPropertyOp59
 70
     1
102
RTVSPropertyOp60
 70
     1
102
RTVSPropertyOp61
 70
     1
102
RTVSPropertyOp62
 70
     1
  0
XRECORD
  5
9B85
102
{ACAD_REACTORS
330
9B84
102
}
330
9B84
100
AcDbXrecord
280
     1
102
RTVSPost2010Prop28
280
     0
102
RTVSPost2010PropOp28
 70
     1
102
RTVSPost2010Prop29
280
     1
102
RTVSPost2010PropOp29
 70
     1
102
RTVSPost2010Prop30
280
     1
102
RTVSPost2010PropOp30
 70
     1
102
RTVSPost2010Prop31
280
     0
102
RTVSPost2010PropOp31
 70
     1
102
RTVSPost2010Prop32
280
     0
102
RTVSPost2010PropOp32
 70
     1
102
RTVSPost2010Prop33
280
     0
102
RTVSPost2010PropOp33
 70
     1
102
RTVSPost2010Prop34
280
     0
102
RTVSPost2010PropOp34
 70
     1
102
RTVSPost2010Prop35
280
     0
102
RTVSPost2010PropOp35
 70
     1
102
RTVSPost2010Prop36
280
     0
102
RTVSPost2010PropOp36
 70
     1
102
RTVSPost2010Prop37
 90
       50
102
RTVSPost2010PropOp37
 70
     1
102
RTVSPost2010Prop38
140
0.0
102
RTVSPost2010PropOp38
 70
     1
102
RTVSPost2010Prop39
140
1.0
102
RTVSPost2010PropOp39
 70
     1
102
RTVSPost2010Prop40
 90
        0
102
RTVSPost2010PropOp40
 70
     1
102
RTVSPost2010Prop41ColorIndex
 90
       18
102
RTVSPost2010Prop41ColorRGB
 90
        0
102
RTVSPost2010PropOp41
 70
     1
102
RTVSPost2010Prop42
 90
       50
102
RTVSPost2010PropOp42
 70
     1
102
RTVSPost2010Prop43
 90
        3
102
RTVSPost2010PropOp43
 70
     1
102
RTVSPost2010Prop44ColorIndex
 90
        5
102
RTVSPost2010Prop44ColorRGB
 90
      255
102
RTVSPost2010PropOp44
 70
     1
102
RTVSPost2010Prop45
280
     0
102
RTVSPost2010PropOp45
 70
     1
102
RTVSPost2010Prop46
 90
       50
102
RTVSPost2010PropOp46
 70
     1
102
RTVSPost2010Prop47
 90
       50
102
RTVSPost2010PropOp47
 70
     1
102
RTVSPost2010Prop48
 90
       50
102
RTVSPost2010PropOp48
 70
     1
102
RTVSPost2010Prop49
280
     0
102
RTVSPost2010PropOp49
 70
     1
102
RTVSPost2010Prop50
 90
       50
102
RTVSPost2010PropOp50
 70
     1
102
RTVSPost2010Prop51ColorIndex
 90
      256
102
RTVSPost2010Prop51ColorRGB
 90
-16777216
102
RTVSPost2010PropOp51
 70
     0
102
RTVSPost2010Prop52
140
1.0
102
RTVSPost2010PropOp52
 70
     0
102
RTVSPost2010Prop53
 90
        2
102
RTVSPost2010PropOp53
 70
     1
102
RTVSPost2010Prop54
  1
strokes_ogs.tif
102
RTVSPost2010PropOp54
 70
     1
102
RTVSPost2010Prop55
280
     0
102
RTVSPost2010PropOp55
 70
     1
102
RTVSPost2010Prop56
140
1.0
102
RTVSPost2010PropOp56
 70
     1
102
RTVSPost2010Prop57
140
1.0
102
RTVSPost2010PropOp57
 70
     1
102
RTVSPropertyOp0
 70
     1
102
RTVSPropertyOp1
 70
     1
102
RTVSPropertyOp2
 70
     1
102
RTVSPropertyOp3
 70
     1
102
RTVSPropertyOp4
 70
     1
102
RTVSPropertyOp5
 70
     1
102
RTVSPropertyOp6
 70
     1
102
RTVSPropertyOp7
 70
     1
102
RTVSPropertyOp8
 70
     1
102
RTVSPropertyOp9
 70
     1
102
RTVSPropertyOp10
 70
     1
102
RTVSPropertyOp11
 70
     1
102
RTVSPropertyOp12
 70
     1
102
RTVSPropertyOp13
 70
     1
102
RTVSPropertyOp14
 70
     1
102
RTVSPropertyOp15
 70
     1
102
RTVSPropertyOp16
 70
     1
102
RTVSPropertyOp17
 70
     1
102
RTVSPropertyOp18
 70
     1
102
RTVSPropertyOp19
 70
     1
102
RTVSPropertyOp20
 70
     1
102
RTVSPropertyOp21
 70
     1
102
RTVSPropertyOp22
 70
     1
102
RTVSPropertyOp23
 70
     1
102
RTVSPropertyOp24
 70
     1
102
RTVSPropertyOp25
 70
     1
102
RTVSPropertyOp26
 70
     1
102
RTVSPropertyOp27
 70
     1
102
RTVSPropertyOp28
 70
     1
102
RTVSPropertyOp29
 70
     1
102
RTVSPropertyOp30
 70
     1
102
RTVSPropertyOp31
 70
     1
102
RTVSPropertyOp32
 70
     1
102
RTVSPropertyOp33
 70
     1
102
RTVSPropertyOp34
 70
     1
102
RTVSPropertyOp35
 70
     1
102
RTVSPropertyOp36
 70
     1
102
RTVSPropertyOp37
 70
     1
102
RTVSPropertyOp38
 70
     1
102
RTVSPropertyOp39
 70
     1
102
RTVSPropertyOp40
 70
     1
102
RTVSPropertyOp41
 70
     1
102
RTVSPropertyOp42
 70
     1
102
RTVSPropertyOp43
 70
     1
102
RTVSPropertyOp44
 70
     1
102
RTVSPropertyOp45
 70
     1
102
RTVSPropertyOp46
 70
     1
102
RTVSPropertyOp47
 70
     1
102
RTVSPropertyOp48
 70
     1
102
RTVSPropertyOp49
 70
     1
102
RTVSPropertyOp50
 70
     1
102
RTVSPropertyOp51
 70
     0
102
RTVSPropertyOp52
 70
     0
102
RTVSPropertyOp53
 70
     1
102
RTVSPropertyOp54
 70
     1
102
RTVSPropertyOp55
 70
     1
102
RTVSPropertyOp56
 70
     1
102
RTVSPropertyOp57
 70
     1
102
RTVSPropertyOp58
 70
     1
102
RTVSPropertyOp59
 70
     1
102
RTVSPropertyOp60
 70
     1
102
RTVSPropertyOp61
 70
     1
102
RTVSPropertyOp62
 70
     1
  0
XRECORD
  5
9BA1
102
{ACAD_REACTORS
330
9BA0
102
}
330
9BA0
100
AcDbXrecord
280
     1
102
RTVSPost2010Prop28
280
     0
102
RTVSPost2010PropOp28
 70
     1
102
RTVSPost2010Prop29
280
     1
102
RTVSPost2010PropOp29
 70
     1
102
RTVSPost2010Prop30
280
     1
102
RTVSPost2010PropOp30
 70
     1
102
RTVSPost2010Prop31
280
     0
102
RTVSPost2010PropOp31
 70
     1
102
RTVSPost2010Prop32
280
     0
102
RTVSPost2010PropOp32
 70
     1
102
RTVSPost2010Prop33
280
     0
102
RTVSPost2010PropOp33
 70
     1
102
RTVSPost2010Prop34
280
     0
102
RTVSPost2010PropOp34
 70
     1
102
RTVSPost2010Prop35
280
     0
102
RTVSPost2010PropOp35
 70
     1
102
RTVSPost2010Prop36
280
     0
102
RTVSPost2010PropOp36
 70
     1
102
RTVSPost2010Prop37
 90
       50
102
RTVSPost2010PropOp37
 70
     0
102
RTVSPost2010Prop38
140
0.0
102
RTVSPost2010PropOp38
 70
     0
102
RTVSPost2010Prop39
140
1.0
102
RTVSPost2010PropOp39
 70
     0
102
RTVSPost2010Prop40
 90
        0
102
RTVSPost2010PropOp40
 70
     0
102
RTVSPost2010Prop41ColorIndex
 90
       18
102
RTVSPost2010Prop41ColorRGB
 90
        0
102
RTVSPost2010PropOp41
 70
     0
102
RTVSPost2010Prop42
 90
       50
102
RTVSPost2010PropOp42
 70
     0
102
RTVSPost2010Prop43
 90
        3
102
RTVSPost2010PropOp43
 70
     0
102
RTVSPost2010Prop44ColorIndex
 90
        5
102
RTVSPost2010Prop44ColorRGB
 90
      255
102
RTVSPost2010PropOp44
 70
     0
102
RTVSPost2010Prop45
280
     0
102
RTVSPost2010PropOp45
 70
     1
102
RTVSPost2010Prop46
 90
       50
102
RTVSPost2010PropOp46
 70
     0
102
RTVSPost2010Prop47
 90
       50
102
RTVSPost2010PropOp47
 70
     0
102
RTVSPost2010Prop48
 90
       50
102
RTVSPost2010PropOp48
 70
     0
102
RTVSPost2010Prop49
280
     0
102
RTVSPost2010PropOp49
 70
     1
102
RTVSPost2010Prop50
 90
       50
102
RTVSPost2010PropOp50
 70
     0
102
RTVSPost2010Prop51ColorIndex
 90
      256
102
RTVSPost2010Prop51ColorRGB
 90
-16777216
102
RTVSPost2010PropOp51
 70
     0
102
RTVSPost2010Prop52
140
1.0
102
RTVSPost2010PropOp52
 70
     0
102
RTVSPost2010Prop53
 90
        2
102
RTVSPost2010PropOp53
 70
     0
102
RTVSPost2010Prop54
  1
strokes_ogs.tif
102
RTVSPost2010PropOp54
 70
     0
102
RTVSPost2010Prop55
280
     0
102
RTVSPost2010PropOp55
 70
     1
102
RTVSPost2010Prop56
140
1.0
102
RTVSPost2010PropOp56
 70
     0
102
RTVSPost2010Prop57
140
1.0
102
RTVSPost2010PropOp57
 70
     0
102
RTVSPropertyOp0
 70
     0
102
RTVSPropertyOp1
 70
     0
102
RTVSPropertyOp2
 70
     0
102
RTVSPropertyOp3
 70
     0
102
RTVSPropertyOp4
 70
     0
102
RTVSPropertyOp5
 70
     0
102
RTVSPropertyOp6
 70
     0
102
RTVSPropertyOp7
 70
     0
102
RTVSPropertyOp8
 70
     0
102
RTVSPropertyOp9
 70
     0
102
RTVSPropertyOp10
 70
     0
102
RTVSPropertyOp11
 70
     0
102
RTVSPropertyOp12
 70
     0
102
RTVSPropertyOp13
 70
     0
102
RTVSPropertyOp14
 70
     2
102
RTVSPropertyOp15
 70
     0
102
RTVSPropertyOp16
 70
     0
102
RTVSPropertyOp17
 70
     0
102
RTVSPropertyOp18
 70
     0
102
RTVSPropertyOp19
 70
     0
102
RTVSPropertyOp20
 70
     0
102
RTVSPropertyOp21
 70
     0
102
RTVSPropertyOp22
 70
     0
102
RTVSPropertyOp23
 70
     0
102
RTVSPropertyOp24
 70
     0
102
RTVSPropertyOp25
 70
     0
102
RTVSPropertyOp26
 70
     0
102
RTVSPropertyOp27
 70
     0
102
RTVSPropertyOp28
 70
     1
102
RTVSPropertyOp29
 70
     1
102
RTVSPropertyOp30
 70
     1
102
RTVSPropertyOp31
 70
     1
102
RTVSPropertyOp32
 70
     1
102
RTVSPropertyOp33
 70
     1
102
RTVSPropertyOp34
 70
     1
102
RTVSPropertyOp35
 70
     1
102
RTVSPropertyOp36
 70
     1
102
RTVSPropertyOp37
 70
     0
102
RTVSPropertyOp38
 70
     0
102
RTVSPropertyOp39
 70
     0
102
RTVSPropertyOp40
 70
     0
102
RTVSPropertyOp41
 70
     0
102
RTVSPropertyOp42
 70
     0
102
RTVSPropertyOp43
 70
     0
102
RTVSPropertyOp44
 70
     0
102
RTVSPropertyOp45
 70
     1
102
RTVSPropertyOp46
 70
     0
102
RTVSPropertyOp47
 70
     0
102
RTVSPropertyOp48
 70
     0
102
RTVSPropertyOp49
 70
     1
102
RTVSPropertyOp50
 70
     0
102
RTVSPropertyOp51
 70
     0
102
RTVSPropertyOp52
 70
     0
102
RTVSPropertyOp53
 70
     0
102
RTVSPropertyOp54
 70
     0
102
RTVSPropertyOp55
 70
     1
102
RTVSPropertyOp56
 70
     0
102
RTVSPropertyOp57
 70
     0
102
RTVSPropertyOp58
 70
     0
102
RTVSPropertyOp59
 70
     0
102
RTVSPropertyOp60
 70
     0
102
RTVSPropertyOp61
 70
     0
102
RTVSPropertyOp62
 70
     0
  0
XRECORD
  5
9B91
102
{ACAD_REACTORS
330
9B90
102
}
330
9B90
100
AcDbXrecord
280
     1
102
RTVSPost2010Prop28
280
     0
102
RTVSPost2010PropOp28
 70
     1
102
RTVSPost2010Prop29
280
     1
102
RTVSPost2010PropOp29
 70
     1
102
RTVSPost2010Prop30
280
     1
102
RTVSPost2010PropOp30
 70
     1
102
RTVSPost2010Prop31
280
     0
102
RTVSPost2010PropOp31
 70
     1
102
RTVSPost2010Prop32
280
     0
102
RTVSPost2010PropOp32
 70
     1
102
RTVSPost2010Prop33
280
     0
102
RTVSPost2010PropOp33
 70
     1
102
RTVSPost2010Prop34
280
     0
102
RTVSPost2010PropOp34
 70
     1
102
RTVSPost2010Prop35
280
     0
102
RTVSPost2010PropOp35
 70
     1
102
RTVSPost2010Prop36
280
     0
102
RTVSPost2010PropOp36
 70
     1
102
RTVSPost2010Prop37
 90
       50
102
RTVSPost2010PropOp37
 70
     1
102
RTVSPost2010Prop38
140
0.0
102
RTVSPost2010PropOp38
 70
     1
102
RTVSPost2010Prop39
140
1.0
102
RTVSPost2010PropOp39
 70
     1
102
RTVSPost2010Prop40
 90
        0
102
RTVSPost2010PropOp40
 70
     1
102
RTVSPost2010Prop41ColorIndex
 90
       18
102
RTVSPost2010Prop41ColorRGB
 90
        0
102
RTVSPost2010PropOp41
 70
     1
102
RTVSPost2010Prop42
 90
       50
102
RTVSPost2010PropOp42
 70
     1
102
RTVSPost2010Prop43
 90
        3
102
RTVSPost2010PropOp43
 70
     1
102
RTVSPost2010Prop44ColorIndex
 90
        5
102
RTVSPost2010Prop44ColorRGB
 90
      255
102
RTVSPost2010PropOp44
 70
     1
102
RTVSPost2010Prop45
280
     0
102
RTVSPost2010PropOp45
 70
     1
102
RTVSPost2010Prop46
 90
       50
102
RTVSPost2010PropOp46
 70
     1
102
RTVSPost2010Prop47
 90
       50
102
RTVSPost2010PropOp47
 70
     1
102
RTVSPost2010Prop48
 90
       50
102
RTVSPost2010PropOp48
 70
     1
102
RTVSPost2010Prop49
280
     0
102
RTVSPost2010PropOp49
 70
     1
102
RTVSPost2010Prop50
 90
       50
102
RTVSPost2010PropOp50
 70
     1
102
RTVSPost2010Prop51ColorIndex
 90
      256
102
RTVSPost2010Prop51ColorRGB
 90
-16777216
102
RTVSPost2010PropOp51
 70
     0
102
RTVSPost2010Prop52
140
1.0
102
RTVSPost2010PropOp52
 70
     0
102
RTVSPost2010Prop53
 90
        2
102
RTVSPost2010PropOp53
 70
     1
102
RTVSPost2010Prop54
  1
strokes_ogs.tif
102
RTVSPost2010PropOp54
 70
     1
102
RTVSPost2010Prop55
280
     0
102
RTVSPost2010PropOp55
 70
     1
102
RTVSPost2010Prop56
140
1.0
102
RTVSPost2010PropOp56
 70
     1
102
RTVSPost2010Prop57
140
1.0
102
RTVSPost2010PropOp57
 70
     1
102
RTVSPropertyOp0
 70
     1
102
RTVSPropertyOp1
 70
     1
102
RTVSPropertyOp2
 70
     1
102
RTVSPropertyOp3
 70
     1
102
RTVSPropertyOp4
 70
     1
102
RTVSPropertyOp5
 70
     1
102
RTVSPropertyOp6
 70
     1
102
RTVSPropertyOp7
 70
     1
102
RTVSPropertyOp8
 70
     1
102
RTVSPropertyOp9
 70
     1
102
RTVSPropertyOp10
 70
     1
102
RTVSPropertyOp11
 70
     1
102
RTVSPropertyOp12
 70
     1
102
RTVSPropertyOp13
 70
     1
102
RTVSPropertyOp14
 70
     1
102
RTVSPropertyOp15
 70
     1
102
RTVSPropertyOp16
 70
     1
102
RTVSPropertyOp17
 70
     1
102
RTVSPropertyOp18
 70
     1
102
RTVSPropertyOp19
 70
     1
102
RTVSPropertyOp20
 70
     1
102
RTVSPropertyOp21
 70
     1
102
RTVSPropertyOp22
 70
     1
102
RTVSPropertyOp23
 70
     1
102
RTVSPropertyOp24
 70
     1
102
RTVSPropertyOp25
 70
     1
102
RTVSPropertyOp26
 70
     1
102
RTVSPropertyOp27
 70
     1
102
RTVSPropertyOp28
 70
     1
102
RTVSPropertyOp29
 70
     1
102
RTVSPropertyOp30
 70
     1
102
RTVSPropertyOp31
 70
     1
102
RTVSPropertyOp32
 70
     1
102
RTVSPropertyOp33
 70
     1
102
RTVSPropertyOp34
 70
     1
102
RTVSPropertyOp35
 70
     1
102
RTVSPropertyOp36
 70
     1
102
RTVSPropertyOp37
 70
     1
102
RTVSPropertyOp38
 70
     1
102
RTVSPropertyOp39
 70
     1
102
RTVSPropertyOp40
 70
     1
102
RTVSPropertyOp41
 70
     1
102
RTVSPropertyOp42
 70
     1
102
RTVSPropertyOp43
 70
     1
102
RTVSPropertyOp44
 70
     1
102
RTVSPropertyOp45
 70
     1
102
RTVSPropertyOp46
 70
     1
102
RTVSPropertyOp47
 70
     1
102
RTVSPropertyOp48
 70
     1
102
RTVSPropertyOp49
 70
     1
102
RTVSPropertyOp50
 70
     1
102
RTVSPropertyOp51
 70
     0
102
RTVSPropertyOp52
 70
     0
102
RTVSPropertyOp53
 70
     1
102
RTVSPropertyOp54
 70
     1
102
RTVSPropertyOp55
 70
     1
102
RTVSPropertyOp56
 70
     1
102
RTVSPropertyOp57
 70
     1
102
RTVSPropertyOp58
 70
     1
102
RTVSPropertyOp59
 70
     1
102
RTVSPropertyOp60
 70
     1
102
RTVSPropertyOp61
 70
     1
102
RTVSPropertyOp62
 70
     1
  0
XRECORD
  5
9BA3
102
{ACAD_REACTORS
330
9BA2
102
}
330
9BA2
100
AcDbXrecord
280
     1
102
RTVSPost2010Prop28
280
     0
102
RTVSPost2010PropOp28
 70
     1
102
RTVSPost2010Prop29
280
     1
102
RTVSPost2010PropOp29
 70
     1
102
RTVSPost2010Prop30
280
     1
102
RTVSPost2010PropOp30
 70
     1
102
RTVSPost2010Prop31
280
     0
102
RTVSPost2010PropOp31
 70
     1
102
RTVSPost2010Prop32
280
     0
102
RTVSPost2010PropOp32
 70
     1
102
RTVSPost2010Prop33
280
     0
102
RTVSPost2010PropOp33
 70
     1
102
RTVSPost2010Prop34
280
     0
102
RTVSPost2010PropOp34
 70
     1
102
RTVSPost2010Prop35
280
     0
102
RTVSPost2010PropOp35
 70
     1
102
RTVSPost2010Prop36
280
     0
102
RTVSPost2010PropOp36
 70
     1
102
RTVSPost2010Prop37
 90
       50
102
RTVSPost2010PropOp37
 70
     0
102
RTVSPost2010Prop38
140
0.0
102
RTVSPost2010PropOp38
 70
     0
102
RTVSPost2010Prop39
140
1.0
102
RTVSPost2010PropOp39
 70
     0
102
RTVSPost2010Prop40
 90
        0
102
RTVSPost2010PropOp40
 70
     0
102
RTVSPost2010Prop41ColorIndex
 90
       18
102
RTVSPost2010Prop41ColorRGB
 90
        0
102
RTVSPost2010PropOp41
 70
     0
102
RTVSPost2010Prop42
 90
       50
102
RTVSPost2010PropOp42
 70
     0
102
RTVSPost2010Prop43
 90
        3
102
RTVSPost2010PropOp43
 70
     0
102
RTVSPost2010Prop44ColorIndex
 90
        5
102
RTVSPost2010Prop44ColorRGB
 90
      255
102
RTVSPost2010PropOp44
 70
     0
102
RTVSPost2010Prop45
280
     0
102
RTVSPost2010PropOp45
 70
     1
102
RTVSPost2010Prop46
 90
       50
102
RTVSPost2010PropOp46
 70
     0
102
RTVSPost2010Prop47
 90
       50
102
RTVSPost2010PropOp47
 70
     0
102
RTVSPost2010Prop48
 90
       50
102
RTVSPost2010PropOp48
 70
     0
102
RTVSPost2010Prop49
280
     0
102
RTVSPost2010PropOp49
 70
     1
102
RTVSPost2010Prop50
 90
       50
102
RTVSPost2010PropOp50
 70
     0
102
RTVSPost2010Prop51ColorIndex
 90
      256
102
RTVSPost2010Prop51ColorRGB
 90
-16777216
102
RTVSPost2010PropOp51
 70
     0
102
RTVSPost2010Prop52
140
1.0
102
RTVSPost2010PropOp52
 70
     0
102
RTVSPost2010Prop53
 90
        2
102
RTVSPost2010PropOp53
 70
     0
102
RTVSPost2010Prop54
  1
strokes_ogs.tif
102
RTVSPost2010PropOp54
 70
     0
102
RTVSPost2010Prop55
280
     0
102
RTVSPost2010PropOp55
 70
     1
102
RTVSPost2010Prop56
140
1.0
102
RTVSPost2010PropOp56
 70
     0
102
RTVSPost2010Prop57
140
1.0
102
RTVSPost2010PropOp57
 70
     0
102
RTVSPropertyOp0
 70
     0
102
RTVSPropertyOp1
 70
     0
102
RTVSPropertyOp2
 70
     0
102
RTVSPropertyOp3
 70
     0
102
RTVSPropertyOp4
 70
     0
102
RTVSPropertyOp5
 70
     0
102
RTVSPropertyOp6
 70
     0
102
RTVSPropertyOp7
 70
     0
102
RTVSPropertyOp8
 70
     0
102
RTVSPropertyOp9
 70
     0
102
RTVSPropertyOp10
 70
     0
102
RTVSPropertyOp11
 70
     0
102
RTVSPropertyOp12
 70
     0
102
RTVSPropertyOp13
 70
     0
102
RTVSPropertyOp14
 70
     2
102
RTVSPropertyOp15
 70
     0
102
RTVSPropertyOp16
 70
     0
102
RTVSPropertyOp17
 70
     0
102
RTVSPropertyOp18
 70
     0
102
RTVSPropertyOp19
 70
     0
102
RTVSPropertyOp20
 70
     0
102
RTVSPropertyOp21
 70
     0
102
RTVSPropertyOp22
 70
     0
102
RTVSPropertyOp23
 70
     0
102
RTVSPropertyOp24
 70
     0
102
RTVSPropertyOp25
 70
     0
102
RTVSPropertyOp26
 70
     0
102
RTVSPropertyOp27
 70
     0
102
RTVSPropertyOp28
 70
     1
102
RTVSPropertyOp29
 70
     1
102
RTVSPropertyOp30
 70
     1
102
RTVSPropertyOp31
 70
     1
102
RTVSPropertyOp32
 70
     1
102
RTVSPropertyOp33
 70
     1
102
RTVSPropertyOp34
 70
     1
102
RTVSPropertyOp35
 70
     1
102
RTVSPropertyOp36
 70
     1
102
RTVSPropertyOp37
 70
     0
102
RTVSPropertyOp38
 70
     0
102
RTVSPropertyOp39
 70
     0
102
RTVSPropertyOp40
 70
     0
102
RTVSPropertyOp41
 70
     0
102
RTVSPropertyOp42
 70
     0
102
RTVSPropertyOp43
 70
     0
102
RTVSPropertyOp44
 70
     0
102
RTVSPropertyOp45
 70
     1
102
RTVSPropertyOp46
 70
     0
102
RTVSPropertyOp47
 70
     0
102
RTVSPropertyOp48
 70
     0
102
RTVSPropertyOp49
 70
     1
102
RTVSPropertyOp50
 70
     0
102
RTVSPropertyOp51
 70
     0
102
RTVSPropertyOp52
 70
     0
102
RTVSPropertyOp53
 70
     0
102
RTVSPropertyOp54
 70
     0
102
RTVSPropertyOp55
 70
     1
102
RTVSPropertyOp56
 70
     0
102
RTVSPropertyOp57
 70
     0
102
RTVSPropertyOp58
 70
     0
102
RTVSPropertyOp59
 70
     0
102
RTVSPropertyOp60
 70
     0
102
RTVSPropertyOp61
 70
     0
102
RTVSPropertyOp62
 70
     0
  0
XRECORD
  5
9B89
102
{ACAD_REACTORS
330
9B88
102
}
330
9B88
100
AcDbXrecord
280
     1
102
RTVSPost2010Prop28
280
     0
102
RTVSPost2010PropOp28
 70
     1
102
RTVSPost2010Prop29
280
     1
102
RTVSPost2010PropOp29
 70
     1
102
RTVSPost2010Prop30
280
     1
102
RTVSPost2010PropOp30
 70
     1
102
RTVSPost2010Prop31
280
     0
102
RTVSPost2010PropOp31
 70
     1
102
RTVSPost2010Prop32
280
     0
102
RTVSPost2010PropOp32
 70
     1
102
RTVSPost2010Prop33
280
     0
102
RTVSPost2010PropOp33
 70
     1
102
RTVSPost2010Prop34
280
     0
102
RTVSPost2010PropOp34
 70
     1
102
RTVSPost2010Prop35
280
     0
102
RTVSPost2010PropOp35
 70
     1
102
RTVSPost2010Prop36
280
     0
102
RTVSPost2010PropOp36
 70
     1
102
RTVSPost2010Prop37
 90
       50
102
RTVSPost2010PropOp37
 70
     1
102
RTVSPost2010Prop38
140
0.0
102
RTVSPost2010PropOp38
 70
     1
102
RTVSPost2010Prop39
140
1.0
102
RTVSPost2010PropOp39
 70
     1
102
RTVSPost2010Prop40
 90
        0
102
RTVSPost2010PropOp40
 70
     1
102
RTVSPost2010Prop41ColorIndex
 90
       18
102
RTVSPost2010Prop41ColorRGB
 90
        0
102
RTVSPost2010PropOp41
 70
     1
102
RTVSPost2010Prop42
 90
       50
102
RTVSPost2010PropOp42
 70
     1
102
RTVSPost2010Prop43
 90
        3
102
RTVSPost2010PropOp43
 70
     1
102
RTVSPost2010Prop44ColorIndex
 90
        5
102
RTVSPost2010Prop44ColorRGB
 90
      255
102
RTVSPost2010PropOp44
 70
     1
102
RTVSPost2010Prop45
280
     0
102
RTVSPost2010PropOp45
 70
     1
102
RTVSPost2010Prop46
 90
       50
102
RTVSPost2010PropOp46
 70
     1
102
RTVSPost2010Prop47
 90
       50
102
RTVSPost2010PropOp47
 70
     1
102
RTVSPost2010Prop48
 90
       50
102
RTVSPost2010PropOp48
 70
     1
102
RTVSPost2010Prop49
280
     0
102
RTVSPost2010PropOp49
 70
     1
102
RTVSPost2010Prop50
 90
       50
102
RTVSPost2010PropOp50
 70
     1
102
RTVSPost2010Prop51ColorIndex
 90
      256
102
RTVSPost2010Prop51ColorRGB
 90
-16777216
102
RTVSPost2010PropOp51
 70
     0
102
RTVSPost2010Prop52
140
1.0
102
RTVSPost2010PropOp52
 70
     0
102
RTVSPost2010Prop53
 90
        2
102
RTVSPost2010PropOp53
 70
     1
102
RTVSPost2010Prop54
  1
strokes_ogs.tif
102
RTVSPost2010PropOp54
 70
     1
102
RTVSPost2010Prop55
280
     0
102
RTVSPost2010PropOp55
 70
     1
102
RTVSPost2010Prop56
140
1.0
102
RTVSPost2010PropOp56
 70
     1
102
RTVSPost2010Prop57
140
1.0
102
RTVSPost2010PropOp57
 70
     1
102
RTVSPropertyOp0
 70
     1
102
RTVSPropertyOp1
 70
     1
102
RTVSPropertyOp2
 70
     1
102
RTVSPropertyOp3
 70
     1
102
RTVSPropertyOp4
 70
     1
102
RTVSPropertyOp5
 70
     1
102
RTVSPropertyOp6
 70
     1
102
RTVSPropertyOp7
 70
     1
102
RTVSPropertyOp8
 70
     1
102
RTVSPropertyOp9
 70
     1
102
RTVSPropertyOp10
 70
     1
102
RTVSPropertyOp11
 70
     1
102
RTVSPropertyOp12
 70
     1
102
RTVSPropertyOp13
 70
     1
102
RTVSPropertyOp14
 70
     1
102
RTVSPropertyOp15
 70
     1
102
RTVSPropertyOp16
 70
     1
102
RTVSPropertyOp17
 70
     1
102
RTVSPropertyOp18
 70
     1
102
RTVSPropertyOp19
 70
     1
102
RTVSPropertyOp20
 70
     1
102
RTVSPropertyOp21
 70
     1
102
RTVSPropertyOp22
 70
     1
102
RTVSPropertyOp23
 70
     1
102
RTVSPropertyOp24
 70
     1
102
RTVSPropertyOp25
 70
     1
102
RTVSPropertyOp26
 70
     1
102
RTVSPropertyOp27
 70
     1
102
RTVSPropertyOp28
 70
     1
102
RTVSPropertyOp29
 70
     1
102
RTVSPropertyOp30
 70
     1
102
RTVSPropertyOp31
 70
     1
102
RTVSPropertyOp32
 70
     1
102
RTVSPropertyOp33
 70
     1
102
RTVSPropertyOp34
 70
     1
102
RTVSPropertyOp35
 70
     1
102
RTVSPropertyOp36
 70
     1
102
RTVSPropertyOp37
 70
     1
102
RTVSPropertyOp38
 70
     1
102
RTVSPropertyOp39
 70
     1
102
RTVSPropertyOp40
 70
     1
102
RTVSPropertyOp41
 70
     1
102
RTVSPropertyOp42
 70
     1
102
RTVSPropertyOp43
 70
     1
102
RTVSPropertyOp44
 70
     1
102
RTVSPropertyOp45
 70
     1
102
RTVSPropertyOp46
 70
     1
102
RTVSPropertyOp47
 70
     1
102
RTVSPropertyOp48
 70
     1
102
RTVSPropertyOp49
 70
     1
102
RTVSPropertyOp50
 70
     1
102
RTVSPropertyOp51
 70
     0
102
RTVSPropertyOp52
 70
     0
102
RTVSPropertyOp53
 70
     1
102
RTVSPropertyOp54
 70
     1
102
RTVSPropertyOp55
 70
     1
102
RTVSPropertyOp56
 70
     1
102
RTVSPropertyOp57
 70
     1
102
RTVSPropertyOp58
 70
     1
102
RTVSPropertyOp59
 70
     1
102
RTVSPropertyOp60
 70
     1
102
RTVSPropertyOp61
 70
     1
102
RTVSPropertyOp62
 70
     1
  0
XRECORD
  5
9B9F
102
{ACAD_REACTORS
330
9B9E
102
}
330
9B9E
100
AcDbXrecord
280
     1
102
RTVSPost2010Prop28
280
     0
102
RTVSPost2010PropOp28
 70
     1
102
RTVSPost2010Prop29
280
     1
102
RTVSPost2010PropOp29
 70
     1
102
RTVSPost2010Prop30
280
     1
102
RTVSPost2010PropOp30
 70
     1
102
RTVSPost2010Prop31
280
     0
102
RTVSPost2010PropOp31
 70
     1
102
RTVSPost2010Prop32
280
     0
102
RTVSPost2010PropOp32
 70
     1
102
RTVSPost2010Prop33
280
     0
102
RTVSPost2010PropOp33
 70
     1
102
RTVSPost2010Prop34
280
     0
102
RTVSPost2010PropOp34
 70
     1
102
RTVSPost2010Prop35
280
     0
102
RTVSPost2010PropOp35
 70
     1
102
RTVSPost2010Prop36
280
     0
102
RTVSPost2010PropOp36
 70
     1
102
RTVSPost2010Prop37
 90
       50
102
RTVSPost2010PropOp37
 70
     1
102
RTVSPost2010Prop38
140
0.0
102
RTVSPost2010PropOp38
 70
     1
102
RTVSPost2010Prop39
140
1.0
102
RTVSPost2010PropOp39
 70
     1
102
RTVSPost2010Prop40
 90
        0
102
RTVSPost2010PropOp40
 70
     1
102
RTVSPost2010Prop41ColorIndex
 90
       18
102
RTVSPost2010Prop41ColorRGB
 90
        0
102
RTVSPost2010PropOp41
 70
     1
102
RTVSPost2010Prop42
 90
       50
102
RTVSPost2010PropOp42
 70
     1
102
RTVSPost2010Prop43
 90
        3
102
RTVSPost2010PropOp43
 70
     1
102
RTVSPost2010Prop44ColorIndex
 90
        5
102
RTVSPost2010Prop44ColorRGB
 90
      255
102
RTVSPost2010PropOp44
 70
     1
102
RTVSPost2010Prop45
280
     0
102
RTVSPost2010PropOp45
 70
     1
102
RTVSPost2010Prop46
 90
       50
102
RTVSPost2010PropOp46
 70
     1
102
RTVSPost2010Prop47
 90
       50
102
RTVSPost2010PropOp47
 70
     1
102
RTVSPost2010Prop48
 90
       50
102
RTVSPost2010PropOp48
 70
     1
102
RTVSPost2010Prop49
280
     0
102
RTVSPost2010PropOp49
 70
     1
102
RTVSPost2010Prop50
 90
       50
102
RTVSPost2010PropOp50
 70
     1
102
RTVSPost2010Prop51ColorIndex
 90
      256
102
RTVSPost2010Prop51ColorRGB
 90
-16777216
102
RTVSPost2010PropOp51
 70
     0
102
RTVSPost2010Prop52
140
1.0
102
RTVSPost2010PropOp52
 70
     0
102
RTVSPost2010Prop53
 90
        2
102
RTVSPost2010PropOp53
 70
     1
102
RTVSPost2010Prop54
  1
strokes_ogs.tif
102
RTVSPost2010PropOp54
 70
     1
102
RTVSPost2010Prop55
280
     0
102
RTVSPost2010PropOp55
 70
     1
102
RTVSPost2010Prop56
140
1.0
102
RTVSPost2010PropOp56
 70
     1
102
RTVSPost2010Prop57
140
1.0
102
RTVSPost2010PropOp57
 70
     1
102
RTVSPropertyOp0
 70
     1
102
RTVSPropertyOp1
 70
     1
102
RTVSPropertyOp2
 70
     1
102
RTVSPropertyOp3
 70
     1
102
RTVSPropertyOp4
 70
     1
102
RTVSPropertyOp5
 70
     1
102
RTVSPropertyOp6
 70
     1
102
RTVSPropertyOp7
 70
     1
102
RTVSPropertyOp8
 70
     1
102
RTVSPropertyOp9
 70
     1
102
RTVSPropertyOp10
 70
     1
102
RTVSPropertyOp11
 70
     1
102
RTVSPropertyOp12
 70
     1
102
RTVSPropertyOp13
 70
     1
102
RTVSPropertyOp14
 70
     1
102
RTVSPropertyOp15
 70
     1
102
RTVSPropertyOp16
 70
     1
102
RTVSPropertyOp17
 70
     1
102
RTVSPropertyOp18
 70
     1
102
RTVSPropertyOp19
 70
     1
102
RTVSPropertyOp20
 70
     1
102
RTVSPropertyOp21
 70
     1
102
RTVSPropertyOp22
 70
     1
102
RTVSPropertyOp23
 70
     1
102
RTVSPropertyOp24
 70
     1
102
RTVSPropertyOp25
 70
     1
102
RTVSPropertyOp26
 70
     1
102
RTVSPropertyOp27
 70
     1
102
RTVSPropertyOp28
 70
     1
102
RTVSPropertyOp29
 70
     1
102
RTVSPropertyOp30
 70
     1
102
RTVSPropertyOp31
 70
     1
102
RTVSPropertyOp32
 70
     1
102
RTVSPropertyOp33
 70
     1
102
RTVSPropertyOp34
 70
     1
102
RTVSPropertyOp35
 70
     1
102
RTVSPropertyOp36
 70
     1
102
RTVSPropertyOp37
 70
     1
102
RTVSPropertyOp38
 70
     1
102
RTVSPropertyOp39
 70
     1
102
RTVSPropertyOp40
 70
     1
102
RTVSPropertyOp41
 70
     1
102
RTVSPropertyOp42
 70
     1
102
RTVSPropertyOp43
 70
     1
102
RTVSPropertyOp44
 70
     1
102
RTVSPropertyOp45
 70
     1
102
RTVSPropertyOp46
 70
     1
102
RTVSPropertyOp47
 70
     1
102
RTVSPropertyOp48
 70
     1
102
RTVSPropertyOp49
 70
     1
102
RTVSPropertyOp50
 70
     1
102
RTVSPropertyOp51
 70
     0
102
RTVSPropertyOp52
 70
     0
102
RTVSPropertyOp53
 70
     1
102
RTVSPropertyOp54
 70
     1
102
RTVSPropertyOp55
 70
     1
102
RTVSPropertyOp56
 70
     1
102
RTVSPropertyOp57
 70
     1
102
RTVSPropertyOp58
 70
     1
102
RTVSPropertyOp59
 70
     1
102
RTVSPropertyOp60
 70
     1
102
RTVSPropertyOp61
 70
     1
102
RTVSPropertyOp62
 70
     1
  0
XRECORD
  5
9B9D
102
{ACAD_REACTORS
330
9B9C
102
}
330
9B9C
100
AcDbXrecord
280
     1
102
RTVSPost2010Prop28
280
     0
102
RTVSPost2010PropOp28
 70
     1
102
RTVSPost2010Prop29
280
     1
102
RTVSPost2010PropOp29
 70
     1
102
RTVSPost2010Prop30
280
     1
102
RTVSPost2010PropOp30
 70
     1
102
RTVSPost2010Prop31
280
     0
102
RTVSPost2010PropOp31
 70
     1
102
RTVSPost2010Prop32
280
     0
102
RTVSPost2010PropOp32
 70
     1
102
RTVSPost2010Prop33
280
     0
102
RTVSPost2010PropOp33
 70
     1
102
RTVSPost2010Prop34
280
     0
102
RTVSPost2010PropOp34
 70
     1
102
RTVSPost2010Prop35
280
     0
102
RTVSPost2010PropOp35
 70
     1
102
RTVSPost2010Prop36
280
     0
102
RTVSPost2010PropOp36
 70
     1
102
RTVSPost2010Prop37
 90
       50
102
RTVSPost2010PropOp37
 70
     1
102
RTVSPost2010Prop38
140
0.0
102
RTVSPost2010PropOp38
 70
     1
102
RTVSPost2010Prop39
140
1.0
102
RTVSPost2010PropOp39
 70
     1
102
RTVSPost2010Prop40
 90
        0
102
RTVSPost2010PropOp40
 70
     1
102
RTVSPost2010Prop41ColorIndex
 90
       18
102
RTVSPost2010Prop41ColorRGB
 90
        0
102
RTVSPost2010PropOp41
 70
     1
102
RTVSPost2010Prop42
 90
       50
102
RTVSPost2010PropOp42
 70
     1
102
RTVSPost2010Prop43
 90
        3
102
RTVSPost2010PropOp43
 70
     1
102
RTVSPost2010Prop44ColorIndex
 90
        5
102
RTVSPost2010Prop44ColorRGB
 90
      255
102
RTVSPost2010PropOp44
 70
     1
102
RTVSPost2010Prop45
280
     0
102
RTVSPost2010PropOp45
 70
     1
102
RTVSPost2010Prop46
 90
       50
102
RTVSPost2010PropOp46
 70
     1
102
RTVSPost2010Prop47
 90
       50
102
RTVSPost2010PropOp47
 70
     1
102
RTVSPost2010Prop48
 90
       50
102
RTVSPost2010PropOp48
 70
     1
102
RTVSPost2010Prop49
280
     0
102
RTVSPost2010PropOp49
 70
     1
102
RTVSPost2010Prop50
 90
       50
102
RTVSPost2010PropOp50
 70
     1
102
RTVSPost2010Prop51ColorIndex
 90
      256
102
RTVSPost2010Prop51ColorRGB
 90
-16777216
102
RTVSPost2010PropOp51
 70
     0
102
RTVSPost2010Prop52
140
1.0
102
RTVSPost2010PropOp52
 70
     0
102
RTVSPost2010Prop53
 90
        2
102
RTVSPost2010PropOp53
 70
     1
102
RTVSPost2010Prop54
  1
strokes_ogs.tif
102
RTVSPost2010PropOp54
 70
     1
102
RTVSPost2010Prop55
280
     0
102
RTVSPost2010PropOp55
 70
     1
102
RTVSPost2010Prop56
140
1.0
102
RTVSPost2010PropOp56
 70
     1
102
RTVSPost2010Prop57
140
1.0
102
RTVSPost2010PropOp57
 70
     1
102
RTVSPropertyOp0
 70
     1
102
RTVSPropertyOp1
 70
     1
102
RTVSPropertyOp2
 70
     1
102
RTVSPropertyOp3
 70
     1
102
RTVSPropertyOp4
 70
     1
102
RTVSPropertyOp5
 70
     1
102
RTVSPropertyOp6
 70
     1
102
RTVSPropertyOp7
 70
     1
102
RTVSPropertyOp8
 70
     1
102
RTVSPropertyOp9
 70
     1
102
RTVSPropertyOp10
 70
     1
102
RTVSPropertyOp11
 70
     1
102
RTVSPropertyOp12
 70
     1
102
RTVSPropertyOp13
 70
     1
102
RTVSPropertyOp14
 70
     1
102
RTVSPropertyOp15
 70
     1
102
RTVSPropertyOp16
 70
     1
102
RTVSPropertyOp17
 70
     1
102
RTVSPropertyOp18
 70
     1
102
RTVSPropertyOp19
 70
     1
102
RTVSPropertyOp20
 70
     1
102
RTVSPropertyOp21
 70
     1
102
RTVSPropertyOp22
 70
     1
102
RTVSPropertyOp23
 70
     1
102
RTVSPropertyOp24
 70
     1
102
RTVSPropertyOp25
 70
     1
102
RTVSPropertyOp26
 70
     1
102
RTVSPropertyOp27
 70
     1
102
RTVSPropertyOp28
 70
     1
102
RTVSPropertyOp29
 70
     1
102
RTVSPropertyOp30
 70
     1
102
RTVSPropertyOp31
 70
     1
102
RTVSPropertyOp32
 70
     1
102
RTVSPropertyOp33
 70
     1
102
RTVSPropertyOp34
 70
     1
102
RTVSPropertyOp35
 70
     1
102
RTVSPropertyOp36
 70
     1
102
RTVSPropertyOp37
 70
     1
102
RTVSPropertyOp38
 70
     1
102
RTVSPropertyOp39
 70
     1
102
RTVSPropertyOp40
 70
     1
102
RTVSPropertyOp41
 70
     1
102
RTVSPropertyOp42
 70
     1
102
RTVSPropertyOp43
 70
     1
102
RTVSPropertyOp44
 70
     1
102
RTVSPropertyOp45
 70
     1
102
RTVSPropertyOp46
 70
     1
102
RTVSPropertyOp47
 70
     1
102
RTVSPropertyOp48
 70
     1
102
RTVSPropertyOp49
 70
     1
102
RTVSPropertyOp50
 70
     1
102
RTVSPropertyOp51
 70
     0
102
RTVSPropertyOp52
 70
     0
102
RTVSPropertyOp53
 70
     1
102
RTVSPropertyOp54
 70
     1
102
RTVSPropertyOp55
 70
     1
102
RTVSPropertyOp56
 70
     1
102
RTVSPropertyOp57
 70
     1
102
RTVSPropertyOp58
 70
     1
102
RTVSPropertyOp59
 70
     1
102
RTVSPropertyOp60
 70
     1
102
RTVSPropertyOp61
 70
     1
102
RTVSPropertyOp62
 70
     1
  0
XRECORD
  5
9B97
102
{ACAD_REACTORS
330
9B96
102
}
330
9B96
100
AcDbXrecord
280
     1
102
RTVSPost2010Prop28
280
     0
102
RTVSPost2010PropOp28
 70
     1
102
RTVSPost2010Prop29
280
     1
102
RTVSPost2010PropOp29
 70
     1
102
RTVSPost2010Prop30
280
     1
102
RTVSPost2010PropOp30
 70
     1
102
RTVSPost2010Prop31
280
     0
102
RTVSPost2010PropOp31
 70
     1
102
RTVSPost2010Prop32
280
     0
102
RTVSPost2010PropOp32
 70
     1
102
RTVSPost2010Prop33
280
     0
102
RTVSPost2010PropOp33
 70
     1
102
RTVSPost2010Prop34
280
     0
102
RTVSPost2010PropOp34
 70
     1
102
RTVSPost2010Prop35
280
     0
102
RTVSPost2010PropOp35
 70
     1
102
RTVSPost2010Prop36
280
     0
102
RTVSPost2010PropOp36
 70
     1
102
RTVSPost2010Prop37
 90
       50
102
RTVSPost2010PropOp37
 70
     1
102
RTVSPost2010Prop38
140
0.0
102
RTVSPost2010PropOp38
 70
     1
102
RTVSPost2010Prop39
140
1.0
102
RTVSPost2010PropOp39
 70
     1
102
RTVSPost2010Prop40
 90
        0
102
RTVSPost2010PropOp40
 70
     1
102
RTVSPost2010Prop41ColorIndex
 90
       18
102
RTVSPost2010Prop41ColorRGB
 90
        0
102
RTVSPost2010PropOp41
 70
     1
102
RTVSPost2010Prop42
 90
       50
102
RTVSPost2010PropOp42
 70
     1
102
RTVSPost2010Prop43
 90
        3
102
RTVSPost2010PropOp43
 70
     1
102
RTVSPost2010Prop44ColorIndex
 90
        5
102
RTVSPost2010Prop44ColorRGB
 90
      255
102
RTVSPost2010PropOp44
 70
     1
102
RTVSPost2010Prop45
280
     0
102
RTVSPost2010PropOp45
 70
     1
102
RTVSPost2010Prop46
 90
       50
102
RTVSPost2010PropOp46
 70
     1
102
RTVSPost2010Prop47
 90
       50
102
RTVSPost2010PropOp47
 70
     1
102
RTVSPost2010Prop48
 90
       50
102
RTVSPost2010PropOp48
 70
     1
102
RTVSPost2010Prop49
280
     0
102
RTVSPost2010PropOp49
 70
     1
102
RTVSPost2010Prop50
 90
       50
102
RTVSPost2010PropOp50
 70
     1
102
RTVSPost2010Prop51ColorIndex
 90
      256
102
RTVSPost2010Prop51ColorRGB
 90
-16777216
102
RTVSPost2010PropOp51
 70
     0
102
RTVSPost2010Prop52
140
1.0
102
RTVSPost2010PropOp52
 70
     0
102
RTVSPost2010Prop53
 90
        2
102
RTVSPost2010PropOp53
 70
     1
102
RTVSPost2010Prop54
  1
strokes_ogs.tif
102
RTVSPost2010PropOp54
 70
     1
102
RTVSPost2010Prop55
280
     0
102
RTVSPost2010PropOp55
 70
     1
102
RTVSPost2010Prop56
140
1.0
102
RTVSPost2010PropOp56
 70
     1
102
RTVSPost2010Prop57
140
1.0
102
RTVSPost2010PropOp57
 70
     1
102
RTVSPropertyOp0
 70
     1
102
RTVSPropertyOp1
 70
     1
102
RTVSPropertyOp2
 70
     1
102
RTVSPropertyOp3
 70
     1
102
RTVSPropertyOp4
 70
     1
102
RTVSPropertyOp5
 70
     1
102
RTVSPropertyOp6
 70
     1
102
RTVSPropertyOp7
 70
     1
102
RTVSPropertyOp8
 70
     1
102
RTVSPropertyOp9
 70
     1
102
RTVSPropertyOp10
 70
     1
102
RTVSPropertyOp11
 70
     1
102
RTVSPropertyOp12
 70
     1
102
RTVSPropertyOp13
 70
     1
102
RTVSPropertyOp14
 70
     1
102
RTVSPropertyOp15
 70
     1
102
RTVSPropertyOp16
 70
     1
102
RTVSPropertyOp17
 70
     1
102
RTVSPropertyOp18
 70
     1
102
RTVSPropertyOp19
 70
     1
102
RTVSPropertyOp20
 70
     1
102
RTVSPropertyOp21
 70
     1
102
RTVSPropertyOp22
 70
     1
102
RTVSPropertyOp23
 70
     1
102
RTVSPropertyOp24
 70
     1
102
RTVSPropertyOp25
 70
     1
102
RTVSPropertyOp26
 70
     1
102
RTVSPropertyOp27
 70
     1
102
RTVSPropertyOp28
 70
     1
102
RTVSPropertyOp29
 70
     1
102
RTVSPropertyOp30
 70
     1
102
RTVSPropertyOp31
 70
     1
102
RTVSPropertyOp32
 70
     1
102
RTVSPropertyOp33
 70
     1
102
RTVSPropertyOp34
 70
     1
102
RTVSPropertyOp35
 70
     1
102
RTVSPropertyOp36
 70
     1
102
RTVSPropertyOp37
 70
     1
102
RTVSPropertyOp38
 70
     1
102
RTVSPropertyOp39
 70
     1
102
RTVSPropertyOp40
 70
     1
102
RTVSPropertyOp41
 70
     1
102
RTVSPropertyOp42
 70
     1
102
RTVSPropertyOp43
 70
     1
102
RTVSPropertyOp44
 70
     1
102
RTVSPropertyOp45
 70
     1
102
RTVSPropertyOp46
 70
     1
102
RTVSPropertyOp47
 70
     1
102
RTVSPropertyOp48
 70
     1
102
RTVSPropertyOp49
 70
     1
102
RTVSPropertyOp50
 70
     1
102
RTVSPropertyOp51
 70
     0
102
RTVSPropertyOp52
 70
     0
102
RTVSPropertyOp53
 70
     1
102
RTVSPropertyOp54
 70
     1
102
RTVSPropertyOp55
 70
     1
102
RTVSPropertyOp56
 70
     1
102
RTVSPropertyOp57
 70
     1
102
RTVSPropertyOp58
 70
     1
102
RTVSPropertyOp59
 70
     1
102
RTVSPropertyOp60
 70
     1
102
RTVSPropertyOp61
 70
     1
102
RTVSPropertyOp62
 70
     1
  0
XRECORD
  5
9B99
102
{ACAD_REACTORS
330
9B98
102
}
330
9B98
100
AcDbXrecord
280
     1
102
RTVSPost2010Prop28
280
     0
102
RTVSPost2010PropOp28
 70
     1
102
RTVSPost2010Prop29
280
     1
102
RTVSPost2010PropOp29
 70
     1
102
RTVSPost2010Prop30
280
     1
102
RTVSPost2010PropOp30
 70
     1
102
RTVSPost2010Prop31
280
     0
102
RTVSPost2010PropOp31
 70
     1
102
RTVSPost2010Prop32
280
     0
102
RTVSPost2010PropOp32
 70
     1
102
RTVSPost2010Prop33
280
     0
102
RTVSPost2010PropOp33
 70
     1
102
RTVSPost2010Prop34
280
     0
102
RTVSPost2010PropOp34
 70
     1
102
RTVSPost2010Prop35
280
     0
102
RTVSPost2010PropOp35
 70
     1
102
RTVSPost2010Prop36
280
     0
102
RTVSPost2010PropOp36
 70
     1
102
RTVSPost2010Prop37
 90
       50
102
RTVSPost2010PropOp37
 70
     1
102
RTVSPost2010Prop38
140
0.0
102
RTVSPost2010PropOp38
 70
     1
102
RTVSPost2010Prop39
140
1.0
102
RTVSPost2010PropOp39
 70
     1
102
RTVSPost2010Prop40
 90
        0
102
RTVSPost2010PropOp40
 70
     1
102
RTVSPost2010Prop41ColorIndex
 90
       18
102
RTVSPost2010Prop41ColorRGB
 90
        0
102
RTVSPost2010PropOp41
 70
     1
102
RTVSPost2010Prop42
 90
       50
102
RTVSPost2010PropOp42
 70
     1
102
RTVSPost2010Prop43
 90
        3
102
RTVSPost2010PropOp43
 70
     1
102
RTVSPost2010Prop44ColorIndex
 90
        5
102
RTVSPost2010Prop44ColorRGB
 90
      255
102
RTVSPost2010PropOp44
 70
     1
102
RTVSPost2010Prop45
280
     0
102
RTVSPost2010PropOp45
 70
     1
102
RTVSPost2010Prop46
 90
       50
102
RTVSPost2010PropOp46
 70
     1
102
RTVSPost2010Prop47
 90
       50
102
RTVSPost2010PropOp47
 70
     1
102
RTVSPost2010Prop48
 90
       50
102
RTVSPost2010PropOp48
 70
     1
102
RTVSPost2010Prop49
280
     0
102
RTVSPost2010PropOp49
 70
     1
102
RTVSPost2010Prop50
 90
       50
102
RTVSPost2010PropOp50
 70
     1
102
RTVSPost2010Prop51ColorIndex
 90
      256
102
RTVSPost2010Prop51ColorRGB
 90
-16777216
102
RTVSPost2010PropOp51
 70
     0
102
RTVSPost2010Prop52
140
1.0
102
RTVSPost2010PropOp52
 70
     0
102
RTVSPost2010Prop53
 90
        2
102
RTVSPost2010PropOp53
 70
     1
102
RTVSPost2010Prop54
  1
strokes_ogs.tif
102
RTVSPost2010PropOp54
 70
     1
102
RTVSPost2010Prop55
280
     0
102
RTVSPost2010PropOp55
 70
     1
102
RTVSPost2010Prop56
140
1.0
102
RTVSPost2010PropOp56
 70
     1
102
RTVSPost2010Prop57
140
1.0
102
RTVSPost2010PropOp57
 70
     1
102
RTVSPropertyOp0
 70
     1
102
RTVSPropertyOp1
 70
     1
102
RTVSPropertyOp2
 70
     1
102
RTVSPropertyOp3
 70
     1
102
RTVSPropertyOp4
 70
     1
102
RTVSPropertyOp5
 70
     1
102
RTVSPropertyOp6
 70
     1
102
RTVSPropertyOp7
 70
     1
102
RTVSPropertyOp8
 70
     1
102
RTVSPropertyOp9
 70
     1
102
RTVSPropertyOp10
 70
     1
102
RTVSPropertyOp11
 70
     1
102
RTVSPropertyOp12
 70
     1
102
RTVSPropertyOp13
 70
     1
102
RTVSPropertyOp14
 70
     1
102
RTVSPropertyOp15
 70
     1
102
RTVSPropertyOp16
 70
     1
102
RTVSPropertyOp17
 70
     1
102
RTVSPropertyOp18
 70
     1
102
RTVSPropertyOp19
 70
     1
102
RTVSPropertyOp20
 70
     1
102
RTVSPropertyOp21
 70
     1
102
RTVSPropertyOp22
 70
     1
102
RTVSPropertyOp23
 70
     1
102
RTVSPropertyOp24
 70
     1
102
RTVSPropertyOp25
 70
     1
102
RTVSPropertyOp26
 70
     1
102
RTVSPropertyOp27
 70
     1
102
RTVSPropertyOp28
 70
     1
102
RTVSPropertyOp29
 70
     1
102
RTVSPropertyOp30
 70
     1
102
RTVSPropertyOp31
 70
     1
102
RTVSPropertyOp32
 70
     1
102
RTVSPropertyOp33
 70
     1
102
RTVSPropertyOp34
 70
     1
102
RTVSPropertyOp35
 70
     1
102
RTVSPropertyOp36
 70
     1
102
RTVSPropertyOp37
 70
     1
102
RTVSPropertyOp38
 70
     1
102
RTVSPropertyOp39
 70
     1
102
RTVSPropertyOp40
 70
     1
102
RTVSPropertyOp41
 70
     1
102
RTVSPropertyOp42
 70
     1
102
RTVSPropertyOp43
 70
     1
102
RTVSPropertyOp44
 70
     1
102
RTVSPropertyOp45
 70
     1
102
RTVSPropertyOp46
 70
     1
102
RTVSPropertyOp47
 70
     1
102
RTVSPropertyOp48
 70
     1
102
RTVSPropertyOp49
 70
     1
102
RTVSPropertyOp50
 70
     1
102
RTVSPropertyOp51
 70
     0
102
RTVSPropertyOp52
 70
     0
102
RTVSPropertyOp53
 70
     1
102
RTVSPropertyOp54
 70
     1
102
RTVSPropertyOp55
 70
     1
102
RTVSPropertyOp56
 70
     1
102
RTVSPropertyOp57
 70
     1
102
RTVSPropertyOp58
 70
     1
102
RTVSPropertyOp59
 70
     1
102
RTVSPropertyOp60
 70
     1
102
RTVSPropertyOp61
 70
     1
102
RTVSPropertyOp62
 70
     1
  0
XRECORD
  5
9B8F
102
{ACAD_REACTORS
330
9B8E
102
}
330
9B8E
100
AcDbXrecord
280
     1
102
RTVSPost2010Prop28
280
     0
102
RTVSPost2010PropOp28
 70
     1
102
RTVSPost2010Prop29
280
     1
102
RTVSPost2010PropOp29
 70
     1
102
RTVSPost2010Prop30
280
     1
102
RTVSPost2010PropOp30
 70
     1
102
RTVSPost2010Prop31
280
     0
102
RTVSPost2010PropOp31
 70
     1
102
RTVSPost2010Prop32
280
     0
102
RTVSPost2010PropOp32
 70
     1
102
RTVSPost2010Prop33
280
     0
102
RTVSPost2010PropOp33
 70
     1
102
RTVSPost2010Prop34
280
     0
102
RTVSPost2010PropOp34
 70
     1
102
RTVSPost2010Prop35
280
     0
102
RTVSPost2010PropOp35
 70
     1
102
RTVSPost2010Prop36
280
     0
102
RTVSPost2010PropOp36
 70
     1
102
RTVSPost2010Prop37
 90
       50
102
RTVSPost2010PropOp37
 70
     1
102
RTVSPost2010Prop38
140
0.0
102
RTVSPost2010PropOp38
 70
     1
102
RTVSPost2010Prop39
140
1.0
102
RTVSPost2010PropOp39
 70
     1
102
RTVSPost2010Prop40
 90
        0
102
RTVSPost2010PropOp40
 70
     1
102
RTVSPost2010Prop41ColorIndex
 90
       18
102
RTVSPost2010Prop41ColorRGB
 90
        0
102
RTVSPost2010PropOp41
 70
     1
102
RTVSPost2010Prop42
 90
       50
102
RTVSPost2010PropOp42
 70
     1
102
RTVSPost2010Prop43
 90
        3
102
RTVSPost2010PropOp43
 70
     1
102
RTVSPost2010Prop44ColorIndex
 90
        5
102
RTVSPost2010Prop44ColorRGB
 90
      255
102
RTVSPost2010PropOp44
 70
     1
102
RTVSPost2010Prop45
280
     0
102
RTVSPost2010PropOp45
 70
     1
102
RTVSPost2010Prop46
 90
       50
102
RTVSPost2010PropOp46
 70
     1
102
RTVSPost2010Prop47
 90
       50
102
RTVSPost2010PropOp47
 70
     1
102
RTVSPost2010Prop48
 90
       50
102
RTVSPost2010PropOp48
 70
     1
102
RTVSPost2010Prop49
280
     0
102
RTVSPost2010PropOp49
 70
     1
102
RTVSPost2010Prop50
 90
       50
102
RTVSPost2010PropOp50
 70
     1
102
RTVSPost2010Prop51ColorIndex
 90
      256
102
RTVSPost2010Prop51ColorRGB
 90
-16777216
102
RTVSPost2010PropOp51
 70
     0
102
RTVSPost2010Prop52
140
1.0
102
RTVSPost2010PropOp52
 70
     0
102
RTVSPost2010Prop53
 90
        2
102
RTVSPost2010PropOp53
 70
     1
102
RTVSPost2010Prop54
  1
strokes_ogs.tif
102
RTVSPost2010PropOp54
 70
     1
102
RTVSPost2010Prop55
280
     0
102
RTVSPost2010PropOp55
 70
     1
102
RTVSPost2010Prop56
140
1.0
102
RTVSPost2010PropOp56
 70
     1
102
RTVSPost2010Prop57
140
1.0
102
RTVSPost2010PropOp57
 70
     1
102
RTVSPropertyOp0
 70
     1
102
RTVSPropertyOp1
 70
     1
102
RTVSPropertyOp2
 70
     1
102
RTVSPropertyOp3
 70
     1
102
RTVSPropertyOp4
 70
     1
102
RTVSPropertyOp5
 70
     1
102
RTVSPropertyOp6
 70
     1
102
RTVSPropertyOp7
 70
     1
102
RTVSPropertyOp8
 70
     1
102
RTVSPropertyOp9
 70
     1
102
RTVSPropertyOp10
 70
     1
102
RTVSPropertyOp11
 70
     1
102
RTVSPropertyOp12
 70
     1
102
RTVSPropertyOp13
 70
     1
102
RTVSPropertyOp14
 70
     1
102
RTVSPropertyOp15
 70
     1
102
RTVSPropertyOp16
 70
     1
102
RTVSPropertyOp17
 70
     1
102
RTVSPropertyOp18
 70
     1
102
RTVSPropertyOp19
 70
     1
102
RTVSPropertyOp20
 70
     1
102
RTVSPropertyOp21
 70
     1
102
RTVSPropertyOp22
 70
     1
102
RTVSPropertyOp23
 70
     1
102
RTVSPropertyOp24
 70
     1
102
RTVSPropertyOp25
 70
     1
102
RTVSPropertyOp26
 70
     1
102
RTVSPropertyOp27
 70
     1
102
RTVSPropertyOp28
 70
     1
102
RTVSPropertyOp29
 70
     1
102
RTVSPropertyOp30
 70
     1
102
RTVSPropertyOp31
 70
     1
102
RTVSPropertyOp32
 70
     1
102
RTVSPropertyOp33
 70
     1
102
RTVSPropertyOp34
 70
     1
102
RTVSPropertyOp35
 70
     1
102
RTVSPropertyOp36
 70
     1
102
RTVSPropertyOp37
 70
     1
102
RTVSPropertyOp38
 70
     1
102
RTVSPropertyOp39
 70
     1
102
RTVSPropertyOp40
 70
     1
102
RTVSPropertyOp41
 70
     1
102
RTVSPropertyOp42
 70
     1
102
RTVSPropertyOp43
 70
     1
102
RTVSPropertyOp44
 70
     1
102
RTVSPropertyOp45
 70
     1
102
RTVSPropertyOp46
 70
     1
102
RTVSPropertyOp47
 70
     1
102
RTVSPropertyOp48
 70
     1
102
RTVSPropertyOp49
 70
     1
102
RTVSPropertyOp50
 70
     1
102
RTVSPropertyOp51
 70
     0
102
RTVSPropertyOp52
 70
     0
102
RTVSPropertyOp53
 70
     1
102
RTVSPropertyOp54
 70
     1
102
RTVSPropertyOp55
 70
     1
102
RTVSPropertyOp56
 70
     1
102
RTVSPropertyOp57
 70
     1
102
RTVSPropertyOp58
 70
     1
102
RTVSPropertyOp59
 70
     1
102
RTVSPropertyOp60
 70
     1
102
RTVSPropertyOp61
 70
     1
102
RTVSPropertyOp62
 70
     1
  0
XRECORD
  5
9B83
102
{ACAD_REACTORS
330
9B82
102
}
330
9B82
100
AcDbXrecord
280
     1
102
RTVSPost2010Prop28
280
     0
102
RTVSPost2010PropOp28
 70
     1
102
RTVSPost2010Prop29
280
     1
102
RTVSPost2010PropOp29
 70
     1
102
RTVSPost2010Prop30
280
     1
102
RTVSPost2010PropOp30
 70
     1
102
RTVSPost2010Prop31
280
     0
102
RTVSPost2010PropOp31
 70
     1
102
RTVSPost2010Prop32
280
     0
102
RTVSPost2010PropOp32
 70
     1
102
RTVSPost2010Prop33
280
     0
102
RTVSPost2010PropOp33
 70
     1
102
RTVSPost2010Prop34
280
     0
102
RTVSPost2010PropOp34
 70
     1
102
RTVSPost2010Prop35
280
     0
102
RTVSPost2010PropOp35
 70
     1
102
RTVSPost2010Prop36
280
     0
102
RTVSPost2010PropOp36
 70
     1
102
RTVSPost2010Prop37
 90
       50
102
RTVSPost2010PropOp37
 70
     1
102
RTVSPost2010Prop38
140
0.0
102
RTVSPost2010PropOp38
 70
     1
102
RTVSPost2010Prop39
140
1.0
102
RTVSPost2010PropOp39
 70
     1
102
RTVSPost2010Prop40
 90
        0
102
RTVSPost2010PropOp40
 70
     1
102
RTVSPost2010Prop41ColorIndex
 90
       18
102
RTVSPost2010Prop41ColorRGB
 90
        0
102
RTVSPost2010PropOp41
 70
     1
102
RTVSPost2010Prop42
 90
       50
102
RTVSPost2010PropOp42
 70
     1
102
RTVSPost2010Prop43
 90
        3
102
RTVSPost2010PropOp43
 70
     1
102
RTVSPost2010Prop44ColorIndex
 90
        5
102
RTVSPost2010Prop44ColorRGB
 90
      255
102
RTVSPost2010PropOp44
 70
     1
102
RTVSPost2010Prop45
280
     0
102
RTVSPost2010PropOp45
 70
     1
102
RTVSPost2010Prop46
 90
       50
102
RTVSPost2010PropOp46
 70
     1
102
RTVSPost2010Prop47
 90
       50
102
RTVSPost2010PropOp47
 70
     1
102
RTVSPost2010Prop48
 90
       50
102
RTVSPost2010PropOp48
 70
     1
102
RTVSPost2010Prop49
280
     0
102
RTVSPost2010PropOp49
 70
     1
102
RTVSPost2010Prop50
 90
       50
102
RTVSPost2010PropOp50
 70
     1
102
RTVSPost2010Prop51ColorIndex
 90
      256
102
RTVSPost2010Prop51ColorRGB
 90
-16777216
102
RTVSPost2010PropOp51
 70
     0
102
RTVSPost2010Prop52
140
1.0
102
RTVSPost2010PropOp52
 70
     0
102
RTVSPost2010Prop53
 90
        2
102
RTVSPost2010PropOp53
 70
     1
102
RTVSPost2010Prop54
  1
strokes_ogs.tif
102
RTVSPost2010PropOp54
 70
     1
102
RTVSPost2010Prop55
280
     0
102
RTVSPost2010PropOp55
 70
     1
102
RTVSPost2010Prop56
140
1.0
102
RTVSPost2010PropOp56
 70
     1
102
RTVSPost2010Prop57
140
1.0
102
RTVSPost2010PropOp57
 70
     1
102
RTVSPropertyOp0
 70
     1
102
RTVSPropertyOp1
 70
     1
102
RTVSPropertyOp2
 70
     1
102
RTVSPropertyOp3
 70
     1
102
RTVSPropertyOp4
 70
     1
102
RTVSPropertyOp5
 70
     1
102
RTVSPropertyOp6
 70
     1
102
RTVSPropertyOp7
 70
     1
102
RTVSPropertyOp8
 70
     1
102
RTVSPropertyOp9
 70
     1
102
RTVSPropertyOp10
 70
     1
102
RTVSPropertyOp11
 70
     1
102
RTVSPropertyOp12
 70
     1
102
RTVSPropertyOp13
 70
     1
102
RTVSPropertyOp14
 70
     1
102
RTVSPropertyOp15
 70
     1
102
RTVSPropertyOp16
 70
     1
102
RTVSPropertyOp17
 70
     1
102
RTVSPropertyOp18
 70
     1
102
RTVSPropertyOp19
 70
     1
102
RTVSPropertyOp20
 70
     1
102
RTVSPropertyOp21
 70
     1
102
RTVSPropertyOp22
 70
     1
102
RTVSPropertyOp23
 70
     1
102
RTVSPropertyOp24
 70
     1
102
RTVSPropertyOp25
 70
     1
102
RTVSPropertyOp26
 70
     1
102
RTVSPropertyOp27
 70
     1
102
RTVSPropertyOp28
 70
     1
102
RTVSPropertyOp29
 70
     1
102
RTVSPropertyOp30
 70
     1
102
RTVSPropertyOp31
 70
     1
102
RTVSPropertyOp32
 70
     1
102
RTVSPropertyOp33
 70
     1
102
RTVSPropertyOp34
 70
     1
102
RTVSPropertyOp35
 70
     1
102
RTVSPropertyOp36
 70
     1
102
RTVSPropertyOp37
 70
     1
102
RTVSPropertyOp38
 70
     1
102
RTVSPropertyOp39
 70
     1
102
RTVSPropertyOp40
 70
     1
102
RTVSPropertyOp41
 70
     1
102
RTVSPropertyOp42
 70
     1
102
RTVSPropertyOp43
 70
     1
102
RTVSPropertyOp44
 70
     1
102
RTVSPropertyOp45
 70
     1
102
RTVSPropertyOp46
 70
     1
102
RTVSPropertyOp47
 70
     1
102
RTVSPropertyOp48
 70
     1
102
RTVSPropertyOp49
 70
     1
102
RTVSPropertyOp50
 70
     1
102
RTVSPropertyOp51
 70
     0
102
RTVSPropertyOp52
 70
     0
102
RTVSPropertyOp53
 70
     1
102
RTVSPropertyOp54
 70
     1
102
RTVSPropertyOp55
 70
     1
102
RTVSPropertyOp56
 70
     1
102
RTVSPropertyOp57
 70
     1
102
RTVSPropertyOp58
 70
     1
102
RTVSPropertyOp59
 70
     1
102
RTVSPropertyOp60
 70
     1
102
RTVSPropertyOp61
 70
     1
102
RTVSPropertyOp62
 70
     1
  0
XRECORD
  5
9B9B
102
{ACAD_REACTORS
330
9B9A
102
}
330
9B9A
100
AcDbXrecord
280
     1
102
RTVSPost2010Prop28
280
     0
102
RTVSPost2010PropOp28
 70
     1
102
RTVSPost2010Prop29
280
     1
102
RTVSPost2010PropOp29
 70
     1
102
RTVSPost2010Prop30
280
     1
102
RTVSPost2010PropOp30
 70
     1
102
RTVSPost2010Prop31
280
     0
102
RTVSPost2010PropOp31
 70
     1
102
RTVSPost2010Prop32
280
     0
102
RTVSPost2010PropOp32
 70
     1
102
RTVSPost2010Prop33
280
     0
102
RTVSPost2010PropOp33
 70
     1
102
RTVSPost2010Prop34
280
     0
102
RTVSPost2010PropOp34
 70
     1
102
RTVSPost2010Prop35
280
     0
102
RTVSPost2010PropOp35
 70
     1
102
RTVSPost2010Prop36
280
     0
102
RTVSPost2010PropOp36
 70
     1
102
RTVSPost2010Prop37
 90
       50
102
RTVSPost2010PropOp37
 70
     1
102
RTVSPost2010Prop38
140
0.0
102
RTVSPost2010PropOp38
 70
     1
102
RTVSPost2010Prop39
140
1.0
102
RTVSPost2010PropOp39
 70
     1
102
RTVSPost2010Prop40
 90
        0
102
RTVSPost2010PropOp40
 70
     1
102
RTVSPost2010Prop41ColorIndex
 90
       18
102
RTVSPost2010Prop41ColorRGB
 90
        0
102
RTVSPost2010PropOp41
 70
     1
102
RTVSPost2010Prop42
 90
       50
102
RTVSPost2010PropOp42
 70
     1
102
RTVSPost2010Prop43
 90
        3
102
RTVSPost2010PropOp43
 70
     1
102
RTVSPost2010Prop44ColorIndex
 90
        5
102
RTVSPost2010Prop44ColorRGB
 90
      255
102
RTVSPost2010PropOp44
 70
     1
102
RTVSPost2010Prop45
280
     0
102
RTVSPost2010PropOp45
 70
     1
102
RTVSPost2010Prop46
 90
       50
102
RTVSPost2010PropOp46
 70
     1
102
RTVSPost2010Prop47
 90
       50
102
RTVSPost2010PropOp47
 70
     1
102
RTVSPost2010Prop48
 90
       50
102
RTVSPost2010PropOp48
 70
     1
102
RTVSPost2010Prop49
280
     0
102
RTVSPost2010PropOp49
 70
     1
102
RTVSPost2010Prop50
 90
       50
102
RTVSPost2010PropOp50
 70
     1
102
RTVSPost2010Prop51ColorIndex
 90
      256
102
RTVSPost2010Prop51ColorRGB
 90
-16777216
102
RTVSPost2010PropOp51
 70
     0
102
RTVSPost2010Prop52
140
1.0
102
RTVSPost2010PropOp52
 70
     0
102
RTVSPost2010Prop53
 90
        2
102
RTVSPost2010PropOp53
 70
     1
102
RTVSPost2010Prop54
  1
strokes_ogs.tif
102
RTVSPost2010PropOp54
 70
     1
102
RTVSPost2010Prop55
280
     0
102
RTVSPost2010PropOp55
 70
     1
102
RTVSPost2010Prop56
140
1.0
102
RTVSPost2010PropOp56
 70
     1
102
RTVSPost2010Prop57
140
1.0
102
RTVSPost2010PropOp57
 70
     1
102
RTVSPropertyOp0
 70
     1
102
RTVSPropertyOp1
 70
     1
102
RTVSPropertyOp2
 70
     1
102
RTVSPropertyOp3
 70
     1
102
RTVSPropertyOp4
 70
     1
102
RTVSPropertyOp5
 70
     1
102
RTVSPropertyOp6
 70
     1
102
RTVSPropertyOp7
 70
     1
102
RTVSPropertyOp8
 70
     1
102
RTVSPropertyOp9
 70
     1
102
RTVSPropertyOp10
 70
     1
102
RTVSPropertyOp11
 70
     1
102
RTVSPropertyOp12
 70
     1
102
RTVSPropertyOp13
 70
     1
102
RTVSPropertyOp14
 70
     1
102
RTVSPropertyOp15
 70
     1
102
RTVSPropertyOp16
 70
     1
102
RTVSPropertyOp17
 70
     1
102
RTVSPropertyOp18
 70
     1
102
RTVSPropertyOp19
 70
     1
102
RTVSPropertyOp20
 70
     1
102
RTVSPropertyOp21
 70
     1
102
RTVSPropertyOp22
 70
     1
102
RTVSPropertyOp23
 70
     1
102
RTVSPropertyOp24
 70
     1
102
RTVSPropertyOp25
 70
     1
102
RTVSPropertyOp26
 70
     1
102
RTVSPropertyOp27
 70
     1
102
RTVSPropertyOp28
 70
     1
102
RTVSPropertyOp29
 70
     1
102
RTVSPropertyOp30
 70
     1
102
RTVSPropertyOp31
 70
     1
102
RTVSPropertyOp32
 70
     1
102
RTVSPropertyOp33
 70
     1
102
RTVSPropertyOp34
 70
     1
102
RTVSPropertyOp35
 70
     1
102
RTVSPropertyOp36
 70
     1
102
RTVSPropertyOp37
 70
     1
102
RTVSPropertyOp38
 70
     1
102
RTVSPropertyOp39
 70
     1
102
RTVSPropertyOp40
 70
     1
102
RTVSPropertyOp41
 70
     1
102
RTVSPropertyOp42
 70
     1
102
RTVSPropertyOp43
 70
     1
102
RTVSPropertyOp44
 70
     1
102
RTVSPropertyOp45
 70
     1
102
RTVSPropertyOp46
 70
     1
102
RTVSPropertyOp47
 70
     1
102
RTVSPropertyOp48
 70
     1
102
RTVSPropertyOp49
 70
     1
102
RTVSPropertyOp50
 70
     1
102
RTVSPropertyOp51
 70
     0
102
RTVSPropertyOp52
 70
     0
102
RTVSPropertyOp53
 70
     1
102
RTVSPropertyOp54
 70
     1
102
RTVSPropertyOp55
 70
     1
102
RTVSPropertyOp56
 70
     1
102
RTVSPropertyOp57
 70
     1
102
RTVSPropertyOp58
 70
     1
102
RTVSPropertyOp59
 70
     1
102
RTVSPropertyOp60
 70
     1
102
RTVSPropertyOp61
 70
     1
102
RTVSPropertyOp62
 70
     1
  0
ENDSEC
  0
EOF
