  0
SECTION
  2
HEADER
  9
$ACADVER
  1
AC1015
  9
$ACADMAINTVER
 70
    20
  9
$DWGCODEPAGE
  3
ANSI_932
  9
$INSBASE
 10
0.0
 20
0.0
 30
0.0
  9
$EXTMIN
 10
10.0
 20
9.999999999999998
 30
0.0
  9
$EXTMAX
 10
348.18146
 20
225.594764
 30
0.0
  9
$LIMMIN
 10
0.0
 20
0.0
  9
$LIMMAX
 10
396.0
 20
273.0
  9
$ORTHOMODE
 70
     1
  9
$REGENMODE
 70
     1
  9
$FILLMODE
 70
     1
  9
$QTEXTMODE
 70
     0
  9
$MIRRTEXT
 70
     1
  9
$LTSCALE
 40
20.0
  9
$ATTMODE
 70
     1
  9
$TEXTSIZE
 40
5.0
  9
$TRACEWID
 40
1.0
  9
$TEXTSTYLE
  7
STANDARD
  9
$CLAYER
  8
0
  9
$CELTYPE
  6
BYLAYER
  9
$CECOLOR
 62
   256
  9
$CELTSCALE
 40
1.0
  9
$DISPSILH
 70
     0
  9
$DIMSCALE
 40
1.0
  9
$DIMASZ
 40
3.0
  9
$DIMEXO
 40
1.0
  9
$DIMDLI
 40
10.0
  9
$DIMRND
 40
0.0
  9
$DIMDLE
 40
0.0
  9
$DIMEXE
 40
1.0
  9
$DIMTP
 40
0.0
  9
$DIMTM
 40
0.0
  9
$DIMTXT
 40
3.2
  9
$DIMCEN
 40
0.0
  9
$DIMTSZ
 40
0.0
  9
$DIMTOL
 70
     0
  9
$DIMLIM
 70
     0
  9
$DIMTIH
 70
     0
  9
$DIMTOH
 70
     0
  9
$DIMSE1
 70
     0
  9
$DIMSE2
 70
     0
  9
$DIMTAD
 70
     3
  9
$DIMZIN
 70
     9
  9
$DIMBLK
  1

  9
$DIMASO
 70
     1
  9
$DIMSHO
 70
     1
  9
$DIMPOST
  1

  9
$DIMAPOST
  1

  9
$DIMALT
 70
     0
  9
$DIMALTD
 70
     2
  9
$DIMALTF
 40
25.4
  9
$DIMLFAC
 40
1.0
  9
$DIMTOFL
 70
     1
  9
$DIMTVP
 40
0.0
  9
$DIMTIX
 70
     0
  9
$DIMSOXD
 70
     0
  9
$DIMSAH
 70
     1
  9
$DIMBLK1
  1

  9
$DIMBLK2
  1

  9
$DIMSTYLE
  2
STANDARD
  9
$DIMCLRD
 70
     0
  9
$DIMCLRE
 70
     0
  9
$DIMCLRT
 70
     0
  9
$DIMTFAC
 40
1.0
  9
$DIMGAP
 40
1.0
  9
$DIMJUST
 70
     0
  9
$DIMSD1
 70
     0
  9
$DIMSD2
 70
     0
  9
$DIMTOLJ
 70
     1
  9
$DIMTZIN
 70
     0
  9
$DIMALTZ
 70
     0
  9
$DIMALTTZ
 70
     0
  9
$DIMUPT
 70
     0
  9
$DIMDEC
 70
     4
  9
$DIMTDEC
 70
     4
  9
$DIMALTU
 70
     2
  9
$DIMALTTD
 70
     2
  9
$DIMTXSTY
  7
STANDARD
  9
$DIMAUNIT
 70
     0
  9
$DIMADEC
 70
     0
  9
$DIMALTRND
 40
0.0
  9
$DIMAZIN
 70
     0
  9
$DIMDSEP
 70
    46
  9
$DIMATFIT
 70
     3
  9
$DIMFRAC
 70
     0
  9
$DIMLDRBLK
  1

  9
$DIMLUNIT
 70
     2
  9
$DIMLWD
 70
    -2
  9
$DIMLWE
 70
    -2
  9
$DIMTMOVE
 70
     0
  9
$LUNITS
 70
     2
  9
$LUPREC
 70
     4
  9
$SKETCHINC
 40
1.0
  9
$FILLETRAD
 40
0.0
  9
$AUNITS
 70
     0
  9
$AUPREC
 70
     2
  9
$MENU
  1
.
  9
$ELEVATION
 40
0.0
  9
$PELEVATION
 40
0.0
  9
$THICKNESS
 40
0.0
  9
$LIMCHECK
 70
     0
  9
$CHAMFERA
 40
10.0
  9
$CHAMFERB
 40
10.0
  9
$CHAMFERC
 40
0.0
  9
$CHAMFERD
 40
0.0
  9
$SKPOLY
 70
     0
  9
$TDCREATE
 40
2450964.479692129
  9
$TDUCREATE
 40
2450964.104692129
  9
$TDUPDATE
 40
2457192.600941620
  9
$TDUUPDATE
 40
2457192.225941621
  9
$TDINDWG
 40
0.0004351968
  9
$TDUSRTIMER
 40
0.0004347569
  9
$USRTIMER
 70
     1
  9
$ANGBASE
 50
0.0
  9
$ANGDIR
 70
     0
  9
$PDMODE
 70
     0
  9
$PDSIZE
 40
0.0
  9
$PLINEWID
 40
0.0
  9
$SPLFRAME
 70
     0
  9
$SPLINETYPE
 70
     6
  9
$SPLINESEGS
 70
     8
  9
$HANDSEED
  5
9E02
  9
$SURFTAB1
 70
     6
  9
$SURFTAB2
 70
     6
  9
$SURFTYPE
 70
     6
  9
$SURFU
 70
     6
  9
$SURFV
 70
     6
  9
$UCSBASE
  2

  9
$UCSNAME
  2

  9
$UCSORG
 10
0.0
 20
0.0
 30
0.0
  9
$UCSXDIR
 10
1.0
 20
0.0
 30
0.0
  9
$UCSYDIR
 10
0.0
 20
1.0
 30
0.0
  9
$UCSORTHOREF
  2

  9
$UCSORTHOVIEW
 70
     0
  9
$UCSORGTOP
 10
0.0
 20
0.0
 30
0.0
  9
$UCSORGBOTTOM
 10
0.0
 20
0.0
 30
0.0
  9
$UCSORGLEFT
 10
0.0
 20
0.0
 30
0.0
  9
$UCSORGRIGHT
 10
0.0
 20
0.0
 30
0.0
  9
$UCSORGFRONT
 10
0.0
 20
0.0
 30
0.0
  9
$UCSORGBACK
 10
0.0
 20
0.0
 30
0.0
  9
$PUCSBASE
  2

  9
$PUCSNAME
  2

  9
$PUCSORG
 10
0.0
 20
0.0
 30
0.0
  9
$PUCSXDIR
 10
1.0
 20
0.0
 30
0.0
  9
$PUCSYDIR
 10
0.0
 20
1.0
 30
0.0
  9
$PUCSORTHOREF
  2

  9
$PUCSORTHOVIEW
 70
     0
  9
$PUCSORGTOP
 10
0.0
 20
0.0
 30
0.0
  9
$PUCSORGBOTTOM
 10
0.0
 20
0.0
 30
0.0
  9
$PUCSORGLEFT
 10
0.0
 20
0.0
 30
0.0
  9
$PUCSORGRIGHT
 10
0.0
 20
0.0
 30
0.0
  9
$PUCSORGFRONT
 10
0.0
 20
0.0
 30
0.0
  9
$PUCSORGBACK
 10
0.0
 20
0.0
 30
0.0
  9
$USERI1
 70
     0
  9
$USERI2
 70
     0
  9
$USERI3
 70
     0
  9
$USERI4
 70
     0
  9
$USERI5
 70
     0
  9
$USERR1
 40
0.0
  9
$USERR2
 40
0.0
  9
$USERR3
 40
0.0
  9
$USERR4
 40
0.0
  9
$USERR5
 40
0.0
  9
$WORLDVIEW
 70
     1
  9
$SHADEDGE
 70
     3
  9
$SHADEDIF
 70
    70
  9
$TILEMODE
 70
     1
  9
$MAXACTVP
 70
    16
  9
$PINSBASE
 10
0.0
 20
0.0
 30
0.0
  9
$PLIMCHECK
 70
     0
  9
$PEXTMIN
 10
1.000000000000000E+20
 20
1.000000000000000E+20
 30
1.000000000000000E+20
  9
$PEXTMAX
 10
-1.000000000000000E+20
 20
-1.000000000000000E+20
 30
-1.000000000000000E+20
  9
$PLIMMIN
 10
0.0
 20
0.0
  9
$PLIMMAX
 10
420.0
 20
297.0
  9
$UNITMODE
 70
     0
  9
$VISRETAIN
 70
     0
  9
$PLINEGEN
 70
     0
  9
$PSLTSCALE
 70
     0
  9
$TREEDEPTH
 70
  3020
  9
$CMLSTYLE
  2
STANDARD
  9
$CMLJUST
 70
     0
  9
$CMLSCALE
 40
1.0
  9
$PROXYGRAPHICS
 70
     1
  9
$MEASUREMENT
 70
     0
  9
$CELWEIGHT
370
    -1
  9
$ENDCAPS
280
     0
  9
$JOINSTYLE
280
     0
  9
$LWDISPLAY
290
     0
  9
$INSUNITS
 70
     0
  9
$HYPERLINKBASE
  1

  9
$STYLESHEET
  1

  9
$XEDIT
290
     1
  9
$CEPSNTYPE
380
     0
  9
$PSTYLEMODE
290
     1
  9
$FINGERPRINTGUID
  2
{D814F9B5-E338-4B3D-97BD-8CF5752A034B}
  9
$VERSIONGUID
  2
{E0A5D500-978D-4677-B75D-FEF9F44D230A}
  9
$EXTNAMES
290
     1
  9
$PSVPSCALE
 40
0.0
  9
$OLESTARTUP
290
     0
  0
ENDSEC
  0
SECTION
  2
CLASSES
  0
CLASS
  1
ACDBDICTIONARYWDFLT
  2
AcDbDictionaryWithDefault
  3
ObjectDBX Classes
 90
        0
280
     0
281
     0
  0
CLASS
  1
ACDBPLACEHOLDER
  2
AcDbPlaceHolder
  3
ObjectDBX Classes
 90
        0
280
     0
281
     0
  0
CLASS
  1
LAYOUT
  2
AcDbLayout
  3
ObjectDBX Classes
 90
        0
280
     0
281
     0
  0
CLASS
  1
DICTIONARYVAR
  2
AcDbDictionaryVar
  3
ObjectDBX Classes
 90
        0
280
     0
281
     0
  0
CLASS
  1
MATERIAL
  2
AcDbMaterial
  3
ObjectDBX Classes
 90
     1153
280
     0
281
     0
  0
CLASS
  1
VISUALSTYLE
  2
AcDbVisualStyle
  3
ObjectDBX Classes
 90
     4095
280
     0
281
     0
  0
CLASS
  1
TABLESTYLE
  2
AcDbTableStyle
  3
ObjectDBX Classes
 90
     4095
280
     0
281
     0
  0
CLASS
  1
SCALE
  2
AcDbScale
  3
ObjectDBX Classes
 90
     1153
280
     0
281
     0
  0
CLASS
  1
MLEADERSTYLE
  2
AcDbMLeaderStyle
  3
ACDB_MLEADERSTYLE_CLASS
 90
     4095
280
     0
281
     0
  0
CLASS
  1
ACDBSECTIONVIEWSTYLE
  2
AcDbSectionViewStyle
  3
ObjectDBX Classes
 90
     1025
280
     0
281
     0
  0
CLASS
  1
ACDBDETAILVIEWSTYLE
  2
AcDbDetailViewStyle
  3
ObjectDBX Classes
 90
     1025
280
     0
281
     0
  0
CLASS
  1
CELLSTYLEMAP
  2
AcDbCellStyleMap
  3
ObjectDBX Classes
 90
     1152
280
     0
281
     0
  0
ENDSEC
  0
SECTION
  2
TABLES
  0
TABLE
  2
VPORT
  5
9AAD
330
0
100
AcDbSymbolTable
 70
     1
  0
VPORT
  5
9D4D
330
9AAD
100
AcDbSymbolTableRecord
100
AcDbViewportTableRecord
  2
*ACTIVE
 70
     0
 10
0.0
 20
0.0
 11
1.0
 21
1.0
 12
248.3814580134882
 22
117.7962347447129
 13
0.0
 23
0.0
 14
10.0
 24
10.0
 15
10.0
 25
10.0
 16
0.0
 26
0.0
 36
1.0
 17
0.0
 27
0.0
 37
0.0
 40
217.6997435557784
 41
1.899603698811096
 42
50.0
 43
0.0
 44
0.0
 50
0.0
 51
0.0
 71
     0
 72
   100
 73
     1
 74
     0
 75
     0
 76
     0
 77
     0
 78
     0
281
     0
 65
     1
110
0.0
120
0.0
130
0.0
111
1.0
121
0.0
131
0.0
112
0.0
122
1.0
132
0.0
 79
     0
146
0.0
1001
ACAD_NAV_VCDISPLAY
1070
     3
  0
ENDTAB
  0
TABLE
  2
LTYPE
  5
9AAA
330
0
100
AcDbSymbolTable
 70
     4
  0
LTYPE
  5
9AB8
330
9AAA
100
AcDbSymbolTableRecord
100
AcDbLinetypeTableRecord
  2
BYBLOCK
 70
     0
  3

 72
    65
 73
     0
 40
0.0
  0
LTYPE
  5
9AB9
330
9AAA
100
AcDbSymbolTableRecord
100
AcDbLinetypeTableRecord
  2
BYLAYER
 70
     0
  3

 72
    65
 73
     0
 40
0.0
  0
LTYPE
  5
9ABA
330
9AAA
100
AcDbSymbolTableRecord
100
AcDbLinetypeTableRecord
  2
CONTINUOUS
 70
     0
  3
Solid line
 72
    65
 73
     0
 40
0.0
  0
LTYPE
  5
9AC8
330
9AAA
100
AcDbSymbolTableRecord
100
AcDbLinetypeTableRecord
  2
DASHED
 70
     0
  3
__ __ __ __ __ __ __ __ __ __ __ __ __ __ __ __
 72
    65
 73
     2
 40
0.75
 49
0.5
 74
     0
 49
-0.25
 74
     0
  0
LTYPE
  5
9AC9
330
9AAA
100
AcDbSymbolTableRecord
100
AcDbLinetypeTableRecord
  2
CENTER
 70
     0
  3
____ _ ____ _ ____ _ ____ _ ____ _ ____ _ ____ 
 72
    65
 73
     4
 40
2.0
 49
1.25
 74
     0
 49
-0.25
 74
     0
 49
0.25
 74
     0
 49
-0.25
 74
     0
  0
LTYPE
  5
9ACA
330
9AAA
100
AcDbSymbolTableRecord
100
AcDbLinetypeTableRecord
  2
PHANTOM
 70
     0
  3
______  __  __  ______  __  __  ______  __  __ 
 72
    65
 73
     6
 40
2.5
 49
1.25
 74
     0
 49
-0.25
 74
     0
 49
0.25
 74
     0
 49
-0.25
 74
     0
 49
0.25
 74
     0
 49
-0.25
 74
     0
  0
ENDTAB
  0
TABLE
  2
LAYER
  5
9AA7
330
0
100
AcDbSymbolTable
 70
     8
  0
LAYER
  5
9AB5
102
{ACAD_XDICTIONARY
360
9DA6
102
}
330
9AA7
100
AcDbSymbolTableRecord
100
AcDbLayerTableRecord
  2
0
 70
     0
 62
     7
  6
CONTINUOUS
370
    -3
390
9D54
  0
LAYER
  5
9ACB
102
{ACAD_XDICTIONARY
360
9DA8
102
}
330
9AA7
100
AcDbSymbolTableRecord
100
AcDbLayerTableRecord
  2
4
 70
     0
 62
     1
  6
CENTER
370
    -3
390
9D54
  0
LAYER
  5
9ACC
102
{ACAD_XDICTIONARY
360
9DAA
102
}
330
9AA7
100
AcDbSymbolTableRecord
100
AcDbLayerTableRecord
  2
5
 70
     0
 62
     6
  6
PHANTOM
370
    -3
390
9D54
  0
LAYER
  5
9ACD
102
{ACAD_XDICTIONARY
360
9DAC
102
}
330
9AA7
100
AcDbSymbolTableRecord
100
AcDbLayerTableRecord
  2
1
 70
     0
 62
     7
  6
CONTINUOUS
370
    -3
390
9D54
  0
LAYER
  5
9ACE
102
{ACAD_XDICTIONARY
360
9DAE
102
}
330
9AA7
100
AcDbSymbolTableRecord
100
AcDbLayerTableRecord
  2
2
 70
     0
 62
     4
  6
CONTINUOUS
370
    -3
390
9D54
  0
LAYER
  5
9ACF
102
{ACAD_XDICTIONARY
360
9DB0
102
}
330
9AA7
100
AcDbSymbolTableRecord
100
AcDbLayerTableRecord
  2
3
 70
     0
 62
     2
  6
DASHED
370
    -3
390
9D54
  0
LAYER
  5
9AD0
102
{ACAD_XDICTIONARY
360
9DB2
102
}
330
9AA7
100
AcDbSymbolTableRecord
100
AcDbLayerTableRecord
  2
6
 70
     0
 62
     5
  6
CONTINUOUS
370
    -3
390
9D54
  0
LAYER
  5
9AD1
102
{ACAD_XDICTIONARY
360
9DB4
102
}
330
9AA7
100
AcDbSymbolTableRecord
100
AcDbLayerTableRecord
  2
7
 70
     0
 62
     3
  6
CONTINUOUS
370
    -3
390
9D54
  0
ENDTAB
  0
TABLE
  2
STYLE
  5
9AA8
330
0
100
AcDbSymbolTable
 70
     1
  0
STYLE
  5
9AB6
330
9AA8
100
AcDbSymbolTableRecord
100
AcDbTextStyleTableRecord
  2
STANDARD
 70
     0
 40
0.0
 41
1.0
 50
0.0
 71
     0
 42
5.0
  3
txt
  4

  0
ENDTAB
  0
TABLE
  2
VIEW
  5
9AAB
330
0
100
AcDbSymbolTable
 70
     0
  0
ENDTAB
  0
TABLE
  2
UCS
  5
9AAC
330
0
100
AcDbSymbolTable
 70
     0
  0
ENDTAB
  0
TABLE
  2
APPID
  5
9AAE
330
0
100
AcDbSymbolTable
 70
     3
  0
APPID
  5
9AB7
330
9AAE
100
AcDbSymbolTableRecord
100
AcDbRegAppTableRecord
  2
ACAD
 70
     0
  0
APPID
  5
9DC0
330
9AAE
100
AcDbSymbolTableRecord
100
AcDbRegAppTableRecord
  2
ACAD_NAV_VCDISPLAY
 70
     0
  0
APPID
  5
9DF9
330
9AAE
100
AcDbSymbolTableRecord
100
AcDbRegAppTableRecord
  2
ACAD_MLEADERVER
 70
     0
  0
ENDTAB
  0
TABLE
  2
DIMSTYLE
  5
9AAF
330
0
100
AcDbSymbolTable
 70
     1
100
AcDbDimStyleTable
 71
     0
  0
DIMSTYLE
105
9AD3
330
9AAF
100
AcDbSymbolTableRecord
100
AcDbDimStyleTableRecord
  2
STANDARD
 70
     0
 41
3.0
 42
1.0
 43
10.0
 44
1.0
 73
     0
 74
     0
 77
     3
 78
     9
140
3.2
141
0.0
147
1.0
172
     1
173
     1
284
     9
285
     9
286
     9
340
9AB6
  0
ENDTAB
  0
TABLE
  2
BLOCK_RECORD
  5
9AA6
330
0
100
AcDbSymbolTable
 70
     0
  0
BLOCK_RECORD
  5
9AC3
102
{ACAD_XDICTIONARY
360
9CF2
102
}
330
9AA6
100
AcDbSymbolTableRecord
100
AcDbBlockTableRecord
  2
*MODEL_SPACE
340
9DA2
  0
BLOCK_RECORD
  5
9ABF
102
{ACAD_XDICTIONARY
360
9CF0
102
}
330
9AA6
100
AcDbSymbolTableRecord
100
AcDbBlockTableRecord
  2
*PAPER_SPACE
340
9DA3
  0
ENDTAB
  0
ENDSEC
  0
SECTION
  2
BLOCKS
  0
BLOCK
  5
9AC4
330
9AC3
100
AcDbEntity
  8
0
100
AcDbBlockBegin
  2
*MODEL_SPACE
 70
     0
 10
0.0
 20
0.0
 30
0.0
  3
*MODEL_SPACE
  1

  0
ENDBLK
  5
9AC5
330
9AC3
100
AcDbEntity
  8
0
100
AcDbBlockEnd
  0
BLOCK
  5
9AC0
330
9ABF
100
AcDbEntity
 67
     1
  8
0
100
AcDbBlockBegin
  2
*PAPER_SPACE
 70
     0
 10
0.0
 20
0.0
 30
0.0
  3
*PAPER_SPACE
  1

  0
ENDBLK
  5
9AC1
330
9ABF
100
AcDbEntity
 67
     1
  8
0
100
AcDbBlockEnd
  0
ENDSEC
  0
SECTION
  2
ENTITIES
  0
TEXT
  5
9ADB
330
9AC3
100
AcDbEntity
  8
7
  6
Continuous
100
AcDbText
 10
10.0
 20
18.0
 30
0.0
 40
3.0
  1
TYPE No.TL-270-3
100
AcDbText
  0
TEXT
  5
9ADC
330
9AC3
100
AcDbEntity
  8
7
  6
Continuous
100
AcDbText
 10
10.0
 20
26.0
 30
0.0
 40
3.0
  1
CODE No.1783
100
AcDbText
  0
TEXT
  5
9ADD
330
9AC3
100
AcDbEntity
  8
1
  6
Continuous
100
AcDbText
 10
10.0
 20
10.0
 30
0.0
 40
1.399999999999999
  1
LAYER
100
AcDbText
  0
TEXT
  5
9ADE
330
9AC3
100
AcDbEntity
  8
1
  6
Continuous
100
AcDbText
 10
17.97951099999998
 20
10.04873699999998
 30
0.0
 40
1.399999999999999
  1
1
100
AcDbText
  0
TEXT
  5
9ADF
330
9AC3
100
AcDbEntity
  8
7
  6
Continuous
100
AcDbText
 10
29.97951099999999
 20
10.04873699999998
 30
0.0
 40
1.399999999999999
  1
7
100
AcDbText
  0
TEXT
  5
9AE0
330
9AC3
100
AcDbEntity
  8
4
  6
CENTER
100
AcDbText
 10
23.97951099999999
 20
10.04873699999998
 30
0.0
 40
1.399999999999999
  1
4
100
AcDbText
  0
TEXT
  5
9AE1
330
9AC3
100
AcDbEntity
  8
3
  6
DASHED
100
AcDbText
 10
21.979511
 20
10.04873699999998
 30
0.0
 40
1.399999999999999
  1
3
100
AcDbText
  0
TEXT
  5
9AE2
330
9AC3
100
AcDbEntity
  8
2
  6
Continuous
100
AcDbText
 10
19.97951099999998
 20
10.04873699999998
 30
0.0
 40
1.399999999999999
  1
2
100
AcDbText
  0
TEXT
  5
9AE3
330
9AC3
100
AcDbEntity
  8
6
  6
Continuous
100
AcDbText
 10
27.979511
 20
10.04873699999998
 30
0.0
 40
1.399999999999999
  1
6
100
AcDbText
  0
TEXT
  5
9AE4
330
9AC3
100
AcDbEntity
  8
5
  6
PHANTOM
100
AcDbText
 10
25.97951099999999
 20
10.04873699999998
 30
0.0
 40
1.399999999999999
  1
5
100
AcDbText
  0
LINE
  5
9AE5
330
9AC3
100
AcDbEntity
  8
1
  6
Continuous
100
AcDbLine
 10
32.51815999999998
 20
140.844764
 30
0.0
 11
32.51815999999998
 21
135.708764
 31
0.0
  0
LINE
  5
9AE6
330
9AC3
100
AcDbEntity
  8
1
  6
Continuous
100
AcDbLine
 10
18.51816
 20
140.844764
 30
0.0
 11
18.51816
 21
135.708764
 31
0.0
  0
LINE
  5
9AE7
330
9AC3
100
AcDbEntity
  8
1
  6
Continuous
100
AcDbLine
 10
32.51815999999998
 20
140.844764
 30
0.0
 11
20.41685999999999
 21
140.844764
 31
0.0
  0
LINE
  5
9AE8
330
9AC3
100
AcDbEntity
  8
1
  6
Continuous
100
AcDbLine
 10
159.9960659999998
 20
140.844764
 30
0.0
 11
162.1854599999998
 21
140.844764
 31
0.0
  0
LINE
  5
9AE9
330
9AC3
100
AcDbEntity
  8
1
  6
Continuous
100
AcDbLine
 10
160.98546
 20
103.844764
 30
0.0
 11
162.1854599999998
 21
103.844764
 31
0.0
  0
LINE
  5
9AEA
330
9AC3
100
AcDbEntity
  8
1
  6
Continuous
100
AcDbLine
 10
162.1854599999998
 20
140.844764
 30
0.0
 11
162.1854599999998
 21
103.844764
 31
0.0
  0
LINE
  5
9AEB
330
9AC3
100
AcDbEntity
  8
1
  6
Continuous
100
AcDbLine
 10
160.62246
 20
135.3447639999999
 30
0.0
 11
162.1854599999998
 21
135.3447639999999
 31
0.0
  0
LINE
  5
9AEC
330
9AC3
100
AcDbEntity
  8
1
  6
Continuous
100
AcDbLine
 10
160.98546
 20
135.3447639999999
 30
0.0
 11
160.98546
 21
103.844764
 31
0.0
  0
LINE
  5
9AED
330
9AC3
100
AcDbEntity
  8
1
  6
Continuous
100
AcDbLine
 10
32.51815999999998
 20
221.9447639999999
 30
0.0
 11
32.51815999999998
 21
221.144764
 31
0.0
  0
LINE
  5
9AEE
330
9AC3
100
AcDbEntity
  8
1
  6
Continuous
100
AcDbLine
 10
18.51816
 20
221.644764
 30
0.0
 11
18.51816
 21
221.144764
 31
0.0
  0
LINE
  5
9AEF
330
9AC3
100
AcDbEntity
  8
1
  6
Continuous
100
AcDbLine
 10
31.31816
 20
223.144764
 30
0.0
 11
19.71816
 21
223.144764
 31
0.0
  0
LINE
  5
9AF0
330
9AC3
100
AcDbEntity
  8
1
  6
Continuous
100
AcDbLine
 10
32.51815999999998
 20
215.144764
 30
0.0
 11
31.31816
 21
215.144764
 31
0.0
  0
LINE
  5
9AF1
330
9AC3
100
AcDbEntity
  8
1
  6
Continuous
100
AcDbLine
 10
31.31816
 20
221.9447639999999
 30
0.0
 11
20.21816
 21
221.9447639999999
 31
0.0
  0
LINE
  5
9AF2
330
9AC3
100
AcDbEntity
  8
1
  6
Continuous
100
AcDbLine
 10
31.31816
 20
221.9447639999999
 30
0.0
 11
31.31816
 21
221.144764
 31
0.0
  0
LINE
  5
9AF3
330
9AC3
100
AcDbEntity
  8
1
  6
Continuous
100
AcDbLine
 10
19.71816
 20
221.344764
 30
0.0
 11
19.71816
 21
221.144764
 31
0.0
  0
LINE
  5
9AF4
330
9AC3
100
AcDbEntity
  8
4
  6
CENTER
100
AcDbLine
 10
25.51816
 20
225.594764
 30
0.0
 11
25.51816
 21
209.1447639999999
 31
0.0
  0
LINE
  5
9AF5
330
9AC3
100
AcDbEntity
  8
1
  6
Continuous
100
AcDbLine
 10
19.71816
 20
215.144764
 30
0.0
 11
18.51816
 21
215.144764
 31
0.0
  0
LINE
  5
9AF6
330
9AC3
100
AcDbEntity
  8
1
  6
Continuous
100
AcDbLine
 10
33.51815999999999
 20
141.3427639999999
 30
0.0
 11
33.51815999999999
 21
104.045764
 31
0.0
  0
LINE
  5
9AF7
330
9AC3
100
AcDbEntity
  8
1
  6
Continuous
100
AcDbLine
 10
17.51816
 20
141.3427639999999
 30
0.0
 11
17.51816
 21
104.045764
 31
0.0
  0
LINE
  5
9AF8
330
9AC3
100
AcDbEntity
  8
1
  6
Continuous
100
AcDbLine
 10
32.71815999999999
 20
141.3427639999999
 30
0.0
 11
32.71815999999999
 21
135.708764
 31
0.0
  0
LINE
  5
9AF9
330
9AC3
100
AcDbEntity
  8
1
  6
Continuous
100
AcDbLine
 10
18.31815999999999
 20
141.3427639999999
 30
0.0
 11
18.31815999999999
 21
135.708764
 31
0.0
  0
LINE
  5
9AFA
330
9AC3
100
AcDbEntity
  8
1
  6
Continuous
100
AcDbLine
 10
153.52446
 20
135.553764
 30
0.0
 11
158.39146
 21
110.8467639999997
 31
0.0
  0
LINE
  5
9AFB
330
9AC3
100
AcDbEntity
  8
1
  6
Continuous
100
AcDbLine
 10
153.52446
 20
135.553764
 30
0.0
 11
154.50646
 21
135.7467639999997
 31
0.0
  0
LINE
  5
9AFC
330
9AC3
100
AcDbEntity
  8
1
  6
Continuous
100
AcDbLine
 10
154.16746
 20
137.4637639999999
 30
0.0
 11
154.50646
 21
135.7467639999997
 31
0.0
  0
LINE
  5
9AFD
330
9AC3
100
AcDbEntity
  8
1
  6
Continuous
100
AcDbLine
 10
157.05346
 20
102.116764
 30
0.0
 11
157.75546
 21
101.733764
 31
0.0
  0
LINE
  5
9AFE
330
9AC3
100
AcDbEntity
  8
1
  6
Continuous
100
AcDbLine
 10
160.7714599999999
 20
110.3037639999999
 30
0.0
 11
160.60646
 21
138.111764
 31
0.0
  0
LINE
  5
9AFF
330
9AC3
100
AcDbEntity
  8
1
  6
Continuous
100
AcDbLine
 10
157.75546
 20
101.733764
 30
0.0
 11
158.67146
 21
103.143764
 31
0.0
  0
LINE
  5
9B00
330
9AC3
100
AcDbEntity
  8
1
  6
Continuous
100
AcDbLine
 10
34.41816
 20
136.4447639999999
 30
0.0
 11
34.41816
 21
139.4447639999998
 31
0.0
  0
LINE
  5
9B01
330
9AC3
100
AcDbEntity
  8
1
  6
Continuous
100
AcDbLine
 10
18.31815999999999
 20
136.4447639999999
 30
0.0
 11
18.51816
 21
136.4447639999999
 31
0.0
  0
LINE
  5
9B02
330
9AC3
100
AcDbEntity
  8
1
  6
Continuous
100
AcDbLine
 10
18.31815999999999
 20
139.4447639999998
 30
0.0
 11
18.51816
 21
139.4447639999998
 31
0.0
  0
LINE
  5
9B03
330
9AC3
100
AcDbEntity
  8
4
  6
CENTER
100
AcDbLine
 10
85.51846000000002
 20
169.345764
 30
0.0
 11
85.51846000000002
 21
148.345764
 31
0.0
  0
LINE
  5
9B04
330
9AC3
100
AcDbEntity
  8
1
  6
Continuous
100
AcDbLine
 10
79.01846
 20
150.345764
 30
0.0
 11
92.01846000000001
 21
150.345764
 31
0.0
  0
LINE
  5
9B05
330
9AC3
100
AcDbEntity
  8
1
  6
Continuous
100
AcDbLine
 10
92.01846000000001
 20
155.3457639999997
 30
0.0
 11
92.01846000000001
 21
150.345764
 31
0.0
  0
LINE
  5
9B06
330
9AC3
100
AcDbEntity
  8
1
  6
Continuous
100
AcDbLine
 10
79.01846
 20
155.3457639999997
 30
0.0
 11
79.01846
 21
150.345764
 31
0.0
  0
LINE
  5
9B07
330
9AC3
100
AcDbEntity
  8
1
  6
Continuous
100
AcDbLine
 10
92.01846000000001
 20
155.3457639999997
 30
0.0
 11
96.96346
 21
159.9667639999998
 31
0.0
  0
LINE
  5
9B08
330
9AC3
100
AcDbEntity
  8
1
  6
Continuous
100
AcDbLine
 10
79.01846
 20
155.3457639999997
 30
0.0
 11
74.07345999999998
 21
159.9667639999998
 31
0.0
  0
LINE
  5
9B09
330
9AC3
100
AcDbEntity
  8
4
  6
CENTER
100
AcDbLine
 10
80.76846000000001
 20
164.845764
 30
0.0
 11
80.76846000000001
 21
157.845764
 31
0.0
  0
LINE
  5
9B0A
330
9AC3
100
AcDbEntity
  8
4
  6
CENTER
100
AcDbLine
 10
90.26846
 20
164.845764
 30
0.0
 11
90.26846
 21
157.845764
 31
0.0
  0
LINE
  5
9B0B
330
9AC3
100
AcDbEntity
  8
4
  6
CENTER
100
AcDbLine
 10
77.26846
 20
161.345764
 30
0.0
 11
93.76846
 21
161.345764
 31
0.0
  0
LINE
  5
9B0C
330
9AC3
100
AcDbEntity
  8
1
  6
Continuous
100
AcDbLine
 10
81.01846
 20
154.845764
 30
0.0
 11
90.01846
 21
154.845764
 31
0.0
  0
LINE
  5
9B0D
330
9AC3
100
AcDbEntity
  8
1
  6
Continuous
100
AcDbLine
 10
81.01846
 20
154.3847639999999
 30
0.0
 11
90.01846
 21
154.3847639999999
 31
0.0
  0
LINE
  5
9B0E
330
9AC3
100
AcDbEntity
  8
4
  6
CENTER
100
AcDbLine
 10
159.98546
 20
130.844764
 30
0.0
 11
163.18546
 21
130.844764
 31
0.0
  0
LINE
  5
9B0F
330
9AC3
100
AcDbEntity
  8
1
  6
Continuous
100
AcDbLine
 10
273.18146
 20
140.844764
 30
0.0
 11
273.18146
 21
135.3447639999999
 31
0.0
  0
LINE
  5
9B10
330
9AC3
100
AcDbEntity
  8
1
  6
Continuous
100
AcDbLine
 10
259.18146
 20
140.844764
 30
0.0
 11
259.18146
 21
135.3447639999999
 31
0.0
  0
LINE
  5
9B11
330
9AC3
100
AcDbEntity
  8
1
  6
Continuous
100
AcDbLine
 10
273.18146
 20
140.844764
 30
0.0
 11
259.18146
 21
140.844764
 31
0.0
  0
LINE
  5
9B12
330
9AC3
100
AcDbEntity
  8
1
  6
Continuous
100
AcDbLine
 10
273.18146
 20
135.3447639999999
 30
0.0
 11
271.18146
 21
135.3447639999999
 31
0.0
  0
LINE
  5
9B13
330
9AC3
100
AcDbEntity
  8
1
  6
Continuous
100
AcDbLine
 10
271.18146
 20
135.3447639999999
 30
0.0
 11
271.18146
 21
133.244764
 31
0.0
  0
LINE
  5
9B14
330
9AC3
100
AcDbEntity
  8
1
  6
Continuous
100
AcDbLine
 10
261.18146
 20
135.3447639999999
 30
0.0
 11
261.18146
 21
133.244764
 31
0.0
  0
LINE
  5
9B15
330
9AC3
100
AcDbEntity
  8
1
  6
Continuous
100
AcDbLine
 10
272.48146
 20
133.244764
 30
0.0
 11
271.18146
 21
133.244764
 31
0.0
  0
LINE
  5
9B16
330
9AC3
100
AcDbEntity
  8
1
  6
Continuous
100
AcDbLine
 10
261.18146
 20
135.3447639999999
 30
0.0
 11
259.18146
 21
135.3447639999999
 31
0.0
  0
LINE
  5
9B17
330
9AC3
100
AcDbEntity
  8
1
  6
Continuous
100
AcDbLine
 10
261.18146
 20
133.244764
 30
0.0
 11
259.88146
 21
133.244764
 31
0.0
  0
LINE
  5
9B18
330
9AC3
100
AcDbEntity
  8
1
  6
Continuous
100
AcDbLine
 10
259.88146
 20
126.8447639999999
 30
0.0
 11
266.7814599999999
 21
126.8447639999999
 31
0.0
  0
LINE
  5
9B19
330
9AC3
100
AcDbEntity
  8
1
  6
Continuous
100
AcDbLine
 10
259.88146
 20
110.8447639999997
 30
0.0
 11
266.7814599999999
 21
110.8447639999997
 31
0.0
  0
LINE
  5
9B1A
330
9AC3
100
AcDbEntity
  8
1
  6
Continuous
100
AcDbLine
 10
274.18146
 20
141.3427639999999
 30
0.0
 11
274.18146
 21
104.045764
 31
0.0
  0
LINE
  5
9B1B
330
9AC3
100
AcDbEntity
  8
1
  6
Continuous
100
AcDbLine
 10
258.18146
 20
141.3427639999999
 30
0.0
 11
258.18146
 21
104.045764
 31
0.0
  0
LINE
  5
9B1C
330
9AC3
100
AcDbEntity
  8
1
  6
Continuous
100
AcDbLine
 10
273.38146
 20
141.3427639999999
 30
0.0
 11
273.38146
 21
103.574764
 31
0.0
  0
LINE
  5
9B1D
330
9AC3
100
AcDbEntity
  8
1
  6
Continuous
100
AcDbLine
 10
258.98146
 20
141.3427639999999
 30
0.0
 11
258.98146
 21
103.574764
 31
0.0
  0
LINE
  5
9B1E
330
9AC3
100
AcDbEntity
  8
4
  6
CENTER
100
AcDbLine
 10
336.18146
 20
169.345764
 30
0.0
 11
336.18146
 21
148.345764
 31
0.0
  0
LINE
  5
9B1F
330
9AC3
100
AcDbEntity
  8
1
  6
Continuous
100
AcDbLine
 10
329.68146
 20
150.345764
 30
0.0
 11
342.68146
 21
150.345764
 31
0.0
  0
LINE
  5
9B20
330
9AC3
100
AcDbEntity
  8
1
  6
Continuous
100
AcDbLine
 10
342.68146
 20
155.3457639999997
 30
0.0
 11
342.68146
 21
150.345764
 31
0.0
  0
LINE
  5
9B21
330
9AC3
100
AcDbEntity
  8
1
  6
Continuous
100
AcDbLine
 10
329.68146
 20
155.3457639999997
 30
0.0
 11
329.68146
 21
150.345764
 31
0.0
  0
LINE
  5
9B22
330
9AC3
100
AcDbEntity
  8
1
  6
Continuous
100
AcDbLine
 10
342.68146
 20
155.3457639999997
 30
0.0
 11
347.62646
 21
159.9667639999998
 31
0.0
  0
LINE
  5
9B23
330
9AC3
100
AcDbEntity
  8
1
  6
Continuous
100
AcDbLine
 10
329.68146
 20
155.3457639999997
 30
0.0
 11
324.73646
 21
159.9667639999998
 31
0.0
  0
LINE
  5
9B24
330
9AC3
100
AcDbEntity
  8
4
  6
CENTER
100
AcDbLine
 10
331.43146
 20
164.845764
 30
0.0
 11
331.43146
 21
157.845764
 31
0.0
  0
LINE
  5
9B25
330
9AC3
100
AcDbEntity
  8
4
  6
CENTER
100
AcDbLine
 10
340.93146
 20
164.845764
 30
0.0
 11
340.93146
 21
157.845764
 31
0.0
  0
LINE
  5
9B26
330
9AC3
100
AcDbEntity
  8
4
  6
CENTER
100
AcDbLine
 10
327.93146
 20
161.345764
 30
0.0
 11
344.43146
 21
161.345764
 31
0.0
  0
LINE
  5
9B27
330
9AC3
100
AcDbEntity
  8
4
  6
CENTER
100
AcDbLine
 10
266.18146
 20
156.2037639999998
 30
0.0
 11
266.18146
 21
99.73176399999999
 31
0.0
  0
LINE
  5
9B28
330
9AC3
100
AcDbEntity
  8
1
  6
Continuous
100
AcDbLine
 10
33.51815999999999
 20
139.4447639999998
 30
0.0
 11
34.41816
 21
139.4447639999998
 31
0.0
  0
LINE
  5
9B29
330
9AC3
100
AcDbEntity
  8
1
  6
Continuous
100
AcDbLine
 10
33.51815999999999
 20
136.4447639999999
 30
0.0
 11
34.41816
 21
136.4447639999999
 31
0.0
  0
LINE
  5
9B2A
330
9AC3
100
AcDbEntity
  8
1
  6
Continuous
100
AcDbLine
 10
31.02716
 20
139.4447639999998
 30
0.0
 11
31.31816
 21
139.4447639999998
 31
0.0
  0
LINE
  5
9B2B
330
9AC3
100
AcDbEntity
  8
1
  6
Continuous
100
AcDbLine
 10
32.51815999999998
 20
136.4447639999999
 30
0.0
 11
32.71815999999999
 21
136.4447639999999
 31
0.0
  0
LINE
  5
9B2C
330
9AC3
100
AcDbEntity
  8
1
  6
Continuous
100
AcDbLine
 10
19.71816
 20
139.4447639999998
 30
0.0
 11
20.36516
 21
139.4447639999998
 31
0.0
  0
LINE
  5
9B2D
330
9AC3
100
AcDbEntity
  8
4
  6
CENTER
100
AcDbLine
 10
85.50245999999999
 20
213.644764
 30
0.0
 11
85.50245999999999
 21
225.144764
 31
0.0
  0
LINE
  5
9B2E
330
9AC3
100
AcDbEntity
  8
1
  6
Continuous
100
AcDbLine
 10
97.50246000000002
 20
223.144764
 30
0.0
 11
73.50246
 21
223.144764
 31
0.0
  0
LINE
  5
9B2F
330
9AC3
100
AcDbEntity
  8
1
  6
Continuous
100
AcDbLine
 10
97.50246000000002
 20
221.644764
 30
0.0
 11
73.50246
 21
221.644764
 31
0.0
  0
LINE
  5
9B30
330
9AC3
100
AcDbEntity
  8
1
  6
Continuous
100
AcDbLine
 10
92.00245999999998
 20
215.644764
 30
0.0
 11
79.00246
 21
215.644764
 31
0.0
  0
LINE
  5
9B31
330
9AC3
100
AcDbEntity
  8
1
  6
Continuous
100
AcDbLine
 10
73.50246
 20
221.644764
 30
0.0
 11
73.50246
 21
223.144764
 31
0.0
  0
LINE
  5
9B32
330
9AC3
100
AcDbEntity
  8
1
  6
Continuous
100
AcDbLine
 10
97.50246000000002
 20
221.644764
 30
0.0
 11
97.50246000000002
 21
223.144764
 31
0.0
  0
LINE
  5
9B33
330
9AC3
100
AcDbEntity
  8
1
  6
Continuous
100
AcDbLine
 10
79.00246
 20
215.644764
 30
0.0
 11
79.00246
 21
221.644764
 31
0.0
  0
LINE
  5
9B34
330
9AC3
100
AcDbEntity
  8
1
  6
Continuous
100
AcDbLine
 10
92.00245999999998
 20
215.644764
 30
0.0
 11
92.00245999999998
 21
221.644764
 31
0.0
  0
LINE
  5
9B35
330
9AC3
100
AcDbEntity
  8
1
  6
Continuous
100
AcDbLine
 10
92.00245999999998
 20
217.0727639999999
 30
0.0
 11
79.00246
 21
217.0727639999999
 31
0.0
  0
LINE
  5
9B36
330
9AC3
100
AcDbEntity
  8
1
  6
Continuous
100
AcDbLine
 10
19.41816
 20
141.7947639999999
 30
0.0
 11
18.51816
 21
141.7947639999999
 31
0.0
  0
LINE
  5
9B37
330
9AC3
100
AcDbEntity
  8
1
  6
Continuous
100
AcDbLine
 10
19.41816
 20
141.094764
 30
0.0
 11
18.51816
 21
141.094764
 31
0.0
  0
LINE
  5
9B38
330
9AC3
100
AcDbEntity
  8
1
  6
Continuous
100
AcDbLine
 10
18.51816
 20
141.7947639999999
 30
0.0
 11
18.51816
 21
141.094764
 31
0.0
  0
LINE
  5
9B39
330
9AC3
100
AcDbEntity
  8
4
  6
CENTER
100
AcDbLine
 10
25.51816
 20
156.2037639999998
 30
0.0
 11
25.51816
 21
99.73176399999999
 31
0.0
  0
LINE
  5
9B3A
330
9AC3
100
AcDbEntity
  8
1
  6
Continuous
100
AcDbLine
 10
30.49815999999999
 20
136.4447639999999
 30
0.0
 11
31.31816
 21
136.4447639999999
 31
0.0
  0
LINE
  5
9B3B
330
9AC3
100
AcDbEntity
  8
4
  6
CENTER
100
AcDbLine
 10
277.18146
 20
137.9447639999999
 30
0.0
 11
255.28146
 21
137.9447639999999
 31
0.0
  0
LINE
  5
9B3C
330
9AC3
100
AcDbEntity
  8
1
  6
Continuous
100
AcDbLine
 10
260.2914599999999
 20
122.754764
 30
0.0
 11
260.3464599999999
 21
126.8447639999999
 31
0.0
  0
LINE
  5
9B3D
330
9AC3
100
AcDbEntity
  8
1
  6
Continuous
100
AcDbLine
 10
273.18146
 20
141.7947639999999
 30
0.0
 11
273.18146
 21
141.094764
 31
0.0
  0
LINE
  5
9B3E
330
9AC3
100
AcDbEntity
  8
1
  6
Continuous
100
AcDbLine
 10
260.99146
 20
122.7447639999999
 30
0.0
 11
261.04646
 21
126.8447639999999
 31
0.0
  0
LINE
  5
9B3F
330
9AC3
100
AcDbEntity
  8
1
  6
Continuous
100
AcDbLine
 10
272.48146
 20
141.094764
 30
0.0
 11
273.18146
 21
141.094764
 31
0.0
  0
LINE
  5
9B40
330
9AC3
100
AcDbEntity
  8
1
  6
Continuous
100
AcDbLine
 10
272.48146
 20
141.7947639999999
 30
0.0
 11
273.18146
 21
141.7947639999999
 31
0.0
  0
LINE
  5
9B41
330
9AC3
100
AcDbEntity
  8
1
  6
Continuous
100
AcDbLine
 10
260.2914599999999
 20
122.754764
 30
0.0
 11
260.99146
 21
122.7447639999999
 31
0.0
  0
LINE
  5
9B42
330
9AC3
100
AcDbEntity
  8
1
  6
Continuous
100
AcDbLine
 10
261.1324599999999
 20
133.244764
 30
0.0
 11
261.1614599999999
 21
135.3447639999999
 31
0.0
  0
LINE
  5
9B43
330
9AC3
100
AcDbEntity
  8
1
  6
Continuous
100
AcDbLine
 10
260.4324599999998
 20
133.244764
 30
0.0
 11
260.46146
 21
135.3447639999999
 31
0.0
  0
LINE
  5
9B44
330
9AC3
100
AcDbEntity
  8
1
  6
Continuous
100
AcDbLine
 10
257.28146
 20
136.4447639999999
 30
0.0
 11
257.28146
 21
139.4447639999998
 31
0.0
  0
LINE
  5
9B45
330
9AC3
100
AcDbEntity
  8
1
  6
Continuous
100
AcDbLine
 10
273.38146
 20
136.4447639999999
 30
0.0
 11
273.18146
 21
136.4447639999999
 31
0.0
  0
LINE
  5
9B46
330
9AC3
100
AcDbEntity
  8
1
  6
Continuous
100
AcDbLine
 10
273.38146
 20
139.4447639999998
 30
0.0
 11
273.18146
 21
139.4447639999998
 31
0.0
  0
LINE
  5
9B47
330
9AC3
100
AcDbEntity
  8
1
  6
Continuous
100
AcDbLine
 10
258.18146
 20
136.4447639999999
 30
0.0
 11
257.28146
 21
136.4447639999999
 31
0.0
  0
LINE
  5
9B48
330
9AC3
100
AcDbEntity
  8
1
  6
Continuous
100
AcDbLine
 10
258.18146
 20
139.4447639999998
 30
0.0
 11
257.28146
 21
139.4447639999998
 31
0.0
  0
LINE
  5
9B49
330
9AC3
100
AcDbEntity
  8
1
  6
Continuous
100
AcDbLine
 10
259.18146
 20
139.4447639999998
 30
0.0
 11
258.98146
 21
139.4447639999998
 31
0.0
  0
LINE
  5
9B4A
330
9AC3
100
AcDbEntity
  8
1
  6
Continuous
100
AcDbLine
 10
259.18146
 20
136.4447639999999
 30
0.0
 11
258.98146
 21
136.4447639999999
 31
0.0
  0
LINE
  5
9B4B
330
9AC3
100
AcDbEntity
  8
1
  6
Continuous
100
AcDbLine
 10
33.51815999999999
 20
215.094764
 30
0.0
 11
33.51815999999999
 21
218.1002859999999
 31
0.0
  0
LINE
  5
9B4C
330
9AC3
100
AcDbEntity
  8
1
  6
Continuous
100
AcDbLine
 10
17.51816
 20
215.094764
 30
0.0
 11
17.51816
 21
218.1002859999999
 31
0.0
  0
LINE
  5
9B4D
330
9AC3
100
AcDbEntity
  8
1
  6
Continuous
100
AcDbLine
 10
18.31815999999999
 20
215.094764
 30
0.0
 11
18.31815999999999
 21
218.144764
 31
0.0
  0
LINE
  5
9B4E
330
9AC3
100
AcDbEntity
  8
1
  6
Continuous
100
AcDbLine
 10
32.71815999999999
 20
215.094764
 30
0.0
 11
32.71815999999999
 21
218.144764
 31
0.0
  0
LINE
  5
9B4F
330
9AC3
100
AcDbEntity
  8
1
  6
Continuous
100
AcDbLine
 10
34.41816
 20
216.844764
 30
0.0
 11
34.41816
 21
218.026071
 31
0.0
  0
LINE
  5
9B50
330
9AC3
100
AcDbEntity
  8
4
  6
CENTER
100
AcDbLine
 10
14.51815999999998
 20
218.344764
 30
0.0
 11
36.41816
 21
218.344764
 31
0.0
  0
LINE
  5
9B51
330
9AC3
100
AcDbEntity
  8
1
  6
Continuous
100
AcDbLine
 10
18.31815999999999
 20
216.844764
 30
0.0
 11
18.51816
 21
216.844764
 31
0.0
  0
LINE
  5
9B52
330
9AC3
100
AcDbEntity
  8
1
  6
Continuous
100
AcDbLine
 10
33.51815999999999
 20
216.844764
 30
0.0
 11
34.41816
 21
216.844764
 31
0.0
  0
LINE
  5
9B53
330
9AC3
100
AcDbEntity
  8
1
  6
Continuous
100
AcDbLine
 10
32.51815999999998
 20
216.844764
 30
0.0
 11
32.71815999999999
 21
216.844764
 31
0.0
  0
LINE
  5
9B54
330
9AC3
100
AcDbEntity
  8
1
  6
Continuous
100
AcDbLine
 10
19.71816
 20
135.708764
 30
0.0
 11
19.71816
 21
140.7947639999999
 31
0.0
  0
LINE
  5
9B55
330
9AC3
100
AcDbEntity
  8
1
  6
Continuous
100
AcDbLine
 10
31.31816
 20
135.708764
 30
0.0
 11
31.31816
 21
140.844764
 31
0.0
  0
LINE
  5
9B56
330
9AC3
100
AcDbEntity
  8
1
  6
Continuous
100
AcDbLine
 10
19.72345999999999
 20
135.8057639999999
 30
0.0
 11
20.49926
 21
140.2057639999999
 31
0.0
  0
LINE
  5
9B57
330
9AC3
100
AcDbEntity
  8
1
  6
Continuous
100
AcDbLine
 10
20.41716
 20
135.708764
 30
0.0
 11
21.21005999999999
 21
140.2057639999999
 31
0.0
  0
LINE
  5
9B58
330
9AC3
100
AcDbEntity
  8
1
  6
Continuous
100
AcDbLine
 10
21.12796
 20
135.708764
 30
0.0
 11
21.92086
 21
140.2057639999999
 31
0.0
  0
LINE
  5
9B59
330
9AC3
100
AcDbEntity
  8
1
  6
Continuous
100
AcDbLine
 10
21.83876
 20
135.708764
 30
0.0
 11
22.63166
 21
140.2057639999999
 31
0.0
  0
LINE
  5
9B5A
330
9AC3
100
AcDbEntity
  8
1
  6
Continuous
100
AcDbLine
 10
22.54955999999999
 20
135.708764
 30
0.0
 11
23.34245999999999
 21
140.2057639999999
 31
0.0
  0
LINE
  5
9B5B
330
9AC3
100
AcDbEntity
  8
1
  6
Continuous
100
AcDbLine
 10
23.26026
 20
135.708764
 30
0.0
 11
24.05326
 21
140.2057639999999
 31
0.0
  0
LINE
  5
9B5C
330
9AC3
100
AcDbEntity
  8
1
  6
Continuous
100
AcDbLine
 10
23.97106
 20
135.708764
 30
0.0
 11
24.76406
 21
140.2057639999999
 31
0.0
  0
LINE
  5
9B5D
330
9AC3
100
AcDbEntity
  8
1
  6
Continuous
100
AcDbLine
 10
24.68186
 20
135.708764
 30
0.0
 11
25.47486
 21
140.2057639999999
 31
0.0
  0
LINE
  5
9B5E
330
9AC3
100
AcDbEntity
  8
1
  6
Continuous
100
AcDbLine
 10
25.39266
 20
135.708764
 30
0.0
 11
26.18565999999999
 21
140.2057639999999
 31
0.0
  0
LINE
  5
9B5F
330
9AC3
100
AcDbEntity
  8
1
  6
Continuous
100
AcDbLine
 10
26.10345999999999
 20
135.708764
 30
0.0
 11
26.89645999999999
 21
140.2057639999999
 31
0.0
  0
LINE
  5
9B60
330
9AC3
100
AcDbEntity
  8
1
  6
Continuous
100
AcDbLine
 10
26.81426
 20
135.708764
 30
0.0
 11
27.60726
 21
140.2057639999999
 31
0.0
  0
LINE
  5
9B61
330
9AC3
100
AcDbEntity
  8
1
  6
Continuous
100
AcDbLine
 10
27.52505999999999
 20
135.708764
 30
0.0
 11
28.31806
 21
140.2057639999999
 31
0.0
  0
LINE
  5
9B62
330
9AC3
100
AcDbEntity
  8
1
  6
Continuous
100
AcDbLine
 10
28.23586
 20
135.708764
 30
0.0
 11
29.02886
 21
140.2057639999999
 31
0.0
  0
LINE
  5
9B63
330
9AC3
100
AcDbEntity
  8
1
  6
Continuous
100
AcDbLine
 10
28.94665999999999
 20
135.708764
 30
0.0
 11
29.73965999999998
 21
140.2057639999999
 31
0.0
  0
LINE
  5
9B64
330
9AC3
100
AcDbEntity
  8
1
  6
Continuous
100
AcDbLine
 10
29.65745999999999
 20
135.708764
 30
0.0
 11
30.45045999999999
 21
140.2057639999999
 31
0.0
  0
LINE
  5
9B65
330
9AC3
100
AcDbEntity
  8
1
  6
Continuous
100
AcDbLine
 10
30.36826
 20
135.708764
 30
0.0
 11
31.13986
 21
140.0837639999997
 31
0.0
  0
LINE
  5
9B66
330
9AC3
100
AcDbEntity
  8
1
  6
Continuous
100
AcDbLine
 10
31.22175999999999
 20
135.708764
 30
0.0
 11
31.20905999999999
 21
136.4447639999999
 31
0.0
  0
LINE
  5
9B67
330
9AC3
100
AcDbEntity
  8
1
  6
Continuous
100
AcDbLine
 10
30.52165999999999
 20
135.708764
 30
0.0
 11
30.50895999999999
 21
136.4447639999999
 31
0.0
  0
LINE
  5
9B68
330
9AC3
100
AcDbEntity
  8
1
  6
Continuous
100
AcDbLine
 10
20.41816
 20
139.7457639999997
 30
0.0
 11
20.41816
 21
140.7947639999999
 31
0.0
  0
LINE
  5
9B69
330
9AC3
100
AcDbEntity
  8
1
  6
Continuous
100
AcDbLine
 10
31.15725999999999
 20
139.4447639999998
 30
0.0
 11
31.14516
 21
140.1507639999999
 31
0.0
  0
LINE
  5
9B6A
330
9AC3
100
AcDbEntity
  8
1
  6
Continuous
100
AcDbLine
 10
32.51815999999998
 20
139.4447639999998
 30
0.0
 11
32.71815999999999
 21
139.4447639999998
 31
0.0
  0
LINE
  5
9B6B
330
9AC3
100
AcDbEntity
  8
1
  6
Continuous
100
AcDbLine
 10
19.71396
 20
140.844764
 30
0.0
 11
18.51816
 21
140.844764
 31
0.0
  0
LINE
  5
9B6C
330
9AC3
100
AcDbEntity
  8
4
  6
CENTER
100
AcDbLine
 10
36.41816
 20
137.9447639999999
 30
0.0
 11
14.51815999999998
 21
137.9447639999999
 31
0.0
  0
LINE
  5
9B6D
330
9AC3
100
AcDbEntity
  8
1
  6
Continuous
100
AcDbLine
 10
30.36405999999999
 20
216.083764
 30
0.0
 11
30.727449
 21
218.144764
 31
0.0
  0
LINE
  5
9B6E
330
9AC3
100
AcDbEntity
  8
1
  6
Continuous
100
AcDbLine
 10
30.49815999999999
 20
216.844764
 30
0.0
 11
31.31816
 21
216.844764
 31
0.0
  0
LINE
  5
9B6F
330
9AC3
100
AcDbEntity
  8
1
  6
Continuous
100
AcDbLine
 10
29.67465999999999
 20
216.205764
 30
0.0
 11
30.01664299999999
 21
218.144764
 31
0.0
  0
LINE
  5
9B70
330
9AC3
100
AcDbEntity
  8
1
  6
Continuous
100
AcDbLine
 10
28.96385999999999
 20
216.205764
 30
0.0
 11
29.30584299999999
 21
218.144764
 31
0.0
  0
LINE
  5
9B71
330
9AC3
100
AcDbEntity
  8
1
  6
Continuous
100
AcDbLine
 10
28.25305999999999
 20
216.205764
 30
0.0
 11
28.595043
 21
218.144764
 31
0.0
  0
LINE
  5
9B72
330
9AC3
100
AcDbEntity
  8
1
  6
Continuous
100
AcDbLine
 10
27.54226
 20
216.205764
 30
0.0
 11
27.88424299999999
 21
218.144764
 31
0.0
  0
LINE
  5
9B73
330
9AC3
100
AcDbEntity
  8
1
  6
Continuous
100
AcDbLine
 10
26.83145999999998
 20
216.205764
 30
0.0
 11
27.173443
 21
218.144764
 31
0.0
  0
LINE
  5
9B74
330
9AC3
100
AcDbEntity
  8
1
  6
Continuous
100
AcDbLine
 10
26.12066
 20
216.205764
 30
0.0
 11
26.462643
 21
218.144764
 31
0.0
  0
LINE
  5
9B75
330
9AC3
100
AcDbEntity
  8
1
  6
Continuous
100
AcDbLine
 10
25.40986
 20
216.205764
 30
0.0
 11
25.751843
 21
218.144764
 31
0.0
  0
LINE
  5
9B76
330
9AC3
100
AcDbEntity
  8
1
  6
Continuous
100
AcDbLine
 10
24.69905999999999
 20
216.205764
 30
0.0
 11
25.04104299999999
 21
218.144764
 31
0.0
  0
LINE
  5
9B77
330
9AC3
100
AcDbEntity
  8
1
  6
Continuous
100
AcDbLine
 10
23.98826
 20
216.205764
 30
0.0
 11
24.330243
 21
218.144764
 31
0.0
  0
LINE
  5
9B78
330
9AC3
100
AcDbEntity
  8
1
  6
Continuous
100
AcDbLine
 10
23.27746
 20
216.205764
 30
0.0
 11
23.619443
 21
218.144764
 31
0.0
  0
LINE
  5
9B79
330
9AC3
100
AcDbEntity
  8
1
  6
Continuous
100
AcDbLine
 10
22.56666
 20
216.205764
 30
0.0
 11
22.90864299999999
 21
218.144764
 31
0.0
  0
LINE
  5
9B7A
330
9AC3
100
AcDbEntity
  8
1
  6
Continuous
100
AcDbLine
 10
21.85586
 20
216.205764
 30
0.0
 11
22.197843
 21
218.144764
 31
0.0
  0
LINE
  5
9B7B
330
9AC3
100
AcDbEntity
  8
1
  6
Continuous
100
AcDbLine
 10
21.14505999999998
 20
216.205764
 30
0.0
 11
21.48704299999999
 21
218.144764
 31
0.0
  0
LINE
  5
9B7C
330
9AC3
100
AcDbEntity
  8
1
  6
Continuous
100
AcDbLine
 10
18.51816
 20
222.344764
 30
0.0
 11
18.51816
 21
221.644764
 31
0.0
  0
LINE
  5
9B7D
330
9AC3
100
AcDbEntity
  8
1
  6
Continuous
100
AcDbLine
 10
19.41816
 20
221.644764
 30
0.0
 11
18.51816
 21
221.644764
 31
0.0
  0
LINE
  5
9B7E
330
9AC3
100
AcDbEntity
  8
1
  6
Continuous
100
AcDbLine
 10
19.41816
 20
222.344764
 30
0.0
 11
18.51816
 21
222.344764
 31
0.0
  0
LINE
  5
9B7F
330
9AC3
100
AcDbEntity
  8
1
  6
Continuous
100
AcDbLine
 10
19.72345999999999
 20
216.205764
 30
0.0
 11
20.06544299999998
 21
218.144764
 31
0.0
  0
LINE
  5
9B80
330
9AC3
100
AcDbEntity
  8
1
  6
Continuous
100
AcDbLine
 10
20.43425999999998
 20
216.205764
 30
0.0
 11
20.776243
 21
218.144764
 31
0.0
  0
LINE
  5
9B81
330
9AC3
100
AcDbEntity
  8
1
  6
Continuous
100
AcDbLine
 10
20.41816
 20
221.144764
 30
0.0
 11
20.41816
 21
221.344764
 31
0.0
  0
LINE
  5
9B82
330
9AC3
100
AcDbEntity
  8
1
  6
Continuous
100
AcDbLine
 10
19.71816
 20
216.844764
 30
0.0
 11
19.83615999999998
 21
216.844764
 31
0.0
  0
LINE
  5
9B83
330
9AC3
100
AcDbEntity
  8
1
  6
Continuous
100
AcDbLine
 10
32.51815999999998
 20
44.34496399999999
 30
0.0
 11
32.51815999999998
 21
45.472764
 31
0.0
  0
LINE
  5
9B84
330
9AC3
100
AcDbEntity
  8
1
  6
Continuous
100
AcDbLine
 10
19.21816
 20
43.144964
 30
0.0
 11
31.81815999999999
 21
43.144964
 31
0.0
  0
LINE
  5
9B85
330
9AC3
100
AcDbEntity
  8
1
  6
Continuous
100
AcDbLine
 10
19.21816
 20
44.34496399999999
 30
0.0
 11
31.81815999999999
 21
44.34496399999999
 31
0.0
  0
LINE
  5
9B86
330
9AC3
100
AcDbEntity
  8
1
  6
Continuous
100
AcDbLine
 10
19.71816
 20
44.34496399999999
 30
0.0
 11
19.71816
 21
45.472764
 31
0.0
  0
LINE
  5
9B87
330
9AC3
100
AcDbEntity
  8
1
  6
Continuous
100
AcDbLine
 10
31.31816
 20
44.34496399999999
 30
0.0
 11
31.31816
 21
45.472764
 31
0.0
  0
LINE
  5
9B88
330
9AC3
100
AcDbEntity
  8
4
  6
CENTER
100
AcDbLine
 10
25.51816
 20
41.144964
 30
0.0
 11
25.51816
 21
57.144964
 31
0.0
  0
LINE
  5
9B89
330
9AC3
100
AcDbEntity
  8
1
  6
Continuous
100
AcDbLine
 10
16.61815999999999
 20
49.444964
 30
0.0
 11
16.61815999999999
 21
48.472764
 31
0.0
  0
LINE
  5
9B8A
330
9AC3
100
AcDbEntity
  8
4
  6
CENTER
100
AcDbLine
 10
36.51815999999997
 20
48.394964
 30
0.0
 11
14.61816
 21
48.394964
 31
0.0
  0
LINE
  5
9B8B
330
9AC3
100
AcDbEntity
  8
1
  6
Continuous
100
AcDbLine
 10
18.31815999999999
 20
45.583564
 30
0.0
 11
18.31815999999999
 21
44.72986399999999
 31
0.0
  0
LINE
  5
9B8C
330
9AC3
100
AcDbEntity
  8
1
  6
Continuous
100
AcDbLine
 10
32.71815999999999
 20
45.583564
 30
0.0
 11
32.71815999999999
 21
44.72986399999999
 31
0.0
  0
LINE
  5
9B8D
330
9AC3
100
AcDbEntity
  8
1
  6
Continuous
100
AcDbLine
 10
17.51816
 20
51.02086400000001
 30
0.0
 11
17.51816
 21
44.72986399999999
 31
0.0
  0
LINE
  5
9B8E
330
9AC3
100
AcDbEntity
  8
1
  6
Continuous
100
AcDbLine
 10
33.51815999999999
 20
51.02086400000001
 30
0.0
 11
33.51815999999999
 21
44.72986399999999
 31
0.0
  0
LINE
  5
9B8F
330
9AC3
100
AcDbEntity
  8
1
  6
Continuous
100
AcDbLine
 10
17.51816
 20
49.444964
 30
0.0
 11
16.61815999999999
 21
49.444964
 31
0.0
  0
LINE
  5
9B90
330
9AC3
100
AcDbEntity
  8
1
  6
Continuous
100
AcDbLine
 10
20.41816
 20
45.472764
 30
0.0
 11
20.41816
 21
44.944964
 31
0.0
  0
LINE
  5
9B91
330
9AC3
100
AcDbEntity
  8
1
  6
Continuous
100
AcDbLine
 10
18.586789
 20
43.944964
 30
0.0
 11
18.51816
 21
43.944964
 31
0.0
  0
LINE
  5
9B92
330
9AC3
100
AcDbEntity
  8
1
  6
Continuous
100
AcDbLine
 10
18.51816
 20
43.944964
 30
0.0
 11
18.51816
 21
45.472764
 31
0.0
  0
LINE
  5
9B93
330
9AC3
100
AcDbEntity
  8
1
  6
Continuous
100
AcDbLine
 10
28.76815999999999
 20
46.083564
 30
0.0
 11
28.76815999999999
 21
45.472764
 31
0.0
  0
LINE
  5
9B94
330
9AC3
100
AcDbEntity
  8
1
  6
Continuous
100
AcDbLine
 10
22.26816
 20
46.055564
 30
0.0
 11
22.26816
 21
45.472764
 31
0.0
  0
LINE
  5
9B95
330
9AC3
100
AcDbEntity
  8
4
  6
CENTER
100
AcDbLine
 10
159.98546
 20
107.8447639999997
 30
0.0
 11
163.18546
 21
107.8447639999997
 31
0.0
  0
LINE
  5
9B96
330
9AC3
100
AcDbEntity
  8
1
  6
Continuous
100
AcDbLine
 10
32.71815999999999
 20
215.2827639999999
 30
0.0
 11
32.51815999999998
 21
215.2827639999999
 31
0.0
  0
LINE
  5
9B97
330
9AC3
100
AcDbEntity
  8
1
  6
Continuous
100
AcDbLine
 10
31.31816
 20
215.2827639999999
 30
0.0
 11
19.71816
 21
215.2827639999999
 31
0.0
  0
LINE
  5
9B98
330
9AC3
100
AcDbEntity
  8
1
  6
Continuous
100
AcDbLine
 10
18.51816
 20
215.2827639999999
 30
0.0
 11
18.31815999999999
 21
215.2827639999999
 31
0.0
  0
LINE
  5
9B99
330
9AC3
100
AcDbEntity
  8
1
  6
Continuous
100
AcDbLine
 10
18.31815999999999
 20
215.094764
 30
0.0
 11
17.51816
 21
215.094764
 31
0.0
  0
LINE
  5
9B9A
330
9AC3
100
AcDbEntity
  8
1
  6
Continuous
100
AcDbLine
 10
33.51815999999999
 20
215.094764
 30
0.0
 11
32.71815999999999
 21
215.094764
 31
0.0
  0
LINE
  5
9B9B
330
9AC3
100
AcDbEntity
  8
1
  6
Continuous
100
AcDbLine
 10
18.31815999999999
 20
51.820864
 30
0.0
 11
24.91816
 21
51.820864
 31
0.0
  0
LINE
  5
9B9C
330
9AC3
100
AcDbEntity
  8
1
  6
Continuous
100
AcDbLine
 10
17.51816
 20
44.72986399999999
 30
0.0
 11
18.31815999999999
 21
44.72986399999999
 31
0.0
  0
LINE
  5
9B9D
330
9AC3
100
AcDbEntity
  8
1
  6
Continuous
100
AcDbLine
 10
32.71815999999999
 20
44.72986399999999
 30
0.0
 11
33.51815999999999
 21
44.72986399999999
 31
0.0
  0
LINE
  5
9B9E
330
9AC3
100
AcDbEntity
  8
1
  6
Continuous
100
AcDbLine
 10
32.71815999999999
 20
214.4687639999999
 30
0.0
 11
18.31815999999999
 21
214.4687639999999
 31
0.0
  0
LINE
  5
9B9F
330
9AC3
100
AcDbEntity
  8
1
  6
Continuous
100
AcDbLine
 10
33.51815999999999
 20
221.552764
 30
0.0
 11
32.71815999999999
 21
221.552764
 31
0.0
  0
LINE
  5
9BA0
330
9AC3
100
AcDbEntity
  8
1
  6
Continuous
100
AcDbLine
 10
18.31815999999999
 20
221.552764
 30
0.0
 11
17.51816
 21
221.552764
 31
0.0
  0
LINE
  5
9BA1
330
9AC3
100
AcDbEntity
  8
1
  6
Continuous
100
AcDbLine
 10
30.26816
 20
46.083564
 30
0.0
 11
30.26816
 21
45.472764
 31
0.0
  0
LINE
  5
9BA2
330
9AC3
100
AcDbEntity
  8
1
  6
Continuous
100
AcDbLine
 10
31.26815999999999
 20
46.083564
 30
0.0
 11
31.26815999999999
 21
45.472764
 31
0.0
  0
LINE
  5
9BA3
330
9AC3
100
AcDbEntity
  8
1
  6
Continuous
100
AcDbLine
 10
30.26816
 20
45.790764
 30
0.0
 11
31.26815999999999
 21
45.790764
 31
0.0
  0
LINE
  5
9BA4
330
9AC3
100
AcDbEntity
  8
1
  6
Continuous
100
AcDbLine
 10
33.51815999999999
 20
141.3427639999999
 30
0.0
 11
32.71815999999999
 21
141.3427639999999
 31
0.0
  0
LINE
  5
9BA5
330
9AC3
100
AcDbEntity
  8
1
  6
Continuous
100
AcDbLine
 10
18.31815999999999
 20
141.3427639999999
 30
0.0
 11
17.51816
 21
141.3427639999999
 31
0.0
  0
LINE
  5
9BA6
330
9AC3
100
AcDbEntity
  8
1
  6
Continuous
100
AcDbLine
 10
274.18146
 20
141.3427639999999
 30
0.0
 11
273.38146
 21
141.3427639999999
 31
0.0
  0
LINE
  5
9BA7
330
9AC3
100
AcDbEntity
  8
1
  6
Continuous
100
AcDbLine
 10
258.98146
 20
141.3427639999999
 30
0.0
 11
258.18146
 21
141.3427639999999
 31
0.0
  0
LINE
  5
9BA8
330
9AC3
100
AcDbEntity
  8
1
  6
Continuous
100
AcDbLine
 10
28.47506
 20
46.083564
 30
0.0
 11
28.40455999999999
 21
45.684164
 31
0.0
  0
LINE
  5
9BA9
330
9AC3
100
AcDbEntity
  8
1
  6
Continuous
100
AcDbLine
 10
22.78866
 20
46.083564
 30
0.0
 11
22.71816
 21
45.684164
 31
0.0
  0
LINE
  5
9BAA
330
9AC3
100
AcDbEntity
  8
1
  6
Continuous
100
AcDbLine
 10
23.49946
 20
46.083564
 30
0.0
 11
23.42896
 21
45.684164
 31
0.0
  0
LINE
  5
9BAB
330
9AC3
100
AcDbEntity
  8
1
  6
Continuous
100
AcDbLine
 10
24.21026
 20
46.083564
 30
0.0
 11
24.13975999999999
 21
45.684164
 31
0.0
  0
LINE
  5
9BAC
330
9AC3
100
AcDbEntity
  8
1
  6
Continuous
100
AcDbLine
 10
24.91816
 20
46.067264
 30
0.0
 11
24.85056
 21
45.684164
 31
0.0
  0
LINE
  5
9BAD
330
9AC3
100
AcDbEntity
  8
1
  6
Continuous
100
AcDbLine
 10
26.34266
 20
46.083564
 30
0.0
 11
26.27215999999998
 21
45.684164
 31
0.0
  0
LINE
  5
9BAE
330
9AC3
100
AcDbEntity
  8
1
  6
Continuous
100
AcDbLine
 10
27.05346
 20
46.083564
 30
0.0
 11
26.98296
 21
45.684164
 31
0.0
  0
LINE
  5
9BAF
330
9AC3
100
AcDbEntity
  8
1
  6
Continuous
100
AcDbLine
 10
27.76425999999998
 20
46.083564
 30
0.0
 11
27.69375999999999
 21
45.684164
 31
0.0
  0
LINE
  5
9BB0
330
9AC3
100
AcDbEntity
  8
1
  6
Continuous
100
AcDbLine
 10
30.55576
 20
45.790764
 30
0.0
 11
30.53695999999999
 21
45.684164
 31
0.0
  0
LINE
  5
9BB1
330
9AC3
100
AcDbEntity
  8
1
  6
Continuous
100
AcDbLine
 10
18.81815999999998
 20
46.083564
 30
0.0
 11
32.21816
 21
46.083564
 31
0.0
  0
LINE
  5
9BB2
330
9AC3
100
AcDbEntity
  8
1
  6
Continuous
100
AcDbLine
 10
31.26815999999999
 20
45.79966399999999
 30
0.0
 11
31.24775999999998
 21
45.684164
 31
0.0
  0
LINE
  5
9BB3
330
9AC3
100
AcDbEntity
  8
4
  6
CENTER
100
AcDbLine
 10
270.48146
 20
130.844764
 30
0.0
 11
261.8814599999998
 21
130.844764
 31
0.0
  0
LINE
  5
9BB4
330
9AC3
100
AcDbEntity
  8
4
  6
CENTER
100
AcDbLine
 10
270.48146
 20
107.8447639999997
 30
0.0
 11
261.8814599999998
 21
107.8447639999997
 31
0.0
  0
LINE
  5
9BB5
330
9AC3
100
AcDbEntity
  8
4
  6
CENTER
100
AcDbLine
 10
157.3854599999999
 20
134.9447639999999
 30
0.0
 11
157.3854599999999
 21
140.9447639999999
 31
0.0
  0
LINE
  5
9BB6
330
9AC3
100
AcDbEntity
  8
4
  6
CENTER
100
AcDbLine
 10
154.3854599999999
 20
137.9447639999999
 30
0.0
 11
160.38546
 21
137.9447639999999
 31
0.0
  0
LINE
  5
9BB7
330
9AC3
100
AcDbEntity
  8
1
  6
Continuous
100
AcDbLine
 10
17.51816
 20
221.098017
 30
0.0
 11
17.51816
 21
221.552764
 31
0.0
  0
LINE
  5
9BB8
330
9AC3
100
AcDbEntity
  8
1
  6
Continuous
100
AcDbLine
 10
18.31815999999999
 20
221.144764
 30
0.0
 11
18.31815999999999
 21
221.552764
 31
0.0
  0
LINE
  5
9BB9
330
9AC3
100
AcDbEntity
  8
1
  6
Continuous
100
AcDbLine
 10
19.71816
 20
218.144764
 30
0.0
 11
19.71816
 21
215.144764
 31
0.0
  0
LINE
  5
9BBA
330
9AC3
100
AcDbEntity
  8
1
  6
Continuous
100
AcDbLine
 10
33.51815999999999
 20
221.098017
 30
0.0
 11
33.51815999999999
 21
221.552764
 31
0.0
  0
LINE
  5
9BBB
330
9AC3
100
AcDbEntity
  8
1
  6
Continuous
100
AcDbLine
 10
32.71815999999999
 20
221.144764
 30
0.0
 11
32.71815999999999
 21
221.552764
 31
0.0
  0
LINE
  5
9BBC
330
9AC3
100
AcDbEntity
  8
1
  6
Continuous
100
AcDbLine
 10
31.31816
 20
218.144764
 30
0.0
 11
31.31816
 21
215.144764
 31
0.0
  0
LINE
  5
9BBD
330
9AC3
100
AcDbEntity
  8
1
  6
Continuous
100
AcDbLine
 10
26.11816
 20
44.34496399999999
 30
0.0
 11
26.11816
 21
46.083564
 31
0.0
  0
LINE
  5
9BBE
330
9AC3
100
AcDbEntity
  8
1
  6
Continuous
100
AcDbLine
 10
24.91816
 20
44.34496399999999
 30
0.0
 11
24.91816
 21
46.083564
 31
0.0
  0
LINE
  5
9BBF
330
9AC3
100
AcDbEntity
  8
1
  6
Continuous
100
AcDbLine
 10
270.43146
 20
114.0027639999999
 30
0.0
 11
270.43146
 21
115.2557639999999
 31
0.0
  0
LINE
  5
9BC0
330
9AC3
100
AcDbEntity
  8
1
  6
Continuous
100
AcDbLine
 10
269.4464599999998
 20
116.4257639999999
 30
0.0
 11
269.4464599999998
 21
117.0517639999999
 31
0.0
  0
LINE
  5
9BC1
330
9AC3
100
AcDbEntity
  8
1
  6
Continuous
100
AcDbLine
 10
269.4464599999998
 20
124.1257639999999
 30
0.0
 11
269.4464599999998
 21
124.7517639999997
 31
0.0
  0
LINE
  5
9BC2
330
9AC3
100
AcDbEntity
  8
1
  6
Continuous
100
AcDbLine
 10
268.44646
 20
111.8447639999997
 30
0.0
 11
268.44646
 21
113.4197639999999
 31
0.0
  0
LINE
  5
9BC3
330
9AC3
100
AcDbEntity
  8
1
  6
Continuous
100
AcDbLine
 10
268.44646
 20
112.6287639999999
 30
0.0
 11
270.44646
 21
112.6287639999999
 31
0.0
  0
LINE
  5
9BC4
330
9AC3
100
AcDbEntity
  8
1
  6
Continuous
100
AcDbLine
 10
268.4314599999999
 20
114.0027639999999
 30
0.0
 11
270.43146
 21
114.0027639999999
 31
0.0
  0
LINE
  5
9BC5
330
9AC3
100
AcDbEntity
  8
1
  6
Continuous
100
AcDbLine
 10
270.43146
 20
118.0657639999999
 30
0.0
 11
269.3384599999999
 21
119.110764
 31
0.0
  0
LINE
  5
9BC6
330
9AC3
100
AcDbEntity
  8
1
  6
Continuous
100
AcDbLine
 10
270.43146
 20
118.0657639999999
 30
0.0
 11
270.43146
 21
119.2527639999999
 31
0.0
  0
LINE
  5
9BC7
330
9AC3
100
AcDbEntity
  8
1
  6
Continuous
100
AcDbLine
 10
269.43146
 20
126.2987639999999
 30
0.0
 11
269.43146
 21
126.5917639999997
 31
0.0
  0
LINE
  5
9BC8
330
9AC3
100
AcDbEntity
  8
1
  6
Continuous
100
AcDbLine
 10
24.01816
 20
123.1027639999997
 30
0.0
 11
27.01815999999999
 21
123.1027639999997
 31
0.0
  0
LINE
  5
9BC9
330
9AC3
100
AcDbEntity
  8
1
  6
Continuous
100
AcDbLine
 10
24.01816
 20
111.6087639999997
 30
0.0
 11
27.01815999999999
 21
111.6087639999997
 31
0.0
  0
LINE
  5
9BCA
330
9AC3
100
AcDbEntity
  8
1
  6
Continuous
100
AcDbLine
 10
24.01816
 20
123.1027639999997
 30
0.0
 11
24.01816
 21
111.6087639999997
 31
0.0
  0
LINE
  5
9BCB
330
9AC3
100
AcDbEntity
  8
1
  6
Continuous
100
AcDbLine
 10
27.01815999999999
 20
123.1027639999997
 30
0.0
 11
27.01815999999999
 21
111.6087639999997
 31
0.0
  0
LINE
  5
9BCC
330
9AC3
100
AcDbEntity
  8
1
  6
Continuous
100
AcDbLine
 10
264.68146
 20
111.7587639999999
 30
0.0
 11
266.7814599999999
 21
111.7587639999999
 31
0.0
  0
LINE
  5
9BCD
330
9AC3
100
AcDbEntity
  8
1
  6
Continuous
100
AcDbLine
 10
264.68146
 20
123.3587639999997
 30
0.0
 11
264.68146
 21
111.7587639999999
 31
0.0
  0
LINE
  5
9BCE
330
9AC3
100
AcDbEntity
  8
1
  6
Continuous
100
AcDbLine
 10
160.69246
 20
123.6447639999999
 30
0.0
 11
160.98546
 21
123.6447639999999
 31
0.0
  0
LINE
  5
9BCF
330
9AC3
100
AcDbEntity
  8
1
  6
Continuous
100
AcDbLine
 10
160.75146
 20
113.6447639999999
 30
0.0
 11
160.98546
 21
113.6447639999999
 31
0.0
  0
LINE
  5
9BD0
330
9AC3
100
AcDbEntity
  8
1
  6
Continuous
100
AcDbLine
 10
264.68146
 20
123.3587639999997
 30
0.0
 11
265.5814599999998
 21
123.3587639999997
 31
0.0
  0
LINE
  5
9BD1
330
9AC3
100
AcDbEntity
  8
1
  6
Continuous
100
AcDbLine
 10
264.68146
 20
123.1027639999997
 30
0.0
 11
265.5814599999998
 21
123.1027639999997
 31
0.0
  0
LINE
  5
9BD2
330
9AC3
100
AcDbEntity
  8
4
  6
CENTER
100
AcDbLine
 10
158.1854599999998
 20
118.144764
 30
0.0
 11
151.18546
 21
118.144764
 31
0.0
  0
LINE
  5
9BD3
330
9AC3
100
AcDbEntity
  8
4
  6
CENTER
100
AcDbLine
 10
154.68546
 20
121.6447639999999
 30
0.0
 11
154.68546
 21
114.6447639999999
 31
0.0
  0
LINE
  5
9BD4
330
9AC3
100
AcDbEntity
  8
1
  6
Continuous
100
AcDbLine
 10
154.43546
 20
122.144764
 30
0.0
 11
156.1654599999999
 21
122.144764
 31
0.0
  0
LINE
  5
9BD5
330
9AC3
100
AcDbEntity
  8
1
  6
Continuous
100
AcDbLine
 10
154.43546
 20
113.6447639999999
 30
0.0
 11
157.84046
 21
113.6447639999999
 31
0.0
  0
LINE
  5
9BD6
330
9AC3
100
AcDbEntity
  8
1
  6
Continuous
100
AcDbLine
 10
265.5814599999998
 20
123.6447639999999
 30
0.0
 11
265.5814599999998
 21
113.6447639999999
 31
0.0
  0
LINE
  5
9BD7
330
9AC3
100
AcDbEntity
  8
1
  6
Continuous
100
AcDbLine
 10
266.7814599999999
 20
126.8447639999999
 30
0.0
 11
266.7814599999999
 21
123.6447639999999
 31
0.0
  0
LINE
  5
9BD8
330
9AC3
100
AcDbEntity
  8
1
  6
Continuous
100
AcDbLine
 10
272.48146
 20
133.244764
 30
0.0
 11
272.48146
 21
110.1447639999999
 31
0.0
  0
LINE
  5
9BD9
330
9AC3
100
AcDbEntity
  8
1
  6
Continuous
100
AcDbLine
 10
259.88146
 20
133.244764
 30
0.0
 11
259.88146
 21
126.8447639999999
 31
0.0
  0
LINE
  5
9BDA
330
9AC3
100
AcDbEntity
  8
1
  6
Continuous
100
AcDbLine
 10
265.5814599999998
 20
113.6447639999999
 30
0.0
 11
266.7814599999999
 21
113.6447639999999
 31
0.0
  0
LINE
  5
9BDB
330
9AC3
100
AcDbEntity
  8
1
  6
Continuous
100
AcDbLine
 10
265.5814599999998
 20
123.6447639999999
 30
0.0
 11
266.7814599999999
 21
123.6447639999999
 31
0.0
  0
LINE
  5
9BDC
330
9AC3
100
AcDbEntity
  8
1
  6
Continuous
100
AcDbLine
 10
259.88146
 20
110.8447639999997
 30
0.0
 11
259.88146
 21
110.1447639999999
 31
0.0
  0
LINE
  5
9BDD
330
9AC3
100
AcDbEntity
  8
1
  6
Continuous
100
AcDbLine
 10
31.81815999999999
 20
43.144964
 30
0.0
 11
31.81815999999999
 21
44.34496399999999
 31
0.0
  0
LINE
  5
9BDE
330
9AC3
100
AcDbEntity
  8
1
  6
Continuous
100
AcDbLine
 10
19.21816
 20
43.144964
 30
0.0
 11
19.21816
 21
44.34496399999999
 31
0.0
  0
LINE
  5
9BDF
330
9AC3
100
AcDbEntity
  8
1
  6
Continuous
100
AcDbLine
 10
24.91816
 20
221.9447639999999
 30
0.0
 11
24.91816
 21
221.144764
 31
0.0
  0
LINE
  5
9BE0
330
9AC3
100
AcDbEntity
  8
1
  6
Continuous
100
AcDbLine
 10
26.11816
 20
221.9447639999999
 30
0.0
 11
26.11816
 21
221.144764
 31
0.0
  0
LINE
  5
9BE1
330
9AC3
100
AcDbEntity
  8
1
  6
Continuous
100
AcDbLine
 10
24.91816
 20
55.144964
 30
0.0
 11
26.11816
 21
55.144964
 31
0.0
  0
LINE
  5
9BE2
330
9AC3
100
AcDbEntity
  8
1
  6
Continuous
100
AcDbLine
 10
24.91816
 20
48.503064
 30
0.0
 11
24.91816
 21
55.144964
 31
0.0
  0
LINE
  5
9BE3
330
9AC3
100
AcDbEntity
  8
1
  6
Continuous
100
AcDbLine
 10
26.11816
 20
48.503064
 30
0.0
 11
26.11816
 21
55.144964
 31
0.0
  0
LINE
  5
9BE4
330
9AC3
100
AcDbEntity
  8
1
  6
Continuous
100
AcDbLine
 10
26.11816
 20
211.144764
 30
0.0
 11
24.91816
 21
211.144764
 31
0.0
  0
LINE
  5
9BE5
330
9AC3
100
AcDbEntity
  8
1
  6
Continuous
100
AcDbLine
 10
24.91816
 20
214.4687639999999
 30
0.0
 11
24.91816
 21
211.144764
 31
0.0
  0
LINE
  5
9BE6
330
9AC3
100
AcDbEntity
  8
1
  6
Continuous
100
AcDbLine
 10
26.11816
 20
214.4687639999999
 30
0.0
 11
26.11816
 21
211.144764
 31
0.0
  0
LINE
  5
9BE7
330
9AC3
100
AcDbEntity
  8
1
  6
Continuous
100
AcDbLine
 10
24.01816
 20
49.44646399999999
 30
0.0
 11
24.91816
 21
49.44646399999999
 31
0.0
  0
LINE
  5
9BE8
330
9AC3
100
AcDbEntity
  8
1
  6
Continuous
100
AcDbLine
 10
24.01816
 20
48.482464
 30
0.0
 11
24.01816
 21
49.44646399999999
 31
0.0
  0
LINE
  5
9BE9
330
9AC3
100
AcDbEntity
  8
1
  6
Continuous
100
AcDbLine
 10
27.01815999999999
 20
48.482464
 30
0.0
 11
27.01815999999999
 21
49.44646399999999
 31
0.0
  0
LINE
  5
9BEA
330
9AC3
100
AcDbEntity
  8
1
  6
Continuous
100
AcDbLine
 10
24.01816
 20
48.660564
 30
0.0
 11
24.91816
 21
48.660564
 31
0.0
  0
LINE
  5
9BEB
330
9AC3
100
AcDbEntity
  8
1
  6
Continuous
100
AcDbLine
 10
26.11816
 20
49.44646399999999
 30
0.0
 11
27.01815999999999
 21
49.44646399999999
 31
0.0
  0
LINE
  5
9BEC
330
9AC3
100
AcDbEntity
  8
1
  6
Continuous
100
AcDbLine
 10
26.11816
 20
48.660564
 30
0.0
 11
27.01815999999999
 21
48.660564
 31
0.0
  0
LINE
  5
9BED
330
9AC3
100
AcDbEntity
  8
1
  6
Continuous
100
AcDbLine
 10
26.11816
 20
51.820864
 30
0.0
 11
32.71815999999999
 21
51.820864
 31
0.0
  0
LINE
  5
9BEE
330
9AC3
100
AcDbEntity
  8
1
  6
Continuous
100
AcDbLine
 10
24.91816
 20
122.144764
 30
0.0
 11
26.11816
 21
122.144764
 31
0.0
  0
LINE
  5
9BEF
330
9AC3
100
AcDbEntity
  8
1
  6
Continuous
100
AcDbLine
 10
24.91816
 20
113.6447639999999
 30
0.0
 11
26.11816
 21
113.6447639999999
 31
0.0
  0
LINE
  5
9BF0
330
9AC3
100
AcDbEntity
  8
1
  6
Continuous
100
AcDbLine
 10
24.91816
 20
123.1027639999997
 30
0.0
 11
24.91816
 21
113.6447639999999
 31
0.0
  0
LINE
  5
9BF1
330
9AC3
100
AcDbEntity
  8
1
  6
Continuous
100
AcDbLine
 10
26.11816
 20
123.1027639999997
 30
0.0
 11
26.11816
 21
113.6447639999999
 31
0.0
  0
LINE
  5
9BF2
330
9AC3
100
AcDbEntity
  8
4
  6
CENTER
100
AcDbLine
 10
22.91816
 20
118.144764
 30
0.0
 11
28.11815999999998
 21
118.144764
 31
0.0
  0
LINE
  5
9BF3
330
9AC3
100
AcDbEntity
  8
4
  6
CENTER
100
AcDbLine
 10
263.5814599999998
 20
118.144764
 30
0.0
 11
268.7814599999999
 21
118.144764
 31
0.0
  0
LINE
  5
9BF4
330
9AC3
100
AcDbEntity
  8
1
  6
Continuous
100
AcDbLine
 10
212.18546
 20
167.345764
 30
0.0
 11
212.18546
 21
153.845764
 31
0.0
  0
LINE
  5
9BF5
330
9AC3
100
AcDbEntity
  8
1
  6
Continuous
100
AcDbLine
 10
204.68546
 20
154.3847639999999
 30
0.0
 11
205.44446
 21
152.523764
 31
0.0
  0
LINE
  5
9BF6
330
9AC3
100
AcDbEntity
  8
1
  6
Continuous
100
AcDbLine
 10
212.18546
 20
167.345764
 30
0.0
 11
210.68546
 21
167.345764
 31
0.0
  0
LINE
  5
9BF7
330
9AC3
100
AcDbEntity
  8
1
  6
Continuous
100
AcDbLine
 10
206.1134599999999
 20
154.845764
 30
0.0
 11
204.68546
 21
154.3847639999999
 31
0.0
  0
LINE
  5
9BF8
330
9AC3
100
AcDbEntity
  8
1
  6
Continuous
100
AcDbLine
 10
210.68546
 20
167.345764
 30
0.0
 11
210.68546
 21
153.845764
 31
0.0
  0
LINE
  5
9BF9
330
9AC3
100
AcDbEntity
  8
1
  6
Continuous
100
AcDbLine
 10
206.1134599999999
 20
154.845764
 30
0.0
 11
206.83546
 21
153.0857639999998
 31
0.0
  0
LINE
  5
9BFA
330
9AC3
100
AcDbEntity
  8
4
  6
CENTER
100
AcDbLine
 10
208.68546
 20
161.345764
 30
0.0
 11
214.18546
 21
161.345764
 31
0.0
  0
LINE
  5
9BFB
330
9AC3
100
AcDbEntity
  8
1
  6
Continuous
100
AcDbLine
 10
256.5442069999999
 20
151.621284
 30
0.0
 11
253.26246
 21
135.0157639999999
 31
0.0
  0
LINE
  5
9BFC
330
9AC3
100
AcDbEntity
  8
1
  6
Continuous
100
AcDbLine
 10
275.8187139999999
 20
151.621284
 30
0.0
 11
279.1004599999999
 21
135.0157639999999
 31
0.0
  0
LINE
  5
9BFD
330
9AC3
100
AcDbEntity
  8
4
  6
CENTER
100
AcDbLine
 10
158.35746
 20
133.9657639999997
 30
0.0
 11
158.35746
 21
129.4657639999997
 31
0.0
  0
LINE
  5
9BFE
330
9AC3
100
AcDbEntity
  8
4
  6
CENTER
100
AcDbLine
 10
156.1074599999997
 20
131.7157639999997
 30
0.0
 11
160.60746
 21
131.7157639999997
 31
0.0
  0
LINE
  5
9BFF
330
9AC3
100
AcDbEntity
  8
1
  6
Continuous
100
AcDbLine
 10
14.01816
 20
48.472764
 30
0.0
 11
17.51816
 21
48.472764
 31
0.0
  0
LINE
  5
9C00
330
9AC3
100
AcDbEntity
  8
1
  6
Continuous
100
AcDbLine
 10
14.01816
 20
45.472764
 30
0.0
 11
17.51816
 21
45.472764
 31
0.0
  0
LINE
  5
9C01
330
9AC3
100
AcDbEntity
  8
1
  6
Continuous
100
AcDbLine
 10
28.76815999999999
 20
45.472764
 30
0.0
 11
30.26816
 21
45.472764
 31
0.0
  0
LINE
  5
9C02
330
9AC3
100
AcDbEntity
  8
1
  6
Continuous
100
AcDbLine
 10
31.26815999999999
 20
45.472764
 30
0.0
 11
32.71815999999999
 21
45.472764
 31
0.0
  0
LINE
  5
9C03
330
9AC3
100
AcDbEntity
  8
1
  6
Continuous
100
AcDbLine
 10
18.31815999999999
 20
45.472764
 30
0.0
 11
22.26816
 21
45.472764
 31
0.0
  0
LINE
  5
9C04
330
9AC3
100
AcDbEntity
  8
1
  6
Continuous
100
AcDbLine
 10
33.51815999999999
 20
45.472764
 30
0.0
 11
37.01815999999999
 21
45.472764
 31
0.0
  0
LINE
  5
9C05
330
9AC3
100
AcDbEntity
  8
1
  6
Continuous
100
AcDbLine
 10
33.10226
 20
221.144764
 30
0.0
 11
17.93406
 21
221.144764
 31
0.0
  0
LINE
  5
9C06
330
9AC3
100
AcDbEntity
  8
1
  6
Continuous
100
AcDbLine
 10
37.01815999999999
 20
217.816764
 30
0.0
 11
34.41816
 21
217.816764
 31
0.0
  0
LINE
  5
9C07
330
9AC3
100
AcDbEntity
  8
1
  6
Continuous
100
AcDbLine
 10
16.56446
 20
217.816764
 30
0.0
 11
14.01816
 21
217.816764
 31
0.0
  0
LINE
  5
9C08
330
9AC3
100
AcDbEntity
  8
1
  6
Continuous
100
AcDbLine
 10
33.51815999999999
 20
48.472764
 30
0.0
 11
37.01815999999999
 21
48.472764
 31
0.0
  0
LINE
  5
9C09
330
9AC3
100
AcDbEntity
  8
1
  6
Continuous
100
AcDbLine
 10
257.18146
 20
130.2157639999997
 30
0.0
 11
258.18146
 21
130.2157639999997
 31
0.0
  0
LINE
  5
9C0A
330
9AC3
100
AcDbEntity
  8
1
  6
Continuous
100
AcDbLine
 10
257.18146
 20
133.2157639999997
 30
0.0
 11
258.18146
 21
133.2157639999997
 31
0.0
  0
LINE
  5
9C0B
330
9AC3
100
AcDbEntity
  8
1
  6
Continuous
100
AcDbLine
 10
272.48146
 20
133.2157639999997
 30
0.0
 11
273.38146
 21
133.2157639999997
 31
0.0
  0
LINE
  5
9C0C
330
9AC3
100
AcDbEntity
  8
1
  6
Continuous
100
AcDbLine
 10
274.18146
 20
133.2157639999997
 30
0.0
 11
275.18146
 21
133.2157639999997
 31
0.0
  0
LINE
  5
9C0D
330
9AC3
100
AcDbEntity
  8
1
  6
Continuous
100
AcDbLine
 10
274.18146
 20
130.2157639999997
 30
0.0
 11
275.18146
 21
130.2157639999997
 31
0.0
  0
LINE
  5
9C0E
330
9AC3
100
AcDbEntity
  8
1
  6
Continuous
100
AcDbLine
 10
258.98146
 20
133.2157639999997
 30
0.0
 11
259.88146
 21
133.2157639999997
 31
0.0
  0
LINE
  5
9C0F
330
9AC3
100
AcDbEntity
  8
1
  6
Continuous
100
AcDbLine
 10
258.98146
 20
130.2157639999997
 30
0.0
 11
259.88146
 21
130.2157639999997
 31
0.0
  0
LINE
  5
9C10
330
9AC3
100
AcDbEntity
  8
1
  6
Continuous
100
AcDbLine
 10
160.010472
 20
141.7947639999999
 30
0.0
 11
161.3854599999999
 21
141.7947639999999
 31
0.0
  0
LINE
  5
9C11
330
9AC3
100
AcDbEntity
  8
1
  6
Continuous
100
AcDbLine
 10
161.3854599999999
 20
141.094764
 30
0.0
 11
161.3854599999999
 21
141.7947639999999
 31
0.0
  0
LINE
  5
9C12
330
9AC3
100
AcDbEntity
  8
1
  6
Continuous
100
AcDbLine
 10
159.9998569999999
 20
141.094764
 30
0.0
 11
161.3854599999999
 21
141.094764
 31
0.0
  0
LINE
  5
9C13
330
9AC3
100
AcDbEntity
  8
1
  6
Continuous
100
AcDbLine
 10
17.51816
 20
135.553764
 30
0.0
 11
33.51815999999999
 21
135.553764
 31
0.0
  0
LINE
  5
9C14
330
9AC3
100
AcDbEntity
  8
1
  6
Continuous
100
AcDbLine
 10
17.51816
 20
135.708764
 30
0.0
 11
33.51815999999999
 21
135.708764
 31
0.0
  0
LINE
  5
9C15
330
9AC3
100
AcDbEntity
  8
1
  6
Continuous
100
AcDbLine
 10
258.98146
 20
135.708764
 30
0.0
 11
259.18146
 21
135.708764
 31
0.0
  0
LINE
  5
9C16
330
9AC3
100
AcDbEntity
  8
1
  6
Continuous
100
AcDbLine
 10
273.18146
 20
135.708764
 30
0.0
 11
273.38146
 21
135.708764
 31
0.0
  0
LINE
  5
9C17
330
9AC3
100
AcDbEntity
  8
4
  6
CENTER
100
AcDbLine
 10
80.76846000000001
 20
224.344764
 30
0.0
 11
80.76846000000001
 21
220.444764
 31
0.0
  0
LINE
  5
9C18
330
9AC3
100
AcDbEntity
  8
4
  6
CENTER
100
AcDbLine
 10
90.26846
 20
224.344764
 30
0.0
 11
90.26846
 21
220.444764
 31
0.0
  0
ARC
  5
9C19
330
9AC3
100
AcDbEntity
  8
1
  6
Continuous
100
AcDbCircle
 10
157.35646
 20
138.0917639999997
 30
0.0
 40
3.25
100
AcDbArc
 50
0.339111
 51
36.07275
  0
ARC
  5
9C1A
330
9AC3
100
AcDbEntity
  8
1
  6
Continuous
100
AcDbCircle
 10
158.35746
 20
131.7157639999997
 30
0.0
 40
1.6
100
AcDbArc
 50
158.7670909999999
 51
19.49536099999998
  0
ARC
  5
9C1B
330
9AC3
100
AcDbEntity
  8
1
  6
Continuous
100
AcDbCircle
 10
145.63646
 20
108.3337639999997
 30
0.0
 40
13.0
100
AcDbArc
 50
331.4269999999999
 51
11.1426
  0
ARC
  5
9C1C
330
9AC3
100
AcDbEntity
  8
1
  6
Continuous
100
AcDbCircle
 10
147.7714599999998
 20
110.2267639999999
 30
0.0
 40
13.0
100
AcDbArc
 50
326.981
 51
0.339118
  0
ARC
  5
9C1D
330
9AC3
100
AcDbEntity
  8
1
  6
Continuous
100
AcDbCircle
 10
19.54936
 20
137.9447639999999
 30
0.0
 40
3.03125
100
AcDbArc
 50
132.075
 51
227.925
  0
ARC
  5
9C1E
330
9AC3
100
AcDbEntity
  8
1
  6
Continuous
100
AcDbCircle
 10
157.3854599999999
 20
137.9447639999999
 30
0.0
 40
2.25
100
AcDbArc
 50
100.2439639999999
 51
258.0184889999998
  0
ARC
  5
9C1F
330
9AC3
100
AcDbEntity
  8
1
  6
Continuous
100
AcDbCircle
 10
158.35746
 20
131.7157639999997
 30
0.0
 40
1.5
100
AcDbArc
 50
179.1312259999999
 51
359.1312259999999
  0
CIRCLE
  5
9C20
330
9AC3
100
AcDbEntity
  8
1
  6
Continuous
100
AcDbCircle
 10
80.76846000000001
 20
161.345764
 30
0.0
 40
2.799999999999998
  0
CIRCLE
  5
9C21
330
9AC3
100
AcDbEntity
  8
1
  6
Continuous
100
AcDbCircle
 10
80.76846000000001
 20
161.345764
 30
0.0
 40
1.649999999999999
  0
ARC
  5
9C22
330
9AC3
100
AcDbEntity
  8
1
  6
Continuous
100
AcDbCircle
 10
85.51846000000002
 20
151.345764
 30
0.0
 40
16.0
100
AcDbArc
 50
44.0049
 51
135.9949999999997
  0
ARC
  5
9C23
330
9AC3
100
AcDbEntity
  8
1
  6
Continuous
100
AcDbCircle
 10
95.76846000000001
 20
161.2457639999998
 30
0.0
 40
1.75
100
AcDbArc
 50
317.49
 51
44.0049
  0
ARC
  5
9C24
330
9AC3
100
AcDbEntity
  8
1
  6
Continuous
100
AcDbCircle
 10
75.26846
 20
161.2457639999998
 30
0.0
 40
1.75
100
AcDbArc
 50
135.9949999999997
 51
226.937
  0
CIRCLE
  5
9C25
330
9AC3
100
AcDbEntity
  8
1
  6
Continuous
100
AcDbCircle
 10
90.26846
 20
161.345764
 30
0.0
 40
2.799999999999998
  0
CIRCLE
  5
9C26
330
9AC3
100
AcDbEntity
  8
1
  6
Continuous
100
AcDbCircle
 10
90.26846
 20
161.345764
 30
0.0
 40
1.649999999999999
  0
ARC
  5
9C27
330
9AC3
100
AcDbEntity
  8
1
  6
Continuous
100
AcDbCircle
 10
81.01846
 20
152.845764
 30
0.0
 40
2.0
100
AcDbArc
 50
90.0
 51
180.0
  0
ARC
  5
9C28
330
9AC3
100
AcDbEntity
  8
1
  6
Continuous
100
AcDbCircle
 10
81.01846
 20
152.3847639999999
 30
0.0
 40
2.0
100
AcDbArc
 50
90.0
 51
180.0
  0
ARC
  5
9C29
330
9AC3
100
AcDbEntity
  8
1
  6
Continuous
100
AcDbCircle
 10
90.01846
 20
152.845764
 30
0.0
 40
2.0
100
AcDbArc
 50
0.0
 51
90.0
  0
ARC
  5
9C2A
330
9AC3
100
AcDbEntity
  8
1
  6
Continuous
100
AcDbCircle
 10
90.01846
 20
152.3847639999999
 30
0.0
 40
2.0
100
AcDbArc
 50
0.0
 51
90.0
  0
CIRCLE
  5
9C2B
330
9AC3
100
AcDbEntity
  8
1
  6
Continuous
100
AcDbCircle
 10
266.18146
 20
130.844764
 30
0.0
 40
1.649999999999999
  0
CIRCLE
  5
9C2C
330
9AC3
100
AcDbEntity
  8
1
  6
Continuous
100
AcDbCircle
 10
266.18146
 20
107.8447639999997
 30
0.0
 40
1.649999999999999
  0
CIRCLE
  5
9C2D
330
9AC3
100
AcDbEntity
  8
1
  6
Continuous
100
AcDbCircle
 10
331.43146
 20
161.345764
 30
0.0
 40
1.649999999999999
  0
ARC
  5
9C2E
330
9AC3
100
AcDbEntity
  8
1
  6
Continuous
100
AcDbCircle
 10
336.18146
 20
151.345764
 30
0.0
 40
16.0
100
AcDbArc
 50
44.0049
 51
135.9949999999997
  0
ARC
  5
9C2F
330
9AC3
100
AcDbEntity
  8
1
  6
Continuous
100
AcDbCircle
 10
346.43146
 20
161.2457639999998
 30
0.0
 40
1.75
100
AcDbArc
 50
317.49
 51
44.0049
  0
ARC
  5
9C30
330
9AC3
100
AcDbEntity
  8
1
  6
Continuous
100
AcDbCircle
 10
325.93146
 20
161.2457639999998
 30
0.0
 40
1.75
100
AcDbArc
 50
135.9949999999997
 51
226.937
  0
CIRCLE
  5
9C31
330
9AC3
100
AcDbEntity
  8
1
  6
Continuous
100
AcDbCircle
 10
340.93146
 20
161.345764
 30
0.0
 40
1.649999999999999
  0
ARC
  5
9C32
330
9AC3
100
AcDbEntity
  8
1
  6
Continuous
100
AcDbCircle
 10
272.48146
 20
140.7947639999999
 30
0.0
 40
1.0
100
AcDbArc
 50
90.0
 51
177.1339999999999
  0
ARC
  5
9C33
330
9AC3
100
AcDbEntity
  8
1
  6
Continuous
100
AcDbCircle
 10
272.48146
 20
140.7947639999999
 30
0.0
 40
0.3
100
AcDbArc
 50
90.0
 51
170.4059999999998
  0
ARC
  5
9C34
330
9AC3
100
AcDbEntity
  8
1
  6
Continuous
100
AcDbCircle
 10
272.15046
 20
137.9447639999999
 30
0.0
 40
3.03125
100
AcDbArc
 50
312.075
 51
47.92499999999999
  0
ARC
  5
9C35
330
9AC3
100
AcDbEntity
  8
1
  6
Continuous
100
AcDbCircle
 10
19.54936
 20
218.344764
 30
0.0
 40
3.03125
100
AcDbArc
 50
186.1643459999999
 51
227.925
  0
ARC
  5
9C36
330
9AC3
100
AcDbEntity
  8
1
  6
Continuous
100
AcDbCircle
 10
20.06816
 20
135.7447639999997
 30
0.0
 40
0.35
100
AcDbArc
 50
170.0
 51
182.755
  0
ARC
  5
9C37
330
9AC3
100
AcDbEntity
  8
1
  6
Continuous
100
AcDbCircle
 10
30.79515999999999
 20
140.1447639999997
 30
0.0
 40
0.35
100
AcDbArc
 50
350.0
 51
170.0
  0
ARC
  5
9C38
330
9AC3
100
AcDbEntity
  8
1
  6
Continuous
100
AcDbCircle
 10
20.84395999999999
 20
140.1447639999997
 30
0.0
 40
0.35
100
AcDbArc
 50
350.0
 51
170.0
  0
ARC
  5
9C39
330
9AC3
100
AcDbEntity
  8
1
  6
Continuous
100
AcDbCircle
 10
20.77896
 20
135.7447639999997
 30
0.0
 40
0.35
100
AcDbArc
 50
170.0
 51
185.989
  0
ARC
  5
9C3A
330
9AC3
100
AcDbEntity
  8
1
  6
Continuous
100
AcDbCircle
 10
21.55476
 20
140.1447639999997
 30
0.0
 40
0.35
100
AcDbArc
 50
350.0
 51
170.0
  0
ARC
  5
9C3B
330
9AC3
100
AcDbEntity
  8
1
  6
Continuous
100
AcDbCircle
 10
21.48976
 20
135.7447639999997
 30
0.0
 40
0.35
100
AcDbArc
 50
170.0
 51
185.989
  0
ARC
  5
9C3C
330
9AC3
100
AcDbEntity
  8
1
  6
Continuous
100
AcDbCircle
 10
22.26555999999999
 20
140.1447639999997
 30
0.0
 40
0.35
100
AcDbArc
 50
350.0
 51
170.0
  0
ARC
  5
9C3D
330
9AC3
100
AcDbEntity
  8
1
  6
Continuous
100
AcDbCircle
 10
22.20056
 20
135.7447639999997
 30
0.0
 40
0.35
100
AcDbArc
 50
170.0
 51
185.989
  0
ARC
  5
9C3E
330
9AC3
100
AcDbEntity
  8
1
  6
Continuous
100
AcDbCircle
 10
22.97636
 20
140.1447639999997
 30
0.0
 40
0.35
100
AcDbArc
 50
350.0
 51
170.0
  0
ARC
  5
9C3F
330
9AC3
100
AcDbEntity
  8
1
  6
Continuous
100
AcDbCircle
 10
22.91135999999999
 20
135.7447639999997
 30
0.0
 40
0.35
100
AcDbArc
 50
170.0
 51
185.989
  0
ARC
  5
9C40
330
9AC3
100
AcDbEntity
  8
1
  6
Continuous
100
AcDbCircle
 10
23.68716
 20
140.1447639999997
 30
0.0
 40
0.35
100
AcDbArc
 50
350.0
 51
170.0
  0
ARC
  5
9C41
330
9AC3
100
AcDbEntity
  8
1
  6
Continuous
100
AcDbCircle
 10
23.62216
 20
135.7447639999997
 30
0.0
 40
0.35
100
AcDbArc
 50
170.0
 51
185.989
  0
ARC
  5
9C42
330
9AC3
100
AcDbEntity
  8
1
  6
Continuous
100
AcDbCircle
 10
24.39796
 20
140.1447639999997
 30
0.0
 40
0.35
100
AcDbArc
 50
350.0
 51
170.0
  0
ARC
  5
9C43
330
9AC3
100
AcDbEntity
  8
1
  6
Continuous
100
AcDbCircle
 10
24.33296
 20
135.7447639999997
 30
0.0
 40
0.35
100
AcDbArc
 50
170.0
 51
185.989
  0
ARC
  5
9C44
330
9AC3
100
AcDbEntity
  8
1
  6
Continuous
100
AcDbCircle
 10
25.10876
 20
140.1447639999997
 30
0.0
 40
0.35
100
AcDbArc
 50
350.0
 51
170.0
  0
ARC
  5
9C45
330
9AC3
100
AcDbEntity
  8
1
  6
Continuous
100
AcDbCircle
 10
25.04376
 20
135.7447639999997
 30
0.0
 40
0.35
100
AcDbArc
 50
170.0
 51
185.989
  0
ARC
  5
9C46
330
9AC3
100
AcDbEntity
  8
1
  6
Continuous
100
AcDbCircle
 10
25.81955999999999
 20
140.1447639999997
 30
0.0
 40
0.35
100
AcDbArc
 50
350.0
 51
170.0
  0
ARC
  5
9C47
330
9AC3
100
AcDbEntity
  8
1
  6
Continuous
100
AcDbCircle
 10
25.75456
 20
135.7447639999997
 30
0.0
 40
0.35
100
AcDbArc
 50
170.0
 51
185.989
  0
ARC
  5
9C48
330
9AC3
100
AcDbEntity
  8
1
  6
Continuous
100
AcDbCircle
 10
26.53036
 20
140.1447639999997
 30
0.0
 40
0.35
100
AcDbArc
 50
350.0
 51
170.0
  0
ARC
  5
9C49
330
9AC3
100
AcDbEntity
  8
1
  6
Continuous
100
AcDbCircle
 10
26.46535999999999
 20
135.7447639999997
 30
0.0
 40
0.35
100
AcDbArc
 50
170.0
 51
185.989
  0
ARC
  5
9C4A
330
9AC3
100
AcDbEntity
  8
1
  6
Continuous
100
AcDbCircle
 10
27.24115999999999
 20
140.1447639999997
 30
0.0
 40
0.35
100
AcDbArc
 50
350.0
 51
170.0
  0
ARC
  5
9C4B
330
9AC3
100
AcDbEntity
  8
1
  6
Continuous
100
AcDbCircle
 10
27.17616
 20
135.7447639999997
 30
0.0
 40
0.35
100
AcDbArc
 50
170.0
 51
185.989
  0
ARC
  5
9C4C
330
9AC3
100
AcDbEntity
  8
1
  6
Continuous
100
AcDbCircle
 10
27.95195999999998
 20
140.1447639999997
 30
0.0
 40
0.35
100
AcDbArc
 50
350.0
 51
170.0
  0
ARC
  5
9C4D
330
9AC3
100
AcDbEntity
  8
1
  6
Continuous
100
AcDbCircle
 10
27.88695999999999
 20
135.7447639999997
 30
0.0
 40
0.35
100
AcDbArc
 50
170.0
 51
185.989
  0
ARC
  5
9C4E
330
9AC3
100
AcDbEntity
  8
1
  6
Continuous
100
AcDbCircle
 10
28.66276
 20
140.1447639999997
 30
0.0
 40
0.35
100
AcDbArc
 50
350.0
 51
170.0
  0
ARC
  5
9C4F
330
9AC3
100
AcDbEntity
  8
1
  6
Continuous
100
AcDbCircle
 10
28.59776
 20
135.7447639999997
 30
0.0
 40
0.35
100
AcDbArc
 50
170.0
 51
185.989
  0
ARC
  5
9C50
330
9AC3
100
AcDbEntity
  8
1
  6
Continuous
100
AcDbCircle
 10
29.37355999999999
 20
140.1447639999997
 30
0.0
 40
0.35
100
AcDbArc
 50
350.0
 51
170.0
  0
ARC
  5
9C51
330
9AC3
100
AcDbEntity
  8
1
  6
Continuous
100
AcDbCircle
 10
29.30855999999998
 20
135.7447639999997
 30
0.0
 40
0.35
100
AcDbArc
 50
170.0
 51
185.989
  0
ARC
  5
9C52
330
9AC3
100
AcDbEntity
  8
1
  6
Continuous
100
AcDbCircle
 10
30.08435999999999
 20
140.1447639999997
 30
0.0
 40
0.35
100
AcDbArc
 50
350.0
 51
170.0
  0
ARC
  5
9C53
330
9AC3
100
AcDbEntity
  8
1
  6
Continuous
100
AcDbCircle
 10
30.01936
 20
135.7447639999997
 30
0.0
 40
0.35
100
AcDbArc
 50
170.0
 51
185.989
  0
ARC
  5
9C54
330
9AC3
100
AcDbEntity
  8
1
  6
Continuous
100
AcDbCircle
 10
19.41816
 20
140.7947639999999
 30
0.0
 40
1.0
100
AcDbArc
 50
0.0
 51
90.0
  0
ARC
  5
9C55
330
9AC3
100
AcDbEntity
  8
1
  6
Continuous
100
AcDbCircle
 10
19.41816
 20
140.7947639999999
 30
0.0
 40
0.3
100
AcDbArc
 50
0.0
 51
90.0
  0
ARC
  5
9C56
330
9AC3
100
AcDbEntity
  8
1
  6
Continuous
100
AcDbCircle
 10
20.06816
 20
216.144764
 30
0.0
 40
0.35
100
AcDbArc
 50
170.0
 51
350.0
  0
ARC
  5
9C57
330
9AC3
100
AcDbEntity
  8
1
  6
Continuous
100
AcDbCircle
 10
19.41816
 20
221.344764
 30
0.0
 40
0.3
100
AcDbArc
 50
0.0
 51
90.0
  0
ARC
  5
9C58
330
9AC3
100
AcDbEntity
  8
1
  6
Continuous
100
AcDbCircle
 10
19.41816
 20
221.344764
 30
0.0
 40
1.0
100
AcDbArc
 50
0.0
 51
90.0
  0
ARC
  5
9C59
330
9AC3
100
AcDbEntity
  8
1
  6
Continuous
100
AcDbCircle
 10
20.77896
 20
216.144764
 30
0.0
 40
0.35
100
AcDbArc
 50
170.0
 51
350.0
  0
ARC
  5
9C5A
330
9AC3
100
AcDbEntity
  8
1
  6
Continuous
100
AcDbCircle
 10
21.48976
 20
216.144764
 30
0.0
 40
0.35
100
AcDbArc
 50
170.0
 51
350.0
  0
ARC
  5
9C5B
330
9AC3
100
AcDbEntity
  8
1
  6
Continuous
100
AcDbCircle
 10
22.20056
 20
216.144764
 30
0.0
 40
0.35
100
AcDbArc
 50
170.0
 51
350.0
  0
ARC
  5
9C5C
330
9AC3
100
AcDbEntity
  8
1
  6
Continuous
100
AcDbCircle
 10
22.91135999999999
 20
216.144764
 30
0.0
 40
0.35
100
AcDbArc
 50
170.0
 51
350.0
  0
ARC
  5
9C5D
330
9AC3
100
AcDbEntity
  8
1
  6
Continuous
100
AcDbCircle
 10
23.62216
 20
216.144764
 30
0.0
 40
0.35
100
AcDbArc
 50
170.0
 51
350.0
  0
ARC
  5
9C5E
330
9AC3
100
AcDbEntity
  8
1
  6
Continuous
100
AcDbCircle
 10
24.33296
 20
216.144764
 30
0.0
 40
0.35
100
AcDbArc
 50
170.0
 51
350.0
  0
ARC
  5
9C5F
330
9AC3
100
AcDbEntity
  8
1
  6
Continuous
100
AcDbCircle
 10
25.04376
 20
216.144764
 30
0.0
 40
0.35
100
AcDbArc
 50
170.0
 51
350.0
  0
ARC
  5
9C60
330
9AC3
100
AcDbEntity
  8
1
  6
Continuous
100
AcDbCircle
 10
25.75456
 20
216.144764
 30
0.0
 40
0.35
100
AcDbArc
 50
170.0
 51
350.0
  0
ARC
  5
9C61
330
9AC3
100
AcDbEntity
  8
1
  6
Continuous
100
AcDbCircle
 10
26.46535999999999
 20
216.144764
 30
0.0
 40
0.35
100
AcDbArc
 50
170.0
 51
350.0
  0
ARC
  5
9C62
330
9AC3
100
AcDbEntity
  8
1
  6
Continuous
100
AcDbCircle
 10
27.17616
 20
216.144764
 30
0.0
 40
0.35
100
AcDbArc
 50
170.0
 51
350.0
  0
ARC
  5
9C63
330
9AC3
100
AcDbEntity
  8
1
  6
Continuous
100
AcDbCircle
 10
27.88695999999999
 20
216.144764
 30
0.0
 40
0.35
100
AcDbArc
 50
170.0
 51
350.0
  0
ARC
  5
9C64
330
9AC3
100
AcDbEntity
  8
1
  6
Continuous
100
AcDbCircle
 10
28.59776
 20
216.144764
 30
0.0
 40
0.35
100
AcDbArc
 50
170.0
 51
350.0
  0
ARC
  5
9C65
330
9AC3
100
AcDbEntity
  8
1
  6
Continuous
100
AcDbCircle
 10
29.30855999999998
 20
216.144764
 30
0.0
 40
0.35
100
AcDbArc
 50
170.0
 51
350.0
  0
ARC
  5
9C66
330
9AC3
100
AcDbEntity
  8
1
  6
Continuous
100
AcDbCircle
 10
30.01936
 20
216.144764
 30
0.0
 40
0.35
100
AcDbArc
 50
170.0
 51
350.0
  0
ARC
  5
9C67
330
9AC3
100
AcDbEntity
  8
1
  6
Continuous
100
AcDbCircle
 10
31.48685999999999
 20
47.94496399999998
 30
0.0
 40
3.03125
100
AcDbArc
 50
10.0278
 51
47.92499999999999
  0
ARC
  5
9C68
330
9AC3
100
AcDbEntity
  8
1
  6
Continuous
100
AcDbCircle
 10
20.95196
 20
45.744964
 30
0.0
 40
0.35
100
AcDbArc
 50
231.047
 51
308.9529999999998
  0
ARC
  5
9C69
330
9AC3
100
AcDbEntity
  8
1
  6
Continuous
100
AcDbCircle
 10
21.66275999999999
 20
45.744964
 30
0.0
 40
0.35
100
AcDbArc
 50
231.047
 51
308.9529999999998
  0
ARC
  5
9C6A
330
9AC3
100
AcDbEntity
  8
1
  6
Continuous
100
AcDbCircle
 10
22.37356
 20
45.744964
 30
0.0
 40
0.35
100
AcDbArc
 50
231.047
 51
350.0
  0
ARC
  5
9C6B
330
9AC3
100
AcDbEntity
  8
1
  6
Continuous
100
AcDbCircle
 10
23.08435999999999
 20
45.744964
 30
0.0
 40
0.35
100
AcDbArc
 50
170.0
 51
350.0
  0
ARC
  5
9C6C
330
9AC3
100
AcDbEntity
  8
1
  6
Continuous
100
AcDbCircle
 10
23.79516
 20
45.744964
 30
0.0
 40
0.35
100
AcDbArc
 50
170.0
 51
350.0
  0
ARC
  5
9C6D
330
9AC3
100
AcDbEntity
  8
1
  6
Continuous
100
AcDbCircle
 10
24.50596
 20
45.744964
 30
0.0
 40
0.35
100
AcDbArc
 50
170.0
 51
350.0
  0
ARC
  5
9C6E
330
9AC3
100
AcDbEntity
  8
1
  6
Continuous
100
AcDbCircle
 10
25.21676
 20
45.744964
 30
0.0
 40
0.35
100
AcDbArc
 50
170.0
 51
211.454
  0
ARC
  5
9C6F
330
9AC3
100
AcDbEntity
  8
1
  6
Continuous
100
AcDbCircle
 10
25.92756
 20
45.744964
 30
0.0
 40
0.35
100
AcDbArc
 50
303.0009999999998
 51
350.0
  0
ARC
  5
9C70
330
9AC3
100
AcDbEntity
  8
1
  6
Continuous
100
AcDbCircle
 10
26.63835999999999
 20
45.744964
 30
0.0
 40
0.35
100
AcDbArc
 50
170.0
 51
350.0
  0
ARC
  5
9C71
330
9AC3
100
AcDbEntity
  8
1
  6
Continuous
100
AcDbCircle
 10
27.34916
 20
45.744964
 30
0.0
 40
0.35
100
AcDbArc
 50
170.0
 51
350.0
  0
ARC
  5
9C72
330
9AC3
100
AcDbEntity
  8
1
  6
Continuous
100
AcDbCircle
 10
28.05996
 20
45.744964
 30
0.0
 40
0.35
100
AcDbArc
 50
170.0
 51
350.0
  0
ARC
  5
9C73
330
9AC3
100
AcDbEntity
  8
1
  6
Continuous
100
AcDbCircle
 10
28.77076
 20
45.744964
 30
0.0
 40
0.35
100
AcDbArc
 50
170.0
 51
308.9529999999998
  0
ARC
  5
9C74
330
9AC3
100
AcDbEntity
  8
1
  6
Continuous
100
AcDbCircle
 10
29.48155999999999
 20
45.744964
 30
0.0
 40
0.35
100
AcDbArc
 50
231.047
 51
308.9529999999998
  0
ARC
  5
9C75
330
9AC3
100
AcDbEntity
  8
1
  6
Continuous
100
AcDbCircle
 10
19.41816
 20
44.944964
 30
0.0
 40
1.0
100
AcDbArc
 50
323.13
 51
0.0
  0
ARC
  5
9C76
330
9AC3
100
AcDbEntity
  8
1
  6
Continuous
100
AcDbCircle
 10
30.19235999999999
 20
45.744964
 30
0.0
 40
0.35
100
AcDbArc
 50
231.047
 51
350.0
  0
ARC
  5
9C77
330
9AC3
100
AcDbEntity
  8
1
  6
Continuous
100
AcDbCircle
 10
25.51816
 20
1.749263999999999
 30
0.0
 40
46.0576
100
AcDbArc
 50
79.9972
 51
100.0029999999999
  0
ARC
  5
9C78
330
9AC3
100
AcDbEntity
  8
1
  6
Continuous
100
AcDbCircle
 10
25.51816
 20
2.449364
 30
0.0
 40
46.0576
100
AcDbArc
 50
79.9972
 51
100.0029999999999
  0
ARC
  5
9C79
330
9AC3
100
AcDbEntity
  8
1
  6
Continuous
100
AcDbCircle
 10
30.90315999999999
 20
45.744964
 30
0.0
 40
0.35
100
AcDbArc
 50
172.482
 51
350.0
  0
ARC
  5
9C7A
330
9AC3
100
AcDbEntity
  8
1
  6
Continuous
100
AcDbCircle
 10
268.90646
 20
118.6587639999999
 30
0.0
 40
0.6253770000000002
100
AcDbArc
 50
42.86959999999999
 51
46.2751
  0
ARC
  5
9C7B
330
9AC3
100
AcDbEntity
  8
1
  6
Continuous
100
AcDbCircle
 10
269.05746
 20
118.6587639999999
 30
0.0
 40
0.6253770000000002
100
AcDbArc
 50
137.1299999999999
 51
222.8699999999999
  0
ARC
  5
9C7C
330
9AC3
100
AcDbEntity
  8
1
  6
Continuous
100
AcDbCircle
 10
268.98146
 20
118.7287639999997
 30
0.0
 40
0.5225300000000001
100
AcDbArc
 50
42.86959999999999
 51
137.1299999999999
  0
ARC
  5
9C7D
330
9AC3
100
AcDbEntity
  8
1
  6
Continuous
100
AcDbCircle
 10
268.98146
 20
118.5887639999997
 30
0.0
 40
0.5225300000000001
100
AcDbArc
 50
222.8699999999999
 51
294.2769999999999
  0
ARC
  5
9C7E
330
9AC3
100
AcDbEntity
  8
1
  6
Continuous
100
AcDbCircle
 10
268.90646
 20
126.2527639999997
 30
0.0
 40
0.6253770000000002
100
AcDbArc
 50
32.84969999999999
 51
42.86959999999999
  0
ARC
  5
9C7F
330
9AC3
100
AcDbEntity
  8
1
  6
Continuous
100
AcDbCircle
 10
269.05746
 20
126.2527639999997
 30
0.0
 40
0.6253770000000002
100
AcDbArc
 50
137.1299999999999
 51
222.8699999999999
  0
ARC
  5
9C80
330
9AC3
100
AcDbEntity
  8
1
  6
Continuous
100
AcDbCircle
 10
268.98146
 20
126.3227639999999
 30
0.0
 40
0.5225300000000001
100
AcDbArc
 50
42.86959999999999
 51
137.1299999999999
  0
ARC
  5
9C81
330
9AC3
100
AcDbEntity
  8
1
  6
Continuous
100
AcDbCircle
 10
268.98146
 20
126.1827639999999
 30
0.0
 40
0.5225300000000001
100
AcDbArc
 50
222.8699999999999
 51
288.2079999999999
  0
ARC
  5
9C82
330
9AC3
100
AcDbEntity
  8
1
  6
Continuous
100
AcDbCircle
 10
269.80646
 20
126.2527639999997
 30
0.0
 40
0.6253770000000002
100
AcDbArc
 50
317.13
 51
42.86959999999999
  0
ARC
  5
9C83
330
9AC3
100
AcDbEntity
  8
1
  6
Continuous
100
AcDbCircle
 10
269.95746
 20
126.2527639999997
 30
0.0
 40
0.6253770000000002
100
AcDbArc
 50
137.1299999999999
 51
147.1499999999998
  0
ARC
  5
9C84
330
9AC3
100
AcDbEntity
  8
1
  6
Continuous
100
AcDbCircle
 10
269.8814599999999
 20
126.3227639999999
 30
0.0
 40
0.5225300000000001
100
AcDbArc
 50
42.86959999999999
 51
137.1299999999999
  0
ARC
  5
9C85
330
9AC3
100
AcDbEntity
  8
1
  6
Continuous
100
AcDbCircle
 10
269.8814599999999
 20
126.1827639999999
 30
0.0
 40
0.5225300000000001
100
AcDbArc
 50
283.014
 51
317.13
  0
ARC
  5
9C86
330
9AC3
100
AcDbEntity
  8
1
  6
Continuous
100
AcDbCircle
 10
154.68546
 20
118.144764
 30
0.0
 40
2.5
100
AcDbArc
 50
38.2444
 51
344.0409999999998
  0
ARC
  5
9C87
330
9AC3
100
AcDbEntity
  8
1
  6
Continuous
100
AcDbCircle
 10
154.43546
 20
117.894764
 30
0.0
 40
4.25
100
AcDbArc
 50
90.0
 51
270.0
  0
ARC
  5
9C88
330
9AC3
100
AcDbEntity
  8
1
  6
Continuous
100
AcDbCircle
 10
266.18146
 20
116.7337639999997
 30
0.0
 40
15.0
100
AcDbArc
 50
237.769
 51
302.231
  0
ARC
  5
9C89
330
9AC3
100
AcDbEntity
  8
1
  6
Continuous
100
AcDbCircle
 10
25.51816
 20
119.3517639999999
 30
0.0
 40
17.271
100
AcDbArc
 50
242.406
 51
297.5939999999998
  0
ARC
  5
9C8A
330
9AC3
100
AcDbEntity
  8
1
  6
Continuous
100
AcDbCircle
 10
25.51816
 20
116.7337639999997
 30
0.0
 40
15.0
100
AcDbArc
 50
237.769
 51
302.231
  0
ARC
  5
9C8B
330
9AC3
100
AcDbEntity
  8
1
  6
Continuous
100
AcDbCircle
 10
266.18146
 20
110.1447639999999
 30
0.0
 40
6.299999999999998
100
AcDbArc
 50
180.0
 51
0.00001
  0
ARC
  5
9C8C
330
9AC3
100
AcDbEntity
  8
1
  6
Continuous
100
AcDbCircle
 10
32.21816
 20
45.583564
 30
0.0
 40
0.5
100
AcDbArc
 50
0.0
 51
90.0
  0
ARC
  5
9C8D
330
9AC3
100
AcDbEntity
  8
1
  6
Continuous
100
AcDbCircle
 10
18.81815999999998
 20
45.583564
 30
0.0
 40
0.5
100
AcDbArc
 50
90.0
 51
180.0
  0
ARC
  5
9C8E
330
9AC3
100
AcDbEntity
  8
1
  6
Continuous
100
AcDbCircle
 10
208.68546
 20
153.845764
 30
0.0
 40
3.5
100
AcDbArc
 50
202.189
 51
0.0
  0
ARC
  5
9C8F
330
9AC3
100
AcDbEntity
  8
1
  6
Continuous
100
AcDbCircle
 10
208.68546
 20
153.845764
 30
0.0
 40
2.0
100
AcDbArc
 50
202.3169999999999
 51
0.0
  0
ARC
  5
9C90
330
9AC3
100
AcDbEntity
  8
1
  6
Continuous
100
AcDbCircle
 10
37.01815999999999
 20
46.97276399999998
 30
0.0
 40
1.5
100
AcDbArc
 50
270.0
 51
90.0
  0
ARC
  5
9C91
330
9AC3
100
AcDbEntity
  8
1
  6
Continuous
100
AcDbCircle
 10
14.01816
 20
46.97276399999998
 30
0.0
 40
1.5
100
AcDbArc
 50
90.0
 51
270.0
  0
ARC
  5
9C92
330
9AC3
100
AcDbEntity
  8
1
  6
Continuous
100
AcDbCircle
 10
14.01816
 20
219.3167639999999
 30
0.0
 40
1.5
100
AcDbArc
 50
94.713998
 51
270.0
  0
ARC
  5
9C93
330
9AC3
100
AcDbEntity
  8
1
  6
Continuous
100
AcDbCircle
 10
37.01815999999999
 20
219.3167639999999
 30
0.0
 40
1.5
100
AcDbArc
 50
270.0
 51
85.28600199999997
  0
ARC
  5
9C94
330
9AC3
100
AcDbEntity
  8
1
  6
Continuous
100
AcDbCircle
 10
157.35646
 20
138.0917639999997
 30
0.0
 40
3.25
100
AcDbArc
 50
96.24428299999999
 51
191.143
  0
ARC
  5
9C95
330
9AC3
100
AcDbEntity
  8
1
  6
Continuous
100
AcDbCircle
 10
257.18146
 20
134.2157639999997
 30
0.0
 40
4.0
100
AcDbArc
 50
168.46
 51
270.0
  0
ARC
  5
9C96
330
9AC3
100
AcDbEntity
  8
1
  6
Continuous
100
AcDbCircle
 10
257.18146
 20
134.2157639999997
 30
0.0
 40
1.0
100
AcDbArc
 50
167.5190659999999
 51
270.0
  0
ARC
  5
9C97
330
9AC3
100
AcDbEntity
  8
1
  6
Continuous
100
AcDbCircle
 10
275.18146
 20
134.2157639999997
 30
0.0
 40
1.0
100
AcDbArc
 50
270.0
 51
12.480934
  0
ARC
  5
9C98
330
9AC3
100
AcDbEntity
  8
1
  6
Continuous
100
AcDbCircle
 10
275.18146
 20
134.2157639999997
 30
0.0
 40
4.0
100
AcDbArc
 50
270.0
 51
11.5398
  0
LINE
  5
9C99
330
9AC3
100
AcDbEntity
  8
1
  6
Continuous
100
AcDbLine
 10
272.48146
 20
130.2157639999997
 30
0.0
 11
273.38146
 21
130.2157639999997
 31
0.0
  0
LINE
  5
9C9A
330
9AC3
100
AcDbEntity
  8
1
  6
Continuous
100
AcDbLine
 10
266.7814599999999
 20
113.6447639999999
 30
0.0
 11
266.7814599999999
 21
110.8447639999997
 31
0.0
  0
CIRCLE
  5
9C9B
330
9AC3
100
AcDbEntity
  8
3
  6
DASHED
100
AcDbCircle
 10
266.18146
 20
130.844764
 30
0.0
 40
2.799999999999998
  0
CIRCLE
  5
9C9C
330
9AC3
100
AcDbEntity
  8
3
  6
DASHED
100
AcDbCircle
 10
266.18146
 20
107.8447639999997
 30
0.0
 40
2.799999999999998
  0
LINE
  5
9C9D
330
9AC3
100
AcDbEntity
  8
4
  6
CENTER
100
AcDbLine
 10
29.81816
 20
130.844764
 30
0.0
 11
21.21816
 21
130.844764
 31
0.0
  0
LINE
  5
9C9E
330
9AC3
100
AcDbEntity
  8
4
  6
CENTER
100
AcDbLine
 10
29.81816
 20
107.8447639999997
 30
0.0
 11
21.21816
 21
107.8447639999997
 31
0.0
  0
ARC
  5
9C9F
330
9AC3
100
AcDbEntity
  8
1
  6
Continuous
100
AcDbCircle
 10
19.71816
 20
221.9447639999999
 30
0.0
 40
1.199999999999999
100
AcDbArc
 50
90.0
 51
160.528779
  0
ARC
  5
9CA0
330
9AC3
100
AcDbEntity
  8
1
  6
Continuous
100
AcDbCircle
 10
31.31816
 20
221.9447639999999
 30
0.0
 40
1.199999999999999
100
AcDbArc
 50
0.0
 51
90.0
  0
LINE
  5
9CA1
330
9AC3
100
AcDbEntity
  8
1
  6
Continuous
100
AcDbLine
 10
32.51815999999998
 20
218.144764
 30
0.0
 11
32.51815999999998
 21
215.144764
 31
0.0
  0
LINE
  5
9CA2
330
9AC3
100
AcDbEntity
  8
1
  6
Continuous
100
AcDbLine
 10
18.51816
 20
218.144764
 30
0.0
 11
18.51816
 21
215.144764
 31
0.0
  0
ARC
  5
9CA3
330
9AC3
100
AcDbEntity
  8
1
  6
Continuous
100
AcDbCircle
 10
18.31815999999999
 20
215.2687639999999
 30
0.0
 40
0.8
100
AcDbArc
 50
192.5622379999999
 51
270.0
  0
ARC
  5
9CA4
330
9AC3
100
AcDbEntity
  8
1
  6
Continuous
100
AcDbCircle
 10
32.71815999999999
 20
215.2687639999999
 30
0.0
 40
0.8
100
AcDbArc
 50
270.0
 51
347.437762
  0
ARC
  5
9CA5
330
9AC3
100
AcDbEntity
  8
1
  6
Continuous
100
AcDbCircle
 10
18.31815999999999
 20
51.02086400000001
 30
0.0
 40
0.8
100
AcDbArc
 50
90.0
 51
180.0
  0
ARC
  5
9CA6
330
9AC3
100
AcDbEntity
  8
1
  6
Continuous
100
AcDbCircle
 10
32.71815999999999
 20
51.02086400000001
 30
0.0
 40
0.8
100
AcDbArc
 50
0.0
 51
90.0
  0
ARC
  5
9CA7
330
9AC3
100
AcDbEntity
  8
1
  6
Continuous
100
AcDbCircle
 10
19.71816
 20
44.34496399999999
 30
0.0
 40
1.199999999999999
100
AcDbArc
 50
180.0
 51
245.3756819999999
  0
ARC
  5
9CA8
330
9AC3
100
AcDbEntity
  8
1
  6
Continuous
100
AcDbCircle
 10
31.31816
 20
44.34496399999999
 30
0.0
 40
1.199999999999999
100
AcDbArc
 50
294.624318
 51
0.0
  0
ARC
  5
9CA9
330
9AC3
100
AcDbEntity
  8
1
  6
Continuous
100
AcDbCircle
 10
158.68546
 20
153.3457639999998
 30
0.0
 40
1.5
100
AcDbArc
 50
359.1312259999999
 51
179.1312259999999
  0
LINE
  5
9CAA
330
9AC3
100
AcDbEntity
  8
4
  6
CENTER
100
AcDbLine
 10
161.18546
 20
153.3457639999998
 30
0.0
 11
156.18546
 21
153.3457639999998
 31
0.0
  0
LINE
  5
9CAB
330
9AC3
100
AcDbEntity
  8
4
  6
CENTER
100
AcDbLine
 10
158.68546
 20
155.845764
 30
0.0
 11
158.68546
 21
150.845764
 31
0.0
  0
LINE
  5
9CAC
330
9AC3
100
AcDbEntity
  8
1
  6
Continuous
100
AcDbLine
 10
160.1852879999999
 20
153.3230209999999
 30
0.0
 11
159.8572879999998
 21
131.6930209999999
 31
0.0
  0
LINE
  5
9CAD
330
9AC3
100
AcDbEntity
  8
1
  6
Continuous
100
AcDbLine
 10
157.1856329999999
 20
153.3685079999998
 30
0.0
 11
156.8576329999999
 21
131.7385079999999
 31
0.0
  0
LINE
  5
9CAE
330
9AC3
100
AcDbEntity
  8
1
  6
Continuous
100
AcDbLine
 10
260.468308
 20
154.845764
 30
0.0
 11
271.8946129999998
 21
154.845764
 31
0.0
  0
ARC
  5
9CAF
330
9AC3
100
AcDbEntity
  8
1
  6
Continuous
100
AcDbCircle
 10
260.468308
 20
150.845764
 30
0.0
 40
4.0
100
AcDbArc
 50
90.0
 51
168.820703
  0
ARC
  5
9CB0
330
9AC3
100
AcDbEntity
  8
1
  6
Continuous
100
AcDbCircle
 10
271.8946129999998
 20
150.845764
 30
0.0
 40
4.0
100
AcDbArc
 50
11.179297
 51
90.0
  0
LINE
  5
9CB1
330
9AC3
100
AcDbEntity
  8
1
  6
Continuous
100
AcDbLine
 10
260.468308
 20
151.845764
 30
0.0
 11
271.8946129999998
 21
151.845764
 31
0.0
  0
ARC
  5
9CB2
330
9AC3
100
AcDbEntity
  8
1
  6
Continuous
100
AcDbCircle
 10
271.8946129999998
 20
150.845764
 30
0.0
 40
1.0
100
AcDbArc
 50
11.179297
 51
90.0
  0
LINE
  5
9CB3
330
9AC3
100
AcDbEntity
  8
1
  6
Continuous
100
AcDbLine
 10
272.8756379999999
 20
151.0396439999998
 30
0.0
 11
276.157828
 21
134.431879
 31
0.0
  0
ARC
  5
9CB4
330
9AC3
100
AcDbEntity
  8
1
  6
Continuous
100
AcDbCircle
 10
260.468308
 20
150.845764
 30
0.0
 40
1.0
100
AcDbArc
 50
90.0
 51
168.820703
  0
LINE
  5
9CB5
330
9AC3
100
AcDbEntity
  8
1
  6
Continuous
100
AcDbLine
 10
259.4872819999998
 20
151.0396439999998
 30
0.0
 11
256.2050919999999
 21
134.431879
 31
0.0
  0
LINE
  5
9CB6
330
9AC3
100
AcDbEntity
  8
4
  6
CENTER
100
AcDbLine
 10
251.222993
 20
131.7157639999997
 30
0.0
 11
281.6952459999999
 21
131.7157639999997
 31
0.0
  0
ARC
  5
9CB7
330
9AC3
100
AcDbEntity
  8
1
  6
Continuous
100
AcDbCircle
 10
31.231313
 20
150.845764
 30
0.0
 40
1.0
100
AcDbArc
 50
11.179297
 51
90.0
  0
ARC
  5
9CB8
330
9AC3
100
AcDbEntity
  8
1
  6
Continuous
100
AcDbCircle
 10
31.231313
 20
150.845764
 30
0.0
 40
4.0
100
AcDbArc
 50
11.179297
 51
90.0
  0
LINE
  5
9CB9
330
9AC3
100
AcDbEntity
  8
1
  6
Continuous
100
AcDbLine
 10
19.80500799999997
 20
151.845764
 30
0.0
 11
31.231313
 21
151.845764
 31
0.0
  0
LINE
  5
9CBA
330
9AC3
100
AcDbEntity
  8
1
  6
Continuous
100
AcDbLine
 10
19.80500799999997
 20
154.845764
 30
0.0
 11
31.231313
 21
154.845764
 31
0.0
  0
LINE
  5
9CBB
330
9AC3
100
AcDbEntity
  8
1
  6
Continuous
100
AcDbLine
 10
35.155414
 20
151.621284
 30
0.0
 11
38.43716
 21
135.0157639999999
 31
0.0
  0
LINE
  5
9CBC
330
9AC3
100
AcDbEntity
  8
1
  6
Continuous
100
AcDbLine
 10
32.212338
 20
151.0396439999998
 30
0.0
 11
35.494528
 21
134.431879
 31
0.0
  0
ARC
  5
9CBD
330
9AC3
100
AcDbEntity
  8
1
  6
Continuous
100
AcDbCircle
 10
19.80500799999997
 20
150.845764
 30
0.0
 40
4.0
100
AcDbArc
 50
90.0
 51
168.820703
  0
LINE
  5
9CBE
330
9AC3
100
AcDbEntity
  8
1
  6
Continuous
100
AcDbLine
 10
18.823982
 20
151.0396439999998
 30
0.0
 11
15.541792
 21
134.431879
 31
0.0
  0
LINE
  5
9CBF
330
9AC3
100
AcDbEntity
  8
1
  6
Continuous
100
AcDbLine
 10
15.880907
 20
151.621284
 30
0.0
 11
12.59916
 21
135.0157639999999
 31
0.0
  0
ARC
  5
9CC0
330
9AC3
100
AcDbEntity
  8
1
  6
Continuous
100
AcDbCircle
 10
19.80500799999997
 20
150.845764
 30
0.0
 40
1.0
100
AcDbArc
 50
90.0
 51
168.820703
  0
ARC
  5
9CC1
330
9AC3
100
AcDbEntity
  8
1
  6
Continuous
100
AcDbCircle
 10
16.51816
 20
134.2157639999997
 30
0.0
 40
1.0
100
AcDbArc
 50
167.5190659999999
 51
270.0
  0
ARC
  5
9CC2
330
9AC3
100
AcDbEntity
  8
1
  6
Continuous
100
AcDbCircle
 10
16.51816
 20
134.2157639999997
 30
0.0
 40
4.0
100
AcDbArc
 50
168.46
 51
270.0
  0
LINE
  5
9CC3
330
9AC3
100
AcDbEntity
  8
1
  6
Continuous
100
AcDbLine
 10
16.51816
 20
130.2157639999997
 30
0.0
 11
17.51816
 21
130.2157639999997
 31
0.0
  0
LINE
  5
9CC4
330
9AC3
100
AcDbEntity
  8
1
  6
Continuous
100
AcDbLine
 10
16.51816
 20
133.2157639999997
 30
0.0
 11
17.51816
 21
133.2157639999997
 31
0.0
  0
ARC
  5
9CC5
330
9AC3
100
AcDbEntity
  8
1
  6
Continuous
100
AcDbCircle
 10
34.51815999999999
 20
134.2157639999997
 30
0.0
 40
1.0
100
AcDbArc
 50
270.0
 51
12.480934
  0
LINE
  5
9CC6
330
9AC3
100
AcDbEntity
  8
1
  6
Continuous
100
AcDbLine
 10
33.51815999999999
 20
133.2157639999997
 30
0.0
 11
34.51815999999999
 21
133.2157639999997
 31
0.0
  0
ARC
  5
9CC7
330
9AC3
100
AcDbEntity
  8
1
  6
Continuous
100
AcDbCircle
 10
34.51815999999999
 20
134.2157639999997
 30
0.0
 40
4.0
100
AcDbArc
 50
270.0
 51
11.5398
  0
LINE
  5
9CC8
330
9AC3
100
AcDbEntity
  8
1
  6
Continuous
100
AcDbLine
 10
33.51815999999999
 20
130.2157639999997
 30
0.0
 11
34.51815999999999
 21
130.2157639999997
 31
0.0
  0
LINE
  5
9CC9
330
9AC3
100
AcDbEntity
  8
4
  6
CENTER
100
AcDbLine
 10
10.55969299999999
 20
131.7157639999997
 30
0.0
 11
41.03194600000001
 21
131.7157639999997
 31
0.0
  0
LINE
  5
9CCA
330
9AC3
100
AcDbEntity
  8
1
  6
Continuous
100
AcDbLine
 10
17.93406
 20
221.144764
 30
0.0
 11
13.894887
 21
220.8116899999999
 31
0.0
  0
LINE
  5
9CCB
330
9AC3
100
AcDbEntity
  8
1
  6
Continuous
100
AcDbLine
 10
33.10226
 20
221.144764
 30
0.0
 11
37.14143299999999
 21
220.8116899999999
 31
0.0
  0
LINE
  5
9CCC
330
9AC3
100
AcDbEntity
  8
1
  6
Continuous
100
AcDbLine
 10
32.97877800000001
 20
218.144764
 30
0.0
 11
36.894887
 21
217.821838
 31
0.0
  0
LINE
  5
9CCD
330
9AC3
100
AcDbEntity
  8
1
  6
Continuous
100
AcDbLine
 10
18.057542
 20
218.144764
 30
0.0
 11
14.141433
 21
217.821838
 31
0.0
  0
LINE
  5
9CCE
330
9AC3
100
AcDbEntity
  8
1
  6
Continuous
100
AcDbLine
 10
32.97877800000001
 20
218.144764
 30
0.0
 11
18.057542
 21
218.144764
 31
0.0
  0
LINE
  5
9CCF
330
9AC3
100
AcDbEntity
  8
1
  6
Continuous
100
AcDbLine
 10
33.51815999999999
 20
45.17926
 30
0.0
 11
37.14143299999999
 21
45.47803799999999
 31
0.0
  0
LINE
  5
9CD0
330
9AC3
100
AcDbEntity
  8
1
  6
Continuous
100
AcDbLine
 10
32.71815999999999
 20
45.144964
 30
0.0
 11
32.51815999999998
 21
45.144964
 31
0.0
  0
LINE
  5
9CD1
330
9AC3
100
AcDbEntity
  8
1
  6
Continuous
100
AcDbLine
 10
17.51816
 20
45.17926
 30
0.0
 11
13.894887
 21
45.47803799999999
 31
0.0
  0
LINE
  5
9CD2
330
9AC3
100
AcDbEntity
  8
1
  6
Continuous
100
AcDbLine
 10
24.91816
 20
45.144964
 30
0.0
 11
20.41816
 21
45.144964
 31
0.0
  0
LINE
  5
9CD3
330
9AC3
100
AcDbEntity
  8
1
  6
Continuous
100
AcDbLine
 10
18.51816
 20
45.144964
 30
0.0
 11
18.31815999999999
 21
45.144964
 31
0.0
  0
LINE
  5
9CD4
330
9AC3
100
AcDbEntity
  8
1
  6
Continuous
100
AcDbLine
 10
31.31816
 20
45.144964
 30
0.0
 11
26.11816
 21
45.144964
 31
0.0
  0
LINE
  5
9CD5
330
9AC3
100
AcDbEntity
  8
1
  6
Continuous
100
AcDbLine
 10
212.18546
 20
155.3457639999997
 30
0.0
 11
210.68546
 21
155.3457639999997
 31
0.0
  0
LINE
  5
9CD6
330
9AC3
100
AcDbEntity
  8
1
  6
Continuous
100
AcDbLine
 10
162.1854599999998
 20
133.244764
 30
0.0
 11
160.98546
 21
133.244764
 31
0.0
  0
LINE
  5
9CD7
330
9AC3
100
AcDbEntity
  8
1
  6
Continuous
100
AcDbLine
 10
162.1854599999998
 20
126.8447639999999
 30
0.0
 11
160.98546
 21
126.8447639999999
 31
0.0
  0
LINE
  5
9CD8
330
9AC3
100
AcDbEntity
  8
1
  6
Continuous
100
AcDbLine
 10
162.1854599999998
 20
123.6447639999999
 30
0.0
 11
160.98546
 21
123.6447639999999
 31
0.0
  0
LINE
  5
9CD9
330
9AC3
100
AcDbEntity
  8
1
  6
Continuous
100
AcDbLine
 10
162.1854599999998
 20
113.6447639999999
 30
0.0
 11
160.98546
 21
113.6447639999999
 31
0.0
  0
LINE
  5
9CDA
330
9AC3
100
AcDbEntity
  8
1
  6
Continuous
100
AcDbLine
 10
162.1854599999998
 20
110.8447639999997
 30
0.0
 11
160.98546
 21
110.8447639999997
 31
0.0
  0
LINE
  5
9CDB
330
9AC3
100
AcDbEntity
  8
1
  6
Continuous
100
AcDbLine
 10
268.4314599999999
 20
120.074355
 30
0.0
 11
268.8881349999999
 21
120.074355
 31
0.0
  0
LINE
  5
9CDC
330
9AC3
100
AcDbEntity
  8
1
  6
Continuous
100
AcDbLine
 10
270.43146
 20
120.701805
 30
0.0
 11
268.4314599999999
 21
121.291255
 31
0.0
  0
LINE
  5
9CDD
330
9AC3
100
AcDbEntity
  8
1
  6
Continuous
100
AcDbLine
 10
268.4314599999999
 20
120.074355
 30
0.0
 11
268.4314599999999
 21
121.291255
 31
0.0
  0
LINE
  5
9CDE
330
9AC3
100
AcDbEntity
  8
1
  6
Continuous
100
AcDbLine
 10
269.04356
 20
122.1111449999997
 30
0.0
 11
269.81936
 21
122.1111449999997
 31
0.0
  0
LINE
  5
9CDF
330
9AC3
100
AcDbEntity
  8
1
  6
Continuous
100
AcDbLine
 10
269.04356
 20
123.2961449999999
 30
0.0
 11
269.81936
 21
123.2961449999999
 31
0.0
  0
ARC
  5
9CE0
330
9AC3
100
AcDbEntity
  8
1
  6
Continuous
100
AcDbCircle
 10
269.04356
 20
122.7374949999999
 30
0.0
 40
0.62634
100
AcDbArc
 50
225.9279999999999
 51
270.0
  0
ARC
  5
9CE1
330
9AC3
100
AcDbEntity
  8
1
  6
Continuous
100
AcDbCircle
 10
269.04356
 20
122.6697949999997
 30
0.0
 40
0.62634
100
AcDbArc
 50
90.0
 51
134.0724999999999
  0
ARC
  5
9CE2
330
9AC3
100
AcDbEntity
  8
1
  6
Continuous
100
AcDbCircle
 10
269.0108
 20
122.7036449999999
 30
0.0
 40
0.57924
100
AcDbArc
 50
134.0724999999999
 51
225.9279999999999
  0
ARC
  5
9CE3
330
9AC3
100
AcDbEntity
  8
1
  6
Continuous
100
AcDbCircle
 10
269.81936
 20
122.7374949999999
 30
0.0
 40
0.62634
100
AcDbArc
 50
270.0
 51
314.0719999999999
  0
ARC
  5
9CE4
330
9AC3
100
AcDbEntity
  8
1
  6
Continuous
100
AcDbCircle
 10
269.81936
 20
122.6697949999997
 30
0.0
 40
0.62634
100
AcDbArc
 50
45.92699999999999
 51
90.0
  0
ARC
  5
9CE5
330
9AC3
100
AcDbEntity
  8
1
  6
Continuous
100
AcDbCircle
 10
269.85212
 20
122.7036449999999
 30
0.0
 40
0.57924
100
AcDbArc
 50
314.0719999999999
 51
45.92699999999999
  0
ENDSEC
  0
SECTION
  2
OBJECTS
  0
DICTIONARY
  5
9AB1
330
0
100
AcDbDictionary
281
     1
  3
ACAD_CIP_PREVIOUS_PRODUCT_INFO
350
9DA5
  3
ACAD_COLOR
350
9D87
  3
ACAD_DETAILVIEWSTYLE
350
9DA0
  3
ACAD_GROUP
350
9AB2
  3
ACAD_LAYOUT
350
9ABE
  3
ACAD_MATERIAL
350
9D55
  3
ACAD_MLEADERSTYLE
350
9D9C
  3
ACAD_MLINESTYLE
350
9ABB
  3
ACAD_PLOTSETTINGS
350
9ABD
  3
ACAD_PLOTSTYLENAME
350
9D53
  3
ACAD_SCALELIST
350
9D8A
  3
ACAD_SECTIONVIEWSTYLE
350
9D9E
  3
ACAD_TABLESTYLE
350
9D88
  3
ACAD_VISUALSTYLE
350
9D6E
  3
ACDB_RECOMPOSE_DATA
350
9DC3
  3
AcDbVariableDictionary
350
9DB6
  3
DWGPROPS
350
9DC4
  0
DICTIONARY
  5
9DA6
330
9AB5
100
AcDbDictionary
280
     1
281
     1
  3
ADSK_XREC_LAYER_RECONCILED
360
9DA7
  0
DICTIONARY
  5
9DA8
330
9ACB
100
AcDbDictionary
280
     1
281
     1
  3
ADSK_XREC_LAYER_RECONCILED
360
9DA9
  0
DICTIONARY
  5
9DAA
330
9ACC
100
AcDbDictionary
280
     1
281
     1
  3
ADSK_XREC_LAYER_RECONCILED
360
9DAB
  0
DICTIONARY
  5
9DAC
330
9ACD
100
AcDbDictionary
280
     1
281
     1
  3
ADSK_XREC_LAYER_RECONCILED
360
9DAD
  0
DICTIONARY
  5
9DAE
330
9ACE
100
AcDbDictionary
280
     1
281
     1
  3
ADSK_XREC_LAYER_RECONCILED
360
9DAF
  0
DICTIONARY
  5
9DB0
330
9ACF
100
AcDbDictionary
280
     1
281
     1
  3
ADSK_XREC_LAYER_RECONCILED
360
9DB1
  0
DICTIONARY
  5
9DB2
330
9AD0
100
AcDbDictionary
280
     1
281
     1
  3
ADSK_XREC_LAYER_RECONCILED
360
9DB3
  0
DICTIONARY
  5
9DB4
330
9AD1
100
AcDbDictionary
280
     1
281
     1
  3
ADSK_XREC_LAYER_RECONCILED
360
9DB5
  0
DICTIONARY
  5
9CF2
330
9AC3
100
AcDbDictionary
281
     1
  3
ACAD_LAYOUTSELFREF
350
9D4F
  0
DICTIONARY
  5
9CF0
330
9ABF
100
AcDbDictionary
281
     1
  3
ACAD_LAYOUTSELFREF
350
9D4E
  0
XRECORD
  5
9DA5
102
{ACAD_REACTORS
330
9AB1
102
}
330
9AB1
100
AcDbXrecord
280
     1
300
ACDLT
300
2014
300
ACDLT_F_S
  0
DICTIONARY
  5
9D87
102
{ACAD_REACTORS
330
9AB1
102
}
330
9AB1
100
AcDbDictionary
281
     1
  0
DICTIONARY
  5
9DA0
102
{ACAD_REACTORS
330
9AB1
102
}
330
9AB1
100
AcDbDictionary
281
     1
  3
Imperial24
350
9DA1
  0
DICTIONARY
  5
9AB2
102
{ACAD_REACTORS
330
9AB1
102
}
330
9AB1
100
AcDbDictionary
281
     1
  0
DICTIONARY
  5
9ABE
102
{ACAD_REACTORS
330
9AB1
102
}
330
9AB1
100
AcDbDictionary
281
     1
  3
Model
350
9DA2
  3
レイアウト1
350
9DA3
  0
DICTIONARY
  5
9D55
102
{ACAD_REACTORS
330
9AB1
102
}
330
9AB1
100
AcDbDictionary
281
     1
  3
ByBlock
350
9D5E
  3
ByLayer
350
9D56
  3
Global
350
9D66
  0
DICTIONARY
  5
9D9C
102
{ACAD_REACTORS
330
9AB1
102
}
330
9AB1
100
AcDbDictionary
281
     1
  3
Standard
350
9D9D
  0
DICTIONARY
  5
9ABB
102
{ACAD_REACTORS
330
9AB1
102
}
330
9AB1
100
AcDbDictionary
281
     1
  3
STANDARD
350
9ABC
  0
DICTIONARY
  5
9ABD
102
{ACAD_REACTORS
330
9AB1
102
}
330
9AB1
100
AcDbDictionary
281
     1
  0
ACDBDICTIONARYWDFLT
  5
9D53
102
{ACAD_REACTORS
330
9AB1
102
}
330
9AB1
100
AcDbDictionary
281
     1
  3
Normal
350
9D54
100
AcDbDictionaryWithDefault
340
9D54
  0
DICTIONARY
  5
9D8A
102
{ACAD_REACTORS
330
9AB1
102
}
330
9AB1
100
AcDbDictionary
281
     1
  3
A0
350
9D8B
  3
A1
350
9D8C
  3
A2
350
9D8D
  3
A3
350
9D8E
  3
A4
350
9D8F
  3
A5
350
9D90
  3
A6
350
9D91
  3
A7
350
9D92
  3
A8
350
9D93
  3
A9
350
9D94
  3
B0
350
9D95
  3
B1
350
9D96
  3
B2
350
9D97
  3
B3
350
9D98
  3
B4
350
9D99
  3
B5
350
9D9A
  3
B6
350
9D9B
  0
DICTIONARY
  5
9D9E
102
{ACAD_REACTORS
330
9AB1
102
}
330
9AB1
100
AcDbDictionary
281
     1
  3
Imperial24
350
9D9F
  0
DICTIONARY
  5
9D88
102
{ACAD_REACTORS
330
9AB1
102
}
330
9AB1
100
AcDbDictionary
281
     1
  3
Standard
350
9D89
  0
DICTIONARY
  5
9D6E
102
{ACAD_REACTORS
330
9AB1
102
}
330
9AB1
100
AcDbDictionary
281
     1
  3
2dWireframe
350
9D74
  3
Basic
350
9D73
  3
Brighten
350
9D7A
  3
ColorChange
350
9D7E
  3
Conceptual
350
9D77
  3
Dim
350
9D79
  3
EdgeColorOff
350
9D86
  3
Facepattern
350
9D7D
  3
Flat
350
9D6F
  3
FlatWithEdges
350
9D70
  3
Gouraud
350
9D71
  3
GouraudWithEdges
350
9D72
  3
Hidden
350
9D76
  3
JitterOff
350
9D84
  3
Linepattern
350
9D7C
  3
OverhangOff
350
9D85
  3
Realistic
350
9D78
  3
Shaded
350
9D83
  3
Shaded with edges
350
9D82
  3
Shades of Gray
350
9D7F
  3
Sketchy
350
9D80
  3
Thicken
350
9D7B
  3
Wireframe
350
9D75
  3
X-Ray
350
9D81
  0
XRECORD
  5
9DC3
102
{ACAD_REACTORS
330
9AB1
102
}
330
9AB1
100
AcDbXrecord
280
     1
 90
        1
330
9D89
  0
DICTIONARY
  5
9DB6
102
{ACAD_REACTORS
330
9AB1
102
}
330
9AB1
100
AcDbDictionary
281
     1
  3
CANNOSCALE
350
9DBB
  3
CMLEADERSTYLE
350
9DB8
  3
CTABLESTYLE
350
9DB7
  3
CVIEWDETAILSTYLE
350
9DB9
  3
CVIEWSECTIONSTYLE
350
9DBA
  3
DIMASSOC
350
9DBE
  3
INDEXCTL
350
9DBD
  3
SORTENTS
350
9DBC
  3
XCLIPFRAME
350
9DBF
  0
XRECORD
  5
9DC4
102
{ACAD_REACTORS
330
9AB1
102
}
330
9AB1
100
AcDbXrecord
280
     1
  1
DWGPROPS COOKIE
  2

  3

  4

  6

  7

  8
Yoshitsune
  9

300
=
301
=
302
=
303
=
304
=
305
=
306
=
307
=
308
=
309
=
 40
0.000434537037037
 41
2450964.479692129
 42
2457192.60094162
  1

 90
        0
  0
XRECORD
  5
9DA7
102
{ACAD_REACTORS
330
9DA6
102
}
330
9DA6
100
AcDbXrecord
280
     1
290
     1
  0
XRECORD
  5
9DA9
102
{ACAD_REACTORS
330
9DA8
102
}
330
9DA8
100
AcDbXrecord
280
     1
290
     1
  0
XRECORD
  5
9DAB
102
{ACAD_REACTORS
330
9DAA
102
}
330
9DAA
100
AcDbXrecord
280
     1
290
     1
  0
XRECORD
  5
9DAD
102
{ACAD_REACTORS
330
9DAC
102
}
330
9DAC
100
AcDbXrecord
280
     1
290
     1
  0
XRECORD
  5
9DAF
102
{ACAD_REACTORS
330
9DAE
102
}
330
9DAE
100
AcDbXrecord
280
     1
290
     1
  0
XRECORD
  5
9DB1
102
{ACAD_REACTORS
330
9DB0
102
}
330
9DB0
100
AcDbXrecord
280
     1
290
     1
  0
XRECORD
  5
9DB3
102
{ACAD_REACTORS
330
9DB2
102
}
330
9DB2
100
AcDbXrecord
280
     1
290
     1
  0
XRECORD
  5
9DB5
102
{ACAD_REACTORS
330
9DB4
102
}
330
9DB4
100
AcDbXrecord
280
     1
290
     1
  0
XRECORD
  5
9D4F
102
{ACAD_REACTORS
330
9CF2
102
}
330
9CF2
100
AcDbXrecord
280
     1
340
9AC3
  0
XRECORD
  5
9D4E
102
{ACAD_REACTORS
330
9CF0
102
}
330
9CF0
100
AcDbXrecord
280
     1
340
9ABF
  0
ACDBDETAILVIEWSTYLE
  5
9DA1
102
{ACAD_XDICTIONARY
360
9DFC
102
}
102
{ACAD_REACTORS
330
9DA0
102
}
330
9DA0
100
AcDbModelDocViewStyle
 70
     0
  3
Imperial24
290
     0
100
AcDbDetailViewStyle
 70
     0
 71
     0
 90
        3
 71
     1
340
9AB6
 40
0.24
340
0
 40
0.24
300

 40
0.36
280
     3
 71
     2
340
9ABA
 90
       25
 71
     3
340
9AB6
 40
0.24
 90
        1
 40
0.75
 90
        1
300
%<\AcVar ViewType \f "%tc1">% %<\AcVar ViewDetailId>%\PSCALE %<\AcVar ViewScale \f "%sn">%
 71
     4
340
9ABA
 90
       25
340
9ABA
 90
       25
280
     0
  0
LAYOUT
  5
9DA2
102
{ACAD_XDICTIONARY
360
9DFE
102
}
102
{ACAD_REACTORS
330
9ABE
102
}
330
9ABE
100
AcDbPlotSettings
  1

  2
Canon LBP9100C
  4

  6

 40
0.0
 41
0.0
 42
0.0
 43
0.0
 44
0.0
 45
0.0
 46
0.0
 47
0.0
 48
0.0
 49
0.0
140
0.0
141
0.0
142
1.0
143
1.0
 70
  1712
 72
     0
 73
     0
 74
     0
  7

 75
     0
147
1.0
148
0.0
149
0.0
100
AcDbLayout
  1
Model
 70
     1
 71
     0
 10
0.0
 20
0.0
 11
12.0
 21
9.0
 12
0.0
 22
0.0
 32
0.0
 14
0.0
 24
0.0
 34
0.0
 15
0.0
 25
0.0
 35
0.0
146
0.0
 13
0.0
 23
0.0
 33
0.0
 16
1.0
 26
0.0
 36
0.0
 17
0.0
 27
1.0
 37
0.0
 76
     0
330
9AC3
331
9D4D
  0
LAYOUT
  5
9DA3
102
{ACAD_XDICTIONARY
360
9E00
102
}
102
{ACAD_REACTORS
330
9ABE
102
}
330
9ABE
100
AcDbPlotSettings
  1

  2
Canon LBP9100C
  4

  6

 40
0.0
 41
0.0
 42
0.0
 43
0.0
 44
0.0
 45
0.0
 46
0.0
 47
0.0
 48
0.0
 49
0.0
140
0.0
141
0.0
142
1.0
143
1.0
 70
   688
 72
     0
 73
     0
 74
     5
  7

 75
    16
147
1.0
148
0.0
149
0.0
100
AcDbLayout
  1
レイアウト1
 70
     0
 71
     1
 10
0.0
 20
0.0
 11
420.0
 21
297.0
 12
0.0
 22
0.0
 32
0.0
 14
1.000000000000000E+20
 24
1.000000000000000E+20
 34
1.000000000000000E+20
 15
-1.000000000000000E+20
 25
-1.000000000000000E+20
 35
-1.000000000000000E+20
146
0.0
 13
0.0
 23
0.0
 33
0.0
 16
1.0
 26
0.0
 36
0.0
 17
0.0
 27
1.0
 37
0.0
 76
     0
330
9ABF
  0
MATERIAL
  5
9D5E
102
{ACAD_XDICTIONARY
360
9D5F
102
}
102
{ACAD_REACTORS
330
9D55
102
}
330
9D55
100
AcDbMaterial
  1
ByBlock
 72
     0
 43
0.0208333333333333
 43
0.0
 43
0.0
 43
0.0
 43
0.0
 43
0.0208333333333333
 43
0.0
 43
0.0
 43
0.0
 43
0.0
 43
1.0
 43
0.0
 43
0.0
 43
0.0
 43
0.0
 43
1.0
 77
     0
 47
0.0208333333333333
 47
0.0
 47
0.0
 47
0.0
 47
0.0
 47
0.0208333333333333
 47
0.0
 47
0.0
 47
0.0
 47
0.0
 47
1.0
 47
0.0
 47
0.0
 47
0.0
 47
0.0
 47
1.0
171
     0
 49
0.0208333333333333
 49
0.0
 49
0.0
 49
0.0
 49
0.0
 49
0.0208333333333333
 49
0.0
 49
0.0
 49
0.0
 49
0.0
 49
1.0
 49
0.0
 49
0.0
 49
0.0
 49
0.0
 49
1.0
175
     0
142
0.0208333333333333
142
0.0
142
0.0
142
0.0
142
0.0
142
0.0208333333333333
142
0.0
142
0.0
142
0.0
142
0.0
142
1.0
142
0.0
142
0.0
142
0.0
142
0.0
142
1.0
179
     0
144
0.0208333333333333
144
0.0
144
0.0
144
0.0
144
0.0
144
0.0208333333333333
144
0.0
144
0.0
144
0.0
144
0.0
144
1.0
144
0.0
144
0.0
144
0.0
144
0.0
144
1.0
147
0.0208333333333333
147
0.0
147
0.0
147
0.0
147
0.0
147
0.0208333333333333
147
0.0
147
0.0
147
0.0
147
0.0
147
1.0
147
0.0
147
0.0
147
0.0
147
0.0
147
1.0
  0
MATERIAL
  5
9D56
102
{ACAD_XDICTIONARY
360
9D57
102
}
102
{ACAD_REACTORS
330
9D55
102
}
330
9D55
100
AcDbMaterial
  1
ByLayer
 72
     0
 43
0.0208333333333333
 43
0.0
 43
0.0
 43
0.0
 43
0.0
 43
0.0208333333333333
 43
0.0
 43
0.0
 43
0.0
 43
0.0
 43
1.0
 43
0.0
 43
0.0
 43
0.0
 43
0.0
 43
1.0
 77
     0
 47
0.0208333333333333
 47
0.0
 47
0.0
 47
0.0
 47
0.0
 47
0.0208333333333333
 47
0.0
 47
0.0
 47
0.0
 47
0.0
 47
1.0
 47
0.0
 47
0.0
 47
0.0
 47
0.0
 47
1.0
171
     0
 49
0.0208333333333333
 49
0.0
 49
0.0
 49
0.0
 49
0.0
 49
0.0208333333333333
 49
0.0
 49
0.0
 49
0.0
 49
0.0
 49
1.0
 49
0.0
 49
0.0
 49
0.0
 49
0.0
 49
1.0
175
     0
142
0.0208333333333333
142
0.0
142
0.0
142
0.0
142
0.0
142
0.0208333333333333
142
0.0
142
0.0
142
0.0
142
0.0
142
1.0
142
0.0
142
0.0
142
0.0
142
0.0
142
1.0
179
     0
144
0.0208333333333333
144
0.0
144
0.0
144
0.0
144
0.0
144
0.0208333333333333
144
0.0
144
0.0
144
0.0
144
0.0
144
1.0
144
0.0
144
0.0
144
0.0
144
0.0
144
1.0
147
0.0208333333333333
147
0.0
147
0.0
147
0.0
147
0.0
147
0.0208333333333333
147
0.0
147
0.0
147
0.0
147
0.0
147
1.0
147
0.0
147
0.0
147
0.0
147
0.0
147
1.0
  0
MATERIAL
  5
9D66
102
{ACAD_XDICTIONARY
360
9D67
102
}
102
{ACAD_REACTORS
330
9D55
102
}
330
9D55
100
AcDbMaterial
  1
Global
 72
     0
 43
0.0208333333333333
 43
0.0
 43
0.0
 43
0.0
 43
0.0
 43
0.0208333333333333
 43
0.0
 43
0.0
 43
0.0
 43
0.0
 43
1.0
 43
0.0
 43
0.0
 43
0.0
 43
0.0
 43
1.0
 77
     0
 47
0.0208333333333333
 47
0.0
 47
0.0
 47
0.0
 47
0.0
 47
0.0208333333333333
 47
0.0
 47
0.0
 47
0.0
 47
0.0
 47
1.0
 47
0.0
 47
0.0
 47
0.0
 47
0.0
 47
1.0
171
     0
 49
0.0208333333333333
 49
0.0
 49
0.0
 49
0.0
 49
0.0
 49
0.0208333333333333
 49
0.0
 49
0.0
 49
0.0
 49
0.0
 49
1.0
 49
0.0
 49
0.0
 49
0.0
 49
0.0
 49
1.0
175
     0
142
0.0208333333333333
142
0.0
142
0.0
142
0.0
142
0.0
142
0.0208333333333333
142
0.0
142
0.0
142
0.0
142
0.0
142
1.0
142
0.0
142
0.0
142
0.0
142
0.0
142
1.0
179
     0
144
0.0208333333333333
144
0.0
144
0.0
144
0.0
144
0.0
144
0.0208333333333333
144
0.0
144
0.0
144
0.0
144
0.0
144
1.0
144
0.0
144
0.0
144
0.0
144
0.0
144
1.0
147
0.0208333333333333
147
0.0
147
0.0
147
0.0
147
0.0
147
0.0208333333333333
147
0.0
147
0.0
147
0.0
147
0.0
147
1.0
147
0.0
147
0.0
147
0.0
147
0.0
147
1.0
  0
MLEADERSTYLE
  5
9D9D
102
{ACAD_REACTORS
330
9D9C
102
}
330
9D9C
100
AcDbMLeaderStyle
170
     2
171
     1
172
     0
 90
        2
 40
0.0
 41
0.0
173
     1
 91
-1056964608
340
9AB8
 92
       -2
290
     1
 42
0.09
291
     1
 43
0.36
  3
Standard
 44
0.18
300

342
9AB6
174
     1
178
     6
175
     1
176
     0
 93
-1056964608
 45
0.18
292
     0
297
     0
 46
0.18
 94
-1056964608
 47
1.0
 49
1.0
140
1.0
293
     1
141
0.0
294
     1
177
     0
142
1.0
295
     0
296
     0
143
0.125
1001
ACAD_MLEADERVER
1070
     2
  0
MLINESTYLE
  5
9ABC
102
{ACAD_REACTORS
330
9ABB
102
}
330
9ABB
100
AcDbMlineStyle
  2
STANDARD
 70
     0
  3

 62
   256
 51
90.0
 52
90.0
 71
     2
 49
0.5
 62
   256
  6
BYLAYER
 49
-0.5
 62
   256
  6
BYLAYER
  0
ACDBPLACEHOLDER
  5
9D54
102
{ACAD_REACTORS
330
9D53
102
}
330
9D53
  0
SCALE
  5
9D8B
102
{ACAD_REACTORS
330
9D8A
102
}
330
9D8A
100
AcDbScale
 70
     0
300
1:1
140
1.0
141
1.0
290
     1
  0
SCALE
  5
9D8C
102
{ACAD_REACTORS
330
9D8A
102
}
330
9D8A
100
AcDbScale
 70
     0
300
1/128" = 1'-0"
140
0.0078125
141
12.0
290
     0
  0
SCALE
  5
9D8D
102
{ACAD_REACTORS
330
9D8A
102
}
330
9D8A
100
AcDbScale
 70
     0
300
1/64" = 1'-0"
140
0.015625
141
12.0
290
     0
  0
SCALE
  5
9D8E
102
{ACAD_REACTORS
330
9D8A
102
}
330
9D8A
100
AcDbScale
 70
     0
300
1/32" = 1'-0"
140
0.03125
141
12.0
290
     0
  0
SCALE
  5
9D8F
102
{ACAD_REACTORS
330
9D8A
102
}
330
9D8A
100
AcDbScale
 70
     0
300
1/16" = 1'-0"
140
0.0625
141
12.0
290
     0
  0
SCALE
  5
9D90
102
{ACAD_REACTORS
330
9D8A
102
}
330
9D8A
100
AcDbScale
 70
     0
300
3/32" = 1'-0"
140
0.09375
141
12.0
290
     0
  0
SCALE
  5
9D91
102
{ACAD_REACTORS
330
9D8A
102
}
330
9D8A
100
AcDbScale
 70
     0
300
1/8" = 1'-0"
140
0.125
141
12.0
290
     0
  0
SCALE
  5
9D92
102
{ACAD_REACTORS
330
9D8A
102
}
330
9D8A
100
AcDbScale
 70
     0
300
3/16" = 1'-0"
140
0.1875
141
12.0
290
     0
  0
SCALE
  5
9D93
102
{ACAD_REACTORS
330
9D8A
102
}
330
9D8A
100
AcDbScale
 70
     0
300
1/4" = 1'-0"
140
0.25
141
12.0
290
     0
  0
SCALE
  5
9D94
102
{ACAD_REACTORS
330
9D8A
102
}
330
9D8A
100
AcDbScale
 70
     0
300
3/8" = 1'-0"
140
0.375
141
12.0
290
     0
  0
SCALE
  5
9D95
102
{ACAD_REACTORS
330
9D8A
102
}
330
9D8A
100
AcDbScale
 70
     0
300
1/2" = 1'-0"
140
0.5
141
12.0
290
     0
  0
SCALE
  5
9D96
102
{ACAD_REACTORS
330
9D8A
102
}
330
9D8A
100
AcDbScale
 70
     0
300
3/4" = 1'-0"
140
0.75
141
12.0
290
     0
  0
SCALE
  5
9D97
102
{ACAD_REACTORS
330
9D8A
102
}
330
9D8A
100
AcDbScale
 70
     0
300
1" = 1'-0"
140
1.0
141
12.0
290
     0
  0
SCALE
  5
9D98
102
{ACAD_REACTORS
330
9D8A
102
}
330
9D8A
100
AcDbScale
 70
     0
300
1-1/2" = 1'-0"
140
1.5
141
12.0
290
     0
  0
SCALE
  5
9D99
102
{ACAD_REACTORS
330
9D8A
102
}
330
9D8A
100
AcDbScale
 70
     0
300
3" = 1'-0"
140
3.0
141
12.0
290
     0
  0
SCALE
  5
9D9A
102
{ACAD_REACTORS
330
9D8A
102
}
330
9D8A
100
AcDbScale
 70
     0
300
6" = 1'-0"
140
6.0
141
12.0
290
     0
  0
SCALE
  5
9D9B
102
{ACAD_REACTORS
330
9D8A
102
}
330
9D8A
100
AcDbScale
 70
     0
300
1'-0" = 1'-0"
140
12.0
141
12.0
290
     0
  0
ACDBSECTIONVIEWSTYLE
  5
9D9F
102
{ACAD_XDICTIONARY
360
9DFA
102
}
102
{ACAD_REACTORS
330
9D9E
102
}
330
9D9E
100
AcDbModelDocViewStyle
 70
     0
  3
Imperial24
290
     0
100
AcDbSectionViewStyle
 70
     0
 71
     0
 90
       78
 71
     1
340
9AB6
 40
0.24
340
0
340
0
 40
0.24
300
I, O, Q, S, X, Z
 40
0.48
 90
        3
 40
0.18
 90
        1
 71
     2
340
9ABA
 90
       25
340
9ABA
 90
       50
 40
0.24
 40
0.0
 40
0.24
 71
     3
340
9AB6
 40
0.24
 90
        1
 40
0.75
 90
        1
300
%<\AcVar ViewType \f "%tc1">% %<\AcVar ViewSectionStartId>%-%<\AcVar ViewSectionEndId>%\PSCALE %<\AcVar ViewScale \f "%sn">%
 71
     4
300
ANSI31
 40
1.0
 90
        0
290
     0
290
     0
 90
        6
 40
0.0
 40
1.570796326794896
 40
0.2617993877991494
 40
1.308996938995747
 40
-0.2617993877991494
 40
1.832595714594046
  0
TABLESTYLE
  5
9D89
102
{ACAD_XDICTIONARY
360
9DC1
102
}
102
{ACAD_REACTORS
330
9D88
102
}
330
9D88
100
AcDbTableStyle
  3
Standard
 70
     0
 71
     0
 40
0.06
 41
0.06
280
     0
281
     0
  7
STANDARD
140
0.18
170
     2
 62
     0
 63
     7
283
     0
274
    -2
284
     1
 64
     0
275
    -2
285
     1
 65
     0
276
    -2
286
     1
 66
     0
277
    -2
287
     1
 67
     0
278
    -2
288
     1
 68
     0
279
    -2
289
     1
 69
     0
  7
STANDARD
140
0.25
170
     5
 62
     0
 63
     7
283
     0
274
    -2
284
     1
 64
     0
275
    -2
285
     1
 65
     0
276
    -2
286
     1
 66
     0
277
    -2
287
     1
 67
     0
278
    -2
288
     1
 68
     0
279
    -2
289
     1
 69
     0
  7
STANDARD
140
0.18
170
     5
 62
     0
 63
     7
283
     0
274
    -2
284
     1
 64
     0
275
    -2
285
     1
 65
     0
276
    -2
286
     1
 66
     0
277
    -2
287
     1
 67
     0
278
    -2
288
     1
 68
     0
279
    -2
289
     1
 69
     0
  0
VISUALSTYLE
  5
9D74
102
{ACAD_XDICTIONARY
360
9DD2
102
}
102
{ACAD_REACTORS
330
9D6E
102
}
330
9D6E
100
AcDbVisualStyle
  2
2dWireframe
 70
     4
 71
     0
 72
     2
 73
     0
 90
        0
 40
-0.6
 41
-30.0
 62
     5
 63
     7
 74
     1
 91
        4
 64
     7
 65
   257
 75
     1
175
     1
 42
1.0
 92
        0
 66
   257
 43
1.0
 76
     1
 77
     6
 78
     2
 67
     7
 79
     5
170
     0
171
     0
290
     0
174
     0
 93
        1
 44
0.0
173
     0
291
     0
 45
0.0
1001
ACAD
1000
AcDbSavedByObjectVersion
1070
     0
  0
VISUALSTYLE
  5
9D73
102
{ACAD_XDICTIONARY
360
9DD0
102
}
102
{ACAD_REACTORS
330
9D6E
102
}
330
9D6E
100
AcDbVisualStyle
  2
Basic
 70
     7
 71
     1
 72
     0
 73
     1
 90
        0
 40
-0.6
 41
-30.0
 62
     5
 63
     7
 74
     0
 91
        4
 64
     7
 65
   257
 75
     1
175
     1
 42
1.0
 92
        8
 66
     7
 43
1.0
 76
     1
 77
     6
 78
     2
 67
     7
 79
     5
170
     0
171
     0
290
     0
174
     0
 93
        1
 44
0.0
173
     0
291
     1
 45
0.0
1001
ACAD
1000
AcDbSavedByObjectVersion
1070
     0
  0
VISUALSTYLE
  5
9D7A
102
{ACAD_XDICTIONARY
360
9DDE
102
}
102
{ACAD_REACTORS
330
9D6E
102
}
330
9D6E
100
AcDbVisualStyle
  2
Brighten
 70
    12
 71
     2
 72
     2
 73
     0
 90
        0
 40
-0.6
 41
-30.0
 62
     5
 63
     7
 74
     1
 91
        4
 64
     7
 65
   257
 75
     1
175
     1
 42
1.0
 92
        8
 66
     7
 43
1.0
 76
     1
 77
     6
 78
     2
 67
     7
 79
     5
170
     0
171
     0
290
     0
174
     0
 93
        1
 44
50.0
173
     0
291
     1
 45
0.0
1001
ACAD
1000
AcDbSavedByObjectVersion
1070
     0
  0
VISUALSTYLE
  5
9D7E
102
{ACAD_XDICTIONARY
360
9DE6
102
}
102
{ACAD_REACTORS
330
9D6E
102
}
330
9D6E
100
AcDbVisualStyle
  2
ColorChange
 70
    16
 71
     2
 72
     2
 73
     3
 90
        0
 40
-0.6
 41
-30.0
 62
     5
 63
     8
 74
     1
 91
        4
 64
     7
 65
   257
 75
     1
175
     1
 42
1.0
 92
        8
 66
     8
 43
1.0
 76
     1
 77
     6
 78
     2
 67
     7
 79
     5
170
     0
171
     0
290
     0
174
     0
 93
        1
 44
0.0
173
     0
291
     1
 45
0.0
1001
ACAD
1000
AcDbSavedByObjectVersion
1070
     0
  0
VISUALSTYLE
  5
9D77
102
{ACAD_XDICTIONARY
360
9DD8
102
}
102
{ACAD_REACTORS
330
9D6E
102
}
330
9D6E
100
AcDbVisualStyle
  2
Conceptual
 70
     9
 71
     3
 72
     2
 73
     0
 90
        0
 40
-0.6
 41
-30.0
 62
     5
 63
     7
 74
     2
 91
        2
 64
     7
 65
   257
 75
     1
175
     1
 42
179.0
 92
        8
 66
     7
 43
1.0
 76
     1
 77
     6
 78
     2
 67
     7
 79
     3
170
     0
171
     0
290
     0
174
     0
 93
        1
 44
0.0
173
     0
291
     0
 45
0.0
1001
ACAD
1000
AcDbSavedByObjectVersion
1070
     0
  0
VISUALSTYLE
  5
9D79
102
{ACAD_XDICTIONARY
360
9DDC
102
}
102
{ACAD_REACTORS
330
9D6E
102
}
330
9D6E
100
AcDbVisualStyle
  2
Dim
 70
    11
 71
     2
 72
     2
 73
     0
 90
        0
 40
-0.6
 41
-30.0
 62
     5
 63
     7
 74
     1
 91
        4
 64
     7
 65
   257
 75
     1
175
     1
 42
1.0
 92
        8
 66
     7
 43
1.0
 76
     1
 77
     6
 78
     2
 67
     7
 79
     5
170
     0
171
     0
290
     0
174
     0
 93
        1
 44
-50.0
173
     0
291
     1
 45
0.0
1001
ACAD
1000
AcDbSavedByObjectVersion
1070
     0
  0
VISUALSTYLE
  5
9D86
102
{ACAD_XDICTIONARY
360
9DF6
102
}
102
{ACAD_REACTORS
330
9D6E
102
}
330
9D6E
100
AcDbVisualStyle
  2
EdgeColorOff
 70
    22
 71
     2
 72
     2
 73
     0
 90
        0
 40
-0.6
 41
-30.0
 62
     5
 63
     7
 74
     1
 91
        4
 64
     7
 65
   257
 75
     1
175
     1
 42
1.0
 92
        8
 66
     7
 43
1.0
 76
     1
 77
     6
 78
     2
 67
     7
 79
     5
170
     0
171
     0
290
     0
174
     0
 93
        1
 44
0.0
173
     0
291
     1
 45
0.0
1001
ACAD
1000
AcDbSavedByObjectVersion
1070
     0
  0
VISUALSTYLE
  5
9D7D
102
{ACAD_XDICTIONARY
360
9DE4
102
}
102
{ACAD_REACTORS
330
9D6E
102
}
330
9D6E
100
AcDbVisualStyle
  2
Facepattern
 70
    15
 71
     2
 72
     2
 73
     0
 90
        0
 40
-0.6
 41
-30.0
 62
     5
 63
     7
 74
     1
 91
        4
 64
     7
 65
   257
 75
     1
175
     1
 42
1.0
 92
        8
 66
     7
 43
1.0
 76
     1
 77
     6
 78
     2
 67
     7
 79
     5
170
     0
171
     0
290
     0
174
     0
 93
        1
 44
0.0
173
     0
291
     1
 45
0.0
1001
ACAD
1000
AcDbSavedByObjectVersion
1070
     0
  0
VISUALSTYLE
  5
9D6F
102
{ACAD_XDICTIONARY
360
9DC8
102
}
102
{ACAD_REACTORS
330
9D6E
102
}
330
9D6E
100
AcDbVisualStyle
  2
Flat
 70
     0
 71
     2
 72
     1
 73
     1
 90
        2
 40
-0.6
 41
30.0
 62
     5
 63
     7
 74
     0
 91
        0
 64
     7
 65
   257
 75
     1
175
     1
 42
1.0
 92
        8
 66
     7
 43
1.0
 76
     1
 77
     6
 78
     2
 67
     7
 79
     5
170
     0
171
     0
290
     0
174
     0
 93
       13
 44
0.0
173
     0
291
     1
 45
0.0
1001
ACAD
1000
AcDbSavedByObjectVersion
1070
     0
  0
VISUALSTYLE
  5
9D70
102
{ACAD_XDICTIONARY
360
9DCA
102
}
102
{ACAD_REACTORS
330
9D6E
102
}
330
9D6E
100
AcDbVisualStyle
  2
FlatWithEdges
 70
     1
 71
     2
 72
     1
 73
     1
 90
        2
 40
-0.6
 41
30.0
 62
     5
 63
     7
 74
     1
 91
        0
 64
     7
 65
   257
 75
     1
175
     1
 42
1.0
 92
        0
 66
   257
 43
1.0
 76
     1
 77
     6
 78
     2
 67
     7
 79
     5
170
     0
171
     0
290
     0
174
     0
 93
       13
 44
0.0
173
     0
291
     1
 45
0.0
1001
ACAD
1000
AcDbSavedByObjectVersion
1070
     0
  0
VISUALSTYLE
  5
9D71
102
{ACAD_XDICTIONARY
360
9DCC
102
}
102
{ACAD_REACTORS
330
9D6E
102
}
330
9D6E
100
AcDbVisualStyle
  2
Gouraud
 70
     2
 71
     2
 72
     2
 73
     1
 90
        2
 40
-0.6
 41
30.0
 62
     5
 63
     7
 74
     0
 91
        0
 64
     7
 65
   257
 75
     1
175
     1
 42
1.0
 92
        0
 66
     7
 43
1.0
 76
     1
 77
     6
 78
     2
 67
     7
 79
     5
170
     0
171
     0
290
     0
174
     0
 93
       13
 44
0.0
173
     0
291
     1
 45
0.0
1001
ACAD
1000
AcDbSavedByObjectVersion
1070
     0
  0
VISUALSTYLE
  5
9D72
102
{ACAD_XDICTIONARY
360
9DCE
102
}
102
{ACAD_REACTORS
330
9D6E
102
}
330
9D6E
100
AcDbVisualStyle
  2
GouraudWithEdges
 70
     3
 71
     2
 72
     2
 73
     1
 90
        2
 40
-0.6
 41
30.0
 62
     5
 63
     7
 74
     1
 91
        0
 64
     7
 65
   257
 75
     1
175
     1
 42
1.0
 92
        0
 66
   257
 43
1.0
 76
     1
 77
     6
 78
     2
 67
     7
 79
     5
170
     0
171
     0
290
     0
174
     0
 93
       13
 44
0.0
173
     0
291
     1
 45
0.0
1001
ACAD
1000
AcDbSavedByObjectVersion
1070
     0
  0
VISUALSTYLE
  5
9D76
102
{ACAD_XDICTIONARY
360
9DD6
102
}
102
{ACAD_REACTORS
330
9D6E
102
}
330
9D6E
100
AcDbVisualStyle
  2
Hidden
 70
     6
 71
     1
 72
     2
 73
     2
 90
        0
 40
-0.6
 41
-30.0
 62
     5
 63
     7
 74
     2
 91
        2
 64
     7
 65
   257
 75
     2
175
     1
 42
40.0
 92
        0
 66
   257
 43
1.0
 76
     1
 77
     6
 78
     2
 67
     7
 79
     3
170
     0
171
     0
290
     0
174
     0
 93
        1
 44
0.0
173
     0
291
     0
 45
0.0
1001
ACAD
1000
AcDbSavedByObjectVersion
1070
     0
  0
VISUALSTYLE
  5
9D84
102
{ACAD_XDICTIONARY
360
9DF2
102
}
102
{ACAD_REACTORS
330
9D6E
102
}
330
9D6E
100
AcDbVisualStyle
  2
JitterOff
 70
    20
 71
     2
 72
     2
 73
     0
 90
        0
 40
-0.6
 41
-30.0
 62
     5
 63
     7
 74
     1
 91
        4
 64
     7
 65
   257
 75
     1
175
     1
 42
1.0
 92
       10
 66
     7
 43
1.0
 76
     1
 77
     6
 78
     2
 67
     7
 79
     5
170
     0
171
     0
290
     0
174
     0
 93
        1
 44
0.0
173
     0
291
     1
 45
0.0
1001
ACAD
1000
AcDbSavedByObjectVersion
1070
     0
  0
VISUALSTYLE
  5
9D7C
102
{ACAD_XDICTIONARY
360
9DE2
102
}
102
{ACAD_REACTORS
330
9D6E
102
}
330
9D6E
100
AcDbVisualStyle
  2
Linepattern
 70
    14
 71
     2
 72
     2
 73
     0
 90
        0
 40
-0.6
 41
-30.0
 62
     5
 63
     7
 74
     1
 91
        4
 64
     7
 65
   257
 75
     7
175
     7
 42
1.0
 92
        8
 66
     7
 43
1.0
 76
     1
 77
     6
 78
     2
 67
     7
 79
     5
170
     0
171
     0
290
     0
174
     0
 93
        1
 44
0.0
173
     0
291
     1
 45
0.0
1001
ACAD
1000
AcDbSavedByObjectVersion
1070
     0
  0
VISUALSTYLE
  5
9D85
102
{ACAD_XDICTIONARY
360
9DF4
102
}
102
{ACAD_REACTORS
330
9D6E
102
}
330
9D6E
100
AcDbVisualStyle
  2
OverhangOff
 70
    21
 71
     2
 72
     2
 73
     0
 90
        0
 40
-0.6
 41
-30.0
 62
     5
 63
     7
 74
     1
 91
        4
 64
     7
 65
   257
 75
     1
175
     1
 42
1.0
 92
        9
 66
     7
 43
1.0
 76
     1
 77
     6
 78
     2
 67
     7
 79
     5
170
     0
171
     0
290
     0
174
     0
 93
        1
 44
0.0
173
     0
291
     1
 45
0.0
1001
ACAD
1000
AcDbSavedByObjectVersion
1070
     0
  0
VISUALSTYLE
  5
9D78
102
{ACAD_XDICTIONARY
360
9DDA
102
}
102
{ACAD_REACTORS
330
9D6E
102
}
330
9D6E
100
AcDbVisualStyle
  2
Realistic
 70
     8
 71
     2
 72
     3
 73
     0
 90
        2
 40
-0.6
 41
30.0
 62
     5
 63
     7
 74
     0
 91
        0
 64
     7
 65
   257
 75
     1
175
     1
 42
1.0
 92
        8
 66
   257
 43
1.0
 76
     1
 77
     6
 78
     2
 67
     7
 79
     3
170
     0
171
     0
290
     0
174
     0
 93
       13
 44
0.0
173
     0
291
     0
 45
0.0
1001
ACAD
1000
AcDbSavedByObjectVersion
1070
     0
  0
VISUALSTYLE
  5
9D83
102
{ACAD_XDICTIONARY
360
9DF0
102
}
102
{ACAD_REACTORS
330
9D6E
102
}
330
9D6E
100
AcDbVisualStyle
  2
Shaded
 70
    27
 71
     2
 72
     2
 73
     1
 90
        2
 40
-0.6
 41
30.0
 62
     5
 63
     7
 74
     0
 91
        4
 64
     7
 65
   257
 75
     1
175
     1
 42
1.0
 92
        8
 66
   257
 43
1.0
 76
     1
 77
     6
 78
     2
 67
     8
 79
     3
170
     0
171
     0
290
     0
174
     0
 93
        5
 44
0.0
173
     0
291
     0
 45
0.0
1001
ACAD
1000
AcDbSavedByObjectVersion
1070
     0
  0
VISUALSTYLE
  5
9D82
102
{ACAD_XDICTIONARY
360
9DEE
102
}
102
{ACAD_REACTORS
330
9D6E
102
}
330
9D6E
100
AcDbVisualStyle
  2
Shaded with edges
 70
    26
 71
     2
 72
     2
 73
     1
 90
        2
 40
-0.6
 41
30.0
 62
     5
 63
     7
 74
     1
 91
       10
 64
     7
 65
   257
 75
     2
175
     1
 42
1.0
 92
        8
 66
   257
 43
1.0
 76
     1
 77
     6
 78
     2
 67
     7
 79
     3
170
     0
171
     0
290
     0
174
     0
 93
        5
 44
0.0
173
     0
291
     0
 45
0.0
1001
ACAD
1000
AcDbSavedByObjectVersion
1070
     0
  0
VISUALSTYLE
  5
9D7F
102
{ACAD_XDICTIONARY
360
9DE8
102
}
102
{ACAD_REACTORS
330
9D6E
102
}
330
9D6E
100
AcDbVisualStyle
  2
Shades of Gray
 70
    23
 71
     2
 72
     2
 73
     3
 90
        0
 40
-0.6
 41
-30.0
 62
     5
 63
     7
 74
     2
 91
        2
 64
     7
 65
     7
 75
     1
175
     1
 42
40.0
 92
        8
 66
     7
 43
1.0
 76
     1
 77
     6
 78
     2
 67
     7
 79
     3
170
     0
171
     0
290
     0
174
     0
 93
        1
 44
0.0
173
     0
291
     0
 45
0.0
1001
ACAD
1000
AcDbSavedByObjectVersion
1070
     0
  0
VISUALSTYLE
  5
9D80
102
{ACAD_XDICTIONARY
360
9DEA
102
}
102
{ACAD_REACTORS
330
9D6E
102
}
330
9D6E
100
AcDbVisualStyle
  2
Sketchy
 70
    24
 71
     1
 72
     2
 73
     2
 90
        0
 40
-0.6
 41
-30.0
 62
     5
 63
     7
 74
     2
 91
        2
 64
     7
 65
     7
 75
     1
175
     1
 42
40.0
 92
       11
 66
     7
 43
1.0
 76
     1
 77
     6
 78
     2
 67
     7
 79
     6
170
     0
171
     0
290
     0
174
     0
 93
        1
 44
0.0
173
     0
291
     0
 45
0.0
1001
ACAD
1000
AcDbSavedByObjectVersion
1070
     0
  0
VISUALSTYLE
  5
9D7B
102
{ACAD_XDICTIONARY
360
9DE0
102
}
102
{ACAD_REACTORS
330
9D6E
102
}
330
9D6E
100
AcDbVisualStyle
  2
Thicken
 70
    13
 71
     2
 72
     2
 73
     0
 90
        0
 40
-0.6
 41
-30.0
 62
     5
 63
     7
 74
     1
 91
        4
 64
     7
 65
   257
 75
     1
175
     1
 42
1.0
 92
       12
 66
     7
 43
1.0
 76
     1
 77
     6
 78
     2
 67
     7
 79
     5
170
     0
171
     0
290
     0
174
     0
 93
        1
 44
0.0
173
     0
291
     1
 45
0.0
1001
ACAD
1000
AcDbSavedByObjectVersion
1070
     0
  0
VISUALSTYLE
  5
9D75
102
{ACAD_XDICTIONARY
360
9DD4
102
}
102
{ACAD_REACTORS
330
9D6E
102
}
330
9D6E
100
AcDbVisualStyle
  2
Wireframe
 70
     5
 71
     0
 72
     2
 73
     0
 90
        0
 40
-0.6
 41
-30.0
 62
     5
 63
     7
 74
     1
 91
        4
 64
     7
 65
   257
 75
     1
175
     1
 42
1.0
 92
        0
 66
   257
 43
1.0
 76
     1
 77
     6
 78
     2
 67
     7
 79
     3
170
     0
171
     0
290
     0
174
     0
 93
        1
 44
0.0
173
     0
291
     0
 45
0.0
1001
ACAD
1000
AcDbSavedByObjectVersion
1070
     0
  0
VISUALSTYLE
  5
9D81
102
{ACAD_XDICTIONARY
360
9DEC
102
}
102
{ACAD_REACTORS
330
9D6E
102
}
330
9D6E
100
AcDbVisualStyle
  2
X-Ray
 70
    25
 71
     2
 72
     2
 73
     1
 90
        1
 40
0.5
 41
-30.0
 62
     5
 63
     7
 74
     1
 91
        0
 64
     7
 65
   257
 75
     1
175
     1
 42
1.0
 92
        8
 66
     7
 43
1.0
 76
     1
 77
     6
 78
     2
 67
     7
 79
     3
170
     0
171
     0
290
     0
174
     0
 93
       13
 44
0.0
173
     0
291
     0
 45
0.0
1001
ACAD
1000
AcDbSavedByObjectVersion
1070
     0
  0
DICTIONARYVAR
  5
9DBB
102
{ACAD_REACTORS
330
9DB6
102
}
330
9DB6
100
DictionaryVariables
280
     0
  1
1:1
  0
DICTIONARYVAR
  5
9DB8
102
{ACAD_REACTORS
330
9DB6
102
}
330
9DB6
100
DictionaryVariables
280
     0
  1
STANDARD
  0
DICTIONARYVAR
  5
9DB7
102
{ACAD_REACTORS
330
9DB6
102
}
330
9DB6
100
DictionaryVariables
280
     0
  1
STANDARD
  0
DICTIONARYVAR
  5
9DB9
102
{ACAD_REACTORS
330
9DB6
102
}
330
9DB6
100
DictionaryVariables
280
     0
  1
Imperial24
  0
DICTIONARYVAR
  5
9DBA
102
{ACAD_REACTORS
330
9DB6
102
}
330
9DB6
100
DictionaryVariables
280
     0
  1
Imperial24
  0
DICTIONARYVAR
  5
9DBE
102
{ACAD_REACTORS
330
9DB6
102
}
330
9DB6
100
DictionaryVariables
280
     0
  1
1
  0
DICTIONARYVAR
  5
9DBD
102
{ACAD_REACTORS
330
9DB6
102
}
330
9DB6
100
DictionaryVariables
280
     0
  1
0
  0
DICTIONARYVAR
  5
9DBC
102
{ACAD_REACTORS
330
9DB6
102
}
330
9DB6
100
DictionaryVariables
280
     0
  1
127
  0
DICTIONARYVAR
  5
9DBF
102
{ACAD_REACTORS
330
9DB6
102
}
330
9DB6
100
DictionaryVariables
280
     0
  1
2
  0
DICTIONARY
  5
9DFC
330
9DA1
100
AcDbDictionary
280
     1
281
     1
  3
ACAD_XREC_ROUNDTRIP
360
9DFD
  0
DICTIONARY
  5
9DFE
330
9DA2
100
AcDbDictionary
280
     1
281
     1
  3
ACAD_XREC_ROUNDTRIP
360
9DFF
  0
DICTIONARY
  5
9E00
330
9DA3
100
AcDbDictionary
280
     1
281
     1
  3
ACAD_XREC_ROUNDTRIP
360
9E01
  0
DICTIONARY
  5
9D5F
330
9D5E
100
AcDbDictionary
280
     1
281
     1
  3
ACAD_XREC_ROUNDTRIP
360
9DC6
  3
BUMPTILE
360
9D61
  3
DIFFUSETILE
360
9D60
  3
OPACITYTILE
360
9D64
  3
REFLECTIONTILE
360
9D63
  3
REFRACTIONTILE
360
9D65
  3
SPECULARTILE
360
9D62
  0
DICTIONARY
  5
9D57
330
9D56
100
AcDbDictionary
280
     1
281
     1
  3
ACAD_XREC_ROUNDTRIP
360
9DC5
  3
BUMPTILE
360
9D59
  3
DIFFUSETILE
360
9D58
  3
OPACITYTILE
360
9D5C
  3
REFLECTIONTILE
360
9D5B
  3
REFRACTIONTILE
360
9D5D
  3
SPECULARTILE
360
9D5A
  0
DICTIONARY
  5
9D67
330
9D66
100
AcDbDictionary
280
     1
281
     1
  3
ACAD_XREC_ROUNDTRIP
360
9DC7
  3
BUMPTILE
360
9D69
  3
DIFFUSETILE
360
9D68
  3
OPACITYTILE
360
9D6C
  3
REFLECTIONTILE
360
9D6B
  3
REFRACTIONTILE
360
9D6D
  3
SPECULARTILE
360
9D6A
  0
DICTIONARY
  5
9DFA
330
9D9F
100
AcDbDictionary
280
     1
281
     1
  3
ACAD_XREC_ROUNDTRIP
360
9DFB
  0
DICTIONARY
  5
9DC1
330
9D89
100
AcDbDictionary
280
     1
281
     1
  3
ACAD_ROUNDTRIP_2008_TABLESTYLE_CELLSTYLEMAP
360
9DC2
  3
ACAD_XREC_ROUNDTRIP
360
9DF8
  0
DICTIONARY
  5
9DD2
330
9D74
100
AcDbDictionary
280
     1
281
     1
  3
ACAD_XREC_ROUNDTRIP
360
9DD3
  0
DICTIONARY
  5
9DD0
330
9D73
100
AcDbDictionary
280
     1
281
     1
  3
ACAD_XREC_ROUNDTRIP
360
9DD1
  0
DICTIONARY
  5
9DDE
330
9D7A
100
AcDbDictionary
280
     1
281
     1
  3
ACAD_XREC_ROUNDTRIP
360
9DDF
  0
DICTIONARY
  5
9DE6
330
9D7E
100
AcDbDictionary
280
     1
281
     1
  3
ACAD_XREC_ROUNDTRIP
360
9DE7
  0
DICTIONARY
  5
9DD8
330
9D77
100
AcDbDictionary
280
     1
281
     1
  3
ACAD_XREC_ROUNDTRIP
360
9DD9
  0
DICTIONARY
  5
9DDC
330
9D79
100
AcDbDictionary
280
     1
281
     1
  3
ACAD_XREC_ROUNDTRIP
360
9DDD
  0
DICTIONARY
  5
9DF6
330
9D86
100
AcDbDictionary
280
     1
281
     1
  3
ACAD_XREC_ROUNDTRIP
360
9DF7
  0
DICTIONARY
  5
9DE4
330
9D7D
100
AcDbDictionary
280
     1
281
     1
  3
ACAD_XREC_ROUNDTRIP
360
9DE5
  0
DICTIONARY
  5
9DC8
330
9D6F
100
AcDbDictionary
280
     1
281
     1
  3
ACAD_XREC_ROUNDTRIP
360
9DC9
  0
DICTIONARY
  5
9DCA
330
9D70
100
AcDbDictionary
280
     1
281
     1
  3
ACAD_XREC_ROUNDTRIP
360
9DCB
  0
DICTIONARY
  5
9DCC
330
9D71
100
AcDbDictionary
280
     1
281
     1
  3
ACAD_XREC_ROUNDTRIP
360
9DCD
  0
DICTIONARY
  5
9DCE
330
9D72
100
AcDbDictionary
280
     1
281
     1
  3
ACAD_XREC_ROUNDTRIP
360
9DCF
  0
DICTIONARY
  5
9DD6
330
9D76
100
AcDbDictionary
280
     1
281
     1
  3
ACAD_XREC_ROUNDTRIP
360
9DD7
  0
DICTIONARY
  5
9DF2
330
9D84
100
AcDbDictionary
280
     1
281
     1
  3
ACAD_XREC_ROUNDTRIP
360
9DF3
  0
DICTIONARY
  5
9DE2
330
9D7C
100
AcDbDictionary
280
     1
281
     1
  3
ACAD_XREC_ROUNDTRIP
360
9DE3
  0
DICTIONARY
  5
9DF4
330
9D85
100
AcDbDictionary
280
     1
281
     1
  3
ACAD_XREC_ROUNDTRIP
360
9DF5
  0
DICTIONARY
  5
9DDA
330
9D78
100
AcDbDictionary
280
     1
281
     1
  3
ACAD_XREC_ROUNDTRIP
360
9DDB
  0
DICTIONARY
  5
9DF0
330
9D83
100
AcDbDictionary
280
     1
281
     1
  3
ACAD_XREC_ROUNDTRIP
360
9DF1
  0
DICTIONARY
  5
9DEE
330
9D82
100
AcDbDictionary
280
     1
281
     1
  3
ACAD_XREC_ROUNDTRIP
360
9DEF
  0
DICTIONARY
  5
9DE8
330
9D7F
100
AcDbDictionary
280
     1
281
     1
  3
ACAD_XREC_ROUNDTRIP
360
9DE9
  0
DICTIONARY
  5
9DEA
330
9D80
100
AcDbDictionary
280
     1
281
     1
  3
ACAD_XREC_ROUNDTRIP
360
9DEB
  0
DICTIONARY
  5
9DE0
330
9D7B
100
AcDbDictionary
280
     1
281
     1
  3
ACAD_XREC_ROUNDTRIP
360
9DE1
  0
DICTIONARY
  5
9DD4
330
9D75
100
AcDbDictionary
280
     1
281
     1
  3
ACAD_XREC_ROUNDTRIP
360
9DD5
  0
DICTIONARY
  5
9DEC
330
9D81
100
AcDbDictionary
280
     1
281
     1
  3
ACAD_XREC_ROUNDTRIP
360
9DED
  0
XRECORD
  5
9DFD
102
{ACAD_REACTORS
330
9DFC
102
}
330
9DFC
100
AcDbXrecord
280
     1
102
DISPLAYNAME
  1
Imperial24
102
FLAGS
 90
        0
  0
XRECORD
  5
9DFF
102
{ACAD_REACTORS
330
9DFE
102
}
330
9DFE
100
AcDbXrecord
280
     1
102
SHADEPLOT
 70
     0
102
SHADEPLOTRESLEVEL
 70
     2
102
SHADEPLOTCUSTOMDPI
 70
   300
  0
XRECORD
  5
9E01
102
{ACAD_REACTORS
330
9E00
102
}
330
9E00
100
AcDbXrecord
280
     1
102
SHADEPLOT
 70
     0
102
SHADEPLOTRESLEVEL
 70
     2
102
SHADEPLOTCUSTOMDPI
 70
   300
  0
XRECORD
  5
9DC6
102
{ACAD_REACTORS
330
9D5F
102
}
330
9D5F
100
AcDbXrecord
280
     1
102
MATERIAL
148
0.0
149
0.0
149
0.0
 93
        0
 94
      127
282
     0
 72
     0
 77
     0
171
     0
175
     0
179
     0
273
     0
  0
XRECORD
  5
9D61
102
{ACAD_REACTORS
330
9D5F
102
}
330
9D5F
100
AcDbXrecord
280
     1
270
     1
271
     1
  0
XRECORD
  5
9D60
102
{ACAD_REACTORS
330
9D5F
102
}
330
9D5F
100
AcDbXrecord
280
     1
270
     1
271
     1
  0
XRECORD
  5
9D64
102
{ACAD_REACTORS
330
9D5F
102
}
330
9D5F
100
AcDbXrecord
280
     1
270
     1
271
     1
  0
XRECORD
  5
9D63
102
{ACAD_REACTORS
330
9D5F
102
}
330
9D5F
100
AcDbXrecord
280
     1
270
     1
271
     1
  0
XRECORD
  5
9D65
102
{ACAD_REACTORS
330
9D5F
102
}
330
9D5F
100
AcDbXrecord
280
     1
270
     1
271
     1
  0
XRECORD
  5
9D62
102
{ACAD_REACTORS
330
9D5F
102
}
330
9D5F
100
AcDbXrecord
280
     1
270
     1
271
     1
  0
XRECORD
  5
9DC5
102
{ACAD_REACTORS
330
9D57
102
}
330
9D57
100
AcDbXrecord
280
     1
102
MATERIAL
148
0.0
149
0.0
149
0.0
 93
        0
 94
      127
282
     0
 72
     0
 77
     0
171
     0
175
     0
179
     0
273
     0
  0
XRECORD
  5
9D59
102
{ACAD_REACTORS
330
9D57
102
}
330
9D57
100
AcDbXrecord
280
     1
270
     1
271
     1
  0
XRECORD
  5
9D58
102
{ACAD_REACTORS
330
9D57
102
}
330
9D57
100
AcDbXrecord
280
     1
270
     1
271
     1
  0
XRECORD
  5
9D5C
102
{ACAD_REACTORS
330
9D57
102
}
330
9D57
100
AcDbXrecord
280
     1
270
     1
271
     1
  0
XRECORD
  5
9D5B
102
{ACAD_REACTORS
330
9D57
102
}
330
9D57
100
AcDbXrecord
280
     1
270
     1
271
     1
  0
XRECORD
  5
9D5D
102
{ACAD_REACTORS
330
9D57
102
}
330
9D57
100
AcDbXrecord
280
     1
270
     1
271
     1
  0
XRECORD
  5
9D5A
102
{ACAD_REACTORS
330
9D57
102
}
330
9D57
100
AcDbXrecord
280
     1
270
     1
271
     1
  0
XRECORD
  5
9DC7
102
{ACAD_REACTORS
330
9D67
102
}
330
9D67
100
AcDbXrecord
280
     1
102
MATERIAL
148
0.0
149
0.0
149
0.0
 93
        0
 94
      127
282
     0
 72
     0
 77
     0
171
     0
175
     0
179
     0
273
     0
  0
XRECORD
  5
9D69
102
{ACAD_REACTORS
330
9D67
102
}
330
9D67
100
AcDbXrecord
280
     1
270
     1
271
     1
  0
XRECORD
  5
9D68
102
{ACAD_REACTORS
330
9D67
102
}
330
9D67
100
AcDbXrecord
280
     1
270
     1
271
     1
  0
XRECORD
  5
9D6C
102
{ACAD_REACTORS
330
9D67
102
}
330
9D67
100
AcDbXrecord
280
     1
270
     1
271
     1
  0
XRECORD
  5
9D6B
102
{ACAD_REACTORS
330
9D67
102
}
330
9D67
100
AcDbXrecord
280
     1
270
     1
271
     1
  0
XRECORD
  5
9D6D
102
{ACAD_REACTORS
330
9D67
102
}
330
9D67
100
AcDbXrecord
280
     1
270
     1
271
     1
  0
XRECORD
  5
9D6A
102
{ACAD_REACTORS
330
9D67
102
}
330
9D67
100
AcDbXrecord
280
     1
270
     1
271
     1
  0
XRECORD
  5
9DFB
102
{ACAD_REACTORS
330
9DFA
102
}
330
9DFA
100
AcDbXrecord
280
     1
102
DISPLAYNAME
  1
Imperial24
102
FLAGS
 90
        0
  0
CELLSTYLEMAP
  5
9DC2
102
{ACAD_REACTORS
330
9DC1
102
}
330
9DC1
100
AcDbCellStyleMap
 90
        3
300
CELLSTYLE
  1
TABLEFORMAT_BEGIN
 90
        5
170
     1
 91
        0
 92
    32768
 62
   257
 93
        1
300
CONTENTFORMAT
  1
CONTENTFORMAT_BEGIN
 90
        0
 91
        0
 92
      512
 93
        0
300

 40
0.0
140
1.0
 94
        5
 62
     0
340
9AB6
144
0.25
309
CONTENTFORMAT_END
171
     0
 94
        0
309
TABLEFORMAT_END
  1
CELLSTYLE_BEGIN
 90
        1
 91
        1
300
_TITLE
309
CELLSTYLE_END
300
CELLSTYLE
  1
TABLEFORMAT_BEGIN
 90
        5
170
     1
 91
        0
 92
        0
 62
   257
 93
        1
300
CONTENTFORMAT
  1
CONTENTFORMAT_BEGIN
 90
        0
 91
        0
 92
      512
 93
        0
300

 40
0.0
140
1.0
 94
        5
 62
     0
340
9AB6
144
0.18
309
CONTENTFORMAT_END
171
     0
 94
        0
309
TABLEFORMAT_END
  1
CELLSTYLE_BEGIN
 90
        2
 91
        1
300
_HEADER
309
CELLSTYLE_END
300
CELLSTYLE
  1
TABLEFORMAT_BEGIN
 90
        5
170
     1
 91
        0
 92
        0
 62
   257
 93
        1
300
CONTENTFORMAT
  1
CONTENTFORMAT_BEGIN
 90
        0
 91
        0
 92
      512
 93
        0
300

 40
0.0
140
1.0
 94
        2
 62
     0
340
9AB6
144
0.18
309
CONTENTFORMAT_END
171
     0
 94
        0
309
TABLEFORMAT_END
  1
CELLSTYLE_BEGIN
 90
        3
 91
        2
300
_DATA
309
CELLSTYLE_END
  0
XRECORD
  5
9DF8
102
{ACAD_REACTORS
330
9DC1
102
}
330
9DC1
100
AcDbXrecord
280
     1
102
ACAD_ROUNDTRIP_PRE2007_TABLESTYLE
 90
      512
 91
        0
  1

 92
      512
 93
        0
  2

 94
      512
 95
        0
  3

  0
XRECORD
  5
9DD3
102
{ACAD_REACTORS
330
9DD2
102
}
330
9DD2
100
AcDbXrecord
280
     1
102
RTVSPost2010Prop28
280
     1
102
RTVSPost2010PropOp28
 70
     1
102
RTVSPost2010Prop29
280
     1
102
RTVSPost2010PropOp29
 70
     1
102
RTVSPost2010Prop30
280
     0
102
RTVSPost2010PropOp30
 70
     1
102
RTVSPost2010Prop31
280
     0
102
RTVSPost2010PropOp31
 70
     1
102
RTVSPost2010Prop32
280
     0
102
RTVSPost2010PropOp32
 70
     1
102
RTVSPost2010Prop33
280
     0
102
RTVSPost2010PropOp33
 70
     1
102
RTVSPost2010Prop34
280
     0
102
RTVSPost2010PropOp34
 70
     1
102
RTVSPost2010Prop35
280
     0
102
RTVSPost2010PropOp35
 70
     1
102
RTVSPost2010Prop36
280
     0
102
RTVSPost2010PropOp36
 70
     1
102
RTVSPost2010Prop37
 90
       50
102
RTVSPost2010PropOp37
 70
     1
102
RTVSPost2010Prop38
140
0.0
102
RTVSPost2010PropOp38
 70
     1
102
RTVSPost2010Prop39
140
1.0
102
RTVSPost2010PropOp39
 70
     1
102
RTVSPost2010Prop40
 90
        0
102
RTVSPost2010PropOp40
 70
     1
102
RTVSPost2010Prop41ColorIndex
 90
       18
102
RTVSPost2010Prop41ColorRGB
 90
        0
102
RTVSPost2010PropOp41
 70
     1
102
RTVSPost2010Prop42
 90
       50
102
RTVSPost2010PropOp42
 70
     1
102
RTVSPost2010Prop43
 90
        3
102
RTVSPost2010PropOp43
 70
     1
102
RTVSPost2010Prop44ColorIndex
 90
        5
102
RTVSPost2010Prop44ColorRGB
 90
      255
102
RTVSPost2010PropOp44
 70
     1
102
RTVSPost2010Prop45
280
     0
102
RTVSPost2010PropOp45
 70
     1
102
RTVSPost2010Prop46
 90
       50
102
RTVSPost2010PropOp46
 70
     1
102
RTVSPost2010Prop47
 90
       50
102
RTVSPost2010PropOp47
 70
     1
102
RTVSPost2010Prop48
 90
       50
102
RTVSPost2010PropOp48
 70
     1
102
RTVSPost2010Prop49
280
     0
102
RTVSPost2010PropOp49
 70
     1
102
RTVSPost2010Prop50
 90
       50
102
RTVSPost2010PropOp50
 70
     1
102
RTVSPost2010Prop51ColorIndex
 90
      256
102
RTVSPost2010Prop51ColorRGB
 90
-16777216
102
RTVSPost2010PropOp51
 70
     0
102
RTVSPost2010Prop52
140
1.0
102
RTVSPost2010PropOp52
 70
     0
102
RTVSPost2010Prop53
 90
        2
102
RTVSPost2010PropOp53
 70
     1
102
RTVSPost2010Prop54
  1
strokes_ogs.tif
102
RTVSPost2010PropOp54
 70
     1
102
RTVSPost2010Prop55
280
     0
102
RTVSPost2010PropOp55
 70
     1
102
RTVSPost2010Prop56
140
1.0
102
RTVSPost2010PropOp56
 70
     1
102
RTVSPost2010Prop57
140
1.0
102
RTVSPost2010PropOp57
 70
     1
102
RTVSPropertyOp0
 70
     1
102
RTVSPropertyOp1
 70
     1
102
RTVSPropertyOp2
 70
     1
102
RTVSPropertyOp3
 70
     1
102
RTVSPropertyOp4
 70
     1
102
RTVSPropertyOp5
 70
     1
102
RTVSPropertyOp6
 70
     1
102
RTVSPropertyOp7
 70
     1
102
RTVSPropertyOp8
 70
     1
102
RTVSPropertyOp9
 70
     1
102
RTVSPropertyOp10
 70
     1
102
RTVSPropertyOp11
 70
     1
102
RTVSPropertyOp12
 70
     1
102
RTVSPropertyOp13
 70
     1
102
RTVSPropertyOp14
 70
     1
102
RTVSPropertyOp15
 70
     1
102
RTVSPropertyOp16
 70
     1
102
RTVSPropertyOp17
 70
     1
102
RTVSPropertyOp18
 70
     1
102
RTVSPropertyOp19
 70
     1
102
RTVSPropertyOp20
 70
     1
102
RTVSPropertyOp21
 70
     1
102
RTVSPropertyOp22
 70
     1
102
RTVSPropertyOp23
 70
     1
102
RTVSPropertyOp24
 70
     1
102
RTVSPropertyOp25
 70
     1
102
RTVSPropertyOp26
 70
     1
102
RTVSPropertyOp27
 70
     1
102
RTVSPropertyOp28
 70
     1
102
RTVSPropertyOp29
 70
     1
102
RTVSPropertyOp30
 70
     1
102
RTVSPropertyOp31
 70
     1
102
RTVSPropertyOp32
 70
     1
102
RTVSPropertyOp33
 70
     1
102
RTVSPropertyOp34
 70
     1
102
RTVSPropertyOp35
 70
     1
102
RTVSPropertyOp36
 70
     1
102
RTVSPropertyOp37
 70
     1
102
RTVSPropertyOp38
 70
     1
102
RTVSPropertyOp39
 70
     1
102
RTVSPropertyOp40
 70
     1
102
RTVSPropertyOp41
 70
     1
102
RTVSPropertyOp42
 70
     1
102
RTVSPropertyOp43
 70
     1
102
RTVSPropertyOp44
 70
     1
102
RTVSPropertyOp45
 70
     1
102
RTVSPropertyOp46
 70
     1
102
RTVSPropertyOp47
 70
     1
102
RTVSPropertyOp48
 70
     1
102
RTVSPropertyOp49
 70
     1
102
RTVSPropertyOp50
 70
     1
102
RTVSPropertyOp51
 70
     0
102
RTVSPropertyOp52
 70
     0
102
RTVSPropertyOp53
 70
     1
102
RTVSPropertyOp54
 70
     1
102
RTVSPropertyOp55
 70
     1
102
RTVSPropertyOp56
 70
     1
102
RTVSPropertyOp57
 70
     1
102
RTVSPropertyOp58
 70
     1
102
RTVSPropertyOp59
 70
     1
102
RTVSPropertyOp60
 70
     1
102
RTVSPropertyOp61
 70
     1
102
RTVSPropertyOp62
 70
     1
  0
XRECORD
  5
9DD1
102
{ACAD_REACTORS
330
9DD0
102
}
330
9DD0
100
AcDbXrecord
280
     1
102
RTVSPost2010Prop28
280
     0
102
RTVSPost2010PropOp28
 70
     1
102
RTVSPost2010Prop29
280
     1
102
RTVSPost2010PropOp29
 70
     1
102
RTVSPost2010Prop30
280
     1
102
RTVSPost2010PropOp30
 70
     1
102
RTVSPost2010Prop31
280
     0
102
RTVSPost2010PropOp31
 70
     1
102
RTVSPost2010Prop32
280
     0
102
RTVSPost2010PropOp32
 70
     1
102
RTVSPost2010Prop33
280
     0
102
RTVSPost2010PropOp33
 70
     1
102
RTVSPost2010Prop34
280
     0
102
RTVSPost2010PropOp34
 70
     1
102
RTVSPost2010Prop35
280
     0
102
RTVSPost2010PropOp35
 70
     1
102
RTVSPost2010Prop36
280
     0
102
RTVSPost2010PropOp36
 70
     1
102
RTVSPost2010Prop37
 90
       50
102
RTVSPost2010PropOp37
 70
     1
102
RTVSPost2010Prop38
140
0.0
102
RTVSPost2010PropOp38
 70
     1
102
RTVSPost2010Prop39
140
1.0
102
RTVSPost2010PropOp39
 70
     1
102
RTVSPost2010Prop40
 90
        0
102
RTVSPost2010PropOp40
 70
     1
102
RTVSPost2010Prop41ColorIndex
 90
       18
102
RTVSPost2010Prop41ColorRGB
 90
        0
102
RTVSPost2010PropOp41
 70
     1
102
RTVSPost2010Prop42
 90
       50
102
RTVSPost2010PropOp42
 70
     1
102
RTVSPost2010Prop43
 90
        3
102
RTVSPost2010PropOp43
 70
     1
102
RTVSPost2010Prop44ColorIndex
 90
        5
102
RTVSPost2010Prop44ColorRGB
 90
      255
102
RTVSPost2010PropOp44
 70
     1
102
RTVSPost2010Prop45
280
     0
102
RTVSPost2010PropOp45
 70
     1
102
RTVSPost2010Prop46
 90
       50
102
RTVSPost2010PropOp46
 70
     1
102
RTVSPost2010Prop47
 90
       50
102
RTVSPost2010PropOp47
 70
     1
102
RTVSPost2010Prop48
 90
       50
102
RTVSPost2010PropOp48
 70
     1
102
RTVSPost2010Prop49
280
     0
102
RTVSPost2010PropOp49
 70
     1
102
RTVSPost2010Prop50
 90
       50
102
RTVSPost2010PropOp50
 70
     1
102
RTVSPost2010Prop51ColorIndex
 90
      256
102
RTVSPost2010Prop51ColorRGB
 90
-16777216
102
RTVSPost2010PropOp51
 70
     0
102
RTVSPost2010Prop52
140
1.0
102
RTVSPost2010PropOp52
 70
     0
102
RTVSPost2010Prop53
 90
        2
102
RTVSPost2010PropOp53
 70
     1
102
RTVSPost2010Prop54
  1
strokes_ogs.tif
102
RTVSPost2010PropOp54
 70
     1
102
RTVSPost2010Prop55
280
     0
102
RTVSPost2010PropOp55
 70
     1
102
RTVSPost2010Prop56
140
1.0
102
RTVSPost2010PropOp56
 70
     1
102
RTVSPost2010Prop57
140
1.0
102
RTVSPost2010PropOp57
 70
     1
102
RTVSPropertyOp0
 70
     1
102
RTVSPropertyOp1
 70
     1
102
RTVSPropertyOp2
 70
     1
102
RTVSPropertyOp3
 70
     1
102
RTVSPropertyOp4
 70
     1
102
RTVSPropertyOp5
 70
     1
102
RTVSPropertyOp6
 70
     1
102
RTVSPropertyOp7
 70
     1
102
RTVSPropertyOp8
 70
     1
102
RTVSPropertyOp9
 70
     1
102
RTVSPropertyOp10
 70
     1
102
RTVSPropertyOp11
 70
     1
102
RTVSPropertyOp12
 70
     1
102
RTVSPropertyOp13
 70
     1
102
RTVSPropertyOp14
 70
     1
102
RTVSPropertyOp15
 70
     1
102
RTVSPropertyOp16
 70
     1
102
RTVSPropertyOp17
 70
     1
102
RTVSPropertyOp18
 70
     1
102
RTVSPropertyOp19
 70
     1
102
RTVSPropertyOp20
 70
     1
102
RTVSPropertyOp21
 70
     1
102
RTVSPropertyOp22
 70
     1
102
RTVSPropertyOp23
 70
     1
102
RTVSPropertyOp24
 70
     1
102
RTVSPropertyOp25
 70
     1
102
RTVSPropertyOp26
 70
     1
102
RTVSPropertyOp27
 70
     1
102
RTVSPropertyOp28
 70
     1
102
RTVSPropertyOp29
 70
     1
102
RTVSPropertyOp30
 70
     1
102
RTVSPropertyOp31
 70
     1
102
RTVSPropertyOp32
 70
     1
102
RTVSPropertyOp33
 70
     1
102
RTVSPropertyOp34
 70
     1
102
RTVSPropertyOp35
 70
     1
102
RTVSPropertyOp36
 70
     1
102
RTVSPropertyOp37
 70
     1
102
RTVSPropertyOp38
 70
     1
102
RTVSPropertyOp39
 70
     1
102
RTVSPropertyOp40
 70
     1
102
RTVSPropertyOp41
 70
     1
102
RTVSPropertyOp42
 70
     1
102
RTVSPropertyOp43
 70
     1
102
RTVSPropertyOp44
 70
     1
102
RTVSPropertyOp45
 70
     1
102
RTVSPropertyOp46
 70
     1
102
RTVSPropertyOp47
 70
     1
102
RTVSPropertyOp48
 70
     1
102
RTVSPropertyOp49
 70
     1
102
RTVSPropertyOp50
 70
     1
102
RTVSPropertyOp51
 70
     0
102
RTVSPropertyOp52
 70
     0
102
RTVSPropertyOp53
 70
     1
102
RTVSPropertyOp54
 70
     1
102
RTVSPropertyOp55
 70
     1
102
RTVSPropertyOp56
 70
     1
102
RTVSPropertyOp57
 70
     1
102
RTVSPropertyOp58
 70
     1
102
RTVSPropertyOp59
 70
     1
102
RTVSPropertyOp60
 70
     1
102
RTVSPropertyOp61
 70
     1
102
RTVSPropertyOp62
 70
     1
  0
XRECORD
  5
9DDF
102
{ACAD_REACTORS
330
9DDE
102
}
330
9DDE
100
AcDbXrecord
280
     1
102
RTVSPost2010Prop28
280
     0
102
RTVSPost2010PropOp28
 70
     1
102
RTVSPost2010Prop29
280
     1
102
RTVSPost2010PropOp29
 70
     1
102
RTVSPost2010Prop30
280
     1
102
RTVSPost2010PropOp30
 70
     1
102
RTVSPost2010Prop31
280
     0
102
RTVSPost2010PropOp31
 70
     1
102
RTVSPost2010Prop32
280
     0
102
RTVSPost2010PropOp32
 70
     1
102
RTVSPost2010Prop33
280
     0
102
RTVSPost2010PropOp33
 70
     1
102
RTVSPost2010Prop34
280
     0
102
RTVSPost2010PropOp34
 70
     1
102
RTVSPost2010Prop35
280
     0
102
RTVSPost2010PropOp35
 70
     1
102
RTVSPost2010Prop36
280
     0
102
RTVSPost2010PropOp36
 70
     1
102
RTVSPost2010Prop37
 90
       50
102
RTVSPost2010PropOp37
 70
     1
102
RTVSPost2010Prop38
140
0.0
102
RTVSPost2010PropOp38
 70
     1
102
RTVSPost2010Prop39
140
1.0
102
RTVSPost2010PropOp39
 70
     1
102
RTVSPost2010Prop40
 90
        0
102
RTVSPost2010PropOp40
 70
     1
102
RTVSPost2010Prop41ColorIndex
 90
       18
102
RTVSPost2010Prop41ColorRGB
 90
        0
102
RTVSPost2010PropOp41
 70
     1
102
RTVSPost2010Prop42
 90
       50
102
RTVSPost2010PropOp42
 70
     1
102
RTVSPost2010Prop43
 90
        3
102
RTVSPost2010PropOp43
 70
     1
102
RTVSPost2010Prop44ColorIndex
 90
        5
102
RTVSPost2010Prop44ColorRGB
 90
      255
102
RTVSPost2010PropOp44
 70
     1
102
RTVSPost2010Prop45
280
     0
102
RTVSPost2010PropOp45
 70
     1
102
RTVSPost2010Prop46
 90
       50
102
RTVSPost2010PropOp46
 70
     1
102
RTVSPost2010Prop47
 90
       50
102
RTVSPost2010PropOp47
 70
     1
102
RTVSPost2010Prop48
 90
       50
102
RTVSPost2010PropOp48
 70
     1
102
RTVSPost2010Prop49
280
     0
102
RTVSPost2010PropOp49
 70
     1
102
RTVSPost2010Prop50
 90
       50
102
RTVSPost2010PropOp50
 70
     1
102
RTVSPost2010Prop51ColorIndex
 90
      256
102
RTVSPost2010Prop51ColorRGB
 90
-16777216
102
RTVSPost2010PropOp51
 70
     0
102
RTVSPost2010Prop52
140
1.0
102
RTVSPost2010PropOp52
 70
     0
102
RTVSPost2010Prop53
 90
        2
102
RTVSPost2010PropOp53
 70
     1
102
RTVSPost2010Prop54
  1
strokes_ogs.tif
102
RTVSPost2010PropOp54
 70
     1
102
RTVSPost2010Prop55
280
     0
102
RTVSPost2010PropOp55
 70
     1
102
RTVSPost2010Prop56
140
1.0
102
RTVSPost2010PropOp56
 70
     1
102
RTVSPost2010Prop57
140
1.0
102
RTVSPost2010PropOp57
 70
     1
102
RTVSPropertyOp0
 70
     1
102
RTVSPropertyOp1
 70
     1
102
RTVSPropertyOp2
 70
     1
102
RTVSPropertyOp3
 70
     1
102
RTVSPropertyOp4
 70
     1
102
RTVSPropertyOp5
 70
     1
102
RTVSPropertyOp6
 70
     1
102
RTVSPropertyOp7
 70
     1
102
RTVSPropertyOp8
 70
     1
102
RTVSPropertyOp9
 70
     1
102
RTVSPropertyOp10
 70
     1
102
RTVSPropertyOp11
 70
     1
102
RTVSPropertyOp12
 70
     1
102
RTVSPropertyOp13
 70
     1
102
RTVSPropertyOp14
 70
     1
102
RTVSPropertyOp15
 70
     1
102
RTVSPropertyOp16
 70
     1
102
RTVSPropertyOp17
 70
     1
102
RTVSPropertyOp18
 70
     1
102
RTVSPropertyOp19
 70
     1
102
RTVSPropertyOp20
 70
     1
102
RTVSPropertyOp21
 70
     1
102
RTVSPropertyOp22
 70
     1
102
RTVSPropertyOp23
 70
     1
102
RTVSPropertyOp24
 70
     1
102
RTVSPropertyOp25
 70
     1
102
RTVSPropertyOp26
 70
     1
102
RTVSPropertyOp27
 70
     1
102
RTVSPropertyOp28
 70
     1
102
RTVSPropertyOp29
 70
     1
102
RTVSPropertyOp30
 70
     1
102
RTVSPropertyOp31
 70
     1
102
RTVSPropertyOp32
 70
     1
102
RTVSPropertyOp33
 70
     1
102
RTVSPropertyOp34
 70
     1
102
RTVSPropertyOp35
 70
     1
102
RTVSPropertyOp36
 70
     1
102
RTVSPropertyOp37
 70
     1
102
RTVSPropertyOp38
 70
     1
102
RTVSPropertyOp39
 70
     1
102
RTVSPropertyOp40
 70
     1
102
RTVSPropertyOp41
 70
     1
102
RTVSPropertyOp42
 70
     1
102
RTVSPropertyOp43
 70
     1
102
RTVSPropertyOp44
 70
     1
102
RTVSPropertyOp45
 70
     1
102
RTVSPropertyOp46
 70
     1
102
RTVSPropertyOp47
 70
     1
102
RTVSPropertyOp48
 70
     1
102
RTVSPropertyOp49
 70
     1
102
RTVSPropertyOp50
 70
     1
102
RTVSPropertyOp51
 70
     0
102
RTVSPropertyOp52
 70
     0
102
RTVSPropertyOp53
 70
     1
102
RTVSPropertyOp54
 70
     1
102
RTVSPropertyOp55
 70
     1
102
RTVSPropertyOp56
 70
     1
102
RTVSPropertyOp57
 70
     1
102
RTVSPropertyOp58
 70
     1
102
RTVSPropertyOp59
 70
     1
102
RTVSPropertyOp60
 70
     1
102
RTVSPropertyOp61
 70
     1
102
RTVSPropertyOp62
 70
     1
  0
XRECORD
  5
9DE7
102
{ACAD_REACTORS
330
9DE6
102
}
330
9DE6
100
AcDbXrecord
280
     1
102
RTVSPost2010Prop28
280
     0
102
RTVSPost2010PropOp28
 70
     1
102
RTVSPost2010Prop29
280
     1
102
RTVSPost2010PropOp29
 70
     1
102
RTVSPost2010Prop30
280
     1
102
RTVSPost2010PropOp30
 70
     1
102
RTVSPost2010Prop31
280
     0
102
RTVSPost2010PropOp31
 70
     1
102
RTVSPost2010Prop32
280
     0
102
RTVSPost2010PropOp32
 70
     1
102
RTVSPost2010Prop33
280
     0
102
RTVSPost2010PropOp33
 70
     1
102
RTVSPost2010Prop34
280
     0
102
RTVSPost2010PropOp34
 70
     1
102
RTVSPost2010Prop35
280
     0
102
RTVSPost2010PropOp35
 70
     1
102
RTVSPost2010Prop36
280
     0
102
RTVSPost2010PropOp36
 70
     1
102
RTVSPost2010Prop37
 90
       50
102
RTVSPost2010PropOp37
 70
     1
102
RTVSPost2010Prop38
140
0.0
102
RTVSPost2010PropOp38
 70
     1
102
RTVSPost2010Prop39
140
1.0
102
RTVSPost2010PropOp39
 70
     1
102
RTVSPost2010Prop40
 90
        0
102
RTVSPost2010PropOp40
 70
     1
102
RTVSPost2010Prop41ColorIndex
 90
       18
102
RTVSPost2010Prop41ColorRGB
 90
        0
102
RTVSPost2010PropOp41
 70
     1
102
RTVSPost2010Prop42
 90
       50
102
RTVSPost2010PropOp42
 70
     1
102
RTVSPost2010Prop43
 90
        3
102
RTVSPost2010PropOp43
 70
     1
102
RTVSPost2010Prop44ColorIndex
 90
        5
102
RTVSPost2010Prop44ColorRGB
 90
      255
102
RTVSPost2010PropOp44
 70
     1
102
RTVSPost2010Prop45
280
     0
102
RTVSPost2010PropOp45
 70
     1
102
RTVSPost2010Prop46
 90
       50
102
RTVSPost2010PropOp46
 70
     1
102
RTVSPost2010Prop47
 90
       50
102
RTVSPost2010PropOp47
 70
     1
102
RTVSPost2010Prop48
 90
       50
102
RTVSPost2010PropOp48
 70
     1
102
RTVSPost2010Prop49
280
     0
102
RTVSPost2010PropOp49
 70
     1
102
RTVSPost2010Prop50
 90
       50
102
RTVSPost2010PropOp50
 70
     1
102
RTVSPost2010Prop51ColorIndex
 90
      256
102
RTVSPost2010Prop51ColorRGB
 90
-16777216
102
RTVSPost2010PropOp51
 70
     0
102
RTVSPost2010Prop52
140
1.0
102
RTVSPost2010PropOp52
 70
     0
102
RTVSPost2010Prop53
 90
        2
102
RTVSPost2010PropOp53
 70
     1
102
RTVSPost2010Prop54
  1
strokes_ogs.tif
102
RTVSPost2010PropOp54
 70
     1
102
RTVSPost2010Prop55
280
     0
102
RTVSPost2010PropOp55
 70
     1
102
RTVSPost2010Prop56
140
1.0
102
RTVSPost2010PropOp56
 70
     1
102
RTVSPost2010Prop57
140
1.0
102
RTVSPost2010PropOp57
 70
     1
102
RTVSPropertyOp0
 70
     1
102
RTVSPropertyOp1
 70
     1
102
RTVSPropertyOp2
 70
     1
102
RTVSPropertyOp3
 70
     1
102
RTVSPropertyOp4
 70
     1
102
RTVSPropertyOp5
 70
     1
102
RTVSPropertyOp6
 70
     1
102
RTVSPropertyOp7
 70
     1
102
RTVSPropertyOp8
 70
     1
102
RTVSPropertyOp9
 70
     1
102
RTVSPropertyOp10
 70
     1
102
RTVSPropertyOp11
 70
     1
102
RTVSPropertyOp12
 70
     1
102
RTVSPropertyOp13
 70
     1
102
RTVSPropertyOp14
 70
     1
102
RTVSPropertyOp15
 70
     1
102
RTVSPropertyOp16
 70
     1
102
RTVSPropertyOp17
 70
     1
102
RTVSPropertyOp18
 70
     1
102
RTVSPropertyOp19
 70
     1
102
RTVSPropertyOp20
 70
     1
102
RTVSPropertyOp21
 70
     1
102
RTVSPropertyOp22
 70
     1
102
RTVSPropertyOp23
 70
     1
102
RTVSPropertyOp24
 70
     1
102
RTVSPropertyOp25
 70
     1
102
RTVSPropertyOp26
 70
     1
102
RTVSPropertyOp27
 70
     1
102
RTVSPropertyOp28
 70
     1
102
RTVSPropertyOp29
 70
     1
102
RTVSPropertyOp30
 70
     1
102
RTVSPropertyOp31
 70
     1
102
RTVSPropertyOp32
 70
     1
102
RTVSPropertyOp33
 70
     1
102
RTVSPropertyOp34
 70
     1
102
RTVSPropertyOp35
 70
     1
102
RTVSPropertyOp36
 70
     1
102
RTVSPropertyOp37
 70
     1
102
RTVSPropertyOp38
 70
     1
102
RTVSPropertyOp39
 70
     1
102
RTVSPropertyOp40
 70
     1
102
RTVSPropertyOp41
 70
     1
102
RTVSPropertyOp42
 70
     1
102
RTVSPropertyOp43
 70
     1
102
RTVSPropertyOp44
 70
     1
102
RTVSPropertyOp45
 70
     1
102
RTVSPropertyOp46
 70
     1
102
RTVSPropertyOp47
 70
     1
102
RTVSPropertyOp48
 70
     1
102
RTVSPropertyOp49
 70
     1
102
RTVSPropertyOp50
 70
     1
102
RTVSPropertyOp51
 70
     0
102
RTVSPropertyOp52
 70
     0
102
RTVSPropertyOp53
 70
     1
102
RTVSPropertyOp54
 70
     1
102
RTVSPropertyOp55
 70
     1
102
RTVSPropertyOp56
 70
     1
102
RTVSPropertyOp57
 70
     1
102
RTVSPropertyOp58
 70
     1
102
RTVSPropertyOp59
 70
     1
102
RTVSPropertyOp60
 70
     1
102
RTVSPropertyOp61
 70
     1
102
RTVSPropertyOp62
 70
     1
  0
XRECORD
  5
9DD9
102
{ACAD_REACTORS
330
9DD8
102
}
330
9DD8
100
AcDbXrecord
280
     1
102
RTVSPost2010Prop28
280
     0
102
RTVSPost2010PropOp28
 70
     1
102
RTVSPost2010Prop29
280
     1
102
RTVSPost2010PropOp29
 70
     1
102
RTVSPost2010Prop30
280
     1
102
RTVSPost2010PropOp30
 70
     1
102
RTVSPost2010Prop31
280
     0
102
RTVSPost2010PropOp31
 70
     1
102
RTVSPost2010Prop32
280
     0
102
RTVSPost2010PropOp32
 70
     1
102
RTVSPost2010Prop33
280
     0
102
RTVSPost2010PropOp33
 70
     1
102
RTVSPost2010Prop34
280
     0
102
RTVSPost2010PropOp34
 70
     1
102
RTVSPost2010Prop35
280
     0
102
RTVSPost2010PropOp35
 70
     1
102
RTVSPost2010Prop36
280
     0
102
RTVSPost2010PropOp36
 70
     1
102
RTVSPost2010Prop37
 90
       50
102
RTVSPost2010PropOp37
 70
     1
102
RTVSPost2010Prop38
140
0.0
102
RTVSPost2010PropOp38
 70
     1
102
RTVSPost2010Prop39
140
1.0
102
RTVSPost2010PropOp39
 70
     1
102
RTVSPost2010Prop40
 90
        0
102
RTVSPost2010PropOp40
 70
     1
102
RTVSPost2010Prop41ColorIndex
 90
       18
102
RTVSPost2010Prop41ColorRGB
 90
        0
102
RTVSPost2010PropOp41
 70
     1
102
RTVSPost2010Prop42
 90
       50
102
RTVSPost2010PropOp42
 70
     1
102
RTVSPost2010Prop43
 90
        3
102
RTVSPost2010PropOp43
 70
     1
102
RTVSPost2010Prop44ColorIndex
 90
        5
102
RTVSPost2010Prop44ColorRGB
 90
      255
102
RTVSPost2010PropOp44
 70
     1
102
RTVSPost2010Prop45
280
     0
102
RTVSPost2010PropOp45
 70
     1
102
RTVSPost2010Prop46
 90
       50
102
RTVSPost2010PropOp46
 70
     1
102
RTVSPost2010Prop47
 90
       50
102
RTVSPost2010PropOp47
 70
     1
102
RTVSPost2010Prop48
 90
       50
102
RTVSPost2010PropOp48
 70
     1
102
RTVSPost2010Prop49
280
     0
102
RTVSPost2010PropOp49
 70
     1
102
RTVSPost2010Prop50
 90
       50
102
RTVSPost2010PropOp50
 70
     1
102
RTVSPost2010Prop51ColorIndex
 90
      256
102
RTVSPost2010Prop51ColorRGB
 90
-16777216
102
RTVSPost2010PropOp51
 70
     0
102
RTVSPost2010Prop52
140
1.0
102
RTVSPost2010PropOp52
 70
     0
102
RTVSPost2010Prop53
 90
        2
102
RTVSPost2010PropOp53
 70
     1
102
RTVSPost2010Prop54
  1
strokes_ogs.tif
102
RTVSPost2010PropOp54
 70
     1
102
RTVSPost2010Prop55
280
     0
102
RTVSPost2010PropOp55
 70
     1
102
RTVSPost2010Prop56
140
1.0
102
RTVSPost2010PropOp56
 70
     1
102
RTVSPost2010Prop57
140
1.0
102
RTVSPost2010PropOp57
 70
     1
102
RTVSPropertyOp0
 70
     1
102
RTVSPropertyOp1
 70
     1
102
RTVSPropertyOp2
 70
     1
102
RTVSPropertyOp3
 70
     1
102
RTVSPropertyOp4
 70
     1
102
RTVSPropertyOp5
 70
     1
102
RTVSPropertyOp6
 70
     1
102
RTVSPropertyOp7
 70
     1
102
RTVSPropertyOp8
 70
     1
102
RTVSPropertyOp9
 70
     1
102
RTVSPropertyOp10
 70
     1
102
RTVSPropertyOp11
 70
     1
102
RTVSPropertyOp12
 70
     1
102
RTVSPropertyOp13
 70
     1
102
RTVSPropertyOp14
 70
     1
102
RTVSPropertyOp15
 70
     1
102
RTVSPropertyOp16
 70
     1
102
RTVSPropertyOp17
 70
     1
102
RTVSPropertyOp18
 70
     1
102
RTVSPropertyOp19
 70
     1
102
RTVSPropertyOp20
 70
     1
102
RTVSPropertyOp21
 70
     1
102
RTVSPropertyOp22
 70
     1
102
RTVSPropertyOp23
 70
     1
102
RTVSPropertyOp24
 70
     1
102
RTVSPropertyOp25
 70
     1
102
RTVSPropertyOp26
 70
     1
102
RTVSPropertyOp27
 70
     1
102
RTVSPropertyOp28
 70
     1
102
RTVSPropertyOp29
 70
     1
102
RTVSPropertyOp30
 70
     1
102
RTVSPropertyOp31
 70
     1
102
RTVSPropertyOp32
 70
     1
102
RTVSPropertyOp33
 70
     1
102
RTVSPropertyOp34
 70
     1
102
RTVSPropertyOp35
 70
     1
102
RTVSPropertyOp36
 70
     1
102
RTVSPropertyOp37
 70
     1
102
RTVSPropertyOp38
 70
     1
102
RTVSPropertyOp39
 70
     1
102
RTVSPropertyOp40
 70
     1
102
RTVSPropertyOp41
 70
     1
102
RTVSPropertyOp42
 70
     1
102
RTVSPropertyOp43
 70
     1
102
RTVSPropertyOp44
 70
     1
102
RTVSPropertyOp45
 70
     1
102
RTVSPropertyOp46
 70
     1
102
RTVSPropertyOp47
 70
     1
102
RTVSPropertyOp48
 70
     1
102
RTVSPropertyOp49
 70
     1
102
RTVSPropertyOp50
 70
     1
102
RTVSPropertyOp51
 70
     0
102
RTVSPropertyOp52
 70
     0
102
RTVSPropertyOp53
 70
     1
102
RTVSPropertyOp54
 70
     1
102
RTVSPropertyOp55
 70
     1
102
RTVSPropertyOp56
 70
     1
102
RTVSPropertyOp57
 70
     1
102
RTVSPropertyOp58
 70
     1
102
RTVSPropertyOp59
 70
     1
102
RTVSPropertyOp60
 70
     1
102
RTVSPropertyOp61
 70
     1
102
RTVSPropertyOp62
 70
     1
  0
XRECORD
  5
9DDD
102
{ACAD_REACTORS
330
9DDC
102
}
330
9DDC
100
AcDbXrecord
280
     1
102
RTVSPost2010Prop28
280
     0
102
RTVSPost2010PropOp28
 70
     1
102
RTVSPost2010Prop29
280
     1
102
RTVSPost2010PropOp29
 70
     1
102
RTVSPost2010Prop30
280
     1
102
RTVSPost2010PropOp30
 70
     1
102
RTVSPost2010Prop31
280
     0
102
RTVSPost2010PropOp31
 70
     1
102
RTVSPost2010Prop32
280
     0
102
RTVSPost2010PropOp32
 70
     1
102
RTVSPost2010Prop33
280
     0
102
RTVSPost2010PropOp33
 70
     1
102
RTVSPost2010Prop34
280
     0
102
RTVSPost2010PropOp34
 70
     1
102
RTVSPost2010Prop35
280
     0
102
RTVSPost2010PropOp35
 70
     1
102
RTVSPost2010Prop36
280
     0
102
RTVSPost2010PropOp36
 70
     1
102
RTVSPost2010Prop37
 90
       50
102
RTVSPost2010PropOp37
 70
     1
102
RTVSPost2010Prop38
140
0.0
102
RTVSPost2010PropOp38
 70
     1
102
RTVSPost2010Prop39
140
1.0
102
RTVSPost2010PropOp39
 70
     1
102
RTVSPost2010Prop40
 90
        0
102
RTVSPost2010PropOp40
 70
     1
102
RTVSPost2010Prop41ColorIndex
 90
       18
102
RTVSPost2010Prop41ColorRGB
 90
        0
102
RTVSPost2010PropOp41
 70
     1
102
RTVSPost2010Prop42
 90
       50
102
RTVSPost2010PropOp42
 70
     1
102
RTVSPost2010Prop43
 90
        3
102
RTVSPost2010PropOp43
 70
     1
102
RTVSPost2010Prop44ColorIndex
 90
        5
102
RTVSPost2010Prop44ColorRGB
 90
      255
102
RTVSPost2010PropOp44
 70
     1
102
RTVSPost2010Prop45
280
     0
102
RTVSPost2010PropOp45
 70
     1
102
RTVSPost2010Prop46
 90
       50
102
RTVSPost2010PropOp46
 70
     1
102
RTVSPost2010Prop47
 90
       50
102
RTVSPost2010PropOp47
 70
     1
102
RTVSPost2010Prop48
 90
       50
102
RTVSPost2010PropOp48
 70
     1
102
RTVSPost2010Prop49
280
     0
102
RTVSPost2010PropOp49
 70
     1
102
RTVSPost2010Prop50
 90
       50
102
RTVSPost2010PropOp50
 70
     1
102
RTVSPost2010Prop51ColorIndex
 90
      256
102
RTVSPost2010Prop51ColorRGB
 90
-16777216
102
RTVSPost2010PropOp51
 70
     0
102
RTVSPost2010Prop52
140
1.0
102
RTVSPost2010PropOp52
 70
     0
102
RTVSPost2010Prop53
 90
        2
102
RTVSPost2010PropOp53
 70
     1
102
RTVSPost2010Prop54
  1
strokes_ogs.tif
102
RTVSPost2010PropOp54
 70
     1
102
RTVSPost2010Prop55
280
     0
102
RTVSPost2010PropOp55
 70
     1
102
RTVSPost2010Prop56
140
1.0
102
RTVSPost2010PropOp56
 70
     1
102
RTVSPost2010Prop57
140
1.0
102
RTVSPost2010PropOp57
 70
     1
102
RTVSPropertyOp0
 70
     1
102
RTVSPropertyOp1
 70
     1
102
RTVSPropertyOp2
 70
     1
102
RTVSPropertyOp3
 70
     1
102
RTVSPropertyOp4
 70
     1
102
RTVSPropertyOp5
 70
     1
102
RTVSPropertyOp6
 70
     1
102
RTVSPropertyOp7
 70
     1
102
RTVSPropertyOp8
 70
     1
102
RTVSPropertyOp9
 70
     1
102
RTVSPropertyOp10
 70
     1
102
RTVSPropertyOp11
 70
     1
102
RTVSPropertyOp12
 70
     1
102
RTVSPropertyOp13
 70
     1
102
RTVSPropertyOp14
 70
     1
102
RTVSPropertyOp15
 70
     1
102
RTVSPropertyOp16
 70
     1
102
RTVSPropertyOp17
 70
     1
102
RTVSPropertyOp18
 70
     1
102
RTVSPropertyOp19
 70
     1
102
RTVSPropertyOp20
 70
     1
102
RTVSPropertyOp21
 70
     1
102
RTVSPropertyOp22
 70
     1
102
RTVSPropertyOp23
 70
     1
102
RTVSPropertyOp24
 70
     1
102
RTVSPropertyOp25
 70
     1
102
RTVSPropertyOp26
 70
     1
102
RTVSPropertyOp27
 70
     1
102
RTVSPropertyOp28
 70
     1
102
RTVSPropertyOp29
 70
     1
102
RTVSPropertyOp30
 70
     1
102
RTVSPropertyOp31
 70
     1
102
RTVSPropertyOp32
 70
     1
102
RTVSPropertyOp33
 70
     1
102
RTVSPropertyOp34
 70
     1
102
RTVSPropertyOp35
 70
     1
102
RTVSPropertyOp36
 70
     1
102
RTVSPropertyOp37
 70
     1
102
RTVSPropertyOp38
 70
     1
102
RTVSPropertyOp39
 70
     1
102
RTVSPropertyOp40
 70
     1
102
RTVSPropertyOp41
 70
     1
102
RTVSPropertyOp42
 70
     1
102
RTVSPropertyOp43
 70
     1
102
RTVSPropertyOp44
 70
     1
102
RTVSPropertyOp45
 70
     1
102
RTVSPropertyOp46
 70
     1
102
RTVSPropertyOp47
 70
     1
102
RTVSPropertyOp48
 70
     1
102
RTVSPropertyOp49
 70
     1
102
RTVSPropertyOp50
 70
     1
102
RTVSPropertyOp51
 70
     0
102
RTVSPropertyOp52
 70
     0
102
RTVSPropertyOp53
 70
     1
102
RTVSPropertyOp54
 70
     1
102
RTVSPropertyOp55
 70
     1
102
RTVSPropertyOp56
 70
     1
102
RTVSPropertyOp57
 70
     1
102
RTVSPropertyOp58
 70
     1
102
RTVSPropertyOp59
 70
     1
102
RTVSPropertyOp60
 70
     1
102
RTVSPropertyOp61
 70
     1
102
RTVSPropertyOp62
 70
     1
  0
XRECORD
  5
9DF7
102
{ACAD_REACTORS
330
9DF6
102
}
330
9DF6
100
AcDbXrecord
280
     1
102
RTVSPost2010Prop28
280
     0
102
RTVSPost2010PropOp28
 70
     1
102
RTVSPost2010Prop29
280
     1
102
RTVSPost2010PropOp29
 70
     1
102
RTVSPost2010Prop30
280
     1
102
RTVSPost2010PropOp30
 70
     1
102
RTVSPost2010Prop31
280
     0
102
RTVSPost2010PropOp31
 70
     1
102
RTVSPost2010Prop32
280
     0
102
RTVSPost2010PropOp32
 70
     1
102
RTVSPost2010Prop33
280
     0
102
RTVSPost2010PropOp33
 70
     1
102
RTVSPost2010Prop34
280
     0
102
RTVSPost2010PropOp34
 70
     1
102
RTVSPost2010Prop35
280
     0
102
RTVSPost2010PropOp35
 70
     1
102
RTVSPost2010Prop36
280
     0
102
RTVSPost2010PropOp36
 70
     1
102
RTVSPost2010Prop37
 90
       50
102
RTVSPost2010PropOp37
 70
     0
102
RTVSPost2010Prop38
140
0.0
102
RTVSPost2010PropOp38
 70
     0
102
RTVSPost2010Prop39
140
1.0
102
RTVSPost2010PropOp39
 70
     0
102
RTVSPost2010Prop40
 90
        0
102
RTVSPost2010PropOp40
 70
     0
102
RTVSPost2010Prop41ColorIndex
 90
       18
102
RTVSPost2010Prop41ColorRGB
 90
        0
102
RTVSPost2010PropOp41
 70
     0
102
RTVSPost2010Prop42
 90
       50
102
RTVSPost2010PropOp42
 70
     0
102
RTVSPost2010Prop43
 90
        3
102
RTVSPost2010PropOp43
 70
     0
102
RTVSPost2010Prop44ColorIndex
 90
        5
102
RTVSPost2010Prop44ColorRGB
 90
      255
102
RTVSPost2010PropOp44
 70
     0
102
RTVSPost2010Prop45
280
     0
102
RTVSPost2010PropOp45
 70
     1
102
RTVSPost2010Prop46
 90
       50
102
RTVSPost2010PropOp46
 70
     0
102
RTVSPost2010Prop47
 90
       50
102
RTVSPost2010PropOp47
 70
     0
102
RTVSPost2010Prop48
 90
       50
102
RTVSPost2010PropOp48
 70
     0
102
RTVSPost2010Prop49
280
     0
102
RTVSPost2010PropOp49
 70
     1
102
RTVSPost2010Prop50
 90
       50
102
RTVSPost2010PropOp50
 70
     0
102
RTVSPost2010Prop51ColorIndex
 90
      256
102
RTVSPost2010Prop51ColorRGB
 90
-16777216
102
RTVSPost2010PropOp51
 70
     0
102
RTVSPost2010Prop52
140
1.0
102
RTVSPost2010PropOp52
 70
     0
102
RTVSPost2010Prop53
 90
        2
102
RTVSPost2010PropOp53
 70
     0
102
RTVSPost2010Prop54
  1
strokes_ogs.tif
102
RTVSPost2010PropOp54
 70
     0
102
RTVSPost2010Prop55
280
     0
102
RTVSPost2010PropOp55
 70
     1
102
RTVSPost2010Prop56
140
1.0
102
RTVSPost2010PropOp56
 70
     0
102
RTVSPost2010Prop57
140
1.0
102
RTVSPost2010PropOp57
 70
     0
102
RTVSPropertyOp0
 70
     0
102
RTVSPropertyOp1
 70
     0
102
RTVSPropertyOp2
 70
     0
102
RTVSPropertyOp3
 70
     0
102
RTVSPropertyOp4
 70
     0
102
RTVSPropertyOp5
 70
     0
102
RTVSPropertyOp6
 70
     0
102
RTVSPropertyOp7
 70
     0
102
RTVSPropertyOp8
 70
     0
102
RTVSPropertyOp9
 70
     0
102
RTVSPropertyOp10
 70
     0
102
RTVSPropertyOp11
 70
     0
102
RTVSPropertyOp12
 70
     0
102
RTVSPropertyOp13
 70
     0
102
RTVSPropertyOp14
 70
     2
102
RTVSPropertyOp15
 70
     0
102
RTVSPropertyOp16
 70
     0
102
RTVSPropertyOp17
 70
     0
102
RTVSPropertyOp18
 70
     0
102
RTVSPropertyOp19
 70
     0
102
RTVSPropertyOp20
 70
     0
102
RTVSPropertyOp21
 70
     0
102
RTVSPropertyOp22
 70
     0
102
RTVSPropertyOp23
 70
     0
102
RTVSPropertyOp24
 70
     0
102
RTVSPropertyOp25
 70
     0
102
RTVSPropertyOp26
 70
     0
102
RTVSPropertyOp27
 70
     0
102
RTVSPropertyOp28
 70
     1
102
RTVSPropertyOp29
 70
     1
102
RTVSPropertyOp30
 70
     1
102
RTVSPropertyOp31
 70
     1
102
RTVSPropertyOp32
 70
     1
102
RTVSPropertyOp33
 70
     1
102
RTVSPropertyOp34
 70
     1
102
RTVSPropertyOp35
 70
     1
102
RTVSPropertyOp36
 70
     1
102
RTVSPropertyOp37
 70
     0
102
RTVSPropertyOp38
 70
     0
102
RTVSPropertyOp39
 70
     0
102
RTVSPropertyOp40
 70
     0
102
RTVSPropertyOp41
 70
     0
102
RTVSPropertyOp42
 70
     0
102
RTVSPropertyOp43
 70
     0
102
RTVSPropertyOp44
 70
     0
102
RTVSPropertyOp45
 70
     1
102
RTVSPropertyOp46
 70
     0
102
RTVSPropertyOp47
 70
     0
102
RTVSPropertyOp48
 70
     0
102
RTVSPropertyOp49
 70
     1
102
RTVSPropertyOp50
 70
     0
102
RTVSPropertyOp51
 70
     0
102
RTVSPropertyOp52
 70
     0
102
RTVSPropertyOp53
 70
     0
102
RTVSPropertyOp54
 70
     0
102
RTVSPropertyOp55
 70
     1
102
RTVSPropertyOp56
 70
     0
102
RTVSPropertyOp57
 70
     0
102
RTVSPropertyOp58
 70
     0
102
RTVSPropertyOp59
 70
     0
102
RTVSPropertyOp60
 70
     0
102
RTVSPropertyOp61
 70
     0
102
RTVSPropertyOp62
 70
     0
  0
XRECORD
  5
9DE5
102
{ACAD_REACTORS
330
9DE4
102
}
330
9DE4
100
AcDbXrecord
280
     1
102
RTVSPost2010Prop28
280
     0
102
RTVSPost2010PropOp28
 70
     1
102
RTVSPost2010Prop29
280
     1
102
RTVSPost2010PropOp29
 70
     1
102
RTVSPost2010Prop30
280
     1
102
RTVSPost2010PropOp30
 70
     1
102
RTVSPost2010Prop31
280
     0
102
RTVSPost2010PropOp31
 70
     1
102
RTVSPost2010Prop32
280
     0
102
RTVSPost2010PropOp32
 70
     1
102
RTVSPost2010Prop33
280
     0
102
RTVSPost2010PropOp33
 70
     1
102
RTVSPost2010Prop34
280
     0
102
RTVSPost2010PropOp34
 70
     1
102
RTVSPost2010Prop35
280
     0
102
RTVSPost2010PropOp35
 70
     1
102
RTVSPost2010Prop36
280
     0
102
RTVSPost2010PropOp36
 70
     1
102
RTVSPost2010Prop37
 90
       50
102
RTVSPost2010PropOp37
 70
     1
102
RTVSPost2010Prop38
140
0.0
102
RTVSPost2010PropOp38
 70
     1
102
RTVSPost2010Prop39
140
1.0
102
RTVSPost2010PropOp39
 70
     1
102
RTVSPost2010Prop40
 90
        0
102
RTVSPost2010PropOp40
 70
     1
102
RTVSPost2010Prop41ColorIndex
 90
       18
102
RTVSPost2010Prop41ColorRGB
 90
        0
102
RTVSPost2010PropOp41
 70
     1
102
RTVSPost2010Prop42
 90
       50
102
RTVSPost2010PropOp42
 70
     1
102
RTVSPost2010Prop43
 90
        3
102
RTVSPost2010PropOp43
 70
     1
102
RTVSPost2010Prop44ColorIndex
 90
        5
102
RTVSPost2010Prop44ColorRGB
 90
      255
102
RTVSPost2010PropOp44
 70
     1
102
RTVSPost2010Prop45
280
     0
102
RTVSPost2010PropOp45
 70
     1
102
RTVSPost2010Prop46
 90
       50
102
RTVSPost2010PropOp46
 70
     1
102
RTVSPost2010Prop47
 90
       50
102
RTVSPost2010PropOp47
 70
     1
102
RTVSPost2010Prop48
 90
       50
102
RTVSPost2010PropOp48
 70
     1
102
RTVSPost2010Prop49
280
     0
102
RTVSPost2010PropOp49
 70
     1
102
RTVSPost2010Prop50
 90
       50
102
RTVSPost2010PropOp50
 70
     1
102
RTVSPost2010Prop51ColorIndex
 90
      256
102
RTVSPost2010Prop51ColorRGB
 90
-16777216
102
RTVSPost2010PropOp51
 70
     0
102
RTVSPost2010Prop52
140
1.0
102
RTVSPost2010PropOp52
 70
     0
102
RTVSPost2010Prop53
 90
        2
102
RTVSPost2010PropOp53
 70
     1
102
RTVSPost2010Prop54
  1
strokes_ogs.tif
102
RTVSPost2010PropOp54
 70
     1
102
RTVSPost2010Prop55
280
     0
102
RTVSPost2010PropOp55
 70
     1
102
RTVSPost2010Prop56
140
1.0
102
RTVSPost2010PropOp56
 70
     1
102
RTVSPost2010Prop57
140
1.0
102
RTVSPost2010PropOp57
 70
     1
102
RTVSPropertyOp0
 70
     1
102
RTVSPropertyOp1
 70
     1
102
RTVSPropertyOp2
 70
     1
102
RTVSPropertyOp3
 70
     1
102
RTVSPropertyOp4
 70
     1
102
RTVSPropertyOp5
 70
     1
102
RTVSPropertyOp6
 70
     1
102
RTVSPropertyOp7
 70
     1
102
RTVSPropertyOp8
 70
     1
102
RTVSPropertyOp9
 70
     1
102
RTVSPropertyOp10
 70
     1
102
RTVSPropertyOp11
 70
     1
102
RTVSPropertyOp12
 70
     1
102
RTVSPropertyOp13
 70
     1
102
RTVSPropertyOp14
 70
     1
102
RTVSPropertyOp15
 70
     1
102
RTVSPropertyOp16
 70
     1
102
RTVSPropertyOp17
 70
     1
102
RTVSPropertyOp18
 70
     1
102
RTVSPropertyOp19
 70
     1
102
RTVSPropertyOp20
 70
     1
102
RTVSPropertyOp21
 70
     1
102
RTVSPropertyOp22
 70
     1
102
RTVSPropertyOp23
 70
     1
102
RTVSPropertyOp24
 70
     1
102
RTVSPropertyOp25
 70
     1
102
RTVSPropertyOp26
 70
     1
102
RTVSPropertyOp27
 70
     1
102
RTVSPropertyOp28
 70
     1
102
RTVSPropertyOp29
 70
     1
102
RTVSPropertyOp30
 70
     1
102
RTVSPropertyOp31
 70
     1
102
RTVSPropertyOp32
 70
     1
102
RTVSPropertyOp33
 70
     1
102
RTVSPropertyOp34
 70
     1
102
RTVSPropertyOp35
 70
     1
102
RTVSPropertyOp36
 70
     1
102
RTVSPropertyOp37
 70
     1
102
RTVSPropertyOp38
 70
     1
102
RTVSPropertyOp39
 70
     1
102
RTVSPropertyOp40
 70
     1
102
RTVSPropertyOp41
 70
     1
102
RTVSPropertyOp42
 70
     1
102
RTVSPropertyOp43
 70
     1
102
RTVSPropertyOp44
 70
     1
102
RTVSPropertyOp45
 70
     1
102
RTVSPropertyOp46
 70
     1
102
RTVSPropertyOp47
 70
     1
102
RTVSPropertyOp48
 70
     1
102
RTVSPropertyOp49
 70
     1
102
RTVSPropertyOp50
 70
     1
102
RTVSPropertyOp51
 70
     0
102
RTVSPropertyOp52
 70
     0
102
RTVSPropertyOp53
 70
     1
102
RTVSPropertyOp54
 70
     1
102
RTVSPropertyOp55
 70
     1
102
RTVSPropertyOp56
 70
     1
102
RTVSPropertyOp57
 70
     1
102
RTVSPropertyOp58
 70
     1
102
RTVSPropertyOp59
 70
     1
102
RTVSPropertyOp60
 70
     1
102
RTVSPropertyOp61
 70
     1
102
RTVSPropertyOp62
 70
     1
  0
XRECORD
  5
9DC9
102
{ACAD_REACTORS
330
9DC8
102
}
330
9DC8
100
AcDbXrecord
280
     1
102
RTVSPost2010Prop28
280
     0
102
RTVSPost2010PropOp28
 70
     1
102
RTVSPost2010Prop29
280
     1
102
RTVSPost2010PropOp29
 70
     1
102
RTVSPost2010Prop30
280
     1
102
RTVSPost2010PropOp30
 70
     1
102
RTVSPost2010Prop31
280
     0
102
RTVSPost2010PropOp31
 70
     1
102
RTVSPost2010Prop32
280
     0
102
RTVSPost2010PropOp32
 70
     1
102
RTVSPost2010Prop33
280
     0
102
RTVSPost2010PropOp33
 70
     1
102
RTVSPost2010Prop34
280
     0
102
RTVSPost2010PropOp34
 70
     1
102
RTVSPost2010Prop35
280
     0
102
RTVSPost2010PropOp35
 70
     1
102
RTVSPost2010Prop36
280
     0
102
RTVSPost2010PropOp36
 70
     1
102
RTVSPost2010Prop37
 90
       50
102
RTVSPost2010PropOp37
 70
     1
102
RTVSPost2010Prop38
140
0.0
102
RTVSPost2010PropOp38
 70
     1
102
RTVSPost2010Prop39
140
1.0
102
RTVSPost2010PropOp39
 70
     1
102
RTVSPost2010Prop40
 90
        0
102
RTVSPost2010PropOp40
 70
     1
102
RTVSPost2010Prop41ColorIndex
 90
       18
102
RTVSPost2010Prop41ColorRGB
 90
        0
102
RTVSPost2010PropOp41
 70
     1
102
RTVSPost2010Prop42
 90
       50
102
RTVSPost2010PropOp42
 70
     1
102
RTVSPost2010Prop43
 90
        3
102
RTVSPost2010PropOp43
 70
     1
102
RTVSPost2010Prop44ColorIndex
 90
        5
102
RTVSPost2010Prop44ColorRGB
 90
      255
102
RTVSPost2010PropOp44
 70
     1
102
RTVSPost2010Prop45
280
     0
102
RTVSPost2010PropOp45
 70
     1
102
RTVSPost2010Prop46
 90
       50
102
RTVSPost2010PropOp46
 70
     1
102
RTVSPost2010Prop47
 90
       50
102
RTVSPost2010PropOp47
 70
     1
102
RTVSPost2010Prop48
 90
       50
102
RTVSPost2010PropOp48
 70
     1
102
RTVSPost2010Prop49
280
     0
102
RTVSPost2010PropOp49
 70
     1
102
RTVSPost2010Prop50
 90
       50
102
RTVSPost2010PropOp50
 70
     1
102
RTVSPost2010Prop51ColorIndex
 90
      256
102
RTVSPost2010Prop51ColorRGB
 90
-16777216
102
RTVSPost2010PropOp51
 70
     0
102
RTVSPost2010Prop52
140
1.0
102
RTVSPost2010PropOp52
 70
     0
102
RTVSPost2010Prop53
 90
        2
102
RTVSPost2010PropOp53
 70
     1
102
RTVSPost2010Prop54
  1
strokes_ogs.tif
102
RTVSPost2010PropOp54
 70
     1
102
RTVSPost2010Prop55
280
     0
102
RTVSPost2010PropOp55
 70
     1
102
RTVSPost2010Prop56
140
1.0
102
RTVSPost2010PropOp56
 70
     1
102
RTVSPost2010Prop57
140
1.0
102
RTVSPost2010PropOp57
 70
     1
102
RTVSPropertyOp0
 70
     1
102
RTVSPropertyOp1
 70
     1
102
RTVSPropertyOp2
 70
     1
102
RTVSPropertyOp3
 70
     1
102
RTVSPropertyOp4
 70
     1
102
RTVSPropertyOp5
 70
     1
102
RTVSPropertyOp6
 70
     1
102
RTVSPropertyOp7
 70
     1
102
RTVSPropertyOp8
 70
     1
102
RTVSPropertyOp9
 70
     1
102
RTVSPropertyOp10
 70
     1
102
RTVSPropertyOp11
 70
     1
102
RTVSPropertyOp12
 70
     1
102
RTVSPropertyOp13
 70
     1
102
RTVSPropertyOp14
 70
     1
102
RTVSPropertyOp15
 70
     1
102
RTVSPropertyOp16
 70
     1
102
RTVSPropertyOp17
 70
     1
102
RTVSPropertyOp18
 70
     1
102
RTVSPropertyOp19
 70
     1
102
RTVSPropertyOp20
 70
     1
102
RTVSPropertyOp21
 70
     1
102
RTVSPropertyOp22
 70
     1
102
RTVSPropertyOp23
 70
     1
102
RTVSPropertyOp24
 70
     1
102
RTVSPropertyOp25
 70
     1
102
RTVSPropertyOp26
 70
     1
102
RTVSPropertyOp27
 70
     1
102
RTVSPropertyOp28
 70
     1
102
RTVSPropertyOp29
 70
     1
102
RTVSPropertyOp30
 70
     1
102
RTVSPropertyOp31
 70
     1
102
RTVSPropertyOp32
 70
     1
102
RTVSPropertyOp33
 70
     1
102
RTVSPropertyOp34
 70
     1
102
RTVSPropertyOp35
 70
     1
102
RTVSPropertyOp36
 70
     1
102
RTVSPropertyOp37
 70
     1
102
RTVSPropertyOp38
 70
     1
102
RTVSPropertyOp39
 70
     1
102
RTVSPropertyOp40
 70
     1
102
RTVSPropertyOp41
 70
     1
102
RTVSPropertyOp42
 70
     1
102
RTVSPropertyOp43
 70
     1
102
RTVSPropertyOp44
 70
     1
102
RTVSPropertyOp45
 70
     1
102
RTVSPropertyOp46
 70
     1
102
RTVSPropertyOp47
 70
     1
102
RTVSPropertyOp48
 70
     1
102
RTVSPropertyOp49
 70
     1
102
RTVSPropertyOp50
 70
     1
102
RTVSPropertyOp51
 70
     0
102
RTVSPropertyOp52
 70
     0
102
RTVSPropertyOp53
 70
     1
102
RTVSPropertyOp54
 70
     1
102
RTVSPropertyOp55
 70
     1
102
RTVSPropertyOp56
 70
     1
102
RTVSPropertyOp57
 70
     1
102
RTVSPropertyOp58
 70
     1
102
RTVSPropertyOp59
 70
     1
102
RTVSPropertyOp60
 70
     1
102
RTVSPropertyOp61
 70
     1
102
RTVSPropertyOp62
 70
     1
  0
XRECORD
  5
9DCB
102
{ACAD_REACTORS
330
9DCA
102
}
330
9DCA
100
AcDbXrecord
280
     1
102
RTVSPost2010Prop28
280
     0
102
RTVSPost2010PropOp28
 70
     1
102
RTVSPost2010Prop29
280
     1
102
RTVSPost2010PropOp29
 70
     1
102
RTVSPost2010Prop30
280
     1
102
RTVSPost2010PropOp30
 70
     1
102
RTVSPost2010Prop31
280
     0
102
RTVSPost2010PropOp31
 70
     1
102
RTVSPost2010Prop32
280
     0
102
RTVSPost2010PropOp32
 70
     1
102
RTVSPost2010Prop33
280
     0
102
RTVSPost2010PropOp33
 70
     1
102
RTVSPost2010Prop34
280
     0
102
RTVSPost2010PropOp34
 70
     1
102
RTVSPost2010Prop35
280
     0
102
RTVSPost2010PropOp35
 70
     1
102
RTVSPost2010Prop36
280
     0
102
RTVSPost2010PropOp36
 70
     1
102
RTVSPost2010Prop37
 90
       50
102
RTVSPost2010PropOp37
 70
     1
102
RTVSPost2010Prop38
140
0.0
102
RTVSPost2010PropOp38
 70
     1
102
RTVSPost2010Prop39
140
1.0
102
RTVSPost2010PropOp39
 70
     1
102
RTVSPost2010Prop40
 90
        0
102
RTVSPost2010PropOp40
 70
     1
102
RTVSPost2010Prop41ColorIndex
 90
       18
102
RTVSPost2010Prop41ColorRGB
 90
        0
102
RTVSPost2010PropOp41
 70
     1
102
RTVSPost2010Prop42
 90
       50
102
RTVSPost2010PropOp42
 70
     1
102
RTVSPost2010Prop43
 90
        3
102
RTVSPost2010PropOp43
 70
     1
102
RTVSPost2010Prop44ColorIndex
 90
        5
102
RTVSPost2010Prop44ColorRGB
 90
      255
102
RTVSPost2010PropOp44
 70
     1
102
RTVSPost2010Prop45
280
     0
102
RTVSPost2010PropOp45
 70
     1
102
RTVSPost2010Prop46
 90
       50
102
RTVSPost2010PropOp46
 70
     1
102
RTVSPost2010Prop47
 90
       50
102
RTVSPost2010PropOp47
 70
     1
102
RTVSPost2010Prop48
 90
       50
102
RTVSPost2010PropOp48
 70
     1
102
RTVSPost2010Prop49
280
     0
102
RTVSPost2010PropOp49
 70
     1
102
RTVSPost2010Prop50
 90
       50
102
RTVSPost2010PropOp50
 70
     1
102
RTVSPost2010Prop51ColorIndex
 90
      256
102
RTVSPost2010Prop51ColorRGB
 90
-16777216
102
RTVSPost2010PropOp51
 70
     0
102
RTVSPost2010Prop52
140
1.0
102
RTVSPost2010PropOp52
 70
     0
102
RTVSPost2010Prop53
 90
        2
102
RTVSPost2010PropOp53
 70
     1
102
RTVSPost2010Prop54
  1
strokes_ogs.tif
102
RTVSPost2010PropOp54
 70
     1
102
RTVSPost2010Prop55
280
     0
102
RTVSPost2010PropOp55
 70
     1
102
RTVSPost2010Prop56
140
1.0
102
RTVSPost2010PropOp56
 70
     1
102
RTVSPost2010Prop57
140
1.0
102
RTVSPost2010PropOp57
 70
     1
102
RTVSPropertyOp0
 70
     1
102
RTVSPropertyOp1
 70
     1
102
RTVSPropertyOp2
 70
     1
102
RTVSPropertyOp3
 70
     1
102
RTVSPropertyOp4
 70
     1
102
RTVSPropertyOp5
 70
     1
102
RTVSPropertyOp6
 70
     1
102
RTVSPropertyOp7
 70
     1
102
RTVSPropertyOp8
 70
     1
102
RTVSPropertyOp9
 70
     1
102
RTVSPropertyOp10
 70
     1
102
RTVSPropertyOp11
 70
     1
102
RTVSPropertyOp12
 70
     1
102
RTVSPropertyOp13
 70
     1
102
RTVSPropertyOp14
 70
     1
102
RTVSPropertyOp15
 70
     1
102
RTVSPropertyOp16
 70
     1
102
RTVSPropertyOp17
 70
     1
102
RTVSPropertyOp18
 70
     1
102
RTVSPropertyOp19
 70
     1
102
RTVSPropertyOp20
 70
     1
102
RTVSPropertyOp21
 70
     1
102
RTVSPropertyOp22
 70
     1
102
RTVSPropertyOp23
 70
     1
102
RTVSPropertyOp24
 70
     1
102
RTVSPropertyOp25
 70
     1
102
RTVSPropertyOp26
 70
     1
102
RTVSPropertyOp27
 70
     1
102
RTVSPropertyOp28
 70
     1
102
RTVSPropertyOp29
 70
     1
102
RTVSPropertyOp30
 70
     1
102
RTVSPropertyOp31
 70
     1
102
RTVSPropertyOp32
 70
     1
102
RTVSPropertyOp33
 70
     1
102
RTVSPropertyOp34
 70
     1
102
RTVSPropertyOp35
 70
     1
102
RTVSPropertyOp36
 70
     1
102
RTVSPropertyOp37
 70
     1
102
RTVSPropertyOp38
 70
     1
102
RTVSPropertyOp39
 70
     1
102
RTVSPropertyOp40
 70
     1
102
RTVSPropertyOp41
 70
     1
102
RTVSPropertyOp42
 70
     1
102
RTVSPropertyOp43
 70
     1
102
RTVSPropertyOp44
 70
     1
102
RTVSPropertyOp45
 70
     1
102
RTVSPropertyOp46
 70
     1
102
RTVSPropertyOp47
 70
     1
102
RTVSPropertyOp48
 70
     1
102
RTVSPropertyOp49
 70
     1
102
RTVSPropertyOp50
 70
     1
102
RTVSPropertyOp51
 70
     0
102
RTVSPropertyOp52
 70
     0
102
RTVSPropertyOp53
 70
     1
102
RTVSPropertyOp54
 70
     1
102
RTVSPropertyOp55
 70
     1
102
RTVSPropertyOp56
 70
     1
102
RTVSPropertyOp57
 70
     1
102
RTVSPropertyOp58
 70
     1
102
RTVSPropertyOp59
 70
     1
102
RTVSPropertyOp60
 70
     1
102
RTVSPropertyOp61
 70
     1
102
RTVSPropertyOp62
 70
     1
  0
XRECORD
  5
9DCD
102
{ACAD_REACTORS
330
9DCC
102
}
330
9DCC
100
AcDbXrecord
280
     1
102
RTVSPost2010Prop28
280
     0
102
RTVSPost2010PropOp28
 70
     1
102
RTVSPost2010Prop29
280
     1
102
RTVSPost2010PropOp29
 70
     1
102
RTVSPost2010Prop30
280
     1
102
RTVSPost2010PropOp30
 70
     1
102
RTVSPost2010Prop31
280
     0
102
RTVSPost2010PropOp31
 70
     1
102
RTVSPost2010Prop32
280
     0
102
RTVSPost2010PropOp32
 70
     1
102
RTVSPost2010Prop33
280
     0
102
RTVSPost2010PropOp33
 70
     1
102
RTVSPost2010Prop34
280
     0
102
RTVSPost2010PropOp34
 70
     1
102
RTVSPost2010Prop35
280
     0
102
RTVSPost2010PropOp35
 70
     1
102
RTVSPost2010Prop36
280
     0
102
RTVSPost2010PropOp36
 70
     1
102
RTVSPost2010Prop37
 90
       50
102
RTVSPost2010PropOp37
 70
     1
102
RTVSPost2010Prop38
140
0.0
102
RTVSPost2010PropOp38
 70
     1
102
RTVSPost2010Prop39
140
1.0
102
RTVSPost2010PropOp39
 70
     1
102
RTVSPost2010Prop40
 90
        0
102
RTVSPost2010PropOp40
 70
     1
102
RTVSPost2010Prop41ColorIndex
 90
       18
102
RTVSPost2010Prop41ColorRGB
 90
        0
102
RTVSPost2010PropOp41
 70
     1
102
RTVSPost2010Prop42
 90
       50
102
RTVSPost2010PropOp42
 70
     1
102
RTVSPost2010Prop43
 90
        3
102
RTVSPost2010PropOp43
 70
     1
102
RTVSPost2010Prop44ColorIndex
 90
        5
102
RTVSPost2010Prop44ColorRGB
 90
      255
102
RTVSPost2010PropOp44
 70
     1
102
RTVSPost2010Prop45
280
     0
102
RTVSPost2010PropOp45
 70
     1
102
RTVSPost2010Prop46
 90
       50
102
RTVSPost2010PropOp46
 70
     1
102
RTVSPost2010Prop47
 90
       50
102
RTVSPost2010PropOp47
 70
     1
102
RTVSPost2010Prop48
 90
       50
102
RTVSPost2010PropOp48
 70
     1
102
RTVSPost2010Prop49
280
     0
102
RTVSPost2010PropOp49
 70
     1
102
RTVSPost2010Prop50
 90
       50
102
RTVSPost2010PropOp50
 70
     1
102
RTVSPost2010Prop51ColorIndex
 90
      256
102
RTVSPost2010Prop51ColorRGB
 90
-16777216
102
RTVSPost2010PropOp51
 70
     0
102
RTVSPost2010Prop52
140
1.0
102
RTVSPost2010PropOp52
 70
     0
102
RTVSPost2010Prop53
 90
        2
102
RTVSPost2010PropOp53
 70
     1
102
RTVSPost2010Prop54
  1
strokes_ogs.tif
102
RTVSPost2010PropOp54
 70
     1
102
RTVSPost2010Prop55
280
     0
102
RTVSPost2010PropOp55
 70
     1
102
RTVSPost2010Prop56
140
1.0
102
RTVSPost2010PropOp56
 70
     1
102
RTVSPost2010Prop57
140
1.0
102
RTVSPost2010PropOp57
 70
     1
102
RTVSPropertyOp0
 70
     1
102
RTVSPropertyOp1
 70
     1
102
RTVSPropertyOp2
 70
     1
102
RTVSPropertyOp3
 70
     1
102
RTVSPropertyOp4
 70
     1
102
RTVSPropertyOp5
 70
     1
102
RTVSPropertyOp6
 70
     1
102
RTVSPropertyOp7
 70
     1
102
RTVSPropertyOp8
 70
     1
102
RTVSPropertyOp9
 70
     1
102
RTVSPropertyOp10
 70
     1
102
RTVSPropertyOp11
 70
     1
102
RTVSPropertyOp12
 70
     1
102
RTVSPropertyOp13
 70
     1
102
RTVSPropertyOp14
 70
     1
102
RTVSPropertyOp15
 70
     1
102
RTVSPropertyOp16
 70
     1
102
RTVSPropertyOp17
 70
     1
102
RTVSPropertyOp18
 70
     1
102
RTVSPropertyOp19
 70
     1
102
RTVSPropertyOp20
 70
     1
102
RTVSPropertyOp21
 70
     1
102
RTVSPropertyOp22
 70
     1
102
RTVSPropertyOp23
 70
     1
102
RTVSPropertyOp24
 70
     1
102
RTVSPropertyOp25
 70
     1
102
RTVSPropertyOp26
 70
     1
102
RTVSPropertyOp27
 70
     1
102
RTVSPropertyOp28
 70
     1
102
RTVSPropertyOp29
 70
     1
102
RTVSPropertyOp30
 70
     1
102
RTVSPropertyOp31
 70
     1
102
RTVSPropertyOp32
 70
     1
102
RTVSPropertyOp33
 70
     1
102
RTVSPropertyOp34
 70
     1
102
RTVSPropertyOp35
 70
     1
102
RTVSPropertyOp36
 70
     1
102
RTVSPropertyOp37
 70
     1
102
RTVSPropertyOp38
 70
     1
102
RTVSPropertyOp39
 70
     1
102
RTVSPropertyOp40
 70
     1
102
RTVSPropertyOp41
 70
     1
102
RTVSPropertyOp42
 70
     1
102
RTVSPropertyOp43
 70
     1
102
RTVSPropertyOp44
 70
     1
102
RTVSPropertyOp45
 70
     1
102
RTVSPropertyOp46
 70
     1
102
RTVSPropertyOp47
 70
     1
102
RTVSPropertyOp48
 70
     1
102
RTVSPropertyOp49
 70
     1
102
RTVSPropertyOp50
 70
     1
102
RTVSPropertyOp51
 70
     0
102
RTVSPropertyOp52
 70
     0
102
RTVSPropertyOp53
 70
     1
102
RTVSPropertyOp54
 70
     1
102
RTVSPropertyOp55
 70
     1
102
RTVSPropertyOp56
 70
     1
102
RTVSPropertyOp57
 70
     1
102
RTVSPropertyOp58
 70
     1
102
RTVSPropertyOp59
 70
     1
102
RTVSPropertyOp60
 70
     1
102
RTVSPropertyOp61
 70
     1
102
RTVSPropertyOp62
 70
     1
  0
XRECORD
  5
9DCF
102
{ACAD_REACTORS
330
9DCE
102
}
330
9DCE
100
AcDbXrecord
280
     1
102
RTVSPost2010Prop28
280
     0
102
RTVSPost2010PropOp28
 70
     1
102
RTVSPost2010Prop29
280
     1
102
RTVSPost2010PropOp29
 70
     1
102
RTVSPost2010Prop30
280
     1
102
RTVSPost2010PropOp30
 70
     1
102
RTVSPost2010Prop31
280
     0
102
RTVSPost2010PropOp31
 70
     1
102
RTVSPost2010Prop32
280
     0
102
RTVSPost2010PropOp32
 70
     1
102
RTVSPost2010Prop33
280
     0
102
RTVSPost2010PropOp33
 70
     1
102
RTVSPost2010Prop34
280
     0
102
RTVSPost2010PropOp34
 70
     1
102
RTVSPost2010Prop35
280
     0
102
RTVSPost2010PropOp35
 70
     1
102
RTVSPost2010Prop36
280
     0
102
RTVSPost2010PropOp36
 70
     1
102
RTVSPost2010Prop37
 90
       50
102
RTVSPost2010PropOp37
 70
     1
102
RTVSPost2010Prop38
140
0.0
102
RTVSPost2010PropOp38
 70
     1
102
RTVSPost2010Prop39
140
1.0
102
RTVSPost2010PropOp39
 70
     1
102
RTVSPost2010Prop40
 90
        0
102
RTVSPost2010PropOp40
 70
     1
102
RTVSPost2010Prop41ColorIndex
 90
       18
102
RTVSPost2010Prop41ColorRGB
 90
        0
102
RTVSPost2010PropOp41
 70
     1
102
RTVSPost2010Prop42
 90
       50
102
RTVSPost2010PropOp42
 70
     1
102
RTVSPost2010Prop43
 90
        3
102
RTVSPost2010PropOp43
 70
     1
102
RTVSPost2010Prop44ColorIndex
 90
        5
102
RTVSPost2010Prop44ColorRGB
 90
      255
102
RTVSPost2010PropOp44
 70
     1
102
RTVSPost2010Prop45
280
     0
102
RTVSPost2010PropOp45
 70
     1
102
RTVSPost2010Prop46
 90
       50
102
RTVSPost2010PropOp46
 70
     1
102
RTVSPost2010Prop47
 90
       50
102
RTVSPost2010PropOp47
 70
     1
102
RTVSPost2010Prop48
 90
       50
102
RTVSPost2010PropOp48
 70
     1
102
RTVSPost2010Prop49
280
     0
102
RTVSPost2010PropOp49
 70
     1
102
RTVSPost2010Prop50
 90
       50
102
RTVSPost2010PropOp50
 70
     1
102
RTVSPost2010Prop51ColorIndex
 90
      256
102
RTVSPost2010Prop51ColorRGB
 90
-16777216
102
RTVSPost2010PropOp51
 70
     0
102
RTVSPost2010Prop52
140
1.0
102
RTVSPost2010PropOp52
 70
     0
102
RTVSPost2010Prop53
 90
        2
102
RTVSPost2010PropOp53
 70
     1
102
RTVSPost2010Prop54
  1
strokes_ogs.tif
102
RTVSPost2010PropOp54
 70
     1
102
RTVSPost2010Prop55
280
     0
102
RTVSPost2010PropOp55
 70
     1
102
RTVSPost2010Prop56
140
1.0
102
RTVSPost2010PropOp56
 70
     1
102
RTVSPost2010Prop57
140
1.0
102
RTVSPost2010PropOp57
 70
     1
102
RTVSPropertyOp0
 70
     1
102
RTVSPropertyOp1
 70
     1
102
RTVSPropertyOp2
 70
     1
102
RTVSPropertyOp3
 70
     1
102
RTVSPropertyOp4
 70
     1
102
RTVSPropertyOp5
 70
     1
102
RTVSPropertyOp6
 70
     1
102
RTVSPropertyOp7
 70
     1
102
RTVSPropertyOp8
 70
     1
102
RTVSPropertyOp9
 70
     1
102
RTVSPropertyOp10
 70
     1
102
RTVSPropertyOp11
 70
     1
102
RTVSPropertyOp12
 70
     1
102
RTVSPropertyOp13
 70
     1
102
RTVSPropertyOp14
 70
     1
102
RTVSPropertyOp15
 70
     1
102
RTVSPropertyOp16
 70
     1
102
RTVSPropertyOp17
 70
     1
102
RTVSPropertyOp18
 70
     1
102
RTVSPropertyOp19
 70
     1
102
RTVSPropertyOp20
 70
     1
102
RTVSPropertyOp21
 70
     1
102
RTVSPropertyOp22
 70
     1
102
RTVSPropertyOp23
 70
     1
102
RTVSPropertyOp24
 70
     1
102
RTVSPropertyOp25
 70
     1
102
RTVSPropertyOp26
 70
     1
102
RTVSPropertyOp27
 70
     1
102
RTVSPropertyOp28
 70
     1
102
RTVSPropertyOp29
 70
     1
102
RTVSPropertyOp30
 70
     1
102
RTVSPropertyOp31
 70
     1
102
RTVSPropertyOp32
 70
     1
102
RTVSPropertyOp33
 70
     1
102
RTVSPropertyOp34
 70
     1
102
RTVSPropertyOp35
 70
     1
102
RTVSPropertyOp36
 70
     1
102
RTVSPropertyOp37
 70
     1
102
RTVSPropertyOp38
 70
     1
102
RTVSPropertyOp39
 70
     1
102
RTVSPropertyOp40
 70
     1
102
RTVSPropertyOp41
 70
     1
102
RTVSPropertyOp42
 70
     1
102
RTVSPropertyOp43
 70
     1
102
RTVSPropertyOp44
 70
     1
102
RTVSPropertyOp45
 70
     1
102
RTVSPropertyOp46
 70
     1
102
RTVSPropertyOp47
 70
     1
102
RTVSPropertyOp48
 70
     1
102
RTVSPropertyOp49
 70
     1
102
RTVSPropertyOp50
 70
     1
102
RTVSPropertyOp51
 70
     0
102
RTVSPropertyOp52
 70
     0
102
RTVSPropertyOp53
 70
     1
102
RTVSPropertyOp54
 70
     1
102
RTVSPropertyOp55
 70
     1
102
RTVSPropertyOp56
 70
     1
102
RTVSPropertyOp57
 70
     1
102
RTVSPropertyOp58
 70
     1
102
RTVSPropertyOp59
 70
     1
102
RTVSPropertyOp60
 70
     1
102
RTVSPropertyOp61
 70
     1
102
RTVSPropertyOp62
 70
     1
  0
XRECORD
  5
9DD7
102
{ACAD_REACTORS
330
9DD6
102
}
330
9DD6
100
AcDbXrecord
280
     1
102
RTVSPost2010Prop28
280
     0
102
RTVSPost2010PropOp28
 70
     1
102
RTVSPost2010Prop29
280
     1
102
RTVSPost2010PropOp29
 70
     1
102
RTVSPost2010Prop30
280
     1
102
RTVSPost2010PropOp30
 70
     1
102
RTVSPost2010Prop31
280
     0
102
RTVSPost2010PropOp31
 70
     1
102
RTVSPost2010Prop32
280
     0
102
RTVSPost2010PropOp32
 70
     1
102
RTVSPost2010Prop33
280
     0
102
RTVSPost2010PropOp33
 70
     1
102
RTVSPost2010Prop34
280
     0
102
RTVSPost2010PropOp34
 70
     1
102
RTVSPost2010Prop35
280
     0
102
RTVSPost2010PropOp35
 70
     1
102
RTVSPost2010Prop36
280
     0
102
RTVSPost2010PropOp36
 70
     1
102
RTVSPost2010Prop37
 90
       50
102
RTVSPost2010PropOp37
 70
     1
102
RTVSPost2010Prop38
140
0.0
102
RTVSPost2010PropOp38
 70
     1
102
RTVSPost2010Prop39
140
1.0
102
RTVSPost2010PropOp39
 70
     1
102
RTVSPost2010Prop40
 90
        0
102
RTVSPost2010PropOp40
 70
     1
102
RTVSPost2010Prop41ColorIndex
 90
       18
102
RTVSPost2010Prop41ColorRGB
 90
        0
102
RTVSPost2010PropOp41
 70
     1
102
RTVSPost2010Prop42
 90
       50
102
RTVSPost2010PropOp42
 70
     1
102
RTVSPost2010Prop43
 90
        3
102
RTVSPost2010PropOp43
 70
     1
102
RTVSPost2010Prop44ColorIndex
 90
        5
102
RTVSPost2010Prop44ColorRGB
 90
      255
102
RTVSPost2010PropOp44
 70
     1
102
RTVSPost2010Prop45
280
     0
102
RTVSPost2010PropOp45
 70
     1
102
RTVSPost2010Prop46
 90
       50
102
RTVSPost2010PropOp46
 70
     1
102
RTVSPost2010Prop47
 90
       50
102
RTVSPost2010PropOp47
 70
     1
102
RTVSPost2010Prop48
 90
       50
102
RTVSPost2010PropOp48
 70
     1
102
RTVSPost2010Prop49
280
     0
102
RTVSPost2010PropOp49
 70
     1
102
RTVSPost2010Prop50
 90
       50
102
RTVSPost2010PropOp50
 70
     1
102
RTVSPost2010Prop51ColorIndex
 90
      256
102
RTVSPost2010Prop51ColorRGB
 90
-16777216
102
RTVSPost2010PropOp51
 70
     0
102
RTVSPost2010Prop52
140
1.0
102
RTVSPost2010PropOp52
 70
     0
102
RTVSPost2010Prop53
 90
        2
102
RTVSPost2010PropOp53
 70
     1
102
RTVSPost2010Prop54
  1
strokes_ogs.tif
102
RTVSPost2010PropOp54
 70
     1
102
RTVSPost2010Prop55
280
     0
102
RTVSPost2010PropOp55
 70
     1
102
RTVSPost2010Prop56
140
1.0
102
RTVSPost2010PropOp56
 70
     1
102
RTVSPost2010Prop57
140
1.0
102
RTVSPost2010PropOp57
 70
     1
102
RTVSPropertyOp0
 70
     1
102
RTVSPropertyOp1
 70
     1
102
RTVSPropertyOp2
 70
     1
102
RTVSPropertyOp3
 70
     1
102
RTVSPropertyOp4
 70
     1
102
RTVSPropertyOp5
 70
     1
102
RTVSPropertyOp6
 70
     1
102
RTVSPropertyOp7
 70
     1
102
RTVSPropertyOp8
 70
     1
102
RTVSPropertyOp9
 70
     1
102
RTVSPropertyOp10
 70
     1
102
RTVSPropertyOp11
 70
     1
102
RTVSPropertyOp12
 70
     1
102
RTVSPropertyOp13
 70
     1
102
RTVSPropertyOp14
 70
     1
102
RTVSPropertyOp15
 70
     1
102
RTVSPropertyOp16
 70
     1
102
RTVSPropertyOp17
 70
     1
102
RTVSPropertyOp18
 70
     1
102
RTVSPropertyOp19
 70
     1
102
RTVSPropertyOp20
 70
     1
102
RTVSPropertyOp21
 70
     1
102
RTVSPropertyOp22
 70
     1
102
RTVSPropertyOp23
 70
     1
102
RTVSPropertyOp24
 70
     1
102
RTVSPropertyOp25
 70
     1
102
RTVSPropertyOp26
 70
     1
102
RTVSPropertyOp27
 70
     1
102
RTVSPropertyOp28
 70
     1
102
RTVSPropertyOp29
 70
     1
102
RTVSPropertyOp30
 70
     1
102
RTVSPropertyOp31
 70
     1
102
RTVSPropertyOp32
 70
     1
102
RTVSPropertyOp33
 70
     1
102
RTVSPropertyOp34
 70
     1
102
RTVSPropertyOp35
 70
     1
102
RTVSPropertyOp36
 70
     1
102
RTVSPropertyOp37
 70
     1
102
RTVSPropertyOp38
 70
     1
102
RTVSPropertyOp39
 70
     1
102
RTVSPropertyOp40
 70
     1
102
RTVSPropertyOp41
 70
     1
102
RTVSPropertyOp42
 70
     1
102
RTVSPropertyOp43
 70
     1
102
RTVSPropertyOp44
 70
     1
102
RTVSPropertyOp45
 70
     1
102
RTVSPropertyOp46
 70
     1
102
RTVSPropertyOp47
 70
     1
102
RTVSPropertyOp48
 70
     1
102
RTVSPropertyOp49
 70
     1
102
RTVSPropertyOp50
 70
     1
102
RTVSPropertyOp51
 70
     0
102
RTVSPropertyOp52
 70
     0
102
RTVSPropertyOp53
 70
     1
102
RTVSPropertyOp54
 70
     1
102
RTVSPropertyOp55
 70
     1
102
RTVSPropertyOp56
 70
     1
102
RTVSPropertyOp57
 70
     1
102
RTVSPropertyOp58
 70
     1
102
RTVSPropertyOp59
 70
     1
102
RTVSPropertyOp60
 70
     1
102
RTVSPropertyOp61
 70
     1
102
RTVSPropertyOp62
 70
     1
  0
XRECORD
  5
9DF3
102
{ACAD_REACTORS
330
9DF2
102
}
330
9DF2
100
AcDbXrecord
280
     1
102
RTVSPost2010Prop28
280
     0
102
RTVSPost2010PropOp28
 70
     1
102
RTVSPost2010Prop29
280
     1
102
RTVSPost2010PropOp29
 70
     1
102
RTVSPost2010Prop30
280
     1
102
RTVSPost2010PropOp30
 70
     1
102
RTVSPost2010Prop31
280
     0
102
RTVSPost2010PropOp31
 70
     1
102
RTVSPost2010Prop32
280
     0
102
RTVSPost2010PropOp32
 70
     1
102
RTVSPost2010Prop33
280
     0
102
RTVSPost2010PropOp33
 70
     1
102
RTVSPost2010Prop34
280
     0
102
RTVSPost2010PropOp34
 70
     1
102
RTVSPost2010Prop35
280
     0
102
RTVSPost2010PropOp35
 70
     1
102
RTVSPost2010Prop36
280
     0
102
RTVSPost2010PropOp36
 70
     1
102
RTVSPost2010Prop37
 90
       50
102
RTVSPost2010PropOp37
 70
     0
102
RTVSPost2010Prop38
140
0.0
102
RTVSPost2010PropOp38
 70
     0
102
RTVSPost2010Prop39
140
1.0
102
RTVSPost2010PropOp39
 70
     0
102
RTVSPost2010Prop40
 90
        0
102
RTVSPost2010PropOp40
 70
     0
102
RTVSPost2010Prop41ColorIndex
 90
       18
102
RTVSPost2010Prop41ColorRGB
 90
        0
102
RTVSPost2010PropOp41
 70
     0
102
RTVSPost2010Prop42
 90
       50
102
RTVSPost2010PropOp42
 70
     0
102
RTVSPost2010Prop43
 90
        3
102
RTVSPost2010PropOp43
 70
     0
102
RTVSPost2010Prop44ColorIndex
 90
        5
102
RTVSPost2010Prop44ColorRGB
 90
      255
102
RTVSPost2010PropOp44
 70
     0
102
RTVSPost2010Prop45
280
     0
102
RTVSPost2010PropOp45
 70
     1
102
RTVSPost2010Prop46
 90
       50
102
RTVSPost2010PropOp46
 70
     0
102
RTVSPost2010Prop47
 90
       50
102
RTVSPost2010PropOp47
 70
     0
102
RTVSPost2010Prop48
 90
       50
102
RTVSPost2010PropOp48
 70
     0
102
RTVSPost2010Prop49
280
     0
102
RTVSPost2010PropOp49
 70
     1
102
RTVSPost2010Prop50
 90
       50
102
RTVSPost2010PropOp50
 70
     0
102
RTVSPost2010Prop51ColorIndex
 90
      256
102
RTVSPost2010Prop51ColorRGB
 90
-16777216
102
RTVSPost2010PropOp51
 70
     0
102
RTVSPost2010Prop52
140
1.0
102
RTVSPost2010PropOp52
 70
     0
102
RTVSPost2010Prop53
 90
        2
102
RTVSPost2010PropOp53
 70
     0
102
RTVSPost2010Prop54
  1
strokes_ogs.tif
102
RTVSPost2010PropOp54
 70
     0
102
RTVSPost2010Prop55
280
     0
102
RTVSPost2010PropOp55
 70
     1
102
RTVSPost2010Prop56
140
1.0
102
RTVSPost2010PropOp56
 70
     0
102
RTVSPost2010Prop57
140
1.0
102
RTVSPost2010PropOp57
 70
     0
102
RTVSPropertyOp0
 70
     0
102
RTVSPropertyOp1
 70
     0
102
RTVSPropertyOp2
 70
     0
102
RTVSPropertyOp3
 70
     0
102
RTVSPropertyOp4
 70
     0
102
RTVSPropertyOp5
 70
     0
102
RTVSPropertyOp6
 70
     0
102
RTVSPropertyOp7
 70
     0
102
RTVSPropertyOp8
 70
     0
102
RTVSPropertyOp9
 70
     0
102
RTVSPropertyOp10
 70
     0
102
RTVSPropertyOp11
 70
     0
102
RTVSPropertyOp12
 70
     0
102
RTVSPropertyOp13
 70
     0
102
RTVSPropertyOp14
 70
     2
102
RTVSPropertyOp15
 70
     0
102
RTVSPropertyOp16
 70
     0
102
RTVSPropertyOp17
 70
     0
102
RTVSPropertyOp18
 70
     0
102
RTVSPropertyOp19
 70
     0
102
RTVSPropertyOp20
 70
     0
102
RTVSPropertyOp21
 70
     0
102
RTVSPropertyOp22
 70
     0
102
RTVSPropertyOp23
 70
     0
102
RTVSPropertyOp24
 70
     0
102
RTVSPropertyOp25
 70
     0
102
RTVSPropertyOp26
 70
     0
102
RTVSPropertyOp27
 70
     0
102
RTVSPropertyOp28
 70
     1
102
RTVSPropertyOp29
 70
     1
102
RTVSPropertyOp30
 70
     1
102
RTVSPropertyOp31
 70
     1
102
RTVSPropertyOp32
 70
     1
102
RTVSPropertyOp33
 70
     1
102
RTVSPropertyOp34
 70
     1
102
RTVSPropertyOp35
 70
     1
102
RTVSPropertyOp36
 70
     1
102
RTVSPropertyOp37
 70
     0
102
RTVSPropertyOp38
 70
     0
102
RTVSPropertyOp39
 70
     0
102
RTVSPropertyOp40
 70
     0
102
RTVSPropertyOp41
 70
     0
102
RTVSPropertyOp42
 70
     0
102
RTVSPropertyOp43
 70
     0
102
RTVSPropertyOp44
 70
     0
102
RTVSPropertyOp45
 70
     1
102
RTVSPropertyOp46
 70
     0
102
RTVSPropertyOp47
 70
     0
102
RTVSPropertyOp48
 70
     0
102
RTVSPropertyOp49
 70
     1
102
RTVSPropertyOp50
 70
     0
102
RTVSPropertyOp51
 70
     0
102
RTVSPropertyOp52
 70
     0
102
RTVSPropertyOp53
 70
     0
102
RTVSPropertyOp54
 70
     0
102
RTVSPropertyOp55
 70
     1
102
RTVSPropertyOp56
 70
     0
102
RTVSPropertyOp57
 70
     0
102
RTVSPropertyOp58
 70
     0
102
RTVSPropertyOp59
 70
     0
102
RTVSPropertyOp60
 70
     0
102
RTVSPropertyOp61
 70
     0
102
RTVSPropertyOp62
 70
     0
  0
XRECORD
  5
9DE3
102
{ACAD_REACTORS
330
9DE2
102
}
330
9DE2
100
AcDbXrecord
280
     1
102
RTVSPost2010Prop28
280
     0
102
RTVSPost2010PropOp28
 70
     1
102
RTVSPost2010Prop29
280
     1
102
RTVSPost2010PropOp29
 70
     1
102
RTVSPost2010Prop30
280
     1
102
RTVSPost2010PropOp30
 70
     1
102
RTVSPost2010Prop31
280
     0
102
RTVSPost2010PropOp31
 70
     1
102
RTVSPost2010Prop32
280
     0
102
RTVSPost2010PropOp32
 70
     1
102
RTVSPost2010Prop33
280
     0
102
RTVSPost2010PropOp33
 70
     1
102
RTVSPost2010Prop34
280
     0
102
RTVSPost2010PropOp34
 70
     1
102
RTVSPost2010Prop35
280
     0
102
RTVSPost2010PropOp35
 70
     1
102
RTVSPost2010Prop36
280
     0
102
RTVSPost2010PropOp36
 70
     1
102
RTVSPost2010Prop37
 90
       50
102
RTVSPost2010PropOp37
 70
     1
102
RTVSPost2010Prop38
140
0.0
102
RTVSPost2010PropOp38
 70
     1
102
RTVSPost2010Prop39
140
1.0
102
RTVSPost2010PropOp39
 70
     1
102
RTVSPost2010Prop40
 90
        0
102
RTVSPost2010PropOp40
 70
     1
102
RTVSPost2010Prop41ColorIndex
 90
       18
102
RTVSPost2010Prop41ColorRGB
 90
        0
102
RTVSPost2010PropOp41
 70
     1
102
RTVSPost2010Prop42
 90
       50
102
RTVSPost2010PropOp42
 70
     1
102
RTVSPost2010Prop43
 90
        3
102
RTVSPost2010PropOp43
 70
     1
102
RTVSPost2010Prop44ColorIndex
 90
        5
102
RTVSPost2010Prop44ColorRGB
 90
      255
102
RTVSPost2010PropOp44
 70
     1
102
RTVSPost2010Prop45
280
     0
102
RTVSPost2010PropOp45
 70
     1
102
RTVSPost2010Prop46
 90
       50
102
RTVSPost2010PropOp46
 70
     1
102
RTVSPost2010Prop47
 90
       50
102
RTVSPost2010PropOp47
 70
     1
102
RTVSPost2010Prop48
 90
       50
102
RTVSPost2010PropOp48
 70
     1
102
RTVSPost2010Prop49
280
     0
102
RTVSPost2010PropOp49
 70
     1
102
RTVSPost2010Prop50
 90
       50
102
RTVSPost2010PropOp50
 70
     1
102
RTVSPost2010Prop51ColorIndex
 90
      256
102
RTVSPost2010Prop51ColorRGB
 90
-16777216
102
RTVSPost2010PropOp51
 70
     0
102
RTVSPost2010Prop52
140
1.0
102
RTVSPost2010PropOp52
 70
     0
102
RTVSPost2010Prop53
 90
        2
102
RTVSPost2010PropOp53
 70
     1
102
RTVSPost2010Prop54
  1
strokes_ogs.tif
102
RTVSPost2010PropOp54
 70
     1
102
RTVSPost2010Prop55
280
     0
102
RTVSPost2010PropOp55
 70
     1
102
RTVSPost2010Prop56
140
1.0
102
RTVSPost2010PropOp56
 70
     1
102
RTVSPost2010Prop57
140
1.0
102
RTVSPost2010PropOp57
 70
     1
102
RTVSPropertyOp0
 70
     1
102
RTVSPropertyOp1
 70
     1
102
RTVSPropertyOp2
 70
     1
102
RTVSPropertyOp3
 70
     1
102
RTVSPropertyOp4
 70
     1
102
RTVSPropertyOp5
 70
     1
102
RTVSPropertyOp6
 70
     1
102
RTVSPropertyOp7
 70
     1
102
RTVSPropertyOp8
 70
     1
102
RTVSPropertyOp9
 70
     1
102
RTVSPropertyOp10
 70
     1
102
RTVSPropertyOp11
 70
     1
102
RTVSPropertyOp12
 70
     1
102
RTVSPropertyOp13
 70
     1
102
RTVSPropertyOp14
 70
     1
102
RTVSPropertyOp15
 70
     1
102
RTVSPropertyOp16
 70
     1
102
RTVSPropertyOp17
 70
     1
102
RTVSPropertyOp18
 70
     1
102
RTVSPropertyOp19
 70
     1
102
RTVSPropertyOp20
 70
     1
102
RTVSPropertyOp21
 70
     1
102
RTVSPropertyOp22
 70
     1
102
RTVSPropertyOp23
 70
     1
102
RTVSPropertyOp24
 70
     1
102
RTVSPropertyOp25
 70
     1
102
RTVSPropertyOp26
 70
     1
102
RTVSPropertyOp27
 70
     1
102
RTVSPropertyOp28
 70
     1
102
RTVSPropertyOp29
 70
     1
102
RTVSPropertyOp30
 70
     1
102
RTVSPropertyOp31
 70
     1
102
RTVSPropertyOp32
 70
     1
102
RTVSPropertyOp33
 70
     1
102
RTVSPropertyOp34
 70
     1
102
RTVSPropertyOp35
 70
     1
102
RTVSPropertyOp36
 70
     1
102
RTVSPropertyOp37
 70
     1
102
RTVSPropertyOp38
 70
     1
102
RTVSPropertyOp39
 70
     1
102
RTVSPropertyOp40
 70
     1
102
RTVSPropertyOp41
 70
     1
102
RTVSPropertyOp42
 70
     1
102
RTVSPropertyOp43
 70
     1
102
RTVSPropertyOp44
 70
     1
102
RTVSPropertyOp45
 70
     1
102
RTVSPropertyOp46
 70
     1
102
RTVSPropertyOp47
 70
     1
102
RTVSPropertyOp48
 70
     1
102
RTVSPropertyOp49
 70
     1
102
RTVSPropertyOp50
 70
     1
102
RTVSPropertyOp51
 70
     0
102
RTVSPropertyOp52
 70
     0
102
RTVSPropertyOp53
 70
     1
102
RTVSPropertyOp54
 70
     1
102
RTVSPropertyOp55
 70
     1
102
RTVSPropertyOp56
 70
     1
102
RTVSPropertyOp57
 70
     1
102
RTVSPropertyOp58
 70
     1
102
RTVSPropertyOp59
 70
     1
102
RTVSPropertyOp60
 70
     1
102
RTVSPropertyOp61
 70
     1
102
RTVSPropertyOp62
 70
     1
  0
XRECORD
  5
9DF5
102
{ACAD_REACTORS
330
9DF4
102
}
330
9DF4
100
AcDbXrecord
280
     1
102
RTVSPost2010Prop28
280
     0
102
RTVSPost2010PropOp28
 70
     1
102
RTVSPost2010Prop29
280
     1
102
RTVSPost2010PropOp29
 70
     1
102
RTVSPost2010Prop30
280
     1
102
RTVSPost2010PropOp30
 70
     1
102
RTVSPost2010Prop31
280
     0
102
RTVSPost2010PropOp31
 70
     1
102
RTVSPost2010Prop32
280
     0
102
RTVSPost2010PropOp32
 70
     1
102
RTVSPost2010Prop33
280
     0
102
RTVSPost2010PropOp33
 70
     1
102
RTVSPost2010Prop34
280
     0
102
RTVSPost2010PropOp34
 70
     1
102
RTVSPost2010Prop35
280
     0
102
RTVSPost2010PropOp35
 70
     1
102
RTVSPost2010Prop36
280
     0
102
RTVSPost2010PropOp36
 70
     1
102
RTVSPost2010Prop37
 90
       50
102
RTVSPost2010PropOp37
 70
     0
102
RTVSPost2010Prop38
140
0.0
102
RTVSPost2010PropOp38
 70
     0
102
RTVSPost2010Prop39
140
1.0
102
RTVSPost2010PropOp39
 70
     0
102
RTVSPost2010Prop40
 90
        0
102
RTVSPost2010PropOp40
 70
     0
102
RTVSPost2010Prop41ColorIndex
 90
       18
102
RTVSPost2010Prop41ColorRGB
 90
        0
102
RTVSPost2010PropOp41
 70
     0
102
RTVSPost2010Prop42
 90
       50
102
RTVSPost2010PropOp42
 70
     0
102
RTVSPost2010Prop43
 90
        3
102
RTVSPost2010PropOp43
 70
     0
102
RTVSPost2010Prop44ColorIndex
 90
        5
102
RTVSPost2010Prop44ColorRGB
 90
      255
102
RTVSPost2010PropOp44
 70
     0
102
RTVSPost2010Prop45
280
     0
102
RTVSPost2010PropOp45
 70
     1
102
RTVSPost2010Prop46
 90
       50
102
RTVSPost2010PropOp46
 70
     0
102
RTVSPost2010Prop47
 90
       50
102
RTVSPost2010PropOp47
 70
     0
102
RTVSPost2010Prop48
 90
       50
102
RTVSPost2010PropOp48
 70
     0
102
RTVSPost2010Prop49
280
     0
102
RTVSPost2010PropOp49
 70
     1
102
RTVSPost2010Prop50
 90
       50
102
RTVSPost2010PropOp50
 70
     0
102
RTVSPost2010Prop51ColorIndex
 90
      256
102
RTVSPost2010Prop51ColorRGB
 90
-16777216
102
RTVSPost2010PropOp51
 70
     0
102
RTVSPost2010Prop52
140
1.0
102
RTVSPost2010PropOp52
 70
     0
102
RTVSPost2010Prop53
 90
        2
102
RTVSPost2010PropOp53
 70
     0
102
RTVSPost2010Prop54
  1
strokes_ogs.tif
102
RTVSPost2010PropOp54
 70
     0
102
RTVSPost2010Prop55
280
     0
102
RTVSPost2010PropOp55
 70
     1
102
RTVSPost2010Prop56
140
1.0
102
RTVSPost2010PropOp56
 70
     0
102
RTVSPost2010Prop57
140
1.0
102
RTVSPost2010PropOp57
 70
     0
102
RTVSPropertyOp0
 70
     0
102
RTVSPropertyOp1
 70
     0
102
RTVSPropertyOp2
 70
     0
102
RTVSPropertyOp3
 70
     0
102
RTVSPropertyOp4
 70
     0
102
RTVSPropertyOp5
 70
     0
102
RTVSPropertyOp6
 70
     0
102
RTVSPropertyOp7
 70
     0
102
RTVSPropertyOp8
 70
     0
102
RTVSPropertyOp9
 70
     0
102
RTVSPropertyOp10
 70
     0
102
RTVSPropertyOp11
 70
     0
102
RTVSPropertyOp12
 70
     0
102
RTVSPropertyOp13
 70
     0
102
RTVSPropertyOp14
 70
     2
102
RTVSPropertyOp15
 70
     0
102
RTVSPropertyOp16
 70
     0
102
RTVSPropertyOp17
 70
     0
102
RTVSPropertyOp18
 70
     0
102
RTVSPropertyOp19
 70
     0
102
RTVSPropertyOp20
 70
     0
102
RTVSPropertyOp21
 70
     0
102
RTVSPropertyOp22
 70
     0
102
RTVSPropertyOp23
 70
     0
102
RTVSPropertyOp24
 70
     0
102
RTVSPropertyOp25
 70
     0
102
RTVSPropertyOp26
 70
     0
102
RTVSPropertyOp27
 70
     0
102
RTVSPropertyOp28
 70
     1
102
RTVSPropertyOp29
 70
     1
102
RTVSPropertyOp30
 70
     1
102
RTVSPropertyOp31
 70
     1
102
RTVSPropertyOp32
 70
     1
102
RTVSPropertyOp33
 70
     1
102
RTVSPropertyOp34
 70
     1
102
RTVSPropertyOp35
 70
     1
102
RTVSPropertyOp36
 70
     1
102
RTVSPropertyOp37
 70
     0
102
RTVSPropertyOp38
 70
     0
102
RTVSPropertyOp39
 70
     0
102
RTVSPropertyOp40
 70
     0
102
RTVSPropertyOp41
 70
     0
102
RTVSPropertyOp42
 70
     0
102
RTVSPropertyOp43
 70
     0
102
RTVSPropertyOp44
 70
     0
102
RTVSPropertyOp45
 70
     1
102
RTVSPropertyOp46
 70
     0
102
RTVSPropertyOp47
 70
     0
102
RTVSPropertyOp48
 70
     0
102
RTVSPropertyOp49
 70
     1
102
RTVSPropertyOp50
 70
     0
102
RTVSPropertyOp51
 70
     0
102
RTVSPropertyOp52
 70
     0
102
RTVSPropertyOp53
 70
     0
102
RTVSPropertyOp54
 70
     0
102
RTVSPropertyOp55
 70
     1
102
RTVSPropertyOp56
 70
     0
102
RTVSPropertyOp57
 70
     0
102
RTVSPropertyOp58
 70
     0
102
RTVSPropertyOp59
 70
     0
102
RTVSPropertyOp60
 70
     0
102
RTVSPropertyOp61
 70
     0
102
RTVSPropertyOp62
 70
     0
  0
XRECORD
  5
9DDB
102
{ACAD_REACTORS
330
9DDA
102
}
330
9DDA
100
AcDbXrecord
280
     1
102
RTVSPost2010Prop28
280
     0
102
RTVSPost2010PropOp28
 70
     1
102
RTVSPost2010Prop29
280
     1
102
RTVSPost2010PropOp29
 70
     1
102
RTVSPost2010Prop30
280
     1
102
RTVSPost2010PropOp30
 70
     1
102
RTVSPost2010Prop31
280
     0
102
RTVSPost2010PropOp31
 70
     1
102
RTVSPost2010Prop32
280
     0
102
RTVSPost2010PropOp32
 70
     1
102
RTVSPost2010Prop33
280
     0
102
RTVSPost2010PropOp33
 70
     1
102
RTVSPost2010Prop34
280
     0
102
RTVSPost2010PropOp34
 70
     1
102
RTVSPost2010Prop35
280
     0
102
RTVSPost2010PropOp35
 70
     1
102
RTVSPost2010Prop36
280
     0
102
RTVSPost2010PropOp36
 70
     1
102
RTVSPost2010Prop37
 90
       50
102
RTVSPost2010PropOp37
 70
     1
102
RTVSPost2010Prop38
140
0.0
102
RTVSPost2010PropOp38
 70
     1
102
RTVSPost2010Prop39
140
1.0
102
RTVSPost2010PropOp39
 70
     1
102
RTVSPost2010Prop40
 90
        0
102
RTVSPost2010PropOp40
 70
     1
102
RTVSPost2010Prop41ColorIndex
 90
       18
102
RTVSPost2010Prop41ColorRGB
 90
        0
102
RTVSPost2010PropOp41
 70
     1
102
RTVSPost2010Prop42
 90
       50
102
RTVSPost2010PropOp42
 70
     1
102
RTVSPost2010Prop43
 90
        3
102
RTVSPost2010PropOp43
 70
     1
102
RTVSPost2010Prop44ColorIndex
 90
        5
102
RTVSPost2010Prop44ColorRGB
 90
      255
102
RTVSPost2010PropOp44
 70
     1
102
RTVSPost2010Prop45
280
     0
102
RTVSPost2010PropOp45
 70
     1
102
RTVSPost2010Prop46
 90
       50
102
RTVSPost2010PropOp46
 70
     1
102
RTVSPost2010Prop47
 90
       50
102
RTVSPost2010PropOp47
 70
     1
102
RTVSPost2010Prop48
 90
       50
102
RTVSPost2010PropOp48
 70
     1
102
RTVSPost2010Prop49
280
     0
102
RTVSPost2010PropOp49
 70
     1
102
RTVSPost2010Prop50
 90
       50
102
RTVSPost2010PropOp50
 70
     1
102
RTVSPost2010Prop51ColorIndex
 90
      256
102
RTVSPost2010Prop51ColorRGB
 90
-16777216
102
RTVSPost2010PropOp51
 70
     0
102
RTVSPost2010Prop52
140
1.0
102
RTVSPost2010PropOp52
 70
     0
102
RTVSPost2010Prop53
 90
        2
102
RTVSPost2010PropOp53
 70
     1
102
RTVSPost2010Prop54
  1
strokes_ogs.tif
102
RTVSPost2010PropOp54
 70
     1
102
RTVSPost2010Prop55
280
     0
102
RTVSPost2010PropOp55
 70
     1
102
RTVSPost2010Prop56
140
1.0
102
RTVSPost2010PropOp56
 70
     1
102
RTVSPost2010Prop57
140
1.0
102
RTVSPost2010PropOp57
 70
     1
102
RTVSPropertyOp0
 70
     1
102
RTVSPropertyOp1
 70
     1
102
RTVSPropertyOp2
 70
     1
102
RTVSPropertyOp3
 70
     1
102
RTVSPropertyOp4
 70
     1
102
RTVSPropertyOp5
 70
     1
102
RTVSPropertyOp6
 70
     1
102
RTVSPropertyOp7
 70
     1
102
RTVSPropertyOp8
 70
     1
102
RTVSPropertyOp9
 70
     1
102
RTVSPropertyOp10
 70
     1
102
RTVSPropertyOp11
 70
     1
102
RTVSPropertyOp12
 70
     1
102
RTVSPropertyOp13
 70
     1
102
RTVSPropertyOp14
 70
     1
102
RTVSPropertyOp15
 70
     1
102
RTVSPropertyOp16
 70
     1
102
RTVSPropertyOp17
 70
     1
102
RTVSPropertyOp18
 70
     1
102
RTVSPropertyOp19
 70
     1
102
RTVSPropertyOp20
 70
     1
102
RTVSPropertyOp21
 70
     1
102
RTVSPropertyOp22
 70
     1
102
RTVSPropertyOp23
 70
     1
102
RTVSPropertyOp24
 70
     1
102
RTVSPropertyOp25
 70
     1
102
RTVSPropertyOp26
 70
     1
102
RTVSPropertyOp27
 70
     1
102
RTVSPropertyOp28
 70
     1
102
RTVSPropertyOp29
 70
     1
102
RTVSPropertyOp30
 70
     1
102
RTVSPropertyOp31
 70
     1
102
RTVSPropertyOp32
 70
     1
102
RTVSPropertyOp33
 70
     1
102
RTVSPropertyOp34
 70
     1
102
RTVSPropertyOp35
 70
     1
102
RTVSPropertyOp36
 70
     1
102
RTVSPropertyOp37
 70
     1
102
RTVSPropertyOp38
 70
     1
102
RTVSPropertyOp39
 70
     1
102
RTVSPropertyOp40
 70
     1
102
RTVSPropertyOp41
 70
     1
102
RTVSPropertyOp42
 70
     1
102
RTVSPropertyOp43
 70
     1
102
RTVSPropertyOp44
 70
     1
102
RTVSPropertyOp45
 70
     1
102
RTVSPropertyOp46
 70
     1
102
RTVSPropertyOp47
 70
     1
102
RTVSPropertyOp48
 70
     1
102
RTVSPropertyOp49
 70
     1
102
RTVSPropertyOp50
 70
     1
102
RTVSPropertyOp51
 70
     0
102
RTVSPropertyOp52
 70
     0
102
RTVSPropertyOp53
 70
     1
102
RTVSPropertyOp54
 70
     1
102
RTVSPropertyOp55
 70
     1
102
RTVSPropertyOp56
 70
     1
102
RTVSPropertyOp57
 70
     1
102
RTVSPropertyOp58
 70
     1
102
RTVSPropertyOp59
 70
     1
102
RTVSPropertyOp60
 70
     1
102
RTVSPropertyOp61
 70
     1
102
RTVSPropertyOp62
 70
     1
  0
XRECORD
  5
9DF1
102
{ACAD_REACTORS
330
9DF0
102
}
330
9DF0
100
AcDbXrecord
280
     1
102
RTVSPost2010Prop28
280
     0
102
RTVSPost2010PropOp28
 70
     1
102
RTVSPost2010Prop29
280
     1
102
RTVSPost2010PropOp29
 70
     1
102
RTVSPost2010Prop30
280
     1
102
RTVSPost2010PropOp30
 70
     1
102
RTVSPost2010Prop31
280
     0
102
RTVSPost2010PropOp31
 70
     1
102
RTVSPost2010Prop32
280
     0
102
RTVSPost2010PropOp32
 70
     1
102
RTVSPost2010Prop33
280
     0
102
RTVSPost2010PropOp33
 70
     1
102
RTVSPost2010Prop34
280
     0
102
RTVSPost2010PropOp34
 70
     1
102
RTVSPost2010Prop35
280
     0
102
RTVSPost2010PropOp35
 70
     1
102
RTVSPost2010Prop36
280
     0
102
RTVSPost2010PropOp36
 70
     1
102
RTVSPost2010Prop37
 90
       50
102
RTVSPost2010PropOp37
 70
     1
102
RTVSPost2010Prop38
140
0.0
102
RTVSPost2010PropOp38
 70
     1
102
RTVSPost2010Prop39
140
1.0
102
RTVSPost2010PropOp39
 70
     1
102
RTVSPost2010Prop40
 90
        0
102
RTVSPost2010PropOp40
 70
     1
102
RTVSPost2010Prop41ColorIndex
 90
       18
102
RTVSPost2010Prop41ColorRGB
 90
        0
102
RTVSPost2010PropOp41
 70
     1
102
RTVSPost2010Prop42
 90
       50
102
RTVSPost2010PropOp42
 70
     1
102
RTVSPost2010Prop43
 90
        3
102
RTVSPost2010PropOp43
 70
     1
102
RTVSPost2010Prop44ColorIndex
 90
        5
102
RTVSPost2010Prop44ColorRGB
 90
      255
102
RTVSPost2010PropOp44
 70
     1
102
RTVSPost2010Prop45
280
     0
102
RTVSPost2010PropOp45
 70
     1
102
RTVSPost2010Prop46
 90
       50
102
RTVSPost2010PropOp46
 70
     1
102
RTVSPost2010Prop47
 90
       50
102
RTVSPost2010PropOp47
 70
     1
102
RTVSPost2010Prop48
 90
       50
102
RTVSPost2010PropOp48
 70
     1
102
RTVSPost2010Prop49
280
     0
102
RTVSPost2010PropOp49
 70
     1
102
RTVSPost2010Prop50
 90
       50
102
RTVSPost2010PropOp50
 70
     1
102
RTVSPost2010Prop51ColorIndex
 90
      256
102
RTVSPost2010Prop51ColorRGB
 90
-16777216
102
RTVSPost2010PropOp51
 70
     0
102
RTVSPost2010Prop52
140
1.0
102
RTVSPost2010PropOp52
 70
     0
102
RTVSPost2010Prop53
 90
        2
102
RTVSPost2010PropOp53
 70
     1
102
RTVSPost2010Prop54
  1
strokes_ogs.tif
102
RTVSPost2010PropOp54
 70
     1
102
RTVSPost2010Prop55
280
     0
102
RTVSPost2010PropOp55
 70
     1
102
RTVSPost2010Prop56
140
1.0
102
RTVSPost2010PropOp56
 70
     1
102
RTVSPost2010Prop57
140
1.0
102
RTVSPost2010PropOp57
 70
     1
102
RTVSPropertyOp0
 70
     1
102
RTVSPropertyOp1
 70
     1
102
RTVSPropertyOp2
 70
     1
102
RTVSPropertyOp3
 70
     1
102
RTVSPropertyOp4
 70
     1
102
RTVSPropertyOp5
 70
     1
102
RTVSPropertyOp6
 70
     1
102
RTVSPropertyOp7
 70
     1
102
RTVSPropertyOp8
 70
     1
102
RTVSPropertyOp9
 70
     1
102
RTVSPropertyOp10
 70
     1
102
RTVSPropertyOp11
 70
     1
102
RTVSPropertyOp12
 70
     1
102
RTVSPropertyOp13
 70
     1
102
RTVSPropertyOp14
 70
     1
102
RTVSPropertyOp15
 70
     1
102
RTVSPropertyOp16
 70
     1
102
RTVSPropertyOp17
 70
     1
102
RTVSPropertyOp18
 70
     1
102
RTVSPropertyOp19
 70
     1
102
RTVSPropertyOp20
 70
     1
102
RTVSPropertyOp21
 70
     1
102
RTVSPropertyOp22
 70
     1
102
RTVSPropertyOp23
 70
     1
102
RTVSPropertyOp24
 70
     1
102
RTVSPropertyOp25
 70
     1
102
RTVSPropertyOp26
 70
     1
102
RTVSPropertyOp27
 70
     1
102
RTVSPropertyOp28
 70
     1
102
RTVSPropertyOp29
 70
     1
102
RTVSPropertyOp30
 70
     1
102
RTVSPropertyOp31
 70
     1
102
RTVSPropertyOp32
 70
     1
102
RTVSPropertyOp33
 70
     1
102
RTVSPropertyOp34
 70
     1
102
RTVSPropertyOp35
 70
     1
102
RTVSPropertyOp36
 70
     1
102
RTVSPropertyOp37
 70
     1
102
RTVSPropertyOp38
 70
     1
102
RTVSPropertyOp39
 70
     1
102
RTVSPropertyOp40
 70
     1
102
RTVSPropertyOp41
 70
     1
102
RTVSPropertyOp42
 70
     1
102
RTVSPropertyOp43
 70
     1
102
RTVSPropertyOp44
 70
     1
102
RTVSPropertyOp45
 70
     1
102
RTVSPropertyOp46
 70
     1
102
RTVSPropertyOp47
 70
     1
102
RTVSPropertyOp48
 70
     1
102
RTVSPropertyOp49
 70
     1
102
RTVSPropertyOp50
 70
     1
102
RTVSPropertyOp51
 70
     0
102
RTVSPropertyOp52
 70
     0
102
RTVSPropertyOp53
 70
     1
102
RTVSPropertyOp54
 70
     1
102
RTVSPropertyOp55
 70
     1
102
RTVSPropertyOp56
 70
     1
102
RTVSPropertyOp57
 70
     1
102
RTVSPropertyOp58
 70
     1
102
RTVSPropertyOp59
 70
     1
102
RTVSPropertyOp60
 70
     1
102
RTVSPropertyOp61
 70
     1
102
RTVSPropertyOp62
 70
     1
  0
XRECORD
  5
9DEF
102
{ACAD_REACTORS
330
9DEE
102
}
330
9DEE
100
AcDbXrecord
280
     1
102
RTVSPost2010Prop28
280
     0
102
RTVSPost2010PropOp28
 70
     1
102
RTVSPost2010Prop29
280
     1
102
RTVSPost2010PropOp29
 70
     1
102
RTVSPost2010Prop30
280
     1
102
RTVSPost2010PropOp30
 70
     1
102
RTVSPost2010Prop31
280
     0
102
RTVSPost2010PropOp31
 70
     1
102
RTVSPost2010Prop32
280
     0
102
RTVSPost2010PropOp32
 70
     1
102
RTVSPost2010Prop33
280
     0
102
RTVSPost2010PropOp33
 70
     1
102
RTVSPost2010Prop34
280
     0
102
RTVSPost2010PropOp34
 70
     1
102
RTVSPost2010Prop35
280
     0
102
RTVSPost2010PropOp35
 70
     1
102
RTVSPost2010Prop36
280
     0
102
RTVSPost2010PropOp36
 70
     1
102
RTVSPost2010Prop37
 90
       50
102
RTVSPost2010PropOp37
 70
     1
102
RTVSPost2010Prop38
140
0.0
102
RTVSPost2010PropOp38
 70
     1
102
RTVSPost2010Prop39
140
1.0
102
RTVSPost2010PropOp39
 70
     1
102
RTVSPost2010Prop40
 90
        0
102
RTVSPost2010PropOp40
 70
     1
102
RTVSPost2010Prop41ColorIndex
 90
       18
102
RTVSPost2010Prop41ColorRGB
 90
        0
102
RTVSPost2010PropOp41
 70
     1
102
RTVSPost2010Prop42
 90
       50
102
RTVSPost2010PropOp42
 70
     1
102
RTVSPost2010Prop43
 90
        3
102
RTVSPost2010PropOp43
 70
     1
102
RTVSPost2010Prop44ColorIndex
 90
        5
102
RTVSPost2010Prop44ColorRGB
 90
      255
102
RTVSPost2010PropOp44
 70
     1
102
RTVSPost2010Prop45
280
     0
102
RTVSPost2010PropOp45
 70
     1
102
RTVSPost2010Prop46
 90
       50
102
RTVSPost2010PropOp46
 70
     1
102
RTVSPost2010Prop47
 90
       50
102
RTVSPost2010PropOp47
 70
     1
102
RTVSPost2010Prop48
 90
       50
102
RTVSPost2010PropOp48
 70
     1
102
RTVSPost2010Prop49
280
     0
102
RTVSPost2010PropOp49
 70
     1
102
RTVSPost2010Prop50
 90
       50
102
RTVSPost2010PropOp50
 70
     1
102
RTVSPost2010Prop51ColorIndex
 90
      256
102
RTVSPost2010Prop51ColorRGB
 90
-16777216
102
RTVSPost2010PropOp51
 70
     0
102
RTVSPost2010Prop52
140
1.0
102
RTVSPost2010PropOp52
 70
     0
102
RTVSPost2010Prop53
 90
        2
102
RTVSPost2010PropOp53
 70
     1
102
RTVSPost2010Prop54
  1
strokes_ogs.tif
102
RTVSPost2010PropOp54
 70
     1
102
RTVSPost2010Prop55
280
     0
102
RTVSPost2010PropOp55
 70
     1
102
RTVSPost2010Prop56
140
1.0
102
RTVSPost2010PropOp56
 70
     1
102
RTVSPost2010Prop57
140
1.0
102
RTVSPost2010PropOp57
 70
     1
102
RTVSPropertyOp0
 70
     1
102
RTVSPropertyOp1
 70
     1
102
RTVSPropertyOp2
 70
     1
102
RTVSPropertyOp3
 70
     1
102
RTVSPropertyOp4
 70
     1
102
RTVSPropertyOp5
 70
     1
102
RTVSPropertyOp6
 70
     1
102
RTVSPropertyOp7
 70
     1
102
RTVSPropertyOp8
 70
     1
102
RTVSPropertyOp9
 70
     1
102
RTVSPropertyOp10
 70
     1
102
RTVSPropertyOp11
 70
     1
102
RTVSPropertyOp12
 70
     1
102
RTVSPropertyOp13
 70
     1
102
RTVSPropertyOp14
 70
     1
102
RTVSPropertyOp15
 70
     1
102
RTVSPropertyOp16
 70
     1
102
RTVSPropertyOp17
 70
     1
102
RTVSPropertyOp18
 70
     1
102
RTVSPropertyOp19
 70
     1
102
RTVSPropertyOp20
 70
     1
102
RTVSPropertyOp21
 70
     1
102
RTVSPropertyOp22
 70
     1
102
RTVSPropertyOp23
 70
     1
102
RTVSPropertyOp24
 70
     1
102
RTVSPropertyOp25
 70
     1
102
RTVSPropertyOp26
 70
     1
102
RTVSPropertyOp27
 70
     1
102
RTVSPropertyOp28
 70
     1
102
RTVSPropertyOp29
 70
     1
102
RTVSPropertyOp30
 70
     1
102
RTVSPropertyOp31
 70
     1
102
RTVSPropertyOp32
 70
     1
102
RTVSPropertyOp33
 70
     1
102
RTVSPropertyOp34
 70
     1
102
RTVSPropertyOp35
 70
     1
102
RTVSPropertyOp36
 70
     1
102
RTVSPropertyOp37
 70
     1
102
RTVSPropertyOp38
 70
     1
102
RTVSPropertyOp39
 70
     1
102
RTVSPropertyOp40
 70
     1
102
RTVSPropertyOp41
 70
     1
102
RTVSPropertyOp42
 70
     1
102
RTVSPropertyOp43
 70
     1
102
RTVSPropertyOp44
 70
     1
102
RTVSPropertyOp45
 70
     1
102
RTVSPropertyOp46
 70
     1
102
RTVSPropertyOp47
 70
     1
102
RTVSPropertyOp48
 70
     1
102
RTVSPropertyOp49
 70
     1
102
RTVSPropertyOp50
 70
     1
102
RTVSPropertyOp51
 70
     0
102
RTVSPropertyOp52
 70
     0
102
RTVSPropertyOp53
 70
     1
102
RTVSPropertyOp54
 70
     1
102
RTVSPropertyOp55
 70
     1
102
RTVSPropertyOp56
 70
     1
102
RTVSPropertyOp57
 70
     1
102
RTVSPropertyOp58
 70
     1
102
RTVSPropertyOp59
 70
     1
102
RTVSPropertyOp60
 70
     1
102
RTVSPropertyOp61
 70
     1
102
RTVSPropertyOp62
 70
     1
  0
XRECORD
  5
9DE9
102
{ACAD_REACTORS
330
9DE8
102
}
330
9DE8
100
AcDbXrecord
280
     1
102
RTVSPost2010Prop28
280
     0
102
RTVSPost2010PropOp28
 70
     1
102
RTVSPost2010Prop29
280
     1
102
RTVSPost2010PropOp29
 70
     1
102
RTVSPost2010Prop30
280
     1
102
RTVSPost2010PropOp30
 70
     1
102
RTVSPost2010Prop31
280
     0
102
RTVSPost2010PropOp31
 70
     1
102
RTVSPost2010Prop32
280
     0
102
RTVSPost2010PropOp32
 70
     1
102
RTVSPost2010Prop33
280
     0
102
RTVSPost2010PropOp33
 70
     1
102
RTVSPost2010Prop34
280
     0
102
RTVSPost2010PropOp34
 70
     1
102
RTVSPost2010Prop35
280
     0
102
RTVSPost2010PropOp35
 70
     1
102
RTVSPost2010Prop36
280
     0
102
RTVSPost2010PropOp36
 70
     1
102
RTVSPost2010Prop37
 90
       50
102
RTVSPost2010PropOp37
 70
     1
102
RTVSPost2010Prop38
140
0.0
102
RTVSPost2010PropOp38
 70
     1
102
RTVSPost2010Prop39
140
1.0
102
RTVSPost2010PropOp39
 70
     1
102
RTVSPost2010Prop40
 90
        0
102
RTVSPost2010PropOp40
 70
     1
102
RTVSPost2010Prop41ColorIndex
 90
       18
102
RTVSPost2010Prop41ColorRGB
 90
        0
102
RTVSPost2010PropOp41
 70
     1
102
RTVSPost2010Prop42
 90
       50
102
RTVSPost2010PropOp42
 70
     1
102
RTVSPost2010Prop43
 90
        3
102
RTVSPost2010PropOp43
 70
     1
102
RTVSPost2010Prop44ColorIndex
 90
        5
102
RTVSPost2010Prop44ColorRGB
 90
      255
102
RTVSPost2010PropOp44
 70
     1
102
RTVSPost2010Prop45
280
     0
102
RTVSPost2010PropOp45
 70
     1
102
RTVSPost2010Prop46
 90
       50
102
RTVSPost2010PropOp46
 70
     1
102
RTVSPost2010Prop47
 90
       50
102
RTVSPost2010PropOp47
 70
     1
102
RTVSPost2010Prop48
 90
       50
102
RTVSPost2010PropOp48
 70
     1
102
RTVSPost2010Prop49
280
     0
102
RTVSPost2010PropOp49
 70
     1
102
RTVSPost2010Prop50
 90
       50
102
RTVSPost2010PropOp50
 70
     1
102
RTVSPost2010Prop51ColorIndex
 90
      256
102
RTVSPost2010Prop51ColorRGB
 90
-16777216
102
RTVSPost2010PropOp51
 70
     0
102
RTVSPost2010Prop52
140
1.0
102
RTVSPost2010PropOp52
 70
     0
102
RTVSPost2010Prop53
 90
        2
102
RTVSPost2010PropOp53
 70
     1
102
RTVSPost2010Prop54
  1
strokes_ogs.tif
102
RTVSPost2010PropOp54
 70
     1
102
RTVSPost2010Prop55
280
     0
102
RTVSPost2010PropOp55
 70
     1
102
RTVSPost2010Prop56
140
1.0
102
RTVSPost2010PropOp56
 70
     1
102
RTVSPost2010Prop57
140
1.0
102
RTVSPost2010PropOp57
 70
     1
102
RTVSPropertyOp0
 70
     1
102
RTVSPropertyOp1
 70
     1
102
RTVSPropertyOp2
 70
     1
102
RTVSPropertyOp3
 70
     1
102
RTVSPropertyOp4
 70
     1
102
RTVSPropertyOp5
 70
     1
102
RTVSPropertyOp6
 70
     1
102
RTVSPropertyOp7
 70
     1
102
RTVSPropertyOp8
 70
     1
102
RTVSPropertyOp9
 70
     1
102
RTVSPropertyOp10
 70
     1
102
RTVSPropertyOp11
 70
     1
102
RTVSPropertyOp12
 70
     1
102
RTVSPropertyOp13
 70
     1
102
RTVSPropertyOp14
 70
     1
102
RTVSPropertyOp15
 70
     1
102
RTVSPropertyOp16
 70
     1
102
RTVSPropertyOp17
 70
     1
102
RTVSPropertyOp18
 70
     1
102
RTVSPropertyOp19
 70
     1
102
RTVSPropertyOp20
 70
     1
102
RTVSPropertyOp21
 70
     1
102
RTVSPropertyOp22
 70
     1
102
RTVSPropertyOp23
 70
     1
102
RTVSPropertyOp24
 70
     1
102
RTVSPropertyOp25
 70
     1
102
RTVSPropertyOp26
 70
     1
102
RTVSPropertyOp27
 70
     1
102
RTVSPropertyOp28
 70
     1
102
RTVSPropertyOp29
 70
     1
102
RTVSPropertyOp30
 70
     1
102
RTVSPropertyOp31
 70
     1
102
RTVSPropertyOp32
 70
     1
102
RTVSPropertyOp33
 70
     1
102
RTVSPropertyOp34
 70
     1
102
RTVSPropertyOp35
 70
     1
102
RTVSPropertyOp36
 70
     1
102
RTVSPropertyOp37
 70
     1
102
RTVSPropertyOp38
 70
     1
102
RTVSPropertyOp39
 70
     1
102
RTVSPropertyOp40
 70
     1
102
RTVSPropertyOp41
 70
     1
102
RTVSPropertyOp42
 70
     1
102
RTVSPropertyOp43
 70
     1
102
RTVSPropertyOp44
 70
     1
102
RTVSPropertyOp45
 70
     1
102
RTVSPropertyOp46
 70
     1
102
RTVSPropertyOp47
 70
     1
102
RTVSPropertyOp48
 70
     1
102
RTVSPropertyOp49
 70
     1
102
RTVSPropertyOp50
 70
     1
102
RTVSPropertyOp51
 70
     0
102
RTVSPropertyOp52
 70
     0
102
RTVSPropertyOp53
 70
     1
102
RTVSPropertyOp54
 70
     1
102
RTVSPropertyOp55
 70
     1
102
RTVSPropertyOp56
 70
     1
102
RTVSPropertyOp57
 70
     1
102
RTVSPropertyOp58
 70
     1
102
RTVSPropertyOp59
 70
     1
102
RTVSPropertyOp60
 70
     1
102
RTVSPropertyOp61
 70
     1
102
RTVSPropertyOp62
 70
     1
  0
XRECORD
  5
9DEB
102
{ACAD_REACTORS
330
9DEA
102
}
330
9DEA
100
AcDbXrecord
280
     1
102
RTVSPost2010Prop28
280
     0
102
RTVSPost2010PropOp28
 70
     1
102
RTVSPost2010Prop29
280
     1
102
RTVSPost2010PropOp29
 70
     1
102
RTVSPost2010Prop30
280
     1
102
RTVSPost2010PropOp30
 70
     1
102
RTVSPost2010Prop31
280
     0
102
RTVSPost2010PropOp31
 70
     1
102
RTVSPost2010Prop32
280
     0
102
RTVSPost2010PropOp32
 70
     1
102
RTVSPost2010Prop33
280
     0
102
RTVSPost2010PropOp33
 70
     1
102
RTVSPost2010Prop34
280
     0
102
RTVSPost2010PropOp34
 70
     1
102
RTVSPost2010Prop35
280
     0
102
RTVSPost2010PropOp35
 70
     1
102
RTVSPost2010Prop36
280
     0
102
RTVSPost2010PropOp36
 70
     1
102
RTVSPost2010Prop37
 90
       50
102
RTVSPost2010PropOp37
 70
     1
102
RTVSPost2010Prop38
140
0.0
102
RTVSPost2010PropOp38
 70
     1
102
RTVSPost2010Prop39
140
1.0
102
RTVSPost2010PropOp39
 70
     1
102
RTVSPost2010Prop40
 90
        0
102
RTVSPost2010PropOp40
 70
     1
102
RTVSPost2010Prop41ColorIndex
 90
       18
102
RTVSPost2010Prop41ColorRGB
 90
        0
102
RTVSPost2010PropOp41
 70
     1
102
RTVSPost2010Prop42
 90
       50
102
RTVSPost2010PropOp42
 70
     1
102
RTVSPost2010Prop43
 90
        3
102
RTVSPost2010PropOp43
 70
     1
102
RTVSPost2010Prop44ColorIndex
 90
        5
102
RTVSPost2010Prop44ColorRGB
 90
      255
102
RTVSPost2010PropOp44
 70
     1
102
RTVSPost2010Prop45
280
     0
102
RTVSPost2010PropOp45
 70
     1
102
RTVSPost2010Prop46
 90
       50
102
RTVSPost2010PropOp46
 70
     1
102
RTVSPost2010Prop47
 90
       50
102
RTVSPost2010PropOp47
 70
     1
102
RTVSPost2010Prop48
 90
       50
102
RTVSPost2010PropOp48
 70
     1
102
RTVSPost2010Prop49
280
     0
102
RTVSPost2010PropOp49
 70
     1
102
RTVSPost2010Prop50
 90
       50
102
RTVSPost2010PropOp50
 70
     1
102
RTVSPost2010Prop51ColorIndex
 90
      256
102
RTVSPost2010Prop51ColorRGB
 90
-16777216
102
RTVSPost2010PropOp51
 70
     0
102
RTVSPost2010Prop52
140
1.0
102
RTVSPost2010PropOp52
 70
     0
102
RTVSPost2010Prop53
 90
        2
102
RTVSPost2010PropOp53
 70
     1
102
RTVSPost2010Prop54
  1
strokes_ogs.tif
102
RTVSPost2010PropOp54
 70
     1
102
RTVSPost2010Prop55
280
     0
102
RTVSPost2010PropOp55
 70
     1
102
RTVSPost2010Prop56
140
1.0
102
RTVSPost2010PropOp56
 70
     1
102
RTVSPost2010Prop57
140
1.0
102
RTVSPost2010PropOp57
 70
     1
102
RTVSPropertyOp0
 70
     1
102
RTVSPropertyOp1
 70
     1
102
RTVSPropertyOp2
 70
     1
102
RTVSPropertyOp3
 70
     1
102
RTVSPropertyOp4
 70
     1
102
RTVSPropertyOp5
 70
     1
102
RTVSPropertyOp6
 70
     1
102
RTVSPropertyOp7
 70
     1
102
RTVSPropertyOp8
 70
     1
102
RTVSPropertyOp9
 70
     1
102
RTVSPropertyOp10
 70
     1
102
RTVSPropertyOp11
 70
     1
102
RTVSPropertyOp12
 70
     1
102
RTVSPropertyOp13
 70
     1
102
RTVSPropertyOp14
 70
     1
102
RTVSPropertyOp15
 70
     1
102
RTVSPropertyOp16
 70
     1
102
RTVSPropertyOp17
 70
     1
102
RTVSPropertyOp18
 70
     1
102
RTVSPropertyOp19
 70
     1
102
RTVSPropertyOp20
 70
     1
102
RTVSPropertyOp21
 70
     1
102
RTVSPropertyOp22
 70
     1
102
RTVSPropertyOp23
 70
     1
102
RTVSPropertyOp24
 70
     1
102
RTVSPropertyOp25
 70
     1
102
RTVSPropertyOp26
 70
     1
102
RTVSPropertyOp27
 70
     1
102
RTVSPropertyOp28
 70
     1
102
RTVSPropertyOp29
 70
     1
102
RTVSPropertyOp30
 70
     1
102
RTVSPropertyOp31
 70
     1
102
RTVSPropertyOp32
 70
     1
102
RTVSPropertyOp33
 70
     1
102
RTVSPropertyOp34
 70
     1
102
RTVSPropertyOp35
 70
     1
102
RTVSPropertyOp36
 70
     1
102
RTVSPropertyOp37
 70
     1
102
RTVSPropertyOp38
 70
     1
102
RTVSPropertyOp39
 70
     1
102
RTVSPropertyOp40
 70
     1
102
RTVSPropertyOp41
 70
     1
102
RTVSPropertyOp42
 70
     1
102
RTVSPropertyOp43
 70
     1
102
RTVSPropertyOp44
 70
     1
102
RTVSPropertyOp45
 70
     1
102
RTVSPropertyOp46
 70
     1
102
RTVSPropertyOp47
 70
     1
102
RTVSPropertyOp48
 70
     1
102
RTVSPropertyOp49
 70
     1
102
RTVSPropertyOp50
 70
     1
102
RTVSPropertyOp51
 70
     0
102
RTVSPropertyOp52
 70
     0
102
RTVSPropertyOp53
 70
     1
102
RTVSPropertyOp54
 70
     1
102
RTVSPropertyOp55
 70
     1
102
RTVSPropertyOp56
 70
     1
102
RTVSPropertyOp57
 70
     1
102
RTVSPropertyOp58
 70
     1
102
RTVSPropertyOp59
 70
     1
102
RTVSPropertyOp60
 70
     1
102
RTVSPropertyOp61
 70
     1
102
RTVSPropertyOp62
 70
     1
  0
XRECORD
  5
9DE1
102
{ACAD_REACTORS
330
9DE0
102
}
330
9DE0
100
AcDbXrecord
280
     1
102
RTVSPost2010Prop28
280
     0
102
RTVSPost2010PropOp28
 70
     1
102
RTVSPost2010Prop29
280
     1
102
RTVSPost2010PropOp29
 70
     1
102
RTVSPost2010Prop30
280
     1
102
RTVSPost2010PropOp30
 70
     1
102
RTVSPost2010Prop31
280
     0
102
RTVSPost2010PropOp31
 70
     1
102
RTVSPost2010Prop32
280
     0
102
RTVSPost2010PropOp32
 70
     1
102
RTVSPost2010Prop33
280
     0
102
RTVSPost2010PropOp33
 70
     1
102
RTVSPost2010Prop34
280
     0
102
RTVSPost2010PropOp34
 70
     1
102
RTVSPost2010Prop35
280
     0
102
RTVSPost2010PropOp35
 70
     1
102
RTVSPost2010Prop36
280
     0
102
RTVSPost2010PropOp36
 70
     1
102
RTVSPost2010Prop37
 90
       50
102
RTVSPost2010PropOp37
 70
     1
102
RTVSPost2010Prop38
140
0.0
102
RTVSPost2010PropOp38
 70
     1
102
RTVSPost2010Prop39
140
1.0
102
RTVSPost2010PropOp39
 70
     1
102
RTVSPost2010Prop40
 90
        0
102
RTVSPost2010PropOp40
 70
     1
102
RTVSPost2010Prop41ColorIndex
 90
       18
102
RTVSPost2010Prop41ColorRGB
 90
        0
102
RTVSPost2010PropOp41
 70
     1
102
RTVSPost2010Prop42
 90
       50
102
RTVSPost2010PropOp42
 70
     1
102
RTVSPost2010Prop43
 90
        3
102
RTVSPost2010PropOp43
 70
     1
102
RTVSPost2010Prop44ColorIndex
 90
        5
102
RTVSPost2010Prop44ColorRGB
 90
      255
102
RTVSPost2010PropOp44
 70
     1
102
RTVSPost2010Prop45
280
     0
102
RTVSPost2010PropOp45
 70
     1
102
RTVSPost2010Prop46
 90
       50
102
RTVSPost2010PropOp46
 70
     1
102
RTVSPost2010Prop47
 90
       50
102
RTVSPost2010PropOp47
 70
     1
102
RTVSPost2010Prop48
 90
       50
102
RTVSPost2010PropOp48
 70
     1
102
RTVSPost2010Prop49
280
     0
102
RTVSPost2010PropOp49
 70
     1
102
RTVSPost2010Prop50
 90
       50
102
RTVSPost2010PropOp50
 70
     1
102
RTVSPost2010Prop51ColorIndex
 90
      256
102
RTVSPost2010Prop51ColorRGB
 90
-16777216
102
RTVSPost2010PropOp51
 70
     0
102
RTVSPost2010Prop52
140
1.0
102
RTVSPost2010PropOp52
 70
     0
102
RTVSPost2010Prop53
 90
        2
102
RTVSPost2010PropOp53
 70
     1
102
RTVSPost2010Prop54
  1
strokes_ogs.tif
102
RTVSPost2010PropOp54
 70
     1
102
RTVSPost2010Prop55
280
     0
102
RTVSPost2010PropOp55
 70
     1
102
RTVSPost2010Prop56
140
1.0
102
RTVSPost2010PropOp56
 70
     1
102
RTVSPost2010Prop57
140
1.0
102
RTVSPost2010PropOp57
 70
     1
102
RTVSPropertyOp0
 70
     1
102
RTVSPropertyOp1
 70
     1
102
RTVSPropertyOp2
 70
     1
102
RTVSPropertyOp3
 70
     1
102
RTVSPropertyOp4
 70
     1
102
RTVSPropertyOp5
 70
     1
102
RTVSPropertyOp6
 70
     1
102
RTVSPropertyOp7
 70
     1
102
RTVSPropertyOp8
 70
     1
102
RTVSPropertyOp9
 70
     1
102
RTVSPropertyOp10
 70
     1
102
RTVSPropertyOp11
 70
     1
102
RTVSPropertyOp12
 70
     1
102
RTVSPropertyOp13
 70
     1
102
RTVSPropertyOp14
 70
     1
102
RTVSPropertyOp15
 70
     1
102
RTVSPropertyOp16
 70
     1
102
RTVSPropertyOp17
 70
     1
102
RTVSPropertyOp18
 70
     1
102
RTVSPropertyOp19
 70
     1
102
RTVSPropertyOp20
 70
     1
102
RTVSPropertyOp21
 70
     1
102
RTVSPropertyOp22
 70
     1
102
RTVSPropertyOp23
 70
     1
102
RTVSPropertyOp24
 70
     1
102
RTVSPropertyOp25
 70
     1
102
RTVSPropertyOp26
 70
     1
102
RTVSPropertyOp27
 70
     1
102
RTVSPropertyOp28
 70
     1
102
RTVSPropertyOp29
 70
     1
102
RTVSPropertyOp30
 70
     1
102
RTVSPropertyOp31
 70
     1
102
RTVSPropertyOp32
 70
     1
102
RTVSPropertyOp33
 70
     1
102
RTVSPropertyOp34
 70
     1
102
RTVSPropertyOp35
 70
     1
102
RTVSPropertyOp36
 70
     1
102
RTVSPropertyOp37
 70
     1
102
RTVSPropertyOp38
 70
     1
102
RTVSPropertyOp39
 70
     1
102
RTVSPropertyOp40
 70
     1
102
RTVSPropertyOp41
 70
     1
102
RTVSPropertyOp42
 70
     1
102
RTVSPropertyOp43
 70
     1
102
RTVSPropertyOp44
 70
     1
102
RTVSPropertyOp45
 70
     1
102
RTVSPropertyOp46
 70
     1
102
RTVSPropertyOp47
 70
     1
102
RTVSPropertyOp48
 70
     1
102
RTVSPropertyOp49
 70
     1
102
RTVSPropertyOp50
 70
     1
102
RTVSPropertyOp51
 70
     0
102
RTVSPropertyOp52
 70
     0
102
RTVSPropertyOp53
 70
     1
102
RTVSPropertyOp54
 70
     1
102
RTVSPropertyOp55
 70
     1
102
RTVSPropertyOp56
 70
     1
102
RTVSPropertyOp57
 70
     1
102
RTVSPropertyOp58
 70
     1
102
RTVSPropertyOp59
 70
     1
102
RTVSPropertyOp60
 70
     1
102
RTVSPropertyOp61
 70
     1
102
RTVSPropertyOp62
 70
     1
  0
XRECORD
  5
9DD5
102
{ACAD_REACTORS
330
9DD4
102
}
330
9DD4
100
AcDbXrecord
280
     1
102
RTVSPost2010Prop28
280
     0
102
RTVSPost2010PropOp28
 70
     1
102
RTVSPost2010Prop29
280
     1
102
RTVSPost2010PropOp29
 70
     1
102
RTVSPost2010Prop30
280
     1
102
RTVSPost2010PropOp30
 70
     1
102
RTVSPost2010Prop31
280
     0
102
RTVSPost2010PropOp31
 70
     1
102
RTVSPost2010Prop32
280
     0
102
RTVSPost2010PropOp32
 70
     1
102
RTVSPost2010Prop33
280
     0
102
RTVSPost2010PropOp33
 70
     1
102
RTVSPost2010Prop34
280
     0
102
RTVSPost2010PropOp34
 70
     1
102
RTVSPost2010Prop35
280
     0
102
RTVSPost2010PropOp35
 70
     1
102
RTVSPost2010Prop36
280
     0
102
RTVSPost2010PropOp36
 70
     1
102
RTVSPost2010Prop37
 90
       50
102
RTVSPost2010PropOp37
 70
     1
102
RTVSPost2010Prop38
140
0.0
102
RTVSPost2010PropOp38
 70
     1
102
RTVSPost2010Prop39
140
1.0
102
RTVSPost2010PropOp39
 70
     1
102
RTVSPost2010Prop40
 90
        0
102
RTVSPost2010PropOp40
 70
     1
102
RTVSPost2010Prop41ColorIndex
 90
       18
102
RTVSPost2010Prop41ColorRGB
 90
        0
102
RTVSPost2010PropOp41
 70
     1
102
RTVSPost2010Prop42
 90
       50
102
RTVSPost2010PropOp42
 70
     1
102
RTVSPost2010Prop43
 90
        3
102
RTVSPost2010PropOp43
 70
     1
102
RTVSPost2010Prop44ColorIndex
 90
        5
102
RTVSPost2010Prop44ColorRGB
 90
      255
102
RTVSPost2010PropOp44
 70
     1
102
RTVSPost2010Prop45
280
     0
102
RTVSPost2010PropOp45
 70
     1
102
RTVSPost2010Prop46
 90
       50
102
RTVSPost2010PropOp46
 70
     1
102
RTVSPost2010Prop47
 90
       50
102
RTVSPost2010PropOp47
 70
     1
102
RTVSPost2010Prop48
 90
       50
102
RTVSPost2010PropOp48
 70
     1
102
RTVSPost2010Prop49
280
     0
102
RTVSPost2010PropOp49
 70
     1
102
RTVSPost2010Prop50
 90
       50
102
RTVSPost2010PropOp50
 70
     1
102
RTVSPost2010Prop51ColorIndex
 90
      256
102
RTVSPost2010Prop51ColorRGB
 90
-16777216
102
RTVSPost2010PropOp51
 70
     0
102
RTVSPost2010Prop52
140
1.0
102
RTVSPost2010PropOp52
 70
     0
102
RTVSPost2010Prop53
 90
        2
102
RTVSPost2010PropOp53
 70
     1
102
RTVSPost2010Prop54
  1
strokes_ogs.tif
102
RTVSPost2010PropOp54
 70
     1
102
RTVSPost2010Prop55
280
     0
102
RTVSPost2010PropOp55
 70
     1
102
RTVSPost2010Prop56
140
1.0
102
RTVSPost2010PropOp56
 70
     1
102
RTVSPost2010Prop57
140
1.0
102
RTVSPost2010PropOp57
 70
     1
102
RTVSPropertyOp0
 70
     1
102
RTVSPropertyOp1
 70
     1
102
RTVSPropertyOp2
 70
     1
102
RTVSPropertyOp3
 70
     1
102
RTVSPropertyOp4
 70
     1
102
RTVSPropertyOp5
 70
     1
102
RTVSPropertyOp6
 70
     1
102
RTVSPropertyOp7
 70
     1
102
RTVSPropertyOp8
 70
     1
102
RTVSPropertyOp9
 70
     1
102
RTVSPropertyOp10
 70
     1
102
RTVSPropertyOp11
 70
     1
102
RTVSPropertyOp12
 70
     1
102
RTVSPropertyOp13
 70
     1
102
RTVSPropertyOp14
 70
     1
102
RTVSPropertyOp15
 70
     1
102
RTVSPropertyOp16
 70
     1
102
RTVSPropertyOp17
 70
     1
102
RTVSPropertyOp18
 70
     1
102
RTVSPropertyOp19
 70
     1
102
RTVSPropertyOp20
 70
     1
102
RTVSPropertyOp21
 70
     1
102
RTVSPropertyOp22
 70
     1
102
RTVSPropertyOp23
 70
     1
102
RTVSPropertyOp24
 70
     1
102
RTVSPropertyOp25
 70
     1
102
RTVSPropertyOp26
 70
     1
102
RTVSPropertyOp27
 70
     1
102
RTVSPropertyOp28
 70
     1
102
RTVSPropertyOp29
 70
     1
102
RTVSPropertyOp30
 70
     1
102
RTVSPropertyOp31
 70
     1
102
RTVSPropertyOp32
 70
     1
102
RTVSPropertyOp33
 70
     1
102
RTVSPropertyOp34
 70
     1
102
RTVSPropertyOp35
 70
     1
102
RTVSPropertyOp36
 70
     1
102
RTVSPropertyOp37
 70
     1
102
RTVSPropertyOp38
 70
     1
102
RTVSPropertyOp39
 70
     1
102
RTVSPropertyOp40
 70
     1
102
RTVSPropertyOp41
 70
     1
102
RTVSPropertyOp42
 70
     1
102
RTVSPropertyOp43
 70
     1
102
RTVSPropertyOp44
 70
     1
102
RTVSPropertyOp45
 70
     1
102
RTVSPropertyOp46
 70
     1
102
RTVSPropertyOp47
 70
     1
102
RTVSPropertyOp48
 70
     1
102
RTVSPropertyOp49
 70
     1
102
RTVSPropertyOp50
 70
     1
102
RTVSPropertyOp51
 70
     0
102
RTVSPropertyOp52
 70
     0
102
RTVSPropertyOp53
 70
     1
102
RTVSPropertyOp54
 70
     1
102
RTVSPropertyOp55
 70
     1
102
RTVSPropertyOp56
 70
     1
102
RTVSPropertyOp57
 70
     1
102
RTVSPropertyOp58
 70
     1
102
RTVSPropertyOp59
 70
     1
102
RTVSPropertyOp60
 70
     1
102
RTVSPropertyOp61
 70
     1
102
RTVSPropertyOp62
 70
     1
  0
XRECORD
  5
9DED
102
{ACAD_REACTORS
330
9DEC
102
}
330
9DEC
100
AcDbXrecord
280
     1
102
RTVSPost2010Prop28
280
     0
102
RTVSPost2010PropOp28
 70
     1
102
RTVSPost2010Prop29
280
     1
102
RTVSPost2010PropOp29
 70
     1
102
RTVSPost2010Prop30
280
     1
102
RTVSPost2010PropOp30
 70
     1
102
RTVSPost2010Prop31
280
     0
102
RTVSPost2010PropOp31
 70
     1
102
RTVSPost2010Prop32
280
     0
102
RTVSPost2010PropOp32
 70
     1
102
RTVSPost2010Prop33
280
     0
102
RTVSPost2010PropOp33
 70
     1
102
RTVSPost2010Prop34
280
     0
102
RTVSPost2010PropOp34
 70
     1
102
RTVSPost2010Prop35
280
     0
102
RTVSPost2010PropOp35
 70
     1
102
RTVSPost2010Prop36
280
     0
102
RTVSPost2010PropOp36
 70
     1
102
RTVSPost2010Prop37
 90
       50
102
RTVSPost2010PropOp37
 70
     1
102
RTVSPost2010Prop38
140
0.0
102
RTVSPost2010PropOp38
 70
     1
102
RTVSPost2010Prop39
140
1.0
102
RTVSPost2010PropOp39
 70
     1
102
RTVSPost2010Prop40
 90
        0
102
RTVSPost2010PropOp40
 70
     1
102
RTVSPost2010Prop41ColorIndex
 90
       18
102
RTVSPost2010Prop41ColorRGB
 90
        0
102
RTVSPost2010PropOp41
 70
     1
102
RTVSPost2010Prop42
 90
       50
102
RTVSPost2010PropOp42
 70
     1
102
RTVSPost2010Prop43
 90
        3
102
RTVSPost2010PropOp43
 70
     1
102
RTVSPost2010Prop44ColorIndex
 90
        5
102
RTVSPost2010Prop44ColorRGB
 90
      255
102
RTVSPost2010PropOp44
 70
     1
102
RTVSPost2010Prop45
280
     0
102
RTVSPost2010PropOp45
 70
     1
102
RTVSPost2010Prop46
 90
       50
102
RTVSPost2010PropOp46
 70
     1
102
RTVSPost2010Prop47
 90
       50
102
RTVSPost2010PropOp47
 70
     1
102
RTVSPost2010Prop48
 90
       50
102
RTVSPost2010PropOp48
 70
     1
102
RTVSPost2010Prop49
280
     0
102
RTVSPost2010PropOp49
 70
     1
102
RTVSPost2010Prop50
 90
       50
102
RTVSPost2010PropOp50
 70
     1
102
RTVSPost2010Prop51ColorIndex
 90
      256
102
RTVSPost2010Prop51ColorRGB
 90
-16777216
102
RTVSPost2010PropOp51
 70
     0
102
RTVSPost2010Prop52
140
1.0
102
RTVSPost2010PropOp52
 70
     0
102
RTVSPost2010Prop53
 90
        2
102
RTVSPost2010PropOp53
 70
     1
102
RTVSPost2010Prop54
  1
strokes_ogs.tif
102
RTVSPost2010PropOp54
 70
     1
102
RTVSPost2010Prop55
280
     0
102
RTVSPost2010PropOp55
 70
     1
102
RTVSPost2010Prop56
140
1.0
102
RTVSPost2010PropOp56
 70
     1
102
RTVSPost2010Prop57
140
1.0
102
RTVSPost2010PropOp57
 70
     1
102
RTVSPropertyOp0
 70
     1
102
RTVSPropertyOp1
 70
     1
102
RTVSPropertyOp2
 70
     1
102
RTVSPropertyOp3
 70
     1
102
RTVSPropertyOp4
 70
     1
102
RTVSPropertyOp5
 70
     1
102
RTVSPropertyOp6
 70
     1
102
RTVSPropertyOp7
 70
     1
102
RTVSPropertyOp8
 70
     1
102
RTVSPropertyOp9
 70
     1
102
RTVSPropertyOp10
 70
     1
102
RTVSPropertyOp11
 70
     1
102
RTVSPropertyOp12
 70
     1
102
RTVSPropertyOp13
 70
     1
102
RTVSPropertyOp14
 70
     1
102
RTVSPropertyOp15
 70
     1
102
RTVSPropertyOp16
 70
     1
102
RTVSPropertyOp17
 70
     1
102
RTVSPropertyOp18
 70
     1
102
RTVSPropertyOp19
 70
     1
102
RTVSPropertyOp20
 70
     1
102
RTVSPropertyOp21
 70
     1
102
RTVSPropertyOp22
 70
     1
102
RTVSPropertyOp23
 70
     1
102
RTVSPropertyOp24
 70
     1
102
RTVSPropertyOp25
 70
     1
102
RTVSPropertyOp26
 70
     1
102
RTVSPropertyOp27
 70
     1
102
RTVSPropertyOp28
 70
     1
102
RTVSPropertyOp29
 70
     1
102
RTVSPropertyOp30
 70
     1
102
RTVSPropertyOp31
 70
     1
102
RTVSPropertyOp32
 70
     1
102
RTVSPropertyOp33
 70
     1
102
RTVSPropertyOp34
 70
     1
102
RTVSPropertyOp35
 70
     1
102
RTVSPropertyOp36
 70
     1
102
RTVSPropertyOp37
 70
     1
102
RTVSPropertyOp38
 70
     1
102
RTVSPropertyOp39
 70
     1
102
RTVSPropertyOp40
 70
     1
102
RTVSPropertyOp41
 70
     1
102
RTVSPropertyOp42
 70
     1
102
RTVSPropertyOp43
 70
     1
102
RTVSPropertyOp44
 70
     1
102
RTVSPropertyOp45
 70
     1
102
RTVSPropertyOp46
 70
     1
102
RTVSPropertyOp47
 70
     1
102
RTVSPropertyOp48
 70
     1
102
RTVSPropertyOp49
 70
     1
102
RTVSPropertyOp50
 70
     1
102
RTVSPropertyOp51
 70
     0
102
RTVSPropertyOp52
 70
     0
102
RTVSPropertyOp53
 70
     1
102
RTVSPropertyOp54
 70
     1
102
RTVSPropertyOp55
 70
     1
102
RTVSPropertyOp56
 70
     1
102
RTVSPropertyOp57
 70
     1
102
RTVSPropertyOp58
 70
     1
102
RTVSPropertyOp59
 70
     1
102
RTVSPropertyOp60
 70
     1
102
RTVSPropertyOp61
 70
     1
102
RTVSPropertyOp62
 70
     1
  0
ENDSEC
  0
EOF
