  0
SECTION
  2
HEADER
  9
$ACADVER
  1
AC1015
  9
$ACADMAINTVER
 70
    20
  9
$DWGCODEPAGE
  3
ANSI_932
  9
$INSBASE
 10
0.0
 20
0.0
 30
0.0
  9
$EXTMIN
 10
8.061250999999996
 20
9.999999999999998
 30
0.0
  9
$EXTMAX
 10
782.73328
 20
318.4171199999998
 30
0.0
  9
$LIMMIN
 10
0.0
 20
0.0
  9
$LIMMAX
 10
792.0
 20
546.0
  9
$ORTHOMODE
 70
     1
  9
$REGENMODE
 70
     1
  9
$FILLMODE
 70
     1
  9
$QTEXTMODE
 70
     0
  9
$MIRRTEXT
 70
     1
  9
$LTSCALE
 40
20.0
  9
$ATTMODE
 70
     1
  9
$TEXTSIZE
 40
5.0
  9
$TRACEWID
 40
1.0
  9
$TEXTSTYLE
  7
STANDARD
  9
$CLAYER
  8
0
  9
$CELTYPE
  6
BYLAYER
  9
$CECOLOR
 62
   256
  9
$CELTSCALE
 40
1.0
  9
$DISPSILH
 70
     0
  9
$DIMSCALE
 40
1.0
  9
$DIMASZ
 40
3.0
  9
$DIMEXO
 40
1.0
  9
$DIMDLI
 40
10.0
  9
$DIMRND
 40
0.0
  9
$DIMDLE
 40
0.0
  9
$DIMEXE
 40
1.0
  9
$DIMTP
 40
0.0
  9
$DIMTM
 40
0.0
  9
$DIMTXT
 40
3.2
  9
$DIMCEN
 40
0.0
  9
$DIMTSZ
 40
0.0
  9
$DIMTOL
 70
     0
  9
$DIMLIM
 70
     0
  9
$DIMTIH
 70
     0
  9
$DIMTOH
 70
     0
  9
$DIMSE1
 70
     0
  9
$DIMSE2
 70
     0
  9
$DIMTAD
 70
     3
  9
$DIMZIN
 70
     8
  9
$DIMBLK
  1

  9
$DIMASO
 70
     1
  9
$DIMSHO
 70
     1
  9
$DIMPOST
  1

  9
$DIMAPOST
  1

  9
$DIMALT
 70
     0
  9
$DIMALTD
 70
     2
  9
$DIMALTF
 40
25.4
  9
$DIMLFAC
 40
1.0
  9
$DIMTOFL
 70
     1
  9
$DIMTVP
 40
0.0
  9
$DIMTIX
 70
     0
  9
$DIMSOXD
 70
     0
  9
$DIMSAH
 70
     1
  9
$DIMBLK1
  1

  9
$DIMBLK2
  1

  9
$DIMSTYLE
  2
STANDARD
  9
$DIMCLRD
 70
     0
  9
$DIMCLRE
 70
     0
  9
$DIMCLRT
 70
     0
  9
$DIMTFAC
 40
1.0
  9
$DIMGAP
 40
1.0
  9
$DIMJUST
 70
     0
  9
$DIMSD1
 70
     0
  9
$DIMSD2
 70
     0
  9
$DIMTOLJ
 70
     1
  9
$DIMTZIN
 70
     0
  9
$DIMALTZ
 70
     0
  9
$DIMALTTZ
 70
     0
  9
$DIMUPT
 70
     0
  9
$DIMDEC
 70
     4
  9
$DIMTDEC
 70
     4
  9
$DIMALTU
 70
     2
  9
$DIMALTTD
 70
     2
  9
$DIMTXSTY
  7
STANDARD
  9
$DIMAUNIT
 70
     0
  9
$DIMADEC
 70
     0
  9
$DIMALTRND
 40
0.0
  9
$DIMAZIN
 70
     0
  9
$DIMDSEP
 70
    46
  9
$DIMATFIT
 70
     3
  9
$DIMFRAC
 70
     0
  9
$DIMLDRBLK
  1

  9
$DIMLUNIT
 70
     2
  9
$DIMLWD
 70
    -2
  9
$DIMLWE
 70
    -2
  9
$DIMTMOVE
 70
     0
  9
$LUNITS
 70
     2
  9
$LUPREC
 70
     4
  9
$SKETCHINC
 40
1.0
  9
$FILLETRAD
 40
2.5
  9
$AUNITS
 70
     0
  9
$AUPREC
 70
     2
  9
$MENU
  1
.
  9
$ELEVATION
 40
0.0
  9
$PELEVATION
 40
0.0
  9
$THICKNESS
 40
0.0
  9
$LIMCHECK
 70
     0
  9
$CHAMFERA
 40
10.0
  9
$CHAMFERB
 40
10.0
  9
$CHAMFERC
 40
0.0
  9
$CHAMFERD
 40
0.0
  9
$SKPOLY
 70
     0
  9
$TDCREATE
 40
2450955.645403125
  9
$TDUCREATE
 40
2450955.270403125
  9
$TDUPDATE
 40
2457192.601061123
  9
$TDUUPDATE
 40
2457192.226061123
  9
$TDINDWG
 40
0.0628339931
  9
$TDUSRTIMER
 40
0.0628336690
  9
$USRTIMER
 70
     1
  9
$ANGBASE
 50
0.0
  9
$ANGDIR
 70
     0
  9
$PDMODE
 70
     0
  9
$PDSIZE
 40
0.0
  9
$PLINEWID
 40
0.0
  9
$SPLFRAME
 70
     0
  9
$SPLINETYPE
 70
     6
  9
$SPLINESEGS
 70
     8
  9
$HANDSEED
  5
A3C
  9
$SURFTAB1
 70
     6
  9
$SURFTAB2
 70
     6
  9
$SURFTYPE
 70
     6
  9
$SURFU
 70
     6
  9
$SURFV
 70
     6
  9
$UCSBASE
  2

  9
$UCSNAME
  2

  9
$UCSORG
 10
0.0
 20
0.0
 30
0.0
  9
$UCSXDIR
 10
1.0
 20
0.0
 30
0.0
  9
$UCSYDIR
 10
0.0
 20
1.0
 30
0.0
  9
$UCSORTHOREF
  2

  9
$UCSORTHOVIEW
 70
     0
  9
$UCSORGTOP
 10
0.0
 20
0.0
 30
0.0
  9
$UCSORGBOTTOM
 10
0.0
 20
0.0
 30
0.0
  9
$UCSORGLEFT
 10
0.0
 20
0.0
 30
0.0
  9
$UCSORGRIGHT
 10
0.0
 20
0.0
 30
0.0
  9
$UCSORGFRONT
 10
0.0
 20
0.0
 30
0.0
  9
$UCSORGBACK
 10
0.0
 20
0.0
 30
0.0
  9
$PUCSBASE
  2

  9
$PUCSNAME
  2

  9
$PUCSORG
 10
0.0
 20
0.0
 30
0.0
  9
$PUCSXDIR
 10
1.0
 20
0.0
 30
0.0
  9
$PUCSYDIR
 10
0.0
 20
1.0
 30
0.0
  9
$PUCSORTHOREF
  2

  9
$PUCSORTHOVIEW
 70
     0
  9
$PUCSORGTOP
 10
0.0
 20
0.0
 30
0.0
  9
$PUCSORGBOTTOM
 10
0.0
 20
0.0
 30
0.0
  9
$PUCSORGLEFT
 10
0.0
 20
0.0
 30
0.0
  9
$PUCSORGRIGHT
 10
0.0
 20
0.0
 30
0.0
  9
$PUCSORGFRONT
 10
0.0
 20
0.0
 30
0.0
  9
$PUCSORGBACK
 10
0.0
 20
0.0
 30
0.0
  9
$USERI1
 70
     0
  9
$USERI2
 70
     0
  9
$USERI3
 70
     0
  9
$USERI4
 70
     0
  9
$USERI5
 70
     0
  9
$USERR1
 40
0.0
  9
$USERR2
 40
0.0
  9
$USERR3
 40
0.0
  9
$USERR4
 40
0.0
  9
$USERR5
 40
0.0
  9
$WORLDVIEW
 70
     1
  9
$SHADEDGE
 70
     3
  9
$SHADEDIF
 70
    70
  9
$TILEMODE
 70
     1
  9
$MAXACTVP
 70
    16
  9
$PINSBASE
 10
0.0
 20
0.0
 30
0.0
  9
$PLIMCHECK
 70
     0
  9
$PEXTMIN
 10
1.000000000000000E+20
 20
1.000000000000000E+20
 30
1.000000000000000E+20
  9
$PEXTMAX
 10
-1.000000000000000E+20
 20
-1.000000000000000E+20
 30
-1.000000000000000E+20
  9
$PLIMMIN
 10
0.0
 20
0.0
  9
$PLIMMAX
 10
420.0
 20
297.0
  9
$UNITMODE
 70
     0
  9
$VISRETAIN
 70
     0
  9
$PLINEGEN
 70
     0
  9
$PSLTSCALE
 70
     0
  9
$TREEDEPTH
 70
  3020
  9
$CMLSTYLE
  2
STANDARD
  9
$CMLJUST
 70
     0
  9
$CMLSCALE
 40
1.0
  9
$PROXYGRAPHICS
 70
     1
  9
$MEASUREMENT
 70
     0
  9
$CELWEIGHT
370
    -1
  9
$ENDCAPS
280
     0
  9
$JOINSTYLE
280
     0
  9
$LWDISPLAY
290
     0
  9
$INSUNITS
 70
     0
  9
$HYPERLINKBASE
  1

  9
$STYLESHEET
  1

  9
$XEDIT
290
     1
  9
$CEPSNTYPE
380
     0
  9
$PSTYLEMODE
290
     1
  9
$FINGERPRINTGUID
  2
{255C3C76-7744-456A-9266-1A3FFC4A27E3}
  9
$VERSIONGUID
  2
{CDC4D9BB-29B8-4076-A189-0A5C4DBFF1D2}
  9
$EXTNAMES
290
     1
  9
$PSVPSCALE
 40
0.0
  9
$OLESTARTUP
290
     0
  0
ENDSEC
  0
SECTION
  2
CLASSES
  0
CLASS
  1
ACDBDICTIONARYWDFLT
  2
AcDbDictionaryWithDefault
  3
ObjectDBX Classes
 90
        0
280
     0
281
     0
  0
CLASS
  1
ACDBPLACEHOLDER
  2
AcDbPlaceHolder
  3
ObjectDBX Classes
 90
        0
280
     0
281
     0
  0
CLASS
  1
LAYOUT
  2
AcDbLayout
  3
ObjectDBX Classes
 90
        0
280
     0
281
     0
  0
CLASS
  1
DICTIONARYVAR
  2
AcDbDictionaryVar
  3
ObjectDBX Classes
 90
        0
280
     0
281
     0
  0
CLASS
  1
MATERIAL
  2
AcDbMaterial
  3
ObjectDBX Classes
 90
     1153
280
     0
281
     0
  0
CLASS
  1
VISUALSTYLE
  2
AcDbVisualStyle
  3
ObjectDBX Classes
 90
     4095
280
     0
281
     0
  0
CLASS
  1
TABLESTYLE
  2
AcDbTableStyle
  3
ObjectDBX Classes
 90
     4095
280
     0
281
     0
  0
CLASS
  1
SCALE
  2
AcDbScale
  3
ObjectDBX Classes
 90
     1153
280
     0
281
     0
  0
CLASS
  1
MLEADERSTYLE
  2
AcDbMLeaderStyle
  3
ACDB_MLEADERSTYLE_CLASS
 90
     4095
280
     0
281
     0
  0
CLASS
  1
ACDBSECTIONVIEWSTYLE
  2
AcDbSectionViewStyle
  3
ObjectDBX Classes
 90
     1025
280
     0
281
     0
  0
CLASS
  1
ACDBDETAILVIEWSTYLE
  2
AcDbDetailViewStyle
  3
ObjectDBX Classes
 90
     1025
280
     0
281
     0
  0
CLASS
  1
CELLSTYLEMAP
  2
AcDbCellStyleMap
  3
ObjectDBX Classes
 90
     1152
280
     0
281
     0
  0
ENDSEC
  0
SECTION
  2
TABLES
  0
TABLE
  2
VPORT
  5
1FE
330
0
100
AcDbSymbolTable
 70
     1
  0
VPORT
  5
987
330
1FE
100
AcDbSymbolTableRecord
100
AcDbViewportTableRecord
  2
*ACTIVE
 70
     0
 10
0.0
 20
0.0
 11
1.0
 21
1.0
 12
602.8310818579484
 22
164.2140666963694
 13
0.0
 23
0.0
 14
10.0
 24
10.0
 15
10.0
 25
10.0
 16
0.0
 26
0.0
 36
1.0
 17
0.0
 27
0.0
 37
0.0
 40
507.925708709691
 41
1.899603698811096
 42
50.0
 43
0.0
 44
0.0
 50
0.0
 51
0.0
 71
     0
 72
   100
 73
     1
 74
     0
 75
     0
 76
     0
 77
     0
 78
     0
281
     0
 65
     1
110
0.0
120
0.0
130
0.0
111
1.0
121
0.0
131
0.0
112
0.0
122
1.0
132
0.0
 79
     0
146
0.0
1001
ACAD_NAV_VCDISPLAY
1070
     3
  0
ENDTAB
  0
TABLE
  2
LTYPE
  5
1FB
330
0
100
AcDbSymbolTable
 70
     4
  0
LTYPE
  5
209
330
1FB
100
AcDbSymbolTableRecord
100
AcDbLinetypeTableRecord
  2
BYBLOCK
 70
     0
  3

 72
    65
 73
     0
 40
0.0
  0
LTYPE
  5
20A
330
1FB
100
AcDbSymbolTableRecord
100
AcDbLinetypeTableRecord
  2
BYLAYER
 70
     0
  3

 72
    65
 73
     0
 40
0.0
  0
LTYPE
  5
20B
330
1FB
100
AcDbSymbolTableRecord
100
AcDbLinetypeTableRecord
  2
CONTINUOUS
 70
     0
  3
Solid line
 72
    65
 73
     0
 40
0.0
  0
LTYPE
  5
219
330
1FB
100
AcDbSymbolTableRecord
100
AcDbLinetypeTableRecord
  2
DASHED
 70
     0
  3
__ __ __ __ __ __ __ __ __ __ __ __ __ __ __ __
 72
    65
 73
     2
 40
0.75
 49
0.5
 74
     0
 49
-0.25
 74
     0
  0
LTYPE
  5
21A
330
1FB
100
AcDbSymbolTableRecord
100
AcDbLinetypeTableRecord
  2
CENTER
 70
     0
  3
____ _ ____ _ ____ _ ____ _ ____ _ ____ _ ____ 
 72
    65
 73
     4
 40
2.0
 49
1.25
 74
     0
 49
-0.25
 74
     0
 49
0.25
 74
     0
 49
-0.25
 74
     0
  0
LTYPE
  5
21B
330
1FB
100
AcDbSymbolTableRecord
100
AcDbLinetypeTableRecord
  2
PHANTOM
 70
     0
  3
______  __  __  ______  __  __  ______  __  __ 
 72
    65
 73
     6
 40
2.5
 49
1.25
 74
     0
 49
-0.25
 74
     0
 49
0.25
 74
     0
 49
-0.25
 74
     0
 49
0.25
 74
     0
 49
-0.25
 74
     0
  0
ENDTAB
  0
TABLE
  2
LAYER
  5
1F8
330
0
100
AcDbSymbolTable
 70
     8
  0
LAYER
  5
206
102
{ACAD_XDICTIONARY
360
9E0
102
}
330
1F8
100
AcDbSymbolTableRecord
100
AcDbLayerTableRecord
  2
0
 70
     0
 62
     7
  6
CONTINUOUS
370
    -3
390
98E
  0
LAYER
  5
21C
102
{ACAD_XDICTIONARY
360
9E2
102
}
330
1F8
100
AcDbSymbolTableRecord
100
AcDbLayerTableRecord
  2
4
 70
     0
 62
     1
  6
CENTER
370
    -3
390
98E
  0
LAYER
  5
21D
102
{ACAD_XDICTIONARY
360
9E4
102
}
330
1F8
100
AcDbSymbolTableRecord
100
AcDbLayerTableRecord
  2
5
 70
     0
 62
     6
  6
PHANTOM
370
    -3
390
98E
  0
LAYER
  5
21E
102
{ACAD_XDICTIONARY
360
9E6
102
}
330
1F8
100
AcDbSymbolTableRecord
100
AcDbLayerTableRecord
  2
1
 70
     0
 62
     7
  6
CONTINUOUS
370
    -3
390
98E
  0
LAYER
  5
21F
102
{ACAD_XDICTIONARY
360
9E8
102
}
330
1F8
100
AcDbSymbolTableRecord
100
AcDbLayerTableRecord
  2
2
 70
     0
 62
     4
  6
CONTINUOUS
370
    -3
390
98E
  0
LAYER
  5
220
102
{ACAD_XDICTIONARY
360
9EA
102
}
330
1F8
100
AcDbSymbolTableRecord
100
AcDbLayerTableRecord
  2
3
 70
     0
 62
     2
  6
DASHED
370
    -3
390
98E
  0
LAYER
  5
221
102
{ACAD_XDICTIONARY
360
9EC
102
}
330
1F8
100
AcDbSymbolTableRecord
100
AcDbLayerTableRecord
  2
6
 70
     0
 62
     5
  6
CONTINUOUS
370
    -3
390
98E
  0
LAYER
  5
222
102
{ACAD_XDICTIONARY
360
9EE
102
}
330
1F8
100
AcDbSymbolTableRecord
100
AcDbLayerTableRecord
  2
7
 70
     0
 62
     3
  6
CONTINUOUS
370
    -3
390
98E
  0
ENDTAB
  0
TABLE
  2
STYLE
  5
1F9
330
0
100
AcDbSymbolTable
 70
     1
  0
STYLE
  5
207
330
1F9
100
AcDbSymbolTableRecord
100
AcDbTextStyleTableRecord
  2
STANDARD
 70
     0
 40
0.0
 41
1.0
 50
0.0
 71
     0
 42
5.0
  3
txt
  4

  0
ENDTAB
  0
TABLE
  2
VIEW
  5
1FC
330
0
100
AcDbSymbolTable
 70
     0
  0
ENDTAB
  0
TABLE
  2
UCS
  5
1FD
330
0
100
AcDbSymbolTable
 70
     0
  0
ENDTAB
  0
TABLE
  2
APPID
  5
1FF
330
0
100
AcDbSymbolTable
 70
     7
  0
APPID
  5
208
330
1FF
100
AcDbSymbolTableRecord
100
AcDbRegAppTableRecord
  2
ACAD
 70
     0
  0
APPID
  5
485
330
1FF
100
AcDbSymbolTableRecord
100
AcDbRegAppTableRecord
  2
CONTENTTABDATA
 70
     0
  0
APPID
  5
486
330
1FF
100
AcDbSymbolTableRecord
100
AcDbRegAppTableRecord
  2
CONTENTCURRENTTAB
 70
     0
  0
APPID
  5
487
330
1FF
100
AcDbSymbolTableRecord
100
AcDbRegAppTableRecord
  2
CONTENTBLOCKICON
 70
     0
  0
APPID
  5
488
330
1FF
100
AcDbSymbolTableRecord
100
AcDbRegAppTableRecord
  2
CONTENTBLOCKDESCRIPTION
 70
     0
  0
APPID
  5
9FA
330
1FF
100
AcDbSymbolTableRecord
100
AcDbRegAppTableRecord
  2
ACAD_NAV_VCDISPLAY
 70
     0
  0
APPID
  5
A33
330
1FF
100
AcDbSymbolTableRecord
100
AcDbRegAppTableRecord
  2
ACAD_MLEADERVER
 70
     0
  0
ENDTAB
  0
TABLE
  2
DIMSTYLE
  5
200
330
0
100
AcDbSymbolTable
 70
     1
100
AcDbDimStyleTable
 71
     0
  0
DIMSTYLE
105
224
330
200
100
AcDbSymbolTableRecord
100
AcDbDimStyleTableRecord
  2
STANDARD
 70
     0
 41
3.0
 42
1.0
 43
10.0
 44
1.0
 73
     0
 74
     0
 77
     3
 78
     8
140
3.2
141
0.0
147
1.0
172
     1
173
     1
284
     8
285
     8
286
     8
340
207
  0
ENDTAB
  0
TABLE
  2
BLOCK_RECORD
  5
1F7
330
0
100
AcDbSymbolTable
 70
     0
  0
BLOCK_RECORD
  5
214
102
{ACAD_XDICTIONARY
360
3F9
102
}
330
1F7
100
AcDbSymbolTableRecord
100
AcDbBlockTableRecord
  2
*MODEL_SPACE
340
9DC
  0
BLOCK_RECORD
  5
210
102
{ACAD_XDICTIONARY
360
3F7
102
}
330
1F7
100
AcDbSymbolTableRecord
100
AcDbBlockTableRecord
  2
*PAPER_SPACE
340
9DD
  0
ENDTAB
  0
ENDSEC
  0
SECTION
  2
BLOCKS
  0
BLOCK
  5
215
330
214
100
AcDbEntity
  8
0
100
AcDbBlockBegin
  2
*MODEL_SPACE
 70
     0
 10
0.0
 20
0.0
 30
0.0
  3
*MODEL_SPACE
  1

  0
ENDBLK
  5
216
330
214
100
AcDbEntity
  8
0
100
AcDbBlockEnd
  0
BLOCK
  5
211
330
210
100
AcDbEntity
 67
     1
  8
0
100
AcDbBlockBegin
  2
*PAPER_SPACE
 70
     0
 10
0.0
 20
0.0
 30
0.0
  3
*PAPER_SPACE
  1

  0
ENDBLK
  5
212
330
210
100
AcDbEntity
 67
     1
  8
0
100
AcDbBlockEnd
  0
ENDSEC
  0
SECTION
  2
ENTITIES
  0
TEXT
  5
22C
330
214
100
AcDbEntity
  8
7
  6
Continuous
100
AcDbText
 10
10.0
 20
18.0
 30
0.0
 40
3.0
  1
TYPE No.TL-282-1
100
AcDbText
  0
TEXT
  5
22D
330
214
100
AcDbEntity
  8
7
  6
Continuous
100
AcDbText
 10
10.0
 20
26.0
 30
0.0
 40
3.0
  1
CODE No.1774
100
AcDbText
  0
TEXT
  5
22E
330
214
100
AcDbEntity
  8
1
  6
Continuous
100
AcDbText
 10
10.0
 20
10.0
 30
0.0
 40
1.399999999999999
  1
LAYER
100
AcDbText
  0
TEXT
  5
22F
330
214
100
AcDbEntity
  8
1
  6
Continuous
100
AcDbText
 10
17.97951099999998
 20
10.04873699999998
 30
0.0
 40
1.399999999999999
  1
1
100
AcDbText
  0
TEXT
  5
230
330
214
100
AcDbEntity
  8
7
  6
Continuous
100
AcDbText
 10
29.97951099999999
 20
10.04873699999998
 30
0.0
 40
1.399999999999999
  1
7
100
AcDbText
  0
TEXT
  5
231
330
214
100
AcDbEntity
  8
4
  6
CENTER
100
AcDbText
 10
23.97951099999999
 20
10.04873699999998
 30
0.0
 40
1.399999999999999
  1
4
100
AcDbText
  0
TEXT
  5
232
330
214
100
AcDbEntity
  8
3
  6
DASHED
100
AcDbText
 10
21.979511
 20
10.04873699999998
 30
0.0
 40
1.399999999999999
  1
3
100
AcDbText
  0
TEXT
  5
233
330
214
100
AcDbEntity
  8
2
  6
Continuous
100
AcDbText
 10
19.97951099999998
 20
10.04873699999998
 30
0.0
 40
1.399999999999999
  1
2
100
AcDbText
  0
TEXT
  5
234
330
214
100
AcDbEntity
  8
6
  6
Continuous
100
AcDbText
 10
27.979511
 20
10.04873699999998
 30
0.0
 40
1.399999999999999
  1
6
100
AcDbText
  0
TEXT
  5
235
330
214
100
AcDbEntity
  8
5
  6
PHANTOM
100
AcDbText
 10
25.97951099999999
 20
10.04873699999998
 30
0.0
 40
1.399999999999999
  1
5
100
AcDbText
  0
LINE
  5
236
330
214
100
AcDbEntity
  8
1
  6
Continuous
100
AcDbLine
 10
88.061251
 20
213.0171199999999
 30
0.0
 11
88.061251
 21
138.01712
 31
0.0
  0
LINE
  5
237
330
214
100
AcDbEntity
  8
1
  6
Continuous
100
AcDbLine
 10
148.061251
 20
208.01712
 30
0.0
 11
148.061251
 21
143.01712
 31
0.0
  0
LINE
  5
238
330
214
100
AcDbEntity
  8
4
  6
CENTER
 48
0.2
100
AcDbLine
 10
637.73328
 20
175.51712
 30
0.0
 11
667.73328
 21
175.51712
 31
0.0
  0
LINE
  5
239
330
214
100
AcDbEntity
  8
1
  6
Continuous
100
AcDbLine
 10
88.061251
 20
213.0171199999999
 30
0.0
 11
143.061251
 21
213.0171199999999
 31
0.0
  0
LINE
  5
23A
330
214
100
AcDbEntity
  8
1
  6
Continuous
100
AcDbLine
 10
88.061251
 20
138.01712
 30
0.0
 11
143.061251
 21
138.01712
 31
0.0
  0
LINE
  5
23B
330
214
100
AcDbEntity
  8
4
  6
CENTER
 48
0.2
100
AcDbLine
 10
75.561251
 20
175.51712
 30
0.0
 11
153.061251
 21
175.51712
 31
0.0
  0
LINE
  5
23C
330
214
100
AcDbEntity
  8
1
  6
Continuous
100
AcDbLine
 10
662.73328
 20
208.01712
 30
0.0
 11
662.73328
 21
143.01712
 31
0.0
  0
LINE
  5
23D
330
214
100
AcDbEntity
  8
1
  6
Continuous
100
AcDbLine
 10
642.73328
 20
213.0171199999999
 30
0.0
 11
642.73328
 21
138.01712
 31
0.0
  0
LINE
  5
23E
330
214
100
AcDbEntity
  8
1
  6
Continuous
100
AcDbLine
 10
642.73328
 20
138.01712
 30
0.0
 11
657.73328
 21
138.01712
 31
0.0
  0
LINE
  5
23F
330
214
100
AcDbEntity
  8
1
  6
Continuous
100
AcDbLine
 10
642.73328
 20
213.0171199999999
 30
0.0
 11
657.73328
 21
213.0171199999999
 31
0.0
  0
LINE
  5
240
330
214
100
AcDbEntity
  8
1
  6
Continuous
100
AcDbLine
 10
645.73328
 20
188.01712
 30
0.0
 11
645.73328
 21
163.01712
 31
0.0
  0
LINE
  5
241
330
214
100
AcDbEntity
  8
1
  6
Continuous
100
AcDbLine
 10
656.73328
 20
188.01712
 30
0.0
 11
656.73328
 21
163.01712
 31
0.0
  0
LINE
  5
242
330
214
100
AcDbEntity
  8
1
  6
Continuous
100
AcDbLine
 10
645.73328
 20
188.01712
 30
0.0
 11
656.73328
 21
188.01712
 31
0.0
  0
LINE
  5
243
330
214
100
AcDbEntity
  8
1
  6
Continuous
100
AcDbLine
 10
645.73328
 20
163.01712
 30
0.0
 11
656.73328
 21
163.01712
 31
0.0
  0
LINE
  5
244
330
214
100
AcDbEntity
  8
4
  6
CENTER
 48
0.2
100
AcDbLine
 10
95.061251
 20
212.8171079999999
 30
0.0
 11
95.061251
 21
200.217117
 31
0.0
  0
LINE
  5
245
330
214
100
AcDbEntity
  8
4
  6
CENTER
 48
0.2
100
AcDbLine
 10
88.76126300000001
 20
206.5171199999999
 30
0.0
 11
101.361239
 21
206.5171199999999
 31
0.0
  0
LINE
  5
246
330
214
100
AcDbEntity
  8
4
  6
CENTER
 48
0.2
100
AcDbLine
 10
141.0612509999999
 20
212.8171079999999
 30
0.0
 11
141.0612509999999
 21
200.217117
 31
0.0
  0
LINE
  5
247
330
214
100
AcDbEntity
  8
4
  6
CENTER
 48
0.2
100
AcDbLine
 10
134.7612629999999
 20
206.5171199999999
 30
0.0
 11
147.3612389999999
 21
206.5171199999999
 31
0.0
  0
LINE
  5
248
330
214
100
AcDbEntity
  8
4
  6
CENTER
 48
0.2
100
AcDbLine
 10
141.0612509999999
 20
150.817123
 30
0.0
 11
141.0612509999999
 21
138.217117
 31
0.0
  0
LINE
  5
249
330
214
100
AcDbEntity
  8
4
  6
CENTER
 48
0.2
100
AcDbLine
 10
134.7612629999999
 20
144.51712
 30
0.0
 11
147.3612389999999
 21
144.51712
 31
0.0
  0
LINE
  5
24A
330
214
100
AcDbEntity
  8
4
  6
CENTER
 48
0.2
100
AcDbLine
 10
95.061251
 20
150.817123
 30
0.0
 11
95.061251
 21
138.217117
 31
0.0
  0
LINE
  5
24B
330
214
100
AcDbEntity
  8
4
  6
CENTER
 48
0.2
100
AcDbLine
 10
88.76126300000001
 20
144.51712
 30
0.0
 11
101.361239
 21
144.51712
 31
0.0
  0
LINE
  5
24C
330
214
100
AcDbEntity
  8
4
  6
CENTER
 48
0.2
100
AcDbLine
 10
128.061251
 20
203.51712
 30
0.0
 11
128.061251
 21
147.51712
 31
0.0
  0
LINE
  5
24D
330
214
100
AcDbEntity
  8
1
  6
Continuous
100
AcDbLine
 10
115.0612509999999
 20
185.51712
 30
0.0
 11
115.0612509999999
 21
183.067123
 31
0.0
  0
LINE
  5
24E
330
214
100
AcDbEntity
  8
1
  6
Continuous
100
AcDbLine
 10
141.0612509999999
 20
185.51712
 30
0.0
 11
141.0612509999999
 21
165.51712
 31
0.0
  0
LINE
  5
24F
330
214
100
AcDbEntity
  8
1
  6
Continuous
100
AcDbLine
 10
99.56125100000001
 20
167.9671169999997
 30
0.0
 11
115.0612509999999
 21
167.9671169999997
 31
0.0
  0
LINE
  5
250
330
214
100
AcDbEntity
  8
1
  6
Continuous
100
AcDbLine
 10
99.56125100000001
 20
183.067123
 30
0.0
 11
115.0612509999999
 21
183.067123
 31
0.0
  0
LINE
  5
251
330
214
100
AcDbEntity
  8
1
  6
Continuous
100
AcDbLine
 10
115.3112509999999
 20
185.51712
 30
0.0
 11
115.3112509999999
 21
183.01712
 31
0.0
  0
LINE
  5
252
330
214
100
AcDbEntity
  8
1
  6
Continuous
100
AcDbLine
 10
140.811251
 20
185.51712
 30
0.0
 11
140.811251
 21
165.51712
 31
0.0
  0
LINE
  5
253
330
214
100
AcDbEntity
  8
1
  6
Continuous
100
AcDbLine
 10
136.0612509999999
 20
185.51712
 30
0.0
 11
136.0612509999999
 21
165.51712
 31
0.0
  0
LINE
  5
254
330
214
100
AcDbEntity
  8
1
  6
Continuous
100
AcDbLine
 10
120.061251
 20
185.51712
 30
0.0
 11
120.061251
 21
165.51712
 31
0.0
  0
LINE
  5
255
330
214
100
AcDbEntity
  8
4
  6
CENTER
 48
0.2
100
AcDbLine
 10
103.061251
 20
188.067123
 30
0.0
 11
103.061251
 21
162.9671169999998
 31
0.0
  0
LINE
  5
256
330
214
100
AcDbEntity
  8
1
  6
Continuous
100
AcDbLine
 10
115.0612509999999
 20
167.9671169999997
 30
0.0
 11
115.0612509999999
 21
165.51712
 31
0.0
  0
LINE
  5
257
330
214
100
AcDbEntity
  8
1
  6
Continuous
100
AcDbLine
 10
115.3112509999999
 20
168.01712
 30
0.0
 11
115.3112509999999
 21
165.51712
 31
0.0
  0
LINE
  5
258
330
214
100
AcDbEntity
  8
1
  6
Continuous
100
AcDbLine
 10
203.061251
 20
213.0171199999999
 30
0.0
 11
218.0612509999999
 21
213.0171199999999
 31
0.0
  0
LINE
  5
259
330
214
100
AcDbEntity
  8
1
  6
Continuous
100
AcDbLine
 10
203.061251
 20
138.01712
 30
0.0
 11
218.0612509999999
 21
138.01712
 31
0.0
  0
LINE
  5
25A
330
214
100
AcDbEntity
  8
1
  6
Continuous
100
AcDbLine
 10
203.061251
 20
213.0171199999999
 30
0.0
 11
203.061251
 21
138.01712
 31
0.0
  0
LINE
  5
25B
330
214
100
AcDbEntity
  8
1
  6
Continuous
100
AcDbLine
 10
223.0612509999999
 20
208.01712
 30
0.0
 11
223.0612509999998
 21
186.24084791758
 31
0.0
  0
LINE
  5
25C
330
214
100
AcDbEntity
  8
1
  6
Continuous
100
AcDbLine
 10
205.061251
 20
213.0171199999999
 30
0.0
 11
205.061251
 21
138.01712
 31
0.0
  0
LINE
  5
25D
330
214
100
AcDbEntity
  8
4
  6
CENTER
 48
0.2
100
AcDbLine
 10
198.2612509999999
 20
175.51712
 30
0.0
 11
228.2612509999998
 21
175.51712
 31
0.0
  0
LINE
  5
25E
330
214
100
AcDbEntity
  8
1
  6
Continuous
100
AcDbLine
 10
205.061251
 20
200.01712
 30
0.0
 11
209.061251
 21
200.01712
 31
0.0
  0
LINE
  5
25F
330
214
100
AcDbEntity
  8
1
  6
Continuous
100
AcDbLine
 10
205.061251
 20
151.01712
 30
0.0
 11
209.061251
 21
151.01712
 31
0.0
  0
LINE
  5
260
330
214
100
AcDbEntity
  8
1
  6
Continuous
100
AcDbLine
 10
214.0612509999999
 20
195.0171199999998
 30
0.0
 11
214.0612509999999
 21
156.01712
 31
0.0
  0
LINE
  5
261
330
214
100
AcDbEntity
  8
1
  6
Continuous
100
AcDbLine
 10
80.561251
 20
186.01712
 30
0.0
 11
88.061251
 21
186.01712
 31
0.0
  0
LINE
  5
262
330
214
100
AcDbEntity
  8
1
  6
Continuous
100
AcDbLine
 10
80.561251
 20
165.01712
 30
0.0
 11
88.061251
 21
165.01712
 31
0.0
  0
LINE
  5
263
330
214
100
AcDbEntity
  8
1
  6
Continuous
100
AcDbLine
 10
80.561251
 20
186.01712
 30
0.0
 11
80.561251
 21
165.01712
 31
0.0
  0
LINE
  5
264
330
214
100
AcDbEntity
  8
1
  6
Continuous
100
AcDbLine
 10
221.2612509999999
 20
188.26712
 30
0.0
 11
221.2612509999999
 21
162.7671199999998
 31
0.0
  0
LINE
  5
265
330
214
100
AcDbEntity
  8
1
  6
Continuous
100
AcDbLine
 10
221.2612509999999
 20
188.26712
 30
0.0
 11
222.0612389999999
 21
188.26712
 31
0.0
  0
LINE
  5
266
330
214
100
AcDbEntity
  8
1
  6
Continuous
100
AcDbLine
 10
221.2612509999999
 20
162.7671199999998
 30
0.0
 11
222.0612389999999
 21
162.7671199999998
 31
0.0
  0
LINE
  5
267
330
214
100
AcDbEntity
  8
1
  6
Continuous
100
AcDbLine
 10
222.0612389999999
 20
188.26712
 30
0.0
 11
222.0612389999999
 21
162.7671199999998
 31
0.0
  0
LINE
  5
268
330
214
100
AcDbEntity
  8
4
  6
CENTER
 48
0.1
100
AcDbLine
 10
16.06125099999999
 20
183.5171199999997
 30
0.0
 11
11.06123599999998
 21
183.5171199999997
 31
0.0
  0
LINE
  5
269
330
214
100
AcDbEntity
  8
4
  6
CENTER
 48
0.1
100
AcDbLine
 10
217.5612509999999
 20
179.01712
 30
0.0
 11
217.5612509999999
 21
172.01712
 31
0.0
  0
LINE
  5
26A
330
214
100
AcDbEntity
  8
1
  6
Continuous
100
AcDbLine
 10
217.287173
 20
176.9918669999999
 30
0.0
 11
218.7013879999998
 21
174.5423889999999
 31
0.0
  0
LINE
  5
26B
330
214
100
AcDbEntity
  8
1
  6
Continuous
100
AcDbLine
 10
216.421145
 20
176.4918669999999
 30
0.0
 11
217.83536
 21
174.0423889999999
 31
0.0
  0
LINE
  5
26C
330
214
100
AcDbEntity
  8
1
  6
Continuous
100
AcDbLine
 10
33.061251
 20
213.0171199999999
 30
0.0
 11
18.061251
 21
213.0171199999999
 31
0.0
  0
LINE
  5
26D
330
214
100
AcDbEntity
  8
1
  6
Continuous
100
AcDbLine
 10
33.061251
 20
138.01712
 30
0.0
 11
18.061251
 21
138.01712
 31
0.0
  0
LINE
  5
26E
330
214
100
AcDbEntity
  8
1
  6
Continuous
100
AcDbLine
 10
33.061251
 20
213.0171199999999
 30
0.0
 11
33.061251
 21
138.01712
 31
0.0
  0
LINE
  5
26F
330
214
100
AcDbEntity
  8
1
  6
Continuous
100
AcDbLine
 10
13.061251
 20
208.01712
 30
0.0
 11
13.061251
 21
143.01712
 31
0.0
  0
LINE
  5
270
330
214
100
AcDbEntity
  8
4
  6
CENTER
 48
0.2
100
AcDbLine
 10
38.061251
 20
175.51712
 30
0.0
 11
8.061250999999996
 21
175.51712
 31
0.0
  0
LINE
  5
271
330
214
100
AcDbEntity
  8
4
  6
CENTER
 48
0.1
100
AcDbLine
 10
17.06125099999999
 20
167.51712
 30
0.0
 11
11.06125099999998
 21
167.51712
 31
0.0
  0
LINE
  5
272
330
214
100
AcDbEntity
  8
1
  6
Continuous
100
AcDbLine
 10
30.061251
 20
186.1171269999999
 30
0.0
 11
30.061251
 21
164.9171139999999
 31
0.0
  0
LINE
  5
273
330
214
100
AcDbEntity
  8
1
  6
Continuous
100
AcDbLine
 10
30.061251
 20
186.1171269999999
 30
0.0
 11
19.86125399999998
 21
186.1171269999999
 31
0.0
  0
LINE
  5
274
330
214
100
AcDbEntity
  8
1
  6
Continuous
100
AcDbLine
 10
30.061251
 20
164.9171139999999
 30
0.0
 11
19.86125399999998
 21
164.9171139999999
 31
0.0
  0
LINE
  5
275
330
214
100
AcDbEntity
  8
1
  6
Continuous
100
AcDbLine
 10
19.86125399999998
 20
186.1171269999999
 30
0.0
 11
19.86125399999998
 21
164.9171139999999
 31
0.0
  0
LINE
  5
276
330
214
100
AcDbEntity
  8
1
  6
Continuous
100
AcDbLine
 10
20.06125099999998
 20
186.01712
 30
0.0
 11
20.06125099999998
 21
165.01712
 31
0.0
  0
LINE
  5
277
330
214
100
AcDbEntity
  8
1
  6
Continuous
100
AcDbLine
 10
30.061251
 20
186.01712
 30
0.0
 11
20.06125099999998
 21
186.01712
 31
0.0
  0
LINE
  5
278
330
214
100
AcDbEntity
  8
1
  6
Continuous
100
AcDbLine
 10
30.061251
 20
165.01712
 30
0.0
 11
20.06125099999998
 21
165.01712
 31
0.0
  0
LINE
  5
279
330
214
100
AcDbEntity
  8
1
  6
Continuous
100
AcDbLine
 10
88.061251
 20
315.5171199999998
 30
0.0
 11
88.061251
 21
295.5171199999998
 31
0.0
  0
LINE
  5
27A
330
214
100
AcDbEntity
  8
1
  6
Continuous
100
AcDbLine
 10
148.061251
 20
297.5171199999998
 30
0.0
 11
148.061251
 21
295.5171199999998
 31
0.0
  0
LINE
  5
27B
330
214
100
AcDbEntity
  8
1
  6
Continuous
100
AcDbLine
 10
88.061251
 20
295.5171199999998
 30
0.0
 11
148.061251
 21
295.5171199999998
 31
0.0
  0
LINE
  5
27C
330
214
100
AcDbEntity
  8
1
  6
Continuous
100
AcDbLine
 10
88.061251
 20
315.5171199999998
 30
0.0
 11
91.06125099999998
 21
315.5171199999998
 31
0.0
  0
LINE
  5
27D
330
214
100
AcDbEntity
  8
1
  6
Continuous
100
AcDbLine
 10
91.06125099999998
 20
315.5171199999998
 30
0.0
 11
91.06125099999998
 21
297.5171199999998
 31
0.0
  0
LINE
  5
27E
330
214
100
AcDbEntity
  8
1
  6
Continuous
100
AcDbLine
 10
91.06125099999998
 20
297.5171199999998
 30
0.0
 11
148.061251
 21
297.5171199999998
 31
0.0
  0
LINE
  5
27F
330
214
100
AcDbEntity
  8
1
  6
Continuous
100
AcDbLine
 10
120.061251
 20
306.5171199999998
 30
0.0
 11
136.0612509999999
 21
306.5171199999998
 31
0.0
  0
LINE
  5
280
330
214
100
AcDbEntity
  8
1
  6
Continuous
100
AcDbLine
 10
91.06125099999998
 20
314.517108
 30
0.0
 11
95.061251
 21
314.517108
 31
0.0
  0
LINE
  5
281
330
214
100
AcDbEntity
  8
1
  6
Continuous
100
AcDbLine
 10
91.06125099999998
 20
313.7171199999998
 30
0.0
 11
95.061251
 21
313.7171199999998
 31
0.0
  0
LINE
  5
282
330
214
100
AcDbEntity
  8
1
  6
Continuous
100
AcDbLine
 10
135.361269
 20
313.7171199999998
 30
0.0
 11
135.361269
 21
306.5171199999998
 31
0.0
  0
LINE
  5
283
330
214
100
AcDbEntity
  8
1
  6
Continuous
100
AcDbLine
 10
137.561251
 20
311.5171199999998
 30
0.0
 11
137.561251
 21
310.51712
 31
0.0
  0
LINE
  5
284
330
214
100
AcDbEntity
  8
4
  6
CENTER
 48
0.2
100
AcDbLine
 10
106.561251
 20
310.0171199999998
 30
0.0
 11
139.561251
 21
310.0171199999998
 31
0.0
  0
LINE
  5
285
330
214
100
AcDbEntity
  8
1
  6
Continuous
100
AcDbLine
 10
135.3612389999997
 20
308.51712
 30
0.0
 11
137.561251
 21
308.51712
 31
0.0
  0
LINE
  5
286
330
214
100
AcDbEntity
  8
1
  6
Continuous
100
AcDbLine
 10
135.3612389999997
 20
311.5171199999998
 30
0.0
 11
137.561251
 21
311.5171199999998
 31
0.0
  0
LINE
  5
287
330
214
100
AcDbEntity
  8
1
  6
Continuous
100
AcDbLine
 10
136.0612509999999
 20
309.5171199999998
 30
0.0
 11
137.561251
 21
309.5171199999998
 31
0.0
  0
LINE
  5
288
330
214
100
AcDbEntity
  8
1
  6
Continuous
100
AcDbLine
 10
136.0612509999999
 20
310.51712
 30
0.0
 11
137.561251
 21
310.51712
 31
0.0
  0
LINE
  5
289
330
214
100
AcDbEntity
  8
1
  6
Continuous
100
AcDbLine
 10
136.0612509999999
 20
310.51712
 30
0.0
 11
136.0612509999999
 21
309.5171199999998
 31
0.0
  0
LINE
  5
28A
330
214
100
AcDbEntity
  8
1
  6
Continuous
100
AcDbLine
 10
137.561251
 20
309.5171199999998
 30
0.0
 11
137.561251
 21
308.51712
 31
0.0
  0
LINE
  5
28B
330
214
100
AcDbEntity
  8
1
  6
Continuous
100
AcDbLine
 10
80.561251
 20
298.5171199999998
 30
0.0
 11
88.061251
 21
298.5171199999998
 31
0.0
  0
LINE
  5
28C
330
214
100
AcDbEntity
  8
1
  6
Continuous
100
AcDbLine
 10
80.561251
 20
299.5171199999998
 30
0.0
 11
80.561251
 21
298.5171199999998
 31
0.0
  0
LINE
  5
28D
330
214
100
AcDbEntity
  8
1
  6
Continuous
100
AcDbLine
 10
135.561251
 20
314.517108
 30
0.0
 11
135.561251
 21
313.7171199999998
 31
0.0
  0
LINE
  5
28E
330
214
100
AcDbEntity
  8
1
  6
Continuous
100
AcDbLine
 10
95.061251
 20
314.71712
 30
0.0
 11
95.061251
 21
313.7171199999998
 31
0.0
  0
LINE
  5
28F
330
214
100
AcDbEntity
  8
1
  6
Continuous
100
AcDbLine
 10
97.06125100000001
 20
314.71712
 30
0.0
 11
97.06125100000001
 21
313.7171199999998
 31
0.0
  0
LINE
  5
290
330
214
100
AcDbEntity
  8
1
  6
Continuous
100
AcDbLine
 10
95.061251
 20
314.71712
 30
0.0
 11
97.06125100000001
 21
314.71712
 31
0.0
  0
LINE
  5
291
330
214
100
AcDbEntity
  8
1
  6
Continuous
100
AcDbLine
 10
88.061251
 20
35.51712
 30
0.0
 11
88.061251
 21
55.51712
 31
0.0
  0
LINE
  5
292
330
214
100
AcDbEntity
  8
1
  6
Continuous
100
AcDbLine
 10
148.061251
 20
53.51712
 30
0.0
 11
148.061251
 21
55.51712
 31
0.0
  0
LINE
  5
293
330
214
100
AcDbEntity
  8
1
  6
Continuous
100
AcDbLine
 10
88.061251
 20
55.51712
 30
0.0
 11
148.061251
 21
55.51712
 31
0.0
  0
LINE
  5
294
330
214
100
AcDbEntity
  8
1
  6
Continuous
100
AcDbLine
 10
88.061251
 20
35.51712
 30
0.0
 11
91.06125099999998
 21
35.51712
 31
0.0
  0
LINE
  5
295
330
214
100
AcDbEntity
  8
1
  6
Continuous
100
AcDbLine
 10
91.06125099999998
 20
35.51712
 30
0.0
 11
91.06125099999998
 21
53.51712
 31
0.0
  0
LINE
  5
296
330
214
100
AcDbEntity
  8
1
  6
Continuous
100
AcDbLine
 10
91.06125099999998
 20
53.51712
 30
0.0
 11
148.061251
 21
53.51712
 31
0.0
  0
LINE
  5
297
330
214
100
AcDbEntity
  8
1
  6
Continuous
100
AcDbLine
 10
120.061251
 20
44.51711999999999
 30
0.0
 11
136.0612509999999
 21
44.51711999999999
 31
0.0
  0
LINE
  5
298
330
214
100
AcDbEntity
  8
1
  6
Continuous
100
AcDbLine
 10
91.06125099999998
 20
36.51713299999999
 30
0.0
 11
95.061251
 21
36.51713299999999
 31
0.0
  0
LINE
  5
299
330
214
100
AcDbEntity
  8
1
  6
Continuous
100
AcDbLine
 10
91.06125099999998
 20
37.31711999999999
 30
0.0
 11
95.061251
 21
37.31711999999999
 31
0.0
  0
LINE
  5
29A
330
214
100
AcDbEntity
  8
1
  6
Continuous
100
AcDbLine
 10
135.361269
 20
37.31711999999999
 30
0.0
 11
135.361269
 21
44.51711999999999
 31
0.0
  0
LINE
  5
29B
330
214
100
AcDbEntity
  8
1
  6
Continuous
100
AcDbLine
 10
137.561251
 20
39.51712
 30
0.0
 11
137.561251
 21
40.51712
 31
0.0
  0
LINE
  5
29C
330
214
100
AcDbEntity
  8
4
  6
CENTER
 48
0.2
100
AcDbLine
 10
106.561251
 20
41.01712
 30
0.0
 11
139.561251
 21
41.01712
 31
0.0
  0
LINE
  5
29D
330
214
100
AcDbEntity
  8
1
  6
Continuous
100
AcDbLine
 10
135.361269
 20
42.51712
 30
0.0
 11
137.561251
 21
42.51712
 31
0.0
  0
LINE
  5
29E
330
214
100
AcDbEntity
  8
1
  6
Continuous
100
AcDbLine
 10
135.361269
 20
39.51712
 30
0.0
 11
137.561251
 21
39.51712
 31
0.0
  0
LINE
  5
29F
330
214
100
AcDbEntity
  8
1
  6
Continuous
100
AcDbLine
 10
136.0612509999999
 20
41.51711999999998
 30
0.0
 11
137.561251
 21
41.51711999999998
 31
0.0
  0
LINE
  5
2A0
330
214
100
AcDbEntity
  8
1
  6
Continuous
100
AcDbLine
 10
136.0612509999999
 20
40.51712
 30
0.0
 11
137.561251
 21
40.51712
 31
0.0
  0
LINE
  5
2A1
330
214
100
AcDbEntity
  8
1
  6
Continuous
100
AcDbLine
 10
136.0612509999999
 20
40.51712
 30
0.0
 11
136.0612509999999
 21
41.51711999999998
 31
0.0
  0
LINE
  5
2A2
330
214
100
AcDbEntity
  8
1
  6
Continuous
100
AcDbLine
 10
137.561251
 20
41.51711999999998
 30
0.0
 11
137.561251
 21
42.51712
 31
0.0
  0
LINE
  5
2A3
330
214
100
AcDbEntity
  8
1
  6
Continuous
100
AcDbLine
 10
80.561251
 20
52.51712
 30
0.0
 11
88.061251
 21
52.51712
 31
0.0
  0
LINE
  5
2A4
330
214
100
AcDbEntity
  8
1
  6
Continuous
100
AcDbLine
 10
80.561251
 20
51.51711999999999
 30
0.0
 11
80.561251
 21
52.51712
 31
0.0
  0
LINE
  5
2A5
330
214
100
AcDbEntity
  8
1
  6
Continuous
100
AcDbLine
 10
135.561251
 20
36.51711699999999
 30
0.0
 11
135.561251
 21
37.31711999999999
 31
0.0
  0
LINE
  5
2A6
330
214
100
AcDbEntity
  8
1
  6
Continuous
100
AcDbLine
 10
95.061251
 20
36.31711999999998
 30
0.0
 11
95.061251
 21
37.31711999999999
 31
0.0
  0
LINE
  5
2A7
330
214
100
AcDbEntity
  8
1
  6
Continuous
100
AcDbLine
 10
97.06125100000001
 20
36.31711999999998
 30
0.0
 11
97.06125100000001
 21
37.31711999999999
 31
0.0
  0
LINE
  5
2A8
330
214
100
AcDbEntity
  8
1
  6
Continuous
100
AcDbLine
 10
95.061251
 20
36.31711999999998
 30
0.0
 11
97.06125100000001
 21
36.31711999999998
 31
0.0
  0
LINE
  5
2A9
330
214
100
AcDbEntity
  8
4
  6
CENTER
 48
0.1
100
AcDbLine
 10
103.061251
 20
48.26712
 30
0.0
 11
103.061251
 21
54.76712
 31
0.0
  0
LINE
  5
2AA
330
214
100
AcDbEntity
  8
4
  6
CENTER
 48
0.1
100
AcDbLine
 10
99.81125099999999
 20
51.51711999999999
 30
0.0
 11
106.311251
 21
51.51711999999999
 31
0.0
  0
LINE
  5
2AB
330
214
100
AcDbEntity
  8
1
  6
Continuous
100
AcDbLine
 10
338.0612509999999
 20
213.0171199999999
 30
0.0
 11
338.0612509999999
 21
138.01712
 31
0.0
  0
LINE
  5
2AC
330
214
100
AcDbEntity
  8
1
  6
Continuous
100
AcDbLine
 10
278.0612509999999
 20
208.01712
 30
0.0
 11
278.0612509999999
 21
143.01712
 31
0.0
  0
LINE
  5
2AD
330
214
100
AcDbEntity
  8
1
  6
Continuous
100
AcDbLine
 10
338.0612509999999
 20
213.0171199999999
 30
0.0
 11
283.0612509999999
 21
213.0171199999999
 31
0.0
  0
LINE
  5
2AE
330
214
100
AcDbEntity
  8
1
  6
Continuous
100
AcDbLine
 10
338.0612509999999
 20
138.01712
 30
0.0
 11
283.0612509999999
 21
138.01712
 31
0.0
  0
LINE
  5
2AF
330
214
100
AcDbEntity
  8
4
  6
CENTER
 48
0.2
100
AcDbLine
 10
350.5612509999999
 20
175.51712
 30
0.0
 11
273.0612509999999
 21
175.51712
 31
0.0
  0
LINE
  5
2B0
330
214
100
AcDbEntity
  8
4
  6
CENTER
 48
0.2
100
AcDbLine
 10
298.0612509999999
 20
203.51712
 30
0.0
 11
298.0612509999999
 21
147.51712
 31
0.0
  0
LINE
  5
2B1
330
214
100
AcDbEntity
  8
1
  6
Continuous
100
AcDbLine
 10
285.0612509999999
 20
185.51712
 30
0.0
 11
285.0612509999999
 21
165.51712
 31
0.0
  0
LINE
  5
2B2
330
214
100
AcDbEntity
  8
4
  6
CENTER
 48
0.2
100
AcDbLine
 10
323.0612509999999
 20
193.26712
 30
0.0
 11
323.0612509999999
 21
157.76712
 31
0.0
  0
LINE
  5
2B3
330
214
100
AcDbEntity
  8
1
  6
Continuous
100
AcDbLine
 10
345.5612509999999
 20
186.01712
 30
0.0
 11
338.0612509999999
 21
186.01712
 31
0.0
  0
LINE
  5
2B4
330
214
100
AcDbEntity
  8
1
  6
Continuous
100
AcDbLine
 10
345.5612509999999
 20
165.01712
 30
0.0
 11
338.0612509999999
 21
165.01712
 31
0.0
  0
LINE
  5
2B5
330
214
100
AcDbEntity
  8
1
  6
Continuous
100
AcDbLine
 10
345.5612509999999
 20
186.01712
 30
0.0
 11
345.5612509999999
 21
165.01712
 31
0.0
  0
LINE
  5
2B6
330
214
100
AcDbEntity
  8
4
  6
CENTER
 48
0.2
100
AcDbLine
 10
331.0612509999999
 20
210.917114
 30
0.0
 11
331.0612509999999
 21
202.1171269999999
 31
0.0
  0
LINE
  5
2B7
330
214
100
AcDbEntity
  8
4
  6
CENTER
 48
0.2
100
AcDbLine
 10
326.6612569999998
 20
206.5171199999999
 30
0.0
 11
335.461245
 21
206.5171199999999
 31
0.0
  0
LINE
  5
2B8
330
214
100
AcDbEntity
  8
4
  6
CENTER
 48
0.2
100
AcDbLine
 10
331.0612509999999
 20
148.917114
 30
0.0
 11
331.0612509999999
 21
140.117127
 31
0.0
  0
LINE
  5
2B9
330
214
100
AcDbEntity
  8
4
  6
CENTER
 48
0.2
100
AcDbLine
 10
326.6612569999998
 20
144.51712
 30
0.0
 11
335.461245
 21
144.51712
 31
0.0
  0
LINE
  5
2BA
330
214
100
AcDbEntity
  8
4
  6
CENTER
 48
0.2
100
AcDbLine
 10
285.0612509999999
 20
148.917114
 30
0.0
 11
285.0612509999999
 21
140.117127
 31
0.0
  0
LINE
  5
2BB
330
214
100
AcDbEntity
  8
4
  6
CENTER
 48
0.2
100
AcDbLine
 10
280.661257
 20
144.51712
 30
0.0
 11
289.461245
 21
144.51712
 31
0.0
  0
LINE
  5
2BC
330
214
100
AcDbEntity
  8
4
  6
CENTER
 48
0.2
100
AcDbLine
 10
285.0612509999999
 20
210.917114
 30
0.0
 11
285.0612509999999
 21
202.1171269999999
 31
0.0
  0
LINE
  5
2BD
330
214
100
AcDbEntity
  8
4
  6
CENTER
 48
0.2
100
AcDbLine
 10
280.661257
 20
206.5171199999999
 30
0.0
 11
289.461245
 21
206.5171199999999
 31
0.0
  0
LINE
  5
2BE
330
214
100
AcDbEntity
  8
1
  6
Continuous
100
AcDbLine
 10
335.0612509999999
 20
188.26712
 30
0.0
 11
331.0612509999999
 21
188.26712
 31
0.0
  0
LINE
  5
2BF
330
214
100
AcDbEntity
  8
1
  6
Continuous
100
AcDbLine
 10
335.0612509999999
 20
162.7671199999998
 30
0.0
 11
331.0612509999999
 21
162.7671199999998
 31
0.0
  0
LINE
  5
2C0
330
214
100
AcDbEntity
  8
1
  6
Continuous
100
AcDbLine
 10
290.5612509999999
 20
187.26712
 30
0.0
 11
290.5612509999999
 21
163.7671199999997
 31
0.0
  0
LINE
  5
2C1
330
214
100
AcDbEntity
  8
4
  6
CENTER
 48
0.1
100
AcDbLine
 10
300.5612509999999
 20
178.917114
 30
0.0
 11
300.5612509999999
 21
172.117127
 31
0.0
  0
LINE
  5
2C2
330
214
100
AcDbEntity
  8
4
  6
CENTER
 48
0.1
100
AcDbLine
 10
325.0612509999999
 20
178.917114
 30
0.0
 11
325.0612509999999
 21
172.117127
 31
0.0
  0
LINE
  5
2C3
330
214
100
AcDbEntity
  8
1
  6
Continuous
100
AcDbLine
 10
288.361239
 20
177.01712
 30
0.0
 11
288.361239
 21
174.0171199999998
 31
0.0
  0
LINE
  5
2C4
330
214
100
AcDbEntity
  8
1
  6
Continuous
100
AcDbLine
 10
290.5612509999999
 20
177.01712
 30
0.0
 11
288.361239
 21
177.01712
 31
0.0
  0
LINE
  5
2C5
330
214
100
AcDbEntity
  8
1
  6
Continuous
100
AcDbLine
 10
290.5612509999999
 20
174.0171199999998
 30
0.0
 11
288.361239
 21
174.0171199999998
 31
0.0
  0
LINE
  5
2C6
330
214
100
AcDbEntity
  8
1
  6
Continuous
100
AcDbLine
 10
331.0612509999999
 20
188.26712
 30
0.0
 11
331.0612509999999
 21
186.167114
 31
0.0
  0
LINE
  5
2C7
330
214
100
AcDbEntity
  8
1
  6
Continuous
100
AcDbLine
 10
329.0612509999998
 20
188.26712
 30
0.0
 11
329.0612509999998
 21
186.167114
 31
0.0
  0
LINE
  5
2C8
330
214
100
AcDbEntity
  8
1
  6
Continuous
100
AcDbLine
 10
331.0612509999999
 20
186.167114
 30
0.0
 11
329.0612509999998
 21
186.167114
 31
0.0
  0
LINE
  5
2C9
330
214
100
AcDbEntity
  8
1
  6
Continuous
100
AcDbLine
 10
331.0612509999999
 20
164.867127
 30
0.0
 11
329.0612509999998
 21
164.867127
 31
0.0
  0
LINE
  5
2CA
330
214
100
AcDbEntity
  8
1
  6
Continuous
100
AcDbLine
 10
329.0612509999998
 20
164.867127
 30
0.0
 11
329.0612509999998
 21
162.7671199999998
 31
0.0
  0
LINE
  5
2CB
330
214
100
AcDbEntity
  8
1
  6
Continuous
100
AcDbLine
 10
331.0612509999999
 20
164.867127
 30
0.0
 11
331.0612509999999
 21
162.7671199999998
 31
0.0
  0
LINE
  5
2CC
330
214
100
AcDbEntity
  8
1
  6
Continuous
100
AcDbLine
 10
329.0612509999998
 20
162.7671199999998
 30
0.0
 11
291.5612509999998
 21
162.7671199999998
 31
0.0
  0
LINE
  5
2CD
330
214
100
AcDbEntity
  8
1
  6
Continuous
100
AcDbLine
 10
329.0612509999998
 20
188.26712
 30
0.0
 11
291.5612509999998
 21
188.26712
 31
0.0
  0
LINE
  5
2CE
330
214
100
AcDbEntity
  8
1
  6
Continuous
100
AcDbLine
 10
303.690035
 20
166.888336
 30
0.0
 11
304.111574
 21
167.0849
 31
0.0
  0
LINE
  5
2CF
330
214
100
AcDbEntity
  8
1
  6
Continuous
100
AcDbLine
 10
304.1116049999998
 20
167.0849
 30
0.0
 11
304.8115869999998
 21
167.097122
 31
0.0
  0
LINE
  5
2D0
330
214
100
AcDbEntity
  8
1
  6
Continuous
100
AcDbLine
 10
304.111574
 20
167.949341
 30
0.0
 11
304.8115869999998
 21
167.9371189999999
 31
0.0
  0
LINE
  5
2D1
330
214
100
AcDbEntity
  8
1
  6
Continuous
100
AcDbLine
 10
303.690035
 20
168.1459199999999
 30
0.0
 11
304.111574
 21
167.949341
 31
0.0
  0
LINE
  5
2D2
330
214
100
AcDbEntity
  8
1
  6
Continuous
100
AcDbLine
 10
303.4934709999999
 20
168.5674439999999
 30
0.0
 11
303.481264
 21
169.2674259999997
 31
0.0
  0
LINE
  5
2D3
330
214
100
AcDbEntity
  8
1
  6
Continuous
100
AcDbLine
 10
303.690035
 20
168.1459049999999
 30
0.0
 11
303.4934709999999
 21
168.5674439999999
 31
0.0
  0
LINE
  5
2D4
330
214
100
AcDbEntity
  8
1
  6
Continuous
100
AcDbLine
 10
302.6290299999998
 20
168.5674439999999
 30
0.0
 11
302.641268
 21
169.2674409999999
 31
0.0
  0
LINE
  5
2D5
330
214
100
AcDbEntity
  8
1
  6
Continuous
100
AcDbLine
 10
302.4324669999998
 20
168.1458889999998
 30
0.0
 11
302.6290609999998
 21
168.567459
 31
0.0
  0
LINE
  5
2D6
330
214
100
AcDbEntity
  8
1
  6
Continuous
100
AcDbLine
 10
302.0109269999998
 20
167.949326
 30
0.0
 11
301.3109459999999
 21
167.937103
 31
0.0
  0
LINE
  5
2D7
330
214
100
AcDbEntity
  8
1
  6
Continuous
100
AcDbLine
 10
302.4324669999998
 20
168.1459199999999
 30
0.0
 11
302.0109269999998
 21
167.949341
 31
0.0
  0
LINE
  5
2D8
330
214
100
AcDbEntity
  8
1
  6
Continuous
100
AcDbLine
 10
302.0109269999998
 20
167.0849
 30
0.0
 11
301.3109459999999
 21
167.097107
 31
0.0
  0
LINE
  5
2D9
330
214
100
AcDbEntity
  8
1
  6
Continuous
100
AcDbLine
 10
302.4324669999998
 20
166.888336
 30
0.0
 11
302.0109269999998
 21
167.0849
 31
0.0
  0
LINE
  5
2DA
330
214
100
AcDbEntity
  8
1
  6
Continuous
100
AcDbLine
 10
302.6290299999998
 20
166.466782
 30
0.0
 11
302.641268
 21
165.7667999999999
 31
0.0
  0
LINE
  5
2DB
330
214
100
AcDbEntity
  8
1
  6
Continuous
100
AcDbLine
 10
302.4324669999998
 20
166.888336
 30
0.0
 11
302.6290299999998
 21
166.4667969999999
 31
0.0
  0
LINE
  5
2DC
330
214
100
AcDbEntity
  8
1
  6
Continuous
100
AcDbLine
 10
303.4934709999999
 20
166.4667969999999
 30
0.0
 11
303.481264
 21
165.7667999999999
 31
0.0
  0
LINE
  5
2DD
330
214
100
AcDbEntity
  8
1
  6
Continuous
100
AcDbLine
 10
303.690035
 20
166.8883209999999
 30
0.0
 11
303.4934709999999
 21
166.4668119999998
 31
0.0
  0
LINE
  5
2DE
330
214
100
AcDbEntity
  8
1
  6
Continuous
100
AcDbLine
 10
303.690035
 20
182.888336
 30
0.0
 11
304.111574
 21
183.0849149999997
 31
0.0
  0
LINE
  5
2DF
330
214
100
AcDbEntity
  8
1
  6
Continuous
100
AcDbLine
 10
304.1116049999998
 20
183.0849
 30
0.0
 11
304.8115559999998
 21
183.0971219999999
 31
0.0
  0
LINE
  5
2E0
330
214
100
AcDbEntity
  8
1
  6
Continuous
100
AcDbLine
 10
304.111574
 20
183.949341
 30
0.0
 11
304.8115869999998
 21
183.9371339999999
 31
0.0
  0
LINE
  5
2E1
330
214
100
AcDbEntity
  8
1
  6
Continuous
100
AcDbLine
 10
303.690035
 20
184.145905
 30
0.0
 11
304.111574
 21
183.949341
 31
0.0
  0
LINE
  5
2E2
330
214
100
AcDbEntity
  8
1
  6
Continuous
100
AcDbLine
 10
303.4934709999999
 20
184.5674439999999
 30
0.0
 11
303.481264
 21
185.267426
 31
0.0
  0
LINE
  5
2E3
330
214
100
AcDbEntity
  8
1
  6
Continuous
100
AcDbLine
 10
303.690035
 20
184.145905
 30
0.0
 11
303.4934709999999
 21
184.5674439999999
 31
0.0
  0
LINE
  5
2E4
330
214
100
AcDbEntity
  8
1
  6
Continuous
100
AcDbLine
 10
302.6290299999998
 20
184.5674439999999
 30
0.0
 11
302.641268
 21
185.2674409999999
 31
0.0
  0
LINE
  5
2E5
330
214
100
AcDbEntity
  8
1
  6
Continuous
100
AcDbLine
 10
302.4324669999998
 20
184.1459199999999
 30
0.0
 11
302.6290299999998
 21
184.567459
 31
0.0
  0
LINE
  5
2E6
330
214
100
AcDbEntity
  8
1
  6
Continuous
100
AcDbLine
 10
302.0109269999998
 20
183.949326
 30
0.0
 11
301.3109459999999
 21
183.937103
 31
0.0
  0
LINE
  5
2E7
330
214
100
AcDbEntity
  8
1
  6
Continuous
100
AcDbLine
 10
302.4324669999998
 20
184.145905
 30
0.0
 11
302.0109269999998
 21
183.949341
 31
0.0
  0
LINE
  5
2E8
330
214
100
AcDbEntity
  8
1
  6
Continuous
100
AcDbLine
 10
302.0109269999998
 20
183.0849
 30
0.0
 11
301.3109459999999
 21
183.0971219999999
 31
0.0
  0
LINE
  5
2E9
330
214
100
AcDbEntity
  8
1
  6
Continuous
100
AcDbLine
 10
302.4324669999998
 20
182.888351
 30
0.0
 11
302.0109269999998
 21
183.0849149999997
 31
0.0
  0
LINE
  5
2EA
330
214
100
AcDbEntity
  8
1
  6
Continuous
100
AcDbLine
 10
302.6290299999998
 20
182.4667819999999
 30
0.0
 11
302.641238
 21
181.7667999999999
 31
0.0
  0
LINE
  5
2EB
330
214
100
AcDbEntity
  8
1
  6
Continuous
100
AcDbLine
 10
302.4324669999998
 20
182.8883209999999
 30
0.0
 11
302.6290299999998
 21
182.4667819999999
 31
0.0
  0
LINE
  5
2EC
330
214
100
AcDbEntity
  8
1
  6
Continuous
100
AcDbLine
 10
303.4934709999999
 20
182.466812
 30
0.0
 11
303.481264
 21
181.7668149999999
 31
0.0
  0
LINE
  5
2ED
330
214
100
AcDbEntity
  8
1
  6
Continuous
100
AcDbLine
 10
303.690035
 20
182.888351
 30
0.0
 11
303.4934709999999
 21
182.466812
 31
0.0
  0
LINE
  5
2EE
330
214
100
AcDbEntity
  8
1
  6
Continuous
100
AcDbLine
 10
125.737047
 20
34.96989599999999
 30
0.0
 11
125.811175
 21
35.81713999999999
 31
0.0
  0
LINE
  5
2EF
330
214
100
AcDbEntity
  8
1
  6
Continuous
100
AcDbLine
 10
120.385409
 20
34.969888
 30
0.0
 11
120.3112809999999
 21
35.817125
 31
0.0
  0
LINE
  5
2F0
330
214
100
AcDbEntity
  8
1
  6
Continuous
100
AcDbLine
 10
223.0612509999999
 20
180.7934460891175
 30
0.0
 11
223.0612509999999
 21
170.2408418403179
 31
0.0
  0
LINE
  5
2F1
330
214
100
AcDbEntity
  8
1
  6
Continuous
100
AcDbLine
 10
223.0612509999999
 20
164.7934407774721
 30
0.0
 11
223.0612509999999
 21
143.01712
 31
0.0
  0
LINE
  5
2F2
330
214
100
AcDbEntity
  8
4
  6
CENTER
 48
0.1
100
AcDbLine
 10
219.4612809999999
 20
183.5171199999997
 30
0.0
 11
226.1612809999999
 21
183.5171199999997
 31
0.0
  0
LINE
  5
2F3
330
214
100
AcDbEntity
  8
1
  6
Continuous
100
AcDbLine
 10
223.6084679999999
 20
180.8413239999999
 30
0.0
 11
222.7612389999999
 21
180.767197
 31
0.0
  0
LINE
  5
2F4
330
214
100
AcDbEntity
  8
1
  6
Continuous
100
AcDbLine
 10
223.6084679999999
 20
186.192978
 30
0.0
 11
222.7612689999999
 21
186.2670899999999
 31
0.0
  0
LINE
  5
2F5
330
214
100
AcDbEntity
  8
4
  6
CENTER
 48
0.1
100
AcDbLine
 10
219.4612509999998
 20
167.51712
 30
0.0
 11
226.1612509999998
 21
167.51712
 31
0.0
  0
LINE
  5
2F6
330
214
100
AcDbEntity
  8
1
  6
Continuous
100
AcDbLine
 10
223.6084679999999
 20
164.841309
 30
0.0
 11
222.7612389999999
 21
164.767197
 31
0.0
  0
LINE
  5
2F7
330
214
100
AcDbEntity
  8
1
  6
Continuous
100
AcDbLine
 10
223.6084979999999
 20
170.1929629999999
 30
0.0
 11
222.7612389999999
 21
170.26709
 31
0.0
  0
LINE
  5
2F8
330
214
100
AcDbEntity
  8
4
  6
CENTER
 48
0.1
100
AcDbLine
 10
123.061251
 20
32.61711999999999
 30
0.0
 11
123.061251
 21
39.51713299999997
 31
0.0
  0
LINE
  5
2F9
330
214
100
AcDbEntity
  8
1
  6
Continuous
100
AcDbLine
 10
125.7370929999999
 20
316.064368
 30
0.0
 11
125.81122
 21
315.217108
 31
0.0
  0
LINE
  5
2FA
330
214
100
AcDbEntity
  8
1
  6
Continuous
100
AcDbLine
 10
120.385424
 20
316.0643369999998
 30
0.0
 11
120.311312
 21
315.217108
 31
0.0
  0
LINE
  5
2FB
330
214
100
AcDbEntity
  8
4
  6
CENTER
 48
0.1
100
AcDbLine
 10
123.061251
 20
318.4171199999998
 30
0.0
 11
123.061251
 21
311.517108
 31
0.0
  0
LINE
  5
2FC
330
214
100
AcDbEntity
  8
1
  6
Continuous
100
AcDbLine
 10
527.73328
 20
315.5171199999998
 30
0.0
 11
527.73328
 21
295.5171199999998
 31
0.0
  0
LINE
  5
2FD
330
214
100
AcDbEntity
  8
1
  6
Continuous
100
AcDbLine
 10
527.73328
 20
35.51712
 30
0.0
 11
527.73328
 21
55.51712
 31
0.0
  0
LINE
  5
2FE
330
214
100
AcDbEntity
  8
1
  6
Continuous
100
AcDbLine
 10
522.73328
 20
295.5171199999998
 30
0.0
 11
527.73328
 21
295.5171199999998
 31
0.0
  0
LINE
  5
2FF
330
214
100
AcDbEntity
  8
1
  6
Continuous
100
AcDbLine
 10
525.23328
 20
315.5171199999998
 30
0.0
 11
525.23328
 21
298.5171199999998
 31
0.0
  0
LINE
  5
300
330
214
100
AcDbEntity
  8
1
  6
Continuous
100
AcDbLine
 10
525.23328
 20
35.51712
 30
0.0
 11
525.23328
 21
52.51712
 31
0.0
  0
LINE
  5
301
330
214
100
AcDbEntity
  8
1
  6
Continuous
100
AcDbLine
 10
525.23328
 20
315.5171199999998
 30
0.0
 11
527.73328
 21
315.5171199999998
 31
0.0
  0
LINE
  5
302
330
214
100
AcDbEntity
  8
1
  6
Continuous
100
AcDbLine
 10
522.73328
 20
298.5171199999998
 30
0.0
 11
525.23328
 21
298.5171199999998
 31
0.0
  0
LINE
  5
303
330
214
100
AcDbEntity
  8
1
  6
Continuous
100
AcDbLine
 10
522.73328
 20
52.51712
 30
0.0
 11
522.73328
 21
55.51712
 31
0.0
  0
LINE
  5
304
330
214
100
AcDbEntity
  8
1
  6
Continuous
100
AcDbLine
 10
522.73328
 20
298.5171199999998
 30
0.0
 11
522.73328
 21
295.5171199999998
 31
0.0
  0
LINE
  5
305
330
214
100
AcDbEntity
  8
1
  6
Continuous
100
AcDbLine
 10
525.23328
 20
52.51712
 30
0.0
 11
522.73328
 21
52.51712
 31
0.0
  0
LINE
  5
306
330
214
100
AcDbEntity
  8
1
  6
Continuous
100
AcDbLine
 10
527.73328
 20
55.51712
 30
0.0
 11
522.73328
 21
55.51712
 31
0.0
  0
LINE
  5
307
330
214
100
AcDbEntity
  8
1
  6
Continuous
100
AcDbLine
 10
527.73328
 20
35.51712
 30
0.0
 11
525.23328
 21
35.51712
 31
0.0
  0
LINE
  5
308
330
214
100
AcDbEntity
  8
4
  6
CENTER
 48
0.2
100
AcDbLine
 10
520.23328
 20
305.5171199999998
 30
0.0
 11
532.73328
 21
305.5171199999998
 31
0.0
  0
LINE
  5
309
330
214
100
AcDbEntity
  8
4
  6
CENTER
 48
0.2
100
AcDbLine
 10
532.73328
 20
45.51712
 30
0.0
 11
520.23328
 21
45.51712
 31
0.0
  0
LINE
  5
30A
330
214
100
AcDbEntity
  8
1
  6
Continuous
100
AcDbLine
 10
777.73328
 20
213.0171199999999
 30
0.0
 11
777.73328
 21
138.01712
 31
0.0
  0
LINE
  5
30B
330
214
100
AcDbEntity
  8
1
  6
Continuous
100
AcDbLine
 10
772.73328
 20
213.0171199999999
 30
0.0
 11
777.73328
 21
213.0171199999999
 31
0.0
  0
LINE
  5
30C
330
214
100
AcDbEntity
  8
1
  6
Continuous
100
AcDbLine
 10
772.73328
 20
138.01712
 30
0.0
 11
777.73328
 21
138.01712
 31
0.0
  0
LINE
  5
30D
330
214
100
AcDbEntity
  8
1
  6
Continuous
100
AcDbLine
 10
772.73328
 20
213.0171199999999
 30
0.0
 11
772.73328
 21
138.01712
 31
0.0
  0
LINE
  5
30E
330
214
100
AcDbEntity
  8
1
  6
Continuous
100
AcDbLine
 10
775.23328
 20
213.0171199999999
 30
0.0
 11
775.23328
 21
138.01712
 31
0.0
  0
LINE
  5
30F
330
214
100
AcDbEntity
  8
1
  6
Continuous
100
AcDbLine
 10
522.73328
 20
213.0171199999999
 30
0.0
 11
527.73328
 21
213.0171199999999
 31
0.0
  0
LINE
  5
310
330
214
100
AcDbEntity
  8
1
  6
Continuous
100
AcDbLine
 10
522.73328
 20
138.01712
 30
0.0
 11
527.73328
 21
138.01712
 31
0.0
  0
LINE
  5
311
330
214
100
AcDbEntity
  8
1
  6
Continuous
100
AcDbLine
 10
522.73328
 20
213.0171199999999
 30
0.0
 11
522.73328
 21
138.01712
 31
0.0
  0
LINE
  5
312
330
214
100
AcDbEntity
  8
1
  6
Continuous
100
AcDbLine
 10
527.73328
 20
213.0171199999999
 30
0.0
 11
527.73328
 21
138.01712
 31
0.0
  0
LINE
  5
313
330
214
100
AcDbEntity
  8
4
  6
CENTER
 48
0.2
100
AcDbLine
 10
767.73328
 20
175.51712
 30
0.0
 11
782.73328
 21
175.51712
 31
0.0
  0
LINE
  5
314
330
214
100
AcDbEntity
  8
4
  6
CENTER
 48
0.2
100
AcDbLine
 10
770.73328
 20
206.5171199999999
 30
0.0
 11
779.73328
 21
206.5171199999999
 31
0.0
  0
LINE
  5
315
330
214
100
AcDbEntity
  8
4
  6
CENTER
 48
0.2
100
AcDbLine
 10
770.73328
 20
144.51712
 30
0.0
 11
779.73328
 21
144.51712
 31
0.0
  0
LINE
  5
316
330
214
100
AcDbEntity
  8
4
  6
CENTER
 48
0.2
100
AcDbLine
 10
517.73328
 20
175.51712
 30
0.0
 11
532.73328
 21
175.51712
 31
0.0
  0
LINE
  5
317
330
214
100
AcDbEntity
  8
4
  6
CENTER
 48
0.2
100
AcDbLine
 10
520.73328
 20
206.5171199999999
 30
0.0
 11
529.73328
 21
206.5171199999999
 31
0.0
  0
LINE
  5
318
330
214
100
AcDbEntity
  8
4
  6
CENTER
 48
0.2
100
AcDbLine
 10
520.73328
 20
144.51712
 30
0.0
 11
529.73328
 21
144.51712
 31
0.0
  0
LINE
  5
319
330
214
100
AcDbEntity
  8
1
  6
Continuous
100
AcDbLine
 10
100.5612509999999
 20
183.01712
 30
0.0
 11
115.3112509999999
 21
183.01712
 31
0.0
  0
LINE
  5
31A
330
214
100
AcDbEntity
  8
1
  6
Continuous
100
AcDbLine
 10
100.5612509999999
 20
168.01712
 30
0.0
 11
115.3112509999999
 21
168.01712
 31
0.0
  0
LINE
  5
31B
330
214
100
AcDbEntity
  8
1
  6
Continuous
100
AcDbLine
 10
99.56125100000001
 20
183.01712
 30
0.0
 11
99.56125100000001
 21
167.9671169999997
 31
0.0
  0
LINE
  5
31C
330
214
100
AcDbEntity
  8
1
  6
Continuous
100
AcDbLine
 10
100.5612509999999
 20
183.01712
 30
0.0
 11
100.5612509999999
 21
168.01712
 31
0.0
  0
LINE
  5
31D
330
214
100
AcDbEntity
  8
1
  6
Continuous
100
AcDbLine
 10
214.2612509999998
 20
187.7671199999998
 30
0.0
 11
221.2612509999999
 21
187.7671199999998
 31
0.0
  0
LINE
  5
31E
330
214
100
AcDbEntity
  8
1
  6
Continuous
100
AcDbLine
 10
214.2612509999998
 20
163.26712
 30
0.0
 11
221.2612509999999
 21
163.26712
 31
0.0
  0
LINE
  5
31F
330
214
100
AcDbEntity
  8
4
  6
CENTER
 48
0.2
100
AcDbLine
 10
200.0612509999998
 20
206.5171199999999
 30
0.0
 11
208.0612509999999
 21
206.5171199999999
 31
0.0
  0
LINE
  5
320
330
214
100
AcDbEntity
  8
4
  6
CENTER
 48
0.2
100
AcDbLine
 10
200.0612509999998
 20
144.51712
 30
0.0
 11
208.0612509999999
 21
144.51712
 31
0.0
  0
LINE
  5
321
330
214
100
AcDbEntity
  8
1
  6
Continuous
100
AcDbLine
 10
335.0612509999999
 20
213.0171199999999
 30
0.0
 11
335.0612509999999
 21
138.01712
 31
0.0
  0
LINE
  5
322
330
214
100
AcDbEntity
  8
4
  6
CENTER
 48
0.2
100
AcDbLine
 10
303.0612509999999
 20
188.26712
 30
0.0
 11
303.0612509999999
 21
178.76712
 31
0.0
  0
LINE
  5
323
330
214
100
AcDbEntity
  8
4
  6
CENTER
 48
0.2
100
AcDbLine
 10
298.3112509999999
 20
183.5171199999997
 30
0.0
 11
307.8112509999999
 21
183.5171199999997
 31
0.0
  0
LINE
  5
324
330
214
100
AcDbEntity
  8
4
  6
CENTER
 48
0.2
100
AcDbLine
 10
303.0612509999999
 20
172.26712
 30
0.0
 11
303.0612509999999
 21
162.7671199999998
 31
0.0
  0
LINE
  5
325
330
214
100
AcDbEntity
  8
4
  6
CENTER
 48
0.2
100
AcDbLine
 10
298.3112509999999
 20
167.51712
 30
0.0
 11
307.8112509999999
 21
167.51712
 31
0.0
  0
LINE
  5
326
330
214
100
AcDbEntity
  8
1
  6
Continuous
100
AcDbLine
 10
97.06125100000001
 20
314.517108
 30
0.0
 11
135.561251
 21
314.517108
 31
0.0
  0
LINE
  5
327
330
214
100
AcDbEntity
  8
1
  6
Continuous
100
AcDbLine
 10
97.06125100000001
 20
313.7171199999998
 30
0.0
 11
135.561251
 21
313.7171199999998
 31
0.0
  0
LINE
  5
328
330
214
100
AcDbEntity
  8
4
  6
CENTER
 48
0.1
100
AcDbLine
 10
141.0612509999999
 20
297.5171199999998
 30
0.0
 11
141.0612509999999
 21
292.5171199999998
 31
0.0
  0
LINE
  5
329
330
214
100
AcDbEntity
  8
4
  6
CENTER
 48
0.2
100
AcDbLine
 10
95.061251
 20
300.5171199999998
 30
0.0
 11
95.061251
 21
292.5171199999998
 31
0.0
  0
LINE
  5
32A
330
214
100
AcDbEntity
  8
4
  6
CENTER
 48
0.1
100
AcDbLine
 10
30.061251
 20
206.5171199999999
 30
0.0
 11
36.06125099999999
 21
206.5171199999999
 31
0.0
  0
LINE
  5
32B
330
214
100
AcDbEntity
  8
4
  6
CENTER
 48
0.1
100
AcDbLine
 10
30.061251
 20
144.51712
 30
0.0
 11
36.06125099999999
 21
144.51712
 31
0.0
  0
LINE
  5
32C
330
214
100
AcDbEntity
  8
4
  6
CENTER
 48
0.1
100
AcDbLine
 10
141.0612509999999
 20
53.51712
 30
0.0
 11
141.0612509999999
 21
58.51712
 31
0.0
  0
LINE
  5
32D
330
214
100
AcDbEntity
  8
4
  6
CENTER
 48
0.2
100
AcDbLine
 10
95.061251
 20
50.51712
 30
0.0
 11
95.061251
 21
58.51712
 31
0.0
  0
LINE
  5
32E
330
214
100
AcDbEntity
  8
1
  6
Continuous
100
AcDbLine
 10
97.06125100000001
 20
36.51713299999999
 30
0.0
 11
135.561251
 21
36.51713299999999
 31
0.0
  0
LINE
  5
32F
330
214
100
AcDbEntity
  8
1
  6
Continuous
100
AcDbLine
 10
97.06125100000001
 20
37.31711999999999
 30
0.0
 11
135.561251
 21
37.31711999999999
 31
0.0
  0
LINE
  5
330
330
214
100
AcDbEntity
  8
4
  6
CENTER
 48
0.2
100
AcDbLine
 10
128.061251
 20
41.51711999999998
 30
0.0
 11
128.061251
 21
58.51712
 31
0.0
  0
LINE
  5
331
330
214
100
AcDbEntity
  8
1
  6
Continuous
100
AcDbLine
 10
115.0612509999999
 20
49.51712
 30
0.0
 11
115.0612509999999
 21
53.51712
 31
0.0
  0
LINE
  5
332
330
214
100
AcDbEntity
  8
1
  6
Continuous
100
AcDbLine
 10
141.0612509999999
 20
49.51712
 30
0.0
 11
141.0612509999999
 21
53.51712
 31
0.0
  0
LINE
  5
333
330
214
100
AcDbEntity
  8
4
  6
CENTER
 48
0.2
100
AcDbLine
 10
128.061251
 20
309.5171199999998
 30
0.0
 11
128.061251
 21
292.5171199999998
 31
0.0
  0
LINE
  5
334
330
214
100
AcDbEntity
  8
1
  6
Continuous
100
AcDbLine
 10
141.0612509999999
 20
301.5171199999998
 30
0.0
 11
141.0612509999999
 21
297.5171199999998
 31
0.0
  0
LINE
  5
335
330
214
100
AcDbEntity
  8
1
  6
Continuous
100
AcDbLine
 10
115.0612509999999
 20
301.5171199999998
 30
0.0
 11
115.0612509999999
 21
297.5171199999998
 31
0.0
  0
LINE
  5
336
330
214
100
AcDbEntity
  8
4
  6
CENTER
 48
0.1
100
AcDbLine
 10
106.6112389999997
 20
299.5171199999998
 30
0.0
 11
99.511263
 21
299.5171199999998
 31
0.0
  0
LINE
  5
337
330
214
100
AcDbEntity
  8
4
  6
CENTER
 48
0.1
100
AcDbLine
 10
103.061251
 20
303.067108
 30
0.0
 11
103.061251
 21
295.967102
 31
0.0
  0
LINE
  5
338
330
214
100
AcDbEntity
  8
1
  6
Continuous
100
AcDbLine
 10
317.0612509999999
 20
211.51712
 30
0.0
 11
317.0612509999999
 21
201.01712
 31
0.0
  0
LINE
  5
339
330
214
100
AcDbEntity
  8
1
  6
Continuous
100
AcDbLine
 10
297.0612509999999
 20
211.51712
 30
0.0
 11
297.0612509999999
 21
201.01712
 31
0.0
  0
LINE
  5
33A
330
214
100
AcDbEntity
  8
1
  6
Continuous
100
AcDbLine
 10
317.0612509999999
 20
211.51712
 30
0.0
 11
297.0612509999999
 21
211.51712
 31
0.0
  0
LINE
  5
33B
330
214
100
AcDbEntity
  8
1
  6
Continuous
100
AcDbLine
 10
317.0612509999999
 20
201.01712
 30
0.0
 11
297.0612509999999
 21
201.01712
 31
0.0
  0
LINE
  5
33C
330
214
100
AcDbEntity
  8
1
  6
Continuous
100
AcDbLine
 10
312.111239
 20
210.4971009999999
 30
0.0
 11
310.5450159999998
 21
210.4971009999999
 31
0.0
  0
LINE
  5
33D
330
214
100
AcDbEntity
  8
1
  6
Continuous
100
AcDbLine
 10
310.0197469999999
 20
209.265808
 30
0.0
 11
309.236544
 21
209.265808
 31
0.0
  0
LINE
  5
33E
330
214
100
AcDbEntity
  8
1
  6
Continuous
100
AcDbLine
 10
301.1947349999998
 20
209.265808
 30
0.0
 11
300.4115319999999
 21
209.265808
 31
0.0
  0
LINE
  5
33F
330
214
100
AcDbEntity
  8
1
  6
Continuous
100
AcDbLine
 10
314.8081379999998
 20
208.0158079999999
 30
0.0
 11
312.839449
 21
208.0158079999999
 31
0.0
  0
LINE
  5
340
330
214
100
AcDbEntity
  8
1
  6
Continuous
100
AcDbLine
 10
313.8281579999998
 20
208.0158079999999
 30
0.0
 11
313.8281579999998
 21
210.5158079999999
 31
0.0
  0
LINE
  5
341
330
214
100
AcDbEntity
  8
1
  6
Continuous
100
AcDbLine
 10
312.111239
 20
207.9971009999999
 30
0.0
 11
312.111239
 21
210.4971009999999
 31
0.0
  0
LINE
  5
342
330
214
100
AcDbEntity
  8
1
  6
Continuous
100
AcDbLine
 10
299.3031329999999
 20
208.01413
 30
0.0
 11
299.3031329999999
 21
210.51413
 31
0.0
  0
LINE
  5
343
330
214
100
AcDbEntity
  8
1
  6
Continuous
100
AcDbLine
 10
299.3031639999998
 20
208.01413
 30
0.0
 11
299.5790429999999
 21
208.281311
 31
0.0
  0
LINE
  5
344
330
214
100
AcDbEntity
  8
1
  6
Continuous
100
AcDbLine
 10
303.553408
 20
210.5102839999999
 30
0.0
 11
302.246523
 21
209.1438899999999
 31
0.0
  0
LINE
  5
345
330
214
100
AcDbEntity
  8
1
  6
Continuous
100
AcDbLine
 10
303.5534379999998
 20
210.5102839999999
 30
0.0
 11
302.069491
 21
210.5102839999999
 31
0.0
  0
LINE
  5
346
330
214
100
AcDbEntity
  8
1
  6
Continuous
100
AcDbLine
 10
308.3534259999999
 20
210.5102839999999
 30
0.0
 11
307.046511
 21
209.1438899999999
 31
0.0
  0
LINE
  5
347
330
214
100
AcDbEntity
  8
1
  6
Continuous
100
AcDbLine
 10
308.3534259999999
 20
210.5102839999999
 30
0.0
 11
306.8694779999999
 21
210.5102839999999
 31
0.0
  0
LINE
  5
348
330
214
100
AcDbEntity
  8
4
  6
CENTER
 48
0.2
100
AcDbLine
 10
652.73328
 20
212.8171079999999
 30
0.0
 11
652.73328
 21
200.217117
 31
0.0
  0
LINE
  5
349
330
214
100
AcDbEntity
  8
4
  6
CENTER
 48
0.2
100
AcDbLine
 10
659.033268
 20
206.5171199999999
 30
0.0
 11
646.4332929999998
 21
206.5171199999999
 31
0.0
  0
LINE
  5
34A
330
214
100
AcDbEntity
  8
4
  6
CENTER
 48
0.2
100
AcDbLine
 10
652.73328
 20
150.817123
 30
0.0
 11
652.73328
 21
138.217117
 31
0.0
  0
LINE
  5
34B
330
214
100
AcDbEntity
  8
4
  6
CENTER
 48
0.2
100
AcDbLine
 10
659.033268
 20
144.51712
 30
0.0
 11
646.4332929999998
 21
144.51712
 31
0.0
  0
LINE
  5
34C
330
214
100
AcDbEntity
  8
4
  6
CENTER
 48
0.2
100
AcDbLine
 10
477.7332799999999
 20
175.51712
 30
0.0
 11
447.73328
 21
175.51712
 31
0.0
  0
LINE
  5
34D
330
214
100
AcDbEntity
  8
1
  6
Continuous
100
AcDbLine
 10
452.7332799999999
 20
208.01712
 30
0.0
 11
452.7332799999999
 21
143.01712
 31
0.0
  0
LINE
  5
34E
330
214
100
AcDbEntity
  8
1
  6
Continuous
100
AcDbLine
 10
472.73328
 20
213.0171199999999
 30
0.0
 11
472.73328
 21
138.01712
 31
0.0
  0
LINE
  5
34F
330
214
100
AcDbEntity
  8
1
  6
Continuous
100
AcDbLine
 10
472.73328
 20
138.01712
 30
0.0
 11
457.7332799999998
 21
138.01712
 31
0.0
  0
LINE
  5
350
330
214
100
AcDbEntity
  8
1
  6
Continuous
100
AcDbLine
 10
472.73328
 20
213.0171199999999
 30
0.0
 11
457.7332799999998
 21
213.0171199999999
 31
0.0
  0
LINE
  5
351
330
214
100
AcDbEntity
  8
1
  6
Continuous
100
AcDbLine
 10
469.7332799999998
 20
213.0171199999999
 30
0.0
 11
469.7332799999998
 21
138.01712
 31
0.0
  0
LINE
  5
352
330
214
100
AcDbEntity
  8
1
  6
Continuous
100
AcDbLine
 10
458.7332799999998
 20
188.01712
 30
0.0
 11
458.7332799999998
 21
163.01712
 31
0.0
  0
LINE
  5
353
330
214
100
AcDbEntity
  8
1
  6
Continuous
100
AcDbLine
 10
469.7332799999998
 20
188.01712
 30
0.0
 11
458.7332799999998
 21
188.01712
 31
0.0
  0
LINE
  5
354
330
214
100
AcDbEntity
  8
1
  6
Continuous
100
AcDbLine
 10
469.7332799999998
 20
163.01712
 30
0.0
 11
458.7332799999998
 21
163.01712
 31
0.0
  0
LINE
  5
355
330
214
100
AcDbEntity
  8
4
  6
CENTER
 48
0.2
100
AcDbLine
 10
462.7332799999998
 20
212.8171079999999
 30
0.0
 11
462.7332799999998
 21
200.217117
 31
0.0
  0
LINE
  5
356
330
214
100
AcDbEntity
  8
4
  6
CENTER
 48
0.2
100
AcDbLine
 10
456.4332929999998
 20
206.5171199999999
 30
0.0
 11
469.033268
 21
206.5171199999999
 31
0.0
  0
LINE
  5
357
330
214
100
AcDbEntity
  8
4
  6
CENTER
 48
0.2
100
AcDbLine
 10
462.7332799999998
 20
150.817123
 30
0.0
 11
462.7332799999998
 21
138.217117
 31
0.0
  0
LINE
  5
358
330
214
100
AcDbEntity
  8
4
  6
CENTER
 48
0.2
100
AcDbLine
 10
456.4332929999998
 20
144.51712
 30
0.0
 11
469.033268
 21
144.51712
 31
0.0
  0
CIRCLE
  5
359
330
214
100
AcDbEntity
  8
1
  6
Continuous
100
AcDbCircle
 10
652.73328
 20
206.5171199999999
 30
0.0
 40
2.149999999999999
  0
CIRCLE
  5
35A
330
214
100
AcDbEntity
  8
1
  6
Continuous
100
AcDbCircle
 10
652.73328
 20
144.51712
 30
0.0
 40
2.149999999999999
  0
CIRCLE
  5
35B
330
214
100
AcDbEntity
  8
1
  6
Continuous
100
AcDbCircle
 10
652.73328
 20
144.51712
 30
0.0
 40
4.299999999999998
  0
CIRCLE
  5
35C
330
214
100
AcDbEntity
  8
1
  6
Continuous
100
AcDbCircle
 10
652.73328
 20
206.5171199999999
 30
0.0
 40
4.299999999999998
  0
CIRCLE
  5
35D
330
214
100
AcDbEntity
  8
1
  6
Continuous
100
AcDbCircle
 10
141.0612509999999
 20
206.5171199999999
 30
0.0
 40
2.399999999999999
  0
CIRCLE
  5
35E
330
214
100
AcDbEntity
  8
1
  6
Continuous
100
AcDbCircle
 10
141.0612509999999
 20
144.51712
 30
0.0
 40
2.399999999999999
  0
CIRCLE
  5
35F
330
214
100
AcDbEntity
  8
1
  6
Continuous
100
AcDbCircle
 10
95.061251
 20
144.51712
 30
0.0
 40
2.399999999999999
  0
CIRCLE
  5
360
330
214
100
AcDbEntity
  8
1
  6
Continuous
100
AcDbCircle
 10
95.061251
 20
206.5171199999999
 30
0.0
 40
2.399999999999999
  0
CIRCLE
  5
361
330
214
100
AcDbEntity
  8
1
  6
Continuous
100
AcDbCircle
 10
95.061251
 20
206.5171199999999
 30
0.0
 40
4.299999999999998
  0
CIRCLE
  5
362
330
214
100
AcDbEntity
  8
1
  6
Continuous
100
AcDbCircle
 10
141.0612509999999
 20
206.5171199999999
 30
0.0
 40
4.299999999999998
  0
CIRCLE
  5
363
330
214
100
AcDbEntity
  8
1
  6
Continuous
100
AcDbCircle
 10
141.0612509999999
 20
144.51712
 30
0.0
 40
4.299999999999998
  0
CIRCLE
  5
364
330
214
100
AcDbEntity
  8
1
  6
Continuous
100
AcDbCircle
 10
95.061251
 20
144.51712
 30
0.0
 40
4.299999999999998
  0
ARC
  5
365
330
214
100
AcDbEntity
  8
1
  6
Continuous
100
AcDbCircle
 10
143.061251
 20
208.01712
 30
0.0
 40
5.0
100
AcDbArc
 50
0.0
 51
90.00000300000001
  0
ARC
  5
366
330
214
100
AcDbEntity
  8
1
  6
Continuous
100
AcDbCircle
 10
143.061251
 20
143.01712
 30
0.0
 40
5.0
100
AcDbArc
 50
269.9999969999999
 51
0.0
  0
ARC
  5
367
330
214
100
AcDbEntity
  8
1
  6
Continuous
100
AcDbCircle
 10
657.73328
 20
143.01712
 30
0.0
 40
5.0
100
AcDbArc
 50
269.9999969999999
 51
0.000009
  0
ARC
  5
368
330
214
100
AcDbEntity
  8
1
  6
Continuous
100
AcDbCircle
 10
657.73328
 20
208.01712
 30
0.0
 40
5.0
100
AcDbArc
 50
359.999995
 51
90.00000300000001
  0
ARC
  5
369
330
214
100
AcDbEntity
  8
1
  6
Continuous
100
AcDbCircle
 10
128.061251
 20
185.51712
 30
0.0
 40
13.0
100
AcDbArc
 50
0.0
 51
180.000005
  0
ARC
  5
36A
330
214
100
AcDbEntity
  8
1
  6
Continuous
100
AcDbCircle
 10
128.061251
 20
165.51712
 30
0.0
 40
13.0
100
AcDbArc
 50
180.000009
 51
0.0
  0
ARC
  5
36B
330
214
100
AcDbEntity
  8
1
  6
Continuous
100
AcDbCircle
 10
128.061251
 20
185.51712
 30
0.0
 40
12.75
100
AcDbArc
 50
0.0
 51
180.000005
  0
ARC
  5
36C
330
214
100
AcDbEntity
  8
1
  6
Continuous
100
AcDbCircle
 10
128.061251
 20
165.51712
 30
0.0
 40
12.75
100
AcDbArc
 50
179.9999909999999
 51
0.00001
  0
ARC
  5
36D
330
214
100
AcDbEntity
  8
1
  6
Continuous
100
AcDbCircle
 10
128.061251
 20
185.51712
 30
0.0
 40
8.0
100
AcDbArc
 50
0.0
 51
180.000005
  0
ARC
  5
36E
330
214
100
AcDbEntity
  8
1
  6
Continuous
100
AcDbCircle
 10
128.061251
 20
165.51712
 30
0.0
 40
8.0
100
AcDbArc
 50
180.000009
 51
0.0
  0
ARC
  5
36F
330
214
100
AcDbEntity
  8
1
  6
Continuous
100
AcDbCircle
 10
218.0612509999999
 20
208.01712
 30
0.0
 40
5.0
100
AcDbArc
 50
0.0
 51
90.00000300000001
  0
ARC
  5
370
330
214
100
AcDbEntity
  8
1
  6
Continuous
100
AcDbCircle
 10
218.0612509999999
 20
143.01712
 30
0.0
 40
5.0
100
AcDbArc
 50
269.9999969999999
 51
0.0
  0
ARC
  5
371
330
214
100
AcDbEntity
  8
1
  6
Continuous
100
AcDbCircle
 10
209.061251
 20
195.0171199999998
 30
0.0
 40
5.0
100
AcDbArc
 50
0.0
 51
90.00000300000001
  0
ARC
  5
372
330
214
100
AcDbEntity
  8
1
  6
Continuous
100
AcDbCircle
 10
209.061251
 20
156.01712
 30
0.0
 40
5.0
100
AcDbArc
 50
269.9999969999999
 51
0.0
  0
CIRCLE
  5
373
330
214
100
AcDbEntity
  8
1
  6
Continuous
100
AcDbCircle
 10
217.5612509999999
 20
175.51712
 30
0.0
 40
1.5
  0
ARC
  5
374
330
214
100
AcDbEntity
  8
1
  6
Continuous
100
AcDbCircle
 10
18.061251
 20
208.01712
 30
0.0
 40
5.0
100
AcDbArc
 50
89.99999599999998
 51
180.000005
  0
ARC
  5
375
330
214
100
AcDbEntity
  8
1
  6
Continuous
100
AcDbCircle
 10
18.061251
 20
143.01712
 30
0.0
 40
5.0
100
AcDbArc
 50
180.000009
 51
269.9999969999999
  0
ARC
  5
376
330
214
100
AcDbEntity
  8
1
  6
Continuous
100
AcDbCircle
 10
128.061251
 20
185.51712
 30
0.0
 40
13.0
100
AcDbArc
 50
0.0
 51
180.000005
  0
ARC
  5
377
330
214
100
AcDbEntity
  8
1
  6
Continuous
100
AcDbCircle
 10
94.829623
 20
294.889648
 30
0.0
 40
15.0
100
AcDbArc
 50
116.82234
 51
162.031348
  0
CIRCLE
  5
378
330
214
100
AcDbEntity
  8
1
  6
Continuous
100
AcDbCircle
 10
103.061251
 20
299.5171199999998
 30
0.0
 40
1.55
  0
ARC
  5
379
330
214
100
AcDbEntity
  8
1
  6
Continuous
100
AcDbCircle
 10
94.829623
 20
56.144562
 30
0.0
 40
15.0
100
AcDbArc
 50
197.9686519999999
 51
243.17766
  0
CIRCLE
  5
37A
330
214
100
AcDbEntity
  8
1
  6
Continuous
100
AcDbCircle
 10
103.061251
 20
51.51711999999999
 30
0.0
 40
1.25
  0
CIRCLE
  5
37B
330
214
100
AcDbEntity
  8
1
  6
Continuous
100
AcDbCircle
 10
103.061251
 20
51.51711999999999
 30
0.0
 40
1.0
  0
CIRCLE
  5
37C
330
214
100
AcDbEntity
  8
1
  6
Continuous
100
AcDbCircle
 10
217.5612509999999
 20
175.51712
 30
0.0
 40
1.75
  0
CIRCLE
  5
37D
330
214
100
AcDbEntity
  8
1
  6
Continuous
100
AcDbCircle
 10
285.0612509999999
 20
206.5171199999999
 30
0.0
 40
2.399999999999999
  0
CIRCLE
  5
37E
330
214
100
AcDbEntity
  8
1
  6
Continuous
100
AcDbCircle
 10
285.0612509999999
 20
144.51712
 30
0.0
 40
2.399999999999999
  0
CIRCLE
  5
37F
330
214
100
AcDbEntity
  8
1
  6
Continuous
100
AcDbCircle
 10
331.0612509999999
 20
144.51712
 30
0.0
 40
2.399999999999999
  0
CIRCLE
  5
380
330
214
100
AcDbEntity
  8
1
  6
Continuous
100
AcDbCircle
 10
331.0612509999999
 20
206.5171199999999
 30
0.0
 40
2.399999999999999
  0
ARC
  5
381
330
214
100
AcDbEntity
  8
1
  6
Continuous
100
AcDbCircle
 10
283.0612509999999
 20
208.01712
 30
0.0
 40
5.0
100
AcDbArc
 50
89.99999599999998
 51
180.000005
  0
ARC
  5
382
330
214
100
AcDbEntity
  8
1
  6
Continuous
100
AcDbCircle
 10
283.0612509999999
 20
143.01712
 30
0.0
 40
5.0
100
AcDbArc
 50
179.9999909999999
 51
270.000001
  0
ARC
  5
383
330
214
100
AcDbEntity
  8
1
  6
Continuous
100
AcDbCircle
 10
298.0612509999999
 20
165.51712
 30
0.0
 40
13.0
100
AcDbArc
 50
179.9999909999999
 51
347.7874679999998
  0
ARC
  5
384
330
214
100
AcDbEntity
  8
1
  6
Continuous
100
AcDbCircle
 10
298.0612509999999
 20
185.51712
 30
0.0
 40
13.0
100
AcDbArc
 50
12.21252499999999
 51
180.000005
  0
ARC
  5
385
330
214
100
AcDbEntity
  8
1
  6
Continuous
100
AcDbCircle
 10
291.5612509999998
 20
187.26712
 30
0.0
 40
1.0
100
AcDbArc
 50
90.00000300000001
 51
180.000005
  0
ARC
  5
386
330
214
100
AcDbEntity
  8
1
  6
Continuous
100
AcDbCircle
 10
291.5612509999998
 20
163.7671199999997
 30
0.0
 40
1.0
100
AcDbArc
 50
179.9999909999999
 51
270.000001
  0
CIRCLE
  5
387
330
214
100
AcDbEntity
  8
1
  6
Continuous
100
AcDbCircle
 10
325.0612509999999
 20
175.51712
 30
0.0
 40
1.399999999999999
  0
CIRCLE
  5
388
330
214
100
AcDbEntity
  8
1
  6
Continuous
100
AcDbCircle
 10
300.5612509999999
 20
175.51712
 30
0.0
 40
1.399999999999999
  0
ARC
  5
389
330
214
100
AcDbEntity
  8
1
  6
Continuous
100
AcDbCircle
 10
303.0612509999999
 20
167.51712
 30
0.0
 40
1.8
100
AcDbArc
 50
346.506601
 51
13.49339899999998
  0
ARC
  5
38A
330
214
100
AcDbEntity
  8
1
  6
Continuous
100
AcDbCircle
 10
303.0612509999999
 20
167.51712
 30
0.0
 40
1.8
100
AcDbArc
 50
76.506602
 51
103.4933959999997
  0
ARC
  5
38B
330
214
100
AcDbEntity
  8
1
  6
Continuous
100
AcDbCircle
 10
303.0612509999999
 20
167.51712
 30
0.0
 40
1.8
100
AcDbArc
 50
166.506597
 51
193.4933989999999
  0
ARC
  5
38C
330
214
100
AcDbEntity
  8
1
  6
Continuous
100
AcDbCircle
 10
303.0612509999999
 20
167.51712
 30
0.0
 40
1.8
100
AcDbArc
 50
256.506604
 51
283.493398
  0
CIRCLE
  5
38D
330
214
100
AcDbEntity
  8
1
  6
Continuous
100
AcDbCircle
 10
303.0612509999999
 20
167.51712
 30
0.0
 40
2.75
  0
ARC
  5
38E
330
214
100
AcDbEntity
  8
1
  6
Continuous
100
AcDbCircle
 10
13.501147
 20
181.837433
 30
0.0
 40
1.0
100
AcDbArc
 50
196.2569929999999
 51
243.90278
  0
ARC
  5
38F
330
214
100
AcDbEntity
  8
1
  6
Continuous
100
AcDbCircle
 10
19.261248
 20
183.5171199999997
 30
0.0
 40
7.0
100
AcDbArc
 50
163.742966
 51
196.256921
  0
ARC
  5
390
330
214
100
AcDbEntity
  8
1
  6
Continuous
100
AcDbCircle
 10
13.501147
 20
185.1968079999998
 30
0.0
 40
1.0
100
AcDbArc
 50
116.09722
 51
163.7429799999999
  0
ARC
  5
391
330
214
100
AcDbEntity
  8
1
  6
Continuous
100
AcDbCircle
 10
303.0612509999999
 20
183.5171199999997
 30
0.0
 40
1.8
100
AcDbArc
 50
346.506601
 51
13.49339899999998
  0
ARC
  5
392
330
214
100
AcDbEntity
  8
1
  6
Continuous
100
AcDbCircle
 10
303.0612509999999
 20
183.5171199999997
 30
0.0
 40
1.8
100
AcDbArc
 50
76.506602
 51
103.4933959999997
  0
ARC
  5
393
330
214
100
AcDbEntity
  8
1
  6
Continuous
100
AcDbCircle
 10
303.0612509999999
 20
183.5171199999997
 30
0.0
 40
1.8
100
AcDbArc
 50
166.506597
 51
193.4933989999999
  0
ARC
  5
394
330
214
100
AcDbEntity
  8
1
  6
Continuous
100
AcDbCircle
 10
303.0612509999999
 20
183.5171199999997
 30
0.0
 40
1.8
100
AcDbArc
 50
256.506604
 51
283.493398
  0
CIRCLE
  5
395
330
214
100
AcDbEntity
  8
1
  6
Continuous
100
AcDbCircle
 10
303.0612509999999
 20
183.5171199999997
 30
0.0
 40
2.75
  0
ARC
  5
396
330
214
100
AcDbEntity
  8
1
  6
Continuous
100
AcDbCircle
 10
124.7409379999999
 20
35.05703099999999
 30
0.0
 40
1.0
100
AcDbArc
 50
286.256995
 51
354.9999099999998
  0
ARC
  5
397
330
214
100
AcDbEntity
  8
1
  6
Continuous
100
AcDbCircle
 10
123.061251
 20
40.81713299999997
 30
0.0
 40
7.0
100
AcDbArc
 50
253.742966
 51
286.2569199999999
  0
ARC
  5
398
330
214
100
AcDbEntity
  8
1
  6
Continuous
100
AcDbCircle
 10
121.3815629999997
 20
35.05703099999999
 30
0.0
 40
1.0
100
AcDbArc
 50
185.000049
 51
253.742979
  0
ARC
  5
399
330
214
100
AcDbEntity
  8
1
  6
Continuous
100
AcDbCircle
 10
13.501147
 20
165.837433
 30
0.0
 40
1.0
100
AcDbArc
 50
196.2569929999999
 51
243.90278
  0
ARC
  5
39A
330
214
100
AcDbEntity
  8
1
  6
Continuous
100
AcDbCircle
 10
13.501147
 20
169.196808
 30
0.0
 40
1.0
100
AcDbArc
 50
116.09722
 51
163.7429799999999
  0
ARC
  5
39B
330
214
100
AcDbEntity
  8
1
  6
Continuous
100
AcDbCircle
 10
19.261248
 20
167.51712
 30
0.0
 40
7.0
100
AcDbArc
 50
163.742966
 51
196.256921
  0
ARC
  5
39C
330
214
100
AcDbEntity
  8
1
  6
Continuous
100
AcDbCircle
 10
217.7612389999999
 20
167.51712
 30
0.0
 40
7.0
100
AcDbArc
 50
343.743079
 51
16.257034
  0
ARC
  5
39D
330
214
100
AcDbEntity
  8
1
  6
Continuous
100
AcDbCircle
 10
223.521371
 20
169.196808
 30
0.0
 40
1.0
100
AcDbArc
 50
16.25702
 51
84.999949
  0
ARC
  5
39E
330
214
100
AcDbEntity
  8
1
  6
Continuous
100
AcDbCircle
 10
223.521371
 20
181.837433
 30
0.0
 40
1.0
100
AcDbArc
 50
275.000092
 51
343.743007
  0
ARC
  5
39F
330
214
100
AcDbEntity
  8
1
  6
Continuous
100
AcDbCircle
 10
217.7612689999999
 20
183.5171199999997
 30
0.0
 40
7.0
100
AcDbArc
 50
343.743079
 51
16.257034
  0
ARC
  5
3A0
330
214
100
AcDbEntity
  8
1
  6
Continuous
100
AcDbCircle
 10
223.521371
 20
185.1968079999998
 30
0.0
 40
1.0
100
AcDbArc
 50
16.25702
 51
84.999949
  0
ARC
  5
3A1
330
214
100
AcDbEntity
  8
1
  6
Continuous
100
AcDbCircle
 10
223.521371
 20
165.837433
 30
0.0
 40
1.0
100
AcDbArc
 50
275.000092
 51
343.743007
  0
ARC
  5
3A2
330
214
100
AcDbEntity
  8
1
  6
Continuous
100
AcDbCircle
 10
124.7409379999999
 20
315.9772099999998
 30
0.0
 40
1.0
100
AcDbArc
 50
5.000048999999997
 51
73.74297699999998
  0
ARC
  5
3A3
330
214
100
AcDbEntity
  8
1
  6
Continuous
100
AcDbCircle
 10
123.061251
 20
310.217108
 30
0.0
 40
7.0
100
AcDbArc
 50
73.742964
 51
106.256918
  0
ARC
  5
3A4
330
214
100
AcDbEntity
  8
1
  6
Continuous
100
AcDbCircle
 10
121.3815629999997
 20
315.9772099999998
 30
0.0
 40
1.0
100
AcDbArc
 50
106.2569929999997
 51
174.99991
  0
ARC
  5
3A5
330
214
100
AcDbEntity
  8
1
  6
Continuous
100
AcDbCircle
 10
100.5612509999999
 20
169.0171199999998
 30
0.0
 40
1.0
100
AcDbArc
 50
179.9999909999999
 51
270.000001
  0
ARC
  5
3A6
330
214
100
AcDbEntity
  8
1
  6
Continuous
100
AcDbCircle
 10
100.5612509999999
 20
182.01712
 30
0.0
 40
1.0
100
AcDbArc
 50
90.00000300000001
 51
180.000005
  0
ARC
  5
3A7
330
214
100
AcDbEntity
  8
1
  6
Continuous
100
AcDbCircle
 10
120.061251
 20
49.51712
 30
0.0
 40
5.0
100
AcDbArc
 50
180.000009
 51
270.0000039999998
  0
ARC
  5
3A8
330
214
100
AcDbEntity
  8
1
  6
Continuous
100
AcDbCircle
 10
136.0612509999999
 20
49.51712
 30
0.0
 40
5.0
100
AcDbArc
 50
269.999991
 51
0.000001
  0
ARC
  5
3A9
330
214
100
AcDbEntity
  8
1
  6
Continuous
100
AcDbCircle
 10
136.0612509999999
 20
301.5171199999998
 30
0.0
 40
5.0
100
AcDbArc
 50
0.000003
 51
90.00000300000001
  0
ARC
  5
3AA
330
214
100
AcDbEntity
  8
1
  6
Continuous
100
AcDbCircle
 10
120.061251
 20
301.5171199999998
 30
0.0
 40
5.0
100
AcDbArc
 50
89.99998900000001
 51
180.000005
  0
ARC
  5
3AB
330
214
100
AcDbEntity
  8
1
  6
Continuous
100
AcDbCircle
 10
302.8114339999999
 20
208.603546
 30
0.0
 40
0.7817210000000001
100
AcDbArc
 50
132.869623
 51
136.2751279999999
  0
ARC
  5
3AC
330
214
100
AcDbEntity
  8
1
  6
Continuous
100
AcDbCircle
 10
302.8114339999999
 20
208.7920229999999
 30
0.0
 40
0.7817210000000001
100
AcDbArc
 50
227.130377
 51
312.869622
  0
ARC
  5
3AD
330
214
100
AcDbEntity
  8
1
  6
Continuous
100
AcDbCircle
 10
302.7239709999999
 20
208.697784
 30
0.0
 40
0.6531630000000001
100
AcDbArc
 50
132.869623
 51
227.130373
  0
ARC
  5
3AE
330
214
100
AcDbEntity
  8
1
  6
Continuous
100
AcDbCircle
 10
302.8988969999998
 20
208.697784
 30
0.0
 40
0.6531630000000001
100
AcDbArc
 50
312.869622
 51
24.27682
  0
ARC
  5
3AF
330
214
100
AcDbEntity
  8
1
  6
Continuous
100
AcDbCircle
 10
305.163302
 20
208.836762
 30
0.0
 40
0.7829229999999999
100
AcDbArc
 50
315.927497
 51
38.26578299999999
  0
ARC
  5
3B0
330
214
100
AcDbEntity
  8
1
  6
Continuous
100
AcDbCircle
 10
305.2478959999999
 20
208.836762
 30
0.0
 40
0.7829229999999999
100
AcDbArc
 50
141.734212
 51
224.072497
  0
ARC
  5
3B1
330
214
100
AcDbEntity
  8
1
  6
Continuous
100
AcDbCircle
 10
305.2055989999999
 20
208.7958069999999
 30
0.0
 40
0.72405
100
AcDbArc
 50
224.0725009999999
 51
315.927497
  0
ARC
  5
3B2
330
214
100
AcDbEntity
  8
1
  6
Continuous
100
AcDbCircle
 10
305.163302
 20
209.8064879999999
 30
0.0
 40
0.7829229999999999
100
AcDbArc
 50
315.927497
 51
44.072496
  0
ARC
  5
3B3
330
214
100
AcDbEntity
  8
1
  6
Continuous
100
AcDbCircle
 10
305.2478959999999
 20
209.8064879999999
 30
0.0
 40
0.7829229999999999
100
AcDbArc
 50
135.927499
 51
224.072497
  0
ARC
  5
3B4
330
214
100
AcDbEntity
  8
1
  6
Continuous
100
AcDbCircle
 10
305.2055989999999
 20
209.847443
 30
0.0
 40
0.72405
100
AcDbArc
 50
44.072496
 51
135.927499
  0
ARC
  5
3B5
330
214
100
AcDbEntity
  8
1
  6
Continuous
100
AcDbCircle
 10
305.2055989999999
 20
209.765533
 30
0.0
 40
0.72405
100
AcDbArc
 50
224.0725009999999
 51
315.927497
  0
ARC
  5
3B6
330
214
100
AcDbEntity
  8
1
  6
Continuous
100
AcDbCircle
 10
307.6114519999998
 20
208.603546
 30
0.0
 40
0.7817210000000001
100
AcDbArc
 50
132.869623
 51
136.2751279999999
  0
ARC
  5
3B7
330
214
100
AcDbEntity
  8
1
  6
Continuous
100
AcDbCircle
 10
307.6114519999998
 20
208.7920229999999
 30
0.0
 40
0.7817210000000001
100
AcDbArc
 50
227.130377
 51
312.869622
  0
ARC
  5
3B8
330
214
100
AcDbEntity
  8
1
  6
Continuous
100
AcDbCircle
 10
307.5239889999998
 20
208.697784
 30
0.0
 40
0.6531630000000001
100
AcDbArc
 50
132.869623
 51
227.130373
  0
ARC
  5
3B9
330
214
100
AcDbEntity
  8
1
  6
Continuous
100
AcDbCircle
 10
307.698916
 20
208.697784
 30
0.0
 40
0.6531630000000001
100
AcDbArc
 50
312.869622
 51
24.27682
  0
CIRCLE
  5
3BA
330
214
100
AcDbEntity
  8
1
  6
Continuous
100
AcDbCircle
 10
462.7332799999998
 20
206.5171199999999
 30
0.0
 40
2.149999999999999
  0
CIRCLE
  5
3BB
330
214
100
AcDbEntity
  8
1
  6
Continuous
100
AcDbCircle
 10
462.7332799999998
 20
144.51712
 30
0.0
 40
2.149999999999999
  0
ARC
  5
3BC
330
214
100
AcDbEntity
  8
1
  6
Continuous
100
AcDbCircle
 10
457.7332799999998
 20
143.01712
 30
0.0
 40
5.0
100
AcDbArc
 50
179.9999909999999
 51
270.000001
  0
ARC
  5
3BD
330
214
100
AcDbEntity
  8
1
  6
Continuous
100
AcDbCircle
 10
457.7332799999998
 20
208.01712
 30
0.0
 40
5.0
100
AcDbArc
 50
89.99999599999998
 51
180.000005
  0
LINE
  5
3BE
330
214
100
AcDbEntity
  8
1
  6
Continuous
100
AcDbLine
 10
309.949675
 20
203.798232
 30
0.0
 11
309.949675
 21
205.7145409999999
 31
0.0
  0
LINE
  5
3BF
330
214
100
AcDbEntity
  8
1
  6
Continuous
100
AcDbLine
 10
309.5057839999999
 20
205.8372419999999
 30
0.0
 11
309.5057839999999
 21
204.197914
 31
0.0
  0
LINE
  5
3C0
330
214
100
AcDbEntity
  8
1
  6
Continuous
100
AcDbLine
 10
309.0609909999999
 20
203.9209329999999
 30
0.0
 11
309.0609909999999
 21
206.1133209999999
 31
0.0
  0
LINE
  5
3C1
330
214
100
AcDbEntity
  8
1
  6
Continuous
100
AcDbLine
 10
308.1723069999998
 20
204.4839169999999
 30
0.0
 11
308.1723069999998
 21
203.635833
 31
0.0
  0
LINE
  5
3C2
330
214
100
AcDbEntity
  8
1
  6
Continuous
100
AcDbLine
 10
307.2836239999998
 20
205.0171269999999
 30
0.0
 11
307.7275139999998
 21
205.0171269999999
 31
0.0
  0
ARC
  5
3C3
330
214
100
AcDbEntity
  8
1
  6
Continuous
100
AcDbCircle
 10
309.727729
 20
205.0171269999999
 30
0.0
 40
1.145318999999997
100
AcDbArc
 50
305.5377
 51
346.5374
  0
ARC
  5
3C4
330
214
100
AcDbEntity
  8
1
  6
Continuous
100
AcDbCircle
 10
309.727729
 20
205.0171269999999
 30
0.0
 40
1.145318999999997
100
AcDbArc
 50
0.0
 51
54.46200000000001
  0
ARC
  5
3C5
330
214
100
AcDbEntity
  8
1
  6
Continuous
100
AcDbCircle
 10
309.282936
 20
204.197914
 30
0.0
 40
0.222261
100
AcDbArc
 50
296.0144000000001
 51
0.0
  0
ARC
  5
3C6
330
214
100
AcDbEntity
  8
1
  6
Continuous
100
AcDbCircle
 10
307.0616779999998
 20
208.750501
 30
0.0
 40
5.288524999999999
100
AcDbArc
 50
292.9439999999999
 51
296.0144000000001
  0
ARC
  5
3C7
330
214
100
AcDbEntity
  8
1
  6
Continuous
100
AcDbCircle
 10
309.1052
 20
203.9209329999999
 30
0.0
 40
0.044452
100
AcDbArc
 50
180.0
 51
292.9439999999999
  0
ARC
  5
3C8
330
214
100
AcDbEntity
  8
1
  6
Continuous
100
AcDbCircle
 10
309.282936
 20
205.8372419999999
 30
0.0
 40
0.222261
100
AcDbArc
 50
0.0
 51
63.986
  0
ARC
  5
3C9
330
214
100
AcDbEntity
  8
1
  6
Continuous
100
AcDbCircle
 10
308.216516
 20
203.635833
 30
0.0
 40
0.044452
100
AcDbArc
 50
180.0
 51
282.7289
  0
ARC
  5
3CA
330
214
100
AcDbEntity
  8
1
  6
Continuous
100
AcDbCircle
 10
307.0616779999998
 20
208.750501
 30
0.0
 40
5.288524999999999
100
AcDbArc
 50
282.7289
 51
283.2681
  0
ARC
  5
3CB
330
214
100
AcDbEntity
  8
1
  6
Continuous
100
AcDbCircle
 10
307.0616779999998
 20
208.750501
 30
0.0
 40
5.288524999999999
100
AcDbArc
 50
283.2681
 51
285.2574999999998
  0
ARC
  5
3CC
330
214
100
AcDbEntity
  8
1
  6
Continuous
100
AcDbCircle
 10
308.3942529999998
 20
203.8631919999999
 30
0.0
 40
0.222261
100
AcDbArc
 50
285.2574999999998
 51
0.0
  0
ARC
  5
3CD
330
214
100
AcDbEntity
  8
1
  6
Continuous
100
AcDbCircle
 10
308.3942529999998
 20
206.171965
 30
0.0
 40
0.222261
100
AcDbArc
 50
0.0
 51
74.742
  0
ARC
  5
3CE
330
214
100
AcDbEntity
  8
1
  6
Continuous
100
AcDbCircle
 10
307.0616779999998
 20
201.2846549999999
 30
0.0
 40
5.288524999999999
100
AcDbArc
 50
74.742
 51
74.79399999999998
  0
ARC
  5
3CF
330
214
100
AcDbEntity
  8
1
  6
Continuous
100
AcDbCircle
 10
307.0616779999998
 20
201.2846549999999
 30
0.0
 40
5.288524999999999
100
AcDbArc
 50
74.79399999999998
 51
77.271
  0
ARC
  5
3D0
330
214
100
AcDbEntity
  8
1
  6
Continuous
100
AcDbCircle
 10
308.216516
 20
206.399324
 30
0.0
 40
0.044452
100
AcDbArc
 50
77.271
 51
180.0
  0
LINE
  5
3D1
330
214
100
AcDbEntity
  8
1
  6
Continuous
100
AcDbLine
 10
308.6171
 20
203.8631919999999
 30
0.0
 11
308.6171
 21
206.171965
 31
0.0
  0
LINE
  5
3D2
330
214
100
AcDbEntity
  8
1
  6
Continuous
100
AcDbLine
 10
308.1723069999998
 20
206.399324
 30
0.0
 11
308.1723069999998
 21
205.550337
 31
0.0
  0
LINE
  5
3D3
330
214
100
AcDbEntity
  8
1
  6
Continuous
100
AcDbLine
 10
307.7275139999998
 20
203.5041089999999
 30
0.0
 11
307.7275139999998
 21
206.531047
 31
0.0
  0
LINE
  5
3D4
330
214
100
AcDbEntity
  8
1
  6
Continuous
100
AcDbLine
 10
307.2836239999998
 20
203.467118
 30
0.0
 11
307.2836239999998
 21
206.5680379999998
 31
0.0
  0
ARC
  5
3D5
330
214
100
AcDbEntity
  8
1
  6
Continuous
100
AcDbCircle
 10
309.1052
 20
206.1133209999999
 30
0.0
 40
0.044452
100
AcDbArc
 50
67.056
 51
180.0
  0
ARC
  5
3D6
330
214
100
AcDbEntity
  8
1
  6
Continuous
100
AcDbCircle
 10
307.0616779999998
 20
201.2846549999999
 30
0.0
 40
5.288524999999999
100
AcDbArc
 50
63.986
 51
67.056
  0
LINE
  5
3D7
330
214
100
AcDbEntity
  8
1
  6
Continuous
100
AcDbLine
 10
305.950147
 20
205.0171269999999
 30
0.0
 11
306.172092
 21
205.0171269999999
 31
0.0
  0
ARC
  5
3D8
330
214
100
AcDbEntity
  8
1
  6
Continuous
100
AcDbCircle
 10
306.172092
 20
203.7630449999999
 30
0.0
 40
0.222261
100
AcDbArc
 50
180.0
 51
259.8959999999999
  0
ARC
  5
3D9
330
214
100
AcDbEntity
  8
1
  6
Continuous
100
AcDbCircle
 10
306.172092
 20
206.272111
 30
0.0
 40
0.222261
100
AcDbArc
 50
100.1039999999999
 51
180.0
  0
ARC
  5
3DA
330
214
100
AcDbEntity
  8
1
  6
Continuous
100
AcDbCircle
 10
307.0616779999998
 20
208.750501
 30
0.0
 40
5.288524999999999
100
AcDbArc
 50
259.8959999999999
 51
262.2069999999999
  0
ARC
  5
3DB
330
214
100
AcDbEntity
  8
1
  6
Continuous
100
AcDbCircle
 10
306.349829
 20
203.5546329999998
 30
0.0
 40
0.044452
100
AcDbArc
 50
262.2069999999999
 51
0.0
  0
ARC
  5
3DC
330
214
100
AcDbEntity
  8
1
  6
Continuous
100
AcDbCircle
 10
306.349829
 20
206.480523
 30
0.0
 40
0.044452
100
AcDbArc
 50
0.0
 51
97.79299999999999
  0
ARC
  5
3DD
330
214
100
AcDbEntity
  8
1
  6
Continuous
100
AcDbCircle
 10
307.0616779999998
 20
201.2846549999999
 30
0.0
 40
5.288524999999999
100
AcDbArc
 50
97.79299999999999
 51
100.1039999999999
  0
LINE
  5
3DE
330
214
100
AcDbEntity
  8
1
  6
Continuous
100
AcDbLine
 10
306.838831
 20
203.467118
 30
0.0
 11
306.838831
 21
206.5680379999998
 31
0.0
  0
LINE
  5
3DF
330
214
100
AcDbEntity
  8
1
  6
Continuous
100
AcDbLine
 10
306.3949399999998
 20
203.5546329999998
 30
0.0
 11
306.3949399999998
 21
206.480523
 31
0.0
  0
LINE
  5
3E0
330
214
100
AcDbEntity
  8
1
  6
Continuous
100
AcDbLine
 10
305.950147
 20
204.4839169999999
 30
0.0
 11
305.950147
 21
203.7630449999999
 31
0.0
  0
LINE
  5
3E1
330
214
100
AcDbEntity
  8
1
  6
Continuous
100
AcDbLine
 10
305.061463
 20
203.7657519999999
 30
0.0
 11
305.061463
 21
204.795182
 31
0.0
  0
LINE
  5
3E2
330
214
100
AcDbEntity
  8
1
  6
Continuous
100
AcDbLine
 10
304.61667
 20
204.795182
 30
0.0
 11
304.61667
 21
203.8460489999999
 31
0.0
  0
LINE
  5
3E3
330
214
100
AcDbEntity
  8
1
  6
Continuous
100
AcDbLine
 10
304.8395179999999
 20
205.0171269999999
 30
0.0
 11
304.8395179999999
 21
206.083548
 31
0.0
  0
LINE
  5
3E4
330
214
100
AcDbEntity
  8
1
  6
Continuous
100
AcDbLine
 10
304.391116
 20
205.8489709999999
 30
0.0
 11
303.888581
 21
203.9759689999999
 31
0.0
  0
LINE
  5
3E5
330
214
100
AcDbEntity
  8
1
  6
Continuous
100
AcDbLine
 10
303.2498109999999
 20
205.0171269999999
 30
0.0
 11
304.168268
 21
205.0171269999999
 31
0.0
  0
ARC
  5
3E6
330
214
100
AcDbEntity
  8
1
  6
Continuous
100
AcDbCircle
 10
304.8395179999999
 20
204.795182
 30
0.0
 40
0.222261
100
AcDbArc
 50
0.0
 51
180.0
  0
ARC
  5
3E7
330
214
100
AcDbEntity
  8
1
  6
Continuous
100
AcDbCircle
 10
304.3947249999998
 20
205.0171269999999
 30
0.0
 40
1.145318999999997
100
AcDbArc
 50
152.2499999999998
 51
234.4619999999999
  0
ARC
  5
3E8
330
214
100
AcDbEntity
  8
1
  6
Continuous
100
AcDbCircle
 10
304.3947249999998
 20
205.0171269999999
 30
0.0
 40
1.145318999999997
100
AcDbArc
 50
125.538
 51
135.6989999999999
  0
LINE
  5
3E9
330
214
100
AcDbEntity
  8
1
  6
Continuous
100
AcDbLine
 10
305.950147
 20
206.272111
 30
0.0
 11
305.950147
 21
205.0171269999999
 31
0.0
  0
LINE
  5
3EA
330
214
100
AcDbEntity
  8
1
  6
Continuous
100
AcDbLine
 10
305.506256
 20
203.5564379999999
 30
0.0
 11
305.506256
 21
206.338875
 31
0.0
  0
ARC
  5
3EB
330
214
100
AcDbEntity
  8
1
  6
Continuous
100
AcDbCircle
 10
307.0616779999998
 20
201.2846549999999
 30
0.0
 40
5.732929999999997
100
AcDbArc
 50
54.46200000000001
 51
125.538
  0
ARC
  5
3EC
330
214
100
AcDbEntity
  8
1
  6
Continuous
100
AcDbCircle
 10
307.0616779999998
 20
208.750501
 30
0.0
 40
5.732929999999997
100
AcDbArc
 50
234.4619999999999
 51
305.5377
  0
LINE
  5
423
330
214
100
AcDbEntity
  8
1
  6
Continuous
100
AcDbLine
 10
125.8112509999999
 20
36.51713299999999
 30
0.0
 11
125.8112509999999
 21
35.81713299999998
 31
0.0
  0
LINE
  5
424
330
214
100
AcDbEntity
  8
1
  6
Continuous
100
AcDbLine
 10
125.8112509999999
 20
35.81713299999998
 30
0.0
 11
120.3112509999999
 21
35.81713299999998
 31
0.0
  0
LINE
  5
425
330
214
100
AcDbEntity
  8
1
  6
Continuous
100
AcDbLine
 10
120.3112509999999
 20
35.81713299999998
 30
0.0
 11
120.3112509999999
 21
36.51713299999999
 31
0.0
  0
LINE
  5
427
330
214
100
AcDbEntity
  8
1
  6
Continuous
100
AcDbLine
 10
120.3112509999999
 20
315.217108
 30
0.0
 11
125.8112509999999
 21
315.217108
 31
0.0
  0
LINE
  5
428
330
214
100
AcDbEntity
  8
1
  6
Continuous
100
AcDbLine
 10
120.3112509999999
 20
314.517108
 30
0.0
 11
120.3112509999999
 21
315.217108
 31
0.0
  0
LINE
  5
429
330
214
100
AcDbEntity
  8
1
  6
Continuous
100
AcDbLine
 10
125.8112509999999
 20
315.217108
 30
0.0
 11
125.8112509999999
 21
314.517108
 31
0.0
  0
LINE
  5
42A
330
214
100
AcDbEntity
  8
1
  6
Continuous
100
AcDbLine
 10
222.7612389999999
 20
186.2671199999997
 30
0.0
 11
222.7612389999999
 21
180.7671199999998
 31
0.0
  0
LINE
  5
42C
330
214
100
AcDbEntity
  8
1
  6
Continuous
100
AcDbLine
 10
222.7612389999999
 20
180.7671199999998
 30
0.0
 11
222.0612389999999
 21
180.7671199999998
 31
0.0
  0
LINE
  5
42D
330
214
100
AcDbEntity
  8
1
  6
Continuous
100
AcDbLine
 10
222.0612389999999
 20
186.2671199999997
 30
0.0
 11
222.7612389999999
 21
186.2671199999997
 31
0.0
  0
LINE
  5
42E
330
214
100
AcDbEntity
  8
1
  6
Continuous
100
AcDbLine
 10
222.0612389999999
 20
170.26712
 30
0.0
 11
222.7612389999999
 21
170.26712
 31
0.0
  0
LINE
  5
42F
330
214
100
AcDbEntity
  8
1
  6
Continuous
100
AcDbLine
 10
222.7612389999999
 20
164.76712
 30
0.0
 11
222.0612389999999
 21
164.76712
 31
0.0
  0
LINE
  5
430
330
214
100
AcDbEntity
  8
1
  6
Continuous
100
AcDbLine
 10
222.7612389999999
 20
170.26712
 30
0.0
 11
222.7612389999999
 21
164.76712
 31
0.0
  0
LINE
  5
866
330
214
100
AcDbEntity
  8
1
  6
Continuous
100
AcDbLine
 10
123.061251
 20
36.51713299999999
 30
0.0
 11
123.7612509999999
 21
35.81713299999998
 31
0.0
  0
LINE
  5
867
330
214
100
AcDbEntity
  8
1
  6
Continuous
100
AcDbLine
 10
122.361251
 20
36.51713299999999
 30
0.0
 11
123.061251
 21
35.81713299999998
 31
0.0
  0
LINE
  5
869
330
214
100
AcDbEntity
  8
1
  6
Continuous
100
AcDbLine
 10
222.0612389999999
 20
182.8171199999998
 30
0.0
 11
222.7612389999999
 21
183.5171199999997
 31
0.0
  0
LINE
  5
86A
330
214
100
AcDbEntity
  8
1
  6
Continuous
100
AcDbLine
 10
222.0612389999999
 20
183.5171199999997
 30
0.0
 11
222.7612389999999
 21
184.2171199999997
 31
0.0
  0
LINE
  5
86D
330
214
100
AcDbEntity
  8
1
  6
Continuous
100
AcDbLine
 10
222.0612089999999
 20
166.81712
 30
0.0
 11
222.7612089999999
 21
167.51712
 31
0.0
  0
LINE
  5
86E
330
214
100
AcDbEntity
  8
1
  6
Continuous
100
AcDbLine
 10
222.0612089999999
 20
167.51712
 30
0.0
 11
222.7612089999999
 21
168.2171199999999
 31
0.0
  0
LINE
  5
86F
330
214
100
AcDbEntity
  8
1
  6
Continuous
100
AcDbLine
 10
122.361251
 20
315.217108
 30
0.0
 11
123.061251
 21
314.517108
 31
0.0
  0
LINE
  5
870
330
214
100
AcDbEntity
  8
1
  6
Continuous
100
AcDbLine
 10
123.061251
 20
315.217108
 30
0.0
 11
123.7612509999999
 21
314.517108
 31
0.0
  0
ENDSEC
  0
SECTION
  2
OBJECTS
  0
DICTIONARY
  5
202
330
0
100
AcDbDictionary
281
     1
  3
ACAD_CIP_PREVIOUS_PRODUCT_INFO
350
9DF
  3
ACAD_COLOR
350
9C1
  3
ACAD_DETAILVIEWSTYLE
350
9DA
  3
ACAD_GROUP
350
203
  3
ACAD_LAYOUT
350
20F
  3
ACAD_MATERIAL
350
98F
  3
ACAD_MLEADERSTYLE
350
9D6
  3
ACAD_MLINESTYLE
350
20C
  3
ACAD_PLOTSETTINGS
350
20E
  3
ACAD_PLOTSTYLENAME
350
98D
  3
ACAD_SCALELIST
350
9C4
  3
ACAD_SECTIONVIEWSTYLE
350
9D8
  3
ACAD_TABLESTYLE
350
9C2
  3
ACAD_VISUALSTYLE
350
9A8
  3
ACDB_RECOMPOSE_DATA
350
9FD
  3
AcDbVariableDictionary
350
9F0
  3
DWGPROPS
350
9FE
  0
DICTIONARY
  5
9E0
330
206
100
AcDbDictionary
280
     1
281
     1
  3
ADSK_XREC_LAYER_RECONCILED
360
9E1
  0
DICTIONARY
  5
9E2
330
21C
100
AcDbDictionary
280
     1
281
     1
  3
ADSK_XREC_LAYER_RECONCILED
360
9E3
  0
DICTIONARY
  5
9E4
330
21D
100
AcDbDictionary
280
     1
281
     1
  3
ADSK_XREC_LAYER_RECONCILED
360
9E5
  0
DICTIONARY
  5
9E6
330
21E
100
AcDbDictionary
280
     1
281
     1
  3
ADSK_XREC_LAYER_RECONCILED
360
9E7
  0
DICTIONARY
  5
9E8
330
21F
100
AcDbDictionary
280
     1
281
     1
  3
ADSK_XREC_LAYER_RECONCILED
360
9E9
  0
DICTIONARY
  5
9EA
330
220
100
AcDbDictionary
280
     1
281
     1
  3
ADSK_XREC_LAYER_RECONCILED
360
9EB
  0
DICTIONARY
  5
9EC
330
221
100
AcDbDictionary
280
     1
281
     1
  3
ADSK_XREC_LAYER_RECONCILED
360
9ED
  0
DICTIONARY
  5
9EE
330
222
100
AcDbDictionary
280
     1
281
     1
  3
ADSK_XREC_LAYER_RECONCILED
360
9EF
  0
DICTIONARY
  5
3F9
330
214
100
AcDbDictionary
281
     1
  3
ACAD_LAYOUTSELFREF
350
989
  0
DICTIONARY
  5
3F7
330
210
100
AcDbDictionary
281
     1
  3
ACAD_LAYOUTSELFREF
350
988
  0
XRECORD
  5
9DF
102
{ACAD_REACTORS
330
202
102
}
330
202
100
AcDbXrecord
280
     1
300
ACDLT
300
2014
300
ACDLT_F_S
  0
DICTIONARY
  5
9C1
102
{ACAD_REACTORS
330
202
102
}
330
202
100
AcDbDictionary
281
     1
  0
DICTIONARY
  5
9DA
102
{ACAD_REACTORS
330
202
102
}
330
202
100
AcDbDictionary
281
     1
  3
Imperial24
350
9DB
  0
DICTIONARY
  5
203
102
{ACAD_REACTORS
330
202
102
}
330
202
100
AcDbDictionary
281
     1
  0
DICTIONARY
  5
20F
102
{ACAD_REACTORS
330
202
102
}
330
202
100
AcDbDictionary
281
     1
  3
Model
350
9DC
  3
レイアウト1
350
9DD
  0
DICTIONARY
  5
98F
102
{ACAD_REACTORS
330
202
102
}
330
202
100
AcDbDictionary
281
     1
  3
ByBlock
350
998
  3
ByLayer
350
990
  3
Global
350
9A0
  0
DICTIONARY
  5
9D6
102
{ACAD_REACTORS
330
202
102
}
330
202
100
AcDbDictionary
281
     1
  3
Standard
350
9D7
  0
DICTIONARY
  5
20C
102
{ACAD_REACTORS
330
202
102
}
330
202
100
AcDbDictionary
281
     1
  3
STANDARD
350
20D
  0
DICTIONARY
  5
20E
102
{ACAD_REACTORS
330
202
102
}
330
202
100
AcDbDictionary
281
     1
  0
ACDBDICTIONARYWDFLT
  5
98D
102
{ACAD_REACTORS
330
202
102
}
330
202
100
AcDbDictionary
281
     1
  3
Normal
350
98E
100
AcDbDictionaryWithDefault
340
98E
  0
DICTIONARY
  5
9C4
102
{ACAD_REACTORS
330
202
102
}
330
202
100
AcDbDictionary
281
     1
  3
A0
350
9C5
  3
A1
350
9C6
  3
A2
350
9C7
  3
A3
350
9C8
  3
A4
350
9C9
  3
A5
350
9CA
  3
A6
350
9CB
  3
A7
350
9CC
  3
A8
350
9CD
  3
A9
350
9CE
  3
B0
350
9CF
  3
B1
350
9D0
  3
B2
350
9D1
  3
B3
350
9D2
  3
B4
350
9D3
  3
B5
350
9D4
  3
B6
350
9D5
  0
DICTIONARY
  5
9D8
102
{ACAD_REACTORS
330
202
102
}
330
202
100
AcDbDictionary
281
     1
  3
Imperial24
350
9D9
  0
DICTIONARY
  5
9C2
102
{ACAD_REACTORS
330
202
102
}
330
202
100
AcDbDictionary
281
     1
  3
Standard
350
9C3
  0
DICTIONARY
  5
9A8
102
{ACAD_REACTORS
330
202
102
}
330
202
100
AcDbDictionary
281
     1
  3
2dWireframe
350
9AE
  3
Basic
350
9AD
  3
Brighten
350
9B4
  3
ColorChange
350
9B8
  3
Conceptual
350
9B1
  3
Dim
350
9B3
  3
EdgeColorOff
350
9C0
  3
Facepattern
350
9B7
  3
Flat
350
9A9
  3
FlatWithEdges
350
9AA
  3
Gouraud
350
9AB
  3
GouraudWithEdges
350
9AC
  3
Hidden
350
9B0
  3
JitterOff
350
9BE
  3
Linepattern
350
9B6
  3
OverhangOff
350
9BF
  3
Realistic
350
9B2
  3
Shaded
350
9BD
  3
Shaded with edges
350
9BC
  3
Shades of Gray
350
9B9
  3
Sketchy
350
9BA
  3
Thicken
350
9B5
  3
Wireframe
350
9AF
  3
X-Ray
350
9BB
  0
XRECORD
  5
9FD
102
{ACAD_REACTORS
330
202
102
}
330
202
100
AcDbXrecord
280
     1
 90
        1
330
9C3
  0
DICTIONARY
  5
9F0
102
{ACAD_REACTORS
330
202
102
}
330
202
100
AcDbDictionary
281
     1
  3
CANNOSCALE
350
9F5
  3
CMLEADERSTYLE
350
9F2
  3
CTABLESTYLE
350
9F1
  3
CVIEWDETAILSTYLE
350
9F3
  3
CVIEWSECTIONSTYLE
350
9F4
  3
DIMASSOC
350
9F8
  3
INDEXCTL
350
9F7
  3
SORTENTS
350
9F6
  3
XCLIPFRAME
350
9F9
  0
XRECORD
  5
9FE
102
{ACAD_REACTORS
330
202
102
}
330
202
100
AcDbXrecord
280
     1
  1
DWGPROPS COOKIE
  2

  3

  4

  6

  7

  8
Yoshitsune
  9

300
=
301
=
302
=
303
=
304
=
305
=
306
=
307
=
308
=
309
=
 40
0.0628332638888889
 41
2450955.645403125
 42
2457192.601061123
  1

 90
        0
  0
XRECORD
  5
9E1
102
{ACAD_REACTORS
330
9E0
102
}
330
9E0
100
AcDbXrecord
280
     1
290
     1
  0
XRECORD
  5
9E3
102
{ACAD_REACTORS
330
9E2
102
}
330
9E2
100
AcDbXrecord
280
     1
290
     1
  0
XRECORD
  5
9E5
102
{ACAD_REACTORS
330
9E4
102
}
330
9E4
100
AcDbXrecord
280
     1
290
     1
  0
XRECORD
  5
9E7
102
{ACAD_REACTORS
330
9E6
102
}
330
9E6
100
AcDbXrecord
280
     1
290
     1
  0
XRECORD
  5
9E9
102
{ACAD_REACTORS
330
9E8
102
}
330
9E8
100
AcDbXrecord
280
     1
290
     1
  0
XRECORD
  5
9EB
102
{ACAD_REACTORS
330
9EA
102
}
330
9EA
100
AcDbXrecord
280
     1
290
     1
  0
XRECORD
  5
9ED
102
{ACAD_REACTORS
330
9EC
102
}
330
9EC
100
AcDbXrecord
280
     1
290
     1
  0
XRECORD
  5
9EF
102
{ACAD_REACTORS
330
9EE
102
}
330
9EE
100
AcDbXrecord
280
     1
290
     1
  0
XRECORD
  5
989
102
{ACAD_REACTORS
330
3F9
102
}
330
3F9
100
AcDbXrecord
280
     1
340
214
  0
XRECORD
  5
988
102
{ACAD_REACTORS
330
3F7
102
}
330
3F7
100
AcDbXrecord
280
     1
340
210
  0
ACDBDETAILVIEWSTYLE
  5
9DB
102
{ACAD_XDICTIONARY
360
A36
102
}
102
{ACAD_REACTORS
330
9DA
102
}
330
9DA
100
AcDbModelDocViewStyle
 70
     0
  3
Imperial24
290
     0
100
AcDbDetailViewStyle
 70
     0
 71
     0
 90
        3
 71
     1
340
207
 40
0.24
340
0
 40
0.24
300

 40
0.36
280
     3
 71
     2
340
20B
 90
       25
 71
     3
340
207
 40
0.24
 90
        1
 40
0.75
 90
        1
300
%<\AcVar ViewType \f "%tc1">% %<\AcVar ViewDetailId>%\PSCALE %<\AcVar ViewScale \f "%sn">%
 71
     4
340
20B
 90
       25
340
20B
 90
       25
280
     0
  0
LAYOUT
  5
9DC
102
{ACAD_XDICTIONARY
360
A38
102
}
102
{ACAD_REACTORS
330
20F
102
}
330
20F
100
AcDbPlotSettings
  1

  2
Canon LBP9100C
  4

  6

 40
0.0
 41
0.0
 42
0.0
 43
0.0
 44
0.0
 45
0.0
 46
0.0
 47
0.0
 48
0.0
 49
0.0
140
0.0
141
0.0
142
1.0
143
1.0
 70
  1712
 72
     0
 73
     0
 74
     0
  7

 75
     0
147
1.0
148
0.0
149
0.0
100
AcDbLayout
  1
Model
 70
     1
 71
     0
 10
0.0
 20
0.0
 11
12.0
 21
9.0
 12
0.0
 22
0.0
 32
0.0
 14
0.0
 24
0.0
 34
0.0
 15
0.0
 25
0.0
 35
0.0
146
0.0
 13
0.0
 23
0.0
 33
0.0
 16
1.0
 26
0.0
 36
0.0
 17
0.0
 27
1.0
 37
0.0
 76
     0
330
214
331
987
  0
LAYOUT
  5
9DD
102
{ACAD_XDICTIONARY
360
A3A
102
}
102
{ACAD_REACTORS
330
20F
102
}
330
20F
100
AcDbPlotSettings
  1

  2
Canon LBP9100C
  4

  6

 40
0.0
 41
0.0
 42
0.0
 43
0.0
 44
0.0
 45
0.0
 46
0.0
 47
0.0
 48
0.0
 49
0.0
140
0.0
141
0.0
142
1.0
143
1.0
 70
   688
 72
     0
 73
     0
 74
     5
  7

 75
    16
147
1.0
148
0.0
149
0.0
100
AcDbLayout
  1
レイアウト1
 70
     0
 71
     1
 10
0.0
 20
0.0
 11
420.0
 21
297.0
 12
0.0
 22
0.0
 32
0.0
 14
1.000000000000000E+20
 24
1.000000000000000E+20
 34
1.000000000000000E+20
 15
-1.000000000000000E+20
 25
-1.000000000000000E+20
 35
-1.000000000000000E+20
146
0.0
 13
0.0
 23
0.0
 33
0.0
 16
1.0
 26
0.0
 36
0.0
 17
0.0
 27
1.0
 37
0.0
 76
     0
330
210
  0
MATERIAL
  5
998
102
{ACAD_XDICTIONARY
360
999
102
}
102
{ACAD_REACTORS
330
98F
102
}
330
98F
100
AcDbMaterial
  1
ByBlock
 72
     0
 43
0.0208333333333333
 43
0.0
 43
0.0
 43
0.0
 43
0.0
 43
0.0208333333333333
 43
0.0
 43
0.0
 43
0.0
 43
0.0
 43
1.0
 43
0.0
 43
0.0
 43
0.0
 43
0.0
 43
1.0
 77
     0
 47
0.0208333333333333
 47
0.0
 47
0.0
 47
0.0
 47
0.0
 47
0.0208333333333333
 47
0.0
 47
0.0
 47
0.0
 47
0.0
 47
1.0
 47
0.0
 47
0.0
 47
0.0
 47
0.0
 47
1.0
171
     0
 49
0.0208333333333333
 49
0.0
 49
0.0
 49
0.0
 49
0.0
 49
0.0208333333333333
 49
0.0
 49
0.0
 49
0.0
 49
0.0
 49
1.0
 49
0.0
 49
0.0
 49
0.0
 49
0.0
 49
1.0
175
     0
142
0.0208333333333333
142
0.0
142
0.0
142
0.0
142
0.0
142
0.0208333333333333
142
0.0
142
0.0
142
0.0
142
0.0
142
1.0
142
0.0
142
0.0
142
0.0
142
0.0
142
1.0
179
     0
144
0.0208333333333333
144
0.0
144
0.0
144
0.0
144
0.0
144
0.0208333333333333
144
0.0
144
0.0
144
0.0
144
0.0
144
1.0
144
0.0
144
0.0
144
0.0
144
0.0
144
1.0
147
0.0208333333333333
147
0.0
147
0.0
147
0.0
147
0.0
147
0.0208333333333333
147
0.0
147
0.0
147
0.0
147
0.0
147
1.0
147
0.0
147
0.0
147
0.0
147
0.0
147
1.0
  0
MATERIAL
  5
990
102
{ACAD_XDICTIONARY
360
991
102
}
102
{ACAD_REACTORS
330
98F
102
}
330
98F
100
AcDbMaterial
  1
ByLayer
 72
     0
 43
0.0208333333333333
 43
0.0
 43
0.0
 43
0.0
 43
0.0
 43
0.0208333333333333
 43
0.0
 43
0.0
 43
0.0
 43
0.0
 43
1.0
 43
0.0
 43
0.0
 43
0.0
 43
0.0
 43
1.0
 77
     0
 47
0.0208333333333333
 47
0.0
 47
0.0
 47
0.0
 47
0.0
 47
0.0208333333333333
 47
0.0
 47
0.0
 47
0.0
 47
0.0
 47
1.0
 47
0.0
 47
0.0
 47
0.0
 47
0.0
 47
1.0
171
     0
 49
0.0208333333333333
 49
0.0
 49
0.0
 49
0.0
 49
0.0
 49
0.0208333333333333
 49
0.0
 49
0.0
 49
0.0
 49
0.0
 49
1.0
 49
0.0
 49
0.0
 49
0.0
 49
0.0
 49
1.0
175
     0
142
0.0208333333333333
142
0.0
142
0.0
142
0.0
142
0.0
142
0.0208333333333333
142
0.0
142
0.0
142
0.0
142
0.0
142
1.0
142
0.0
142
0.0
142
0.0
142
0.0
142
1.0
179
     0
144
0.0208333333333333
144
0.0
144
0.0
144
0.0
144
0.0
144
0.0208333333333333
144
0.0
144
0.0
144
0.0
144
0.0
144
1.0
144
0.0
144
0.0
144
0.0
144
0.0
144
1.0
147
0.0208333333333333
147
0.0
147
0.0
147
0.0
147
0.0
147
0.0208333333333333
147
0.0
147
0.0
147
0.0
147
0.0
147
1.0
147
0.0
147
0.0
147
0.0
147
0.0
147
1.0
  0
MATERIAL
  5
9A0
102
{ACAD_XDICTIONARY
360
9A1
102
}
102
{ACAD_REACTORS
330
98F
102
}
330
98F
100
AcDbMaterial
  1
Global
 72
     0
 43
0.0208333333333333
 43
0.0
 43
0.0
 43
0.0
 43
0.0
 43
0.0208333333333333
 43
0.0
 43
0.0
 43
0.0
 43
0.0
 43
1.0
 43
0.0
 43
0.0
 43
0.0
 43
0.0
 43
1.0
 77
     0
 47
0.0208333333333333
 47
0.0
 47
0.0
 47
0.0
 47
0.0
 47
0.0208333333333333
 47
0.0
 47
0.0
 47
0.0
 47
0.0
 47
1.0
 47
0.0
 47
0.0
 47
0.0
 47
0.0
 47
1.0
171
     0
 49
0.0208333333333333
 49
0.0
 49
0.0
 49
0.0
 49
0.0
 49
0.0208333333333333
 49
0.0
 49
0.0
 49
0.0
 49
0.0
 49
1.0
 49
0.0
 49
0.0
 49
0.0
 49
0.0
 49
1.0
175
     0
142
0.0208333333333333
142
0.0
142
0.0
142
0.0
142
0.0
142
0.0208333333333333
142
0.0
142
0.0
142
0.0
142
0.0
142
1.0
142
0.0
142
0.0
142
0.0
142
0.0
142
1.0
179
     0
144
0.0208333333333333
144
0.0
144
0.0
144
0.0
144
0.0
144
0.0208333333333333
144
0.0
144
0.0
144
0.0
144
0.0
144
1.0
144
0.0
144
0.0
144
0.0
144
0.0
144
1.0
147
0.0208333333333333
147
0.0
147
0.0
147
0.0
147
0.0
147
0.0208333333333333
147
0.0
147
0.0
147
0.0
147
0.0
147
1.0
147
0.0
147
0.0
147
0.0
147
0.0
147
1.0
  0
MLEADERSTYLE
  5
9D7
102
{ACAD_REACTORS
330
9D6
102
}
330
9D6
100
AcDbMLeaderStyle
170
     2
171
     1
172
     0
 90
        2
 40
0.0
 41
0.0
173
     1
 91
-1056964608
340
209
 92
       -2
290
     1
 42
0.09
291
     1
 43
0.36
  3
Standard
 44
0.18
300

342
207
174
     1
178
     6
175
     1
176
     0
 93
-1056964608
 45
0.18
292
     0
297
     0
 46
0.18
 94
-1056964608
 47
1.0
 49
1.0
140
1.0
293
     1
141
0.0
294
     1
177
     0
142
1.0
295
     0
296
     0
143
0.125
1001
ACAD_MLEADERVER
1070
     2
  0
MLINESTYLE
  5
20D
102
{ACAD_REACTORS
330
20C
102
}
330
20C
100
AcDbMlineStyle
  2
STANDARD
 70
     0
  3

 62
   256
 51
90.0
 52
90.0
 71
     2
 49
0.5
 62
   256
  6
BYLAYER
 49
-0.5
 62
   256
  6
BYLAYER
  0
ACDBPLACEHOLDER
  5
98E
102
{ACAD_REACTORS
330
98D
102
}
330
98D
  0
SCALE
  5
9C5
102
{ACAD_REACTORS
330
9C4
102
}
330
9C4
100
AcDbScale
 70
     0
300
1:1
140
1.0
141
1.0
290
     1
  0
SCALE
  5
9C6
102
{ACAD_REACTORS
330
9C4
102
}
330
9C4
100
AcDbScale
 70
     0
300
1/128" = 1'-0"
140
0.0078125
141
12.0
290
     0
  0
SCALE
  5
9C7
102
{ACAD_REACTORS
330
9C4
102
}
330
9C4
100
AcDbScale
 70
     0
300
1/64" = 1'-0"
140
0.015625
141
12.0
290
     0
  0
SCALE
  5
9C8
102
{ACAD_REACTORS
330
9C4
102
}
330
9C4
100
AcDbScale
 70
     0
300
1/32" = 1'-0"
140
0.03125
141
12.0
290
     0
  0
SCALE
  5
9C9
102
{ACAD_REACTORS
330
9C4
102
}
330
9C4
100
AcDbScale
 70
     0
300
1/16" = 1'-0"
140
0.0625
141
12.0
290
     0
  0
SCALE
  5
9CA
102
{ACAD_REACTORS
330
9C4
102
}
330
9C4
100
AcDbScale
 70
     0
300
3/32" = 1'-0"
140
0.09375
141
12.0
290
     0
  0
SCALE
  5
9CB
102
{ACAD_REACTORS
330
9C4
102
}
330
9C4
100
AcDbScale
 70
     0
300
1/8" = 1'-0"
140
0.125
141
12.0
290
     0
  0
SCALE
  5
9CC
102
{ACAD_REACTORS
330
9C4
102
}
330
9C4
100
AcDbScale
 70
     0
300
3/16" = 1'-0"
140
0.1875
141
12.0
290
     0
  0
SCALE
  5
9CD
102
{ACAD_REACTORS
330
9C4
102
}
330
9C4
100
AcDbScale
 70
     0
300
1/4" = 1'-0"
140
0.25
141
12.0
290
     0
  0
SCALE
  5
9CE
102
{ACAD_REACTORS
330
9C4
102
}
330
9C4
100
AcDbScale
 70
     0
300
3/8" = 1'-0"
140
0.375
141
12.0
290
     0
  0
SCALE
  5
9CF
102
{ACAD_REACTORS
330
9C4
102
}
330
9C4
100
AcDbScale
 70
     0
300
1/2" = 1'-0"
140
0.5
141
12.0
290
     0
  0
SCALE
  5
9D0
102
{ACAD_REACTORS
330
9C4
102
}
330
9C4
100
AcDbScale
 70
     0
300
3/4" = 1'-0"
140
0.75
141
12.0
290
     0
  0
SCALE
  5
9D1
102
{ACAD_REACTORS
330
9C4
102
}
330
9C4
100
AcDbScale
 70
     0
300
1" = 1'-0"
140
1.0
141
12.0
290
     0
  0
SCALE
  5
9D2
102
{ACAD_REACTORS
330
9C4
102
}
330
9C4
100
AcDbScale
 70
     0
300
1-1/2" = 1'-0"
140
1.5
141
12.0
290
     0
  0
SCALE
  5
9D3
102
{ACAD_REACTORS
330
9C4
102
}
330
9C4
100
AcDbScale
 70
     0
300
3" = 1'-0"
140
3.0
141
12.0
290
     0
  0
SCALE
  5
9D4
102
{ACAD_REACTORS
330
9C4
102
}
330
9C4
100
AcDbScale
 70
     0
300
6" = 1'-0"
140
6.0
141
12.0
290
     0
  0
SCALE
  5
9D5
102
{ACAD_REACTORS
330
9C4
102
}
330
9C4
100
AcDbScale
 70
     0
300
1'-0" = 1'-0"
140
12.0
141
12.0
290
     0
  0
ACDBSECTIONVIEWSTYLE
  5
9D9
102
{ACAD_XDICTIONARY
360
A34
102
}
102
{ACAD_REACTORS
330
9D8
102
}
330
9D8
100
AcDbModelDocViewStyle
 70
     0
  3
Imperial24
290
     0
100
AcDbSectionViewStyle
 70
     0
 71
     0
 90
       78
 71
     1
340
207
 40
0.24
340
0
340
0
 40
0.24
300
I, O, Q, S, X, Z
 40
0.48
 90
        3
 40
0.18
 90
        1
 71
     2
340
20B
 90
       25
340
20B
 90
       50
 40
0.24
 40
0.0
 40
0.24
 71
     3
340
207
 40
0.24
 90
        1
 40
0.75
 90
        1
300
%<\AcVar ViewType \f "%tc1">% %<\AcVar ViewSectionStartId>%-%<\AcVar ViewSectionEndId>%\PSCALE %<\AcVar ViewScale \f "%sn">%
 71
     4
300
ANSI31
 40
1.0
 90
        0
290
     0
290
     0
 90
        6
 40
0.0
 40
1.570796326794896
 40
0.2617993877991494
 40
1.308996938995747
 40
-0.2617993877991494
 40
1.832595714594046
  0
TABLESTYLE
  5
9C3
102
{ACAD_XDICTIONARY
360
9FB
102
}
102
{ACAD_REACTORS
330
9C2
102
}
330
9C2
100
AcDbTableStyle
  3
Standard
 70
     0
 71
     0
 40
0.06
 41
0.06
280
     0
281
     0
  7
STANDARD
140
0.18
170
     2
 62
     0
 63
     7
283
     0
274
    -2
284
     1
 64
     0
275
    -2
285
     1
 65
     0
276
    -2
286
     1
 66
     0
277
    -2
287
     1
 67
     0
278
    -2
288
     1
 68
     0
279
    -2
289
     1
 69
     0
  7
STANDARD
140
0.25
170
     5
 62
     0
 63
     7
283
     0
274
    -2
284
     1
 64
     0
275
    -2
285
     1
 65
     0
276
    -2
286
     1
 66
     0
277
    -2
287
     1
 67
     0
278
    -2
288
     1
 68
     0
279
    -2
289
     1
 69
     0
  7
STANDARD
140
0.18
170
     5
 62
     0
 63
     7
283
     0
274
    -2
284
     1
 64
     0
275
    -2
285
     1
 65
     0
276
    -2
286
     1
 66
     0
277
    -2
287
     1
 67
     0
278
    -2
288
     1
 68
     0
279
    -2
289
     1
 69
     0
  0
VISUALSTYLE
  5
9AE
102
{ACAD_XDICTIONARY
360
A0C
102
}
102
{ACAD_REACTORS
330
9A8
102
}
330
9A8
100
AcDbVisualStyle
  2
2dWireframe
 70
     4
 71
     0
 72
     2
 73
     0
 90
        0
 40
-0.6
 41
-30.0
 62
     5
 63
     7
 74
     1
 91
        4
 64
     7
 65
   257
 75
     1
175
     1
 42
1.0
 92
        0
 66
   257
 43
1.0
 76
     1
 77
     6
 78
     2
 67
     7
 79
     5
170
     0
171
     0
290
     0
174
     0
 93
        1
 44
0.0
173
     0
291
     0
 45
0.0
1001
ACAD
1000
AcDbSavedByObjectVersion
1070
     0
  0
VISUALSTYLE
  5
9AD
102
{ACAD_XDICTIONARY
360
A0A
102
}
102
{ACAD_REACTORS
330
9A8
102
}
330
9A8
100
AcDbVisualStyle
  2
Basic
 70
     7
 71
     1
 72
     0
 73
     1
 90
        0
 40
-0.6
 41
-30.0
 62
     5
 63
     7
 74
     0
 91
        4
 64
     7
 65
   257
 75
     1
175
     1
 42
1.0
 92
        8
 66
     7
 43
1.0
 76
     1
 77
     6
 78
     2
 67
     7
 79
     5
170
     0
171
     0
290
     0
174
     0
 93
        1
 44
0.0
173
     0
291
     1
 45
0.0
1001
ACAD
1000
AcDbSavedByObjectVersion
1070
     0
  0
VISUALSTYLE
  5
9B4
102
{ACAD_XDICTIONARY
360
A18
102
}
102
{ACAD_REACTORS
330
9A8
102
}
330
9A8
100
AcDbVisualStyle
  2
Brighten
 70
    12
 71
     2
 72
     2
 73
     0
 90
        0
 40
-0.6
 41
-30.0
 62
     5
 63
     7
 74
     1
 91
        4
 64
     7
 65
   257
 75
     1
175
     1
 42
1.0
 92
        8
 66
     7
 43
1.0
 76
     1
 77
     6
 78
     2
 67
     7
 79
     5
170
     0
171
     0
290
     0
174
     0
 93
        1
 44
50.0
173
     0
291
     1
 45
0.0
1001
ACAD
1000
AcDbSavedByObjectVersion
1070
     0
  0
VISUALSTYLE
  5
9B8
102
{ACAD_XDICTIONARY
360
A20
102
}
102
{ACAD_REACTORS
330
9A8
102
}
330
9A8
100
AcDbVisualStyle
  2
ColorChange
 70
    16
 71
     2
 72
     2
 73
     3
 90
        0
 40
-0.6
 41
-30.0
 62
     5
 63
     8
 74
     1
 91
        4
 64
     7
 65
   257
 75
     1
175
     1
 42
1.0
 92
        8
 66
     8
 43
1.0
 76
     1
 77
     6
 78
     2
 67
     7
 79
     5
170
     0
171
     0
290
     0
174
     0
 93
        1
 44
0.0
173
     0
291
     1
 45
0.0
1001
ACAD
1000
AcDbSavedByObjectVersion
1070
     0
  0
VISUALSTYLE
  5
9B1
102
{ACAD_XDICTIONARY
360
A12
102
}
102
{ACAD_REACTORS
330
9A8
102
}
330
9A8
100
AcDbVisualStyle
  2
Conceptual
 70
     9
 71
     3
 72
     2
 73
     0
 90
        0
 40
-0.6
 41
-30.0
 62
     5
 63
     7
 74
     2
 91
        2
 64
     7
 65
   257
 75
     1
175
     1
 42
179.0
 92
        8
 66
     7
 43
1.0
 76
     1
 77
     6
 78
     2
 67
     7
 79
     3
170
     0
171
     0
290
     0
174
     0
 93
        1
 44
0.0
173
     0
291
     0
 45
0.0
1001
ACAD
1000
AcDbSavedByObjectVersion
1070
     0
  0
VISUALSTYLE
  5
9B3
102
{ACAD_XDICTIONARY
360
A16
102
}
102
{ACAD_REACTORS
330
9A8
102
}
330
9A8
100
AcDbVisualStyle
  2
Dim
 70
    11
 71
     2
 72
     2
 73
     0
 90
        0
 40
-0.6
 41
-30.0
 62
     5
 63
     7
 74
     1
 91
        4
 64
     7
 65
   257
 75
     1
175
     1
 42
1.0
 92
        8
 66
     7
 43
1.0
 76
     1
 77
     6
 78
     2
 67
     7
 79
     5
170
     0
171
     0
290
     0
174
     0
 93
        1
 44
-50.0
173
     0
291
     1
 45
0.0
1001
ACAD
1000
AcDbSavedByObjectVersion
1070
     0
  0
VISUALSTYLE
  5
9C0
102
{ACAD_XDICTIONARY
360
A30
102
}
102
{ACAD_REACTORS
330
9A8
102
}
330
9A8
100
AcDbVisualStyle
  2
EdgeColorOff
 70
    22
 71
     2
 72
     2
 73
     0
 90
        0
 40
-0.6
 41
-30.0
 62
     5
 63
     7
 74
     1
 91
        4
 64
     7
 65
   257
 75
     1
175
     1
 42
1.0
 92
        8
 66
     7
 43
1.0
 76
     1
 77
     6
 78
     2
 67
     7
 79
     5
170
     0
171
     0
290
     0
174
     0
 93
        1
 44
0.0
173
     0
291
     1
 45
0.0
1001
ACAD
1000
AcDbSavedByObjectVersion
1070
     0
  0
VISUALSTYLE
  5
9B7
102
{ACAD_XDICTIONARY
360
A1E
102
}
102
{ACAD_REACTORS
330
9A8
102
}
330
9A8
100
AcDbVisualStyle
  2
Facepattern
 70
    15
 71
     2
 72
     2
 73
     0
 90
        0
 40
-0.6
 41
-30.0
 62
     5
 63
     7
 74
     1
 91
        4
 64
     7
 65
   257
 75
     1
175
     1
 42
1.0
 92
        8
 66
     7
 43
1.0
 76
     1
 77
     6
 78
     2
 67
     7
 79
     5
170
     0
171
     0
290
     0
174
     0
 93
        1
 44
0.0
173
     0
291
     1
 45
0.0
1001
ACAD
1000
AcDbSavedByObjectVersion
1070
     0
  0
VISUALSTYLE
  5
9A9
102
{ACAD_XDICTIONARY
360
A02
102
}
102
{ACAD_REACTORS
330
9A8
102
}
330
9A8
100
AcDbVisualStyle
  2
Flat
 70
     0
 71
     2
 72
     1
 73
     1
 90
        2
 40
-0.6
 41
30.0
 62
     5
 63
     7
 74
     0
 91
        0
 64
     7
 65
   257
 75
     1
175
     1
 42
1.0
 92
        8
 66
     7
 43
1.0
 76
     1
 77
     6
 78
     2
 67
     7
 79
     5
170
     0
171
     0
290
     0
174
     0
 93
       13
 44
0.0
173
     0
291
     1
 45
0.0
1001
ACAD
1000
AcDbSavedByObjectVersion
1070
     0
  0
VISUALSTYLE
  5
9AA
102
{ACAD_XDICTIONARY
360
A04
102
}
102
{ACAD_REACTORS
330
9A8
102
}
330
9A8
100
AcDbVisualStyle
  2
FlatWithEdges
 70
     1
 71
     2
 72
     1
 73
     1
 90
        2
 40
-0.6
 41
30.0
 62
     5
 63
     7
 74
     1
 91
        0
 64
     7
 65
   257
 75
     1
175
     1
 42
1.0
 92
        0
 66
   257
 43
1.0
 76
     1
 77
     6
 78
     2
 67
     7
 79
     5
170
     0
171
     0
290
     0
174
     0
 93
       13
 44
0.0
173
     0
291
     1
 45
0.0
1001
ACAD
1000
AcDbSavedByObjectVersion
1070
     0
  0
VISUALSTYLE
  5
9AB
102
{ACAD_XDICTIONARY
360
A06
102
}
102
{ACAD_REACTORS
330
9A8
102
}
330
9A8
100
AcDbVisualStyle
  2
Gouraud
 70
     2
 71
     2
 72
     2
 73
     1
 90
        2
 40
-0.6
 41
30.0
 62
     5
 63
     7
 74
     0
 91
        0
 64
     7
 65
   257
 75
     1
175
     1
 42
1.0
 92
        0
 66
     7
 43
1.0
 76
     1
 77
     6
 78
     2
 67
     7
 79
     5
170
     0
171
     0
290
     0
174
     0
 93
       13
 44
0.0
173
     0
291
     1
 45
0.0
1001
ACAD
1000
AcDbSavedByObjectVersion
1070
     0
  0
VISUALSTYLE
  5
9AC
102
{ACAD_XDICTIONARY
360
A08
102
}
102
{ACAD_REACTORS
330
9A8
102
}
330
9A8
100
AcDbVisualStyle
  2
GouraudWithEdges
 70
     3
 71
     2
 72
     2
 73
     1
 90
        2
 40
-0.6
 41
30.0
 62
     5
 63
     7
 74
     1
 91
        0
 64
     7
 65
   257
 75
     1
175
     1
 42
1.0
 92
        0
 66
   257
 43
1.0
 76
     1
 77
     6
 78
     2
 67
     7
 79
     5
170
     0
171
     0
290
     0
174
     0
 93
       13
 44
0.0
173
     0
291
     1
 45
0.0
1001
ACAD
1000
AcDbSavedByObjectVersion
1070
     0
  0
VISUALSTYLE
  5
9B0
102
{ACAD_XDICTIONARY
360
A10
102
}
102
{ACAD_REACTORS
330
9A8
102
}
330
9A8
100
AcDbVisualStyle
  2
Hidden
 70
     6
 71
     1
 72
     2
 73
     2
 90
        0
 40
-0.6
 41
-30.0
 62
     5
 63
     7
 74
     2
 91
        2
 64
     7
 65
   257
 75
     2
175
     1
 42
40.0
 92
        0
 66
   257
 43
1.0
 76
     1
 77
     6
 78
     2
 67
     7
 79
     3
170
     0
171
     0
290
     0
174
     0
 93
        1
 44
0.0
173
     0
291
     0
 45
0.0
1001
ACAD
1000
AcDbSavedByObjectVersion
1070
     0
  0
VISUALSTYLE
  5
9BE
102
{ACAD_XDICTIONARY
360
A2C
102
}
102
{ACAD_REACTORS
330
9A8
102
}
330
9A8
100
AcDbVisualStyle
  2
JitterOff
 70
    20
 71
     2
 72
     2
 73
     0
 90
        0
 40
-0.6
 41
-30.0
 62
     5
 63
     7
 74
     1
 91
        4
 64
     7
 65
   257
 75
     1
175
     1
 42
1.0
 92
       10
 66
     7
 43
1.0
 76
     1
 77
     6
 78
     2
 67
     7
 79
     5
170
     0
171
     0
290
     0
174
     0
 93
        1
 44
0.0
173
     0
291
     1
 45
0.0
1001
ACAD
1000
AcDbSavedByObjectVersion
1070
     0
  0
VISUALSTYLE
  5
9B6
102
{ACAD_XDICTIONARY
360
A1C
102
}
102
{ACAD_REACTORS
330
9A8
102
}
330
9A8
100
AcDbVisualStyle
  2
Linepattern
 70
    14
 71
     2
 72
     2
 73
     0
 90
        0
 40
-0.6
 41
-30.0
 62
     5
 63
     7
 74
     1
 91
        4
 64
     7
 65
   257
 75
     7
175
     7
 42
1.0
 92
        8
 66
     7
 43
1.0
 76
     1
 77
     6
 78
     2
 67
     7
 79
     5
170
     0
171
     0
290
     0
174
     0
 93
        1
 44
0.0
173
     0
291
     1
 45
0.0
1001
ACAD
1000
AcDbSavedByObjectVersion
1070
     0
  0
VISUALSTYLE
  5
9BF
102
{ACAD_XDICTIONARY
360
A2E
102
}
102
{ACAD_REACTORS
330
9A8
102
}
330
9A8
100
AcDbVisualStyle
  2
OverhangOff
 70
    21
 71
     2
 72
     2
 73
     0
 90
        0
 40
-0.6
 41
-30.0
 62
     5
 63
     7
 74
     1
 91
        4
 64
     7
 65
   257
 75
     1
175
     1
 42
1.0
 92
        9
 66
     7
 43
1.0
 76
     1
 77
     6
 78
     2
 67
     7
 79
     5
170
     0
171
     0
290
     0
174
     0
 93
        1
 44
0.0
173
     0
291
     1
 45
0.0
1001
ACAD
1000
AcDbSavedByObjectVersion
1070
     0
  0
VISUALSTYLE
  5
9B2
102
{ACAD_XDICTIONARY
360
A14
102
}
102
{ACAD_REACTORS
330
9A8
102
}
330
9A8
100
AcDbVisualStyle
  2
Realistic
 70
     8
 71
     2
 72
     3
 73
     0
 90
        2
 40
-0.6
 41
30.0
 62
     5
 63
     7
 74
     0
 91
        0
 64
     7
 65
   257
 75
     1
175
     1
 42
1.0
 92
        8
 66
   257
 43
1.0
 76
     1
 77
     6
 78
     2
 67
     7
 79
     3
170
     0
171
     0
290
     0
174
     0
 93
       13
 44
0.0
173
     0
291
     0
 45
0.0
1001
ACAD
1000
AcDbSavedByObjectVersion
1070
     0
  0
VISUALSTYLE
  5
9BD
102
{ACAD_XDICTIONARY
360
A2A
102
}
102
{ACAD_REACTORS
330
9A8
102
}
330
9A8
100
AcDbVisualStyle
  2
Shaded
 70
    27
 71
     2
 72
     2
 73
     1
 90
        2
 40
-0.6
 41
30.0
 62
     5
 63
     7
 74
     0
 91
        4
 64
     7
 65
   257
 75
     1
175
     1
 42
1.0
 92
        8
 66
   257
 43
1.0
 76
     1
 77
     6
 78
     2
 67
     8
 79
     3
170
     0
171
     0
290
     0
174
     0
 93
        5
 44
0.0
173
     0
291
     0
 45
0.0
1001
ACAD
1000
AcDbSavedByObjectVersion
1070
     0
  0
VISUALSTYLE
  5
9BC
102
{ACAD_XDICTIONARY
360
A28
102
}
102
{ACAD_REACTORS
330
9A8
102
}
330
9A8
100
AcDbVisualStyle
  2
Shaded with edges
 70
    26
 71
     2
 72
     2
 73
     1
 90
        2
 40
-0.6
 41
30.0
 62
     5
 63
     7
 74
     1
 91
       10
 64
     7
 65
   257
 75
     2
175
     1
 42
1.0
 92
        8
 66
   257
 43
1.0
 76
     1
 77
     6
 78
     2
 67
     7
 79
     3
170
     0
171
     0
290
     0
174
     0
 93
        5
 44
0.0
173
     0
291
     0
 45
0.0
1001
ACAD
1000
AcDbSavedByObjectVersion
1070
     0
  0
VISUALSTYLE
  5
9B9
102
{ACAD_XDICTIONARY
360
A22
102
}
102
{ACAD_REACTORS
330
9A8
102
}
330
9A8
100
AcDbVisualStyle
  2
Shades of Gray
 70
    23
 71
     2
 72
     2
 73
     3
 90
        0
 40
-0.6
 41
-30.0
 62
     5
 63
     7
 74
     2
 91
        2
 64
     7
 65
     7
 75
     1
175
     1
 42
40.0
 92
        8
 66
     7
 43
1.0
 76
     1
 77
     6
 78
     2
 67
     7
 79
     3
170
     0
171
     0
290
     0
174
     0
 93
        1
 44
0.0
173
     0
291
     0
 45
0.0
1001
ACAD
1000
AcDbSavedByObjectVersion
1070
     0
  0
VISUALSTYLE
  5
9BA
102
{ACAD_XDICTIONARY
360
A24
102
}
102
{ACAD_REACTORS
330
9A8
102
}
330
9A8
100
AcDbVisualStyle
  2
Sketchy
 70
    24
 71
     1
 72
     2
 73
     2
 90
        0
 40
-0.6
 41
-30.0
 62
     5
 63
     7
 74
     2
 91
        2
 64
     7
 65
     7
 75
     1
175
     1
 42
40.0
 92
       11
 66
     7
 43
1.0
 76
     1
 77
     6
 78
     2
 67
     7
 79
     6
170
     0
171
     0
290
     0
174
     0
 93
        1
 44
0.0
173
     0
291
     0
 45
0.0
1001
ACAD
1000
AcDbSavedByObjectVersion
1070
     0
  0
VISUALSTYLE
  5
9B5
102
{ACAD_XDICTIONARY
360
A1A
102
}
102
{ACAD_REACTORS
330
9A8
102
}
330
9A8
100
AcDbVisualStyle
  2
Thicken
 70
    13
 71
     2
 72
     2
 73
     0
 90
        0
 40
-0.6
 41
-30.0
 62
     5
 63
     7
 74
     1
 91
        4
 64
     7
 65
   257
 75
     1
175
     1
 42
1.0
 92
       12
 66
     7
 43
1.0
 76
     1
 77
     6
 78
     2
 67
     7
 79
     5
170
     0
171
     0
290
     0
174
     0
 93
        1
 44
0.0
173
     0
291
     1
 45
0.0
1001
ACAD
1000
AcDbSavedByObjectVersion
1070
     0
  0
VISUALSTYLE
  5
9AF
102
{ACAD_XDICTIONARY
360
A0E
102
}
102
{ACAD_REACTORS
330
9A8
102
}
330
9A8
100
AcDbVisualStyle
  2
Wireframe
 70
     5
 71
     0
 72
     2
 73
     0
 90
        0
 40
-0.6
 41
-30.0
 62
     5
 63
     7
 74
     1
 91
        4
 64
     7
 65
   257
 75
     1
175
     1
 42
1.0
 92
        0
 66
   257
 43
1.0
 76
     1
 77
     6
 78
     2
 67
     7
 79
     3
170
     0
171
     0
290
     0
174
     0
 93
        1
 44
0.0
173
     0
291
     0
 45
0.0
1001
ACAD
1000
AcDbSavedByObjectVersion
1070
     0
  0
VISUALSTYLE
  5
9BB
102
{ACAD_XDICTIONARY
360
A26
102
}
102
{ACAD_REACTORS
330
9A8
102
}
330
9A8
100
AcDbVisualStyle
  2
X-Ray
 70
    25
 71
     2
 72
     2
 73
     1
 90
        1
 40
0.5
 41
-30.0
 62
     5
 63
     7
 74
     1
 91
        0
 64
     7
 65
   257
 75
     1
175
     1
 42
1.0
 92
        8
 66
     7
 43
1.0
 76
     1
 77
     6
 78
     2
 67
     7
 79
     3
170
     0
171
     0
290
     0
174
     0
 93
       13
 44
0.0
173
     0
291
     0
 45
0.0
1001
ACAD
1000
AcDbSavedByObjectVersion
1070
     0
  0
DICTIONARYVAR
  5
9F5
102
{ACAD_REACTORS
330
9F0
102
}
330
9F0
100
DictionaryVariables
280
     0
  1
1:1
  0
DICTIONARYVAR
  5
9F2
102
{ACAD_REACTORS
330
9F0
102
}
330
9F0
100
DictionaryVariables
280
     0
  1
STANDARD
  0
DICTIONARYVAR
  5
9F1
102
{ACAD_REACTORS
330
9F0
102
}
330
9F0
100
DictionaryVariables
280
     0
  1
STANDARD
  0
DICTIONARYVAR
  5
9F3
102
{ACAD_REACTORS
330
9F0
102
}
330
9F0
100
DictionaryVariables
280
     0
  1
Imperial24
  0
DICTIONARYVAR
  5
9F4
102
{ACAD_REACTORS
330
9F0
102
}
330
9F0
100
DictionaryVariables
280
     0
  1
Imperial24
  0
DICTIONARYVAR
  5
9F8
102
{ACAD_REACTORS
330
9F0
102
}
330
9F0
100
DictionaryVariables
280
     0
  1
1
  0
DICTIONARYVAR
  5
9F7
102
{ACAD_REACTORS
330
9F0
102
}
330
9F0
100
DictionaryVariables
280
     0
  1
0
  0
DICTIONARYVAR
  5
9F6
102
{ACAD_REACTORS
330
9F0
102
}
330
9F0
100
DictionaryVariables
280
     0
  1
127
  0
DICTIONARYVAR
  5
9F9
102
{ACAD_REACTORS
330
9F0
102
}
330
9F0
100
DictionaryVariables
280
     0
  1
2
  0
DICTIONARY
  5
A36
330
9DB
100
AcDbDictionary
280
     1
281
     1
  3
ACAD_XREC_ROUNDTRIP
360
A37
  0
DICTIONARY
  5
A38
330
9DC
100
AcDbDictionary
280
     1
281
     1
  3
ACAD_XREC_ROUNDTRIP
360
A39
  0
DICTIONARY
  5
A3A
330
9DD
100
AcDbDictionary
280
     1
281
     1
  3
ACAD_XREC_ROUNDTRIP
360
A3B
  0
DICTIONARY
  5
999
330
998
100
AcDbDictionary
280
     1
281
     1
  3
ACAD_XREC_ROUNDTRIP
360
A00
  3
BUMPTILE
360
99B
  3
DIFFUSETILE
360
99A
  3
OPACITYTILE
360
99E
  3
REFLECTIONTILE
360
99D
  3
REFRACTIONTILE
360
99F
  3
SPECULARTILE
360
99C
  0
DICTIONARY
  5
991
330
990
100
AcDbDictionary
280
     1
281
     1
  3
ACAD_XREC_ROUNDTRIP
360
9FF
  3
BUMPTILE
360
993
  3
DIFFUSETILE
360
992
  3
OPACITYTILE
360
996
  3
REFLECTIONTILE
360
995
  3
REFRACTIONTILE
360
997
  3
SPECULARTILE
360
994
  0
DICTIONARY
  5
9A1
330
9A0
100
AcDbDictionary
280
     1
281
     1
  3
ACAD_XREC_ROUNDTRIP
360
A01
  3
BUMPTILE
360
9A3
  3
DIFFUSETILE
360
9A2
  3
OPACITYTILE
360
9A6
  3
REFLECTIONTILE
360
9A5
  3
REFRACTIONTILE
360
9A7
  3
SPECULARTILE
360
9A4
  0
DICTIONARY
  5
A34
330
9D9
100
AcDbDictionary
280
     1
281
     1
  3
ACAD_XREC_ROUNDTRIP
360
A35
  0
DICTIONARY
  5
9FB
330
9C3
100
AcDbDictionary
280
     1
281
     1
  3
ACAD_ROUNDTRIP_2008_TABLESTYLE_CELLSTYLEMAP
360
9FC
  3
ACAD_XREC_ROUNDTRIP
360
A32
  0
DICTIONARY
  5
A0C
330
9AE
100
AcDbDictionary
280
     1
281
     1
  3
ACAD_XREC_ROUNDTRIP
360
A0D
  0
DICTIONARY
  5
A0A
330
9AD
100
AcDbDictionary
280
     1
281
     1
  3
ACAD_XREC_ROUNDTRIP
360
A0B
  0
DICTIONARY
  5
A18
330
9B4
100
AcDbDictionary
280
     1
281
     1
  3
ACAD_XREC_ROUNDTRIP
360
A19
  0
DICTIONARY
  5
A20
330
9B8
100
AcDbDictionary
280
     1
281
     1
  3
ACAD_XREC_ROUNDTRIP
360
A21
  0
DICTIONARY
  5
A12
330
9B1
100
AcDbDictionary
280
     1
281
     1
  3
ACAD_XREC_ROUNDTRIP
360
A13
  0
DICTIONARY
  5
A16
330
9B3
100
AcDbDictionary
280
     1
281
     1
  3
ACAD_XREC_ROUNDTRIP
360
A17
  0
DICTIONARY
  5
A30
330
9C0
100
AcDbDictionary
280
     1
281
     1
  3
ACAD_XREC_ROUNDTRIP
360
A31
  0
DICTIONARY
  5
A1E
330
9B7
100
AcDbDictionary
280
     1
281
     1
  3
ACAD_XREC_ROUNDTRIP
360
A1F
  0
DICTIONARY
  5
A02
330
9A9
100
AcDbDictionary
280
     1
281
     1
  3
ACAD_XREC_ROUNDTRIP
360
A03
  0
DICTIONARY
  5
A04
330
9AA
100
AcDbDictionary
280
     1
281
     1
  3
ACAD_XREC_ROUNDTRIP
360
A05
  0
DICTIONARY
  5
A06
330
9AB
100
AcDbDictionary
280
     1
281
     1
  3
ACAD_XREC_ROUNDTRIP
360
A07
  0
DICTIONARY
  5
A08
330
9AC
100
AcDbDictionary
280
     1
281
     1
  3
ACAD_XREC_ROUNDTRIP
360
A09
  0
DICTIONARY
  5
A10
330
9B0
100
AcDbDictionary
280
     1
281
     1
  3
ACAD_XREC_ROUNDTRIP
360
A11
  0
DICTIONARY
  5
A2C
330
9BE
100
AcDbDictionary
280
     1
281
     1
  3
ACAD_XREC_ROUNDTRIP
360
A2D
  0
DICTIONARY
  5
A1C
330
9B6
100
AcDbDictionary
280
     1
281
     1
  3
ACAD_XREC_ROUNDTRIP
360
A1D
  0
DICTIONARY
  5
A2E
330
9BF
100
AcDbDictionary
280
     1
281
     1
  3
ACAD_XREC_ROUNDTRIP
360
A2F
  0
DICTIONARY
  5
A14
330
9B2
100
AcDbDictionary
280
     1
281
     1
  3
ACAD_XREC_ROUNDTRIP
360
A15
  0
DICTIONARY
  5
A2A
330
9BD
100
AcDbDictionary
280
     1
281
     1
  3
ACAD_XREC_ROUNDTRIP
360
A2B
  0
DICTIONARY
  5
A28
330
9BC
100
AcDbDictionary
280
     1
281
     1
  3
ACAD_XREC_ROUNDTRIP
360
A29
  0
DICTIONARY
  5
A22
330
9B9
100
AcDbDictionary
280
     1
281
     1
  3
ACAD_XREC_ROUNDTRIP
360
A23
  0
DICTIONARY
  5
A24
330
9BA
100
AcDbDictionary
280
     1
281
     1
  3
ACAD_XREC_ROUNDTRIP
360
A25
  0
DICTIONARY
  5
A1A
330
9B5
100
AcDbDictionary
280
     1
281
     1
  3
ACAD_XREC_ROUNDTRIP
360
A1B
  0
DICTIONARY
  5
A0E
330
9AF
100
AcDbDictionary
280
     1
281
     1
  3
ACAD_XREC_ROUNDTRIP
360
A0F
  0
DICTIONARY
  5
A26
330
9BB
100
AcDbDictionary
280
     1
281
     1
  3
ACAD_XREC_ROUNDTRIP
360
A27
  0
XRECORD
  5
A37
102
{ACAD_REACTORS
330
A36
102
}
330
A36
100
AcDbXrecord
280
     1
102
DISPLAYNAME
  1
Imperial24
102
FLAGS
 90
        0
  0
XRECORD
  5
A39
102
{ACAD_REACTORS
330
A38
102
}
330
A38
100
AcDbXrecord
280
     1
102
SHADEPLOT
 70
     0
102
SHADEPLOTRESLEVEL
 70
     2
102
SHADEPLOTCUSTOMDPI
 70
   300
  0
XRECORD
  5
A3B
102
{ACAD_REACTORS
330
A3A
102
}
330
A3A
100
AcDbXrecord
280
     1
102
SHADEPLOT
 70
     0
102
SHADEPLOTRESLEVEL
 70
     2
102
SHADEPLOTCUSTOMDPI
 70
   300
  0
XRECORD
  5
A00
102
{ACAD_REACTORS
330
999
102
}
330
999
100
AcDbXrecord
280
     1
102
MATERIAL
148
0.0
149
0.0
149
0.0
 93
        0
 94
      127
282
     0
 72
     0
 77
     0
171
     0
175
     0
179
     0
273
     0
  0
XRECORD
  5
99B
102
{ACAD_REACTORS
330
999
102
}
330
999
100
AcDbXrecord
280
     1
270
     1
271
     1
  0
XRECORD
  5
99A
102
{ACAD_REACTORS
330
999
102
}
330
999
100
AcDbXrecord
280
     1
270
     1
271
     1
  0
XRECORD
  5
99E
102
{ACAD_REACTORS
330
999
102
}
330
999
100
AcDbXrecord
280
     1
270
     1
271
     1
  0
XRECORD
  5
99D
102
{ACAD_REACTORS
330
999
102
}
330
999
100
AcDbXrecord
280
     1
270
     1
271
     1
  0
XRECORD
  5
99F
102
{ACAD_REACTORS
330
999
102
}
330
999
100
AcDbXrecord
280
     1
270
     1
271
     1
  0
XRECORD
  5
99C
102
{ACAD_REACTORS
330
999
102
}
330
999
100
AcDbXrecord
280
     1
270
     1
271
     1
  0
XRECORD
  5
9FF
102
{ACAD_REACTORS
330
991
102
}
330
991
100
AcDbXrecord
280
     1
102
MATERIAL
148
0.0
149
0.0
149
0.0
 93
        0
 94
      127
282
     0
 72
     0
 77
     0
171
     0
175
     0
179
     0
273
     0
  0
XRECORD
  5
993
102
{ACAD_REACTORS
330
991
102
}
330
991
100
AcDbXrecord
280
     1
270
     1
271
     1
  0
XRECORD
  5
992
102
{ACAD_REACTORS
330
991
102
}
330
991
100
AcDbXrecord
280
     1
270
     1
271
     1
  0
XRECORD
  5
996
102
{ACAD_REACTORS
330
991
102
}
330
991
100
AcDbXrecord
280
     1
270
     1
271
     1
  0
XRECORD
  5
995
102
{ACAD_REACTORS
330
991
102
}
330
991
100
AcDbXrecord
280
     1
270
     1
271
     1
  0
XRECORD
  5
997
102
{ACAD_REACTORS
330
991
102
}
330
991
100
AcDbXrecord
280
     1
270
     1
271
     1
  0
XRECORD
  5
994
102
{ACAD_REACTORS
330
991
102
}
330
991
100
AcDbXrecord
280
     1
270
     1
271
     1
  0
XRECORD
  5
A01
102
{ACAD_REACTORS
330
9A1
102
}
330
9A1
100
AcDbXrecord
280
     1
102
MATERIAL
148
0.0
149
0.0
149
0.0
 93
        0
 94
      127
282
     0
 72
     0
 77
     0
171
     0
175
     0
179
     0
273
     0
  0
XRECORD
  5
9A3
102
{ACAD_REACTORS
330
9A1
102
}
330
9A1
100
AcDbXrecord
280
     1
270
     1
271
     1
  0
XRECORD
  5
9A2
102
{ACAD_REACTORS
330
9A1
102
}
330
9A1
100
AcDbXrecord
280
     1
270
     1
271
     1
  0
XRECORD
  5
9A6
102
{ACAD_REACTORS
330
9A1
102
}
330
9A1
100
AcDbXrecord
280
     1
270
     1
271
     1
  0
XRECORD
  5
9A5
102
{ACAD_REACTORS
330
9A1
102
}
330
9A1
100
AcDbXrecord
280
     1
270
     1
271
     1
  0
XRECORD
  5
9A7
102
{ACAD_REACTORS
330
9A1
102
}
330
9A1
100
AcDbXrecord
280
     1
270
     1
271
     1
  0
XRECORD
  5
9A4
102
{ACAD_REACTORS
330
9A1
102
}
330
9A1
100
AcDbXrecord
280
     1
270
     1
271
     1
  0
XRECORD
  5
A35
102
{ACAD_REACTORS
330
A34
102
}
330
A34
100
AcDbXrecord
280
     1
102
DISPLAYNAME
  1
Imperial24
102
FLAGS
 90
        0
  0
CELLSTYLEMAP
  5
9FC
102
{ACAD_REACTORS
330
9FB
102
}
330
9FB
100
AcDbCellStyleMap
 90
        3
300
CELLSTYLE
  1
TABLEFORMAT_BEGIN
 90
        5
170
     1
 91
        0
 92
    32768
 62
   257
 93
        1
300
CONTENTFORMAT
  1
CONTENTFORMAT_BEGIN
 90
        0
 91
        0
 92
      512
 93
        0
300

 40
0.0
140
1.0
 94
        5
 62
     0
340
207
144
0.25
309
CONTENTFORMAT_END
171
     0
 94
        0
309
TABLEFORMAT_END
  1
CELLSTYLE_BEGIN
 90
        1
 91
        1
300
_TITLE
309
CELLSTYLE_END
300
CELLSTYLE
  1
TABLEFORMAT_BEGIN
 90
        5
170
     1
 91
        0
 92
        0
 62
   257
 93
        1
300
CONTENTFORMAT
  1
CONTENTFORMAT_BEGIN
 90
        0
 91
        0
 92
      512
 93
        0
300

 40
0.0
140
1.0
 94
        5
 62
     0
340
207
144
0.18
309
CONTENTFORMAT_END
171
     0
 94
        0
309
TABLEFORMAT_END
  1
CELLSTYLE_BEGIN
 90
        2
 91
        1
300
_HEADER
309
CELLSTYLE_END
300
CELLSTYLE
  1
TABLEFORMAT_BEGIN
 90
        5
170
     1
 91
        0
 92
        0
 62
   257
 93
        1
300
CONTENTFORMAT
  1
CONTENTFORMAT_BEGIN
 90
        0
 91
        0
 92
      512
 93
        0
300

 40
0.0
140
1.0
 94
        2
 62
     0
340
207
144
0.18
309
CONTENTFORMAT_END
171
     0
 94
        0
309
TABLEFORMAT_END
  1
CELLSTYLE_BEGIN
 90
        3
 91
        2
300
_DATA
309
CELLSTYLE_END
  0
XRECORD
  5
A32
102
{ACAD_REACTORS
330
9FB
102
}
330
9FB
100
AcDbXrecord
280
     1
102
ACAD_ROUNDTRIP_PRE2007_TABLESTYLE
 90
      512
 91
        0
  1

 92
      512
 93
        0
  2

 94
      512
 95
        0
  3

  0
XRECORD
  5
A0D
102
{ACAD_REACTORS
330
A0C
102
}
330
A0C
100
AcDbXrecord
280
     1
102
RTVSPost2010Prop28
280
     1
102
RTVSPost2010PropOp28
 70
     1
102
RTVSPost2010Prop29
280
     1
102
RTVSPost2010PropOp29
 70
     1
102
RTVSPost2010Prop30
280
     0
102
RTVSPost2010PropOp30
 70
     1
102
RTVSPost2010Prop31
280
     0
102
RTVSPost2010PropOp31
 70
     1
102
RTVSPost2010Prop32
280
     0
102
RTVSPost2010PropOp32
 70
     1
102
RTVSPost2010Prop33
280
     0
102
RTVSPost2010PropOp33
 70
     1
102
RTVSPost2010Prop34
280
     0
102
RTVSPost2010PropOp34
 70
     1
102
RTVSPost2010Prop35
280
     0
102
RTVSPost2010PropOp35
 70
     1
102
RTVSPost2010Prop36
280
     0
102
RTVSPost2010PropOp36
 70
     1
102
RTVSPost2010Prop37
 90
       50
102
RTVSPost2010PropOp37
 70
     1
102
RTVSPost2010Prop38
140
0.0
102
RTVSPost2010PropOp38
 70
     1
102
RTVSPost2010Prop39
140
1.0
102
RTVSPost2010PropOp39
 70
     1
102
RTVSPost2010Prop40
 90
        0
102
RTVSPost2010PropOp40
 70
     1
102
RTVSPost2010Prop41ColorIndex
 90
       18
102
RTVSPost2010Prop41ColorRGB
 90
        0
102
RTVSPost2010PropOp41
 70
     1
102
RTVSPost2010Prop42
 90
       50
102
RTVSPost2010PropOp42
 70
     1
102
RTVSPost2010Prop43
 90
        3
102
RTVSPost2010PropOp43
 70
     1
102
RTVSPost2010Prop44ColorIndex
 90
        5
102
RTVSPost2010Prop44ColorRGB
 90
      255
102
RTVSPost2010PropOp44
 70
     1
102
RTVSPost2010Prop45
280
     0
102
RTVSPost2010PropOp45
 70
     1
102
RTVSPost2010Prop46
 90
       50
102
RTVSPost2010PropOp46
 70
     1
102
RTVSPost2010Prop47
 90
       50
102
RTVSPost2010PropOp47
 70
     1
102
RTVSPost2010Prop48
 90
       50
102
RTVSPost2010PropOp48
 70
     1
102
RTVSPost2010Prop49
280
     0
102
RTVSPost2010PropOp49
 70
     1
102
RTVSPost2010Prop50
 90
       50
102
RTVSPost2010PropOp50
 70
     1
102
RTVSPost2010Prop51ColorIndex
 90
      256
102
RTVSPost2010Prop51ColorRGB
 90
-16777216
102
RTVSPost2010PropOp51
 70
     0
102
RTVSPost2010Prop52
140
1.0
102
RTVSPost2010PropOp52
 70
     0
102
RTVSPost2010Prop53
 90
        2
102
RTVSPost2010PropOp53
 70
     1
102
RTVSPost2010Prop54
  1
strokes_ogs.tif
102
RTVSPost2010PropOp54
 70
     1
102
RTVSPost2010Prop55
280
     0
102
RTVSPost2010PropOp55
 70
     1
102
RTVSPost2010Prop56
140
1.0
102
RTVSPost2010PropOp56
 70
     1
102
RTVSPost2010Prop57
140
1.0
102
RTVSPost2010PropOp57
 70
     1
102
RTVSPropertyOp0
 70
     1
102
RTVSPropertyOp1
 70
     1
102
RTVSPropertyOp2
 70
     1
102
RTVSPropertyOp3
 70
     1
102
RTVSPropertyOp4
 70
     1
102
RTVSPropertyOp5
 70
     1
102
RTVSPropertyOp6
 70
     1
102
RTVSPropertyOp7
 70
     1
102
RTVSPropertyOp8
 70
     1
102
RTVSPropertyOp9
 70
     1
102
RTVSPropertyOp10
 70
     1
102
RTVSPropertyOp11
 70
     1
102
RTVSPropertyOp12
 70
     1
102
RTVSPropertyOp13
 70
     1
102
RTVSPropertyOp14
 70
     1
102
RTVSPropertyOp15
 70
     1
102
RTVSPropertyOp16
 70
     1
102
RTVSPropertyOp17
 70
     1
102
RTVSPropertyOp18
 70
     1
102
RTVSPropertyOp19
 70
     1
102
RTVSPropertyOp20
 70
     1
102
RTVSPropertyOp21
 70
     1
102
RTVSPropertyOp22
 70
     1
102
RTVSPropertyOp23
 70
     1
102
RTVSPropertyOp24
 70
     1
102
RTVSPropertyOp25
 70
     1
102
RTVSPropertyOp26
 70
     1
102
RTVSPropertyOp27
 70
     1
102
RTVSPropertyOp28
 70
     1
102
RTVSPropertyOp29
 70
     1
102
RTVSPropertyOp30
 70
     1
102
RTVSPropertyOp31
 70
     1
102
RTVSPropertyOp32
 70
     1
102
RTVSPropertyOp33
 70
     1
102
RTVSPropertyOp34
 70
     1
102
RTVSPropertyOp35
 70
     1
102
RTVSPropertyOp36
 70
     1
102
RTVSPropertyOp37
 70
     1
102
RTVSPropertyOp38
 70
     1
102
RTVSPropertyOp39
 70
     1
102
RTVSPropertyOp40
 70
     1
102
RTVSPropertyOp41
 70
     1
102
RTVSPropertyOp42
 70
     1
102
RTVSPropertyOp43
 70
     1
102
RTVSPropertyOp44
 70
     1
102
RTVSPropertyOp45
 70
     1
102
RTVSPropertyOp46
 70
     1
102
RTVSPropertyOp47
 70
     1
102
RTVSPropertyOp48
 70
     1
102
RTVSPropertyOp49
 70
     1
102
RTVSPropertyOp50
 70
     1
102
RTVSPropertyOp51
 70
     0
102
RTVSPropertyOp52
 70
     0
102
RTVSPropertyOp53
 70
     1
102
RTVSPropertyOp54
 70
     1
102
RTVSPropertyOp55
 70
     1
102
RTVSPropertyOp56
 70
     1
102
RTVSPropertyOp57
 70
     1
102
RTVSPropertyOp58
 70
     1
102
RTVSPropertyOp59
 70
     1
102
RTVSPropertyOp60
 70
     1
102
RTVSPropertyOp61
 70
     1
102
RTVSPropertyOp62
 70
     1
  0
XRECORD
  5
A0B
102
{ACAD_REACTORS
330
A0A
102
}
330
A0A
100
AcDbXrecord
280
     1
102
RTVSPost2010Prop28
280
     0
102
RTVSPost2010PropOp28
 70
     1
102
RTVSPost2010Prop29
280
     1
102
RTVSPost2010PropOp29
 70
     1
102
RTVSPost2010Prop30
280
     1
102
RTVSPost2010PropOp30
 70
     1
102
RTVSPost2010Prop31
280
     0
102
RTVSPost2010PropOp31
 70
     1
102
RTVSPost2010Prop32
280
     0
102
RTVSPost2010PropOp32
 70
     1
102
RTVSPost2010Prop33
280
     0
102
RTVSPost2010PropOp33
 70
     1
102
RTVSPost2010Prop34
280
     0
102
RTVSPost2010PropOp34
 70
     1
102
RTVSPost2010Prop35
280
     0
102
RTVSPost2010PropOp35
 70
     1
102
RTVSPost2010Prop36
280
     0
102
RTVSPost2010PropOp36
 70
     1
102
RTVSPost2010Prop37
 90
       50
102
RTVSPost2010PropOp37
 70
     1
102
RTVSPost2010Prop38
140
0.0
102
RTVSPost2010PropOp38
 70
     1
102
RTVSPost2010Prop39
140
1.0
102
RTVSPost2010PropOp39
 70
     1
102
RTVSPost2010Prop40
 90
        0
102
RTVSPost2010PropOp40
 70
     1
102
RTVSPost2010Prop41ColorIndex
 90
       18
102
RTVSPost2010Prop41ColorRGB
 90
        0
102
RTVSPost2010PropOp41
 70
     1
102
RTVSPost2010Prop42
 90
       50
102
RTVSPost2010PropOp42
 70
     1
102
RTVSPost2010Prop43
 90
        3
102
RTVSPost2010PropOp43
 70
     1
102
RTVSPost2010Prop44ColorIndex
 90
        5
102
RTVSPost2010Prop44ColorRGB
 90
      255
102
RTVSPost2010PropOp44
 70
     1
102
RTVSPost2010Prop45
280
     0
102
RTVSPost2010PropOp45
 70
     1
102
RTVSPost2010Prop46
 90
       50
102
RTVSPost2010PropOp46
 70
     1
102
RTVSPost2010Prop47
 90
       50
102
RTVSPost2010PropOp47
 70
     1
102
RTVSPost2010Prop48
 90
       50
102
RTVSPost2010PropOp48
 70
     1
102
RTVSPost2010Prop49
280
     0
102
RTVSPost2010PropOp49
 70
     1
102
RTVSPost2010Prop50
 90
       50
102
RTVSPost2010PropOp50
 70
     1
102
RTVSPost2010Prop51ColorIndex
 90
      256
102
RTVSPost2010Prop51ColorRGB
 90
-16777216
102
RTVSPost2010PropOp51
 70
     0
102
RTVSPost2010Prop52
140
1.0
102
RTVSPost2010PropOp52
 70
     0
102
RTVSPost2010Prop53
 90
        2
102
RTVSPost2010PropOp53
 70
     1
102
RTVSPost2010Prop54
  1
strokes_ogs.tif
102
RTVSPost2010PropOp54
 70
     1
102
RTVSPost2010Prop55
280
     0
102
RTVSPost2010PropOp55
 70
     1
102
RTVSPost2010Prop56
140
1.0
102
RTVSPost2010PropOp56
 70
     1
102
RTVSPost2010Prop57
140
1.0
102
RTVSPost2010PropOp57
 70
     1
102
RTVSPropertyOp0
 70
     1
102
RTVSPropertyOp1
 70
     1
102
RTVSPropertyOp2
 70
     1
102
RTVSPropertyOp3
 70
     1
102
RTVSPropertyOp4
 70
     1
102
RTVSPropertyOp5
 70
     1
102
RTVSPropertyOp6
 70
     1
102
RTVSPropertyOp7
 70
     1
102
RTVSPropertyOp8
 70
     1
102
RTVSPropertyOp9
 70
     1
102
RTVSPropertyOp10
 70
     1
102
RTVSPropertyOp11
 70
     1
102
RTVSPropertyOp12
 70
     1
102
RTVSPropertyOp13
 70
     1
102
RTVSPropertyOp14
 70
     1
102
RTVSPropertyOp15
 70
     1
102
RTVSPropertyOp16
 70
     1
102
RTVSPropertyOp17
 70
     1
102
RTVSPropertyOp18
 70
     1
102
RTVSPropertyOp19
 70
     1
102
RTVSPropertyOp20
 70
     1
102
RTVSPropertyOp21
 70
     1
102
RTVSPropertyOp22
 70
     1
102
RTVSPropertyOp23
 70
     1
102
RTVSPropertyOp24
 70
     1
102
RTVSPropertyOp25
 70
     1
102
RTVSPropertyOp26
 70
     1
102
RTVSPropertyOp27
 70
     1
102
RTVSPropertyOp28
 70
     1
102
RTVSPropertyOp29
 70
     1
102
RTVSPropertyOp30
 70
     1
102
RTVSPropertyOp31
 70
     1
102
RTVSPropertyOp32
 70
     1
102
RTVSPropertyOp33
 70
     1
102
RTVSPropertyOp34
 70
     1
102
RTVSPropertyOp35
 70
     1
102
RTVSPropertyOp36
 70
     1
102
RTVSPropertyOp37
 70
     1
102
RTVSPropertyOp38
 70
     1
102
RTVSPropertyOp39
 70
     1
102
RTVSPropertyOp40
 70
     1
102
RTVSPropertyOp41
 70
     1
102
RTVSPropertyOp42
 70
     1
102
RTVSPropertyOp43
 70
     1
102
RTVSPropertyOp44
 70
     1
102
RTVSPropertyOp45
 70
     1
102
RTVSPropertyOp46
 70
     1
102
RTVSPropertyOp47
 70
     1
102
RTVSPropertyOp48
 70
     1
102
RTVSPropertyOp49
 70
     1
102
RTVSPropertyOp50
 70
     1
102
RTVSPropertyOp51
 70
     0
102
RTVSPropertyOp52
 70
     0
102
RTVSPropertyOp53
 70
     1
102
RTVSPropertyOp54
 70
     1
102
RTVSPropertyOp55
 70
     1
102
RTVSPropertyOp56
 70
     1
102
RTVSPropertyOp57
 70
     1
102
RTVSPropertyOp58
 70
     1
102
RTVSPropertyOp59
 70
     1
102
RTVSPropertyOp60
 70
     1
102
RTVSPropertyOp61
 70
     1
102
RTVSPropertyOp62
 70
     1
  0
XRECORD
  5
A19
102
{ACAD_REACTORS
330
A18
102
}
330
A18
100
AcDbXrecord
280
     1
102
RTVSPost2010Prop28
280
     0
102
RTVSPost2010PropOp28
 70
     1
102
RTVSPost2010Prop29
280
     1
102
RTVSPost2010PropOp29
 70
     1
102
RTVSPost2010Prop30
280
     1
102
RTVSPost2010PropOp30
 70
     1
102
RTVSPost2010Prop31
280
     0
102
RTVSPost2010PropOp31
 70
     1
102
RTVSPost2010Prop32
280
     0
102
RTVSPost2010PropOp32
 70
     1
102
RTVSPost2010Prop33
280
     0
102
RTVSPost2010PropOp33
 70
     1
102
RTVSPost2010Prop34
280
     0
102
RTVSPost2010PropOp34
 70
     1
102
RTVSPost2010Prop35
280
     0
102
RTVSPost2010PropOp35
 70
     1
102
RTVSPost2010Prop36
280
     0
102
RTVSPost2010PropOp36
 70
     1
102
RTVSPost2010Prop37
 90
       50
102
RTVSPost2010PropOp37
 70
     1
102
RTVSPost2010Prop38
140
0.0
102
RTVSPost2010PropOp38
 70
     1
102
RTVSPost2010Prop39
140
1.0
102
RTVSPost2010PropOp39
 70
     1
102
RTVSPost2010Prop40
 90
        0
102
RTVSPost2010PropOp40
 70
     1
102
RTVSPost2010Prop41ColorIndex
 90
       18
102
RTVSPost2010Prop41ColorRGB
 90
        0
102
RTVSPost2010PropOp41
 70
     1
102
RTVSPost2010Prop42
 90
       50
102
RTVSPost2010PropOp42
 70
     1
102
RTVSPost2010Prop43
 90
        3
102
RTVSPost2010PropOp43
 70
     1
102
RTVSPost2010Prop44ColorIndex
 90
        5
102
RTVSPost2010Prop44ColorRGB
 90
      255
102
RTVSPost2010PropOp44
 70
     1
102
RTVSPost2010Prop45
280
     0
102
RTVSPost2010PropOp45
 70
     1
102
RTVSPost2010Prop46
 90
       50
102
RTVSPost2010PropOp46
 70
     1
102
RTVSPost2010Prop47
 90
       50
102
RTVSPost2010PropOp47
 70
     1
102
RTVSPost2010Prop48
 90
       50
102
RTVSPost2010PropOp48
 70
     1
102
RTVSPost2010Prop49
280
     0
102
RTVSPost2010PropOp49
 70
     1
102
RTVSPost2010Prop50
 90
       50
102
RTVSPost2010PropOp50
 70
     1
102
RTVSPost2010Prop51ColorIndex
 90
      256
102
RTVSPost2010Prop51ColorRGB
 90
-16777216
102
RTVSPost2010PropOp51
 70
     0
102
RTVSPost2010Prop52
140
1.0
102
RTVSPost2010PropOp52
 70
     0
102
RTVSPost2010Prop53
 90
        2
102
RTVSPost2010PropOp53
 70
     1
102
RTVSPost2010Prop54
  1
strokes_ogs.tif
102
RTVSPost2010PropOp54
 70
     1
102
RTVSPost2010Prop55
280
     0
102
RTVSPost2010PropOp55
 70
     1
102
RTVSPost2010Prop56
140
1.0
102
RTVSPost2010PropOp56
 70
     1
102
RTVSPost2010Prop57
140
1.0
102
RTVSPost2010PropOp57
 70
     1
102
RTVSPropertyOp0
 70
     1
102
RTVSPropertyOp1
 70
     1
102
RTVSPropertyOp2
 70
     1
102
RTVSPropertyOp3
 70
     1
102
RTVSPropertyOp4
 70
     1
102
RTVSPropertyOp5
 70
     1
102
RTVSPropertyOp6
 70
     1
102
RTVSPropertyOp7
 70
     1
102
RTVSPropertyOp8
 70
     1
102
RTVSPropertyOp9
 70
     1
102
RTVSPropertyOp10
 70
     1
102
RTVSPropertyOp11
 70
     1
102
RTVSPropertyOp12
 70
     1
102
RTVSPropertyOp13
 70
     1
102
RTVSPropertyOp14
 70
     1
102
RTVSPropertyOp15
 70
     1
102
RTVSPropertyOp16
 70
     1
102
RTVSPropertyOp17
 70
     1
102
RTVSPropertyOp18
 70
     1
102
RTVSPropertyOp19
 70
     1
102
RTVSPropertyOp20
 70
     1
102
RTVSPropertyOp21
 70
     1
102
RTVSPropertyOp22
 70
     1
102
RTVSPropertyOp23
 70
     1
102
RTVSPropertyOp24
 70
     1
102
RTVSPropertyOp25
 70
     1
102
RTVSPropertyOp26
 70
     1
102
RTVSPropertyOp27
 70
     1
102
RTVSPropertyOp28
 70
     1
102
RTVSPropertyOp29
 70
     1
102
RTVSPropertyOp30
 70
     1
102
RTVSPropertyOp31
 70
     1
102
RTVSPropertyOp32
 70
     1
102
RTVSPropertyOp33
 70
     1
102
RTVSPropertyOp34
 70
     1
102
RTVSPropertyOp35
 70
     1
102
RTVSPropertyOp36
 70
     1
102
RTVSPropertyOp37
 70
     1
102
RTVSPropertyOp38
 70
     1
102
RTVSPropertyOp39
 70
     1
102
RTVSPropertyOp40
 70
     1
102
RTVSPropertyOp41
 70
     1
102
RTVSPropertyOp42
 70
     1
102
RTVSPropertyOp43
 70
     1
102
RTVSPropertyOp44
 70
     1
102
RTVSPropertyOp45
 70
     1
102
RTVSPropertyOp46
 70
     1
102
RTVSPropertyOp47
 70
     1
102
RTVSPropertyOp48
 70
     1
102
RTVSPropertyOp49
 70
     1
102
RTVSPropertyOp50
 70
     1
102
RTVSPropertyOp51
 70
     0
102
RTVSPropertyOp52
 70
     0
102
RTVSPropertyOp53
 70
     1
102
RTVSPropertyOp54
 70
     1
102
RTVSPropertyOp55
 70
     1
102
RTVSPropertyOp56
 70
     1
102
RTVSPropertyOp57
 70
     1
102
RTVSPropertyOp58
 70
     1
102
RTVSPropertyOp59
 70
     1
102
RTVSPropertyOp60
 70
     1
102
RTVSPropertyOp61
 70
     1
102
RTVSPropertyOp62
 70
     1
  0
XRECORD
  5
A21
102
{ACAD_REACTORS
330
A20
102
}
330
A20
100
AcDbXrecord
280
     1
102
RTVSPost2010Prop28
280
     0
102
RTVSPost2010PropOp28
 70
     1
102
RTVSPost2010Prop29
280
     1
102
RTVSPost2010PropOp29
 70
     1
102
RTVSPost2010Prop30
280
     1
102
RTVSPost2010PropOp30
 70
     1
102
RTVSPost2010Prop31
280
     0
102
RTVSPost2010PropOp31
 70
     1
102
RTVSPost2010Prop32
280
     0
102
RTVSPost2010PropOp32
 70
     1
102
RTVSPost2010Prop33
280
     0
102
RTVSPost2010PropOp33
 70
     1
102
RTVSPost2010Prop34
280
     0
102
RTVSPost2010PropOp34
 70
     1
102
RTVSPost2010Prop35
280
     0
102
RTVSPost2010PropOp35
 70
     1
102
RTVSPost2010Prop36
280
     0
102
RTVSPost2010PropOp36
 70
     1
102
RTVSPost2010Prop37
 90
       50
102
RTVSPost2010PropOp37
 70
     1
102
RTVSPost2010Prop38
140
0.0
102
RTVSPost2010PropOp38
 70
     1
102
RTVSPost2010Prop39
140
1.0
102
RTVSPost2010PropOp39
 70
     1
102
RTVSPost2010Prop40
 90
        0
102
RTVSPost2010PropOp40
 70
     1
102
RTVSPost2010Prop41ColorIndex
 90
       18
102
RTVSPost2010Prop41ColorRGB
 90
        0
102
RTVSPost2010PropOp41
 70
     1
102
RTVSPost2010Prop42
 90
       50
102
RTVSPost2010PropOp42
 70
     1
102
RTVSPost2010Prop43
 90
        3
102
RTVSPost2010PropOp43
 70
     1
102
RTVSPost2010Prop44ColorIndex
 90
        5
102
RTVSPost2010Prop44ColorRGB
 90
      255
102
RTVSPost2010PropOp44
 70
     1
102
RTVSPost2010Prop45
280
     0
102
RTVSPost2010PropOp45
 70
     1
102
RTVSPost2010Prop46
 90
       50
102
RTVSPost2010PropOp46
 70
     1
102
RTVSPost2010Prop47
 90
       50
102
RTVSPost2010PropOp47
 70
     1
102
RTVSPost2010Prop48
 90
       50
102
RTVSPost2010PropOp48
 70
     1
102
RTVSPost2010Prop49
280
     0
102
RTVSPost2010PropOp49
 70
     1
102
RTVSPost2010Prop50
 90
       50
102
RTVSPost2010PropOp50
 70
     1
102
RTVSPost2010Prop51ColorIndex
 90
      256
102
RTVSPost2010Prop51ColorRGB
 90
-16777216
102
RTVSPost2010PropOp51
 70
     0
102
RTVSPost2010Prop52
140
1.0
102
RTVSPost2010PropOp52
 70
     0
102
RTVSPost2010Prop53
 90
        2
102
RTVSPost2010PropOp53
 70
     1
102
RTVSPost2010Prop54
  1
strokes_ogs.tif
102
RTVSPost2010PropOp54
 70
     1
102
RTVSPost2010Prop55
280
     0
102
RTVSPost2010PropOp55
 70
     1
102
RTVSPost2010Prop56
140
1.0
102
RTVSPost2010PropOp56
 70
     1
102
RTVSPost2010Prop57
140
1.0
102
RTVSPost2010PropOp57
 70
     1
102
RTVSPropertyOp0
 70
     1
102
RTVSPropertyOp1
 70
     1
102
RTVSPropertyOp2
 70
     1
102
RTVSPropertyOp3
 70
     1
102
RTVSPropertyOp4
 70
     1
102
RTVSPropertyOp5
 70
     1
102
RTVSPropertyOp6
 70
     1
102
RTVSPropertyOp7
 70
     1
102
RTVSPropertyOp8
 70
     1
102
RTVSPropertyOp9
 70
     1
102
RTVSPropertyOp10
 70
     1
102
RTVSPropertyOp11
 70
     1
102
RTVSPropertyOp12
 70
     1
102
RTVSPropertyOp13
 70
     1
102
RTVSPropertyOp14
 70
     1
102
RTVSPropertyOp15
 70
     1
102
RTVSPropertyOp16
 70
     1
102
RTVSPropertyOp17
 70
     1
102
RTVSPropertyOp18
 70
     1
102
RTVSPropertyOp19
 70
     1
102
RTVSPropertyOp20
 70
     1
102
RTVSPropertyOp21
 70
     1
102
RTVSPropertyOp22
 70
     1
102
RTVSPropertyOp23
 70
     1
102
RTVSPropertyOp24
 70
     1
102
RTVSPropertyOp25
 70
     1
102
RTVSPropertyOp26
 70
     1
102
RTVSPropertyOp27
 70
     1
102
RTVSPropertyOp28
 70
     1
102
RTVSPropertyOp29
 70
     1
102
RTVSPropertyOp30
 70
     1
102
RTVSPropertyOp31
 70
     1
102
RTVSPropertyOp32
 70
     1
102
RTVSPropertyOp33
 70
     1
102
RTVSPropertyOp34
 70
     1
102
RTVSPropertyOp35
 70
     1
102
RTVSPropertyOp36
 70
     1
102
RTVSPropertyOp37
 70
     1
102
RTVSPropertyOp38
 70
     1
102
RTVSPropertyOp39
 70
     1
102
RTVSPropertyOp40
 70
     1
102
RTVSPropertyOp41
 70
     1
102
RTVSPropertyOp42
 70
     1
102
RTVSPropertyOp43
 70
     1
102
RTVSPropertyOp44
 70
     1
102
RTVSPropertyOp45
 70
     1
102
RTVSPropertyOp46
 70
     1
102
RTVSPropertyOp47
 70
     1
102
RTVSPropertyOp48
 70
     1
102
RTVSPropertyOp49
 70
     1
102
RTVSPropertyOp50
 70
     1
102
RTVSPropertyOp51
 70
     0
102
RTVSPropertyOp52
 70
     0
102
RTVSPropertyOp53
 70
     1
102
RTVSPropertyOp54
 70
     1
102
RTVSPropertyOp55
 70
     1
102
RTVSPropertyOp56
 70
     1
102
RTVSPropertyOp57
 70
     1
102
RTVSPropertyOp58
 70
     1
102
RTVSPropertyOp59
 70
     1
102
RTVSPropertyOp60
 70
     1
102
RTVSPropertyOp61
 70
     1
102
RTVSPropertyOp62
 70
     1
  0
XRECORD
  5
A13
102
{ACAD_REACTORS
330
A12
102
}
330
A12
100
AcDbXrecord
280
     1
102
RTVSPost2010Prop28
280
     0
102
RTVSPost2010PropOp28
 70
     1
102
RTVSPost2010Prop29
280
     1
102
RTVSPost2010PropOp29
 70
     1
102
RTVSPost2010Prop30
280
     1
102
RTVSPost2010PropOp30
 70
     1
102
RTVSPost2010Prop31
280
     0
102
RTVSPost2010PropOp31
 70
     1
102
RTVSPost2010Prop32
280
     0
102
RTVSPost2010PropOp32
 70
     1
102
RTVSPost2010Prop33
280
     0
102
RTVSPost2010PropOp33
 70
     1
102
RTVSPost2010Prop34
280
     0
102
RTVSPost2010PropOp34
 70
     1
102
RTVSPost2010Prop35
280
     0
102
RTVSPost2010PropOp35
 70
     1
102
RTVSPost2010Prop36
280
     0
102
RTVSPost2010PropOp36
 70
     1
102
RTVSPost2010Prop37
 90
       50
102
RTVSPost2010PropOp37
 70
     1
102
RTVSPost2010Prop38
140
0.0
102
RTVSPost2010PropOp38
 70
     1
102
RTVSPost2010Prop39
140
1.0
102
RTVSPost2010PropOp39
 70
     1
102
RTVSPost2010Prop40
 90
        0
102
RTVSPost2010PropOp40
 70
     1
102
RTVSPost2010Prop41ColorIndex
 90
       18
102
RTVSPost2010Prop41ColorRGB
 90
        0
102
RTVSPost2010PropOp41
 70
     1
102
RTVSPost2010Prop42
 90
       50
102
RTVSPost2010PropOp42
 70
     1
102
RTVSPost2010Prop43
 90
        3
102
RTVSPost2010PropOp43
 70
     1
102
RTVSPost2010Prop44ColorIndex
 90
        5
102
RTVSPost2010Prop44ColorRGB
 90
      255
102
RTVSPost2010PropOp44
 70
     1
102
RTVSPost2010Prop45
280
     0
102
RTVSPost2010PropOp45
 70
     1
102
RTVSPost2010Prop46
 90
       50
102
RTVSPost2010PropOp46
 70
     1
102
RTVSPost2010Prop47
 90
       50
102
RTVSPost2010PropOp47
 70
     1
102
RTVSPost2010Prop48
 90
       50
102
RTVSPost2010PropOp48
 70
     1
102
RTVSPost2010Prop49
280
     0
102
RTVSPost2010PropOp49
 70
     1
102
RTVSPost2010Prop50
 90
       50
102
RTVSPost2010PropOp50
 70
     1
102
RTVSPost2010Prop51ColorIndex
 90
      256
102
RTVSPost2010Prop51ColorRGB
 90
-16777216
102
RTVSPost2010PropOp51
 70
     0
102
RTVSPost2010Prop52
140
1.0
102
RTVSPost2010PropOp52
 70
     0
102
RTVSPost2010Prop53
 90
        2
102
RTVSPost2010PropOp53
 70
     1
102
RTVSPost2010Prop54
  1
strokes_ogs.tif
102
RTVSPost2010PropOp54
 70
     1
102
RTVSPost2010Prop55
280
     0
102
RTVSPost2010PropOp55
 70
     1
102
RTVSPost2010Prop56
140
1.0
102
RTVSPost2010PropOp56
 70
     1
102
RTVSPost2010Prop57
140
1.0
102
RTVSPost2010PropOp57
 70
     1
102
RTVSPropertyOp0
 70
     1
102
RTVSPropertyOp1
 70
     1
102
RTVSPropertyOp2
 70
     1
102
RTVSPropertyOp3
 70
     1
102
RTVSPropertyOp4
 70
     1
102
RTVSPropertyOp5
 70
     1
102
RTVSPropertyOp6
 70
     1
102
RTVSPropertyOp7
 70
     1
102
RTVSPropertyOp8
 70
     1
102
RTVSPropertyOp9
 70
     1
102
RTVSPropertyOp10
 70
     1
102
RTVSPropertyOp11
 70
     1
102
RTVSPropertyOp12
 70
     1
102
RTVSPropertyOp13
 70
     1
102
RTVSPropertyOp14
 70
     1
102
RTVSPropertyOp15
 70
     1
102
RTVSPropertyOp16
 70
     1
102
RTVSPropertyOp17
 70
     1
102
RTVSPropertyOp18
 70
     1
102
RTVSPropertyOp19
 70
     1
102
RTVSPropertyOp20
 70
     1
102
RTVSPropertyOp21
 70
     1
102
RTVSPropertyOp22
 70
     1
102
RTVSPropertyOp23
 70
     1
102
RTVSPropertyOp24
 70
     1
102
RTVSPropertyOp25
 70
     1
102
RTVSPropertyOp26
 70
     1
102
RTVSPropertyOp27
 70
     1
102
RTVSPropertyOp28
 70
     1
102
RTVSPropertyOp29
 70
     1
102
RTVSPropertyOp30
 70
     1
102
RTVSPropertyOp31
 70
     1
102
RTVSPropertyOp32
 70
     1
102
RTVSPropertyOp33
 70
     1
102
RTVSPropertyOp34
 70
     1
102
RTVSPropertyOp35
 70
     1
102
RTVSPropertyOp36
 70
     1
102
RTVSPropertyOp37
 70
     1
102
RTVSPropertyOp38
 70
     1
102
RTVSPropertyOp39
 70
     1
102
RTVSPropertyOp40
 70
     1
102
RTVSPropertyOp41
 70
     1
102
RTVSPropertyOp42
 70
     1
102
RTVSPropertyOp43
 70
     1
102
RTVSPropertyOp44
 70
     1
102
RTVSPropertyOp45
 70
     1
102
RTVSPropertyOp46
 70
     1
102
RTVSPropertyOp47
 70
     1
102
RTVSPropertyOp48
 70
     1
102
RTVSPropertyOp49
 70
     1
102
RTVSPropertyOp50
 70
     1
102
RTVSPropertyOp51
 70
     0
102
RTVSPropertyOp52
 70
     0
102
RTVSPropertyOp53
 70
     1
102
RTVSPropertyOp54
 70
     1
102
RTVSPropertyOp55
 70
     1
102
RTVSPropertyOp56
 70
     1
102
RTVSPropertyOp57
 70
     1
102
RTVSPropertyOp58
 70
     1
102
RTVSPropertyOp59
 70
     1
102
RTVSPropertyOp60
 70
     1
102
RTVSPropertyOp61
 70
     1
102
RTVSPropertyOp62
 70
     1
  0
XRECORD
  5
A17
102
{ACAD_REACTORS
330
A16
102
}
330
A16
100
AcDbXrecord
280
     1
102
RTVSPost2010Prop28
280
     0
102
RTVSPost2010PropOp28
 70
     1
102
RTVSPost2010Prop29
280
     1
102
RTVSPost2010PropOp29
 70
     1
102
RTVSPost2010Prop30
280
     1
102
RTVSPost2010PropOp30
 70
     1
102
RTVSPost2010Prop31
280
     0
102
RTVSPost2010PropOp31
 70
     1
102
RTVSPost2010Prop32
280
     0
102
RTVSPost2010PropOp32
 70
     1
102
RTVSPost2010Prop33
280
     0
102
RTVSPost2010PropOp33
 70
     1
102
RTVSPost2010Prop34
280
     0
102
RTVSPost2010PropOp34
 70
     1
102
RTVSPost2010Prop35
280
     0
102
RTVSPost2010PropOp35
 70
     1
102
RTVSPost2010Prop36
280
     0
102
RTVSPost2010PropOp36
 70
     1
102
RTVSPost2010Prop37
 90
       50
102
RTVSPost2010PropOp37
 70
     1
102
RTVSPost2010Prop38
140
0.0
102
RTVSPost2010PropOp38
 70
     1
102
RTVSPost2010Prop39
140
1.0
102
RTVSPost2010PropOp39
 70
     1
102
RTVSPost2010Prop40
 90
        0
102
RTVSPost2010PropOp40
 70
     1
102
RTVSPost2010Prop41ColorIndex
 90
       18
102
RTVSPost2010Prop41ColorRGB
 90
        0
102
RTVSPost2010PropOp41
 70
     1
102
RTVSPost2010Prop42
 90
       50
102
RTVSPost2010PropOp42
 70
     1
102
RTVSPost2010Prop43
 90
        3
102
RTVSPost2010PropOp43
 70
     1
102
RTVSPost2010Prop44ColorIndex
 90
        5
102
RTVSPost2010Prop44ColorRGB
 90
      255
102
RTVSPost2010PropOp44
 70
     1
102
RTVSPost2010Prop45
280
     0
102
RTVSPost2010PropOp45
 70
     1
102
RTVSPost2010Prop46
 90
       50
102
RTVSPost2010PropOp46
 70
     1
102
RTVSPost2010Prop47
 90
       50
102
RTVSPost2010PropOp47
 70
     1
102
RTVSPost2010Prop48
 90
       50
102
RTVSPost2010PropOp48
 70
     1
102
RTVSPost2010Prop49
280
     0
102
RTVSPost2010PropOp49
 70
     1
102
RTVSPost2010Prop50
 90
       50
102
RTVSPost2010PropOp50
 70
     1
102
RTVSPost2010Prop51ColorIndex
 90
      256
102
RTVSPost2010Prop51ColorRGB
 90
-16777216
102
RTVSPost2010PropOp51
 70
     0
102
RTVSPost2010Prop52
140
1.0
102
RTVSPost2010PropOp52
 70
     0
102
RTVSPost2010Prop53
 90
        2
102
RTVSPost2010PropOp53
 70
     1
102
RTVSPost2010Prop54
  1
strokes_ogs.tif
102
RTVSPost2010PropOp54
 70
     1
102
RTVSPost2010Prop55
280
     0
102
RTVSPost2010PropOp55
 70
     1
102
RTVSPost2010Prop56
140
1.0
102
RTVSPost2010PropOp56
 70
     1
102
RTVSPost2010Prop57
140
1.0
102
RTVSPost2010PropOp57
 70
     1
102
RTVSPropertyOp0
 70
     1
102
RTVSPropertyOp1
 70
     1
102
RTVSPropertyOp2
 70
     1
102
RTVSPropertyOp3
 70
     1
102
RTVSPropertyOp4
 70
     1
102
RTVSPropertyOp5
 70
     1
102
RTVSPropertyOp6
 70
     1
102
RTVSPropertyOp7
 70
     1
102
RTVSPropertyOp8
 70
     1
102
RTVSPropertyOp9
 70
     1
102
RTVSPropertyOp10
 70
     1
102
RTVSPropertyOp11
 70
     1
102
RTVSPropertyOp12
 70
     1
102
RTVSPropertyOp13
 70
     1
102
RTVSPropertyOp14
 70
     1
102
RTVSPropertyOp15
 70
     1
102
RTVSPropertyOp16
 70
     1
102
RTVSPropertyOp17
 70
     1
102
RTVSPropertyOp18
 70
     1
102
RTVSPropertyOp19
 70
     1
102
RTVSPropertyOp20
 70
     1
102
RTVSPropertyOp21
 70
     1
102
RTVSPropertyOp22
 70
     1
102
RTVSPropertyOp23
 70
     1
102
RTVSPropertyOp24
 70
     1
102
RTVSPropertyOp25
 70
     1
102
RTVSPropertyOp26
 70
     1
102
RTVSPropertyOp27
 70
     1
102
RTVSPropertyOp28
 70
     1
102
RTVSPropertyOp29
 70
     1
102
RTVSPropertyOp30
 70
     1
102
RTVSPropertyOp31
 70
     1
102
RTVSPropertyOp32
 70
     1
102
RTVSPropertyOp33
 70
     1
102
RTVSPropertyOp34
 70
     1
102
RTVSPropertyOp35
 70
     1
102
RTVSPropertyOp36
 70
     1
102
RTVSPropertyOp37
 70
     1
102
RTVSPropertyOp38
 70
     1
102
RTVSPropertyOp39
 70
     1
102
RTVSPropertyOp40
 70
     1
102
RTVSPropertyOp41
 70
     1
102
RTVSPropertyOp42
 70
     1
102
RTVSPropertyOp43
 70
     1
102
RTVSPropertyOp44
 70
     1
102
RTVSPropertyOp45
 70
     1
102
RTVSPropertyOp46
 70
     1
102
RTVSPropertyOp47
 70
     1
102
RTVSPropertyOp48
 70
     1
102
RTVSPropertyOp49
 70
     1
102
RTVSPropertyOp50
 70
     1
102
RTVSPropertyOp51
 70
     0
102
RTVSPropertyOp52
 70
     0
102
RTVSPropertyOp53
 70
     1
102
RTVSPropertyOp54
 70
     1
102
RTVSPropertyOp55
 70
     1
102
RTVSPropertyOp56
 70
     1
102
RTVSPropertyOp57
 70
     1
102
RTVSPropertyOp58
 70
     1
102
RTVSPropertyOp59
 70
     1
102
RTVSPropertyOp60
 70
     1
102
RTVSPropertyOp61
 70
     1
102
RTVSPropertyOp62
 70
     1
  0
XRECORD
  5
A31
102
{ACAD_REACTORS
330
A30
102
}
330
A30
100
AcDbXrecord
280
     1
102
RTVSPost2010Prop28
280
     0
102
RTVSPost2010PropOp28
 70
     1
102
RTVSPost2010Prop29
280
     1
102
RTVSPost2010PropOp29
 70
     1
102
RTVSPost2010Prop30
280
     1
102
RTVSPost2010PropOp30
 70
     1
102
RTVSPost2010Prop31
280
     0
102
RTVSPost2010PropOp31
 70
     1
102
RTVSPost2010Prop32
280
     0
102
RTVSPost2010PropOp32
 70
     1
102
RTVSPost2010Prop33
280
     0
102
RTVSPost2010PropOp33
 70
     1
102
RTVSPost2010Prop34
280
     0
102
RTVSPost2010PropOp34
 70
     1
102
RTVSPost2010Prop35
280
     0
102
RTVSPost2010PropOp35
 70
     1
102
RTVSPost2010Prop36
280
     0
102
RTVSPost2010PropOp36
 70
     1
102
RTVSPost2010Prop37
 90
       50
102
RTVSPost2010PropOp37
 70
     0
102
RTVSPost2010Prop38
140
0.0
102
RTVSPost2010PropOp38
 70
     0
102
RTVSPost2010Prop39
140
1.0
102
RTVSPost2010PropOp39
 70
     0
102
RTVSPost2010Prop40
 90
        0
102
RTVSPost2010PropOp40
 70
     0
102
RTVSPost2010Prop41ColorIndex
 90
       18
102
RTVSPost2010Prop41ColorRGB
 90
        0
102
RTVSPost2010PropOp41
 70
     0
102
RTVSPost2010Prop42
 90
       50
102
RTVSPost2010PropOp42
 70
     0
102
RTVSPost2010Prop43
 90
        3
102
RTVSPost2010PropOp43
 70
     0
102
RTVSPost2010Prop44ColorIndex
 90
        5
102
RTVSPost2010Prop44ColorRGB
 90
      255
102
RTVSPost2010PropOp44
 70
     0
102
RTVSPost2010Prop45
280
     0
102
RTVSPost2010PropOp45
 70
     1
102
RTVSPost2010Prop46
 90
       50
102
RTVSPost2010PropOp46
 70
     0
102
RTVSPost2010Prop47
 90
       50
102
RTVSPost2010PropOp47
 70
     0
102
RTVSPost2010Prop48
 90
       50
102
RTVSPost2010PropOp48
 70
     0
102
RTVSPost2010Prop49
280
     0
102
RTVSPost2010PropOp49
 70
     1
102
RTVSPost2010Prop50
 90
       50
102
RTVSPost2010PropOp50
 70
     0
102
RTVSPost2010Prop51ColorIndex
 90
      256
102
RTVSPost2010Prop51ColorRGB
 90
-16777216
102
RTVSPost2010PropOp51
 70
     0
102
RTVSPost2010Prop52
140
1.0
102
RTVSPost2010PropOp52
 70
     0
102
RTVSPost2010Prop53
 90
        2
102
RTVSPost2010PropOp53
 70
     0
102
RTVSPost2010Prop54
  1
strokes_ogs.tif
102
RTVSPost2010PropOp54
 70
     0
102
RTVSPost2010Prop55
280
     0
102
RTVSPost2010PropOp55
 70
     1
102
RTVSPost2010Prop56
140
1.0
102
RTVSPost2010PropOp56
 70
     0
102
RTVSPost2010Prop57
140
1.0
102
RTVSPost2010PropOp57
 70
     0
102
RTVSPropertyOp0
 70
     0
102
RTVSPropertyOp1
 70
     0
102
RTVSPropertyOp2
 70
     0
102
RTVSPropertyOp3
 70
     0
102
RTVSPropertyOp4
 70
     0
102
RTVSPropertyOp5
 70
     0
102
RTVSPropertyOp6
 70
     0
102
RTVSPropertyOp7
 70
     0
102
RTVSPropertyOp8
 70
     0
102
RTVSPropertyOp9
 70
     0
102
RTVSPropertyOp10
 70
     0
102
RTVSPropertyOp11
 70
     0
102
RTVSPropertyOp12
 70
     0
102
RTVSPropertyOp13
 70
     0
102
RTVSPropertyOp14
 70
     2
102
RTVSPropertyOp15
 70
     0
102
RTVSPropertyOp16
 70
     0
102
RTVSPropertyOp17
 70
     0
102
RTVSPropertyOp18
 70
     0
102
RTVSPropertyOp19
 70
     0
102
RTVSPropertyOp20
 70
     0
102
RTVSPropertyOp21
 70
     0
102
RTVSPropertyOp22
 70
     0
102
RTVSPropertyOp23
 70
     0
102
RTVSPropertyOp24
 70
     0
102
RTVSPropertyOp25
 70
     0
102
RTVSPropertyOp26
 70
     0
102
RTVSPropertyOp27
 70
     0
102
RTVSPropertyOp28
 70
     1
102
RTVSPropertyOp29
 70
     1
102
RTVSPropertyOp30
 70
     1
102
RTVSPropertyOp31
 70
     1
102
RTVSPropertyOp32
 70
     1
102
RTVSPropertyOp33
 70
     1
102
RTVSPropertyOp34
 70
     1
102
RTVSPropertyOp35
 70
     1
102
RTVSPropertyOp36
 70
     1
102
RTVSPropertyOp37
 70
     0
102
RTVSPropertyOp38
 70
     0
102
RTVSPropertyOp39
 70
     0
102
RTVSPropertyOp40
 70
     0
102
RTVSPropertyOp41
 70
     0
102
RTVSPropertyOp42
 70
     0
102
RTVSPropertyOp43
 70
     0
102
RTVSPropertyOp44
 70
     0
102
RTVSPropertyOp45
 70
     1
102
RTVSPropertyOp46
 70
     0
102
RTVSPropertyOp47
 70
     0
102
RTVSPropertyOp48
 70
     0
102
RTVSPropertyOp49
 70
     1
102
RTVSPropertyOp50
 70
     0
102
RTVSPropertyOp51
 70
     0
102
RTVSPropertyOp52
 70
     0
102
RTVSPropertyOp53
 70
     0
102
RTVSPropertyOp54
 70
     0
102
RTVSPropertyOp55
 70
     1
102
RTVSPropertyOp56
 70
     0
102
RTVSPropertyOp57
 70
     0
102
RTVSPropertyOp58
 70
     0
102
RTVSPropertyOp59
 70
     0
102
RTVSPropertyOp60
 70
     0
102
RTVSPropertyOp61
 70
     0
102
RTVSPropertyOp62
 70
     0
  0
XRECORD
  5
A1F
102
{ACAD_REACTORS
330
A1E
102
}
330
A1E
100
AcDbXrecord
280
     1
102
RTVSPost2010Prop28
280
     0
102
RTVSPost2010PropOp28
 70
     1
102
RTVSPost2010Prop29
280
     1
102
RTVSPost2010PropOp29
 70
     1
102
RTVSPost2010Prop30
280
     1
102
RTVSPost2010PropOp30
 70
     1
102
RTVSPost2010Prop31
280
     0
102
RTVSPost2010PropOp31
 70
     1
102
RTVSPost2010Prop32
280
     0
102
RTVSPost2010PropOp32
 70
     1
102
RTVSPost2010Prop33
280
     0
102
RTVSPost2010PropOp33
 70
     1
102
RTVSPost2010Prop34
280
     0
102
RTVSPost2010PropOp34
 70
     1
102
RTVSPost2010Prop35
280
     0
102
RTVSPost2010PropOp35
 70
     1
102
RTVSPost2010Prop36
280
     0
102
RTVSPost2010PropOp36
 70
     1
102
RTVSPost2010Prop37
 90
       50
102
RTVSPost2010PropOp37
 70
     1
102
RTVSPost2010Prop38
140
0.0
102
RTVSPost2010PropOp38
 70
     1
102
RTVSPost2010Prop39
140
1.0
102
RTVSPost2010PropOp39
 70
     1
102
RTVSPost2010Prop40
 90
        0
102
RTVSPost2010PropOp40
 70
     1
102
RTVSPost2010Prop41ColorIndex
 90
       18
102
RTVSPost2010Prop41ColorRGB
 90
        0
102
RTVSPost2010PropOp41
 70
     1
102
RTVSPost2010Prop42
 90
       50
102
RTVSPost2010PropOp42
 70
     1
102
RTVSPost2010Prop43
 90
        3
102
RTVSPost2010PropOp43
 70
     1
102
RTVSPost2010Prop44ColorIndex
 90
        5
102
RTVSPost2010Prop44ColorRGB
 90
      255
102
RTVSPost2010PropOp44
 70
     1
102
RTVSPost2010Prop45
280
     0
102
RTVSPost2010PropOp45
 70
     1
102
RTVSPost2010Prop46
 90
       50
102
RTVSPost2010PropOp46
 70
     1
102
RTVSPost2010Prop47
 90
       50
102
RTVSPost2010PropOp47
 70
     1
102
RTVSPost2010Prop48
 90
       50
102
RTVSPost2010PropOp48
 70
     1
102
RTVSPost2010Prop49
280
     0
102
RTVSPost2010PropOp49
 70
     1
102
RTVSPost2010Prop50
 90
       50
102
RTVSPost2010PropOp50
 70
     1
102
RTVSPost2010Prop51ColorIndex
 90
      256
102
RTVSPost2010Prop51ColorRGB
 90
-16777216
102
RTVSPost2010PropOp51
 70
     0
102
RTVSPost2010Prop52
140
1.0
102
RTVSPost2010PropOp52
 70
     0
102
RTVSPost2010Prop53
 90
        2
102
RTVSPost2010PropOp53
 70
     1
102
RTVSPost2010Prop54
  1
strokes_ogs.tif
102
RTVSPost2010PropOp54
 70
     1
102
RTVSPost2010Prop55
280
     0
102
RTVSPost2010PropOp55
 70
     1
102
RTVSPost2010Prop56
140
1.0
102
RTVSPost2010PropOp56
 70
     1
102
RTVSPost2010Prop57
140
1.0
102
RTVSPost2010PropOp57
 70
     1
102
RTVSPropertyOp0
 70
     1
102
RTVSPropertyOp1
 70
     1
102
RTVSPropertyOp2
 70
     1
102
RTVSPropertyOp3
 70
     1
102
RTVSPropertyOp4
 70
     1
102
RTVSPropertyOp5
 70
     1
102
RTVSPropertyOp6
 70
     1
102
RTVSPropertyOp7
 70
     1
102
RTVSPropertyOp8
 70
     1
102
RTVSPropertyOp9
 70
     1
102
RTVSPropertyOp10
 70
     1
102
RTVSPropertyOp11
 70
     1
102
RTVSPropertyOp12
 70
     1
102
RTVSPropertyOp13
 70
     1
102
RTVSPropertyOp14
 70
     1
102
RTVSPropertyOp15
 70
     1
102
RTVSPropertyOp16
 70
     1
102
RTVSPropertyOp17
 70
     1
102
RTVSPropertyOp18
 70
     1
102
RTVSPropertyOp19
 70
     1
102
RTVSPropertyOp20
 70
     1
102
RTVSPropertyOp21
 70
     1
102
RTVSPropertyOp22
 70
     1
102
RTVSPropertyOp23
 70
     1
102
RTVSPropertyOp24
 70
     1
102
RTVSPropertyOp25
 70
     1
102
RTVSPropertyOp26
 70
     1
102
RTVSPropertyOp27
 70
     1
102
RTVSPropertyOp28
 70
     1
102
RTVSPropertyOp29
 70
     1
102
RTVSPropertyOp30
 70
     1
102
RTVSPropertyOp31
 70
     1
102
RTVSPropertyOp32
 70
     1
102
RTVSPropertyOp33
 70
     1
102
RTVSPropertyOp34
 70
     1
102
RTVSPropertyOp35
 70
     1
102
RTVSPropertyOp36
 70
     1
102
RTVSPropertyOp37
 70
     1
102
RTVSPropertyOp38
 70
     1
102
RTVSPropertyOp39
 70
     1
102
RTVSPropertyOp40
 70
     1
102
RTVSPropertyOp41
 70
     1
102
RTVSPropertyOp42
 70
     1
102
RTVSPropertyOp43
 70
     1
102
RTVSPropertyOp44
 70
     1
102
RTVSPropertyOp45
 70
     1
102
RTVSPropertyOp46
 70
     1
102
RTVSPropertyOp47
 70
     1
102
RTVSPropertyOp48
 70
     1
102
RTVSPropertyOp49
 70
     1
102
RTVSPropertyOp50
 70
     1
102
RTVSPropertyOp51
 70
     0
102
RTVSPropertyOp52
 70
     0
102
RTVSPropertyOp53
 70
     1
102
RTVSPropertyOp54
 70
     1
102
RTVSPropertyOp55
 70
     1
102
RTVSPropertyOp56
 70
     1
102
RTVSPropertyOp57
 70
     1
102
RTVSPropertyOp58
 70
     1
102
RTVSPropertyOp59
 70
     1
102
RTVSPropertyOp60
 70
     1
102
RTVSPropertyOp61
 70
     1
102
RTVSPropertyOp62
 70
     1
  0
XRECORD
  5
A03
102
{ACAD_REACTORS
330
A02
102
}
330
A02
100
AcDbXrecord
280
     1
102
RTVSPost2010Prop28
280
     0
102
RTVSPost2010PropOp28
 70
     1
102
RTVSPost2010Prop29
280
     1
102
RTVSPost2010PropOp29
 70
     1
102
RTVSPost2010Prop30
280
     1
102
RTVSPost2010PropOp30
 70
     1
102
RTVSPost2010Prop31
280
     0
102
RTVSPost2010PropOp31
 70
     1
102
RTVSPost2010Prop32
280
     0
102
RTVSPost2010PropOp32
 70
     1
102
RTVSPost2010Prop33
280
     0
102
RTVSPost2010PropOp33
 70
     1
102
RTVSPost2010Prop34
280
     0
102
RTVSPost2010PropOp34
 70
     1
102
RTVSPost2010Prop35
280
     0
102
RTVSPost2010PropOp35
 70
     1
102
RTVSPost2010Prop36
280
     0
102
RTVSPost2010PropOp36
 70
     1
102
RTVSPost2010Prop37
 90
       50
102
RTVSPost2010PropOp37
 70
     1
102
RTVSPost2010Prop38
140
0.0
102
RTVSPost2010PropOp38
 70
     1
102
RTVSPost2010Prop39
140
1.0
102
RTVSPost2010PropOp39
 70
     1
102
RTVSPost2010Prop40
 90
        0
102
RTVSPost2010PropOp40
 70
     1
102
RTVSPost2010Prop41ColorIndex
 90
       18
102
RTVSPost2010Prop41ColorRGB
 90
        0
102
RTVSPost2010PropOp41
 70
     1
102
RTVSPost2010Prop42
 90
       50
102
RTVSPost2010PropOp42
 70
     1
102
RTVSPost2010Prop43
 90
        3
102
RTVSPost2010PropOp43
 70
     1
102
RTVSPost2010Prop44ColorIndex
 90
        5
102
RTVSPost2010Prop44ColorRGB
 90
      255
102
RTVSPost2010PropOp44
 70
     1
102
RTVSPost2010Prop45
280
     0
102
RTVSPost2010PropOp45
 70
     1
102
RTVSPost2010Prop46
 90
       50
102
RTVSPost2010PropOp46
 70
     1
102
RTVSPost2010Prop47
 90
       50
102
RTVSPost2010PropOp47
 70
     1
102
RTVSPost2010Prop48
 90
       50
102
RTVSPost2010PropOp48
 70
     1
102
RTVSPost2010Prop49
280
     0
102
RTVSPost2010PropOp49
 70
     1
102
RTVSPost2010Prop50
 90
       50
102
RTVSPost2010PropOp50
 70
     1
102
RTVSPost2010Prop51ColorIndex
 90
      256
102
RTVSPost2010Prop51ColorRGB
 90
-16777216
102
RTVSPost2010PropOp51
 70
     0
102
RTVSPost2010Prop52
140
1.0
102
RTVSPost2010PropOp52
 70
     0
102
RTVSPost2010Prop53
 90
        2
102
RTVSPost2010PropOp53
 70
     1
102
RTVSPost2010Prop54
  1
strokes_ogs.tif
102
RTVSPost2010PropOp54
 70
     1
102
RTVSPost2010Prop55
280
     0
102
RTVSPost2010PropOp55
 70
     1
102
RTVSPost2010Prop56
140
1.0
102
RTVSPost2010PropOp56
 70
     1
102
RTVSPost2010Prop57
140
1.0
102
RTVSPost2010PropOp57
 70
     1
102
RTVSPropertyOp0
 70
     1
102
RTVSPropertyOp1
 70
     1
102
RTVSPropertyOp2
 70
     1
102
RTVSPropertyOp3
 70
     1
102
RTVSPropertyOp4
 70
     1
102
RTVSPropertyOp5
 70
     1
102
RTVSPropertyOp6
 70
     1
102
RTVSPropertyOp7
 70
     1
102
RTVSPropertyOp8
 70
     1
102
RTVSPropertyOp9
 70
     1
102
RTVSPropertyOp10
 70
     1
102
RTVSPropertyOp11
 70
     1
102
RTVSPropertyOp12
 70
     1
102
RTVSPropertyOp13
 70
     1
102
RTVSPropertyOp14
 70
     1
102
RTVSPropertyOp15
 70
     1
102
RTVSPropertyOp16
 70
     1
102
RTVSPropertyOp17
 70
     1
102
RTVSPropertyOp18
 70
     1
102
RTVSPropertyOp19
 70
     1
102
RTVSPropertyOp20
 70
     1
102
RTVSPropertyOp21
 70
     1
102
RTVSPropertyOp22
 70
     1
102
RTVSPropertyOp23
 70
     1
102
RTVSPropertyOp24
 70
     1
102
RTVSPropertyOp25
 70
     1
102
RTVSPropertyOp26
 70
     1
102
RTVSPropertyOp27
 70
     1
102
RTVSPropertyOp28
 70
     1
102
RTVSPropertyOp29
 70
     1
102
RTVSPropertyOp30
 70
     1
102
RTVSPropertyOp31
 70
     1
102
RTVSPropertyOp32
 70
     1
102
RTVSPropertyOp33
 70
     1
102
RTVSPropertyOp34
 70
     1
102
RTVSPropertyOp35
 70
     1
102
RTVSPropertyOp36
 70
     1
102
RTVSPropertyOp37
 70
     1
102
RTVSPropertyOp38
 70
     1
102
RTVSPropertyOp39
 70
     1
102
RTVSPropertyOp40
 70
     1
102
RTVSPropertyOp41
 70
     1
102
RTVSPropertyOp42
 70
     1
102
RTVSPropertyOp43
 70
     1
102
RTVSPropertyOp44
 70
     1
102
RTVSPropertyOp45
 70
     1
102
RTVSPropertyOp46
 70
     1
102
RTVSPropertyOp47
 70
     1
102
RTVSPropertyOp48
 70
     1
102
RTVSPropertyOp49
 70
     1
102
RTVSPropertyOp50
 70
     1
102
RTVSPropertyOp51
 70
     0
102
RTVSPropertyOp52
 70
     0
102
RTVSPropertyOp53
 70
     1
102
RTVSPropertyOp54
 70
     1
102
RTVSPropertyOp55
 70
     1
102
RTVSPropertyOp56
 70
     1
102
RTVSPropertyOp57
 70
     1
102
RTVSPropertyOp58
 70
     1
102
RTVSPropertyOp59
 70
     1
102
RTVSPropertyOp60
 70
     1
102
RTVSPropertyOp61
 70
     1
102
RTVSPropertyOp62
 70
     1
  0
XRECORD
  5
A05
102
{ACAD_REACTORS
330
A04
102
}
330
A04
100
AcDbXrecord
280
     1
102
RTVSPost2010Prop28
280
     0
102
RTVSPost2010PropOp28
 70
     1
102
RTVSPost2010Prop29
280
     1
102
RTVSPost2010PropOp29
 70
     1
102
RTVSPost2010Prop30
280
     1
102
RTVSPost2010PropOp30
 70
     1
102
RTVSPost2010Prop31
280
     0
102
RTVSPost2010PropOp31
 70
     1
102
RTVSPost2010Prop32
280
     0
102
RTVSPost2010PropOp32
 70
     1
102
RTVSPost2010Prop33
280
     0
102
RTVSPost2010PropOp33
 70
     1
102
RTVSPost2010Prop34
280
     0
102
RTVSPost2010PropOp34
 70
     1
102
RTVSPost2010Prop35
280
     0
102
RTVSPost2010PropOp35
 70
     1
102
RTVSPost2010Prop36
280
     0
102
RTVSPost2010PropOp36
 70
     1
102
RTVSPost2010Prop37
 90
       50
102
RTVSPost2010PropOp37
 70
     1
102
RTVSPost2010Prop38
140
0.0
102
RTVSPost2010PropOp38
 70
     1
102
RTVSPost2010Prop39
140
1.0
102
RTVSPost2010PropOp39
 70
     1
102
RTVSPost2010Prop40
 90
        0
102
RTVSPost2010PropOp40
 70
     1
102
RTVSPost2010Prop41ColorIndex
 90
       18
102
RTVSPost2010Prop41ColorRGB
 90
        0
102
RTVSPost2010PropOp41
 70
     1
102
RTVSPost2010Prop42
 90
       50
102
RTVSPost2010PropOp42
 70
     1
102
RTVSPost2010Prop43
 90
        3
102
RTVSPost2010PropOp43
 70
     1
102
RTVSPost2010Prop44ColorIndex
 90
        5
102
RTVSPost2010Prop44ColorRGB
 90
      255
102
RTVSPost2010PropOp44
 70
     1
102
RTVSPost2010Prop45
280
     0
102
RTVSPost2010PropOp45
 70
     1
102
RTVSPost2010Prop46
 90
       50
102
RTVSPost2010PropOp46
 70
     1
102
RTVSPost2010Prop47
 90
       50
102
RTVSPost2010PropOp47
 70
     1
102
RTVSPost2010Prop48
 90
       50
102
RTVSPost2010PropOp48
 70
     1
102
RTVSPost2010Prop49
280
     0
102
RTVSPost2010PropOp49
 70
     1
102
RTVSPost2010Prop50
 90
       50
102
RTVSPost2010PropOp50
 70
     1
102
RTVSPost2010Prop51ColorIndex
 90
      256
102
RTVSPost2010Prop51ColorRGB
 90
-16777216
102
RTVSPost2010PropOp51
 70
     0
102
RTVSPost2010Prop52
140
1.0
102
RTVSPost2010PropOp52
 70
     0
102
RTVSPost2010Prop53
 90
        2
102
RTVSPost2010PropOp53
 70
     1
102
RTVSPost2010Prop54
  1
strokes_ogs.tif
102
RTVSPost2010PropOp54
 70
     1
102
RTVSPost2010Prop55
280
     0
102
RTVSPost2010PropOp55
 70
     1
102
RTVSPost2010Prop56
140
1.0
102
RTVSPost2010PropOp56
 70
     1
102
RTVSPost2010Prop57
140
1.0
102
RTVSPost2010PropOp57
 70
     1
102
RTVSPropertyOp0
 70
     1
102
RTVSPropertyOp1
 70
     1
102
RTVSPropertyOp2
 70
     1
102
RTVSPropertyOp3
 70
     1
102
RTVSPropertyOp4
 70
     1
102
RTVSPropertyOp5
 70
     1
102
RTVSPropertyOp6
 70
     1
102
RTVSPropertyOp7
 70
     1
102
RTVSPropertyOp8
 70
     1
102
RTVSPropertyOp9
 70
     1
102
RTVSPropertyOp10
 70
     1
102
RTVSPropertyOp11
 70
     1
102
RTVSPropertyOp12
 70
     1
102
RTVSPropertyOp13
 70
     1
102
RTVSPropertyOp14
 70
     1
102
RTVSPropertyOp15
 70
     1
102
RTVSPropertyOp16
 70
     1
102
RTVSPropertyOp17
 70
     1
102
RTVSPropertyOp18
 70
     1
102
RTVSPropertyOp19
 70
     1
102
RTVSPropertyOp20
 70
     1
102
RTVSPropertyOp21
 70
     1
102
RTVSPropertyOp22
 70
     1
102
RTVSPropertyOp23
 70
     1
102
RTVSPropertyOp24
 70
     1
102
RTVSPropertyOp25
 70
     1
102
RTVSPropertyOp26
 70
     1
102
RTVSPropertyOp27
 70
     1
102
RTVSPropertyOp28
 70
     1
102
RTVSPropertyOp29
 70
     1
102
RTVSPropertyOp30
 70
     1
102
RTVSPropertyOp31
 70
     1
102
RTVSPropertyOp32
 70
     1
102
RTVSPropertyOp33
 70
     1
102
RTVSPropertyOp34
 70
     1
102
RTVSPropertyOp35
 70
     1
102
RTVSPropertyOp36
 70
     1
102
RTVSPropertyOp37
 70
     1
102
RTVSPropertyOp38
 70
     1
102
RTVSPropertyOp39
 70
     1
102
RTVSPropertyOp40
 70
     1
102
RTVSPropertyOp41
 70
     1
102
RTVSPropertyOp42
 70
     1
102
RTVSPropertyOp43
 70
     1
102
RTVSPropertyOp44
 70
     1
102
RTVSPropertyOp45
 70
     1
102
RTVSPropertyOp46
 70
     1
102
RTVSPropertyOp47
 70
     1
102
RTVSPropertyOp48
 70
     1
102
RTVSPropertyOp49
 70
     1
102
RTVSPropertyOp50
 70
     1
102
RTVSPropertyOp51
 70
     0
102
RTVSPropertyOp52
 70
     0
102
RTVSPropertyOp53
 70
     1
102
RTVSPropertyOp54
 70
     1
102
RTVSPropertyOp55
 70
     1
102
RTVSPropertyOp56
 70
     1
102
RTVSPropertyOp57
 70
     1
102
RTVSPropertyOp58
 70
     1
102
RTVSPropertyOp59
 70
     1
102
RTVSPropertyOp60
 70
     1
102
RTVSPropertyOp61
 70
     1
102
RTVSPropertyOp62
 70
     1
  0
XRECORD
  5
A07
102
{ACAD_REACTORS
330
A06
102
}
330
A06
100
AcDbXrecord
280
     1
102
RTVSPost2010Prop28
280
     0
102
RTVSPost2010PropOp28
 70
     1
102
RTVSPost2010Prop29
280
     1
102
RTVSPost2010PropOp29
 70
     1
102
RTVSPost2010Prop30
280
     1
102
RTVSPost2010PropOp30
 70
     1
102
RTVSPost2010Prop31
280
     0
102
RTVSPost2010PropOp31
 70
     1
102
RTVSPost2010Prop32
280
     0
102
RTVSPost2010PropOp32
 70
     1
102
RTVSPost2010Prop33
280
     0
102
RTVSPost2010PropOp33
 70
     1
102
RTVSPost2010Prop34
280
     0
102
RTVSPost2010PropOp34
 70
     1
102
RTVSPost2010Prop35
280
     0
102
RTVSPost2010PropOp35
 70
     1
102
RTVSPost2010Prop36
280
     0
102
RTVSPost2010PropOp36
 70
     1
102
RTVSPost2010Prop37
 90
       50
102
RTVSPost2010PropOp37
 70
     1
102
RTVSPost2010Prop38
140
0.0
102
RTVSPost2010PropOp38
 70
     1
102
RTVSPost2010Prop39
140
1.0
102
RTVSPost2010PropOp39
 70
     1
102
RTVSPost2010Prop40
 90
        0
102
RTVSPost2010PropOp40
 70
     1
102
RTVSPost2010Prop41ColorIndex
 90
       18
102
RTVSPost2010Prop41ColorRGB
 90
        0
102
RTVSPost2010PropOp41
 70
     1
102
RTVSPost2010Prop42
 90
       50
102
RTVSPost2010PropOp42
 70
     1
102
RTVSPost2010Prop43
 90
        3
102
RTVSPost2010PropOp43
 70
     1
102
RTVSPost2010Prop44ColorIndex
 90
        5
102
RTVSPost2010Prop44ColorRGB
 90
      255
102
RTVSPost2010PropOp44
 70
     1
102
RTVSPost2010Prop45
280
     0
102
RTVSPost2010PropOp45
 70
     1
102
RTVSPost2010Prop46
 90
       50
102
RTVSPost2010PropOp46
 70
     1
102
RTVSPost2010Prop47
 90
       50
102
RTVSPost2010PropOp47
 70
     1
102
RTVSPost2010Prop48
 90
       50
102
RTVSPost2010PropOp48
 70
     1
102
RTVSPost2010Prop49
280
     0
102
RTVSPost2010PropOp49
 70
     1
102
RTVSPost2010Prop50
 90
       50
102
RTVSPost2010PropOp50
 70
     1
102
RTVSPost2010Prop51ColorIndex
 90
      256
102
RTVSPost2010Prop51ColorRGB
 90
-16777216
102
RTVSPost2010PropOp51
 70
     0
102
RTVSPost2010Prop52
140
1.0
102
RTVSPost2010PropOp52
 70
     0
102
RTVSPost2010Prop53
 90
        2
102
RTVSPost2010PropOp53
 70
     1
102
RTVSPost2010Prop54
  1
strokes_ogs.tif
102
RTVSPost2010PropOp54
 70
     1
102
RTVSPost2010Prop55
280
     0
102
RTVSPost2010PropOp55
 70
     1
102
RTVSPost2010Prop56
140
1.0
102
RTVSPost2010PropOp56
 70
     1
102
RTVSPost2010Prop57
140
1.0
102
RTVSPost2010PropOp57
 70
     1
102
RTVSPropertyOp0
 70
     1
102
RTVSPropertyOp1
 70
     1
102
RTVSPropertyOp2
 70
     1
102
RTVSPropertyOp3
 70
     1
102
RTVSPropertyOp4
 70
     1
102
RTVSPropertyOp5
 70
     1
102
RTVSPropertyOp6
 70
     1
102
RTVSPropertyOp7
 70
     1
102
RTVSPropertyOp8
 70
     1
102
RTVSPropertyOp9
 70
     1
102
RTVSPropertyOp10
 70
     1
102
RTVSPropertyOp11
 70
     1
102
RTVSPropertyOp12
 70
     1
102
RTVSPropertyOp13
 70
     1
102
RTVSPropertyOp14
 70
     1
102
RTVSPropertyOp15
 70
     1
102
RTVSPropertyOp16
 70
     1
102
RTVSPropertyOp17
 70
     1
102
RTVSPropertyOp18
 70
     1
102
RTVSPropertyOp19
 70
     1
102
RTVSPropertyOp20
 70
     1
102
RTVSPropertyOp21
 70
     1
102
RTVSPropertyOp22
 70
     1
102
RTVSPropertyOp23
 70
     1
102
RTVSPropertyOp24
 70
     1
102
RTVSPropertyOp25
 70
     1
102
RTVSPropertyOp26
 70
     1
102
RTVSPropertyOp27
 70
     1
102
RTVSPropertyOp28
 70
     1
102
RTVSPropertyOp29
 70
     1
102
RTVSPropertyOp30
 70
     1
102
RTVSPropertyOp31
 70
     1
102
RTVSPropertyOp32
 70
     1
102
RTVSPropertyOp33
 70
     1
102
RTVSPropertyOp34
 70
     1
102
RTVSPropertyOp35
 70
     1
102
RTVSPropertyOp36
 70
     1
102
RTVSPropertyOp37
 70
     1
102
RTVSPropertyOp38
 70
     1
102
RTVSPropertyOp39
 70
     1
102
RTVSPropertyOp40
 70
     1
102
RTVSPropertyOp41
 70
     1
102
RTVSPropertyOp42
 70
     1
102
RTVSPropertyOp43
 70
     1
102
RTVSPropertyOp44
 70
     1
102
RTVSPropertyOp45
 70
     1
102
RTVSPropertyOp46
 70
     1
102
RTVSPropertyOp47
 70
     1
102
RTVSPropertyOp48
 70
     1
102
RTVSPropertyOp49
 70
     1
102
RTVSPropertyOp50
 70
     1
102
RTVSPropertyOp51
 70
     0
102
RTVSPropertyOp52
 70
     0
102
RTVSPropertyOp53
 70
     1
102
RTVSPropertyOp54
 70
     1
102
RTVSPropertyOp55
 70
     1
102
RTVSPropertyOp56
 70
     1
102
RTVSPropertyOp57
 70
     1
102
RTVSPropertyOp58
 70
     1
102
RTVSPropertyOp59
 70
     1
102
RTVSPropertyOp60
 70
     1
102
RTVSPropertyOp61
 70
     1
102
RTVSPropertyOp62
 70
     1
  0
XRECORD
  5
A09
102
{ACAD_REACTORS
330
A08
102
}
330
A08
100
AcDbXrecord
280
     1
102
RTVSPost2010Prop28
280
     0
102
RTVSPost2010PropOp28
 70
     1
102
RTVSPost2010Prop29
280
     1
102
RTVSPost2010PropOp29
 70
     1
102
RTVSPost2010Prop30
280
     1
102
RTVSPost2010PropOp30
 70
     1
102
RTVSPost2010Prop31
280
     0
102
RTVSPost2010PropOp31
 70
     1
102
RTVSPost2010Prop32
280
     0
102
RTVSPost2010PropOp32
 70
     1
102
RTVSPost2010Prop33
280
     0
102
RTVSPost2010PropOp33
 70
     1
102
RTVSPost2010Prop34
280
     0
102
RTVSPost2010PropOp34
 70
     1
102
RTVSPost2010Prop35
280
     0
102
RTVSPost2010PropOp35
 70
     1
102
RTVSPost2010Prop36
280
     0
102
RTVSPost2010PropOp36
 70
     1
102
RTVSPost2010Prop37
 90
       50
102
RTVSPost2010PropOp37
 70
     1
102
RTVSPost2010Prop38
140
0.0
102
RTVSPost2010PropOp38
 70
     1
102
RTVSPost2010Prop39
140
1.0
102
RTVSPost2010PropOp39
 70
     1
102
RTVSPost2010Prop40
 90
        0
102
RTVSPost2010PropOp40
 70
     1
102
RTVSPost2010Prop41ColorIndex
 90
       18
102
RTVSPost2010Prop41ColorRGB
 90
        0
102
RTVSPost2010PropOp41
 70
     1
102
RTVSPost2010Prop42
 90
       50
102
RTVSPost2010PropOp42
 70
     1
102
RTVSPost2010Prop43
 90
        3
102
RTVSPost2010PropOp43
 70
     1
102
RTVSPost2010Prop44ColorIndex
 90
        5
102
RTVSPost2010Prop44ColorRGB
 90
      255
102
RTVSPost2010PropOp44
 70
     1
102
RTVSPost2010Prop45
280
     0
102
RTVSPost2010PropOp45
 70
     1
102
RTVSPost2010Prop46
 90
       50
102
RTVSPost2010PropOp46
 70
     1
102
RTVSPost2010Prop47
 90
       50
102
RTVSPost2010PropOp47
 70
     1
102
RTVSPost2010Prop48
 90
       50
102
RTVSPost2010PropOp48
 70
     1
102
RTVSPost2010Prop49
280
     0
102
RTVSPost2010PropOp49
 70
     1
102
RTVSPost2010Prop50
 90
       50
102
RTVSPost2010PropOp50
 70
     1
102
RTVSPost2010Prop51ColorIndex
 90
      256
102
RTVSPost2010Prop51ColorRGB
 90
-16777216
102
RTVSPost2010PropOp51
 70
     0
102
RTVSPost2010Prop52
140
1.0
102
RTVSPost2010PropOp52
 70
     0
102
RTVSPost2010Prop53
 90
        2
102
RTVSPost2010PropOp53
 70
     1
102
RTVSPost2010Prop54
  1
strokes_ogs.tif
102
RTVSPost2010PropOp54
 70
     1
102
RTVSPost2010Prop55
280
     0
102
RTVSPost2010PropOp55
 70
     1
102
RTVSPost2010Prop56
140
1.0
102
RTVSPost2010PropOp56
 70
     1
102
RTVSPost2010Prop57
140
1.0
102
RTVSPost2010PropOp57
 70
     1
102
RTVSPropertyOp0
 70
     1
102
RTVSPropertyOp1
 70
     1
102
RTVSPropertyOp2
 70
     1
102
RTVSPropertyOp3
 70
     1
102
RTVSPropertyOp4
 70
     1
102
RTVSPropertyOp5
 70
     1
102
RTVSPropertyOp6
 70
     1
102
RTVSPropertyOp7
 70
     1
102
RTVSPropertyOp8
 70
     1
102
RTVSPropertyOp9
 70
     1
102
RTVSPropertyOp10
 70
     1
102
RTVSPropertyOp11
 70
     1
102
RTVSPropertyOp12
 70
     1
102
RTVSPropertyOp13
 70
     1
102
RTVSPropertyOp14
 70
     1
102
RTVSPropertyOp15
 70
     1
102
RTVSPropertyOp16
 70
     1
102
RTVSPropertyOp17
 70
     1
102
RTVSPropertyOp18
 70
     1
102
RTVSPropertyOp19
 70
     1
102
RTVSPropertyOp20
 70
     1
102
RTVSPropertyOp21
 70
     1
102
RTVSPropertyOp22
 70
     1
102
RTVSPropertyOp23
 70
     1
102
RTVSPropertyOp24
 70
     1
102
RTVSPropertyOp25
 70
     1
102
RTVSPropertyOp26
 70
     1
102
RTVSPropertyOp27
 70
     1
102
RTVSPropertyOp28
 70
     1
102
RTVSPropertyOp29
 70
     1
102
RTVSPropertyOp30
 70
     1
102
RTVSPropertyOp31
 70
     1
102
RTVSPropertyOp32
 70
     1
102
RTVSPropertyOp33
 70
     1
102
RTVSPropertyOp34
 70
     1
102
RTVSPropertyOp35
 70
     1
102
RTVSPropertyOp36
 70
     1
102
RTVSPropertyOp37
 70
     1
102
RTVSPropertyOp38
 70
     1
102
RTVSPropertyOp39
 70
     1
102
RTVSPropertyOp40
 70
     1
102
RTVSPropertyOp41
 70
     1
102
RTVSPropertyOp42
 70
     1
102
RTVSPropertyOp43
 70
     1
102
RTVSPropertyOp44
 70
     1
102
RTVSPropertyOp45
 70
     1
102
RTVSPropertyOp46
 70
     1
102
RTVSPropertyOp47
 70
     1
102
RTVSPropertyOp48
 70
     1
102
RTVSPropertyOp49
 70
     1
102
RTVSPropertyOp50
 70
     1
102
RTVSPropertyOp51
 70
     0
102
RTVSPropertyOp52
 70
     0
102
RTVSPropertyOp53
 70
     1
102
RTVSPropertyOp54
 70
     1
102
RTVSPropertyOp55
 70
     1
102
RTVSPropertyOp56
 70
     1
102
RTVSPropertyOp57
 70
     1
102
RTVSPropertyOp58
 70
     1
102
RTVSPropertyOp59
 70
     1
102
RTVSPropertyOp60
 70
     1
102
RTVSPropertyOp61
 70
     1
102
RTVSPropertyOp62
 70
     1
  0
XRECORD
  5
A11
102
{ACAD_REACTORS
330
A10
102
}
330
A10
100
AcDbXrecord
280
     1
102
RTVSPost2010Prop28
280
     0
102
RTVSPost2010PropOp28
 70
     1
102
RTVSPost2010Prop29
280
     1
102
RTVSPost2010PropOp29
 70
     1
102
RTVSPost2010Prop30
280
     1
102
RTVSPost2010PropOp30
 70
     1
102
RTVSPost2010Prop31
280
     0
102
RTVSPost2010PropOp31
 70
     1
102
RTVSPost2010Prop32
280
     0
102
RTVSPost2010PropOp32
 70
     1
102
RTVSPost2010Prop33
280
     0
102
RTVSPost2010PropOp33
 70
     1
102
RTVSPost2010Prop34
280
     0
102
RTVSPost2010PropOp34
 70
     1
102
RTVSPost2010Prop35
280
     0
102
RTVSPost2010PropOp35
 70
     1
102
RTVSPost2010Prop36
280
     0
102
RTVSPost2010PropOp36
 70
     1
102
RTVSPost2010Prop37
 90
       50
102
RTVSPost2010PropOp37
 70
     1
102
RTVSPost2010Prop38
140
0.0
102
RTVSPost2010PropOp38
 70
     1
102
RTVSPost2010Prop39
140
1.0
102
RTVSPost2010PropOp39
 70
     1
102
RTVSPost2010Prop40
 90
        0
102
RTVSPost2010PropOp40
 70
     1
102
RTVSPost2010Prop41ColorIndex
 90
       18
102
RTVSPost2010Prop41ColorRGB
 90
        0
102
RTVSPost2010PropOp41
 70
     1
102
RTVSPost2010Prop42
 90
       50
102
RTVSPost2010PropOp42
 70
     1
102
RTVSPost2010Prop43
 90
        3
102
RTVSPost2010PropOp43
 70
     1
102
RTVSPost2010Prop44ColorIndex
 90
        5
102
RTVSPost2010Prop44ColorRGB
 90
      255
102
RTVSPost2010PropOp44
 70
     1
102
RTVSPost2010Prop45
280
     0
102
RTVSPost2010PropOp45
 70
     1
102
RTVSPost2010Prop46
 90
       50
102
RTVSPost2010PropOp46
 70
     1
102
RTVSPost2010Prop47
 90
       50
102
RTVSPost2010PropOp47
 70
     1
102
RTVSPost2010Prop48
 90
       50
102
RTVSPost2010PropOp48
 70
     1
102
RTVSPost2010Prop49
280
     0
102
RTVSPost2010PropOp49
 70
     1
102
RTVSPost2010Prop50
 90
       50
102
RTVSPost2010PropOp50
 70
     1
102
RTVSPost2010Prop51ColorIndex
 90
      256
102
RTVSPost2010Prop51ColorRGB
 90
-16777216
102
RTVSPost2010PropOp51
 70
     0
102
RTVSPost2010Prop52
140
1.0
102
RTVSPost2010PropOp52
 70
     0
102
RTVSPost2010Prop53
 90
        2
102
RTVSPost2010PropOp53
 70
     1
102
RTVSPost2010Prop54
  1
strokes_ogs.tif
102
RTVSPost2010PropOp54
 70
     1
102
RTVSPost2010Prop55
280
     0
102
RTVSPost2010PropOp55
 70
     1
102
RTVSPost2010Prop56
140
1.0
102
RTVSPost2010PropOp56
 70
     1
102
RTVSPost2010Prop57
140
1.0
102
RTVSPost2010PropOp57
 70
     1
102
RTVSPropertyOp0
 70
     1
102
RTVSPropertyOp1
 70
     1
102
RTVSPropertyOp2
 70
     1
102
RTVSPropertyOp3
 70
     1
102
RTVSPropertyOp4
 70
     1
102
RTVSPropertyOp5
 70
     1
102
RTVSPropertyOp6
 70
     1
102
RTVSPropertyOp7
 70
     1
102
RTVSPropertyOp8
 70
     1
102
RTVSPropertyOp9
 70
     1
102
RTVSPropertyOp10
 70
     1
102
RTVSPropertyOp11
 70
     1
102
RTVSPropertyOp12
 70
     1
102
RTVSPropertyOp13
 70
     1
102
RTVSPropertyOp14
 70
     1
102
RTVSPropertyOp15
 70
     1
102
RTVSPropertyOp16
 70
     1
102
RTVSPropertyOp17
 70
     1
102
RTVSPropertyOp18
 70
     1
102
RTVSPropertyOp19
 70
     1
102
RTVSPropertyOp20
 70
     1
102
RTVSPropertyOp21
 70
     1
102
RTVSPropertyOp22
 70
     1
102
RTVSPropertyOp23
 70
     1
102
RTVSPropertyOp24
 70
     1
102
RTVSPropertyOp25
 70
     1
102
RTVSPropertyOp26
 70
     1
102
RTVSPropertyOp27
 70
     1
102
RTVSPropertyOp28
 70
     1
102
RTVSPropertyOp29
 70
     1
102
RTVSPropertyOp30
 70
     1
102
RTVSPropertyOp31
 70
     1
102
RTVSPropertyOp32
 70
     1
102
RTVSPropertyOp33
 70
     1
102
RTVSPropertyOp34
 70
     1
102
RTVSPropertyOp35
 70
     1
102
RTVSPropertyOp36
 70
     1
102
RTVSPropertyOp37
 70
     1
102
RTVSPropertyOp38
 70
     1
102
RTVSPropertyOp39
 70
     1
102
RTVSPropertyOp40
 70
     1
102
RTVSPropertyOp41
 70
     1
102
RTVSPropertyOp42
 70
     1
102
RTVSPropertyOp43
 70
     1
102
RTVSPropertyOp44
 70
     1
102
RTVSPropertyOp45
 70
     1
102
RTVSPropertyOp46
 70
     1
102
RTVSPropertyOp47
 70
     1
102
RTVSPropertyOp48
 70
     1
102
RTVSPropertyOp49
 70
     1
102
RTVSPropertyOp50
 70
     1
102
RTVSPropertyOp51
 70
     0
102
RTVSPropertyOp52
 70
     0
102
RTVSPropertyOp53
 70
     1
102
RTVSPropertyOp54
 70
     1
102
RTVSPropertyOp55
 70
     1
102
RTVSPropertyOp56
 70
     1
102
RTVSPropertyOp57
 70
     1
102
RTVSPropertyOp58
 70
     1
102
RTVSPropertyOp59
 70
     1
102
RTVSPropertyOp60
 70
     1
102
RTVSPropertyOp61
 70
     1
102
RTVSPropertyOp62
 70
     1
  0
XRECORD
  5
A2D
102
{ACAD_REACTORS
330
A2C
102
}
330
A2C
100
AcDbXrecord
280
     1
102
RTVSPost2010Prop28
280
     0
102
RTVSPost2010PropOp28
 70
     1
102
RTVSPost2010Prop29
280
     1
102
RTVSPost2010PropOp29
 70
     1
102
RTVSPost2010Prop30
280
     1
102
RTVSPost2010PropOp30
 70
     1
102
RTVSPost2010Prop31
280
     0
102
RTVSPost2010PropOp31
 70
     1
102
RTVSPost2010Prop32
280
     0
102
RTVSPost2010PropOp32
 70
     1
102
RTVSPost2010Prop33
280
     0
102
RTVSPost2010PropOp33
 70
     1
102
RTVSPost2010Prop34
280
     0
102
RTVSPost2010PropOp34
 70
     1
102
RTVSPost2010Prop35
280
     0
102
RTVSPost2010PropOp35
 70
     1
102
RTVSPost2010Prop36
280
     0
102
RTVSPost2010PropOp36
 70
     1
102
RTVSPost2010Prop37
 90
       50
102
RTVSPost2010PropOp37
 70
     0
102
RTVSPost2010Prop38
140
0.0
102
RTVSPost2010PropOp38
 70
     0
102
RTVSPost2010Prop39
140
1.0
102
RTVSPost2010PropOp39
 70
     0
102
RTVSPost2010Prop40
 90
        0
102
RTVSPost2010PropOp40
 70
     0
102
RTVSPost2010Prop41ColorIndex
 90
       18
102
RTVSPost2010Prop41ColorRGB
 90
        0
102
RTVSPost2010PropOp41
 70
     0
102
RTVSPost2010Prop42
 90
       50
102
RTVSPost2010PropOp42
 70
     0
102
RTVSPost2010Prop43
 90
        3
102
RTVSPost2010PropOp43
 70
     0
102
RTVSPost2010Prop44ColorIndex
 90
        5
102
RTVSPost2010Prop44ColorRGB
 90
      255
102
RTVSPost2010PropOp44
 70
     0
102
RTVSPost2010Prop45
280
     0
102
RTVSPost2010PropOp45
 70
     1
102
RTVSPost2010Prop46
 90
       50
102
RTVSPost2010PropOp46
 70
     0
102
RTVSPost2010Prop47
 90
       50
102
RTVSPost2010PropOp47
 70
     0
102
RTVSPost2010Prop48
 90
       50
102
RTVSPost2010PropOp48
 70
     0
102
RTVSPost2010Prop49
280
     0
102
RTVSPost2010PropOp49
 70
     1
102
RTVSPost2010Prop50
 90
       50
102
RTVSPost2010PropOp50
 70
     0
102
RTVSPost2010Prop51ColorIndex
 90
      256
102
RTVSPost2010Prop51ColorRGB
 90
-16777216
102
RTVSPost2010PropOp51
 70
     0
102
RTVSPost2010Prop52
140
1.0
102
RTVSPost2010PropOp52
 70
     0
102
RTVSPost2010Prop53
 90
        2
102
RTVSPost2010PropOp53
 70
     0
102
RTVSPost2010Prop54
  1
strokes_ogs.tif
102
RTVSPost2010PropOp54
 70
     0
102
RTVSPost2010Prop55
280
     0
102
RTVSPost2010PropOp55
 70
     1
102
RTVSPost2010Prop56
140
1.0
102
RTVSPost2010PropOp56
 70
     0
102
RTVSPost2010Prop57
140
1.0
102
RTVSPost2010PropOp57
 70
     0
102
RTVSPropertyOp0
 70
     0
102
RTVSPropertyOp1
 70
     0
102
RTVSPropertyOp2
 70
     0
102
RTVSPropertyOp3
 70
     0
102
RTVSPropertyOp4
 70
     0
102
RTVSPropertyOp5
 70
     0
102
RTVSPropertyOp6
 70
     0
102
RTVSPropertyOp7
 70
     0
102
RTVSPropertyOp8
 70
     0
102
RTVSPropertyOp9
 70
     0
102
RTVSPropertyOp10
 70
     0
102
RTVSPropertyOp11
 70
     0
102
RTVSPropertyOp12
 70
     0
102
RTVSPropertyOp13
 70
     0
102
RTVSPropertyOp14
 70
     2
102
RTVSPropertyOp15
 70
     0
102
RTVSPropertyOp16
 70
     0
102
RTVSPropertyOp17
 70
     0
102
RTVSPropertyOp18
 70
     0
102
RTVSPropertyOp19
 70
     0
102
RTVSPropertyOp20
 70
     0
102
RTVSPropertyOp21
 70
     0
102
RTVSPropertyOp22
 70
     0
102
RTVSPropertyOp23
 70
     0
102
RTVSPropertyOp24
 70
     0
102
RTVSPropertyOp25
 70
     0
102
RTVSPropertyOp26
 70
     0
102
RTVSPropertyOp27
 70
     0
102
RTVSPropertyOp28
 70
     1
102
RTVSPropertyOp29
 70
     1
102
RTVSPropertyOp30
 70
     1
102
RTVSPropertyOp31
 70
     1
102
RTVSPropertyOp32
 70
     1
102
RTVSPropertyOp33
 70
     1
102
RTVSPropertyOp34
 70
     1
102
RTVSPropertyOp35
 70
     1
102
RTVSPropertyOp36
 70
     1
102
RTVSPropertyOp37
 70
     0
102
RTVSPropertyOp38
 70
     0
102
RTVSPropertyOp39
 70
     0
102
RTVSPropertyOp40
 70
     0
102
RTVSPropertyOp41
 70
     0
102
RTVSPropertyOp42
 70
     0
102
RTVSPropertyOp43
 70
     0
102
RTVSPropertyOp44
 70
     0
102
RTVSPropertyOp45
 70
     1
102
RTVSPropertyOp46
 70
     0
102
RTVSPropertyOp47
 70
     0
102
RTVSPropertyOp48
 70
     0
102
RTVSPropertyOp49
 70
     1
102
RTVSPropertyOp50
 70
     0
102
RTVSPropertyOp51
 70
     0
102
RTVSPropertyOp52
 70
     0
102
RTVSPropertyOp53
 70
     0
102
RTVSPropertyOp54
 70
     0
102
RTVSPropertyOp55
 70
     1
102
RTVSPropertyOp56
 70
     0
102
RTVSPropertyOp57
 70
     0
102
RTVSPropertyOp58
 70
     0
102
RTVSPropertyOp59
 70
     0
102
RTVSPropertyOp60
 70
     0
102
RTVSPropertyOp61
 70
     0
102
RTVSPropertyOp62
 70
     0
  0
XRECORD
  5
A1D
102
{ACAD_REACTORS
330
A1C
102
}
330
A1C
100
AcDbXrecord
280
     1
102
RTVSPost2010Prop28
280
     0
102
RTVSPost2010PropOp28
 70
     1
102
RTVSPost2010Prop29
280
     1
102
RTVSPost2010PropOp29
 70
     1
102
RTVSPost2010Prop30
280
     1
102
RTVSPost2010PropOp30
 70
     1
102
RTVSPost2010Prop31
280
     0
102
RTVSPost2010PropOp31
 70
     1
102
RTVSPost2010Prop32
280
     0
102
RTVSPost2010PropOp32
 70
     1
102
RTVSPost2010Prop33
280
     0
102
RTVSPost2010PropOp33
 70
     1
102
RTVSPost2010Prop34
280
     0
102
RTVSPost2010PropOp34
 70
     1
102
RTVSPost2010Prop35
280
     0
102
RTVSPost2010PropOp35
 70
     1
102
RTVSPost2010Prop36
280
     0
102
RTVSPost2010PropOp36
 70
     1
102
RTVSPost2010Prop37
 90
       50
102
RTVSPost2010PropOp37
 70
     1
102
RTVSPost2010Prop38
140
0.0
102
RTVSPost2010PropOp38
 70
     1
102
RTVSPost2010Prop39
140
1.0
102
RTVSPost2010PropOp39
 70
     1
102
RTVSPost2010Prop40
 90
        0
102
RTVSPost2010PropOp40
 70
     1
102
RTVSPost2010Prop41ColorIndex
 90
       18
102
RTVSPost2010Prop41ColorRGB
 90
        0
102
RTVSPost2010PropOp41
 70
     1
102
RTVSPost2010Prop42
 90
       50
102
RTVSPost2010PropOp42
 70
     1
102
RTVSPost2010Prop43
 90
        3
102
RTVSPost2010PropOp43
 70
     1
102
RTVSPost2010Prop44ColorIndex
 90
        5
102
RTVSPost2010Prop44ColorRGB
 90
      255
102
RTVSPost2010PropOp44
 70
     1
102
RTVSPost2010Prop45
280
     0
102
RTVSPost2010PropOp45
 70
     1
102
RTVSPost2010Prop46
 90
       50
102
RTVSPost2010PropOp46
 70
     1
102
RTVSPost2010Prop47
 90
       50
102
RTVSPost2010PropOp47
 70
     1
102
RTVSPost2010Prop48
 90
       50
102
RTVSPost2010PropOp48
 70
     1
102
RTVSPost2010Prop49
280
     0
102
RTVSPost2010PropOp49
 70
     1
102
RTVSPost2010Prop50
 90
       50
102
RTVSPost2010PropOp50
 70
     1
102
RTVSPost2010Prop51ColorIndex
 90
      256
102
RTVSPost2010Prop51ColorRGB
 90
-16777216
102
RTVSPost2010PropOp51
 70
     0
102
RTVSPost2010Prop52
140
1.0
102
RTVSPost2010PropOp52
 70
     0
102
RTVSPost2010Prop53
 90
        2
102
RTVSPost2010PropOp53
 70
     1
102
RTVSPost2010Prop54
  1
strokes_ogs.tif
102
RTVSPost2010PropOp54
 70
     1
102
RTVSPost2010Prop55
280
     0
102
RTVSPost2010PropOp55
 70
     1
102
RTVSPost2010Prop56
140
1.0
102
RTVSPost2010PropOp56
 70
     1
102
RTVSPost2010Prop57
140
1.0
102
RTVSPost2010PropOp57
 70
     1
102
RTVSPropertyOp0
 70
     1
102
RTVSPropertyOp1
 70
     1
102
RTVSPropertyOp2
 70
     1
102
RTVSPropertyOp3
 70
     1
102
RTVSPropertyOp4
 70
     1
102
RTVSPropertyOp5
 70
     1
102
RTVSPropertyOp6
 70
     1
102
RTVSPropertyOp7
 70
     1
102
RTVSPropertyOp8
 70
     1
102
RTVSPropertyOp9
 70
     1
102
RTVSPropertyOp10
 70
     1
102
RTVSPropertyOp11
 70
     1
102
RTVSPropertyOp12
 70
     1
102
RTVSPropertyOp13
 70
     1
102
RTVSPropertyOp14
 70
     1
102
RTVSPropertyOp15
 70
     1
102
RTVSPropertyOp16
 70
     1
102
RTVSPropertyOp17
 70
     1
102
RTVSPropertyOp18
 70
     1
102
RTVSPropertyOp19
 70
     1
102
RTVSPropertyOp20
 70
     1
102
RTVSPropertyOp21
 70
     1
102
RTVSPropertyOp22
 70
     1
102
RTVSPropertyOp23
 70
     1
102
RTVSPropertyOp24
 70
     1
102
RTVSPropertyOp25
 70
     1
102
RTVSPropertyOp26
 70
     1
102
RTVSPropertyOp27
 70
     1
102
RTVSPropertyOp28
 70
     1
102
RTVSPropertyOp29
 70
     1
102
RTVSPropertyOp30
 70
     1
102
RTVSPropertyOp31
 70
     1
102
RTVSPropertyOp32
 70
     1
102
RTVSPropertyOp33
 70
     1
102
RTVSPropertyOp34
 70
     1
102
RTVSPropertyOp35
 70
     1
102
RTVSPropertyOp36
 70
     1
102
RTVSPropertyOp37
 70
     1
102
RTVSPropertyOp38
 70
     1
102
RTVSPropertyOp39
 70
     1
102
RTVSPropertyOp40
 70
     1
102
RTVSPropertyOp41
 70
     1
102
RTVSPropertyOp42
 70
     1
102
RTVSPropertyOp43
 70
     1
102
RTVSPropertyOp44
 70
     1
102
RTVSPropertyOp45
 70
     1
102
RTVSPropertyOp46
 70
     1
102
RTVSPropertyOp47
 70
     1
102
RTVSPropertyOp48
 70
     1
102
RTVSPropertyOp49
 70
     1
102
RTVSPropertyOp50
 70
     1
102
RTVSPropertyOp51
 70
     0
102
RTVSPropertyOp52
 70
     0
102
RTVSPropertyOp53
 70
     1
102
RTVSPropertyOp54
 70
     1
102
RTVSPropertyOp55
 70
     1
102
RTVSPropertyOp56
 70
     1
102
RTVSPropertyOp57
 70
     1
102
RTVSPropertyOp58
 70
     1
102
RTVSPropertyOp59
 70
     1
102
RTVSPropertyOp60
 70
     1
102
RTVSPropertyOp61
 70
     1
102
RTVSPropertyOp62
 70
     1
  0
XRECORD
  5
A2F
102
{ACAD_REACTORS
330
A2E
102
}
330
A2E
100
AcDbXrecord
280
     1
102
RTVSPost2010Prop28
280
     0
102
RTVSPost2010PropOp28
 70
     1
102
RTVSPost2010Prop29
280
     1
102
RTVSPost2010PropOp29
 70
     1
102
RTVSPost2010Prop30
280
     1
102
RTVSPost2010PropOp30
 70
     1
102
RTVSPost2010Prop31
280
     0
102
RTVSPost2010PropOp31
 70
     1
102
RTVSPost2010Prop32
280
     0
102
RTVSPost2010PropOp32
 70
     1
102
RTVSPost2010Prop33
280
     0
102
RTVSPost2010PropOp33
 70
     1
102
RTVSPost2010Prop34
280
     0
102
RTVSPost2010PropOp34
 70
     1
102
RTVSPost2010Prop35
280
     0
102
RTVSPost2010PropOp35
 70
     1
102
RTVSPost2010Prop36
280
     0
102
RTVSPost2010PropOp36
 70
     1
102
RTVSPost2010Prop37
 90
       50
102
RTVSPost2010PropOp37
 70
     0
102
RTVSPost2010Prop38
140
0.0
102
RTVSPost2010PropOp38
 70
     0
102
RTVSPost2010Prop39
140
1.0
102
RTVSPost2010PropOp39
 70
     0
102
RTVSPost2010Prop40
 90
        0
102
RTVSPost2010PropOp40
 70
     0
102
RTVSPost2010Prop41ColorIndex
 90
       18
102
RTVSPost2010Prop41ColorRGB
 90
        0
102
RTVSPost2010PropOp41
 70
     0
102
RTVSPost2010Prop42
 90
       50
102
RTVSPost2010PropOp42
 70
     0
102
RTVSPost2010Prop43
 90
        3
102
RTVSPost2010PropOp43
 70
     0
102
RTVSPost2010Prop44ColorIndex
 90
        5
102
RTVSPost2010Prop44ColorRGB
 90
      255
102
RTVSPost2010PropOp44
 70
     0
102
RTVSPost2010Prop45
280
     0
102
RTVSPost2010PropOp45
 70
     1
102
RTVSPost2010Prop46
 90
       50
102
RTVSPost2010PropOp46
 70
     0
102
RTVSPost2010Prop47
 90
       50
102
RTVSPost2010PropOp47
 70
     0
102
RTVSPost2010Prop48
 90
       50
102
RTVSPost2010PropOp48
 70
     0
102
RTVSPost2010Prop49
280
     0
102
RTVSPost2010PropOp49
 70
     1
102
RTVSPost2010Prop50
 90
       50
102
RTVSPost2010PropOp50
 70
     0
102
RTVSPost2010Prop51ColorIndex
 90
      256
102
RTVSPost2010Prop51ColorRGB
 90
-16777216
102
RTVSPost2010PropOp51
 70
     0
102
RTVSPost2010Prop52
140
1.0
102
RTVSPost2010PropOp52
 70
     0
102
RTVSPost2010Prop53
 90
        2
102
RTVSPost2010PropOp53
 70
     0
102
RTVSPost2010Prop54
  1
strokes_ogs.tif
102
RTVSPost2010PropOp54
 70
     0
102
RTVSPost2010Prop55
280
     0
102
RTVSPost2010PropOp55
 70
     1
102
RTVSPost2010Prop56
140
1.0
102
RTVSPost2010PropOp56
 70
     0
102
RTVSPost2010Prop57
140
1.0
102
RTVSPost2010PropOp57
 70
     0
102
RTVSPropertyOp0
 70
     0
102
RTVSPropertyOp1
 70
     0
102
RTVSPropertyOp2
 70
     0
102
RTVSPropertyOp3
 70
     0
102
RTVSPropertyOp4
 70
     0
102
RTVSPropertyOp5
 70
     0
102
RTVSPropertyOp6
 70
     0
102
RTVSPropertyOp7
 70
     0
102
RTVSPropertyOp8
 70
     0
102
RTVSPropertyOp9
 70
     0
102
RTVSPropertyOp10
 70
     0
102
RTVSPropertyOp11
 70
     0
102
RTVSPropertyOp12
 70
     0
102
RTVSPropertyOp13
 70
     0
102
RTVSPropertyOp14
 70
     2
102
RTVSPropertyOp15
 70
     0
102
RTVSPropertyOp16
 70
     0
102
RTVSPropertyOp17
 70
     0
102
RTVSPropertyOp18
 70
     0
102
RTVSPropertyOp19
 70
     0
102
RTVSPropertyOp20
 70
     0
102
RTVSPropertyOp21
 70
     0
102
RTVSPropertyOp22
 70
     0
102
RTVSPropertyOp23
 70
     0
102
RTVSPropertyOp24
 70
     0
102
RTVSPropertyOp25
 70
     0
102
RTVSPropertyOp26
 70
     0
102
RTVSPropertyOp27
 70
     0
102
RTVSPropertyOp28
 70
     1
102
RTVSPropertyOp29
 70
     1
102
RTVSPropertyOp30
 70
     1
102
RTVSPropertyOp31
 70
     1
102
RTVSPropertyOp32
 70
     1
102
RTVSPropertyOp33
 70
     1
102
RTVSPropertyOp34
 70
     1
102
RTVSPropertyOp35
 70
     1
102
RTVSPropertyOp36
 70
     1
102
RTVSPropertyOp37
 70
     0
102
RTVSPropertyOp38
 70
     0
102
RTVSPropertyOp39
 70
     0
102
RTVSPropertyOp40
 70
     0
102
RTVSPropertyOp41
 70
     0
102
RTVSPropertyOp42
 70
     0
102
RTVSPropertyOp43
 70
     0
102
RTVSPropertyOp44
 70
     0
102
RTVSPropertyOp45
 70
     1
102
RTVSPropertyOp46
 70
     0
102
RTVSPropertyOp47
 70
     0
102
RTVSPropertyOp48
 70
     0
102
RTVSPropertyOp49
 70
     1
102
RTVSPropertyOp50
 70
     0
102
RTVSPropertyOp51
 70
     0
102
RTVSPropertyOp52
 70
     0
102
RTVSPropertyOp53
 70
     0
102
RTVSPropertyOp54
 70
     0
102
RTVSPropertyOp55
 70
     1
102
RTVSPropertyOp56
 70
     0
102
RTVSPropertyOp57
 70
     0
102
RTVSPropertyOp58
 70
     0
102
RTVSPropertyOp59
 70
     0
102
RTVSPropertyOp60
 70
     0
102
RTVSPropertyOp61
 70
     0
102
RTVSPropertyOp62
 70
     0
  0
XRECORD
  5
A15
102
{ACAD_REACTORS
330
A14
102
}
330
A14
100
AcDbXrecord
280
     1
102
RTVSPost2010Prop28
280
     0
102
RTVSPost2010PropOp28
 70
     1
102
RTVSPost2010Prop29
280
     1
102
RTVSPost2010PropOp29
 70
     1
102
RTVSPost2010Prop30
280
     1
102
RTVSPost2010PropOp30
 70
     1
102
RTVSPost2010Prop31
280
     0
102
RTVSPost2010PropOp31
 70
     1
102
RTVSPost2010Prop32
280
     0
102
RTVSPost2010PropOp32
 70
     1
102
RTVSPost2010Prop33
280
     0
102
RTVSPost2010PropOp33
 70
     1
102
RTVSPost2010Prop34
280
     0
102
RTVSPost2010PropOp34
 70
     1
102
RTVSPost2010Prop35
280
     0
102
RTVSPost2010PropOp35
 70
     1
102
RTVSPost2010Prop36
280
     0
102
RTVSPost2010PropOp36
 70
     1
102
RTVSPost2010Prop37
 90
       50
102
RTVSPost2010PropOp37
 70
     1
102
RTVSPost2010Prop38
140
0.0
102
RTVSPost2010PropOp38
 70
     1
102
RTVSPost2010Prop39
140
1.0
102
RTVSPost2010PropOp39
 70
     1
102
RTVSPost2010Prop40
 90
        0
102
RTVSPost2010PropOp40
 70
     1
102
RTVSPost2010Prop41ColorIndex
 90
       18
102
RTVSPost2010Prop41ColorRGB
 90
        0
102
RTVSPost2010PropOp41
 70
     1
102
RTVSPost2010Prop42
 90
       50
102
RTVSPost2010PropOp42
 70
     1
102
RTVSPost2010Prop43
 90
        3
102
RTVSPost2010PropOp43
 70
     1
102
RTVSPost2010Prop44ColorIndex
 90
        5
102
RTVSPost2010Prop44ColorRGB
 90
      255
102
RTVSPost2010PropOp44
 70
     1
102
RTVSPost2010Prop45
280
     0
102
RTVSPost2010PropOp45
 70
     1
102
RTVSPost2010Prop46
 90
       50
102
RTVSPost2010PropOp46
 70
     1
102
RTVSPost2010Prop47
 90
       50
102
RTVSPost2010PropOp47
 70
     1
102
RTVSPost2010Prop48
 90
       50
102
RTVSPost2010PropOp48
 70
     1
102
RTVSPost2010Prop49
280
     0
102
RTVSPost2010PropOp49
 70
     1
102
RTVSPost2010Prop50
 90
       50
102
RTVSPost2010PropOp50
 70
     1
102
RTVSPost2010Prop51ColorIndex
 90
      256
102
RTVSPost2010Prop51ColorRGB
 90
-16777216
102
RTVSPost2010PropOp51
 70
     0
102
RTVSPost2010Prop52
140
1.0
102
RTVSPost2010PropOp52
 70
     0
102
RTVSPost2010Prop53
 90
        2
102
RTVSPost2010PropOp53
 70
     1
102
RTVSPost2010Prop54
  1
strokes_ogs.tif
102
RTVSPost2010PropOp54
 70
     1
102
RTVSPost2010Prop55
280
     0
102
RTVSPost2010PropOp55
 70
     1
102
RTVSPost2010Prop56
140
1.0
102
RTVSPost2010PropOp56
 70
     1
102
RTVSPost2010Prop57
140
1.0
102
RTVSPost2010PropOp57
 70
     1
102
RTVSPropertyOp0
 70
     1
102
RTVSPropertyOp1
 70
     1
102
RTVSPropertyOp2
 70
     1
102
RTVSPropertyOp3
 70
     1
102
RTVSPropertyOp4
 70
     1
102
RTVSPropertyOp5
 70
     1
102
RTVSPropertyOp6
 70
     1
102
RTVSPropertyOp7
 70
     1
102
RTVSPropertyOp8
 70
     1
102
RTVSPropertyOp9
 70
     1
102
RTVSPropertyOp10
 70
     1
102
RTVSPropertyOp11
 70
     1
102
RTVSPropertyOp12
 70
     1
102
RTVSPropertyOp13
 70
     1
102
RTVSPropertyOp14
 70
     1
102
RTVSPropertyOp15
 70
     1
102
RTVSPropertyOp16
 70
     1
102
RTVSPropertyOp17
 70
     1
102
RTVSPropertyOp18
 70
     1
102
RTVSPropertyOp19
 70
     1
102
RTVSPropertyOp20
 70
     1
102
RTVSPropertyOp21
 70
     1
102
RTVSPropertyOp22
 70
     1
102
RTVSPropertyOp23
 70
     1
102
RTVSPropertyOp24
 70
     1
102
RTVSPropertyOp25
 70
     1
102
RTVSPropertyOp26
 70
     1
102
RTVSPropertyOp27
 70
     1
102
RTVSPropertyOp28
 70
     1
102
RTVSPropertyOp29
 70
     1
102
RTVSPropertyOp30
 70
     1
102
RTVSPropertyOp31
 70
     1
102
RTVSPropertyOp32
 70
     1
102
RTVSPropertyOp33
 70
     1
102
RTVSPropertyOp34
 70
     1
102
RTVSPropertyOp35
 70
     1
102
RTVSPropertyOp36
 70
     1
102
RTVSPropertyOp37
 70
     1
102
RTVSPropertyOp38
 70
     1
102
RTVSPropertyOp39
 70
     1
102
RTVSPropertyOp40
 70
     1
102
RTVSPropertyOp41
 70
     1
102
RTVSPropertyOp42
 70
     1
102
RTVSPropertyOp43
 70
     1
102
RTVSPropertyOp44
 70
     1
102
RTVSPropertyOp45
 70
     1
102
RTVSPropertyOp46
 70
     1
102
RTVSPropertyOp47
 70
     1
102
RTVSPropertyOp48
 70
     1
102
RTVSPropertyOp49
 70
     1
102
RTVSPropertyOp50
 70
     1
102
RTVSPropertyOp51
 70
     0
102
RTVSPropertyOp52
 70
     0
102
RTVSPropertyOp53
 70
     1
102
RTVSPropertyOp54
 70
     1
102
RTVSPropertyOp55
 70
     1
102
RTVSPropertyOp56
 70
     1
102
RTVSPropertyOp57
 70
     1
102
RTVSPropertyOp58
 70
     1
102
RTVSPropertyOp59
 70
     1
102
RTVSPropertyOp60
 70
     1
102
RTVSPropertyOp61
 70
     1
102
RTVSPropertyOp62
 70
     1
  0
XRECORD
  5
A2B
102
{ACAD_REACTORS
330
A2A
102
}
330
A2A
100
AcDbXrecord
280
     1
102
RTVSPost2010Prop28
280
     0
102
RTVSPost2010PropOp28
 70
     1
102
RTVSPost2010Prop29
280
     1
102
RTVSPost2010PropOp29
 70
     1
102
RTVSPost2010Prop30
280
     1
102
RTVSPost2010PropOp30
 70
     1
102
RTVSPost2010Prop31
280
     0
102
RTVSPost2010PropOp31
 70
     1
102
RTVSPost2010Prop32
280
     0
102
RTVSPost2010PropOp32
 70
     1
102
RTVSPost2010Prop33
280
     0
102
RTVSPost2010PropOp33
 70
     1
102
RTVSPost2010Prop34
280
     0
102
RTVSPost2010PropOp34
 70
     1
102
RTVSPost2010Prop35
280
     0
102
RTVSPost2010PropOp35
 70
     1
102
RTVSPost2010Prop36
280
     0
102
RTVSPost2010PropOp36
 70
     1
102
RTVSPost2010Prop37
 90
       50
102
RTVSPost2010PropOp37
 70
     1
102
RTVSPost2010Prop38
140
0.0
102
RTVSPost2010PropOp38
 70
     1
102
RTVSPost2010Prop39
140
1.0
102
RTVSPost2010PropOp39
 70
     1
102
RTVSPost2010Prop40
 90
        0
102
RTVSPost2010PropOp40
 70
     1
102
RTVSPost2010Prop41ColorIndex
 90
       18
102
RTVSPost2010Prop41ColorRGB
 90
        0
102
RTVSPost2010PropOp41
 70
     1
102
RTVSPost2010Prop42
 90
       50
102
RTVSPost2010PropOp42
 70
     1
102
RTVSPost2010Prop43
 90
        3
102
RTVSPost2010PropOp43
 70
     1
102
RTVSPost2010Prop44ColorIndex
 90
        5
102
RTVSPost2010Prop44ColorRGB
 90
      255
102
RTVSPost2010PropOp44
 70
     1
102
RTVSPost2010Prop45
280
     0
102
RTVSPost2010PropOp45
 70
     1
102
RTVSPost2010Prop46
 90
       50
102
RTVSPost2010PropOp46
 70
     1
102
RTVSPost2010Prop47
 90
       50
102
RTVSPost2010PropOp47
 70
     1
102
RTVSPost2010Prop48
 90
       50
102
RTVSPost2010PropOp48
 70
     1
102
RTVSPost2010Prop49
280
     0
102
RTVSPost2010PropOp49
 70
     1
102
RTVSPost2010Prop50
 90
       50
102
RTVSPost2010PropOp50
 70
     1
102
RTVSPost2010Prop51ColorIndex
 90
      256
102
RTVSPost2010Prop51ColorRGB
 90
-16777216
102
RTVSPost2010PropOp51
 70
     0
102
RTVSPost2010Prop52
140
1.0
102
RTVSPost2010PropOp52
 70
     0
102
RTVSPost2010Prop53
 90
        2
102
RTVSPost2010PropOp53
 70
     1
102
RTVSPost2010Prop54
  1
strokes_ogs.tif
102
RTVSPost2010PropOp54
 70
     1
102
RTVSPost2010Prop55
280
     0
102
RTVSPost2010PropOp55
 70
     1
102
RTVSPost2010Prop56
140
1.0
102
RTVSPost2010PropOp56
 70
     1
102
RTVSPost2010Prop57
140
1.0
102
RTVSPost2010PropOp57
 70
     1
102
RTVSPropertyOp0
 70
     1
102
RTVSPropertyOp1
 70
     1
102
RTVSPropertyOp2
 70
     1
102
RTVSPropertyOp3
 70
     1
102
RTVSPropertyOp4
 70
     1
102
RTVSPropertyOp5
 70
     1
102
RTVSPropertyOp6
 70
     1
102
RTVSPropertyOp7
 70
     1
102
RTVSPropertyOp8
 70
     1
102
RTVSPropertyOp9
 70
     1
102
RTVSPropertyOp10
 70
     1
102
RTVSPropertyOp11
 70
     1
102
RTVSPropertyOp12
 70
     1
102
RTVSPropertyOp13
 70
     1
102
RTVSPropertyOp14
 70
     1
102
RTVSPropertyOp15
 70
     1
102
RTVSPropertyOp16
 70
     1
102
RTVSPropertyOp17
 70
     1
102
RTVSPropertyOp18
 70
     1
102
RTVSPropertyOp19
 70
     1
102
RTVSPropertyOp20
 70
     1
102
RTVSPropertyOp21
 70
     1
102
RTVSPropertyOp22
 70
     1
102
RTVSPropertyOp23
 70
     1
102
RTVSPropertyOp24
 70
     1
102
RTVSPropertyOp25
 70
     1
102
RTVSPropertyOp26
 70
     1
102
RTVSPropertyOp27
 70
     1
102
RTVSPropertyOp28
 70
     1
102
RTVSPropertyOp29
 70
     1
102
RTVSPropertyOp30
 70
     1
102
RTVSPropertyOp31
 70
     1
102
RTVSPropertyOp32
 70
     1
102
RTVSPropertyOp33
 70
     1
102
RTVSPropertyOp34
 70
     1
102
RTVSPropertyOp35
 70
     1
102
RTVSPropertyOp36
 70
     1
102
RTVSPropertyOp37
 70
     1
102
RTVSPropertyOp38
 70
     1
102
RTVSPropertyOp39
 70
     1
102
RTVSPropertyOp40
 70
     1
102
RTVSPropertyOp41
 70
     1
102
RTVSPropertyOp42
 70
     1
102
RTVSPropertyOp43
 70
     1
102
RTVSPropertyOp44
 70
     1
102
RTVSPropertyOp45
 70
     1
102
RTVSPropertyOp46
 70
     1
102
RTVSPropertyOp47
 70
     1
102
RTVSPropertyOp48
 70
     1
102
RTVSPropertyOp49
 70
     1
102
RTVSPropertyOp50
 70
     1
102
RTVSPropertyOp51
 70
     0
102
RTVSPropertyOp52
 70
     0
102
RTVSPropertyOp53
 70
     1
102
RTVSPropertyOp54
 70
     1
102
RTVSPropertyOp55
 70
     1
102
RTVSPropertyOp56
 70
     1
102
RTVSPropertyOp57
 70
     1
102
RTVSPropertyOp58
 70
     1
102
RTVSPropertyOp59
 70
     1
102
RTVSPropertyOp60
 70
     1
102
RTVSPropertyOp61
 70
     1
102
RTVSPropertyOp62
 70
     1
  0
XRECORD
  5
A29
102
{ACAD_REACTORS
330
A28
102
}
330
A28
100
AcDbXrecord
280
     1
102
RTVSPost2010Prop28
280
     0
102
RTVSPost2010PropOp28
 70
     1
102
RTVSPost2010Prop29
280
     1
102
RTVSPost2010PropOp29
 70
     1
102
RTVSPost2010Prop30
280
     1
102
RTVSPost2010PropOp30
 70
     1
102
RTVSPost2010Prop31
280
     0
102
RTVSPost2010PropOp31
 70
     1
102
RTVSPost2010Prop32
280
     0
102
RTVSPost2010PropOp32
 70
     1
102
RTVSPost2010Prop33
280
     0
102
RTVSPost2010PropOp33
 70
     1
102
RTVSPost2010Prop34
280
     0
102
RTVSPost2010PropOp34
 70
     1
102
RTVSPost2010Prop35
280
     0
102
RTVSPost2010PropOp35
 70
     1
102
RTVSPost2010Prop36
280
     0
102
RTVSPost2010PropOp36
 70
     1
102
RTVSPost2010Prop37
 90
       50
102
RTVSPost2010PropOp37
 70
     1
102
RTVSPost2010Prop38
140
0.0
102
RTVSPost2010PropOp38
 70
     1
102
RTVSPost2010Prop39
140
1.0
102
RTVSPost2010PropOp39
 70
     1
102
RTVSPost2010Prop40
 90
        0
102
RTVSPost2010PropOp40
 70
     1
102
RTVSPost2010Prop41ColorIndex
 90
       18
102
RTVSPost2010Prop41ColorRGB
 90
        0
102
RTVSPost2010PropOp41
 70
     1
102
RTVSPost2010Prop42
 90
       50
102
RTVSPost2010PropOp42
 70
     1
102
RTVSPost2010Prop43
 90
        3
102
RTVSPost2010PropOp43
 70
     1
102
RTVSPost2010Prop44ColorIndex
 90
        5
102
RTVSPost2010Prop44ColorRGB
 90
      255
102
RTVSPost2010PropOp44
 70
     1
102
RTVSPost2010Prop45
280
     0
102
RTVSPost2010PropOp45
 70
     1
102
RTVSPost2010Prop46
 90
       50
102
RTVSPost2010PropOp46
 70
     1
102
RTVSPost2010Prop47
 90
       50
102
RTVSPost2010PropOp47
 70
     1
102
RTVSPost2010Prop48
 90
       50
102
RTVSPost2010PropOp48
 70
     1
102
RTVSPost2010Prop49
280
     0
102
RTVSPost2010PropOp49
 70
     1
102
RTVSPost2010Prop50
 90
       50
102
RTVSPost2010PropOp50
 70
     1
102
RTVSPost2010Prop51ColorIndex
 90
      256
102
RTVSPost2010Prop51ColorRGB
 90
-16777216
102
RTVSPost2010PropOp51
 70
     0
102
RTVSPost2010Prop52
140
1.0
102
RTVSPost2010PropOp52
 70
     0
102
RTVSPost2010Prop53
 90
        2
102
RTVSPost2010PropOp53
 70
     1
102
RTVSPost2010Prop54
  1
strokes_ogs.tif
102
RTVSPost2010PropOp54
 70
     1
102
RTVSPost2010Prop55
280
     0
102
RTVSPost2010PropOp55
 70
     1
102
RTVSPost2010Prop56
140
1.0
102
RTVSPost2010PropOp56
 70
     1
102
RTVSPost2010Prop57
140
1.0
102
RTVSPost2010PropOp57
 70
     1
102
RTVSPropertyOp0
 70
     1
102
RTVSPropertyOp1
 70
     1
102
RTVSPropertyOp2
 70
     1
102
RTVSPropertyOp3
 70
     1
102
RTVSPropertyOp4
 70
     1
102
RTVSPropertyOp5
 70
     1
102
RTVSPropertyOp6
 70
     1
102
RTVSPropertyOp7
 70
     1
102
RTVSPropertyOp8
 70
     1
102
RTVSPropertyOp9
 70
     1
102
RTVSPropertyOp10
 70
     1
102
RTVSPropertyOp11
 70
     1
102
RTVSPropertyOp12
 70
     1
102
RTVSPropertyOp13
 70
     1
102
RTVSPropertyOp14
 70
     1
102
RTVSPropertyOp15
 70
     1
102
RTVSPropertyOp16
 70
     1
102
RTVSPropertyOp17
 70
     1
102
RTVSPropertyOp18
 70
     1
102
RTVSPropertyOp19
 70
     1
102
RTVSPropertyOp20
 70
     1
102
RTVSPropertyOp21
 70
     1
102
RTVSPropertyOp22
 70
     1
102
RTVSPropertyOp23
 70
     1
102
RTVSPropertyOp24
 70
     1
102
RTVSPropertyOp25
 70
     1
102
RTVSPropertyOp26
 70
     1
102
RTVSPropertyOp27
 70
     1
102
RTVSPropertyOp28
 70
     1
102
RTVSPropertyOp29
 70
     1
102
RTVSPropertyOp30
 70
     1
102
RTVSPropertyOp31
 70
     1
102
RTVSPropertyOp32
 70
     1
102
RTVSPropertyOp33
 70
     1
102
RTVSPropertyOp34
 70
     1
102
RTVSPropertyOp35
 70
     1
102
RTVSPropertyOp36
 70
     1
102
RTVSPropertyOp37
 70
     1
102
RTVSPropertyOp38
 70
     1
102
RTVSPropertyOp39
 70
     1
102
RTVSPropertyOp40
 70
     1
102
RTVSPropertyOp41
 70
     1
102
RTVSPropertyOp42
 70
     1
102
RTVSPropertyOp43
 70
     1
102
RTVSPropertyOp44
 70
     1
102
RTVSPropertyOp45
 70
     1
102
RTVSPropertyOp46
 70
     1
102
RTVSPropertyOp47
 70
     1
102
RTVSPropertyOp48
 70
     1
102
RTVSPropertyOp49
 70
     1
102
RTVSPropertyOp50
 70
     1
102
RTVSPropertyOp51
 70
     0
102
RTVSPropertyOp52
 70
     0
102
RTVSPropertyOp53
 70
     1
102
RTVSPropertyOp54
 70
     1
102
RTVSPropertyOp55
 70
     1
102
RTVSPropertyOp56
 70
     1
102
RTVSPropertyOp57
 70
     1
102
RTVSPropertyOp58
 70
     1
102
RTVSPropertyOp59
 70
     1
102
RTVSPropertyOp60
 70
     1
102
RTVSPropertyOp61
 70
     1
102
RTVSPropertyOp62
 70
     1
  0
XRECORD
  5
A23
102
{ACAD_REACTORS
330
A22
102
}
330
A22
100
AcDbXrecord
280
     1
102
RTVSPost2010Prop28
280
     0
102
RTVSPost2010PropOp28
 70
     1
102
RTVSPost2010Prop29
280
     1
102
RTVSPost2010PropOp29
 70
     1
102
RTVSPost2010Prop30
280
     1
102
RTVSPost2010PropOp30
 70
     1
102
RTVSPost2010Prop31
280
     0
102
RTVSPost2010PropOp31
 70
     1
102
RTVSPost2010Prop32
280
     0
102
RTVSPost2010PropOp32
 70
     1
102
RTVSPost2010Prop33
280
     0
102
RTVSPost2010PropOp33
 70
     1
102
RTVSPost2010Prop34
280
     0
102
RTVSPost2010PropOp34
 70
     1
102
RTVSPost2010Prop35
280
     0
102
RTVSPost2010PropOp35
 70
     1
102
RTVSPost2010Prop36
280
     0
102
RTVSPost2010PropOp36
 70
     1
102
RTVSPost2010Prop37
 90
       50
102
RTVSPost2010PropOp37
 70
     1
102
RTVSPost2010Prop38
140
0.0
102
RTVSPost2010PropOp38
 70
     1
102
RTVSPost2010Prop39
140
1.0
102
RTVSPost2010PropOp39
 70
     1
102
RTVSPost2010Prop40
 90
        0
102
RTVSPost2010PropOp40
 70
     1
102
RTVSPost2010Prop41ColorIndex
 90
       18
102
RTVSPost2010Prop41ColorRGB
 90
        0
102
RTVSPost2010PropOp41
 70
     1
102
RTVSPost2010Prop42
 90
       50
102
RTVSPost2010PropOp42
 70
     1
102
RTVSPost2010Prop43
 90
        3
102
RTVSPost2010PropOp43
 70
     1
102
RTVSPost2010Prop44ColorIndex
 90
        5
102
RTVSPost2010Prop44ColorRGB
 90
      255
102
RTVSPost2010PropOp44
 70
     1
102
RTVSPost2010Prop45
280
     0
102
RTVSPost2010PropOp45
 70
     1
102
RTVSPost2010Prop46
 90
       50
102
RTVSPost2010PropOp46
 70
     1
102
RTVSPost2010Prop47
 90
       50
102
RTVSPost2010PropOp47
 70
     1
102
RTVSPost2010Prop48
 90
       50
102
RTVSPost2010PropOp48
 70
     1
102
RTVSPost2010Prop49
280
     0
102
RTVSPost2010PropOp49
 70
     1
102
RTVSPost2010Prop50
 90
       50
102
RTVSPost2010PropOp50
 70
     1
102
RTVSPost2010Prop51ColorIndex
 90
      256
102
RTVSPost2010Prop51ColorRGB
 90
-16777216
102
RTVSPost2010PropOp51
 70
     0
102
RTVSPost2010Prop52
140
1.0
102
RTVSPost2010PropOp52
 70
     0
102
RTVSPost2010Prop53
 90
        2
102
RTVSPost2010PropOp53
 70
     1
102
RTVSPost2010Prop54
  1
strokes_ogs.tif
102
RTVSPost2010PropOp54
 70
     1
102
RTVSPost2010Prop55
280
     0
102
RTVSPost2010PropOp55
 70
     1
102
RTVSPost2010Prop56
140
1.0
102
RTVSPost2010PropOp56
 70
     1
102
RTVSPost2010Prop57
140
1.0
102
RTVSPost2010PropOp57
 70
     1
102
RTVSPropertyOp0
 70
     1
102
RTVSPropertyOp1
 70
     1
102
RTVSPropertyOp2
 70
     1
102
RTVSPropertyOp3
 70
     1
102
RTVSPropertyOp4
 70
     1
102
RTVSPropertyOp5
 70
     1
102
RTVSPropertyOp6
 70
     1
102
RTVSPropertyOp7
 70
     1
102
RTVSPropertyOp8
 70
     1
102
RTVSPropertyOp9
 70
     1
102
RTVSPropertyOp10
 70
     1
102
RTVSPropertyOp11
 70
     1
102
RTVSPropertyOp12
 70
     1
102
RTVSPropertyOp13
 70
     1
102
RTVSPropertyOp14
 70
     1
102
RTVSPropertyOp15
 70
     1
102
RTVSPropertyOp16
 70
     1
102
RTVSPropertyOp17
 70
     1
102
RTVSPropertyOp18
 70
     1
102
RTVSPropertyOp19
 70
     1
102
RTVSPropertyOp20
 70
     1
102
RTVSPropertyOp21
 70
     1
102
RTVSPropertyOp22
 70
     1
102
RTVSPropertyOp23
 70
     1
102
RTVSPropertyOp24
 70
     1
102
RTVSPropertyOp25
 70
     1
102
RTVSPropertyOp26
 70
     1
102
RTVSPropertyOp27
 70
     1
102
RTVSPropertyOp28
 70
     1
102
RTVSPropertyOp29
 70
     1
102
RTVSPropertyOp30
 70
     1
102
RTVSPropertyOp31
 70
     1
102
RTVSPropertyOp32
 70
     1
102
RTVSPropertyOp33
 70
     1
102
RTVSPropertyOp34
 70
     1
102
RTVSPropertyOp35
 70
     1
102
RTVSPropertyOp36
 70
     1
102
RTVSPropertyOp37
 70
     1
102
RTVSPropertyOp38
 70
     1
102
RTVSPropertyOp39
 70
     1
102
RTVSPropertyOp40
 70
     1
102
RTVSPropertyOp41
 70
     1
102
RTVSPropertyOp42
 70
     1
102
RTVSPropertyOp43
 70
     1
102
RTVSPropertyOp44
 70
     1
102
RTVSPropertyOp45
 70
     1
102
RTVSPropertyOp46
 70
     1
102
RTVSPropertyOp47
 70
     1
102
RTVSPropertyOp48
 70
     1
102
RTVSPropertyOp49
 70
     1
102
RTVSPropertyOp50
 70
     1
102
RTVSPropertyOp51
 70
     0
102
RTVSPropertyOp52
 70
     0
102
RTVSPropertyOp53
 70
     1
102
RTVSPropertyOp54
 70
     1
102
RTVSPropertyOp55
 70
     1
102
RTVSPropertyOp56
 70
     1
102
RTVSPropertyOp57
 70
     1
102
RTVSPropertyOp58
 70
     1
102
RTVSPropertyOp59
 70
     1
102
RTVSPropertyOp60
 70
     1
102
RTVSPropertyOp61
 70
     1
102
RTVSPropertyOp62
 70
     1
  0
XRECORD
  5
A25
102
{ACAD_REACTORS
330
A24
102
}
330
A24
100
AcDbXrecord
280
     1
102
RTVSPost2010Prop28
280
     0
102
RTVSPost2010PropOp28
 70
     1
102
RTVSPost2010Prop29
280
     1
102
RTVSPost2010PropOp29
 70
     1
102
RTVSPost2010Prop30
280
     1
102
RTVSPost2010PropOp30
 70
     1
102
RTVSPost2010Prop31
280
     0
102
RTVSPost2010PropOp31
 70
     1
102
RTVSPost2010Prop32
280
     0
102
RTVSPost2010PropOp32
 70
     1
102
RTVSPost2010Prop33
280
     0
102
RTVSPost2010PropOp33
 70
     1
102
RTVSPost2010Prop34
280
     0
102
RTVSPost2010PropOp34
 70
     1
102
RTVSPost2010Prop35
280
     0
102
RTVSPost2010PropOp35
 70
     1
102
RTVSPost2010Prop36
280
     0
102
RTVSPost2010PropOp36
 70
     1
102
RTVSPost2010Prop37
 90
       50
102
RTVSPost2010PropOp37
 70
     1
102
RTVSPost2010Prop38
140
0.0
102
RTVSPost2010PropOp38
 70
     1
102
RTVSPost2010Prop39
140
1.0
102
RTVSPost2010PropOp39
 70
     1
102
RTVSPost2010Prop40
 90
        0
102
RTVSPost2010PropOp40
 70
     1
102
RTVSPost2010Prop41ColorIndex
 90
       18
102
RTVSPost2010Prop41ColorRGB
 90
        0
102
RTVSPost2010PropOp41
 70
     1
102
RTVSPost2010Prop42
 90
       50
102
RTVSPost2010PropOp42
 70
     1
102
RTVSPost2010Prop43
 90
        3
102
RTVSPost2010PropOp43
 70
     1
102
RTVSPost2010Prop44ColorIndex
 90
        5
102
RTVSPost2010Prop44ColorRGB
 90
      255
102
RTVSPost2010PropOp44
 70
     1
102
RTVSPost2010Prop45
280
     0
102
RTVSPost2010PropOp45
 70
     1
102
RTVSPost2010Prop46
 90
       50
102
RTVSPost2010PropOp46
 70
     1
102
RTVSPost2010Prop47
 90
       50
102
RTVSPost2010PropOp47
 70
     1
102
RTVSPost2010Prop48
 90
       50
102
RTVSPost2010PropOp48
 70
     1
102
RTVSPost2010Prop49
280
     0
102
RTVSPost2010PropOp49
 70
     1
102
RTVSPost2010Prop50
 90
       50
102
RTVSPost2010PropOp50
 70
     1
102
RTVSPost2010Prop51ColorIndex
 90
      256
102
RTVSPost2010Prop51ColorRGB
 90
-16777216
102
RTVSPost2010PropOp51
 70
     0
102
RTVSPost2010Prop52
140
1.0
102
RTVSPost2010PropOp52
 70
     0
102
RTVSPost2010Prop53
 90
        2
102
RTVSPost2010PropOp53
 70
     1
102
RTVSPost2010Prop54
  1
strokes_ogs.tif
102
RTVSPost2010PropOp54
 70
     1
102
RTVSPost2010Prop55
280
     0
102
RTVSPost2010PropOp55
 70
     1
102
RTVSPost2010Prop56
140
1.0
102
RTVSPost2010PropOp56
 70
     1
102
RTVSPost2010Prop57
140
1.0
102
RTVSPost2010PropOp57
 70
     1
102
RTVSPropertyOp0
 70
     1
102
RTVSPropertyOp1
 70
     1
102
RTVSPropertyOp2
 70
     1
102
RTVSPropertyOp3
 70
     1
102
RTVSPropertyOp4
 70
     1
102
RTVSPropertyOp5
 70
     1
102
RTVSPropertyOp6
 70
     1
102
RTVSPropertyOp7
 70
     1
102
RTVSPropertyOp8
 70
     1
102
RTVSPropertyOp9
 70
     1
102
RTVSPropertyOp10
 70
     1
102
RTVSPropertyOp11
 70
     1
102
RTVSPropertyOp12
 70
     1
102
RTVSPropertyOp13
 70
     1
102
RTVSPropertyOp14
 70
     1
102
RTVSPropertyOp15
 70
     1
102
RTVSPropertyOp16
 70
     1
102
RTVSPropertyOp17
 70
     1
102
RTVSPropertyOp18
 70
     1
102
RTVSPropertyOp19
 70
     1
102
RTVSPropertyOp20
 70
     1
102
RTVSPropertyOp21
 70
     1
102
RTVSPropertyOp22
 70
     1
102
RTVSPropertyOp23
 70
     1
102
RTVSPropertyOp24
 70
     1
102
RTVSPropertyOp25
 70
     1
102
RTVSPropertyOp26
 70
     1
102
RTVSPropertyOp27
 70
     1
102
RTVSPropertyOp28
 70
     1
102
RTVSPropertyOp29
 70
     1
102
RTVSPropertyOp30
 70
     1
102
RTVSPropertyOp31
 70
     1
102
RTVSPropertyOp32
 70
     1
102
RTVSPropertyOp33
 70
     1
102
RTVSPropertyOp34
 70
     1
102
RTVSPropertyOp35
 70
     1
102
RTVSPropertyOp36
 70
     1
102
RTVSPropertyOp37
 70
     1
102
RTVSPropertyOp38
 70
     1
102
RTVSPropertyOp39
 70
     1
102
RTVSPropertyOp40
 70
     1
102
RTVSPropertyOp41
 70
     1
102
RTVSPropertyOp42
 70
     1
102
RTVSPropertyOp43
 70
     1
102
RTVSPropertyOp44
 70
     1
102
RTVSPropertyOp45
 70
     1
102
RTVSPropertyOp46
 70
     1
102
RTVSPropertyOp47
 70
     1
102
RTVSPropertyOp48
 70
     1
102
RTVSPropertyOp49
 70
     1
102
RTVSPropertyOp50
 70
     1
102
RTVSPropertyOp51
 70
     0
102
RTVSPropertyOp52
 70
     0
102
RTVSPropertyOp53
 70
     1
102
RTVSPropertyOp54
 70
     1
102
RTVSPropertyOp55
 70
     1
102
RTVSPropertyOp56
 70
     1
102
RTVSPropertyOp57
 70
     1
102
RTVSPropertyOp58
 70
     1
102
RTVSPropertyOp59
 70
     1
102
RTVSPropertyOp60
 70
     1
102
RTVSPropertyOp61
 70
     1
102
RTVSPropertyOp62
 70
     1
  0
XRECORD
  5
A1B
102
{ACAD_REACTORS
330
A1A
102
}
330
A1A
100
AcDbXrecord
280
     1
102
RTVSPost2010Prop28
280
     0
102
RTVSPost2010PropOp28
 70
     1
102
RTVSPost2010Prop29
280
     1
102
RTVSPost2010PropOp29
 70
     1
102
RTVSPost2010Prop30
280
     1
102
RTVSPost2010PropOp30
 70
     1
102
RTVSPost2010Prop31
280
     0
102
RTVSPost2010PropOp31
 70
     1
102
RTVSPost2010Prop32
280
     0
102
RTVSPost2010PropOp32
 70
     1
102
RTVSPost2010Prop33
280
     0
102
RTVSPost2010PropOp33
 70
     1
102
RTVSPost2010Prop34
280
     0
102
RTVSPost2010PropOp34
 70
     1
102
RTVSPost2010Prop35
280
     0
102
RTVSPost2010PropOp35
 70
     1
102
RTVSPost2010Prop36
280
     0
102
RTVSPost2010PropOp36
 70
     1
102
RTVSPost2010Prop37
 90
       50
102
RTVSPost2010PropOp37
 70
     1
102
RTVSPost2010Prop38
140
0.0
102
RTVSPost2010PropOp38
 70
     1
102
RTVSPost2010Prop39
140
1.0
102
RTVSPost2010PropOp39
 70
     1
102
RTVSPost2010Prop40
 90
        0
102
RTVSPost2010PropOp40
 70
     1
102
RTVSPost2010Prop41ColorIndex
 90
       18
102
RTVSPost2010Prop41ColorRGB
 90
        0
102
RTVSPost2010PropOp41
 70
     1
102
RTVSPost2010Prop42
 90
       50
102
RTVSPost2010PropOp42
 70
     1
102
RTVSPost2010Prop43
 90
        3
102
RTVSPost2010PropOp43
 70
     1
102
RTVSPost2010Prop44ColorIndex
 90
        5
102
RTVSPost2010Prop44ColorRGB
 90
      255
102
RTVSPost2010PropOp44
 70
     1
102
RTVSPost2010Prop45
280
     0
102
RTVSPost2010PropOp45
 70
     1
102
RTVSPost2010Prop46
 90
       50
102
RTVSPost2010PropOp46
 70
     1
102
RTVSPost2010Prop47
 90
       50
102
RTVSPost2010PropOp47
 70
     1
102
RTVSPost2010Prop48
 90
       50
102
RTVSPost2010PropOp48
 70
     1
102
RTVSPost2010Prop49
280
     0
102
RTVSPost2010PropOp49
 70
     1
102
RTVSPost2010Prop50
 90
       50
102
RTVSPost2010PropOp50
 70
     1
102
RTVSPost2010Prop51ColorIndex
 90
      256
102
RTVSPost2010Prop51ColorRGB
 90
-16777216
102
RTVSPost2010PropOp51
 70
     0
102
RTVSPost2010Prop52
140
1.0
102
RTVSPost2010PropOp52
 70
     0
102
RTVSPost2010Prop53
 90
        2
102
RTVSPost2010PropOp53
 70
     1
102
RTVSPost2010Prop54
  1
strokes_ogs.tif
102
RTVSPost2010PropOp54
 70
     1
102
RTVSPost2010Prop55
280
     0
102
RTVSPost2010PropOp55
 70
     1
102
RTVSPost2010Prop56
140
1.0
102
RTVSPost2010PropOp56
 70
     1
102
RTVSPost2010Prop57
140
1.0
102
RTVSPost2010PropOp57
 70
     1
102
RTVSPropertyOp0
 70
     1
102
RTVSPropertyOp1
 70
     1
102
RTVSPropertyOp2
 70
     1
102
RTVSPropertyOp3
 70
     1
102
RTVSPropertyOp4
 70
     1
102
RTVSPropertyOp5
 70
     1
102
RTVSPropertyOp6
 70
     1
102
RTVSPropertyOp7
 70
     1
102
RTVSPropertyOp8
 70
     1
102
RTVSPropertyOp9
 70
     1
102
RTVSPropertyOp10
 70
     1
102
RTVSPropertyOp11
 70
     1
102
RTVSPropertyOp12
 70
     1
102
RTVSPropertyOp13
 70
     1
102
RTVSPropertyOp14
 70
     1
102
RTVSPropertyOp15
 70
     1
102
RTVSPropertyOp16
 70
     1
102
RTVSPropertyOp17
 70
     1
102
RTVSPropertyOp18
 70
     1
102
RTVSPropertyOp19
 70
     1
102
RTVSPropertyOp20
 70
     1
102
RTVSPropertyOp21
 70
     1
102
RTVSPropertyOp22
 70
     1
102
RTVSPropertyOp23
 70
     1
102
RTVSPropertyOp24
 70
     1
102
RTVSPropertyOp25
 70
     1
102
RTVSPropertyOp26
 70
     1
102
RTVSPropertyOp27
 70
     1
102
RTVSPropertyOp28
 70
     1
102
RTVSPropertyOp29
 70
     1
102
RTVSPropertyOp30
 70
     1
102
RTVSPropertyOp31
 70
     1
102
RTVSPropertyOp32
 70
     1
102
RTVSPropertyOp33
 70
     1
102
RTVSPropertyOp34
 70
     1
102
RTVSPropertyOp35
 70
     1
102
RTVSPropertyOp36
 70
     1
102
RTVSPropertyOp37
 70
     1
102
RTVSPropertyOp38
 70
     1
102
RTVSPropertyOp39
 70
     1
102
RTVSPropertyOp40
 70
     1
102
RTVSPropertyOp41
 70
     1
102
RTVSPropertyOp42
 70
     1
102
RTVSPropertyOp43
 70
     1
102
RTVSPropertyOp44
 70
     1
102
RTVSPropertyOp45
 70
     1
102
RTVSPropertyOp46
 70
     1
102
RTVSPropertyOp47
 70
     1
102
RTVSPropertyOp48
 70
     1
102
RTVSPropertyOp49
 70
     1
102
RTVSPropertyOp50
 70
     1
102
RTVSPropertyOp51
 70
     0
102
RTVSPropertyOp52
 70
     0
102
RTVSPropertyOp53
 70
     1
102
RTVSPropertyOp54
 70
     1
102
RTVSPropertyOp55
 70
     1
102
RTVSPropertyOp56
 70
     1
102
RTVSPropertyOp57
 70
     1
102
RTVSPropertyOp58
 70
     1
102
RTVSPropertyOp59
 70
     1
102
RTVSPropertyOp60
 70
     1
102
RTVSPropertyOp61
 70
     1
102
RTVSPropertyOp62
 70
     1
  0
XRECORD
  5
A0F
102
{ACAD_REACTORS
330
A0E
102
}
330
A0E
100
AcDbXrecord
280
     1
102
RTVSPost2010Prop28
280
     0
102
RTVSPost2010PropOp28
 70
     1
102
RTVSPost2010Prop29
280
     1
102
RTVSPost2010PropOp29
 70
     1
102
RTVSPost2010Prop30
280
     1
102
RTVSPost2010PropOp30
 70
     1
102
RTVSPost2010Prop31
280
     0
102
RTVSPost2010PropOp31
 70
     1
102
RTVSPost2010Prop32
280
     0
102
RTVSPost2010PropOp32
 70
     1
102
RTVSPost2010Prop33
280
     0
102
RTVSPost2010PropOp33
 70
     1
102
RTVSPost2010Prop34
280
     0
102
RTVSPost2010PropOp34
 70
     1
102
RTVSPost2010Prop35
280
     0
102
RTVSPost2010PropOp35
 70
     1
102
RTVSPost2010Prop36
280
     0
102
RTVSPost2010PropOp36
 70
     1
102
RTVSPost2010Prop37
 90
       50
102
RTVSPost2010PropOp37
 70
     1
102
RTVSPost2010Prop38
140
0.0
102
RTVSPost2010PropOp38
 70
     1
102
RTVSPost2010Prop39
140
1.0
102
RTVSPost2010PropOp39
 70
     1
102
RTVSPost2010Prop40
 90
        0
102
RTVSPost2010PropOp40
 70
     1
102
RTVSPost2010Prop41ColorIndex
 90
       18
102
RTVSPost2010Prop41ColorRGB
 90
        0
102
RTVSPost2010PropOp41
 70
     1
102
RTVSPost2010Prop42
 90
       50
102
RTVSPost2010PropOp42
 70
     1
102
RTVSPost2010Prop43
 90
        3
102
RTVSPost2010PropOp43
 70
     1
102
RTVSPost2010Prop44ColorIndex
 90
        5
102
RTVSPost2010Prop44ColorRGB
 90
      255
102
RTVSPost2010PropOp44
 70
     1
102
RTVSPost2010Prop45
280
     0
102
RTVSPost2010PropOp45
 70
     1
102
RTVSPost2010Prop46
 90
       50
102
RTVSPost2010PropOp46
 70
     1
102
RTVSPost2010Prop47
 90
       50
102
RTVSPost2010PropOp47
 70
     1
102
RTVSPost2010Prop48
 90
       50
102
RTVSPost2010PropOp48
 70
     1
102
RTVSPost2010Prop49
280
     0
102
RTVSPost2010PropOp49
 70
     1
102
RTVSPost2010Prop50
 90
       50
102
RTVSPost2010PropOp50
 70
     1
102
RTVSPost2010Prop51ColorIndex
 90
      256
102
RTVSPost2010Prop51ColorRGB
 90
-16777216
102
RTVSPost2010PropOp51
 70
     0
102
RTVSPost2010Prop52
140
1.0
102
RTVSPost2010PropOp52
 70
     0
102
RTVSPost2010Prop53
 90
        2
102
RTVSPost2010PropOp53
 70
     1
102
RTVSPost2010Prop54
  1
strokes_ogs.tif
102
RTVSPost2010PropOp54
 70
     1
102
RTVSPost2010Prop55
280
     0
102
RTVSPost2010PropOp55
 70
     1
102
RTVSPost2010Prop56
140
1.0
102
RTVSPost2010PropOp56
 70
     1
102
RTVSPost2010Prop57
140
1.0
102
RTVSPost2010PropOp57
 70
     1
102
RTVSPropertyOp0
 70
     1
102
RTVSPropertyOp1
 70
     1
102
RTVSPropertyOp2
 70
     1
102
RTVSPropertyOp3
 70
     1
102
RTVSPropertyOp4
 70
     1
102
RTVSPropertyOp5
 70
     1
102
RTVSPropertyOp6
 70
     1
102
RTVSPropertyOp7
 70
     1
102
RTVSPropertyOp8
 70
     1
102
RTVSPropertyOp9
 70
     1
102
RTVSPropertyOp10
 70
     1
102
RTVSPropertyOp11
 70
     1
102
RTVSPropertyOp12
 70
     1
102
RTVSPropertyOp13
 70
     1
102
RTVSPropertyOp14
 70
     1
102
RTVSPropertyOp15
 70
     1
102
RTVSPropertyOp16
 70
     1
102
RTVSPropertyOp17
 70
     1
102
RTVSPropertyOp18
 70
     1
102
RTVSPropertyOp19
 70
     1
102
RTVSPropertyOp20
 70
     1
102
RTVSPropertyOp21
 70
     1
102
RTVSPropertyOp22
 70
     1
102
RTVSPropertyOp23
 70
     1
102
RTVSPropertyOp24
 70
     1
102
RTVSPropertyOp25
 70
     1
102
RTVSPropertyOp26
 70
     1
102
RTVSPropertyOp27
 70
     1
102
RTVSPropertyOp28
 70
     1
102
RTVSPropertyOp29
 70
     1
102
RTVSPropertyOp30
 70
     1
102
RTVSPropertyOp31
 70
     1
102
RTVSPropertyOp32
 70
     1
102
RTVSPropertyOp33
 70
     1
102
RTVSPropertyOp34
 70
     1
102
RTVSPropertyOp35
 70
     1
102
RTVSPropertyOp36
 70
     1
102
RTVSPropertyOp37
 70
     1
102
RTVSPropertyOp38
 70
     1
102
RTVSPropertyOp39
 70
     1
102
RTVSPropertyOp40
 70
     1
102
RTVSPropertyOp41
 70
     1
102
RTVSPropertyOp42
 70
     1
102
RTVSPropertyOp43
 70
     1
102
RTVSPropertyOp44
 70
     1
102
RTVSPropertyOp45
 70
     1
102
RTVSPropertyOp46
 70
     1
102
RTVSPropertyOp47
 70
     1
102
RTVSPropertyOp48
 70
     1
102
RTVSPropertyOp49
 70
     1
102
RTVSPropertyOp50
 70
     1
102
RTVSPropertyOp51
 70
     0
102
RTVSPropertyOp52
 70
     0
102
RTVSPropertyOp53
 70
     1
102
RTVSPropertyOp54
 70
     1
102
RTVSPropertyOp55
 70
     1
102
RTVSPropertyOp56
 70
     1
102
RTVSPropertyOp57
 70
     1
102
RTVSPropertyOp58
 70
     1
102
RTVSPropertyOp59
 70
     1
102
RTVSPropertyOp60
 70
     1
102
RTVSPropertyOp61
 70
     1
102
RTVSPropertyOp62
 70
     1
  0
XRECORD
  5
A27
102
{ACAD_REACTORS
330
A26
102
}
330
A26
100
AcDbXrecord
280
     1
102
RTVSPost2010Prop28
280
     0
102
RTVSPost2010PropOp28
 70
     1
102
RTVSPost2010Prop29
280
     1
102
RTVSPost2010PropOp29
 70
     1
102
RTVSPost2010Prop30
280
     1
102
RTVSPost2010PropOp30
 70
     1
102
RTVSPost2010Prop31
280
     0
102
RTVSPost2010PropOp31
 70
     1
102
RTVSPost2010Prop32
280
     0
102
RTVSPost2010PropOp32
 70
     1
102
RTVSPost2010Prop33
280
     0
102
RTVSPost2010PropOp33
 70
     1
102
RTVSPost2010Prop34
280
     0
102
RTVSPost2010PropOp34
 70
     1
102
RTVSPost2010Prop35
280
     0
102
RTVSPost2010PropOp35
 70
     1
102
RTVSPost2010Prop36
280
     0
102
RTVSPost2010PropOp36
 70
     1
102
RTVSPost2010Prop37
 90
       50
102
RTVSPost2010PropOp37
 70
     1
102
RTVSPost2010Prop38
140
0.0
102
RTVSPost2010PropOp38
 70
     1
102
RTVSPost2010Prop39
140
1.0
102
RTVSPost2010PropOp39
 70
     1
102
RTVSPost2010Prop40
 90
        0
102
RTVSPost2010PropOp40
 70
     1
102
RTVSPost2010Prop41ColorIndex
 90
       18
102
RTVSPost2010Prop41ColorRGB
 90
        0
102
RTVSPost2010PropOp41
 70
     1
102
RTVSPost2010Prop42
 90
       50
102
RTVSPost2010PropOp42
 70
     1
102
RTVSPost2010Prop43
 90
        3
102
RTVSPost2010PropOp43
 70
     1
102
RTVSPost2010Prop44ColorIndex
 90
        5
102
RTVSPost2010Prop44ColorRGB
 90
      255
102
RTVSPost2010PropOp44
 70
     1
102
RTVSPost2010Prop45
280
     0
102
RTVSPost2010PropOp45
 70
     1
102
RTVSPost2010Prop46
 90
       50
102
RTVSPost2010PropOp46
 70
     1
102
RTVSPost2010Prop47
 90
       50
102
RTVSPost2010PropOp47
 70
     1
102
RTVSPost2010Prop48
 90
       50
102
RTVSPost2010PropOp48
 70
     1
102
RTVSPost2010Prop49
280
     0
102
RTVSPost2010PropOp49
 70
     1
102
RTVSPost2010Prop50
 90
       50
102
RTVSPost2010PropOp50
 70
     1
102
RTVSPost2010Prop51ColorIndex
 90
      256
102
RTVSPost2010Prop51ColorRGB
 90
-16777216
102
RTVSPost2010PropOp51
 70
     0
102
RTVSPost2010Prop52
140
1.0
102
RTVSPost2010PropOp52
 70
     0
102
RTVSPost2010Prop53
 90
        2
102
RTVSPost2010PropOp53
 70
     1
102
RTVSPost2010Prop54
  1
strokes_ogs.tif
102
RTVSPost2010PropOp54
 70
     1
102
RTVSPost2010Prop55
280
     0
102
RTVSPost2010PropOp55
 70
     1
102
RTVSPost2010Prop56
140
1.0
102
RTVSPost2010PropOp56
 70
     1
102
RTVSPost2010Prop57
140
1.0
102
RTVSPost2010PropOp57
 70
     1
102
RTVSPropertyOp0
 70
     1
102
RTVSPropertyOp1
 70
     1
102
RTVSPropertyOp2
 70
     1
102
RTVSPropertyOp3
 70
     1
102
RTVSPropertyOp4
 70
     1
102
RTVSPropertyOp5
 70
     1
102
RTVSPropertyOp6
 70
     1
102
RTVSPropertyOp7
 70
     1
102
RTVSPropertyOp8
 70
     1
102
RTVSPropertyOp9
 70
     1
102
RTVSPropertyOp10
 70
     1
102
RTVSPropertyOp11
 70
     1
102
RTVSPropertyOp12
 70
     1
102
RTVSPropertyOp13
 70
     1
102
RTVSPropertyOp14
 70
     1
102
RTVSPropertyOp15
 70
     1
102
RTVSPropertyOp16
 70
     1
102
RTVSPropertyOp17
 70
     1
102
RTVSPropertyOp18
 70
     1
102
RTVSPropertyOp19
 70
     1
102
RTVSPropertyOp20
 70
     1
102
RTVSPropertyOp21
 70
     1
102
RTVSPropertyOp22
 70
     1
102
RTVSPropertyOp23
 70
     1
102
RTVSPropertyOp24
 70
     1
102
RTVSPropertyOp25
 70
     1
102
RTVSPropertyOp26
 70
     1
102
RTVSPropertyOp27
 70
     1
102
RTVSPropertyOp28
 70
     1
102
RTVSPropertyOp29
 70
     1
102
RTVSPropertyOp30
 70
     1
102
RTVSPropertyOp31
 70
     1
102
RTVSPropertyOp32
 70
     1
102
RTVSPropertyOp33
 70
     1
102
RTVSPropertyOp34
 70
     1
102
RTVSPropertyOp35
 70
     1
102
RTVSPropertyOp36
 70
     1
102
RTVSPropertyOp37
 70
     1
102
RTVSPropertyOp38
 70
     1
102
RTVSPropertyOp39
 70
     1
102
RTVSPropertyOp40
 70
     1
102
RTVSPropertyOp41
 70
     1
102
RTVSPropertyOp42
 70
     1
102
RTVSPropertyOp43
 70
     1
102
RTVSPropertyOp44
 70
     1
102
RTVSPropertyOp45
 70
     1
102
RTVSPropertyOp46
 70
     1
102
RTVSPropertyOp47
 70
     1
102
RTVSPropertyOp48
 70
     1
102
RTVSPropertyOp49
 70
     1
102
RTVSPropertyOp50
 70
     1
102
RTVSPropertyOp51
 70
     0
102
RTVSPropertyOp52
 70
     0
102
RTVSPropertyOp53
 70
     1
102
RTVSPropertyOp54
 70
     1
102
RTVSPropertyOp55
 70
     1
102
RTVSPropertyOp56
 70
     1
102
RTVSPropertyOp57
 70
     1
102
RTVSPropertyOp58
 70
     1
102
RTVSPropertyOp59
 70
     1
102
RTVSPropertyOp60
 70
     1
102
RTVSPropertyOp61
 70
     1
102
RTVSPropertyOp62
 70
     1
  0
ENDSEC
  0
EOF
