  0
SECTION
  2
HEADER
  9
$ACADVER
  1
AC1015
  9
$ACADMAINTVER
 70
    20
  9
$DWGCODEPAGE
  3
ANSI_932
  9
$INSBASE
 10
0.0
 20
0.0
 30
0.0
  9
$EXTMIN
 10
9.987261
 20
9.999999999999998
 30
0.0
  9
$EXTMAX
 10
305.8009609999999
 20
249.5639029999999
 30
0.0
  9
$LIMMIN
 10
0.0
 20
0.0
  9
$LIMMAX
 10
396.0
 20
273.0
  9
$ORTHOMODE
 70
     1
  9
$REGENMODE
 70
     1
  9
$FILLMODE
 70
     1
  9
$QTEXTMODE
 70
     0
  9
$MIRRTEXT
 70
     1
  9
$LTSCALE
 40
20.0
  9
$ATTMODE
 70
     1
  9
$TEXTSIZE
 40
5.0
  9
$TRACEWID
 40
1.0
  9
$TEXTSTYLE
  7
STANDARD
  9
$CLAYER
  8
0
  9
$CELTYPE
  6
BYLAYER
  9
$CECOLOR
 62
   256
  9
$CELTSCALE
 40
1.0
  9
$DISPSILH
 70
     0
  9
$DIMSCALE
 40
1.0
  9
$DIMASZ
 40
3.0
  9
$DIMEXO
 40
1.0
  9
$DIMDLI
 40
10.0
  9
$DIMRND
 40
0.0
  9
$DIMDLE
 40
0.0
  9
$DIMEXE
 40
1.0
  9
$DIMTP
 40
0.0
  9
$DIMTM
 40
0.0
  9
$DIMTXT
 40
3.2
  9
$DIMCEN
 40
0.0
  9
$DIMTSZ
 40
0.0
  9
$DIMTOL
 70
     0
  9
$DIMLIM
 70
     0
  9
$DIMTIH
 70
     0
  9
$DIMTOH
 70
     0
  9
$DIMSE1
 70
     0
  9
$DIMSE2
 70
     0
  9
$DIMTAD
 70
     3
  9
$DIMZIN
 70
     8
  9
$DIMBLK
  1

  9
$DIMASO
 70
     1
  9
$DIMSHO
 70
     1
  9
$DIMPOST
  1

  9
$DIMAPOST
  1

  9
$DIMALT
 70
     0
  9
$DIMALTD
 70
     2
  9
$DIMALTF
 40
25.4
  9
$DIMLFAC
 40
1.0
  9
$DIMTOFL
 70
     1
  9
$DIMTVP
 40
0.0
  9
$DIMTIX
 70
     0
  9
$DIMSOXD
 70
     0
  9
$DIMSAH
 70
     1
  9
$DIMBLK1
  1

  9
$DIMBLK2
  1

  9
$DIMSTYLE
  2
STANDARD
  9
$DIMCLRD
 70
     0
  9
$DIMCLRE
 70
     0
  9
$DIMCLRT
 70
     0
  9
$DIMTFAC
 40
1.0
  9
$DIMGAP
 40
1.0
  9
$DIMJUST
 70
     0
  9
$DIMSD1
 70
     0
  9
$DIMSD2
 70
     0
  9
$DIMTOLJ
 70
     1
  9
$DIMTZIN
 70
     0
  9
$DIMALTZ
 70
     0
  9
$DIMALTTZ
 70
     0
  9
$DIMUPT
 70
     0
  9
$DIMDEC
 70
     4
  9
$DIMTDEC
 70
     4
  9
$DIMALTU
 70
     2
  9
$DIMALTTD
 70
     2
  9
$DIMTXSTY
  7
STANDARD
  9
$DIMAUNIT
 70
     0
  9
$DIMADEC
 70
     0
  9
$DIMALTRND
 40
0.0
  9
$DIMAZIN
 70
     0
  9
$DIMDSEP
 70
    46
  9
$DIMATFIT
 70
     3
  9
$DIMFRAC
 70
     0
  9
$DIMLDRBLK
  1

  9
$DIMLUNIT
 70
     2
  9
$DIMLWD
 70
    -2
  9
$DIMLWE
 70
    -2
  9
$DIMTMOVE
 70
     0
  9
$LUNITS
 70
     2
  9
$LUPREC
 70
     4
  9
$SKETCHINC
 40
1.0
  9
$FILLETRAD
 40
1.6
  9
$AUNITS
 70
     0
  9
$AUPREC
 70
     2
  9
$MENU
  1
.
  9
$ELEVATION
 40
0.0
  9
$PELEVATION
 40
0.0
  9
$THICKNESS
 40
0.0
  9
$LIMCHECK
 70
     0
  9
$CHAMFERA
 40
10.0
  9
$CHAMFERB
 40
10.0
  9
$CHAMFERC
 40
0.0
  9
$CHAMFERD
 40
0.0
  9
$SKPOLY
 70
     0
  9
$TDCREATE
 40
2450946.567576042
  9
$TDUCREATE
 40
2450946.192576042
  9
$TDUPDATE
 40
2457192.601150451
  9
$TDUUPDATE
 40
2457192.226150451
  9
$TDINDWG
 40
0.0000137500
  9
$TDUSRTIMER
 40
0.0000132523
  9
$USRTIMER
 70
     1
  9
$ANGBASE
 50
0.0
  9
$ANGDIR
 70
     0
  9
$PDMODE
 70
     0
  9
$PDSIZE
 40
0.0
  9
$PLINEWID
 40
0.0
  9
$SPLFRAME
 70
     0
  9
$SPLINETYPE
 70
     6
  9
$SPLINESEGS
 70
     8
  9
$HANDSEED
  5
98B7
  9
$SURFTAB1
 70
     6
  9
$SURFTAB2
 70
     6
  9
$SURFTYPE
 70
     6
  9
$SURFU
 70
     6
  9
$SURFV
 70
     6
  9
$UCSBASE
  2

  9
$UCSNAME
  2

  9
$UCSORG
 10
0.0
 20
0.0
 30
0.0
  9
$UCSXDIR
 10
1.0
 20
0.0
 30
0.0
  9
$UCSYDIR
 10
0.0
 20
1.0
 30
0.0
  9
$UCSORTHOREF
  2

  9
$UCSORTHOVIEW
 70
     0
  9
$UCSORGTOP
 10
0.0
 20
0.0
 30
0.0
  9
$UCSORGBOTTOM
 10
0.0
 20
0.0
 30
0.0
  9
$UCSORGLEFT
 10
0.0
 20
0.0
 30
0.0
  9
$UCSORGRIGHT
 10
0.0
 20
0.0
 30
0.0
  9
$UCSORGFRONT
 10
0.0
 20
0.0
 30
0.0
  9
$UCSORGBACK
 10
0.0
 20
0.0
 30
0.0
  9
$PUCSBASE
  2

  9
$PUCSNAME
  2

  9
$PUCSORG
 10
0.0
 20
0.0
 30
0.0
  9
$PUCSXDIR
 10
1.0
 20
0.0
 30
0.0
  9
$PUCSYDIR
 10
0.0
 20
1.0
 30
0.0
  9
$PUCSORTHOREF
  2

  9
$PUCSORTHOVIEW
 70
     0
  9
$PUCSORGTOP
 10
0.0
 20
0.0
 30
0.0
  9
$PUCSORGBOTTOM
 10
0.0
 20
0.0
 30
0.0
  9
$PUCSORGLEFT
 10
0.0
 20
0.0
 30
0.0
  9
$PUCSORGRIGHT
 10
0.0
 20
0.0
 30
0.0
  9
$PUCSORGFRONT
 10
0.0
 20
0.0
 30
0.0
  9
$PUCSORGBACK
 10
0.0
 20
0.0
 30
0.0
  9
$USERI1
 70
     0
  9
$USERI2
 70
     0
  9
$USERI3
 70
     0
  9
$USERI4
 70
     0
  9
$USERI5
 70
     0
  9
$USERR1
 40
0.0
  9
$USERR2
 40
0.0
  9
$USERR3
 40
0.0
  9
$USERR4
 40
0.0
  9
$USERR5
 40
0.0
  9
$WORLDVIEW
 70
     1
  9
$SHADEDGE
 70
     3
  9
$SHADEDIF
 70
    70
  9
$TILEMODE
 70
     1
  9
$MAXACTVP
 70
    16
  9
$PINSBASE
 10
0.0
 20
0.0
 30
0.0
  9
$PLIMCHECK
 70
     0
  9
$PEXTMIN
 10
1.000000000000000E+20
 20
1.000000000000000E+20
 30
1.000000000000000E+20
  9
$PEXTMAX
 10
-1.000000000000000E+20
 20
-1.000000000000000E+20
 30
-1.000000000000000E+20
  9
$PLIMMIN
 10
0.0
 20
0.0
  9
$PLIMMAX
 10
420.0
 20
297.0
  9
$UNITMODE
 70
     0
  9
$VISRETAIN
 70
     0
  9
$PLINEGEN
 70
     0
  9
$PSLTSCALE
 70
     0
  9
$TREEDEPTH
 70
  3020
  9
$CMLSTYLE
  2
STANDARD
  9
$CMLJUST
 70
     0
  9
$CMLSCALE
 40
1.0
  9
$PROXYGRAPHICS
 70
     1
  9
$MEASUREMENT
 70
     0
  9
$CELWEIGHT
370
    -1
  9
$ENDCAPS
280
     0
  9
$JOINSTYLE
280
     0
  9
$LWDISPLAY
290
     0
  9
$INSUNITS
 70
     0
  9
$HYPERLINKBASE
  1

  9
$STYLESHEET
  1

  9
$XEDIT
290
     1
  9
$CEPSNTYPE
380
     0
  9
$PSTYLEMODE
290
     1
  9
$FINGERPRINTGUID
  2
{552B1905-EB9D-4912-86FA-8F591DF57CB3}
  9
$VERSIONGUID
  2
{DA02E11C-11EB-4856-813F-7518C4CCF0A5}
  9
$EXTNAMES
290
     1
  9
$PSVPSCALE
 40
0.0
  9
$OLESTARTUP
290
     0
  0
ENDSEC
  0
SECTION
  2
CLASSES
  0
CLASS
  1
ACDBDICTIONARYWDFLT
  2
AcDbDictionaryWithDefault
  3
ObjectDBX Classes
 90
        0
280
     0
281
     0
  0
CLASS
  1
ACDBPLACEHOLDER
  2
AcDbPlaceHolder
  3
ObjectDBX Classes
 90
        0
280
     0
281
     0
  0
CLASS
  1
LAYOUT
  2
AcDbLayout
  3
ObjectDBX Classes
 90
        0
280
     0
281
     0
  0
CLASS
  1
DICTIONARYVAR
  2
AcDbDictionaryVar
  3
ObjectDBX Classes
 90
        0
280
     0
281
     0
  0
CLASS
  1
MATERIAL
  2
AcDbMaterial
  3
ObjectDBX Classes
 90
     1153
280
     0
281
     0
  0
CLASS
  1
VISUALSTYLE
  2
AcDbVisualStyle
  3
ObjectDBX Classes
 90
     4095
280
     0
281
     0
  0
CLASS
  1
TABLESTYLE
  2
AcDbTableStyle
  3
ObjectDBX Classes
 90
     4095
280
     0
281
     0
  0
CLASS
  1
SCALE
  2
AcDbScale
  3
ObjectDBX Classes
 90
     1153
280
     0
281
     0
  0
CLASS
  1
MLEADERSTYLE
  2
AcDbMLeaderStyle
  3
ACDB_MLEADERSTYLE_CLASS
 90
     4095
280
     0
281
     0
  0
CLASS
  1
ACDBSECTIONVIEWSTYLE
  2
AcDbSectionViewStyle
  3
ObjectDBX Classes
 90
     1025
280
     0
281
     0
  0
CLASS
  1
ACDBDETAILVIEWSTYLE
  2
AcDbDetailViewStyle
  3
ObjectDBX Classes
 90
     1025
280
     0
281
     0
  0
CLASS
  1
CELLSTYLEMAP
  2
AcDbCellStyleMap
  3
ObjectDBX Classes
 90
     1152
280
     0
281
     0
  0
ENDSEC
  0
SECTION
  2
TABLES
  0
TABLE
  2
VPORT
  5
9631
330
0
100
AcDbSymbolTable
 70
     1
  0
VPORT
  5
9800
330
9631
100
AcDbSymbolTableRecord
100
AcDbViewportTableRecord
  2
*ACTIVE
 70
     0
 10
0.0
 20
0.0
 11
1.0
 21
1.0
 12
230.4597146500535
 22
129.782890947632
 13
0.0
 23
0.0
 14
10.0
 24
10.0
 15
10.0
 25
10.0
 16
0.0
 26
0.0
 36
1.0
 17
0.0
 27
0.0
 37
0.0
 40
242.2669707360807
 41
1.899603698811096
 42
50.0
 43
0.0
 44
0.0
 50
0.0
 51
0.0
 71
     0
 72
   100
 73
     1
 74
     0
 75
     0
 76
     0
 77
     0
 78
     0
281
     0
 65
     1
110
0.0
120
0.0
130
0.0
111
1.0
121
0.0
131
0.0
112
0.0
122
1.0
132
0.0
 79
     0
146
0.0
1001
ACAD_NAV_VCDISPLAY
1070
     3
  0
ENDTAB
  0
TABLE
  2
LTYPE
  5
962E
330
0
100
AcDbSymbolTable
 70
     4
  0
LTYPE
  5
963C
330
962E
100
AcDbSymbolTableRecord
100
AcDbLinetypeTableRecord
  2
BYBLOCK
 70
     0
  3

 72
    65
 73
     0
 40
0.0
  0
LTYPE
  5
963D
330
962E
100
AcDbSymbolTableRecord
100
AcDbLinetypeTableRecord
  2
BYLAYER
 70
     0
  3

 72
    65
 73
     0
 40
0.0
  0
LTYPE
  5
963E
330
962E
100
AcDbSymbolTableRecord
100
AcDbLinetypeTableRecord
  2
CONTINUOUS
 70
     0
  3
Solid line
 72
    65
 73
     0
 40
0.0
  0
LTYPE
  5
964C
330
962E
100
AcDbSymbolTableRecord
100
AcDbLinetypeTableRecord
  2
DASHED
 70
     0
  3
__ __ __ __ __ __ __ __ __ __ __ __ __ __ __ __
 72
    65
 73
     2
 40
0.75
 49
0.5
 74
     0
 49
-0.25
 74
     0
  0
LTYPE
  5
964D
330
962E
100
AcDbSymbolTableRecord
100
AcDbLinetypeTableRecord
  2
CENTER
 70
     0
  3
____ _ ____ _ ____ _ ____ _ ____ _ ____ _ ____ 
 72
    65
 73
     4
 40
2.0
 49
1.25
 74
     0
 49
-0.25
 74
     0
 49
0.25
 74
     0
 49
-0.25
 74
     0
  0
LTYPE
  5
964E
330
962E
100
AcDbSymbolTableRecord
100
AcDbLinetypeTableRecord
  2
PHANTOM
 70
     0
  3
______  __  __  ______  __  __  ______  __  __ 
 72
    65
 73
     6
 40
2.5
 49
1.25
 74
     0
 49
-0.25
 74
     0
 49
0.25
 74
     0
 49
-0.25
 74
     0
 49
0.25
 74
     0
 49
-0.25
 74
     0
  0
ENDTAB
  0
TABLE
  2
LAYER
  5
962B
330
0
100
AcDbSymbolTable
 70
     8
  0
LAYER
  5
9639
102
{ACAD_XDICTIONARY
360
985B
102
}
330
962B
100
AcDbSymbolTableRecord
100
AcDbLayerTableRecord
  2
0
 70
     0
 62
     7
  6
CONTINUOUS
370
    -3
390
9809
  0
LAYER
  5
964F
102
{ACAD_XDICTIONARY
360
985D
102
}
330
962B
100
AcDbSymbolTableRecord
100
AcDbLayerTableRecord
  2
4
 70
     0
 62
     1
  6
CENTER
370
    -3
390
9809
  0
LAYER
  5
9650
102
{ACAD_XDICTIONARY
360
985F
102
}
330
962B
100
AcDbSymbolTableRecord
100
AcDbLayerTableRecord
  2
5
 70
     0
 62
     6
  6
PHANTOM
370
    -3
390
9809
  0
LAYER
  5
9651
102
{ACAD_XDICTIONARY
360
9861
102
}
330
962B
100
AcDbSymbolTableRecord
100
AcDbLayerTableRecord
  2
1
 70
     0
 62
     7
  6
CONTINUOUS
370
    -3
390
9809
  0
LAYER
  5
9652
102
{ACAD_XDICTIONARY
360
9863
102
}
330
962B
100
AcDbSymbolTableRecord
100
AcDbLayerTableRecord
  2
2
 70
     0
 62
     4
  6
CONTINUOUS
370
    -3
390
9809
  0
LAYER
  5
9653
102
{ACAD_XDICTIONARY
360
9865
102
}
330
962B
100
AcDbSymbolTableRecord
100
AcDbLayerTableRecord
  2
3
 70
     0
 62
     2
  6
DASHED
370
    -3
390
9809
  0
LAYER
  5
9654
102
{ACAD_XDICTIONARY
360
9867
102
}
330
962B
100
AcDbSymbolTableRecord
100
AcDbLayerTableRecord
  2
6
 70
     0
 62
     5
  6
CONTINUOUS
370
    -3
390
9809
  0
LAYER
  5
9655
102
{ACAD_XDICTIONARY
360
9869
102
}
330
962B
100
AcDbSymbolTableRecord
100
AcDbLayerTableRecord
  2
7
 70
     0
 62
     3
  6
CONTINUOUS
370
    -3
390
9809
  0
ENDTAB
  0
TABLE
  2
STYLE
  5
962C
330
0
100
AcDbSymbolTable
 70
     1
  0
STYLE
  5
963A
330
962C
100
AcDbSymbolTableRecord
100
AcDbTextStyleTableRecord
  2
STANDARD
 70
     0
 40
0.0
 41
1.0
 50
0.0
 71
     0
 42
5.0
  3
txt
  4

  0
ENDTAB
  0
TABLE
  2
VIEW
  5
962F
330
0
100
AcDbSymbolTable
 70
     0
  0
ENDTAB
  0
TABLE
  2
UCS
  5
9630
330
0
100
AcDbSymbolTable
 70
     0
  0
ENDTAB
  0
TABLE
  2
APPID
  5
9632
330
0
100
AcDbSymbolTable
 70
     3
  0
APPID
  5
963B
330
9632
100
AcDbSymbolTableRecord
100
AcDbRegAppTableRecord
  2
ACAD
 70
     0
  0
APPID
  5
9875
330
9632
100
AcDbSymbolTableRecord
100
AcDbRegAppTableRecord
  2
ACAD_NAV_VCDISPLAY
 70
     0
  0
APPID
  5
98AE
330
9632
100
AcDbSymbolTableRecord
100
AcDbRegAppTableRecord
  2
ACAD_MLEADERVER
 70
     0
  0
ENDTAB
  0
TABLE
  2
DIMSTYLE
  5
9633
330
0
100
AcDbSymbolTable
 70
     1
100
AcDbDimStyleTable
 71
     0
  0
DIMSTYLE
105
9657
330
9633
100
AcDbSymbolTableRecord
100
AcDbDimStyleTableRecord
  2
STANDARD
 70
     0
 41
3.0
 42
1.0
 43
10.0
 44
1.0
 73
     0
 74
     0
 77
     3
 78
     8
140
3.2
141
0.0
147
1.0
172
     1
173
     1
284
     8
285
     8
286
     8
340
963A
  0
ENDTAB
  0
TABLE
  2
BLOCK_RECORD
  5
962A
330
0
100
AcDbSymbolTable
 70
     0
  0
BLOCK_RECORD
  5
9647
102
{ACAD_XDICTIONARY
360
9803
102
}
330
962A
100
AcDbSymbolTableRecord
100
AcDbBlockTableRecord
  2
*MODEL_SPACE
340
9857
  0
BLOCK_RECORD
  5
9643
102
{ACAD_XDICTIONARY
360
9801
102
}
330
962A
100
AcDbSymbolTableRecord
100
AcDbBlockTableRecord
  2
*PAPER_SPACE
340
9858
  0
ENDTAB
  0
ENDSEC
  0
SECTION
  2
BLOCKS
  0
BLOCK
  5
9648
330
9647
100
AcDbEntity
  8
0
100
AcDbBlockBegin
  2
*MODEL_SPACE
 70
     0
 10
0.0
 20
0.0
 30
0.0
  3
*MODEL_SPACE
  1

  0
ENDBLK
  5
9649
330
9647
100
AcDbEntity
  8
0
100
AcDbBlockEnd
  0
BLOCK
  5
9644
330
9643
100
AcDbEntity
 67
     1
  8
0
100
AcDbBlockBegin
  2
*PAPER_SPACE
 70
     0
 10
0.0
 20
0.0
 30
0.0
  3
*PAPER_SPACE
  1

  0
ENDBLK
  5
9645
330
9643
100
AcDbEntity
 67
     1
  8
0
100
AcDbBlockEnd
  0
ENDSEC
  0
SECTION
  2
ENTITIES
  0
TEXT
  5
965F
330
9647
100
AcDbEntity
  8
7
  6
Continuous
100
AcDbText
 10
10.0
 20
18.0
 30
0.0
 40
3.0
  1
TYPE No.TL-28A-2
100
AcDbText
  0
TEXT
  5
9660
330
9647
100
AcDbEntity
  8
7
  6
Continuous
100
AcDbText
 10
10.0
 20
26.0
 30
0.0
 40
3.0
  1
CODE No.1056
100
AcDbText
  0
TEXT
  5
9661
330
9647
100
AcDbEntity
  8
1
  6
Continuous
100
AcDbText
 10
10.0
 20
10.0
 30
0.0
 40
1.399999999999999
  1
LAYER
100
AcDbText
  0
TEXT
  5
9662
330
9647
100
AcDbEntity
  8
1
  6
Continuous
100
AcDbText
 10
17.97951099999998
 20
10.04873699999998
 30
0.0
 40
1.399999999999999
  1
1
100
AcDbText
  0
TEXT
  5
9663
330
9647
100
AcDbEntity
  8
7
  6
Continuous
100
AcDbText
 10
29.97951099999999
 20
10.04873699999998
 30
0.0
 40
1.399999999999999
  1
7
100
AcDbText
  0
TEXT
  5
9664
330
9647
100
AcDbEntity
  8
4
  6
CENTER
100
AcDbText
 10
23.97951099999999
 20
10.04873699999998
 30
0.0
 40
1.399999999999999
  1
4
100
AcDbText
  0
TEXT
  5
9665
330
9647
100
AcDbEntity
  8
3
  6
DASHED
100
AcDbText
 10
21.979511
 20
10.04873699999998
 30
0.0
 40
1.399999999999999
  1
3
100
AcDbText
  0
TEXT
  5
9666
330
9647
100
AcDbEntity
  8
2
  6
Continuous
100
AcDbText
 10
19.97951099999999
 20
10.04873699999998
 30
0.0
 40
1.399999999999999
  1
2
100
AcDbText
  0
TEXT
  5
9667
330
9647
100
AcDbEntity
  8
6
  6
Continuous
100
AcDbText
 10
27.979511
 20
10.04873699999998
 30
0.0
 40
1.399999999999999
  1
6
100
AcDbText
  0
TEXT
  5
9668
330
9647
100
AcDbEntity
  8
5
  6
PHANTOM
100
AcDbText
 10
25.97951099999999
 20
10.04873699999998
 30
0.0
 40
1.399999999999999
  1
5
100
AcDbText
  0
LINE
  5
9669
330
9647
100
AcDbEntity
  8
1
  6
Continuous
100
AcDbLine
 10
138.933961
 20
145.8279029999999
 30
0.0
 11
128.133961
 21
145.8279029999999
 31
0.0
  0
LINE
  5
966A
330
9647
100
AcDbEntity
  8
1
  6
Continuous
100
AcDbLine
 10
138.633961
 20
141.8279029999998
 30
0.0
 11
138.633961
 21
123.327903
 31
0.0
  0
LINE
  5
966B
330
9647
100
AcDbEntity
  8
1
  6
Continuous
100
AcDbLine
 10
134.633961
 20
119.327903
 30
0.0
 11
128.133961
 21
119.327903
 31
0.0
  0
LINE
  5
966C
330
9647
100
AcDbEntity
  8
1
  6
Continuous
100
AcDbLine
 10
129.7339609999999
 20
119.327903
 30
0.0
 11
129.7339609999999
 21
116.827903
 31
0.0
  0
LINE
  5
966D
330
9647
100
AcDbEntity
  8
4
  6
CENTER
100
AcDbLine
 10
133.633961
 20
137.627903
 30
0.0
 11
133.633961
 21
132.627903
 31
0.0
  0
LINE
  5
966E
330
9647
100
AcDbEntity
  8
4
  6
CENTER
100
AcDbLine
 10
136.1339609999999
 20
135.127903
 30
0.0
 11
131.133961
 21
135.127903
 31
0.0
  0
LINE
  5
966F
330
9647
100
AcDbEntity
  8
4
  6
CENTER
100
AcDbLine
 10
131.933961
 20
144.327903
 30
0.0
 11
131.933961
 21
139.3279029999999
 31
0.0
  0
LINE
  5
9670
330
9647
100
AcDbEntity
  8
4
  6
CENTER
100
AcDbLine
 10
134.433961
 20
141.8279029999998
 30
0.0
 11
129.433961
 21
141.8279029999998
 31
0.0
  0
LINE
  5
9671
330
9647
100
AcDbEntity
  8
1
  6
Continuous
100
AcDbLine
 10
12.338361
 20
145.8279029999999
 30
0.0
 11
13.93836099999999
 21
145.8279029999999
 31
0.0
  0
LINE
  5
9672
330
9647
100
AcDbEntity
  8
4
  6
CENTER
100
AcDbLine
 10
10.132961
 20
141.8279029999998
 30
0.0
 11
15.93836099999998
 21
141.8279029999998
 31
0.0
  0
LINE
  5
9673
330
9647
100
AcDbEntity
  8
4
  6
CENTER
100
AcDbLine
 10
26.738461
 20
172.365903
 30
0.0
 11
26.738461
 21
101.0171029999999
 31
0.0
  0
LINE
  5
9674
330
9647
100
AcDbEntity
  8
1
  6
Continuous
100
AcDbLine
 10
39.53846099999999
 20
145.8279029999999
 30
0.0
 11
39.53846099999999
 21
136.3279029999999
 31
0.0
  0
LINE
  5
9675
330
9647
100
AcDbEntity
  8
1
  6
Continuous
100
AcDbLine
 10
13.93836099999999
 20
145.8279029999999
 30
0.0
 11
13.93836099999999
 21
136.3279029999999
 31
0.0
  0
LINE
  5
9676
330
9647
100
AcDbEntity
  8
1
  6
Continuous
100
AcDbLine
 10
37.58836099999999
 20
136.3279029999999
 30
0.0
 11
37.58836099999999
 21
127.127903
 31
0.0
  0
LINE
  5
9677
330
9647
100
AcDbEntity
  8
1
  6
Continuous
100
AcDbLine
 10
15.88846099999999
 20
136.3279029999999
 30
0.0
 11
15.88846099999999
 21
127.127903
 31
0.0
  0
LINE
  5
9678
330
9647
100
AcDbEntity
  8
1
  6
Continuous
100
AcDbLine
 10
12.338361
 20
145.8279029999999
 30
0.0
 11
12.338361
 21
108.327903
 31
0.0
  0
LINE
  5
9679
330
9647
100
AcDbEntity
  8
1
  6
Continuous
100
AcDbLine
 10
41.13846099999999
 20
145.8279029999999
 30
0.0
 11
41.13846099999999
 21
108.327903
 31
0.0
  0
LINE
  5
967A
330
9647
100
AcDbEntity
  8
4
  6
CENTER
100
AcDbLine
 10
37.538461
 20
141.8279029999998
 30
0.0
 11
43.19676099999997
 21
141.8279029999998
 31
0.0
  0
LINE
  5
967B
330
9647
100
AcDbEntity
  8
4
  6
CENTER
100
AcDbLine
 10
9.987261
 20
135.127903
 30
0.0
 11
44.01956099999998
 21
135.127903
 31
0.0
  0
LINE
  5
967C
330
9647
100
AcDbEntity
  8
1
  6
Continuous
100
AcDbLine
 10
39.53846099999999
 20
145.8279029999999
 30
0.0
 11
41.13846099999999
 21
145.8279029999999
 31
0.0
  0
LINE
  5
967D
330
9647
100
AcDbEntity
  8
1
  6
Continuous
100
AcDbLine
 10
37.58836099999999
 20
136.3279029999999
 30
0.0
 11
39.53846099999999
 21
136.3279029999999
 31
0.0
  0
LINE
  5
967E
330
9647
100
AcDbEntity
  8
1
  6
Continuous
100
AcDbLine
 10
15.88846099999999
 20
127.127903
 30
0.0
 11
37.58836099999999
 21
127.127903
 31
0.0
  0
LINE
  5
967F
330
9647
100
AcDbEntity
  8
1
  6
Continuous
100
AcDbLine
 10
13.93836099999999
 20
136.3279029999999
 30
0.0
 11
15.88846099999999
 21
136.3279029999999
 31
0.0
  0
LINE
  5
9680
330
9647
100
AcDbEntity
  8
1
  6
Continuous
100
AcDbLine
 10
138.933961
 20
145.8279029999999
 30
0.0
 11
138.933961
 21
122.827903
 31
0.0
  0
LINE
  5
9681
330
9647
100
AcDbEntity
  8
1
  6
Continuous
100
AcDbLine
 10
138.933961
 20
122.827903
 30
0.0
 11
138.602961
 21
122.827903
 31
0.0
  0
LINE
  5
9682
330
9647
100
AcDbEntity
  8
1
  6
Continuous
100
AcDbLine
 10
138.933961
 20
137.8279029999999
 30
0.0
 11
138.633961
 21
137.8279029999999
 31
0.0
  0
LINE
  5
9683
330
9647
100
AcDbEntity
  8
4
  6
CENTER
100
AcDbLine
 10
140.499961
 20
126.4279029999999
 30
0.0
 11
137.2929609999999
 21
126.4279029999999
 31
0.0
  0
LINE
  5
9684
330
9647
100
AcDbEntity
  8
1
  6
Continuous
100
AcDbLine
 10
14.13846099999999
 20
145.8279029999999
 30
0.0
 11
14.13846099999999
 21
136.7279029999999
 31
0.0
  0
LINE
  5
9685
330
9647
100
AcDbEntity
  8
1
  6
Continuous
100
AcDbLine
 10
39.338361
 20
145.8279029999999
 30
0.0
 11
39.338361
 21
136.7279029999999
 31
0.0
  0
LINE
  5
9686
330
9647
100
AcDbEntity
  8
1
  6
Continuous
100
AcDbLine
 10
14.13846099999999
 20
145.8279029999999
 30
0.0
 11
15.988461
 21
145.8279029999999
 31
0.0
  0
LINE
  5
9687
330
9647
100
AcDbEntity
  8
1
  6
Continuous
100
AcDbLine
 10
14.13846099999999
 20
137.8279029999999
 30
0.0
 11
15.73846099999999
 21
137.8279029999999
 31
0.0
  0
LINE
  5
9688
330
9647
100
AcDbEntity
  8
1
  6
Continuous
100
AcDbLine
 10
15.73846099999999
 20
145.8279029999999
 30
0.0
 11
15.73846099999999
 21
137.8279029999999
 31
0.0
  0
LINE
  5
9689
330
9647
100
AcDbEntity
  8
1
  6
Continuous
100
AcDbLine
 10
37.738461
 20
145.8279029999999
 30
0.0
 11
37.738461
 21
137.8279029999999
 31
0.0
  0
LINE
  5
968A
330
9647
100
AcDbEntity
  8
1
  6
Continuous
100
AcDbLine
 10
37.738461
 20
137.8279029999999
 30
0.0
 11
39.338361
 21
137.8279029999999
 31
0.0
  0
LINE
  5
968B
330
9647
100
AcDbEntity
  8
1
  6
Continuous
100
AcDbLine
 10
136.8339609999999
 20
153.127903
 30
0.0
 11
136.8339609999999
 21
145.8279029999999
 31
0.0
  0
LINE
  5
968C
330
9647
100
AcDbEntity
  8
1
  6
Continuous
100
AcDbLine
 10
136.8339609999999
 20
152.127903
 30
0.0
 11
128.133961
 21
152.127903
 31
0.0
  0
LINE
  5
968D
330
9647
100
AcDbEntity
  8
1
  6
Continuous
100
AcDbLine
 10
136.8339609999999
 20
153.127903
 30
0.0
 11
135.4649609999999
 21
153.127903
 31
0.0
  0
LINE
  5
968E
330
9647
100
AcDbEntity
  8
1
  6
Continuous
100
AcDbLine
 10
19.73846099999998
 20
153.127903
 30
0.0
 11
33.738461
 21
153.127903
 31
0.0
  0
LINE
  5
968F
330
9647
100
AcDbEntity
  8
1
  6
Continuous
100
AcDbLine
 10
15.988461
 20
152.127903
 30
0.0
 11
19.73846099999998
 21
152.127903
 31
0.0
  0
LINE
  5
9690
330
9647
100
AcDbEntity
  8
1
  6
Continuous
100
AcDbLine
 10
15.988461
 20
128.127903
 30
0.0
 11
37.488461
 21
128.127903
 31
0.0
  0
LINE
  5
9691
330
9647
100
AcDbEntity
  8
1
  6
Continuous
100
AcDbLine
 10
37.488461
 20
152.127903
 30
0.0
 11
37.488461
 21
128.127903
 31
0.0
  0
LINE
  5
9692
330
9647
100
AcDbEntity
  8
1
  6
Continuous
100
AcDbLine
 10
15.988461
 20
152.127903
 30
0.0
 11
15.988461
 21
128.127903
 31
0.0
  0
LINE
  5
9693
330
9647
100
AcDbEntity
  8
1
  6
Continuous
100
AcDbLine
 10
33.738461
 20
153.127903
 30
0.0
 11
33.738461
 21
152.127903
 31
0.0
  0
LINE
  5
9694
330
9647
100
AcDbEntity
  8
1
  6
Continuous
100
AcDbLine
 10
19.73846099999998
 20
153.127903
 30
0.0
 11
19.73846099999998
 21
152.127903
 31
0.0
  0
LINE
  5
9695
330
9647
100
AcDbEntity
  8
1
  6
Continuous
100
AcDbLine
 10
37.488461
 20
145.8279029999999
 30
0.0
 11
39.338361
 21
145.8279029999999
 31
0.0
  0
LINE
  5
9696
330
9647
100
AcDbEntity
  8
1
  6
Continuous
100
AcDbLine
 10
33.738461
 20
152.127903
 30
0.0
 11
37.488461
 21
152.127903
 31
0.0
  0
LINE
  5
9697
330
9647
100
AcDbEntity
  8
1
  6
Continuous
100
AcDbLine
 10
41.738461
 20
143.327903
 30
0.0
 11
41.738461
 21
140.327903
 31
0.0
  0
LINE
  5
9698
330
9647
100
AcDbEntity
  8
1
  6
Continuous
100
AcDbLine
 10
41.13846099999999
 20
143.327903
 30
0.0
 11
41.738461
 21
143.327903
 31
0.0
  0
LINE
  5
9699
330
9647
100
AcDbEntity
  8
1
  6
Continuous
100
AcDbLine
 10
41.13846099999999
 20
140.327903
 30
0.0
 11
41.738461
 21
140.327903
 31
0.0
  0
LINE
  5
969A
330
9647
100
AcDbEntity
  8
1
  6
Continuous
100
AcDbLine
 10
12.338361
 20
143.327903
 30
0.0
 11
11.738461
 21
143.327903
 31
0.0
  0
LINE
  5
969B
330
9647
100
AcDbEntity
  8
1
  6
Continuous
100
AcDbLine
 10
11.738461
 20
143.327903
 30
0.0
 11
11.738461
 21
140.327903
 31
0.0
  0
LINE
  5
969C
330
9647
100
AcDbEntity
  8
1
  6
Continuous
100
AcDbLine
 10
12.338361
 20
140.327903
 30
0.0
 11
11.738461
 21
140.327903
 31
0.0
  0
LINE
  5
969D
330
9647
100
AcDbEntity
  8
1
  6
Continuous
100
AcDbLine
 10
11.23846099999999
 20
136.7279029999999
 30
0.0
 11
12.338361
 21
136.7279029999999
 31
0.0
  0
LINE
  5
969E
330
9647
100
AcDbEntity
  8
1
  6
Continuous
100
AcDbLine
 10
11.23846099999999
 20
133.527903
 30
0.0
 11
12.338361
 21
133.527903
 31
0.0
  0
LINE
  5
969F
330
9647
100
AcDbEntity
  8
1
  6
Continuous
100
AcDbLine
 10
11.23846099999999
 20
136.7279029999999
 30
0.0
 11
11.23846099999999
 21
133.527903
 31
0.0
  0
LINE
  5
96A0
330
9647
100
AcDbEntity
  8
1
  6
Continuous
100
AcDbLine
 10
42.238461
 20
136.7279029999999
 30
0.0
 11
42.238461
 21
133.527903
 31
0.0
  0
LINE
  5
96A1
330
9647
100
AcDbEntity
  8
1
  6
Continuous
100
AcDbLine
 10
41.13846099999999
 20
136.7279029999999
 30
0.0
 11
42.238461
 21
136.7279029999999
 31
0.0
  0
LINE
  5
96A2
330
9647
100
AcDbEntity
  8
1
  6
Continuous
100
AcDbLine
 10
41.13846099999999
 20
133.527903
 30
0.0
 11
42.238461
 21
133.527903
 31
0.0
  0
LINE
  5
96A3
330
9647
100
AcDbEntity
  8
1
  6
Continuous
100
AcDbLine
 10
13.93836099999999
 20
143.327903
 30
0.0
 11
14.13846099999999
 21
143.327903
 31
0.0
  0
LINE
  5
96A4
330
9647
100
AcDbEntity
  8
1
  6
Continuous
100
AcDbLine
 10
13.93836099999999
 20
140.327903
 30
0.0
 11
14.13846099999999
 21
140.327903
 31
0.0
  0
LINE
  5
96A5
330
9647
100
AcDbEntity
  8
1
  6
Continuous
100
AcDbLine
 10
39.338361
 20
143.327903
 30
0.0
 11
39.53846099999999
 21
143.327903
 31
0.0
  0
LINE
  5
96A6
330
9647
100
AcDbEntity
  8
1
  6
Continuous
100
AcDbLine
 10
39.338361
 20
140.327903
 30
0.0
 11
39.53846099999999
 21
140.327903
 31
0.0
  0
LINE
  5
96A7
330
9647
100
AcDbEntity
  8
1
  6
Continuous
100
AcDbLine
 10
37.488461
 20
136.7279029999999
 30
0.0
 11
39.53846099999999
 21
136.7279029999999
 31
0.0
  0
LINE
  5
96A8
330
9647
100
AcDbEntity
  8
1
  6
Continuous
100
AcDbLine
 10
37.488461
 20
133.527903
 30
0.0
 11
37.58836099999999
 21
133.527903
 31
0.0
  0
LINE
  5
96A9
330
9647
100
AcDbEntity
  8
1
  6
Continuous
100
AcDbLine
 10
15.988461
 20
136.7279029999999
 30
0.0
 11
13.93836099999999
 21
136.7279029999999
 31
0.0
  0
LINE
  5
96AA
330
9647
100
AcDbEntity
  8
1
  6
Continuous
100
AcDbLine
 10
15.988461
 20
133.527903
 30
0.0
 11
15.88846099999999
 21
133.527903
 31
0.0
  0
LINE
  5
96AB
330
9647
100
AcDbEntity
  8
4
  6
CENTER
100
AcDbLine
 10
33.988461
 20
128.9279029999999
 30
0.0
 11
33.988461
 21
123.927903
 31
0.0
  0
LINE
  5
96AC
330
9647
100
AcDbEntity
  8
4
  6
CENTER
100
AcDbLine
 10
31.488461
 20
126.4279029999999
 30
0.0
 11
36.488461
 21
126.4279029999999
 31
0.0
  0
LINE
  5
96AD
330
9647
100
AcDbEntity
  8
4
  6
CENTER
100
AcDbLine
 10
19.48846099999998
 20
128.9279029999999
 30
0.0
 11
19.48846099999998
 21
123.927903
 31
0.0
  0
LINE
  5
96AE
330
9647
100
AcDbEntity
  8
4
  6
CENTER
100
AcDbLine
 10
16.98846099999999
 20
126.4279029999999
 30
0.0
 11
21.98846099999999
 21
126.4279029999999
 31
0.0
  0
LINE
  5
96AF
330
9647
100
AcDbEntity
  8
4
  6
CENTER
100
AcDbLine
 10
80.737961
 20
178.9279029999999
 30
0.0
 11
80.737961
 21
173.9279029999999
 31
0.0
  0
LINE
  5
96B0
330
9647
100
AcDbEntity
  8
4
  6
CENTER
100
AcDbLine
 10
78.237961
 20
176.4279029999999
 30
0.0
 11
83.237961
 21
176.4279029999999
 31
0.0
  0
LINE
  5
96B1
330
9647
100
AcDbEntity
  8
4
  6
CENTER
100
AcDbLine
 10
72.738461
 20
178.9279029999999
 30
0.0
 11
72.738461
 21
173.9279029999999
 31
0.0
  0
LINE
  5
96B2
330
9647
100
AcDbEntity
  8
4
  6
CENTER
100
AcDbLine
 10
70.238461
 20
176.4279029999999
 30
0.0
 11
75.238461
 21
176.4279029999999
 31
0.0
  0
LINE
  5
96B3
330
9647
100
AcDbEntity
  8
1
  6
Continuous
100
AcDbLine
 10
69.988461
 20
181.4279029999999
 30
0.0
 11
83.48796099999999
 21
181.4279029999999
 31
0.0
  0
LINE
  5
96B4
330
9647
100
AcDbEntity
  8
1
  6
Continuous
100
AcDbLine
 10
69.988461
 20
165.4279029999999
 30
0.0
 11
83.48796099999999
 21
165.4279029999999
 31
0.0
  0
LINE
  5
96B5
330
9647
100
AcDbEntity
  8
4
  6
CENTER
100
AcDbLine
 10
76.738461
 20
183.678903
 30
0.0
 11
76.738461
 21
162.7689029999999
 31
0.0
  0
LINE
  5
96B6
330
9647
100
AcDbEntity
  8
1
  6
Continuous
100
AcDbLine
 10
68.488461
 20
179.9279029999999
 30
0.0
 11
68.488461
 21
172.4279029999999
 31
0.0
  0
LINE
  5
96B7
330
9647
100
AcDbEntity
  8
1
  6
Continuous
100
AcDbLine
 10
84.98796099999998
 20
179.9279029999999
 30
0.0
 11
84.98796099999998
 21
172.4279029999999
 31
0.0
  0
LINE
  5
96B8
330
9647
100
AcDbEntity
  8
1
  6
Continuous
100
AcDbLine
 10
69.988461
 20
171.4279029999999
 30
0.0
 11
69.988461
 21
165.4279029999999
 31
0.0
  0
LINE
  5
96B9
330
9647
100
AcDbEntity
  8
1
  6
Continuous
100
AcDbLine
 10
83.48796099999999
 20
171.4279029999999
 30
0.0
 11
83.48796099999999
 21
165.4279029999999
 31
0.0
  0
LINE
  5
96BA
330
9647
100
AcDbEntity
  8
1
  6
Continuous
100
AcDbLine
 10
68.988461
 20
171.9279029999999
 30
0.0
 11
69.488461
 21
171.9279029999999
 31
0.0
  0
LINE
  5
96BB
330
9647
100
AcDbEntity
  8
1
  6
Continuous
100
AcDbLine
 10
83.987961
 20
171.9279029999999
 30
0.0
 11
84.487961
 21
171.9279029999999
 31
0.0
  0
LINE
  5
96BC
330
9647
100
AcDbEntity
  8
1
  6
Continuous
100
AcDbLine
 10
177.3339609999999
 20
171.9279029999999
 30
0.0
 11
178.933961
 21
171.9279029999999
 31
0.0
  0
LINE
  5
96BD
330
9647
100
AcDbEntity
  8
4
  6
CENTER
100
AcDbLine
 10
174.699961
 20
176.4279029999999
 30
0.0
 11
181.502961
 21
176.4279029999999
 31
0.0
  0
LINE
  5
96BE
330
9647
100
AcDbEntity
  8
1
  6
Continuous
100
AcDbLine
 10
177.3339609999999
 20
181.4279029999999
 30
0.0
 11
178.933961
 21
181.4279029999999
 31
0.0
  0
LINE
  5
96BF
330
9647
100
AcDbEntity
  8
1
  6
Continuous
100
AcDbLine
 10
178.933961
 20
181.4279029999999
 30
0.0
 11
178.933961
 21
168.777903
 31
0.0
  0
LINE
  5
96C0
330
9647
100
AcDbEntity
  8
1
  6
Continuous
100
AcDbLine
 10
177.3339609999999
 20
181.4279029999999
 30
0.0
 11
177.3339609999999
 21
168.777903
 31
0.0
  0
LINE
  5
96C1
330
9647
100
AcDbEntity
  8
1
  6
Continuous
100
AcDbLine
 10
171.433961
 20
169.0729029999999
 30
0.0
 11
172.7529609999999
 21
166.9879029999998
 31
0.0
  0
LINE
  5
96C2
330
9647
100
AcDbEntity
  8
1
  6
Continuous
100
AcDbLine
 10
172.7869609999999
 20
169.9279029999999
 30
0.0
 11
174.104961
 21
167.842903
 31
0.0
  0
LINE
  5
96C3
330
9647
100
AcDbEntity
  8
1
  6
Continuous
100
AcDbLine
 10
172.7869609999999
 20
169.9279029999999
 30
0.0
 11
171.433961
 21
169.0729029999999
 31
0.0
  0
LINE
  5
96C4
330
9647
100
AcDbEntity
  8
1
  6
Continuous
100
AcDbLine
 10
71.488461
 20
169.9279029999999
 30
0.0
 11
81.987961
 21
169.9279029999999
 31
0.0
  0
LINE
  5
96C5
330
9647
100
AcDbEntity
  8
1
  6
Continuous
100
AcDbLine
 10
71.488461
 20
169.0729029999999
 30
0.0
 11
81.987961
 21
169.0729029999999
 31
0.0
  0
LINE
  5
96C6
330
9647
100
AcDbEntity
  8
1
  6
Continuous
100
AcDbLine
 10
261.3299609999998
 20
145.8279029999999
 30
0.0
 11
259.7299609999998
 21
145.8279029999999
 31
0.0
  0
LINE
  5
96C7
330
9647
100
AcDbEntity
  8
4
  6
CENTER
100
AcDbLine
 10
263.535961
 20
141.8279029999998
 30
0.0
 11
257.729961
 21
141.8279029999998
 31
0.0
  0
LINE
  5
96C8
330
9647
100
AcDbEntity
  8
4
  6
CENTER
100
AcDbLine
 10
246.9299609999999
 20
172.2149029999999
 30
0.0
 11
246.9299609999999
 21
101.841803
 31
0.0
  0
LINE
  5
96C9
330
9647
100
AcDbEntity
  8
1
  6
Continuous
100
AcDbLine
 10
234.1299609999999
 20
145.8279029999999
 30
0.0
 11
234.1299609999999
 21
119.327903
 31
0.0
  0
LINE
  5
96CA
330
9647
100
AcDbEntity
  8
1
  6
Continuous
100
AcDbLine
 10
259.7299609999998
 20
145.8279029999999
 30
0.0
 11
259.7299609999998
 21
119.327903
 31
0.0
  0
LINE
  5
96CB
330
9647
100
AcDbEntity
  8
1
  6
Continuous
100
AcDbLine
 10
261.3299609999998
 20
145.8279029999999
 30
0.0
 11
261.3299609999998
 21
108.327903
 31
0.0
  0
LINE
  5
96CC
330
9647
100
AcDbEntity
  8
1
  6
Continuous
100
AcDbLine
 10
232.529961
 20
145.8279029999999
 30
0.0
 11
232.529961
 21
108.327903
 31
0.0
  0
LINE
  5
96CD
330
9647
100
AcDbEntity
  8
4
  6
CENTER
100
AcDbLine
 10
236.529961
 20
141.8279029999998
 30
0.0
 11
230.1469609999998
 21
141.8279029999998
 31
0.0
  0
LINE
  5
96CE
330
9647
100
AcDbEntity
  8
4
  6
CENTER
100
AcDbLine
 10
263.6809609999999
 20
135.127903
 30
0.0
 11
229.648961
 21
135.127903
 31
0.0
  0
LINE
  5
96CF
330
9647
100
AcDbEntity
  8
1
  6
Continuous
100
AcDbLine
 10
234.1299609999999
 20
145.8279029999999
 30
0.0
 11
232.529961
 21
145.8279029999999
 31
0.0
  0
LINE
  5
96D0
330
9647
100
AcDbEntity
  8
1
  6
Continuous
100
AcDbLine
 10
259.529961
 20
145.8279029999999
 30
0.0
 11
259.529961
 21
136.7279029999999
 31
0.0
  0
LINE
  5
96D1
330
9647
100
AcDbEntity
  8
1
  6
Continuous
100
AcDbLine
 10
234.3299609999998
 20
145.8279029999999
 30
0.0
 11
234.3299609999998
 21
136.7279029999999
 31
0.0
  0
LINE
  5
96D2
330
9647
100
AcDbEntity
  8
1
  6
Continuous
100
AcDbLine
 10
259.529961
 20
145.8279029999999
 30
0.0
 11
234.3299609999998
 21
145.8279029999999
 31
0.0
  0
LINE
  5
96D3
330
9647
100
AcDbEntity
  8
1
  6
Continuous
100
AcDbLine
 10
259.529961
 20
137.8279029999999
 30
0.0
 11
257.929961
 21
137.8279029999999
 31
0.0
  0
LINE
  5
96D4
330
9647
100
AcDbEntity
  8
1
  6
Continuous
100
AcDbLine
 10
235.9299609999999
 20
137.8279029999999
 30
0.0
 11
234.3299609999998
 21
137.8279029999999
 31
0.0
  0
LINE
  5
96D5
330
9647
100
AcDbEntity
  8
1
  6
Continuous
100
AcDbLine
 10
253.929961
 20
153.127903
 30
0.0
 11
239.9299609999999
 21
153.127903
 31
0.0
  0
LINE
  5
96D6
330
9647
100
AcDbEntity
  8
1
  6
Continuous
100
AcDbLine
 10
257.679961
 20
152.127903
 30
0.0
 11
236.1799609999999
 21
152.127903
 31
0.0
  0
LINE
  5
96D7
330
9647
100
AcDbEntity
  8
1
  6
Continuous
100
AcDbLine
 10
236.1799609999999
 20
152.127903
 30
0.0
 11
236.1799609999999
 21
145.8279029999999
 31
0.0
  0
LINE
  5
96D8
330
9647
100
AcDbEntity
  8
1
  6
Continuous
100
AcDbLine
 10
257.679961
 20
152.127903
 30
0.0
 11
257.679961
 21
145.8279029999999
 31
0.0
  0
LINE
  5
96D9
330
9647
100
AcDbEntity
  8
1
  6
Continuous
100
AcDbLine
 10
239.9299609999999
 20
153.127903
 30
0.0
 11
239.9299609999999
 21
152.127903
 31
0.0
  0
LINE
  5
96DA
330
9647
100
AcDbEntity
  8
1
  6
Continuous
100
AcDbLine
 10
253.929961
 20
153.127903
 30
0.0
 11
253.929961
 21
152.127903
 31
0.0
  0
LINE
  5
96DB
330
9647
100
AcDbEntity
  8
1
  6
Continuous
100
AcDbLine
 10
231.9299609999999
 20
143.327903
 30
0.0
 11
231.9299609999999
 21
140.327903
 31
0.0
  0
LINE
  5
96DC
330
9647
100
AcDbEntity
  8
1
  6
Continuous
100
AcDbLine
 10
232.529961
 20
143.327903
 30
0.0
 11
231.9299609999999
 21
143.327903
 31
0.0
  0
LINE
  5
96DD
330
9647
100
AcDbEntity
  8
1
  6
Continuous
100
AcDbLine
 10
232.529961
 20
140.327903
 30
0.0
 11
231.9299609999999
 21
140.327903
 31
0.0
  0
LINE
  5
96DE
330
9647
100
AcDbEntity
  8
1
  6
Continuous
100
AcDbLine
 10
261.3299609999998
 20
143.327903
 30
0.0
 11
261.929961
 21
143.327903
 31
0.0
  0
LINE
  5
96DF
330
9647
100
AcDbEntity
  8
1
  6
Continuous
100
AcDbLine
 10
261.929961
 20
143.327903
 30
0.0
 11
261.929961
 21
140.327903
 31
0.0
  0
LINE
  5
96E0
330
9647
100
AcDbEntity
  8
1
  6
Continuous
100
AcDbLine
 10
261.3299609999998
 20
140.327903
 30
0.0
 11
261.929961
 21
140.327903
 31
0.0
  0
LINE
  5
96E1
330
9647
100
AcDbEntity
  8
1
  6
Continuous
100
AcDbLine
 10
262.429961
 20
136.7279029999999
 30
0.0
 11
261.3299609999998
 21
136.7279029999999
 31
0.0
  0
LINE
  5
96E2
330
9647
100
AcDbEntity
  8
1
  6
Continuous
100
AcDbLine
 10
262.429961
 20
133.527903
 30
0.0
 11
261.3299609999998
 21
133.527903
 31
0.0
  0
LINE
  5
96E3
330
9647
100
AcDbEntity
  8
1
  6
Continuous
100
AcDbLine
 10
262.429961
 20
136.7279029999999
 30
0.0
 11
262.429961
 21
133.527903
 31
0.0
  0
LINE
  5
96E4
330
9647
100
AcDbEntity
  8
1
  6
Continuous
100
AcDbLine
 10
231.4299609999999
 20
136.7279029999999
 30
0.0
 11
231.4299609999999
 21
133.527903
 31
0.0
  0
LINE
  5
96E5
330
9647
100
AcDbEntity
  8
1
  6
Continuous
100
AcDbLine
 10
232.529961
 20
136.7279029999999
 30
0.0
 11
231.4299609999999
 21
136.7279029999999
 31
0.0
  0
LINE
  5
96E6
330
9647
100
AcDbEntity
  8
1
  6
Continuous
100
AcDbLine
 10
232.529961
 20
133.527903
 30
0.0
 11
231.4299609999999
 21
133.527903
 31
0.0
  0
LINE
  5
96E7
330
9647
100
AcDbEntity
  8
1
  6
Continuous
100
AcDbLine
 10
259.7299609999998
 20
143.327903
 30
0.0
 11
259.529961
 21
143.327903
 31
0.0
  0
LINE
  5
96E8
330
9647
100
AcDbEntity
  8
1
  6
Continuous
100
AcDbLine
 10
259.7299609999998
 20
140.327903
 30
0.0
 11
259.529961
 21
140.327903
 31
0.0
  0
LINE
  5
96E9
330
9647
100
AcDbEntity
  8
1
  6
Continuous
100
AcDbLine
 10
234.3299609999998
 20
143.327903
 30
0.0
 11
234.1299609999999
 21
143.327903
 31
0.0
  0
LINE
  5
96EA
330
9647
100
AcDbEntity
  8
1
  6
Continuous
100
AcDbLine
 10
234.3299609999998
 20
140.327903
 30
0.0
 11
234.1299609999999
 21
140.327903
 31
0.0
  0
LINE
  5
96EB
330
9647
100
AcDbEntity
  8
1
  6
Continuous
100
AcDbLine
 10
237.375961
 20
136.7279029999999
 30
0.0
 11
234.1299609999999
 21
136.7279029999999
 31
0.0
  0
LINE
  5
96EC
330
9647
100
AcDbEntity
  8
1
  6
Continuous
100
AcDbLine
 10
256.4839609999999
 20
136.7279029999999
 30
0.0
 11
259.7299609999998
 21
136.7279029999999
 31
0.0
  0
LINE
  5
96ED
330
9647
100
AcDbEntity
  8
4
  6
CENTER
100
AcDbLine
 10
239.6799609999999
 20
128.9279029999999
 30
0.0
 11
239.6799609999999
 21
123.927903
 31
0.0
  0
LINE
  5
96EE
330
9647
100
AcDbEntity
  8
4
  6
CENTER
100
AcDbLine
 10
242.1799609999999
 20
126.4279029999999
 30
0.0
 11
237.179961
 21
126.4279029999999
 31
0.0
  0
LINE
  5
96EF
330
9647
100
AcDbEntity
  8
4
  6
CENTER
100
AcDbLine
 10
254.1799609999999
 20
128.9279029999999
 30
0.0
 11
254.1799609999999
 21
123.927903
 31
0.0
  0
LINE
  5
96F0
330
9647
100
AcDbEntity
  8
4
  6
CENTER
100
AcDbLine
 10
256.6799609999999
 20
126.4279029999999
 30
0.0
 11
251.679961
 21
126.4279029999999
 31
0.0
  0
LINE
  5
96F1
330
9647
100
AcDbEntity
  8
4
  6
CENTER
100
AcDbLine
 10
292.929961
 20
178.9279029999999
 30
0.0
 11
292.929961
 21
173.9279029999999
 31
0.0
  0
LINE
  5
96F2
330
9647
100
AcDbEntity
  8
4
  6
CENTER
100
AcDbLine
 10
295.4299609999998
 20
176.4279029999999
 30
0.0
 11
290.4299609999998
 21
176.4279029999999
 31
0.0
  0
LINE
  5
96F3
330
9647
100
AcDbEntity
  8
4
  6
CENTER
100
AcDbLine
 10
300.9299609999998
 20
178.9279029999999
 30
0.0
 11
300.9299609999998
 21
173.9279029999999
 31
0.0
  0
LINE
  5
96F4
330
9647
100
AcDbEntity
  8
4
  6
CENTER
100
AcDbLine
 10
303.429961
 20
176.4279029999999
 30
0.0
 11
298.4299609999998
 21
176.4279029999999
 31
0.0
  0
LINE
  5
96F5
330
9647
100
AcDbEntity
  8
1
  6
Continuous
100
AcDbLine
 10
303.679961
 20
181.4279029999999
 30
0.0
 11
290.1799609999999
 21
181.4279029999999
 31
0.0
  0
LINE
  5
96F6
330
9647
100
AcDbEntity
  8
1
  6
Continuous
100
AcDbLine
 10
303.679961
 20
165.4279029999999
 30
0.0
 11
290.1799609999999
 21
165.4279029999999
 31
0.0
  0
LINE
  5
96F7
330
9647
100
AcDbEntity
  8
4
  6
CENTER
100
AcDbLine
 10
296.9299609999998
 20
183.678903
 30
0.0
 11
296.9299609999998
 21
162.7689029999999
 31
0.0
  0
LINE
  5
96F8
330
9647
100
AcDbEntity
  8
1
  6
Continuous
100
AcDbLine
 10
305.1799609999998
 20
179.9279029999999
 30
0.0
 11
305.1799609999998
 21
172.4279029999999
 31
0.0
  0
LINE
  5
96F9
330
9647
100
AcDbEntity
  8
1
  6
Continuous
100
AcDbLine
 10
288.679961
 20
179.9279029999999
 30
0.0
 11
288.679961
 21
172.4279029999999
 31
0.0
  0
LINE
  5
96FA
330
9647
100
AcDbEntity
  8
1
  6
Continuous
100
AcDbLine
 10
303.679961
 20
171.4279029999999
 30
0.0
 11
303.679961
 21
165.4279029999999
 31
0.0
  0
LINE
  5
96FB
330
9647
100
AcDbEntity
  8
1
  6
Continuous
100
AcDbLine
 10
290.1799609999999
 20
171.4279029999999
 30
0.0
 11
290.1799609999999
 21
165.4279029999999
 31
0.0
  0
LINE
  5
96FC
330
9647
100
AcDbEntity
  8
1
  6
Continuous
100
AcDbLine
 10
304.6799609999998
 20
171.9279029999999
 30
0.0
 11
304.1799609999998
 21
171.9279029999999
 31
0.0
  0
LINE
  5
96FD
330
9647
100
AcDbEntity
  8
1
  6
Continuous
100
AcDbLine
 10
289.679961
 20
171.9279029999999
 30
0.0
 11
289.1799609999998
 21
171.9279029999999
 31
0.0
  0
LINE
  5
96FE
330
9647
100
AcDbEntity
  8
1
  6
Continuous
100
AcDbLine
 10
254.4299609999999
 20
171.127903
 30
0.0
 11
254.4299609999999
 21
152.127903
 31
0.0
  0
LINE
  5
96FF
330
9647
100
AcDbEntity
  8
1
  6
Continuous
100
AcDbLine
 10
239.429961
 20
171.127903
 30
0.0
 11
239.429961
 21
152.127903
 31
0.0
  0
LINE
  5
9700
330
9647
100
AcDbEntity
  8
1
  6
Continuous
100
AcDbLine
 10
256.029961
 20
171.127903
 30
0.0
 11
256.029961
 21
152.127903
 31
0.0
  0
LINE
  5
9701
330
9647
100
AcDbEntity
  8
1
  6
Continuous
100
AcDbLine
 10
237.829961
 20
171.127903
 30
0.0
 11
237.829961
 21
152.127903
 31
0.0
  0
LINE
  5
9702
330
9647
100
AcDbEntity
  8
4
  6
CENTER
100
AcDbLine
 10
16.00986099999999
 20
240.8079029999999
 30
0.0
 11
37.806961
 21
240.8079029999999
 31
0.0
  0
LINE
  5
9703
330
9647
100
AcDbEntity
  8
1
  6
Continuous
100
AcDbLine
 10
235.9299609999999
 20
134.827903
 30
0.0
 11
235.9299609999999
 21
124.577903
 31
0.0
  0
LINE
  5
9704
330
9647
100
AcDbEntity
  8
1
  6
Continuous
100
AcDbLine
 10
257.929961
 20
134.827903
 30
0.0
 11
257.929961
 21
124.577903
 31
0.0
  0
LINE
  5
9705
330
9647
100
AcDbEntity
  8
1
  6
Continuous
100
AcDbLine
 10
256.179961
 20
122.827903
 30
0.0
 11
237.6799609999999
 21
122.827903
 31
0.0
  0
LINE
  5
9706
330
9647
100
AcDbEntity
  8
1
  6
Continuous
100
AcDbLine
 10
261.3299609999998
 20
119.327903
 30
0.0
 11
259.7299609999998
 21
119.327903
 31
0.0
  0
LINE
  5
9707
330
9647
100
AcDbEntity
  8
1
  6
Continuous
100
AcDbLine
 10
234.1299609999999
 20
119.327903
 30
0.0
 11
232.529961
 21
119.327903
 31
0.0
  0
LINE
  5
9708
330
9647
100
AcDbEntity
  8
1
  6
Continuous
100
AcDbLine
 10
235.9299609999999
 20
133.527903
 30
0.0
 11
234.1299609999999
 21
133.527903
 31
0.0
  0
LINE
  5
9709
330
9647
100
AcDbEntity
  8
1
  6
Continuous
100
AcDbLine
 10
257.929961
 20
133.527903
 30
0.0
 11
259.7299609999998
 21
133.527903
 31
0.0
  0
LINE
  5
970A
330
9647
100
AcDbEntity
  8
1
  6
Continuous
100
AcDbLine
 10
246.9299609999999
 20
152.127903
 30
0.0
 11
246.9299609999999
 21
145.8279029999999
 31
0.0
  0
LINE
  5
970B
330
9647
100
AcDbEntity
  8
1
  6
Continuous
100
AcDbLine
 10
19.23846099999998
 20
242.4079029999998
 30
0.0
 11
34.238461
 21
242.4079029999998
 31
0.0
  0
LINE
  5
970C
330
9647
100
AcDbEntity
  8
1
  6
Continuous
100
AcDbLine
 10
19.23846099999998
 20
239.207903
 30
0.0
 11
34.238461
 21
239.207903
 31
0.0
  0
LINE
  5
970D
330
9647
100
AcDbEntity
  8
1
  6
Continuous
100
AcDbLine
 10
16.98846099999999
 20
239.5079029999999
 30
0.0
 11
17.63836099999998
 21
239.5079029999999
 31
0.0
  0
LINE
  5
970E
330
9647
100
AcDbEntity
  8
1
  6
Continuous
100
AcDbLine
 10
16.98846099999999
 20
242.107903
 30
0.0
 11
17.63836099999998
 21
242.107903
 31
0.0
  0
LINE
  5
970F
330
9647
100
AcDbEntity
  8
1
  6
Continuous
100
AcDbLine
 10
35.838361
 20
239.5079029999999
 30
0.0
 11
36.488461
 21
239.5079029999999
 31
0.0
  0
LINE
  5
9710
330
9647
100
AcDbEntity
  8
1
  6
Continuous
100
AcDbLine
 10
35.838361
 20
242.107903
 30
0.0
 11
36.488461
 21
242.107903
 31
0.0
  0
LINE
  5
9711
330
9647
100
AcDbEntity
  8
1
  6
Continuous
100
AcDbLine
 10
16.98846099999999
 20
239.5079029999999
 30
0.0
 11
16.98846099999999
 21
242.107903
 31
0.0
  0
LINE
  5
9712
330
9647
100
AcDbEntity
  8
1
  6
Continuous
100
AcDbLine
 10
36.488461
 20
239.5079029999999
 30
0.0
 11
36.488461
 21
242.107903
 31
0.0
  0
LINE
  5
9713
330
9647
100
AcDbEntity
  8
1
  6
Continuous
100
AcDbLine
 10
17.638461
 20
171.127903
 30
0.0
 11
19.23846099999998
 21
171.127903
 31
0.0
  0
LINE
  5
9714
330
9647
100
AcDbEntity
  8
1
  6
Continuous
100
AcDbLine
 10
19.23846099999998
 20
171.127903
 30
0.0
 11
19.23846099999998
 21
152.127903
 31
0.0
  0
LINE
  5
9715
330
9647
100
AcDbEntity
  8
1
  6
Continuous
100
AcDbLine
 10
34.238461
 20
171.127903
 30
0.0
 11
34.238461
 21
152.127903
 31
0.0
  0
LINE
  5
9716
330
9647
100
AcDbEntity
  8
1
  6
Continuous
100
AcDbLine
 10
17.638461
 20
171.127903
 30
0.0
 11
17.638461
 21
152.127903
 31
0.0
  0
LINE
  5
9717
330
9647
100
AcDbEntity
  8
1
  6
Continuous
100
AcDbLine
 10
35.838361
 20
171.127903
 30
0.0
 11
35.838361
 21
152.127903
 31
0.0
  0
LINE
  5
9718
330
9647
100
AcDbEntity
  8
1
  6
Continuous
100
AcDbLine
 10
34.238461
 20
171.127903
 30
0.0
 11
35.838361
 21
171.127903
 31
0.0
  0
LINE
  5
9719
330
9647
100
AcDbEntity
  8
4
  6
CENTER
100
AcDbLine
 10
16.00986099999999
 20
168.627903
 30
0.0
 11
37.806961
 21
168.627903
 31
0.0
  0
LINE
  5
971A
330
9647
100
AcDbEntity
  8
1
  6
Continuous
100
AcDbLine
 10
19.23846099999998
 20
167.027903
 30
0.0
 11
34.238461
 21
167.027903
 31
0.0
  0
LINE
  5
971B
330
9647
100
AcDbEntity
  8
1
  6
Continuous
100
AcDbLine
 10
19.23846099999998
 20
170.2279029999999
 30
0.0
 11
34.238461
 21
170.2279029999999
 31
0.0
  0
LINE
  5
971C
330
9647
100
AcDbEntity
  8
1
  6
Continuous
100
AcDbLine
 10
16.98846099999999
 20
169.9279029999999
 30
0.0
 11
17.638461
 21
169.9279029999999
 31
0.0
  0
LINE
  5
971D
330
9647
100
AcDbEntity
  8
1
  6
Continuous
100
AcDbLine
 10
16.98846099999999
 20
167.3279029999999
 30
0.0
 11
17.638461
 21
167.3279029999999
 31
0.0
  0
LINE
  5
971E
330
9647
100
AcDbEntity
  8
1
  6
Continuous
100
AcDbLine
 10
35.838361
 20
169.9279029999999
 30
0.0
 11
36.488461
 21
169.9279029999999
 31
0.0
  0
LINE
  5
971F
330
9647
100
AcDbEntity
  8
1
  6
Continuous
100
AcDbLine
 10
35.838361
 20
167.3279029999999
 30
0.0
 11
36.488461
 21
167.3279029999999
 31
0.0
  0
LINE
  5
9720
330
9647
100
AcDbEntity
  8
1
  6
Continuous
100
AcDbLine
 10
16.98846099999999
 20
169.9279029999999
 30
0.0
 11
16.98846099999999
 21
167.3279029999999
 31
0.0
  0
LINE
  5
9721
330
9647
100
AcDbEntity
  8
1
  6
Continuous
100
AcDbLine
 10
36.488461
 20
169.9279029999999
 30
0.0
 11
36.488461
 21
167.3279029999999
 31
0.0
  0
LINE
  5
9722
330
9647
100
AcDbEntity
  8
1
  6
Continuous
100
AcDbLine
 10
15.73846099999999
 20
244.1579029999998
 30
0.0
 11
37.738461
 21
244.1579029999998
 31
0.0
  0
LINE
  5
9723
330
9647
100
AcDbEntity
  8
1
  6
Continuous
100
AcDbLine
 10
12.338361
 20
233.357903
 30
0.0
 11
41.13836099999999
 21
233.357903
 31
0.0
  0
LINE
  5
9724
330
9647
100
AcDbEntity
  8
1
  6
Continuous
100
AcDbLine
 10
39.53846099999999
 20
243.857903
 30
0.0
 11
41.13836099999999
 21
243.857903
 31
0.0
  0
LINE
  5
9725
330
9647
100
AcDbEntity
  8
4
  6
CENTER
100
AcDbLine
 10
26.738461
 20
227.9689029999999
 30
0.0
 11
26.738461
 21
249.5639029999999
 31
0.0
  0
LINE
  5
9726
330
9647
100
AcDbEntity
  8
1
  6
Continuous
100
AcDbLine
 10
237.829961
 20
169.9279029999999
 30
0.0
 11
237.179961
 21
169.9279029999999
 31
0.0
  0
LINE
  5
9727
330
9647
100
AcDbEntity
  8
1
  6
Continuous
100
AcDbLine
 10
237.179961
 20
169.9279029999999
 30
0.0
 11
237.179961
 21
167.3279029999999
 31
0.0
  0
LINE
  5
9728
330
9647
100
AcDbEntity
  8
1
  6
Continuous
100
AcDbLine
 10
237.829961
 20
167.3279029999999
 30
0.0
 11
237.179961
 21
167.3279029999999
 31
0.0
  0
LINE
  5
9729
330
9647
100
AcDbEntity
  8
1
  6
Continuous
100
AcDbLine
 10
239.429961
 20
171.127903
 30
0.0
 11
237.829961
 21
171.127903
 31
0.0
  0
LINE
  5
972A
330
9647
100
AcDbEntity
  8
1
  6
Continuous
100
AcDbLine
 10
254.4299609999999
 20
170.2279029999999
 30
0.0
 11
239.429961
 21
170.2279029999999
 31
0.0
  0
LINE
  5
972B
330
9647
100
AcDbEntity
  8
1
  6
Continuous
100
AcDbLine
 10
254.4299609999999
 20
167.027903
 30
0.0
 11
239.429961
 21
167.027903
 31
0.0
  0
LINE
  5
972C
330
9647
100
AcDbEntity
  8
1
  6
Continuous
100
AcDbLine
 10
256.029961
 20
171.127903
 30
0.0
 11
254.4299609999999
 21
171.127903
 31
0.0
  0
LINE
  5
972D
330
9647
100
AcDbEntity
  8
1
  6
Continuous
100
AcDbLine
 10
256.6799609999999
 20
169.9279029999999
 30
0.0
 11
256.6799609999999
 21
167.3279029999999
 31
0.0
  0
LINE
  5
972E
330
9647
100
AcDbEntity
  8
1
  6
Continuous
100
AcDbLine
 10
256.6799609999999
 20
169.9279029999999
 30
0.0
 11
256.029961
 21
169.9279029999999
 31
0.0
  0
LINE
  5
972F
330
9647
100
AcDbEntity
  8
1
  6
Continuous
100
AcDbLine
 10
256.6799609999999
 20
167.3279029999999
 30
0.0
 11
256.029961
 21
167.3279029999999
 31
0.0
  0
LINE
  5
9730
330
9647
100
AcDbEntity
  8
4
  6
CENTER
100
AcDbLine
 10
257.6589609999999
 20
168.627903
 30
0.0
 11
235.8619609999998
 21
168.627903
 31
0.0
  0
LINE
  5
9731
330
9647
100
AcDbEntity
  8
1
  6
Continuous
100
AcDbLine
 10
34.238461
 20
235.2219029999999
 30
0.0
 11
34.238461
 21
243.307903
 31
0.0
  0
LINE
  5
9732
330
9647
100
AcDbEntity
  8
1
  6
Continuous
100
AcDbLine
 10
19.23846099999998
 20
235.2219029999999
 30
0.0
 11
19.23846099999998
 21
243.307903
 31
0.0
  0
LINE
  5
9733
330
9647
100
AcDbEntity
  8
1
  6
Continuous
100
AcDbLine
 10
17.63836099999998
 20
235.2219029999999
 30
0.0
 11
17.63836099999998
 21
243.307903
 31
0.0
  0
LINE
  5
9734
330
9647
100
AcDbEntity
  8
1
  6
Continuous
100
AcDbLine
 10
35.838361
 20
235.2219029999999
 30
0.0
 11
35.838361
 21
243.307903
 31
0.0
  0
LINE
  5
9735
330
9647
100
AcDbEntity
  8
1
  6
Continuous
100
AcDbLine
 10
13.93836099999999
 20
234.957903
 30
0.0
 11
14.13836099999999
 21
234.957903
 31
0.0
  0
LINE
  5
9736
330
9647
100
AcDbEntity
  8
1
  6
Continuous
100
AcDbLine
 10
39.53846099999999
 20
233.357903
 30
0.0
 11
39.53846099999999
 21
243.857903
 31
0.0
  0
LINE
  5
9737
330
9647
100
AcDbEntity
  8
1
  6
Continuous
100
AcDbLine
 10
13.93836099999999
 20
233.357903
 30
0.0
 11
13.93836099999999
 21
243.857903
 31
0.0
  0
LINE
  5
9738
330
9647
100
AcDbEntity
  8
1
  6
Continuous
100
AcDbLine
 10
12.338361
 20
233.357903
 30
0.0
 11
12.338361
 21
243.857903
 31
0.0
  0
LINE
  5
9739
330
9647
100
AcDbEntity
  8
1
  6
Continuous
100
AcDbLine
 10
41.13836099999999
 20
233.357903
 30
0.0
 11
41.13836099999999
 21
243.857903
 31
0.0
  0
LINE
  5
973A
330
9647
100
AcDbEntity
  8
1
  6
Continuous
100
AcDbLine
 10
12.338361
 20
243.857903
 30
0.0
 11
13.93836099999999
 21
243.857903
 31
0.0
  0
LINE
  5
973B
330
9647
100
AcDbEntity
  8
1
  6
Continuous
100
AcDbLine
 10
15.988461
 20
234.1579029999998
 30
0.0
 11
15.988461
 21
238.7579029999999
 31
0.0
  0
LINE
  5
973C
330
9647
100
AcDbEntity
  8
1
  6
Continuous
100
AcDbLine
 10
37.488461
 20
234.1579029999998
 30
0.0
 11
37.488461
 21
238.7579029999999
 31
0.0
  0
LINE
  5
973D
330
9647
100
AcDbEntity
  8
1
  6
Continuous
100
AcDbLine
 10
37.488461
 20
234.957903
 30
0.0
 11
37.738461
 21
234.957903
 31
0.0
  0
LINE
  5
973E
330
9647
100
AcDbEntity
  8
1
  6
Continuous
100
AcDbLine
 10
16.78846099999999
 20
234.1579029999998
 30
0.0
 11
19.73846099999998
 21
234.1579029999998
 31
0.0
  0
LINE
  5
973F
330
9647
100
AcDbEntity
  8
1
  6
Continuous
100
AcDbLine
 10
36.688361
 20
234.1579029999998
 30
0.0
 11
36.688361
 21
238.7579029999999
 31
0.0
  0
LINE
  5
9740
330
9647
100
AcDbEntity
  8
1
  6
Continuous
100
AcDbLine
 10
16.78846099999999
 20
234.1579029999998
 30
0.0
 11
16.78846099999999
 21
238.7579029999999
 31
0.0
  0
LINE
  5
9741
330
9647
100
AcDbEntity
  8
1
  6
Continuous
100
AcDbLine
 10
33.738461
 20
233.357903
 30
0.0
 11
33.738461
 21
239.207903
 31
0.0
  0
LINE
  5
9742
330
9647
100
AcDbEntity
  8
1
  6
Continuous
100
AcDbLine
 10
19.73846099999998
 20
233.357903
 30
0.0
 11
19.73846099999998
 21
239.207903
 31
0.0
  0
LINE
  5
9743
330
9647
100
AcDbEntity
  8
1
  6
Continuous
100
AcDbLine
 10
33.738461
 20
234.1579029999998
 30
0.0
 11
36.688361
 21
234.1579029999998
 31
0.0
  0
LINE
  5
9744
330
9647
100
AcDbEntity
  8
1
  6
Continuous
100
AcDbLine
 10
39.338361
 20
233.7579029999999
 30
0.0
 11
39.338361
 21
242.5579029999999
 31
0.0
  0
LINE
  5
9745
330
9647
100
AcDbEntity
  8
1
  6
Continuous
100
AcDbLine
 10
14.13836099999999
 20
233.7579029999999
 30
0.0
 11
14.13836099999999
 21
242.5579029999999
 31
0.0
  0
LINE
  5
9746
330
9647
100
AcDbEntity
  8
1
  6
Continuous
100
AcDbLine
 10
15.73846099999999
 20
242.5579029999999
 30
0.0
 11
17.63836099999998
 21
242.5579029999999
 31
0.0
  0
LINE
  5
9747
330
9647
100
AcDbEntity
  8
1
  6
Continuous
100
AcDbLine
 10
37.738461
 20
233.7579029999999
 30
0.0
 11
37.738461
 21
242.5579029999999
 31
0.0
  0
LINE
  5
9748
330
9647
100
AcDbEntity
  8
1
  6
Continuous
100
AcDbLine
 10
15.73846099999999
 20
233.7579029999999
 30
0.0
 11
15.73846099999999
 21
242.5579029999999
 31
0.0
  0
LINE
  5
9749
330
9647
100
AcDbEntity
  8
1
  6
Continuous
100
AcDbLine
 10
39.338361
 20
234.957903
 30
0.0
 11
39.53846099999999
 21
234.957903
 31
0.0
  0
LINE
  5
974A
330
9647
100
AcDbEntity
  8
1
  6
Continuous
100
AcDbLine
 10
15.73846099999999
 20
234.957903
 30
0.0
 11
15.988461
 21
234.957903
 31
0.0
  0
LINE
  5
974B
330
9647
100
AcDbEntity
  8
1
  6
Continuous
100
AcDbLine
 10
14.13836099999999
 20
233.7579029999999
 30
0.0
 11
15.73846099999999
 21
233.7579029999999
 31
0.0
  0
LINE
  5
974C
330
9647
100
AcDbEntity
  8
1
  6
Continuous
100
AcDbLine
 10
37.738461
 20
233.7579029999999
 30
0.0
 11
39.338361
 21
233.7579029999999
 31
0.0
  0
LINE
  5
974D
330
9647
100
AcDbEntity
  8
4
  6
CENTER
100
AcDbLine
 10
10.31216099999999
 20
237.1579029999999
 30
0.0
 11
17.32606099999999
 21
237.1579029999999
 31
0.0
  0
LINE
  5
974E
330
9647
100
AcDbEntity
  8
4
  6
CENTER
100
AcDbLine
 10
10.191461
 20
238.8579029999999
 30
0.0
 11
43.110561
 21
238.8579029999999
 31
0.0
  0
LINE
  5
974F
330
9647
100
AcDbEntity
  8
4
  6
CENTER
100
AcDbLine
 10
36.926561
 20
237.1579029999999
 30
0.0
 11
43.012961
 21
237.1579029999999
 31
0.0
  0
LINE
  5
9750
330
9647
100
AcDbEntity
  8
1
  6
Continuous
100
AcDbLine
 10
129.590961
 20
103.327903
 30
0.0
 11
131.390961
 21
107.3699029999998
 31
0.0
  0
LINE
  5
9751
330
9647
100
AcDbEntity
  8
1
  6
Continuous
100
AcDbLine
 10
128.133961
 20
103.9899029999999
 30
0.0
 11
129.9289609999999
 21
108.020903
 31
0.0
  0
LINE
  5
9752
330
9647
100
AcDbEntity
  8
1
  6
Continuous
100
AcDbLine
 10
128.133961
 20
103.9899029999999
 30
0.0
 11
129.590961
 21
103.327903
 31
0.0
  0
LINE
  5
9753
330
9647
100
AcDbEntity
  8
1
  6
Continuous
100
AcDbLine
 10
128.133961
 20
152.127903
 30
0.0
 11
128.133961
 21
116.8277689999999
 31
0.0
  0
LINE
  5
9754
330
9647
100
AcDbEntity
  8
1
  6
Continuous
100
AcDbLine
 10
17.33836099999998
 20
103.327903
 30
0.0
 11
36.13846099999999
 21
103.327903
 31
0.0
  0
LINE
  5
9755
330
9647
100
AcDbEntity
  8
1
  6
Continuous
100
AcDbLine
 10
237.5299609999999
 20
103.327903
 30
0.0
 11
256.3299609999999
 21
103.327903
 31
0.0
  0
LINE
  5
9756
330
9647
100
AcDbEntity
  8
4
  6
CENTER
100
AcDbLine
 10
178.0839609999999
 20
168.627903
 30
0.0
 11
173.0839609999999
 21
168.627903
 31
0.0
  0
LINE
  5
9757
330
9647
100
AcDbEntity
  8
4
  6
CENTER
100
AcDbLine
 10
175.5839609999999
 20
171.127903
 30
0.0
 11
175.5839609999999
 21
166.127903
 31
0.0
  0
LINE
  5
9758
330
9647
100
AcDbEntity
  8
4
  6
CENTER
100
AcDbLine
 10
135.5839609999999
 20
171.127903
 30
0.0
 11
135.5839609999999
 21
166.127903
 31
0.0
  0
LINE
  5
9759
330
9647
100
AcDbEntity
  8
4
  6
CENTER
100
AcDbLine
 10
138.0839609999999
 20
168.627903
 30
0.0
 11
133.0839609999999
 21
168.627903
 31
0.0
  0
LINE
  5
975A
330
9647
100
AcDbEntity
  8
1
  6
Continuous
100
AcDbLine
 10
130.604961
 20
156.733903
 30
0.0
 11
130.420961
 21
152.127903
 31
0.0
  0
LINE
  5
975B
330
9647
100
AcDbEntity
  8
1
  6
Continuous
100
AcDbLine
 10
135.600961
 20
156.533903
 30
0.0
 11
135.4249609999999
 21
152.127903
 31
0.0
  0
LINE
  5
975C
330
9647
100
AcDbEntity
  8
1
  6
Continuous
100
AcDbLine
 10
33.738461
 20
235.2219029999999
 30
0.0
 11
35.838361
 21
235.2219029999999
 31
0.0
  0
LINE
  5
975D
330
9647
100
AcDbEntity
  8
1
  6
Continuous
100
AcDbLine
 10
130.4609609999999
 20
153.127903
 30
0.0
 11
129.133961
 21
153.127903
 31
0.0
  0
LINE
  5
975E
330
9647
100
AcDbEntity
  8
1
  6
Continuous
100
AcDbLine
 10
34.238461
 20
243.307903
 30
0.0
 11
35.838361
 21
243.307903
 31
0.0
  0
LINE
  5
975F
330
9647
100
AcDbEntity
  8
1
  6
Continuous
100
AcDbLine
 10
17.63836099999998
 20
235.2219029999999
 30
0.0
 11
19.73846099999998
 21
235.2219029999999
 31
0.0
  0
LINE
  5
9760
330
9647
100
AcDbEntity
  8
1
  6
Continuous
100
AcDbLine
 10
17.63836099999998
 20
243.307903
 30
0.0
 11
19.23846099999998
 21
243.307903
 31
0.0
  0
LINE
  5
9761
330
9647
100
AcDbEntity
  8
1
  6
Continuous
100
AcDbLine
 10
35.838361
 20
242.5579029999999
 30
0.0
 11
37.738461
 21
242.5579029999999
 31
0.0
  0
LINE
  5
9762
330
9647
100
AcDbEntity
  8
1
  6
Continuous
100
AcDbLine
 10
19.23846099999998
 20
242.5579029999999
 30
0.0
 11
34.238461
 21
242.5579029999999
 31
0.0
  0
LINE
  5
9763
330
9647
100
AcDbEntity
  8
1
  6
Continuous
100
AcDbLine
 10
68.488461
 20
242.5579029999999
 30
0.0
 11
84.98796099999998
 21
242.5579029999999
 31
0.0
  0
LINE
  5
9764
330
9647
100
AcDbEntity
  8
1
  6
Continuous
100
AcDbLine
 10
68.488461
 20
244.1579029999998
 30
0.0
 11
84.98796099999998
 21
244.1579029999998
 31
0.0
  0
LINE
  5
9765
330
9647
100
AcDbEntity
  8
1
  6
Continuous
100
AcDbLine
 10
69.988461
 20
238.0099029999998
 30
0.0
 11
83.48796099999999
 21
238.0099029999998
 31
0.0
  0
LINE
  5
9766
330
9647
100
AcDbEntity
  8
1
  6
Continuous
100
AcDbLine
 10
69.988461
 20
236.657903
 30
0.0
 11
83.48796099999999
 21
236.657903
 31
0.0
  0
LINE
  5
9767
330
9647
100
AcDbEntity
  8
4
  6
CENTER
100
AcDbLine
 10
67.42096100000001
 20
240.8079029999999
 30
0.0
 11
86.45896099999999
 21
240.8079029999999
 31
0.0
  0
LINE
  5
9768
330
9647
100
AcDbEntity
  8
4
  6
CENTER
100
AcDbLine
 10
76.738461
 20
234.1279029999999
 30
0.0
 11
76.738461
 21
247.0219029999999
 31
0.0
  0
LINE
  5
9769
330
9647
100
AcDbEntity
  8
1
  6
Continuous
100
AcDbLine
 10
68.488461
 20
242.5579029999999
 30
0.0
 11
68.488461
 21
244.1579029999998
 31
0.0
  0
LINE
  5
976A
330
9647
100
AcDbEntity
  8
1
  6
Continuous
100
AcDbLine
 10
84.98796099999998
 20
242.5579029999999
 30
0.0
 11
84.98796099999998
 21
244.1579029999998
 31
0.0
  0
LINE
  5
976B
330
9647
100
AcDbEntity
  8
1
  6
Continuous
100
AcDbLine
 10
69.988461
 20
236.657903
 30
0.0
 11
69.988461
 21
242.5579029999999
 31
0.0
  0
LINE
  5
976C
330
9647
100
AcDbEntity
  8
1
  6
Continuous
100
AcDbLine
 10
83.48796099999999
 20
236.657903
 30
0.0
 11
83.48796099999999
 21
242.5579029999999
 31
0.0
  0
LINE
  5
976D
330
9647
100
AcDbEntity
  8
4
  6
CENTER
100
AcDbLine
 10
72.738461
 20
241.0509029999999
 30
0.0
 11
72.738461
 21
245.896903
 31
0.0
  0
LINE
  5
976E
330
9647
100
AcDbEntity
  8
4
  6
CENTER
100
AcDbLine
 10
80.737961
 20
241.0509029999999
 30
0.0
 11
80.737961
 21
245.6379029999999
 31
0.0
  0
LINE
  5
976F
330
9647
100
AcDbEntity
  8
4
  6
CENTER
100
AcDbLine
 10
67.69376099999999
 20
168.627903
 30
0.0
 11
85.57396099999998
 21
168.627903
 31
0.0
  0
LINE
  5
9770
330
9647
100
AcDbEntity
  8
4
  6
CENTER
100
AcDbLine
 10
287.9209609999999
 20
168.627903
 30
0.0
 11
305.8009609999999
 21
168.627903
 31
0.0
  0
LINE
  5
9771
330
9647
100
AcDbEntity
  8
4
  6
CENTER
100
AcDbLine
 10
16.00986099999999
 20
51.821464
 30
0.0
 11
37.806961
 21
51.821464
 31
0.0
  0
LINE
  5
9772
330
9647
100
AcDbEntity
  8
1
  6
Continuous
100
AcDbLine
 10
15.73846099999999
 20
48.47146399999999
 30
0.0
 11
37.738461
 21
48.47146399999999
 31
0.0
  0
LINE
  5
9773
330
9647
100
AcDbEntity
  8
1
  6
Continuous
100
AcDbLine
 10
12.338361
 20
59.271464
 30
0.0
 11
41.13836099999999
 21
59.271464
 31
0.0
  0
LINE
  5
9774
330
9647
100
AcDbEntity
  8
1
  6
Continuous
100
AcDbLine
 10
39.53846099999999
 20
48.771464
 30
0.0
 11
41.13836099999999
 21
48.771464
 31
0.0
  0
LINE
  5
9775
330
9647
100
AcDbEntity
  8
4
  6
CENTER
100
AcDbLine
 10
26.738461
 20
64.660764
 30
0.0
 11
26.738461
 21
43.06576399999999
 31
0.0
  0
LINE
  5
9776
330
9647
100
AcDbEntity
  8
1
  6
Continuous
100
AcDbLine
 10
39.53846099999999
 20
55.271464
 30
0.0
 11
39.53846099999999
 21
48.771464
 31
0.0
  0
LINE
  5
9777
330
9647
100
AcDbEntity
  8
1
  6
Continuous
100
AcDbLine
 10
13.93836099999999
 20
55.271464
 30
0.0
 11
13.93836099999999
 21
48.771464
 31
0.0
  0
LINE
  5
9778
330
9647
100
AcDbEntity
  8
1
  6
Continuous
100
AcDbLine
 10
12.338361
 20
59.271464
 30
0.0
 11
12.338361
 21
48.771464
 31
0.0
  0
LINE
  5
9779
330
9647
100
AcDbEntity
  8
1
  6
Continuous
100
AcDbLine
 10
41.13836099999999
 20
59.271464
 30
0.0
 11
41.13836099999999
 21
48.771464
 31
0.0
  0
LINE
  5
977A
330
9647
100
AcDbEntity
  8
1
  6
Continuous
100
AcDbLine
 10
12.338361
 20
48.771464
 30
0.0
 11
13.93836099999999
 21
48.771464
 31
0.0
  0
LINE
  5
977B
330
9647
100
AcDbEntity
  8
1
  6
Continuous
100
AcDbLine
 10
15.988461
 20
55.271464
 30
0.0
 11
15.988461
 21
53.871464
 31
0.0
  0
LINE
  5
977C
330
9647
100
AcDbEntity
  8
1
  6
Continuous
100
AcDbLine
 10
37.488461
 20
55.271464
 30
0.0
 11
37.488461
 21
53.871464
 31
0.0
  0
LINE
  5
977D
330
9647
100
AcDbEntity
  8
1
  6
Continuous
100
AcDbLine
 10
36.688361
 20
55.271464
 30
0.0
 11
36.688361
 21
53.871464
 31
0.0
  0
LINE
  5
977E
330
9647
100
AcDbEntity
  8
1
  6
Continuous
100
AcDbLine
 10
16.78846099999999
 20
55.271464
 30
0.0
 11
16.78846099999999
 21
53.871464
 31
0.0
  0
LINE
  5
977F
330
9647
100
AcDbEntity
  8
1
  6
Continuous
100
AcDbLine
 10
33.738461
 20
52.171464
 30
0.0
 11
33.738461
 21
51.371464
 31
0.0
  0
LINE
  5
9780
330
9647
100
AcDbEntity
  8
1
  6
Continuous
100
AcDbLine
 10
19.73846099999998
 20
52.171464
 30
0.0
 11
19.73846099999998
 21
51.371464
 31
0.0
  0
LINE
  5
9781
330
9647
100
AcDbEntity
  8
1
  6
Continuous
100
AcDbLine
 10
39.338361
 20
55.271464
 30
0.0
 11
39.338361
 21
50.07146399999999
 31
0.0
  0
LINE
  5
9782
330
9647
100
AcDbEntity
  8
1
  6
Continuous
100
AcDbLine
 10
14.13836099999999
 20
55.271464
 30
0.0
 11
14.13836099999999
 21
50.07146399999999
 31
0.0
  0
LINE
  5
9783
330
9647
100
AcDbEntity
  8
1
  6
Continuous
100
AcDbLine
 10
37.738461
 20
55.271464
 30
0.0
 11
37.738461
 21
50.07146399999999
 31
0.0
  0
LINE
  5
9784
330
9647
100
AcDbEntity
  8
1
  6
Continuous
100
AcDbLine
 10
15.73846099999999
 20
55.271464
 30
0.0
 11
15.73846099999999
 21
50.07146399999999
 31
0.0
  0
LINE
  5
9785
330
9647
100
AcDbEntity
  8
4
  6
CENTER
100
AcDbLine
 10
10.538361
 20
55.47146399999999
 30
0.0
 11
17.32606099999999
 21
55.47146399999999
 31
0.0
  0
LINE
  5
9786
330
9647
100
AcDbEntity
  8
4
  6
CENTER
100
AcDbLine
 10
10.191461
 20
53.771464
 30
0.0
 11
43.02686099999998
 21
53.771464
 31
0.0
  0
LINE
  5
9787
330
9647
100
AcDbEntity
  8
4
  6
CENTER
100
AcDbLine
 10
36.926561
 20
55.47146399999999
 30
0.0
 11
43.015961
 21
55.47146399999999
 31
0.0
  0
LINE
  5
9788
330
9647
100
AcDbEntity
  8
1
  6
Continuous
100
AcDbLine
 10
15.73846099999999
 20
50.07146399999999
 30
0.0
 11
37.738461
 21
50.07146399999999
 31
0.0
  0
LINE
  5
9789
330
9647
100
AcDbEntity
  8
1
  6
Continuous
100
AcDbLine
 10
41.13836099999999
 20
55.271464
 30
0.0
 11
12.338361
 21
55.271464
 31
0.0
  0
LINE
  5
978A
330
9647
100
AcDbEntity
  8
1
  6
Continuous
100
AcDbLine
 10
41.13836099999999
 20
57.814664
 30
0.0
 11
12.338361
 21
57.814664
 31
0.0
  0
LINE
  5
978B
330
9647
100
AcDbEntity
  8
1
  6
Continuous
100
AcDbLine
 10
34.188361
 20
50.571464
 30
0.0
 11
19.28846099999999
 21
50.571464
 31
0.0
  0
LINE
  5
978C
330
9647
100
AcDbEntity
  8
1
  6
Continuous
100
AcDbLine
 10
34.188361
 20
51.371464
 30
0.0
 11
19.28846099999999
 21
51.371464
 31
0.0
  0
LINE
  5
978D
330
9647
100
AcDbEntity
  8
1
  6
Continuous
100
AcDbLine
 10
11.23836099999999
 20
240.4579029999999
 30
0.0
 11
12.338361
 21
240.4579029999999
 31
0.0
  0
LINE
  5
978E
330
9647
100
AcDbEntity
  8
1
  6
Continuous
100
AcDbLine
 10
11.23836099999999
 20
237.2579029999999
 30
0.0
 11
11.73836099999999
 21
237.2579029999999
 31
0.0
  0
LINE
  5
978F
330
9647
100
AcDbEntity
  8
1
  6
Continuous
100
AcDbLine
 10
42.23836099999997
 20
55.37146400000001
 30
0.0
 11
41.13836099999999
 21
55.37146400000001
 31
0.0
  0
LINE
  5
9790
330
9647
100
AcDbEntity
  8
1
  6
Continuous
100
AcDbLine
 10
42.23836099999997
 20
52.171464
 30
0.0
 11
41.13836099999999
 21
52.171464
 31
0.0
  0
LINE
  5
9791
330
9647
100
AcDbEntity
  8
1
  6
Continuous
100
AcDbLine
 10
42.23836099999997
 20
55.37146400000001
 30
0.0
 11
42.23836099999997
 21
52.171464
 31
0.0
  0
LINE
  5
9792
330
9647
100
AcDbEntity
  8
1
  6
Continuous
100
AcDbLine
 10
11.23836099999999
 20
55.37146400000001
 30
0.0
 11
11.23836099999999
 21
52.171464
 31
0.0
  0
LINE
  5
9793
330
9647
100
AcDbEntity
  8
1
  6
Continuous
100
AcDbLine
 10
12.338361
 20
55.37146400000001
 30
0.0
 11
11.23836099999999
 21
55.37146400000001
 31
0.0
  0
LINE
  5
9794
330
9647
100
AcDbEntity
  8
1
  6
Continuous
100
AcDbLine
 10
12.338361
 20
52.171464
 30
0.0
 11
11.23836099999999
 21
52.171464
 31
0.0
  0
LINE
  5
9795
330
9647
100
AcDbEntity
  8
1
  6
Continuous
100
AcDbLine
 10
14.13836099999999
 20
52.171464
 30
0.0
 11
13.93836099999999
 21
52.171464
 31
0.0
  0
LINE
  5
9796
330
9647
100
AcDbEntity
  8
1
  6
Continuous
100
AcDbLine
 10
16.459961
 20
52.171464
 30
0.0
 11
15.73846099999999
 21
52.171464
 31
0.0
  0
LINE
  5
9797
330
9647
100
AcDbEntity
  8
1
  6
Continuous
100
AcDbLine
 10
36.02146099999997
 20
52.171464
 30
0.0
 11
17.45536099999998
 21
52.171464
 31
0.0
  0
LINE
  5
9798
330
9647
100
AcDbEntity
  8
1
  6
Continuous
100
AcDbLine
 10
39.53846099999999
 20
52.171464
 30
0.0
 11
39.338361
 21
52.171464
 31
0.0
  0
LINE
  5
9799
330
9647
100
AcDbEntity
  8
1
  6
Continuous
100
AcDbLine
 10
37.738461
 20
52.171464
 30
0.0
 11
37.01686099999999
 21
52.171464
 31
0.0
  0
LINE
  5
979A
330
9647
100
AcDbEntity
  8
1
  6
Continuous
100
AcDbLine
 10
42.23836099999997
 20
237.2579029999999
 30
0.0
 11
42.23836099999997
 21
240.4579029999999
 31
0.0
  0
LINE
  5
979B
330
9647
100
AcDbEntity
  8
1
  6
Continuous
100
AcDbLine
 10
11.23836099999999
 20
237.2579029999999
 30
0.0
 11
11.23836099999999
 21
240.4579029999999
 31
0.0
  0
LINE
  5
979C
330
9647
100
AcDbEntity
  8
1
  6
Continuous
100
AcDbLine
 10
11.73836099999999
 20
238.6579029999999
 30
0.0
 11
12.338361
 21
238.6579029999999
 31
0.0
  0
LINE
  5
979D
330
9647
100
AcDbEntity
  8
1
  6
Continuous
100
AcDbLine
 10
11.73836099999999
 20
235.6579029999998
 30
0.0
 11
12.338361
 21
235.6579029999998
 31
0.0
  0
LINE
  5
979E
330
9647
100
AcDbEntity
  8
1
  6
Continuous
100
AcDbLine
 10
41.73836099999999
 20
237.2579029999999
 30
0.0
 11
42.23836099999997
 21
237.2579029999999
 31
0.0
  0
LINE
  5
979F
330
9647
100
AcDbEntity
  8
1
  6
Continuous
100
AcDbLine
 10
13.93836099999999
 20
235.6579029999998
 30
0.0
 11
14.13836099999999
 21
235.6579029999998
 31
0.0
  0
LINE
  5
97A0
330
9647
100
AcDbEntity
  8
1
  6
Continuous
100
AcDbLine
 10
13.93836099999999
 20
238.6579029999999
 30
0.0
 11
14.13836099999999
 21
238.6579029999999
 31
0.0
  0
LINE
  5
97A1
330
9647
100
AcDbEntity
  8
1
  6
Continuous
100
AcDbLine
 10
13.93836099999999
 20
240.4579029999999
 30
0.0
 11
14.13836099999999
 21
240.4579029999999
 31
0.0
  0
LINE
  5
97A2
330
9647
100
AcDbEntity
  8
1
  6
Continuous
100
AcDbLine
 10
39.338361
 20
235.6579029999998
 30
0.0
 11
39.53846099999999
 21
235.6579029999998
 31
0.0
  0
LINE
  5
97A3
330
9647
100
AcDbEntity
  8
1
  6
Continuous
100
AcDbLine
 10
39.338361
 20
238.6579029999999
 30
0.0
 11
39.53846099999999
 21
238.6579029999999
 31
0.0
  0
LINE
  5
97A4
330
9647
100
AcDbEntity
  8
1
  6
Continuous
100
AcDbLine
 10
15.73846099999999
 20
240.4579029999999
 30
0.0
 11
16.459961
 21
240.4579029999999
 31
0.0
  0
LINE
  5
97A5
330
9647
100
AcDbEntity
  8
1
  6
Continuous
100
AcDbLine
 10
37.01686099999999
 20
240.4579029999999
 30
0.0
 11
37.738461
 21
240.4579029999999
 31
0.0
  0
LINE
  5
97A6
330
9647
100
AcDbEntity
  8
1
  6
Continuous
100
AcDbLine
 10
39.338361
 20
240.4579029999999
 30
0.0
 11
39.53846099999999
 21
240.4579029999999
 31
0.0
  0
LINE
  5
97A7
330
9647
100
AcDbEntity
  8
1
  6
Continuous
100
AcDbLine
 10
41.13836099999999
 20
240.4579029999999
 30
0.0
 11
42.23836099999997
 21
240.4579029999999
 31
0.0
  0
LINE
  5
97A8
330
9647
100
AcDbEntity
  8
1
  6
Continuous
100
AcDbLine
 10
41.13836099999999
 20
238.6579029999999
 30
0.0
 11
41.73836099999999
 21
238.6579029999999
 31
0.0
  0
LINE
  5
97A9
330
9647
100
AcDbEntity
  8
1
  6
Continuous
100
AcDbLine
 10
41.13836099999999
 20
235.6579029999998
 30
0.0
 11
41.73836099999999
 21
235.6579029999998
 31
0.0
  0
LINE
  5
97AA
330
9647
100
AcDbEntity
  8
1
  6
Continuous
100
AcDbLine
 10
11.73836099999999
 20
56.97146400000001
 30
0.0
 11
12.338361
 21
56.97146400000001
 31
0.0
  0
LINE
  5
97AB
330
9647
100
AcDbEntity
  8
1
  6
Continuous
100
AcDbLine
 10
41.13836099999999
 20
56.97146400000001
 30
0.0
 11
41.73836099999999
 21
56.97146400000001
 31
0.0
  0
LINE
  5
97AC
330
9647
100
AcDbEntity
  8
1
  6
Continuous
100
AcDbLine
 10
11.73836099999999
 20
56.97146400000001
 30
0.0
 11
11.73836099999999
 21
55.37146400000001
 31
0.0
  0
LINE
  5
97AD
330
9647
100
AcDbEntity
  8
1
  6
Continuous
100
AcDbLine
 10
41.73836099999999
 20
56.97146400000001
 30
0.0
 11
41.73836099999999
 21
55.37146400000001
 31
0.0
  0
LINE
  5
97AE
330
9647
100
AcDbEntity
  8
1
  6
Continuous
100
AcDbLine
 10
11.73836099999999
 20
235.6579029999998
 30
0.0
 11
11.73836099999999
 21
238.6579029999999
 31
0.0
  0
LINE
  5
97AF
330
9647
100
AcDbEntity
  8
1
  6
Continuous
100
AcDbLine
 10
41.73836099999999
 20
235.6579029999998
 30
0.0
 11
41.73836099999999
 21
238.6579029999999
 31
0.0
  0
ARC
  5
97B0
330
9647
100
AcDbEntity
  8
1
  6
Continuous
100
AcDbCircle
 10
134.633961
 20
141.8279029999998
 30
0.0
 40
4.0
100
AcDbArc
 50
0.0
 51
90.0
  0
ARC
  5
97B1
330
9647
100
AcDbEntity
  8
1
  6
Continuous
100
AcDbCircle
 10
134.633961
 20
123.327903
 30
0.0
 40
4.0
100
AcDbArc
 50
270.0
 51
0.0
  0
CIRCLE
  5
97B2
330
9647
100
AcDbEntity
  8
1
  6
Continuous
100
AcDbCircle
 10
131.933961
 20
141.8279029999998
 30
0.0
 40
1.5
  0
CIRCLE
  5
97B3
330
9647
100
AcDbEntity
  8
1
  6
Continuous
100
AcDbCircle
 10
133.633961
 20
135.127903
 30
0.0
 40
1.6
  0
ARC
  5
97B4
330
9647
100
AcDbEntity
  8
1
  6
Continuous
100
AcDbCircle
 10
37.738461
 20
136.3279029999999
 30
0.0
 40
1.5
100
AcDbArc
 50
90.0
 51
99.5941
  0
ARC
  5
97B5
330
9647
100
AcDbEntity
  8
1
  6
Continuous
100
AcDbCircle
 10
15.73846099999999
 20
136.3279029999999
 30
0.0
 40
1.5
100
AcDbArc
 50
80.40589999999998
 51
90.0
  0
CIRCLE
  5
97B6
330
9647
100
AcDbEntity
  8
1
  6
Continuous
100
AcDbCircle
 10
72.738461
 20
176.4279029999999
 30
0.0
 40
1.9
  0
CIRCLE
  5
97B7
330
9647
100
AcDbEntity
  8
1
  6
Continuous
100
AcDbCircle
 10
80.737961
 20
176.4279029999999
 30
0.0
 40
1.9
  0
ARC
  5
97B8
330
9647
100
AcDbEntity
  8
1
  6
Continuous
100
AcDbCircle
 10
69.988461
 20
179.9279029999999
 30
0.0
 40
1.5
100
AcDbArc
 50
90.0
 51
180.0
  0
ARC
  5
97B9
330
9647
100
AcDbEntity
  8
1
  6
Continuous
100
AcDbCircle
 10
83.48796099999999
 20
179.9279029999999
 30
0.0
 40
1.5
100
AcDbArc
 50
0.0
 51
90.0
  0
ARC
  5
97BA
330
9647
100
AcDbEntity
  8
1
  6
Continuous
100
AcDbCircle
 10
84.487961
 20
172.4279029999999
 30
0.0
 40
0.5
100
AcDbArc
 50
270.0
 51
0.0
  0
ARC
  5
97BB
330
9647
100
AcDbEntity
  8
1
  6
Continuous
100
AcDbCircle
 10
68.988461
 20
172.4279029999999
 30
0.0
 40
0.5
100
AcDbArc
 50
180.0
 51
270.0
  0
ARC
  5
97BC
330
9647
100
AcDbEntity
  8
1
  6
Continuous
100
AcDbCircle
 10
69.488461
 20
171.4279029999999
 30
0.0
 40
0.5
100
AcDbArc
 50
0.0
 51
90.0
  0
ARC
  5
97BD
330
9647
100
AcDbEntity
  8
1
  6
Continuous
100
AcDbCircle
 10
83.987961
 20
171.4279029999999
 30
0.0
 40
0.5
100
AcDbArc
 50
90.0
 51
180.0
  0
ARC
  5
97BE
330
9647
100
AcDbEntity
  8
1
  6
Continuous
100
AcDbCircle
 10
175.5839609999999
 20
168.777903
 30
0.0
 40
1.75
100
AcDbArc
 50
212.305
 51
0.0
  0
ARC
  5
97BF
330
9647
100
AcDbEntity
  8
1
  6
Continuous
100
AcDbCircle
 10
175.5839609999999
 20
168.777903
 30
0.0
 40
3.35
100
AcDbArc
 50
212.305
 51
0.0
  0
ARC
  5
97C0
330
9647
100
AcDbEntity
  8
1
  6
Continuous
100
AcDbCircle
 10
71.488461
 20
167.572903
 30
0.0
 40
1.5
100
AcDbArc
 50
90.0
 51
180.0
  0
ARC
  5
97C1
330
9647
100
AcDbEntity
  8
1
  6
Continuous
100
AcDbCircle
 10
81.987961
 20
167.572903
 30
0.0
 40
1.5
100
AcDbArc
 50
0.0
 51
90.0
  0
ARC
  5
97C2
330
9647
100
AcDbEntity
  8
1
  6
Continuous
100
AcDbCircle
 10
71.488461
 20
168.4279029999999
 30
0.0
 40
1.5
100
AcDbArc
 50
90.0
 51
180.0
  0
ARC
  5
97C3
330
9647
100
AcDbEntity
  8
1
  6
Continuous
100
AcDbCircle
 10
81.987961
 20
168.4279029999999
 30
0.0
 40
1.5
100
AcDbArc
 50
0.0
 51
90.0
  0
ARC
  5
97C4
330
9647
100
AcDbEntity
  8
1
  6
Continuous
100
AcDbCircle
 10
135.5839609999999
 20
168.627903
 30
0.0
 40
2.5
100
AcDbArc
 50
338.915
 51
158.915
  0
ARC
  5
97C5
330
9647
100
AcDbEntity
  8
1
  6
Continuous
100
AcDbCircle
 10
170.5729609999999
 20
155.136903
 30
0.0
 40
35.0
100
AcDbArc
 50
158.915
 51
177.712
  0
ARC
  5
97C6
330
9647
100
AcDbEntity
  8
1
  6
Continuous
100
AcDbCircle
 10
170.5729609999999
 20
155.136903
 30
0.0
 40
40.0
100
AcDbArc
 50
158.915
 51
177.712
  0
CIRCLE
  5
97C7
330
9647
100
AcDbEntity
  8
1
  6
Continuous
100
AcDbCircle
 10
135.5839609999999
 20
168.627903
 30
0.0
 40
1.3
  0
ARC
  5
97C8
330
9647
100
AcDbEntity
  8
1
  6
Continuous
100
AcDbCircle
 10
235.9299609999999
 20
136.3279029999999
 30
0.0
 40
1.5
100
AcDbArc
 50
270.0
 51
90.0
  0
ARC
  5
97C9
330
9647
100
AcDbEntity
  8
1
  6
Continuous
100
AcDbCircle
 10
257.929961
 20
136.3279029999999
 30
0.0
 40
1.5
100
AcDbArc
 50
90.0
 51
270.0
  0
CIRCLE
  5
97CA
330
9647
100
AcDbEntity
  8
1
  6
Continuous
100
AcDbCircle
 10
300.9299609999998
 20
176.4279029999999
 30
0.0
 40
1.9
  0
CIRCLE
  5
97CB
330
9647
100
AcDbEntity
  8
1
  6
Continuous
100
AcDbCircle
 10
292.929961
 20
176.4279029999999
 30
0.0
 40
1.9
  0
ARC
  5
97CC
330
9647
100
AcDbEntity
  8
1
  6
Continuous
100
AcDbCircle
 10
303.679961
 20
179.9279029999999
 30
0.0
 40
1.5
100
AcDbArc
 50
0.0
 51
90.0
  0
ARC
  5
97CD
330
9647
100
AcDbEntity
  8
1
  6
Continuous
100
AcDbCircle
 10
290.1799609999999
 20
179.9279029999999
 30
0.0
 40
1.5
100
AcDbArc
 50
90.0
 51
180.0
  0
ARC
  5
97CE
330
9647
100
AcDbEntity
  8
1
  6
Continuous
100
AcDbCircle
 10
289.1799609999998
 20
172.4279029999999
 30
0.0
 40
0.5
100
AcDbArc
 50
180.0
 51
270.0
  0
ARC
  5
97CF
330
9647
100
AcDbEntity
  8
1
  6
Continuous
100
AcDbCircle
 10
304.6799609999998
 20
172.4279029999999
 30
0.0
 40
0.5
100
AcDbArc
 50
270.0
 51
0.0
  0
ARC
  5
97D0
330
9647
100
AcDbEntity
  8
1
  6
Continuous
100
AcDbCircle
 10
304.1799609999998
 20
171.4279029999999
 30
0.0
 40
0.5
100
AcDbArc
 50
90.0
 51
180.0
  0
ARC
  5
97D1
330
9647
100
AcDbEntity
  8
1
  6
Continuous
100
AcDbCircle
 10
289.679961
 20
171.4279029999999
 30
0.0
 40
0.5
100
AcDbArc
 50
0.0
 51
90.0
  0
ARC
  5
97D2
330
9647
100
AcDbEntity
  8
1
  6
Continuous
100
AcDbCircle
 10
237.6799609999999
 20
124.577903
 30
0.0
 40
1.75
100
AcDbArc
 50
180.0
 51
270.0
  0
ARC
  5
97D3
330
9647
100
AcDbEntity
  8
1
  6
Continuous
100
AcDbCircle
 10
256.179961
 20
124.577903
 30
0.0
 40
1.75
100
AcDbArc
 50
270.0
 51
0.0
  0
CIRCLE
  5
97D4
330
9647
100
AcDbEntity
  8
1
  6
Continuous
100
AcDbCircle
 10
254.1799609999999
 20
126.4279029999999
 30
0.0
 40
1.8
  0
CIRCLE
  5
97D5
330
9647
100
AcDbEntity
  8
1
  6
Continuous
100
AcDbCircle
 10
239.6799609999999
 20
126.4279029999999
 30
0.0
 40
1.8
  0
ARC
  5
97D6
330
9647
100
AcDbEntity
  8
1
  6
Continuous
100
AcDbCircle
 10
129.133961
 20
152.127903
 30
0.0
 40
1.0
100
AcDbArc
 50
90.0
 51
180.0
  0
ARC
  5
97D7
330
9647
100
AcDbEntity
  8
1
  6
Continuous
100
AcDbCircle
 10
36.688361
 20
234.1579029999998
 30
0.0
 40
0.8
100
AcDbArc
 50
270.0
 51
0.000001
  0
ARC
  5
97D8
330
9647
100
AcDbEntity
  8
1
  6
Continuous
100
AcDbCircle
 10
16.78846099999999
 20
234.1579029999998
 30
0.0
 40
0.8
100
AcDbArc
 50
180.0
 51
270.0
  0
ARC
  5
97D9
330
9647
100
AcDbEntity
  8
1
  6
Continuous
100
AcDbCircle
 10
34.188361
 20
238.7579029999999
 30
0.0
 40
2.5
100
AcDbArc
 50
0.0
 51
23.07369999999999
  0
ARC
  5
97DA
330
9647
100
AcDbEntity
  8
1
  6
Continuous
100
AcDbCircle
 10
34.188361
 20
238.7579029999999
 30
0.0
 40
3.299999999999998
100
AcDbArc
 50
0.0
 51
45.8155
  0
ARC
  5
97DB
330
9647
100
AcDbEntity
  8
1
  6
Continuous
100
AcDbCircle
 10
19.28846099999999
 20
238.7579029999999
 30
0.0
 40
3.299999999999998
100
AcDbArc
 50
134.1839999999999
 51
180.0
  0
ARC
  5
97DC
330
9647
100
AcDbEntity
  8
1
  6
Continuous
100
AcDbCircle
 10
19.28846099999999
 20
238.7579029999999
 30
0.0
 40
2.5
100
AcDbArc
 50
156.9259999999999
 51
180.0
  0
ARC
  5
97DD
330
9647
100
AcDbEntity
  8
1
  6
Continuous
100
AcDbCircle
 10
15.73846099999999
 20
242.5579029999999
 30
0.0
 40
1.6
100
AcDbArc
 50
90.0
 51
180.0
  0
ARC
  5
97DE
330
9647
100
AcDbEntity
  8
1
  6
Continuous
100
AcDbCircle
 10
37.738461
 20
242.5579029999999
 30
0.0
 40
1.6
100
AcDbArc
 50
0.0
 51
90.0
  0
ARC
  5
97DF
330
9647
100
AcDbEntity
  8
1
  6
Continuous
100
AcDbCircle
 10
123.533961
 20
110.867903
 30
0.0
 40
8.599999999999997
100
AcDbArc
 50
336.0
 51
43.8686
  0
ARC
  5
97E0
330
9647
100
AcDbEntity
  8
1
  6
Continuous
100
AcDbCircle
 10
123.533961
 20
110.867903
 30
0.0
 40
7.0
100
AcDbArc
 50
336.0
 51
43.868664
  0
ARC
  5
97E1
330
9647
100
AcDbEntity
  8
1
  6
Continuous
100
AcDbCircle
 10
17.33836099999998
 20
108.327903
 30
0.0
 40
5.0
100
AcDbArc
 50
180.0
 51
270.0
  0
ARC
  5
97E2
330
9647
100
AcDbEntity
  8
1
  6
Continuous
100
AcDbCircle
 10
36.13846099999999
 20
108.327903
 30
0.0
 40
5.0
100
AcDbArc
 50
270.0
 51
0.0
  0
ARC
  5
97E3
330
9647
100
AcDbEntity
  8
1
  6
Continuous
100
AcDbCircle
 10
237.5299609999999
 20
108.327903
 30
0.0
 40
5.0
100
AcDbArc
 50
180.0
 51
270.0
  0
ARC
  5
97E4
330
9647
100
AcDbEntity
  8
1
  6
Continuous
100
AcDbCircle
 10
256.3299609999999
 20
108.327903
 30
0.0
 40
5.0
100
AcDbArc
 50
270.0
 51
0.0
  0
CIRCLE
  5
97E5
330
9647
100
AcDbEntity
  8
3
  6
DASHED
100
AcDbCircle
 10
135.5839609999999
 20
168.627903
 30
0.0
 40
1.6
  0
ARC
  5
97E6
330
9647
100
AcDbEntity
  8
1
  6
Continuous
100
AcDbCircle
 10
34.188361
 20
53.871464
 30
0.0
 40
2.5
100
AcDbArc
 50
270.0
 51
0.000003
  0
ARC
  5
97E7
330
9647
100
AcDbEntity
  8
1
  6
Continuous
100
AcDbCircle
 10
34.188361
 20
53.871464
 30
0.0
 40
3.299999999999998
100
AcDbArc
 50
270.0
 51
0.000003
  0
ARC
  5
97E8
330
9647
100
AcDbEntity
  8
1
  6
Continuous
100
AcDbCircle
 10
19.28846099999999
 20
53.871464
 30
0.0
 40
3.299999999999998
100
AcDbArc
 50
180.0
 51
270.0
  0
ARC
  5
97E9
330
9647
100
AcDbEntity
  8
1
  6
Continuous
100
AcDbCircle
 10
19.28846099999999
 20
53.871464
 30
0.0
 40
2.5
100
AcDbArc
 50
180.0
 51
270.0
  0
ARC
  5
97EA
330
9647
100
AcDbEntity
  8
1
  6
Continuous
100
AcDbCircle
 10
15.73846099999999
 20
50.07146399999999
 30
0.0
 40
1.6
100
AcDbArc
 50
180.0
 51
270.0
  0
ARC
  5
97EB
330
9647
100
AcDbEntity
  8
1
  6
Continuous
100
AcDbCircle
 10
37.738461
 20
50.07146399999999
 30
0.0
 40
1.6
100
AcDbArc
 50
270.0
 51
0.000003
  0
ARC
  5
97EC
330
9647
100
AcDbEntity
  8
1
  6
Continuous
100
AcDbCircle
 10
252.4299609999999
 20
141.377903
 30
0.0
 40
1.209338999999999
100
AcDbArc
 50
0.0
 51
180.0
  0
ARC
  5
97ED
330
9647
100
AcDbEntity
  8
1
  6
Continuous
100
AcDbCircle
 10
252.4299609999999
 20
132.8779029999997
 30
0.0
 40
1.209338999999999
100
AcDbArc
 50
180.0
 51
0.0
  0
LINE
  5
97EE
330
9647
100
AcDbEntity
  8
1
  6
Continuous
100
AcDbLine
 10
251.2206219999999
 20
141.377903
 30
0.0
 11
251.2206219999999
 21
132.8779029999997
 31
0.0
  0
LINE
  5
97EF
330
9647
100
AcDbEntity
  8
1
  6
Continuous
100
AcDbLine
 10
253.6392999999999
 20
141.377903
 30
0.0
 11
253.6392999999999
 21
132.8779029999997
 31
0.0
  0
ARC
  5
97F0
330
9647
100
AcDbEntity
  8
1
  6
Continuous
100
AcDbCircle
 10
241.429961
 20
141.377903
 30
0.0
 40
1.209338999999999
100
AcDbArc
 50
0.0
 51
180.0
  0
ARC
  5
97F1
330
9647
100
AcDbEntity
  8
1
  6
Continuous
100
AcDbCircle
 10
241.429961
 20
132.8779029999997
 30
0.0
 40
1.209338999999999
100
AcDbArc
 50
180.0
 51
0.0
  0
LINE
  5
97F2
330
9647
100
AcDbEntity
  8
1
  6
Continuous
100
AcDbLine
 10
242.6393
 20
141.377903
 30
0.0
 11
242.6393
 21
132.8779029999997
 31
0.0
  0
LINE
  5
97F3
330
9647
100
AcDbEntity
  8
1
  6
Continuous
100
AcDbLine
 10
240.220622
 20
141.377903
 30
0.0
 11
240.220622
 21
132.8779029999997
 31
0.0
  0
ARC
  5
97F4
330
9647
100
AcDbEntity
  8
1
  6
Continuous
100
AcDbCircle
 10
129.7339609999999
 20
116.8277689999999
 30
0.0
 40
1.6
100
AcDbArc
 50
180.0
 51
223.868664
  0
ARC
  5
97F5
330
9647
100
AcDbEntity
  8
1
  6
Continuous
100
AcDbCircle
 10
32.238461
 20
47.25896399999998
 30
0.0
 40
3.3125
100
AcDbArc
 50
58.10920799999998
 51
121.890792
  0
ARC
  5
97F6
330
9647
100
AcDbEntity
  8
1
  6
Continuous
100
AcDbCircle
 10
21.23846099999998
 20
47.25896399999998
 30
0.0
 40
3.3125
100
AcDbArc
 50
58.10920799999998
 51
121.890792
  0
ENDSEC
  0
SECTION
  2
OBJECTS
  0
DICTIONARY
  5
9635
330
0
100
AcDbDictionary
281
     1
  3
ACAD_CIP_PREVIOUS_PRODUCT_INFO
350
985A
  3
ACAD_COLOR
350
983C
  3
ACAD_DETAILVIEWSTYLE
350
9855
  3
ACAD_GROUP
350
9636
  3
ACAD_LAYOUT
350
9642
  3
ACAD_MATERIAL
350
980A
  3
ACAD_MLEADERSTYLE
350
9851
  3
ACAD_MLINESTYLE
350
963F
  3
ACAD_PLOTSETTINGS
350
9641
  3
ACAD_PLOTSTYLENAME
350
9808
  3
ACAD_SCALELIST
350
983F
  3
ACAD_SECTIONVIEWSTYLE
350
9853
  3
ACAD_TABLESTYLE
350
983D
  3
ACAD_VISUALSTYLE
350
9823
  3
ACDB_RECOMPOSE_DATA
350
9878
  3
AcDbVariableDictionary
350
986B
  3
DWGPROPS
350
9879
  0
DICTIONARY
  5
985B
330
9639
100
AcDbDictionary
280
     1
281
     1
  3
ADSK_XREC_LAYER_RECONCILED
360
985C
  0
DICTIONARY
  5
985D
330
964F
100
AcDbDictionary
280
     1
281
     1
  3
ADSK_XREC_LAYER_RECONCILED
360
985E
  0
DICTIONARY
  5
985F
330
9650
100
AcDbDictionary
280
     1
281
     1
  3
ADSK_XREC_LAYER_RECONCILED
360
9860
  0
DICTIONARY
  5
9861
330
9651
100
AcDbDictionary
280
     1
281
     1
  3
ADSK_XREC_LAYER_RECONCILED
360
9862
  0
DICTIONARY
  5
9863
330
9652
100
AcDbDictionary
280
     1
281
     1
  3
ADSK_XREC_LAYER_RECONCILED
360
9864
  0
DICTIONARY
  5
9865
330
9653
100
AcDbDictionary
280
     1
281
     1
  3
ADSK_XREC_LAYER_RECONCILED
360
9866
  0
DICTIONARY
  5
9867
330
9654
100
AcDbDictionary
280
     1
281
     1
  3
ADSK_XREC_LAYER_RECONCILED
360
9868
  0
DICTIONARY
  5
9869
330
9655
100
AcDbDictionary
280
     1
281
     1
  3
ADSK_XREC_LAYER_RECONCILED
360
986A
  0
DICTIONARY
  5
9803
330
9647
100
AcDbDictionary
281
     1
  3
ACAD_LAYOUTSELFREF
350
9804
  0
DICTIONARY
  5
9801
330
9643
100
AcDbDictionary
281
     1
  3
ACAD_LAYOUTSELFREF
350
9802
  0
XRECORD
  5
985A
102
{ACAD_REACTORS
330
9635
102
}
330
9635
100
AcDbXrecord
280
     1
300
ACDLT
300
2014
300
ACDLT_F_S
  0
DICTIONARY
  5
983C
102
{ACAD_REACTORS
330
9635
102
}
330
9635
100
AcDbDictionary
281
     1
  0
DICTIONARY
  5
9855
102
{ACAD_REACTORS
330
9635
102
}
330
9635
100
AcDbDictionary
281
     1
  3
Imperial24
350
9856
  0
DICTIONARY
  5
9636
102
{ACAD_REACTORS
330
9635
102
}
330
9635
100
AcDbDictionary
281
     1
  0
DICTIONARY
  5
9642
102
{ACAD_REACTORS
330
9635
102
}
330
9635
100
AcDbDictionary
281
     1
  3
Model
350
9857
  3
レイアウト1
350
9858
  0
DICTIONARY
  5
980A
102
{ACAD_REACTORS
330
9635
102
}
330
9635
100
AcDbDictionary
281
     1
  3
ByBlock
350
9813
  3
ByLayer
350
980B
  3
Global
350
981B
  0
DICTIONARY
  5
9851
102
{ACAD_REACTORS
330
9635
102
}
330
9635
100
AcDbDictionary
281
     1
  3
Standard
350
9852
  0
DICTIONARY
  5
963F
102
{ACAD_REACTORS
330
9635
102
}
330
9635
100
AcDbDictionary
281
     1
  3
STANDARD
350
9640
  0
DICTIONARY
  5
9641
102
{ACAD_REACTORS
330
9635
102
}
330
9635
100
AcDbDictionary
281
     1
  0
ACDBDICTIONARYWDFLT
  5
9808
102
{ACAD_REACTORS
330
9635
102
}
330
9635
100
AcDbDictionary
281
     1
  3
Normal
350
9809
100
AcDbDictionaryWithDefault
340
9809
  0
DICTIONARY
  5
983F
102
{ACAD_REACTORS
330
9635
102
}
330
9635
100
AcDbDictionary
281
     1
  3
A0
350
9840
  3
A1
350
9841
  3
A2
350
9842
  3
A3
350
9843
  3
A4
350
9844
  3
A5
350
9845
  3
A6
350
9846
  3
A7
350
9847
  3
A8
350
9848
  3
A9
350
9849
  3
B0
350
984A
  3
B1
350
984B
  3
B2
350
984C
  3
B3
350
984D
  3
B4
350
984E
  3
B5
350
984F
  3
B6
350
9850
  0
DICTIONARY
  5
9853
102
{ACAD_REACTORS
330
9635
102
}
330
9635
100
AcDbDictionary
281
     1
  3
Imperial24
350
9854
  0
DICTIONARY
  5
983D
102
{ACAD_REACTORS
330
9635
102
}
330
9635
100
AcDbDictionary
281
     1
  3
Standard
350
983E
  0
DICTIONARY
  5
9823
102
{ACAD_REACTORS
330
9635
102
}
330
9635
100
AcDbDictionary
281
     1
  3
2dWireframe
350
9829
  3
Basic
350
9828
  3
Brighten
350
982F
  3
ColorChange
350
9833
  3
Conceptual
350
982C
  3
Dim
350
982E
  3
EdgeColorOff
350
983B
  3
Facepattern
350
9832
  3
Flat
350
9824
  3
FlatWithEdges
350
9825
  3
Gouraud
350
9826
  3
GouraudWithEdges
350
9827
  3
Hidden
350
982B
  3
JitterOff
350
9839
  3
Linepattern
350
9831
  3
OverhangOff
350
983A
  3
Realistic
350
982D
  3
Shaded
350
9838
  3
Shaded with edges
350
9837
  3
Shades of Gray
350
9834
  3
Sketchy
350
9835
  3
Thicken
350
9830
  3
Wireframe
350
982A
  3
X-Ray
350
9836
  0
XRECORD
  5
9878
102
{ACAD_REACTORS
330
9635
102
}
330
9635
100
AcDbXrecord
280
     1
 90
        1
330
983E
  0
DICTIONARY
  5
986B
102
{ACAD_REACTORS
330
9635
102
}
330
9635
100
AcDbDictionary
281
     1
  3
CANNOSCALE
350
9870
  3
CMLEADERSTYLE
350
986D
  3
CTABLESTYLE
350
986C
  3
CVIEWDETAILSTYLE
350
986E
  3
CVIEWSECTIONSTYLE
350
986F
  3
DIMASSOC
350
9873
  3
INDEXCTL
350
9872
  3
SORTENTS
350
9871
  3
XCLIPFRAME
350
9874
  0
XRECORD
  5
9879
102
{ACAD_REACTORS
330
9635
102
}
330
9635
100
AcDbXrecord
280
     1
  1
DWGPROPS COOKIE
  2

  3

  4

  6

  7

  8
Yoshitsune
  9

300
=
301
=
302
=
303
=
304
=
305
=
306
=
307
=
308
=
309
=
 40
0.0000130324074074
 41
2450946.567576042
 42
2457192.601150451
  1

 90
        0
  0
XRECORD
  5
985C
102
{ACAD_REACTORS
330
985B
102
}
330
985B
100
AcDbXrecord
280
     1
290
     1
  0
XRECORD
  5
985E
102
{ACAD_REACTORS
330
985D
102
}
330
985D
100
AcDbXrecord
280
     1
290
     1
  0
XRECORD
  5
9860
102
{ACAD_REACTORS
330
985F
102
}
330
985F
100
AcDbXrecord
280
     1
290
     1
  0
XRECORD
  5
9862
102
{ACAD_REACTORS
330
9861
102
}
330
9861
100
AcDbXrecord
280
     1
290
     1
  0
XRECORD
  5
9864
102
{ACAD_REACTORS
330
9863
102
}
330
9863
100
AcDbXrecord
280
     1
290
     1
  0
XRECORD
  5
9866
102
{ACAD_REACTORS
330
9865
102
}
330
9865
100
AcDbXrecord
280
     1
290
     1
  0
XRECORD
  5
9868
102
{ACAD_REACTORS
330
9867
102
}
330
9867
100
AcDbXrecord
280
     1
290
     1
  0
XRECORD
  5
986A
102
{ACAD_REACTORS
330
9869
102
}
330
9869
100
AcDbXrecord
280
     1
290
     1
  0
XRECORD
  5
9804
102
{ACAD_REACTORS
330
9803
102
}
330
9803
100
AcDbXrecord
280
     1
340
9647
  0
XRECORD
  5
9802
102
{ACAD_REACTORS
330
9801
102
}
330
9801
100
AcDbXrecord
280
     1
340
9643
  0
ACDBDETAILVIEWSTYLE
  5
9856
102
{ACAD_XDICTIONARY
360
98B1
102
}
102
{ACAD_REACTORS
330
9855
102
}
330
9855
100
AcDbModelDocViewStyle
 70
     0
  3
Imperial24
290
     0
100
AcDbDetailViewStyle
 70
     0
 71
     0
 90
        3
 71
     1
340
963A
 40
0.24
340
0
 40
0.24
300

 40
0.36
280
     3
 71
     2
340
963E
 90
       25
 71
     3
340
963A
 40
0.24
 90
        1
 40
0.75
 90
        1
300
%<\AcVar ViewType \f "%tc1">% %<\AcVar ViewDetailId>%\PSCALE %<\AcVar ViewScale \f "%sn">%
 71
     4
340
963E
 90
       25
340
963E
 90
       25
280
     0
  0
LAYOUT
  5
9857
102
{ACAD_XDICTIONARY
360
98B3
102
}
102
{ACAD_REACTORS
330
9642
102
}
330
9642
100
AcDbPlotSettings
  1

  2
Canon LBP9100C
  4

  6

 40
0.0
 41
0.0
 42
0.0
 43
0.0
 44
0.0
 45
0.0
 46
0.0
 47
0.0
 48
0.0
 49
0.0
140
0.0
141
0.0
142
1.0
143
1.0
 70
  1712
 72
     0
 73
     0
 74
     0
  7

 75
     0
147
1.0
148
0.0
149
0.0
100
AcDbLayout
  1
Model
 70
     1
 71
     0
 10
0.0
 20
0.0
 11
12.0
 21
9.0
 12
0.0
 22
0.0
 32
0.0
 14
0.0
 24
0.0
 34
0.0
 15
0.0
 25
0.0
 35
0.0
146
0.0
 13
0.0
 23
0.0
 33
0.0
 16
1.0
 26
0.0
 36
0.0
 17
0.0
 27
1.0
 37
0.0
 76
     0
330
9647
331
9800
  0
LAYOUT
  5
9858
102
{ACAD_XDICTIONARY
360
98B5
102
}
102
{ACAD_REACTORS
330
9642
102
}
330
9642
100
AcDbPlotSettings
  1

  2
Canon LBP9100C
  4

  6

 40
0.0
 41
0.0
 42
0.0
 43
0.0
 44
0.0
 45
0.0
 46
0.0
 47
0.0
 48
0.0
 49
0.0
140
0.0
141
0.0
142
1.0
143
1.0
 70
   688
 72
     0
 73
     0
 74
     5
  7

 75
    16
147
1.0
148
0.0
149
0.0
100
AcDbLayout
  1
レイアウト1
 70
     0
 71
     1
 10
0.0
 20
0.0
 11
420.0
 21
297.0
 12
0.0
 22
0.0
 32
0.0
 14
1.000000000000000E+20
 24
1.000000000000000E+20
 34
1.000000000000000E+20
 15
-1.000000000000000E+20
 25
-1.000000000000000E+20
 35
-1.000000000000000E+20
146
0.0
 13
0.0
 23
0.0
 33
0.0
 16
1.0
 26
0.0
 36
0.0
 17
0.0
 27
1.0
 37
0.0
 76
     0
330
9643
  0
MATERIAL
  5
9813
102
{ACAD_XDICTIONARY
360
9814
102
}
102
{ACAD_REACTORS
330
980A
102
}
330
980A
100
AcDbMaterial
  1
ByBlock
 72
     0
 43
0.0208333333333333
 43
0.0
 43
0.0
 43
0.0
 43
0.0
 43
0.0208333333333333
 43
0.0
 43
0.0
 43
0.0
 43
0.0
 43
1.0
 43
0.0
 43
0.0
 43
0.0
 43
0.0
 43
1.0
 77
     0
 47
0.0208333333333333
 47
0.0
 47
0.0
 47
0.0
 47
0.0
 47
0.0208333333333333
 47
0.0
 47
0.0
 47
0.0
 47
0.0
 47
1.0
 47
0.0
 47
0.0
 47
0.0
 47
0.0
 47
1.0
171
     0
 49
0.0208333333333333
 49
0.0
 49
0.0
 49
0.0
 49
0.0
 49
0.0208333333333333
 49
0.0
 49
0.0
 49
0.0
 49
0.0
 49
1.0
 49
0.0
 49
0.0
 49
0.0
 49
0.0
 49
1.0
175
     0
142
0.0208333333333333
142
0.0
142
0.0
142
0.0
142
0.0
142
0.0208333333333333
142
0.0
142
0.0
142
0.0
142
0.0
142
1.0
142
0.0
142
0.0
142
0.0
142
0.0
142
1.0
179
     0
144
0.0208333333333333
144
0.0
144
0.0
144
0.0
144
0.0
144
0.0208333333333333
144
0.0
144
0.0
144
0.0
144
0.0
144
1.0
144
0.0
144
0.0
144
0.0
144
0.0
144
1.0
147
0.0208333333333333
147
0.0
147
0.0
147
0.0
147
0.0
147
0.0208333333333333
147
0.0
147
0.0
147
0.0
147
0.0
147
1.0
147
0.0
147
0.0
147
0.0
147
0.0
147
1.0
  0
MATERIAL
  5
980B
102
{ACAD_XDICTIONARY
360
980C
102
}
102
{ACAD_REACTORS
330
980A
102
}
330
980A
100
AcDbMaterial
  1
ByLayer
 72
     0
 43
0.0208333333333333
 43
0.0
 43
0.0
 43
0.0
 43
0.0
 43
0.0208333333333333
 43
0.0
 43
0.0
 43
0.0
 43
0.0
 43
1.0
 43
0.0
 43
0.0
 43
0.0
 43
0.0
 43
1.0
 77
     0
 47
0.0208333333333333
 47
0.0
 47
0.0
 47
0.0
 47
0.0
 47
0.0208333333333333
 47
0.0
 47
0.0
 47
0.0
 47
0.0
 47
1.0
 47
0.0
 47
0.0
 47
0.0
 47
0.0
 47
1.0
171
     0
 49
0.0208333333333333
 49
0.0
 49
0.0
 49
0.0
 49
0.0
 49
0.0208333333333333
 49
0.0
 49
0.0
 49
0.0
 49
0.0
 49
1.0
 49
0.0
 49
0.0
 49
0.0
 49
0.0
 49
1.0
175
     0
142
0.0208333333333333
142
0.0
142
0.0
142
0.0
142
0.0
142
0.0208333333333333
142
0.0
142
0.0
142
0.0
142
0.0
142
1.0
142
0.0
142
0.0
142
0.0
142
0.0
142
1.0
179
     0
144
0.0208333333333333
144
0.0
144
0.0
144
0.0
144
0.0
144
0.0208333333333333
144
0.0
144
0.0
144
0.0
144
0.0
144
1.0
144
0.0
144
0.0
144
0.0
144
0.0
144
1.0
147
0.0208333333333333
147
0.0
147
0.0
147
0.0
147
0.0
147
0.0208333333333333
147
0.0
147
0.0
147
0.0
147
0.0
147
1.0
147
0.0
147
0.0
147
0.0
147
0.0
147
1.0
  0
MATERIAL
  5
981B
102
{ACAD_XDICTIONARY
360
981C
102
}
102
{ACAD_REACTORS
330
980A
102
}
330
980A
100
AcDbMaterial
  1
Global
 72
     0
 43
0.0208333333333333
 43
0.0
 43
0.0
 43
0.0
 43
0.0
 43
0.0208333333333333
 43
0.0
 43
0.0
 43
0.0
 43
0.0
 43
1.0
 43
0.0
 43
0.0
 43
0.0
 43
0.0
 43
1.0
 77
     0
 47
0.0208333333333333
 47
0.0
 47
0.0
 47
0.0
 47
0.0
 47
0.0208333333333333
 47
0.0
 47
0.0
 47
0.0
 47
0.0
 47
1.0
 47
0.0
 47
0.0
 47
0.0
 47
0.0
 47
1.0
171
     0
 49
0.0208333333333333
 49
0.0
 49
0.0
 49
0.0
 49
0.0
 49
0.0208333333333333
 49
0.0
 49
0.0
 49
0.0
 49
0.0
 49
1.0
 49
0.0
 49
0.0
 49
0.0
 49
0.0
 49
1.0
175
     0
142
0.0208333333333333
142
0.0
142
0.0
142
0.0
142
0.0
142
0.0208333333333333
142
0.0
142
0.0
142
0.0
142
0.0
142
1.0
142
0.0
142
0.0
142
0.0
142
0.0
142
1.0
179
     0
144
0.0208333333333333
144
0.0
144
0.0
144
0.0
144
0.0
144
0.0208333333333333
144
0.0
144
0.0
144
0.0
144
0.0
144
1.0
144
0.0
144
0.0
144
0.0
144
0.0
144
1.0
147
0.0208333333333333
147
0.0
147
0.0
147
0.0
147
0.0
147
0.0208333333333333
147
0.0
147
0.0
147
0.0
147
0.0
147
1.0
147
0.0
147
0.0
147
0.0
147
0.0
147
1.0
  0
MLEADERSTYLE
  5
9852
102
{ACAD_REACTORS
330
9851
102
}
330
9851
100
AcDbMLeaderStyle
170
     2
171
     1
172
     0
 90
        2
 40
0.0
 41
0.0
173
     1
 91
-1056964608
340
963C
 92
       -2
290
     1
 42
0.09
291
     1
 43
0.36
  3
Standard
 44
0.18
300

342
963A
174
     1
178
     6
175
     1
176
     0
 93
-1056964608
 45
0.18
292
     0
297
     0
 46
0.18
 94
-1056964608
 47
1.0
 49
1.0
140
1.0
293
     1
141
0.0
294
     1
177
     0
142
1.0
295
     0
296
     0
143
0.125
1001
ACAD_MLEADERVER
1070
     2
  0
MLINESTYLE
  5
9640
102
{ACAD_REACTORS
330
963F
102
}
330
963F
100
AcDbMlineStyle
  2
STANDARD
 70
     0
  3

 62
   256
 51
90.0
 52
90.0
 71
     2
 49
0.5
 62
   256
  6
BYLAYER
 49
-0.5
 62
   256
  6
BYLAYER
  0
ACDBPLACEHOLDER
  5
9809
102
{ACAD_REACTORS
330
9808
102
}
330
9808
  0
SCALE
  5
9840
102
{ACAD_REACTORS
330
983F
102
}
330
983F
100
AcDbScale
 70
     0
300
1:1
140
1.0
141
1.0
290
     1
  0
SCALE
  5
9841
102
{ACAD_REACTORS
330
983F
102
}
330
983F
100
AcDbScale
 70
     0
300
1/128" = 1'-0"
140
0.0078125
141
12.0
290
     0
  0
SCALE
  5
9842
102
{ACAD_REACTORS
330
983F
102
}
330
983F
100
AcDbScale
 70
     0
300
1/64" = 1'-0"
140
0.015625
141
12.0
290
     0
  0
SCALE
  5
9843
102
{ACAD_REACTORS
330
983F
102
}
330
983F
100
AcDbScale
 70
     0
300
1/32" = 1'-0"
140
0.03125
141
12.0
290
     0
  0
SCALE
  5
9844
102
{ACAD_REACTORS
330
983F
102
}
330
983F
100
AcDbScale
 70
     0
300
1/16" = 1'-0"
140
0.0625
141
12.0
290
     0
  0
SCALE
  5
9845
102
{ACAD_REACTORS
330
983F
102
}
330
983F
100
AcDbScale
 70
     0
300
3/32" = 1'-0"
140
0.09375
141
12.0
290
     0
  0
SCALE
  5
9846
102
{ACAD_REACTORS
330
983F
102
}
330
983F
100
AcDbScale
 70
     0
300
1/8" = 1'-0"
140
0.125
141
12.0
290
     0
  0
SCALE
  5
9847
102
{ACAD_REACTORS
330
983F
102
}
330
983F
100
AcDbScale
 70
     0
300
3/16" = 1'-0"
140
0.1875
141
12.0
290
     0
  0
SCALE
  5
9848
102
{ACAD_REACTORS
330
983F
102
}
330
983F
100
AcDbScale
 70
     0
300
1/4" = 1'-0"
140
0.25
141
12.0
290
     0
  0
SCALE
  5
9849
102
{ACAD_REACTORS
330
983F
102
}
330
983F
100
AcDbScale
 70
     0
300
3/8" = 1'-0"
140
0.375
141
12.0
290
     0
  0
SCALE
  5
984A
102
{ACAD_REACTORS
330
983F
102
}
330
983F
100
AcDbScale
 70
     0
300
1/2" = 1'-0"
140
0.5
141
12.0
290
     0
  0
SCALE
  5
984B
102
{ACAD_REACTORS
330
983F
102
}
330
983F
100
AcDbScale
 70
     0
300
3/4" = 1'-0"
140
0.75
141
12.0
290
     0
  0
SCALE
  5
984C
102
{ACAD_REACTORS
330
983F
102
}
330
983F
100
AcDbScale
 70
     0
300
1" = 1'-0"
140
1.0
141
12.0
290
     0
  0
SCALE
  5
984D
102
{ACAD_REACTORS
330
983F
102
}
330
983F
100
AcDbScale
 70
     0
300
1-1/2" = 1'-0"
140
1.5
141
12.0
290
     0
  0
SCALE
  5
984E
102
{ACAD_REACTORS
330
983F
102
}
330
983F
100
AcDbScale
 70
     0
300
3" = 1'-0"
140
3.0
141
12.0
290
     0
  0
SCALE
  5
984F
102
{ACAD_REACTORS
330
983F
102
}
330
983F
100
AcDbScale
 70
     0
300
6" = 1'-0"
140
6.0
141
12.0
290
     0
  0
SCALE
  5
9850
102
{ACAD_REACTORS
330
983F
102
}
330
983F
100
AcDbScale
 70
     0
300
1'-0" = 1'-0"
140
12.0
141
12.0
290
     0
  0
ACDBSECTIONVIEWSTYLE
  5
9854
102
{ACAD_XDICTIONARY
360
98AF
102
}
102
{ACAD_REACTORS
330
9853
102
}
330
9853
100
AcDbModelDocViewStyle
 70
     0
  3
Imperial24
290
     0
100
AcDbSectionViewStyle
 70
     0
 71
     0
 90
       78
 71
     1
340
963A
 40
0.24
340
0
340
0
 40
0.24
300
I, O, Q, S, X, Z
 40
0.48
 90
        3
 40
0.18
 90
        1
 71
     2
340
963E
 90
       25
340
963E
 90
       50
 40
0.24
 40
0.0
 40
0.24
 71
     3
340
963A
 40
0.24
 90
        1
 40
0.75
 90
        1
300
%<\AcVar ViewType \f "%tc1">% %<\AcVar ViewSectionStartId>%-%<\AcVar ViewSectionEndId>%\PSCALE %<\AcVar ViewScale \f "%sn">%
 71
     4
300
ANSI31
 40
1.0
 90
        0
290
     0
290
     0
 90
        6
 40
0.0
 40
1.570796326794896
 40
0.2617993877991494
 40
1.308996938995747
 40
-0.2617993877991494
 40
1.832595714594046
  0
TABLESTYLE
  5
983E
102
{ACAD_XDICTIONARY
360
9876
102
}
102
{ACAD_REACTORS
330
983D
102
}
330
983D
100
AcDbTableStyle
  3
Standard
 70
     0
 71
     0
 40
0.06
 41
0.06
280
     0
281
     0
  7
STANDARD
140
0.18
170
     2
 62
     0
 63
     7
283
     0
274
    -2
284
     1
 64
     0
275
    -2
285
     1
 65
     0
276
    -2
286
     1
 66
     0
277
    -2
287
     1
 67
     0
278
    -2
288
     1
 68
     0
279
    -2
289
     1
 69
     0
  7
STANDARD
140
0.25
170
     5
 62
     0
 63
     7
283
     0
274
    -2
284
     1
 64
     0
275
    -2
285
     1
 65
     0
276
    -2
286
     1
 66
     0
277
    -2
287
     1
 67
     0
278
    -2
288
     1
 68
     0
279
    -2
289
     1
 69
     0
  7
STANDARD
140
0.18
170
     5
 62
     0
 63
     7
283
     0
274
    -2
284
     1
 64
     0
275
    -2
285
     1
 65
     0
276
    -2
286
     1
 66
     0
277
    -2
287
     1
 67
     0
278
    -2
288
     1
 68
     0
279
    -2
289
     1
 69
     0
  0
VISUALSTYLE
  5
9829
102
{ACAD_XDICTIONARY
360
9887
102
}
102
{ACAD_REACTORS
330
9823
102
}
330
9823
100
AcDbVisualStyle
  2
2dWireframe
 70
     4
 71
     0
 72
     2
 73
     0
 90
        0
 40
-0.6
 41
-30.0
 62
     5
 63
     7
 74
     1
 91
        4
 64
     7
 65
   257
 75
     1
175
     1
 42
1.0
 92
        0
 66
   257
 43
1.0
 76
     1
 77
     6
 78
     2
 67
     7
 79
     5
170
     0
171
     0
290
     0
174
     0
 93
        1
 44
0.0
173
     0
291
     0
 45
0.0
1001
ACAD
1000
AcDbSavedByObjectVersion
1070
     0
  0
VISUALSTYLE
  5
9828
102
{ACAD_XDICTIONARY
360
9885
102
}
102
{ACAD_REACTORS
330
9823
102
}
330
9823
100
AcDbVisualStyle
  2
Basic
 70
     7
 71
     1
 72
     0
 73
     1
 90
        0
 40
-0.6
 41
-30.0
 62
     5
 63
     7
 74
     0
 91
        4
 64
     7
 65
   257
 75
     1
175
     1
 42
1.0
 92
        8
 66
     7
 43
1.0
 76
     1
 77
     6
 78
     2
 67
     7
 79
     5
170
     0
171
     0
290
     0
174
     0
 93
        1
 44
0.0
173
     0
291
     1
 45
0.0
1001
ACAD
1000
AcDbSavedByObjectVersion
1070
     0
  0
VISUALSTYLE
  5
982F
102
{ACAD_XDICTIONARY
360
9893
102
}
102
{ACAD_REACTORS
330
9823
102
}
330
9823
100
AcDbVisualStyle
  2
Brighten
 70
    12
 71
     2
 72
     2
 73
     0
 90
        0
 40
-0.6
 41
-30.0
 62
     5
 63
     7
 74
     1
 91
        4
 64
     7
 65
   257
 75
     1
175
     1
 42
1.0
 92
        8
 66
     7
 43
1.0
 76
     1
 77
     6
 78
     2
 67
     7
 79
     5
170
     0
171
     0
290
     0
174
     0
 93
        1
 44
50.0
173
     0
291
     1
 45
0.0
1001
ACAD
1000
AcDbSavedByObjectVersion
1070
     0
  0
VISUALSTYLE
  5
9833
102
{ACAD_XDICTIONARY
360
989B
102
}
102
{ACAD_REACTORS
330
9823
102
}
330
9823
100
AcDbVisualStyle
  2
ColorChange
 70
    16
 71
     2
 72
     2
 73
     3
 90
        0
 40
-0.6
 41
-30.0
 62
     5
 63
     8
 74
     1
 91
        4
 64
     7
 65
   257
 75
     1
175
     1
 42
1.0
 92
        8
 66
     8
 43
1.0
 76
     1
 77
     6
 78
     2
 67
     7
 79
     5
170
     0
171
     0
290
     0
174
     0
 93
        1
 44
0.0
173
     0
291
     1
 45
0.0
1001
ACAD
1000
AcDbSavedByObjectVersion
1070
     0
  0
VISUALSTYLE
  5
982C
102
{ACAD_XDICTIONARY
360
988D
102
}
102
{ACAD_REACTORS
330
9823
102
}
330
9823
100
AcDbVisualStyle
  2
Conceptual
 70
     9
 71
     3
 72
     2
 73
     0
 90
        0
 40
-0.6
 41
-30.0
 62
     5
 63
     7
 74
     2
 91
        2
 64
     7
 65
   257
 75
     1
175
     1
 42
179.0
 92
        8
 66
     7
 43
1.0
 76
     1
 77
     6
 78
     2
 67
     7
 79
     3
170
     0
171
     0
290
     0
174
     0
 93
        1
 44
0.0
173
     0
291
     0
 45
0.0
1001
ACAD
1000
AcDbSavedByObjectVersion
1070
     0
  0
VISUALSTYLE
  5
982E
102
{ACAD_XDICTIONARY
360
9891
102
}
102
{ACAD_REACTORS
330
9823
102
}
330
9823
100
AcDbVisualStyle
  2
Dim
 70
    11
 71
     2
 72
     2
 73
     0
 90
        0
 40
-0.6
 41
-30.0
 62
     5
 63
     7
 74
     1
 91
        4
 64
     7
 65
   257
 75
     1
175
     1
 42
1.0
 92
        8
 66
     7
 43
1.0
 76
     1
 77
     6
 78
     2
 67
     7
 79
     5
170
     0
171
     0
290
     0
174
     0
 93
        1
 44
-50.0
173
     0
291
     1
 45
0.0
1001
ACAD
1000
AcDbSavedByObjectVersion
1070
     0
  0
VISUALSTYLE
  5
983B
102
{ACAD_XDICTIONARY
360
98AB
102
}
102
{ACAD_REACTORS
330
9823
102
}
330
9823
100
AcDbVisualStyle
  2
EdgeColorOff
 70
    22
 71
     2
 72
     2
 73
     0
 90
        0
 40
-0.6
 41
-30.0
 62
     5
 63
     7
 74
     1
 91
        4
 64
     7
 65
   257
 75
     1
175
     1
 42
1.0
 92
        8
 66
     7
 43
1.0
 76
     1
 77
     6
 78
     2
 67
     7
 79
     5
170
     0
171
     0
290
     0
174
     0
 93
        1
 44
0.0
173
     0
291
     1
 45
0.0
1001
ACAD
1000
AcDbSavedByObjectVersion
1070
     0
  0
VISUALSTYLE
  5
9832
102
{ACAD_XDICTIONARY
360
9899
102
}
102
{ACAD_REACTORS
330
9823
102
}
330
9823
100
AcDbVisualStyle
  2
Facepattern
 70
    15
 71
     2
 72
     2
 73
     0
 90
        0
 40
-0.6
 41
-30.0
 62
     5
 63
     7
 74
     1
 91
        4
 64
     7
 65
   257
 75
     1
175
     1
 42
1.0
 92
        8
 66
     7
 43
1.0
 76
     1
 77
     6
 78
     2
 67
     7
 79
     5
170
     0
171
     0
290
     0
174
     0
 93
        1
 44
0.0
173
     0
291
     1
 45
0.0
1001
ACAD
1000
AcDbSavedByObjectVersion
1070
     0
  0
VISUALSTYLE
  5
9824
102
{ACAD_XDICTIONARY
360
987D
102
}
102
{ACAD_REACTORS
330
9823
102
}
330
9823
100
AcDbVisualStyle
  2
Flat
 70
     0
 71
     2
 72
     1
 73
     1
 90
        2
 40
-0.6
 41
30.0
 62
     5
 63
     7
 74
     0
 91
        0
 64
     7
 65
   257
 75
     1
175
     1
 42
1.0
 92
        8
 66
     7
 43
1.0
 76
     1
 77
     6
 78
     2
 67
     7
 79
     5
170
     0
171
     0
290
     0
174
     0
 93
       13
 44
0.0
173
     0
291
     1
 45
0.0
1001
ACAD
1000
AcDbSavedByObjectVersion
1070
     0
  0
VISUALSTYLE
  5
9825
102
{ACAD_XDICTIONARY
360
987F
102
}
102
{ACAD_REACTORS
330
9823
102
}
330
9823
100
AcDbVisualStyle
  2
FlatWithEdges
 70
     1
 71
     2
 72
     1
 73
     1
 90
        2
 40
-0.6
 41
30.0
 62
     5
 63
     7
 74
     1
 91
        0
 64
     7
 65
   257
 75
     1
175
     1
 42
1.0
 92
        0
 66
   257
 43
1.0
 76
     1
 77
     6
 78
     2
 67
     7
 79
     5
170
     0
171
     0
290
     0
174
     0
 93
       13
 44
0.0
173
     0
291
     1
 45
0.0
1001
ACAD
1000
AcDbSavedByObjectVersion
1070
     0
  0
VISUALSTYLE
  5
9826
102
{ACAD_XDICTIONARY
360
9881
102
}
102
{ACAD_REACTORS
330
9823
102
}
330
9823
100
AcDbVisualStyle
  2
Gouraud
 70
     2
 71
     2
 72
     2
 73
     1
 90
        2
 40
-0.6
 41
30.0
 62
     5
 63
     7
 74
     0
 91
        0
 64
     7
 65
   257
 75
     1
175
     1
 42
1.0
 92
        0
 66
     7
 43
1.0
 76
     1
 77
     6
 78
     2
 67
     7
 79
     5
170
     0
171
     0
290
     0
174
     0
 93
       13
 44
0.0
173
     0
291
     1
 45
0.0
1001
ACAD
1000
AcDbSavedByObjectVersion
1070
     0
  0
VISUALSTYLE
  5
9827
102
{ACAD_XDICTIONARY
360
9883
102
}
102
{ACAD_REACTORS
330
9823
102
}
330
9823
100
AcDbVisualStyle
  2
GouraudWithEdges
 70
     3
 71
     2
 72
     2
 73
     1
 90
        2
 40
-0.6
 41
30.0
 62
     5
 63
     7
 74
     1
 91
        0
 64
     7
 65
   257
 75
     1
175
     1
 42
1.0
 92
        0
 66
   257
 43
1.0
 76
     1
 77
     6
 78
     2
 67
     7
 79
     5
170
     0
171
     0
290
     0
174
     0
 93
       13
 44
0.0
173
     0
291
     1
 45
0.0
1001
ACAD
1000
AcDbSavedByObjectVersion
1070
     0
  0
VISUALSTYLE
  5
982B
102
{ACAD_XDICTIONARY
360
988B
102
}
102
{ACAD_REACTORS
330
9823
102
}
330
9823
100
AcDbVisualStyle
  2
Hidden
 70
     6
 71
     1
 72
     2
 73
     2
 90
        0
 40
-0.6
 41
-30.0
 62
     5
 63
     7
 74
     2
 91
        2
 64
     7
 65
   257
 75
     2
175
     1
 42
40.0
 92
        0
 66
   257
 43
1.0
 76
     1
 77
     6
 78
     2
 67
     7
 79
     3
170
     0
171
     0
290
     0
174
     0
 93
        1
 44
0.0
173
     0
291
     0
 45
0.0
1001
ACAD
1000
AcDbSavedByObjectVersion
1070
     0
  0
VISUALSTYLE
  5
9839
102
{ACAD_XDICTIONARY
360
98A7
102
}
102
{ACAD_REACTORS
330
9823
102
}
330
9823
100
AcDbVisualStyle
  2
JitterOff
 70
    20
 71
     2
 72
     2
 73
     0
 90
        0
 40
-0.6
 41
-30.0
 62
     5
 63
     7
 74
     1
 91
        4
 64
     7
 65
   257
 75
     1
175
     1
 42
1.0
 92
       10
 66
     7
 43
1.0
 76
     1
 77
     6
 78
     2
 67
     7
 79
     5
170
     0
171
     0
290
     0
174
     0
 93
        1
 44
0.0
173
     0
291
     1
 45
0.0
1001
ACAD
1000
AcDbSavedByObjectVersion
1070
     0
  0
VISUALSTYLE
  5
9831
102
{ACAD_XDICTIONARY
360
9897
102
}
102
{ACAD_REACTORS
330
9823
102
}
330
9823
100
AcDbVisualStyle
  2
Linepattern
 70
    14
 71
     2
 72
     2
 73
     0
 90
        0
 40
-0.6
 41
-30.0
 62
     5
 63
     7
 74
     1
 91
        4
 64
     7
 65
   257
 75
     7
175
     7
 42
1.0
 92
        8
 66
     7
 43
1.0
 76
     1
 77
     6
 78
     2
 67
     7
 79
     5
170
     0
171
     0
290
     0
174
     0
 93
        1
 44
0.0
173
     0
291
     1
 45
0.0
1001
ACAD
1000
AcDbSavedByObjectVersion
1070
     0
  0
VISUALSTYLE
  5
983A
102
{ACAD_XDICTIONARY
360
98A9
102
}
102
{ACAD_REACTORS
330
9823
102
}
330
9823
100
AcDbVisualStyle
  2
OverhangOff
 70
    21
 71
     2
 72
     2
 73
     0
 90
        0
 40
-0.6
 41
-30.0
 62
     5
 63
     7
 74
     1
 91
        4
 64
     7
 65
   257
 75
     1
175
     1
 42
1.0
 92
        9
 66
     7
 43
1.0
 76
     1
 77
     6
 78
     2
 67
     7
 79
     5
170
     0
171
     0
290
     0
174
     0
 93
        1
 44
0.0
173
     0
291
     1
 45
0.0
1001
ACAD
1000
AcDbSavedByObjectVersion
1070
     0
  0
VISUALSTYLE
  5
982D
102
{ACAD_XDICTIONARY
360
988F
102
}
102
{ACAD_REACTORS
330
9823
102
}
330
9823
100
AcDbVisualStyle
  2
Realistic
 70
     8
 71
     2
 72
     3
 73
     0
 90
        2
 40
-0.6
 41
30.0
 62
     5
 63
     7
 74
     0
 91
        0
 64
     7
 65
   257
 75
     1
175
     1
 42
1.0
 92
        8
 66
   257
 43
1.0
 76
     1
 77
     6
 78
     2
 67
     7
 79
     3
170
     0
171
     0
290
     0
174
     0
 93
       13
 44
0.0
173
     0
291
     0
 45
0.0
1001
ACAD
1000
AcDbSavedByObjectVersion
1070
     0
  0
VISUALSTYLE
  5
9838
102
{ACAD_XDICTIONARY
360
98A5
102
}
102
{ACAD_REACTORS
330
9823
102
}
330
9823
100
AcDbVisualStyle
  2
Shaded
 70
    27
 71
     2
 72
     2
 73
     1
 90
        2
 40
-0.6
 41
30.0
 62
     5
 63
     7
 74
     0
 91
        4
 64
     7
 65
   257
 75
     1
175
     1
 42
1.0
 92
        8
 66
   257
 43
1.0
 76
     1
 77
     6
 78
     2
 67
     8
 79
     3
170
     0
171
     0
290
     0
174
     0
 93
        5
 44
0.0
173
     0
291
     0
 45
0.0
1001
ACAD
1000
AcDbSavedByObjectVersion
1070
     0
  0
VISUALSTYLE
  5
9837
102
{ACAD_XDICTIONARY
360
98A3
102
}
102
{ACAD_REACTORS
330
9823
102
}
330
9823
100
AcDbVisualStyle
  2
Shaded with edges
 70
    26
 71
     2
 72
     2
 73
     1
 90
        2
 40
-0.6
 41
30.0
 62
     5
 63
     7
 74
     1
 91
       10
 64
     7
 65
   257
 75
     2
175
     1
 42
1.0
 92
        8
 66
   257
 43
1.0
 76
     1
 77
     6
 78
     2
 67
     7
 79
     3
170
     0
171
     0
290
     0
174
     0
 93
        5
 44
0.0
173
     0
291
     0
 45
0.0
1001
ACAD
1000
AcDbSavedByObjectVersion
1070
     0
  0
VISUALSTYLE
  5
9834
102
{ACAD_XDICTIONARY
360
989D
102
}
102
{ACAD_REACTORS
330
9823
102
}
330
9823
100
AcDbVisualStyle
  2
Shades of Gray
 70
    23
 71
     2
 72
     2
 73
     3
 90
        0
 40
-0.6
 41
-30.0
 62
     5
 63
     7
 74
     2
 91
        2
 64
     7
 65
     7
 75
     1
175
     1
 42
40.0
 92
        8
 66
     7
 43
1.0
 76
     1
 77
     6
 78
     2
 67
     7
 79
     3
170
     0
171
     0
290
     0
174
     0
 93
        1
 44
0.0
173
     0
291
     0
 45
0.0
1001
ACAD
1000
AcDbSavedByObjectVersion
1070
     0
  0
VISUALSTYLE
  5
9835
102
{ACAD_XDICTIONARY
360
989F
102
}
102
{ACAD_REACTORS
330
9823
102
}
330
9823
100
AcDbVisualStyle
  2
Sketchy
 70
    24
 71
     1
 72
     2
 73
     2
 90
        0
 40
-0.6
 41
-30.0
 62
     5
 63
     7
 74
     2
 91
        2
 64
     7
 65
     7
 75
     1
175
     1
 42
40.0
 92
       11
 66
     7
 43
1.0
 76
     1
 77
     6
 78
     2
 67
     7
 79
     6
170
     0
171
     0
290
     0
174
     0
 93
        1
 44
0.0
173
     0
291
     0
 45
0.0
1001
ACAD
1000
AcDbSavedByObjectVersion
1070
     0
  0
VISUALSTYLE
  5
9830
102
{ACAD_XDICTIONARY
360
9895
102
}
102
{ACAD_REACTORS
330
9823
102
}
330
9823
100
AcDbVisualStyle
  2
Thicken
 70
    13
 71
     2
 72
     2
 73
     0
 90
        0
 40
-0.6
 41
-30.0
 62
     5
 63
     7
 74
     1
 91
        4
 64
     7
 65
   257
 75
     1
175
     1
 42
1.0
 92
       12
 66
     7
 43
1.0
 76
     1
 77
     6
 78
     2
 67
     7
 79
     5
170
     0
171
     0
290
     0
174
     0
 93
        1
 44
0.0
173
     0
291
     1
 45
0.0
1001
ACAD
1000
AcDbSavedByObjectVersion
1070
     0
  0
VISUALSTYLE
  5
982A
102
{ACAD_XDICTIONARY
360
9889
102
}
102
{ACAD_REACTORS
330
9823
102
}
330
9823
100
AcDbVisualStyle
  2
Wireframe
 70
     5
 71
     0
 72
     2
 73
     0
 90
        0
 40
-0.6
 41
-30.0
 62
     5
 63
     7
 74
     1
 91
        4
 64
     7
 65
   257
 75
     1
175
     1
 42
1.0
 92
        0
 66
   257
 43
1.0
 76
     1
 77
     6
 78
     2
 67
     7
 79
     3
170
     0
171
     0
290
     0
174
     0
 93
        1
 44
0.0
173
     0
291
     0
 45
0.0
1001
ACAD
1000
AcDbSavedByObjectVersion
1070
     0
  0
VISUALSTYLE
  5
9836
102
{ACAD_XDICTIONARY
360
98A1
102
}
102
{ACAD_REACTORS
330
9823
102
}
330
9823
100
AcDbVisualStyle
  2
X-Ray
 70
    25
 71
     2
 72
     2
 73
     1
 90
        1
 40
0.5
 41
-30.0
 62
     5
 63
     7
 74
     1
 91
        0
 64
     7
 65
   257
 75
     1
175
     1
 42
1.0
 92
        8
 66
     7
 43
1.0
 76
     1
 77
     6
 78
     2
 67
     7
 79
     3
170
     0
171
     0
290
     0
174
     0
 93
       13
 44
0.0
173
     0
291
     0
 45
0.0
1001
ACAD
1000
AcDbSavedByObjectVersion
1070
     0
  0
DICTIONARYVAR
  5
9870
102
{ACAD_REACTORS
330
986B
102
}
330
986B
100
DictionaryVariables
280
     0
  1
1:1
  0
DICTIONARYVAR
  5
986D
102
{ACAD_REACTORS
330
986B
102
}
330
986B
100
DictionaryVariables
280
     0
  1
STANDARD
  0
DICTIONARYVAR
  5
986C
102
{ACAD_REACTORS
330
986B
102
}
330
986B
100
DictionaryVariables
280
     0
  1
STANDARD
  0
DICTIONARYVAR
  5
986E
102
{ACAD_REACTORS
330
986B
102
}
330
986B
100
DictionaryVariables
280
     0
  1
Imperial24
  0
DICTIONARYVAR
  5
986F
102
{ACAD_REACTORS
330
986B
102
}
330
986B
100
DictionaryVariables
280
     0
  1
Imperial24
  0
DICTIONARYVAR
  5
9873
102
{ACAD_REACTORS
330
986B
102
}
330
986B
100
DictionaryVariables
280
     0
  1
1
  0
DICTIONARYVAR
  5
9872
102
{ACAD_REACTORS
330
986B
102
}
330
986B
100
DictionaryVariables
280
     0
  1
0
  0
DICTIONARYVAR
  5
9871
102
{ACAD_REACTORS
330
986B
102
}
330
986B
100
DictionaryVariables
280
     0
  1
127
  0
DICTIONARYVAR
  5
9874
102
{ACAD_REACTORS
330
986B
102
}
330
986B
100
DictionaryVariables
280
     0
  1
2
  0
DICTIONARY
  5
98B1
330
9856
100
AcDbDictionary
280
     1
281
     1
  3
ACAD_XREC_ROUNDTRIP
360
98B2
  0
DICTIONARY
  5
98B3
330
9857
100
AcDbDictionary
280
     1
281
     1
  3
ACAD_XREC_ROUNDTRIP
360
98B4
  0
DICTIONARY
  5
98B5
330
9858
100
AcDbDictionary
280
     1
281
     1
  3
ACAD_XREC_ROUNDTRIP
360
98B6
  0
DICTIONARY
  5
9814
330
9813
100
AcDbDictionary
280
     1
281
     1
  3
ACAD_XREC_ROUNDTRIP
360
987B
  3
BUMPTILE
360
9816
  3
DIFFUSETILE
360
9815
  3
OPACITYTILE
360
9819
  3
REFLECTIONTILE
360
9818
  3
REFRACTIONTILE
360
981A
  3
SPECULARTILE
360
9817
  0
DICTIONARY
  5
980C
330
980B
100
AcDbDictionary
280
     1
281
     1
  3
ACAD_XREC_ROUNDTRIP
360
987A
  3
BUMPTILE
360
980E
  3
DIFFUSETILE
360
980D
  3
OPACITYTILE
360
9811
  3
REFLECTIONTILE
360
9810
  3
REFRACTIONTILE
360
9812
  3
SPECULARTILE
360
980F
  0
DICTIONARY
  5
981C
330
981B
100
AcDbDictionary
280
     1
281
     1
  3
ACAD_XREC_ROUNDTRIP
360
987C
  3
BUMPTILE
360
981E
  3
DIFFUSETILE
360
981D
  3
OPACITYTILE
360
9821
  3
REFLECTIONTILE
360
9820
  3
REFRACTIONTILE
360
9822
  3
SPECULARTILE
360
981F
  0
DICTIONARY
  5
98AF
330
9854
100
AcDbDictionary
280
     1
281
     1
  3
ACAD_XREC_ROUNDTRIP
360
98B0
  0
DICTIONARY
  5
9876
330
983E
100
AcDbDictionary
280
     1
281
     1
  3
ACAD_ROUNDTRIP_2008_TABLESTYLE_CELLSTYLEMAP
360
9877
  3
ACAD_XREC_ROUNDTRIP
360
98AD
  0
DICTIONARY
  5
9887
330
9829
100
AcDbDictionary
280
     1
281
     1
  3
ACAD_XREC_ROUNDTRIP
360
9888
  0
DICTIONARY
  5
9885
330
9828
100
AcDbDictionary
280
     1
281
     1
  3
ACAD_XREC_ROUNDTRIP
360
9886
  0
DICTIONARY
  5
9893
330
982F
100
AcDbDictionary
280
     1
281
     1
  3
ACAD_XREC_ROUNDTRIP
360
9894
  0
DICTIONARY
  5
989B
330
9833
100
AcDbDictionary
280
     1
281
     1
  3
ACAD_XREC_ROUNDTRIP
360
989C
  0
DICTIONARY
  5
988D
330
982C
100
AcDbDictionary
280
     1
281
     1
  3
ACAD_XREC_ROUNDTRIP
360
988E
  0
DICTIONARY
  5
9891
330
982E
100
AcDbDictionary
280
     1
281
     1
  3
ACAD_XREC_ROUNDTRIP
360
9892
  0
DICTIONARY
  5
98AB
330
983B
100
AcDbDictionary
280
     1
281
     1
  3
ACAD_XREC_ROUNDTRIP
360
98AC
  0
DICTIONARY
  5
9899
330
9832
100
AcDbDictionary
280
     1
281
     1
  3
ACAD_XREC_ROUNDTRIP
360
989A
  0
DICTIONARY
  5
987D
330
9824
100
AcDbDictionary
280
     1
281
     1
  3
ACAD_XREC_ROUNDTRIP
360
987E
  0
DICTIONARY
  5
987F
330
9825
100
AcDbDictionary
280
     1
281
     1
  3
ACAD_XREC_ROUNDTRIP
360
9880
  0
DICTIONARY
  5
9881
330
9826
100
AcDbDictionary
280
     1
281
     1
  3
ACAD_XREC_ROUNDTRIP
360
9882
  0
DICTIONARY
  5
9883
330
9827
100
AcDbDictionary
280
     1
281
     1
  3
ACAD_XREC_ROUNDTRIP
360
9884
  0
DICTIONARY
  5
988B
330
982B
100
AcDbDictionary
280
     1
281
     1
  3
ACAD_XREC_ROUNDTRIP
360
988C
  0
DICTIONARY
  5
98A7
330
9839
100
AcDbDictionary
280
     1
281
     1
  3
ACAD_XREC_ROUNDTRIP
360
98A8
  0
DICTIONARY
  5
9897
330
9831
100
AcDbDictionary
280
     1
281
     1
  3
ACAD_XREC_ROUNDTRIP
360
9898
  0
DICTIONARY
  5
98A9
330
983A
100
AcDbDictionary
280
     1
281
     1
  3
ACAD_XREC_ROUNDTRIP
360
98AA
  0
DICTIONARY
  5
988F
330
982D
100
AcDbDictionary
280
     1
281
     1
  3
ACAD_XREC_ROUNDTRIP
360
9890
  0
DICTIONARY
  5
98A5
330
9838
100
AcDbDictionary
280
     1
281
     1
  3
ACAD_XREC_ROUNDTRIP
360
98A6
  0
DICTIONARY
  5
98A3
330
9837
100
AcDbDictionary
280
     1
281
     1
  3
ACAD_XREC_ROUNDTRIP
360
98A4
  0
DICTIONARY
  5
989D
330
9834
100
AcDbDictionary
280
     1
281
     1
  3
ACAD_XREC_ROUNDTRIP
360
989E
  0
DICTIONARY
  5
989F
330
9835
100
AcDbDictionary
280
     1
281
     1
  3
ACAD_XREC_ROUNDTRIP
360
98A0
  0
DICTIONARY
  5
9895
330
9830
100
AcDbDictionary
280
     1
281
     1
  3
ACAD_XREC_ROUNDTRIP
360
9896
  0
DICTIONARY
  5
9889
330
982A
100
AcDbDictionary
280
     1
281
     1
  3
ACAD_XREC_ROUNDTRIP
360
988A
  0
DICTIONARY
  5
98A1
330
9836
100
AcDbDictionary
280
     1
281
     1
  3
ACAD_XREC_ROUNDTRIP
360
98A2
  0
XRECORD
  5
98B2
102
{ACAD_REACTORS
330
98B1
102
}
330
98B1
100
AcDbXrecord
280
     1
102
DISPLAYNAME
  1
Imperial24
102
FLAGS
 90
        0
  0
XRECORD
  5
98B4
102
{ACAD_REACTORS
330
98B3
102
}
330
98B3
100
AcDbXrecord
280
     1
102
SHADEPLOT
 70
     0
102
SHADEPLOTRESLEVEL
 70
     2
102
SHADEPLOTCUSTOMDPI
 70
   300
  0
XRECORD
  5
98B6
102
{ACAD_REACTORS
330
98B5
102
}
330
98B5
100
AcDbXrecord
280
     1
102
SHADEPLOT
 70
     0
102
SHADEPLOTRESLEVEL
 70
     2
102
SHADEPLOTCUSTOMDPI
 70
   300
  0
XRECORD
  5
987B
102
{ACAD_REACTORS
330
9814
102
}
330
9814
100
AcDbXrecord
280
     1
102
MATERIAL
148
0.0
149
0.0
149
0.0
 93
        0
 94
      127
282
     0
 72
     0
 77
     0
171
     0
175
     0
179
     0
273
     0
  0
XRECORD
  5
9816
102
{ACAD_REACTORS
330
9814
102
}
330
9814
100
AcDbXrecord
280
     1
270
     1
271
     1
  0
XRECORD
  5
9815
102
{ACAD_REACTORS
330
9814
102
}
330
9814
100
AcDbXrecord
280
     1
270
     1
271
     1
  0
XRECORD
  5
9819
102
{ACAD_REACTORS
330
9814
102
}
330
9814
100
AcDbXrecord
280
     1
270
     1
271
     1
  0
XRECORD
  5
9818
102
{ACAD_REACTORS
330
9814
102
}
330
9814
100
AcDbXrecord
280
     1
270
     1
271
     1
  0
XRECORD
  5
981A
102
{ACAD_REACTORS
330
9814
102
}
330
9814
100
AcDbXrecord
280
     1
270
     1
271
     1
  0
XRECORD
  5
9817
102
{ACAD_REACTORS
330
9814
102
}
330
9814
100
AcDbXrecord
280
     1
270
     1
271
     1
  0
XRECORD
  5
987A
102
{ACAD_REACTORS
330
980C
102
}
330
980C
100
AcDbXrecord
280
     1
102
MATERIAL
148
0.0
149
0.0
149
0.0
 93
        0
 94
      127
282
     0
 72
     0
 77
     0
171
     0
175
     0
179
     0
273
     0
  0
XRECORD
  5
980E
102
{ACAD_REACTORS
330
980C
102
}
330
980C
100
AcDbXrecord
280
     1
270
     1
271
     1
  0
XRECORD
  5
980D
102
{ACAD_REACTORS
330
980C
102
}
330
980C
100
AcDbXrecord
280
     1
270
     1
271
     1
  0
XRECORD
  5
9811
102
{ACAD_REACTORS
330
980C
102
}
330
980C
100
AcDbXrecord
280
     1
270
     1
271
     1
  0
XRECORD
  5
9810
102
{ACAD_REACTORS
330
980C
102
}
330
980C
100
AcDbXrecord
280
     1
270
     1
271
     1
  0
XRECORD
  5
9812
102
{ACAD_REACTORS
330
980C
102
}
330
980C
100
AcDbXrecord
280
     1
270
     1
271
     1
  0
XRECORD
  5
980F
102
{ACAD_REACTORS
330
980C
102
}
330
980C
100
AcDbXrecord
280
     1
270
     1
271
     1
  0
XRECORD
  5
987C
102
{ACAD_REACTORS
330
981C
102
}
330
981C
100
AcDbXrecord
280
     1
102
MATERIAL
148
0.0
149
0.0
149
0.0
 93
        0
 94
      127
282
     0
 72
     0
 77
     0
171
     0
175
     0
179
     0
273
     0
  0
XRECORD
  5
981E
102
{ACAD_REACTORS
330
981C
102
}
330
981C
100
AcDbXrecord
280
     1
270
     1
271
     1
  0
XRECORD
  5
981D
102
{ACAD_REACTORS
330
981C
102
}
330
981C
100
AcDbXrecord
280
     1
270
     1
271
     1
  0
XRECORD
  5
9821
102
{ACAD_REACTORS
330
981C
102
}
330
981C
100
AcDbXrecord
280
     1
270
     1
271
     1
  0
XRECORD
  5
9820
102
{ACAD_REACTORS
330
981C
102
}
330
981C
100
AcDbXrecord
280
     1
270
     1
271
     1
  0
XRECORD
  5
9822
102
{ACAD_REACTORS
330
981C
102
}
330
981C
100
AcDbXrecord
280
     1
270
     1
271
     1
  0
XRECORD
  5
981F
102
{ACAD_REACTORS
330
981C
102
}
330
981C
100
AcDbXrecord
280
     1
270
     1
271
     1
  0
XRECORD
  5
98B0
102
{ACAD_REACTORS
330
98AF
102
}
330
98AF
100
AcDbXrecord
280
     1
102
DISPLAYNAME
  1
Imperial24
102
FLAGS
 90
        0
  0
CELLSTYLEMAP
  5
9877
102
{ACAD_REACTORS
330
9876
102
}
330
9876
100
AcDbCellStyleMap
 90
        3
300
CELLSTYLE
  1
TABLEFORMAT_BEGIN
 90
        5
170
     1
 91
        0
 92
    32768
 62
   257
 93
        1
300
CONTENTFORMAT
  1
CONTENTFORMAT_BEGIN
 90
        0
 91
        0
 92
      512
 93
        0
300

 40
0.0
140
1.0
 94
        5
 62
     0
340
963A
144
0.25
309
CONTENTFORMAT_END
171
     0
 94
        0
309
TABLEFORMAT_END
  1
CELLSTYLE_BEGIN
 90
        1
 91
        1
300
_TITLE
309
CELLSTYLE_END
300
CELLSTYLE
  1
TABLEFORMAT_BEGIN
 90
        5
170
     1
 91
        0
 92
        0
 62
   257
 93
        1
300
CONTENTFORMAT
  1
CONTENTFORMAT_BEGIN
 90
        0
 91
        0
 92
      512
 93
        0
300

 40
0.0
140
1.0
 94
        5
 62
     0
340
963A
144
0.18
309
CONTENTFORMAT_END
171
     0
 94
        0
309
TABLEFORMAT_END
  1
CELLSTYLE_BEGIN
 90
        2
 91
        1
300
_HEADER
309
CELLSTYLE_END
300
CELLSTYLE
  1
TABLEFORMAT_BEGIN
 90
        5
170
     1
 91
        0
 92
        0
 62
   257
 93
        1
300
CONTENTFORMAT
  1
CONTENTFORMAT_BEGIN
 90
        0
 91
        0
 92
      512
 93
        0
300

 40
0.0
140
1.0
 94
        2
 62
     0
340
963A
144
0.18
309
CONTENTFORMAT_END
171
     0
 94
        0
309
TABLEFORMAT_END
  1
CELLSTYLE_BEGIN
 90
        3
 91
        2
300
_DATA
309
CELLSTYLE_END
  0
XRECORD
  5
98AD
102
{ACAD_REACTORS
330
9876
102
}
330
9876
100
AcDbXrecord
280
     1
102
ACAD_ROUNDTRIP_PRE2007_TABLESTYLE
 90
      512
 91
        0
  1

 92
      512
 93
        0
  2

 94
      512
 95
        0
  3

  0
XRECORD
  5
9888
102
{ACAD_REACTORS
330
9887
102
}
330
9887
100
AcDbXrecord
280
     1
102
RTVSPost2010Prop28
280
     1
102
RTVSPost2010PropOp28
 70
     1
102
RTVSPost2010Prop29
280
     1
102
RTVSPost2010PropOp29
 70
     1
102
RTVSPost2010Prop30
280
     0
102
RTVSPost2010PropOp30
 70
     1
102
RTVSPost2010Prop31
280
     0
102
RTVSPost2010PropOp31
 70
     1
102
RTVSPost2010Prop32
280
     0
102
RTVSPost2010PropOp32
 70
     1
102
RTVSPost2010Prop33
280
     0
102
RTVSPost2010PropOp33
 70
     1
102
RTVSPost2010Prop34
280
     0
102
RTVSPost2010PropOp34
 70
     1
102
RTVSPost2010Prop35
280
     0
102
RTVSPost2010PropOp35
 70
     1
102
RTVSPost2010Prop36
280
     0
102
RTVSPost2010PropOp36
 70
     1
102
RTVSPost2010Prop37
 90
       50
102
RTVSPost2010PropOp37
 70
     1
102
RTVSPost2010Prop38
140
0.0
102
RTVSPost2010PropOp38
 70
     1
102
RTVSPost2010Prop39
140
1.0
102
RTVSPost2010PropOp39
 70
     1
102
RTVSPost2010Prop40
 90
        0
102
RTVSPost2010PropOp40
 70
     1
102
RTVSPost2010Prop41ColorIndex
 90
       18
102
RTVSPost2010Prop41ColorRGB
 90
        0
102
RTVSPost2010PropOp41
 70
     1
102
RTVSPost2010Prop42
 90
       50
102
RTVSPost2010PropOp42
 70
     1
102
RTVSPost2010Prop43
 90
        3
102
RTVSPost2010PropOp43
 70
     1
102
RTVSPost2010Prop44ColorIndex
 90
        5
102
RTVSPost2010Prop44ColorRGB
 90
      255
102
RTVSPost2010PropOp44
 70
     1
102
RTVSPost2010Prop45
280
     0
102
RTVSPost2010PropOp45
 70
     1
102
RTVSPost2010Prop46
 90
       50
102
RTVSPost2010PropOp46
 70
     1
102
RTVSPost2010Prop47
 90
       50
102
RTVSPost2010PropOp47
 70
     1
102
RTVSPost2010Prop48
 90
       50
102
RTVSPost2010PropOp48
 70
     1
102
RTVSPost2010Prop49
280
     0
102
RTVSPost2010PropOp49
 70
     1
102
RTVSPost2010Prop50
 90
       50
102
RTVSPost2010PropOp50
 70
     1
102
RTVSPost2010Prop51ColorIndex
 90
      256
102
RTVSPost2010Prop51ColorRGB
 90
-16777216
102
RTVSPost2010PropOp51
 70
     0
102
RTVSPost2010Prop52
140
1.0
102
RTVSPost2010PropOp52
 70
     0
102
RTVSPost2010Prop53
 90
        2
102
RTVSPost2010PropOp53
 70
     1
102
RTVSPost2010Prop54
  1
strokes_ogs.tif
102
RTVSPost2010PropOp54
 70
     1
102
RTVSPost2010Prop55
280
     0
102
RTVSPost2010PropOp55
 70
     1
102
RTVSPost2010Prop56
140
1.0
102
RTVSPost2010PropOp56
 70
     1
102
RTVSPost2010Prop57
140
1.0
102
RTVSPost2010PropOp57
 70
     1
102
RTVSPropertyOp0
 70
     1
102
RTVSPropertyOp1
 70
     1
102
RTVSPropertyOp2
 70
     1
102
RTVSPropertyOp3
 70
     1
102
RTVSPropertyOp4
 70
     1
102
RTVSPropertyOp5
 70
     1
102
RTVSPropertyOp6
 70
     1
102
RTVSPropertyOp7
 70
     1
102
RTVSPropertyOp8
 70
     1
102
RTVSPropertyOp9
 70
     1
102
RTVSPropertyOp10
 70
     1
102
RTVSPropertyOp11
 70
     1
102
RTVSPropertyOp12
 70
     1
102
RTVSPropertyOp13
 70
     1
102
RTVSPropertyOp14
 70
     1
102
RTVSPropertyOp15
 70
     1
102
RTVSPropertyOp16
 70
     1
102
RTVSPropertyOp17
 70
     1
102
RTVSPropertyOp18
 70
     1
102
RTVSPropertyOp19
 70
     1
102
RTVSPropertyOp20
 70
     1
102
RTVSPropertyOp21
 70
     1
102
RTVSPropertyOp22
 70
     1
102
RTVSPropertyOp23
 70
     1
102
RTVSPropertyOp24
 70
     1
102
RTVSPropertyOp25
 70
     1
102
RTVSPropertyOp26
 70
     1
102
RTVSPropertyOp27
 70
     1
102
RTVSPropertyOp28
 70
     1
102
RTVSPropertyOp29
 70
     1
102
RTVSPropertyOp30
 70
     1
102
RTVSPropertyOp31
 70
     1
102
RTVSPropertyOp32
 70
     1
102
RTVSPropertyOp33
 70
     1
102
RTVSPropertyOp34
 70
     1
102
RTVSPropertyOp35
 70
     1
102
RTVSPropertyOp36
 70
     1
102
RTVSPropertyOp37
 70
     1
102
RTVSPropertyOp38
 70
     1
102
RTVSPropertyOp39
 70
     1
102
RTVSPropertyOp40
 70
     1
102
RTVSPropertyOp41
 70
     1
102
RTVSPropertyOp42
 70
     1
102
RTVSPropertyOp43
 70
     1
102
RTVSPropertyOp44
 70
     1
102
RTVSPropertyOp45
 70
     1
102
RTVSPropertyOp46
 70
     1
102
RTVSPropertyOp47
 70
     1
102
RTVSPropertyOp48
 70
     1
102
RTVSPropertyOp49
 70
     1
102
RTVSPropertyOp50
 70
     1
102
RTVSPropertyOp51
 70
     0
102
RTVSPropertyOp52
 70
     0
102
RTVSPropertyOp53
 70
     1
102
RTVSPropertyOp54
 70
     1
102
RTVSPropertyOp55
 70
     1
102
RTVSPropertyOp56
 70
     1
102
RTVSPropertyOp57
 70
     1
102
RTVSPropertyOp58
 70
     1
102
RTVSPropertyOp59
 70
     1
102
RTVSPropertyOp60
 70
     1
102
RTVSPropertyOp61
 70
     1
102
RTVSPropertyOp62
 70
     1
  0
XRECORD
  5
9886
102
{ACAD_REACTORS
330
9885
102
}
330
9885
100
AcDbXrecord
280
     1
102
RTVSPost2010Prop28
280
     0
102
RTVSPost2010PropOp28
 70
     1
102
RTVSPost2010Prop29
280
     1
102
RTVSPost2010PropOp29
 70
     1
102
RTVSPost2010Prop30
280
     1
102
RTVSPost2010PropOp30
 70
     1
102
RTVSPost2010Prop31
280
     0
102
RTVSPost2010PropOp31
 70
     1
102
RTVSPost2010Prop32
280
     0
102
RTVSPost2010PropOp32
 70
     1
102
RTVSPost2010Prop33
280
     0
102
RTVSPost2010PropOp33
 70
     1
102
RTVSPost2010Prop34
280
     0
102
RTVSPost2010PropOp34
 70
     1
102
RTVSPost2010Prop35
280
     0
102
RTVSPost2010PropOp35
 70
     1
102
RTVSPost2010Prop36
280
     0
102
RTVSPost2010PropOp36
 70
     1
102
RTVSPost2010Prop37
 90
       50
102
RTVSPost2010PropOp37
 70
     1
102
RTVSPost2010Prop38
140
0.0
102
RTVSPost2010PropOp38
 70
     1
102
RTVSPost2010Prop39
140
1.0
102
RTVSPost2010PropOp39
 70
     1
102
RTVSPost2010Prop40
 90
        0
102
RTVSPost2010PropOp40
 70
     1
102
RTVSPost2010Prop41ColorIndex
 90
       18
102
RTVSPost2010Prop41ColorRGB
 90
        0
102
RTVSPost2010PropOp41
 70
     1
102
RTVSPost2010Prop42
 90
       50
102
RTVSPost2010PropOp42
 70
     1
102
RTVSPost2010Prop43
 90
        3
102
RTVSPost2010PropOp43
 70
     1
102
RTVSPost2010Prop44ColorIndex
 90
        5
102
RTVSPost2010Prop44ColorRGB
 90
      255
102
RTVSPost2010PropOp44
 70
     1
102
RTVSPost2010Prop45
280
     0
102
RTVSPost2010PropOp45
 70
     1
102
RTVSPost2010Prop46
 90
       50
102
RTVSPost2010PropOp46
 70
     1
102
RTVSPost2010Prop47
 90
       50
102
RTVSPost2010PropOp47
 70
     1
102
RTVSPost2010Prop48
 90
       50
102
RTVSPost2010PropOp48
 70
     1
102
RTVSPost2010Prop49
280
     0
102
RTVSPost2010PropOp49
 70
     1
102
RTVSPost2010Prop50
 90
       50
102
RTVSPost2010PropOp50
 70
     1
102
RTVSPost2010Prop51ColorIndex
 90
      256
102
RTVSPost2010Prop51ColorRGB
 90
-16777216
102
RTVSPost2010PropOp51
 70
     0
102
RTVSPost2010Prop52
140
1.0
102
RTVSPost2010PropOp52
 70
     0
102
RTVSPost2010Prop53
 90
        2
102
RTVSPost2010PropOp53
 70
     1
102
RTVSPost2010Prop54
  1
strokes_ogs.tif
102
RTVSPost2010PropOp54
 70
     1
102
RTVSPost2010Prop55
280
     0
102
RTVSPost2010PropOp55
 70
     1
102
RTVSPost2010Prop56
140
1.0
102
RTVSPost2010PropOp56
 70
     1
102
RTVSPost2010Prop57
140
1.0
102
RTVSPost2010PropOp57
 70
     1
102
RTVSPropertyOp0
 70
     1
102
RTVSPropertyOp1
 70
     1
102
RTVSPropertyOp2
 70
     1
102
RTVSPropertyOp3
 70
     1
102
RTVSPropertyOp4
 70
     1
102
RTVSPropertyOp5
 70
     1
102
RTVSPropertyOp6
 70
     1
102
RTVSPropertyOp7
 70
     1
102
RTVSPropertyOp8
 70
     1
102
RTVSPropertyOp9
 70
     1
102
RTVSPropertyOp10
 70
     1
102
RTVSPropertyOp11
 70
     1
102
RTVSPropertyOp12
 70
     1
102
RTVSPropertyOp13
 70
     1
102
RTVSPropertyOp14
 70
     1
102
RTVSPropertyOp15
 70
     1
102
RTVSPropertyOp16
 70
     1
102
RTVSPropertyOp17
 70
     1
102
RTVSPropertyOp18
 70
     1
102
RTVSPropertyOp19
 70
     1
102
RTVSPropertyOp20
 70
     1
102
RTVSPropertyOp21
 70
     1
102
RTVSPropertyOp22
 70
     1
102
RTVSPropertyOp23
 70
     1
102
RTVSPropertyOp24
 70
     1
102
RTVSPropertyOp25
 70
     1
102
RTVSPropertyOp26
 70
     1
102
RTVSPropertyOp27
 70
     1
102
RTVSPropertyOp28
 70
     1
102
RTVSPropertyOp29
 70
     1
102
RTVSPropertyOp30
 70
     1
102
RTVSPropertyOp31
 70
     1
102
RTVSPropertyOp32
 70
     1
102
RTVSPropertyOp33
 70
     1
102
RTVSPropertyOp34
 70
     1
102
RTVSPropertyOp35
 70
     1
102
RTVSPropertyOp36
 70
     1
102
RTVSPropertyOp37
 70
     1
102
RTVSPropertyOp38
 70
     1
102
RTVSPropertyOp39
 70
     1
102
RTVSPropertyOp40
 70
     1
102
RTVSPropertyOp41
 70
     1
102
RTVSPropertyOp42
 70
     1
102
RTVSPropertyOp43
 70
     1
102
RTVSPropertyOp44
 70
     1
102
RTVSPropertyOp45
 70
     1
102
RTVSPropertyOp46
 70
     1
102
RTVSPropertyOp47
 70
     1
102
RTVSPropertyOp48
 70
     1
102
RTVSPropertyOp49
 70
     1
102
RTVSPropertyOp50
 70
     1
102
RTVSPropertyOp51
 70
     0
102
RTVSPropertyOp52
 70
     0
102
RTVSPropertyOp53
 70
     1
102
RTVSPropertyOp54
 70
     1
102
RTVSPropertyOp55
 70
     1
102
RTVSPropertyOp56
 70
     1
102
RTVSPropertyOp57
 70
     1
102
RTVSPropertyOp58
 70
     1
102
RTVSPropertyOp59
 70
     1
102
RTVSPropertyOp60
 70
     1
102
RTVSPropertyOp61
 70
     1
102
RTVSPropertyOp62
 70
     1
  0
XRECORD
  5
9894
102
{ACAD_REACTORS
330
9893
102
}
330
9893
100
AcDbXrecord
280
     1
102
RTVSPost2010Prop28
280
     0
102
RTVSPost2010PropOp28
 70
     1
102
RTVSPost2010Prop29
280
     1
102
RTVSPost2010PropOp29
 70
     1
102
RTVSPost2010Prop30
280
     1
102
RTVSPost2010PropOp30
 70
     1
102
RTVSPost2010Prop31
280
     0
102
RTVSPost2010PropOp31
 70
     1
102
RTVSPost2010Prop32
280
     0
102
RTVSPost2010PropOp32
 70
     1
102
RTVSPost2010Prop33
280
     0
102
RTVSPost2010PropOp33
 70
     1
102
RTVSPost2010Prop34
280
     0
102
RTVSPost2010PropOp34
 70
     1
102
RTVSPost2010Prop35
280
     0
102
RTVSPost2010PropOp35
 70
     1
102
RTVSPost2010Prop36
280
     0
102
RTVSPost2010PropOp36
 70
     1
102
RTVSPost2010Prop37
 90
       50
102
RTVSPost2010PropOp37
 70
     1
102
RTVSPost2010Prop38
140
0.0
102
RTVSPost2010PropOp38
 70
     1
102
RTVSPost2010Prop39
140
1.0
102
RTVSPost2010PropOp39
 70
     1
102
RTVSPost2010Prop40
 90
        0
102
RTVSPost2010PropOp40
 70
     1
102
RTVSPost2010Prop41ColorIndex
 90
       18
102
RTVSPost2010Prop41ColorRGB
 90
        0
102
RTVSPost2010PropOp41
 70
     1
102
RTVSPost2010Prop42
 90
       50
102
RTVSPost2010PropOp42
 70
     1
102
RTVSPost2010Prop43
 90
        3
102
RTVSPost2010PropOp43
 70
     1
102
RTVSPost2010Prop44ColorIndex
 90
        5
102
RTVSPost2010Prop44ColorRGB
 90
      255
102
RTVSPost2010PropOp44
 70
     1
102
RTVSPost2010Prop45
280
     0
102
RTVSPost2010PropOp45
 70
     1
102
RTVSPost2010Prop46
 90
       50
102
RTVSPost2010PropOp46
 70
     1
102
RTVSPost2010Prop47
 90
       50
102
RTVSPost2010PropOp47
 70
     1
102
RTVSPost2010Prop48
 90
       50
102
RTVSPost2010PropOp48
 70
     1
102
RTVSPost2010Prop49
280
     0
102
RTVSPost2010PropOp49
 70
     1
102
RTVSPost2010Prop50
 90
       50
102
RTVSPost2010PropOp50
 70
     1
102
RTVSPost2010Prop51ColorIndex
 90
      256
102
RTVSPost2010Prop51ColorRGB
 90
-16777216
102
RTVSPost2010PropOp51
 70
     0
102
RTVSPost2010Prop52
140
1.0
102
RTVSPost2010PropOp52
 70
     0
102
RTVSPost2010Prop53
 90
        2
102
RTVSPost2010PropOp53
 70
     1
102
RTVSPost2010Prop54
  1
strokes_ogs.tif
102
RTVSPost2010PropOp54
 70
     1
102
RTVSPost2010Prop55
280
     0
102
RTVSPost2010PropOp55
 70
     1
102
RTVSPost2010Prop56
140
1.0
102
RTVSPost2010PropOp56
 70
     1
102
RTVSPost2010Prop57
140
1.0
102
RTVSPost2010PropOp57
 70
     1
102
RTVSPropertyOp0
 70
     1
102
RTVSPropertyOp1
 70
     1
102
RTVSPropertyOp2
 70
     1
102
RTVSPropertyOp3
 70
     1
102
RTVSPropertyOp4
 70
     1
102
RTVSPropertyOp5
 70
     1
102
RTVSPropertyOp6
 70
     1
102
RTVSPropertyOp7
 70
     1
102
RTVSPropertyOp8
 70
     1
102
RTVSPropertyOp9
 70
     1
102
RTVSPropertyOp10
 70
     1
102
RTVSPropertyOp11
 70
     1
102
RTVSPropertyOp12
 70
     1
102
RTVSPropertyOp13
 70
     1
102
RTVSPropertyOp14
 70
     1
102
RTVSPropertyOp15
 70
     1
102
RTVSPropertyOp16
 70
     1
102
RTVSPropertyOp17
 70
     1
102
RTVSPropertyOp18
 70
     1
102
RTVSPropertyOp19
 70
     1
102
RTVSPropertyOp20
 70
     1
102
RTVSPropertyOp21
 70
     1
102
RTVSPropertyOp22
 70
     1
102
RTVSPropertyOp23
 70
     1
102
RTVSPropertyOp24
 70
     1
102
RTVSPropertyOp25
 70
     1
102
RTVSPropertyOp26
 70
     1
102
RTVSPropertyOp27
 70
     1
102
RTVSPropertyOp28
 70
     1
102
RTVSPropertyOp29
 70
     1
102
RTVSPropertyOp30
 70
     1
102
RTVSPropertyOp31
 70
     1
102
RTVSPropertyOp32
 70
     1
102
RTVSPropertyOp33
 70
     1
102
RTVSPropertyOp34
 70
     1
102
RTVSPropertyOp35
 70
     1
102
RTVSPropertyOp36
 70
     1
102
RTVSPropertyOp37
 70
     1
102
RTVSPropertyOp38
 70
     1
102
RTVSPropertyOp39
 70
     1
102
RTVSPropertyOp40
 70
     1
102
RTVSPropertyOp41
 70
     1
102
RTVSPropertyOp42
 70
     1
102
RTVSPropertyOp43
 70
     1
102
RTVSPropertyOp44
 70
     1
102
RTVSPropertyOp45
 70
     1
102
RTVSPropertyOp46
 70
     1
102
RTVSPropertyOp47
 70
     1
102
RTVSPropertyOp48
 70
     1
102
RTVSPropertyOp49
 70
     1
102
RTVSPropertyOp50
 70
     1
102
RTVSPropertyOp51
 70
     0
102
RTVSPropertyOp52
 70
     0
102
RTVSPropertyOp53
 70
     1
102
RTVSPropertyOp54
 70
     1
102
RTVSPropertyOp55
 70
     1
102
RTVSPropertyOp56
 70
     1
102
RTVSPropertyOp57
 70
     1
102
RTVSPropertyOp58
 70
     1
102
RTVSPropertyOp59
 70
     1
102
RTVSPropertyOp60
 70
     1
102
RTVSPropertyOp61
 70
     1
102
RTVSPropertyOp62
 70
     1
  0
XRECORD
  5
989C
102
{ACAD_REACTORS
330
989B
102
}
330
989B
100
AcDbXrecord
280
     1
102
RTVSPost2010Prop28
280
     0
102
RTVSPost2010PropOp28
 70
     1
102
RTVSPost2010Prop29
280
     1
102
RTVSPost2010PropOp29
 70
     1
102
RTVSPost2010Prop30
280
     1
102
RTVSPost2010PropOp30
 70
     1
102
RTVSPost2010Prop31
280
     0
102
RTVSPost2010PropOp31
 70
     1
102
RTVSPost2010Prop32
280
     0
102
RTVSPost2010PropOp32
 70
     1
102
RTVSPost2010Prop33
280
     0
102
RTVSPost2010PropOp33
 70
     1
102
RTVSPost2010Prop34
280
     0
102
RTVSPost2010PropOp34
 70
     1
102
RTVSPost2010Prop35
280
     0
102
RTVSPost2010PropOp35
 70
     1
102
RTVSPost2010Prop36
280
     0
102
RTVSPost2010PropOp36
 70
     1
102
RTVSPost2010Prop37
 90
       50
102
RTVSPost2010PropOp37
 70
     1
102
RTVSPost2010Prop38
140
0.0
102
RTVSPost2010PropOp38
 70
     1
102
RTVSPost2010Prop39
140
1.0
102
RTVSPost2010PropOp39
 70
     1
102
RTVSPost2010Prop40
 90
        0
102
RTVSPost2010PropOp40
 70
     1
102
RTVSPost2010Prop41ColorIndex
 90
       18
102
RTVSPost2010Prop41ColorRGB
 90
        0
102
RTVSPost2010PropOp41
 70
     1
102
RTVSPost2010Prop42
 90
       50
102
RTVSPost2010PropOp42
 70
     1
102
RTVSPost2010Prop43
 90
        3
102
RTVSPost2010PropOp43
 70
     1
102
RTVSPost2010Prop44ColorIndex
 90
        5
102
RTVSPost2010Prop44ColorRGB
 90
      255
102
RTVSPost2010PropOp44
 70
     1
102
RTVSPost2010Prop45
280
     0
102
RTVSPost2010PropOp45
 70
     1
102
RTVSPost2010Prop46
 90
       50
102
RTVSPost2010PropOp46
 70
     1
102
RTVSPost2010Prop47
 90
       50
102
RTVSPost2010PropOp47
 70
     1
102
RTVSPost2010Prop48
 90
       50
102
RTVSPost2010PropOp48
 70
     1
102
RTVSPost2010Prop49
280
     0
102
RTVSPost2010PropOp49
 70
     1
102
RTVSPost2010Prop50
 90
       50
102
RTVSPost2010PropOp50
 70
     1
102
RTVSPost2010Prop51ColorIndex
 90
      256
102
RTVSPost2010Prop51ColorRGB
 90
-16777216
102
RTVSPost2010PropOp51
 70
     0
102
RTVSPost2010Prop52
140
1.0
102
RTVSPost2010PropOp52
 70
     0
102
RTVSPost2010Prop53
 90
        2
102
RTVSPost2010PropOp53
 70
     1
102
RTVSPost2010Prop54
  1
strokes_ogs.tif
102
RTVSPost2010PropOp54
 70
     1
102
RTVSPost2010Prop55
280
     0
102
RTVSPost2010PropOp55
 70
     1
102
RTVSPost2010Prop56
140
1.0
102
RTVSPost2010PropOp56
 70
     1
102
RTVSPost2010Prop57
140
1.0
102
RTVSPost2010PropOp57
 70
     1
102
RTVSPropertyOp0
 70
     1
102
RTVSPropertyOp1
 70
     1
102
RTVSPropertyOp2
 70
     1
102
RTVSPropertyOp3
 70
     1
102
RTVSPropertyOp4
 70
     1
102
RTVSPropertyOp5
 70
     1
102
RTVSPropertyOp6
 70
     1
102
RTVSPropertyOp7
 70
     1
102
RTVSPropertyOp8
 70
     1
102
RTVSPropertyOp9
 70
     1
102
RTVSPropertyOp10
 70
     1
102
RTVSPropertyOp11
 70
     1
102
RTVSPropertyOp12
 70
     1
102
RTVSPropertyOp13
 70
     1
102
RTVSPropertyOp14
 70
     1
102
RTVSPropertyOp15
 70
     1
102
RTVSPropertyOp16
 70
     1
102
RTVSPropertyOp17
 70
     1
102
RTVSPropertyOp18
 70
     1
102
RTVSPropertyOp19
 70
     1
102
RTVSPropertyOp20
 70
     1
102
RTVSPropertyOp21
 70
     1
102
RTVSPropertyOp22
 70
     1
102
RTVSPropertyOp23
 70
     1
102
RTVSPropertyOp24
 70
     1
102
RTVSPropertyOp25
 70
     1
102
RTVSPropertyOp26
 70
     1
102
RTVSPropertyOp27
 70
     1
102
RTVSPropertyOp28
 70
     1
102
RTVSPropertyOp29
 70
     1
102
RTVSPropertyOp30
 70
     1
102
RTVSPropertyOp31
 70
     1
102
RTVSPropertyOp32
 70
     1
102
RTVSPropertyOp33
 70
     1
102
RTVSPropertyOp34
 70
     1
102
RTVSPropertyOp35
 70
     1
102
RTVSPropertyOp36
 70
     1
102
RTVSPropertyOp37
 70
     1
102
RTVSPropertyOp38
 70
     1
102
RTVSPropertyOp39
 70
     1
102
RTVSPropertyOp40
 70
     1
102
RTVSPropertyOp41
 70
     1
102
RTVSPropertyOp42
 70
     1
102
RTVSPropertyOp43
 70
     1
102
RTVSPropertyOp44
 70
     1
102
RTVSPropertyOp45
 70
     1
102
RTVSPropertyOp46
 70
     1
102
RTVSPropertyOp47
 70
     1
102
RTVSPropertyOp48
 70
     1
102
RTVSPropertyOp49
 70
     1
102
RTVSPropertyOp50
 70
     1
102
RTVSPropertyOp51
 70
     0
102
RTVSPropertyOp52
 70
     0
102
RTVSPropertyOp53
 70
     1
102
RTVSPropertyOp54
 70
     1
102
RTVSPropertyOp55
 70
     1
102
RTVSPropertyOp56
 70
     1
102
RTVSPropertyOp57
 70
     1
102
RTVSPropertyOp58
 70
     1
102
RTVSPropertyOp59
 70
     1
102
RTVSPropertyOp60
 70
     1
102
RTVSPropertyOp61
 70
     1
102
RTVSPropertyOp62
 70
     1
  0
XRECORD
  5
988E
102
{ACAD_REACTORS
330
988D
102
}
330
988D
100
AcDbXrecord
280
     1
102
RTVSPost2010Prop28
280
     0
102
RTVSPost2010PropOp28
 70
     1
102
RTVSPost2010Prop29
280
     1
102
RTVSPost2010PropOp29
 70
     1
102
RTVSPost2010Prop30
280
     1
102
RTVSPost2010PropOp30
 70
     1
102
RTVSPost2010Prop31
280
     0
102
RTVSPost2010PropOp31
 70
     1
102
RTVSPost2010Prop32
280
     0
102
RTVSPost2010PropOp32
 70
     1
102
RTVSPost2010Prop33
280
     0
102
RTVSPost2010PropOp33
 70
     1
102
RTVSPost2010Prop34
280
     0
102
RTVSPost2010PropOp34
 70
     1
102
RTVSPost2010Prop35
280
     0
102
RTVSPost2010PropOp35
 70
     1
102
RTVSPost2010Prop36
280
     0
102
RTVSPost2010PropOp36
 70
     1
102
RTVSPost2010Prop37
 90
       50
102
RTVSPost2010PropOp37
 70
     1
102
RTVSPost2010Prop38
140
0.0
102
RTVSPost2010PropOp38
 70
     1
102
RTVSPost2010Prop39
140
1.0
102
RTVSPost2010PropOp39
 70
     1
102
RTVSPost2010Prop40
 90
        0
102
RTVSPost2010PropOp40
 70
     1
102
RTVSPost2010Prop41ColorIndex
 90
       18
102
RTVSPost2010Prop41ColorRGB
 90
        0
102
RTVSPost2010PropOp41
 70
     1
102
RTVSPost2010Prop42
 90
       50
102
RTVSPost2010PropOp42
 70
     1
102
RTVSPost2010Prop43
 90
        3
102
RTVSPost2010PropOp43
 70
     1
102
RTVSPost2010Prop44ColorIndex
 90
        5
102
RTVSPost2010Prop44ColorRGB
 90
      255
102
RTVSPost2010PropOp44
 70
     1
102
RTVSPost2010Prop45
280
     0
102
RTVSPost2010PropOp45
 70
     1
102
RTVSPost2010Prop46
 90
       50
102
RTVSPost2010PropOp46
 70
     1
102
RTVSPost2010Prop47
 90
       50
102
RTVSPost2010PropOp47
 70
     1
102
RTVSPost2010Prop48
 90
       50
102
RTVSPost2010PropOp48
 70
     1
102
RTVSPost2010Prop49
280
     0
102
RTVSPost2010PropOp49
 70
     1
102
RTVSPost2010Prop50
 90
       50
102
RTVSPost2010PropOp50
 70
     1
102
RTVSPost2010Prop51ColorIndex
 90
      256
102
RTVSPost2010Prop51ColorRGB
 90
-16777216
102
RTVSPost2010PropOp51
 70
     0
102
RTVSPost2010Prop52
140
1.0
102
RTVSPost2010PropOp52
 70
     0
102
RTVSPost2010Prop53
 90
        2
102
RTVSPost2010PropOp53
 70
     1
102
RTVSPost2010Prop54
  1
strokes_ogs.tif
102
RTVSPost2010PropOp54
 70
     1
102
RTVSPost2010Prop55
280
     0
102
RTVSPost2010PropOp55
 70
     1
102
RTVSPost2010Prop56
140
1.0
102
RTVSPost2010PropOp56
 70
     1
102
RTVSPost2010Prop57
140
1.0
102
RTVSPost2010PropOp57
 70
     1
102
RTVSPropertyOp0
 70
     1
102
RTVSPropertyOp1
 70
     1
102
RTVSPropertyOp2
 70
     1
102
RTVSPropertyOp3
 70
     1
102
RTVSPropertyOp4
 70
     1
102
RTVSPropertyOp5
 70
     1
102
RTVSPropertyOp6
 70
     1
102
RTVSPropertyOp7
 70
     1
102
RTVSPropertyOp8
 70
     1
102
RTVSPropertyOp9
 70
     1
102
RTVSPropertyOp10
 70
     1
102
RTVSPropertyOp11
 70
     1
102
RTVSPropertyOp12
 70
     1
102
RTVSPropertyOp13
 70
     1
102
RTVSPropertyOp14
 70
     1
102
RTVSPropertyOp15
 70
     1
102
RTVSPropertyOp16
 70
     1
102
RTVSPropertyOp17
 70
     1
102
RTVSPropertyOp18
 70
     1
102
RTVSPropertyOp19
 70
     1
102
RTVSPropertyOp20
 70
     1
102
RTVSPropertyOp21
 70
     1
102
RTVSPropertyOp22
 70
     1
102
RTVSPropertyOp23
 70
     1
102
RTVSPropertyOp24
 70
     1
102
RTVSPropertyOp25
 70
     1
102
RTVSPropertyOp26
 70
     1
102
RTVSPropertyOp27
 70
     1
102
RTVSPropertyOp28
 70
     1
102
RTVSPropertyOp29
 70
     1
102
RTVSPropertyOp30
 70
     1
102
RTVSPropertyOp31
 70
     1
102
RTVSPropertyOp32
 70
     1
102
RTVSPropertyOp33
 70
     1
102
RTVSPropertyOp34
 70
     1
102
RTVSPropertyOp35
 70
     1
102
RTVSPropertyOp36
 70
     1
102
RTVSPropertyOp37
 70
     1
102
RTVSPropertyOp38
 70
     1
102
RTVSPropertyOp39
 70
     1
102
RTVSPropertyOp40
 70
     1
102
RTVSPropertyOp41
 70
     1
102
RTVSPropertyOp42
 70
     1
102
RTVSPropertyOp43
 70
     1
102
RTVSPropertyOp44
 70
     1
102
RTVSPropertyOp45
 70
     1
102
RTVSPropertyOp46
 70
     1
102
RTVSPropertyOp47
 70
     1
102
RTVSPropertyOp48
 70
     1
102
RTVSPropertyOp49
 70
     1
102
RTVSPropertyOp50
 70
     1
102
RTVSPropertyOp51
 70
     0
102
RTVSPropertyOp52
 70
     0
102
RTVSPropertyOp53
 70
     1
102
RTVSPropertyOp54
 70
     1
102
RTVSPropertyOp55
 70
     1
102
RTVSPropertyOp56
 70
     1
102
RTVSPropertyOp57
 70
     1
102
RTVSPropertyOp58
 70
     1
102
RTVSPropertyOp59
 70
     1
102
RTVSPropertyOp60
 70
     1
102
RTVSPropertyOp61
 70
     1
102
RTVSPropertyOp62
 70
     1
  0
XRECORD
  5
9892
102
{ACAD_REACTORS
330
9891
102
}
330
9891
100
AcDbXrecord
280
     1
102
RTVSPost2010Prop28
280
     0
102
RTVSPost2010PropOp28
 70
     1
102
RTVSPost2010Prop29
280
     1
102
RTVSPost2010PropOp29
 70
     1
102
RTVSPost2010Prop30
280
     1
102
RTVSPost2010PropOp30
 70
     1
102
RTVSPost2010Prop31
280
     0
102
RTVSPost2010PropOp31
 70
     1
102
RTVSPost2010Prop32
280
     0
102
RTVSPost2010PropOp32
 70
     1
102
RTVSPost2010Prop33
280
     0
102
RTVSPost2010PropOp33
 70
     1
102
RTVSPost2010Prop34
280
     0
102
RTVSPost2010PropOp34
 70
     1
102
RTVSPost2010Prop35
280
     0
102
RTVSPost2010PropOp35
 70
     1
102
RTVSPost2010Prop36
280
     0
102
RTVSPost2010PropOp36
 70
     1
102
RTVSPost2010Prop37
 90
       50
102
RTVSPost2010PropOp37
 70
     1
102
RTVSPost2010Prop38
140
0.0
102
RTVSPost2010PropOp38
 70
     1
102
RTVSPost2010Prop39
140
1.0
102
RTVSPost2010PropOp39
 70
     1
102
RTVSPost2010Prop40
 90
        0
102
RTVSPost2010PropOp40
 70
     1
102
RTVSPost2010Prop41ColorIndex
 90
       18
102
RTVSPost2010Prop41ColorRGB
 90
        0
102
RTVSPost2010PropOp41
 70
     1
102
RTVSPost2010Prop42
 90
       50
102
RTVSPost2010PropOp42
 70
     1
102
RTVSPost2010Prop43
 90
        3
102
RTVSPost2010PropOp43
 70
     1
102
RTVSPost2010Prop44ColorIndex
 90
        5
102
RTVSPost2010Prop44ColorRGB
 90
      255
102
RTVSPost2010PropOp44
 70
     1
102
RTVSPost2010Prop45
280
     0
102
RTVSPost2010PropOp45
 70
     1
102
RTVSPost2010Prop46
 90
       50
102
RTVSPost2010PropOp46
 70
     1
102
RTVSPost2010Prop47
 90
       50
102
RTVSPost2010PropOp47
 70
     1
102
RTVSPost2010Prop48
 90
       50
102
RTVSPost2010PropOp48
 70
     1
102
RTVSPost2010Prop49
280
     0
102
RTVSPost2010PropOp49
 70
     1
102
RTVSPost2010Prop50
 90
       50
102
RTVSPost2010PropOp50
 70
     1
102
RTVSPost2010Prop51ColorIndex
 90
      256
102
RTVSPost2010Prop51ColorRGB
 90
-16777216
102
RTVSPost2010PropOp51
 70
     0
102
RTVSPost2010Prop52
140
1.0
102
RTVSPost2010PropOp52
 70
     0
102
RTVSPost2010Prop53
 90
        2
102
RTVSPost2010PropOp53
 70
     1
102
RTVSPost2010Prop54
  1
strokes_ogs.tif
102
RTVSPost2010PropOp54
 70
     1
102
RTVSPost2010Prop55
280
     0
102
RTVSPost2010PropOp55
 70
     1
102
RTVSPost2010Prop56
140
1.0
102
RTVSPost2010PropOp56
 70
     1
102
RTVSPost2010Prop57
140
1.0
102
RTVSPost2010PropOp57
 70
     1
102
RTVSPropertyOp0
 70
     1
102
RTVSPropertyOp1
 70
     1
102
RTVSPropertyOp2
 70
     1
102
RTVSPropertyOp3
 70
     1
102
RTVSPropertyOp4
 70
     1
102
RTVSPropertyOp5
 70
     1
102
RTVSPropertyOp6
 70
     1
102
RTVSPropertyOp7
 70
     1
102
RTVSPropertyOp8
 70
     1
102
RTVSPropertyOp9
 70
     1
102
RTVSPropertyOp10
 70
     1
102
RTVSPropertyOp11
 70
     1
102
RTVSPropertyOp12
 70
     1
102
RTVSPropertyOp13
 70
     1
102
RTVSPropertyOp14
 70
     1
102
RTVSPropertyOp15
 70
     1
102
RTVSPropertyOp16
 70
     1
102
RTVSPropertyOp17
 70
     1
102
RTVSPropertyOp18
 70
     1
102
RTVSPropertyOp19
 70
     1
102
RTVSPropertyOp20
 70
     1
102
RTVSPropertyOp21
 70
     1
102
RTVSPropertyOp22
 70
     1
102
RTVSPropertyOp23
 70
     1
102
RTVSPropertyOp24
 70
     1
102
RTVSPropertyOp25
 70
     1
102
RTVSPropertyOp26
 70
     1
102
RTVSPropertyOp27
 70
     1
102
RTVSPropertyOp28
 70
     1
102
RTVSPropertyOp29
 70
     1
102
RTVSPropertyOp30
 70
     1
102
RTVSPropertyOp31
 70
     1
102
RTVSPropertyOp32
 70
     1
102
RTVSPropertyOp33
 70
     1
102
RTVSPropertyOp34
 70
     1
102
RTVSPropertyOp35
 70
     1
102
RTVSPropertyOp36
 70
     1
102
RTVSPropertyOp37
 70
     1
102
RTVSPropertyOp38
 70
     1
102
RTVSPropertyOp39
 70
     1
102
RTVSPropertyOp40
 70
     1
102
RTVSPropertyOp41
 70
     1
102
RTVSPropertyOp42
 70
     1
102
RTVSPropertyOp43
 70
     1
102
RTVSPropertyOp44
 70
     1
102
RTVSPropertyOp45
 70
     1
102
RTVSPropertyOp46
 70
     1
102
RTVSPropertyOp47
 70
     1
102
RTVSPropertyOp48
 70
     1
102
RTVSPropertyOp49
 70
     1
102
RTVSPropertyOp50
 70
     1
102
RTVSPropertyOp51
 70
     0
102
RTVSPropertyOp52
 70
     0
102
RTVSPropertyOp53
 70
     1
102
RTVSPropertyOp54
 70
     1
102
RTVSPropertyOp55
 70
     1
102
RTVSPropertyOp56
 70
     1
102
RTVSPropertyOp57
 70
     1
102
RTVSPropertyOp58
 70
     1
102
RTVSPropertyOp59
 70
     1
102
RTVSPropertyOp60
 70
     1
102
RTVSPropertyOp61
 70
     1
102
RTVSPropertyOp62
 70
     1
  0
XRECORD
  5
98AC
102
{ACAD_REACTORS
330
98AB
102
}
330
98AB
100
AcDbXrecord
280
     1
102
RTVSPost2010Prop28
280
     0
102
RTVSPost2010PropOp28
 70
     1
102
RTVSPost2010Prop29
280
     1
102
RTVSPost2010PropOp29
 70
     1
102
RTVSPost2010Prop30
280
     1
102
RTVSPost2010PropOp30
 70
     1
102
RTVSPost2010Prop31
280
     0
102
RTVSPost2010PropOp31
 70
     1
102
RTVSPost2010Prop32
280
     0
102
RTVSPost2010PropOp32
 70
     1
102
RTVSPost2010Prop33
280
     0
102
RTVSPost2010PropOp33
 70
     1
102
RTVSPost2010Prop34
280
     0
102
RTVSPost2010PropOp34
 70
     1
102
RTVSPost2010Prop35
280
     0
102
RTVSPost2010PropOp35
 70
     1
102
RTVSPost2010Prop36
280
     0
102
RTVSPost2010PropOp36
 70
     1
102
RTVSPost2010Prop37
 90
       50
102
RTVSPost2010PropOp37
 70
     0
102
RTVSPost2010Prop38
140
0.0
102
RTVSPost2010PropOp38
 70
     0
102
RTVSPost2010Prop39
140
1.0
102
RTVSPost2010PropOp39
 70
     0
102
RTVSPost2010Prop40
 90
        0
102
RTVSPost2010PropOp40
 70
     0
102
RTVSPost2010Prop41ColorIndex
 90
       18
102
RTVSPost2010Prop41ColorRGB
 90
        0
102
RTVSPost2010PropOp41
 70
     0
102
RTVSPost2010Prop42
 90
       50
102
RTVSPost2010PropOp42
 70
     0
102
RTVSPost2010Prop43
 90
        3
102
RTVSPost2010PropOp43
 70
     0
102
RTVSPost2010Prop44ColorIndex
 90
        5
102
RTVSPost2010Prop44ColorRGB
 90
      255
102
RTVSPost2010PropOp44
 70
     0
102
RTVSPost2010Prop45
280
     0
102
RTVSPost2010PropOp45
 70
     1
102
RTVSPost2010Prop46
 90
       50
102
RTVSPost2010PropOp46
 70
     0
102
RTVSPost2010Prop47
 90
       50
102
RTVSPost2010PropOp47
 70
     0
102
RTVSPost2010Prop48
 90
       50
102
RTVSPost2010PropOp48
 70
     0
102
RTVSPost2010Prop49
280
     0
102
RTVSPost2010PropOp49
 70
     1
102
RTVSPost2010Prop50
 90
       50
102
RTVSPost2010PropOp50
 70
     0
102
RTVSPost2010Prop51ColorIndex
 90
      256
102
RTVSPost2010Prop51ColorRGB
 90
-16777216
102
RTVSPost2010PropOp51
 70
     0
102
RTVSPost2010Prop52
140
1.0
102
RTVSPost2010PropOp52
 70
     0
102
RTVSPost2010Prop53
 90
        2
102
RTVSPost2010PropOp53
 70
     0
102
RTVSPost2010Prop54
  1
strokes_ogs.tif
102
RTVSPost2010PropOp54
 70
     0
102
RTVSPost2010Prop55
280
     0
102
RTVSPost2010PropOp55
 70
     1
102
RTVSPost2010Prop56
140
1.0
102
RTVSPost2010PropOp56
 70
     0
102
RTVSPost2010Prop57
140
1.0
102
RTVSPost2010PropOp57
 70
     0
102
RTVSPropertyOp0
 70
     0
102
RTVSPropertyOp1
 70
     0
102
RTVSPropertyOp2
 70
     0
102
RTVSPropertyOp3
 70
     0
102
RTVSPropertyOp4
 70
     0
102
RTVSPropertyOp5
 70
     0
102
RTVSPropertyOp6
 70
     0
102
RTVSPropertyOp7
 70
     0
102
RTVSPropertyOp8
 70
     0
102
RTVSPropertyOp9
 70
     0
102
RTVSPropertyOp10
 70
     0
102
RTVSPropertyOp11
 70
     0
102
RTVSPropertyOp12
 70
     0
102
RTVSPropertyOp13
 70
     0
102
RTVSPropertyOp14
 70
     2
102
RTVSPropertyOp15
 70
     0
102
RTVSPropertyOp16
 70
     0
102
RTVSPropertyOp17
 70
     0
102
RTVSPropertyOp18
 70
     0
102
RTVSPropertyOp19
 70
     0
102
RTVSPropertyOp20
 70
     0
102
RTVSPropertyOp21
 70
     0
102
RTVSPropertyOp22
 70
     0
102
RTVSPropertyOp23
 70
     0
102
RTVSPropertyOp24
 70
     0
102
RTVSPropertyOp25
 70
     0
102
RTVSPropertyOp26
 70
     0
102
RTVSPropertyOp27
 70
     0
102
RTVSPropertyOp28
 70
     1
102
RTVSPropertyOp29
 70
     1
102
RTVSPropertyOp30
 70
     1
102
RTVSPropertyOp31
 70
     1
102
RTVSPropertyOp32
 70
     1
102
RTVSPropertyOp33
 70
     1
102
RTVSPropertyOp34
 70
     1
102
RTVSPropertyOp35
 70
     1
102
RTVSPropertyOp36
 70
     1
102
RTVSPropertyOp37
 70
     0
102
RTVSPropertyOp38
 70
     0
102
RTVSPropertyOp39
 70
     0
102
RTVSPropertyOp40
 70
     0
102
RTVSPropertyOp41
 70
     0
102
RTVSPropertyOp42
 70
     0
102
RTVSPropertyOp43
 70
     0
102
RTVSPropertyOp44
 70
     0
102
RTVSPropertyOp45
 70
     1
102
RTVSPropertyOp46
 70
     0
102
RTVSPropertyOp47
 70
     0
102
RTVSPropertyOp48
 70
     0
102
RTVSPropertyOp49
 70
     1
102
RTVSPropertyOp50
 70
     0
102
RTVSPropertyOp51
 70
     0
102
RTVSPropertyOp52
 70
     0
102
RTVSPropertyOp53
 70
     0
102
RTVSPropertyOp54
 70
     0
102
RTVSPropertyOp55
 70
     1
102
RTVSPropertyOp56
 70
     0
102
RTVSPropertyOp57
 70
     0
102
RTVSPropertyOp58
 70
     0
102
RTVSPropertyOp59
 70
     0
102
RTVSPropertyOp60
 70
     0
102
RTVSPropertyOp61
 70
     0
102
RTVSPropertyOp62
 70
     0
  0
XRECORD
  5
989A
102
{ACAD_REACTORS
330
9899
102
}
330
9899
100
AcDbXrecord
280
     1
102
RTVSPost2010Prop28
280
     0
102
RTVSPost2010PropOp28
 70
     1
102
RTVSPost2010Prop29
280
     1
102
RTVSPost2010PropOp29
 70
     1
102
RTVSPost2010Prop30
280
     1
102
RTVSPost2010PropOp30
 70
     1
102
RTVSPost2010Prop31
280
     0
102
RTVSPost2010PropOp31
 70
     1
102
RTVSPost2010Prop32
280
     0
102
RTVSPost2010PropOp32
 70
     1
102
RTVSPost2010Prop33
280
     0
102
RTVSPost2010PropOp33
 70
     1
102
RTVSPost2010Prop34
280
     0
102
RTVSPost2010PropOp34
 70
     1
102
RTVSPost2010Prop35
280
     0
102
RTVSPost2010PropOp35
 70
     1
102
RTVSPost2010Prop36
280
     0
102
RTVSPost2010PropOp36
 70
     1
102
RTVSPost2010Prop37
 90
       50
102
RTVSPost2010PropOp37
 70
     1
102
RTVSPost2010Prop38
140
0.0
102
RTVSPost2010PropOp38
 70
     1
102
RTVSPost2010Prop39
140
1.0
102
RTVSPost2010PropOp39
 70
     1
102
RTVSPost2010Prop40
 90
        0
102
RTVSPost2010PropOp40
 70
     1
102
RTVSPost2010Prop41ColorIndex
 90
       18
102
RTVSPost2010Prop41ColorRGB
 90
        0
102
RTVSPost2010PropOp41
 70
     1
102
RTVSPost2010Prop42
 90
       50
102
RTVSPost2010PropOp42
 70
     1
102
RTVSPost2010Prop43
 90
        3
102
RTVSPost2010PropOp43
 70
     1
102
RTVSPost2010Prop44ColorIndex
 90
        5
102
RTVSPost2010Prop44ColorRGB
 90
      255
102
RTVSPost2010PropOp44
 70
     1
102
RTVSPost2010Prop45
280
     0
102
RTVSPost2010PropOp45
 70
     1
102
RTVSPost2010Prop46
 90
       50
102
RTVSPost2010PropOp46
 70
     1
102
RTVSPost2010Prop47
 90
       50
102
RTVSPost2010PropOp47
 70
     1
102
RTVSPost2010Prop48
 90
       50
102
RTVSPost2010PropOp48
 70
     1
102
RTVSPost2010Prop49
280
     0
102
RTVSPost2010PropOp49
 70
     1
102
RTVSPost2010Prop50
 90
       50
102
RTVSPost2010PropOp50
 70
     1
102
RTVSPost2010Prop51ColorIndex
 90
      256
102
RTVSPost2010Prop51ColorRGB
 90
-16777216
102
RTVSPost2010PropOp51
 70
     0
102
RTVSPost2010Prop52
140
1.0
102
RTVSPost2010PropOp52
 70
     0
102
RTVSPost2010Prop53
 90
        2
102
RTVSPost2010PropOp53
 70
     1
102
RTVSPost2010Prop54
  1
strokes_ogs.tif
102
RTVSPost2010PropOp54
 70
     1
102
RTVSPost2010Prop55
280
     0
102
RTVSPost2010PropOp55
 70
     1
102
RTVSPost2010Prop56
140
1.0
102
RTVSPost2010PropOp56
 70
     1
102
RTVSPost2010Prop57
140
1.0
102
RTVSPost2010PropOp57
 70
     1
102
RTVSPropertyOp0
 70
     1
102
RTVSPropertyOp1
 70
     1
102
RTVSPropertyOp2
 70
     1
102
RTVSPropertyOp3
 70
     1
102
RTVSPropertyOp4
 70
     1
102
RTVSPropertyOp5
 70
     1
102
RTVSPropertyOp6
 70
     1
102
RTVSPropertyOp7
 70
     1
102
RTVSPropertyOp8
 70
     1
102
RTVSPropertyOp9
 70
     1
102
RTVSPropertyOp10
 70
     1
102
RTVSPropertyOp11
 70
     1
102
RTVSPropertyOp12
 70
     1
102
RTVSPropertyOp13
 70
     1
102
RTVSPropertyOp14
 70
     1
102
RTVSPropertyOp15
 70
     1
102
RTVSPropertyOp16
 70
     1
102
RTVSPropertyOp17
 70
     1
102
RTVSPropertyOp18
 70
     1
102
RTVSPropertyOp19
 70
     1
102
RTVSPropertyOp20
 70
     1
102
RTVSPropertyOp21
 70
     1
102
RTVSPropertyOp22
 70
     1
102
RTVSPropertyOp23
 70
     1
102
RTVSPropertyOp24
 70
     1
102
RTVSPropertyOp25
 70
     1
102
RTVSPropertyOp26
 70
     1
102
RTVSPropertyOp27
 70
     1
102
RTVSPropertyOp28
 70
     1
102
RTVSPropertyOp29
 70
     1
102
RTVSPropertyOp30
 70
     1
102
RTVSPropertyOp31
 70
     1
102
RTVSPropertyOp32
 70
     1
102
RTVSPropertyOp33
 70
     1
102
RTVSPropertyOp34
 70
     1
102
RTVSPropertyOp35
 70
     1
102
RTVSPropertyOp36
 70
     1
102
RTVSPropertyOp37
 70
     1
102
RTVSPropertyOp38
 70
     1
102
RTVSPropertyOp39
 70
     1
102
RTVSPropertyOp40
 70
     1
102
RTVSPropertyOp41
 70
     1
102
RTVSPropertyOp42
 70
     1
102
RTVSPropertyOp43
 70
     1
102
RTVSPropertyOp44
 70
     1
102
RTVSPropertyOp45
 70
     1
102
RTVSPropertyOp46
 70
     1
102
RTVSPropertyOp47
 70
     1
102
RTVSPropertyOp48
 70
     1
102
RTVSPropertyOp49
 70
     1
102
RTVSPropertyOp50
 70
     1
102
RTVSPropertyOp51
 70
     0
102
RTVSPropertyOp52
 70
     0
102
RTVSPropertyOp53
 70
     1
102
RTVSPropertyOp54
 70
     1
102
RTVSPropertyOp55
 70
     1
102
RTVSPropertyOp56
 70
     1
102
RTVSPropertyOp57
 70
     1
102
RTVSPropertyOp58
 70
     1
102
RTVSPropertyOp59
 70
     1
102
RTVSPropertyOp60
 70
     1
102
RTVSPropertyOp61
 70
     1
102
RTVSPropertyOp62
 70
     1
  0
XRECORD
  5
987E
102
{ACAD_REACTORS
330
987D
102
}
330
987D
100
AcDbXrecord
280
     1
102
RTVSPost2010Prop28
280
     0
102
RTVSPost2010PropOp28
 70
     1
102
RTVSPost2010Prop29
280
     1
102
RTVSPost2010PropOp29
 70
     1
102
RTVSPost2010Prop30
280
     1
102
RTVSPost2010PropOp30
 70
     1
102
RTVSPost2010Prop31
280
     0
102
RTVSPost2010PropOp31
 70
     1
102
RTVSPost2010Prop32
280
     0
102
RTVSPost2010PropOp32
 70
     1
102
RTVSPost2010Prop33
280
     0
102
RTVSPost2010PropOp33
 70
     1
102
RTVSPost2010Prop34
280
     0
102
RTVSPost2010PropOp34
 70
     1
102
RTVSPost2010Prop35
280
     0
102
RTVSPost2010PropOp35
 70
     1
102
RTVSPost2010Prop36
280
     0
102
RTVSPost2010PropOp36
 70
     1
102
RTVSPost2010Prop37
 90
       50
102
RTVSPost2010PropOp37
 70
     1
102
RTVSPost2010Prop38
140
0.0
102
RTVSPost2010PropOp38
 70
     1
102
RTVSPost2010Prop39
140
1.0
102
RTVSPost2010PropOp39
 70
     1
102
RTVSPost2010Prop40
 90
        0
102
RTVSPost2010PropOp40
 70
     1
102
RTVSPost2010Prop41ColorIndex
 90
       18
102
RTVSPost2010Prop41ColorRGB
 90
        0
102
RTVSPost2010PropOp41
 70
     1
102
RTVSPost2010Prop42
 90
       50
102
RTVSPost2010PropOp42
 70
     1
102
RTVSPost2010Prop43
 90
        3
102
RTVSPost2010PropOp43
 70
     1
102
RTVSPost2010Prop44ColorIndex
 90
        5
102
RTVSPost2010Prop44ColorRGB
 90
      255
102
RTVSPost2010PropOp44
 70
     1
102
RTVSPost2010Prop45
280
     0
102
RTVSPost2010PropOp45
 70
     1
102
RTVSPost2010Prop46
 90
       50
102
RTVSPost2010PropOp46
 70
     1
102
RTVSPost2010Prop47
 90
       50
102
RTVSPost2010PropOp47
 70
     1
102
RTVSPost2010Prop48
 90
       50
102
RTVSPost2010PropOp48
 70
     1
102
RTVSPost2010Prop49
280
     0
102
RTVSPost2010PropOp49
 70
     1
102
RTVSPost2010Prop50
 90
       50
102
RTVSPost2010PropOp50
 70
     1
102
RTVSPost2010Prop51ColorIndex
 90
      256
102
RTVSPost2010Prop51ColorRGB
 90
-16777216
102
RTVSPost2010PropOp51
 70
     0
102
RTVSPost2010Prop52
140
1.0
102
RTVSPost2010PropOp52
 70
     0
102
RTVSPost2010Prop53
 90
        2
102
RTVSPost2010PropOp53
 70
     1
102
RTVSPost2010Prop54
  1
strokes_ogs.tif
102
RTVSPost2010PropOp54
 70
     1
102
RTVSPost2010Prop55
280
     0
102
RTVSPost2010PropOp55
 70
     1
102
RTVSPost2010Prop56
140
1.0
102
RTVSPost2010PropOp56
 70
     1
102
RTVSPost2010Prop57
140
1.0
102
RTVSPost2010PropOp57
 70
     1
102
RTVSPropertyOp0
 70
     1
102
RTVSPropertyOp1
 70
     1
102
RTVSPropertyOp2
 70
     1
102
RTVSPropertyOp3
 70
     1
102
RTVSPropertyOp4
 70
     1
102
RTVSPropertyOp5
 70
     1
102
RTVSPropertyOp6
 70
     1
102
RTVSPropertyOp7
 70
     1
102
RTVSPropertyOp8
 70
     1
102
RTVSPropertyOp9
 70
     1
102
RTVSPropertyOp10
 70
     1
102
RTVSPropertyOp11
 70
     1
102
RTVSPropertyOp12
 70
     1
102
RTVSPropertyOp13
 70
     1
102
RTVSPropertyOp14
 70
     1
102
RTVSPropertyOp15
 70
     1
102
RTVSPropertyOp16
 70
     1
102
RTVSPropertyOp17
 70
     1
102
RTVSPropertyOp18
 70
     1
102
RTVSPropertyOp19
 70
     1
102
RTVSPropertyOp20
 70
     1
102
RTVSPropertyOp21
 70
     1
102
RTVSPropertyOp22
 70
     1
102
RTVSPropertyOp23
 70
     1
102
RTVSPropertyOp24
 70
     1
102
RTVSPropertyOp25
 70
     1
102
RTVSPropertyOp26
 70
     1
102
RTVSPropertyOp27
 70
     1
102
RTVSPropertyOp28
 70
     1
102
RTVSPropertyOp29
 70
     1
102
RTVSPropertyOp30
 70
     1
102
RTVSPropertyOp31
 70
     1
102
RTVSPropertyOp32
 70
     1
102
RTVSPropertyOp33
 70
     1
102
RTVSPropertyOp34
 70
     1
102
RTVSPropertyOp35
 70
     1
102
RTVSPropertyOp36
 70
     1
102
RTVSPropertyOp37
 70
     1
102
RTVSPropertyOp38
 70
     1
102
RTVSPropertyOp39
 70
     1
102
RTVSPropertyOp40
 70
     1
102
RTVSPropertyOp41
 70
     1
102
RTVSPropertyOp42
 70
     1
102
RTVSPropertyOp43
 70
     1
102
RTVSPropertyOp44
 70
     1
102
RTVSPropertyOp45
 70
     1
102
RTVSPropertyOp46
 70
     1
102
RTVSPropertyOp47
 70
     1
102
RTVSPropertyOp48
 70
     1
102
RTVSPropertyOp49
 70
     1
102
RTVSPropertyOp50
 70
     1
102
RTVSPropertyOp51
 70
     0
102
RTVSPropertyOp52
 70
     0
102
RTVSPropertyOp53
 70
     1
102
RTVSPropertyOp54
 70
     1
102
RTVSPropertyOp55
 70
     1
102
RTVSPropertyOp56
 70
     1
102
RTVSPropertyOp57
 70
     1
102
RTVSPropertyOp58
 70
     1
102
RTVSPropertyOp59
 70
     1
102
RTVSPropertyOp60
 70
     1
102
RTVSPropertyOp61
 70
     1
102
RTVSPropertyOp62
 70
     1
  0
XRECORD
  5
9880
102
{ACAD_REACTORS
330
987F
102
}
330
987F
100
AcDbXrecord
280
     1
102
RTVSPost2010Prop28
280
     0
102
RTVSPost2010PropOp28
 70
     1
102
RTVSPost2010Prop29
280
     1
102
RTVSPost2010PropOp29
 70
     1
102
RTVSPost2010Prop30
280
     1
102
RTVSPost2010PropOp30
 70
     1
102
RTVSPost2010Prop31
280
     0
102
RTVSPost2010PropOp31
 70
     1
102
RTVSPost2010Prop32
280
     0
102
RTVSPost2010PropOp32
 70
     1
102
RTVSPost2010Prop33
280
     0
102
RTVSPost2010PropOp33
 70
     1
102
RTVSPost2010Prop34
280
     0
102
RTVSPost2010PropOp34
 70
     1
102
RTVSPost2010Prop35
280
     0
102
RTVSPost2010PropOp35
 70
     1
102
RTVSPost2010Prop36
280
     0
102
RTVSPost2010PropOp36
 70
     1
102
RTVSPost2010Prop37
 90
       50
102
RTVSPost2010PropOp37
 70
     1
102
RTVSPost2010Prop38
140
0.0
102
RTVSPost2010PropOp38
 70
     1
102
RTVSPost2010Prop39
140
1.0
102
RTVSPost2010PropOp39
 70
     1
102
RTVSPost2010Prop40
 90
        0
102
RTVSPost2010PropOp40
 70
     1
102
RTVSPost2010Prop41ColorIndex
 90
       18
102
RTVSPost2010Prop41ColorRGB
 90
        0
102
RTVSPost2010PropOp41
 70
     1
102
RTVSPost2010Prop42
 90
       50
102
RTVSPost2010PropOp42
 70
     1
102
RTVSPost2010Prop43
 90
        3
102
RTVSPost2010PropOp43
 70
     1
102
RTVSPost2010Prop44ColorIndex
 90
        5
102
RTVSPost2010Prop44ColorRGB
 90
      255
102
RTVSPost2010PropOp44
 70
     1
102
RTVSPost2010Prop45
280
     0
102
RTVSPost2010PropOp45
 70
     1
102
RTVSPost2010Prop46
 90
       50
102
RTVSPost2010PropOp46
 70
     1
102
RTVSPost2010Prop47
 90
       50
102
RTVSPost2010PropOp47
 70
     1
102
RTVSPost2010Prop48
 90
       50
102
RTVSPost2010PropOp48
 70
     1
102
RTVSPost2010Prop49
280
     0
102
RTVSPost2010PropOp49
 70
     1
102
RTVSPost2010Prop50
 90
       50
102
RTVSPost2010PropOp50
 70
     1
102
RTVSPost2010Prop51ColorIndex
 90
      256
102
RTVSPost2010Prop51ColorRGB
 90
-16777216
102
RTVSPost2010PropOp51
 70
     0
102
RTVSPost2010Prop52
140
1.0
102
RTVSPost2010PropOp52
 70
     0
102
RTVSPost2010Prop53
 90
        2
102
RTVSPost2010PropOp53
 70
     1
102
RTVSPost2010Prop54
  1
strokes_ogs.tif
102
RTVSPost2010PropOp54
 70
     1
102
RTVSPost2010Prop55
280
     0
102
RTVSPost2010PropOp55
 70
     1
102
RTVSPost2010Prop56
140
1.0
102
RTVSPost2010PropOp56
 70
     1
102
RTVSPost2010Prop57
140
1.0
102
RTVSPost2010PropOp57
 70
     1
102
RTVSPropertyOp0
 70
     1
102
RTVSPropertyOp1
 70
     1
102
RTVSPropertyOp2
 70
     1
102
RTVSPropertyOp3
 70
     1
102
RTVSPropertyOp4
 70
     1
102
RTVSPropertyOp5
 70
     1
102
RTVSPropertyOp6
 70
     1
102
RTVSPropertyOp7
 70
     1
102
RTVSPropertyOp8
 70
     1
102
RTVSPropertyOp9
 70
     1
102
RTVSPropertyOp10
 70
     1
102
RTVSPropertyOp11
 70
     1
102
RTVSPropertyOp12
 70
     1
102
RTVSPropertyOp13
 70
     1
102
RTVSPropertyOp14
 70
     1
102
RTVSPropertyOp15
 70
     1
102
RTVSPropertyOp16
 70
     1
102
RTVSPropertyOp17
 70
     1
102
RTVSPropertyOp18
 70
     1
102
RTVSPropertyOp19
 70
     1
102
RTVSPropertyOp20
 70
     1
102
RTVSPropertyOp21
 70
     1
102
RTVSPropertyOp22
 70
     1
102
RTVSPropertyOp23
 70
     1
102
RTVSPropertyOp24
 70
     1
102
RTVSPropertyOp25
 70
     1
102
RTVSPropertyOp26
 70
     1
102
RTVSPropertyOp27
 70
     1
102
RTVSPropertyOp28
 70
     1
102
RTVSPropertyOp29
 70
     1
102
RTVSPropertyOp30
 70
     1
102
RTVSPropertyOp31
 70
     1
102
RTVSPropertyOp32
 70
     1
102
RTVSPropertyOp33
 70
     1
102
RTVSPropertyOp34
 70
     1
102
RTVSPropertyOp35
 70
     1
102
RTVSPropertyOp36
 70
     1
102
RTVSPropertyOp37
 70
     1
102
RTVSPropertyOp38
 70
     1
102
RTVSPropertyOp39
 70
     1
102
RTVSPropertyOp40
 70
     1
102
RTVSPropertyOp41
 70
     1
102
RTVSPropertyOp42
 70
     1
102
RTVSPropertyOp43
 70
     1
102
RTVSPropertyOp44
 70
     1
102
RTVSPropertyOp45
 70
     1
102
RTVSPropertyOp46
 70
     1
102
RTVSPropertyOp47
 70
     1
102
RTVSPropertyOp48
 70
     1
102
RTVSPropertyOp49
 70
     1
102
RTVSPropertyOp50
 70
     1
102
RTVSPropertyOp51
 70
     0
102
RTVSPropertyOp52
 70
     0
102
RTVSPropertyOp53
 70
     1
102
RTVSPropertyOp54
 70
     1
102
RTVSPropertyOp55
 70
     1
102
RTVSPropertyOp56
 70
     1
102
RTVSPropertyOp57
 70
     1
102
RTVSPropertyOp58
 70
     1
102
RTVSPropertyOp59
 70
     1
102
RTVSPropertyOp60
 70
     1
102
RTVSPropertyOp61
 70
     1
102
RTVSPropertyOp62
 70
     1
  0
XRECORD
  5
9882
102
{ACAD_REACTORS
330
9881
102
}
330
9881
100
AcDbXrecord
280
     1
102
RTVSPost2010Prop28
280
     0
102
RTVSPost2010PropOp28
 70
     1
102
RTVSPost2010Prop29
280
     1
102
RTVSPost2010PropOp29
 70
     1
102
RTVSPost2010Prop30
280
     1
102
RTVSPost2010PropOp30
 70
     1
102
RTVSPost2010Prop31
280
     0
102
RTVSPost2010PropOp31
 70
     1
102
RTVSPost2010Prop32
280
     0
102
RTVSPost2010PropOp32
 70
     1
102
RTVSPost2010Prop33
280
     0
102
RTVSPost2010PropOp33
 70
     1
102
RTVSPost2010Prop34
280
     0
102
RTVSPost2010PropOp34
 70
     1
102
RTVSPost2010Prop35
280
     0
102
RTVSPost2010PropOp35
 70
     1
102
RTVSPost2010Prop36
280
     0
102
RTVSPost2010PropOp36
 70
     1
102
RTVSPost2010Prop37
 90
       50
102
RTVSPost2010PropOp37
 70
     1
102
RTVSPost2010Prop38
140
0.0
102
RTVSPost2010PropOp38
 70
     1
102
RTVSPost2010Prop39
140
1.0
102
RTVSPost2010PropOp39
 70
     1
102
RTVSPost2010Prop40
 90
        0
102
RTVSPost2010PropOp40
 70
     1
102
RTVSPost2010Prop41ColorIndex
 90
       18
102
RTVSPost2010Prop41ColorRGB
 90
        0
102
RTVSPost2010PropOp41
 70
     1
102
RTVSPost2010Prop42
 90
       50
102
RTVSPost2010PropOp42
 70
     1
102
RTVSPost2010Prop43
 90
        3
102
RTVSPost2010PropOp43
 70
     1
102
RTVSPost2010Prop44ColorIndex
 90
        5
102
RTVSPost2010Prop44ColorRGB
 90
      255
102
RTVSPost2010PropOp44
 70
     1
102
RTVSPost2010Prop45
280
     0
102
RTVSPost2010PropOp45
 70
     1
102
RTVSPost2010Prop46
 90
       50
102
RTVSPost2010PropOp46
 70
     1
102
RTVSPost2010Prop47
 90
       50
102
RTVSPost2010PropOp47
 70
     1
102
RTVSPost2010Prop48
 90
       50
102
RTVSPost2010PropOp48
 70
     1
102
RTVSPost2010Prop49
280
     0
102
RTVSPost2010PropOp49
 70
     1
102
RTVSPost2010Prop50
 90
       50
102
RTVSPost2010PropOp50
 70
     1
102
RTVSPost2010Prop51ColorIndex
 90
      256
102
RTVSPost2010Prop51ColorRGB
 90
-16777216
102
RTVSPost2010PropOp51
 70
     0
102
RTVSPost2010Prop52
140
1.0
102
RTVSPost2010PropOp52
 70
     0
102
RTVSPost2010Prop53
 90
        2
102
RTVSPost2010PropOp53
 70
     1
102
RTVSPost2010Prop54
  1
strokes_ogs.tif
102
RTVSPost2010PropOp54
 70
     1
102
RTVSPost2010Prop55
280
     0
102
RTVSPost2010PropOp55
 70
     1
102
RTVSPost2010Prop56
140
1.0
102
RTVSPost2010PropOp56
 70
     1
102
RTVSPost2010Prop57
140
1.0
102
RTVSPost2010PropOp57
 70
     1
102
RTVSPropertyOp0
 70
     1
102
RTVSPropertyOp1
 70
     1
102
RTVSPropertyOp2
 70
     1
102
RTVSPropertyOp3
 70
     1
102
RTVSPropertyOp4
 70
     1
102
RTVSPropertyOp5
 70
     1
102
RTVSPropertyOp6
 70
     1
102
RTVSPropertyOp7
 70
     1
102
RTVSPropertyOp8
 70
     1
102
RTVSPropertyOp9
 70
     1
102
RTVSPropertyOp10
 70
     1
102
RTVSPropertyOp11
 70
     1
102
RTVSPropertyOp12
 70
     1
102
RTVSPropertyOp13
 70
     1
102
RTVSPropertyOp14
 70
     1
102
RTVSPropertyOp15
 70
     1
102
RTVSPropertyOp16
 70
     1
102
RTVSPropertyOp17
 70
     1
102
RTVSPropertyOp18
 70
     1
102
RTVSPropertyOp19
 70
     1
102
RTVSPropertyOp20
 70
     1
102
RTVSPropertyOp21
 70
     1
102
RTVSPropertyOp22
 70
     1
102
RTVSPropertyOp23
 70
     1
102
RTVSPropertyOp24
 70
     1
102
RTVSPropertyOp25
 70
     1
102
RTVSPropertyOp26
 70
     1
102
RTVSPropertyOp27
 70
     1
102
RTVSPropertyOp28
 70
     1
102
RTVSPropertyOp29
 70
     1
102
RTVSPropertyOp30
 70
     1
102
RTVSPropertyOp31
 70
     1
102
RTVSPropertyOp32
 70
     1
102
RTVSPropertyOp33
 70
     1
102
RTVSPropertyOp34
 70
     1
102
RTVSPropertyOp35
 70
     1
102
RTVSPropertyOp36
 70
     1
102
RTVSPropertyOp37
 70
     1
102
RTVSPropertyOp38
 70
     1
102
RTVSPropertyOp39
 70
     1
102
RTVSPropertyOp40
 70
     1
102
RTVSPropertyOp41
 70
     1
102
RTVSPropertyOp42
 70
     1
102
RTVSPropertyOp43
 70
     1
102
RTVSPropertyOp44
 70
     1
102
RTVSPropertyOp45
 70
     1
102
RTVSPropertyOp46
 70
     1
102
RTVSPropertyOp47
 70
     1
102
RTVSPropertyOp48
 70
     1
102
RTVSPropertyOp49
 70
     1
102
RTVSPropertyOp50
 70
     1
102
RTVSPropertyOp51
 70
     0
102
RTVSPropertyOp52
 70
     0
102
RTVSPropertyOp53
 70
     1
102
RTVSPropertyOp54
 70
     1
102
RTVSPropertyOp55
 70
     1
102
RTVSPropertyOp56
 70
     1
102
RTVSPropertyOp57
 70
     1
102
RTVSPropertyOp58
 70
     1
102
RTVSPropertyOp59
 70
     1
102
RTVSPropertyOp60
 70
     1
102
RTVSPropertyOp61
 70
     1
102
RTVSPropertyOp62
 70
     1
  0
XRECORD
  5
9884
102
{ACAD_REACTORS
330
9883
102
}
330
9883
100
AcDbXrecord
280
     1
102
RTVSPost2010Prop28
280
     0
102
RTVSPost2010PropOp28
 70
     1
102
RTVSPost2010Prop29
280
     1
102
RTVSPost2010PropOp29
 70
     1
102
RTVSPost2010Prop30
280
     1
102
RTVSPost2010PropOp30
 70
     1
102
RTVSPost2010Prop31
280
     0
102
RTVSPost2010PropOp31
 70
     1
102
RTVSPost2010Prop32
280
     0
102
RTVSPost2010PropOp32
 70
     1
102
RTVSPost2010Prop33
280
     0
102
RTVSPost2010PropOp33
 70
     1
102
RTVSPost2010Prop34
280
     0
102
RTVSPost2010PropOp34
 70
     1
102
RTVSPost2010Prop35
280
     0
102
RTVSPost2010PropOp35
 70
     1
102
RTVSPost2010Prop36
280
     0
102
RTVSPost2010PropOp36
 70
     1
102
RTVSPost2010Prop37
 90
       50
102
RTVSPost2010PropOp37
 70
     1
102
RTVSPost2010Prop38
140
0.0
102
RTVSPost2010PropOp38
 70
     1
102
RTVSPost2010Prop39
140
1.0
102
RTVSPost2010PropOp39
 70
     1
102
RTVSPost2010Prop40
 90
        0
102
RTVSPost2010PropOp40
 70
     1
102
RTVSPost2010Prop41ColorIndex
 90
       18
102
RTVSPost2010Prop41ColorRGB
 90
        0
102
RTVSPost2010PropOp41
 70
     1
102
RTVSPost2010Prop42
 90
       50
102
RTVSPost2010PropOp42
 70
     1
102
RTVSPost2010Prop43
 90
        3
102
RTVSPost2010PropOp43
 70
     1
102
RTVSPost2010Prop44ColorIndex
 90
        5
102
RTVSPost2010Prop44ColorRGB
 90
      255
102
RTVSPost2010PropOp44
 70
     1
102
RTVSPost2010Prop45
280
     0
102
RTVSPost2010PropOp45
 70
     1
102
RTVSPost2010Prop46
 90
       50
102
RTVSPost2010PropOp46
 70
     1
102
RTVSPost2010Prop47
 90
       50
102
RTVSPost2010PropOp47
 70
     1
102
RTVSPost2010Prop48
 90
       50
102
RTVSPost2010PropOp48
 70
     1
102
RTVSPost2010Prop49
280
     0
102
RTVSPost2010PropOp49
 70
     1
102
RTVSPost2010Prop50
 90
       50
102
RTVSPost2010PropOp50
 70
     1
102
RTVSPost2010Prop51ColorIndex
 90
      256
102
RTVSPost2010Prop51ColorRGB
 90
-16777216
102
RTVSPost2010PropOp51
 70
     0
102
RTVSPost2010Prop52
140
1.0
102
RTVSPost2010PropOp52
 70
     0
102
RTVSPost2010Prop53
 90
        2
102
RTVSPost2010PropOp53
 70
     1
102
RTVSPost2010Prop54
  1
strokes_ogs.tif
102
RTVSPost2010PropOp54
 70
     1
102
RTVSPost2010Prop55
280
     0
102
RTVSPost2010PropOp55
 70
     1
102
RTVSPost2010Prop56
140
1.0
102
RTVSPost2010PropOp56
 70
     1
102
RTVSPost2010Prop57
140
1.0
102
RTVSPost2010PropOp57
 70
     1
102
RTVSPropertyOp0
 70
     1
102
RTVSPropertyOp1
 70
     1
102
RTVSPropertyOp2
 70
     1
102
RTVSPropertyOp3
 70
     1
102
RTVSPropertyOp4
 70
     1
102
RTVSPropertyOp5
 70
     1
102
RTVSPropertyOp6
 70
     1
102
RTVSPropertyOp7
 70
     1
102
RTVSPropertyOp8
 70
     1
102
RTVSPropertyOp9
 70
     1
102
RTVSPropertyOp10
 70
     1
102
RTVSPropertyOp11
 70
     1
102
RTVSPropertyOp12
 70
     1
102
RTVSPropertyOp13
 70
     1
102
RTVSPropertyOp14
 70
     1
102
RTVSPropertyOp15
 70
     1
102
RTVSPropertyOp16
 70
     1
102
RTVSPropertyOp17
 70
     1
102
RTVSPropertyOp18
 70
     1
102
RTVSPropertyOp19
 70
     1
102
RTVSPropertyOp20
 70
     1
102
RTVSPropertyOp21
 70
     1
102
RTVSPropertyOp22
 70
     1
102
RTVSPropertyOp23
 70
     1
102
RTVSPropertyOp24
 70
     1
102
RTVSPropertyOp25
 70
     1
102
RTVSPropertyOp26
 70
     1
102
RTVSPropertyOp27
 70
     1
102
RTVSPropertyOp28
 70
     1
102
RTVSPropertyOp29
 70
     1
102
RTVSPropertyOp30
 70
     1
102
RTVSPropertyOp31
 70
     1
102
RTVSPropertyOp32
 70
     1
102
RTVSPropertyOp33
 70
     1
102
RTVSPropertyOp34
 70
     1
102
RTVSPropertyOp35
 70
     1
102
RTVSPropertyOp36
 70
     1
102
RTVSPropertyOp37
 70
     1
102
RTVSPropertyOp38
 70
     1
102
RTVSPropertyOp39
 70
     1
102
RTVSPropertyOp40
 70
     1
102
RTVSPropertyOp41
 70
     1
102
RTVSPropertyOp42
 70
     1
102
RTVSPropertyOp43
 70
     1
102
RTVSPropertyOp44
 70
     1
102
RTVSPropertyOp45
 70
     1
102
RTVSPropertyOp46
 70
     1
102
RTVSPropertyOp47
 70
     1
102
RTVSPropertyOp48
 70
     1
102
RTVSPropertyOp49
 70
     1
102
RTVSPropertyOp50
 70
     1
102
RTVSPropertyOp51
 70
     0
102
RTVSPropertyOp52
 70
     0
102
RTVSPropertyOp53
 70
     1
102
RTVSPropertyOp54
 70
     1
102
RTVSPropertyOp55
 70
     1
102
RTVSPropertyOp56
 70
     1
102
RTVSPropertyOp57
 70
     1
102
RTVSPropertyOp58
 70
     1
102
RTVSPropertyOp59
 70
     1
102
RTVSPropertyOp60
 70
     1
102
RTVSPropertyOp61
 70
     1
102
RTVSPropertyOp62
 70
     1
  0
XRECORD
  5
988C
102
{ACAD_REACTORS
330
988B
102
}
330
988B
100
AcDbXrecord
280
     1
102
RTVSPost2010Prop28
280
     0
102
RTVSPost2010PropOp28
 70
     1
102
RTVSPost2010Prop29
280
     1
102
RTVSPost2010PropOp29
 70
     1
102
RTVSPost2010Prop30
280
     1
102
RTVSPost2010PropOp30
 70
     1
102
RTVSPost2010Prop31
280
     0
102
RTVSPost2010PropOp31
 70
     1
102
RTVSPost2010Prop32
280
     0
102
RTVSPost2010PropOp32
 70
     1
102
RTVSPost2010Prop33
280
     0
102
RTVSPost2010PropOp33
 70
     1
102
RTVSPost2010Prop34
280
     0
102
RTVSPost2010PropOp34
 70
     1
102
RTVSPost2010Prop35
280
     0
102
RTVSPost2010PropOp35
 70
     1
102
RTVSPost2010Prop36
280
     0
102
RTVSPost2010PropOp36
 70
     1
102
RTVSPost2010Prop37
 90
       50
102
RTVSPost2010PropOp37
 70
     1
102
RTVSPost2010Prop38
140
0.0
102
RTVSPost2010PropOp38
 70
     1
102
RTVSPost2010Prop39
140
1.0
102
RTVSPost2010PropOp39
 70
     1
102
RTVSPost2010Prop40
 90
        0
102
RTVSPost2010PropOp40
 70
     1
102
RTVSPost2010Prop41ColorIndex
 90
       18
102
RTVSPost2010Prop41ColorRGB
 90
        0
102
RTVSPost2010PropOp41
 70
     1
102
RTVSPost2010Prop42
 90
       50
102
RTVSPost2010PropOp42
 70
     1
102
RTVSPost2010Prop43
 90
        3
102
RTVSPost2010PropOp43
 70
     1
102
RTVSPost2010Prop44ColorIndex
 90
        5
102
RTVSPost2010Prop44ColorRGB
 90
      255
102
RTVSPost2010PropOp44
 70
     1
102
RTVSPost2010Prop45
280
     0
102
RTVSPost2010PropOp45
 70
     1
102
RTVSPost2010Prop46
 90
       50
102
RTVSPost2010PropOp46
 70
     1
102
RTVSPost2010Prop47
 90
       50
102
RTVSPost2010PropOp47
 70
     1
102
RTVSPost2010Prop48
 90
       50
102
RTVSPost2010PropOp48
 70
     1
102
RTVSPost2010Prop49
280
     0
102
RTVSPost2010PropOp49
 70
     1
102
RTVSPost2010Prop50
 90
       50
102
RTVSPost2010PropOp50
 70
     1
102
RTVSPost2010Prop51ColorIndex
 90
      256
102
RTVSPost2010Prop51ColorRGB
 90
-16777216
102
RTVSPost2010PropOp51
 70
     0
102
RTVSPost2010Prop52
140
1.0
102
RTVSPost2010PropOp52
 70
     0
102
RTVSPost2010Prop53
 90
        2
102
RTVSPost2010PropOp53
 70
     1
102
RTVSPost2010Prop54
  1
strokes_ogs.tif
102
RTVSPost2010PropOp54
 70
     1
102
RTVSPost2010Prop55
280
     0
102
RTVSPost2010PropOp55
 70
     1
102
RTVSPost2010Prop56
140
1.0
102
RTVSPost2010PropOp56
 70
     1
102
RTVSPost2010Prop57
140
1.0
102
RTVSPost2010PropOp57
 70
     1
102
RTVSPropertyOp0
 70
     1
102
RTVSPropertyOp1
 70
     1
102
RTVSPropertyOp2
 70
     1
102
RTVSPropertyOp3
 70
     1
102
RTVSPropertyOp4
 70
     1
102
RTVSPropertyOp5
 70
     1
102
RTVSPropertyOp6
 70
     1
102
RTVSPropertyOp7
 70
     1
102
RTVSPropertyOp8
 70
     1
102
RTVSPropertyOp9
 70
     1
102
RTVSPropertyOp10
 70
     1
102
RTVSPropertyOp11
 70
     1
102
RTVSPropertyOp12
 70
     1
102
RTVSPropertyOp13
 70
     1
102
RTVSPropertyOp14
 70
     1
102
RTVSPropertyOp15
 70
     1
102
RTVSPropertyOp16
 70
     1
102
RTVSPropertyOp17
 70
     1
102
RTVSPropertyOp18
 70
     1
102
RTVSPropertyOp19
 70
     1
102
RTVSPropertyOp20
 70
     1
102
RTVSPropertyOp21
 70
     1
102
RTVSPropertyOp22
 70
     1
102
RTVSPropertyOp23
 70
     1
102
RTVSPropertyOp24
 70
     1
102
RTVSPropertyOp25
 70
     1
102
RTVSPropertyOp26
 70
     1
102
RTVSPropertyOp27
 70
     1
102
RTVSPropertyOp28
 70
     1
102
RTVSPropertyOp29
 70
     1
102
RTVSPropertyOp30
 70
     1
102
RTVSPropertyOp31
 70
     1
102
RTVSPropertyOp32
 70
     1
102
RTVSPropertyOp33
 70
     1
102
RTVSPropertyOp34
 70
     1
102
RTVSPropertyOp35
 70
     1
102
RTVSPropertyOp36
 70
     1
102
RTVSPropertyOp37
 70
     1
102
RTVSPropertyOp38
 70
     1
102
RTVSPropertyOp39
 70
     1
102
RTVSPropertyOp40
 70
     1
102
RTVSPropertyOp41
 70
     1
102
RTVSPropertyOp42
 70
     1
102
RTVSPropertyOp43
 70
     1
102
RTVSPropertyOp44
 70
     1
102
RTVSPropertyOp45
 70
     1
102
RTVSPropertyOp46
 70
     1
102
RTVSPropertyOp47
 70
     1
102
RTVSPropertyOp48
 70
     1
102
RTVSPropertyOp49
 70
     1
102
RTVSPropertyOp50
 70
     1
102
RTVSPropertyOp51
 70
     0
102
RTVSPropertyOp52
 70
     0
102
RTVSPropertyOp53
 70
     1
102
RTVSPropertyOp54
 70
     1
102
RTVSPropertyOp55
 70
     1
102
RTVSPropertyOp56
 70
     1
102
RTVSPropertyOp57
 70
     1
102
RTVSPropertyOp58
 70
     1
102
RTVSPropertyOp59
 70
     1
102
RTVSPropertyOp60
 70
     1
102
RTVSPropertyOp61
 70
     1
102
RTVSPropertyOp62
 70
     1
  0
XRECORD
  5
98A8
102
{ACAD_REACTORS
330
98A7
102
}
330
98A7
100
AcDbXrecord
280
     1
102
RTVSPost2010Prop28
280
     0
102
RTVSPost2010PropOp28
 70
     1
102
RTVSPost2010Prop29
280
     1
102
RTVSPost2010PropOp29
 70
     1
102
RTVSPost2010Prop30
280
     1
102
RTVSPost2010PropOp30
 70
     1
102
RTVSPost2010Prop31
280
     0
102
RTVSPost2010PropOp31
 70
     1
102
RTVSPost2010Prop32
280
     0
102
RTVSPost2010PropOp32
 70
     1
102
RTVSPost2010Prop33
280
     0
102
RTVSPost2010PropOp33
 70
     1
102
RTVSPost2010Prop34
280
     0
102
RTVSPost2010PropOp34
 70
     1
102
RTVSPost2010Prop35
280
     0
102
RTVSPost2010PropOp35
 70
     1
102
RTVSPost2010Prop36
280
     0
102
RTVSPost2010PropOp36
 70
     1
102
RTVSPost2010Prop37
 90
       50
102
RTVSPost2010PropOp37
 70
     0
102
RTVSPost2010Prop38
140
0.0
102
RTVSPost2010PropOp38
 70
     0
102
RTVSPost2010Prop39
140
1.0
102
RTVSPost2010PropOp39
 70
     0
102
RTVSPost2010Prop40
 90
        0
102
RTVSPost2010PropOp40
 70
     0
102
RTVSPost2010Prop41ColorIndex
 90
       18
102
RTVSPost2010Prop41ColorRGB
 90
        0
102
RTVSPost2010PropOp41
 70
     0
102
RTVSPost2010Prop42
 90
       50
102
RTVSPost2010PropOp42
 70
     0
102
RTVSPost2010Prop43
 90
        3
102
RTVSPost2010PropOp43
 70
     0
102
RTVSPost2010Prop44ColorIndex
 90
        5
102
RTVSPost2010Prop44ColorRGB
 90
      255
102
RTVSPost2010PropOp44
 70
     0
102
RTVSPost2010Prop45
280
     0
102
RTVSPost2010PropOp45
 70
     1
102
RTVSPost2010Prop46
 90
       50
102
RTVSPost2010PropOp46
 70
     0
102
RTVSPost2010Prop47
 90
       50
102
RTVSPost2010PropOp47
 70
     0
102
RTVSPost2010Prop48
 90
       50
102
RTVSPost2010PropOp48
 70
     0
102
RTVSPost2010Prop49
280
     0
102
RTVSPost2010PropOp49
 70
     1
102
RTVSPost2010Prop50
 90
       50
102
RTVSPost2010PropOp50
 70
     0
102
RTVSPost2010Prop51ColorIndex
 90
      256
102
RTVSPost2010Prop51ColorRGB
 90
-16777216
102
RTVSPost2010PropOp51
 70
     0
102
RTVSPost2010Prop52
140
1.0
102
RTVSPost2010PropOp52
 70
     0
102
RTVSPost2010Prop53
 90
        2
102
RTVSPost2010PropOp53
 70
     0
102
RTVSPost2010Prop54
  1
strokes_ogs.tif
102
RTVSPost2010PropOp54
 70
     0
102
RTVSPost2010Prop55
280
     0
102
RTVSPost2010PropOp55
 70
     1
102
RTVSPost2010Prop56
140
1.0
102
RTVSPost2010PropOp56
 70
     0
102
RTVSPost2010Prop57
140
1.0
102
RTVSPost2010PropOp57
 70
     0
102
RTVSPropertyOp0
 70
     0
102
RTVSPropertyOp1
 70
     0
102
RTVSPropertyOp2
 70
     0
102
RTVSPropertyOp3
 70
     0
102
RTVSPropertyOp4
 70
     0
102
RTVSPropertyOp5
 70
     0
102
RTVSPropertyOp6
 70
     0
102
RTVSPropertyOp7
 70
     0
102
RTVSPropertyOp8
 70
     0
102
RTVSPropertyOp9
 70
     0
102
RTVSPropertyOp10
 70
     0
102
RTVSPropertyOp11
 70
     0
102
RTVSPropertyOp12
 70
     0
102
RTVSPropertyOp13
 70
     0
102
RTVSPropertyOp14
 70
     2
102
RTVSPropertyOp15
 70
     0
102
RTVSPropertyOp16
 70
     0
102
RTVSPropertyOp17
 70
     0
102
RTVSPropertyOp18
 70
     0
102
RTVSPropertyOp19
 70
     0
102
RTVSPropertyOp20
 70
     0
102
RTVSPropertyOp21
 70
     0
102
RTVSPropertyOp22
 70
     0
102
RTVSPropertyOp23
 70
     0
102
RTVSPropertyOp24
 70
     0
102
RTVSPropertyOp25
 70
     0
102
RTVSPropertyOp26
 70
     0
102
RTVSPropertyOp27
 70
     0
102
RTVSPropertyOp28
 70
     1
102
RTVSPropertyOp29
 70
     1
102
RTVSPropertyOp30
 70
     1
102
RTVSPropertyOp31
 70
     1
102
RTVSPropertyOp32
 70
     1
102
RTVSPropertyOp33
 70
     1
102
RTVSPropertyOp34
 70
     1
102
RTVSPropertyOp35
 70
     1
102
RTVSPropertyOp36
 70
     1
102
RTVSPropertyOp37
 70
     0
102
RTVSPropertyOp38
 70
     0
102
RTVSPropertyOp39
 70
     0
102
RTVSPropertyOp40
 70
     0
102
RTVSPropertyOp41
 70
     0
102
RTVSPropertyOp42
 70
     0
102
RTVSPropertyOp43
 70
     0
102
RTVSPropertyOp44
 70
     0
102
RTVSPropertyOp45
 70
     1
102
RTVSPropertyOp46
 70
     0
102
RTVSPropertyOp47
 70
     0
102
RTVSPropertyOp48
 70
     0
102
RTVSPropertyOp49
 70
     1
102
RTVSPropertyOp50
 70
     0
102
RTVSPropertyOp51
 70
     0
102
RTVSPropertyOp52
 70
     0
102
RTVSPropertyOp53
 70
     0
102
RTVSPropertyOp54
 70
     0
102
RTVSPropertyOp55
 70
     1
102
RTVSPropertyOp56
 70
     0
102
RTVSPropertyOp57
 70
     0
102
RTVSPropertyOp58
 70
     0
102
RTVSPropertyOp59
 70
     0
102
RTVSPropertyOp60
 70
     0
102
RTVSPropertyOp61
 70
     0
102
RTVSPropertyOp62
 70
     0
  0
XRECORD
  5
9898
102
{ACAD_REACTORS
330
9897
102
}
330
9897
100
AcDbXrecord
280
     1
102
RTVSPost2010Prop28
280
     0
102
RTVSPost2010PropOp28
 70
     1
102
RTVSPost2010Prop29
280
     1
102
RTVSPost2010PropOp29
 70
     1
102
RTVSPost2010Prop30
280
     1
102
RTVSPost2010PropOp30
 70
     1
102
RTVSPost2010Prop31
280
     0
102
RTVSPost2010PropOp31
 70
     1
102
RTVSPost2010Prop32
280
     0
102
RTVSPost2010PropOp32
 70
     1
102
RTVSPost2010Prop33
280
     0
102
RTVSPost2010PropOp33
 70
     1
102
RTVSPost2010Prop34
280
     0
102
RTVSPost2010PropOp34
 70
     1
102
RTVSPost2010Prop35
280
     0
102
RTVSPost2010PropOp35
 70
     1
102
RTVSPost2010Prop36
280
     0
102
RTVSPost2010PropOp36
 70
     1
102
RTVSPost2010Prop37
 90
       50
102
RTVSPost2010PropOp37
 70
     1
102
RTVSPost2010Prop38
140
0.0
102
RTVSPost2010PropOp38
 70
     1
102
RTVSPost2010Prop39
140
1.0
102
RTVSPost2010PropOp39
 70
     1
102
RTVSPost2010Prop40
 90
        0
102
RTVSPost2010PropOp40
 70
     1
102
RTVSPost2010Prop41ColorIndex
 90
       18
102
RTVSPost2010Prop41ColorRGB
 90
        0
102
RTVSPost2010PropOp41
 70
     1
102
RTVSPost2010Prop42
 90
       50
102
RTVSPost2010PropOp42
 70
     1
102
RTVSPost2010Prop43
 90
        3
102
RTVSPost2010PropOp43
 70
     1
102
RTVSPost2010Prop44ColorIndex
 90
        5
102
RTVSPost2010Prop44ColorRGB
 90
      255
102
RTVSPost2010PropOp44
 70
     1
102
RTVSPost2010Prop45
280
     0
102
RTVSPost2010PropOp45
 70
     1
102
RTVSPost2010Prop46
 90
       50
102
RTVSPost2010PropOp46
 70
     1
102
RTVSPost2010Prop47
 90
       50
102
RTVSPost2010PropOp47
 70
     1
102
RTVSPost2010Prop48
 90
       50
102
RTVSPost2010PropOp48
 70
     1
102
RTVSPost2010Prop49
280
     0
102
RTVSPost2010PropOp49
 70
     1
102
RTVSPost2010Prop50
 90
       50
102
RTVSPost2010PropOp50
 70
     1
102
RTVSPost2010Prop51ColorIndex
 90
      256
102
RTVSPost2010Prop51ColorRGB
 90
-16777216
102
RTVSPost2010PropOp51
 70
     0
102
RTVSPost2010Prop52
140
1.0
102
RTVSPost2010PropOp52
 70
     0
102
RTVSPost2010Prop53
 90
        2
102
RTVSPost2010PropOp53
 70
     1
102
RTVSPost2010Prop54
  1
strokes_ogs.tif
102
RTVSPost2010PropOp54
 70
     1
102
RTVSPost2010Prop55
280
     0
102
RTVSPost2010PropOp55
 70
     1
102
RTVSPost2010Prop56
140
1.0
102
RTVSPost2010PropOp56
 70
     1
102
RTVSPost2010Prop57
140
1.0
102
RTVSPost2010PropOp57
 70
     1
102
RTVSPropertyOp0
 70
     1
102
RTVSPropertyOp1
 70
     1
102
RTVSPropertyOp2
 70
     1
102
RTVSPropertyOp3
 70
     1
102
RTVSPropertyOp4
 70
     1
102
RTVSPropertyOp5
 70
     1
102
RTVSPropertyOp6
 70
     1
102
RTVSPropertyOp7
 70
     1
102
RTVSPropertyOp8
 70
     1
102
RTVSPropertyOp9
 70
     1
102
RTVSPropertyOp10
 70
     1
102
RTVSPropertyOp11
 70
     1
102
RTVSPropertyOp12
 70
     1
102
RTVSPropertyOp13
 70
     1
102
RTVSPropertyOp14
 70
     1
102
RTVSPropertyOp15
 70
     1
102
RTVSPropertyOp16
 70
     1
102
RTVSPropertyOp17
 70
     1
102
RTVSPropertyOp18
 70
     1
102
RTVSPropertyOp19
 70
     1
102
RTVSPropertyOp20
 70
     1
102
RTVSPropertyOp21
 70
     1
102
RTVSPropertyOp22
 70
     1
102
RTVSPropertyOp23
 70
     1
102
RTVSPropertyOp24
 70
     1
102
RTVSPropertyOp25
 70
     1
102
RTVSPropertyOp26
 70
     1
102
RTVSPropertyOp27
 70
     1
102
RTVSPropertyOp28
 70
     1
102
RTVSPropertyOp29
 70
     1
102
RTVSPropertyOp30
 70
     1
102
RTVSPropertyOp31
 70
     1
102
RTVSPropertyOp32
 70
     1
102
RTVSPropertyOp33
 70
     1
102
RTVSPropertyOp34
 70
     1
102
RTVSPropertyOp35
 70
     1
102
RTVSPropertyOp36
 70
     1
102
RTVSPropertyOp37
 70
     1
102
RTVSPropertyOp38
 70
     1
102
RTVSPropertyOp39
 70
     1
102
RTVSPropertyOp40
 70
     1
102
RTVSPropertyOp41
 70
     1
102
RTVSPropertyOp42
 70
     1
102
RTVSPropertyOp43
 70
     1
102
RTVSPropertyOp44
 70
     1
102
RTVSPropertyOp45
 70
     1
102
RTVSPropertyOp46
 70
     1
102
RTVSPropertyOp47
 70
     1
102
RTVSPropertyOp48
 70
     1
102
RTVSPropertyOp49
 70
     1
102
RTVSPropertyOp50
 70
     1
102
RTVSPropertyOp51
 70
     0
102
RTVSPropertyOp52
 70
     0
102
RTVSPropertyOp53
 70
     1
102
RTVSPropertyOp54
 70
     1
102
RTVSPropertyOp55
 70
     1
102
RTVSPropertyOp56
 70
     1
102
RTVSPropertyOp57
 70
     1
102
RTVSPropertyOp58
 70
     1
102
RTVSPropertyOp59
 70
     1
102
RTVSPropertyOp60
 70
     1
102
RTVSPropertyOp61
 70
     1
102
RTVSPropertyOp62
 70
     1
  0
XRECORD
  5
98AA
102
{ACAD_REACTORS
330
98A9
102
}
330
98A9
100
AcDbXrecord
280
     1
102
RTVSPost2010Prop28
280
     0
102
RTVSPost2010PropOp28
 70
     1
102
RTVSPost2010Prop29
280
     1
102
RTVSPost2010PropOp29
 70
     1
102
RTVSPost2010Prop30
280
     1
102
RTVSPost2010PropOp30
 70
     1
102
RTVSPost2010Prop31
280
     0
102
RTVSPost2010PropOp31
 70
     1
102
RTVSPost2010Prop32
280
     0
102
RTVSPost2010PropOp32
 70
     1
102
RTVSPost2010Prop33
280
     0
102
RTVSPost2010PropOp33
 70
     1
102
RTVSPost2010Prop34
280
     0
102
RTVSPost2010PropOp34
 70
     1
102
RTVSPost2010Prop35
280
     0
102
RTVSPost2010PropOp35
 70
     1
102
RTVSPost2010Prop36
280
     0
102
RTVSPost2010PropOp36
 70
     1
102
RTVSPost2010Prop37
 90
       50
102
RTVSPost2010PropOp37
 70
     0
102
RTVSPost2010Prop38
140
0.0
102
RTVSPost2010PropOp38
 70
     0
102
RTVSPost2010Prop39
140
1.0
102
RTVSPost2010PropOp39
 70
     0
102
RTVSPost2010Prop40
 90
        0
102
RTVSPost2010PropOp40
 70
     0
102
RTVSPost2010Prop41ColorIndex
 90
       18
102
RTVSPost2010Prop41ColorRGB
 90
        0
102
RTVSPost2010PropOp41
 70
     0
102
RTVSPost2010Prop42
 90
       50
102
RTVSPost2010PropOp42
 70
     0
102
RTVSPost2010Prop43
 90
        3
102
RTVSPost2010PropOp43
 70
     0
102
RTVSPost2010Prop44ColorIndex
 90
        5
102
RTVSPost2010Prop44ColorRGB
 90
      255
102
RTVSPost2010PropOp44
 70
     0
102
RTVSPost2010Prop45
280
     0
102
RTVSPost2010PropOp45
 70
     1
102
RTVSPost2010Prop46
 90
       50
102
RTVSPost2010PropOp46
 70
     0
102
RTVSPost2010Prop47
 90
       50
102
RTVSPost2010PropOp47
 70
     0
102
RTVSPost2010Prop48
 90
       50
102
RTVSPost2010PropOp48
 70
     0
102
RTVSPost2010Prop49
280
     0
102
RTVSPost2010PropOp49
 70
     1
102
RTVSPost2010Prop50
 90
       50
102
RTVSPost2010PropOp50
 70
     0
102
RTVSPost2010Prop51ColorIndex
 90
      256
102
RTVSPost2010Prop51ColorRGB
 90
-16777216
102
RTVSPost2010PropOp51
 70
     0
102
RTVSPost2010Prop52
140
1.0
102
RTVSPost2010PropOp52
 70
     0
102
RTVSPost2010Prop53
 90
        2
102
RTVSPost2010PropOp53
 70
     0
102
RTVSPost2010Prop54
  1
strokes_ogs.tif
102
RTVSPost2010PropOp54
 70
     0
102
RTVSPost2010Prop55
280
     0
102
RTVSPost2010PropOp55
 70
     1
102
RTVSPost2010Prop56
140
1.0
102
RTVSPost2010PropOp56
 70
     0
102
RTVSPost2010Prop57
140
1.0
102
RTVSPost2010PropOp57
 70
     0
102
RTVSPropertyOp0
 70
     0
102
RTVSPropertyOp1
 70
     0
102
RTVSPropertyOp2
 70
     0
102
RTVSPropertyOp3
 70
     0
102
RTVSPropertyOp4
 70
     0
102
RTVSPropertyOp5
 70
     0
102
RTVSPropertyOp6
 70
     0
102
RTVSPropertyOp7
 70
     0
102
RTVSPropertyOp8
 70
     0
102
RTVSPropertyOp9
 70
     0
102
RTVSPropertyOp10
 70
     0
102
RTVSPropertyOp11
 70
     0
102
RTVSPropertyOp12
 70
     0
102
RTVSPropertyOp13
 70
     0
102
RTVSPropertyOp14
 70
     2
102
RTVSPropertyOp15
 70
     0
102
RTVSPropertyOp16
 70
     0
102
RTVSPropertyOp17
 70
     0
102
RTVSPropertyOp18
 70
     0
102
RTVSPropertyOp19
 70
     0
102
RTVSPropertyOp20
 70
     0
102
RTVSPropertyOp21
 70
     0
102
RTVSPropertyOp22
 70
     0
102
RTVSPropertyOp23
 70
     0
102
RTVSPropertyOp24
 70
     0
102
RTVSPropertyOp25
 70
     0
102
RTVSPropertyOp26
 70
     0
102
RTVSPropertyOp27
 70
     0
102
RTVSPropertyOp28
 70
     1
102
RTVSPropertyOp29
 70
     1
102
RTVSPropertyOp30
 70
     1
102
RTVSPropertyOp31
 70
     1
102
RTVSPropertyOp32
 70
     1
102
RTVSPropertyOp33
 70
     1
102
RTVSPropertyOp34
 70
     1
102
RTVSPropertyOp35
 70
     1
102
RTVSPropertyOp36
 70
     1
102
RTVSPropertyOp37
 70
     0
102
RTVSPropertyOp38
 70
     0
102
RTVSPropertyOp39
 70
     0
102
RTVSPropertyOp40
 70
     0
102
RTVSPropertyOp41
 70
     0
102
RTVSPropertyOp42
 70
     0
102
RTVSPropertyOp43
 70
     0
102
RTVSPropertyOp44
 70
     0
102
RTVSPropertyOp45
 70
     1
102
RTVSPropertyOp46
 70
     0
102
RTVSPropertyOp47
 70
     0
102
RTVSPropertyOp48
 70
     0
102
RTVSPropertyOp49
 70
     1
102
RTVSPropertyOp50
 70
     0
102
RTVSPropertyOp51
 70
     0
102
RTVSPropertyOp52
 70
     0
102
RTVSPropertyOp53
 70
     0
102
RTVSPropertyOp54
 70
     0
102
RTVSPropertyOp55
 70
     1
102
RTVSPropertyOp56
 70
     0
102
RTVSPropertyOp57
 70
     0
102
RTVSPropertyOp58
 70
     0
102
RTVSPropertyOp59
 70
     0
102
RTVSPropertyOp60
 70
     0
102
RTVSPropertyOp61
 70
     0
102
RTVSPropertyOp62
 70
     0
  0
XRECORD
  5
9890
102
{ACAD_REACTORS
330
988F
102
}
330
988F
100
AcDbXrecord
280
     1
102
RTVSPost2010Prop28
280
     0
102
RTVSPost2010PropOp28
 70
     1
102
RTVSPost2010Prop29
280
     1
102
RTVSPost2010PropOp29
 70
     1
102
RTVSPost2010Prop30
280
     1
102
RTVSPost2010PropOp30
 70
     1
102
RTVSPost2010Prop31
280
     0
102
RTVSPost2010PropOp31
 70
     1
102
RTVSPost2010Prop32
280
     0
102
RTVSPost2010PropOp32
 70
     1
102
RTVSPost2010Prop33
280
     0
102
RTVSPost2010PropOp33
 70
     1
102
RTVSPost2010Prop34
280
     0
102
RTVSPost2010PropOp34
 70
     1
102
RTVSPost2010Prop35
280
     0
102
RTVSPost2010PropOp35
 70
     1
102
RTVSPost2010Prop36
280
     0
102
RTVSPost2010PropOp36
 70
     1
102
RTVSPost2010Prop37
 90
       50
102
RTVSPost2010PropOp37
 70
     1
102
RTVSPost2010Prop38
140
0.0
102
RTVSPost2010PropOp38
 70
     1
102
RTVSPost2010Prop39
140
1.0
102
RTVSPost2010PropOp39
 70
     1
102
RTVSPost2010Prop40
 90
        0
102
RTVSPost2010PropOp40
 70
     1
102
RTVSPost2010Prop41ColorIndex
 90
       18
102
RTVSPost2010Prop41ColorRGB
 90
        0
102
RTVSPost2010PropOp41
 70
     1
102
RTVSPost2010Prop42
 90
       50
102
RTVSPost2010PropOp42
 70
     1
102
RTVSPost2010Prop43
 90
        3
102
RTVSPost2010PropOp43
 70
     1
102
RTVSPost2010Prop44ColorIndex
 90
        5
102
RTVSPost2010Prop44ColorRGB
 90
      255
102
RTVSPost2010PropOp44
 70
     1
102
RTVSPost2010Prop45
280
     0
102
RTVSPost2010PropOp45
 70
     1
102
RTVSPost2010Prop46
 90
       50
102
RTVSPost2010PropOp46
 70
     1
102
RTVSPost2010Prop47
 90
       50
102
RTVSPost2010PropOp47
 70
     1
102
RTVSPost2010Prop48
 90
       50
102
RTVSPost2010PropOp48
 70
     1
102
RTVSPost2010Prop49
280
     0
102
RTVSPost2010PropOp49
 70
     1
102
RTVSPost2010Prop50
 90
       50
102
RTVSPost2010PropOp50
 70
     1
102
RTVSPost2010Prop51ColorIndex
 90
      256
102
RTVSPost2010Prop51ColorRGB
 90
-16777216
102
RTVSPost2010PropOp51
 70
     0
102
RTVSPost2010Prop52
140
1.0
102
RTVSPost2010PropOp52
 70
     0
102
RTVSPost2010Prop53
 90
        2
102
RTVSPost2010PropOp53
 70
     1
102
RTVSPost2010Prop54
  1
strokes_ogs.tif
102
RTVSPost2010PropOp54
 70
     1
102
RTVSPost2010Prop55
280
     0
102
RTVSPost2010PropOp55
 70
     1
102
RTVSPost2010Prop56
140
1.0
102
RTVSPost2010PropOp56
 70
     1
102
RTVSPost2010Prop57
140
1.0
102
RTVSPost2010PropOp57
 70
     1
102
RTVSPropertyOp0
 70
     1
102
RTVSPropertyOp1
 70
     1
102
RTVSPropertyOp2
 70
     1
102
RTVSPropertyOp3
 70
     1
102
RTVSPropertyOp4
 70
     1
102
RTVSPropertyOp5
 70
     1
102
RTVSPropertyOp6
 70
     1
102
RTVSPropertyOp7
 70
     1
102
RTVSPropertyOp8
 70
     1
102
RTVSPropertyOp9
 70
     1
102
RTVSPropertyOp10
 70
     1
102
RTVSPropertyOp11
 70
     1
102
RTVSPropertyOp12
 70
     1
102
RTVSPropertyOp13
 70
     1
102
RTVSPropertyOp14
 70
     1
102
RTVSPropertyOp15
 70
     1
102
RTVSPropertyOp16
 70
     1
102
RTVSPropertyOp17
 70
     1
102
RTVSPropertyOp18
 70
     1
102
RTVSPropertyOp19
 70
     1
102
RTVSPropertyOp20
 70
     1
102
RTVSPropertyOp21
 70
     1
102
RTVSPropertyOp22
 70
     1
102
RTVSPropertyOp23
 70
     1
102
RTVSPropertyOp24
 70
     1
102
RTVSPropertyOp25
 70
     1
102
RTVSPropertyOp26
 70
     1
102
RTVSPropertyOp27
 70
     1
102
RTVSPropertyOp28
 70
     1
102
RTVSPropertyOp29
 70
     1
102
RTVSPropertyOp30
 70
     1
102
RTVSPropertyOp31
 70
     1
102
RTVSPropertyOp32
 70
     1
102
RTVSPropertyOp33
 70
     1
102
RTVSPropertyOp34
 70
     1
102
RTVSPropertyOp35
 70
     1
102
RTVSPropertyOp36
 70
     1
102
RTVSPropertyOp37
 70
     1
102
RTVSPropertyOp38
 70
     1
102
RTVSPropertyOp39
 70
     1
102
RTVSPropertyOp40
 70
     1
102
RTVSPropertyOp41
 70
     1
102
RTVSPropertyOp42
 70
     1
102
RTVSPropertyOp43
 70
     1
102
RTVSPropertyOp44
 70
     1
102
RTVSPropertyOp45
 70
     1
102
RTVSPropertyOp46
 70
     1
102
RTVSPropertyOp47
 70
     1
102
RTVSPropertyOp48
 70
     1
102
RTVSPropertyOp49
 70
     1
102
RTVSPropertyOp50
 70
     1
102
RTVSPropertyOp51
 70
     0
102
RTVSPropertyOp52
 70
     0
102
RTVSPropertyOp53
 70
     1
102
RTVSPropertyOp54
 70
     1
102
RTVSPropertyOp55
 70
     1
102
RTVSPropertyOp56
 70
     1
102
RTVSPropertyOp57
 70
     1
102
RTVSPropertyOp58
 70
     1
102
RTVSPropertyOp59
 70
     1
102
RTVSPropertyOp60
 70
     1
102
RTVSPropertyOp61
 70
     1
102
RTVSPropertyOp62
 70
     1
  0
XRECORD
  5
98A6
102
{ACAD_REACTORS
330
98A5
102
}
330
98A5
100
AcDbXrecord
280
     1
102
RTVSPost2010Prop28
280
     0
102
RTVSPost2010PropOp28
 70
     1
102
RTVSPost2010Prop29
280
     1
102
RTVSPost2010PropOp29
 70
     1
102
RTVSPost2010Prop30
280
     1
102
RTVSPost2010PropOp30
 70
     1
102
RTVSPost2010Prop31
280
     0
102
RTVSPost2010PropOp31
 70
     1
102
RTVSPost2010Prop32
280
     0
102
RTVSPost2010PropOp32
 70
     1
102
RTVSPost2010Prop33
280
     0
102
RTVSPost2010PropOp33
 70
     1
102
RTVSPost2010Prop34
280
     0
102
RTVSPost2010PropOp34
 70
     1
102
RTVSPost2010Prop35
280
     0
102
RTVSPost2010PropOp35
 70
     1
102
RTVSPost2010Prop36
280
     0
102
RTVSPost2010PropOp36
 70
     1
102
RTVSPost2010Prop37
 90
       50
102
RTVSPost2010PropOp37
 70
     1
102
RTVSPost2010Prop38
140
0.0
102
RTVSPost2010PropOp38
 70
     1
102
RTVSPost2010Prop39
140
1.0
102
RTVSPost2010PropOp39
 70
     1
102
RTVSPost2010Prop40
 90
        0
102
RTVSPost2010PropOp40
 70
     1
102
RTVSPost2010Prop41ColorIndex
 90
       18
102
RTVSPost2010Prop41ColorRGB
 90
        0
102
RTVSPost2010PropOp41
 70
     1
102
RTVSPost2010Prop42
 90
       50
102
RTVSPost2010PropOp42
 70
     1
102
RTVSPost2010Prop43
 90
        3
102
RTVSPost2010PropOp43
 70
     1
102
RTVSPost2010Prop44ColorIndex
 90
        5
102
RTVSPost2010Prop44ColorRGB
 90
      255
102
RTVSPost2010PropOp44
 70
     1
102
RTVSPost2010Prop45
280
     0
102
RTVSPost2010PropOp45
 70
     1
102
RTVSPost2010Prop46
 90
       50
102
RTVSPost2010PropOp46
 70
     1
102
RTVSPost2010Prop47
 90
       50
102
RTVSPost2010PropOp47
 70
     1
102
RTVSPost2010Prop48
 90
       50
102
RTVSPost2010PropOp48
 70
     1
102
RTVSPost2010Prop49
280
     0
102
RTVSPost2010PropOp49
 70
     1
102
RTVSPost2010Prop50
 90
       50
102
RTVSPost2010PropOp50
 70
     1
102
RTVSPost2010Prop51ColorIndex
 90
      256
102
RTVSPost2010Prop51ColorRGB
 90
-16777216
102
RTVSPost2010PropOp51
 70
     0
102
RTVSPost2010Prop52
140
1.0
102
RTVSPost2010PropOp52
 70
     0
102
RTVSPost2010Prop53
 90
        2
102
RTVSPost2010PropOp53
 70
     1
102
RTVSPost2010Prop54
  1
strokes_ogs.tif
102
RTVSPost2010PropOp54
 70
     1
102
RTVSPost2010Prop55
280
     0
102
RTVSPost2010PropOp55
 70
     1
102
RTVSPost2010Prop56
140
1.0
102
RTVSPost2010PropOp56
 70
     1
102
RTVSPost2010Prop57
140
1.0
102
RTVSPost2010PropOp57
 70
     1
102
RTVSPropertyOp0
 70
     1
102
RTVSPropertyOp1
 70
     1
102
RTVSPropertyOp2
 70
     1
102
RTVSPropertyOp3
 70
     1
102
RTVSPropertyOp4
 70
     1
102
RTVSPropertyOp5
 70
     1
102
RTVSPropertyOp6
 70
     1
102
RTVSPropertyOp7
 70
     1
102
RTVSPropertyOp8
 70
     1
102
RTVSPropertyOp9
 70
     1
102
RTVSPropertyOp10
 70
     1
102
RTVSPropertyOp11
 70
     1
102
RTVSPropertyOp12
 70
     1
102
RTVSPropertyOp13
 70
     1
102
RTVSPropertyOp14
 70
     1
102
RTVSPropertyOp15
 70
     1
102
RTVSPropertyOp16
 70
     1
102
RTVSPropertyOp17
 70
     1
102
RTVSPropertyOp18
 70
     1
102
RTVSPropertyOp19
 70
     1
102
RTVSPropertyOp20
 70
     1
102
RTVSPropertyOp21
 70
     1
102
RTVSPropertyOp22
 70
     1
102
RTVSPropertyOp23
 70
     1
102
RTVSPropertyOp24
 70
     1
102
RTVSPropertyOp25
 70
     1
102
RTVSPropertyOp26
 70
     1
102
RTVSPropertyOp27
 70
     1
102
RTVSPropertyOp28
 70
     1
102
RTVSPropertyOp29
 70
     1
102
RTVSPropertyOp30
 70
     1
102
RTVSPropertyOp31
 70
     1
102
RTVSPropertyOp32
 70
     1
102
RTVSPropertyOp33
 70
     1
102
RTVSPropertyOp34
 70
     1
102
RTVSPropertyOp35
 70
     1
102
RTVSPropertyOp36
 70
     1
102
RTVSPropertyOp37
 70
     1
102
RTVSPropertyOp38
 70
     1
102
RTVSPropertyOp39
 70
     1
102
RTVSPropertyOp40
 70
     1
102
RTVSPropertyOp41
 70
     1
102
RTVSPropertyOp42
 70
     1
102
RTVSPropertyOp43
 70
     1
102
RTVSPropertyOp44
 70
     1
102
RTVSPropertyOp45
 70
     1
102
RTVSPropertyOp46
 70
     1
102
RTVSPropertyOp47
 70
     1
102
RTVSPropertyOp48
 70
     1
102
RTVSPropertyOp49
 70
     1
102
RTVSPropertyOp50
 70
     1
102
RTVSPropertyOp51
 70
     0
102
RTVSPropertyOp52
 70
     0
102
RTVSPropertyOp53
 70
     1
102
RTVSPropertyOp54
 70
     1
102
RTVSPropertyOp55
 70
     1
102
RTVSPropertyOp56
 70
     1
102
RTVSPropertyOp57
 70
     1
102
RTVSPropertyOp58
 70
     1
102
RTVSPropertyOp59
 70
     1
102
RTVSPropertyOp60
 70
     1
102
RTVSPropertyOp61
 70
     1
102
RTVSPropertyOp62
 70
     1
  0
XRECORD
  5
98A4
102
{ACAD_REACTORS
330
98A3
102
}
330
98A3
100
AcDbXrecord
280
     1
102
RTVSPost2010Prop28
280
     0
102
RTVSPost2010PropOp28
 70
     1
102
RTVSPost2010Prop29
280
     1
102
RTVSPost2010PropOp29
 70
     1
102
RTVSPost2010Prop30
280
     1
102
RTVSPost2010PropOp30
 70
     1
102
RTVSPost2010Prop31
280
     0
102
RTVSPost2010PropOp31
 70
     1
102
RTVSPost2010Prop32
280
     0
102
RTVSPost2010PropOp32
 70
     1
102
RTVSPost2010Prop33
280
     0
102
RTVSPost2010PropOp33
 70
     1
102
RTVSPost2010Prop34
280
     0
102
RTVSPost2010PropOp34
 70
     1
102
RTVSPost2010Prop35
280
     0
102
RTVSPost2010PropOp35
 70
     1
102
RTVSPost2010Prop36
280
     0
102
RTVSPost2010PropOp36
 70
     1
102
RTVSPost2010Prop37
 90
       50
102
RTVSPost2010PropOp37
 70
     1
102
RTVSPost2010Prop38
140
0.0
102
RTVSPost2010PropOp38
 70
     1
102
RTVSPost2010Prop39
140
1.0
102
RTVSPost2010PropOp39
 70
     1
102
RTVSPost2010Prop40
 90
        0
102
RTVSPost2010PropOp40
 70
     1
102
RTVSPost2010Prop41ColorIndex
 90
       18
102
RTVSPost2010Prop41ColorRGB
 90
        0
102
RTVSPost2010PropOp41
 70
     1
102
RTVSPost2010Prop42
 90
       50
102
RTVSPost2010PropOp42
 70
     1
102
RTVSPost2010Prop43
 90
        3
102
RTVSPost2010PropOp43
 70
     1
102
RTVSPost2010Prop44ColorIndex
 90
        5
102
RTVSPost2010Prop44ColorRGB
 90
      255
102
RTVSPost2010PropOp44
 70
     1
102
RTVSPost2010Prop45
280
     0
102
RTVSPost2010PropOp45
 70
     1
102
RTVSPost2010Prop46
 90
       50
102
RTVSPost2010PropOp46
 70
     1
102
RTVSPost2010Prop47
 90
       50
102
RTVSPost2010PropOp47
 70
     1
102
RTVSPost2010Prop48
 90
       50
102
RTVSPost2010PropOp48
 70
     1
102
RTVSPost2010Prop49
280
     0
102
RTVSPost2010PropOp49
 70
     1
102
RTVSPost2010Prop50
 90
       50
102
RTVSPost2010PropOp50
 70
     1
102
RTVSPost2010Prop51ColorIndex
 90
      256
102
RTVSPost2010Prop51ColorRGB
 90
-16777216
102
RTVSPost2010PropOp51
 70
     0
102
RTVSPost2010Prop52
140
1.0
102
RTVSPost2010PropOp52
 70
     0
102
RTVSPost2010Prop53
 90
        2
102
RTVSPost2010PropOp53
 70
     1
102
RTVSPost2010Prop54
  1
strokes_ogs.tif
102
RTVSPost2010PropOp54
 70
     1
102
RTVSPost2010Prop55
280
     0
102
RTVSPost2010PropOp55
 70
     1
102
RTVSPost2010Prop56
140
1.0
102
RTVSPost2010PropOp56
 70
     1
102
RTVSPost2010Prop57
140
1.0
102
RTVSPost2010PropOp57
 70
     1
102
RTVSPropertyOp0
 70
     1
102
RTVSPropertyOp1
 70
     1
102
RTVSPropertyOp2
 70
     1
102
RTVSPropertyOp3
 70
     1
102
RTVSPropertyOp4
 70
     1
102
RTVSPropertyOp5
 70
     1
102
RTVSPropertyOp6
 70
     1
102
RTVSPropertyOp7
 70
     1
102
RTVSPropertyOp8
 70
     1
102
RTVSPropertyOp9
 70
     1
102
RTVSPropertyOp10
 70
     1
102
RTVSPropertyOp11
 70
     1
102
RTVSPropertyOp12
 70
     1
102
RTVSPropertyOp13
 70
     1
102
RTVSPropertyOp14
 70
     1
102
RTVSPropertyOp15
 70
     1
102
RTVSPropertyOp16
 70
     1
102
RTVSPropertyOp17
 70
     1
102
RTVSPropertyOp18
 70
     1
102
RTVSPropertyOp19
 70
     1
102
RTVSPropertyOp20
 70
     1
102
RTVSPropertyOp21
 70
     1
102
RTVSPropertyOp22
 70
     1
102
RTVSPropertyOp23
 70
     1
102
RTVSPropertyOp24
 70
     1
102
RTVSPropertyOp25
 70
     1
102
RTVSPropertyOp26
 70
     1
102
RTVSPropertyOp27
 70
     1
102
RTVSPropertyOp28
 70
     1
102
RTVSPropertyOp29
 70
     1
102
RTVSPropertyOp30
 70
     1
102
RTVSPropertyOp31
 70
     1
102
RTVSPropertyOp32
 70
     1
102
RTVSPropertyOp33
 70
     1
102
RTVSPropertyOp34
 70
     1
102
RTVSPropertyOp35
 70
     1
102
RTVSPropertyOp36
 70
     1
102
RTVSPropertyOp37
 70
     1
102
RTVSPropertyOp38
 70
     1
102
RTVSPropertyOp39
 70
     1
102
RTVSPropertyOp40
 70
     1
102
RTVSPropertyOp41
 70
     1
102
RTVSPropertyOp42
 70
     1
102
RTVSPropertyOp43
 70
     1
102
RTVSPropertyOp44
 70
     1
102
RTVSPropertyOp45
 70
     1
102
RTVSPropertyOp46
 70
     1
102
RTVSPropertyOp47
 70
     1
102
RTVSPropertyOp48
 70
     1
102
RTVSPropertyOp49
 70
     1
102
RTVSPropertyOp50
 70
     1
102
RTVSPropertyOp51
 70
     0
102
RTVSPropertyOp52
 70
     0
102
RTVSPropertyOp53
 70
     1
102
RTVSPropertyOp54
 70
     1
102
RTVSPropertyOp55
 70
     1
102
RTVSPropertyOp56
 70
     1
102
RTVSPropertyOp57
 70
     1
102
RTVSPropertyOp58
 70
     1
102
RTVSPropertyOp59
 70
     1
102
RTVSPropertyOp60
 70
     1
102
RTVSPropertyOp61
 70
     1
102
RTVSPropertyOp62
 70
     1
  0
XRECORD
  5
989E
102
{ACAD_REACTORS
330
989D
102
}
330
989D
100
AcDbXrecord
280
     1
102
RTVSPost2010Prop28
280
     0
102
RTVSPost2010PropOp28
 70
     1
102
RTVSPost2010Prop29
280
     1
102
RTVSPost2010PropOp29
 70
     1
102
RTVSPost2010Prop30
280
     1
102
RTVSPost2010PropOp30
 70
     1
102
RTVSPost2010Prop31
280
     0
102
RTVSPost2010PropOp31
 70
     1
102
RTVSPost2010Prop32
280
     0
102
RTVSPost2010PropOp32
 70
     1
102
RTVSPost2010Prop33
280
     0
102
RTVSPost2010PropOp33
 70
     1
102
RTVSPost2010Prop34
280
     0
102
RTVSPost2010PropOp34
 70
     1
102
RTVSPost2010Prop35
280
     0
102
RTVSPost2010PropOp35
 70
     1
102
RTVSPost2010Prop36
280
     0
102
RTVSPost2010PropOp36
 70
     1
102
RTVSPost2010Prop37
 90
       50
102
RTVSPost2010PropOp37
 70
     1
102
RTVSPost2010Prop38
140
0.0
102
RTVSPost2010PropOp38
 70
     1
102
RTVSPost2010Prop39
140
1.0
102
RTVSPost2010PropOp39
 70
     1
102
RTVSPost2010Prop40
 90
        0
102
RTVSPost2010PropOp40
 70
     1
102
RTVSPost2010Prop41ColorIndex
 90
       18
102
RTVSPost2010Prop41ColorRGB
 90
        0
102
RTVSPost2010PropOp41
 70
     1
102
RTVSPost2010Prop42
 90
       50
102
RTVSPost2010PropOp42
 70
     1
102
RTVSPost2010Prop43
 90
        3
102
RTVSPost2010PropOp43
 70
     1
102
RTVSPost2010Prop44ColorIndex
 90
        5
102
RTVSPost2010Prop44ColorRGB
 90
      255
102
RTVSPost2010PropOp44
 70
     1
102
RTVSPost2010Prop45
280
     0
102
RTVSPost2010PropOp45
 70
     1
102
RTVSPost2010Prop46
 90
       50
102
RTVSPost2010PropOp46
 70
     1
102
RTVSPost2010Prop47
 90
       50
102
RTVSPost2010PropOp47
 70
     1
102
RTVSPost2010Prop48
 90
       50
102
RTVSPost2010PropOp48
 70
     1
102
RTVSPost2010Prop49
280
     0
102
RTVSPost2010PropOp49
 70
     1
102
RTVSPost2010Prop50
 90
       50
102
RTVSPost2010PropOp50
 70
     1
102
RTVSPost2010Prop51ColorIndex
 90
      256
102
RTVSPost2010Prop51ColorRGB
 90
-16777216
102
RTVSPost2010PropOp51
 70
     0
102
RTVSPost2010Prop52
140
1.0
102
RTVSPost2010PropOp52
 70
     0
102
RTVSPost2010Prop53
 90
        2
102
RTVSPost2010PropOp53
 70
     1
102
RTVSPost2010Prop54
  1
strokes_ogs.tif
102
RTVSPost2010PropOp54
 70
     1
102
RTVSPost2010Prop55
280
     0
102
RTVSPost2010PropOp55
 70
     1
102
RTVSPost2010Prop56
140
1.0
102
RTVSPost2010PropOp56
 70
     1
102
RTVSPost2010Prop57
140
1.0
102
RTVSPost2010PropOp57
 70
     1
102
RTVSPropertyOp0
 70
     1
102
RTVSPropertyOp1
 70
     1
102
RTVSPropertyOp2
 70
     1
102
RTVSPropertyOp3
 70
     1
102
RTVSPropertyOp4
 70
     1
102
RTVSPropertyOp5
 70
     1
102
RTVSPropertyOp6
 70
     1
102
RTVSPropertyOp7
 70
     1
102
RTVSPropertyOp8
 70
     1
102
RTVSPropertyOp9
 70
     1
102
RTVSPropertyOp10
 70
     1
102
RTVSPropertyOp11
 70
     1
102
RTVSPropertyOp12
 70
     1
102
RTVSPropertyOp13
 70
     1
102
RTVSPropertyOp14
 70
     1
102
RTVSPropertyOp15
 70
     1
102
RTVSPropertyOp16
 70
     1
102
RTVSPropertyOp17
 70
     1
102
RTVSPropertyOp18
 70
     1
102
RTVSPropertyOp19
 70
     1
102
RTVSPropertyOp20
 70
     1
102
RTVSPropertyOp21
 70
     1
102
RTVSPropertyOp22
 70
     1
102
RTVSPropertyOp23
 70
     1
102
RTVSPropertyOp24
 70
     1
102
RTVSPropertyOp25
 70
     1
102
RTVSPropertyOp26
 70
     1
102
RTVSPropertyOp27
 70
     1
102
RTVSPropertyOp28
 70
     1
102
RTVSPropertyOp29
 70
     1
102
RTVSPropertyOp30
 70
     1
102
RTVSPropertyOp31
 70
     1
102
RTVSPropertyOp32
 70
     1
102
RTVSPropertyOp33
 70
     1
102
RTVSPropertyOp34
 70
     1
102
RTVSPropertyOp35
 70
     1
102
RTVSPropertyOp36
 70
     1
102
RTVSPropertyOp37
 70
     1
102
RTVSPropertyOp38
 70
     1
102
RTVSPropertyOp39
 70
     1
102
RTVSPropertyOp40
 70
     1
102
RTVSPropertyOp41
 70
     1
102
RTVSPropertyOp42
 70
     1
102
RTVSPropertyOp43
 70
     1
102
RTVSPropertyOp44
 70
     1
102
RTVSPropertyOp45
 70
     1
102
RTVSPropertyOp46
 70
     1
102
RTVSPropertyOp47
 70
     1
102
RTVSPropertyOp48
 70
     1
102
RTVSPropertyOp49
 70
     1
102
RTVSPropertyOp50
 70
     1
102
RTVSPropertyOp51
 70
     0
102
RTVSPropertyOp52
 70
     0
102
RTVSPropertyOp53
 70
     1
102
RTVSPropertyOp54
 70
     1
102
RTVSPropertyOp55
 70
     1
102
RTVSPropertyOp56
 70
     1
102
RTVSPropertyOp57
 70
     1
102
RTVSPropertyOp58
 70
     1
102
RTVSPropertyOp59
 70
     1
102
RTVSPropertyOp60
 70
     1
102
RTVSPropertyOp61
 70
     1
102
RTVSPropertyOp62
 70
     1
  0
XRECORD
  5
98A0
102
{ACAD_REACTORS
330
989F
102
}
330
989F
100
AcDbXrecord
280
     1
102
RTVSPost2010Prop28
280
     0
102
RTVSPost2010PropOp28
 70
     1
102
RTVSPost2010Prop29
280
     1
102
RTVSPost2010PropOp29
 70
     1
102
RTVSPost2010Prop30
280
     1
102
RTVSPost2010PropOp30
 70
     1
102
RTVSPost2010Prop31
280
     0
102
RTVSPost2010PropOp31
 70
     1
102
RTVSPost2010Prop32
280
     0
102
RTVSPost2010PropOp32
 70
     1
102
RTVSPost2010Prop33
280
     0
102
RTVSPost2010PropOp33
 70
     1
102
RTVSPost2010Prop34
280
     0
102
RTVSPost2010PropOp34
 70
     1
102
RTVSPost2010Prop35
280
     0
102
RTVSPost2010PropOp35
 70
     1
102
RTVSPost2010Prop36
280
     0
102
RTVSPost2010PropOp36
 70
     1
102
RTVSPost2010Prop37
 90
       50
102
RTVSPost2010PropOp37
 70
     1
102
RTVSPost2010Prop38
140
0.0
102
RTVSPost2010PropOp38
 70
     1
102
RTVSPost2010Prop39
140
1.0
102
RTVSPost2010PropOp39
 70
     1
102
RTVSPost2010Prop40
 90
        0
102
RTVSPost2010PropOp40
 70
     1
102
RTVSPost2010Prop41ColorIndex
 90
       18
102
RTVSPost2010Prop41ColorRGB
 90
        0
102
RTVSPost2010PropOp41
 70
     1
102
RTVSPost2010Prop42
 90
       50
102
RTVSPost2010PropOp42
 70
     1
102
RTVSPost2010Prop43
 90
        3
102
RTVSPost2010PropOp43
 70
     1
102
RTVSPost2010Prop44ColorIndex
 90
        5
102
RTVSPost2010Prop44ColorRGB
 90
      255
102
RTVSPost2010PropOp44
 70
     1
102
RTVSPost2010Prop45
280
     0
102
RTVSPost2010PropOp45
 70
     1
102
RTVSPost2010Prop46
 90
       50
102
RTVSPost2010PropOp46
 70
     1
102
RTVSPost2010Prop47
 90
       50
102
RTVSPost2010PropOp47
 70
     1
102
RTVSPost2010Prop48
 90
       50
102
RTVSPost2010PropOp48
 70
     1
102
RTVSPost2010Prop49
280
     0
102
RTVSPost2010PropOp49
 70
     1
102
RTVSPost2010Prop50
 90
       50
102
RTVSPost2010PropOp50
 70
     1
102
RTVSPost2010Prop51ColorIndex
 90
      256
102
RTVSPost2010Prop51ColorRGB
 90
-16777216
102
RTVSPost2010PropOp51
 70
     0
102
RTVSPost2010Prop52
140
1.0
102
RTVSPost2010PropOp52
 70
     0
102
RTVSPost2010Prop53
 90
        2
102
RTVSPost2010PropOp53
 70
     1
102
RTVSPost2010Prop54
  1
strokes_ogs.tif
102
RTVSPost2010PropOp54
 70
     1
102
RTVSPost2010Prop55
280
     0
102
RTVSPost2010PropOp55
 70
     1
102
RTVSPost2010Prop56
140
1.0
102
RTVSPost2010PropOp56
 70
     1
102
RTVSPost2010Prop57
140
1.0
102
RTVSPost2010PropOp57
 70
     1
102
RTVSPropertyOp0
 70
     1
102
RTVSPropertyOp1
 70
     1
102
RTVSPropertyOp2
 70
     1
102
RTVSPropertyOp3
 70
     1
102
RTVSPropertyOp4
 70
     1
102
RTVSPropertyOp5
 70
     1
102
RTVSPropertyOp6
 70
     1
102
RTVSPropertyOp7
 70
     1
102
RTVSPropertyOp8
 70
     1
102
RTVSPropertyOp9
 70
     1
102
RTVSPropertyOp10
 70
     1
102
RTVSPropertyOp11
 70
     1
102
RTVSPropertyOp12
 70
     1
102
RTVSPropertyOp13
 70
     1
102
RTVSPropertyOp14
 70
     1
102
RTVSPropertyOp15
 70
     1
102
RTVSPropertyOp16
 70
     1
102
RTVSPropertyOp17
 70
     1
102
RTVSPropertyOp18
 70
     1
102
RTVSPropertyOp19
 70
     1
102
RTVSPropertyOp20
 70
     1
102
RTVSPropertyOp21
 70
     1
102
RTVSPropertyOp22
 70
     1
102
RTVSPropertyOp23
 70
     1
102
RTVSPropertyOp24
 70
     1
102
RTVSPropertyOp25
 70
     1
102
RTVSPropertyOp26
 70
     1
102
RTVSPropertyOp27
 70
     1
102
RTVSPropertyOp28
 70
     1
102
RTVSPropertyOp29
 70
     1
102
RTVSPropertyOp30
 70
     1
102
RTVSPropertyOp31
 70
     1
102
RTVSPropertyOp32
 70
     1
102
RTVSPropertyOp33
 70
     1
102
RTVSPropertyOp34
 70
     1
102
RTVSPropertyOp35
 70
     1
102
RTVSPropertyOp36
 70
     1
102
RTVSPropertyOp37
 70
     1
102
RTVSPropertyOp38
 70
     1
102
RTVSPropertyOp39
 70
     1
102
RTVSPropertyOp40
 70
     1
102
RTVSPropertyOp41
 70
     1
102
RTVSPropertyOp42
 70
     1
102
RTVSPropertyOp43
 70
     1
102
RTVSPropertyOp44
 70
     1
102
RTVSPropertyOp45
 70
     1
102
RTVSPropertyOp46
 70
     1
102
RTVSPropertyOp47
 70
     1
102
RTVSPropertyOp48
 70
     1
102
RTVSPropertyOp49
 70
     1
102
RTVSPropertyOp50
 70
     1
102
RTVSPropertyOp51
 70
     0
102
RTVSPropertyOp52
 70
     0
102
RTVSPropertyOp53
 70
     1
102
RTVSPropertyOp54
 70
     1
102
RTVSPropertyOp55
 70
     1
102
RTVSPropertyOp56
 70
     1
102
RTVSPropertyOp57
 70
     1
102
RTVSPropertyOp58
 70
     1
102
RTVSPropertyOp59
 70
     1
102
RTVSPropertyOp60
 70
     1
102
RTVSPropertyOp61
 70
     1
102
RTVSPropertyOp62
 70
     1
  0
XRECORD
  5
9896
102
{ACAD_REACTORS
330
9895
102
}
330
9895
100
AcDbXrecord
280
     1
102
RTVSPost2010Prop28
280
     0
102
RTVSPost2010PropOp28
 70
     1
102
RTVSPost2010Prop29
280
     1
102
RTVSPost2010PropOp29
 70
     1
102
RTVSPost2010Prop30
280
     1
102
RTVSPost2010PropOp30
 70
     1
102
RTVSPost2010Prop31
280
     0
102
RTVSPost2010PropOp31
 70
     1
102
RTVSPost2010Prop32
280
     0
102
RTVSPost2010PropOp32
 70
     1
102
RTVSPost2010Prop33
280
     0
102
RTVSPost2010PropOp33
 70
     1
102
RTVSPost2010Prop34
280
     0
102
RTVSPost2010PropOp34
 70
     1
102
RTVSPost2010Prop35
280
     0
102
RTVSPost2010PropOp35
 70
     1
102
RTVSPost2010Prop36
280
     0
102
RTVSPost2010PropOp36
 70
     1
102
RTVSPost2010Prop37
 90
       50
102
RTVSPost2010PropOp37
 70
     1
102
RTVSPost2010Prop38
140
0.0
102
RTVSPost2010PropOp38
 70
     1
102
RTVSPost2010Prop39
140
1.0
102
RTVSPost2010PropOp39
 70
     1
102
RTVSPost2010Prop40
 90
        0
102
RTVSPost2010PropOp40
 70
     1
102
RTVSPost2010Prop41ColorIndex
 90
       18
102
RTVSPost2010Prop41ColorRGB
 90
        0
102
RTVSPost2010PropOp41
 70
     1
102
RTVSPost2010Prop42
 90
       50
102
RTVSPost2010PropOp42
 70
     1
102
RTVSPost2010Prop43
 90
        3
102
RTVSPost2010PropOp43
 70
     1
102
RTVSPost2010Prop44ColorIndex
 90
        5
102
RTVSPost2010Prop44ColorRGB
 90
      255
102
RTVSPost2010PropOp44
 70
     1
102
RTVSPost2010Prop45
280
     0
102
RTVSPost2010PropOp45
 70
     1
102
RTVSPost2010Prop46
 90
       50
102
RTVSPost2010PropOp46
 70
     1
102
RTVSPost2010Prop47
 90
       50
102
RTVSPost2010PropOp47
 70
     1
102
RTVSPost2010Prop48
 90
       50
102
RTVSPost2010PropOp48
 70
     1
102
RTVSPost2010Prop49
280
     0
102
RTVSPost2010PropOp49
 70
     1
102
RTVSPost2010Prop50
 90
       50
102
RTVSPost2010PropOp50
 70
     1
102
RTVSPost2010Prop51ColorIndex
 90
      256
102
RTVSPost2010Prop51ColorRGB
 90
-16777216
102
RTVSPost2010PropOp51
 70
     0
102
RTVSPost2010Prop52
140
1.0
102
RTVSPost2010PropOp52
 70
     0
102
RTVSPost2010Prop53
 90
        2
102
RTVSPost2010PropOp53
 70
     1
102
RTVSPost2010Prop54
  1
strokes_ogs.tif
102
RTVSPost2010PropOp54
 70
     1
102
RTVSPost2010Prop55
280
     0
102
RTVSPost2010PropOp55
 70
     1
102
RTVSPost2010Prop56
140
1.0
102
RTVSPost2010PropOp56
 70
     1
102
RTVSPost2010Prop57
140
1.0
102
RTVSPost2010PropOp57
 70
     1
102
RTVSPropertyOp0
 70
     1
102
RTVSPropertyOp1
 70
     1
102
RTVSPropertyOp2
 70
     1
102
RTVSPropertyOp3
 70
     1
102
RTVSPropertyOp4
 70
     1
102
RTVSPropertyOp5
 70
     1
102
RTVSPropertyOp6
 70
     1
102
RTVSPropertyOp7
 70
     1
102
RTVSPropertyOp8
 70
     1
102
RTVSPropertyOp9
 70
     1
102
RTVSPropertyOp10
 70
     1
102
RTVSPropertyOp11
 70
     1
102
RTVSPropertyOp12
 70
     1
102
RTVSPropertyOp13
 70
     1
102
RTVSPropertyOp14
 70
     1
102
RTVSPropertyOp15
 70
     1
102
RTVSPropertyOp16
 70
     1
102
RTVSPropertyOp17
 70
     1
102
RTVSPropertyOp18
 70
     1
102
RTVSPropertyOp19
 70
     1
102
RTVSPropertyOp20
 70
     1
102
RTVSPropertyOp21
 70
     1
102
RTVSPropertyOp22
 70
     1
102
RTVSPropertyOp23
 70
     1
102
RTVSPropertyOp24
 70
     1
102
RTVSPropertyOp25
 70
     1
102
RTVSPropertyOp26
 70
     1
102
RTVSPropertyOp27
 70
     1
102
RTVSPropertyOp28
 70
     1
102
RTVSPropertyOp29
 70
     1
102
RTVSPropertyOp30
 70
     1
102
RTVSPropertyOp31
 70
     1
102
RTVSPropertyOp32
 70
     1
102
RTVSPropertyOp33
 70
     1
102
RTVSPropertyOp34
 70
     1
102
RTVSPropertyOp35
 70
     1
102
RTVSPropertyOp36
 70
     1
102
RTVSPropertyOp37
 70
     1
102
RTVSPropertyOp38
 70
     1
102
RTVSPropertyOp39
 70
     1
102
RTVSPropertyOp40
 70
     1
102
RTVSPropertyOp41
 70
     1
102
RTVSPropertyOp42
 70
     1
102
RTVSPropertyOp43
 70
     1
102
RTVSPropertyOp44
 70
     1
102
RTVSPropertyOp45
 70
     1
102
RTVSPropertyOp46
 70
     1
102
RTVSPropertyOp47
 70
     1
102
RTVSPropertyOp48
 70
     1
102
RTVSPropertyOp49
 70
     1
102
RTVSPropertyOp50
 70
     1
102
RTVSPropertyOp51
 70
     0
102
RTVSPropertyOp52
 70
     0
102
RTVSPropertyOp53
 70
     1
102
RTVSPropertyOp54
 70
     1
102
RTVSPropertyOp55
 70
     1
102
RTVSPropertyOp56
 70
     1
102
RTVSPropertyOp57
 70
     1
102
RTVSPropertyOp58
 70
     1
102
RTVSPropertyOp59
 70
     1
102
RTVSPropertyOp60
 70
     1
102
RTVSPropertyOp61
 70
     1
102
RTVSPropertyOp62
 70
     1
  0
XRECORD
  5
988A
102
{ACAD_REACTORS
330
9889
102
}
330
9889
100
AcDbXrecord
280
     1
102
RTVSPost2010Prop28
280
     0
102
RTVSPost2010PropOp28
 70
     1
102
RTVSPost2010Prop29
280
     1
102
RTVSPost2010PropOp29
 70
     1
102
RTVSPost2010Prop30
280
     1
102
RTVSPost2010PropOp30
 70
     1
102
RTVSPost2010Prop31
280
     0
102
RTVSPost2010PropOp31
 70
     1
102
RTVSPost2010Prop32
280
     0
102
RTVSPost2010PropOp32
 70
     1
102
RTVSPost2010Prop33
280
     0
102
RTVSPost2010PropOp33
 70
     1
102
RTVSPost2010Prop34
280
     0
102
RTVSPost2010PropOp34
 70
     1
102
RTVSPost2010Prop35
280
     0
102
RTVSPost2010PropOp35
 70
     1
102
RTVSPost2010Prop36
280
     0
102
RTVSPost2010PropOp36
 70
     1
102
RTVSPost2010Prop37
 90
       50
102
RTVSPost2010PropOp37
 70
     1
102
RTVSPost2010Prop38
140
0.0
102
RTVSPost2010PropOp38
 70
     1
102
RTVSPost2010Prop39
140
1.0
102
RTVSPost2010PropOp39
 70
     1
102
RTVSPost2010Prop40
 90
        0
102
RTVSPost2010PropOp40
 70
     1
102
RTVSPost2010Prop41ColorIndex
 90
       18
102
RTVSPost2010Prop41ColorRGB
 90
        0
102
RTVSPost2010PropOp41
 70
     1
102
RTVSPost2010Prop42
 90
       50
102
RTVSPost2010PropOp42
 70
     1
102
RTVSPost2010Prop43
 90
        3
102
RTVSPost2010PropOp43
 70
     1
102
RTVSPost2010Prop44ColorIndex
 90
        5
102
RTVSPost2010Prop44ColorRGB
 90
      255
102
RTVSPost2010PropOp44
 70
     1
102
RTVSPost2010Prop45
280
     0
102
RTVSPost2010PropOp45
 70
     1
102
RTVSPost2010Prop46
 90
       50
102
RTVSPost2010PropOp46
 70
     1
102
RTVSPost2010Prop47
 90
       50
102
RTVSPost2010PropOp47
 70
     1
102
RTVSPost2010Prop48
 90
       50
102
RTVSPost2010PropOp48
 70
     1
102
RTVSPost2010Prop49
280
     0
102
RTVSPost2010PropOp49
 70
     1
102
RTVSPost2010Prop50
 90
       50
102
RTVSPost2010PropOp50
 70
     1
102
RTVSPost2010Prop51ColorIndex
 90
      256
102
RTVSPost2010Prop51ColorRGB
 90
-16777216
102
RTVSPost2010PropOp51
 70
     0
102
RTVSPost2010Prop52
140
1.0
102
RTVSPost2010PropOp52
 70
     0
102
RTVSPost2010Prop53
 90
        2
102
RTVSPost2010PropOp53
 70
     1
102
RTVSPost2010Prop54
  1
strokes_ogs.tif
102
RTVSPost2010PropOp54
 70
     1
102
RTVSPost2010Prop55
280
     0
102
RTVSPost2010PropOp55
 70
     1
102
RTVSPost2010Prop56
140
1.0
102
RTVSPost2010PropOp56
 70
     1
102
RTVSPost2010Prop57
140
1.0
102
RTVSPost2010PropOp57
 70
     1
102
RTVSPropertyOp0
 70
     1
102
RTVSPropertyOp1
 70
     1
102
RTVSPropertyOp2
 70
     1
102
RTVSPropertyOp3
 70
     1
102
RTVSPropertyOp4
 70
     1
102
RTVSPropertyOp5
 70
     1
102
RTVSPropertyOp6
 70
     1
102
RTVSPropertyOp7
 70
     1
102
RTVSPropertyOp8
 70
     1
102
RTVSPropertyOp9
 70
     1
102
RTVSPropertyOp10
 70
     1
102
RTVSPropertyOp11
 70
     1
102
RTVSPropertyOp12
 70
     1
102
RTVSPropertyOp13
 70
     1
102
RTVSPropertyOp14
 70
     1
102
RTVSPropertyOp15
 70
     1
102
RTVSPropertyOp16
 70
     1
102
RTVSPropertyOp17
 70
     1
102
RTVSPropertyOp18
 70
     1
102
RTVSPropertyOp19
 70
     1
102
RTVSPropertyOp20
 70
     1
102
RTVSPropertyOp21
 70
     1
102
RTVSPropertyOp22
 70
     1
102
RTVSPropertyOp23
 70
     1
102
RTVSPropertyOp24
 70
     1
102
RTVSPropertyOp25
 70
     1
102
RTVSPropertyOp26
 70
     1
102
RTVSPropertyOp27
 70
     1
102
RTVSPropertyOp28
 70
     1
102
RTVSPropertyOp29
 70
     1
102
RTVSPropertyOp30
 70
     1
102
RTVSPropertyOp31
 70
     1
102
RTVSPropertyOp32
 70
     1
102
RTVSPropertyOp33
 70
     1
102
RTVSPropertyOp34
 70
     1
102
RTVSPropertyOp35
 70
     1
102
RTVSPropertyOp36
 70
     1
102
RTVSPropertyOp37
 70
     1
102
RTVSPropertyOp38
 70
     1
102
RTVSPropertyOp39
 70
     1
102
RTVSPropertyOp40
 70
     1
102
RTVSPropertyOp41
 70
     1
102
RTVSPropertyOp42
 70
     1
102
RTVSPropertyOp43
 70
     1
102
RTVSPropertyOp44
 70
     1
102
RTVSPropertyOp45
 70
     1
102
RTVSPropertyOp46
 70
     1
102
RTVSPropertyOp47
 70
     1
102
RTVSPropertyOp48
 70
     1
102
RTVSPropertyOp49
 70
     1
102
RTVSPropertyOp50
 70
     1
102
RTVSPropertyOp51
 70
     0
102
RTVSPropertyOp52
 70
     0
102
RTVSPropertyOp53
 70
     1
102
RTVSPropertyOp54
 70
     1
102
RTVSPropertyOp55
 70
     1
102
RTVSPropertyOp56
 70
     1
102
RTVSPropertyOp57
 70
     1
102
RTVSPropertyOp58
 70
     1
102
RTVSPropertyOp59
 70
     1
102
RTVSPropertyOp60
 70
     1
102
RTVSPropertyOp61
 70
     1
102
RTVSPropertyOp62
 70
     1
  0
XRECORD
  5
98A2
102
{ACAD_REACTORS
330
98A1
102
}
330
98A1
100
AcDbXrecord
280
     1
102
RTVSPost2010Prop28
280
     0
102
RTVSPost2010PropOp28
 70
     1
102
RTVSPost2010Prop29
280
     1
102
RTVSPost2010PropOp29
 70
     1
102
RTVSPost2010Prop30
280
     1
102
RTVSPost2010PropOp30
 70
     1
102
RTVSPost2010Prop31
280
     0
102
RTVSPost2010PropOp31
 70
     1
102
RTVSPost2010Prop32
280
     0
102
RTVSPost2010PropOp32
 70
     1
102
RTVSPost2010Prop33
280
     0
102
RTVSPost2010PropOp33
 70
     1
102
RTVSPost2010Prop34
280
     0
102
RTVSPost2010PropOp34
 70
     1
102
RTVSPost2010Prop35
280
     0
102
RTVSPost2010PropOp35
 70
     1
102
RTVSPost2010Prop36
280
     0
102
RTVSPost2010PropOp36
 70
     1
102
RTVSPost2010Prop37
 90
       50
102
RTVSPost2010PropOp37
 70
     1
102
RTVSPost2010Prop38
140
0.0
102
RTVSPost2010PropOp38
 70
     1
102
RTVSPost2010Prop39
140
1.0
102
RTVSPost2010PropOp39
 70
     1
102
RTVSPost2010Prop40
 90
        0
102
RTVSPost2010PropOp40
 70
     1
102
RTVSPost2010Prop41ColorIndex
 90
       18
102
RTVSPost2010Prop41ColorRGB
 90
        0
102
RTVSPost2010PropOp41
 70
     1
102
RTVSPost2010Prop42
 90
       50
102
RTVSPost2010PropOp42
 70
     1
102
RTVSPost2010Prop43
 90
        3
102
RTVSPost2010PropOp43
 70
     1
102
RTVSPost2010Prop44ColorIndex
 90
        5
102
RTVSPost2010Prop44ColorRGB
 90
      255
102
RTVSPost2010PropOp44
 70
     1
102
RTVSPost2010Prop45
280
     0
102
RTVSPost2010PropOp45
 70
     1
102
RTVSPost2010Prop46
 90
       50
102
RTVSPost2010PropOp46
 70
     1
102
RTVSPost2010Prop47
 90
       50
102
RTVSPost2010PropOp47
 70
     1
102
RTVSPost2010Prop48
 90
       50
102
RTVSPost2010PropOp48
 70
     1
102
RTVSPost2010Prop49
280
     0
102
RTVSPost2010PropOp49
 70
     1
102
RTVSPost2010Prop50
 90
       50
102
RTVSPost2010PropOp50
 70
     1
102
RTVSPost2010Prop51ColorIndex
 90
      256
102
RTVSPost2010Prop51ColorRGB
 90
-16777216
102
RTVSPost2010PropOp51
 70
     0
102
RTVSPost2010Prop52
140
1.0
102
RTVSPost2010PropOp52
 70
     0
102
RTVSPost2010Prop53
 90
        2
102
RTVSPost2010PropOp53
 70
     1
102
RTVSPost2010Prop54
  1
strokes_ogs.tif
102
RTVSPost2010PropOp54
 70
     1
102
RTVSPost2010Prop55
280
     0
102
RTVSPost2010PropOp55
 70
     1
102
RTVSPost2010Prop56
140
1.0
102
RTVSPost2010PropOp56
 70
     1
102
RTVSPost2010Prop57
140
1.0
102
RTVSPost2010PropOp57
 70
     1
102
RTVSPropertyOp0
 70
     1
102
RTVSPropertyOp1
 70
     1
102
RTVSPropertyOp2
 70
     1
102
RTVSPropertyOp3
 70
     1
102
RTVSPropertyOp4
 70
     1
102
RTVSPropertyOp5
 70
     1
102
RTVSPropertyOp6
 70
     1
102
RTVSPropertyOp7
 70
     1
102
RTVSPropertyOp8
 70
     1
102
RTVSPropertyOp9
 70
     1
102
RTVSPropertyOp10
 70
     1
102
RTVSPropertyOp11
 70
     1
102
RTVSPropertyOp12
 70
     1
102
RTVSPropertyOp13
 70
     1
102
RTVSPropertyOp14
 70
     1
102
RTVSPropertyOp15
 70
     1
102
RTVSPropertyOp16
 70
     1
102
RTVSPropertyOp17
 70
     1
102
RTVSPropertyOp18
 70
     1
102
RTVSPropertyOp19
 70
     1
102
RTVSPropertyOp20
 70
     1
102
RTVSPropertyOp21
 70
     1
102
RTVSPropertyOp22
 70
     1
102
RTVSPropertyOp23
 70
     1
102
RTVSPropertyOp24
 70
     1
102
RTVSPropertyOp25
 70
     1
102
RTVSPropertyOp26
 70
     1
102
RTVSPropertyOp27
 70
     1
102
RTVSPropertyOp28
 70
     1
102
RTVSPropertyOp29
 70
     1
102
RTVSPropertyOp30
 70
     1
102
RTVSPropertyOp31
 70
     1
102
RTVSPropertyOp32
 70
     1
102
RTVSPropertyOp33
 70
     1
102
RTVSPropertyOp34
 70
     1
102
RTVSPropertyOp35
 70
     1
102
RTVSPropertyOp36
 70
     1
102
RTVSPropertyOp37
 70
     1
102
RTVSPropertyOp38
 70
     1
102
RTVSPropertyOp39
 70
     1
102
RTVSPropertyOp40
 70
     1
102
RTVSPropertyOp41
 70
     1
102
RTVSPropertyOp42
 70
     1
102
RTVSPropertyOp43
 70
     1
102
RTVSPropertyOp44
 70
     1
102
RTVSPropertyOp45
 70
     1
102
RTVSPropertyOp46
 70
     1
102
RTVSPropertyOp47
 70
     1
102
RTVSPropertyOp48
 70
     1
102
RTVSPropertyOp49
 70
     1
102
RTVSPropertyOp50
 70
     1
102
RTVSPropertyOp51
 70
     0
102
RTVSPropertyOp52
 70
     0
102
RTVSPropertyOp53
 70
     1
102
RTVSPropertyOp54
 70
     1
102
RTVSPropertyOp55
 70
     1
102
RTVSPropertyOp56
 70
     1
102
RTVSPropertyOp57
 70
     1
102
RTVSPropertyOp58
 70
     1
102
RTVSPropertyOp59
 70
     1
102
RTVSPropertyOp60
 70
     1
102
RTVSPropertyOp61
 70
     1
102
RTVSPropertyOp62
 70
     1
  0
ENDSEC
  0
EOF
