  0
SECTION
  2
HEADER
  9
$ACADVER
  1
AC1015
  9
$ACADMAINTVER
 70
    20
  9
$DWGCODEPAGE
  3
ANSI_932
  9
$INSBASE
 10
0.0
 20
0.0
 30
0.0
  9
$EXTMIN
 10
10.0
 20
9.999999999999998
 30
0.0
  9
$EXTMAX
 10
636.9677339999998
 20
415.4279279999998
 30
0.0
  9
$LIMMIN
 10
0.0
 20
0.0
  9
$LIMMAX
 10
792.0
 20
546.0
  9
$ORTHOMODE
 70
     1
  9
$REGENMODE
 70
     1
  9
$FILLMODE
 70
     1
  9
$QTEXTMODE
 70
     0
  9
$MIRRTEXT
 70
     1
  9
$LTSCALE
 40
20.0
  9
$ATTMODE
 70
     1
  9
$TEXTSIZE
 40
5.0
  9
$TRACEWID
 40
1.0
  9
$TEXTSTYLE
  7
STANDARD
  9
$CLAYER
  8
0
  9
$CELTYPE
  6
BYLAYER
  9
$CECOLOR
 62
   256
  9
$CELTSCALE
 40
1.0
  9
$DISPSILH
 70
     0
  9
$DIMSCALE
 40
1.0
  9
$DIMASZ
 40
3.0
  9
$DIMEXO
 40
1.0
  9
$DIMDLI
 40
10.0
  9
$DIMRND
 40
0.0
  9
$DIMDLE
 40
0.0
  9
$DIMEXE
 40
1.0
  9
$DIMTP
 40
0.0
  9
$DIMTM
 40
0.0
  9
$DIMTXT
 40
3.2
  9
$DIMCEN
 40
0.0
  9
$DIMTSZ
 40
0.0
  9
$DIMTOL
 70
     0
  9
$DIMLIM
 70
     0
  9
$DIMTIH
 70
     0
  9
$DIMTOH
 70
     0
  9
$DIMSE1
 70
     0
  9
$DIMSE2
 70
     0
  9
$DIMTAD
 70
     3
  9
$DIMZIN
 70
     8
  9
$DIMBLK
  1

  9
$DIMASO
 70
     1
  9
$DIMSHO
 70
     1
  9
$DIMPOST
  1

  9
$DIMAPOST
  1

  9
$DIMALT
 70
     0
  9
$DIMALTD
 70
     2
  9
$DIMALTF
 40
25.4
  9
$DIMLFAC
 40
1.0
  9
$DIMTOFL
 70
     1
  9
$DIMTVP
 40
0.0
  9
$DIMTIX
 70
     0
  9
$DIMSOXD
 70
     0
  9
$DIMSAH
 70
     1
  9
$DIMBLK1
  1

  9
$DIMBLK2
  1

  9
$DIMSTYLE
  2
STANDARD
  9
$DIMCLRD
 70
     0
  9
$DIMCLRE
 70
     0
  9
$DIMCLRT
 70
     0
  9
$DIMTFAC
 40
1.0
  9
$DIMGAP
 40
1.0
  9
$DIMJUST
 70
     0
  9
$DIMSD1
 70
     0
  9
$DIMSD2
 70
     0
  9
$DIMTOLJ
 70
     1
  9
$DIMTZIN
 70
     0
  9
$DIMALTZ
 70
     0
  9
$DIMALTTZ
 70
     0
  9
$DIMUPT
 70
     0
  9
$DIMDEC
 70
     4
  9
$DIMTDEC
 70
     4
  9
$DIMALTU
 70
     2
  9
$DIMALTTD
 70
     2
  9
$DIMTXSTY
  7
STANDARD
  9
$DIMAUNIT
 70
     0
  9
$DIMADEC
 70
     0
  9
$DIMALTRND
 40
0.0
  9
$DIMAZIN
 70
     0
  9
$DIMDSEP
 70
    46
  9
$DIMATFIT
 70
     3
  9
$DIMFRAC
 70
     0
  9
$DIMLDRBLK
  1

  9
$DIMLUNIT
 70
     2
  9
$DIMLWD
 70
    -2
  9
$DIMLWE
 70
    -2
  9
$DIMTMOVE
 70
     0
  9
$LUNITS
 70
     2
  9
$LUPREC
 70
     4
  9
$SKETCHINC
 40
1.0
  9
$FILLETRAD
 40
2.5
  9
$AUNITS
 70
     0
  9
$AUPREC
 70
     2
  9
$MENU
  1
.
  9
$ELEVATION
 40
0.0
  9
$PELEVATION
 40
0.0
  9
$THICKNESS
 40
0.0
  9
$LIMCHECK
 70
     0
  9
$CHAMFERA
 40
10.0
  9
$CHAMFERB
 40
10.0
  9
$CHAMFERC
 40
0.0
  9
$CHAMFERD
 40
0.0
  9
$SKPOLY
 70
     0
  9
$TDCREATE
 40
2451074.442088541
  9
$TDUCREATE
 40
2451074.067088542
  9
$TDUPDATE
 40
2457192.601181412
  9
$TDUUPDATE
 40
2457192.226181412
  9
$TDINDWG
 40
0.0131999421
  9
$TDUSRTIMER
 40
0.0131994329
  9
$USRTIMER
 70
     1
  9
$ANGBASE
 50
0.0
  9
$ANGDIR
 70
     0
  9
$PDMODE
 70
     0
  9
$PDSIZE
 40
0.0
  9
$PLINEWID
 40
0.0
  9
$SPLFRAME
 70
     0
  9
$SPLINETYPE
 70
     6
  9
$SPLINESEGS
 70
     8
  9
$HANDSEED
  5
9ADD
  9
$SURFTAB1
 70
     6
  9
$SURFTAB2
 70
     6
  9
$SURFTYPE
 70
     6
  9
$SURFU
 70
     6
  9
$SURFV
 70
     6
  9
$UCSBASE
  2

  9
$UCSNAME
  2

  9
$UCSORG
 10
0.0
 20
0.0
 30
0.0
  9
$UCSXDIR
 10
1.0
 20
0.0
 30
0.0
  9
$UCSYDIR
 10
0.0
 20
1.0
 30
0.0
  9
$UCSORTHOREF
  2

  9
$UCSORTHOVIEW
 70
     0
  9
$UCSORGTOP
 10
0.0
 20
0.0
 30
0.0
  9
$UCSORGBOTTOM
 10
0.0
 20
0.0
 30
0.0
  9
$UCSORGLEFT
 10
0.0
 20
0.0
 30
0.0
  9
$UCSORGRIGHT
 10
0.0
 20
0.0
 30
0.0
  9
$UCSORGFRONT
 10
0.0
 20
0.0
 30
0.0
  9
$UCSORGBACK
 10
0.0
 20
0.0
 30
0.0
  9
$PUCSBASE
  2

  9
$PUCSNAME
  2

  9
$PUCSORG
 10
0.0
 20
0.0
 30
0.0
  9
$PUCSXDIR
 10
1.0
 20
0.0
 30
0.0
  9
$PUCSYDIR
 10
0.0
 20
1.0
 30
0.0
  9
$PUCSORTHOREF
  2

  9
$PUCSORTHOVIEW
 70
     0
  9
$PUCSORGTOP
 10
0.0
 20
0.0
 30
0.0
  9
$PUCSORGBOTTOM
 10
0.0
 20
0.0
 30
0.0
  9
$PUCSORGLEFT
 10
0.0
 20
0.0
 30
0.0
  9
$PUCSORGRIGHT
 10
0.0
 20
0.0
 30
0.0
  9
$PUCSORGFRONT
 10
0.0
 20
0.0
 30
0.0
  9
$PUCSORGBACK
 10
0.0
 20
0.0
 30
0.0
  9
$USERI1
 70
     0
  9
$USERI2
 70
     0
  9
$USERI3
 70
     0
  9
$USERI4
 70
     0
  9
$USERI5
 70
     0
  9
$USERR1
 40
0.0
  9
$USERR2
 40
0.0
  9
$USERR3
 40
0.0
  9
$USERR4
 40
0.0
  9
$USERR5
 40
0.0
  9
$WORLDVIEW
 70
     1
  9
$SHADEDGE
 70
     3
  9
$SHADEDIF
 70
    70
  9
$TILEMODE
 70
     1
  9
$MAXACTVP
 70
    16
  9
$PINSBASE
 10
0.0
 20
0.0
 30
0.0
  9
$PLIMCHECK
 70
     0
  9
$PEXTMIN
 10
1.000000000000000E+20
 20
1.000000000000000E+20
 30
1.000000000000000E+20
  9
$PEXTMAX
 10
-1.000000000000000E+20
 20
-1.000000000000000E+20
 30
-1.000000000000000E+20
  9
$PLIMMIN
 10
0.0
 20
0.0
  9
$PLIMMAX
 10
420.0
 20
297.0
  9
$UNITMODE
 70
     0
  9
$VISRETAIN
 70
     0
  9
$PLINEGEN
 70
     0
  9
$PSLTSCALE
 70
     0
  9
$TREEDEPTH
 70
  3020
  9
$CMLSTYLE
  2
STANDARD
  9
$CMLJUST
 70
     0
  9
$CMLSCALE
 40
1.0
  9
$PROXYGRAPHICS
 70
     1
  9
$MEASUREMENT
 70
     0
  9
$CELWEIGHT
370
    -1
  9
$ENDCAPS
280
     0
  9
$JOINSTYLE
280
     0
  9
$LWDISPLAY
290
     0
  9
$INSUNITS
 70
     0
  9
$HYPERLINKBASE
  1

  9
$STYLESHEET
  1

  9
$XEDIT
290
     1
  9
$CEPSNTYPE
380
     0
  9
$PSTYLEMODE
290
     1
  9
$FINGERPRINTGUID
  2
{6E2B10E9-E040-40C1-A056-F1AE617EE091}
  9
$VERSIONGUID
  2
{72B2E1AC-0D1A-40A8-A14A-6A52EE0EC0AF}
  9
$EXTNAMES
290
     1
  9
$PSVPSCALE
 40
0.0
  9
$OLESTARTUP
290
     0
  0
ENDSEC
  0
SECTION
  2
CLASSES
  0
CLASS
  1
ACDBDICTIONARYWDFLT
  2
AcDbDictionaryWithDefault
  3
ObjectDBX Classes
 90
        0
280
     0
281
     0
  0
CLASS
  1
ACDBPLACEHOLDER
  2
AcDbPlaceHolder
  3
ObjectDBX Classes
 90
        0
280
     0
281
     0
  0
CLASS
  1
LAYOUT
  2
AcDbLayout
  3
ObjectDBX Classes
 90
        0
280
     0
281
     0
  0
CLASS
  1
DICTIONARYVAR
  2
AcDbDictionaryVar
  3
ObjectDBX Classes
 90
        0
280
     0
281
     0
  0
CLASS
  1
MATERIAL
  2
AcDbMaterial
  3
ObjectDBX Classes
 90
     1153
280
     0
281
     0
  0
CLASS
  1
VISUALSTYLE
  2
AcDbVisualStyle
  3
ObjectDBX Classes
 90
     4095
280
     0
281
     0
  0
CLASS
  1
TABLESTYLE
  2
AcDbTableStyle
  3
ObjectDBX Classes
 90
     4095
280
     0
281
     0
  0
CLASS
  1
SCALE
  2
AcDbScale
  3
ObjectDBX Classes
 90
     1153
280
     0
281
     0
  0
CLASS
  1
MLEADERSTYLE
  2
AcDbMLeaderStyle
  3
ACDB_MLEADERSTYLE_CLASS
 90
     4095
280
     0
281
     0
  0
CLASS
  1
ACDBSECTIONVIEWSTYLE
  2
AcDbSectionViewStyle
  3
ObjectDBX Classes
 90
     1025
280
     0
281
     0
  0
CLASS
  1
ACDBDETAILVIEWSTYLE
  2
AcDbDetailViewStyle
  3
ObjectDBX Classes
 90
     1025
280
     0
281
     0
  0
CLASS
  1
CELLSTYLEMAP
  2
AcDbCellStyleMap
  3
ObjectDBX Classes
 90
     1152
280
     0
281
     0
  0
ENDSEC
  0
SECTION
  2
TABLES
  0
TABLE
  2
VPORT
  5
9840
330
0
100
AcDbSymbolTable
 70
     1
  0
VPORT
  5
9A26
330
9840
100
AcDbSymbolTableRecord
100
AcDbViewportTableRecord
  2
*ACTIVE
 70
     0
 10
0.0
 20
0.0
 11
1.0
 21
1.0
 12
446.2739057408604
 22
212.7230541795992
 13
0.0
 23
0.0
 14
10.0
 24
10.0
 15
10.0
 25
10.0
 16
0.0
 26
0.0
 36
1.0
 17
0.0
 27
0.0
 37
0.0
 40
410.0194197298981
 41
1.899603698811096
 42
50.0
 43
0.0
 44
0.0
 50
0.0
 51
0.0
 71
     0
 72
   100
 73
     1
 74
     0
 75
     0
 76
     0
 77
     0
 78
     0
281
     0
 65
     1
110
0.0
120
0.0
130
0.0
111
1.0
121
0.0
131
0.0
112
0.0
122
1.0
132
0.0
 79
     0
146
0.0
1001
ACAD_NAV_VCDISPLAY
1070
     3
  0
ENDTAB
  0
TABLE
  2
LTYPE
  5
983D
330
0
100
AcDbSymbolTable
 70
     4
  0
LTYPE
  5
984B
330
983D
100
AcDbSymbolTableRecord
100
AcDbLinetypeTableRecord
  2
BYBLOCK
 70
     0
  3

 72
    65
 73
     0
 40
0.0
  0
LTYPE
  5
984C
330
983D
100
AcDbSymbolTableRecord
100
AcDbLinetypeTableRecord
  2
BYLAYER
 70
     0
  3

 72
    65
 73
     0
 40
0.0
  0
LTYPE
  5
984D
330
983D
100
AcDbSymbolTableRecord
100
AcDbLinetypeTableRecord
  2
CONTINUOUS
 70
     0
  3
Solid line
 72
    65
 73
     0
 40
0.0
  0
LTYPE
  5
985B
330
983D
100
AcDbSymbolTableRecord
100
AcDbLinetypeTableRecord
  2
DASHED
 70
     0
  3
__ __ __ __ __ __ __ __ __ __ __ __ __ __ __ __
 72
    65
 73
     2
 40
0.75
 49
0.5
 74
     0
 49
-0.25
 74
     0
  0
LTYPE
  5
985C
330
983D
100
AcDbSymbolTableRecord
100
AcDbLinetypeTableRecord
  2
CENTER
 70
     0
  3
____ _ ____ _ ____ _ ____ _ ____ _ ____ _ ____ 
 72
    65
 73
     4
 40
2.0
 49
1.25
 74
     0
 49
-0.25
 74
     0
 49
0.25
 74
     0
 49
-0.25
 74
     0
  0
LTYPE
  5
985D
330
983D
100
AcDbSymbolTableRecord
100
AcDbLinetypeTableRecord
  2
PHANTOM
 70
     0
  3
______  __  __  ______  __  __  ______  __  __ 
 72
    65
 73
     6
 40
2.5
 49
1.25
 74
     0
 49
-0.25
 74
     0
 49
0.25
 74
     0
 49
-0.25
 74
     0
 49
0.25
 74
     0
 49
-0.25
 74
     0
  0
ENDTAB
  0
TABLE
  2
LAYER
  5
983A
330
0
100
AcDbSymbolTable
 70
     8
  0
LAYER
  5
9848
102
{ACAD_XDICTIONARY
360
9A81
102
}
330
983A
100
AcDbSymbolTableRecord
100
AcDbLayerTableRecord
  2
0
 70
     0
 62
     7
  6
CONTINUOUS
370
    -3
390
9A2F
  0
LAYER
  5
985E
102
{ACAD_XDICTIONARY
360
9A83
102
}
330
983A
100
AcDbSymbolTableRecord
100
AcDbLayerTableRecord
  2
4
 70
     0
 62
     1
  6
CENTER
370
    -3
390
9A2F
  0
LAYER
  5
985F
102
{ACAD_XDICTIONARY
360
9A85
102
}
330
983A
100
AcDbSymbolTableRecord
100
AcDbLayerTableRecord
  2
5
 70
     0
 62
     6
  6
PHANTOM
370
    -3
390
9A2F
  0
LAYER
  5
9860
102
{ACAD_XDICTIONARY
360
9A87
102
}
330
983A
100
AcDbSymbolTableRecord
100
AcDbLayerTableRecord
  2
1
 70
     0
 62
     7
  6
CONTINUOUS
370
    -3
390
9A2F
  0
LAYER
  5
9861
102
{ACAD_XDICTIONARY
360
9A89
102
}
330
983A
100
AcDbSymbolTableRecord
100
AcDbLayerTableRecord
  2
2
 70
     0
 62
     4
  6
CONTINUOUS
370
    -3
390
9A2F
  0
LAYER
  5
9862
102
{ACAD_XDICTIONARY
360
9A8B
102
}
330
983A
100
AcDbSymbolTableRecord
100
AcDbLayerTableRecord
  2
3
 70
     0
 62
     2
  6
DASHED
370
    -3
390
9A2F
  0
LAYER
  5
9863
102
{ACAD_XDICTIONARY
360
9A8D
102
}
330
983A
100
AcDbSymbolTableRecord
100
AcDbLayerTableRecord
  2
6
 70
     0
 62
     5
  6
CONTINUOUS
370
    -3
390
9A2F
  0
LAYER
  5
9864
102
{ACAD_XDICTIONARY
360
9A8F
102
}
330
983A
100
AcDbSymbolTableRecord
100
AcDbLayerTableRecord
  2
7
 70
     0
 62
     3
  6
CONTINUOUS
370
    -3
390
9A2F
  0
ENDTAB
  0
TABLE
  2
STYLE
  5
983B
330
0
100
AcDbSymbolTable
 70
     1
  0
STYLE
  5
9849
330
983B
100
AcDbSymbolTableRecord
100
AcDbTextStyleTableRecord
  2
STANDARD
 70
     0
 40
0.0
 41
1.0
 50
0.0
 71
     0
 42
5.0
  3
txt
  4

  0
ENDTAB
  0
TABLE
  2
VIEW
  5
983E
330
0
100
AcDbSymbolTable
 70
     0
  0
ENDTAB
  0
TABLE
  2
UCS
  5
983F
330
0
100
AcDbSymbolTable
 70
     0
  0
ENDTAB
  0
TABLE
  2
APPID
  5
9841
330
0
100
AcDbSymbolTable
 70
     3
  0
APPID
  5
984A
330
9841
100
AcDbSymbolTableRecord
100
AcDbRegAppTableRecord
  2
ACAD
 70
     0
  0
APPID
  5
9A9B
330
9841
100
AcDbSymbolTableRecord
100
AcDbRegAppTableRecord
  2
ACAD_NAV_VCDISPLAY
 70
     0
  0
APPID
  5
9AD4
330
9841
100
AcDbSymbolTableRecord
100
AcDbRegAppTableRecord
  2
ACAD_MLEADERVER
 70
     0
  0
ENDTAB
  0
TABLE
  2
DIMSTYLE
  5
9842
330
0
100
AcDbSymbolTable
 70
     1
100
AcDbDimStyleTable
 71
     0
  0
DIMSTYLE
105
9866
330
9842
100
AcDbSymbolTableRecord
100
AcDbDimStyleTableRecord
  2
STANDARD
 70
     0
 41
3.0
 42
1.0
 43
10.0
 44
1.0
 73
     0
 74
     0
 77
     3
 78
     8
140
3.2
141
0.0
147
1.0
172
     1
173
     1
284
     8
285
     8
286
     8
340
9849
  0
ENDTAB
  0
TABLE
  2
BLOCK_RECORD
  5
9839
330
0
100
AcDbSymbolTable
 70
     0
  0
BLOCK_RECORD
  5
9856
102
{ACAD_XDICTIONARY
360
9A29
102
}
330
9839
100
AcDbSymbolTableRecord
100
AcDbBlockTableRecord
  2
*MODEL_SPACE
340
9A7D
  0
BLOCK_RECORD
  5
9852
102
{ACAD_XDICTIONARY
360
9A27
102
}
330
9839
100
AcDbSymbolTableRecord
100
AcDbBlockTableRecord
  2
*PAPER_SPACE
340
9A7E
  0
ENDTAB
  0
ENDSEC
  0
SECTION
  2
BLOCKS
  0
BLOCK
  5
9857
330
9856
100
AcDbEntity
  8
0
100
AcDbBlockBegin
  2
*MODEL_SPACE
 70
     0
 10
0.0
 20
0.0
 30
0.0
  3
*MODEL_SPACE
  1

  0
ENDBLK
  5
9858
330
9856
100
AcDbEntity
  8
0
100
AcDbBlockEnd
  0
BLOCK
  5
9853
330
9852
100
AcDbEntity
 67
     1
  8
0
100
AcDbBlockBegin
  2
*PAPER_SPACE
 70
     0
 10
0.0
 20
0.0
 30
0.0
  3
*PAPER_SPACE
  1

  0
ENDBLK
  5
9854
330
9852
100
AcDbEntity
 67
     1
  8
0
100
AcDbBlockEnd
  0
ENDSEC
  0
SECTION
  2
ENTITIES
  0
TEXT
  5
986E
330
9856
100
AcDbEntity
  8
7
  6
Continuous
100
AcDbText
 10
10.0
 20
18.0
 30
0.0
 40
3.0
  1
TYPE No.TL-291
100
AcDbText
  0
TEXT
  5
986F
330
9856
100
AcDbEntity
  8
7
  6
Continuous
100
AcDbText
 10
10.0
 20
26.0
 30
0.0
 40
3.0
  1
CODE No.1864
100
AcDbText
  0
TEXT
  5
9870
330
9856
100
AcDbEntity
  8
1
  6
Continuous
100
AcDbText
 10
10.0
 20
10.0
 30
0.0
 40
1.399999999999999
  1
LAYER
100
AcDbText
  0
TEXT
  5
9871
330
9856
100
AcDbEntity
  8
1
  6
Continuous
100
AcDbText
 10
17.97951099999998
 20
10.04873699999998
 30
0.0
 40
1.399999999999999
  1
1
100
AcDbText
  0
TEXT
  5
9872
330
9856
100
AcDbEntity
  8
7
  6
Continuous
100
AcDbText
 10
29.97951099999999
 20
10.04873699999998
 30
0.0
 40
1.399999999999999
  1
7
100
AcDbText
  0
TEXT
  5
9873
330
9856
100
AcDbEntity
  8
4
  6
CENTER
100
AcDbText
 10
23.97951099999999
 20
10.04873699999998
 30
0.0
 40
1.399999999999999
  1
4
100
AcDbText
  0
TEXT
  5
9874
330
9856
100
AcDbEntity
  8
3
  6
DASHED
100
AcDbText
 10
21.979511
 20
10.04873699999998
 30
0.0
 40
1.399999999999999
  1
3
100
AcDbText
  0
TEXT
  5
9875
330
9856
100
AcDbEntity
  8
2
  6
Continuous
100
AcDbText
 10
19.97951099999999
 20
10.04873699999998
 30
0.0
 40
1.399999999999999
  1
2
100
AcDbText
  0
TEXT
  5
9876
330
9856
100
AcDbEntity
  8
6
  6
Continuous
100
AcDbText
 10
27.979511
 20
10.04873699999998
 30
0.0
 40
1.399999999999999
  1
6
100
AcDbText
  0
TEXT
  5
9877
330
9856
100
AcDbEntity
  8
5
  6
PHANTOM
100
AcDbText
 10
25.97951099999999
 20
10.04873699999998
 30
0.0
 40
1.399999999999999
  1
5
100
AcDbText
  0
LINE
  5
9878
330
9856
100
AcDbEntity
  8
1
  6
Continuous
100
AcDbLine
 10
160.7833779999999
 20
45.42794299999999
 30
0.0
 11
272.7833779999999
 21
45.42794299999999
 31
0.0
  0
LINE
  5
9879
330
9856
100
AcDbEntity
  8
1
  6
Continuous
100
AcDbLine
 10
160.7833779999999
 20
85.427943
 30
0.0
 11
272.7833779999999
 21
85.427943
 31
0.0
  0
LINE
  5
987A
330
9856
100
AcDbEntity
  8
1
  6
Continuous
100
AcDbLine
 10
157.7833779999999
 20
82.42794299999998
 30
0.0
 11
157.7833779999999
 21
48.427943
 31
0.0
  0
LINE
  5
987B
330
9856
100
AcDbEntity
  8
1
  6
Continuous
100
AcDbLine
 10
277.7833779999999
 20
80.427943
 30
0.0
 11
277.7833779999999
 21
50.427943
 31
0.0
  0
LINE
  5
987C
330
9856
100
AcDbEntity
  8
4
  6
CENTER
100
AcDbLine
 10
181.283378
 20
71.927943
 30
0.0
 11
181.283378
 21
58.92794300000001
 31
0.0
  0
LINE
  5
987D
330
9856
100
AcDbEntity
  8
1
  6
Continuous
100
AcDbLine
 10
158.7833779999999
 20
189.2360339999999
 30
0.0
 11
276.6756809999999
 21
189.2360339999999
 31
0.0
  0
LINE
  5
987E
330
9856
100
AcDbEntity
  8
1
  6
Continuous
100
AcDbLine
 10
277.7833779999999
 20
190.7360339999999
 30
0.0
 11
277.7833779999999
 21
192.236034
 31
0.0
  0
LINE
  5
987F
330
9856
100
AcDbEntity
  8
4
  6
CENTER
100
AcDbLine
 10
129.7833779999999
 20
65.427943
 30
0.0
 11
282.7833779999999
 21
65.427943
 31
0.0
  0
LINE
  5
9880
330
9856
100
AcDbEntity
  8
4
  6
CENTER
100
AcDbLine
 10
174.5333779999999
 20
79.427943
 30
0.0
 11
165.0333779999999
 21
79.427943
 31
0.0
  0
LINE
  5
9881
330
9856
100
AcDbEntity
  8
4
  6
CENTER
100
AcDbLine
 10
169.783378
 20
84.177943
 30
0.0
 11
169.783378
 21
74.677943
 31
0.0
  0
LINE
  5
9882
330
9856
100
AcDbEntity
  8
4
  6
CENTER
100
AcDbLine
 10
169.783378
 20
46.67794299999999
 30
0.0
 11
169.783378
 21
56.17794299999999
 31
0.0
  0
LINE
  5
9883
330
9856
100
AcDbEntity
  8
4
  6
CENTER
100
AcDbLine
 10
174.5333779999999
 20
51.427943
 30
0.0
 11
165.0333779999999
 21
51.427943
 31
0.0
  0
LINE
  5
9884
330
9856
100
AcDbEntity
  8
4
  6
CENTER
100
AcDbLine
 10
259.7833779999999
 20
84.177943
 30
0.0
 11
259.7833779999999
 21
74.677943
 31
0.0
  0
LINE
  5
9885
330
9856
100
AcDbEntity
  8
4
  6
CENTER
100
AcDbLine
 10
264.5333779999999
 20
79.427943
 30
0.0
 11
255.0333779999998
 21
79.427943
 31
0.0
  0
LINE
  5
9886
330
9856
100
AcDbEntity
  8
4
  6
CENTER
100
AcDbLine
 10
259.7833779999999
 20
46.67794299999999
 30
0.0
 11
259.7833779999999
 21
56.17794299999999
 31
0.0
  0
LINE
  5
9887
330
9856
100
AcDbEntity
  8
1
  6
Continuous
100
AcDbLine
 10
158.7833779999999
 20
58.92794300000001
 30
0.0
 11
276.7833779999999
 21
58.92794300000001
 31
0.0
  0
LINE
  5
9888
330
9856
100
AcDbEntity
  8
1
  6
Continuous
100
AcDbLine
 10
158.7833779999999
 20
71.927943
 30
0.0
 11
276.7833779999999
 21
71.927943
 31
0.0
  0
LINE
  5
9889
330
9856
100
AcDbEntity
  8
1
  6
Continuous
100
AcDbLine
 10
177.7833779999999
 20
71.927943
 30
0.0
 11
177.7833779999999
 21
68.99866
 31
0.0
  0
LINE
  5
988A
330
9856
100
AcDbEntity
  8
1
  6
Continuous
100
AcDbLine
 10
185.7833779999999
 20
71.927943
 30
0.0
 11
185.7833779999999
 21
70.677943
 31
0.0
  0
LINE
  5
988B
330
9856
100
AcDbEntity
  8
1
  6
Continuous
100
AcDbLine
 10
200.7833779999999
 20
71.927943
 30
0.0
 11
200.7833779999999
 21
70.677943
 31
0.0
  0
LINE
  5
988C
330
9856
100
AcDbEntity
  8
1
  6
Continuous
100
AcDbLine
 10
208.7833779999999
 20
71.927943
 30
0.0
 11
208.7833779999999
 21
58.92794300000001
 31
0.0
  0
LINE
  5
988D
330
9856
100
AcDbEntity
  8
1
  6
Continuous
100
AcDbLine
 10
187.283378
 20
61.677943
 30
0.0
 11
199.2833779999999
 21
61.677943
 31
0.0
  0
LINE
  5
988E
330
9856
100
AcDbEntity
  8
1
  6
Continuous
100
AcDbLine
 10
187.283378
 20
69.177943
 30
0.0
 11
199.2833779999999
 21
69.177943
 31
0.0
  0
LINE
  5
988F
330
9856
100
AcDbEntity
  8
1
  6
Continuous
100
AcDbLine
 10
200.7833779999999
 20
60.17794300000001
 30
0.0
 11
200.7833779999999
 21
58.92794300000001
 31
0.0
  0
LINE
  5
9890
330
9856
100
AcDbEntity
  8
1
  6
Continuous
100
AcDbLine
 10
185.7833779999999
 20
60.17794300000001
 30
0.0
 11
185.7833779999999
 21
58.92794300000001
 31
0.0
  0
LINE
  5
9891
330
9856
100
AcDbEntity
  8
1
  6
Continuous
100
AcDbLine
 10
18.94122199999999
 20
85.427943
 30
0.0
 11
21.941222
 21
85.427943
 31
0.0
  0
LINE
  5
9892
330
9856
100
AcDbEntity
  8
1
  6
Continuous
100
AcDbLine
 10
18.94122199999999
 20
45.42794299999999
 30
0.0
 11
21.941222
 21
45.42794299999999
 31
0.0
  0
LINE
  5
9893
330
9856
100
AcDbEntity
  8
4
  6
CENTER
100
AcDbLine
 10
15.198958
 20
65.427943
 30
0.0
 11
58.87009299999999
 21
65.427943
 31
0.0
  0
LINE
  5
9894
330
9856
100
AcDbEntity
  8
1
  6
Continuous
100
AcDbLine
 10
20.44122199999999
 20
85.427943
 30
0.0
 11
20.44122199999999
 21
45.42794299999999
 31
0.0
  0
LINE
  5
9895
330
9856
100
AcDbEntity
  8
1
  6
Continuous
100
AcDbLine
 10
31.94122199999997
 20
69.92794299999999
 30
0.0
 11
31.94122199999997
 21
60.92794300000001
 31
0.0
  0
LINE
  5
9896
330
9856
100
AcDbEntity
  8
1
  6
Continuous
100
AcDbLine
 10
23.441222
 20
71.927943
 30
0.0
 11
29.94122199999999
 21
71.927943
 31
0.0
  0
LINE
  5
9897
330
9856
100
AcDbEntity
  8
1
  6
Continuous
100
AcDbLine
 10
23.441222
 20
58.92794300000001
 30
0.0
 11
29.94122199999999
 21
58.92794300000001
 31
0.0
  0
LINE
  5
9898
330
9856
100
AcDbEntity
  8
1
  6
Continuous
100
AcDbLine
 10
21.941222
 20
85.427943
 30
0.0
 11
21.941222
 21
73.427943
 31
0.0
  0
LINE
  5
9899
330
9856
100
AcDbEntity
  8
1
  6
Continuous
100
AcDbLine
 10
23.441222
 20
70.427943
 30
0.0
 11
29.94122199999999
 21
70.427943
 31
0.0
  0
LINE
  5
989A
330
9856
100
AcDbEntity
  8
1
  6
Continuous
100
AcDbLine
 10
23.441222
 20
60.427943
 30
0.0
 11
29.94122199999999
 21
60.427943
 31
0.0
  0
LINE
  5
989B
330
9856
100
AcDbEntity
  8
1
  6
Continuous
100
AcDbLine
 10
30.44122199999999
 20
69.92794299999999
 30
0.0
 11
30.44122199999999
 21
60.92794300000001
 31
0.0
  0
LINE
  5
989C
330
9856
100
AcDbEntity
  8
1
  6
Continuous
100
AcDbLine
 10
21.941222
 20
57.42794299999999
 30
0.0
 11
21.941222
 21
45.42794299999999
 31
0.0
  0
LINE
  5
989D
330
9856
100
AcDbEntity
  8
1
  6
Continuous
100
AcDbLine
 10
157.7833779999999
 20
192.236034
 30
0.0
 11
277.7833779999999
 21
192.236034
 31
0.0
  0
LINE
  5
989E
330
9856
100
AcDbEntity
  8
1
  6
Continuous
100
AcDbLine
 10
157.7833779999999
 20
179.2360339999999
 30
0.0
 11
157.7833779999999
 21
192.236034
 31
0.0
  0
LINE
  5
989F
330
9856
100
AcDbEntity
  8
1
  6
Continuous
100
AcDbLine
 10
157.7833779999999
 20
179.2360339999999
 30
0.0
 11
177.7833779999999
 21
179.2360339999999
 31
0.0
  0
LINE
  5
98A0
330
9856
100
AcDbEntity
  8
1
  6
Continuous
100
AcDbLine
 10
157.7833779999999
 20
190.7360339999999
 30
0.0
 11
277.7833779999999
 21
190.7360339999999
 31
0.0
  0
LINE
  5
98A1
330
9856
100
AcDbEntity
  8
1
  6
Continuous
100
AcDbLine
 10
185.7833779999999
 20
179.2360339999999
 30
0.0
 11
185.7833779999999
 21
189.2360339999999
 31
0.0
  0
LINE
  5
98A2
330
9856
100
AcDbEntity
  8
1
  6
Continuous
100
AcDbLine
 10
185.7833779999999
 20
179.2360339999999
 30
0.0
 11
200.7833779999999
 21
179.2360339999999
 31
0.0
  0
LINE
  5
98A3
330
9856
100
AcDbEntity
  8
1
  6
Continuous
100
AcDbLine
 10
200.7833779999999
 20
179.2360339999999
 30
0.0
 11
200.7833779999999
 21
189.2360339999999
 31
0.0
  0
LINE
  5
98A4
330
9856
100
AcDbEntity
  8
1
  6
Continuous
100
AcDbLine
 10
208.7833779999999
 20
179.2360339999999
 30
0.0
 11
208.7833779999999
 21
189.2360339999999
 31
0.0
  0
LINE
  5
98A5
330
9856
100
AcDbEntity
  8
1
  6
Continuous
100
AcDbLine
 10
208.7833779999999
 20
179.2360339999999
 30
0.0
 11
266.2833779999999
 21
179.2360339999999
 31
0.0
  0
LINE
  5
98A6
330
9856
100
AcDbEntity
  8
4
  6
CENTER
100
AcDbLine
 10
169.783378
 20
186.236034
 30
0.0
 11
169.783378
 21
194.236034
 31
0.0
  0
LINE
  5
98A7
330
9856
100
AcDbEntity
  8
4
  6
CENTER
100
AcDbLine
 10
259.7833779999999
 20
187.236034
 30
0.0
 11
259.7833779999999
 21
194.236034
 31
0.0
  0
LINE
  5
98A8
330
9856
100
AcDbEntity
  8
1
  6
Continuous
100
AcDbLine
 10
232.137442
 20
51.427943
 30
0.0
 11
233.077292
 21
51.427943
 31
0.0
  0
LINE
  5
98A9
330
9856
100
AcDbEntity
  8
1
  6
Continuous
100
AcDbLine
 10
225.4313569999999
 20
52.927943
 30
0.0
 11
227.793815
 21
52.927943
 31
0.0
  0
LINE
  5
98AA
330
9856
100
AcDbEntity
  8
1
  6
Continuous
100
AcDbLine
 10
226.6073829999999
 20
52.927943
 30
0.0
 11
226.6073829999999
 21
49.92794299999999
 31
0.0
  0
LINE
  5
98AB
330
9856
100
AcDbEntity
  8
1
  6
Continuous
100
AcDbLine
 10
228.6676239999999
 20
52.950374
 30
0.0
 11
228.6676239999999
 21
49.950374
 31
0.0
  0
LINE
  5
98AC
330
9856
100
AcDbEntity
  8
1
  6
Continuous
100
AcDbLine
 10
220.98989
 20
50.819171
 30
0.0
 11
222.6257239999999
 21
50.819171
 31
0.0
  0
LINE
  5
98AD
330
9856
100
AcDbEntity
  8
1
  6
Continuous
100
AcDbLine
 10
221.821387
 20
52.987712
 30
0.0
 11
222.9572969999999
 21
49.91702599999999
 31
0.0
  0
LINE
  5
98AE
330
9856
100
AcDbEntity
  8
1
  6
Continuous
100
AcDbLine
 10
209.544303
 20
51.48231
 30
0.0
 11
211.4898289999999
 21
51.48231
 31
0.0
  0
LINE
  5
98AF
330
9856
100
AcDbEntity
  8
1
  6
Continuous
100
AcDbLine
 10
201.283378
 20
52.927943
 30
0.0
 11
201.283378
 21
49.92794299999999
 31
0.0
  0
LINE
  5
98B0
330
9856
100
AcDbEntity
  8
1
  6
Continuous
100
AcDbLine
 10
200.0659549999999
 20
52.927943
 30
0.0
 11
202.5115879999999
 21
52.927943
 31
0.0
  0
LINE
  5
98B1
330
9856
100
AcDbEntity
  8
1
  6
Continuous
100
AcDbLine
 10
209.544303
 20
53.058391
 30
0.0
 11
209.544303
 21
49.90623
 31
0.0
  0
LINE
  5
98B2
330
9856
100
AcDbEntity
  8
1
  6
Continuous
100
AcDbLine
 10
215.0008
 20
51.33015
 30
0.0
 11
216.0551209999999
 21
51.33015
 31
0.0
  0
LINE
  5
98B3
330
9856
100
AcDbEntity
  8
1
  6
Continuous
100
AcDbLine
 10
211.4898289999999
 20
53.058391
 30
0.0
 11
211.4898289999999
 21
49.90623
 31
0.0
  0
LINE
  5
98B4
330
9856
100
AcDbEntity
  8
1
  6
Continuous
100
AcDbLine
 10
212.544303
 20
53.058391
 30
0.0
 11
212.544303
 21
49.90623
 31
0.0
  0
LINE
  5
98B5
330
9856
100
AcDbEntity
  8
1
  6
Continuous
100
AcDbLine
 10
221.8213569999999
 20
52.98231
 30
0.0
 11
220.6312019999999
 21
49.91703300000001
 31
0.0
  0
LINE
  5
98B6
330
9856
100
AcDbEntity
  8
1
  6
Continuous
100
AcDbLine
 10
219.0224979999999
 20
51.319217
 30
0.0
 11
219.0224979999999
 21
49.90623
 31
0.0
  0
LINE
  5
98B7
330
9856
100
AcDbEntity
  8
1
  6
Continuous
100
AcDbLine
 10
216.0551209999999
 20
50.883037
 30
0.0
 11
216.0551209999999
 21
49.92794299999999
 31
0.0
  0
LINE
  5
98B8
330
9856
100
AcDbEntity
  8
1
  6
Continuous
100
AcDbLine
 10
216.9246589999999
 20
53.058391
 30
0.0
 11
216.9246589999999
 21
49.90623
 31
0.0
  0
LINE
  5
98B9
330
9856
100
AcDbEntity
  8
1
  6
Continuous
100
AcDbLine
 10
219.022483
 20
51.31920199999999
 30
0.0
 11
220.0404419999999
 21
53.08224
 31
0.0
  0
LINE
  5
98BA
330
9856
100
AcDbEntity
  8
1
  6
Continuous
100
AcDbLine
 10
219.0224979999999
 20
51.324634
 30
0.0
 11
218.011969
 21
53.080348
 31
0.0
  0
LINE
  5
98BB
330
9856
100
AcDbEntity
  8
1
  6
Continuous
100
AcDbLine
 10
241.607383
 20
52.92997299999999
 30
0.0
 11
241.607383
 21
49.92794299999999
 31
0.0
  0
LINE
  5
98BC
330
9856
100
AcDbEntity
  8
1
  6
Continuous
100
AcDbLine
 10
241.607383
 20
52.92997299999999
 30
0.0
 11
241.276297
 21
52.609348
 31
0.0
  0
LINE
  5
98BD
330
9856
100
AcDbEntity
  8
1
  6
Continuous
100
AcDbLine
 10
234.289542
 20
49.92793599999998
 30
0.0
 11
235.8578399999999
 21
51.567622
 31
0.0
  0
LINE
  5
98BE
330
9856
100
AcDbEntity
  8
1
  6
Continuous
100
AcDbLine
 10
239.281852
 20
52.009639
 30
0.0
 11
239.281852
 21
50.845943
 31
0.0
  0
LINE
  5
98BF
330
9856
100
AcDbEntity
  8
1
  6
Continuous
100
AcDbLine
 10
234.289542
 20
49.92794299999999
 30
0.0
 11
236.0702729999999
 21
49.92794299999999
 31
0.0
  0
LINE
  5
98C0
330
9856
100
AcDbEntity
  8
1
  6
Continuous
100
AcDbLine
 10
228.6676239999999
 20
49.950374
 30
0.0
 11
230.54711
 21
49.950374
 31
0.0
  0
LINE
  5
98C1
330
9856
100
AcDbEntity
  8
4
  6
CENTER
100
AcDbLine
 10
129.7421329999999
 20
395.4279279999998
 30
0.0
 11
167.742133
 21
395.4279279999998
 31
0.0
  0
LINE
  5
98C2
330
9856
100
AcDbEntity
  8
1
  6
Continuous
100
AcDbLine
 10
139.742133
 20
415.4279279999998
 30
0.0
 11
159.7421329999999
 21
415.4279279999998
 31
0.0
  0
LINE
  5
98C3
330
9856
100
AcDbEntity
  8
1
  6
Continuous
100
AcDbLine
 10
139.742133
 20
375.4279279999999
 30
0.0
 11
159.7421329999999
 21
375.4279279999999
 31
0.0
  0
LINE
  5
98C4
330
9856
100
AcDbEntity
  8
1
  6
Continuous
100
AcDbLine
 10
134.7421329999999
 20
410.4279279999998
 30
0.0
 11
134.7421329999999
 21
380.4279279999999
 31
0.0
  0
LINE
  5
98C5
330
9856
100
AcDbEntity
  8
1
  6
Continuous
100
AcDbLine
 10
162.7421329999999
 20
412.4279279999998
 30
0.0
 11
162.7421329999999
 21
378.4279279999998
 31
0.0
  0
LINE
  5
98C6
330
9856
100
AcDbEntity
  8
4
  6
CENTER
100
AcDbLine
 10
155.7421329999999
 20
409.4279279999998
 30
0.0
 11
145.742133
 21
409.4279279999998
 31
0.0
  0
LINE
  5
98C7
330
9856
100
AcDbEntity
  8
4
  6
CENTER
100
AcDbLine
 10
150.7421329999999
 20
414.4279279999998
 30
0.0
 11
150.7421329999999
 21
404.4279279999998
 31
0.0
  0
LINE
  5
98C8
330
9856
100
AcDbEntity
  8
4
  6
CENTER
100
AcDbLine
 10
155.7421329999999
 20
381.4279279999998
 30
0.0
 11
145.742133
 21
381.4279279999998
 31
0.0
  0
LINE
  5
98C9
330
9856
100
AcDbEntity
  8
4
  6
CENTER
100
AcDbLine
 10
150.7421329999999
 20
376.4279279999998
 30
0.0
 11
150.7421329999999
 21
386.4279279999998
 31
0.0
  0
LINE
  5
98CA
330
9856
100
AcDbEntity
  8
1
  6
Continuous
100
AcDbLine
 10
135.7421329999999
 20
401.9279279999998
 30
0.0
 11
162.7421329999999
 21
401.9279279999998
 31
0.0
  0
LINE
  5
98CB
330
9856
100
AcDbEntity
  8
1
  6
Continuous
100
AcDbLine
 10
135.7421329999999
 20
388.9279279999998
 30
0.0
 11
162.7421329999999
 21
388.9279279999998
 31
0.0
  0
LINE
  5
98CC
330
9856
100
AcDbEntity
  8
1
  6
Continuous
100
AcDbLine
 10
245.7793799999997
 20
415.4279279999998
 30
0.0
 11
245.7793799999997
 21
375.4279279999999
 31
0.0
  0
LINE
  5
98CD
330
9856
100
AcDbEntity
  8
1
  6
Continuous
100
AcDbLine
 10
234.2793799999999
 20
399.9279279999998
 30
0.0
 11
234.2793799999999
 21
390.9279279999998
 31
0.0
  0
LINE
  5
98CE
330
9856
100
AcDbEntity
  8
1
  6
Continuous
100
AcDbLine
 10
244.27938
 20
415.4279279999998
 30
0.0
 11
247.2793799999998
 21
415.4279279999998
 31
0.0
  0
LINE
  5
98CF
330
9856
100
AcDbEntity
  8
1
  6
Continuous
100
AcDbLine
 10
244.27938
 20
375.4279279999999
 30
0.0
 11
247.2793799999998
 21
375.4279279999999
 31
0.0
  0
LINE
  5
98D0
330
9856
100
AcDbEntity
  8
4
  6
CENTER
100
AcDbLine
 10
229.2793799999997
 20
395.4279279999998
 30
0.0
 11
252.2793799999998
 21
395.4279279999998
 31
0.0
  0
LINE
  5
98D1
330
9856
100
AcDbEntity
  8
1
  6
Continuous
100
AcDbLine
 10
235.7793799999999
 20
399.9279279999998
 30
0.0
 11
235.7793799999999
 21
390.9279279999998
 31
0.0
  0
LINE
  5
98D2
330
9856
100
AcDbEntity
  8
1
  6
Continuous
100
AcDbLine
 10
236.2793799999999
 20
401.9279279999998
 30
0.0
 11
242.7793799999999
 21
401.9279279999998
 31
0.0
  0
LINE
  5
98D3
330
9856
100
AcDbEntity
  8
1
  6
Continuous
100
AcDbLine
 10
236.2793799999999
 20
388.9279279999998
 30
0.0
 11
242.7793799999999
 21
388.9279279999998
 31
0.0
  0
LINE
  5
98D4
330
9856
100
AcDbEntity
  8
1
  6
Continuous
100
AcDbLine
 10
236.2793799999999
 20
400.4279279999998
 30
0.0
 11
242.7793799999999
 21
400.4279279999998
 31
0.0
  0
LINE
  5
98D5
330
9856
100
AcDbEntity
  8
1
  6
Continuous
100
AcDbLine
 10
236.2793799999999
 20
390.4279279999999
 30
0.0
 11
242.7793799999999
 21
390.4279279999999
 31
0.0
  0
LINE
  5
98D6
330
9856
100
AcDbEntity
  8
1
  6
Continuous
100
AcDbLine
 10
244.27938
 20
387.4279279999998
 30
0.0
 11
244.27938
 21
375.4279279999999
 31
0.0
  0
LINE
  5
98D7
330
9856
100
AcDbEntity
  8
1
  6
Continuous
100
AcDbLine
 10
244.27938
 20
415.4279279999998
 30
0.0
 11
244.27938
 21
403.4279279999998
 31
0.0
  0
LINE
  5
98D8
330
9856
100
AcDbEntity
  8
1
  6
Continuous
100
AcDbLine
 10
162.7421329999999
 20
307.6198529999999
 30
0.0
 11
162.7421329999999
 21
294.6198529999999
 31
0.0
  0
LINE
  5
98D9
330
9856
100
AcDbEntity
  8
1
  6
Continuous
100
AcDbLine
 10
134.7421329999999
 20
296.1198529999998
 30
0.0
 11
162.7421329999999
 21
296.1198529999998
 31
0.0
  0
LINE
  5
98DA
330
9856
100
AcDbEntity
  8
1
  6
Continuous
100
AcDbLine
 10
146.2421329999999
 20
307.6198529999999
 30
0.0
 11
162.7421329999999
 21
307.6198529999999
 31
0.0
  0
LINE
  5
98DB
330
9856
100
AcDbEntity
  8
1
  6
Continuous
100
AcDbLine
 10
135.7421329999999
 20
297.6198529999999
 30
0.0
 11
162.7421329999999
 21
297.6198529999999
 31
0.0
  0
LINE
  5
98DC
330
9856
100
AcDbEntity
  8
1
  6
Continuous
100
AcDbLine
 10
134.7421329999999
 20
296.1198529999998
 30
0.0
 11
134.7421329999999
 21
294.6198529999999
 31
0.0
  0
LINE
  5
98DD
330
9856
100
AcDbEntity
  8
1
  6
Continuous
100
AcDbLine
 10
134.7421329999999
 20
294.6198529999999
 30
0.0
 11
162.7421329999999
 21
294.6198529999999
 31
0.0
  0
LINE
  5
98DE
330
9856
100
AcDbEntity
  8
4
  6
CENTER
100
AcDbLine
 10
150.7421329999999
 20
299.619853
 30
0.0
 11
150.7421329999999
 21
292.6198529999999
 31
0.0
  0
LINE
  5
98DF
330
9856
100
AcDbEntity
  8
4
  6
CENTER
100
AcDbLine
 10
181.283378
 20
152.2360339999998
 30
0.0
 11
181.283378
 21
195.907176
 31
0.0
  0
LINE
  5
98E0
330
9856
100
AcDbEntity
  8
1
  6
Continuous
100
AcDbLine
 10
176.783378
 20
157.2360339999999
 30
0.0
 11
185.7833779999999
 21
157.2360339999999
 31
0.0
  0
LINE
  5
98E1
330
9856
100
AcDbEntity
  8
1
  6
Continuous
100
AcDbLine
 10
177.283378
 20
165.2360339999999
 30
0.0
 11
185.283378
 21
165.2360339999999
 31
0.0
  0
LINE
  5
98E2
330
9856
100
AcDbEntity
  8
1
  6
Continuous
100
AcDbLine
 10
176.283378
 20
157.736034
 30
0.0
 11
176.283378
 21
164.2360339999999
 31
0.0
  0
LINE
  5
98E3
330
9856
100
AcDbEntity
  8
1
  6
Continuous
100
AcDbLine
 10
186.283378
 20
157.736034
 30
0.0
 11
186.283378
 21
164.2360339999999
 31
0.0
  0
LINE
  5
98E4
330
9856
100
AcDbEntity
  8
1
  6
Continuous
100
AcDbLine
 10
176.283378
 20
157.736034
 30
0.0
 11
176.783378
 21
157.236049
 31
0.0
  0
LINE
  5
98E5
330
9856
100
AcDbEntity
  8
1
  6
Continuous
100
AcDbLine
 10
185.7833779999999
 20
157.2360339999999
 30
0.0
 11
186.2833929999999
 21
157.736049
 31
0.0
  0
LINE
  5
98E6
330
9856
100
AcDbEntity
  8
1
  6
Continuous
100
AcDbLine
 10
176.283378
 20
157.736034
 30
0.0
 11
186.283378
 21
157.736034
 31
0.0
  0
LINE
  5
98E7
330
9856
100
AcDbEntity
  8
1
  6
Continuous
100
AcDbLine
 10
176.283393
 20
164.2360339999999
 30
0.0
 11
177.283393
 21
165.2360339999999
 31
0.0
  0
LINE
  5
98E8
330
9856
100
AcDbEntity
  8
1
  6
Continuous
100
AcDbLine
 10
185.2833929999999
 20
165.236049
 30
0.0
 11
186.2833929999999
 21
164.236049
 31
0.0
  0
LINE
  5
98E9
330
9856
100
AcDbEntity
  8
1
  6
Continuous
100
AcDbLine
 10
176.283378
 20
164.2360339999999
 30
0.0
 11
186.283378
 21
164.2360339999999
 31
0.0
  0
LINE
  5
98EA
330
9856
100
AcDbEntity
  8
1
  6
Continuous
100
AcDbLine
 10
184.783378
 20
165.2360339999999
 30
0.0
 11
184.783378
 21
181.736034
 31
0.0
  0
LINE
  5
98EB
330
9856
100
AcDbEntity
  8
1
  6
Continuous
100
AcDbLine
 10
177.7833779999999
 20
165.2360339999999
 30
0.0
 11
177.7833779999999
 21
189.2360339999999
 31
0.0
  0
LINE
  5
98EC
330
9856
100
AcDbEntity
  8
1
  6
Continuous
100
AcDbLine
 10
135.283378
 20
182.736034
 30
0.0
 11
135.283378
 21
188.7360339999999
 31
0.0
  0
LINE
  5
98ED
330
9856
100
AcDbEntity
  8
4
  6
CENTER
100
AcDbLine
 10
130.283378
 20
185.7360339999999
 30
0.0
 11
213.7833779999999
 21
185.7360339999999
 31
0.0
  0
LINE
  5
98EE
330
9856
100
AcDbEntity
  8
1
  6
Continuous
100
AcDbLine
 10
140.2833779999999
 20
181.2360339999999
 30
0.0
 11
157.7833779999999
 21
181.2360339999999
 31
0.0
  0
LINE
  5
98EF
330
9856
100
AcDbEntity
  8
1
  6
Continuous
100
AcDbLine
 10
140.2833779999999
 20
181.2360339999999
 30
0.0
 11
140.2833779999999
 21
190.2360339999999
 31
0.0
  0
LINE
  5
98F0
330
9856
100
AcDbEntity
  8
1
  6
Continuous
100
AcDbLine
 10
140.2833779999999
 20
181.2360339999999
 30
0.0
 11
135.283378
 21
182.736034
 31
0.0
  0
LINE
  5
98F1
330
9856
100
AcDbEntity
  8
1
  6
Continuous
100
AcDbLine
 10
135.283378
 20
188.736049
 30
0.0
 11
140.2833779999999
 21
190.236049
 31
0.0
  0
LINE
  5
98F2
330
9856
100
AcDbEntity
  8
1
  6
Continuous
100
AcDbLine
 10
135.2833929999997
 20
62.42793599999998
 30
0.0
 11
140.2833929999999
 21
60.927936
 31
0.0
  0
LINE
  5
98F3
330
9856
100
AcDbEntity
  8
1
  6
Continuous
100
AcDbLine
 10
140.2833779999999
 20
69.92794299999999
 30
0.0
 11
135.283378
 21
68.427943
 31
0.0
  0
LINE
  5
98F4
330
9856
100
AcDbEntity
  8
1
  6
Continuous
100
AcDbLine
 10
140.2833779999999
 20
69.92794299999999
 30
0.0
 11
140.2833779999999
 21
60.92794300000001
 31
0.0
  0
LINE
  5
98F5
330
9856
100
AcDbEntity
  8
1
  6
Continuous
100
AcDbLine
 10
135.283378
 20
68.427943
 30
0.0
 11
135.283378
 21
62.42794299999999
 31
0.0
  0
LINE
  5
98F6
330
9856
100
AcDbEntity
  8
1
  6
Continuous
100
AcDbLine
 10
140.2833779999999
 20
60.92794300000001
 30
0.0
 11
157.7833779999999
 21
60.92794300000001
 31
0.0
  0
LINE
  5
98F7
330
9856
100
AcDbEntity
  8
1
  6
Continuous
100
AcDbLine
 10
140.2833779999999
 20
69.92794299999999
 30
0.0
 11
157.7833779999999
 21
69.92794299999999
 31
0.0
  0
LINE
  5
98F8
330
9856
100
AcDbEntity
  8
1
  6
Continuous
100
AcDbLine
 10
247.2793799999998
 20
415.4279279999998
 30
0.0
 11
247.2793799999998
 21
375.4279279999999
 31
0.0
  0
LINE
  5
98F9
330
9856
100
AcDbEntity
  8
1
  6
Continuous
100
AcDbLine
 10
18.94122199999999
 20
85.427943
 30
0.0
 11
18.94122199999999
 21
45.42794299999999
 31
0.0
  0
LINE
  5
98FA
330
9856
100
AcDbEntity
  8
1
  6
Continuous
100
AcDbLine
 10
57.20486300000001
 20
387.4279279999998
 30
0.0
 11
57.20486300000001
 21
375.4279279999999
 31
0.0
  0
LINE
  5
98FB
330
9856
100
AcDbEntity
  8
1
  6
Continuous
100
AcDbLine
 10
57.20486300000001
 20
415.4279279999998
 30
0.0
 11
57.20486300000001
 21
403.4279279999998
 31
0.0
  0
LINE
  5
98FC
330
9856
100
AcDbEntity
  8
1
  6
Continuous
100
AcDbLine
 10
67.20486300000001
 20
399.9279279999998
 30
0.0
 11
67.20486300000001
 21
390.9279279999998
 31
0.0
  0
LINE
  5
98FD
330
9856
100
AcDbEntity
  8
1
  6
Continuous
100
AcDbLine
 10
57.20486300000001
 20
415.4279279999998
 30
0.0
 11
54.204863
 21
415.4279279999998
 31
0.0
  0
LINE
  5
98FE
330
9856
100
AcDbEntity
  8
1
  6
Continuous
100
AcDbLine
 10
57.20486300000001
 20
375.4279279999999
 30
0.0
 11
54.204863
 21
375.4279279999999
 31
0.0
  0
LINE
  5
98FF
330
9856
100
AcDbEntity
  8
4
  6
CENTER
100
AcDbLine
 10
72.20486300000001
 20
395.4279279999998
 30
0.0
 11
49.204863
 21
395.4279279999998
 31
0.0
  0
LINE
  5
9900
330
9856
100
AcDbEntity
  8
1
  6
Continuous
100
AcDbLine
 10
65.204863
 20
401.9279279999998
 30
0.0
 11
58.704863
 21
401.9279279999998
 31
0.0
  0
LINE
  5
9901
330
9856
100
AcDbEntity
  8
1
  6
Continuous
100
AcDbLine
 10
55.704863
 20
415.4279279999998
 30
0.0
 11
55.704863
 21
375.4279279999999
 31
0.0
  0
LINE
  5
9902
330
9856
100
AcDbEntity
  8
1
  6
Continuous
100
AcDbLine
 10
65.204863
 20
388.9279279999998
 30
0.0
 11
58.704863
 21
388.9279279999998
 31
0.0
  0
LINE
  5
9903
330
9856
100
AcDbEntity
  8
1
  6
Continuous
100
AcDbLine
 10
54.204863
 20
415.4279279999998
 30
0.0
 11
54.204863
 21
375.4279279999999
 31
0.0
  0
LINE
  5
9904
330
9856
100
AcDbEntity
  8
4
  6
CENTER
100
AcDbLine
 10
242.2793799999999
 20
409.4279279999998
 30
0.0
 11
249.2793799999998
 21
409.4279279999998
 31
0.0
  0
LINE
  5
9905
330
9856
100
AcDbEntity
  8
4
  6
CENTER
100
AcDbLine
 10
242.2793799999999
 20
381.4279279999998
 30
0.0
 11
249.2793799999998
 21
381.4279279999998
 31
0.0
  0
LINE
  5
9906
330
9856
100
AcDbEntity
  8
4
  6
CENTER
100
AcDbLine
 10
59.204863
 20
381.4279279999998
 30
0.0
 11
52.20486300000001
 21
381.4279279999998
 31
0.0
  0
LINE
  5
9907
330
9856
100
AcDbEntity
  8
4
  6
CENTER
100
AcDbLine
 10
59.204863
 20
409.4279279999998
 30
0.0
 11
52.20486300000001
 21
409.4279279999998
 31
0.0
  0
LINE
  5
9908
330
9856
100
AcDbEntity
  8
4
  6
CENTER
100
AcDbLine
 10
16.94122199999997
 20
51.427943
 30
0.0
 11
23.94122199999999
 21
51.427943
 31
0.0
  0
LINE
  5
9909
330
9856
100
AcDbEntity
  8
4
  6
CENTER
100
AcDbLine
 10
16.94122199999997
 20
79.427943
 30
0.0
 11
23.94122199999999
 21
79.427943
 31
0.0
  0
LINE
  5
990A
330
9856
100
AcDbEntity
  8
1
  6
Continuous
100
AcDbLine
 10
398.625541
 20
85.427943
 30
0.0
 11
398.625541
 21
45.42794299999999
 31
0.0
  0
LINE
  5
990B
330
9856
100
AcDbEntity
  8
1
  6
Continuous
100
AcDbLine
 10
395.625541
 20
85.427943
 30
0.0
 11
395.625541
 21
73.427943
 31
0.0
  0
LINE
  5
990C
330
9856
100
AcDbEntity
  8
1
  6
Continuous
100
AcDbLine
 10
394.125541
 20
58.92794300000001
 30
0.0
 11
387.625541
 21
58.92794300000001
 31
0.0
  0
LINE
  5
990D
330
9856
100
AcDbEntity
  8
1
  6
Continuous
100
AcDbLine
 10
394.125541
 20
71.927943
 30
0.0
 11
387.625541
 21
71.927943
 31
0.0
  0
LINE
  5
990E
330
9856
100
AcDbEntity
  8
1
  6
Continuous
100
AcDbLine
 10
385.625541
 20
69.92794299999999
 30
0.0
 11
385.625541
 21
60.92794300000001
 31
0.0
  0
LINE
  5
990F
330
9856
100
AcDbEntity
  8
1
  6
Continuous
100
AcDbLine
 10
397.1255409999998
 20
85.427943
 30
0.0
 11
397.1255409999998
 21
45.42794299999999
 31
0.0
  0
LINE
  5
9910
330
9856
100
AcDbEntity
  8
4
  6
CENTER
100
AcDbLine
 10
402.2966829999998
 20
65.427943
 30
0.0
 11
358.625541
 21
65.427943
 31
0.0
  0
LINE
  5
9911
330
9856
100
AcDbEntity
  8
1
  6
Continuous
100
AcDbLine
 10
398.625541
 20
45.42794299999999
 30
0.0
 11
395.625541
 21
45.42794299999999
 31
0.0
  0
LINE
  5
9912
330
9856
100
AcDbEntity
  8
1
  6
Continuous
100
AcDbLine
 10
398.625541
 20
85.427943
 30
0.0
 11
395.625541
 21
85.427943
 31
0.0
  0
LINE
  5
9913
330
9856
100
AcDbEntity
  8
1
  6
Continuous
100
AcDbLine
 10
395.625541
 20
57.42794299999999
 30
0.0
 11
395.625541
 21
45.42794299999999
 31
0.0
  0
LINE
  5
9914
330
9856
100
AcDbEntity
  8
4
  6
CENTER
100
AcDbLine
 10
400.6255409999998
 20
51.427943
 30
0.0
 11
393.625541
 21
51.427943
 31
0.0
  0
LINE
  5
9915
330
9856
100
AcDbEntity
  8
4
  6
CENTER
100
AcDbLine
 10
400.6255409999998
 20
79.427943
 30
0.0
 11
393.625541
 21
79.427943
 31
0.0
  0
LINE
  5
9916
330
9856
100
AcDbEntity
  8
4
  6
CENTER
100
AcDbLine
 10
264.5333779999999
 20
51.427943
 30
0.0
 11
255.0333779999998
 21
51.427943
 31
0.0
  0
LINE
  5
9917
330
9856
100
AcDbEntity
  8
1
  6
Continuous
100
AcDbLine
 10
200.5824189999999
 20
69.92794299999999
 30
0.0
 11
208.7833779999999
 21
69.92794299999999
 31
0.0
  0
LINE
  5
9918
330
9856
100
AcDbEntity
  8
1
  6
Continuous
100
AcDbLine
 10
200.5824189999999
 20
60.92794300000001
 30
0.0
 11
208.7833779999999
 21
60.92794300000001
 31
0.0
  0
LINE
  5
9919
330
9856
100
AcDbEntity
  8
4
  6
CENTER
100
AcDbLine
 10
325.816642
 20
381.4279279999998
 30
0.0
 11
335.8166419999997
 21
381.4279279999998
 31
0.0
  0
LINE
  5
991A
330
9856
100
AcDbEntity
  8
4
  6
CENTER
100
AcDbLine
 10
330.816642
 20
376.4279279999998
 30
0.0
 11
330.816642
 21
386.4279279999998
 31
0.0
  0
LINE
  5
991B
330
9856
100
AcDbEntity
  8
4
  6
CENTER
100
AcDbLine
 10
330.816642
 20
414.4279279999998
 30
0.0
 11
330.816642
 21
404.4279279999998
 31
0.0
  0
LINE
  5
991C
330
9856
100
AcDbEntity
  8
4
  6
CENTER
100
AcDbLine
 10
325.816642
 20
409.4279279999998
 30
0.0
 11
335.8166419999997
 21
409.4279279999998
 31
0.0
  0
LINE
  5
991D
330
9856
100
AcDbEntity
  8
1
  6
Continuous
100
AcDbLine
 10
341.8166419999999
 20
375.4279279999999
 30
0.0
 11
321.816642
 21
375.4279279999999
 31
0.0
  0
LINE
  5
991E
330
9856
100
AcDbEntity
  8
1
  6
Continuous
100
AcDbLine
 10
318.8166419999999
 20
412.4279279999998
 30
0.0
 11
318.8166419999999
 21
378.4279279999998
 31
0.0
  0
LINE
  5
991F
330
9856
100
AcDbEntity
  8
4
  6
CENTER
100
AcDbLine
 10
351.816642
 20
395.4279279999998
 30
0.0
 11
313.816642
 21
395.4279279999998
 31
0.0
  0
LINE
  5
9920
330
9856
100
AcDbEntity
  8
1
  6
Continuous
100
AcDbLine
 10
341.8166419999999
 20
415.4279279999998
 30
0.0
 11
321.816642
 21
415.4279279999998
 31
0.0
  0
LINE
  5
9921
330
9856
100
AcDbEntity
  8
1
  6
Continuous
100
AcDbLine
 10
346.816642
 20
410.4279279999998
 30
0.0
 11
346.816642
 21
380.4279279999999
 31
0.0
  0
LINE
  5
9922
330
9856
100
AcDbEntity
  8
4
  6
CENTER
100
AcDbLine
 10
636.9677339999998
 20
65.427943
 30
0.0
 11
484.467734
 21
65.427943
 31
0.0
  0
LINE
  5
9923
330
9856
100
AcDbEntity
  8
1
  6
Continuous
100
AcDbLine
 10
609.4677339999998
 20
82.42794299999998
 30
0.0
 11
609.4677339999998
 21
48.427943
 31
0.0
  0
LINE
  5
9924
330
9856
100
AcDbEntity
  8
1
  6
Continuous
100
AcDbLine
 10
489.467734
 20
80.427943
 30
0.0
 11
489.467734
 21
50.427943
 31
0.0
  0
LINE
  5
9925
330
9856
100
AcDbEntity
  8
1
  6
Continuous
100
AcDbLine
 10
606.4677339999998
 20
45.42794299999999
 30
0.0
 11
494.467734
 21
45.42794299999999
 31
0.0
  0
LINE
  5
9926
330
9856
100
AcDbEntity
  8
4
  6
CENTER
100
AcDbLine
 10
502.717734
 20
51.427943
 30
0.0
 11
512.2177339999998
 21
51.427943
 31
0.0
  0
LINE
  5
9927
330
9856
100
AcDbEntity
  8
1
  6
Continuous
100
AcDbLine
 10
606.4677339999998
 20
85.427943
 30
0.0
 11
494.467734
 21
85.427943
 31
0.0
  0
LINE
  5
9928
330
9856
100
AcDbEntity
  8
4
  6
CENTER
100
AcDbLine
 10
597.4677339999998
 20
84.177943
 30
0.0
 11
597.4677339999998
 21
74.677943
 31
0.0
  0
LINE
  5
9929
330
9856
100
AcDbEntity
  8
4
  6
CENTER
100
AcDbLine
 10
592.7177339999998
 20
79.427943
 30
0.0
 11
602.2177339999998
 21
79.427943
 31
0.0
  0
LINE
  5
992A
330
9856
100
AcDbEntity
  8
4
  6
CENTER
100
AcDbLine
 10
597.4677339999998
 20
46.67794299999999
 30
0.0
 11
597.4677339999998
 21
56.17794299999999
 31
0.0
  0
LINE
  5
992B
330
9856
100
AcDbEntity
  8
4
  6
CENTER
100
AcDbLine
 10
592.7177339999998
 20
51.427943
 30
0.0
 11
602.2177339999998
 21
51.427943
 31
0.0
  0
LINE
  5
992C
330
9856
100
AcDbEntity
  8
4
  6
CENTER
100
AcDbLine
 10
507.467734
 20
84.177943
 30
0.0
 11
507.467734
 21
74.677943
 31
0.0
  0
LINE
  5
992D
330
9856
100
AcDbEntity
  8
4
  6
CENTER
100
AcDbLine
 10
502.717734
 20
79.427943
 30
0.0
 11
512.2177339999998
 21
79.427943
 31
0.0
  0
LINE
  5
992E
330
9856
100
AcDbEntity
  8
4
  6
CENTER
100
AcDbLine
 10
507.467734
 20
46.67794299999999
 30
0.0
 11
507.467734
 21
56.17794299999999
 31
0.0
  0
LINE
  5
992F
330
9856
100
AcDbEntity
  8
1
  6
Continuous
100
AcDbLine
 10
626.9677339999998
 20
69.92794299999999
 30
0.0
 11
609.4677339999998
 21
69.92794299999999
 31
0.0
  0
LINE
  5
9930
330
9856
100
AcDbEntity
  8
1
  6
Continuous
100
AcDbLine
 10
626.9677339999998
 20
60.92794300000001
 30
0.0
 11
609.4677339999998
 21
60.92794300000001
 31
0.0
  0
LINE
  5
9931
330
9856
100
AcDbEntity
  8
1
  6
Continuous
100
AcDbLine
 10
631.9677339999998
 20
68.427943
 30
0.0
 11
631.9677339999998
 21
62.42794299999999
 31
0.0
  0
LINE
  5
9932
330
9856
100
AcDbEntity
  8
1
  6
Continuous
100
AcDbLine
 10
626.9677339999998
 20
69.92794299999999
 30
0.0
 11
626.9677339999998
 21
60.92794300000001
 31
0.0
  0
LINE
  5
9933
330
9856
100
AcDbEntity
  8
1
  6
Continuous
100
AcDbLine
 10
626.967673
 20
69.927936
 30
0.0
 11
631.967673
 21
68.427936
 31
0.0
  0
LINE
  5
9934
330
9856
100
AcDbEntity
  8
1
  6
Continuous
100
AcDbLine
 10
631.967673
 20
62.42794299999999
 30
0.0
 11
626.967673
 21
60.92794300000001
 31
0.0
  0
LINE
  5
9935
330
9856
100
AcDbEntity
  8
1
  6
Continuous
100
AcDbLine
 10
45.94122999999998
 20
61.42794300000001
 30
0.0
 11
46.94123
 21
60.427943
 31
0.0
  0
LINE
  5
9936
330
9856
100
AcDbEntity
  8
1
  6
Continuous
100
AcDbLine
 10
46.94122199999998
 20
70.427943
 30
0.0
 11
45.941222
 21
69.427943
 31
0.0
  0
LINE
  5
9937
330
9856
100
AcDbEntity
  8
1
  6
Continuous
100
AcDbLine
 10
45.941222
 20
68.927943
 30
0.0
 11
31.94122199999997
 21
68.927943
 31
0.0
  0
LINE
  5
9938
330
9856
100
AcDbEntity
  8
1
  6
Continuous
100
AcDbLine
 10
53.94123
 20
60.92794300000001
 30
0.0
 11
53.44122200000001
 21
60.427943
 31
0.0
  0
LINE
  5
9939
330
9856
100
AcDbEntity
  8
1
  6
Continuous
100
AcDbLine
 10
53.44122200000001
 20
70.427936
 30
0.0
 11
53.94122199999999
 21
69.927936
 31
0.0
  0
LINE
  5
993A
330
9856
100
AcDbEntity
  8
1
  6
Continuous
100
AcDbLine
 10
46.94122199999998
 20
70.427943
 30
0.0
 11
46.94122199999998
 21
60.427943
 31
0.0
  0
LINE
  5
993B
330
9856
100
AcDbEntity
  8
1
  6
Continuous
100
AcDbLine
 10
45.941222
 20
61.927943
 30
0.0
 11
31.94122199999997
 21
61.927943
 31
0.0
  0
LINE
  5
993C
330
9856
100
AcDbEntity
  8
1
  6
Continuous
100
AcDbLine
 10
53.44122200000001
 20
70.427943
 30
0.0
 11
53.44122200000001
 21
60.427943
 31
0.0
  0
LINE
  5
993D
330
9856
100
AcDbEntity
  8
1
  6
Continuous
100
AcDbLine
 10
53.44122200000001
 20
60.427943
 30
0.0
 11
46.94122199999998
 21
60.427943
 31
0.0
  0
LINE
  5
993E
330
9856
100
AcDbEntity
  8
1
  6
Continuous
100
AcDbLine
 10
53.94122199999999
 20
69.92794299999999
 30
0.0
 11
53.94122199999999
 21
60.92794300000001
 31
0.0
  0
LINE
  5
993F
330
9856
100
AcDbEntity
  8
1
  6
Continuous
100
AcDbLine
 10
45.941222
 20
69.427943
 30
0.0
 11
45.941222
 21
61.42794300000001
 31
0.0
  0
LINE
  5
9940
330
9856
100
AcDbEntity
  8
1
  6
Continuous
100
AcDbLine
 10
53.44122200000001
 20
70.427943
 30
0.0
 11
46.94122199999998
 21
70.427943
 31
0.0
  0
LINE
  5
9941
330
9856
100
AcDbEntity
  8
1
  6
Continuous
100
AcDbLine
 10
363.6255409999998
 20
60.92794300000001
 30
0.0
 11
364.1255409999998
 21
60.427951
 31
0.0
  0
LINE
  5
9942
330
9856
100
AcDbEntity
  8
1
  6
Continuous
100
AcDbLine
 10
371.625541
 20
68.927943
 30
0.0
 11
385.625541
 21
68.927943
 31
0.0
  0
LINE
  5
9943
330
9856
100
AcDbEntity
  8
1
  6
Continuous
100
AcDbLine
 10
370.625541
 20
70.427936
 30
0.0
 11
371.625541
 21
69.427936
 31
0.0
  0
LINE
  5
9944
330
9856
100
AcDbEntity
  8
1
  6
Continuous
100
AcDbLine
 10
371.6255709999999
 20
61.427951
 30
0.0
 11
370.6255709999999
 21
60.427951
 31
0.0
  0
LINE
  5
9945
330
9856
100
AcDbEntity
  8
1
  6
Continuous
100
AcDbLine
 10
371.625541
 20
61.927943
 30
0.0
 11
385.625541
 21
61.927943
 31
0.0
  0
LINE
  5
9946
330
9856
100
AcDbEntity
  8
1
  6
Continuous
100
AcDbLine
 10
364.1255409999998
 20
70.427943
 30
0.0
 11
364.1255409999998
 21
60.427943
 31
0.0
  0
LINE
  5
9947
330
9856
100
AcDbEntity
  8
1
  6
Continuous
100
AcDbLine
 10
371.625541
 20
69.427943
 30
0.0
 11
371.625541
 21
61.42794300000001
 31
0.0
  0
LINE
  5
9948
330
9856
100
AcDbEntity
  8
1
  6
Continuous
100
AcDbLine
 10
364.1255409999998
 20
70.427943
 30
0.0
 11
370.625541
 21
70.427943
 31
0.0
  0
LINE
  5
9949
330
9856
100
AcDbEntity
  8
1
  6
Continuous
100
AcDbLine
 10
363.6255409999998
 20
69.92794299999999
 30
0.0
 11
363.6255409999998
 21
60.92794300000001
 31
0.0
  0
LINE
  5
994A
330
9856
100
AcDbEntity
  8
1
  6
Continuous
100
AcDbLine
 10
364.1255409999998
 20
60.427943
 30
0.0
 11
370.625541
 21
60.427943
 31
0.0
  0
LINE
  5
994B
330
9856
100
AcDbEntity
  8
1
  6
Continuous
100
AcDbLine
 10
370.625541
 20
70.427943
 30
0.0
 11
370.625541
 21
60.427943
 31
0.0
  0
LINE
  5
994C
330
9856
100
AcDbEntity
  8
1
  6
Continuous
100
AcDbLine
 10
364.1255409999998
 20
70.42795100000002
 30
0.0
 11
363.6255409999998
 21
69.927936
 31
0.0
  0
LINE
  5
994D
330
9856
100
AcDbEntity
  8
5
  6
PHANTOM
100
AcDbLine
 10
208.283393
 20
165.236049
 30
0.0
 11
209.2833929999999
 21
164.236049
 31
0.0
  0
LINE
  5
994E
330
9856
100
AcDbEntity
  8
5
  6
PHANTOM
100
AcDbLine
 10
199.2833929999999
 20
164.2360339999999
 30
0.0
 11
200.2833929999999
 21
165.2360339999999
 31
0.0
  0
LINE
  5
994F
330
9856
100
AcDbEntity
  8
5
  6
PHANTOM
100
AcDbLine
 10
200.7833779999999
 20
165.2360339999999
 30
0.0
 11
200.7833779999999
 21
177.9071759999999
 31
0.0
  0
LINE
  5
9950
330
9856
100
AcDbEntity
  8
5
  6
PHANTOM
100
AcDbLine
 10
208.7833779999999
 20
157.2360339999999
 30
0.0
 11
209.2833929999999
 21
157.736049
 31
0.0
  0
LINE
  5
9951
330
9856
100
AcDbEntity
  8
5
  6
PHANTOM
100
AcDbLine
 10
199.2833929999999
 20
157.736049
 30
0.0
 11
199.7833929999999
 21
157.236049
 31
0.0
  0
LINE
  5
9952
330
9856
100
AcDbEntity
  8
5
  6
PHANTOM
100
AcDbLine
 10
199.2833779999999
 20
164.2360339999999
 30
0.0
 11
209.2833779999998
 21
164.2360339999999
 31
0.0
  0
LINE
  5
9953
330
9856
100
AcDbEntity
  8
5
  6
PHANTOM
100
AcDbLine
 10
207.783378
 20
165.2360339999999
 30
0.0
 11
207.783378
 21
180.407176
 31
0.0
  0
LINE
  5
9954
330
9856
100
AcDbEntity
  8
4
  6
CENTER
100
AcDbLine
 10
204.283378
 20
152.2360339999998
 30
0.0
 11
204.283378
 21
195.907176
 31
0.0
  0
LINE
  5
9955
330
9856
100
AcDbEntity
  8
5
  6
PHANTOM
100
AcDbLine
 10
199.2833779999999
 20
157.736034
 30
0.0
 11
209.2833779999998
 21
157.736034
 31
0.0
  0
LINE
  5
9956
330
9856
100
AcDbEntity
  8
5
  6
PHANTOM
100
AcDbLine
 10
209.2833779999998
 20
157.736034
 30
0.0
 11
209.2833779999998
 21
164.2360339999999
 31
0.0
  0
LINE
  5
9957
330
9856
100
AcDbEntity
  8
5
  6
PHANTOM
100
AcDbLine
 10
199.783378
 20
157.2360339999999
 30
0.0
 11
208.7833779999999
 21
157.2360339999999
 31
0.0
  0
LINE
  5
9958
330
9856
100
AcDbEntity
  8
5
  6
PHANTOM
100
AcDbLine
 10
200.283378
 20
165.2360339999999
 30
0.0
 11
208.283378
 21
165.2360339999999
 31
0.0
  0
LINE
  5
9959
330
9856
100
AcDbEntity
  8
5
  6
PHANTOM
100
AcDbLine
 10
199.2833779999999
 20
157.736034
 30
0.0
 11
199.2833779999999
 21
164.2360339999999
 31
0.0
  0
LINE
  5
995A
330
9856
100
AcDbEntity
  8
1
  6
Continuous
100
AcDbLine
 10
177.7833779999999
 20
69.92794299999999
 30
0.0
 11
179.103934
 21
69.92794299999999
 31
0.0
  0
LINE
  5
995B
330
9856
100
AcDbEntity
  8
1
  6
Continuous
100
AcDbLine
 10
177.7833779999999
 20
60.92794300000001
 30
0.0
 11
179.103934
 21
60.92794300000001
 31
0.0
  0
LINE
  5
995C
330
9856
100
AcDbEntity
  8
1
  6
Continuous
100
AcDbLine
 10
183.462836
 20
69.92794299999999
 30
0.0
 11
185.984351
 21
69.92794299999999
 31
0.0
  0
LINE
  5
995D
330
9856
100
AcDbEntity
  8
1
  6
Continuous
100
AcDbLine
 10
183.462836
 20
60.92794300000001
 30
0.0
 11
185.984351
 21
60.92794300000001
 31
0.0
  0
LINE
  5
995E
330
9856
100
AcDbEntity
  8
1
  6
Continuous
100
AcDbLine
 10
177.7833779999999
 20
61.857227
 30
0.0
 11
177.7833779999999
 21
58.92794300000001
 31
0.0
  0
LINE
  5
995F
330
9856
100
AcDbEntity
  8
1
  6
Continuous
100
AcDbLine
 10
200.7833779999999
 20
181.736034
 30
0.0
 11
208.7833779999999
 21
181.736034
 31
0.0
  0
LINE
  5
9960
330
9856
100
AcDbEntity
  8
1
  6
Continuous
100
AcDbLine
 10
491.9677339999998
 20
60.427943
 30
0.0
 11
491.9677339999998
 21
70.427943
 31
0.0
  0
LINE
  5
9961
330
9856
100
AcDbEntity
  8
1
  6
Continuous
100
AcDbLine
 10
492.967734
 20
59.427943
 30
0.0
 11
505.467734
 21
59.427943
 31
0.0
  0
LINE
  5
9962
330
9856
100
AcDbEntity
  8
1
  6
Continuous
100
AcDbLine
 10
492.967734
 20
71.427943
 30
0.0
 11
505.467734
 21
71.427943
 31
0.0
  0
LINE
  5
9963
330
9856
100
AcDbEntity
  8
1
  6
Continuous
100
AcDbLine
 10
499.9677339999998
 20
61.42794300000001
 30
0.0
 11
505.467734
 21
61.42794300000001
 31
0.0
  0
LINE
  5
9964
330
9856
100
AcDbEntity
  8
1
  6
Continuous
100
AcDbLine
 10
499.9677339999998
 20
69.427943
 30
0.0
 11
505.467734
 21
69.427943
 31
0.0
  0
LINE
  5
9965
330
9856
100
AcDbEntity
  8
1
  6
Continuous
100
AcDbLine
 10
499.9677339999998
 20
61.42794300000001
 30
0.0
 11
499.9677339999998
 21
69.427943
 31
0.0
  0
LINE
  5
9966
330
9856
100
AcDbEntity
  8
4
  6
CENTER
100
AcDbLine
 10
585.9677339999998
 20
70.52794200000002
 30
0.0
 11
585.9677339999998
 21
60.32794499999999
 31
0.0
  0
LINE
  5
9967
330
9856
100
AcDbEntity
  8
1
  6
Continuous
100
AcDbLine
 10
29.20797199999999
 20
67.88996400000001
 30
0.0
 11
29.80724999999999
 21
68.927943
 31
0.0
  0
LINE
  5
9968
330
9856
100
AcDbEntity
  8
1
  6
Continuous
100
AcDbLine
 10
29.20797199999999
 20
62.965915
 30
0.0
 11
29.807246
 21
61.927943
 31
0.0
  0
LINE
  5
9969
330
9856
100
AcDbEntity
  8
1
  6
Continuous
100
AcDbLine
 10
30.44122199999999
 20
68.927943
 30
0.0
 11
29.80724999999999
 21
68.927943
 31
0.0
  0
LINE
  5
996A
330
9856
100
AcDbEntity
  8
1
  6
Continuous
100
AcDbLine
 10
30.44122199999999
 20
61.927943
 30
0.0
 11
29.80724999999999
 21
61.927943
 31
0.0
  0
LINE
  5
996B
330
9856
100
AcDbEntity
  8
4
  6
CENTER
100
AcDbLine
 10
25.441222
 20
75.427943
 30
0.0
 11
25.441222
 21
55.427943
 31
0.0
  0
ARC
  5
996C
330
9856
100
AcDbEntity
  8
1
  6
Continuous
100
AcDbCircle
 10
272.7833779999999
 20
80.427943
 30
0.0
 40
5.0
100
AcDbArc
 50
0.0
 51
90.00000300000001
  0
ARC
  5
996D
330
9856
100
AcDbEntity
  8
1
  6
Continuous
100
AcDbCircle
 10
272.7833779999999
 20
50.427943
 30
0.0
 40
5.0
100
AcDbArc
 50
269.9999969999999
 51
0.0
  0
ARC
  5
996E
330
9856
100
AcDbEntity
  8
1
  6
Continuous
100
AcDbCircle
 10
160.7833779999999
 20
48.427943
 30
0.0
 40
3.0
100
AcDbArc
 50
179.9999909999999
 51
270.000001
  0
ARC
  5
996F
330
9856
100
AcDbEntity
  8
1
  6
Continuous
100
AcDbCircle
 10
160.7833779999999
 20
82.42794299999998
 30
0.0
 40
3.0
100
AcDbArc
 50
90.00000300000001
 51
180.000005
  0
CIRCLE
  5
9970
330
9856
100
AcDbEntity
  8
1
  6
Continuous
100
AcDbCircle
 10
169.783378
 20
79.427943
 30
0.0
 40
2.75
  0
CIRCLE
  5
9971
330
9856
100
AcDbEntity
  8
1
  6
Continuous
100
AcDbCircle
 10
169.783378
 20
51.427943
 30
0.0
 40
2.75
  0
CIRCLE
  5
9972
330
9856
100
AcDbEntity
  8
1
  6
Continuous
100
AcDbCircle
 10
259.7833779999999
 20
79.427943
 30
0.0
 40
2.75
  0
CIRCLE
  5
9973
330
9856
100
AcDbEntity
  8
1
  6
Continuous
100
AcDbCircle
 10
259.7833779999999
 20
51.427943
 30
0.0
 40
2.75
  0
ARC
  5
9974
330
9856
100
AcDbEntity
  8
1
  6
Continuous
100
AcDbCircle
 10
187.283378
 20
70.677943
 30
0.0
 40
1.5
100
AcDbArc
 50
179.9999909999999
 51
270.000001
  0
ARC
  5
9975
330
9856
100
AcDbEntity
  8
1
  6
Continuous
100
AcDbCircle
 10
199.2833779999999
 20
70.677943
 30
0.0
 40
1.5
100
AcDbArc
 50
269.9999969999999
 51
0.0
  0
ARC
  5
9976
330
9856
100
AcDbEntity
  8
1
  6
Continuous
100
AcDbCircle
 10
187.283378
 20
60.17794300000001
 30
0.0
 40
1.5
100
AcDbArc
 50
90.00000300000001
 51
180.000005
  0
ARC
  5
9977
330
9856
100
AcDbEntity
  8
1
  6
Continuous
100
AcDbCircle
 10
199.2833779999999
 20
60.17794300000001
 30
0.0
 40
1.5
100
AcDbArc
 50
0.0
 51
90.00000300000001
  0
ARC
  5
9978
330
9856
100
AcDbEntity
  8
1
  6
Continuous
100
AcDbCircle
 10
266.2833779999999
 20
190.7360339999999
 30
0.0
 40
11.5
100
AcDbArc
 50
269.9999969999999
 51
0.0
  0
ARC
  5
9979
330
9856
100
AcDbEntity
  8
1
  6
Continuous
100
AcDbCircle
 10
207.758155
 20
51.531985
 30
0.0
 40
1.601290999999998
100
AcDbArc
 50
138.9320989999999
 51
221.067897
  0
ARC
  5
997A
330
9856
100
AcDbEntity
  8
1
  6
Continuous
100
AcDbCircle
 10
207.416861
 20
51.234592
 30
0.0
 40
1.148608999999998
100
AcDbArc
 50
221.0679009999999
 51
289.1928019999999
  0
ARC
  5
997B
330
9856
100
AcDbEntity
  8
1
  6
Continuous
100
AcDbCircle
 10
207.416861
 20
51.829372
 30
0.0
 40
1.148608999999998
100
AcDbArc
 50
70.807198
 51
138.9320989999999
  0
ARC
  5
997C
330
9856
100
AcDbEntity
  8
1
  6
Continuous
100
AcDbCircle
 10
207.541434
 20
52.18720499999999
 30
0.0
 40
0.7697149999999999
100
AcDbArc
 50
5.659243
 51
70.807198
  0
ARC
  5
997D
330
9856
100
AcDbEntity
  8
1
  6
Continuous
100
AcDbCircle
 10
207.541434
 20
50.876758
 30
0.0
 40
0.7697149999999999
100
AcDbArc
 50
289.1928019999999
 51
354.3407569999998
  0
ARC
  5
997E
330
9856
100
AcDbEntity
  8
1
  6
Continuous
100
AcDbCircle
 10
215.114081
 20
52.13275499999999
 30
0.0
 40
0.7697149999999999
100
AcDbArc
 50
5.659243
 51
70.807198
  0
ARC
  5
997F
330
9856
100
AcDbEntity
  8
1
  6
Continuous
100
AcDbCircle
 10
214.989509
 20
51.774921
 30
0.0
 40
1.148608999999998
100
AcDbArc
 50
70.807198
 51
138.9320989999999
  0
ARC
  5
9980
330
9856
100
AcDbEntity
  8
1
  6
Continuous
100
AcDbCircle
 10
215.330802
 20
51.477527
 30
0.0
 40
1.601290999999998
100
AcDbArc
 50
138.9320989999999
 51
221.067897
  0
ARC
  5
9981
330
9856
100
AcDbEntity
  8
1
  6
Continuous
100
AcDbCircle
 10
214.989509
 20
51.18014099999999
 30
0.0
 40
1.148608999999998
100
AcDbArc
 50
221.0679009999999
 51
276.5913959999999
  0
ARC
  5
9982
330
9856
100
AcDbEntity
  8
1
  6
Continuous
100
AcDbCircle
 10
214.997382
 20
51.11197999999999
 30
0.0
 40
1.08
100
AcDbArc
 50
269.582188
 51
11.654105
  0
ARC
  5
9983
330
9856
100
AcDbEntity
  8
1
  6
Continuous
100
AcDbCircle
 10
204.6102059999999
 20
51.516078
 30
0.0
 40
1.601290999999998
100
AcDbArc
 50
138.9320989999999
 51
221.067897
  0
ARC
  5
9984
330
9856
100
AcDbEntity
  8
1
  6
Continuous
100
AcDbCircle
 10
203.927634
 20
51.516078
 30
0.0
 40
1.601290999999998
100
AcDbArc
 50
318.9321049999999
 51
41.067895
  0
ARC
  5
9985
330
9856
100
AcDbEntity
  8
1
  6
Continuous
100
AcDbCircle
 10
204.2689269999999
 20
51.21869199999999
 30
0.0
 40
1.148608999999998
100
AcDbArc
 50
221.0679009999999
 51
318.9321049999999
  0
ARC
  5
9986
330
9856
100
AcDbEntity
  8
1
  6
Continuous
100
AcDbCircle
 10
204.2689269999999
 20
51.813472
 30
0.0
 40
1.148608999999998
100
AcDbArc
 50
41.067895
 51
138.9320989999999
  0
ARC
  5
9987
330
9856
100
AcDbEntity
  8
1
  6
Continuous
100
AcDbCircle
 10
235.179923
 20
52.216006
 30
0.0
 40
0.9380650000000001
100
AcDbArc
 50
312.8696289999999
 51
316.275137
  0
ARC
  5
9988
330
9856
100
AcDbEntity
  8
1
  6
Continuous
100
AcDbCircle
 10
235.179923
 20
51.98987899999998
 30
0.0
 40
0.9380650000000001
100
AcDbArc
 50
47.130371
 51
132.869623
  0
ARC
  5
9989
330
9856
100
AcDbEntity
  8
1
  6
Continuous
100
AcDbCircle
 10
235.284873
 20
52.102946
 30
0.0
 40
0.7837950000000001
100
AcDbArc
 50
312.8696289999999
 51
47.130371
  0
ARC
  5
998A
330
9856
100
AcDbEntity
  8
1
  6
Continuous
100
AcDbCircle
 10
235.074942
 20
52.102946
 30
0.0
 40
0.7837950000000001
100
AcDbArc
 50
132.869623
 51
204.2768199999999
  0
ARC
  5
998B
330
9856
100
AcDbEntity
  8
1
  6
Continuous
100
AcDbCircle
 10
238.443869
 20
52.009639
 30
0.0
 40
0.939507
100
AcDbArc
 50
135.927499
 51
224.072497
  0
ARC
  5
998C
330
9856
100
AcDbEntity
  8
1
  6
Continuous
100
AcDbCircle
 10
238.3423379999999
 20
52.009639
 30
0.0
 40
0.939507
100
AcDbArc
 50
315.927497
 51
44.072503
  0
ARC
  5
998D
330
9856
100
AcDbEntity
  8
1
  6
Continuous
100
AcDbCircle
 10
238.3930879999998
 20
51.960498
 30
0.0
 40
0.86886
100
AcDbArc
 50
224.0725009999999
 51
315.927497
  0
ARC
  5
998E
330
9856
100
AcDbEntity
  8
1
  6
Continuous
100
AcDbCircle
 10
238.3930879999998
 20
52.05877199999999
 30
0.0
 40
0.86886
100
AcDbArc
 50
44.072503
 51
135.927499
  0
ARC
  5
998F
330
9856
100
AcDbEntity
  8
1
  6
Continuous
100
AcDbCircle
 10
238.443869
 20
50.845943
 30
0.0
 40
0.939507
100
AcDbArc
 50
199.3495519999999
 51
224.0725009999999
  0
ARC
  5
9990
330
9856
100
AcDbEntity
  8
1
  6
Continuous
100
AcDbCircle
 10
238.3423379999999
 20
50.845943
 30
0.0
 40
0.939507
100
AcDbArc
 50
315.927497
 51
0.0
  0
ARC
  5
9991
330
9856
100
AcDbEntity
  8
1
  6
Continuous
100
AcDbCircle
 10
238.3930879999998
 20
50.796802
 30
0.0
 40
0.86886
100
AcDbArc
 50
224.0725009999999
 51
315.927497
  0
ARC
  5
9992
330
9856
100
AcDbEntity
  8
1
  6
Continuous
100
AcDbCircle
 10
139.742133
 20
410.4279279999998
 30
0.0
 40
5.0
100
AcDbArc
 50
90.00000300000001
 51
180.000005
  0
ARC
  5
9993
330
9856
100
AcDbEntity
  8
1
  6
Continuous
100
AcDbCircle
 10
139.742133
 20
380.4279279999999
 30
0.0
 40
5.0
100
AcDbArc
 50
179.9999909999999
 51
270.000001
  0
ARC
  5
9994
330
9856
100
AcDbEntity
  8
1
  6
Continuous
100
AcDbCircle
 10
159.7421329999999
 20
412.4279279999998
 30
0.0
 40
3.0
100
AcDbArc
 50
0.0
 51
90.00000300000001
  0
ARC
  5
9995
330
9856
100
AcDbEntity
  8
1
  6
Continuous
100
AcDbCircle
 10
159.7421329999999
 20
378.4279279999998
 30
0.0
 40
3.0
100
AcDbArc
 50
269.9999969999999
 51
0.0
  0
CIRCLE
  5
9996
330
9856
100
AcDbEntity
  8
1
  6
Continuous
100
AcDbCircle
 10
150.7421329999999
 20
409.4279279999998
 30
0.0
 40
2.75
  0
CIRCLE
  5
9997
330
9856
100
AcDbEntity
  8
1
  6
Continuous
100
AcDbCircle
 10
150.7421329999999
 20
381.4279279999998
 30
0.0
 40
2.75
  0
ARC
  5
9998
330
9856
100
AcDbEntity
  8
1
  6
Continuous
100
AcDbCircle
 10
146.2421329999999
 20
296.1198529999998
 30
0.0
 40
11.5
100
AcDbArc
 50
90.00000300000001
 51
180.000005
  0
CIRCLE
  5
9999
330
9856
100
AcDbEntity
  8
1
  6
Continuous
100
AcDbCircle
 10
181.283378
 20
65.427943
 30
0.0
 40
5.0
  0
CIRCLE
  5
999A
330
9856
100
AcDbEntity
  8
1
  6
Continuous
100
AcDbCircle
 10
181.283378
 20
65.427943
 30
0.0
 40
4.5
  0
CIRCLE
  5
999B
330
9856
100
AcDbEntity
  8
1
  6
Continuous
100
AcDbCircle
 10
25.441222
 20
65.427943
 30
0.0
 40
3.0
  0
CIRCLE
  5
999C
330
9856
100
AcDbEntity
  8
1
  6
Continuous
100
AcDbCircle
 10
25.441222
 20
65.427943
 30
0.0
 40
4.5
  0
CIRCLE
  5
999D
330
9856
100
AcDbEntity
  8
1
  6
Continuous
100
AcDbCircle
 10
330.816642
 20
381.4279279999998
 30
0.0
 40
2.75
  0
CIRCLE
  5
999E
330
9856
100
AcDbEntity
  8
1
  6
Continuous
100
AcDbCircle
 10
330.816642
 20
409.4279279999998
 30
0.0
 40
2.75
  0
ARC
  5
999F
330
9856
100
AcDbEntity
  8
1
  6
Continuous
100
AcDbCircle
 10
321.816642
 20
378.4279279999998
 30
0.0
 40
3.0
100
AcDbArc
 50
179.9999909999999
 51
270.000001
  0
ARC
  5
99A0
330
9856
100
AcDbEntity
  8
1
  6
Continuous
100
AcDbCircle
 10
321.816642
 20
412.4279279999998
 30
0.0
 40
3.0
100
AcDbArc
 50
90.00000300000001
 51
180.000005
  0
ARC
  5
99A1
330
9856
100
AcDbEntity
  8
1
  6
Continuous
100
AcDbCircle
 10
341.8166419999999
 20
410.4279279999998
 30
0.0
 40
5.0
100
AcDbArc
 50
0.0
 51
90.00000300000001
  0
ARC
  5
99A2
330
9856
100
AcDbEntity
  8
1
  6
Continuous
100
AcDbCircle
 10
341.8166419999999
 20
380.4279279999999
 30
0.0
 40
5.0
100
AcDbArc
 50
269.9999969999999
 51
0.0
  0
CIRCLE
  5
99A3
330
9856
100
AcDbEntity
  8
1
  6
Continuous
100
AcDbCircle
 10
330.816642
 20
409.4279279999998
 30
0.0
 40
2.9
  0
CIRCLE
  5
99A4
330
9856
100
AcDbEntity
  8
1
  6
Continuous
100
AcDbCircle
 10
330.816642
 20
381.4279279999998
 30
0.0
 40
2.9
  0
ARC
  5
99A5
330
9856
100
AcDbEntity
  8
1
  6
Continuous
100
AcDbCircle
 10
494.467734
 20
80.427943
 30
0.0
 40
5.0
100
AcDbArc
 50
90.00000300000001
 51
180.000005
  0
ARC
  5
99A6
330
9856
100
AcDbEntity
  8
1
  6
Continuous
100
AcDbCircle
 10
606.4677339999998
 20
82.42794299999998
 30
0.0
 40
3.0
100
AcDbArc
 50
0.0
 51
90.00000300000001
  0
ARC
  5
99A7
330
9856
100
AcDbEntity
  8
1
  6
Continuous
100
AcDbCircle
 10
606.4677339999998
 20
48.427943
 30
0.0
 40
3.0
100
AcDbArc
 50
269.9999969999999
 51
0.0
  0
ARC
  5
99A8
330
9856
100
AcDbEntity
  8
1
  6
Continuous
100
AcDbCircle
 10
494.467734
 20
50.427943
 30
0.0
 40
5.0
100
AcDbArc
 50
179.9999909999999
 51
270.000001
  0
CIRCLE
  5
99A9
330
9856
100
AcDbEntity
  8
1
  6
Continuous
100
AcDbCircle
 10
597.4677339999998
 20
79.427943
 30
0.0
 40
2.75
  0
CIRCLE
  5
99AA
330
9856
100
AcDbEntity
  8
1
  6
Continuous
100
AcDbCircle
 10
597.4677339999998
 20
51.427943
 30
0.0
 40
2.75
  0
CIRCLE
  5
99AB
330
9856
100
AcDbEntity
  8
1
  6
Continuous
100
AcDbCircle
 10
507.467734
 20
79.427943
 30
0.0
 40
2.75
  0
CIRCLE
  5
99AC
330
9856
100
AcDbEntity
  8
1
  6
Continuous
100
AcDbCircle
 10
507.467734
 20
51.427943
 30
0.0
 40
2.75
  0
CIRCLE
  5
99AD
330
9856
100
AcDbEntity
  8
1
  6
Continuous
100
AcDbCircle
 10
507.467734
 20
79.427943
 30
0.0
 40
2.9
  0
CIRCLE
  5
99AE
330
9856
100
AcDbEntity
  8
1
  6
Continuous
100
AcDbCircle
 10
507.467734
 20
51.427943
 30
0.0
 40
2.9
  0
CIRCLE
  5
99AF
330
9856
100
AcDbEntity
  8
1
  6
Continuous
100
AcDbCircle
 10
597.4677339999998
 20
79.427943
 30
0.0
 40
2.9
  0
CIRCLE
  5
99B0
330
9856
100
AcDbEntity
  8
1
  6
Continuous
100
AcDbCircle
 10
597.4677339999998
 20
51.427943
 30
0.0
 40
2.9
  0
ARC
  5
99B1
330
9856
100
AcDbEntity
  8
1
  6
Continuous
100
AcDbCircle
 10
242.7793799999999
 20
387.4279279999998
 30
0.0
 40
1.5
100
AcDbArc
 50
0.0
 51
90.00000300000001
  0
ARC
  5
99B2
330
9856
100
AcDbEntity
  8
1
  6
Continuous
100
AcDbCircle
 10
242.7793799999999
 20
387.4279279999998
 30
0.0
 40
3.0
100
AcDbArc
 50
0.0
 51
90.00000300000001
  0
ARC
  5
99B3
330
9856
100
AcDbEntity
  8
1
  6
Continuous
100
AcDbCircle
 10
242.7793799999999
 20
403.4279279999998
 30
0.0
 40
3.0
100
AcDbArc
 50
269.9999969999999
 51
0.0
  0
ARC
  5
99B4
330
9856
100
AcDbEntity
  8
1
  6
Continuous
100
AcDbCircle
 10
242.7793799999999
 20
403.4279279999998
 30
0.0
 40
1.5
100
AcDbArc
 50
269.9999969999999
 51
0.0
  0
ARC
  5
99B5
330
9856
100
AcDbEntity
  8
1
  6
Continuous
100
AcDbCircle
 10
58.704863
 20
387.4279279999998
 30
0.0
 40
1.5
100
AcDbArc
 50
90.00000300000001
 51
180.000005
  0
ARC
  5
99B6
330
9856
100
AcDbEntity
  8
1
  6
Continuous
100
AcDbCircle
 10
58.704863
 20
403.4279279999998
 30
0.0
 40
1.5
100
AcDbArc
 50
179.9999909999999
 51
270.000001
  0
ARC
  5
99B7
330
9856
100
AcDbEntity
  8
1
  6
Continuous
100
AcDbCircle
 10
236.2793799999999
 20
399.9279279999998
 30
0.0
 40
2.0
100
AcDbArc
 50
90.00000300000001
 51
180.000005
  0
ARC
  5
99B8
330
9856
100
AcDbEntity
  8
1
  6
Continuous
100
AcDbCircle
 10
236.2793799999999
 20
399.9279279999998
 30
0.0
 40
0.5
100
AcDbArc
 50
90.00000300000001
 51
180.000005
  0
ARC
  5
99B9
330
9856
100
AcDbEntity
  8
1
  6
Continuous
100
AcDbCircle
 10
236.2793799999999
 20
390.9279279999998
 30
0.0
 40
0.5
100
AcDbArc
 50
179.9999909999999
 51
270.000001
  0
ARC
  5
99BA
330
9856
100
AcDbEntity
  8
1
  6
Continuous
100
AcDbCircle
 10
236.2793799999999
 20
390.9279279999998
 30
0.0
 40
2.0
100
AcDbArc
 50
179.9999909999999
 51
270.000001
  0
ARC
  5
99BB
330
9856
100
AcDbEntity
  8
1
  6
Continuous
100
AcDbCircle
 10
65.204863
 20
390.9279279999998
 30
0.0
 40
2.0
100
AcDbArc
 50
269.9999969999999
 51
0.0
  0
ARC
  5
99BC
330
9856
100
AcDbEntity
  8
1
  6
Continuous
100
AcDbCircle
 10
65.204863
 20
399.9279279999998
 30
0.0
 40
2.0
100
AcDbArc
 50
0.0
 51
90.00000300000001
  0
ARC
  5
99BD
330
9856
100
AcDbEntity
  8
1
  6
Continuous
100
AcDbCircle
 10
23.441222
 20
73.427943
 30
0.0
 40
1.5
100
AcDbArc
 50
179.9999909999999
 51
270.000001
  0
ARC
  5
99BE
330
9856
100
AcDbEntity
  8
1
  6
Continuous
100
AcDbCircle
 10
23.441222
 20
73.427943
 30
0.0
 40
3.0
100
AcDbArc
 50
179.9999909999999
 51
270.000001
  0
ARC
  5
99BF
330
9856
100
AcDbEntity
  8
1
  6
Continuous
100
AcDbCircle
 10
23.441222
 20
57.42794299999999
 30
0.0
 40
3.0
100
AcDbArc
 50
90.00000300000001
 51
180.000005
  0
ARC
  5
99C0
330
9856
100
AcDbEntity
  8
1
  6
Continuous
100
AcDbCircle
 10
23.441222
 20
57.42794299999999
 30
0.0
 40
1.5
100
AcDbArc
 50
90.00000300000001
 51
180.000005
  0
ARC
  5
99C1
330
9856
100
AcDbEntity
  8
1
  6
Continuous
100
AcDbCircle
 10
29.94122199999999
 20
69.92794299999999
 30
0.0
 40
0.5
100
AcDbArc
 50
0.0
 51
90.00000300000001
  0
ARC
  5
99C2
330
9856
100
AcDbEntity
  8
1
  6
Continuous
100
AcDbCircle
 10
29.94122199999999
 20
60.92794300000001
 30
0.0
 40
0.5
100
AcDbArc
 50
269.9999969999999
 51
0.0
  0
ARC
  5
99C3
330
9856
100
AcDbEntity
  8
1
  6
Continuous
100
AcDbCircle
 10
29.94122199999999
 20
69.92794299999999
 30
0.0
 40
2.0
100
AcDbArc
 50
0.0
 51
90.00000300000001
  0
ARC
  5
99C4
330
9856
100
AcDbEntity
  8
1
  6
Continuous
100
AcDbCircle
 10
29.94122199999999
 20
60.92794300000001
 30
0.0
 40
2.0
100
AcDbArc
 50
269.9999969999999
 51
0.0
  0
ARC
  5
99C5
330
9856
100
AcDbEntity
  8
1
  6
Continuous
100
AcDbCircle
 10
394.125541
 20
73.427943
 30
0.0
 40
1.5
100
AcDbArc
 50
269.9999969999999
 51
0.0
  0
ARC
  5
99C6
330
9856
100
AcDbEntity
  8
1
  6
Continuous
100
AcDbCircle
 10
394.125541
 20
57.42794299999999
 30
0.0
 40
1.5
100
AcDbArc
 50
0.0
 51
90.00000300000001
  0
ARC
  5
99C7
330
9856
100
AcDbEntity
  8
1
  6
Continuous
100
AcDbCircle
 10
387.625541
 20
69.92794299999999
 30
0.0
 40
2.0
100
AcDbArc
 50
90.00000300000001
 51
180.000005
  0
ARC
  5
99C8
330
9856
100
AcDbEntity
  8
1
  6
Continuous
100
AcDbCircle
 10
387.625541
 20
60.92794300000001
 30
0.0
 40
2.0
100
AcDbArc
 50
179.9999909999999
 51
270.000001
  0
ARC
  5
99C9
330
9856
100
AcDbEntity
  8
1
  6
Continuous
100
AcDbCircle
 10
505.467734
 20
60.427943
 30
0.0
 40
1.0
100
AcDbArc
 50
269.9999969999999
 51
90.00000300000001
  0
ARC
  5
99CA
330
9856
100
AcDbEntity
  8
1
  6
Continuous
100
AcDbCircle
 10
505.467734
 20
70.427943
 30
0.0
 40
1.0
100
AcDbArc
 50
269.9999969999999
 51
90.00000300000001
  0
ARC
  5
99CB
330
9856
100
AcDbEntity
  8
1
  6
Continuous
100
AcDbCircle
 10
492.967734
 20
60.427943
 30
0.0
 40
1.0
100
AcDbArc
 50
179.9999909999999
 51
270.000001
  0
ARC
  5
99CC
330
9856
100
AcDbEntity
  8
1
  6
Continuous
100
AcDbCircle
 10
492.967734
 20
70.427943
 30
0.0
 40
1.0
100
AcDbArc
 50
90.00000300000001
 51
180.000005
  0
CIRCLE
  5
99CD
330
9856
100
AcDbEntity
  8
1
  6
Continuous
100
AcDbCircle
 10
585.9677339999998
 20
65.427943
 30
0.0
 40
2.049999999999998
  0
ARC
  5
99CE
330
9856
100
AcDbEntity
  8
1
  6
Continuous
100
AcDbCircle
 10
585.9677339999998
 20
68.831683
 30
0.0
 40
6.503737
100
AcDbArc
 50
234.006806
 51
305.9931989999999
  0
ARC
  5
99CF
330
9856
100
AcDbEntity
  8
1
  6
Continuous
100
AcDbCircle
 10
585.9677339999998
 20
62.02420299999999
 30
0.0
 40
6.503737
100
AcDbArc
 50
54.006801
 51
125.9931939999999
  0
CIRCLE
  5
99D0
330
9856
100
AcDbEntity
  8
1
  6
Continuous
100
AcDbCircle
 10
585.9677339999998
 20
65.427943
 30
0.0
 40
2.0
  0
CIRCLE
  5
99D1
330
9856
100
AcDbEntity
  8
1
  6
Continuous
100
AcDbCircle
 10
585.9677339999998
 20
65.427943
 30
0.0
 40
1.5
  0
CIRCLE
  5
99D2
330
9856
100
AcDbEntity
  8
1
  6
Continuous
100
AcDbCircle
 10
585.9677339999998
 20
65.427943
 30
0.0
 40
4.25
  0
LINE
  5
99D3
330
9856
100
AcDbEntity
  8
1
  6
Continuous
100
AcDbLine
 10
186.065809
 20
157.9536019999999
 30
0.0
 11
186.0658029999999
 21
164.2360339999999
 31
0.0
  0
LINE
  5
99D4
330
9856
100
AcDbEntity
  8
1
  6
Continuous
100
AcDbLine
 10
185.430808
 20
158.588603
 30
0.0
 11
185.430803
 21
164.2360339999999
 31
0.0
  0
LINE
  5
99D5
330
9856
100
AcDbEntity
  8
1
  6
Continuous
100
AcDbLine
 10
184.7958079999999
 20
159.2236039999999
 30
0.0
 11
184.795803
 21
164.2360339999999
 31
0.0
  0
LINE
  5
99D6
330
9856
100
AcDbEntity
  8
1
  6
Continuous
100
AcDbLine
 10
184.160807
 20
159.858604
 30
0.0
 11
184.1608029999999
 21
164.2360339999999
 31
0.0
  0
LINE
  5
99D7
330
9856
100
AcDbEntity
  8
1
  6
Continuous
100
AcDbLine
 10
183.5258059999999
 20
160.493605
 30
0.0
 11
183.525803
 21
164.2360339999999
 31
0.0
  0
LINE
  5
99D8
330
9856
100
AcDbEntity
  8
1
  6
Continuous
100
AcDbLine
 10
182.890806
 20
161.1286049999999
 30
0.0
 11
182.890803
 21
164.2360339999999
 31
0.0
  0
LINE
  5
99D9
330
9856
100
AcDbEntity
  8
1
  6
Continuous
100
AcDbLine
 10
182.2558049999999
 20
161.763606
 30
0.0
 11
182.2558029999999
 21
164.2360339999999
 31
0.0
  0
LINE
  5
99DA
330
9856
100
AcDbEntity
  8
1
  6
Continuous
100
AcDbLine
 10
181.620804
 20
162.3986069999999
 30
0.0
 11
181.620803
 21
164.2360339999999
 31
0.0
  0
LINE
  5
99DB
330
9856
100
AcDbEntity
  8
1
  6
Continuous
100
AcDbLine
 10
48.66426699999998
 20
65.204899
 30
0.0
 11
46.94122199999998
 21
65.204897
 31
0.0
  0
LINE
  5
99DC
330
9856
100
AcDbEntity
  8
1
  6
Continuous
100
AcDbLine
 10
49.29926599999999
 20
64.56989899999999
 30
0.0
 11
46.94122199999998
 21
64.569897
 31
0.0
  0
LINE
  5
99DD
330
9856
100
AcDbEntity
  8
1
  6
Continuous
100
AcDbLine
 10
49.934265
 20
63.93489999999999
 30
0.0
 11
46.94122199999998
 21
63.93489699999999
 31
0.0
  0
LINE
  5
99DE
330
9856
100
AcDbEntity
  8
1
  6
Continuous
100
AcDbLine
 10
50.569265
 20
63.29990099999999
 30
0.0
 11
46.94122199999998
 21
63.29989699999998
 31
0.0
  0
LINE
  5
99DF
330
9856
100
AcDbEntity
  8
1
  6
Continuous
100
AcDbLine
 10
51.204264
 20
62.664901
 30
0.0
 11
46.94122199999998
 21
62.66489700000001
 31
0.0
  0
LINE
  5
99E0
330
9856
100
AcDbEntity
  8
1
  6
Continuous
100
AcDbLine
 10
51.839264
 20
62.029902
 30
0.0
 11
46.94122199999998
 21
62.02989699999999
 31
0.0
  0
LINE
  5
99E1
330
9856
100
AcDbEntity
  8
1
  6
Continuous
100
AcDbLine
 10
52.474263
 20
61.394903
 30
0.0
 11
46.94122199999998
 21
61.394897
 31
0.0
  0
LINE
  5
99E2
330
9856
100
AcDbEntity
  8
1
  6
Continuous
100
AcDbLine
 10
53.109262
 20
60.759903
 30
0.0
 11
46.94122199999998
 21
60.759897
 31
0.0
  0
LINE
  5
99E3
330
9856
100
AcDbEntity
  8
1
  6
Continuous
100
AcDbLine
 10
370.625541
 20
65.20522099999999
 30
0.0
 11
368.9028159999999
 21
65.205219
 31
0.0
  0
LINE
  5
99E4
330
9856
100
AcDbEntity
  8
1
  6
Continuous
100
AcDbLine
 10
370.625541
 20
64.57022099999999
 30
0.0
 11
368.267816
 21
64.57021800000001
 31
0.0
  0
LINE
  5
99E5
330
9856
100
AcDbEntity
  8
1
  6
Continuous
100
AcDbLine
 10
370.625541
 20
63.935221
 30
0.0
 11
367.6328149999998
 21
63.93521800000001
 31
0.0
  0
LINE
  5
99E6
330
9856
100
AcDbEntity
  8
1
  6
Continuous
100
AcDbLine
 10
370.625541
 20
63.30022099999999
 30
0.0
 11
366.9978139999998
 21
63.300217
 31
0.0
  0
LINE
  5
99E7
330
9856
100
AcDbEntity
  8
1
  6
Continuous
100
AcDbLine
 10
370.625541
 20
62.66522099999999
 30
0.0
 11
366.362814
 21
62.665216
 31
0.0
  0
LINE
  5
99E8
330
9856
100
AcDbEntity
  8
1
  6
Continuous
100
AcDbLine
 10
370.625541
 20
62.030221
 30
0.0
 11
365.7278129999999
 21
62.030216
 31
0.0
  0
LINE
  5
99E9
330
9856
100
AcDbEntity
  8
1
  6
Continuous
100
AcDbLine
 10
370.625541
 20
61.395221
 30
0.0
 11
365.0928119999999
 21
61.395215
 31
0.0
  0
LINE
  5
99EA
330
9856
100
AcDbEntity
  8
1
  6
Continuous
100
AcDbLine
 10
370.625541
 20
60.76022099999999
 30
0.0
 11
364.4578119999998
 21
60.760215
 31
0.0
  0
ARC
  5
99EB
330
9856
100
AcDbEntity
  8
1
  6
Continuous
100
AcDbCircle
 10
193.283453
 20
57.012889
 30
0.0
 40
7.913294999999998
100
AcDbArc
 50
243.9859999999999
 51
247.0559999999999
  0
ARC
  5
99EC
330
9856
100
AcDbEntity
  8
1
  6
Continuous
100
AcDbCircle
 10
190.225703
 20
49.787689
 30
0.0
 40
0.066515
100
AcDbArc
 50
247.0559999999999
 51
0.0
  0
LINE
  5
99ED
330
9856
100
AcDbEntity
  8
1
  6
Continuous
100
AcDbLine
 10
192.951353
 20
53.747239
 30
0.0
 11
192.951353
 21
49.107289
 31
0.0
  0
LINE
  5
99EE
330
9856
100
AcDbEntity
  8
1
  6
Continuous
100
AcDbLine
 10
192.2871529999999
 20
53.69188900000001
 30
0.0
 11
192.2871529999999
 21
49.162639
 31
0.0
  0
LINE
  5
99EF
330
9856
100
AcDbEntity
  8
1
  6
Continuous
100
AcDbLine
 10
191.621603
 20
49.359739
 30
0.0
 11
191.621603
 21
50.63008899999999
 31
0.0
  0
LINE
  5
99F0
330
9856
100
AcDbEntity
  8
1
  6
Continuous
100
AcDbLine
 10
190.956053
 20
53.154589
 30
0.0
 11
190.956053
 21
49.699939
 31
0.0
  0
ARC
  5
99F1
330
9856
100
AcDbEntity
  8
1
  6
Continuous
100
AcDbCircle
 10
191.5554529999998
 20
49.359739
 30
0.0
 40
0.066515
100
AcDbArc
 50
257.2709999999997
 51
0.0
  0
ARC
  5
99F2
330
9856
100
AcDbEntity
  8
1
  6
Continuous
100
AcDbCircle
 10
193.283453
 20
57.012889
 30
0.0
 40
7.913294999999998
100
AcDbArc
 50
254.794
 51
257.2709999999997
  0
ARC
  5
99F3
330
9856
100
AcDbEntity
  8
1
  6
Continuous
100
AcDbCircle
 10
193.283453
 20
57.012889
 30
0.0
 40
7.913294999999998
100
AcDbArc
 50
254.742
 51
254.794
  0
ARC
  5
99F4
330
9856
100
AcDbEntity
  8
1
  6
Continuous
100
AcDbCircle
 10
191.2895029999999
 20
49.699939
 30
0.0
 40
0.332573
100
AcDbArc
 50
180.0
 51
254.742
  0
ARC
  5
99F5
330
9856
100
AcDbEntity
  8
1
  6
Continuous
100
AcDbCircle
 10
191.2895029999999
 20
53.154589
 30
0.0
 40
0.332573
100
AcDbArc
 50
105.2575
 51
180.0
  0
ARC
  5
99F6
330
9856
100
AcDbEntity
  8
1
  6
Continuous
100
AcDbCircle
 10
193.283453
 20
45.841639
 30
0.0
 40
7.913294999999998
100
AcDbArc
 50
103.2680999999999
 51
105.2575
  0
ARC
  5
99F7
330
9856
100
AcDbEntity
  8
1
  6
Continuous
100
AcDbCircle
 10
193.283453
 20
45.841639
 30
0.0
 40
7.913294999999998
100
AcDbArc
 50
102.7288999999999
 51
103.2680999999999
  0
ARC
  5
99F8
330
9856
100
AcDbEntity
  8
1
  6
Continuous
100
AcDbCircle
 10
191.5554529999998
 20
53.49478900000001
 30
0.0
 40
0.066515
100
AcDbArc
 50
0.0
 51
102.7288999999999
  0
ARC
  5
99F9
330
9856
100
AcDbEntity
  8
1
  6
Continuous
100
AcDbCircle
 10
189.959753
 20
50.200789
 30
0.0
 40
0.332573
100
AcDbArc
 50
180.0
 51
243.9859999999999
  0
ARC
  5
99FA
330
9856
100
AcDbEntity
  8
1
  6
Continuous
100
AcDbCircle
 10
193.283453
 20
57.012889
 30
0.0
 40
7.913294999999998
100
AcDbArc
 50
243.9859999999999
 51
244.772
  0
ARC
  5
99FB
330
9856
100
AcDbEntity
  8
1
  6
Continuous
100
AcDbCircle
 10
190.225703
 20
53.06818899999999
 30
0.0
 40
0.066515
100
AcDbArc
 50
0.0
 51
112.9439999999999
  0
ARC
  5
99FC
330
9856
100
AcDbEntity
  8
1
  6
Continuous
100
AcDbCircle
 10
193.283453
 20
45.841639
 30
0.0
 40
7.913294999999998
100
AcDbArc
 50
112.9439999999999
 51
116.0144
  0
ARC
  5
99FD
330
9856
100
AcDbEntity
  8
1
  6
Continuous
100
AcDbCircle
 10
189.959753
 20
52.653739
 30
0.0
 40
0.332573
100
AcDbArc
 50
116.0144
 51
180.0
  0
ARC
  5
99FE
330
9856
100
AcDbEntity
  8
1
  6
Continuous
100
AcDbCircle
 10
189.294203
 20
51.427939
 30
0.0
 40
1.713757999999999
100
AcDbArc
 50
180.0
 51
234.4619999999999
  0
ARC
  5
99FF
330
9856
100
AcDbEntity
  8
1
  6
Continuous
100
AcDbCircle
 10
189.294203
 20
51.427939
 30
0.0
 40
1.713757999999999
100
AcDbArc
 50
125.5376999999999
 51
166.5373999999999
  0
LINE
  5
9A00
330
9856
100
AcDbEntity
  8
1
  6
Continuous
100
AcDbLine
 10
192.951353
 20
51.427939
 30
0.0
 11
192.2871529999999
 21
51.427939
 31
0.0
  0
LINE
  5
9A01
330
9856
100
AcDbEntity
  8
1
  6
Continuous
100
AcDbLine
 10
191.621603
 20
52.225789
 30
0.0
 11
191.621603
 21
53.49478900000001
 31
0.0
  0
LINE
  5
9A02
330
9856
100
AcDbEntity
  8
1
  6
Continuous
100
AcDbLine
 10
190.2918529999998
 20
53.06818899999999
 30
0.0
 11
190.2918529999998
 21
49.787689
 31
0.0
  0
LINE
  5
9A03
330
9856
100
AcDbEntity
  8
1
  6
Continuous
100
AcDbLine
 10
189.626303
 20
50.200789
 30
0.0
 11
189.626303
 21
52.653739
 31
0.0
  0
LINE
  5
9A04
330
9856
100
AcDbEntity
  8
1
  6
Continuous
100
AcDbLine
 10
188.962103
 20
53.251789
 30
0.0
 11
188.962103
 21
50.384389
 31
0.0
  0
LINE
  5
9A05
330
9856
100
AcDbEntity
  8
1
  6
Continuous
100
AcDbLine
 10
195.610853
 20
53.61358899999999
 30
0.0
 11
195.610853
 21
49.450189
 31
0.0
  0
LINE
  5
9A06
330
9856
100
AcDbEntity
  8
1
  6
Continuous
100
AcDbLine
 10
194.946653
 20
49.550089
 30
0.0
 11
194.946653
 21
51.427939
 31
0.0
  0
LINE
  5
9A07
330
9856
100
AcDbEntity
  8
1
  6
Continuous
100
AcDbLine
 10
194.281103
 20
53.616289
 30
0.0
 11
194.281103
 21
49.238239
 31
0.0
  0
LINE
  5
9A08
330
9856
100
AcDbEntity
  8
1
  6
Continuous
100
AcDbLine
 10
193.616903
 20
53.747239
 30
0.0
 11
193.616903
 21
49.107289
 31
0.0
  0
ARC
  5
9A09
330
9856
100
AcDbEntity
  8
1
  6
Continuous
100
AcDbCircle
 10
193.283453
 20
57.012889
 30
0.0
 40
7.913294999999998
100
AcDbArc
 50
277.793
 51
280.104
  0
ARC
  5
9A0A
330
9856
100
AcDbEntity
  8
1
  6
Continuous
100
AcDbCircle
 10
194.348603
 20
49.238239
 30
0.0
 40
0.066515
100
AcDbArc
 50
180.0
 51
277.793
  0
ARC
  5
9A0B
330
9856
100
AcDbEntity
  8
1
  6
Continuous
100
AcDbCircle
 10
194.614553
 20
49.550089
 30
0.0
 40
0.332573
100
AcDbArc
 50
280.104
 51
0.0
  0
ARC
  5
9A0C
330
9856
100
AcDbEntity
  8
1
  6
Continuous
100
AcDbCircle
 10
194.348603
 20
53.616289
 30
0.0
 40
0.066515
100
AcDbArc
 50
82.20699999999999
 51
180.0
  0
ARC
  5
9A0D
330
9856
100
AcDbEntity
  8
1
  6
Continuous
100
AcDbCircle
 10
193.283453
 20
45.841639
 30
0.0
 40
7.913294999999998
100
AcDbArc
 50
79.896
 51
82.20699999999999
  0
ARC
  5
9A0E
330
9856
100
AcDbEntity
  8
1
  6
Continuous
100
AcDbCircle
 10
194.614553
 20
53.304439
 30
0.0
 40
0.332573
100
AcDbArc
 50
0.0
 51
79.896
  0
ARC
  5
9A0F
330
9856
100
AcDbEntity
  8
1
  6
Continuous
100
AcDbCircle
 10
197.274053
 20
51.427939
 30
0.0
 40
1.713757999999999
100
AcDbArc
 50
305.5379999999999
 51
315.699
  0
ARC
  5
9A10
330
9856
100
AcDbEntity
  8
1
  6
Continuous
100
AcDbCircle
 10
197.274053
 20
51.427939
 30
0.0
 40
1.713757999999999
100
AcDbArc
 50
332.25
 51
54.46200000000001
  0
ARC
  5
9A11
330
9856
100
AcDbEntity
  8
1
  6
Continuous
100
AcDbCircle
 10
196.608503
 20
51.760039
 30
0.0
 40
0.332573
100
AcDbArc
 50
180.0
 51
0.0
  0
LINE
  5
9A12
330
9856
100
AcDbEntity
  8
1
  6
Continuous
100
AcDbLine
 10
198.9872029999999
 20
51.427939
 30
0.0
 11
197.6129029999999
 21
51.427939
 31
0.0
  0
LINE
  5
9A13
330
9856
100
AcDbEntity
  8
1
  6
Continuous
100
AcDbLine
 10
197.279453
 20
50.183239
 30
0.0
 11
198.031403
 21
52.985839
 31
0.0
  0
LINE
  5
9A14
330
9856
100
AcDbEntity
  8
1
  6
Continuous
100
AcDbLine
 10
196.608503
 20
51.427939
 30
0.0
 11
196.608503
 21
49.832239
 31
0.0
  0
LINE
  5
9A15
330
9856
100
AcDbEntity
  8
1
  6
Continuous
100
AcDbLine
 10
196.941953
 20
51.760039
 30
0.0
 11
196.941953
 21
53.180239
 31
0.0
  0
LINE
  5
9A16
330
9856
100
AcDbEntity
  8
1
  6
Continuous
100
AcDbLine
 10
196.2764029999999
 20
53.300389
 30
0.0
 11
196.2764029999999
 21
51.760039
 31
0.0
  0
LINE
  5
9A17
330
9856
100
AcDbEntity
  8
1
  6
Continuous
100
AcDbLine
 10
194.946653
 20
51.427939
 30
0.0
 11
194.614553
 21
51.427939
 31
0.0
  0
LINE
  5
9A18
330
9856
100
AcDbEntity
  8
1
  6
Continuous
100
AcDbLine
 10
194.946653
 20
52.225789
 30
0.0
 11
194.946653
 21
53.304439
 31
0.0
  0
ARC
  5
9A19
330
9856
100
AcDbEntity
  8
1
  6
Continuous
100
AcDbCircle
 10
193.283453
 20
45.841639
 30
0.0
 40
8.578265
100
AcDbArc
 50
54.46200000000001
 51
125.5376999999999
  0
ARC
  5
9A1A
330
9856
100
AcDbEntity
  8
1
  6
Continuous
100
AcDbCircle
 10
193.283453
 20
57.012889
 30
0.0
 40
8.578265
100
AcDbArc
 50
234.4619999999999
 51
305.5379999999999
  0
LINE
  5
9A1B
330
9856
100
AcDbEntity
  8
1
  6
Continuous
100
AcDbLine
 10
140.2833779999999
 20
190.2360339999999
 30
0.0
 11
157.7833779999999
 21
190.2360339999999
 31
0.0
  0
LINE
  5
9A1C
330
9856
100
AcDbEntity
  8
1
  6
Continuous
100
AcDbLine
 10
177.7833779999999
 20
181.736034
 30
0.0
 11
185.7833779999999
 21
181.736034
 31
0.0
  0
ENDSEC
  0
SECTION
  2
OBJECTS
  0
DICTIONARY
  5
9844
330
0
100
AcDbDictionary
281
     1
  3
ACAD_CIP_PREVIOUS_PRODUCT_INFO
350
9A80
  3
ACAD_COLOR
350
9A62
  3
ACAD_DETAILVIEWSTYLE
350
9A7B
  3
ACAD_GROUP
350
9845
  3
ACAD_LAYOUT
350
9851
  3
ACAD_MATERIAL
350
9A30
  3
ACAD_MLEADERSTYLE
350
9A77
  3
ACAD_MLINESTYLE
350
984E
  3
ACAD_PLOTSETTINGS
350
9850
  3
ACAD_PLOTSTYLENAME
350
9A2E
  3
ACAD_SCALELIST
350
9A65
  3
ACAD_SECTIONVIEWSTYLE
350
9A79
  3
ACAD_TABLESTYLE
350
9A63
  3
ACAD_VISUALSTYLE
350
9A49
  3
ACDB_RECOMPOSE_DATA
350
9A9E
  3
AcDbVariableDictionary
350
9A91
  3
DWGPROPS
350
9A9F
  0
DICTIONARY
  5
9A81
330
9848
100
AcDbDictionary
280
     1
281
     1
  3
ADSK_XREC_LAYER_RECONCILED
360
9A82
  0
DICTIONARY
  5
9A83
330
985E
100
AcDbDictionary
280
     1
281
     1
  3
ADSK_XREC_LAYER_RECONCILED
360
9A84
  0
DICTIONARY
  5
9A85
330
985F
100
AcDbDictionary
280
     1
281
     1
  3
ADSK_XREC_LAYER_RECONCILED
360
9A86
  0
DICTIONARY
  5
9A87
330
9860
100
AcDbDictionary
280
     1
281
     1
  3
ADSK_XREC_LAYER_RECONCILED
360
9A88
  0
DICTIONARY
  5
9A89
330
9861
100
AcDbDictionary
280
     1
281
     1
  3
ADSK_XREC_LAYER_RECONCILED
360
9A8A
  0
DICTIONARY
  5
9A8B
330
9862
100
AcDbDictionary
280
     1
281
     1
  3
ADSK_XREC_LAYER_RECONCILED
360
9A8C
  0
DICTIONARY
  5
9A8D
330
9863
100
AcDbDictionary
280
     1
281
     1
  3
ADSK_XREC_LAYER_RECONCILED
360
9A8E
  0
DICTIONARY
  5
9A8F
330
9864
100
AcDbDictionary
280
     1
281
     1
  3
ADSK_XREC_LAYER_RECONCILED
360
9A90
  0
DICTIONARY
  5
9A29
330
9856
100
AcDbDictionary
281
     1
  3
ACAD_LAYOUTSELFREF
350
9A2A
  0
DICTIONARY
  5
9A27
330
9852
100
AcDbDictionary
281
     1
  3
ACAD_LAYOUTSELFREF
350
9A28
  0
XRECORD
  5
9A80
102
{ACAD_REACTORS
330
9844
102
}
330
9844
100
AcDbXrecord
280
     1
300
ACDLT
300
2014
300
ACDLT_F_S
  0
DICTIONARY
  5
9A62
102
{ACAD_REACTORS
330
9844
102
}
330
9844
100
AcDbDictionary
281
     1
  0
DICTIONARY
  5
9A7B
102
{ACAD_REACTORS
330
9844
102
}
330
9844
100
AcDbDictionary
281
     1
  3
Imperial24
350
9A7C
  0
DICTIONARY
  5
9845
102
{ACAD_REACTORS
330
9844
102
}
330
9844
100
AcDbDictionary
281
     1
  0
DICTIONARY
  5
9851
102
{ACAD_REACTORS
330
9844
102
}
330
9844
100
AcDbDictionary
281
     1
  3
Model
350
9A7D
  3
レイアウト1
350
9A7E
  0
DICTIONARY
  5
9A30
102
{ACAD_REACTORS
330
9844
102
}
330
9844
100
AcDbDictionary
281
     1
  3
ByBlock
350
9A39
  3
ByLayer
350
9A31
  3
Global
350
9A41
  0
DICTIONARY
  5
9A77
102
{ACAD_REACTORS
330
9844
102
}
330
9844
100
AcDbDictionary
281
     1
  3
Standard
350
9A78
  0
DICTIONARY
  5
984E
102
{ACAD_REACTORS
330
9844
102
}
330
9844
100
AcDbDictionary
281
     1
  3
STANDARD
350
984F
  0
DICTIONARY
  5
9850
102
{ACAD_REACTORS
330
9844
102
}
330
9844
100
AcDbDictionary
281
     1
  0
ACDBDICTIONARYWDFLT
  5
9A2E
102
{ACAD_REACTORS
330
9844
102
}
330
9844
100
AcDbDictionary
281
     1
  3
Normal
350
9A2F
100
AcDbDictionaryWithDefault
340
9A2F
  0
DICTIONARY
  5
9A65
102
{ACAD_REACTORS
330
9844
102
}
330
9844
100
AcDbDictionary
281
     1
  3
A0
350
9A66
  3
A1
350
9A67
  3
A2
350
9A68
  3
A3
350
9A69
  3
A4
350
9A6A
  3
A5
350
9A6B
  3
A6
350
9A6C
  3
A7
350
9A6D
  3
A8
350
9A6E
  3
A9
350
9A6F
  3
B0
350
9A70
  3
B1
350
9A71
  3
B2
350
9A72
  3
B3
350
9A73
  3
B4
350
9A74
  3
B5
350
9A75
  3
B6
350
9A76
  0
DICTIONARY
  5
9A79
102
{ACAD_REACTORS
330
9844
102
}
330
9844
100
AcDbDictionary
281
     1
  3
Imperial24
350
9A7A
  0
DICTIONARY
  5
9A63
102
{ACAD_REACTORS
330
9844
102
}
330
9844
100
AcDbDictionary
281
     1
  3
Standard
350
9A64
  0
DICTIONARY
  5
9A49
102
{ACAD_REACTORS
330
9844
102
}
330
9844
100
AcDbDictionary
281
     1
  3
2dWireframe
350
9A4F
  3
Basic
350
9A4E
  3
Brighten
350
9A55
  3
ColorChange
350
9A59
  3
Conceptual
350
9A52
  3
Dim
350
9A54
  3
EdgeColorOff
350
9A61
  3
Facepattern
350
9A58
  3
Flat
350
9A4A
  3
FlatWithEdges
350
9A4B
  3
Gouraud
350
9A4C
  3
GouraudWithEdges
350
9A4D
  3
Hidden
350
9A51
  3
JitterOff
350
9A5F
  3
Linepattern
350
9A57
  3
OverhangOff
350
9A60
  3
Realistic
350
9A53
  3
Shaded
350
9A5E
  3
Shaded with edges
350
9A5D
  3
Shades of Gray
350
9A5A
  3
Sketchy
350
9A5B
  3
Thicken
350
9A56
  3
Wireframe
350
9A50
  3
X-Ray
350
9A5C
  0
XRECORD
  5
9A9E
102
{ACAD_REACTORS
330
9844
102
}
330
9844
100
AcDbXrecord
280
     1
 90
        1
330
9A64
  0
DICTIONARY
  5
9A91
102
{ACAD_REACTORS
330
9844
102
}
330
9844
100
AcDbDictionary
281
     1
  3
CANNOSCALE
350
9A96
  3
CMLEADERSTYLE
350
9A93
  3
CTABLESTYLE
350
9A92
  3
CVIEWDETAILSTYLE
350
9A94
  3
CVIEWSECTIONSTYLE
350
9A95
  3
DIMASSOC
350
9A99
  3
INDEXCTL
350
9A98
  3
SORTENTS
350
9A97
  3
XCLIPFRAME
350
9A9A
  0
XRECORD
  5
9A9F
102
{ACAD_REACTORS
330
9844
102
}
330
9844
100
AcDbXrecord
280
     1
  1
DWGPROPS COOKIE
  2

  3

  4

  6

  7

  8
Yoshitsune
  9

300
=
301
=
302
=
303
=
304
=
305
=
306
=
307
=
308
=
309
=
 40
0.0131992708333333
 41
2451074.442088541
 42
2457192.601181412
  1

 90
        0
  0
XRECORD
  5
9A82
102
{ACAD_REACTORS
330
9A81
102
}
330
9A81
100
AcDbXrecord
280
     1
290
     1
  0
XRECORD
  5
9A84
102
{ACAD_REACTORS
330
9A83
102
}
330
9A83
100
AcDbXrecord
280
     1
290
     1
  0
XRECORD
  5
9A86
102
{ACAD_REACTORS
330
9A85
102
}
330
9A85
100
AcDbXrecord
280
     1
290
     1
  0
XRECORD
  5
9A88
102
{ACAD_REACTORS
330
9A87
102
}
330
9A87
100
AcDbXrecord
280
     1
290
     1
  0
XRECORD
  5
9A8A
102
{ACAD_REACTORS
330
9A89
102
}
330
9A89
100
AcDbXrecord
280
     1
290
     1
  0
XRECORD
  5
9A8C
102
{ACAD_REACTORS
330
9A8B
102
}
330
9A8B
100
AcDbXrecord
280
     1
290
     1
  0
XRECORD
  5
9A8E
102
{ACAD_REACTORS
330
9A8D
102
}
330
9A8D
100
AcDbXrecord
280
     1
290
     1
  0
XRECORD
  5
9A90
102
{ACAD_REACTORS
330
9A8F
102
}
330
9A8F
100
AcDbXrecord
280
     1
290
     1
  0
XRECORD
  5
9A2A
102
{ACAD_REACTORS
330
9A29
102
}
330
9A29
100
AcDbXrecord
280
     1
340
9856
  0
XRECORD
  5
9A28
102
{ACAD_REACTORS
330
9A27
102
}
330
9A27
100
AcDbXrecord
280
     1
340
9852
  0
ACDBDETAILVIEWSTYLE
  5
9A7C
102
{ACAD_XDICTIONARY
360
9AD7
102
}
102
{ACAD_REACTORS
330
9A7B
102
}
330
9A7B
100
AcDbModelDocViewStyle
 70
     0
  3
Imperial24
290
     0
100
AcDbDetailViewStyle
 70
     0
 71
     0
 90
        3
 71
     1
340
9849
 40
0.24
340
0
 40
0.24
300

 40
0.36
280
     3
 71
     2
340
984D
 90
       25
 71
     3
340
9849
 40
0.24
 90
        1
 40
0.75
 90
        1
300
%<\AcVar ViewType \f "%tc1">% %<\AcVar ViewDetailId>%\PSCALE %<\AcVar ViewScale \f "%sn">%
 71
     4
340
984D
 90
       25
340
984D
 90
       25
280
     0
  0
LAYOUT
  5
9A7D
102
{ACAD_XDICTIONARY
360
9AD9
102
}
102
{ACAD_REACTORS
330
9851
102
}
330
9851
100
AcDbPlotSettings
  1

  2
Canon LBP9100C
  4

  6

 40
0.0
 41
0.0
 42
0.0
 43
0.0
 44
0.0
 45
0.0
 46
0.0
 47
0.0
 48
0.0
 49
0.0
140
0.0
141
0.0
142
1.0
143
1.0
 70
  1712
 72
     0
 73
     0
 74
     0
  7

 75
     0
147
1.0
148
0.0
149
0.0
100
AcDbLayout
  1
Model
 70
     1
 71
     0
 10
0.0
 20
0.0
 11
12.0
 21
9.0
 12
0.0
 22
0.0
 32
0.0
 14
0.0
 24
0.0
 34
0.0
 15
0.0
 25
0.0
 35
0.0
146
0.0
 13
0.0
 23
0.0
 33
0.0
 16
1.0
 26
0.0
 36
0.0
 17
0.0
 27
1.0
 37
0.0
 76
     0
330
9856
331
9A26
  0
LAYOUT
  5
9A7E
102
{ACAD_XDICTIONARY
360
9ADB
102
}
102
{ACAD_REACTORS
330
9851
102
}
330
9851
100
AcDbPlotSettings
  1

  2
Canon LBP9100C
  4

  6

 40
0.0
 41
0.0
 42
0.0
 43
0.0
 44
0.0
 45
0.0
 46
0.0
 47
0.0
 48
0.0
 49
0.0
140
0.0
141
0.0
142
1.0
143
1.0
 70
   688
 72
     0
 73
     0
 74
     5
  7

 75
    16
147
1.0
148
0.0
149
0.0
100
AcDbLayout
  1
レイアウト1
 70
     0
 71
     1
 10
0.0
 20
0.0
 11
420.0
 21
297.0
 12
0.0
 22
0.0
 32
0.0
 14
1.000000000000000E+20
 24
1.000000000000000E+20
 34
1.000000000000000E+20
 15
-1.000000000000000E+20
 25
-1.000000000000000E+20
 35
-1.000000000000000E+20
146
0.0
 13
0.0
 23
0.0
 33
0.0
 16
1.0
 26
0.0
 36
0.0
 17
0.0
 27
1.0
 37
0.0
 76
     0
330
9852
  0
MATERIAL
  5
9A39
102
{ACAD_XDICTIONARY
360
9A3A
102
}
102
{ACAD_REACTORS
330
9A30
102
}
330
9A30
100
AcDbMaterial
  1
ByBlock
 72
     0
 43
0.0208333333333333
 43
0.0
 43
0.0
 43
0.0
 43
0.0
 43
0.0208333333333333
 43
0.0
 43
0.0
 43
0.0
 43
0.0
 43
1.0
 43
0.0
 43
0.0
 43
0.0
 43
0.0
 43
1.0
 77
     0
 47
0.0208333333333333
 47
0.0
 47
0.0
 47
0.0
 47
0.0
 47
0.0208333333333333
 47
0.0
 47
0.0
 47
0.0
 47
0.0
 47
1.0
 47
0.0
 47
0.0
 47
0.0
 47
0.0
 47
1.0
171
     0
 49
0.0208333333333333
 49
0.0
 49
0.0
 49
0.0
 49
0.0
 49
0.0208333333333333
 49
0.0
 49
0.0
 49
0.0
 49
0.0
 49
1.0
 49
0.0
 49
0.0
 49
0.0
 49
0.0
 49
1.0
175
     0
142
0.0208333333333333
142
0.0
142
0.0
142
0.0
142
0.0
142
0.0208333333333333
142
0.0
142
0.0
142
0.0
142
0.0
142
1.0
142
0.0
142
0.0
142
0.0
142
0.0
142
1.0
179
     0
144
0.0208333333333333
144
0.0
144
0.0
144
0.0
144
0.0
144
0.0208333333333333
144
0.0
144
0.0
144
0.0
144
0.0
144
1.0
144
0.0
144
0.0
144
0.0
144
0.0
144
1.0
147
0.0208333333333333
147
0.0
147
0.0
147
0.0
147
0.0
147
0.0208333333333333
147
0.0
147
0.0
147
0.0
147
0.0
147
1.0
147
0.0
147
0.0
147
0.0
147
0.0
147
1.0
  0
MATERIAL
  5
9A31
102
{ACAD_XDICTIONARY
360
9A32
102
}
102
{ACAD_REACTORS
330
9A30
102
}
330
9A30
100
AcDbMaterial
  1
ByLayer
 72
     0
 43
0.0208333333333333
 43
0.0
 43
0.0
 43
0.0
 43
0.0
 43
0.0208333333333333
 43
0.0
 43
0.0
 43
0.0
 43
0.0
 43
1.0
 43
0.0
 43
0.0
 43
0.0
 43
0.0
 43
1.0
 77
     0
 47
0.0208333333333333
 47
0.0
 47
0.0
 47
0.0
 47
0.0
 47
0.0208333333333333
 47
0.0
 47
0.0
 47
0.0
 47
0.0
 47
1.0
 47
0.0
 47
0.0
 47
0.0
 47
0.0
 47
1.0
171
     0
 49
0.0208333333333333
 49
0.0
 49
0.0
 49
0.0
 49
0.0
 49
0.0208333333333333
 49
0.0
 49
0.0
 49
0.0
 49
0.0
 49
1.0
 49
0.0
 49
0.0
 49
0.0
 49
0.0
 49
1.0
175
     0
142
0.0208333333333333
142
0.0
142
0.0
142
0.0
142
0.0
142
0.0208333333333333
142
0.0
142
0.0
142
0.0
142
0.0
142
1.0
142
0.0
142
0.0
142
0.0
142
0.0
142
1.0
179
     0
144
0.0208333333333333
144
0.0
144
0.0
144
0.0
144
0.0
144
0.0208333333333333
144
0.0
144
0.0
144
0.0
144
0.0
144
1.0
144
0.0
144
0.0
144
0.0
144
0.0
144
1.0
147
0.0208333333333333
147
0.0
147
0.0
147
0.0
147
0.0
147
0.0208333333333333
147
0.0
147
0.0
147
0.0
147
0.0
147
1.0
147
0.0
147
0.0
147
0.0
147
0.0
147
1.0
  0
MATERIAL
  5
9A41
102
{ACAD_XDICTIONARY
360
9A42
102
}
102
{ACAD_REACTORS
330
9A30
102
}
330
9A30
100
AcDbMaterial
  1
Global
 72
     0
 43
0.0208333333333333
 43
0.0
 43
0.0
 43
0.0
 43
0.0
 43
0.0208333333333333
 43
0.0
 43
0.0
 43
0.0
 43
0.0
 43
1.0
 43
0.0
 43
0.0
 43
0.0
 43
0.0
 43
1.0
 77
     0
 47
0.0208333333333333
 47
0.0
 47
0.0
 47
0.0
 47
0.0
 47
0.0208333333333333
 47
0.0
 47
0.0
 47
0.0
 47
0.0
 47
1.0
 47
0.0
 47
0.0
 47
0.0
 47
0.0
 47
1.0
171
     0
 49
0.0208333333333333
 49
0.0
 49
0.0
 49
0.0
 49
0.0
 49
0.0208333333333333
 49
0.0
 49
0.0
 49
0.0
 49
0.0
 49
1.0
 49
0.0
 49
0.0
 49
0.0
 49
0.0
 49
1.0
175
     0
142
0.0208333333333333
142
0.0
142
0.0
142
0.0
142
0.0
142
0.0208333333333333
142
0.0
142
0.0
142
0.0
142
0.0
142
1.0
142
0.0
142
0.0
142
0.0
142
0.0
142
1.0
179
     0
144
0.0208333333333333
144
0.0
144
0.0
144
0.0
144
0.0
144
0.0208333333333333
144
0.0
144
0.0
144
0.0
144
0.0
144
1.0
144
0.0
144
0.0
144
0.0
144
0.0
144
1.0
147
0.0208333333333333
147
0.0
147
0.0
147
0.0
147
0.0
147
0.0208333333333333
147
0.0
147
0.0
147
0.0
147
0.0
147
1.0
147
0.0
147
0.0
147
0.0
147
0.0
147
1.0
  0
MLEADERSTYLE
  5
9A78
102
{ACAD_REACTORS
330
9A77
102
}
330
9A77
100
AcDbMLeaderStyle
170
     2
171
     1
172
     0
 90
        2
 40
0.0
 41
0.0
173
     1
 91
-1056964608
340
984B
 92
       -2
290
     1
 42
0.09
291
     1
 43
0.36
  3
Standard
 44
0.18
300

342
9849
174
     1
178
     6
175
     1
176
     0
 93
-1056964608
 45
0.18
292
     0
297
     0
 46
0.18
 94
-1056964608
 47
1.0
 49
1.0
140
1.0
293
     1
141
0.0
294
     1
177
     0
142
1.0
295
     0
296
     0
143
0.125
1001
ACAD_MLEADERVER
1070
     2
  0
MLINESTYLE
  5
984F
102
{ACAD_REACTORS
330
984E
102
}
330
984E
100
AcDbMlineStyle
  2
STANDARD
 70
     0
  3

 62
   256
 51
90.0
 52
90.0
 71
     2
 49
0.5
 62
   256
  6
BYLAYER
 49
-0.5
 62
   256
  6
BYLAYER
  0
ACDBPLACEHOLDER
  5
9A2F
102
{ACAD_REACTORS
330
9A2E
102
}
330
9A2E
  0
SCALE
  5
9A66
102
{ACAD_REACTORS
330
9A65
102
}
330
9A65
100
AcDbScale
 70
     0
300
1:1
140
1.0
141
1.0
290
     1
  0
SCALE
  5
9A67
102
{ACAD_REACTORS
330
9A65
102
}
330
9A65
100
AcDbScale
 70
     0
300
1/128" = 1'-0"
140
0.0078125
141
12.0
290
     0
  0
SCALE
  5
9A68
102
{ACAD_REACTORS
330
9A65
102
}
330
9A65
100
AcDbScale
 70
     0
300
1/64" = 1'-0"
140
0.015625
141
12.0
290
     0
  0
SCALE
  5
9A69
102
{ACAD_REACTORS
330
9A65
102
}
330
9A65
100
AcDbScale
 70
     0
300
1/32" = 1'-0"
140
0.03125
141
12.0
290
     0
  0
SCALE
  5
9A6A
102
{ACAD_REACTORS
330
9A65
102
}
330
9A65
100
AcDbScale
 70
     0
300
1/16" = 1'-0"
140
0.0625
141
12.0
290
     0
  0
SCALE
  5
9A6B
102
{ACAD_REACTORS
330
9A65
102
}
330
9A65
100
AcDbScale
 70
     0
300
3/32" = 1'-0"
140
0.09375
141
12.0
290
     0
  0
SCALE
  5
9A6C
102
{ACAD_REACTORS
330
9A65
102
}
330
9A65
100
AcDbScale
 70
     0
300
1/8" = 1'-0"
140
0.125
141
12.0
290
     0
  0
SCALE
  5
9A6D
102
{ACAD_REACTORS
330
9A65
102
}
330
9A65
100
AcDbScale
 70
     0
300
3/16" = 1'-0"
140
0.1875
141
12.0
290
     0
  0
SCALE
  5
9A6E
102
{ACAD_REACTORS
330
9A65
102
}
330
9A65
100
AcDbScale
 70
     0
300
1/4" = 1'-0"
140
0.25
141
12.0
290
     0
  0
SCALE
  5
9A6F
102
{ACAD_REACTORS
330
9A65
102
}
330
9A65
100
AcDbScale
 70
     0
300
3/8" = 1'-0"
140
0.375
141
12.0
290
     0
  0
SCALE
  5
9A70
102
{ACAD_REACTORS
330
9A65
102
}
330
9A65
100
AcDbScale
 70
     0
300
1/2" = 1'-0"
140
0.5
141
12.0
290
     0
  0
SCALE
  5
9A71
102
{ACAD_REACTORS
330
9A65
102
}
330
9A65
100
AcDbScale
 70
     0
300
3/4" = 1'-0"
140
0.75
141
12.0
290
     0
  0
SCALE
  5
9A72
102
{ACAD_REACTORS
330
9A65
102
}
330
9A65
100
AcDbScale
 70
     0
300
1" = 1'-0"
140
1.0
141
12.0
290
     0
  0
SCALE
  5
9A73
102
{ACAD_REACTORS
330
9A65
102
}
330
9A65
100
AcDbScale
 70
     0
300
1-1/2" = 1'-0"
140
1.5
141
12.0
290
     0
  0
SCALE
  5
9A74
102
{ACAD_REACTORS
330
9A65
102
}
330
9A65
100
AcDbScale
 70
     0
300
3" = 1'-0"
140
3.0
141
12.0
290
     0
  0
SCALE
  5
9A75
102
{ACAD_REACTORS
330
9A65
102
}
330
9A65
100
AcDbScale
 70
     0
300
6" = 1'-0"
140
6.0
141
12.0
290
     0
  0
SCALE
  5
9A76
102
{ACAD_REACTORS
330
9A65
102
}
330
9A65
100
AcDbScale
 70
     0
300
1'-0" = 1'-0"
140
12.0
141
12.0
290
     0
  0
ACDBSECTIONVIEWSTYLE
  5
9A7A
102
{ACAD_XDICTIONARY
360
9AD5
102
}
102
{ACAD_REACTORS
330
9A79
102
}
330
9A79
100
AcDbModelDocViewStyle
 70
     0
  3
Imperial24
290
     0
100
AcDbSectionViewStyle
 70
     0
 71
     0
 90
       78
 71
     1
340
9849
 40
0.24
340
0
340
0
 40
0.24
300
I, O, Q, S, X, Z
 40
0.48
 90
        3
 40
0.18
 90
        1
 71
     2
340
984D
 90
       25
340
984D
 90
       50
 40
0.24
 40
0.0
 40
0.24
 71
     3
340
9849
 40
0.24
 90
        1
 40
0.75
 90
        1
300
%<\AcVar ViewType \f "%tc1">% %<\AcVar ViewSectionStartId>%-%<\AcVar ViewSectionEndId>%\PSCALE %<\AcVar ViewScale \f "%sn">%
 71
     4
300
ANSI31
 40
1.0
 90
        0
290
     0
290
     0
 90
        6
 40
0.0
 40
1.570796326794896
 40
0.2617993877991494
 40
1.308996938995747
 40
-0.2617993877991494
 40
1.832595714594046
  0
TABLESTYLE
  5
9A64
102
{ACAD_XDICTIONARY
360
9A9C
102
}
102
{ACAD_REACTORS
330
9A63
102
}
330
9A63
100
AcDbTableStyle
  3
Standard
 70
     0
 71
     0
 40
0.06
 41
0.06
280
     0
281
     0
  7
STANDARD
140
0.18
170
     2
 62
     0
 63
     7
283
     0
274
    -2
284
     1
 64
     0
275
    -2
285
     1
 65
     0
276
    -2
286
     1
 66
     0
277
    -2
287
     1
 67
     0
278
    -2
288
     1
 68
     0
279
    -2
289
     1
 69
     0
  7
STANDARD
140
0.25
170
     5
 62
     0
 63
     7
283
     0
274
    -2
284
     1
 64
     0
275
    -2
285
     1
 65
     0
276
    -2
286
     1
 66
     0
277
    -2
287
     1
 67
     0
278
    -2
288
     1
 68
     0
279
    -2
289
     1
 69
     0
  7
STANDARD
140
0.18
170
     5
 62
     0
 63
     7
283
     0
274
    -2
284
     1
 64
     0
275
    -2
285
     1
 65
     0
276
    -2
286
     1
 66
     0
277
    -2
287
     1
 67
     0
278
    -2
288
     1
 68
     0
279
    -2
289
     1
 69
     0
  0
VISUALSTYLE
  5
9A4F
102
{ACAD_XDICTIONARY
360
9AAD
102
}
102
{ACAD_REACTORS
330
9A49
102
}
330
9A49
100
AcDbVisualStyle
  2
2dWireframe
 70
     4
 71
     0
 72
     2
 73
     0
 90
        0
 40
-0.6
 41
-30.0
 62
     5
 63
     7
 74
     1
 91
        4
 64
     7
 65
   257
 75
     1
175
     1
 42
1.0
 92
        0
 66
   257
 43
1.0
 76
     1
 77
     6
 78
     2
 67
     7
 79
     5
170
     0
171
     0
290
     0
174
     0
 93
        1
 44
0.0
173
     0
291
     0
 45
0.0
1001
ACAD
1000
AcDbSavedByObjectVersion
1070
     0
  0
VISUALSTYLE
  5
9A4E
102
{ACAD_XDICTIONARY
360
9AAB
102
}
102
{ACAD_REACTORS
330
9A49
102
}
330
9A49
100
AcDbVisualStyle
  2
Basic
 70
     7
 71
     1
 72
     0
 73
     1
 90
        0
 40
-0.6
 41
-30.0
 62
     5
 63
     7
 74
     0
 91
        4
 64
     7
 65
   257
 75
     1
175
     1
 42
1.0
 92
        8
 66
     7
 43
1.0
 76
     1
 77
     6
 78
     2
 67
     7
 79
     5
170
     0
171
     0
290
     0
174
     0
 93
        1
 44
0.0
173
     0
291
     1
 45
0.0
1001
ACAD
1000
AcDbSavedByObjectVersion
1070
     0
  0
VISUALSTYLE
  5
9A55
102
{ACAD_XDICTIONARY
360
9AB9
102
}
102
{ACAD_REACTORS
330
9A49
102
}
330
9A49
100
AcDbVisualStyle
  2
Brighten
 70
    12
 71
     2
 72
     2
 73
     0
 90
        0
 40
-0.6
 41
-30.0
 62
     5
 63
     7
 74
     1
 91
        4
 64
     7
 65
   257
 75
     1
175
     1
 42
1.0
 92
        8
 66
     7
 43
1.0
 76
     1
 77
     6
 78
     2
 67
     7
 79
     5
170
     0
171
     0
290
     0
174
     0
 93
        1
 44
50.0
173
     0
291
     1
 45
0.0
1001
ACAD
1000
AcDbSavedByObjectVersion
1070
     0
  0
VISUALSTYLE
  5
9A59
102
{ACAD_XDICTIONARY
360
9AC1
102
}
102
{ACAD_REACTORS
330
9A49
102
}
330
9A49
100
AcDbVisualStyle
  2
ColorChange
 70
    16
 71
     2
 72
     2
 73
     3
 90
        0
 40
-0.6
 41
-30.0
 62
     5
 63
     8
 74
     1
 91
        4
 64
     7
 65
   257
 75
     1
175
     1
 42
1.0
 92
        8
 66
     8
 43
1.0
 76
     1
 77
     6
 78
     2
 67
     7
 79
     5
170
     0
171
     0
290
     0
174
     0
 93
        1
 44
0.0
173
     0
291
     1
 45
0.0
1001
ACAD
1000
AcDbSavedByObjectVersion
1070
     0
  0
VISUALSTYLE
  5
9A52
102
{ACAD_XDICTIONARY
360
9AB3
102
}
102
{ACAD_REACTORS
330
9A49
102
}
330
9A49
100
AcDbVisualStyle
  2
Conceptual
 70
     9
 71
     3
 72
     2
 73
     0
 90
        0
 40
-0.6
 41
-30.0
 62
     5
 63
     7
 74
     2
 91
        2
 64
     7
 65
   257
 75
     1
175
     1
 42
179.0
 92
        8
 66
     7
 43
1.0
 76
     1
 77
     6
 78
     2
 67
     7
 79
     3
170
     0
171
     0
290
     0
174
     0
 93
        1
 44
0.0
173
     0
291
     0
 45
0.0
1001
ACAD
1000
AcDbSavedByObjectVersion
1070
     0
  0
VISUALSTYLE
  5
9A54
102
{ACAD_XDICTIONARY
360
9AB7
102
}
102
{ACAD_REACTORS
330
9A49
102
}
330
9A49
100
AcDbVisualStyle
  2
Dim
 70
    11
 71
     2
 72
     2
 73
     0
 90
        0
 40
-0.6
 41
-30.0
 62
     5
 63
     7
 74
     1
 91
        4
 64
     7
 65
   257
 75
     1
175
     1
 42
1.0
 92
        8
 66
     7
 43
1.0
 76
     1
 77
     6
 78
     2
 67
     7
 79
     5
170
     0
171
     0
290
     0
174
     0
 93
        1
 44
-50.0
173
     0
291
     1
 45
0.0
1001
ACAD
1000
AcDbSavedByObjectVersion
1070
     0
  0
VISUALSTYLE
  5
9A61
102
{ACAD_XDICTIONARY
360
9AD1
102
}
102
{ACAD_REACTORS
330
9A49
102
}
330
9A49
100
AcDbVisualStyle
  2
EdgeColorOff
 70
    22
 71
     2
 72
     2
 73
     0
 90
        0
 40
-0.6
 41
-30.0
 62
     5
 63
     7
 74
     1
 91
        4
 64
     7
 65
   257
 75
     1
175
     1
 42
1.0
 92
        8
 66
     7
 43
1.0
 76
     1
 77
     6
 78
     2
 67
     7
 79
     5
170
     0
171
     0
290
     0
174
     0
 93
        1
 44
0.0
173
     0
291
     1
 45
0.0
1001
ACAD
1000
AcDbSavedByObjectVersion
1070
     0
  0
VISUALSTYLE
  5
9A58
102
{ACAD_XDICTIONARY
360
9ABF
102
}
102
{ACAD_REACTORS
330
9A49
102
}
330
9A49
100
AcDbVisualStyle
  2
Facepattern
 70
    15
 71
     2
 72
     2
 73
     0
 90
        0
 40
-0.6
 41
-30.0
 62
     5
 63
     7
 74
     1
 91
        4
 64
     7
 65
   257
 75
     1
175
     1
 42
1.0
 92
        8
 66
     7
 43
1.0
 76
     1
 77
     6
 78
     2
 67
     7
 79
     5
170
     0
171
     0
290
     0
174
     0
 93
        1
 44
0.0
173
     0
291
     1
 45
0.0
1001
ACAD
1000
AcDbSavedByObjectVersion
1070
     0
  0
VISUALSTYLE
  5
9A4A
102
{ACAD_XDICTIONARY
360
9AA3
102
}
102
{ACAD_REACTORS
330
9A49
102
}
330
9A49
100
AcDbVisualStyle
  2
Flat
 70
     0
 71
     2
 72
     1
 73
     1
 90
        2
 40
-0.6
 41
30.0
 62
     5
 63
     7
 74
     0
 91
        0
 64
     7
 65
   257
 75
     1
175
     1
 42
1.0
 92
        8
 66
     7
 43
1.0
 76
     1
 77
     6
 78
     2
 67
     7
 79
     5
170
     0
171
     0
290
     0
174
     0
 93
       13
 44
0.0
173
     0
291
     1
 45
0.0
1001
ACAD
1000
AcDbSavedByObjectVersion
1070
     0
  0
VISUALSTYLE
  5
9A4B
102
{ACAD_XDICTIONARY
360
9AA5
102
}
102
{ACAD_REACTORS
330
9A49
102
}
330
9A49
100
AcDbVisualStyle
  2
FlatWithEdges
 70
     1
 71
     2
 72
     1
 73
     1
 90
        2
 40
-0.6
 41
30.0
 62
     5
 63
     7
 74
     1
 91
        0
 64
     7
 65
   257
 75
     1
175
     1
 42
1.0
 92
        0
 66
   257
 43
1.0
 76
     1
 77
     6
 78
     2
 67
     7
 79
     5
170
     0
171
     0
290
     0
174
     0
 93
       13
 44
0.0
173
     0
291
     1
 45
0.0
1001
ACAD
1000
AcDbSavedByObjectVersion
1070
     0
  0
VISUALSTYLE
  5
9A4C
102
{ACAD_XDICTIONARY
360
9AA7
102
}
102
{ACAD_REACTORS
330
9A49
102
}
330
9A49
100
AcDbVisualStyle
  2
Gouraud
 70
     2
 71
     2
 72
     2
 73
     1
 90
        2
 40
-0.6
 41
30.0
 62
     5
 63
     7
 74
     0
 91
        0
 64
     7
 65
   257
 75
     1
175
     1
 42
1.0
 92
        0
 66
     7
 43
1.0
 76
     1
 77
     6
 78
     2
 67
     7
 79
     5
170
     0
171
     0
290
     0
174
     0
 93
       13
 44
0.0
173
     0
291
     1
 45
0.0
1001
ACAD
1000
AcDbSavedByObjectVersion
1070
     0
  0
VISUALSTYLE
  5
9A4D
102
{ACAD_XDICTIONARY
360
9AA9
102
}
102
{ACAD_REACTORS
330
9A49
102
}
330
9A49
100
AcDbVisualStyle
  2
GouraudWithEdges
 70
     3
 71
     2
 72
     2
 73
     1
 90
        2
 40
-0.6
 41
30.0
 62
     5
 63
     7
 74
     1
 91
        0
 64
     7
 65
   257
 75
     1
175
     1
 42
1.0
 92
        0
 66
   257
 43
1.0
 76
     1
 77
     6
 78
     2
 67
     7
 79
     5
170
     0
171
     0
290
     0
174
     0
 93
       13
 44
0.0
173
     0
291
     1
 45
0.0
1001
ACAD
1000
AcDbSavedByObjectVersion
1070
     0
  0
VISUALSTYLE
  5
9A51
102
{ACAD_XDICTIONARY
360
9AB1
102
}
102
{ACAD_REACTORS
330
9A49
102
}
330
9A49
100
AcDbVisualStyle
  2
Hidden
 70
     6
 71
     1
 72
     2
 73
     2
 90
        0
 40
-0.6
 41
-30.0
 62
     5
 63
     7
 74
     2
 91
        2
 64
     7
 65
   257
 75
     2
175
     1
 42
40.0
 92
        0
 66
   257
 43
1.0
 76
     1
 77
     6
 78
     2
 67
     7
 79
     3
170
     0
171
     0
290
     0
174
     0
 93
        1
 44
0.0
173
     0
291
     0
 45
0.0
1001
ACAD
1000
AcDbSavedByObjectVersion
1070
     0
  0
VISUALSTYLE
  5
9A5F
102
{ACAD_XDICTIONARY
360
9ACD
102
}
102
{ACAD_REACTORS
330
9A49
102
}
330
9A49
100
AcDbVisualStyle
  2
JitterOff
 70
    20
 71
     2
 72
     2
 73
     0
 90
        0
 40
-0.6
 41
-30.0
 62
     5
 63
     7
 74
     1
 91
        4
 64
     7
 65
   257
 75
     1
175
     1
 42
1.0
 92
       10
 66
     7
 43
1.0
 76
     1
 77
     6
 78
     2
 67
     7
 79
     5
170
     0
171
     0
290
     0
174
     0
 93
        1
 44
0.0
173
     0
291
     1
 45
0.0
1001
ACAD
1000
AcDbSavedByObjectVersion
1070
     0
  0
VISUALSTYLE
  5
9A57
102
{ACAD_XDICTIONARY
360
9ABD
102
}
102
{ACAD_REACTORS
330
9A49
102
}
330
9A49
100
AcDbVisualStyle
  2
Linepattern
 70
    14
 71
     2
 72
     2
 73
     0
 90
        0
 40
-0.6
 41
-30.0
 62
     5
 63
     7
 74
     1
 91
        4
 64
     7
 65
   257
 75
     7
175
     7
 42
1.0
 92
        8
 66
     7
 43
1.0
 76
     1
 77
     6
 78
     2
 67
     7
 79
     5
170
     0
171
     0
290
     0
174
     0
 93
        1
 44
0.0
173
     0
291
     1
 45
0.0
1001
ACAD
1000
AcDbSavedByObjectVersion
1070
     0
  0
VISUALSTYLE
  5
9A60
102
{ACAD_XDICTIONARY
360
9ACF
102
}
102
{ACAD_REACTORS
330
9A49
102
}
330
9A49
100
AcDbVisualStyle
  2
OverhangOff
 70
    21
 71
     2
 72
     2
 73
     0
 90
        0
 40
-0.6
 41
-30.0
 62
     5
 63
     7
 74
     1
 91
        4
 64
     7
 65
   257
 75
     1
175
     1
 42
1.0
 92
        9
 66
     7
 43
1.0
 76
     1
 77
     6
 78
     2
 67
     7
 79
     5
170
     0
171
     0
290
     0
174
     0
 93
        1
 44
0.0
173
     0
291
     1
 45
0.0
1001
ACAD
1000
AcDbSavedByObjectVersion
1070
     0
  0
VISUALSTYLE
  5
9A53
102
{ACAD_XDICTIONARY
360
9AB5
102
}
102
{ACAD_REACTORS
330
9A49
102
}
330
9A49
100
AcDbVisualStyle
  2
Realistic
 70
     8
 71
     2
 72
     3
 73
     0
 90
        2
 40
-0.6
 41
30.0
 62
     5
 63
     7
 74
     0
 91
        0
 64
     7
 65
   257
 75
     1
175
     1
 42
1.0
 92
        8
 66
   257
 43
1.0
 76
     1
 77
     6
 78
     2
 67
     7
 79
     3
170
     0
171
     0
290
     0
174
     0
 93
       13
 44
0.0
173
     0
291
     0
 45
0.0
1001
ACAD
1000
AcDbSavedByObjectVersion
1070
     0
  0
VISUALSTYLE
  5
9A5E
102
{ACAD_XDICTIONARY
360
9ACB
102
}
102
{ACAD_REACTORS
330
9A49
102
}
330
9A49
100
AcDbVisualStyle
  2
Shaded
 70
    27
 71
     2
 72
     2
 73
     1
 90
        2
 40
-0.6
 41
30.0
 62
     5
 63
     7
 74
     0
 91
        4
 64
     7
 65
   257
 75
     1
175
     1
 42
1.0
 92
        8
 66
   257
 43
1.0
 76
     1
 77
     6
 78
     2
 67
     8
 79
     3
170
     0
171
     0
290
     0
174
     0
 93
        5
 44
0.0
173
     0
291
     0
 45
0.0
1001
ACAD
1000
AcDbSavedByObjectVersion
1070
     0
  0
VISUALSTYLE
  5
9A5D
102
{ACAD_XDICTIONARY
360
9AC9
102
}
102
{ACAD_REACTORS
330
9A49
102
}
330
9A49
100
AcDbVisualStyle
  2
Shaded with edges
 70
    26
 71
     2
 72
     2
 73
     1
 90
        2
 40
-0.6
 41
30.0
 62
     5
 63
     7
 74
     1
 91
       10
 64
     7
 65
   257
 75
     2
175
     1
 42
1.0
 92
        8
 66
   257
 43
1.0
 76
     1
 77
     6
 78
     2
 67
     7
 79
     3
170
     0
171
     0
290
     0
174
     0
 93
        5
 44
0.0
173
     0
291
     0
 45
0.0
1001
ACAD
1000
AcDbSavedByObjectVersion
1070
     0
  0
VISUALSTYLE
  5
9A5A
102
{ACAD_XDICTIONARY
360
9AC3
102
}
102
{ACAD_REACTORS
330
9A49
102
}
330
9A49
100
AcDbVisualStyle
  2
Shades of Gray
 70
    23
 71
     2
 72
     2
 73
     3
 90
        0
 40
-0.6
 41
-30.0
 62
     5
 63
     7
 74
     2
 91
        2
 64
     7
 65
     7
 75
     1
175
     1
 42
40.0
 92
        8
 66
     7
 43
1.0
 76
     1
 77
     6
 78
     2
 67
     7
 79
     3
170
     0
171
     0
290
     0
174
     0
 93
        1
 44
0.0
173
     0
291
     0
 45
0.0
1001
ACAD
1000
AcDbSavedByObjectVersion
1070
     0
  0
VISUALSTYLE
  5
9A5B
102
{ACAD_XDICTIONARY
360
9AC5
102
}
102
{ACAD_REACTORS
330
9A49
102
}
330
9A49
100
AcDbVisualStyle
  2
Sketchy
 70
    24
 71
     1
 72
     2
 73
     2
 90
        0
 40
-0.6
 41
-30.0
 62
     5
 63
     7
 74
     2
 91
        2
 64
     7
 65
     7
 75
     1
175
     1
 42
40.0
 92
       11
 66
     7
 43
1.0
 76
     1
 77
     6
 78
     2
 67
     7
 79
     6
170
     0
171
     0
290
     0
174
     0
 93
        1
 44
0.0
173
     0
291
     0
 45
0.0
1001
ACAD
1000
AcDbSavedByObjectVersion
1070
     0
  0
VISUALSTYLE
  5
9A56
102
{ACAD_XDICTIONARY
360
9ABB
102
}
102
{ACAD_REACTORS
330
9A49
102
}
330
9A49
100
AcDbVisualStyle
  2
Thicken
 70
    13
 71
     2
 72
     2
 73
     0
 90
        0
 40
-0.6
 41
-30.0
 62
     5
 63
     7
 74
     1
 91
        4
 64
     7
 65
   257
 75
     1
175
     1
 42
1.0
 92
       12
 66
     7
 43
1.0
 76
     1
 77
     6
 78
     2
 67
     7
 79
     5
170
     0
171
     0
290
     0
174
     0
 93
        1
 44
0.0
173
     0
291
     1
 45
0.0
1001
ACAD
1000
AcDbSavedByObjectVersion
1070
     0
  0
VISUALSTYLE
  5
9A50
102
{ACAD_XDICTIONARY
360
9AAF
102
}
102
{ACAD_REACTORS
330
9A49
102
}
330
9A49
100
AcDbVisualStyle
  2
Wireframe
 70
     5
 71
     0
 72
     2
 73
     0
 90
        0
 40
-0.6
 41
-30.0
 62
     5
 63
     7
 74
     1
 91
        4
 64
     7
 65
   257
 75
     1
175
     1
 42
1.0
 92
        0
 66
   257
 43
1.0
 76
     1
 77
     6
 78
     2
 67
     7
 79
     3
170
     0
171
     0
290
     0
174
     0
 93
        1
 44
0.0
173
     0
291
     0
 45
0.0
1001
ACAD
1000
AcDbSavedByObjectVersion
1070
     0
  0
VISUALSTYLE
  5
9A5C
102
{ACAD_XDICTIONARY
360
9AC7
102
}
102
{ACAD_REACTORS
330
9A49
102
}
330
9A49
100
AcDbVisualStyle
  2
X-Ray
 70
    25
 71
     2
 72
     2
 73
     1
 90
        1
 40
0.5
 41
-30.0
 62
     5
 63
     7
 74
     1
 91
        0
 64
     7
 65
   257
 75
     1
175
     1
 42
1.0
 92
        8
 66
     7
 43
1.0
 76
     1
 77
     6
 78
     2
 67
     7
 79
     3
170
     0
171
     0
290
     0
174
     0
 93
       13
 44
0.0
173
     0
291
     0
 45
0.0
1001
ACAD
1000
AcDbSavedByObjectVersion
1070
     0
  0
DICTIONARYVAR
  5
9A96
102
{ACAD_REACTORS
330
9A91
102
}
330
9A91
100
DictionaryVariables
280
     0
  1
1:1
  0
DICTIONARYVAR
  5
9A93
102
{ACAD_REACTORS
330
9A91
102
}
330
9A91
100
DictionaryVariables
280
     0
  1
STANDARD
  0
DICTIONARYVAR
  5
9A92
102
{ACAD_REACTORS
330
9A91
102
}
330
9A91
100
DictionaryVariables
280
     0
  1
STANDARD
  0
DICTIONARYVAR
  5
9A94
102
{ACAD_REACTORS
330
9A91
102
}
330
9A91
100
DictionaryVariables
280
     0
  1
Imperial24
  0
DICTIONARYVAR
  5
9A95
102
{ACAD_REACTORS
330
9A91
102
}
330
9A91
100
DictionaryVariables
280
     0
  1
Imperial24
  0
DICTIONARYVAR
  5
9A99
102
{ACAD_REACTORS
330
9A91
102
}
330
9A91
100
DictionaryVariables
280
     0
  1
1
  0
DICTIONARYVAR
  5
9A98
102
{ACAD_REACTORS
330
9A91
102
}
330
9A91
100
DictionaryVariables
280
     0
  1
0
  0
DICTIONARYVAR
  5
9A97
102
{ACAD_REACTORS
330
9A91
102
}
330
9A91
100
DictionaryVariables
280
     0
  1
127
  0
DICTIONARYVAR
  5
9A9A
102
{ACAD_REACTORS
330
9A91
102
}
330
9A91
100
DictionaryVariables
280
     0
  1
2
  0
DICTIONARY
  5
9AD7
330
9A7C
100
AcDbDictionary
280
     1
281
     1
  3
ACAD_XREC_ROUNDTRIP
360
9AD8
  0
DICTIONARY
  5
9AD9
330
9A7D
100
AcDbDictionary
280
     1
281
     1
  3
ACAD_XREC_ROUNDTRIP
360
9ADA
  0
DICTIONARY
  5
9ADB
330
9A7E
100
AcDbDictionary
280
     1
281
     1
  3
ACAD_XREC_ROUNDTRIP
360
9ADC
  0
DICTIONARY
  5
9A3A
330
9A39
100
AcDbDictionary
280
     1
281
     1
  3
ACAD_XREC_ROUNDTRIP
360
9AA1
  3
BUMPTILE
360
9A3C
  3
DIFFUSETILE
360
9A3B
  3
OPACITYTILE
360
9A3F
  3
REFLECTIONTILE
360
9A3E
  3
REFRACTIONTILE
360
9A40
  3
SPECULARTILE
360
9A3D
  0
DICTIONARY
  5
9A32
330
9A31
100
AcDbDictionary
280
     1
281
     1
  3
ACAD_XREC_ROUNDTRIP
360
9AA0
  3
BUMPTILE
360
9A34
  3
DIFFUSETILE
360
9A33
  3
OPACITYTILE
360
9A37
  3
REFLECTIONTILE
360
9A36
  3
REFRACTIONTILE
360
9A38
  3
SPECULARTILE
360
9A35
  0
DICTIONARY
  5
9A42
330
9A41
100
AcDbDictionary
280
     1
281
     1
  3
ACAD_XREC_ROUNDTRIP
360
9AA2
  3
BUMPTILE
360
9A44
  3
DIFFUSETILE
360
9A43
  3
OPACITYTILE
360
9A47
  3
REFLECTIONTILE
360
9A46
  3
REFRACTIONTILE
360
9A48
  3
SPECULARTILE
360
9A45
  0
DICTIONARY
  5
9AD5
330
9A7A
100
AcDbDictionary
280
     1
281
     1
  3
ACAD_XREC_ROUNDTRIP
360
9AD6
  0
DICTIONARY
  5
9A9C
330
9A64
100
AcDbDictionary
280
     1
281
     1
  3
ACAD_ROUNDTRIP_2008_TABLESTYLE_CELLSTYLEMAP
360
9A9D
  3
ACAD_XREC_ROUNDTRIP
360
9AD3
  0
DICTIONARY
  5
9AAD
330
9A4F
100
AcDbDictionary
280
     1
281
     1
  3
ACAD_XREC_ROUNDTRIP
360
9AAE
  0
DICTIONARY
  5
9AAB
330
9A4E
100
AcDbDictionary
280
     1
281
     1
  3
ACAD_XREC_ROUNDTRIP
360
9AAC
  0
DICTIONARY
  5
9AB9
330
9A55
100
AcDbDictionary
280
     1
281
     1
  3
ACAD_XREC_ROUNDTRIP
360
9ABA
  0
DICTIONARY
  5
9AC1
330
9A59
100
AcDbDictionary
280
     1
281
     1
  3
ACAD_XREC_ROUNDTRIP
360
9AC2
  0
DICTIONARY
  5
9AB3
330
9A52
100
AcDbDictionary
280
     1
281
     1
  3
ACAD_XREC_ROUNDTRIP
360
9AB4
  0
DICTIONARY
  5
9AB7
330
9A54
100
AcDbDictionary
280
     1
281
     1
  3
ACAD_XREC_ROUNDTRIP
360
9AB8
  0
DICTIONARY
  5
9AD1
330
9A61
100
AcDbDictionary
280
     1
281
     1
  3
ACAD_XREC_ROUNDTRIP
360
9AD2
  0
DICTIONARY
  5
9ABF
330
9A58
100
AcDbDictionary
280
     1
281
     1
  3
ACAD_XREC_ROUNDTRIP
360
9AC0
  0
DICTIONARY
  5
9AA3
330
9A4A
100
AcDbDictionary
280
     1
281
     1
  3
ACAD_XREC_ROUNDTRIP
360
9AA4
  0
DICTIONARY
  5
9AA5
330
9A4B
100
AcDbDictionary
280
     1
281
     1
  3
ACAD_XREC_ROUNDTRIP
360
9AA6
  0
DICTIONARY
  5
9AA7
330
9A4C
100
AcDbDictionary
280
     1
281
     1
  3
ACAD_XREC_ROUNDTRIP
360
9AA8
  0
DICTIONARY
  5
9AA9
330
9A4D
100
AcDbDictionary
280
     1
281
     1
  3
ACAD_XREC_ROUNDTRIP
360
9AAA
  0
DICTIONARY
  5
9AB1
330
9A51
100
AcDbDictionary
280
     1
281
     1
  3
ACAD_XREC_ROUNDTRIP
360
9AB2
  0
DICTIONARY
  5
9ACD
330
9A5F
100
AcDbDictionary
280
     1
281
     1
  3
ACAD_XREC_ROUNDTRIP
360
9ACE
  0
DICTIONARY
  5
9ABD
330
9A57
100
AcDbDictionary
280
     1
281
     1
  3
ACAD_XREC_ROUNDTRIP
360
9ABE
  0
DICTIONARY
  5
9ACF
330
9A60
100
AcDbDictionary
280
     1
281
     1
  3
ACAD_XREC_ROUNDTRIP
360
9AD0
  0
DICTIONARY
  5
9AB5
330
9A53
100
AcDbDictionary
280
     1
281
     1
  3
ACAD_XREC_ROUNDTRIP
360
9AB6
  0
DICTIONARY
  5
9ACB
330
9A5E
100
AcDbDictionary
280
     1
281
     1
  3
ACAD_XREC_ROUNDTRIP
360
9ACC
  0
DICTIONARY
  5
9AC9
330
9A5D
100
AcDbDictionary
280
     1
281
     1
  3
ACAD_XREC_ROUNDTRIP
360
9ACA
  0
DICTIONARY
  5
9AC3
330
9A5A
100
AcDbDictionary
280
     1
281
     1
  3
ACAD_XREC_ROUNDTRIP
360
9AC4
  0
DICTIONARY
  5
9AC5
330
9A5B
100
AcDbDictionary
280
     1
281
     1
  3
ACAD_XREC_ROUNDTRIP
360
9AC6
  0
DICTIONARY
  5
9ABB
330
9A56
100
AcDbDictionary
280
     1
281
     1
  3
ACAD_XREC_ROUNDTRIP
360
9ABC
  0
DICTIONARY
  5
9AAF
330
9A50
100
AcDbDictionary
280
     1
281
     1
  3
ACAD_XREC_ROUNDTRIP
360
9AB0
  0
DICTIONARY
  5
9AC7
330
9A5C
100
AcDbDictionary
280
     1
281
     1
  3
ACAD_XREC_ROUNDTRIP
360
9AC8
  0
XRECORD
  5
9AD8
102
{ACAD_REACTORS
330
9AD7
102
}
330
9AD7
100
AcDbXrecord
280
     1
102
DISPLAYNAME
  1
Imperial24
102
FLAGS
 90
        0
  0
XRECORD
  5
9ADA
102
{ACAD_REACTORS
330
9AD9
102
}
330
9AD9
100
AcDbXrecord
280
     1
102
SHADEPLOT
 70
     0
102
SHADEPLOTRESLEVEL
 70
     2
102
SHADEPLOTCUSTOMDPI
 70
   300
  0
XRECORD
  5
9ADC
102
{ACAD_REACTORS
330
9ADB
102
}
330
9ADB
100
AcDbXrecord
280
     1
102
SHADEPLOT
 70
     0
102
SHADEPLOTRESLEVEL
 70
     2
102
SHADEPLOTCUSTOMDPI
 70
   300
  0
XRECORD
  5
9AA1
102
{ACAD_REACTORS
330
9A3A
102
}
330
9A3A
100
AcDbXrecord
280
     1
102
MATERIAL
148
0.0
149
0.0
149
0.0
 93
        0
 94
      127
282
     0
 72
     0
 77
     0
171
     0
175
     0
179
     0
273
     0
  0
XRECORD
  5
9A3C
102
{ACAD_REACTORS
330
9A3A
102
}
330
9A3A
100
AcDbXrecord
280
     1
270
     1
271
     1
  0
XRECORD
  5
9A3B
102
{ACAD_REACTORS
330
9A3A
102
}
330
9A3A
100
AcDbXrecord
280
     1
270
     1
271
     1
  0
XRECORD
  5
9A3F
102
{ACAD_REACTORS
330
9A3A
102
}
330
9A3A
100
AcDbXrecord
280
     1
270
     1
271
     1
  0
XRECORD
  5
9A3E
102
{ACAD_REACTORS
330
9A3A
102
}
330
9A3A
100
AcDbXrecord
280
     1
270
     1
271
     1
  0
XRECORD
  5
9A40
102
{ACAD_REACTORS
330
9A3A
102
}
330
9A3A
100
AcDbXrecord
280
     1
270
     1
271
     1
  0
XRECORD
  5
9A3D
102
{ACAD_REACTORS
330
9A3A
102
}
330
9A3A
100
AcDbXrecord
280
     1
270
     1
271
     1
  0
XRECORD
  5
9AA0
102
{ACAD_REACTORS
330
9A32
102
}
330
9A32
100
AcDbXrecord
280
     1
102
MATERIAL
148
0.0
149
0.0
149
0.0
 93
        0
 94
      127
282
     0
 72
     0
 77
     0
171
     0
175
     0
179
     0
273
     0
  0
XRECORD
  5
9A34
102
{ACAD_REACTORS
330
9A32
102
}
330
9A32
100
AcDbXrecord
280
     1
270
     1
271
     1
  0
XRECORD
  5
9A33
102
{ACAD_REACTORS
330
9A32
102
}
330
9A32
100
AcDbXrecord
280
     1
270
     1
271
     1
  0
XRECORD
  5
9A37
102
{ACAD_REACTORS
330
9A32
102
}
330
9A32
100
AcDbXrecord
280
     1
270
     1
271
     1
  0
XRECORD
  5
9A36
102
{ACAD_REACTORS
330
9A32
102
}
330
9A32
100
AcDbXrecord
280
     1
270
     1
271
     1
  0
XRECORD
  5
9A38
102
{ACAD_REACTORS
330
9A32
102
}
330
9A32
100
AcDbXrecord
280
     1
270
     1
271
     1
  0
XRECORD
  5
9A35
102
{ACAD_REACTORS
330
9A32
102
}
330
9A32
100
AcDbXrecord
280
     1
270
     1
271
     1
  0
XRECORD
  5
9AA2
102
{ACAD_REACTORS
330
9A42
102
}
330
9A42
100
AcDbXrecord
280
     1
102
MATERIAL
148
0.0
149
0.0
149
0.0
 93
        0
 94
      127
282
     0
 72
     0
 77
     0
171
     0
175
     0
179
     0
273
     0
  0
XRECORD
  5
9A44
102
{ACAD_REACTORS
330
9A42
102
}
330
9A42
100
AcDbXrecord
280
     1
270
     1
271
     1
  0
XRECORD
  5
9A43
102
{ACAD_REACTORS
330
9A42
102
}
330
9A42
100
AcDbXrecord
280
     1
270
     1
271
     1
  0
XRECORD
  5
9A47
102
{ACAD_REACTORS
330
9A42
102
}
330
9A42
100
AcDbXrecord
280
     1
270
     1
271
     1
  0
XRECORD
  5
9A46
102
{ACAD_REACTORS
330
9A42
102
}
330
9A42
100
AcDbXrecord
280
     1
270
     1
271
     1
  0
XRECORD
  5
9A48
102
{ACAD_REACTORS
330
9A42
102
}
330
9A42
100
AcDbXrecord
280
     1
270
     1
271
     1
  0
XRECORD
  5
9A45
102
{ACAD_REACTORS
330
9A42
102
}
330
9A42
100
AcDbXrecord
280
     1
270
     1
271
     1
  0
XRECORD
  5
9AD6
102
{ACAD_REACTORS
330
9AD5
102
}
330
9AD5
100
AcDbXrecord
280
     1
102
DISPLAYNAME
  1
Imperial24
102
FLAGS
 90
        0
  0
CELLSTYLEMAP
  5
9A9D
102
{ACAD_REACTORS
330
9A9C
102
}
330
9A9C
100
AcDbCellStyleMap
 90
        3
300
CELLSTYLE
  1
TABLEFORMAT_BEGIN
 90
        5
170
     1
 91
        0
 92
    32768
 62
   257
 93
        1
300
CONTENTFORMAT
  1
CONTENTFORMAT_BEGIN
 90
        0
 91
        0
 92
      512
 93
        0
300

 40
0.0
140
1.0
 94
        5
 62
     0
340
9849
144
0.25
309
CONTENTFORMAT_END
171
     0
 94
        0
309
TABLEFORMAT_END
  1
CELLSTYLE_BEGIN
 90
        1
 91
        1
300
_TITLE
309
CELLSTYLE_END
300
CELLSTYLE
  1
TABLEFORMAT_BEGIN
 90
        5
170
     1
 91
        0
 92
        0
 62
   257
 93
        1
300
CONTENTFORMAT
  1
CONTENTFORMAT_BEGIN
 90
        0
 91
        0
 92
      512
 93
        0
300

 40
0.0
140
1.0
 94
        5
 62
     0
340
9849
144
0.18
309
CONTENTFORMAT_END
171
     0
 94
        0
309
TABLEFORMAT_END
  1
CELLSTYLE_BEGIN
 90
        2
 91
        1
300
_HEADER
309
CELLSTYLE_END
300
CELLSTYLE
  1
TABLEFORMAT_BEGIN
 90
        5
170
     1
 91
        0
 92
        0
 62
   257
 93
        1
300
CONTENTFORMAT
  1
CONTENTFORMAT_BEGIN
 90
        0
 91
        0
 92
      512
 93
        0
300

 40
0.0
140
1.0
 94
        2
 62
     0
340
9849
144
0.18
309
CONTENTFORMAT_END
171
     0
 94
        0
309
TABLEFORMAT_END
  1
CELLSTYLE_BEGIN
 90
        3
 91
        2
300
_DATA
309
CELLSTYLE_END
  0
XRECORD
  5
9AD3
102
{ACAD_REACTORS
330
9A9C
102
}
330
9A9C
100
AcDbXrecord
280
     1
102
ACAD_ROUNDTRIP_PRE2007_TABLESTYLE
 90
      512
 91
        0
  1

 92
      512
 93
        0
  2

 94
      512
 95
        0
  3

  0
XRECORD
  5
9AAE
102
{ACAD_REACTORS
330
9AAD
102
}
330
9AAD
100
AcDbXrecord
280
     1
102
RTVSPost2010Prop28
280
     1
102
RTVSPost2010PropOp28
 70
     1
102
RTVSPost2010Prop29
280
     1
102
RTVSPost2010PropOp29
 70
     1
102
RTVSPost2010Prop30
280
     0
102
RTVSPost2010PropOp30
 70
     1
102
RTVSPost2010Prop31
280
     0
102
RTVSPost2010PropOp31
 70
     1
102
RTVSPost2010Prop32
280
     0
102
RTVSPost2010PropOp32
 70
     1
102
RTVSPost2010Prop33
280
     0
102
RTVSPost2010PropOp33
 70
     1
102
RTVSPost2010Prop34
280
     0
102
RTVSPost2010PropOp34
 70
     1
102
RTVSPost2010Prop35
280
     0
102
RTVSPost2010PropOp35
 70
     1
102
RTVSPost2010Prop36
280
     0
102
RTVSPost2010PropOp36
 70
     1
102
RTVSPost2010Prop37
 90
       50
102
RTVSPost2010PropOp37
 70
     1
102
RTVSPost2010Prop38
140
0.0
102
RTVSPost2010PropOp38
 70
     1
102
RTVSPost2010Prop39
140
1.0
102
RTVSPost2010PropOp39
 70
     1
102
RTVSPost2010Prop40
 90
        0
102
RTVSPost2010PropOp40
 70
     1
102
RTVSPost2010Prop41ColorIndex
 90
       18
102
RTVSPost2010Prop41ColorRGB
 90
        0
102
RTVSPost2010PropOp41
 70
     1
102
RTVSPost2010Prop42
 90
       50
102
RTVSPost2010PropOp42
 70
     1
102
RTVSPost2010Prop43
 90
        3
102
RTVSPost2010PropOp43
 70
     1
102
RTVSPost2010Prop44ColorIndex
 90
        5
102
RTVSPost2010Prop44ColorRGB
 90
      255
102
RTVSPost2010PropOp44
 70
     1
102
RTVSPost2010Prop45
280
     0
102
RTVSPost2010PropOp45
 70
     1
102
RTVSPost2010Prop46
 90
       50
102
RTVSPost2010PropOp46
 70
     1
102
RTVSPost2010Prop47
 90
       50
102
RTVSPost2010PropOp47
 70
     1
102
RTVSPost2010Prop48
 90
       50
102
RTVSPost2010PropOp48
 70
     1
102
RTVSPost2010Prop49
280
     0
102
RTVSPost2010PropOp49
 70
     1
102
RTVSPost2010Prop50
 90
       50
102
RTVSPost2010PropOp50
 70
     1
102
RTVSPost2010Prop51ColorIndex
 90
      256
102
RTVSPost2010Prop51ColorRGB
 90
-16777216
102
RTVSPost2010PropOp51
 70
     0
102
RTVSPost2010Prop52
140
1.0
102
RTVSPost2010PropOp52
 70
     0
102
RTVSPost2010Prop53
 90
        2
102
RTVSPost2010PropOp53
 70
     1
102
RTVSPost2010Prop54
  1
strokes_ogs.tif
102
RTVSPost2010PropOp54
 70
     1
102
RTVSPost2010Prop55
280
     0
102
RTVSPost2010PropOp55
 70
     1
102
RTVSPost2010Prop56
140
1.0
102
RTVSPost2010PropOp56
 70
     1
102
RTVSPost2010Prop57
140
1.0
102
RTVSPost2010PropOp57
 70
     1
102
RTVSPropertyOp0
 70
     1
102
RTVSPropertyOp1
 70
     1
102
RTVSPropertyOp2
 70
     1
102
RTVSPropertyOp3
 70
     1
102
RTVSPropertyOp4
 70
     1
102
RTVSPropertyOp5
 70
     1
102
RTVSPropertyOp6
 70
     1
102
RTVSPropertyOp7
 70
     1
102
RTVSPropertyOp8
 70
     1
102
RTVSPropertyOp9
 70
     1
102
RTVSPropertyOp10
 70
     1
102
RTVSPropertyOp11
 70
     1
102
RTVSPropertyOp12
 70
     1
102
RTVSPropertyOp13
 70
     1
102
RTVSPropertyOp14
 70
     1
102
RTVSPropertyOp15
 70
     1
102
RTVSPropertyOp16
 70
     1
102
RTVSPropertyOp17
 70
     1
102
RTVSPropertyOp18
 70
     1
102
RTVSPropertyOp19
 70
     1
102
RTVSPropertyOp20
 70
     1
102
RTVSPropertyOp21
 70
     1
102
RTVSPropertyOp22
 70
     1
102
RTVSPropertyOp23
 70
     1
102
RTVSPropertyOp24
 70
     1
102
RTVSPropertyOp25
 70
     1
102
RTVSPropertyOp26
 70
     1
102
RTVSPropertyOp27
 70
     1
102
RTVSPropertyOp28
 70
     1
102
RTVSPropertyOp29
 70
     1
102
RTVSPropertyOp30
 70
     1
102
RTVSPropertyOp31
 70
     1
102
RTVSPropertyOp32
 70
     1
102
RTVSPropertyOp33
 70
     1
102
RTVSPropertyOp34
 70
     1
102
RTVSPropertyOp35
 70
     1
102
RTVSPropertyOp36
 70
     1
102
RTVSPropertyOp37
 70
     1
102
RTVSPropertyOp38
 70
     1
102
RTVSPropertyOp39
 70
     1
102
RTVSPropertyOp40
 70
     1
102
RTVSPropertyOp41
 70
     1
102
RTVSPropertyOp42
 70
     1
102
RTVSPropertyOp43
 70
     1
102
RTVSPropertyOp44
 70
     1
102
RTVSPropertyOp45
 70
     1
102
RTVSPropertyOp46
 70
     1
102
RTVSPropertyOp47
 70
     1
102
RTVSPropertyOp48
 70
     1
102
RTVSPropertyOp49
 70
     1
102
RTVSPropertyOp50
 70
     1
102
RTVSPropertyOp51
 70
     0
102
RTVSPropertyOp52
 70
     0
102
RTVSPropertyOp53
 70
     1
102
RTVSPropertyOp54
 70
     1
102
RTVSPropertyOp55
 70
     1
102
RTVSPropertyOp56
 70
     1
102
RTVSPropertyOp57
 70
     1
102
RTVSPropertyOp58
 70
     1
102
RTVSPropertyOp59
 70
     1
102
RTVSPropertyOp60
 70
     1
102
RTVSPropertyOp61
 70
     1
102
RTVSPropertyOp62
 70
     1
  0
XRECORD
  5
9AAC
102
{ACAD_REACTORS
330
9AAB
102
}
330
9AAB
100
AcDbXrecord
280
     1
102
RTVSPost2010Prop28
280
     0
102
RTVSPost2010PropOp28
 70
     1
102
RTVSPost2010Prop29
280
     1
102
RTVSPost2010PropOp29
 70
     1
102
RTVSPost2010Prop30
280
     1
102
RTVSPost2010PropOp30
 70
     1
102
RTVSPost2010Prop31
280
     0
102
RTVSPost2010PropOp31
 70
     1
102
RTVSPost2010Prop32
280
     0
102
RTVSPost2010PropOp32
 70
     1
102
RTVSPost2010Prop33
280
     0
102
RTVSPost2010PropOp33
 70
     1
102
RTVSPost2010Prop34
280
     0
102
RTVSPost2010PropOp34
 70
     1
102
RTVSPost2010Prop35
280
     0
102
RTVSPost2010PropOp35
 70
     1
102
RTVSPost2010Prop36
280
     0
102
RTVSPost2010PropOp36
 70
     1
102
RTVSPost2010Prop37
 90
       50
102
RTVSPost2010PropOp37
 70
     1
102
RTVSPost2010Prop38
140
0.0
102
RTVSPost2010PropOp38
 70
     1
102
RTVSPost2010Prop39
140
1.0
102
RTVSPost2010PropOp39
 70
     1
102
RTVSPost2010Prop40
 90
        0
102
RTVSPost2010PropOp40
 70
     1
102
RTVSPost2010Prop41ColorIndex
 90
       18
102
RTVSPost2010Prop41ColorRGB
 90
        0
102
RTVSPost2010PropOp41
 70
     1
102
RTVSPost2010Prop42
 90
       50
102
RTVSPost2010PropOp42
 70
     1
102
RTVSPost2010Prop43
 90
        3
102
RTVSPost2010PropOp43
 70
     1
102
RTVSPost2010Prop44ColorIndex
 90
        5
102
RTVSPost2010Prop44ColorRGB
 90
      255
102
RTVSPost2010PropOp44
 70
     1
102
RTVSPost2010Prop45
280
     0
102
RTVSPost2010PropOp45
 70
     1
102
RTVSPost2010Prop46
 90
       50
102
RTVSPost2010PropOp46
 70
     1
102
RTVSPost2010Prop47
 90
       50
102
RTVSPost2010PropOp47
 70
     1
102
RTVSPost2010Prop48
 90
       50
102
RTVSPost2010PropOp48
 70
     1
102
RTVSPost2010Prop49
280
     0
102
RTVSPost2010PropOp49
 70
     1
102
RTVSPost2010Prop50
 90
       50
102
RTVSPost2010PropOp50
 70
     1
102
RTVSPost2010Prop51ColorIndex
 90
      256
102
RTVSPost2010Prop51ColorRGB
 90
-16777216
102
RTVSPost2010PropOp51
 70
     0
102
RTVSPost2010Prop52
140
1.0
102
RTVSPost2010PropOp52
 70
     0
102
RTVSPost2010Prop53
 90
        2
102
RTVSPost2010PropOp53
 70
     1
102
RTVSPost2010Prop54
  1
strokes_ogs.tif
102
RTVSPost2010PropOp54
 70
     1
102
RTVSPost2010Prop55
280
     0
102
RTVSPost2010PropOp55
 70
     1
102
RTVSPost2010Prop56
140
1.0
102
RTVSPost2010PropOp56
 70
     1
102
RTVSPost2010Prop57
140
1.0
102
RTVSPost2010PropOp57
 70
     1
102
RTVSPropertyOp0
 70
     1
102
RTVSPropertyOp1
 70
     1
102
RTVSPropertyOp2
 70
     1
102
RTVSPropertyOp3
 70
     1
102
RTVSPropertyOp4
 70
     1
102
RTVSPropertyOp5
 70
     1
102
RTVSPropertyOp6
 70
     1
102
RTVSPropertyOp7
 70
     1
102
RTVSPropertyOp8
 70
     1
102
RTVSPropertyOp9
 70
     1
102
RTVSPropertyOp10
 70
     1
102
RTVSPropertyOp11
 70
     1
102
RTVSPropertyOp12
 70
     1
102
RTVSPropertyOp13
 70
     1
102
RTVSPropertyOp14
 70
     1
102
RTVSPropertyOp15
 70
     1
102
RTVSPropertyOp16
 70
     1
102
RTVSPropertyOp17
 70
     1
102
RTVSPropertyOp18
 70
     1
102
RTVSPropertyOp19
 70
     1
102
RTVSPropertyOp20
 70
     1
102
RTVSPropertyOp21
 70
     1
102
RTVSPropertyOp22
 70
     1
102
RTVSPropertyOp23
 70
     1
102
RTVSPropertyOp24
 70
     1
102
RTVSPropertyOp25
 70
     1
102
RTVSPropertyOp26
 70
     1
102
RTVSPropertyOp27
 70
     1
102
RTVSPropertyOp28
 70
     1
102
RTVSPropertyOp29
 70
     1
102
RTVSPropertyOp30
 70
     1
102
RTVSPropertyOp31
 70
     1
102
RTVSPropertyOp32
 70
     1
102
RTVSPropertyOp33
 70
     1
102
RTVSPropertyOp34
 70
     1
102
RTVSPropertyOp35
 70
     1
102
RTVSPropertyOp36
 70
     1
102
RTVSPropertyOp37
 70
     1
102
RTVSPropertyOp38
 70
     1
102
RTVSPropertyOp39
 70
     1
102
RTVSPropertyOp40
 70
     1
102
RTVSPropertyOp41
 70
     1
102
RTVSPropertyOp42
 70
     1
102
RTVSPropertyOp43
 70
     1
102
RTVSPropertyOp44
 70
     1
102
RTVSPropertyOp45
 70
     1
102
RTVSPropertyOp46
 70
     1
102
RTVSPropertyOp47
 70
     1
102
RTVSPropertyOp48
 70
     1
102
RTVSPropertyOp49
 70
     1
102
RTVSPropertyOp50
 70
     1
102
RTVSPropertyOp51
 70
     0
102
RTVSPropertyOp52
 70
     0
102
RTVSPropertyOp53
 70
     1
102
RTVSPropertyOp54
 70
     1
102
RTVSPropertyOp55
 70
     1
102
RTVSPropertyOp56
 70
     1
102
RTVSPropertyOp57
 70
     1
102
RTVSPropertyOp58
 70
     1
102
RTVSPropertyOp59
 70
     1
102
RTVSPropertyOp60
 70
     1
102
RTVSPropertyOp61
 70
     1
102
RTVSPropertyOp62
 70
     1
  0
XRECORD
  5
9ABA
102
{ACAD_REACTORS
330
9AB9
102
}
330
9AB9
100
AcDbXrecord
280
     1
102
RTVSPost2010Prop28
280
     0
102
RTVSPost2010PropOp28
 70
     1
102
RTVSPost2010Prop29
280
     1
102
RTVSPost2010PropOp29
 70
     1
102
RTVSPost2010Prop30
280
     1
102
RTVSPost2010PropOp30
 70
     1
102
RTVSPost2010Prop31
280
     0
102
RTVSPost2010PropOp31
 70
     1
102
RTVSPost2010Prop32
280
     0
102
RTVSPost2010PropOp32
 70
     1
102
RTVSPost2010Prop33
280
     0
102
RTVSPost2010PropOp33
 70
     1
102
RTVSPost2010Prop34
280
     0
102
RTVSPost2010PropOp34
 70
     1
102
RTVSPost2010Prop35
280
     0
102
RTVSPost2010PropOp35
 70
     1
102
RTVSPost2010Prop36
280
     0
102
RTVSPost2010PropOp36
 70
     1
102
RTVSPost2010Prop37
 90
       50
102
RTVSPost2010PropOp37
 70
     1
102
RTVSPost2010Prop38
140
0.0
102
RTVSPost2010PropOp38
 70
     1
102
RTVSPost2010Prop39
140
1.0
102
RTVSPost2010PropOp39
 70
     1
102
RTVSPost2010Prop40
 90
        0
102
RTVSPost2010PropOp40
 70
     1
102
RTVSPost2010Prop41ColorIndex
 90
       18
102
RTVSPost2010Prop41ColorRGB
 90
        0
102
RTVSPost2010PropOp41
 70
     1
102
RTVSPost2010Prop42
 90
       50
102
RTVSPost2010PropOp42
 70
     1
102
RTVSPost2010Prop43
 90
        3
102
RTVSPost2010PropOp43
 70
     1
102
RTVSPost2010Prop44ColorIndex
 90
        5
102
RTVSPost2010Prop44ColorRGB
 90
      255
102
RTVSPost2010PropOp44
 70
     1
102
RTVSPost2010Prop45
280
     0
102
RTVSPost2010PropOp45
 70
     1
102
RTVSPost2010Prop46
 90
       50
102
RTVSPost2010PropOp46
 70
     1
102
RTVSPost2010Prop47
 90
       50
102
RTVSPost2010PropOp47
 70
     1
102
RTVSPost2010Prop48
 90
       50
102
RTVSPost2010PropOp48
 70
     1
102
RTVSPost2010Prop49
280
     0
102
RTVSPost2010PropOp49
 70
     1
102
RTVSPost2010Prop50
 90
       50
102
RTVSPost2010PropOp50
 70
     1
102
RTVSPost2010Prop51ColorIndex
 90
      256
102
RTVSPost2010Prop51ColorRGB
 90
-16777216
102
RTVSPost2010PropOp51
 70
     0
102
RTVSPost2010Prop52
140
1.0
102
RTVSPost2010PropOp52
 70
     0
102
RTVSPost2010Prop53
 90
        2
102
RTVSPost2010PropOp53
 70
     1
102
RTVSPost2010Prop54
  1
strokes_ogs.tif
102
RTVSPost2010PropOp54
 70
     1
102
RTVSPost2010Prop55
280
     0
102
RTVSPost2010PropOp55
 70
     1
102
RTVSPost2010Prop56
140
1.0
102
RTVSPost2010PropOp56
 70
     1
102
RTVSPost2010Prop57
140
1.0
102
RTVSPost2010PropOp57
 70
     1
102
RTVSPropertyOp0
 70
     1
102
RTVSPropertyOp1
 70
     1
102
RTVSPropertyOp2
 70
     1
102
RTVSPropertyOp3
 70
     1
102
RTVSPropertyOp4
 70
     1
102
RTVSPropertyOp5
 70
     1
102
RTVSPropertyOp6
 70
     1
102
RTVSPropertyOp7
 70
     1
102
RTVSPropertyOp8
 70
     1
102
RTVSPropertyOp9
 70
     1
102
RTVSPropertyOp10
 70
     1
102
RTVSPropertyOp11
 70
     1
102
RTVSPropertyOp12
 70
     1
102
RTVSPropertyOp13
 70
     1
102
RTVSPropertyOp14
 70
     1
102
RTVSPropertyOp15
 70
     1
102
RTVSPropertyOp16
 70
     1
102
RTVSPropertyOp17
 70
     1
102
RTVSPropertyOp18
 70
     1
102
RTVSPropertyOp19
 70
     1
102
RTVSPropertyOp20
 70
     1
102
RTVSPropertyOp21
 70
     1
102
RTVSPropertyOp22
 70
     1
102
RTVSPropertyOp23
 70
     1
102
RTVSPropertyOp24
 70
     1
102
RTVSPropertyOp25
 70
     1
102
RTVSPropertyOp26
 70
     1
102
RTVSPropertyOp27
 70
     1
102
RTVSPropertyOp28
 70
     1
102
RTVSPropertyOp29
 70
     1
102
RTVSPropertyOp30
 70
     1
102
RTVSPropertyOp31
 70
     1
102
RTVSPropertyOp32
 70
     1
102
RTVSPropertyOp33
 70
     1
102
RTVSPropertyOp34
 70
     1
102
RTVSPropertyOp35
 70
     1
102
RTVSPropertyOp36
 70
     1
102
RTVSPropertyOp37
 70
     1
102
RTVSPropertyOp38
 70
     1
102
RTVSPropertyOp39
 70
     1
102
RTVSPropertyOp40
 70
     1
102
RTVSPropertyOp41
 70
     1
102
RTVSPropertyOp42
 70
     1
102
RTVSPropertyOp43
 70
     1
102
RTVSPropertyOp44
 70
     1
102
RTVSPropertyOp45
 70
     1
102
RTVSPropertyOp46
 70
     1
102
RTVSPropertyOp47
 70
     1
102
RTVSPropertyOp48
 70
     1
102
RTVSPropertyOp49
 70
     1
102
RTVSPropertyOp50
 70
     1
102
RTVSPropertyOp51
 70
     0
102
RTVSPropertyOp52
 70
     0
102
RTVSPropertyOp53
 70
     1
102
RTVSPropertyOp54
 70
     1
102
RTVSPropertyOp55
 70
     1
102
RTVSPropertyOp56
 70
     1
102
RTVSPropertyOp57
 70
     1
102
RTVSPropertyOp58
 70
     1
102
RTVSPropertyOp59
 70
     1
102
RTVSPropertyOp60
 70
     1
102
RTVSPropertyOp61
 70
     1
102
RTVSPropertyOp62
 70
     1
  0
XRECORD
  5
9AC2
102
{ACAD_REACTORS
330
9AC1
102
}
330
9AC1
100
AcDbXrecord
280
     1
102
RTVSPost2010Prop28
280
     0
102
RTVSPost2010PropOp28
 70
     1
102
RTVSPost2010Prop29
280
     1
102
RTVSPost2010PropOp29
 70
     1
102
RTVSPost2010Prop30
280
     1
102
RTVSPost2010PropOp30
 70
     1
102
RTVSPost2010Prop31
280
     0
102
RTVSPost2010PropOp31
 70
     1
102
RTVSPost2010Prop32
280
     0
102
RTVSPost2010PropOp32
 70
     1
102
RTVSPost2010Prop33
280
     0
102
RTVSPost2010PropOp33
 70
     1
102
RTVSPost2010Prop34
280
     0
102
RTVSPost2010PropOp34
 70
     1
102
RTVSPost2010Prop35
280
     0
102
RTVSPost2010PropOp35
 70
     1
102
RTVSPost2010Prop36
280
     0
102
RTVSPost2010PropOp36
 70
     1
102
RTVSPost2010Prop37
 90
       50
102
RTVSPost2010PropOp37
 70
     1
102
RTVSPost2010Prop38
140
0.0
102
RTVSPost2010PropOp38
 70
     1
102
RTVSPost2010Prop39
140
1.0
102
RTVSPost2010PropOp39
 70
     1
102
RTVSPost2010Prop40
 90
        0
102
RTVSPost2010PropOp40
 70
     1
102
RTVSPost2010Prop41ColorIndex
 90
       18
102
RTVSPost2010Prop41ColorRGB
 90
        0
102
RTVSPost2010PropOp41
 70
     1
102
RTVSPost2010Prop42
 90
       50
102
RTVSPost2010PropOp42
 70
     1
102
RTVSPost2010Prop43
 90
        3
102
RTVSPost2010PropOp43
 70
     1
102
RTVSPost2010Prop44ColorIndex
 90
        5
102
RTVSPost2010Prop44ColorRGB
 90
      255
102
RTVSPost2010PropOp44
 70
     1
102
RTVSPost2010Prop45
280
     0
102
RTVSPost2010PropOp45
 70
     1
102
RTVSPost2010Prop46
 90
       50
102
RTVSPost2010PropOp46
 70
     1
102
RTVSPost2010Prop47
 90
       50
102
RTVSPost2010PropOp47
 70
     1
102
RTVSPost2010Prop48
 90
       50
102
RTVSPost2010PropOp48
 70
     1
102
RTVSPost2010Prop49
280
     0
102
RTVSPost2010PropOp49
 70
     1
102
RTVSPost2010Prop50
 90
       50
102
RTVSPost2010PropOp50
 70
     1
102
RTVSPost2010Prop51ColorIndex
 90
      256
102
RTVSPost2010Prop51ColorRGB
 90
-16777216
102
RTVSPost2010PropOp51
 70
     0
102
RTVSPost2010Prop52
140
1.0
102
RTVSPost2010PropOp52
 70
     0
102
RTVSPost2010Prop53
 90
        2
102
RTVSPost2010PropOp53
 70
     1
102
RTVSPost2010Prop54
  1
strokes_ogs.tif
102
RTVSPost2010PropOp54
 70
     1
102
RTVSPost2010Prop55
280
     0
102
RTVSPost2010PropOp55
 70
     1
102
RTVSPost2010Prop56
140
1.0
102
RTVSPost2010PropOp56
 70
     1
102
RTVSPost2010Prop57
140
1.0
102
RTVSPost2010PropOp57
 70
     1
102
RTVSPropertyOp0
 70
     1
102
RTVSPropertyOp1
 70
     1
102
RTVSPropertyOp2
 70
     1
102
RTVSPropertyOp3
 70
     1
102
RTVSPropertyOp4
 70
     1
102
RTVSPropertyOp5
 70
     1
102
RTVSPropertyOp6
 70
     1
102
RTVSPropertyOp7
 70
     1
102
RTVSPropertyOp8
 70
     1
102
RTVSPropertyOp9
 70
     1
102
RTVSPropertyOp10
 70
     1
102
RTVSPropertyOp11
 70
     1
102
RTVSPropertyOp12
 70
     1
102
RTVSPropertyOp13
 70
     1
102
RTVSPropertyOp14
 70
     1
102
RTVSPropertyOp15
 70
     1
102
RTVSPropertyOp16
 70
     1
102
RTVSPropertyOp17
 70
     1
102
RTVSPropertyOp18
 70
     1
102
RTVSPropertyOp19
 70
     1
102
RTVSPropertyOp20
 70
     1
102
RTVSPropertyOp21
 70
     1
102
RTVSPropertyOp22
 70
     1
102
RTVSPropertyOp23
 70
     1
102
RTVSPropertyOp24
 70
     1
102
RTVSPropertyOp25
 70
     1
102
RTVSPropertyOp26
 70
     1
102
RTVSPropertyOp27
 70
     1
102
RTVSPropertyOp28
 70
     1
102
RTVSPropertyOp29
 70
     1
102
RTVSPropertyOp30
 70
     1
102
RTVSPropertyOp31
 70
     1
102
RTVSPropertyOp32
 70
     1
102
RTVSPropertyOp33
 70
     1
102
RTVSPropertyOp34
 70
     1
102
RTVSPropertyOp35
 70
     1
102
RTVSPropertyOp36
 70
     1
102
RTVSPropertyOp37
 70
     1
102
RTVSPropertyOp38
 70
     1
102
RTVSPropertyOp39
 70
     1
102
RTVSPropertyOp40
 70
     1
102
RTVSPropertyOp41
 70
     1
102
RTVSPropertyOp42
 70
     1
102
RTVSPropertyOp43
 70
     1
102
RTVSPropertyOp44
 70
     1
102
RTVSPropertyOp45
 70
     1
102
RTVSPropertyOp46
 70
     1
102
RTVSPropertyOp47
 70
     1
102
RTVSPropertyOp48
 70
     1
102
RTVSPropertyOp49
 70
     1
102
RTVSPropertyOp50
 70
     1
102
RTVSPropertyOp51
 70
     0
102
RTVSPropertyOp52
 70
     0
102
RTVSPropertyOp53
 70
     1
102
RTVSPropertyOp54
 70
     1
102
RTVSPropertyOp55
 70
     1
102
RTVSPropertyOp56
 70
     1
102
RTVSPropertyOp57
 70
     1
102
RTVSPropertyOp58
 70
     1
102
RTVSPropertyOp59
 70
     1
102
RTVSPropertyOp60
 70
     1
102
RTVSPropertyOp61
 70
     1
102
RTVSPropertyOp62
 70
     1
  0
XRECORD
  5
9AB4
102
{ACAD_REACTORS
330
9AB3
102
}
330
9AB3
100
AcDbXrecord
280
     1
102
RTVSPost2010Prop28
280
     0
102
RTVSPost2010PropOp28
 70
     1
102
RTVSPost2010Prop29
280
     1
102
RTVSPost2010PropOp29
 70
     1
102
RTVSPost2010Prop30
280
     1
102
RTVSPost2010PropOp30
 70
     1
102
RTVSPost2010Prop31
280
     0
102
RTVSPost2010PropOp31
 70
     1
102
RTVSPost2010Prop32
280
     0
102
RTVSPost2010PropOp32
 70
     1
102
RTVSPost2010Prop33
280
     0
102
RTVSPost2010PropOp33
 70
     1
102
RTVSPost2010Prop34
280
     0
102
RTVSPost2010PropOp34
 70
     1
102
RTVSPost2010Prop35
280
     0
102
RTVSPost2010PropOp35
 70
     1
102
RTVSPost2010Prop36
280
     0
102
RTVSPost2010PropOp36
 70
     1
102
RTVSPost2010Prop37
 90
       50
102
RTVSPost2010PropOp37
 70
     1
102
RTVSPost2010Prop38
140
0.0
102
RTVSPost2010PropOp38
 70
     1
102
RTVSPost2010Prop39
140
1.0
102
RTVSPost2010PropOp39
 70
     1
102
RTVSPost2010Prop40
 90
        0
102
RTVSPost2010PropOp40
 70
     1
102
RTVSPost2010Prop41ColorIndex
 90
       18
102
RTVSPost2010Prop41ColorRGB
 90
        0
102
RTVSPost2010PropOp41
 70
     1
102
RTVSPost2010Prop42
 90
       50
102
RTVSPost2010PropOp42
 70
     1
102
RTVSPost2010Prop43
 90
        3
102
RTVSPost2010PropOp43
 70
     1
102
RTVSPost2010Prop44ColorIndex
 90
        5
102
RTVSPost2010Prop44ColorRGB
 90
      255
102
RTVSPost2010PropOp44
 70
     1
102
RTVSPost2010Prop45
280
     0
102
RTVSPost2010PropOp45
 70
     1
102
RTVSPost2010Prop46
 90
       50
102
RTVSPost2010PropOp46
 70
     1
102
RTVSPost2010Prop47
 90
       50
102
RTVSPost2010PropOp47
 70
     1
102
RTVSPost2010Prop48
 90
       50
102
RTVSPost2010PropOp48
 70
     1
102
RTVSPost2010Prop49
280
     0
102
RTVSPost2010PropOp49
 70
     1
102
RTVSPost2010Prop50
 90
       50
102
RTVSPost2010PropOp50
 70
     1
102
RTVSPost2010Prop51ColorIndex
 90
      256
102
RTVSPost2010Prop51ColorRGB
 90
-16777216
102
RTVSPost2010PropOp51
 70
     0
102
RTVSPost2010Prop52
140
1.0
102
RTVSPost2010PropOp52
 70
     0
102
RTVSPost2010Prop53
 90
        2
102
RTVSPost2010PropOp53
 70
     1
102
RTVSPost2010Prop54
  1
strokes_ogs.tif
102
RTVSPost2010PropOp54
 70
     1
102
RTVSPost2010Prop55
280
     0
102
RTVSPost2010PropOp55
 70
     1
102
RTVSPost2010Prop56
140
1.0
102
RTVSPost2010PropOp56
 70
     1
102
RTVSPost2010Prop57
140
1.0
102
RTVSPost2010PropOp57
 70
     1
102
RTVSPropertyOp0
 70
     1
102
RTVSPropertyOp1
 70
     1
102
RTVSPropertyOp2
 70
     1
102
RTVSPropertyOp3
 70
     1
102
RTVSPropertyOp4
 70
     1
102
RTVSPropertyOp5
 70
     1
102
RTVSPropertyOp6
 70
     1
102
RTVSPropertyOp7
 70
     1
102
RTVSPropertyOp8
 70
     1
102
RTVSPropertyOp9
 70
     1
102
RTVSPropertyOp10
 70
     1
102
RTVSPropertyOp11
 70
     1
102
RTVSPropertyOp12
 70
     1
102
RTVSPropertyOp13
 70
     1
102
RTVSPropertyOp14
 70
     1
102
RTVSPropertyOp15
 70
     1
102
RTVSPropertyOp16
 70
     1
102
RTVSPropertyOp17
 70
     1
102
RTVSPropertyOp18
 70
     1
102
RTVSPropertyOp19
 70
     1
102
RTVSPropertyOp20
 70
     1
102
RTVSPropertyOp21
 70
     1
102
RTVSPropertyOp22
 70
     1
102
RTVSPropertyOp23
 70
     1
102
RTVSPropertyOp24
 70
     1
102
RTVSPropertyOp25
 70
     1
102
RTVSPropertyOp26
 70
     1
102
RTVSPropertyOp27
 70
     1
102
RTVSPropertyOp28
 70
     1
102
RTVSPropertyOp29
 70
     1
102
RTVSPropertyOp30
 70
     1
102
RTVSPropertyOp31
 70
     1
102
RTVSPropertyOp32
 70
     1
102
RTVSPropertyOp33
 70
     1
102
RTVSPropertyOp34
 70
     1
102
RTVSPropertyOp35
 70
     1
102
RTVSPropertyOp36
 70
     1
102
RTVSPropertyOp37
 70
     1
102
RTVSPropertyOp38
 70
     1
102
RTVSPropertyOp39
 70
     1
102
RTVSPropertyOp40
 70
     1
102
RTVSPropertyOp41
 70
     1
102
RTVSPropertyOp42
 70
     1
102
RTVSPropertyOp43
 70
     1
102
RTVSPropertyOp44
 70
     1
102
RTVSPropertyOp45
 70
     1
102
RTVSPropertyOp46
 70
     1
102
RTVSPropertyOp47
 70
     1
102
RTVSPropertyOp48
 70
     1
102
RTVSPropertyOp49
 70
     1
102
RTVSPropertyOp50
 70
     1
102
RTVSPropertyOp51
 70
     0
102
RTVSPropertyOp52
 70
     0
102
RTVSPropertyOp53
 70
     1
102
RTVSPropertyOp54
 70
     1
102
RTVSPropertyOp55
 70
     1
102
RTVSPropertyOp56
 70
     1
102
RTVSPropertyOp57
 70
     1
102
RTVSPropertyOp58
 70
     1
102
RTVSPropertyOp59
 70
     1
102
RTVSPropertyOp60
 70
     1
102
RTVSPropertyOp61
 70
     1
102
RTVSPropertyOp62
 70
     1
  0
XRECORD
  5
9AB8
102
{ACAD_REACTORS
330
9AB7
102
}
330
9AB7
100
AcDbXrecord
280
     1
102
RTVSPost2010Prop28
280
     0
102
RTVSPost2010PropOp28
 70
     1
102
RTVSPost2010Prop29
280
     1
102
RTVSPost2010PropOp29
 70
     1
102
RTVSPost2010Prop30
280
     1
102
RTVSPost2010PropOp30
 70
     1
102
RTVSPost2010Prop31
280
     0
102
RTVSPost2010PropOp31
 70
     1
102
RTVSPost2010Prop32
280
     0
102
RTVSPost2010PropOp32
 70
     1
102
RTVSPost2010Prop33
280
     0
102
RTVSPost2010PropOp33
 70
     1
102
RTVSPost2010Prop34
280
     0
102
RTVSPost2010PropOp34
 70
     1
102
RTVSPost2010Prop35
280
     0
102
RTVSPost2010PropOp35
 70
     1
102
RTVSPost2010Prop36
280
     0
102
RTVSPost2010PropOp36
 70
     1
102
RTVSPost2010Prop37
 90
       50
102
RTVSPost2010PropOp37
 70
     1
102
RTVSPost2010Prop38
140
0.0
102
RTVSPost2010PropOp38
 70
     1
102
RTVSPost2010Prop39
140
1.0
102
RTVSPost2010PropOp39
 70
     1
102
RTVSPost2010Prop40
 90
        0
102
RTVSPost2010PropOp40
 70
     1
102
RTVSPost2010Prop41ColorIndex
 90
       18
102
RTVSPost2010Prop41ColorRGB
 90
        0
102
RTVSPost2010PropOp41
 70
     1
102
RTVSPost2010Prop42
 90
       50
102
RTVSPost2010PropOp42
 70
     1
102
RTVSPost2010Prop43
 90
        3
102
RTVSPost2010PropOp43
 70
     1
102
RTVSPost2010Prop44ColorIndex
 90
        5
102
RTVSPost2010Prop44ColorRGB
 90
      255
102
RTVSPost2010PropOp44
 70
     1
102
RTVSPost2010Prop45
280
     0
102
RTVSPost2010PropOp45
 70
     1
102
RTVSPost2010Prop46
 90
       50
102
RTVSPost2010PropOp46
 70
     1
102
RTVSPost2010Prop47
 90
       50
102
RTVSPost2010PropOp47
 70
     1
102
RTVSPost2010Prop48
 90
       50
102
RTVSPost2010PropOp48
 70
     1
102
RTVSPost2010Prop49
280
     0
102
RTVSPost2010PropOp49
 70
     1
102
RTVSPost2010Prop50
 90
       50
102
RTVSPost2010PropOp50
 70
     1
102
RTVSPost2010Prop51ColorIndex
 90
      256
102
RTVSPost2010Prop51ColorRGB
 90
-16777216
102
RTVSPost2010PropOp51
 70
     0
102
RTVSPost2010Prop52
140
1.0
102
RTVSPost2010PropOp52
 70
     0
102
RTVSPost2010Prop53
 90
        2
102
RTVSPost2010PropOp53
 70
     1
102
RTVSPost2010Prop54
  1
strokes_ogs.tif
102
RTVSPost2010PropOp54
 70
     1
102
RTVSPost2010Prop55
280
     0
102
RTVSPost2010PropOp55
 70
     1
102
RTVSPost2010Prop56
140
1.0
102
RTVSPost2010PropOp56
 70
     1
102
RTVSPost2010Prop57
140
1.0
102
RTVSPost2010PropOp57
 70
     1
102
RTVSPropertyOp0
 70
     1
102
RTVSPropertyOp1
 70
     1
102
RTVSPropertyOp2
 70
     1
102
RTVSPropertyOp3
 70
     1
102
RTVSPropertyOp4
 70
     1
102
RTVSPropertyOp5
 70
     1
102
RTVSPropertyOp6
 70
     1
102
RTVSPropertyOp7
 70
     1
102
RTVSPropertyOp8
 70
     1
102
RTVSPropertyOp9
 70
     1
102
RTVSPropertyOp10
 70
     1
102
RTVSPropertyOp11
 70
     1
102
RTVSPropertyOp12
 70
     1
102
RTVSPropertyOp13
 70
     1
102
RTVSPropertyOp14
 70
     1
102
RTVSPropertyOp15
 70
     1
102
RTVSPropertyOp16
 70
     1
102
RTVSPropertyOp17
 70
     1
102
RTVSPropertyOp18
 70
     1
102
RTVSPropertyOp19
 70
     1
102
RTVSPropertyOp20
 70
     1
102
RTVSPropertyOp21
 70
     1
102
RTVSPropertyOp22
 70
     1
102
RTVSPropertyOp23
 70
     1
102
RTVSPropertyOp24
 70
     1
102
RTVSPropertyOp25
 70
     1
102
RTVSPropertyOp26
 70
     1
102
RTVSPropertyOp27
 70
     1
102
RTVSPropertyOp28
 70
     1
102
RTVSPropertyOp29
 70
     1
102
RTVSPropertyOp30
 70
     1
102
RTVSPropertyOp31
 70
     1
102
RTVSPropertyOp32
 70
     1
102
RTVSPropertyOp33
 70
     1
102
RTVSPropertyOp34
 70
     1
102
RTVSPropertyOp35
 70
     1
102
RTVSPropertyOp36
 70
     1
102
RTVSPropertyOp37
 70
     1
102
RTVSPropertyOp38
 70
     1
102
RTVSPropertyOp39
 70
     1
102
RTVSPropertyOp40
 70
     1
102
RTVSPropertyOp41
 70
     1
102
RTVSPropertyOp42
 70
     1
102
RTVSPropertyOp43
 70
     1
102
RTVSPropertyOp44
 70
     1
102
RTVSPropertyOp45
 70
     1
102
RTVSPropertyOp46
 70
     1
102
RTVSPropertyOp47
 70
     1
102
RTVSPropertyOp48
 70
     1
102
RTVSPropertyOp49
 70
     1
102
RTVSPropertyOp50
 70
     1
102
RTVSPropertyOp51
 70
     0
102
RTVSPropertyOp52
 70
     0
102
RTVSPropertyOp53
 70
     1
102
RTVSPropertyOp54
 70
     1
102
RTVSPropertyOp55
 70
     1
102
RTVSPropertyOp56
 70
     1
102
RTVSPropertyOp57
 70
     1
102
RTVSPropertyOp58
 70
     1
102
RTVSPropertyOp59
 70
     1
102
RTVSPropertyOp60
 70
     1
102
RTVSPropertyOp61
 70
     1
102
RTVSPropertyOp62
 70
     1
  0
XRECORD
  5
9AD2
102
{ACAD_REACTORS
330
9AD1
102
}
330
9AD1
100
AcDbXrecord
280
     1
102
RTVSPost2010Prop28
280
     0
102
RTVSPost2010PropOp28
 70
     1
102
RTVSPost2010Prop29
280
     1
102
RTVSPost2010PropOp29
 70
     1
102
RTVSPost2010Prop30
280
     1
102
RTVSPost2010PropOp30
 70
     1
102
RTVSPost2010Prop31
280
     0
102
RTVSPost2010PropOp31
 70
     1
102
RTVSPost2010Prop32
280
     0
102
RTVSPost2010PropOp32
 70
     1
102
RTVSPost2010Prop33
280
     0
102
RTVSPost2010PropOp33
 70
     1
102
RTVSPost2010Prop34
280
     0
102
RTVSPost2010PropOp34
 70
     1
102
RTVSPost2010Prop35
280
     0
102
RTVSPost2010PropOp35
 70
     1
102
RTVSPost2010Prop36
280
     0
102
RTVSPost2010PropOp36
 70
     1
102
RTVSPost2010Prop37
 90
       50
102
RTVSPost2010PropOp37
 70
     0
102
RTVSPost2010Prop38
140
0.0
102
RTVSPost2010PropOp38
 70
     0
102
RTVSPost2010Prop39
140
1.0
102
RTVSPost2010PropOp39
 70
     0
102
RTVSPost2010Prop40
 90
        0
102
RTVSPost2010PropOp40
 70
     0
102
RTVSPost2010Prop41ColorIndex
 90
       18
102
RTVSPost2010Prop41ColorRGB
 90
        0
102
RTVSPost2010PropOp41
 70
     0
102
RTVSPost2010Prop42
 90
       50
102
RTVSPost2010PropOp42
 70
     0
102
RTVSPost2010Prop43
 90
        3
102
RTVSPost2010PropOp43
 70
     0
102
RTVSPost2010Prop44ColorIndex
 90
        5
102
RTVSPost2010Prop44ColorRGB
 90
      255
102
RTVSPost2010PropOp44
 70
     0
102
RTVSPost2010Prop45
280
     0
102
RTVSPost2010PropOp45
 70
     1
102
RTVSPost2010Prop46
 90
       50
102
RTVSPost2010PropOp46
 70
     0
102
RTVSPost2010Prop47
 90
       50
102
RTVSPost2010PropOp47
 70
     0
102
RTVSPost2010Prop48
 90
       50
102
RTVSPost2010PropOp48
 70
     0
102
RTVSPost2010Prop49
280
     0
102
RTVSPost2010PropOp49
 70
     1
102
RTVSPost2010Prop50
 90
       50
102
RTVSPost2010PropOp50
 70
     0
102
RTVSPost2010Prop51ColorIndex
 90
      256
102
RTVSPost2010Prop51ColorRGB
 90
-16777216
102
RTVSPost2010PropOp51
 70
     0
102
RTVSPost2010Prop52
140
1.0
102
RTVSPost2010PropOp52
 70
     0
102
RTVSPost2010Prop53
 90
        2
102
RTVSPost2010PropOp53
 70
     0
102
RTVSPost2010Prop54
  1
strokes_ogs.tif
102
RTVSPost2010PropOp54
 70
     0
102
RTVSPost2010Prop55
280
     0
102
RTVSPost2010PropOp55
 70
     1
102
RTVSPost2010Prop56
140
1.0
102
RTVSPost2010PropOp56
 70
     0
102
RTVSPost2010Prop57
140
1.0
102
RTVSPost2010PropOp57
 70
     0
102
RTVSPropertyOp0
 70
     0
102
RTVSPropertyOp1
 70
     0
102
RTVSPropertyOp2
 70
     0
102
RTVSPropertyOp3
 70
     0
102
RTVSPropertyOp4
 70
     0
102
RTVSPropertyOp5
 70
     0
102
RTVSPropertyOp6
 70
     0
102
RTVSPropertyOp7
 70
     0
102
RTVSPropertyOp8
 70
     0
102
RTVSPropertyOp9
 70
     0
102
RTVSPropertyOp10
 70
     0
102
RTVSPropertyOp11
 70
     0
102
RTVSPropertyOp12
 70
     0
102
RTVSPropertyOp13
 70
     0
102
RTVSPropertyOp14
 70
     2
102
RTVSPropertyOp15
 70
     0
102
RTVSPropertyOp16
 70
     0
102
RTVSPropertyOp17
 70
     0
102
RTVSPropertyOp18
 70
     0
102
RTVSPropertyOp19
 70
     0
102
RTVSPropertyOp20
 70
     0
102
RTVSPropertyOp21
 70
     0
102
RTVSPropertyOp22
 70
     0
102
RTVSPropertyOp23
 70
     0
102
RTVSPropertyOp24
 70
     0
102
RTVSPropertyOp25
 70
     0
102
RTVSPropertyOp26
 70
     0
102
RTVSPropertyOp27
 70
     0
102
RTVSPropertyOp28
 70
     1
102
RTVSPropertyOp29
 70
     1
102
RTVSPropertyOp30
 70
     1
102
RTVSPropertyOp31
 70
     1
102
RTVSPropertyOp32
 70
     1
102
RTVSPropertyOp33
 70
     1
102
RTVSPropertyOp34
 70
     1
102
RTVSPropertyOp35
 70
     1
102
RTVSPropertyOp36
 70
     1
102
RTVSPropertyOp37
 70
     0
102
RTVSPropertyOp38
 70
     0
102
RTVSPropertyOp39
 70
     0
102
RTVSPropertyOp40
 70
     0
102
RTVSPropertyOp41
 70
     0
102
RTVSPropertyOp42
 70
     0
102
RTVSPropertyOp43
 70
     0
102
RTVSPropertyOp44
 70
     0
102
RTVSPropertyOp45
 70
     1
102
RTVSPropertyOp46
 70
     0
102
RTVSPropertyOp47
 70
     0
102
RTVSPropertyOp48
 70
     0
102
RTVSPropertyOp49
 70
     1
102
RTVSPropertyOp50
 70
     0
102
RTVSPropertyOp51
 70
     0
102
RTVSPropertyOp52
 70
     0
102
RTVSPropertyOp53
 70
     0
102
RTVSPropertyOp54
 70
     0
102
RTVSPropertyOp55
 70
     1
102
RTVSPropertyOp56
 70
     0
102
RTVSPropertyOp57
 70
     0
102
RTVSPropertyOp58
 70
     0
102
RTVSPropertyOp59
 70
     0
102
RTVSPropertyOp60
 70
     0
102
RTVSPropertyOp61
 70
     0
102
RTVSPropertyOp62
 70
     0
  0
XRECORD
  5
9AC0
102
{ACAD_REACTORS
330
9ABF
102
}
330
9ABF
100
AcDbXrecord
280
     1
102
RTVSPost2010Prop28
280
     0
102
RTVSPost2010PropOp28
 70
     1
102
RTVSPost2010Prop29
280
     1
102
RTVSPost2010PropOp29
 70
     1
102
RTVSPost2010Prop30
280
     1
102
RTVSPost2010PropOp30
 70
     1
102
RTVSPost2010Prop31
280
     0
102
RTVSPost2010PropOp31
 70
     1
102
RTVSPost2010Prop32
280
     0
102
RTVSPost2010PropOp32
 70
     1
102
RTVSPost2010Prop33
280
     0
102
RTVSPost2010PropOp33
 70
     1
102
RTVSPost2010Prop34
280
     0
102
RTVSPost2010PropOp34
 70
     1
102
RTVSPost2010Prop35
280
     0
102
RTVSPost2010PropOp35
 70
     1
102
RTVSPost2010Prop36
280
     0
102
RTVSPost2010PropOp36
 70
     1
102
RTVSPost2010Prop37
 90
       50
102
RTVSPost2010PropOp37
 70
     1
102
RTVSPost2010Prop38
140
0.0
102
RTVSPost2010PropOp38
 70
     1
102
RTVSPost2010Prop39
140
1.0
102
RTVSPost2010PropOp39
 70
     1
102
RTVSPost2010Prop40
 90
        0
102
RTVSPost2010PropOp40
 70
     1
102
RTVSPost2010Prop41ColorIndex
 90
       18
102
RTVSPost2010Prop41ColorRGB
 90
        0
102
RTVSPost2010PropOp41
 70
     1
102
RTVSPost2010Prop42
 90
       50
102
RTVSPost2010PropOp42
 70
     1
102
RTVSPost2010Prop43
 90
        3
102
RTVSPost2010PropOp43
 70
     1
102
RTVSPost2010Prop44ColorIndex
 90
        5
102
RTVSPost2010Prop44ColorRGB
 90
      255
102
RTVSPost2010PropOp44
 70
     1
102
RTVSPost2010Prop45
280
     0
102
RTVSPost2010PropOp45
 70
     1
102
RTVSPost2010Prop46
 90
       50
102
RTVSPost2010PropOp46
 70
     1
102
RTVSPost2010Prop47
 90
       50
102
RTVSPost2010PropOp47
 70
     1
102
RTVSPost2010Prop48
 90
       50
102
RTVSPost2010PropOp48
 70
     1
102
RTVSPost2010Prop49
280
     0
102
RTVSPost2010PropOp49
 70
     1
102
RTVSPost2010Prop50
 90
       50
102
RTVSPost2010PropOp50
 70
     1
102
RTVSPost2010Prop51ColorIndex
 90
      256
102
RTVSPost2010Prop51ColorRGB
 90
-16777216
102
RTVSPost2010PropOp51
 70
     0
102
RTVSPost2010Prop52
140
1.0
102
RTVSPost2010PropOp52
 70
     0
102
RTVSPost2010Prop53
 90
        2
102
RTVSPost2010PropOp53
 70
     1
102
RTVSPost2010Prop54
  1
strokes_ogs.tif
102
RTVSPost2010PropOp54
 70
     1
102
RTVSPost2010Prop55
280
     0
102
RTVSPost2010PropOp55
 70
     1
102
RTVSPost2010Prop56
140
1.0
102
RTVSPost2010PropOp56
 70
     1
102
RTVSPost2010Prop57
140
1.0
102
RTVSPost2010PropOp57
 70
     1
102
RTVSPropertyOp0
 70
     1
102
RTVSPropertyOp1
 70
     1
102
RTVSPropertyOp2
 70
     1
102
RTVSPropertyOp3
 70
     1
102
RTVSPropertyOp4
 70
     1
102
RTVSPropertyOp5
 70
     1
102
RTVSPropertyOp6
 70
     1
102
RTVSPropertyOp7
 70
     1
102
RTVSPropertyOp8
 70
     1
102
RTVSPropertyOp9
 70
     1
102
RTVSPropertyOp10
 70
     1
102
RTVSPropertyOp11
 70
     1
102
RTVSPropertyOp12
 70
     1
102
RTVSPropertyOp13
 70
     1
102
RTVSPropertyOp14
 70
     1
102
RTVSPropertyOp15
 70
     1
102
RTVSPropertyOp16
 70
     1
102
RTVSPropertyOp17
 70
     1
102
RTVSPropertyOp18
 70
     1
102
RTVSPropertyOp19
 70
     1
102
RTVSPropertyOp20
 70
     1
102
RTVSPropertyOp21
 70
     1
102
RTVSPropertyOp22
 70
     1
102
RTVSPropertyOp23
 70
     1
102
RTVSPropertyOp24
 70
     1
102
RTVSPropertyOp25
 70
     1
102
RTVSPropertyOp26
 70
     1
102
RTVSPropertyOp27
 70
     1
102
RTVSPropertyOp28
 70
     1
102
RTVSPropertyOp29
 70
     1
102
RTVSPropertyOp30
 70
     1
102
RTVSPropertyOp31
 70
     1
102
RTVSPropertyOp32
 70
     1
102
RTVSPropertyOp33
 70
     1
102
RTVSPropertyOp34
 70
     1
102
RTVSPropertyOp35
 70
     1
102
RTVSPropertyOp36
 70
     1
102
RTVSPropertyOp37
 70
     1
102
RTVSPropertyOp38
 70
     1
102
RTVSPropertyOp39
 70
     1
102
RTVSPropertyOp40
 70
     1
102
RTVSPropertyOp41
 70
     1
102
RTVSPropertyOp42
 70
     1
102
RTVSPropertyOp43
 70
     1
102
RTVSPropertyOp44
 70
     1
102
RTVSPropertyOp45
 70
     1
102
RTVSPropertyOp46
 70
     1
102
RTVSPropertyOp47
 70
     1
102
RTVSPropertyOp48
 70
     1
102
RTVSPropertyOp49
 70
     1
102
RTVSPropertyOp50
 70
     1
102
RTVSPropertyOp51
 70
     0
102
RTVSPropertyOp52
 70
     0
102
RTVSPropertyOp53
 70
     1
102
RTVSPropertyOp54
 70
     1
102
RTVSPropertyOp55
 70
     1
102
RTVSPropertyOp56
 70
     1
102
RTVSPropertyOp57
 70
     1
102
RTVSPropertyOp58
 70
     1
102
RTVSPropertyOp59
 70
     1
102
RTVSPropertyOp60
 70
     1
102
RTVSPropertyOp61
 70
     1
102
RTVSPropertyOp62
 70
     1
  0
XRECORD
  5
9AA4
102
{ACAD_REACTORS
330
9AA3
102
}
330
9AA3
100
AcDbXrecord
280
     1
102
RTVSPost2010Prop28
280
     0
102
RTVSPost2010PropOp28
 70
     1
102
RTVSPost2010Prop29
280
     1
102
RTVSPost2010PropOp29
 70
     1
102
RTVSPost2010Prop30
280
     1
102
RTVSPost2010PropOp30
 70
     1
102
RTVSPost2010Prop31
280
     0
102
RTVSPost2010PropOp31
 70
     1
102
RTVSPost2010Prop32
280
     0
102
RTVSPost2010PropOp32
 70
     1
102
RTVSPost2010Prop33
280
     0
102
RTVSPost2010PropOp33
 70
     1
102
RTVSPost2010Prop34
280
     0
102
RTVSPost2010PropOp34
 70
     1
102
RTVSPost2010Prop35
280
     0
102
RTVSPost2010PropOp35
 70
     1
102
RTVSPost2010Prop36
280
     0
102
RTVSPost2010PropOp36
 70
     1
102
RTVSPost2010Prop37
 90
       50
102
RTVSPost2010PropOp37
 70
     1
102
RTVSPost2010Prop38
140
0.0
102
RTVSPost2010PropOp38
 70
     1
102
RTVSPost2010Prop39
140
1.0
102
RTVSPost2010PropOp39
 70
     1
102
RTVSPost2010Prop40
 90
        0
102
RTVSPost2010PropOp40
 70
     1
102
RTVSPost2010Prop41ColorIndex
 90
       18
102
RTVSPost2010Prop41ColorRGB
 90
        0
102
RTVSPost2010PropOp41
 70
     1
102
RTVSPost2010Prop42
 90
       50
102
RTVSPost2010PropOp42
 70
     1
102
RTVSPost2010Prop43
 90
        3
102
RTVSPost2010PropOp43
 70
     1
102
RTVSPost2010Prop44ColorIndex
 90
        5
102
RTVSPost2010Prop44ColorRGB
 90
      255
102
RTVSPost2010PropOp44
 70
     1
102
RTVSPost2010Prop45
280
     0
102
RTVSPost2010PropOp45
 70
     1
102
RTVSPost2010Prop46
 90
       50
102
RTVSPost2010PropOp46
 70
     1
102
RTVSPost2010Prop47
 90
       50
102
RTVSPost2010PropOp47
 70
     1
102
RTVSPost2010Prop48
 90
       50
102
RTVSPost2010PropOp48
 70
     1
102
RTVSPost2010Prop49
280
     0
102
RTVSPost2010PropOp49
 70
     1
102
RTVSPost2010Prop50
 90
       50
102
RTVSPost2010PropOp50
 70
     1
102
RTVSPost2010Prop51ColorIndex
 90
      256
102
RTVSPost2010Prop51ColorRGB
 90
-16777216
102
RTVSPost2010PropOp51
 70
     0
102
RTVSPost2010Prop52
140
1.0
102
RTVSPost2010PropOp52
 70
     0
102
RTVSPost2010Prop53
 90
        2
102
RTVSPost2010PropOp53
 70
     1
102
RTVSPost2010Prop54
  1
strokes_ogs.tif
102
RTVSPost2010PropOp54
 70
     1
102
RTVSPost2010Prop55
280
     0
102
RTVSPost2010PropOp55
 70
     1
102
RTVSPost2010Prop56
140
1.0
102
RTVSPost2010PropOp56
 70
     1
102
RTVSPost2010Prop57
140
1.0
102
RTVSPost2010PropOp57
 70
     1
102
RTVSPropertyOp0
 70
     1
102
RTVSPropertyOp1
 70
     1
102
RTVSPropertyOp2
 70
     1
102
RTVSPropertyOp3
 70
     1
102
RTVSPropertyOp4
 70
     1
102
RTVSPropertyOp5
 70
     1
102
RTVSPropertyOp6
 70
     1
102
RTVSPropertyOp7
 70
     1
102
RTVSPropertyOp8
 70
     1
102
RTVSPropertyOp9
 70
     1
102
RTVSPropertyOp10
 70
     1
102
RTVSPropertyOp11
 70
     1
102
RTVSPropertyOp12
 70
     1
102
RTVSPropertyOp13
 70
     1
102
RTVSPropertyOp14
 70
     1
102
RTVSPropertyOp15
 70
     1
102
RTVSPropertyOp16
 70
     1
102
RTVSPropertyOp17
 70
     1
102
RTVSPropertyOp18
 70
     1
102
RTVSPropertyOp19
 70
     1
102
RTVSPropertyOp20
 70
     1
102
RTVSPropertyOp21
 70
     1
102
RTVSPropertyOp22
 70
     1
102
RTVSPropertyOp23
 70
     1
102
RTVSPropertyOp24
 70
     1
102
RTVSPropertyOp25
 70
     1
102
RTVSPropertyOp26
 70
     1
102
RTVSPropertyOp27
 70
     1
102
RTVSPropertyOp28
 70
     1
102
RTVSPropertyOp29
 70
     1
102
RTVSPropertyOp30
 70
     1
102
RTVSPropertyOp31
 70
     1
102
RTVSPropertyOp32
 70
     1
102
RTVSPropertyOp33
 70
     1
102
RTVSPropertyOp34
 70
     1
102
RTVSPropertyOp35
 70
     1
102
RTVSPropertyOp36
 70
     1
102
RTVSPropertyOp37
 70
     1
102
RTVSPropertyOp38
 70
     1
102
RTVSPropertyOp39
 70
     1
102
RTVSPropertyOp40
 70
     1
102
RTVSPropertyOp41
 70
     1
102
RTVSPropertyOp42
 70
     1
102
RTVSPropertyOp43
 70
     1
102
RTVSPropertyOp44
 70
     1
102
RTVSPropertyOp45
 70
     1
102
RTVSPropertyOp46
 70
     1
102
RTVSPropertyOp47
 70
     1
102
RTVSPropertyOp48
 70
     1
102
RTVSPropertyOp49
 70
     1
102
RTVSPropertyOp50
 70
     1
102
RTVSPropertyOp51
 70
     0
102
RTVSPropertyOp52
 70
     0
102
RTVSPropertyOp53
 70
     1
102
RTVSPropertyOp54
 70
     1
102
RTVSPropertyOp55
 70
     1
102
RTVSPropertyOp56
 70
     1
102
RTVSPropertyOp57
 70
     1
102
RTVSPropertyOp58
 70
     1
102
RTVSPropertyOp59
 70
     1
102
RTVSPropertyOp60
 70
     1
102
RTVSPropertyOp61
 70
     1
102
RTVSPropertyOp62
 70
     1
  0
XRECORD
  5
9AA6
102
{ACAD_REACTORS
330
9AA5
102
}
330
9AA5
100
AcDbXrecord
280
     1
102
RTVSPost2010Prop28
280
     0
102
RTVSPost2010PropOp28
 70
     1
102
RTVSPost2010Prop29
280
     1
102
RTVSPost2010PropOp29
 70
     1
102
RTVSPost2010Prop30
280
     1
102
RTVSPost2010PropOp30
 70
     1
102
RTVSPost2010Prop31
280
     0
102
RTVSPost2010PropOp31
 70
     1
102
RTVSPost2010Prop32
280
     0
102
RTVSPost2010PropOp32
 70
     1
102
RTVSPost2010Prop33
280
     0
102
RTVSPost2010PropOp33
 70
     1
102
RTVSPost2010Prop34
280
     0
102
RTVSPost2010PropOp34
 70
     1
102
RTVSPost2010Prop35
280
     0
102
RTVSPost2010PropOp35
 70
     1
102
RTVSPost2010Prop36
280
     0
102
RTVSPost2010PropOp36
 70
     1
102
RTVSPost2010Prop37
 90
       50
102
RTVSPost2010PropOp37
 70
     1
102
RTVSPost2010Prop38
140
0.0
102
RTVSPost2010PropOp38
 70
     1
102
RTVSPost2010Prop39
140
1.0
102
RTVSPost2010PropOp39
 70
     1
102
RTVSPost2010Prop40
 90
        0
102
RTVSPost2010PropOp40
 70
     1
102
RTVSPost2010Prop41ColorIndex
 90
       18
102
RTVSPost2010Prop41ColorRGB
 90
        0
102
RTVSPost2010PropOp41
 70
     1
102
RTVSPost2010Prop42
 90
       50
102
RTVSPost2010PropOp42
 70
     1
102
RTVSPost2010Prop43
 90
        3
102
RTVSPost2010PropOp43
 70
     1
102
RTVSPost2010Prop44ColorIndex
 90
        5
102
RTVSPost2010Prop44ColorRGB
 90
      255
102
RTVSPost2010PropOp44
 70
     1
102
RTVSPost2010Prop45
280
     0
102
RTVSPost2010PropOp45
 70
     1
102
RTVSPost2010Prop46
 90
       50
102
RTVSPost2010PropOp46
 70
     1
102
RTVSPost2010Prop47
 90
       50
102
RTVSPost2010PropOp47
 70
     1
102
RTVSPost2010Prop48
 90
       50
102
RTVSPost2010PropOp48
 70
     1
102
RTVSPost2010Prop49
280
     0
102
RTVSPost2010PropOp49
 70
     1
102
RTVSPost2010Prop50
 90
       50
102
RTVSPost2010PropOp50
 70
     1
102
RTVSPost2010Prop51ColorIndex
 90
      256
102
RTVSPost2010Prop51ColorRGB
 90
-16777216
102
RTVSPost2010PropOp51
 70
     0
102
RTVSPost2010Prop52
140
1.0
102
RTVSPost2010PropOp52
 70
     0
102
RTVSPost2010Prop53
 90
        2
102
RTVSPost2010PropOp53
 70
     1
102
RTVSPost2010Prop54
  1
strokes_ogs.tif
102
RTVSPost2010PropOp54
 70
     1
102
RTVSPost2010Prop55
280
     0
102
RTVSPost2010PropOp55
 70
     1
102
RTVSPost2010Prop56
140
1.0
102
RTVSPost2010PropOp56
 70
     1
102
RTVSPost2010Prop57
140
1.0
102
RTVSPost2010PropOp57
 70
     1
102
RTVSPropertyOp0
 70
     1
102
RTVSPropertyOp1
 70
     1
102
RTVSPropertyOp2
 70
     1
102
RTVSPropertyOp3
 70
     1
102
RTVSPropertyOp4
 70
     1
102
RTVSPropertyOp5
 70
     1
102
RTVSPropertyOp6
 70
     1
102
RTVSPropertyOp7
 70
     1
102
RTVSPropertyOp8
 70
     1
102
RTVSPropertyOp9
 70
     1
102
RTVSPropertyOp10
 70
     1
102
RTVSPropertyOp11
 70
     1
102
RTVSPropertyOp12
 70
     1
102
RTVSPropertyOp13
 70
     1
102
RTVSPropertyOp14
 70
     1
102
RTVSPropertyOp15
 70
     1
102
RTVSPropertyOp16
 70
     1
102
RTVSPropertyOp17
 70
     1
102
RTVSPropertyOp18
 70
     1
102
RTVSPropertyOp19
 70
     1
102
RTVSPropertyOp20
 70
     1
102
RTVSPropertyOp21
 70
     1
102
RTVSPropertyOp22
 70
     1
102
RTVSPropertyOp23
 70
     1
102
RTVSPropertyOp24
 70
     1
102
RTVSPropertyOp25
 70
     1
102
RTVSPropertyOp26
 70
     1
102
RTVSPropertyOp27
 70
     1
102
RTVSPropertyOp28
 70
     1
102
RTVSPropertyOp29
 70
     1
102
RTVSPropertyOp30
 70
     1
102
RTVSPropertyOp31
 70
     1
102
RTVSPropertyOp32
 70
     1
102
RTVSPropertyOp33
 70
     1
102
RTVSPropertyOp34
 70
     1
102
RTVSPropertyOp35
 70
     1
102
RTVSPropertyOp36
 70
     1
102
RTVSPropertyOp37
 70
     1
102
RTVSPropertyOp38
 70
     1
102
RTVSPropertyOp39
 70
     1
102
RTVSPropertyOp40
 70
     1
102
RTVSPropertyOp41
 70
     1
102
RTVSPropertyOp42
 70
     1
102
RTVSPropertyOp43
 70
     1
102
RTVSPropertyOp44
 70
     1
102
RTVSPropertyOp45
 70
     1
102
RTVSPropertyOp46
 70
     1
102
RTVSPropertyOp47
 70
     1
102
RTVSPropertyOp48
 70
     1
102
RTVSPropertyOp49
 70
     1
102
RTVSPropertyOp50
 70
     1
102
RTVSPropertyOp51
 70
     0
102
RTVSPropertyOp52
 70
     0
102
RTVSPropertyOp53
 70
     1
102
RTVSPropertyOp54
 70
     1
102
RTVSPropertyOp55
 70
     1
102
RTVSPropertyOp56
 70
     1
102
RTVSPropertyOp57
 70
     1
102
RTVSPropertyOp58
 70
     1
102
RTVSPropertyOp59
 70
     1
102
RTVSPropertyOp60
 70
     1
102
RTVSPropertyOp61
 70
     1
102
RTVSPropertyOp62
 70
     1
  0
XRECORD
  5
9AA8
102
{ACAD_REACTORS
330
9AA7
102
}
330
9AA7
100
AcDbXrecord
280
     1
102
RTVSPost2010Prop28
280
     0
102
RTVSPost2010PropOp28
 70
     1
102
RTVSPost2010Prop29
280
     1
102
RTVSPost2010PropOp29
 70
     1
102
RTVSPost2010Prop30
280
     1
102
RTVSPost2010PropOp30
 70
     1
102
RTVSPost2010Prop31
280
     0
102
RTVSPost2010PropOp31
 70
     1
102
RTVSPost2010Prop32
280
     0
102
RTVSPost2010PropOp32
 70
     1
102
RTVSPost2010Prop33
280
     0
102
RTVSPost2010PropOp33
 70
     1
102
RTVSPost2010Prop34
280
     0
102
RTVSPost2010PropOp34
 70
     1
102
RTVSPost2010Prop35
280
     0
102
RTVSPost2010PropOp35
 70
     1
102
RTVSPost2010Prop36
280
     0
102
RTVSPost2010PropOp36
 70
     1
102
RTVSPost2010Prop37
 90
       50
102
RTVSPost2010PropOp37
 70
     1
102
RTVSPost2010Prop38
140
0.0
102
RTVSPost2010PropOp38
 70
     1
102
RTVSPost2010Prop39
140
1.0
102
RTVSPost2010PropOp39
 70
     1
102
RTVSPost2010Prop40
 90
        0
102
RTVSPost2010PropOp40
 70
     1
102
RTVSPost2010Prop41ColorIndex
 90
       18
102
RTVSPost2010Prop41ColorRGB
 90
        0
102
RTVSPost2010PropOp41
 70
     1
102
RTVSPost2010Prop42
 90
       50
102
RTVSPost2010PropOp42
 70
     1
102
RTVSPost2010Prop43
 90
        3
102
RTVSPost2010PropOp43
 70
     1
102
RTVSPost2010Prop44ColorIndex
 90
        5
102
RTVSPost2010Prop44ColorRGB
 90
      255
102
RTVSPost2010PropOp44
 70
     1
102
RTVSPost2010Prop45
280
     0
102
RTVSPost2010PropOp45
 70
     1
102
RTVSPost2010Prop46
 90
       50
102
RTVSPost2010PropOp46
 70
     1
102
RTVSPost2010Prop47
 90
       50
102
RTVSPost2010PropOp47
 70
     1
102
RTVSPost2010Prop48
 90
       50
102
RTVSPost2010PropOp48
 70
     1
102
RTVSPost2010Prop49
280
     0
102
RTVSPost2010PropOp49
 70
     1
102
RTVSPost2010Prop50
 90
       50
102
RTVSPost2010PropOp50
 70
     1
102
RTVSPost2010Prop51ColorIndex
 90
      256
102
RTVSPost2010Prop51ColorRGB
 90
-16777216
102
RTVSPost2010PropOp51
 70
     0
102
RTVSPost2010Prop52
140
1.0
102
RTVSPost2010PropOp52
 70
     0
102
RTVSPost2010Prop53
 90
        2
102
RTVSPost2010PropOp53
 70
     1
102
RTVSPost2010Prop54
  1
strokes_ogs.tif
102
RTVSPost2010PropOp54
 70
     1
102
RTVSPost2010Prop55
280
     0
102
RTVSPost2010PropOp55
 70
     1
102
RTVSPost2010Prop56
140
1.0
102
RTVSPost2010PropOp56
 70
     1
102
RTVSPost2010Prop57
140
1.0
102
RTVSPost2010PropOp57
 70
     1
102
RTVSPropertyOp0
 70
     1
102
RTVSPropertyOp1
 70
     1
102
RTVSPropertyOp2
 70
     1
102
RTVSPropertyOp3
 70
     1
102
RTVSPropertyOp4
 70
     1
102
RTVSPropertyOp5
 70
     1
102
RTVSPropertyOp6
 70
     1
102
RTVSPropertyOp7
 70
     1
102
RTVSPropertyOp8
 70
     1
102
RTVSPropertyOp9
 70
     1
102
RTVSPropertyOp10
 70
     1
102
RTVSPropertyOp11
 70
     1
102
RTVSPropertyOp12
 70
     1
102
RTVSPropertyOp13
 70
     1
102
RTVSPropertyOp14
 70
     1
102
RTVSPropertyOp15
 70
     1
102
RTVSPropertyOp16
 70
     1
102
RTVSPropertyOp17
 70
     1
102
RTVSPropertyOp18
 70
     1
102
RTVSPropertyOp19
 70
     1
102
RTVSPropertyOp20
 70
     1
102
RTVSPropertyOp21
 70
     1
102
RTVSPropertyOp22
 70
     1
102
RTVSPropertyOp23
 70
     1
102
RTVSPropertyOp24
 70
     1
102
RTVSPropertyOp25
 70
     1
102
RTVSPropertyOp26
 70
     1
102
RTVSPropertyOp27
 70
     1
102
RTVSPropertyOp28
 70
     1
102
RTVSPropertyOp29
 70
     1
102
RTVSPropertyOp30
 70
     1
102
RTVSPropertyOp31
 70
     1
102
RTVSPropertyOp32
 70
     1
102
RTVSPropertyOp33
 70
     1
102
RTVSPropertyOp34
 70
     1
102
RTVSPropertyOp35
 70
     1
102
RTVSPropertyOp36
 70
     1
102
RTVSPropertyOp37
 70
     1
102
RTVSPropertyOp38
 70
     1
102
RTVSPropertyOp39
 70
     1
102
RTVSPropertyOp40
 70
     1
102
RTVSPropertyOp41
 70
     1
102
RTVSPropertyOp42
 70
     1
102
RTVSPropertyOp43
 70
     1
102
RTVSPropertyOp44
 70
     1
102
RTVSPropertyOp45
 70
     1
102
RTVSPropertyOp46
 70
     1
102
RTVSPropertyOp47
 70
     1
102
RTVSPropertyOp48
 70
     1
102
RTVSPropertyOp49
 70
     1
102
RTVSPropertyOp50
 70
     1
102
RTVSPropertyOp51
 70
     0
102
RTVSPropertyOp52
 70
     0
102
RTVSPropertyOp53
 70
     1
102
RTVSPropertyOp54
 70
     1
102
RTVSPropertyOp55
 70
     1
102
RTVSPropertyOp56
 70
     1
102
RTVSPropertyOp57
 70
     1
102
RTVSPropertyOp58
 70
     1
102
RTVSPropertyOp59
 70
     1
102
RTVSPropertyOp60
 70
     1
102
RTVSPropertyOp61
 70
     1
102
RTVSPropertyOp62
 70
     1
  0
XRECORD
  5
9AAA
102
{ACAD_REACTORS
330
9AA9
102
}
330
9AA9
100
AcDbXrecord
280
     1
102
RTVSPost2010Prop28
280
     0
102
RTVSPost2010PropOp28
 70
     1
102
RTVSPost2010Prop29
280
     1
102
RTVSPost2010PropOp29
 70
     1
102
RTVSPost2010Prop30
280
     1
102
RTVSPost2010PropOp30
 70
     1
102
RTVSPost2010Prop31
280
     0
102
RTVSPost2010PropOp31
 70
     1
102
RTVSPost2010Prop32
280
     0
102
RTVSPost2010PropOp32
 70
     1
102
RTVSPost2010Prop33
280
     0
102
RTVSPost2010PropOp33
 70
     1
102
RTVSPost2010Prop34
280
     0
102
RTVSPost2010PropOp34
 70
     1
102
RTVSPost2010Prop35
280
     0
102
RTVSPost2010PropOp35
 70
     1
102
RTVSPost2010Prop36
280
     0
102
RTVSPost2010PropOp36
 70
     1
102
RTVSPost2010Prop37
 90
       50
102
RTVSPost2010PropOp37
 70
     1
102
RTVSPost2010Prop38
140
0.0
102
RTVSPost2010PropOp38
 70
     1
102
RTVSPost2010Prop39
140
1.0
102
RTVSPost2010PropOp39
 70
     1
102
RTVSPost2010Prop40
 90
        0
102
RTVSPost2010PropOp40
 70
     1
102
RTVSPost2010Prop41ColorIndex
 90
       18
102
RTVSPost2010Prop41ColorRGB
 90
        0
102
RTVSPost2010PropOp41
 70
     1
102
RTVSPost2010Prop42
 90
       50
102
RTVSPost2010PropOp42
 70
     1
102
RTVSPost2010Prop43
 90
        3
102
RTVSPost2010PropOp43
 70
     1
102
RTVSPost2010Prop44ColorIndex
 90
        5
102
RTVSPost2010Prop44ColorRGB
 90
      255
102
RTVSPost2010PropOp44
 70
     1
102
RTVSPost2010Prop45
280
     0
102
RTVSPost2010PropOp45
 70
     1
102
RTVSPost2010Prop46
 90
       50
102
RTVSPost2010PropOp46
 70
     1
102
RTVSPost2010Prop47
 90
       50
102
RTVSPost2010PropOp47
 70
     1
102
RTVSPost2010Prop48
 90
       50
102
RTVSPost2010PropOp48
 70
     1
102
RTVSPost2010Prop49
280
     0
102
RTVSPost2010PropOp49
 70
     1
102
RTVSPost2010Prop50
 90
       50
102
RTVSPost2010PropOp50
 70
     1
102
RTVSPost2010Prop51ColorIndex
 90
      256
102
RTVSPost2010Prop51ColorRGB
 90
-16777216
102
RTVSPost2010PropOp51
 70
     0
102
RTVSPost2010Prop52
140
1.0
102
RTVSPost2010PropOp52
 70
     0
102
RTVSPost2010Prop53
 90
        2
102
RTVSPost2010PropOp53
 70
     1
102
RTVSPost2010Prop54
  1
strokes_ogs.tif
102
RTVSPost2010PropOp54
 70
     1
102
RTVSPost2010Prop55
280
     0
102
RTVSPost2010PropOp55
 70
     1
102
RTVSPost2010Prop56
140
1.0
102
RTVSPost2010PropOp56
 70
     1
102
RTVSPost2010Prop57
140
1.0
102
RTVSPost2010PropOp57
 70
     1
102
RTVSPropertyOp0
 70
     1
102
RTVSPropertyOp1
 70
     1
102
RTVSPropertyOp2
 70
     1
102
RTVSPropertyOp3
 70
     1
102
RTVSPropertyOp4
 70
     1
102
RTVSPropertyOp5
 70
     1
102
RTVSPropertyOp6
 70
     1
102
RTVSPropertyOp7
 70
     1
102
RTVSPropertyOp8
 70
     1
102
RTVSPropertyOp9
 70
     1
102
RTVSPropertyOp10
 70
     1
102
RTVSPropertyOp11
 70
     1
102
RTVSPropertyOp12
 70
     1
102
RTVSPropertyOp13
 70
     1
102
RTVSPropertyOp14
 70
     1
102
RTVSPropertyOp15
 70
     1
102
RTVSPropertyOp16
 70
     1
102
RTVSPropertyOp17
 70
     1
102
RTVSPropertyOp18
 70
     1
102
RTVSPropertyOp19
 70
     1
102
RTVSPropertyOp20
 70
     1
102
RTVSPropertyOp21
 70
     1
102
RTVSPropertyOp22
 70
     1
102
RTVSPropertyOp23
 70
     1
102
RTVSPropertyOp24
 70
     1
102
RTVSPropertyOp25
 70
     1
102
RTVSPropertyOp26
 70
     1
102
RTVSPropertyOp27
 70
     1
102
RTVSPropertyOp28
 70
     1
102
RTVSPropertyOp29
 70
     1
102
RTVSPropertyOp30
 70
     1
102
RTVSPropertyOp31
 70
     1
102
RTVSPropertyOp32
 70
     1
102
RTVSPropertyOp33
 70
     1
102
RTVSPropertyOp34
 70
     1
102
RTVSPropertyOp35
 70
     1
102
RTVSPropertyOp36
 70
     1
102
RTVSPropertyOp37
 70
     1
102
RTVSPropertyOp38
 70
     1
102
RTVSPropertyOp39
 70
     1
102
RTVSPropertyOp40
 70
     1
102
RTVSPropertyOp41
 70
     1
102
RTVSPropertyOp42
 70
     1
102
RTVSPropertyOp43
 70
     1
102
RTVSPropertyOp44
 70
     1
102
RTVSPropertyOp45
 70
     1
102
RTVSPropertyOp46
 70
     1
102
RTVSPropertyOp47
 70
     1
102
RTVSPropertyOp48
 70
     1
102
RTVSPropertyOp49
 70
     1
102
RTVSPropertyOp50
 70
     1
102
RTVSPropertyOp51
 70
     0
102
RTVSPropertyOp52
 70
     0
102
RTVSPropertyOp53
 70
     1
102
RTVSPropertyOp54
 70
     1
102
RTVSPropertyOp55
 70
     1
102
RTVSPropertyOp56
 70
     1
102
RTVSPropertyOp57
 70
     1
102
RTVSPropertyOp58
 70
     1
102
RTVSPropertyOp59
 70
     1
102
RTVSPropertyOp60
 70
     1
102
RTVSPropertyOp61
 70
     1
102
RTVSPropertyOp62
 70
     1
  0
XRECORD
  5
9AB2
102
{ACAD_REACTORS
330
9AB1
102
}
330
9AB1
100
AcDbXrecord
280
     1
102
RTVSPost2010Prop28
280
     0
102
RTVSPost2010PropOp28
 70
     1
102
RTVSPost2010Prop29
280
     1
102
RTVSPost2010PropOp29
 70
     1
102
RTVSPost2010Prop30
280
     1
102
RTVSPost2010PropOp30
 70
     1
102
RTVSPost2010Prop31
280
     0
102
RTVSPost2010PropOp31
 70
     1
102
RTVSPost2010Prop32
280
     0
102
RTVSPost2010PropOp32
 70
     1
102
RTVSPost2010Prop33
280
     0
102
RTVSPost2010PropOp33
 70
     1
102
RTVSPost2010Prop34
280
     0
102
RTVSPost2010PropOp34
 70
     1
102
RTVSPost2010Prop35
280
     0
102
RTVSPost2010PropOp35
 70
     1
102
RTVSPost2010Prop36
280
     0
102
RTVSPost2010PropOp36
 70
     1
102
RTVSPost2010Prop37
 90
       50
102
RTVSPost2010PropOp37
 70
     1
102
RTVSPost2010Prop38
140
0.0
102
RTVSPost2010PropOp38
 70
     1
102
RTVSPost2010Prop39
140
1.0
102
RTVSPost2010PropOp39
 70
     1
102
RTVSPost2010Prop40
 90
        0
102
RTVSPost2010PropOp40
 70
     1
102
RTVSPost2010Prop41ColorIndex
 90
       18
102
RTVSPost2010Prop41ColorRGB
 90
        0
102
RTVSPost2010PropOp41
 70
     1
102
RTVSPost2010Prop42
 90
       50
102
RTVSPost2010PropOp42
 70
     1
102
RTVSPost2010Prop43
 90
        3
102
RTVSPost2010PropOp43
 70
     1
102
RTVSPost2010Prop44ColorIndex
 90
        5
102
RTVSPost2010Prop44ColorRGB
 90
      255
102
RTVSPost2010PropOp44
 70
     1
102
RTVSPost2010Prop45
280
     0
102
RTVSPost2010PropOp45
 70
     1
102
RTVSPost2010Prop46
 90
       50
102
RTVSPost2010PropOp46
 70
     1
102
RTVSPost2010Prop47
 90
       50
102
RTVSPost2010PropOp47
 70
     1
102
RTVSPost2010Prop48
 90
       50
102
RTVSPost2010PropOp48
 70
     1
102
RTVSPost2010Prop49
280
     0
102
RTVSPost2010PropOp49
 70
     1
102
RTVSPost2010Prop50
 90
       50
102
RTVSPost2010PropOp50
 70
     1
102
RTVSPost2010Prop51ColorIndex
 90
      256
102
RTVSPost2010Prop51ColorRGB
 90
-16777216
102
RTVSPost2010PropOp51
 70
     0
102
RTVSPost2010Prop52
140
1.0
102
RTVSPost2010PropOp52
 70
     0
102
RTVSPost2010Prop53
 90
        2
102
RTVSPost2010PropOp53
 70
     1
102
RTVSPost2010Prop54
  1
strokes_ogs.tif
102
RTVSPost2010PropOp54
 70
     1
102
RTVSPost2010Prop55
280
     0
102
RTVSPost2010PropOp55
 70
     1
102
RTVSPost2010Prop56
140
1.0
102
RTVSPost2010PropOp56
 70
     1
102
RTVSPost2010Prop57
140
1.0
102
RTVSPost2010PropOp57
 70
     1
102
RTVSPropertyOp0
 70
     1
102
RTVSPropertyOp1
 70
     1
102
RTVSPropertyOp2
 70
     1
102
RTVSPropertyOp3
 70
     1
102
RTVSPropertyOp4
 70
     1
102
RTVSPropertyOp5
 70
     1
102
RTVSPropertyOp6
 70
     1
102
RTVSPropertyOp7
 70
     1
102
RTVSPropertyOp8
 70
     1
102
RTVSPropertyOp9
 70
     1
102
RTVSPropertyOp10
 70
     1
102
RTVSPropertyOp11
 70
     1
102
RTVSPropertyOp12
 70
     1
102
RTVSPropertyOp13
 70
     1
102
RTVSPropertyOp14
 70
     1
102
RTVSPropertyOp15
 70
     1
102
RTVSPropertyOp16
 70
     1
102
RTVSPropertyOp17
 70
     1
102
RTVSPropertyOp18
 70
     1
102
RTVSPropertyOp19
 70
     1
102
RTVSPropertyOp20
 70
     1
102
RTVSPropertyOp21
 70
     1
102
RTVSPropertyOp22
 70
     1
102
RTVSPropertyOp23
 70
     1
102
RTVSPropertyOp24
 70
     1
102
RTVSPropertyOp25
 70
     1
102
RTVSPropertyOp26
 70
     1
102
RTVSPropertyOp27
 70
     1
102
RTVSPropertyOp28
 70
     1
102
RTVSPropertyOp29
 70
     1
102
RTVSPropertyOp30
 70
     1
102
RTVSPropertyOp31
 70
     1
102
RTVSPropertyOp32
 70
     1
102
RTVSPropertyOp33
 70
     1
102
RTVSPropertyOp34
 70
     1
102
RTVSPropertyOp35
 70
     1
102
RTVSPropertyOp36
 70
     1
102
RTVSPropertyOp37
 70
     1
102
RTVSPropertyOp38
 70
     1
102
RTVSPropertyOp39
 70
     1
102
RTVSPropertyOp40
 70
     1
102
RTVSPropertyOp41
 70
     1
102
RTVSPropertyOp42
 70
     1
102
RTVSPropertyOp43
 70
     1
102
RTVSPropertyOp44
 70
     1
102
RTVSPropertyOp45
 70
     1
102
RTVSPropertyOp46
 70
     1
102
RTVSPropertyOp47
 70
     1
102
RTVSPropertyOp48
 70
     1
102
RTVSPropertyOp49
 70
     1
102
RTVSPropertyOp50
 70
     1
102
RTVSPropertyOp51
 70
     0
102
RTVSPropertyOp52
 70
     0
102
RTVSPropertyOp53
 70
     1
102
RTVSPropertyOp54
 70
     1
102
RTVSPropertyOp55
 70
     1
102
RTVSPropertyOp56
 70
     1
102
RTVSPropertyOp57
 70
     1
102
RTVSPropertyOp58
 70
     1
102
RTVSPropertyOp59
 70
     1
102
RTVSPropertyOp60
 70
     1
102
RTVSPropertyOp61
 70
     1
102
RTVSPropertyOp62
 70
     1
  0
XRECORD
  5
9ACE
102
{ACAD_REACTORS
330
9ACD
102
}
330
9ACD
100
AcDbXrecord
280
     1
102
RTVSPost2010Prop28
280
     0
102
RTVSPost2010PropOp28
 70
     1
102
RTVSPost2010Prop29
280
     1
102
RTVSPost2010PropOp29
 70
     1
102
RTVSPost2010Prop30
280
     1
102
RTVSPost2010PropOp30
 70
     1
102
RTVSPost2010Prop31
280
     0
102
RTVSPost2010PropOp31
 70
     1
102
RTVSPost2010Prop32
280
     0
102
RTVSPost2010PropOp32
 70
     1
102
RTVSPost2010Prop33
280
     0
102
RTVSPost2010PropOp33
 70
     1
102
RTVSPost2010Prop34
280
     0
102
RTVSPost2010PropOp34
 70
     1
102
RTVSPost2010Prop35
280
     0
102
RTVSPost2010PropOp35
 70
     1
102
RTVSPost2010Prop36
280
     0
102
RTVSPost2010PropOp36
 70
     1
102
RTVSPost2010Prop37
 90
       50
102
RTVSPost2010PropOp37
 70
     0
102
RTVSPost2010Prop38
140
0.0
102
RTVSPost2010PropOp38
 70
     0
102
RTVSPost2010Prop39
140
1.0
102
RTVSPost2010PropOp39
 70
     0
102
RTVSPost2010Prop40
 90
        0
102
RTVSPost2010PropOp40
 70
     0
102
RTVSPost2010Prop41ColorIndex
 90
       18
102
RTVSPost2010Prop41ColorRGB
 90
        0
102
RTVSPost2010PropOp41
 70
     0
102
RTVSPost2010Prop42
 90
       50
102
RTVSPost2010PropOp42
 70
     0
102
RTVSPost2010Prop43
 90
        3
102
RTVSPost2010PropOp43
 70
     0
102
RTVSPost2010Prop44ColorIndex
 90
        5
102
RTVSPost2010Prop44ColorRGB
 90
      255
102
RTVSPost2010PropOp44
 70
     0
102
RTVSPost2010Prop45
280
     0
102
RTVSPost2010PropOp45
 70
     1
102
RTVSPost2010Prop46
 90
       50
102
RTVSPost2010PropOp46
 70
     0
102
RTVSPost2010Prop47
 90
       50
102
RTVSPost2010PropOp47
 70
     0
102
RTVSPost2010Prop48
 90
       50
102
RTVSPost2010PropOp48
 70
     0
102
RTVSPost2010Prop49
280
     0
102
RTVSPost2010PropOp49
 70
     1
102
RTVSPost2010Prop50
 90
       50
102
RTVSPost2010PropOp50
 70
     0
102
RTVSPost2010Prop51ColorIndex
 90
      256
102
RTVSPost2010Prop51ColorRGB
 90
-16777216
102
RTVSPost2010PropOp51
 70
     0
102
RTVSPost2010Prop52
140
1.0
102
RTVSPost2010PropOp52
 70
     0
102
RTVSPost2010Prop53
 90
        2
102
RTVSPost2010PropOp53
 70
     0
102
RTVSPost2010Prop54
  1
strokes_ogs.tif
102
RTVSPost2010PropOp54
 70
     0
102
RTVSPost2010Prop55
280
     0
102
RTVSPost2010PropOp55
 70
     1
102
RTVSPost2010Prop56
140
1.0
102
RTVSPost2010PropOp56
 70
     0
102
RTVSPost2010Prop57
140
1.0
102
RTVSPost2010PropOp57
 70
     0
102
RTVSPropertyOp0
 70
     0
102
RTVSPropertyOp1
 70
     0
102
RTVSPropertyOp2
 70
     0
102
RTVSPropertyOp3
 70
     0
102
RTVSPropertyOp4
 70
     0
102
RTVSPropertyOp5
 70
     0
102
RTVSPropertyOp6
 70
     0
102
RTVSPropertyOp7
 70
     0
102
RTVSPropertyOp8
 70
     0
102
RTVSPropertyOp9
 70
     0
102
RTVSPropertyOp10
 70
     0
102
RTVSPropertyOp11
 70
     0
102
RTVSPropertyOp12
 70
     0
102
RTVSPropertyOp13
 70
     0
102
RTVSPropertyOp14
 70
     2
102
RTVSPropertyOp15
 70
     0
102
RTVSPropertyOp16
 70
     0
102
RTVSPropertyOp17
 70
     0
102
RTVSPropertyOp18
 70
     0
102
RTVSPropertyOp19
 70
     0
102
RTVSPropertyOp20
 70
     0
102
RTVSPropertyOp21
 70
     0
102
RTVSPropertyOp22
 70
     0
102
RTVSPropertyOp23
 70
     0
102
RTVSPropertyOp24
 70
     0
102
RTVSPropertyOp25
 70
     0
102
RTVSPropertyOp26
 70
     0
102
RTVSPropertyOp27
 70
     0
102
RTVSPropertyOp28
 70
     1
102
RTVSPropertyOp29
 70
     1
102
RTVSPropertyOp30
 70
     1
102
RTVSPropertyOp31
 70
     1
102
RTVSPropertyOp32
 70
     1
102
RTVSPropertyOp33
 70
     1
102
RTVSPropertyOp34
 70
     1
102
RTVSPropertyOp35
 70
     1
102
RTVSPropertyOp36
 70
     1
102
RTVSPropertyOp37
 70
     0
102
RTVSPropertyOp38
 70
     0
102
RTVSPropertyOp39
 70
     0
102
RTVSPropertyOp40
 70
     0
102
RTVSPropertyOp41
 70
     0
102
RTVSPropertyOp42
 70
     0
102
RTVSPropertyOp43
 70
     0
102
RTVSPropertyOp44
 70
     0
102
RTVSPropertyOp45
 70
     1
102
RTVSPropertyOp46
 70
     0
102
RTVSPropertyOp47
 70
     0
102
RTVSPropertyOp48
 70
     0
102
RTVSPropertyOp49
 70
     1
102
RTVSPropertyOp50
 70
     0
102
RTVSPropertyOp51
 70
     0
102
RTVSPropertyOp52
 70
     0
102
RTVSPropertyOp53
 70
     0
102
RTVSPropertyOp54
 70
     0
102
RTVSPropertyOp55
 70
     1
102
RTVSPropertyOp56
 70
     0
102
RTVSPropertyOp57
 70
     0
102
RTVSPropertyOp58
 70
     0
102
RTVSPropertyOp59
 70
     0
102
RTVSPropertyOp60
 70
     0
102
RTVSPropertyOp61
 70
     0
102
RTVSPropertyOp62
 70
     0
  0
XRECORD
  5
9ABE
102
{ACAD_REACTORS
330
9ABD
102
}
330
9ABD
100
AcDbXrecord
280
     1
102
RTVSPost2010Prop28
280
     0
102
RTVSPost2010PropOp28
 70
     1
102
RTVSPost2010Prop29
280
     1
102
RTVSPost2010PropOp29
 70
     1
102
RTVSPost2010Prop30
280
     1
102
RTVSPost2010PropOp30
 70
     1
102
RTVSPost2010Prop31
280
     0
102
RTVSPost2010PropOp31
 70
     1
102
RTVSPost2010Prop32
280
     0
102
RTVSPost2010PropOp32
 70
     1
102
RTVSPost2010Prop33
280
     0
102
RTVSPost2010PropOp33
 70
     1
102
RTVSPost2010Prop34
280
     0
102
RTVSPost2010PropOp34
 70
     1
102
RTVSPost2010Prop35
280
     0
102
RTVSPost2010PropOp35
 70
     1
102
RTVSPost2010Prop36
280
     0
102
RTVSPost2010PropOp36
 70
     1
102
RTVSPost2010Prop37
 90
       50
102
RTVSPost2010PropOp37
 70
     1
102
RTVSPost2010Prop38
140
0.0
102
RTVSPost2010PropOp38
 70
     1
102
RTVSPost2010Prop39
140
1.0
102
RTVSPost2010PropOp39
 70
     1
102
RTVSPost2010Prop40
 90
        0
102
RTVSPost2010PropOp40
 70
     1
102
RTVSPost2010Prop41ColorIndex
 90
       18
102
RTVSPost2010Prop41ColorRGB
 90
        0
102
RTVSPost2010PropOp41
 70
     1
102
RTVSPost2010Prop42
 90
       50
102
RTVSPost2010PropOp42
 70
     1
102
RTVSPost2010Prop43
 90
        3
102
RTVSPost2010PropOp43
 70
     1
102
RTVSPost2010Prop44ColorIndex
 90
        5
102
RTVSPost2010Prop44ColorRGB
 90
      255
102
RTVSPost2010PropOp44
 70
     1
102
RTVSPost2010Prop45
280
     0
102
RTVSPost2010PropOp45
 70
     1
102
RTVSPost2010Prop46
 90
       50
102
RTVSPost2010PropOp46
 70
     1
102
RTVSPost2010Prop47
 90
       50
102
RTVSPost2010PropOp47
 70
     1
102
RTVSPost2010Prop48
 90
       50
102
RTVSPost2010PropOp48
 70
     1
102
RTVSPost2010Prop49
280
     0
102
RTVSPost2010PropOp49
 70
     1
102
RTVSPost2010Prop50
 90
       50
102
RTVSPost2010PropOp50
 70
     1
102
RTVSPost2010Prop51ColorIndex
 90
      256
102
RTVSPost2010Prop51ColorRGB
 90
-16777216
102
RTVSPost2010PropOp51
 70
     0
102
RTVSPost2010Prop52
140
1.0
102
RTVSPost2010PropOp52
 70
     0
102
RTVSPost2010Prop53
 90
        2
102
RTVSPost2010PropOp53
 70
     1
102
RTVSPost2010Prop54
  1
strokes_ogs.tif
102
RTVSPost2010PropOp54
 70
     1
102
RTVSPost2010Prop55
280
     0
102
RTVSPost2010PropOp55
 70
     1
102
RTVSPost2010Prop56
140
1.0
102
RTVSPost2010PropOp56
 70
     1
102
RTVSPost2010Prop57
140
1.0
102
RTVSPost2010PropOp57
 70
     1
102
RTVSPropertyOp0
 70
     1
102
RTVSPropertyOp1
 70
     1
102
RTVSPropertyOp2
 70
     1
102
RTVSPropertyOp3
 70
     1
102
RTVSPropertyOp4
 70
     1
102
RTVSPropertyOp5
 70
     1
102
RTVSPropertyOp6
 70
     1
102
RTVSPropertyOp7
 70
     1
102
RTVSPropertyOp8
 70
     1
102
RTVSPropertyOp9
 70
     1
102
RTVSPropertyOp10
 70
     1
102
RTVSPropertyOp11
 70
     1
102
RTVSPropertyOp12
 70
     1
102
RTVSPropertyOp13
 70
     1
102
RTVSPropertyOp14
 70
     1
102
RTVSPropertyOp15
 70
     1
102
RTVSPropertyOp16
 70
     1
102
RTVSPropertyOp17
 70
     1
102
RTVSPropertyOp18
 70
     1
102
RTVSPropertyOp19
 70
     1
102
RTVSPropertyOp20
 70
     1
102
RTVSPropertyOp21
 70
     1
102
RTVSPropertyOp22
 70
     1
102
RTVSPropertyOp23
 70
     1
102
RTVSPropertyOp24
 70
     1
102
RTVSPropertyOp25
 70
     1
102
RTVSPropertyOp26
 70
     1
102
RTVSPropertyOp27
 70
     1
102
RTVSPropertyOp28
 70
     1
102
RTVSPropertyOp29
 70
     1
102
RTVSPropertyOp30
 70
     1
102
RTVSPropertyOp31
 70
     1
102
RTVSPropertyOp32
 70
     1
102
RTVSPropertyOp33
 70
     1
102
RTVSPropertyOp34
 70
     1
102
RTVSPropertyOp35
 70
     1
102
RTVSPropertyOp36
 70
     1
102
RTVSPropertyOp37
 70
     1
102
RTVSPropertyOp38
 70
     1
102
RTVSPropertyOp39
 70
     1
102
RTVSPropertyOp40
 70
     1
102
RTVSPropertyOp41
 70
     1
102
RTVSPropertyOp42
 70
     1
102
RTVSPropertyOp43
 70
     1
102
RTVSPropertyOp44
 70
     1
102
RTVSPropertyOp45
 70
     1
102
RTVSPropertyOp46
 70
     1
102
RTVSPropertyOp47
 70
     1
102
RTVSPropertyOp48
 70
     1
102
RTVSPropertyOp49
 70
     1
102
RTVSPropertyOp50
 70
     1
102
RTVSPropertyOp51
 70
     0
102
RTVSPropertyOp52
 70
     0
102
RTVSPropertyOp53
 70
     1
102
RTVSPropertyOp54
 70
     1
102
RTVSPropertyOp55
 70
     1
102
RTVSPropertyOp56
 70
     1
102
RTVSPropertyOp57
 70
     1
102
RTVSPropertyOp58
 70
     1
102
RTVSPropertyOp59
 70
     1
102
RTVSPropertyOp60
 70
     1
102
RTVSPropertyOp61
 70
     1
102
RTVSPropertyOp62
 70
     1
  0
XRECORD
  5
9AD0
102
{ACAD_REACTORS
330
9ACF
102
}
330
9ACF
100
AcDbXrecord
280
     1
102
RTVSPost2010Prop28
280
     0
102
RTVSPost2010PropOp28
 70
     1
102
RTVSPost2010Prop29
280
     1
102
RTVSPost2010PropOp29
 70
     1
102
RTVSPost2010Prop30
280
     1
102
RTVSPost2010PropOp30
 70
     1
102
RTVSPost2010Prop31
280
     0
102
RTVSPost2010PropOp31
 70
     1
102
RTVSPost2010Prop32
280
     0
102
RTVSPost2010PropOp32
 70
     1
102
RTVSPost2010Prop33
280
     0
102
RTVSPost2010PropOp33
 70
     1
102
RTVSPost2010Prop34
280
     0
102
RTVSPost2010PropOp34
 70
     1
102
RTVSPost2010Prop35
280
     0
102
RTVSPost2010PropOp35
 70
     1
102
RTVSPost2010Prop36
280
     0
102
RTVSPost2010PropOp36
 70
     1
102
RTVSPost2010Prop37
 90
       50
102
RTVSPost2010PropOp37
 70
     0
102
RTVSPost2010Prop38
140
0.0
102
RTVSPost2010PropOp38
 70
     0
102
RTVSPost2010Prop39
140
1.0
102
RTVSPost2010PropOp39
 70
     0
102
RTVSPost2010Prop40
 90
        0
102
RTVSPost2010PropOp40
 70
     0
102
RTVSPost2010Prop41ColorIndex
 90
       18
102
RTVSPost2010Prop41ColorRGB
 90
        0
102
RTVSPost2010PropOp41
 70
     0
102
RTVSPost2010Prop42
 90
       50
102
RTVSPost2010PropOp42
 70
     0
102
RTVSPost2010Prop43
 90
        3
102
RTVSPost2010PropOp43
 70
     0
102
RTVSPost2010Prop44ColorIndex
 90
        5
102
RTVSPost2010Prop44ColorRGB
 90
      255
102
RTVSPost2010PropOp44
 70
     0
102
RTVSPost2010Prop45
280
     0
102
RTVSPost2010PropOp45
 70
     1
102
RTVSPost2010Prop46
 90
       50
102
RTVSPost2010PropOp46
 70
     0
102
RTVSPost2010Prop47
 90
       50
102
RTVSPost2010PropOp47
 70
     0
102
RTVSPost2010Prop48
 90
       50
102
RTVSPost2010PropOp48
 70
     0
102
RTVSPost2010Prop49
280
     0
102
RTVSPost2010PropOp49
 70
     1
102
RTVSPost2010Prop50
 90
       50
102
RTVSPost2010PropOp50
 70
     0
102
RTVSPost2010Prop51ColorIndex
 90
      256
102
RTVSPost2010Prop51ColorRGB
 90
-16777216
102
RTVSPost2010PropOp51
 70
     0
102
RTVSPost2010Prop52
140
1.0
102
RTVSPost2010PropOp52
 70
     0
102
RTVSPost2010Prop53
 90
        2
102
RTVSPost2010PropOp53
 70
     0
102
RTVSPost2010Prop54
  1
strokes_ogs.tif
102
RTVSPost2010PropOp54
 70
     0
102
RTVSPost2010Prop55
280
     0
102
RTVSPost2010PropOp55
 70
     1
102
RTVSPost2010Prop56
140
1.0
102
RTVSPost2010PropOp56
 70
     0
102
RTVSPost2010Prop57
140
1.0
102
RTVSPost2010PropOp57
 70
     0
102
RTVSPropertyOp0
 70
     0
102
RTVSPropertyOp1
 70
     0
102
RTVSPropertyOp2
 70
     0
102
RTVSPropertyOp3
 70
     0
102
RTVSPropertyOp4
 70
     0
102
RTVSPropertyOp5
 70
     0
102
RTVSPropertyOp6
 70
     0
102
RTVSPropertyOp7
 70
     0
102
RTVSPropertyOp8
 70
     0
102
RTVSPropertyOp9
 70
     0
102
RTVSPropertyOp10
 70
     0
102
RTVSPropertyOp11
 70
     0
102
RTVSPropertyOp12
 70
     0
102
RTVSPropertyOp13
 70
     0
102
RTVSPropertyOp14
 70
     2
102
RTVSPropertyOp15
 70
     0
102
RTVSPropertyOp16
 70
     0
102
RTVSPropertyOp17
 70
     0
102
RTVSPropertyOp18
 70
     0
102
RTVSPropertyOp19
 70
     0
102
RTVSPropertyOp20
 70
     0
102
RTVSPropertyOp21
 70
     0
102
RTVSPropertyOp22
 70
     0
102
RTVSPropertyOp23
 70
     0
102
RTVSPropertyOp24
 70
     0
102
RTVSPropertyOp25
 70
     0
102
RTVSPropertyOp26
 70
     0
102
RTVSPropertyOp27
 70
     0
102
RTVSPropertyOp28
 70
     1
102
RTVSPropertyOp29
 70
     1
102
RTVSPropertyOp30
 70
     1
102
RTVSPropertyOp31
 70
     1
102
RTVSPropertyOp32
 70
     1
102
RTVSPropertyOp33
 70
     1
102
RTVSPropertyOp34
 70
     1
102
RTVSPropertyOp35
 70
     1
102
RTVSPropertyOp36
 70
     1
102
RTVSPropertyOp37
 70
     0
102
RTVSPropertyOp38
 70
     0
102
RTVSPropertyOp39
 70
     0
102
RTVSPropertyOp40
 70
     0
102
RTVSPropertyOp41
 70
     0
102
RTVSPropertyOp42
 70
     0
102
RTVSPropertyOp43
 70
     0
102
RTVSPropertyOp44
 70
     0
102
RTVSPropertyOp45
 70
     1
102
RTVSPropertyOp46
 70
     0
102
RTVSPropertyOp47
 70
     0
102
RTVSPropertyOp48
 70
     0
102
RTVSPropertyOp49
 70
     1
102
RTVSPropertyOp50
 70
     0
102
RTVSPropertyOp51
 70
     0
102
RTVSPropertyOp52
 70
     0
102
RTVSPropertyOp53
 70
     0
102
RTVSPropertyOp54
 70
     0
102
RTVSPropertyOp55
 70
     1
102
RTVSPropertyOp56
 70
     0
102
RTVSPropertyOp57
 70
     0
102
RTVSPropertyOp58
 70
     0
102
RTVSPropertyOp59
 70
     0
102
RTVSPropertyOp60
 70
     0
102
RTVSPropertyOp61
 70
     0
102
RTVSPropertyOp62
 70
     0
  0
XRECORD
  5
9AB6
102
{ACAD_REACTORS
330
9AB5
102
}
330
9AB5
100
AcDbXrecord
280
     1
102
RTVSPost2010Prop28
280
     0
102
RTVSPost2010PropOp28
 70
     1
102
RTVSPost2010Prop29
280
     1
102
RTVSPost2010PropOp29
 70
     1
102
RTVSPost2010Prop30
280
     1
102
RTVSPost2010PropOp30
 70
     1
102
RTVSPost2010Prop31
280
     0
102
RTVSPost2010PropOp31
 70
     1
102
RTVSPost2010Prop32
280
     0
102
RTVSPost2010PropOp32
 70
     1
102
RTVSPost2010Prop33
280
     0
102
RTVSPost2010PropOp33
 70
     1
102
RTVSPost2010Prop34
280
     0
102
RTVSPost2010PropOp34
 70
     1
102
RTVSPost2010Prop35
280
     0
102
RTVSPost2010PropOp35
 70
     1
102
RTVSPost2010Prop36
280
     0
102
RTVSPost2010PropOp36
 70
     1
102
RTVSPost2010Prop37
 90
       50
102
RTVSPost2010PropOp37
 70
     1
102
RTVSPost2010Prop38
140
0.0
102
RTVSPost2010PropOp38
 70
     1
102
RTVSPost2010Prop39
140
1.0
102
RTVSPost2010PropOp39
 70
     1
102
RTVSPost2010Prop40
 90
        0
102
RTVSPost2010PropOp40
 70
     1
102
RTVSPost2010Prop41ColorIndex
 90
       18
102
RTVSPost2010Prop41ColorRGB
 90
        0
102
RTVSPost2010PropOp41
 70
     1
102
RTVSPost2010Prop42
 90
       50
102
RTVSPost2010PropOp42
 70
     1
102
RTVSPost2010Prop43
 90
        3
102
RTVSPost2010PropOp43
 70
     1
102
RTVSPost2010Prop44ColorIndex
 90
        5
102
RTVSPost2010Prop44ColorRGB
 90
      255
102
RTVSPost2010PropOp44
 70
     1
102
RTVSPost2010Prop45
280
     0
102
RTVSPost2010PropOp45
 70
     1
102
RTVSPost2010Prop46
 90
       50
102
RTVSPost2010PropOp46
 70
     1
102
RTVSPost2010Prop47
 90
       50
102
RTVSPost2010PropOp47
 70
     1
102
RTVSPost2010Prop48
 90
       50
102
RTVSPost2010PropOp48
 70
     1
102
RTVSPost2010Prop49
280
     0
102
RTVSPost2010PropOp49
 70
     1
102
RTVSPost2010Prop50
 90
       50
102
RTVSPost2010PropOp50
 70
     1
102
RTVSPost2010Prop51ColorIndex
 90
      256
102
RTVSPost2010Prop51ColorRGB
 90
-16777216
102
RTVSPost2010PropOp51
 70
     0
102
RTVSPost2010Prop52
140
1.0
102
RTVSPost2010PropOp52
 70
     0
102
RTVSPost2010Prop53
 90
        2
102
RTVSPost2010PropOp53
 70
     1
102
RTVSPost2010Prop54
  1
strokes_ogs.tif
102
RTVSPost2010PropOp54
 70
     1
102
RTVSPost2010Prop55
280
     0
102
RTVSPost2010PropOp55
 70
     1
102
RTVSPost2010Prop56
140
1.0
102
RTVSPost2010PropOp56
 70
     1
102
RTVSPost2010Prop57
140
1.0
102
RTVSPost2010PropOp57
 70
     1
102
RTVSPropertyOp0
 70
     1
102
RTVSPropertyOp1
 70
     1
102
RTVSPropertyOp2
 70
     1
102
RTVSPropertyOp3
 70
     1
102
RTVSPropertyOp4
 70
     1
102
RTVSPropertyOp5
 70
     1
102
RTVSPropertyOp6
 70
     1
102
RTVSPropertyOp7
 70
     1
102
RTVSPropertyOp8
 70
     1
102
RTVSPropertyOp9
 70
     1
102
RTVSPropertyOp10
 70
     1
102
RTVSPropertyOp11
 70
     1
102
RTVSPropertyOp12
 70
     1
102
RTVSPropertyOp13
 70
     1
102
RTVSPropertyOp14
 70
     1
102
RTVSPropertyOp15
 70
     1
102
RTVSPropertyOp16
 70
     1
102
RTVSPropertyOp17
 70
     1
102
RTVSPropertyOp18
 70
     1
102
RTVSPropertyOp19
 70
     1
102
RTVSPropertyOp20
 70
     1
102
RTVSPropertyOp21
 70
     1
102
RTVSPropertyOp22
 70
     1
102
RTVSPropertyOp23
 70
     1
102
RTVSPropertyOp24
 70
     1
102
RTVSPropertyOp25
 70
     1
102
RTVSPropertyOp26
 70
     1
102
RTVSPropertyOp27
 70
     1
102
RTVSPropertyOp28
 70
     1
102
RTVSPropertyOp29
 70
     1
102
RTVSPropertyOp30
 70
     1
102
RTVSPropertyOp31
 70
     1
102
RTVSPropertyOp32
 70
     1
102
RTVSPropertyOp33
 70
     1
102
RTVSPropertyOp34
 70
     1
102
RTVSPropertyOp35
 70
     1
102
RTVSPropertyOp36
 70
     1
102
RTVSPropertyOp37
 70
     1
102
RTVSPropertyOp38
 70
     1
102
RTVSPropertyOp39
 70
     1
102
RTVSPropertyOp40
 70
     1
102
RTVSPropertyOp41
 70
     1
102
RTVSPropertyOp42
 70
     1
102
RTVSPropertyOp43
 70
     1
102
RTVSPropertyOp44
 70
     1
102
RTVSPropertyOp45
 70
     1
102
RTVSPropertyOp46
 70
     1
102
RTVSPropertyOp47
 70
     1
102
RTVSPropertyOp48
 70
     1
102
RTVSPropertyOp49
 70
     1
102
RTVSPropertyOp50
 70
     1
102
RTVSPropertyOp51
 70
     0
102
RTVSPropertyOp52
 70
     0
102
RTVSPropertyOp53
 70
     1
102
RTVSPropertyOp54
 70
     1
102
RTVSPropertyOp55
 70
     1
102
RTVSPropertyOp56
 70
     1
102
RTVSPropertyOp57
 70
     1
102
RTVSPropertyOp58
 70
     1
102
RTVSPropertyOp59
 70
     1
102
RTVSPropertyOp60
 70
     1
102
RTVSPropertyOp61
 70
     1
102
RTVSPropertyOp62
 70
     1
  0
XRECORD
  5
9ACC
102
{ACAD_REACTORS
330
9ACB
102
}
330
9ACB
100
AcDbXrecord
280
     1
102
RTVSPost2010Prop28
280
     0
102
RTVSPost2010PropOp28
 70
     1
102
RTVSPost2010Prop29
280
     1
102
RTVSPost2010PropOp29
 70
     1
102
RTVSPost2010Prop30
280
     1
102
RTVSPost2010PropOp30
 70
     1
102
RTVSPost2010Prop31
280
     0
102
RTVSPost2010PropOp31
 70
     1
102
RTVSPost2010Prop32
280
     0
102
RTVSPost2010PropOp32
 70
     1
102
RTVSPost2010Prop33
280
     0
102
RTVSPost2010PropOp33
 70
     1
102
RTVSPost2010Prop34
280
     0
102
RTVSPost2010PropOp34
 70
     1
102
RTVSPost2010Prop35
280
     0
102
RTVSPost2010PropOp35
 70
     1
102
RTVSPost2010Prop36
280
     0
102
RTVSPost2010PropOp36
 70
     1
102
RTVSPost2010Prop37
 90
       50
102
RTVSPost2010PropOp37
 70
     1
102
RTVSPost2010Prop38
140
0.0
102
RTVSPost2010PropOp38
 70
     1
102
RTVSPost2010Prop39
140
1.0
102
RTVSPost2010PropOp39
 70
     1
102
RTVSPost2010Prop40
 90
        0
102
RTVSPost2010PropOp40
 70
     1
102
RTVSPost2010Prop41ColorIndex
 90
       18
102
RTVSPost2010Prop41ColorRGB
 90
        0
102
RTVSPost2010PropOp41
 70
     1
102
RTVSPost2010Prop42
 90
       50
102
RTVSPost2010PropOp42
 70
     1
102
RTVSPost2010Prop43
 90
        3
102
RTVSPost2010PropOp43
 70
     1
102
RTVSPost2010Prop44ColorIndex
 90
        5
102
RTVSPost2010Prop44ColorRGB
 90
      255
102
RTVSPost2010PropOp44
 70
     1
102
RTVSPost2010Prop45
280
     0
102
RTVSPost2010PropOp45
 70
     1
102
RTVSPost2010Prop46
 90
       50
102
RTVSPost2010PropOp46
 70
     1
102
RTVSPost2010Prop47
 90
       50
102
RTVSPost2010PropOp47
 70
     1
102
RTVSPost2010Prop48
 90
       50
102
RTVSPost2010PropOp48
 70
     1
102
RTVSPost2010Prop49
280
     0
102
RTVSPost2010PropOp49
 70
     1
102
RTVSPost2010Prop50
 90
       50
102
RTVSPost2010PropOp50
 70
     1
102
RTVSPost2010Prop51ColorIndex
 90
      256
102
RTVSPost2010Prop51ColorRGB
 90
-16777216
102
RTVSPost2010PropOp51
 70
     0
102
RTVSPost2010Prop52
140
1.0
102
RTVSPost2010PropOp52
 70
     0
102
RTVSPost2010Prop53
 90
        2
102
RTVSPost2010PropOp53
 70
     1
102
RTVSPost2010Prop54
  1
strokes_ogs.tif
102
RTVSPost2010PropOp54
 70
     1
102
RTVSPost2010Prop55
280
     0
102
RTVSPost2010PropOp55
 70
     1
102
RTVSPost2010Prop56
140
1.0
102
RTVSPost2010PropOp56
 70
     1
102
RTVSPost2010Prop57
140
1.0
102
RTVSPost2010PropOp57
 70
     1
102
RTVSPropertyOp0
 70
     1
102
RTVSPropertyOp1
 70
     1
102
RTVSPropertyOp2
 70
     1
102
RTVSPropertyOp3
 70
     1
102
RTVSPropertyOp4
 70
     1
102
RTVSPropertyOp5
 70
     1
102
RTVSPropertyOp6
 70
     1
102
RTVSPropertyOp7
 70
     1
102
RTVSPropertyOp8
 70
     1
102
RTVSPropertyOp9
 70
     1
102
RTVSPropertyOp10
 70
     1
102
RTVSPropertyOp11
 70
     1
102
RTVSPropertyOp12
 70
     1
102
RTVSPropertyOp13
 70
     1
102
RTVSPropertyOp14
 70
     1
102
RTVSPropertyOp15
 70
     1
102
RTVSPropertyOp16
 70
     1
102
RTVSPropertyOp17
 70
     1
102
RTVSPropertyOp18
 70
     1
102
RTVSPropertyOp19
 70
     1
102
RTVSPropertyOp20
 70
     1
102
RTVSPropertyOp21
 70
     1
102
RTVSPropertyOp22
 70
     1
102
RTVSPropertyOp23
 70
     1
102
RTVSPropertyOp24
 70
     1
102
RTVSPropertyOp25
 70
     1
102
RTVSPropertyOp26
 70
     1
102
RTVSPropertyOp27
 70
     1
102
RTVSPropertyOp28
 70
     1
102
RTVSPropertyOp29
 70
     1
102
RTVSPropertyOp30
 70
     1
102
RTVSPropertyOp31
 70
     1
102
RTVSPropertyOp32
 70
     1
102
RTVSPropertyOp33
 70
     1
102
RTVSPropertyOp34
 70
     1
102
RTVSPropertyOp35
 70
     1
102
RTVSPropertyOp36
 70
     1
102
RTVSPropertyOp37
 70
     1
102
RTVSPropertyOp38
 70
     1
102
RTVSPropertyOp39
 70
     1
102
RTVSPropertyOp40
 70
     1
102
RTVSPropertyOp41
 70
     1
102
RTVSPropertyOp42
 70
     1
102
RTVSPropertyOp43
 70
     1
102
RTVSPropertyOp44
 70
     1
102
RTVSPropertyOp45
 70
     1
102
RTVSPropertyOp46
 70
     1
102
RTVSPropertyOp47
 70
     1
102
RTVSPropertyOp48
 70
     1
102
RTVSPropertyOp49
 70
     1
102
RTVSPropertyOp50
 70
     1
102
RTVSPropertyOp51
 70
     0
102
RTVSPropertyOp52
 70
     0
102
RTVSPropertyOp53
 70
     1
102
RTVSPropertyOp54
 70
     1
102
RTVSPropertyOp55
 70
     1
102
RTVSPropertyOp56
 70
     1
102
RTVSPropertyOp57
 70
     1
102
RTVSPropertyOp58
 70
     1
102
RTVSPropertyOp59
 70
     1
102
RTVSPropertyOp60
 70
     1
102
RTVSPropertyOp61
 70
     1
102
RTVSPropertyOp62
 70
     1
  0
XRECORD
  5
9ACA
102
{ACAD_REACTORS
330
9AC9
102
}
330
9AC9
100
AcDbXrecord
280
     1
102
RTVSPost2010Prop28
280
     0
102
RTVSPost2010PropOp28
 70
     1
102
RTVSPost2010Prop29
280
     1
102
RTVSPost2010PropOp29
 70
     1
102
RTVSPost2010Prop30
280
     1
102
RTVSPost2010PropOp30
 70
     1
102
RTVSPost2010Prop31
280
     0
102
RTVSPost2010PropOp31
 70
     1
102
RTVSPost2010Prop32
280
     0
102
RTVSPost2010PropOp32
 70
     1
102
RTVSPost2010Prop33
280
     0
102
RTVSPost2010PropOp33
 70
     1
102
RTVSPost2010Prop34
280
     0
102
RTVSPost2010PropOp34
 70
     1
102
RTVSPost2010Prop35
280
     0
102
RTVSPost2010PropOp35
 70
     1
102
RTVSPost2010Prop36
280
     0
102
RTVSPost2010PropOp36
 70
     1
102
RTVSPost2010Prop37
 90
       50
102
RTVSPost2010PropOp37
 70
     1
102
RTVSPost2010Prop38
140
0.0
102
RTVSPost2010PropOp38
 70
     1
102
RTVSPost2010Prop39
140
1.0
102
RTVSPost2010PropOp39
 70
     1
102
RTVSPost2010Prop40
 90
        0
102
RTVSPost2010PropOp40
 70
     1
102
RTVSPost2010Prop41ColorIndex
 90
       18
102
RTVSPost2010Prop41ColorRGB
 90
        0
102
RTVSPost2010PropOp41
 70
     1
102
RTVSPost2010Prop42
 90
       50
102
RTVSPost2010PropOp42
 70
     1
102
RTVSPost2010Prop43
 90
        3
102
RTVSPost2010PropOp43
 70
     1
102
RTVSPost2010Prop44ColorIndex
 90
        5
102
RTVSPost2010Prop44ColorRGB
 90
      255
102
RTVSPost2010PropOp44
 70
     1
102
RTVSPost2010Prop45
280
     0
102
RTVSPost2010PropOp45
 70
     1
102
RTVSPost2010Prop46
 90
       50
102
RTVSPost2010PropOp46
 70
     1
102
RTVSPost2010Prop47
 90
       50
102
RTVSPost2010PropOp47
 70
     1
102
RTVSPost2010Prop48
 90
       50
102
RTVSPost2010PropOp48
 70
     1
102
RTVSPost2010Prop49
280
     0
102
RTVSPost2010PropOp49
 70
     1
102
RTVSPost2010Prop50
 90
       50
102
RTVSPost2010PropOp50
 70
     1
102
RTVSPost2010Prop51ColorIndex
 90
      256
102
RTVSPost2010Prop51ColorRGB
 90
-16777216
102
RTVSPost2010PropOp51
 70
     0
102
RTVSPost2010Prop52
140
1.0
102
RTVSPost2010PropOp52
 70
     0
102
RTVSPost2010Prop53
 90
        2
102
RTVSPost2010PropOp53
 70
     1
102
RTVSPost2010Prop54
  1
strokes_ogs.tif
102
RTVSPost2010PropOp54
 70
     1
102
RTVSPost2010Prop55
280
     0
102
RTVSPost2010PropOp55
 70
     1
102
RTVSPost2010Prop56
140
1.0
102
RTVSPost2010PropOp56
 70
     1
102
RTVSPost2010Prop57
140
1.0
102
RTVSPost2010PropOp57
 70
     1
102
RTVSPropertyOp0
 70
     1
102
RTVSPropertyOp1
 70
     1
102
RTVSPropertyOp2
 70
     1
102
RTVSPropertyOp3
 70
     1
102
RTVSPropertyOp4
 70
     1
102
RTVSPropertyOp5
 70
     1
102
RTVSPropertyOp6
 70
     1
102
RTVSPropertyOp7
 70
     1
102
RTVSPropertyOp8
 70
     1
102
RTVSPropertyOp9
 70
     1
102
RTVSPropertyOp10
 70
     1
102
RTVSPropertyOp11
 70
     1
102
RTVSPropertyOp12
 70
     1
102
RTVSPropertyOp13
 70
     1
102
RTVSPropertyOp14
 70
     1
102
RTVSPropertyOp15
 70
     1
102
RTVSPropertyOp16
 70
     1
102
RTVSPropertyOp17
 70
     1
102
RTVSPropertyOp18
 70
     1
102
RTVSPropertyOp19
 70
     1
102
RTVSPropertyOp20
 70
     1
102
RTVSPropertyOp21
 70
     1
102
RTVSPropertyOp22
 70
     1
102
RTVSPropertyOp23
 70
     1
102
RTVSPropertyOp24
 70
     1
102
RTVSPropertyOp25
 70
     1
102
RTVSPropertyOp26
 70
     1
102
RTVSPropertyOp27
 70
     1
102
RTVSPropertyOp28
 70
     1
102
RTVSPropertyOp29
 70
     1
102
RTVSPropertyOp30
 70
     1
102
RTVSPropertyOp31
 70
     1
102
RTVSPropertyOp32
 70
     1
102
RTVSPropertyOp33
 70
     1
102
RTVSPropertyOp34
 70
     1
102
RTVSPropertyOp35
 70
     1
102
RTVSPropertyOp36
 70
     1
102
RTVSPropertyOp37
 70
     1
102
RTVSPropertyOp38
 70
     1
102
RTVSPropertyOp39
 70
     1
102
RTVSPropertyOp40
 70
     1
102
RTVSPropertyOp41
 70
     1
102
RTVSPropertyOp42
 70
     1
102
RTVSPropertyOp43
 70
     1
102
RTVSPropertyOp44
 70
     1
102
RTVSPropertyOp45
 70
     1
102
RTVSPropertyOp46
 70
     1
102
RTVSPropertyOp47
 70
     1
102
RTVSPropertyOp48
 70
     1
102
RTVSPropertyOp49
 70
     1
102
RTVSPropertyOp50
 70
     1
102
RTVSPropertyOp51
 70
     0
102
RTVSPropertyOp52
 70
     0
102
RTVSPropertyOp53
 70
     1
102
RTVSPropertyOp54
 70
     1
102
RTVSPropertyOp55
 70
     1
102
RTVSPropertyOp56
 70
     1
102
RTVSPropertyOp57
 70
     1
102
RTVSPropertyOp58
 70
     1
102
RTVSPropertyOp59
 70
     1
102
RTVSPropertyOp60
 70
     1
102
RTVSPropertyOp61
 70
     1
102
RTVSPropertyOp62
 70
     1
  0
XRECORD
  5
9AC4
102
{ACAD_REACTORS
330
9AC3
102
}
330
9AC3
100
AcDbXrecord
280
     1
102
RTVSPost2010Prop28
280
     0
102
RTVSPost2010PropOp28
 70
     1
102
RTVSPost2010Prop29
280
     1
102
RTVSPost2010PropOp29
 70
     1
102
RTVSPost2010Prop30
280
     1
102
RTVSPost2010PropOp30
 70
     1
102
RTVSPost2010Prop31
280
     0
102
RTVSPost2010PropOp31
 70
     1
102
RTVSPost2010Prop32
280
     0
102
RTVSPost2010PropOp32
 70
     1
102
RTVSPost2010Prop33
280
     0
102
RTVSPost2010PropOp33
 70
     1
102
RTVSPost2010Prop34
280
     0
102
RTVSPost2010PropOp34
 70
     1
102
RTVSPost2010Prop35
280
     0
102
RTVSPost2010PropOp35
 70
     1
102
RTVSPost2010Prop36
280
     0
102
RTVSPost2010PropOp36
 70
     1
102
RTVSPost2010Prop37
 90
       50
102
RTVSPost2010PropOp37
 70
     1
102
RTVSPost2010Prop38
140
0.0
102
RTVSPost2010PropOp38
 70
     1
102
RTVSPost2010Prop39
140
1.0
102
RTVSPost2010PropOp39
 70
     1
102
RTVSPost2010Prop40
 90
        0
102
RTVSPost2010PropOp40
 70
     1
102
RTVSPost2010Prop41ColorIndex
 90
       18
102
RTVSPost2010Prop41ColorRGB
 90
        0
102
RTVSPost2010PropOp41
 70
     1
102
RTVSPost2010Prop42
 90
       50
102
RTVSPost2010PropOp42
 70
     1
102
RTVSPost2010Prop43
 90
        3
102
RTVSPost2010PropOp43
 70
     1
102
RTVSPost2010Prop44ColorIndex
 90
        5
102
RTVSPost2010Prop44ColorRGB
 90
      255
102
RTVSPost2010PropOp44
 70
     1
102
RTVSPost2010Prop45
280
     0
102
RTVSPost2010PropOp45
 70
     1
102
RTVSPost2010Prop46
 90
       50
102
RTVSPost2010PropOp46
 70
     1
102
RTVSPost2010Prop47
 90
       50
102
RTVSPost2010PropOp47
 70
     1
102
RTVSPost2010Prop48
 90
       50
102
RTVSPost2010PropOp48
 70
     1
102
RTVSPost2010Prop49
280
     0
102
RTVSPost2010PropOp49
 70
     1
102
RTVSPost2010Prop50
 90
       50
102
RTVSPost2010PropOp50
 70
     1
102
RTVSPost2010Prop51ColorIndex
 90
      256
102
RTVSPost2010Prop51ColorRGB
 90
-16777216
102
RTVSPost2010PropOp51
 70
     0
102
RTVSPost2010Prop52
140
1.0
102
RTVSPost2010PropOp52
 70
     0
102
RTVSPost2010Prop53
 90
        2
102
RTVSPost2010PropOp53
 70
     1
102
RTVSPost2010Prop54
  1
strokes_ogs.tif
102
RTVSPost2010PropOp54
 70
     1
102
RTVSPost2010Prop55
280
     0
102
RTVSPost2010PropOp55
 70
     1
102
RTVSPost2010Prop56
140
1.0
102
RTVSPost2010PropOp56
 70
     1
102
RTVSPost2010Prop57
140
1.0
102
RTVSPost2010PropOp57
 70
     1
102
RTVSPropertyOp0
 70
     1
102
RTVSPropertyOp1
 70
     1
102
RTVSPropertyOp2
 70
     1
102
RTVSPropertyOp3
 70
     1
102
RTVSPropertyOp4
 70
     1
102
RTVSPropertyOp5
 70
     1
102
RTVSPropertyOp6
 70
     1
102
RTVSPropertyOp7
 70
     1
102
RTVSPropertyOp8
 70
     1
102
RTVSPropertyOp9
 70
     1
102
RTVSPropertyOp10
 70
     1
102
RTVSPropertyOp11
 70
     1
102
RTVSPropertyOp12
 70
     1
102
RTVSPropertyOp13
 70
     1
102
RTVSPropertyOp14
 70
     1
102
RTVSPropertyOp15
 70
     1
102
RTVSPropertyOp16
 70
     1
102
RTVSPropertyOp17
 70
     1
102
RTVSPropertyOp18
 70
     1
102
RTVSPropertyOp19
 70
     1
102
RTVSPropertyOp20
 70
     1
102
RTVSPropertyOp21
 70
     1
102
RTVSPropertyOp22
 70
     1
102
RTVSPropertyOp23
 70
     1
102
RTVSPropertyOp24
 70
     1
102
RTVSPropertyOp25
 70
     1
102
RTVSPropertyOp26
 70
     1
102
RTVSPropertyOp27
 70
     1
102
RTVSPropertyOp28
 70
     1
102
RTVSPropertyOp29
 70
     1
102
RTVSPropertyOp30
 70
     1
102
RTVSPropertyOp31
 70
     1
102
RTVSPropertyOp32
 70
     1
102
RTVSPropertyOp33
 70
     1
102
RTVSPropertyOp34
 70
     1
102
RTVSPropertyOp35
 70
     1
102
RTVSPropertyOp36
 70
     1
102
RTVSPropertyOp37
 70
     1
102
RTVSPropertyOp38
 70
     1
102
RTVSPropertyOp39
 70
     1
102
RTVSPropertyOp40
 70
     1
102
RTVSPropertyOp41
 70
     1
102
RTVSPropertyOp42
 70
     1
102
RTVSPropertyOp43
 70
     1
102
RTVSPropertyOp44
 70
     1
102
RTVSPropertyOp45
 70
     1
102
RTVSPropertyOp46
 70
     1
102
RTVSPropertyOp47
 70
     1
102
RTVSPropertyOp48
 70
     1
102
RTVSPropertyOp49
 70
     1
102
RTVSPropertyOp50
 70
     1
102
RTVSPropertyOp51
 70
     0
102
RTVSPropertyOp52
 70
     0
102
RTVSPropertyOp53
 70
     1
102
RTVSPropertyOp54
 70
     1
102
RTVSPropertyOp55
 70
     1
102
RTVSPropertyOp56
 70
     1
102
RTVSPropertyOp57
 70
     1
102
RTVSPropertyOp58
 70
     1
102
RTVSPropertyOp59
 70
     1
102
RTVSPropertyOp60
 70
     1
102
RTVSPropertyOp61
 70
     1
102
RTVSPropertyOp62
 70
     1
  0
XRECORD
  5
9AC6
102
{ACAD_REACTORS
330
9AC5
102
}
330
9AC5
100
AcDbXrecord
280
     1
102
RTVSPost2010Prop28
280
     0
102
RTVSPost2010PropOp28
 70
     1
102
RTVSPost2010Prop29
280
     1
102
RTVSPost2010PropOp29
 70
     1
102
RTVSPost2010Prop30
280
     1
102
RTVSPost2010PropOp30
 70
     1
102
RTVSPost2010Prop31
280
     0
102
RTVSPost2010PropOp31
 70
     1
102
RTVSPost2010Prop32
280
     0
102
RTVSPost2010PropOp32
 70
     1
102
RTVSPost2010Prop33
280
     0
102
RTVSPost2010PropOp33
 70
     1
102
RTVSPost2010Prop34
280
     0
102
RTVSPost2010PropOp34
 70
     1
102
RTVSPost2010Prop35
280
     0
102
RTVSPost2010PropOp35
 70
     1
102
RTVSPost2010Prop36
280
     0
102
RTVSPost2010PropOp36
 70
     1
102
RTVSPost2010Prop37
 90
       50
102
RTVSPost2010PropOp37
 70
     1
102
RTVSPost2010Prop38
140
0.0
102
RTVSPost2010PropOp38
 70
     1
102
RTVSPost2010Prop39
140
1.0
102
RTVSPost2010PropOp39
 70
     1
102
RTVSPost2010Prop40
 90
        0
102
RTVSPost2010PropOp40
 70
     1
102
RTVSPost2010Prop41ColorIndex
 90
       18
102
RTVSPost2010Prop41ColorRGB
 90
        0
102
RTVSPost2010PropOp41
 70
     1
102
RTVSPost2010Prop42
 90
       50
102
RTVSPost2010PropOp42
 70
     1
102
RTVSPost2010Prop43
 90
        3
102
RTVSPost2010PropOp43
 70
     1
102
RTVSPost2010Prop44ColorIndex
 90
        5
102
RTVSPost2010Prop44ColorRGB
 90
      255
102
RTVSPost2010PropOp44
 70
     1
102
RTVSPost2010Prop45
280
     0
102
RTVSPost2010PropOp45
 70
     1
102
RTVSPost2010Prop46
 90
       50
102
RTVSPost2010PropOp46
 70
     1
102
RTVSPost2010Prop47
 90
       50
102
RTVSPost2010PropOp47
 70
     1
102
RTVSPost2010Prop48
 90
       50
102
RTVSPost2010PropOp48
 70
     1
102
RTVSPost2010Prop49
280
     0
102
RTVSPost2010PropOp49
 70
     1
102
RTVSPost2010Prop50
 90
       50
102
RTVSPost2010PropOp50
 70
     1
102
RTVSPost2010Prop51ColorIndex
 90
      256
102
RTVSPost2010Prop51ColorRGB
 90
-16777216
102
RTVSPost2010PropOp51
 70
     0
102
RTVSPost2010Prop52
140
1.0
102
RTVSPost2010PropOp52
 70
     0
102
RTVSPost2010Prop53
 90
        2
102
RTVSPost2010PropOp53
 70
     1
102
RTVSPost2010Prop54
  1
strokes_ogs.tif
102
RTVSPost2010PropOp54
 70
     1
102
RTVSPost2010Prop55
280
     0
102
RTVSPost2010PropOp55
 70
     1
102
RTVSPost2010Prop56
140
1.0
102
RTVSPost2010PropOp56
 70
     1
102
RTVSPost2010Prop57
140
1.0
102
RTVSPost2010PropOp57
 70
     1
102
RTVSPropertyOp0
 70
     1
102
RTVSPropertyOp1
 70
     1
102
RTVSPropertyOp2
 70
     1
102
RTVSPropertyOp3
 70
     1
102
RTVSPropertyOp4
 70
     1
102
RTVSPropertyOp5
 70
     1
102
RTVSPropertyOp6
 70
     1
102
RTVSPropertyOp7
 70
     1
102
RTVSPropertyOp8
 70
     1
102
RTVSPropertyOp9
 70
     1
102
RTVSPropertyOp10
 70
     1
102
RTVSPropertyOp11
 70
     1
102
RTVSPropertyOp12
 70
     1
102
RTVSPropertyOp13
 70
     1
102
RTVSPropertyOp14
 70
     1
102
RTVSPropertyOp15
 70
     1
102
RTVSPropertyOp16
 70
     1
102
RTVSPropertyOp17
 70
     1
102
RTVSPropertyOp18
 70
     1
102
RTVSPropertyOp19
 70
     1
102
RTVSPropertyOp20
 70
     1
102
RTVSPropertyOp21
 70
     1
102
RTVSPropertyOp22
 70
     1
102
RTVSPropertyOp23
 70
     1
102
RTVSPropertyOp24
 70
     1
102
RTVSPropertyOp25
 70
     1
102
RTVSPropertyOp26
 70
     1
102
RTVSPropertyOp27
 70
     1
102
RTVSPropertyOp28
 70
     1
102
RTVSPropertyOp29
 70
     1
102
RTVSPropertyOp30
 70
     1
102
RTVSPropertyOp31
 70
     1
102
RTVSPropertyOp32
 70
     1
102
RTVSPropertyOp33
 70
     1
102
RTVSPropertyOp34
 70
     1
102
RTVSPropertyOp35
 70
     1
102
RTVSPropertyOp36
 70
     1
102
RTVSPropertyOp37
 70
     1
102
RTVSPropertyOp38
 70
     1
102
RTVSPropertyOp39
 70
     1
102
RTVSPropertyOp40
 70
     1
102
RTVSPropertyOp41
 70
     1
102
RTVSPropertyOp42
 70
     1
102
RTVSPropertyOp43
 70
     1
102
RTVSPropertyOp44
 70
     1
102
RTVSPropertyOp45
 70
     1
102
RTVSPropertyOp46
 70
     1
102
RTVSPropertyOp47
 70
     1
102
RTVSPropertyOp48
 70
     1
102
RTVSPropertyOp49
 70
     1
102
RTVSPropertyOp50
 70
     1
102
RTVSPropertyOp51
 70
     0
102
RTVSPropertyOp52
 70
     0
102
RTVSPropertyOp53
 70
     1
102
RTVSPropertyOp54
 70
     1
102
RTVSPropertyOp55
 70
     1
102
RTVSPropertyOp56
 70
     1
102
RTVSPropertyOp57
 70
     1
102
RTVSPropertyOp58
 70
     1
102
RTVSPropertyOp59
 70
     1
102
RTVSPropertyOp60
 70
     1
102
RTVSPropertyOp61
 70
     1
102
RTVSPropertyOp62
 70
     1
  0
XRECORD
  5
9ABC
102
{ACAD_REACTORS
330
9ABB
102
}
330
9ABB
100
AcDbXrecord
280
     1
102
RTVSPost2010Prop28
280
     0
102
RTVSPost2010PropOp28
 70
     1
102
RTVSPost2010Prop29
280
     1
102
RTVSPost2010PropOp29
 70
     1
102
RTVSPost2010Prop30
280
     1
102
RTVSPost2010PropOp30
 70
     1
102
RTVSPost2010Prop31
280
     0
102
RTVSPost2010PropOp31
 70
     1
102
RTVSPost2010Prop32
280
     0
102
RTVSPost2010PropOp32
 70
     1
102
RTVSPost2010Prop33
280
     0
102
RTVSPost2010PropOp33
 70
     1
102
RTVSPost2010Prop34
280
     0
102
RTVSPost2010PropOp34
 70
     1
102
RTVSPost2010Prop35
280
     0
102
RTVSPost2010PropOp35
 70
     1
102
RTVSPost2010Prop36
280
     0
102
RTVSPost2010PropOp36
 70
     1
102
RTVSPost2010Prop37
 90
       50
102
RTVSPost2010PropOp37
 70
     1
102
RTVSPost2010Prop38
140
0.0
102
RTVSPost2010PropOp38
 70
     1
102
RTVSPost2010Prop39
140
1.0
102
RTVSPost2010PropOp39
 70
     1
102
RTVSPost2010Prop40
 90
        0
102
RTVSPost2010PropOp40
 70
     1
102
RTVSPost2010Prop41ColorIndex
 90
       18
102
RTVSPost2010Prop41ColorRGB
 90
        0
102
RTVSPost2010PropOp41
 70
     1
102
RTVSPost2010Prop42
 90
       50
102
RTVSPost2010PropOp42
 70
     1
102
RTVSPost2010Prop43
 90
        3
102
RTVSPost2010PropOp43
 70
     1
102
RTVSPost2010Prop44ColorIndex
 90
        5
102
RTVSPost2010Prop44ColorRGB
 90
      255
102
RTVSPost2010PropOp44
 70
     1
102
RTVSPost2010Prop45
280
     0
102
RTVSPost2010PropOp45
 70
     1
102
RTVSPost2010Prop46
 90
       50
102
RTVSPost2010PropOp46
 70
     1
102
RTVSPost2010Prop47
 90
       50
102
RTVSPost2010PropOp47
 70
     1
102
RTVSPost2010Prop48
 90
       50
102
RTVSPost2010PropOp48
 70
     1
102
RTVSPost2010Prop49
280
     0
102
RTVSPost2010PropOp49
 70
     1
102
RTVSPost2010Prop50
 90
       50
102
RTVSPost2010PropOp50
 70
     1
102
RTVSPost2010Prop51ColorIndex
 90
      256
102
RTVSPost2010Prop51ColorRGB
 90
-16777216
102
RTVSPost2010PropOp51
 70
     0
102
RTVSPost2010Prop52
140
1.0
102
RTVSPost2010PropOp52
 70
     0
102
RTVSPost2010Prop53
 90
        2
102
RTVSPost2010PropOp53
 70
     1
102
RTVSPost2010Prop54
  1
strokes_ogs.tif
102
RTVSPost2010PropOp54
 70
     1
102
RTVSPost2010Prop55
280
     0
102
RTVSPost2010PropOp55
 70
     1
102
RTVSPost2010Prop56
140
1.0
102
RTVSPost2010PropOp56
 70
     1
102
RTVSPost2010Prop57
140
1.0
102
RTVSPost2010PropOp57
 70
     1
102
RTVSPropertyOp0
 70
     1
102
RTVSPropertyOp1
 70
     1
102
RTVSPropertyOp2
 70
     1
102
RTVSPropertyOp3
 70
     1
102
RTVSPropertyOp4
 70
     1
102
RTVSPropertyOp5
 70
     1
102
RTVSPropertyOp6
 70
     1
102
RTVSPropertyOp7
 70
     1
102
RTVSPropertyOp8
 70
     1
102
RTVSPropertyOp9
 70
     1
102
RTVSPropertyOp10
 70
     1
102
RTVSPropertyOp11
 70
     1
102
RTVSPropertyOp12
 70
     1
102
RTVSPropertyOp13
 70
     1
102
RTVSPropertyOp14
 70
     1
102
RTVSPropertyOp15
 70
     1
102
RTVSPropertyOp16
 70
     1
102
RTVSPropertyOp17
 70
     1
102
RTVSPropertyOp18
 70
     1
102
RTVSPropertyOp19
 70
     1
102
RTVSPropertyOp20
 70
     1
102
RTVSPropertyOp21
 70
     1
102
RTVSPropertyOp22
 70
     1
102
RTVSPropertyOp23
 70
     1
102
RTVSPropertyOp24
 70
     1
102
RTVSPropertyOp25
 70
     1
102
RTVSPropertyOp26
 70
     1
102
RTVSPropertyOp27
 70
     1
102
RTVSPropertyOp28
 70
     1
102
RTVSPropertyOp29
 70
     1
102
RTVSPropertyOp30
 70
     1
102
RTVSPropertyOp31
 70
     1
102
RTVSPropertyOp32
 70
     1
102
RTVSPropertyOp33
 70
     1
102
RTVSPropertyOp34
 70
     1
102
RTVSPropertyOp35
 70
     1
102
RTVSPropertyOp36
 70
     1
102
RTVSPropertyOp37
 70
     1
102
RTVSPropertyOp38
 70
     1
102
RTVSPropertyOp39
 70
     1
102
RTVSPropertyOp40
 70
     1
102
RTVSPropertyOp41
 70
     1
102
RTVSPropertyOp42
 70
     1
102
RTVSPropertyOp43
 70
     1
102
RTVSPropertyOp44
 70
     1
102
RTVSPropertyOp45
 70
     1
102
RTVSPropertyOp46
 70
     1
102
RTVSPropertyOp47
 70
     1
102
RTVSPropertyOp48
 70
     1
102
RTVSPropertyOp49
 70
     1
102
RTVSPropertyOp50
 70
     1
102
RTVSPropertyOp51
 70
     0
102
RTVSPropertyOp52
 70
     0
102
RTVSPropertyOp53
 70
     1
102
RTVSPropertyOp54
 70
     1
102
RTVSPropertyOp55
 70
     1
102
RTVSPropertyOp56
 70
     1
102
RTVSPropertyOp57
 70
     1
102
RTVSPropertyOp58
 70
     1
102
RTVSPropertyOp59
 70
     1
102
RTVSPropertyOp60
 70
     1
102
RTVSPropertyOp61
 70
     1
102
RTVSPropertyOp62
 70
     1
  0
XRECORD
  5
9AB0
102
{ACAD_REACTORS
330
9AAF
102
}
330
9AAF
100
AcDbXrecord
280
     1
102
RTVSPost2010Prop28
280
     0
102
RTVSPost2010PropOp28
 70
     1
102
RTVSPost2010Prop29
280
     1
102
RTVSPost2010PropOp29
 70
     1
102
RTVSPost2010Prop30
280
     1
102
RTVSPost2010PropOp30
 70
     1
102
RTVSPost2010Prop31
280
     0
102
RTVSPost2010PropOp31
 70
     1
102
RTVSPost2010Prop32
280
     0
102
RTVSPost2010PropOp32
 70
     1
102
RTVSPost2010Prop33
280
     0
102
RTVSPost2010PropOp33
 70
     1
102
RTVSPost2010Prop34
280
     0
102
RTVSPost2010PropOp34
 70
     1
102
RTVSPost2010Prop35
280
     0
102
RTVSPost2010PropOp35
 70
     1
102
RTVSPost2010Prop36
280
     0
102
RTVSPost2010PropOp36
 70
     1
102
RTVSPost2010Prop37
 90
       50
102
RTVSPost2010PropOp37
 70
     1
102
RTVSPost2010Prop38
140
0.0
102
RTVSPost2010PropOp38
 70
     1
102
RTVSPost2010Prop39
140
1.0
102
RTVSPost2010PropOp39
 70
     1
102
RTVSPost2010Prop40
 90
        0
102
RTVSPost2010PropOp40
 70
     1
102
RTVSPost2010Prop41ColorIndex
 90
       18
102
RTVSPost2010Prop41ColorRGB
 90
        0
102
RTVSPost2010PropOp41
 70
     1
102
RTVSPost2010Prop42
 90
       50
102
RTVSPost2010PropOp42
 70
     1
102
RTVSPost2010Prop43
 90
        3
102
RTVSPost2010PropOp43
 70
     1
102
RTVSPost2010Prop44ColorIndex
 90
        5
102
RTVSPost2010Prop44ColorRGB
 90
      255
102
RTVSPost2010PropOp44
 70
     1
102
RTVSPost2010Prop45
280
     0
102
RTVSPost2010PropOp45
 70
     1
102
RTVSPost2010Prop46
 90
       50
102
RTVSPost2010PropOp46
 70
     1
102
RTVSPost2010Prop47
 90
       50
102
RTVSPost2010PropOp47
 70
     1
102
RTVSPost2010Prop48
 90
       50
102
RTVSPost2010PropOp48
 70
     1
102
RTVSPost2010Prop49
280
     0
102
RTVSPost2010PropOp49
 70
     1
102
RTVSPost2010Prop50
 90
       50
102
RTVSPost2010PropOp50
 70
     1
102
RTVSPost2010Prop51ColorIndex
 90
      256
102
RTVSPost2010Prop51ColorRGB
 90
-16777216
102
RTVSPost2010PropOp51
 70
     0
102
RTVSPost2010Prop52
140
1.0
102
RTVSPost2010PropOp52
 70
     0
102
RTVSPost2010Prop53
 90
        2
102
RTVSPost2010PropOp53
 70
     1
102
RTVSPost2010Prop54
  1
strokes_ogs.tif
102
RTVSPost2010PropOp54
 70
     1
102
RTVSPost2010Prop55
280
     0
102
RTVSPost2010PropOp55
 70
     1
102
RTVSPost2010Prop56
140
1.0
102
RTVSPost2010PropOp56
 70
     1
102
RTVSPost2010Prop57
140
1.0
102
RTVSPost2010PropOp57
 70
     1
102
RTVSPropertyOp0
 70
     1
102
RTVSPropertyOp1
 70
     1
102
RTVSPropertyOp2
 70
     1
102
RTVSPropertyOp3
 70
     1
102
RTVSPropertyOp4
 70
     1
102
RTVSPropertyOp5
 70
     1
102
RTVSPropertyOp6
 70
     1
102
RTVSPropertyOp7
 70
     1
102
RTVSPropertyOp8
 70
     1
102
RTVSPropertyOp9
 70
     1
102
RTVSPropertyOp10
 70
     1
102
RTVSPropertyOp11
 70
     1
102
RTVSPropertyOp12
 70
     1
102
RTVSPropertyOp13
 70
     1
102
RTVSPropertyOp14
 70
     1
102
RTVSPropertyOp15
 70
     1
102
RTVSPropertyOp16
 70
     1
102
RTVSPropertyOp17
 70
     1
102
RTVSPropertyOp18
 70
     1
102
RTVSPropertyOp19
 70
     1
102
RTVSPropertyOp20
 70
     1
102
RTVSPropertyOp21
 70
     1
102
RTVSPropertyOp22
 70
     1
102
RTVSPropertyOp23
 70
     1
102
RTVSPropertyOp24
 70
     1
102
RTVSPropertyOp25
 70
     1
102
RTVSPropertyOp26
 70
     1
102
RTVSPropertyOp27
 70
     1
102
RTVSPropertyOp28
 70
     1
102
RTVSPropertyOp29
 70
     1
102
RTVSPropertyOp30
 70
     1
102
RTVSPropertyOp31
 70
     1
102
RTVSPropertyOp32
 70
     1
102
RTVSPropertyOp33
 70
     1
102
RTVSPropertyOp34
 70
     1
102
RTVSPropertyOp35
 70
     1
102
RTVSPropertyOp36
 70
     1
102
RTVSPropertyOp37
 70
     1
102
RTVSPropertyOp38
 70
     1
102
RTVSPropertyOp39
 70
     1
102
RTVSPropertyOp40
 70
     1
102
RTVSPropertyOp41
 70
     1
102
RTVSPropertyOp42
 70
     1
102
RTVSPropertyOp43
 70
     1
102
RTVSPropertyOp44
 70
     1
102
RTVSPropertyOp45
 70
     1
102
RTVSPropertyOp46
 70
     1
102
RTVSPropertyOp47
 70
     1
102
RTVSPropertyOp48
 70
     1
102
RTVSPropertyOp49
 70
     1
102
RTVSPropertyOp50
 70
     1
102
RTVSPropertyOp51
 70
     0
102
RTVSPropertyOp52
 70
     0
102
RTVSPropertyOp53
 70
     1
102
RTVSPropertyOp54
 70
     1
102
RTVSPropertyOp55
 70
     1
102
RTVSPropertyOp56
 70
     1
102
RTVSPropertyOp57
 70
     1
102
RTVSPropertyOp58
 70
     1
102
RTVSPropertyOp59
 70
     1
102
RTVSPropertyOp60
 70
     1
102
RTVSPropertyOp61
 70
     1
102
RTVSPropertyOp62
 70
     1
  0
XRECORD
  5
9AC8
102
{ACAD_REACTORS
330
9AC7
102
}
330
9AC7
100
AcDbXrecord
280
     1
102
RTVSPost2010Prop28
280
     0
102
RTVSPost2010PropOp28
 70
     1
102
RTVSPost2010Prop29
280
     1
102
RTVSPost2010PropOp29
 70
     1
102
RTVSPost2010Prop30
280
     1
102
RTVSPost2010PropOp30
 70
     1
102
RTVSPost2010Prop31
280
     0
102
RTVSPost2010PropOp31
 70
     1
102
RTVSPost2010Prop32
280
     0
102
RTVSPost2010PropOp32
 70
     1
102
RTVSPost2010Prop33
280
     0
102
RTVSPost2010PropOp33
 70
     1
102
RTVSPost2010Prop34
280
     0
102
RTVSPost2010PropOp34
 70
     1
102
RTVSPost2010Prop35
280
     0
102
RTVSPost2010PropOp35
 70
     1
102
RTVSPost2010Prop36
280
     0
102
RTVSPost2010PropOp36
 70
     1
102
RTVSPost2010Prop37
 90
       50
102
RTVSPost2010PropOp37
 70
     1
102
RTVSPost2010Prop38
140
0.0
102
RTVSPost2010PropOp38
 70
     1
102
RTVSPost2010Prop39
140
1.0
102
RTVSPost2010PropOp39
 70
     1
102
RTVSPost2010Prop40
 90
        0
102
RTVSPost2010PropOp40
 70
     1
102
RTVSPost2010Prop41ColorIndex
 90
       18
102
RTVSPost2010Prop41ColorRGB
 90
        0
102
RTVSPost2010PropOp41
 70
     1
102
RTVSPost2010Prop42
 90
       50
102
RTVSPost2010PropOp42
 70
     1
102
RTVSPost2010Prop43
 90
        3
102
RTVSPost2010PropOp43
 70
     1
102
RTVSPost2010Prop44ColorIndex
 90
        5
102
RTVSPost2010Prop44ColorRGB
 90
      255
102
RTVSPost2010PropOp44
 70
     1
102
RTVSPost2010Prop45
280
     0
102
RTVSPost2010PropOp45
 70
     1
102
RTVSPost2010Prop46
 90
       50
102
RTVSPost2010PropOp46
 70
     1
102
RTVSPost2010Prop47
 90
       50
102
RTVSPost2010PropOp47
 70
     1
102
RTVSPost2010Prop48
 90
       50
102
RTVSPost2010PropOp48
 70
     1
102
RTVSPost2010Prop49
280
     0
102
RTVSPost2010PropOp49
 70
     1
102
RTVSPost2010Prop50
 90
       50
102
RTVSPost2010PropOp50
 70
     1
102
RTVSPost2010Prop51ColorIndex
 90
      256
102
RTVSPost2010Prop51ColorRGB
 90
-16777216
102
RTVSPost2010PropOp51
 70
     0
102
RTVSPost2010Prop52
140
1.0
102
RTVSPost2010PropOp52
 70
     0
102
RTVSPost2010Prop53
 90
        2
102
RTVSPost2010PropOp53
 70
     1
102
RTVSPost2010Prop54
  1
strokes_ogs.tif
102
RTVSPost2010PropOp54
 70
     1
102
RTVSPost2010Prop55
280
     0
102
RTVSPost2010PropOp55
 70
     1
102
RTVSPost2010Prop56
140
1.0
102
RTVSPost2010PropOp56
 70
     1
102
RTVSPost2010Prop57
140
1.0
102
RTVSPost2010PropOp57
 70
     1
102
RTVSPropertyOp0
 70
     1
102
RTVSPropertyOp1
 70
     1
102
RTVSPropertyOp2
 70
     1
102
RTVSPropertyOp3
 70
     1
102
RTVSPropertyOp4
 70
     1
102
RTVSPropertyOp5
 70
     1
102
RTVSPropertyOp6
 70
     1
102
RTVSPropertyOp7
 70
     1
102
RTVSPropertyOp8
 70
     1
102
RTVSPropertyOp9
 70
     1
102
RTVSPropertyOp10
 70
     1
102
RTVSPropertyOp11
 70
     1
102
RTVSPropertyOp12
 70
     1
102
RTVSPropertyOp13
 70
     1
102
RTVSPropertyOp14
 70
     1
102
RTVSPropertyOp15
 70
     1
102
RTVSPropertyOp16
 70
     1
102
RTVSPropertyOp17
 70
     1
102
RTVSPropertyOp18
 70
     1
102
RTVSPropertyOp19
 70
     1
102
RTVSPropertyOp20
 70
     1
102
RTVSPropertyOp21
 70
     1
102
RTVSPropertyOp22
 70
     1
102
RTVSPropertyOp23
 70
     1
102
RTVSPropertyOp24
 70
     1
102
RTVSPropertyOp25
 70
     1
102
RTVSPropertyOp26
 70
     1
102
RTVSPropertyOp27
 70
     1
102
RTVSPropertyOp28
 70
     1
102
RTVSPropertyOp29
 70
     1
102
RTVSPropertyOp30
 70
     1
102
RTVSPropertyOp31
 70
     1
102
RTVSPropertyOp32
 70
     1
102
RTVSPropertyOp33
 70
     1
102
RTVSPropertyOp34
 70
     1
102
RTVSPropertyOp35
 70
     1
102
RTVSPropertyOp36
 70
     1
102
RTVSPropertyOp37
 70
     1
102
RTVSPropertyOp38
 70
     1
102
RTVSPropertyOp39
 70
     1
102
RTVSPropertyOp40
 70
     1
102
RTVSPropertyOp41
 70
     1
102
RTVSPropertyOp42
 70
     1
102
RTVSPropertyOp43
 70
     1
102
RTVSPropertyOp44
 70
     1
102
RTVSPropertyOp45
 70
     1
102
RTVSPropertyOp46
 70
     1
102
RTVSPropertyOp47
 70
     1
102
RTVSPropertyOp48
 70
     1
102
RTVSPropertyOp49
 70
     1
102
RTVSPropertyOp50
 70
     1
102
RTVSPropertyOp51
 70
     0
102
RTVSPropertyOp52
 70
     0
102
RTVSPropertyOp53
 70
     1
102
RTVSPropertyOp54
 70
     1
102
RTVSPropertyOp55
 70
     1
102
RTVSPropertyOp56
 70
     1
102
RTVSPropertyOp57
 70
     1
102
RTVSPropertyOp58
 70
     1
102
RTVSPropertyOp59
 70
     1
102
RTVSPropertyOp60
 70
     1
102
RTVSPropertyOp61
 70
     1
102
RTVSPropertyOp62
 70
     1
  0
ENDSEC
  0
EOF
