  0
SECTION
  2
HEADER
  9
$ACADVER
  1
AC1015
  9
$ACADMAINTVER
 70
    20
  9
$DWGCODEPAGE
  3
ANSI_932
  9
$INSBASE
 10
0.0
 20
0.0
 30
0.0
  9
$EXTMIN
 10
10.0
 20
9.999999999999998
 30
0.0
  9
$EXTMAX
 10
256.187695
 20
256.125
 30
0.0
  9
$LIMMIN
 10
0.0
 20
0.0
  9
$LIMMAX
 10
396.0
 20
273.0
  9
$ORTHOMODE
 70
     1
  9
$REGENMODE
 70
     1
  9
$FILLMODE
 70
     1
  9
$QTEXTMODE
 70
     0
  9
$MIRRTEXT
 70
     1
  9
$LTSCALE
 40
20.0
  9
$ATTMODE
 70
     1
  9
$TEXTSIZE
 40
5.0
  9
$TRACEWID
 40
1.0
  9
$TEXTSTYLE
  7
STANDARD
  9
$CLAYER
  8
0
  9
$CELTYPE
  6
BYLAYER
  9
$CECOLOR
 62
   256
  9
$CELTSCALE
 40
1.0
  9
$DISPSILH
 70
     0
  9
$DIMSCALE
 40
1.0
  9
$DIMASZ
 40
3.0
  9
$DIMEXO
 40
1.0
  9
$DIMDLI
 40
10.0
  9
$DIMRND
 40
0.0
  9
$DIMDLE
 40
0.0
  9
$DIMEXE
 40
1.0
  9
$DIMTP
 40
0.0
  9
$DIMTM
 40
0.0
  9
$DIMTXT
 40
3.2
  9
$DIMCEN
 40
0.0
  9
$DIMTSZ
 40
0.0
  9
$DIMTOL
 70
     0
  9
$DIMLIM
 70
     0
  9
$DIMTIH
 70
     0
  9
$DIMTOH
 70
     0
  9
$DIMSE1
 70
     0
  9
$DIMSE2
 70
     0
  9
$DIMTAD
 70
     3
  9
$DIMZIN
 70
     8
  9
$DIMBLK
  1

  9
$DIMASO
 70
     1
  9
$DIMSHO
 70
     1
  9
$DIMPOST
  1

  9
$DIMAPOST
  1

  9
$DIMALT
 70
     0
  9
$DIMALTD
 70
     2
  9
$DIMALTF
 40
25.4
  9
$DIMLFAC
 40
1.0
  9
$DIMTOFL
 70
     1
  9
$DIMTVP
 40
0.0
  9
$DIMTIX
 70
     0
  9
$DIMSOXD
 70
     0
  9
$DIMSAH
 70
     1
  9
$DIMBLK1
  1

  9
$DIMBLK2
  1

  9
$DIMSTYLE
  2
STANDARD
  9
$DIMCLRD
 70
     0
  9
$DIMCLRE
 70
     0
  9
$DIMCLRT
 70
     0
  9
$DIMTFAC
 40
1.0
  9
$DIMGAP
 40
1.0
  9
$DIMJUST
 70
     0
  9
$DIMSD1
 70
     0
  9
$DIMSD2
 70
     0
  9
$DIMTOLJ
 70
     1
  9
$DIMTZIN
 70
     0
  9
$DIMALTZ
 70
     0
  9
$DIMALTTZ
 70
     0
  9
$DIMUPT
 70
     0
  9
$DIMDEC
 70
     4
  9
$DIMTDEC
 70
     4
  9
$DIMALTU
 70
     2
  9
$DIMALTTD
 70
     2
  9
$DIMTXSTY
  7
STANDARD
  9
$DIMAUNIT
 70
     0
  9
$DIMADEC
 70
     0
  9
$DIMALTRND
 40
0.0
  9
$DIMAZIN
 70
     0
  9
$DIMDSEP
 70
    46
  9
$DIMATFIT
 70
     3
  9
$DIMFRAC
 70
     0
  9
$DIMLDRBLK
  1

  9
$DIMLUNIT
 70
     2
  9
$DIMLWD
 70
    -2
  9
$DIMLWE
 70
    -2
  9
$DIMTMOVE
 70
     0
  9
$LUNITS
 70
     2
  9
$LUPREC
 70
     4
  9
$SKETCHINC
 40
1.0
  9
$FILLETRAD
 40
1.0
  9
$AUNITS
 70
     0
  9
$AUPREC
 70
     2
  9
$MENU
  1
.
  9
$ELEVATION
 40
0.0
  9
$PELEVATION
 40
0.0
  9
$THICKNESS
 40
0.0
  9
$LIMCHECK
 70
     0
  9
$CHAMFERA
 40
10.0
  9
$CHAMFERB
 40
10.0
  9
$CHAMFERC
 40
0.0
  9
$CHAMFERD
 40
0.0
  9
$SKPOLY
 70
     0
  9
$TDCREATE
 40
2450945.578400347
  9
$TDUCREATE
 40
2450945.203400348
  9
$TDUPDATE
 40
2457192.601190614
  9
$TDUUPDATE
 40
2457192.226190614
  9
$TDINDWG
 40
0.0000137847
  9
$TDUSRTIMER
 40
0.0000134838
  9
$USRTIMER
 70
     1
  9
$ANGBASE
 50
0.0
  9
$ANGDIR
 70
     0
  9
$PDMODE
 70
     0
  9
$PDSIZE
 40
0.0
  9
$PLINEWID
 40
0.0
  9
$SPLFRAME
 70
     0
  9
$SPLINETYPE
 70
     6
  9
$SPLINESEGS
 70
     8
  9
$HANDSEED
  5
9B0D
  9
$SURFTAB1
 70
     6
  9
$SURFTAB2
 70
     6
  9
$SURFTYPE
 70
     6
  9
$SURFU
 70
     6
  9
$SURFV
 70
     6
  9
$UCSBASE
  2

  9
$UCSNAME
  2

  9
$UCSORG
 10
0.0
 20
0.0
 30
0.0
  9
$UCSXDIR
 10
1.0
 20
0.0
 30
0.0
  9
$UCSYDIR
 10
0.0
 20
1.0
 30
0.0
  9
$UCSORTHOREF
  2

  9
$UCSORTHOVIEW
 70
     0
  9
$UCSORGTOP
 10
0.0
 20
0.0
 30
0.0
  9
$UCSORGBOTTOM
 10
0.0
 20
0.0
 30
0.0
  9
$UCSORGLEFT
 10
0.0
 20
0.0
 30
0.0
  9
$UCSORGRIGHT
 10
0.0
 20
0.0
 30
0.0
  9
$UCSORGFRONT
 10
0.0
 20
0.0
 30
0.0
  9
$UCSORGBACK
 10
0.0
 20
0.0
 30
0.0
  9
$PUCSBASE
  2

  9
$PUCSNAME
  2

  9
$PUCSORG
 10
0.0
 20
0.0
 30
0.0
  9
$PUCSXDIR
 10
1.0
 20
0.0
 30
0.0
  9
$PUCSYDIR
 10
0.0
 20
1.0
 30
0.0
  9
$PUCSORTHOREF
  2

  9
$PUCSORTHOVIEW
 70
     0
  9
$PUCSORGTOP
 10
0.0
 20
0.0
 30
0.0
  9
$PUCSORGBOTTOM
 10
0.0
 20
0.0
 30
0.0
  9
$PUCSORGLEFT
 10
0.0
 20
0.0
 30
0.0
  9
$PUCSORGRIGHT
 10
0.0
 20
0.0
 30
0.0
  9
$PUCSORGFRONT
 10
0.0
 20
0.0
 30
0.0
  9
$PUCSORGBACK
 10
0.0
 20
0.0
 30
0.0
  9
$USERI1
 70
     0
  9
$USERI2
 70
     0
  9
$USERI3
 70
     0
  9
$USERI4
 70
     0
  9
$USERI5
 70
     0
  9
$USERR1
 40
0.0
  9
$USERR2
 40
0.0
  9
$USERR3
 40
0.0
  9
$USERR4
 40
0.0
  9
$USERR5
 40
0.0
  9
$WORLDVIEW
 70
     1
  9
$SHADEDGE
 70
     3
  9
$SHADEDIF
 70
    70
  9
$TILEMODE
 70
     1
  9
$MAXACTVP
 70
    16
  9
$PINSBASE
 10
0.0
 20
0.0
 30
0.0
  9
$PLIMCHECK
 70
     0
  9
$PEXTMIN
 10
1.000000000000000E+20
 20
1.000000000000000E+20
 30
1.000000000000000E+20
  9
$PEXTMAX
 10
-1.000000000000000E+20
 20
-1.000000000000000E+20
 30
-1.000000000000000E+20
  9
$PLIMMIN
 10
0.0
 20
0.0
  9
$PLIMMAX
 10
420.0
 20
297.0
  9
$UNITMODE
 70
     0
  9
$VISRETAIN
 70
     0
  9
$PLINEGEN
 70
     0
  9
$PSLTSCALE
 70
     0
  9
$TREEDEPTH
 70
  3020
  9
$CMLSTYLE
  2
STANDARD
  9
$CMLJUST
 70
     0
  9
$CMLSCALE
 40
1.0
  9
$PROXYGRAPHICS
 70
     1
  9
$MEASUREMENT
 70
     0
  9
$CELWEIGHT
370
    -1
  9
$ENDCAPS
280
     0
  9
$JOINSTYLE
280
     0
  9
$LWDISPLAY
290
     0
  9
$INSUNITS
 70
     0
  9
$HYPERLINKBASE
  1

  9
$STYLESHEET
  1

  9
$XEDIT
290
     1
  9
$CEPSNTYPE
380
     0
  9
$PSTYLEMODE
290
     1
  9
$FINGERPRINTGUID
  2
{A46F3D7A-7AE2-407E-B780-1C3948C31B11}
  9
$VERSIONGUID
  2
{46C2F89B-E6E0-4D44-BCAE-BAE4E707E017}
  9
$EXTNAMES
290
     1
  9
$PSVPSCALE
 40
0.0
  9
$OLESTARTUP
290
     0
  0
ENDSEC
  0
SECTION
  2
CLASSES
  0
CLASS
  1
ACDBDICTIONARYWDFLT
  2
AcDbDictionaryWithDefault
  3
ObjectDBX Classes
 90
        0
280
     0
281
     0
  0
CLASS
  1
ACDBPLACEHOLDER
  2
AcDbPlaceHolder
  3
ObjectDBX Classes
 90
        0
280
     0
281
     0
  0
CLASS
  1
LAYOUT
  2
AcDbLayout
  3
ObjectDBX Classes
 90
        0
280
     0
281
     0
  0
CLASS
  1
DICTIONARYVAR
  2
AcDbDictionaryVar
  3
ObjectDBX Classes
 90
        0
280
     0
281
     0
  0
CLASS
  1
MATERIAL
  2
AcDbMaterial
  3
ObjectDBX Classes
 90
     1153
280
     0
281
     0
  0
CLASS
  1
VISUALSTYLE
  2
AcDbVisualStyle
  3
ObjectDBX Classes
 90
     4095
280
     0
281
     0
  0
CLASS
  1
TABLESTYLE
  2
AcDbTableStyle
  3
ObjectDBX Classes
 90
     4095
280
     0
281
     0
  0
CLASS
  1
SCALE
  2
AcDbScale
  3
ObjectDBX Classes
 90
     1153
280
     0
281
     0
  0
CLASS
  1
MLEADERSTYLE
  2
AcDbMLeaderStyle
  3
ACDB_MLEADERSTYLE_CLASS
 90
     4095
280
     0
281
     0
  0
CLASS
  1
ACDBSECTIONVIEWSTYLE
  2
AcDbSectionViewStyle
  3
ObjectDBX Classes
 90
     1025
280
     0
281
     0
  0
CLASS
  1
ACDBDETAILVIEWSTYLE
  2
AcDbDetailViewStyle
  3
ObjectDBX Classes
 90
     1025
280
     0
281
     0
  0
CLASS
  1
CELLSTYLEMAP
  2
AcDbCellStyleMap
  3
ObjectDBX Classes
 90
     1152
280
     0
281
     0
  0
ENDSEC
  0
SECTION
  2
TABLES
  0
TABLE
  2
VPORT
  5
9851
330
0
100
AcDbSymbolTable
 70
     1
  0
VPORT
  5
9A56
330
9851
100
AcDbSymbolTableRecord
100
AcDbViewportTableRecord
  2
*ACTIVE
 70
     0
 10
0.0
 20
0.0
 11
1.0
 21
1.0
 12
207.6425098649351
 22
133.0633398650252
 13
0.0
 23
0.0
 14
10.0
 24
10.0
 15
10.0
 25
10.0
 16
0.0
 26
0.0
 36
1.0
 17
0.0
 27
0.0
 37
0.0
 40
248.9012483926136
 41
1.899603698811096
 42
50.0
 43
0.0
 44
0.0
 50
0.0
 51
0.0
 71
     0
 72
   100
 73
     1
 74
     0
 75
     0
 76
     0
 77
     0
 78
     0
281
     0
 65
     1
110
0.0
120
0.0
130
0.0
111
1.0
121
0.0
131
0.0
112
0.0
122
1.0
132
0.0
 79
     0
146
0.0
1001
ACAD_NAV_VCDISPLAY
1070
     3
  0
ENDTAB
  0
TABLE
  2
LTYPE
  5
984E
330
0
100
AcDbSymbolTable
 70
     4
  0
LTYPE
  5
985C
330
984E
100
AcDbSymbolTableRecord
100
AcDbLinetypeTableRecord
  2
BYBLOCK
 70
     0
  3

 72
    65
 73
     0
 40
0.0
  0
LTYPE
  5
985D
330
984E
100
AcDbSymbolTableRecord
100
AcDbLinetypeTableRecord
  2
BYLAYER
 70
     0
  3

 72
    65
 73
     0
 40
0.0
  0
LTYPE
  5
985E
330
984E
100
AcDbSymbolTableRecord
100
AcDbLinetypeTableRecord
  2
CONTINUOUS
 70
     0
  3
Solid line
 72
    65
 73
     0
 40
0.0
  0
LTYPE
  5
986C
330
984E
100
AcDbSymbolTableRecord
100
AcDbLinetypeTableRecord
  2
DASHED
 70
     0
  3
__ __ __ __ __ __ __ __ __ __ __ __ __ __ __ __
 72
    65
 73
     2
 40
0.75
 49
0.5
 74
     0
 49
-0.25
 74
     0
  0
LTYPE
  5
986D
330
984E
100
AcDbSymbolTableRecord
100
AcDbLinetypeTableRecord
  2
CENTER
 70
     0
  3
____ _ ____ _ ____ _ ____ _ ____ _ ____ _ ____ 
 72
    65
 73
     4
 40
2.0
 49
1.25
 74
     0
 49
-0.25
 74
     0
 49
0.25
 74
     0
 49
-0.25
 74
     0
  0
LTYPE
  5
986E
330
984E
100
AcDbSymbolTableRecord
100
AcDbLinetypeTableRecord
  2
PHANTOM
 70
     0
  3
______  __  __  ______  __  __  ______  __  __ 
 72
    65
 73
     6
 40
2.5
 49
1.25
 74
     0
 49
-0.25
 74
     0
 49
0.25
 74
     0
 49
-0.25
 74
     0
 49
0.25
 74
     0
 49
-0.25
 74
     0
  0
ENDTAB
  0
TABLE
  2
LAYER
  5
984B
330
0
100
AcDbSymbolTable
 70
     8
  0
LAYER
  5
9859
102
{ACAD_XDICTIONARY
360
9AB1
102
}
330
984B
100
AcDbSymbolTableRecord
100
AcDbLayerTableRecord
  2
0
 70
     0
 62
     7
  6
CONTINUOUS
370
    -3
390
9A5F
  0
LAYER
  5
986F
102
{ACAD_XDICTIONARY
360
9AB3
102
}
330
984B
100
AcDbSymbolTableRecord
100
AcDbLayerTableRecord
  2
4
 70
     0
 62
     1
  6
CENTER
370
    -3
390
9A5F
  0
LAYER
  5
9870
102
{ACAD_XDICTIONARY
360
9AB5
102
}
330
984B
100
AcDbSymbolTableRecord
100
AcDbLayerTableRecord
  2
5
 70
     0
 62
     6
  6
PHANTOM
370
    -3
390
9A5F
  0
LAYER
  5
9871
102
{ACAD_XDICTIONARY
360
9AB7
102
}
330
984B
100
AcDbSymbolTableRecord
100
AcDbLayerTableRecord
  2
1
 70
     0
 62
     7
  6
CONTINUOUS
370
    -3
390
9A5F
  0
LAYER
  5
9872
102
{ACAD_XDICTIONARY
360
9AB9
102
}
330
984B
100
AcDbSymbolTableRecord
100
AcDbLayerTableRecord
  2
2
 70
     0
 62
     4
  6
CONTINUOUS
370
    -3
390
9A5F
  0
LAYER
  5
9873
102
{ACAD_XDICTIONARY
360
9ABB
102
}
330
984B
100
AcDbSymbolTableRecord
100
AcDbLayerTableRecord
  2
3
 70
     0
 62
     2
  6
DASHED
370
    -3
390
9A5F
  0
LAYER
  5
9874
102
{ACAD_XDICTIONARY
360
9ABD
102
}
330
984B
100
AcDbSymbolTableRecord
100
AcDbLayerTableRecord
  2
6
 70
     0
 62
     5
  6
CONTINUOUS
370
    -3
390
9A5F
  0
LAYER
  5
9875
102
{ACAD_XDICTIONARY
360
9ABF
102
}
330
984B
100
AcDbSymbolTableRecord
100
AcDbLayerTableRecord
  2
7
 70
     0
 62
     3
  6
CONTINUOUS
370
    -3
390
9A5F
  0
ENDTAB
  0
TABLE
  2
STYLE
  5
984C
330
0
100
AcDbSymbolTable
 70
     1
  0
STYLE
  5
985A
330
984C
100
AcDbSymbolTableRecord
100
AcDbTextStyleTableRecord
  2
STANDARD
 70
     0
 40
0.0
 41
1.0
 50
0.0
 71
     0
 42
5.0
  3
txt
  4

  0
ENDTAB
  0
TABLE
  2
VIEW
  5
984F
330
0
100
AcDbSymbolTable
 70
     0
  0
ENDTAB
  0
TABLE
  2
UCS
  5
9850
330
0
100
AcDbSymbolTable
 70
     0
  0
ENDTAB
  0
TABLE
  2
APPID
  5
9852
330
0
100
AcDbSymbolTable
 70
     3
  0
APPID
  5
985B
330
9852
100
AcDbSymbolTableRecord
100
AcDbRegAppTableRecord
  2
ACAD
 70
     0
  0
APPID
  5
9ACB
330
9852
100
AcDbSymbolTableRecord
100
AcDbRegAppTableRecord
  2
ACAD_NAV_VCDISPLAY
 70
     0
  0
APPID
  5
9B04
330
9852
100
AcDbSymbolTableRecord
100
AcDbRegAppTableRecord
  2
ACAD_MLEADERVER
 70
     0
  0
ENDTAB
  0
TABLE
  2
DIMSTYLE
  5
9853
330
0
100
AcDbSymbolTable
 70
     1
100
AcDbDimStyleTable
 71
     0
  0
DIMSTYLE
105
9877
330
9853
100
AcDbSymbolTableRecord
100
AcDbDimStyleTableRecord
  2
STANDARD
 70
     0
 41
3.0
 42
1.0
 43
10.0
 44
1.0
 73
     0
 74
     0
 77
     3
 78
     8
140
3.2
141
0.0
147
1.0
172
     1
173
     1
284
     8
285
     8
286
     8
340
985A
  0
ENDTAB
  0
TABLE
  2
BLOCK_RECORD
  5
984A
330
0
100
AcDbSymbolTable
 70
     0
  0
BLOCK_RECORD
  5
9867
102
{ACAD_XDICTIONARY
360
9A59
102
}
330
984A
100
AcDbSymbolTableRecord
100
AcDbBlockTableRecord
  2
*MODEL_SPACE
340
9AAD
  0
BLOCK_RECORD
  5
9863
102
{ACAD_XDICTIONARY
360
9A57
102
}
330
984A
100
AcDbSymbolTableRecord
100
AcDbBlockTableRecord
  2
*PAPER_SPACE
340
9AAE
  0
ENDTAB
  0
ENDSEC
  0
SECTION
  2
BLOCKS
  0
BLOCK
  5
9868
330
9867
100
AcDbEntity
  8
0
100
AcDbBlockBegin
  2
*MODEL_SPACE
 70
     0
 10
0.0
 20
0.0
 30
0.0
  3
*MODEL_SPACE
  1

  0
ENDBLK
  5
9869
330
9867
100
AcDbEntity
  8
0
100
AcDbBlockEnd
  0
BLOCK
  5
9864
330
9863
100
AcDbEntity
 67
     1
  8
0
100
AcDbBlockBegin
  2
*PAPER_SPACE
 70
     0
 10
0.0
 20
0.0
 30
0.0
  3
*PAPER_SPACE
  1

  0
ENDBLK
  5
9865
330
9863
100
AcDbEntity
 67
     1
  8
0
100
AcDbBlockEnd
  0
ENDSEC
  0
SECTION
  2
ENTITIES
  0
TEXT
  5
987F
330
9867
100
AcDbEntity
  8
7
  6
Continuous
100
AcDbText
 10
10.0
 20
18.0
 30
0.0
 40
3.0
  1
TYPE No.TL-293
100
AcDbText
  0
TEXT
  5
9880
330
9867
100
AcDbEntity
  8
7
  6
Continuous
100
AcDbText
 10
10.0
 20
26.0
 30
0.0
 40
3.0
  1
CODE No.1438
100
AcDbText
  0
TEXT
  5
9881
330
9867
100
AcDbEntity
  8
1
  6
Continuous
100
AcDbText
 10
10.0
 20
10.0
 30
0.0
 40
1.399999999999999
  1
LAYER
100
AcDbText
  0
TEXT
  5
9882
330
9867
100
AcDbEntity
  8
1
  6
Continuous
100
AcDbText
 10
17.97951099999998
 20
10.04873699999998
 30
0.0
 40
1.399999999999999
  1
1
100
AcDbText
  0
TEXT
  5
9883
330
9867
100
AcDbEntity
  8
7
  6
Continuous
100
AcDbText
 10
29.97951099999999
 20
10.04873699999998
 30
0.0
 40
1.399999999999999
  1
7
100
AcDbText
  0
TEXT
  5
9884
330
9867
100
AcDbEntity
  8
4
  6
CENTER
100
AcDbText
 10
23.97951099999999
 20
10.04873699999998
 30
0.0
 40
1.399999999999999
  1
4
100
AcDbText
  0
TEXT
  5
9885
330
9867
100
AcDbEntity
  8
3
  6
DASHED
100
AcDbText
 10
21.979511
 20
10.04873699999998
 30
0.0
 40
1.399999999999999
  1
3
100
AcDbText
  0
TEXT
  5
9886
330
9867
100
AcDbEntity
  8
2
  6
Continuous
100
AcDbText
 10
19.97951099999999
 20
10.04873699999998
 30
0.0
 40
1.399999999999999
  1
2
100
AcDbText
  0
TEXT
  5
9887
330
9867
100
AcDbEntity
  8
6
  6
Continuous
100
AcDbText
 10
27.979511
 20
10.04873699999998
 30
0.0
 40
1.399999999999999
  1
6
100
AcDbText
  0
TEXT
  5
9888
330
9867
100
AcDbEntity
  8
5
  6
PHANTOM
100
AcDbText
 10
25.97951099999999
 20
10.04873699999998
 30
0.0
 40
1.399999999999999
  1
5
100
AcDbText
  0
LINE
  5
9889
330
9867
100
AcDbEntity
  8
4
  6
CENTER
100
AcDbLine
 10
10.416096
 20
163.125
 30
0.0
 11
49.822575
 21
163.125
 31
0.0
  0
LINE
  5
988A
330
9867
100
AcDbEntity
  8
4
  6
CENTER
100
AcDbLine
 10
36.417676
 20
177.449377
 30
0.0
 11
36.417676
 21
148.574857
 31
0.0
  0
LINE
  5
988B
330
9867
100
AcDbEntity
  8
4
  6
CENTER
100
AcDbLine
 10
93.85767800000001
 20
163.125
 30
0.0
 11
124.5678829999999
 21
163.125
 31
0.0
  0
LINE
  5
988C
330
9867
100
AcDbEntity
  8
1
  6
Continuous
100
AcDbLine
 10
100.077374
 20
172.1249999999998
 30
0.0
 11
100.077374
 21
154.1249999999998
 31
0.0
  0
LINE
  5
988D
330
9867
100
AcDbEntity
  8
1
  6
Continuous
100
AcDbLine
 10
100.077374
 20
154.1249999999998
 30
0.0
 11
101.0773759999999
 21
154.1249999999998
 31
0.0
  0
LINE
  5
988E
330
9867
100
AcDbEntity
  8
1
  6
Continuous
100
AcDbLine
 10
100.077374
 20
172.1249999999998
 30
0.0
 11
101.0773759999999
 21
172.1249999999998
 31
0.0
  0
LINE
  5
988F
330
9867
100
AcDbEntity
  8
1
  6
Continuous
100
AcDbLine
 10
101.0773759999999
 20
172.1249999999998
 30
0.0
 11
101.0773759999999
 21
154.1249999999998
 31
0.0
  0
LINE
  5
9890
330
9867
100
AcDbEntity
  8
1
  6
Continuous
100
AcDbLine
 10
101.0773759999999
 20
155.125
 30
0.0
 11
110.877379
 21
155.125
 31
0.0
  0
LINE
  5
9891
330
9867
100
AcDbEntity
  8
1
  6
Continuous
100
AcDbLine
 10
101.0773759999999
 20
171.1249999999998
 30
0.0
 11
110.877379
 21
171.1249999999998
 31
0.0
  0
LINE
  5
9892
330
9867
100
AcDbEntity
  8
1
  6
Continuous
100
AcDbLine
 10
111.5773759999999
 20
155.824997
 30
0.0
 11
114.077376
 21
155.824997
 31
0.0
  0
LINE
  5
9893
330
9867
100
AcDbEntity
  8
1
  6
Continuous
100
AcDbLine
 10
111.5773759999999
 20
170.425003
 30
0.0
 11
114.077376
 21
170.425003
 31
0.0
  0
LINE
  5
9894
330
9867
100
AcDbEntity
  8
1
  6
Continuous
100
AcDbLine
 10
111.5773759999999
 20
170.425003
 30
0.0
 11
110.877379
 21
171.1249999999998
 31
0.0
  0
LINE
  5
9895
330
9867
100
AcDbEntity
  8
1
  6
Continuous
100
AcDbLine
 10
114.077376
 20
170.425003
 30
0.0
 11
114.077376
 21
155.824997
 31
0.0
  0
LINE
  5
9896
330
9867
100
AcDbEntity
  8
1
  6
Continuous
100
AcDbLine
 10
111.5773759999999
 20
155.824997
 30
0.0
 11
110.877379
 21
155.125
 31
0.0
  0
LINE
  5
9897
330
9867
100
AcDbEntity
  8
1
  6
Continuous
100
AcDbLine
 10
101.577376
 20
171.1249999999998
 30
0.0
 11
101.577376
 21
167.1734919999998
 31
0.0
  0
LINE
  5
9898
330
9867
100
AcDbEntity
  8
1
  6
Continuous
100
AcDbLine
 10
101.577376
 20
155.625
 30
0.0
 11
101.577376
 21
155.125
 31
0.0
  0
LINE
  5
9899
330
9867
100
AcDbEntity
  8
1
  6
Continuous
100
AcDbLine
 10
35.634976
 20
156.125
 30
0.0
 11
37.200375
 21
156.125
 31
0.0
  0
LINE
  5
989A
330
9867
100
AcDbEntity
  8
1
  6
Continuous
100
AcDbLine
 10
35.540875
 20
156.258896
 30
0.0
 11
36.32357799999999
 21
158.433594
 31
0.0
  0
LINE
  5
989B
330
9867
100
AcDbEntity
  8
1
  6
Continuous
100
AcDbLine
 10
36.511777
 20
158.4336089999999
 30
0.0
 11
37.294476
 21
156.258896
 31
0.0
  0
LINE
  5
989C
330
9867
100
AcDbEntity
  8
1
  6
Continuous
100
AcDbLine
 10
95.577374
 20
171.1249999999998
 30
0.0
 11
95.577374
 21
155.125
 31
0.0
  0
LINE
  5
989D
330
9867
100
AcDbEntity
  8
1
  6
Continuous
100
AcDbLine
 10
96.57737400000002
 20
154.1249999999998
 30
0.0
 11
97.077374
 21
154.1249999999998
 31
0.0
  0
LINE
  5
989E
330
9867
100
AcDbEntity
  8
1
  6
Continuous
100
AcDbLine
 10
96.57737400000002
 20
172.1249999999998
 30
0.0
 11
100.077374
 21
172.1249999999998
 31
0.0
  0
LINE
  5
989F
330
9867
100
AcDbEntity
  8
1
  6
Continuous
100
AcDbLine
 10
95.57738200000001
 20
171.1249999999998
 30
0.0
 11
96.57737400000002
 21
172.1249999999998
 31
0.0
  0
LINE
  5
98A0
330
9867
100
AcDbEntity
  8
1
  6
Continuous
100
AcDbLine
 10
96.57737400000002
 20
154.1249999999998
 30
0.0
 11
95.577374
 21
155.125
 31
0.0
  0
LINE
  5
98A1
330
9867
100
AcDbEntity
  8
1
  6
Continuous
100
AcDbLine
 10
97.077374
 20
157.6249999999998
 30
0.0
 11
97.077374
 21
154.1249999999998
 31
0.0
  0
LINE
  5
98A2
330
9867
100
AcDbEntity
  8
1
  6
Continuous
100
AcDbLine
 10
99.177373
 20
157.6249999999998
 30
0.0
 11
99.177373
 21
154.1249999999998
 31
0.0
  0
LINE
  5
98A3
330
9867
100
AcDbEntity
  8
1
  6
Continuous
100
AcDbLine
 10
97.077374
 20
157.6249999999998
 30
0.0
 11
99.177373
 21
157.6249999999998
 31
0.0
  0
LINE
  5
98A4
330
9867
100
AcDbEntity
  8
1
  6
Continuous
100
AcDbLine
 10
96.57737400000002
 20
172.1249999999998
 30
0.0
 11
96.57737400000002
 21
154.1249999999998
 31
0.0
  0
LINE
  5
98A5
330
9867
100
AcDbEntity
  8
1
  6
Continuous
100
AcDbLine
 10
99.177373
 20
154.1249999999998
 30
0.0
 11
100.077374
 21
154.1249999999998
 31
0.0
  0
LINE
  5
98A6
330
9867
100
AcDbEntity
  8
1
  6
Continuous
100
AcDbLine
 10
114.57738
 20
165.625
 30
0.0
 11
122.17738
 21
165.625
 31
0.0
  0
LINE
  5
98A7
330
9867
100
AcDbEntity
  8
1
  6
Continuous
100
AcDbLine
 10
114.57738
 20
160.625
 30
0.0
 11
122.17738
 21
160.625
 31
0.0
  0
LINE
  5
98A8
330
9867
100
AcDbEntity
  8
1
  6
Continuous
100
AcDbLine
 10
122.8773769999999
 20
164.925003
 30
0.0
 11
122.8773769999999
 21
161.324997
 31
0.0
  0
LINE
  5
98A9
330
9867
100
AcDbEntity
  8
1
  6
Continuous
100
AcDbLine
 10
122.8773769999999
 20
164.925003
 30
0.0
 11
122.177365
 21
165.625
 31
0.0
  0
LINE
  5
98AA
330
9867
100
AcDbEntity
  8
1
  6
Continuous
100
AcDbLine
 10
122.8773769999999
 20
161.324997
 30
0.0
 11
122.17738
 21
160.625
 31
0.0
  0
LINE
  5
98AB
330
9867
100
AcDbEntity
  8
1
  6
Continuous
100
AcDbLine
 10
115.977374
 20
165.625
 30
0.0
 11
115.977374
 21
164.625
 31
0.0
  0
LINE
  5
98AC
330
9867
100
AcDbEntity
  8
1
  6
Continuous
100
AcDbLine
 10
122.17738
 20
165.625
 30
0.0
 11
122.17738
 21
164.625
 31
0.0
  0
LINE
  5
98AD
330
9867
100
AcDbEntity
  8
1
  6
Continuous
100
AcDbLine
 10
122.8773769999999
 20
164.625
 30
0.0
 11
114.57738
 21
164.625
 31
0.0
  0
LINE
  5
98AE
330
9867
100
AcDbEntity
  8
1
  6
Continuous
100
AcDbLine
 10
122.8773769999999
 20
161.6249999999998
 30
0.0
 11
114.57738
 21
161.6249999999998
 31
0.0
  0
LINE
  5
98AF
330
9867
100
AcDbEntity
  8
1
  6
Continuous
100
AcDbLine
 10
115.977374
 20
160.625
 30
0.0
 11
115.977374
 21
161.6249999999998
 31
0.0
  0
LINE
  5
98B0
330
9867
100
AcDbEntity
  8
1
  6
Continuous
100
AcDbLine
 10
122.17738
 20
160.625
 30
0.0
 11
122.17738
 21
161.6249999999998
 31
0.0
  0
LINE
  5
98B1
330
9867
100
AcDbEntity
  8
2
  6
Continuous
100
AcDbLine
 10
114.57738
 20
164.135223
 30
0.0
 11
122.8773769999999
 21
161.6250149999999
 31
0.0
  0
LINE
  5
98B2
330
9867
100
AcDbEntity
  8
2
  6
Continuous
100
AcDbLine
 10
122.8773769999999
 20
164.625
 30
0.0
 11
114.5773649999999
 21
162.114777
 31
0.0
  0
LINE
  5
98B3
330
9867
100
AcDbEntity
  8
1
  6
Continuous
100
AcDbLine
 10
101.0773759999999
 20
167.1734919999998
 30
0.0
 11
110.877379
 21
167.1734919999998
 31
0.0
  0
LINE
  5
98B4
330
9867
100
AcDbEntity
  8
1
  6
Continuous
100
AcDbLine
 10
101.0773759999999
 20
159.0765079999999
 30
0.0
 11
110.877379
 21
159.0765079999999
 31
0.0
  0
LINE
  5
98B5
330
9867
100
AcDbEntity
  8
1
  6
Continuous
100
AcDbLine
 10
114.077376
 20
165.508301
 30
0.0
 11
111.5773759999999
 21
165.508301
 31
0.0
  0
LINE
  5
98B6
330
9867
100
AcDbEntity
  8
1
  6
Continuous
100
AcDbLine
 10
114.077376
 20
160.741699
 30
0.0
 11
111.5773759999999
 21
160.741699
 31
0.0
  0
LINE
  5
98B7
330
9867
100
AcDbEntity
  8
1
  6
Continuous
100
AcDbLine
 10
110.877379
 20
171.1249999999998
 30
0.0
 11
110.877379
 21
167.1734919999998
 31
0.0
  0
LINE
  5
98B8
330
9867
100
AcDbEntity
  8
1
  6
Continuous
100
AcDbLine
 10
111.5773759999999
 20
170.425003
 30
0.0
 11
111.5773759999999
 21
165.508301
 31
0.0
  0
LINE
  5
98B9
330
9867
100
AcDbEntity
  8
1
  6
Continuous
100
AcDbLine
 10
110.877386
 20
167.1734919999998
 30
0.0
 11
111.577383
 21
165.508301
 31
0.0
  0
LINE
  5
98BA
330
9867
100
AcDbEntity
  8
1
  6
Continuous
100
AcDbLine
 10
110.877379
 20
155.125
 30
0.0
 11
110.877379
 21
159.0765079999999
 31
0.0
  0
LINE
  5
98BB
330
9867
100
AcDbEntity
  8
1
  6
Continuous
100
AcDbLine
 10
111.5773759999999
 20
155.824997
 30
0.0
 11
111.5773759999999
 21
160.741699
 31
0.0
  0
LINE
  5
98BC
330
9867
100
AcDbEntity
  8
1
  6
Continuous
100
AcDbLine
 10
110.8773709999999
 20
159.0765079999999
 30
0.0
 11
111.5773679999998
 21
160.741699
 31
0.0
  0
LINE
  5
98BD
330
9867
100
AcDbEntity
  8
1
  6
Continuous
100
AcDbLine
 10
101.577376
 20
155.625
 30
0.0
 11
101.577376
 21
159.0765079999999
 31
0.0
  0
LINE
  5
98BE
330
9867
100
AcDbEntity
  8
2
  6
Continuous
100
AcDbLine
 10
114.077383
 20
165.508301
 30
0.0
 11
101.0773759999999
 21
159.0765079999999
 31
0.0
  0
LINE
  5
98BF
330
9867
100
AcDbEntity
  8
2
  6
Continuous
100
AcDbLine
 10
101.0773759999999
 20
167.1734919999998
 30
0.0
 11
114.077376
 21
160.741699
 31
0.0
  0
LINE
  5
98C0
330
9867
100
AcDbEntity
  8
1
  6
Continuous
100
AcDbLine
 10
114.077376
 20
170.3249969999999
 30
0.0
 11
114.57738
 21
170.3249969999999
 31
0.0
  0
LINE
  5
98C1
330
9867
100
AcDbEntity
  8
1
  6
Continuous
100
AcDbLine
 10
114.077376
 20
157.6249999999998
 30
0.0
 11
114.57738
 21
157.6249999999998
 31
0.0
  0
LINE
  5
98C2
330
9867
100
AcDbEntity
  8
1
  6
Continuous
100
AcDbLine
 10
114.57738
 20
170.3249969999999
 30
0.0
 11
114.57738
 21
157.6249999999998
 31
0.0
  0
LINE
  5
98C3
330
9867
100
AcDbEntity
  8
1
  6
Continuous
100
AcDbLine
 10
114.077376
 20
168.625
 30
0.0
 11
114.57738
 21
168.625
 31
0.0
  0
LINE
  5
98C4
330
9867
100
AcDbEntity
  8
1
  6
Continuous
100
AcDbLine
 10
175.5491759999999
 20
165.938904
 30
0.0
 11
175.5491759999999
 21
165.642303
 31
0.0
  0
LINE
  5
98C5
330
9867
100
AcDbEntity
  8
1
  6
Continuous
100
AcDbLine
 10
177.0491759999999
 20
165.6634979999998
 30
0.0
 11
177.0491759999999
 21
165.3668979999999
 31
0.0
  0
LINE
  5
98C6
330
9867
100
AcDbEntity
  8
1
  6
Continuous
100
AcDbLine
 10
175.9991729999999
 20
168.130005
 30
0.0
 11
175.9991729999999
 21
158.119995
 31
0.0
  0
LINE
  5
98C7
330
9867
100
AcDbEntity
  8
1
  6
Continuous
100
AcDbLine
 10
176.5991789999999
 20
168.130005
 30
0.0
 11
176.5991789999999
 21
158.119995
 31
0.0
  0
LINE
  5
98C8
330
9867
100
AcDbEntity
  8
1
  6
Continuous
100
AcDbLine
 10
175.9991729999999
 20
168.130005
 30
0.0
 11
176.5991789999999
 21
168.130005
 31
0.0
  0
LINE
  5
98C9
330
9867
100
AcDbEntity
  8
1
  6
Continuous
100
AcDbLine
 10
175.9991729999999
 20
158.119995
 30
0.0
 11
176.5991789999999
 21
158.119995
 31
0.0
  0
LINE
  5
98CA
330
9867
100
AcDbEntity
  8
1
  6
Continuous
100
AcDbLine
 10
175.5491609999999
 20
165.9388889999999
 30
0.0
 11
175.9991579999999
 21
165.8562929999999
 31
0.0
  0
LINE
  5
98CB
330
9867
100
AcDbEntity
  8
1
  6
Continuous
100
AcDbLine
 10
175.84837
 20
165.063309
 30
0.0
 11
175.9991729999999
 21
164.9908139999998
 31
0.0
  0
LINE
  5
98CC
330
9867
100
AcDbEntity
  8
1
  6
Continuous
100
AcDbLine
 10
175.9081689999999
 20
163.66301
 30
0.0
 11
175.9991729999999
 21
163.608902
 31
0.0
  0
LINE
  5
98CD
330
9867
100
AcDbEntity
  8
1
  6
Continuous
100
AcDbLine
 10
175.5491759999999
 20
161.831604
 30
0.0
 11
175.9991729999999
 21
161.615204
 31
0.0
  0
LINE
  5
98CE
330
9867
100
AcDbEntity
  8
1
  6
Continuous
100
AcDbLine
 10
175.5491449999999
 20
160.5865019999999
 30
0.0
 11
175.9991579999999
 21
160.5038909999999
 31
0.0
  0
LINE
  5
98CF
330
9867
100
AcDbEntity
  8
1
  6
Continuous
100
AcDbLine
 10
175.5491609999999
 20
165.642303
 30
0.0
 11
175.9991579999999
 21
165.5597079999998
 31
0.0
  0
LINE
  5
98D0
330
9867
100
AcDbEntity
  8
1
  6
Continuous
100
AcDbLine
 10
175.551373
 20
164.720505
 30
0.0
 11
175.9991729999999
 21
164.50531
 31
0.0
  0
LINE
  5
98D1
330
9867
100
AcDbEntity
  8
1
  6
Continuous
100
AcDbLine
 10
175.60867
 20
163.129196
 30
0.0
 11
175.9991729999999
 21
162.8972019999999
 31
0.0
  0
LINE
  5
98D2
330
9867
100
AcDbEntity
  8
1
  6
Continuous
100
AcDbLine
 10
175.5491759999999
 20
161.4763949999999
 30
0.0
 11
175.9991729999999
 21
161.2601009999998
 31
0.0
  0
LINE
  5
98D3
330
9867
100
AcDbEntity
  8
1
  6
Continuous
100
AcDbLine
 10
175.5491609999999
 20
160.2953949999998
 30
0.0
 11
175.9991729999999
 21
160.2127989999999
 31
0.0
  0
LINE
  5
98D4
330
9867
100
AcDbEntity
  8
1
  6
Continuous
100
AcDbLine
 10
175.5491759999999
 20
161.831604
 30
0.0
 11
175.5491759999999
 21
161.4763949999999
 31
0.0
  0
LINE
  5
98D5
330
9867
100
AcDbEntity
  8
1
  6
Continuous
100
AcDbLine
 10
175.5491759999999
 20
160.5865019999999
 30
0.0
 11
175.5491759999999
 21
160.2953949999998
 31
0.0
  0
LINE
  5
98D6
330
9867
100
AcDbEntity
  8
1
  6
Continuous
100
AcDbLine
 10
175.560177
 20
164.7306979999999
 30
0.0
 11
175.857098
 21
165.0735169999999
 31
0.0
  0
LINE
  5
98D7
330
9867
100
AcDbEntity
  8
1
  6
Continuous
100
AcDbLine
 10
176.7522699999999
 20
164.1432039999999
 30
0.0
 11
177.0491909999998
 21
164.4860229999999
 31
0.0
  0
LINE
  5
98D8
330
9867
100
AcDbEntity
  8
1
  6
Continuous
100
AcDbLine
 10
175.608685
 20
163.1292109999999
 30
0.0
 11
175.9081689999999
 21
163.6629939999999
 31
0.0
  0
LINE
  5
98D9
330
9867
100
AcDbEntity
  8
1
  6
Continuous
100
AcDbLine
 10
177.108685
 20
162.9496
 30
0.0
 11
176.8803829999999
 21
162.3735959999999
 31
0.0
  0
LINE
  5
98DA
330
9867
100
AcDbEntity
  8
1
  6
Continuous
100
AcDbLine
 10
176.599164
 20
165.7460939999999
 30
0.0
 11
177.049161
 21
165.6634979999998
 31
0.0
  0
LINE
  5
98DB
330
9867
100
AcDbEntity
  8
1
  6
Continuous
100
AcDbLine
 10
176.5991479999999
 20
165.449493
 30
0.0
 11
177.049161
 21
165.3668979999999
 31
0.0
  0
LINE
  5
98DC
330
9867
100
AcDbEntity
  8
1
  6
Continuous
100
AcDbLine
 10
176.5991789999999
 20
164.702301
 30
0.0
 11
177.0491759999999
 21
164.4860079999999
 31
0.0
  0
LINE
  5
98DD
330
9867
100
AcDbEntity
  8
1
  6
Continuous
100
AcDbLine
 10
176.5991789999999
 20
164.2167969999999
 30
0.0
 11
176.7522699999999
 21
164.1432039999999
 31
0.0
  0
LINE
  5
98DE
330
9867
100
AcDbEntity
  8
1
  6
Continuous
100
AcDbLine
 10
176.599164
 20
163.2523799999999
 30
0.0
 11
177.1086549999999
 21
162.949585
 31
0.0
  0
LINE
  5
98DF
330
9867
100
AcDbEntity
  8
1
  6
Continuous
100
AcDbLine
 10
176.5991789999999
 20
162.540604
 30
0.0
 11
176.8803829999999
 21
162.3735959999999
 31
0.0
  0
LINE
  5
98E0
330
9867
100
AcDbEntity
  8
1
  6
Continuous
100
AcDbLine
 10
176.599164
 20
161.3268129999999
 30
0.0
 11
177.0491759999999
 21
161.1105039999999
 31
0.0
  0
LINE
  5
98E1
330
9867
100
AcDbEntity
  8
1
  6
Continuous
100
AcDbLine
 10
176.5991789999999
 20
160.9715879999999
 30
0.0
 11
176.759076
 21
160.894684
 31
0.0
  0
LINE
  5
98E2
330
9867
100
AcDbEntity
  8
1
  6
Continuous
100
AcDbLine
 10
176.599164
 20
160.3936919999999
 30
0.0
 11
177.049161
 21
160.3110959999999
 31
0.0
  0
LINE
  5
98E3
330
9867
100
AcDbEntity
  8
1
  6
Continuous
100
AcDbLine
 10
176.5991789999999
 20
160.1026
 30
0.0
 11
176.742383
 21
160.0762939999999
 31
0.0
  0
LINE
  5
98E4
330
9867
100
AcDbEntity
  8
4
  6
CENTER
100
AcDbLine
 10
216.0835689999999
 20
163.125
 30
0.0
 11
256.187695
 21
163.125
 31
0.0
  0
LINE
  5
98E5
330
9867
100
AcDbEntity
  8
4
  6
CENTER
100
AcDbLine
 10
228.74017
 20
175.808502
 30
0.0
 11
228.74017
 21
150.0271909999999
 31
0.0
  0
LINE
  5
98E6
330
9867
100
AcDbEntity
  8
1
  6
Continuous
100
AcDbLine
 10
219.24017
 20
168.609802
 30
0.0
 11
219.24017
 21
157.6401979999999
 31
0.0
  0
LINE
  5
98E7
330
9867
100
AcDbEntity
  8
1
  6
Continuous
100
AcDbLine
 10
236.481808
 20
169.625
 30
0.0
 11
228.74017
 21
174.094696
 31
0.0
  0
LINE
  5
98E8
330
9867
100
AcDbEntity
  8
1
  6
Continuous
100
AcDbLine
 10
228.74017
 20
152.1552889999999
 30
0.0
 11
219.24017
 21
157.640182
 31
0.0
  0
LINE
  5
98E9
330
9867
100
AcDbEntity
  8
1
  6
Continuous
100
AcDbLine
 10
228.740185
 20
152.155304
 30
0.0
 11
236.4818239999999
 21
156.625
 31
0.0
  0
LINE
  5
98EA
330
9867
100
AcDbEntity
  8
1
  6
Continuous
100
AcDbLine
 10
219.2401849999999
 20
168.609802
 30
0.0
 11
228.740185
 21
174.094711
 31
0.0
  0
LINE
  5
98EB
330
9867
100
AcDbEntity
  8
1
  6
Continuous
100
AcDbLine
 10
159.508771
 20
174.094696
 30
0.0
 11
161.0416679999999
 21
174.094696
 31
0.0
  0
LINE
  5
98EC
330
9867
100
AcDbEntity
  8
1
  6
Continuous
100
AcDbLine
 10
159.025174
 20
171.352203
 30
0.0
 11
159.025174
 21
154.8977969999999
 31
0.0
  0
LINE
  5
98ED
330
9867
100
AcDbEntity
  8
1
  6
Continuous
100
AcDbLine
 10
161.5251739999999
 20
171.352203
 30
0.0
 11
161.5251739999999
 21
154.8977969999999
 31
0.0
  0
LINE
  5
98EE
330
9867
100
AcDbEntity
  8
1
  6
Continuous
100
AcDbLine
 10
159.508771
 20
168.609802
 30
0.0
 11
161.0416679999999
 21
168.609802
 31
0.0
  0
LINE
  5
98EF
330
9867
100
AcDbEntity
  8
1
  6
Continuous
100
AcDbLine
 10
159.508771
 20
152.155304
 30
0.0
 11
161.0416679999999
 21
152.155304
 31
0.0
  0
LINE
  5
98F0
330
9867
100
AcDbEntity
  8
1
  6
Continuous
100
AcDbLine
 10
159.508771
 20
157.6401979999999
 30
0.0
 11
161.0416679999999
 21
157.6401979999999
 31
0.0
  0
LINE
  5
98F1
330
9867
100
AcDbEntity
  8
1
  6
Continuous
100
AcDbLine
 10
224.74017
 20
165.434402
 30
0.0
 11
224.74017
 21
160.815598
 31
0.0
  0
LINE
  5
98F2
330
9867
100
AcDbEntity
  8
1
  6
Continuous
100
AcDbLine
 10
232.74017
 20
165.434402
 30
0.0
 11
232.74017
 21
160.815598
 31
0.0
  0
LINE
  5
98F3
330
9867
100
AcDbEntity
  8
1
  6
Continuous
100
AcDbLine
 10
232.74017
 20
165.434402
 30
0.0
 11
228.74017
 21
167.7437899999999
 31
0.0
  0
LINE
  5
98F4
330
9867
100
AcDbEntity
  8
1
  6
Continuous
100
AcDbLine
 10
228.74017
 20
158.506195
 30
0.0
 11
224.74017
 21
160.815598
 31
0.0
  0
LINE
  5
98F5
330
9867
100
AcDbEntity
  8
1
  6
Continuous
100
AcDbLine
 10
228.7401549999999
 20
158.506195
 30
0.0
 11
232.7401549999999
 21
160.815598
 31
0.0
  0
LINE
  5
98F6
330
9867
100
AcDbEntity
  8
1
  6
Continuous
100
AcDbLine
 10
224.7401549999999
 20
165.434402
 30
0.0
 11
228.74017
 21
167.743805
 31
0.0
  0
LINE
  5
98F7
330
9867
100
AcDbEntity
  8
1
  6
Continuous
100
AcDbLine
 10
181.041379
 20
167.743805
 30
0.0
 11
184.374783
 21
167.743805
 31
0.0
  0
LINE
  5
98F8
330
9867
100
AcDbEntity
  8
1
  6
Continuous
100
AcDbLine
 10
181.041379
 20
167.743805
 30
0.0
 11
181.041379
 21
158.506195
 31
0.0
  0
LINE
  5
98F9
330
9867
100
AcDbEntity
  8
1
  6
Continuous
100
AcDbLine
 10
185.041379
 20
166.5923
 30
0.0
 11
185.041379
 21
159.6577
 31
0.0
  0
LINE
  5
98FA
330
9867
100
AcDbEntity
  8
1
  6
Continuous
100
AcDbLine
 10
181.041379
 20
165.440704
 30
0.0
 11
184.374783
 21
165.440704
 31
0.0
  0
LINE
  5
98FB
330
9867
100
AcDbEntity
  8
1
  6
Continuous
100
AcDbLine
 10
181.041379
 20
158.506195
 30
0.0
 11
184.374783
 21
158.506195
 31
0.0
  0
LINE
  5
98FC
330
9867
100
AcDbEntity
  8
1
  6
Continuous
100
AcDbLine
 10
181.041379
 20
160.809296
 30
0.0
 11
184.374783
 21
160.809296
 31
0.0
  0
LINE
  5
98FD
330
9867
100
AcDbEntity
  8
1
  6
Continuous
100
AcDbLine
 10
150.402279
 20
243.3250119999999
 30
0.0
 11
150.402279
 21
222.9250029999998
 31
0.0
  0
LINE
  5
98FE
330
9867
100
AcDbEntity
  8
4
  6
CENTER
100
AcDbLine
 10
147.9759789999999
 20
233.125
 30
0.0
 11
187.9962889999999
 21
233.125
 31
0.0
  0
LINE
  5
98FF
330
9867
100
AcDbEntity
  8
1
  6
Continuous
100
AcDbLine
 10
248.4038819999999
 20
156.625
 30
0.0
 11
225.576474
 21
156.625
 31
0.0
  0
LINE
  5
9900
330
9867
100
AcDbEntity
  8
1
  6
Continuous
100
AcDbLine
 10
248.4038819999999
 20
169.625
 30
0.0
 11
225.576474
 21
169.625
 31
0.0
  0
LINE
  5
9901
330
9867
100
AcDbEntity
  8
1
  6
Continuous
100
AcDbLine
 10
170.196179
 20
169.625
 30
0.0
 11
168.196179
 21
169.625
 31
0.0
  0
LINE
  5
9902
330
9867
100
AcDbEntity
  8
1
  6
Continuous
100
AcDbLine
 10
168.196179
 20
169.625
 30
0.0
 11
168.196179
 21
156.625
 31
0.0
  0
LINE
  5
9903
330
9867
100
AcDbEntity
  8
1
  6
Continuous
100
AcDbLine
 10
168.196179
 20
156.625
 30
0.0
 11
170.196179
 21
156.625
 31
0.0
  0
LINE
  5
9904
330
9867
100
AcDbEntity
  8
1
  6
Continuous
100
AcDbLine
 10
170.196179
 20
156.625
 30
0.0
 11
170.196179
 21
169.625
 31
0.0
  0
LINE
  5
9905
330
9867
100
AcDbEntity
  8
4
  6
CENTER
100
AcDbLine
 10
125.2544679999999
 20
233.125
 30
0.0
 11
93.171078
 21
233.125
 31
0.0
  0
LINE
  5
9906
330
9867
100
AcDbEntity
  8
1
  6
Continuous
100
AcDbLine
 10
100.077374
 20
242.125
 30
0.0
 11
100.077374
 21
224.1249999999999
 31
0.0
  0
LINE
  5
9907
330
9867
100
AcDbEntity
  8
1
  6
Continuous
100
AcDbLine
 10
101.0773759999999
 20
242.125
 30
0.0
 11
100.077374
 21
242.125
 31
0.0
  0
LINE
  5
9908
330
9867
100
AcDbEntity
  8
1
  6
Continuous
100
AcDbLine
 10
101.0773759999999
 20
224.1249999999999
 30
0.0
 11
100.077374
 21
224.1249999999999
 31
0.0
  0
LINE
  5
9909
330
9867
100
AcDbEntity
  8
1
  6
Continuous
100
AcDbLine
 10
101.0773759999999
 20
242.125
 30
0.0
 11
101.0773759999999
 21
224.1249999999999
 31
0.0
  0
LINE
  5
990A
330
9867
100
AcDbEntity
  8
1
  6
Continuous
100
AcDbLine
 10
112.277373
 20
240.024994
 30
0.0
 11
101.0773759999999
 21
240.024994
 31
0.0
  0
LINE
  5
990B
330
9867
100
AcDbEntity
  8
1
  6
Continuous
100
AcDbLine
 10
114.077376
 20
226.2250059999999
 30
0.0
 11
101.0773759999999
 21
226.2250059999999
 31
0.0
  0
LINE
  5
990C
330
9867
100
AcDbEntity
  8
1
  6
Continuous
100
AcDbLine
 10
112.277373
 20
240.024994
 30
0.0
 11
112.277373
 21
233.125
 31
0.0
  0
LINE
  5
990D
330
9867
100
AcDbEntity
  8
1
  6
Continuous
100
AcDbLine
 10
114.077376
 20
233.125
 30
0.0
 11
114.077376
 21
226.2250059999999
 31
0.0
  0
LINE
  5
990E
330
9867
100
AcDbEntity
  8
1
  6
Continuous
100
AcDbLine
 10
114.077376
 20
233.125
 30
0.0
 11
112.277373
 21
233.125
 31
0.0
  0
LINE
  5
990F
330
9867
100
AcDbEntity
  8
1
  6
Continuous
100
AcDbLine
 10
101.577376
 20
240.024994
 30
0.0
 11
101.577376
 21
226.2249909999999
 31
0.0
  0
LINE
  5
9910
330
9867
100
AcDbEntity
  8
1
  6
Continuous
100
AcDbLine
 10
111.5773759999999
 20
240.024994
 30
0.0
 11
111.5773759999999
 21
226.2249909999999
 31
0.0
  0
LINE
  5
9911
330
9867
100
AcDbEntity
  8
1
  6
Continuous
100
AcDbLine
 10
110.877379
 20
240.024994
 30
0.0
 11
110.877379
 21
226.2249909999999
 31
0.0
  0
LINE
  5
9912
330
9867
100
AcDbEntity
  8
1
  6
Continuous
100
AcDbLine
 10
95.577374
 20
241.1249999999999
 30
0.0
 11
95.577374
 21
225.125
 31
0.0
  0
LINE
  5
9913
330
9867
100
AcDbEntity
  8
1
  6
Continuous
100
AcDbLine
 10
100.077374
 20
242.125
 30
0.0
 11
96.57737400000002
 21
242.125
 31
0.0
  0
LINE
  5
9914
330
9867
100
AcDbEntity
  8
1
  6
Continuous
100
AcDbLine
 10
100.077374
 20
224.1249999999999
 30
0.0
 11
96.57737400000002
 21
224.1249999999999
 31
0.0
  0
LINE
  5
9915
330
9867
100
AcDbEntity
  8
1
  6
Continuous
100
AcDbLine
 10
96.57737400000002
 20
242.125
 30
0.0
 11
95.577374
 21
241.1249999999999
 31
0.0
  0
LINE
  5
9916
330
9867
100
AcDbEntity
  8
1
  6
Continuous
100
AcDbLine
 10
96.577382
 20
224.1249999999999
 30
0.0
 11
95.57738200000001
 21
225.125
 31
0.0
  0
LINE
  5
9917
330
9867
100
AcDbEntity
  8
1
  6
Continuous
100
AcDbLine
 10
96.57737400000002
 20
224.1249999999999
 30
0.0
 11
96.57737400000002
 21
242.125
 31
0.0
  0
LINE
  5
9918
330
9867
100
AcDbEntity
  8
1
  6
Continuous
100
AcDbLine
 10
112.277373
 20
235.625
 30
0.0
 11
112.977374
 21
235.625
 31
0.0
  0
LINE
  5
9919
330
9867
100
AcDbEntity
  8
1
  6
Continuous
100
AcDbLine
 10
122.17738
 20
235.1249999999998
 30
0.0
 11
114.57738
 21
235.1249999999998
 31
0.0
  0
LINE
  5
991A
330
9867
100
AcDbEntity
  8
1
  6
Continuous
100
AcDbLine
 10
177.049161
 20
231.125
 30
0.0
 11
177.0189629999999
 21
231.125
 31
0.0
  0
LINE
  5
991B
330
9867
100
AcDbEntity
  8
1
  6
Continuous
100
AcDbLine
 10
122.8773769999999
 20
234.424988
 30
0.0
 11
122.8773769999999
 21
231.825012
 31
0.0
  0
LINE
  5
991C
330
9867
100
AcDbEntity
  8
1
  6
Continuous
100
AcDbLine
 10
122.8773769999999
 20
234.4250179999999
 30
0.0
 11
122.17738
 21
235.1249999999998
 31
0.0
  0
LINE
  5
991D
330
9867
100
AcDbEntity
  8
1
  6
Continuous
100
AcDbLine
 10
122.17738
 20
231.125
 30
0.0
 11
122.8773919999998
 21
231.825012
 31
0.0
  0
LINE
  5
991E
330
9867
100
AcDbEntity
  8
1
  6
Continuous
100
AcDbLine
 10
122.17738
 20
235.1249999999998
 30
0.0
 11
122.17738
 21
231.125
 31
0.0
  0
LINE
  5
991F
330
9867
100
AcDbEntity
  8
1
  6
Continuous
100
AcDbLine
 10
114.5773649999999
 20
227.625
 30
0.0
 11
114.077376
 21
227.625
 31
0.0
  0
LINE
  5
9920
330
9867
100
AcDbEntity
  8
1
  6
Continuous
100
AcDbLine
 10
114.5773649999999
 20
239.9249879999999
 30
0.0
 11
112.977374
 21
239.9249879999999
 31
0.0
  0
LINE
  5
9921
330
9867
100
AcDbEntity
  8
1
  6
Continuous
100
AcDbLine
 10
114.57738
 20
233.125
 30
0.0
 11
114.077376
 21
233.125
 31
0.0
  0
LINE
  5
9922
330
9867
100
AcDbEntity
  8
1
  6
Continuous
100
AcDbLine
 10
114.57738
 20
239.9249879999999
 30
0.0
 11
114.57738
 21
227.625
 31
0.0
  0
LINE
  5
9923
330
9867
100
AcDbEntity
  8
1
  6
Continuous
100
AcDbLine
 10
112.977374
 20
239.9249879999999
 30
0.0
 11
112.977374
 21
233.125
 31
0.0
  0
LINE
  5
9924
330
9867
100
AcDbEntity
  8
1
  6
Continuous
100
AcDbLine
 10
170.196179
 20
226.6249999999998
 30
0.0
 11
168.196179
 21
226.6249999999998
 31
0.0
  0
LINE
  5
9925
330
9867
100
AcDbEntity
  8
1
  6
Continuous
100
AcDbLine
 10
170.196179
 20
256.125
 30
0.0
 11
168.196179
 21
256.125
 31
0.0
  0
LINE
  5
9926
330
9867
100
AcDbEntity
  8
1
  6
Continuous
100
AcDbLine
 10
170.196179
 20
256.125
 30
0.0
 11
170.196179
 21
226.6249999999998
 31
0.0
  0
LINE
  5
9927
330
9867
100
AcDbEntity
  8
1
  6
Continuous
100
AcDbLine
 10
168.196179
 20
256.125
 30
0.0
 11
168.196179
 21
226.6249999999998
 31
0.0
  0
LINE
  5
9928
330
9867
100
AcDbEntity
  8
1
  6
Continuous
100
AcDbLine
 10
170.196179
 20
229.961304
 30
0.0
 11
168.196179
 21
229.961304
 31
0.0
  0
LINE
  5
9929
330
9867
100
AcDbEntity
  8
1
  6
Continuous
100
AcDbLine
 10
170.196179
 20
252.788696
 30
0.0
 11
168.196179
 21
252.788696
 31
0.0
  0
LINE
  5
992A
330
9867
100
AcDbEntity
  8
1
  6
Continuous
100
AcDbLine
 10
175.5491759999999
 20
235.9389039999999
 30
0.0
 11
175.5491759999999
 21
235.6423029999999
 31
0.0
  0
LINE
  5
992B
330
9867
100
AcDbEntity
  8
1
  6
Continuous
100
AcDbLine
 10
177.0491759999999
 20
235.6635129999999
 30
0.0
 11
177.0491759999999
 21
235.3669129999999
 31
0.0
  0
LINE
  5
992C
330
9867
100
AcDbEntity
  8
1
  6
Continuous
100
AcDbLine
 10
175.9991729999999
 20
238.1300049999999
 30
0.0
 11
175.9991729999999
 21
228.1199949999999
 31
0.0
  0
LINE
  5
992D
330
9867
100
AcDbEntity
  8
1
  6
Continuous
100
AcDbLine
 10
176.599164
 20
238.1300049999999
 30
0.0
 11
176.599164
 21
228.1199949999999
 31
0.0
  0
LINE
  5
992E
330
9867
100
AcDbEntity
  8
1
  6
Continuous
100
AcDbLine
 10
175.9991729999999
 20
238.1300049999999
 30
0.0
 11
176.599164
 21
238.1300049999999
 31
0.0
  0
LINE
  5
992F
330
9867
100
AcDbEntity
  8
1
  6
Continuous
100
AcDbLine
 10
175.9991729999999
 20
228.1199949999999
 30
0.0
 11
176.599164
 21
228.1199949999999
 31
0.0
  0
LINE
  5
9930
330
9867
100
AcDbEntity
  8
1
  6
Continuous
100
AcDbLine
 10
175.5491609999999
 20
235.9389039999999
 30
0.0
 11
175.9991579999999
 21
235.856293
 31
0.0
  0
LINE
  5
9931
330
9867
100
AcDbEntity
  8
1
  6
Continuous
100
AcDbLine
 10
175.848385
 20
235.063324
 30
0.0
 11
175.9991729999999
 21
234.990814
 31
0.0
  0
LINE
  5
9932
330
9867
100
AcDbEntity
  8
1
  6
Continuous
100
AcDbLine
 10
175.9081689999999
 20
233.6629939999999
 30
0.0
 11
175.9991729999999
 21
233.608917
 31
0.0
  0
LINE
  5
9933
330
9867
100
AcDbEntity
  8
1
  6
Continuous
100
AcDbLine
 10
175.5491759999999
 20
231.831604
 30
0.0
 11
175.9991729999999
 21
231.6152039999999
 31
0.0
  0
LINE
  5
9934
330
9867
100
AcDbEntity
  8
1
  6
Continuous
100
AcDbLine
 10
175.5491609999999
 20
230.586517
 30
0.0
 11
175.9991729999999
 21
230.5039059999999
 31
0.0
  0
LINE
  5
9935
330
9867
100
AcDbEntity
  8
1
  6
Continuous
100
AcDbLine
 10
175.5491759999999
 20
235.6423029999999
 30
0.0
 11
175.9991729999999
 21
235.5596919999999
 31
0.0
  0
LINE
  5
9936
330
9867
100
AcDbEntity
  8
1
  6
Continuous
100
AcDbLine
 10
175.55148
 20
234.7204899999999
 30
0.0
 11
175.9991729999999
 21
234.50531
 31
0.0
  0
LINE
  5
9937
330
9867
100
AcDbEntity
  8
1
  6
Continuous
100
AcDbLine
 10
175.608685
 20
233.129211
 30
0.0
 11
175.9991729999999
 21
232.8972169999999
 31
0.0
  0
LINE
  5
9938
330
9867
100
AcDbEntity
  8
1
  6
Continuous
100
AcDbLine
 10
175.5491759999999
 20
231.47641
 30
0.0
 11
175.9991729999999
 21
231.2601009999999
 31
0.0
  0
LINE
  5
9939
330
9867
100
AcDbEntity
  8
1
  6
Continuous
100
AcDbLine
 10
175.5491609999999
 20
230.29541
 30
0.0
 11
175.9991729999999
 21
230.212814
 31
0.0
  0
LINE
  5
993A
330
9867
100
AcDbEntity
  8
1
  6
Continuous
100
AcDbLine
 10
175.5491759999999
 20
231.831604
 30
0.0
 11
175.5491759999999
 21
231.47641
 31
0.0
  0
LINE
  5
993B
330
9867
100
AcDbEntity
  8
1
  6
Continuous
100
AcDbLine
 10
175.5491759999999
 20
230.586502
 30
0.0
 11
175.5491759999999
 21
230.295395
 31
0.0
  0
LINE
  5
993C
330
9867
100
AcDbEntity
  8
1
  6
Continuous
100
AcDbLine
 10
175.5602839999999
 20
234.7307129999999
 30
0.0
 11
175.8571739999999
 21
235.0735169999999
 31
0.0
  0
LINE
  5
993D
330
9867
100
AcDbEntity
  8
1
  6
Continuous
100
AcDbLine
 10
176.7522699999999
 20
234.143188
 30
0.0
 11
177.0491909999998
 21
234.486023
 31
0.0
  0
LINE
  5
993E
330
9867
100
AcDbEntity
  8
1
  6
Continuous
100
AcDbLine
 10
175.608685
 20
233.129211
 30
0.0
 11
175.9081689999999
 21
233.6629939999999
 31
0.0
  0
LINE
  5
993F
330
9867
100
AcDbEntity
  8
1
  6
Continuous
100
AcDbLine
 10
177.1086699999999
 20
232.949615
 30
0.0
 11
176.8803679999998
 21
232.373596
 31
0.0
  0
LINE
  5
9940
330
9867
100
AcDbEntity
  8
1
  6
Continuous
100
AcDbLine
 10
176.5991789999999
 20
235.746094
 30
0.0
 11
177.0491759999999
 21
235.6635129999999
 31
0.0
  0
LINE
  5
9941
330
9867
100
AcDbEntity
  8
1
  6
Continuous
100
AcDbLine
 10
176.599164
 20
235.449524
 30
0.0
 11
177.0491759999999
 21
235.3669129999999
 31
0.0
  0
LINE
  5
9942
330
9867
100
AcDbEntity
  8
1
  6
Continuous
100
AcDbLine
 10
176.599164
 20
234.702301
 30
0.0
 11
177.0491759999999
 21
234.4859919999999
 31
0.0
  0
LINE
  5
9943
330
9867
100
AcDbEntity
  8
1
  6
Continuous
100
AcDbLine
 10
176.599164
 20
234.216797
 30
0.0
 11
176.7522699999999
 21
234.143188
 31
0.0
  0
LINE
  5
9944
330
9867
100
AcDbEntity
  8
1
  6
Continuous
100
AcDbLine
 10
176.599164
 20
233.25238
 30
0.0
 11
177.1086549999999
 21
232.949585
 31
0.0
  0
LINE
  5
9945
330
9867
100
AcDbEntity
  8
1
  6
Continuous
100
AcDbLine
 10
176.5991789999999
 20
232.5405879999999
 30
0.0
 11
176.8803679999998
 21
232.373596
 31
0.0
  0
LINE
  5
9946
330
9867
100
AcDbEntity
  8
1
  6
Continuous
100
AcDbLine
 10
176.599164
 20
231.3267819999999
 30
0.0
 11
177.0491759999999
 21
231.110504
 31
0.0
  0
LINE
  5
9947
330
9867
100
AcDbEntity
  8
1
  6
Continuous
100
AcDbLine
 10
176.5991789999999
 20
230.971603
 30
0.0
 11
176.7591669999999
 21
230.894699
 31
0.0
  0
LINE
  5
9948
330
9867
100
AcDbEntity
  8
1
  6
Continuous
100
AcDbLine
 10
176.599164
 20
230.3937229999999
 30
0.0
 11
177.049161
 21
230.3111109999999
 31
0.0
  0
LINE
  5
9949
330
9867
100
AcDbEntity
  8
1
  6
Continuous
100
AcDbLine
 10
176.599164
 20
230.1025999999999
 30
0.0
 11
176.742367
 21
230.0762939999999
 31
0.0
  0
LINE
  5
994A
330
9867
100
AcDbEntity
  8
1
  6
Continuous
100
AcDbLine
 10
122.17738
 20
231.125
 30
0.0
 11
114.57738
 21
231.125
 31
0.0
  0
LINE
  5
994B
330
9867
100
AcDbEntity
  8
1
  6
Continuous
100
AcDbLine
 10
161.0272639999998
 20
223.625
 30
0.0
 11
159.523068
 21
223.625
 31
0.0
  0
LINE
  5
994C
330
9867
100
AcDbEntity
  8
1
  6
Continuous
100
AcDbLine
 10
159.025174
 20
237.875
 30
0.0
 11
159.025174
 21
228.3749999999999
 31
0.0
  0
LINE
  5
994D
330
9867
100
AcDbEntity
  8
1
  6
Continuous
100
AcDbLine
 10
161.5251739999999
 20
237.875
 30
0.0
 11
161.5251739999999
 21
228.3749999999999
 31
0.0
  0
LINE
  5
994E
330
9867
100
AcDbEntity
  8
1
  6
Continuous
100
AcDbLine
 10
161.0272639999998
 20
233.125
 30
0.0
 11
159.523068
 21
233.125
 31
0.0
  0
LINE
  5
994F
330
9867
100
AcDbEntity
  8
1
  6
Continuous
100
AcDbLine
 10
161.0272639999998
 20
242.625
 30
0.0
 11
159.523068
 21
242.625
 31
0.0
  0
LINE
  5
9950
330
9867
100
AcDbEntity
  8
1
  6
Continuous
100
AcDbLine
 10
184.479275
 20
237.1249999999998
 30
0.0
 11
181.041379
 21
237.1249999999998
 31
0.0
  0
LINE
  5
9951
330
9867
100
AcDbEntity
  8
1
  6
Continuous
100
AcDbLine
 10
184.479275
 20
229.125
 30
0.0
 11
181.041379
 21
229.125
 31
0.0
  0
LINE
  5
9952
330
9867
100
AcDbEntity
  8
1
  6
Continuous
100
AcDbLine
 10
181.041379
 20
237.1249999999998
 30
0.0
 11
181.041379
 21
229.125
 31
0.0
  0
LINE
  5
9953
330
9867
100
AcDbEntity
  8
1
  6
Continuous
100
AcDbLine
 10
185.041379
 20
235.1249999999998
 30
0.0
 11
185.041379
 21
231.125
 31
0.0
  0
LINE
  5
9954
330
9867
100
AcDbEntity
  8
1
  6
Continuous
100
AcDbLine
 10
184.479275
 20
233.125
 30
0.0
 11
181.041379
 21
233.125
 31
0.0
  0
LINE
  5
9955
330
9867
100
AcDbEntity
  8
4
  6
CENTER
100
AcDbLine
 10
36.417676
 20
96.92370600000003
 30
0.0
 11
36.417676
 21
35.29049699999998
 31
0.0
  0
LINE
  5
9956
330
9867
100
AcDbEntity
  8
1
  6
Continuous
100
AcDbLine
 10
31.417668
 20
91.274902
 30
0.0
 11
31.417668
 21
80.80270400000001
 31
0.0
  0
LINE
  5
9957
330
9867
100
AcDbEntity
  8
1
  6
Continuous
100
AcDbLine
 10
41.417676
 20
91.274902
 30
0.0
 11
41.417676
 21
80.80270400000001
 31
0.0
  0
LINE
  5
9958
330
9867
100
AcDbEntity
  8
1
  6
Continuous
100
AcDbLine
 10
30.09206799999999
 20
73.802704
 30
0.0
 11
42.736676
 21
73.802704
 31
0.0
  0
LINE
  5
9959
330
9867
100
AcDbEntity
  8
1
  6
Continuous
100
AcDbLine
 10
30.09206799999999
 20
76.302704
 30
0.0
 11
42.736676
 21
76.302704
 31
0.0
  0
LINE
  5
995A
330
9867
100
AcDbEntity
  8
1
  6
Continuous
100
AcDbLine
 10
29.917668
 20
80.80270400000001
 30
0.0
 11
31.417668
 21
80.80270400000001
 31
0.0
  0
LINE
  5
995B
330
9867
100
AcDbEntity
  8
1
  6
Continuous
100
AcDbLine
 10
41.417676
 20
80.80270400000001
 30
0.0
 11
42.917676
 21
80.80270400000001
 31
0.0
  0
LINE
  5
995C
330
9867
100
AcDbEntity
  8
1
  6
Continuous
100
AcDbLine
 10
29.41766799999999
 20
80.302704
 30
0.0
 11
29.41766799999999
 21
42.67479699999999
 31
0.0
  0
LINE
  5
995D
330
9867
100
AcDbEntity
  8
1
  6
Continuous
100
AcDbLine
 10
43.41767599999999
 20
80.302704
 30
0.0
 11
43.41767599999999
 21
42.67479699999999
 31
0.0
  0
LINE
  5
995E
330
9867
100
AcDbEntity
  8
1
  6
Continuous
100
AcDbLine
 10
97.077374
 20
93.50270100000001
 30
0.0
 11
97.077374
 21
76.619904
 31
0.0
  0
LINE
  5
995F
330
9867
100
AcDbEntity
  8
1
  6
Continuous
100
AcDbLine
 10
99.07737400000002
 20
91.776703
 30
0.0
 11
99.07737400000002
 21
71.80270400000002
 31
0.0
  0
LINE
  5
9960
330
9867
100
AcDbEntity
  8
1
  6
Continuous
100
AcDbLine
 10
97.077374
 20
69.80270400000001
 30
0.0
 11
94.65476700000001
 21
69.80270400000001
 31
0.0
  0
LINE
  5
9961
330
9867
100
AcDbEntity
  8
1
  6
Continuous
100
AcDbLine
 10
93.78866999999999
 20
69.302711
 30
0.0
 11
76.827374
 21
39.924812
 31
0.0
  0
LINE
  5
9962
330
9867
100
AcDbEntity
  8
1
  6
Continuous
100
AcDbLine
 10
73.546277
 20
41.24180599999998
 30
0.0
 11
76.14437499999998
 21
39.741806
 31
0.0
  0
LINE
  5
9963
330
9867
100
AcDbEntity
  8
1
  6
Continuous
100
AcDbLine
 10
91.45476999999999
 20
73.26020799999998
 30
0.0
 11
73.363263
 21
41.92479699999998
 31
0.0
  0
LINE
  5
9964
330
9867
100
AcDbEntity
  8
1
  6
Continuous
100
AcDbLine
 10
96.790371
 20
76.16759499999997
 30
0.0
 11
92.33477499999999
 21
74.06959499999998
 31
0.0
  0
LINE
  5
9965
330
9867
100
AcDbEntity
  8
1
  6
Continuous
100
AcDbLine
 10
98.57737400000001
 20
80.80270400000001
 30
0.0
 11
97.57737400000001
 21
80.80270400000001
 31
0.0
  0
LINE
  5
9966
330
9867
100
AcDbEntity
  8
1
  6
Continuous
100
AcDbLine
 10
32.417668
 20
41.674797
 30
0.0
 11
40.417676
 21
41.674797
 31
0.0
  0
LINE
  5
9967
330
9867
100
AcDbEntity
  8
1
  6
Continuous
100
AcDbLine
 10
32.417668
 20
39.674797
 30
0.0
 11
40.417676
 21
39.674797
 31
0.0
  0
LINE
  5
9968
330
9867
100
AcDbEntity
  8
1
  6
Continuous
100
AcDbLine
 10
32.417668
 20
51.018097
 30
0.0
 11
40.417676
 21
51.018097
 31
0.0
  0
LINE
  5
9969
330
9867
100
AcDbEntity
  8
1
  6
Continuous
100
AcDbLine
 10
32.417668
 20
70.07069399999998
 30
0.0
 11
40.417676
 21
70.07069399999998
 31
0.0
  0
LINE
  5
996A
330
9867
100
AcDbEntity
  8
1
  6
Continuous
100
AcDbLine
 10
31.417668
 20
69.07069399999999
 30
0.0
 11
31.417668
 21
52.018097
 31
0.0
  0
LINE
  5
996B
330
9867
100
AcDbEntity
  8
1
  6
Continuous
100
AcDbLine
 10
41.417676
 20
69.07069399999999
 30
0.0
 11
41.417676
 21
52.018097
 31
0.0
  0
LINE
  5
996C
330
9867
100
AcDbEntity
  8
1
  6
Continuous
100
AcDbLine
 10
35.45936300000001
 20
86.952698
 30
0.0
 11
37.37586599999997
 21
86.952698
 31
0.0
  0
LINE
  5
996D
330
9867
100
AcDbEntity
  8
1
  6
Continuous
100
AcDbLine
 10
35.177064
 20
87.354301
 30
0.0
 11
36.135365
 21
90.01800499999998
 31
0.0
  0
LINE
  5
996E
330
9867
100
AcDbEntity
  8
1
  6
Continuous
100
AcDbLine
 10
36.699868
 20
90.01799
 30
0.0
 11
37.65816599999999
 21
87.35429399999999
 31
0.0
  0
LINE
  5
996F
330
9867
100
AcDbEntity
  8
1
  6
Continuous
100
AcDbLine
 10
151.402279
 20
243.3250119999999
 30
0.0
 11
151.402279
 21
222.9250029999998
 31
0.0
  0
LINE
  5
9970
330
9867
100
AcDbEntity
  8
1
  6
Continuous
100
AcDbLine
 10
150.402279
 20
222.9250029999998
 30
0.0
 11
151.402279
 21
222.9250029999998
 31
0.0
  0
LINE
  5
9971
330
9867
100
AcDbEntity
  8
1
  6
Continuous
100
AcDbLine
 10
150.402279
 20
243.3250119999999
 30
0.0
 11
151.402279
 21
243.3250119999999
 31
0.0
  0
LINE
  5
9972
330
9867
100
AcDbEntity
  8
2
  6
Continuous
100
AcDbLine
 10
115.977374
 20
165.1920009999998
 30
0.0
 11
122.6103639999999
 21
165.1920009999998
 31
0.0
  0
LINE
  5
9973
330
9867
100
AcDbEntity
  8
2
  6
Continuous
100
AcDbLine
 10
115.977374
 20
161.0579989999999
 30
0.0
 11
122.610379
 21
161.0579989999999
 31
0.0
  0
LINE
  5
9974
330
9867
100
AcDbEntity
  8
2
  6
Continuous
100
AcDbLine
 10
115.227405
 20
160.625
 30
0.0
 11
115.977374
 21
161.0579989999999
 31
0.0
  0
LINE
  5
9975
330
9867
100
AcDbEntity
  8
2
  6
Continuous
100
AcDbLine
 10
115.227405
 20
165.625
 30
0.0
 11
115.977374
 21
165.1920009999998
 31
0.0
  0
LINE
  5
9976
330
9867
100
AcDbEntity
  8
2
  6
Continuous
100
AcDbLine
 10
101.577376
 20
170.5834959999999
 30
0.0
 11
111.418883
 21
170.5834959999999
 31
0.0
  0
LINE
  5
9977
330
9867
100
AcDbEntity
  8
2
  6
Continuous
100
AcDbLine
 10
101.0773759999999
 20
171.0834959999999
 30
0.0
 11
101.577376
 21
170.5834959999999
 31
0.0
  0
LINE
  5
9978
330
9867
100
AcDbEntity
  8
2
  6
Continuous
100
AcDbLine
 10
101.077368
 20
155.166504
 30
0.0
 11
101.577368
 21
155.666504
 31
0.0
  0
LINE
  5
9979
330
9867
100
AcDbEntity
  8
2
  6
Continuous
100
AcDbLine
 10
101.577376
 20
155.666504
 30
0.0
 11
111.418883
 21
155.666504
 31
0.0
  0
LINE
  5
997A
330
9867
100
AcDbEntity
  8
4
  6
CENTER
100
AcDbLine
 10
147.9759789999999
 20
163.125
 30
0.0
 11
187.9962889999999
 21
163.125
 31
0.0
  0
LINE
  5
997B
330
9867
100
AcDbEntity
  8
1
  6
Continuous
100
AcDbLine
 10
150.402279
 20
173.3249969999999
 30
0.0
 11
151.402279
 21
173.3249969999999
 31
0.0
  0
LINE
  5
997C
330
9867
100
AcDbEntity
  8
1
  6
Continuous
100
AcDbLine
 10
150.402279
 20
173.3249969999999
 30
0.0
 11
150.402279
 21
152.925003
 31
0.0
  0
LINE
  5
997D
330
9867
100
AcDbEntity
  8
1
  6
Continuous
100
AcDbLine
 10
151.402279
 20
173.3249969999999
 30
0.0
 11
151.402279
 21
152.925003
 31
0.0
  0
LINE
  5
997E
330
9867
100
AcDbEntity
  8
1
  6
Continuous
100
AcDbLine
 10
150.402279
 20
152.925003
 30
0.0
 11
151.402279
 21
152.925003
 31
0.0
  0
LINE
  5
997F
330
9867
100
AcDbEntity
  8
1
  6
Continuous
100
AcDbLine
 10
221.8401759999999
 20
167.1734919999998
 30
0.0
 11
221.8401759999999
 21
159.0765079999999
 31
0.0
  0
LINE
  5
9980
330
9867
100
AcDbEntity
  8
1
  6
Continuous
100
AcDbLine
 10
228.74017
 20
170.425003
 30
0.0
 11
228.74017
 21
169.625
 31
0.0
  0
LINE
  5
9981
330
9867
100
AcDbEntity
  8
1
  6
Continuous
100
AcDbLine
 10
228.74017
 20
156.625
 30
0.0
 11
228.74017
 21
155.824997
 31
0.0
  0
LINE
  5
9982
330
9867
100
AcDbEntity
  8
1
  6
Continuous
100
AcDbLine
 10
230.74017
 20
164.625
 30
0.0
 11
230.74017
 21
161.6249999999998
 31
0.0
  0
LINE
  5
9983
330
9867
100
AcDbEntity
  8
1
  6
Continuous
100
AcDbLine
 10
226.74017
 20
164.625
 30
0.0
 11
226.74017
 21
161.6249999999998
 31
0.0
  0
LINE
  5
9984
330
9867
100
AcDbEntity
  8
4
  6
CENTER
100
AcDbLine
 10
228.74017
 20
96.92370600000003
 30
0.0
 11
228.74017
 21
35.29049699999998
 31
0.0
  0
LINE
  5
9985
330
9867
100
AcDbEntity
  8
1
  6
Continuous
100
AcDbLine
 10
233.740185
 20
91.274902
 30
0.0
 11
233.740185
 21
80.80270400000001
 31
0.0
  0
LINE
  5
9986
330
9867
100
AcDbEntity
  8
1
  6
Continuous
100
AcDbLine
 10
223.7401699999999
 20
91.274902
 30
0.0
 11
223.7401699999999
 21
80.80270400000001
 31
0.0
  0
LINE
  5
9987
330
9867
100
AcDbEntity
  8
1
  6
Continuous
100
AcDbLine
 10
235.240185
 20
80.80270400000001
 30
0.0
 11
233.740185
 21
80.80270400000001
 31
0.0
  0
LINE
  5
9988
330
9867
100
AcDbEntity
  8
1
  6
Continuous
100
AcDbLine
 10
223.7401699999999
 20
80.80270400000001
 30
0.0
 11
222.24017
 21
80.80270400000001
 31
0.0
  0
LINE
  5
9989
330
9867
100
AcDbEntity
  8
1
  6
Continuous
100
AcDbLine
 10
235.740185
 20
80.302704
 30
0.0
 11
235.740185
 21
42.67479699999999
 31
0.0
  0
LINE
  5
998A
330
9867
100
AcDbEntity
  8
1
  6
Continuous
100
AcDbLine
 10
221.7401699999999
 20
80.302704
 30
0.0
 11
221.7401699999999
 21
42.67479699999999
 31
0.0
  0
LINE
  5
998B
330
9867
100
AcDbEntity
  8
1
  6
Continuous
100
AcDbLine
 10
232.740185
 20
39.674797
 30
0.0
 11
224.74017
 21
39.674797
 31
0.0
  0
LINE
  5
998C
330
9867
100
AcDbEntity
  8
1
  6
Continuous
100
AcDbLine
 10
221.7401699999999
 20
69.80270400000001
 30
0.0
 11
235.740185
 21
69.80270400000001
 31
0.0
  0
LINE
  5
998D
330
9867
100
AcDbEntity
  8
1
  6
Continuous
100
AcDbLine
 10
97.37736900000001
 20
93.802696
 30
0.0
 11
99.07736599999999
 21
91.77669499999996
 31
0.0
  0
LINE
  5
998E
330
9867
100
AcDbEntity
  8
1
  6
Continuous
100
AcDbLine
 10
37.910367
 20
53.195065
 30
0.0
 11
37.910367
 21
51.860889
 31
0.0
  0
LINE
  5
998F
330
9867
100
AcDbEntity
  8
1
  6
Continuous
100
AcDbLine
 10
39.669957
 20
52.513596
 30
0.0
 11
37.16767199999999
 21
51.58794
 31
0.0
  0
LINE
  5
9990
330
9867
100
AcDbEntity
  8
1
  6
Continuous
100
AcDbLine
 10
38.46297899999999
 20
61.702072
 30
0.0
 11
38.46297899999999
 21
60.080795
 31
0.0
  0
LINE
  5
9991
330
9867
100
AcDbEntity
  8
1
  6
Continuous
100
AcDbLine
 10
35.667676
 20
68.58616600000001
 30
0.0
 11
33.167676
 21
68.58616600000001
 31
0.0
  0
LINE
  5
9992
330
9867
100
AcDbEntity
  8
1
  6
Continuous
100
AcDbLine
 10
35.667676
 20
69.600693
 30
0.0
 11
35.667676
 21
67.562668
 31
0.0
  0
LINE
  5
9993
330
9867
100
AcDbEntity
  8
1
  6
Continuous
100
AcDbLine
 10
39.667676
 20
61.702072
 30
0.0
 11
37.167676
 21
61.702072
 31
0.0
  0
LINE
  5
9994
330
9867
100
AcDbEntity
  8
1
  6
Continuous
100
AcDbLine
 10
38.33617799999999
 20
57.314983
 30
0.0
 11
38.33617799999999
 21
56.43638199999998
 31
0.0
  0
LINE
  5
9995
330
9867
100
AcDbEntity
  8
1
  6
Continuous
100
AcDbLine
 10
39.667676
 20
60.080795
 30
0.0
 11
37.167676
 21
60.080795
 31
0.0
  0
LINE
  5
9996
330
9867
100
AcDbEntity
  8
1
  6
Continuous
100
AcDbLine
 10
39.667676
 20
59.202072
 30
0.0
 11
37.167676
 21
59.202072
 31
0.0
  0
LINE
  5
9997
330
9867
100
AcDbEntity
  8
1
  6
Continuous
100
AcDbLine
 10
39.665467
 20
52.513615
 30
0.0
 11
37.167676
 21
53.48343299999999
 31
0.0
  0
LINE
  5
9998
330
9867
100
AcDbEntity
  8
1
  6
Continuous
100
AcDbLine
 10
38.327069
 20
54.283573
 30
0.0
 11
37.167676
 21
54.283573
 31
0.0
  0
LINE
  5
9999
330
9867
100
AcDbEntity
  8
1
  6
Continuous
100
AcDbLine
 10
37.96358899999999
 20
56.43638199999998
 30
0.0
 11
37.167676
 21
56.43638199999998
 31
0.0
  0
LINE
  5
999A
330
9867
100
AcDbEntity
  8
1
  6
Continuous
100
AcDbLine
 10
39.667676
 20
55.711773
 30
0.0
 11
37.167676
 21
55.711773
 31
0.0
  0
LINE
  5
999B
330
9867
100
AcDbEntity
  8
1
  6
Continuous
100
AcDbLine
 10
38.327061
 20
54.283577
 30
0.0
 11
39.66767199999999
 21
53.509525
 31
0.0
  0
LINE
  5
999C
330
9867
100
AcDbEntity
  8
1
  6
Continuous
100
AcDbLine
 10
38.331578
 20
54.28358499999998
 30
0.0
 11
39.667676
 21
55.052586
 31
0.0
  0
LINE
  5
999D
330
9867
100
AcDbEntity
  8
1
  6
Continuous
100
AcDbLine
 10
39.667676
 20
68.58616600000001
 30
0.0
 11
37.167676
 21
68.58616600000001
 31
0.0
  0
LINE
  5
999E
330
9867
100
AcDbEntity
  8
1
  6
Continuous
100
AcDbLine
 10
39.667676
 20
69.600693
 30
0.0
 11
39.667676
 21
67.562668
 31
0.0
  0
LINE
  5
999F
330
9867
100
AcDbEntity
  8
1
  6
Continuous
100
AcDbLine
 10
33.167676
 20
67.080704
 30
0.0
 11
33.167676
 21
65.580704
 31
0.0
  0
LINE
  5
99A0
330
9867
100
AcDbEntity
  8
1
  6
Continuous
100
AcDbLine
 10
35.667676
 20
67.080704
 30
0.0
 11
33.167676
 21
67.080704
 31
0.0
  0
LINE
  5
99A1
330
9867
100
AcDbEntity
  8
1
  6
Continuous
100
AcDbLine
 10
34.417676
 20
65.106316
 30
0.0
 11
34.417676
 21
63.94397699999998
 31
0.0
  0
LINE
  5
99A2
330
9867
100
AcDbEntity
  8
1
  6
Continuous
100
AcDbLine
 10
33.167676
 20
62.68171699999999
 30
0.0
 11
34.534073
 21
61.374825
 31
0.0
  0
LINE
  5
99A3
330
9867
100
AcDbEntity
  8
1
  6
Continuous
100
AcDbLine
 10
34.902546
 20
59.02146899999999
 30
0.0
 11
33.932805
 21
59.02146899999999
 31
0.0
  0
LINE
  5
99A4
330
9867
100
AcDbEntity
  8
1
  6
Continuous
100
AcDbLine
 10
33.167676
 20
62.68171699999999
 30
0.0
 11
33.167676
 21
61.19778100000001
 31
0.0
  0
LINE
  5
99A5
330
9867
100
AcDbEntity
  8
1
  6
Continuous
100
AcDbLine
 10
34.417676
 20
57.505199
 30
0.0
 11
34.417676
 21
57.139313
 31
0.0
  0
LINE
  5
99A6
330
9867
100
AcDbEntity
  8
1
  6
Continuous
100
AcDbLine
 10
45.917656
 20
168.609802
 30
0.0
 11
44.38368299999999
 21
169.4954679999999
 31
0.0
  0
LINE
  5
99A7
330
9867
100
AcDbEntity
  8
1
  6
Continuous
100
AcDbLine
 10
26.91767199999999
 20
168.609802
 30
0.0
 11
28.451672
 21
169.4954679999999
 31
0.0
  0
LINE
  5
99A8
330
9867
100
AcDbEntity
  8
1
  6
Continuous
100
AcDbLine
 10
45.91767599999999
 20
168.609802
 30
0.0
 11
45.91767599999999
 21
166.8384859999999
 31
0.0
  0
LINE
  5
99A9
330
9867
100
AcDbEntity
  8
1
  6
Continuous
100
AcDbLine
 10
36.417676
 20
152.1552889999999
 30
0.0
 11
37.951821
 21
153.0410459999998
 31
0.0
  0
LINE
  5
99AA
330
9867
100
AcDbEntity
  8
1
  6
Continuous
100
AcDbLine
 10
36.41766
 20
152.155304
 30
0.0
 11
34.883565
 21
153.041031
 31
0.0
  0
LINE
  5
99AB
330
9867
100
AcDbEntity
  8
1
  6
Continuous
100
AcDbLine
 10
16.753964
 20
156.625
 30
0.0
 11
28.557015
 21
156.625
 31
0.0
  0
LINE
  5
99AC
330
9867
100
AcDbEntity
  8
1
  6
Continuous
100
AcDbLine
 10
16.753964
 20
169.625
 30
0.0
 11
28.557015
 21
169.625
 31
0.0
  0
LINE
  5
99AD
330
9867
100
AcDbEntity
  8
1
  6
Continuous
100
AcDbLine
 10
26.917676
 20
168.609802
 30
0.0
 11
26.917676
 21
166.8384859999999
 31
0.0
  0
LINE
  5
99AE
330
9867
100
AcDbEntity
  8
1
  6
Continuous
100
AcDbLine
 10
34.883568
 20
173.2089839999999
 30
0.0
 11
36.417676
 21
174.094711
 31
0.0
  0
LINE
  5
99AF
330
9867
100
AcDbEntity
  8
1
  6
Continuous
100
AcDbLine
 10
37.951768
 20
173.2089839999999
 30
0.0
 11
36.417653
 21
174.094711
 31
0.0
  0
LINE
  5
99B0
330
9867
100
AcDbEntity
  8
1
  6
Continuous
100
AcDbLine
 10
45.91767599999999
 20
159.4115139999999
 30
0.0
 11
45.91767599999999
 21
157.6401979999999
 31
0.0
  0
LINE
  5
99B1
330
9867
100
AcDbEntity
  8
1
  6
Continuous
100
AcDbLine
 10
44.383641
 20
156.754501
 30
0.0
 11
45.91767899999999
 21
157.6401979999999
 31
0.0
  0
LINE
  5
99B2
330
9867
100
AcDbEntity
  8
1
  6
Continuous
100
AcDbLine
 10
28.451687
 20
156.754532
 30
0.0
 11
26.91767899999998
 21
157.6401979999999
 31
0.0
  0
LINE
  5
99B3
330
9867
100
AcDbEntity
  8
1
  6
Continuous
100
AcDbLine
 10
26.917676
 20
159.4115139999999
 30
0.0
 11
26.917676
 21
157.6401979999999
 31
0.0
  0
CIRCLE
  5
99B4
330
9867
100
AcDbEntity
  8
1
  6
Continuous
100
AcDbCircle
 10
36.417676
 20
163.125
 30
0.0
 40
9.0
  0
CIRCLE
  5
99B5
330
9867
100
AcDbEntity
  8
1
  6
Continuous
100
AcDbCircle
 10
36.417676
 20
163.125
 30
0.0
 40
8.0
  0
ARC
  5
99B6
330
9867
100
AcDbEntity
  8
1
  6
Continuous
100
AcDbCircle
 10
35.634976
 20
156.225006
 30
0.0
 40
0.1
100
AcDbArc
 50
160.205079
 51
269.999973
  0
ARC
  5
99B7
330
9867
100
AcDbEntity
  8
1
  6
Continuous
100
AcDbCircle
 10
37.200375
 20
156.225006
 30
0.0
 40
0.1
100
AcDbArc
 50
269.99997
 51
19.794897
  0
ARC
  5
99B8
330
9867
100
AcDbEntity
  8
1
  6
Continuous
100
AcDbCircle
 10
36.417676
 20
158.399704
 30
0.0
 40
0.1
100
AcDbArc
 50
19.794897
 51
160.205079
  0
ARC
  5
99B9
330
9867
100
AcDbEntity
  8
1
  6
Continuous
100
AcDbCircle
 10
175.2215699999999
 20
167.312897
 30
0.0
 40
1.377799999999999
100
AcDbArc
 50
283.756367
 51
304.360767
  0
ARC
  5
99BA
330
9867
100
AcDbEntity
  8
1
  6
Continuous
100
AcDbCircle
 10
177.1834679999998
 20
166.436707
 30
0.0
 40
0.7650000000000003
100
AcDbArc
 50
220.1979809999999
 51
259.8874719999999
  0
ARC
  5
99BB
330
9867
100
AcDbEntity
  8
1
  6
Continuous
100
AcDbCircle
 10
175.199872
 20
167.354599
 30
0.0
 40
2.3241
100
AcDbArc
 50
286.2014659999999
 51
290.116366
  0
ARC
  5
99BC
330
9867
100
AcDbEntity
  8
1
  6
Continuous
100
AcDbCircle
 10
172.9696779999999
 20
166.713593
 30
0.0
 40
3.231199999999998
100
AcDbArc
 50
323.293064
 51
339.645761
  0
ARC
  5
99BD
330
9867
100
AcDbEntity
  8
1
  6
Continuous
100
AcDbCircle
 10
172.78378
 20
164.543701
 30
0.0
 40
3.215599999999998
100
AcDbArc
 50
342.65496
 51
359.3338589999998
  0
ARC
  5
99BE
330
9867
100
AcDbEntity
  8
1
  6
Continuous
100
AcDbCircle
 10
175.0831719999999
 20
160.653107
 30
0.0
 40
0.9275
100
AcDbArc
 50
350.98286
 51
59.83789399999999
  0
ARC
  5
99BF
330
9867
100
AcDbEntity
  8
1
  6
Continuous
100
AcDbCircle
 10
177.3057829999999
 20
160.433395
 30
0.0
 40
0.7077
100
AcDbArc
 50
111.260886
 51
183.128778
  0
ARC
  5
99C0
330
9867
100
AcDbEntity
  8
1
  6
Continuous
100
AcDbCircle
 10
177.29797
 20
159.639496
 30
0.0
 40
0.6999
100
AcDbArc
 50
110.826185
 51
183.1239829999999
  0
ARC
  5
99C1
330
9867
100
AcDbEntity
  8
1
  6
Continuous
100
AcDbCircle
 10
177.550473
 20
158.699905
 30
0.0
 40
1.565399999999999
100
AcDbArc
 50
121.08099
 51
127.4232849999998
  0
ARC
  5
99C2
330
9867
100
AcDbEntity
  8
1
  6
Continuous
100
AcDbCircle
 10
174.193478
 20
159.062103
 30
0.0
 40
1.811299999999999
100
AcDbArc
 50
355.467259
 51
41.54479600000001
  0
ARC
  5
99C3
330
9867
100
AcDbEntity
  8
1
  6
Continuous
100
AcDbCircle
 10
176.7741819999999
 20
161.584808
 30
0.0
 40
0.7756
100
AcDbArc
 50
82.131392
 51
103.040487
  0
ARC
  5
99C4
330
9867
100
AcDbEntity
  8
1
  6
Continuous
100
AcDbCircle
 10
228.74017
 20
163.125
 30
0.0
 40
9.5
100
AcDbArc
 50
43.17355100000001
 51
316.826439
  0
ARC
  5
99C5
330
9867
100
AcDbEntity
  8
1
  6
Continuous
100
AcDbCircle
 10
153.506878
 20
171.352203
 30
0.0
 40
8.018299999999998
100
AcDbArc
 50
339.999961
 51
19.999998
  0
ARC
  5
99C6
330
9867
100
AcDbEntity
  8
1
  6
Continuous
100
AcDbCircle
 10
167.0434689999999
 20
171.352203
 30
0.0
 40
8.018299999999998
100
AcDbArc
 50
159.9999819999999
 51
199.999974
  0
ARC
  5
99C7
330
9867
100
AcDbEntity
  8
1
  6
Continuous
100
AcDbCircle
 10
130.17738
 20
163.125
 30
0.0
 40
31.34779899999999
100
AcDbArc
 50
0.0
 51
10.076698
  0
ARC
  5
99C8
330
9867
100
AcDbEntity
  8
1
  6
Continuous
100
AcDbCircle
 10
190.3729829999998
 20
163.125
 30
0.0
 40
31.34779899999999
100
AcDbArc
 50
169.923277
 51
179.999978
  0
ARC
  5
99C9
330
9867
100
AcDbEntity
  8
1
  6
Continuous
100
AcDbCircle
 10
153.506878
 20
154.8977969999999
 30
0.0
 40
8.018299999999998
100
AcDbArc
 50
339.999961
 51
19.999998
  0
ARC
  5
99CA
330
9867
100
AcDbEntity
  8
1
  6
Continuous
100
AcDbCircle
 10
167.0434689999999
 20
154.8977969999999
 30
0.0
 40
8.018299999999998
100
AcDbArc
 50
159.9999819999999
 51
199.999974
  0
ARC
  5
99CB
330
9867
100
AcDbEntity
  8
1
  6
Continuous
100
AcDbCircle
 10
130.17738
 20
163.125
 30
0.0
 40
31.34779899999999
100
AcDbArc
 50
349.92326
 51
359.9999589999998
  0
ARC
  5
99CC
330
9867
100
AcDbEntity
  8
1
  6
Continuous
100
AcDbCircle
 10
190.3729829999998
 20
163.125
 30
0.0
 40
31.34779899999999
100
AcDbArc
 50
179.999978
 51
190.076679
  0
CIRCLE
  5
99CD
330
9867
100
AcDbEntity
  8
1
  6
Continuous
100
AcDbCircle
 10
228.74017
 20
163.125
 30
0.0
 40
4.0
  0
ARC
  5
99CE
330
9867
100
AcDbEntity
  8
1
  6
Continuous
100
AcDbCircle
 10
183.7135739999999
 20
166.5923
 30
0.0
 40
1.3279
100
AcDbArc
 50
299.8638659999999
 51
60.13609300000001
  0
ARC
  5
99CF
330
9867
100
AcDbEntity
  8
1
  6
Continuous
100
AcDbCircle
 10
180.686169
 20
163.125
 30
0.0
 40
4.355299999999997
100
AcDbArc
 50
0.0
 51
32.12089799999999
  0
ARC
  5
99D0
330
9867
100
AcDbEntity
  8
1
  6
Continuous
100
AcDbCircle
 10
183.7135739999999
 20
159.6577
 30
0.0
 40
1.3279
100
AcDbArc
 50
299.8638659999999
 51
60.13609300000001
  0
ARC
  5
99D1
330
9867
100
AcDbEntity
  8
1
  6
Continuous
100
AcDbCircle
 10
180.686169
 20
163.125
 30
0.0
 40
4.355299999999997
100
AcDbArc
 50
327.8790619999999
 51
0.0
  0
ARC
  5
99D2
330
9867
100
AcDbEntity
  8
1
  6
Continuous
100
AcDbCircle
 10
228.74017
 20
163.125
 30
0.0
 40
10.2
100
AcDbArc
 50
39.587428
 51
81.3498
  0
ARC
  5
99D3
330
9867
100
AcDbEntity
  8
1
  6
Continuous
100
AcDbCircle
 10
243.740185
 20
163.125
 30
0.0
 40
8.0
100
AcDbArc
 50
305.6590659999999
 51
54.34089300000001
  0
ARC
  5
99D4
330
9867
100
AcDbEntity
  8
1
  6
Continuous
100
AcDbCircle
 10
230.24017
 20
163.125
 30
0.0
 40
8.0
100
AcDbArc
 50
125.6590879999997
 51
234.340867
  0
ARC
  5
99D5
330
9867
100
AcDbEntity
  8
1
  6
Continuous
100
AcDbCircle
 10
175.2215699999999
 20
237.3128969999999
 30
0.0
 40
1.377799999999999
100
AcDbArc
 50
283.7564009999999
 51
304.360797
  0
ARC
  5
99D6
330
9867
100
AcDbEntity
  8
1
  6
Continuous
100
AcDbCircle
 10
177.1835749999999
 20
236.4367069999999
 30
0.0
 40
0.7650000000000003
100
AcDbArc
 50
220.197967
 51
259.8874579999999
  0
ARC
  5
99D7
330
9867
100
AcDbEntity
  8
1
  6
Continuous
100
AcDbCircle
 10
175.199872
 20
237.3545839999999
 30
0.0
 40
2.3241
100
AcDbArc
 50
286.2014999999999
 51
290.1163999999998
  0
ARC
  5
99D8
330
9867
100
AcDbEntity
  8
1
  6
Continuous
100
AcDbCircle
 10
172.9697689999999
 20
236.7135929999999
 30
0.0
 40
3.231199999999998
100
AcDbArc
 50
323.293095
 51
339.6457919999999
  0
ARC
  5
99D9
330
9867
100
AcDbEntity
  8
1
  6
Continuous
100
AcDbCircle
 10
172.7837639999999
 20
234.5437009999999
 30
0.0
 40
3.215599999999998
100
AcDbArc
 50
342.6549889999999
 51
359.333888
  0
ARC
  5
99DA
330
9867
100
AcDbEntity
  8
1
  6
Continuous
100
AcDbCircle
 10
175.0831719999999
 20
230.6530909999999
 30
0.0
 40
0.9275
100
AcDbArc
 50
350.982889
 51
59.83788700000001
  0
ARC
  5
99DB
330
9867
100
AcDbEntity
  8
1
  6
Continuous
100
AcDbCircle
 10
177.3057679999998
 20
230.4333949999999
 30
0.0
 40
0.7077
100
AcDbArc
 50
111.260872
 51
183.128764
  0
ARC
  5
99DC
330
9867
100
AcDbEntity
  8
1
  6
Continuous
100
AcDbCircle
 10
177.298062
 20
229.639496
 30
0.0
 40
0.6999
100
AcDbArc
 50
110.826171
 51
183.12397
  0
ARC
  5
99DD
330
9867
100
AcDbEntity
  8
1
  6
Continuous
100
AcDbCircle
 10
177.550473
 20
228.6999049999999
 30
0.0
 40
1.565399999999999
100
AcDbArc
 50
121.080976
 51
127.4232709999999
  0
ARC
  5
99DE
330
9867
100
AcDbEntity
  8
1
  6
Continuous
100
AcDbCircle
 10
174.1935699999999
 20
229.062103
 30
0.0
 40
1.811299999999999
100
AcDbArc
 50
355.4672909999999
 51
41.544786
  0
ARC
  5
99DF
330
9867
100
AcDbEntity
  8
1
  6
Continuous
100
AcDbCircle
 10
176.774167
 20
231.584808
 30
0.0
 40
0.7756
100
AcDbArc
 50
82.13137900000003
 51
103.0404729999999
  0
ARC
  5
99E0
330
9867
100
AcDbEntity
  8
1
  6
Continuous
100
AcDbCircle
 10
138.617367
 20
228.3749999999999
 30
0.0
 40
22.907801
100
AcDbArc
 50
348.0326919999998
 51
11.96728599999999
  0
ARC
  5
99E1
330
9867
100
AcDbEntity
  8
1
  6
Continuous
100
AcDbCircle
 10
181.932965
 20
228.3749999999999
 30
0.0
 40
22.907801
100
AcDbArc
 50
168.032667
 51
191.967261
  0
ARC
  5
99E2
330
9867
100
AcDbEntity
  8
1
  6
Continuous
100
AcDbCircle
 10
138.617367
 20
237.875
 30
0.0
 40
22.907801
100
AcDbArc
 50
348.0326919999998
 51
11.96728599999999
  0
ARC
  5
99E3
330
9867
100
AcDbEntity
  8
1
  6
Continuous
100
AcDbCircle
 10
181.932965
 20
237.875
 30
0.0
 40
22.907801
100
AcDbArc
 50
168.032667
 51
191.967261
  0
ARC
  5
99E4
330
9867
100
AcDbEntity
  8
1
  6
Continuous
100
AcDbCircle
 10
181.2026789999999
 20
231.125
 30
0.0
 40
3.838799999999998
100
AcDbArc
 50
328.600592
 51
31.399387
  0
ARC
  5
99E5
330
9867
100
AcDbEntity
  8
1
  6
Continuous
100
AcDbCircle
 10
181.2026789999999
 20
235.1249999999998
 30
0.0
 40
3.838799999999998
100
AcDbArc
 50
328.600592
 51
31.399387
  0
ARC
  5
99E6
330
9867
100
AcDbEntity
  8
1
  6
Continuous
100
AcDbCircle
 10
36.417676
 20
86.80270400000003
 30
0.0
 40
7.0
100
AcDbArc
 50
48.18969599999999
 51
131.8102879999998
  0
ARC
  5
99E7
330
9867
100
AcDbEntity
  8
1
  6
Continuous
100
AcDbCircle
 10
32.417668
 20
91.274902
 30
0.0
 40
1.0
100
AcDbArc
 50
131.8102879999998
 51
179.999978
  0
ARC
  5
99E8
330
9867
100
AcDbEntity
  8
1
  6
Continuous
100
AcDbCircle
 10
40.417676
 20
91.274902
 30
0.0
 40
1.0
100
AcDbArc
 50
0.0
 51
48.18969599999999
  0
ARC
  5
99E9
330
9867
100
AcDbEntity
  8
1
  6
Continuous
100
AcDbCircle
 10
29.917668
 20
80.302704
 30
0.0
 40
0.5
100
AcDbArc
 50
89.99998900000001
 51
179.999978
  0
ARC
  5
99EA
330
9867
100
AcDbEntity
  8
1
  6
Continuous
100
AcDbCircle
 10
42.917676
 20
80.302704
 30
0.0
 40
0.5
100
AcDbArc
 50
0.0
 51
89.99998900000001
  0
ARC
  5
99EB
330
9867
100
AcDbEntity
  8
1
  6
Continuous
100
AcDbCircle
 10
98.57737400000001
 20
80.302704
 30
0.0
 40
0.5
100
AcDbArc
 50
0.0
 51
89.99998900000001
  0
ARC
  5
99EC
330
9867
100
AcDbEntity
  8
1
  6
Continuous
100
AcDbCircle
 10
97.57737400000001
 20
80.302704
 30
0.0
 40
0.5
100
AcDbArc
 50
89.99998900000001
 51
179.999978
  0
ARC
  5
99ED
330
9867
100
AcDbEntity
  8
1
  6
Continuous
100
AcDbCircle
 10
96.57737400000002
 20
76.619904
 30
0.0
 40
0.5
100
AcDbArc
 50
295.213969
 51
0.0
  0
ARC
  5
99EE
330
9867
100
AcDbEntity
  8
1
  6
Continuous
100
AcDbCircle
 10
93.18678000000002
 20
72.260193
 30
0.0
 40
2.0
100
AcDbArc
 50
115.2139809999999
 51
149.999984
  0
ARC
  5
99EF
330
9867
100
AcDbEntity
  8
1
  6
Continuous
100
AcDbCircle
 10
97.077374
 20
71.80270400000002
 30
0.0
 40
2.0
100
AcDbArc
 50
269.99997
 51
0.0
  0
ARC
  5
99F0
330
9867
100
AcDbEntity
  8
1
  6
Continuous
100
AcDbCircle
 10
94.65476700000001
 20
68.802704
 30
0.0
 40
1.0
100
AcDbArc
 50
89.99998900000001
 51
149.999984
  0
ARC
  5
99F1
330
9867
100
AcDbEntity
  8
1
  6
Continuous
100
AcDbCircle
 10
76.39437499999998
 20
40.17479699999999
 30
0.0
 40
0.5
100
AcDbArc
 50
239.999969
 51
329.9999619999999
  0
ARC
  5
99F2
330
9867
100
AcDbEntity
  8
1
  6
Continuous
100
AcDbCircle
 10
73.796277
 20
41.674797
 30
0.0
 40
0.5
100
AcDbArc
 50
149.999984
 51
239.9999789999998
  0
ARC
  5
99F3
330
9867
100
AcDbEntity
  8
1
  6
Continuous
100
AcDbCircle
 10
32.417668
 20
44.674797
 30
0.0
 40
3.0
100
AcDbArc
 50
179.999978
 51
269.999973
  0
ARC
  5
99F4
330
9867
100
AcDbEntity
  8
1
  6
Continuous
100
AcDbCircle
 10
40.417676
 20
44.674797
 30
0.0
 40
3.0
100
AcDbArc
 50
269.99997
 51
0.0
  0
ARC
  5
99F5
330
9867
100
AcDbEntity
  8
1
  6
Continuous
100
AcDbCircle
 10
40.417676
 20
42.67479699999999
 30
0.0
 40
3.0
100
AcDbArc
 50
269.99997
 51
0.0
  0
ARC
  5
99F6
330
9867
100
AcDbEntity
  8
1
  6
Continuous
100
AcDbCircle
 10
32.417668
 20
42.67479699999999
 30
0.0
 40
3.0
100
AcDbArc
 50
179.999978
 51
269.999973
  0
CIRCLE
  5
99F7
330
9867
100
AcDbEntity
  8
1
  6
Continuous
100
AcDbCircle
 10
36.417676
 20
45.68800399999999
 30
0.0
 40
3.0
  0
ARC
  5
99F8
330
9867
100
AcDbEntity
  8
1
  6
Continuous
100
AcDbCircle
 10
36.417676
 20
43.688004
 30
0.0
 40
3.0
100
AcDbArc
 50
19.471198
 51
160.528775
  0
ARC
  5
99F9
330
9867
100
AcDbEntity
  8
1
  6
Continuous
100
AcDbCircle
 10
35.45936300000001
 20
87.25270100000001
 30
0.0
 40
0.3
100
AcDbArc
 50
160.2142859999999
 51
269.999973
  0
ARC
  5
99FA
330
9867
100
AcDbEntity
  8
1
  6
Continuous
100
AcDbCircle
 10
37.37586599999997
 20
87.25270100000001
 30
0.0
 40
0.3
100
AcDbArc
 50
269.99997
 51
19.78569699999998
  0
ARC
  5
99FB
330
9867
100
AcDbEntity
  8
1
  6
Continuous
100
AcDbCircle
 10
36.417676
 20
89.91650400000002
 30
0.0
 40
0.3
100
AcDbArc
 50
19.78569699999998
 51
160.2142859999999
  0
CIRCLE
  5
99FC
330
9867
100
AcDbEntity
  8
1
  6
Continuous
100
AcDbCircle
 10
228.74017
 20
163.125
 30
0.0
 40
5.0
  0
ARC
  5
99FD
330
9867
100
AcDbEntity
  8
1
  6
Continuous
100
AcDbCircle
 10
228.74017
 20
163.125
 30
0.0
 40
7.2
100
AcDbArc
 50
64.52563000000001
 51
89.99998900000001
  0
ARC
  5
99FE
330
9867
100
AcDbEntity
  8
1
  6
Continuous
100
AcDbCircle
 10
228.74017
 20
163.125
 30
0.0
 40
10.2
100
AcDbArc
 50
278.6502889999998
 51
320.412572
  0
ARC
  5
99FF
330
9867
100
AcDbEntity
  8
1
  6
Continuous
100
AcDbCircle
 10
228.74017
 20
163.125
 30
0.0
 40
10.2
100
AcDbArc
 50
218.649618
 51
261.3497199999998
  0
ARC
  5
9A00
330
9867
100
AcDbEntity
  8
1
  6
Continuous
100
AcDbCircle
 10
228.74017
 20
163.125
 30
0.0
 40
10.2
100
AcDbArc
 50
158.6497899999999
 51
201.3502059999999
  0
ARC
  5
9A01
330
9867
100
AcDbEntity
  8
1
  6
Continuous
100
AcDbCircle
 10
228.74017
 20
163.125
 30
0.0
 40
10.2
100
AcDbArc
 50
98.65019100000001
 51
141.350464
  0
ARC
  5
9A02
330
9867
100
AcDbEntity
  8
1
  6
Continuous
100
AcDbCircle
 10
228.74017
 20
163.125
 30
0.0
 40
7.0
100
AcDbArc
 50
89.99998900000001
 51
111.78679
  0
ARC
  5
9A03
330
9867
100
AcDbEntity
  8
1
  6
Continuous
100
AcDbCircle
 10
228.74017
 20
163.125
 30
0.0
 40
7.299999999999998
100
AcDbArc
 50
62.924928
 51
160.944979
  0
ARC
  5
9A04
330
9867
100
AcDbEntity
  8
1
  6
Continuous
100
AcDbCircle
 10
228.74017
 20
163.125
 30
0.0
 40
8.0
100
AcDbArc
 50
54.340913
 51
149.5983689999999
  0
ARC
  5
9A05
330
9867
100
AcDbEntity
  8
1
  6
Continuous
100
AcDbCircle
 10
228.74017
 20
163.125
 30
0.0
 40
8.0
100
AcDbArc
 50
210.4014809999999
 51
305.6590869999999
  0
ARC
  5
9A06
330
9867
100
AcDbEntity
  8
1
  6
Continuous
100
AcDbCircle
 10
228.74017
 20
163.125
 30
0.0
 40
7.299999999999998
100
AcDbArc
 50
199.05498
 51
297.0750719999998
  0
ARC
  5
9A07
330
9867
100
AcDbEntity
  8
1
  6
Continuous
100
AcDbCircle
 10
228.74017
 20
163.125
 30
0.0
 40
7.0
100
AcDbArc
 50
189.696282
 51
232.6168079999999
  0
ARC
  5
9A08
330
9867
100
AcDbEntity
  8
1
  6
Continuous
100
AcDbCircle
 10
228.74017
 20
163.125
 30
0.0
 40
7.0
100
AcDbArc
 50
127.3831919999998
 51
170.3036769999999
  0
ARC
  5
9A09
330
9867
100
AcDbEntity
  8
1
  6
Continuous
100
AcDbCircle
 10
228.74017
 20
163.125
 30
0.0
 40
7.0
100
AcDbArc
 50
248.21321
 51
269.99997
  0
ARC
  5
9A0A
330
9867
100
AcDbEntity
  8
1
  6
Continuous
100
AcDbCircle
 10
228.74017
 20
163.125
 30
0.0
 40
2.5
100
AcDbArc
 50
36.86989699999998
 51
143.130097
  0
ARC
  5
9A0B
330
9867
100
AcDbEntity
  8
2
  6
Continuous
100
AcDbCircle
 10
228.74017
 20
163.125
 30
0.0
 40
2.5
100
AcDbArc
 50
143.130097
 51
216.869899
  0
ARC
  5
9A0C
330
9867
100
AcDbEntity
  8
1
  6
Continuous
100
AcDbCircle
 10
228.74017
 20
163.125
 30
0.0
 40
2.5
100
AcDbArc
 50
216.8699029999999
 51
323.1301029999999
  0
ARC
  5
9A0D
330
9867
100
AcDbEntity
  8
2
  6
Continuous
100
AcDbCircle
 10
228.74017
 20
163.125
 30
0.0
 40
2.5
100
AcDbArc
 50
323.1301029999999
 51
36.86989699999998
  0
ARC
  5
9A0E
330
9867
100
AcDbEntity
  8
1
  6
Continuous
100
AcDbCircle
 10
228.74017
 20
163.125
 30
0.0
 40
2.066999999999997
100
AcDbArc
 50
345.3720009999998
 51
14.627999
  0
ARC
  5
9A0F
330
9867
100
AcDbEntity
  8
1
  6
Continuous
100
AcDbCircle
 10
228.74017
 20
163.125
 30
0.0
 40
2.066999999999997
100
AcDbArc
 50
165.371994
 51
194.628003
  0
ARC
  5
9A10
330
9867
100
AcDbEntity
  8
2
  6
Continuous
100
AcDbCircle
 10
228.74017
 20
163.125
 30
0.0
 40
2.066999999999997
100
AcDbArc
 50
14.627999
 51
165.371994
  0
ARC
  5
9A11
330
9867
100
AcDbEntity
  8
2
  6
Continuous
100
AcDbCircle
 10
228.74017
 20
163.125
 30
0.0
 40
2.066999999999997
100
AcDbArc
 50
194.628006
 51
345.3720009999998
  0
ARC
  5
9A12
330
9867
100
AcDbEntity
  8
2
  6
Continuous
100
AcDbCircle
 10
228.74017
 20
163.125
 30
0.0
 40
7.458499999999999
100
AcDbArc
 50
60.632122
 51
157.6861869999999
  0
ARC
  5
9A13
330
9867
100
AcDbEntity
  8
2
  6
Continuous
100
AcDbCircle
 10
228.74017
 20
163.125
 30
0.0
 40
7.458499999999999
100
AcDbArc
 50
202.3138129999999
 51
299.3678779999999
  0
ARC
  5
9A14
330
9867
100
AcDbEntity
  8
1
  6
Continuous
100
AcDbCircle
 10
228.74017
 20
163.125
 30
0.0
 40
7.458499999999999
100
AcDbArc
 50
157.6861869999999
 51
202.313823
  0
ARC
  5
9A15
330
9867
100
AcDbEntity
  8
2
  6
Continuous
100
AcDbCircle
 10
228.74017
 20
163.125
 30
0.0
 40
8.0
100
AcDbArc
 50
149.5983689999999
 51
210.401628
  0
ARC
  5
9A16
330
9867
100
AcDbEntity
  8
1
  6
Continuous
100
AcDbCircle
 10
228.74017
 20
84.77669500000002
 30
0.0
 40
7.0
100
AcDbArc
 50
44.415221
 51
135.5846919999999
  0
ARC
  5
9A17
330
9867
100
AcDbEntity
  8
1
  6
Continuous
100
AcDbCircle
 10
232.740185
 20
91.274902
 30
0.0
 40
1.0
100
AcDbArc
 50
0.000022
 51
48.18971300000002
  0
ARC
  5
9A18
330
9867
100
AcDbEntity
  8
1
  6
Continuous
100
AcDbCircle
 10
224.74017
 20
91.274902
 30
0.0
 40
1.0
100
AcDbArc
 50
131.810302
 51
180.000005
  0
ARC
  5
9A19
330
9867
100
AcDbEntity
  8
1
  6
Continuous
100
AcDbCircle
 10
235.240185
 20
80.302704
 30
0.0
 40
0.5
100
AcDbArc
 50
0.000022
 51
90.00000900000001
  0
ARC
  5
9A1A
330
9867
100
AcDbEntity
  8
1
  6
Continuous
100
AcDbCircle
 10
222.24017
 20
80.302704
 30
0.0
 40
0.5
100
AcDbArc
 50
90.00000900000001
 51
180.000005
  0
ARC
  5
9A1B
330
9867
100
AcDbEntity
  8
1
  6
Continuous
100
AcDbCircle
 10
224.74017
 20
42.67479699999999
 30
0.0
 40
3.0
100
AcDbArc
 50
179.9999909999999
 51
270.0000279999998
  0
ARC
  5
9A1C
330
9867
100
AcDbEntity
  8
1
  6
Continuous
100
AcDbCircle
 10
232.740185
 20
42.67479699999999
 30
0.0
 40
3.0
100
AcDbArc
 50
270.0000249999998
 51
0.000022
  0
CIRCLE
  5
9A1D
330
9867
100
AcDbEntity
  8
1
  6
Continuous
100
AcDbCircle
 10
228.74017
 20
45.68800399999999
 30
0.0
 40
3.0
  0
ARC
  5
9A1E
330
9867
100
AcDbEntity
  8
1
  6
Continuous
100
AcDbCircle
 10
228.74017
 20
47.68800399999999
 30
0.0
 40
3.0
100
AcDbArc
 50
199.4711979999999
 51
340.5287749999998
  0
ARC
  5
9A1F
330
9867
100
AcDbEntity
  8
1
  6
Continuous
100
AcDbCircle
 10
97.377377
 20
93.50270100000001
 30
0.0
 40
0.3
100
AcDbArc
 50
89.99998900000001
 51
179.999978
  0
ARC
  5
9A20
330
9867
100
AcDbEntity
  8
1
  6
Continuous
100
AcDbCircle
 10
228.74017
 20
86.80270400000003
 30
0.0
 40
7.0
100
AcDbArc
 50
48.18971300000002
 51
131.810302
  0
ARC
  5
9A21
330
9867
100
AcDbEntity
  8
1
  6
Continuous
100
AcDbCircle
 10
38.424374
 20
63.190521
 30
0.0
 40
1.334408999999998
100
AcDbArc
 50
48.93209999999999
 51
131.067901
  0
ARC
  5
9A22
330
9867
100
AcDbEntity
  8
1
  6
Continuous
100
AcDbCircle
 10
38.176549
 20
63.47493
 30
0.0
 40
0.957174
100
AcDbArc
 50
131.067901
 51
199.1927959999999
  0
ARC
  5
9A23
330
9867
100
AcDbEntity
  8
1
  6
Continuous
100
AcDbCircle
 10
38.67219999999999
 20
63.47493
 30
0.0
 40
0.957174
100
AcDbArc
 50
340.8071969999999
 51
48.93209999999999
  0
ARC
  5
9A24
330
9867
100
AcDbEntity
  8
1
  6
Continuous
100
AcDbCircle
 10
38.970395
 20
63.37113200000001
 30
0.0
 40
0.6414290000000003
100
AcDbArc
 50
275.65924
 51
340.8071969999999
  0
ARC
  5
9A25
330
9867
100
AcDbEntity
  8
1
  6
Continuous
100
AcDbCircle
 10
37.87835399999997
 20
63.37113200000001
 30
0.0
 40
0.6414290000000003
100
AcDbArc
 50
199.192799
 51
264.340755
  0
ARC
  5
9A26
330
9867
100
AcDbEntity
  8
1
  6
Continuous
100
AcDbCircle
 10
39.00501699999999
 20
57.220592
 30
0.0
 40
0.6414290000000003
100
AcDbArc
 50
275.65924
 51
340.8071969999999
  0
ARC
  5
9A27
330
9867
100
AcDbEntity
  8
1
  6
Continuous
100
AcDbCircle
 10
38.70682199999999
 20
57.32439
 30
0.0
 40
0.957174
100
AcDbArc
 50
340.8071969999999
 51
48.93209999999999
  0
ARC
  5
9A28
330
9867
100
AcDbEntity
  8
1
  6
Continuous
100
AcDbCircle
 10
38.458996
 20
57.039982
 30
0.0
 40
1.334408999999998
100
AcDbArc
 50
48.93209999999999
 51
131.067901
  0
ARC
  5
9A29
330
9867
100
AcDbEntity
  8
1
  6
Continuous
100
AcDbCircle
 10
38.211171
 20
57.32439
 30
0.0
 40
0.957174
100
AcDbArc
 50
131.067901
 51
186.591397
  0
ARC
  5
9A2A
330
9867
100
AcDbEntity
  8
1
  6
Continuous
100
AcDbCircle
 10
38.154374
 20
57.317829
 30
0.0
 40
0.9
100
AcDbArc
 50
179.582189
 51
281.6541069999999
  0
ARC
  5
9A2B
330
9867
100
AcDbEntity
  8
1
  6
Continuous
100
AcDbCircle
 10
38.43112199999998
 20
65.813812
 30
0.0
 40
1.334408999999998
100
AcDbArc
 50
48.93209999999999
 51
131.067901
  0
ARC
  5
9A2C
330
9867
100
AcDbEntity
  8
1
  6
Continuous
100
AcDbCircle
 10
38.43112199999998
 20
66.38262899999999
 30
0.0
 40
1.334408999999998
100
AcDbArc
 50
228.9320989999999
 51
311.067896
  0
ARC
  5
9A2D
330
9867
100
AcDbEntity
  8
1
  6
Continuous
100
AcDbCircle
 10
38.18329699999999
 20
66.09822099999999
 30
0.0
 40
0.957174
100
AcDbArc
 50
131.067901
 51
228.932109
  0
ARC
  5
9A2E
330
9867
100
AcDbEntity
  8
1
  6
Continuous
100
AcDbCircle
 10
38.678948
 20
66.09822099999999
 30
0.0
 40
0.957174
100
AcDbArc
 50
311.067896
 51
48.93209999999999
  0
ARC
  5
9A2F
330
9867
100
AcDbEntity
  8
1
  6
Continuous
100
AcDbCircle
 10
35.074395
 20
61.89061699999999
 30
0.0
 40
0.7817210000000001
100
AcDbArc
 50
222.8696229999999
 51
226.2751409999999
  0
ARC
  5
9A30
330
9867
100
AcDbEntity
  8
1
  6
Continuous
100
AcDbCircle
 10
35.074395
 20
61.909748
 30
0.0
 40
0.7817210000000001
100
AcDbArc
 50
222.8696229999999
 51
226.2751409999999
  0
ARC
  5
9A31
330
9867
100
AcDbEntity
  8
1
  6
Continuous
100
AcDbCircle
 10
34.885956
 20
61.939751
 30
0.0
 40
0.7817210000000001
100
AcDbArc
 50
317.130372
 51
42.869624
  0
ARC
  5
9A32
330
9867
100
AcDbEntity
  8
1
  6
Continuous
100
AcDbCircle
 10
34.980176
 20
61.85228699999999
 30
0.0
 40
0.6531630000000001
100
AcDbArc
 50
222.8696229999999
 51
317.130372
  0
ARC
  5
9A33
330
9867
100
AcDbEntity
  8
1
  6
Continuous
100
AcDbCircle
 10
34.980176
 20
62.02721
 30
0.0
 40
0.6531630000000001
100
AcDbArc
 50
42.869624
 51
114.2768169999998
  0
ARC
  5
9A34
330
9867
100
AcDbEntity
  8
1
  6
Continuous
100
AcDbCircle
 10
35.074395
 20
57.533348
 30
0.0
 40
0.7817210000000001
100
AcDbArc
 50
212.849694
 51
222.8696229999999
  0
ARC
  5
9A35
330
9867
100
AcDbEntity
  8
1
  6
Continuous
100
AcDbCircle
 10
34.885956
 20
57.563347
 30
0.0
 40
0.7817210000000001
100
AcDbArc
 50
317.130372
 51
42.869624
  0
ARC
  5
9A36
330
9867
100
AcDbEntity
  8
1
  6
Continuous
100
AcDbCircle
 10
34.980176
 20
57.475883
 30
0.0
 40
0.6531630000000001
100
AcDbArc
 50
222.8696229999999
 51
317.130372
  0
ARC
  5
9A37
330
9867
100
AcDbEntity
  8
1
  6
Continuous
100
AcDbCircle
 10
34.980176
 20
57.65081
 30
0.0
 40
0.6531630000000001
100
AcDbArc
 50
42.869624
 51
108.207661
  0
ARC
  5
9A38
330
9867
100
AcDbEntity
  8
1
  6
Continuous
100
AcDbCircle
 10
33.949395
 20
57.563347
 30
0.0
 40
0.7817210000000001
100
AcDbArc
 50
137.130377
 51
222.869633
  0
ARC
  5
9A39
330
9867
100
AcDbEntity
  8
1
  6
Continuous
100
AcDbCircle
 10
33.760956
 20
57.533348
 30
0.0
 40
0.7817210000000001
100
AcDbArc
 50
317.130372
 51
327.1503009999999
  0
ARC
  5
9A3A
330
9867
100
AcDbEntity
  8
1
  6
Continuous
100
AcDbCircle
 10
33.855176
 20
57.475883
 30
0.0
 40
0.6531630000000001
100
AcDbArc
 50
222.8696229999999
 51
317.130372
  0
ARC
  5
9A3B
330
9867
100
AcDbEntity
  8
1
  6
Continuous
100
AcDbCircle
 10
33.855176
 20
57.65081
 30
0.0
 40
0.6531630000000001
100
AcDbArc
 50
103.0142239999997
 51
137.130377
  0
ARC
  5
9A3C
330
9867
100
AcDbEntity
  8
1
  6
Continuous
100
AcDbCircle
 10
34.902546
 20
59.71979499999999
 30
0.0
 40
0.7829229999999999
100
AcDbArc
 50
45.9275
 51
134.0725019999999
  0
ARC
  5
9A3D
330
9867
100
AcDbEntity
  8
1
  6
Continuous
100
AcDbCircle
 10
34.902546
 20
59.80439399999998
 30
0.0
 40
0.7829229999999999
100
AcDbArc
 50
225.9274979999999
 51
314.072503
  0
ARC
  5
9A3E
330
9867
100
AcDbEntity
  8
1
  6
Continuous
100
AcDbCircle
 10
34.861596
 20
59.762093
 30
0.0
 40
0.72405
100
AcDbArc
 50
134.0725019999999
 51
225.927495
  0
ARC
  5
9A3F
330
9867
100
AcDbEntity
  8
1
  6
Continuous
100
AcDbCircle
 10
34.943497
 20
59.762093
 30
0.0
 40
0.72405
100
AcDbArc
 50
314.072503
 51
45.9275
  0
ARC
  5
9A40
330
9867
100
AcDbEntity
  8
1
  6
Continuous
100
AcDbCircle
 10
33.932805
 20
59.71979499999999
 30
0.0
 40
0.7829229999999999
100
AcDbArc
 50
109.349553
 51
134.0725019999999
  0
ARC
  5
9A41
330
9867
100
AcDbEntity
  8
1
  6
Continuous
100
AcDbCircle
 10
33.932805
 20
59.80439399999998
 30
0.0
 40
0.7829229999999999
100
AcDbArc
 50
225.9274979999999
 51
269.9999969999999
  0
ARC
  5
9A42
330
9867
100
AcDbEntity
  8
1
  6
Continuous
100
AcDbCircle
 10
33.89185399999998
 20
59.762093
 30
0.0
 40
0.72405
100
AcDbArc
 50
134.0725019999999
 51
225.927495
  0
ARC
  5
9A43
330
9867
100
AcDbEntity
  8
1
  6
Continuous
100
AcDbCircle
 10
21.41766
 20
163.125
 30
0.0
 40
8.0
100
AcDbArc
 50
125.659102
 51
234.340922
  0
CIRCLE
  5
9A44
330
9867
100
AcDbEntity
  8
1
  6
Continuous
100
AcDbCircle
 10
36.417676
 20
163.125
 30
0.0
 40
10.2
  0
ARC
  5
9A45
330
9867
100
AcDbEntity
  8
1
  6
Continuous
100
AcDbCircle
 10
40.417676
 20
69.07069399999999
 30
0.0
 40
1.0
100
AcDbArc
 50
0.0
 51
90.0
  0
ARC
  5
9A46
330
9867
100
AcDbEntity
  8
1
  6
Continuous
100
AcDbCircle
 10
40.417676
 20
52.018097
 30
0.0
 40
1.0
100
AcDbArc
 50
270.0
 51
0.0
  0
ARC
  5
9A47
330
9867
100
AcDbEntity
  8
1
  6
Continuous
100
AcDbCircle
 10
32.417668
 20
52.018097
 30
0.0
 40
1.0
100
AcDbArc
 50
180.0
 51
270.0
  0
ARC
  5
9A48
330
9867
100
AcDbEntity
  8
1
  6
Continuous
100
AcDbCircle
 10
32.417668
 20
69.07069399999999
 30
0.0
 40
1.0
100
AcDbArc
 50
90.0
 51
180.0
  0
ARC
  5
9A49
330
9867
100
AcDbEntity
  8
5
  6
PHANTOM
100
AcDbCircle
 10
33.81295
 20
148.3528689999999
 30
0.0
 40
8.0
100
AcDbArc
 50
205.659078
 51
314.3408979999999
  0
LINE
  5
9A4A
330
9867
100
AcDbEntity
  8
5
  6
PHANTOM
100
AcDbLine
 10
39.404358
 20
142.631311
 30
0.0
 11
41.45393699999997
 21
154.2550469999999
 31
0.0
  0
LINE
  5
9A4B
330
9867
100
AcDbEntity
  8
5
  6
PHANTOM
100
AcDbLine
 10
26.60185699999999
 20
144.8887379999999
 30
0.0
 11
28.651436
 21
156.5124739999999
 31
0.0
  0
LINE
  5
9A4C
330
9867
100
AcDbEntity
  8
4
  6
CENTER
100
AcDbLine
 10
31.902549
 20
137.518443
 30
0.0
 11
38.745412
 21
176.3262489999999
 31
0.0
  0
ENDSEC
  0
SECTION
  2
OBJECTS
  0
DICTIONARY
  5
9855
330
0
100
AcDbDictionary
281
     1
  3
ACAD_CIP_PREVIOUS_PRODUCT_INFO
350
9AB0
  3
ACAD_COLOR
350
9A92
  3
ACAD_DETAILVIEWSTYLE
350
9AAB
  3
ACAD_GROUP
350
9856
  3
ACAD_LAYOUT
350
9862
  3
ACAD_MATERIAL
350
9A60
  3
ACAD_MLEADERSTYLE
350
9AA7
  3
ACAD_MLINESTYLE
350
985F
  3
ACAD_PLOTSETTINGS
350
9861
  3
ACAD_PLOTSTYLENAME
350
9A5E
  3
ACAD_SCALELIST
350
9A95
  3
ACAD_SECTIONVIEWSTYLE
350
9AA9
  3
ACAD_TABLESTYLE
350
9A93
  3
ACAD_VISUALSTYLE
350
9A79
  3
ACDB_RECOMPOSE_DATA
350
9ACE
  3
AcDbVariableDictionary
350
9AC1
  3
DWGPROPS
350
9ACF
  0
DICTIONARY
  5
9AB1
330
9859
100
AcDbDictionary
280
     1
281
     1
  3
ADSK_XREC_LAYER_RECONCILED
360
9AB2
  0
DICTIONARY
  5
9AB3
330
986F
100
AcDbDictionary
280
     1
281
     1
  3
ADSK_XREC_LAYER_RECONCILED
360
9AB4
  0
DICTIONARY
  5
9AB5
330
9870
100
AcDbDictionary
280
     1
281
     1
  3
ADSK_XREC_LAYER_RECONCILED
360
9AB6
  0
DICTIONARY
  5
9AB7
330
9871
100
AcDbDictionary
280
     1
281
     1
  3
ADSK_XREC_LAYER_RECONCILED
360
9AB8
  0
DICTIONARY
  5
9AB9
330
9872
100
AcDbDictionary
280
     1
281
     1
  3
ADSK_XREC_LAYER_RECONCILED
360
9ABA
  0
DICTIONARY
  5
9ABB
330
9873
100
AcDbDictionary
280
     1
281
     1
  3
ADSK_XREC_LAYER_RECONCILED
360
9ABC
  0
DICTIONARY
  5
9ABD
330
9874
100
AcDbDictionary
280
     1
281
     1
  3
ADSK_XREC_LAYER_RECONCILED
360
9ABE
  0
DICTIONARY
  5
9ABF
330
9875
100
AcDbDictionary
280
     1
281
     1
  3
ADSK_XREC_LAYER_RECONCILED
360
9AC0
  0
DICTIONARY
  5
9A59
330
9867
100
AcDbDictionary
281
     1
  3
ACAD_LAYOUTSELFREF
350
9A5A
  0
DICTIONARY
  5
9A57
330
9863
100
AcDbDictionary
281
     1
  3
ACAD_LAYOUTSELFREF
350
9A58
  0
XRECORD
  5
9AB0
102
{ACAD_REACTORS
330
9855
102
}
330
9855
100
AcDbXrecord
280
     1
300
ACDLT
300
2014
300
ACDLT_F_S
  0
DICTIONARY
  5
9A92
102
{ACAD_REACTORS
330
9855
102
}
330
9855
100
AcDbDictionary
281
     1
  0
DICTIONARY
  5
9AAB
102
{ACAD_REACTORS
330
9855
102
}
330
9855
100
AcDbDictionary
281
     1
  3
Imperial24
350
9AAC
  0
DICTIONARY
  5
9856
102
{ACAD_REACTORS
330
9855
102
}
330
9855
100
AcDbDictionary
281
     1
  0
DICTIONARY
  5
9862
102
{ACAD_REACTORS
330
9855
102
}
330
9855
100
AcDbDictionary
281
     1
  3
Model
350
9AAD
  3
レイアウト1
350
9AAE
  0
DICTIONARY
  5
9A60
102
{ACAD_REACTORS
330
9855
102
}
330
9855
100
AcDbDictionary
281
     1
  3
ByBlock
350
9A69
  3
ByLayer
350
9A61
  3
Global
350
9A71
  0
DICTIONARY
  5
9AA7
102
{ACAD_REACTORS
330
9855
102
}
330
9855
100
AcDbDictionary
281
     1
  3
Standard
350
9AA8
  0
DICTIONARY
  5
985F
102
{ACAD_REACTORS
330
9855
102
}
330
9855
100
AcDbDictionary
281
     1
  3
STANDARD
350
9860
  0
DICTIONARY
  5
9861
102
{ACAD_REACTORS
330
9855
102
}
330
9855
100
AcDbDictionary
281
     1
  0
ACDBDICTIONARYWDFLT
  5
9A5E
102
{ACAD_REACTORS
330
9855
102
}
330
9855
100
AcDbDictionary
281
     1
  3
Normal
350
9A5F
100
AcDbDictionaryWithDefault
340
9A5F
  0
DICTIONARY
  5
9A95
102
{ACAD_REACTORS
330
9855
102
}
330
9855
100
AcDbDictionary
281
     1
  3
A0
350
9A96
  3
A1
350
9A97
  3
A2
350
9A98
  3
A3
350
9A99
  3
A4
350
9A9A
  3
A5
350
9A9B
  3
A6
350
9A9C
  3
A7
350
9A9D
  3
A8
350
9A9E
  3
A9
350
9A9F
  3
B0
350
9AA0
  3
B1
350
9AA1
  3
B2
350
9AA2
  3
B3
350
9AA3
  3
B4
350
9AA4
  3
B5
350
9AA5
  3
B6
350
9AA6
  0
DICTIONARY
  5
9AA9
102
{ACAD_REACTORS
330
9855
102
}
330
9855
100
AcDbDictionary
281
     1
  3
Imperial24
350
9AAA
  0
DICTIONARY
  5
9A93
102
{ACAD_REACTORS
330
9855
102
}
330
9855
100
AcDbDictionary
281
     1
  3
Standard
350
9A94
  0
DICTIONARY
  5
9A79
102
{ACAD_REACTORS
330
9855
102
}
330
9855
100
AcDbDictionary
281
     1
  3
2dWireframe
350
9A7F
  3
Basic
350
9A7E
  3
Brighten
350
9A85
  3
ColorChange
350
9A89
  3
Conceptual
350
9A82
  3
Dim
350
9A84
  3
EdgeColorOff
350
9A91
  3
Facepattern
350
9A88
  3
Flat
350
9A7A
  3
FlatWithEdges
350
9A7B
  3
Gouraud
350
9A7C
  3
GouraudWithEdges
350
9A7D
  3
Hidden
350
9A81
  3
JitterOff
350
9A8F
  3
Linepattern
350
9A87
  3
OverhangOff
350
9A90
  3
Realistic
350
9A83
  3
Shaded
350
9A8E
  3
Shaded with edges
350
9A8D
  3
Shades of Gray
350
9A8A
  3
Sketchy
350
9A8B
  3
Thicken
350
9A86
  3
Wireframe
350
9A80
  3
X-Ray
350
9A8C
  0
XRECORD
  5
9ACE
102
{ACAD_REACTORS
330
9855
102
}
330
9855
100
AcDbXrecord
280
     1
 90
        1
330
9A94
  0
DICTIONARY
  5
9AC1
102
{ACAD_REACTORS
330
9855
102
}
330
9855
100
AcDbDictionary
281
     1
  3
CANNOSCALE
350
9AC6
  3
CMLEADERSTYLE
350
9AC3
  3
CTABLESTYLE
350
9AC2
  3
CVIEWDETAILSTYLE
350
9AC4
  3
CVIEWSECTIONSTYLE
350
9AC5
  3
DIMASSOC
350
9AC9
  3
INDEXCTL
350
9AC8
  3
SORTENTS
350
9AC7
  3
XCLIPFRAME
350
9ACA
  0
XRECORD
  5
9ACF
102
{ACAD_REACTORS
330
9855
102
}
330
9855
100
AcDbXrecord
280
     1
  1
DWGPROPS COOKIE
  2

  3

  4

  6

  7

  8
Yoshitsune
  9

300
=
301
=
302
=
303
=
304
=
305
=
306
=
307
=
308
=
309
=
 40
0.0000131018518519
 41
2450945.578400347
 42
2457192.601190614
  1

 90
        0
  0
XRECORD
  5
9AB2
102
{ACAD_REACTORS
330
9AB1
102
}
330
9AB1
100
AcDbXrecord
280
     1
290
     1
  0
XRECORD
  5
9AB4
102
{ACAD_REACTORS
330
9AB3
102
}
330
9AB3
100
AcDbXrecord
280
     1
290
     1
  0
XRECORD
  5
9AB6
102
{ACAD_REACTORS
330
9AB5
102
}
330
9AB5
100
AcDbXrecord
280
     1
290
     1
  0
XRECORD
  5
9AB8
102
{ACAD_REACTORS
330
9AB7
102
}
330
9AB7
100
AcDbXrecord
280
     1
290
     1
  0
XRECORD
  5
9ABA
102
{ACAD_REACTORS
330
9AB9
102
}
330
9AB9
100
AcDbXrecord
280
     1
290
     1
  0
XRECORD
  5
9ABC
102
{ACAD_REACTORS
330
9ABB
102
}
330
9ABB
100
AcDbXrecord
280
     1
290
     1
  0
XRECORD
  5
9ABE
102
{ACAD_REACTORS
330
9ABD
102
}
330
9ABD
100
AcDbXrecord
280
     1
290
     1
  0
XRECORD
  5
9AC0
102
{ACAD_REACTORS
330
9ABF
102
}
330
9ABF
100
AcDbXrecord
280
     1
290
     1
  0
XRECORD
  5
9A5A
102
{ACAD_REACTORS
330
9A59
102
}
330
9A59
100
AcDbXrecord
280
     1
340
9867
  0
XRECORD
  5
9A58
102
{ACAD_REACTORS
330
9A57
102
}
330
9A57
100
AcDbXrecord
280
     1
340
9863
  0
ACDBDETAILVIEWSTYLE
  5
9AAC
102
{ACAD_XDICTIONARY
360
9B07
102
}
102
{ACAD_REACTORS
330
9AAB
102
}
330
9AAB
100
AcDbModelDocViewStyle
 70
     0
  3
Imperial24
290
     0
100
AcDbDetailViewStyle
 70
     0
 71
     0
 90
        3
 71
     1
340
985A
 40
0.24
340
0
 40
0.24
300

 40
0.36
280
     3
 71
     2
340
985E
 90
       25
 71
     3
340
985A
 40
0.24
 90
        1
 40
0.75
 90
        1
300
%<\AcVar ViewType \f "%tc1">% %<\AcVar ViewDetailId>%\PSCALE %<\AcVar ViewScale \f "%sn">%
 71
     4
340
985E
 90
       25
340
985E
 90
       25
280
     0
  0
LAYOUT
  5
9AAD
102
{ACAD_XDICTIONARY
360
9B09
102
}
102
{ACAD_REACTORS
330
9862
102
}
330
9862
100
AcDbPlotSettings
  1

  2
Canon LBP9100C
  4

  6

 40
0.0
 41
0.0
 42
0.0
 43
0.0
 44
0.0
 45
0.0
 46
0.0
 47
0.0
 48
0.0
 49
0.0
140
0.0
141
0.0
142
1.0
143
1.0
 70
  1712
 72
     0
 73
     0
 74
     0
  7

 75
     0
147
1.0
148
0.0
149
0.0
100
AcDbLayout
  1
Model
 70
     1
 71
     0
 10
0.0
 20
0.0
 11
12.0
 21
9.0
 12
0.0
 22
0.0
 32
0.0
 14
0.0
 24
0.0
 34
0.0
 15
0.0
 25
0.0
 35
0.0
146
0.0
 13
0.0
 23
0.0
 33
0.0
 16
1.0
 26
0.0
 36
0.0
 17
0.0
 27
1.0
 37
0.0
 76
     0
330
9867
331
9A56
  0
LAYOUT
  5
9AAE
102
{ACAD_XDICTIONARY
360
9B0B
102
}
102
{ACAD_REACTORS
330
9862
102
}
330
9862
100
AcDbPlotSettings
  1

  2
Canon LBP9100C
  4

  6

 40
0.0
 41
0.0
 42
0.0
 43
0.0
 44
0.0
 45
0.0
 46
0.0
 47
0.0
 48
0.0
 49
0.0
140
0.0
141
0.0
142
1.0
143
1.0
 70
   688
 72
     0
 73
     0
 74
     5
  7

 75
    16
147
1.0
148
0.0
149
0.0
100
AcDbLayout
  1
レイアウト1
 70
     0
 71
     1
 10
0.0
 20
0.0
 11
420.0
 21
297.0
 12
0.0
 22
0.0
 32
0.0
 14
1.000000000000000E+20
 24
1.000000000000000E+20
 34
1.000000000000000E+20
 15
-1.000000000000000E+20
 25
-1.000000000000000E+20
 35
-1.000000000000000E+20
146
0.0
 13
0.0
 23
0.0
 33
0.0
 16
1.0
 26
0.0
 36
0.0
 17
0.0
 27
1.0
 37
0.0
 76
     0
330
9863
  0
MATERIAL
  5
9A69
102
{ACAD_XDICTIONARY
360
9A6A
102
}
102
{ACAD_REACTORS
330
9A60
102
}
330
9A60
100
AcDbMaterial
  1
ByBlock
 72
     0
 43
0.0208333333333333
 43
0.0
 43
0.0
 43
0.0
 43
0.0
 43
0.0208333333333333
 43
0.0
 43
0.0
 43
0.0
 43
0.0
 43
1.0
 43
0.0
 43
0.0
 43
0.0
 43
0.0
 43
1.0
 77
     0
 47
0.0208333333333333
 47
0.0
 47
0.0
 47
0.0
 47
0.0
 47
0.0208333333333333
 47
0.0
 47
0.0
 47
0.0
 47
0.0
 47
1.0
 47
0.0
 47
0.0
 47
0.0
 47
0.0
 47
1.0
171
     0
 49
0.0208333333333333
 49
0.0
 49
0.0
 49
0.0
 49
0.0
 49
0.0208333333333333
 49
0.0
 49
0.0
 49
0.0
 49
0.0
 49
1.0
 49
0.0
 49
0.0
 49
0.0
 49
0.0
 49
1.0
175
     0
142
0.0208333333333333
142
0.0
142
0.0
142
0.0
142
0.0
142
0.0208333333333333
142
0.0
142
0.0
142
0.0
142
0.0
142
1.0
142
0.0
142
0.0
142
0.0
142
0.0
142
1.0
179
     0
144
0.0208333333333333
144
0.0
144
0.0
144
0.0
144
0.0
144
0.0208333333333333
144
0.0
144
0.0
144
0.0
144
0.0
144
1.0
144
0.0
144
0.0
144
0.0
144
0.0
144
1.0
147
0.0208333333333333
147
0.0
147
0.0
147
0.0
147
0.0
147
0.0208333333333333
147
0.0
147
0.0
147
0.0
147
0.0
147
1.0
147
0.0
147
0.0
147
0.0
147
0.0
147
1.0
  0
MATERIAL
  5
9A61
102
{ACAD_XDICTIONARY
360
9A62
102
}
102
{ACAD_REACTORS
330
9A60
102
}
330
9A60
100
AcDbMaterial
  1
ByLayer
 72
     0
 43
0.0208333333333333
 43
0.0
 43
0.0
 43
0.0
 43
0.0
 43
0.0208333333333333
 43
0.0
 43
0.0
 43
0.0
 43
0.0
 43
1.0
 43
0.0
 43
0.0
 43
0.0
 43
0.0
 43
1.0
 77
     0
 47
0.0208333333333333
 47
0.0
 47
0.0
 47
0.0
 47
0.0
 47
0.0208333333333333
 47
0.0
 47
0.0
 47
0.0
 47
0.0
 47
1.0
 47
0.0
 47
0.0
 47
0.0
 47
0.0
 47
1.0
171
     0
 49
0.0208333333333333
 49
0.0
 49
0.0
 49
0.0
 49
0.0
 49
0.0208333333333333
 49
0.0
 49
0.0
 49
0.0
 49
0.0
 49
1.0
 49
0.0
 49
0.0
 49
0.0
 49
0.0
 49
1.0
175
     0
142
0.0208333333333333
142
0.0
142
0.0
142
0.0
142
0.0
142
0.0208333333333333
142
0.0
142
0.0
142
0.0
142
0.0
142
1.0
142
0.0
142
0.0
142
0.0
142
0.0
142
1.0
179
     0
144
0.0208333333333333
144
0.0
144
0.0
144
0.0
144
0.0
144
0.0208333333333333
144
0.0
144
0.0
144
0.0
144
0.0
144
1.0
144
0.0
144
0.0
144
0.0
144
0.0
144
1.0
147
0.0208333333333333
147
0.0
147
0.0
147
0.0
147
0.0
147
0.0208333333333333
147
0.0
147
0.0
147
0.0
147
0.0
147
1.0
147
0.0
147
0.0
147
0.0
147
0.0
147
1.0
  0
MATERIAL
  5
9A71
102
{ACAD_XDICTIONARY
360
9A72
102
}
102
{ACAD_REACTORS
330
9A60
102
}
330
9A60
100
AcDbMaterial
  1
Global
 72
     0
 43
0.0208333333333333
 43
0.0
 43
0.0
 43
0.0
 43
0.0
 43
0.0208333333333333
 43
0.0
 43
0.0
 43
0.0
 43
0.0
 43
1.0
 43
0.0
 43
0.0
 43
0.0
 43
0.0
 43
1.0
 77
     0
 47
0.0208333333333333
 47
0.0
 47
0.0
 47
0.0
 47
0.0
 47
0.0208333333333333
 47
0.0
 47
0.0
 47
0.0
 47
0.0
 47
1.0
 47
0.0
 47
0.0
 47
0.0
 47
0.0
 47
1.0
171
     0
 49
0.0208333333333333
 49
0.0
 49
0.0
 49
0.0
 49
0.0
 49
0.0208333333333333
 49
0.0
 49
0.0
 49
0.0
 49
0.0
 49
1.0
 49
0.0
 49
0.0
 49
0.0
 49
0.0
 49
1.0
175
     0
142
0.0208333333333333
142
0.0
142
0.0
142
0.0
142
0.0
142
0.0208333333333333
142
0.0
142
0.0
142
0.0
142
0.0
142
1.0
142
0.0
142
0.0
142
0.0
142
0.0
142
1.0
179
     0
144
0.0208333333333333
144
0.0
144
0.0
144
0.0
144
0.0
144
0.0208333333333333
144
0.0
144
0.0
144
0.0
144
0.0
144
1.0
144
0.0
144
0.0
144
0.0
144
0.0
144
1.0
147
0.0208333333333333
147
0.0
147
0.0
147
0.0
147
0.0
147
0.0208333333333333
147
0.0
147
0.0
147
0.0
147
0.0
147
1.0
147
0.0
147
0.0
147
0.0
147
0.0
147
1.0
  0
MLEADERSTYLE
  5
9AA8
102
{ACAD_REACTORS
330
9AA7
102
}
330
9AA7
100
AcDbMLeaderStyle
170
     2
171
     1
172
     0
 90
        2
 40
0.0
 41
0.0
173
     1
 91
-1056964608
340
985C
 92
       -2
290
     1
 42
0.09
291
     1
 43
0.36
  3
Standard
 44
0.18
300

342
985A
174
     1
178
     6
175
     1
176
     0
 93
-1056964608
 45
0.18
292
     0
297
     0
 46
0.18
 94
-1056964608
 47
1.0
 49
1.0
140
1.0
293
     1
141
0.0
294
     1
177
     0
142
1.0
295
     0
296
     0
143
0.125
1001
ACAD_MLEADERVER
1070
     2
  0
MLINESTYLE
  5
9860
102
{ACAD_REACTORS
330
985F
102
}
330
985F
100
AcDbMlineStyle
  2
STANDARD
 70
     0
  3

 62
   256
 51
90.0
 52
90.0
 71
     2
 49
0.5
 62
   256
  6
BYLAYER
 49
-0.5
 62
   256
  6
BYLAYER
  0
ACDBPLACEHOLDER
  5
9A5F
102
{ACAD_REACTORS
330
9A5E
102
}
330
9A5E
  0
SCALE
  5
9A96
102
{ACAD_REACTORS
330
9A95
102
}
330
9A95
100
AcDbScale
 70
     0
300
1:1
140
1.0
141
1.0
290
     1
  0
SCALE
  5
9A97
102
{ACAD_REACTORS
330
9A95
102
}
330
9A95
100
AcDbScale
 70
     0
300
1/128" = 1'-0"
140
0.0078125
141
12.0
290
     0
  0
SCALE
  5
9A98
102
{ACAD_REACTORS
330
9A95
102
}
330
9A95
100
AcDbScale
 70
     0
300
1/64" = 1'-0"
140
0.015625
141
12.0
290
     0
  0
SCALE
  5
9A99
102
{ACAD_REACTORS
330
9A95
102
}
330
9A95
100
AcDbScale
 70
     0
300
1/32" = 1'-0"
140
0.03125
141
12.0
290
     0
  0
SCALE
  5
9A9A
102
{ACAD_REACTORS
330
9A95
102
}
330
9A95
100
AcDbScale
 70
     0
300
1/16" = 1'-0"
140
0.0625
141
12.0
290
     0
  0
SCALE
  5
9A9B
102
{ACAD_REACTORS
330
9A95
102
}
330
9A95
100
AcDbScale
 70
     0
300
3/32" = 1'-0"
140
0.09375
141
12.0
290
     0
  0
SCALE
  5
9A9C
102
{ACAD_REACTORS
330
9A95
102
}
330
9A95
100
AcDbScale
 70
     0
300
1/8" = 1'-0"
140
0.125
141
12.0
290
     0
  0
SCALE
  5
9A9D
102
{ACAD_REACTORS
330
9A95
102
}
330
9A95
100
AcDbScale
 70
     0
300
3/16" = 1'-0"
140
0.1875
141
12.0
290
     0
  0
SCALE
  5
9A9E
102
{ACAD_REACTORS
330
9A95
102
}
330
9A95
100
AcDbScale
 70
     0
300
1/4" = 1'-0"
140
0.25
141
12.0
290
     0
  0
SCALE
  5
9A9F
102
{ACAD_REACTORS
330
9A95
102
}
330
9A95
100
AcDbScale
 70
     0
300
3/8" = 1'-0"
140
0.375
141
12.0
290
     0
  0
SCALE
  5
9AA0
102
{ACAD_REACTORS
330
9A95
102
}
330
9A95
100
AcDbScale
 70
     0
300
1/2" = 1'-0"
140
0.5
141
12.0
290
     0
  0
SCALE
  5
9AA1
102
{ACAD_REACTORS
330
9A95
102
}
330
9A95
100
AcDbScale
 70
     0
300
3/4" = 1'-0"
140
0.75
141
12.0
290
     0
  0
SCALE
  5
9AA2
102
{ACAD_REACTORS
330
9A95
102
}
330
9A95
100
AcDbScale
 70
     0
300
1" = 1'-0"
140
1.0
141
12.0
290
     0
  0
SCALE
  5
9AA3
102
{ACAD_REACTORS
330
9A95
102
}
330
9A95
100
AcDbScale
 70
     0
300
1-1/2" = 1'-0"
140
1.5
141
12.0
290
     0
  0
SCALE
  5
9AA4
102
{ACAD_REACTORS
330
9A95
102
}
330
9A95
100
AcDbScale
 70
     0
300
3" = 1'-0"
140
3.0
141
12.0
290
     0
  0
SCALE
  5
9AA5
102
{ACAD_REACTORS
330
9A95
102
}
330
9A95
100
AcDbScale
 70
     0
300
6" = 1'-0"
140
6.0
141
12.0
290
     0
  0
SCALE
  5
9AA6
102
{ACAD_REACTORS
330
9A95
102
}
330
9A95
100
AcDbScale
 70
     0
300
1'-0" = 1'-0"
140
12.0
141
12.0
290
     0
  0
ACDBSECTIONVIEWSTYLE
  5
9AAA
102
{ACAD_XDICTIONARY
360
9B05
102
}
102
{ACAD_REACTORS
330
9AA9
102
}
330
9AA9
100
AcDbModelDocViewStyle
 70
     0
  3
Imperial24
290
     0
100
AcDbSectionViewStyle
 70
     0
 71
     0
 90
       78
 71
     1
340
985A
 40
0.24
340
0
340
0
 40
0.24
300
I, O, Q, S, X, Z
 40
0.48
 90
        3
 40
0.18
 90
        1
 71
     2
340
985E
 90
       25
340
985E
 90
       50
 40
0.24
 40
0.0
 40
0.24
 71
     3
340
985A
 40
0.24
 90
        1
 40
0.75
 90
        1
300
%<\AcVar ViewType \f "%tc1">% %<\AcVar ViewSectionStartId>%-%<\AcVar ViewSectionEndId>%\PSCALE %<\AcVar ViewScale \f "%sn">%
 71
     4
300
ANSI31
 40
1.0
 90
        0
290
     0
290
     0
 90
        6
 40
0.0
 40
1.570796326794896
 40
0.2617993877991494
 40
1.308996938995747
 40
-0.2617993877991494
 40
1.832595714594046
  0
TABLESTYLE
  5
9A94
102
{ACAD_XDICTIONARY
360
9ACC
102
}
102
{ACAD_REACTORS
330
9A93
102
}
330
9A93
100
AcDbTableStyle
  3
Standard
 70
     0
 71
     0
 40
0.06
 41
0.06
280
     0
281
     0
  7
STANDARD
140
0.18
170
     2
 62
     0
 63
     7
283
     0
274
    -2
284
     1
 64
     0
275
    -2
285
     1
 65
     0
276
    -2
286
     1
 66
     0
277
    -2
287
     1
 67
     0
278
    -2
288
     1
 68
     0
279
    -2
289
     1
 69
     0
  7
STANDARD
140
0.25
170
     5
 62
     0
 63
     7
283
     0
274
    -2
284
     1
 64
     0
275
    -2
285
     1
 65
     0
276
    -2
286
     1
 66
     0
277
    -2
287
     1
 67
     0
278
    -2
288
     1
 68
     0
279
    -2
289
     1
 69
     0
  7
STANDARD
140
0.18
170
     5
 62
     0
 63
     7
283
     0
274
    -2
284
     1
 64
     0
275
    -2
285
     1
 65
     0
276
    -2
286
     1
 66
     0
277
    -2
287
     1
 67
     0
278
    -2
288
     1
 68
     0
279
    -2
289
     1
 69
     0
  0
VISUALSTYLE
  5
9A7F
102
{ACAD_XDICTIONARY
360
9ADD
102
}
102
{ACAD_REACTORS
330
9A79
102
}
330
9A79
100
AcDbVisualStyle
  2
2dWireframe
 70
     4
 71
     0
 72
     2
 73
     0
 90
        0
 40
-0.6
 41
-30.0
 62
     5
 63
     7
 74
     1
 91
        4
 64
     7
 65
   257
 75
     1
175
     1
 42
1.0
 92
        0
 66
   257
 43
1.0
 76
     1
 77
     6
 78
     2
 67
     7
 79
     5
170
     0
171
     0
290
     0
174
     0
 93
        1
 44
0.0
173
     0
291
     0
 45
0.0
1001
ACAD
1000
AcDbSavedByObjectVersion
1070
     0
  0
VISUALSTYLE
  5
9A7E
102
{ACAD_XDICTIONARY
360
9ADB
102
}
102
{ACAD_REACTORS
330
9A79
102
}
330
9A79
100
AcDbVisualStyle
  2
Basic
 70
     7
 71
     1
 72
     0
 73
     1
 90
        0
 40
-0.6
 41
-30.0
 62
     5
 63
     7
 74
     0
 91
        4
 64
     7
 65
   257
 75
     1
175
     1
 42
1.0
 92
        8
 66
     7
 43
1.0
 76
     1
 77
     6
 78
     2
 67
     7
 79
     5
170
     0
171
     0
290
     0
174
     0
 93
        1
 44
0.0
173
     0
291
     1
 45
0.0
1001
ACAD
1000
AcDbSavedByObjectVersion
1070
     0
  0
VISUALSTYLE
  5
9A85
102
{ACAD_XDICTIONARY
360
9AE9
102
}
102
{ACAD_REACTORS
330
9A79
102
}
330
9A79
100
AcDbVisualStyle
  2
Brighten
 70
    12
 71
     2
 72
     2
 73
     0
 90
        0
 40
-0.6
 41
-30.0
 62
     5
 63
     7
 74
     1
 91
        4
 64
     7
 65
   257
 75
     1
175
     1
 42
1.0
 92
        8
 66
     7
 43
1.0
 76
     1
 77
     6
 78
     2
 67
     7
 79
     5
170
     0
171
     0
290
     0
174
     0
 93
        1
 44
50.0
173
     0
291
     1
 45
0.0
1001
ACAD
1000
AcDbSavedByObjectVersion
1070
     0
  0
VISUALSTYLE
  5
9A89
102
{ACAD_XDICTIONARY
360
9AF1
102
}
102
{ACAD_REACTORS
330
9A79
102
}
330
9A79
100
AcDbVisualStyle
  2
ColorChange
 70
    16
 71
     2
 72
     2
 73
     3
 90
        0
 40
-0.6
 41
-30.0
 62
     5
 63
     8
 74
     1
 91
        4
 64
     7
 65
   257
 75
     1
175
     1
 42
1.0
 92
        8
 66
     8
 43
1.0
 76
     1
 77
     6
 78
     2
 67
     7
 79
     5
170
     0
171
     0
290
     0
174
     0
 93
        1
 44
0.0
173
     0
291
     1
 45
0.0
1001
ACAD
1000
AcDbSavedByObjectVersion
1070
     0
  0
VISUALSTYLE
  5
9A82
102
{ACAD_XDICTIONARY
360
9AE3
102
}
102
{ACAD_REACTORS
330
9A79
102
}
330
9A79
100
AcDbVisualStyle
  2
Conceptual
 70
     9
 71
     3
 72
     2
 73
     0
 90
        0
 40
-0.6
 41
-30.0
 62
     5
 63
     7
 74
     2
 91
        2
 64
     7
 65
   257
 75
     1
175
     1
 42
179.0
 92
        8
 66
     7
 43
1.0
 76
     1
 77
     6
 78
     2
 67
     7
 79
     3
170
     0
171
     0
290
     0
174
     0
 93
        1
 44
0.0
173
     0
291
     0
 45
0.0
1001
ACAD
1000
AcDbSavedByObjectVersion
1070
     0
  0
VISUALSTYLE
  5
9A84
102
{ACAD_XDICTIONARY
360
9AE7
102
}
102
{ACAD_REACTORS
330
9A79
102
}
330
9A79
100
AcDbVisualStyle
  2
Dim
 70
    11
 71
     2
 72
     2
 73
     0
 90
        0
 40
-0.6
 41
-30.0
 62
     5
 63
     7
 74
     1
 91
        4
 64
     7
 65
   257
 75
     1
175
     1
 42
1.0
 92
        8
 66
     7
 43
1.0
 76
     1
 77
     6
 78
     2
 67
     7
 79
     5
170
     0
171
     0
290
     0
174
     0
 93
        1
 44
-50.0
173
     0
291
     1
 45
0.0
1001
ACAD
1000
AcDbSavedByObjectVersion
1070
     0
  0
VISUALSTYLE
  5
9A91
102
{ACAD_XDICTIONARY
360
9B01
102
}
102
{ACAD_REACTORS
330
9A79
102
}
330
9A79
100
AcDbVisualStyle
  2
EdgeColorOff
 70
    22
 71
     2
 72
     2
 73
     0
 90
        0
 40
-0.6
 41
-30.0
 62
     5
 63
     7
 74
     1
 91
        4
 64
     7
 65
   257
 75
     1
175
     1
 42
1.0
 92
        8
 66
     7
 43
1.0
 76
     1
 77
     6
 78
     2
 67
     7
 79
     5
170
     0
171
     0
290
     0
174
     0
 93
        1
 44
0.0
173
     0
291
     1
 45
0.0
1001
ACAD
1000
AcDbSavedByObjectVersion
1070
     0
  0
VISUALSTYLE
  5
9A88
102
{ACAD_XDICTIONARY
360
9AEF
102
}
102
{ACAD_REACTORS
330
9A79
102
}
330
9A79
100
AcDbVisualStyle
  2
Facepattern
 70
    15
 71
     2
 72
     2
 73
     0
 90
        0
 40
-0.6
 41
-30.0
 62
     5
 63
     7
 74
     1
 91
        4
 64
     7
 65
   257
 75
     1
175
     1
 42
1.0
 92
        8
 66
     7
 43
1.0
 76
     1
 77
     6
 78
     2
 67
     7
 79
     5
170
     0
171
     0
290
     0
174
     0
 93
        1
 44
0.0
173
     0
291
     1
 45
0.0
1001
ACAD
1000
AcDbSavedByObjectVersion
1070
     0
  0
VISUALSTYLE
  5
9A7A
102
{ACAD_XDICTIONARY
360
9AD3
102
}
102
{ACAD_REACTORS
330
9A79
102
}
330
9A79
100
AcDbVisualStyle
  2
Flat
 70
     0
 71
     2
 72
     1
 73
     1
 90
        2
 40
-0.6
 41
30.0
 62
     5
 63
     7
 74
     0
 91
        0
 64
     7
 65
   257
 75
     1
175
     1
 42
1.0
 92
        8
 66
     7
 43
1.0
 76
     1
 77
     6
 78
     2
 67
     7
 79
     5
170
     0
171
     0
290
     0
174
     0
 93
       13
 44
0.0
173
     0
291
     1
 45
0.0
1001
ACAD
1000
AcDbSavedByObjectVersion
1070
     0
  0
VISUALSTYLE
  5
9A7B
102
{ACAD_XDICTIONARY
360
9AD5
102
}
102
{ACAD_REACTORS
330
9A79
102
}
330
9A79
100
AcDbVisualStyle
  2
FlatWithEdges
 70
     1
 71
     2
 72
     1
 73
     1
 90
        2
 40
-0.6
 41
30.0
 62
     5
 63
     7
 74
     1
 91
        0
 64
     7
 65
   257
 75
     1
175
     1
 42
1.0
 92
        0
 66
   257
 43
1.0
 76
     1
 77
     6
 78
     2
 67
     7
 79
     5
170
     0
171
     0
290
     0
174
     0
 93
       13
 44
0.0
173
     0
291
     1
 45
0.0
1001
ACAD
1000
AcDbSavedByObjectVersion
1070
     0
  0
VISUALSTYLE
  5
9A7C
102
{ACAD_XDICTIONARY
360
9AD7
102
}
102
{ACAD_REACTORS
330
9A79
102
}
330
9A79
100
AcDbVisualStyle
  2
Gouraud
 70
     2
 71
     2
 72
     2
 73
     1
 90
        2
 40
-0.6
 41
30.0
 62
     5
 63
     7
 74
     0
 91
        0
 64
     7
 65
   257
 75
     1
175
     1
 42
1.0
 92
        0
 66
     7
 43
1.0
 76
     1
 77
     6
 78
     2
 67
     7
 79
     5
170
     0
171
     0
290
     0
174
     0
 93
       13
 44
0.0
173
     0
291
     1
 45
0.0
1001
ACAD
1000
AcDbSavedByObjectVersion
1070
     0
  0
VISUALSTYLE
  5
9A7D
102
{ACAD_XDICTIONARY
360
9AD9
102
}
102
{ACAD_REACTORS
330
9A79
102
}
330
9A79
100
AcDbVisualStyle
  2
GouraudWithEdges
 70
     3
 71
     2
 72
     2
 73
     1
 90
        2
 40
-0.6
 41
30.0
 62
     5
 63
     7
 74
     1
 91
        0
 64
     7
 65
   257
 75
     1
175
     1
 42
1.0
 92
        0
 66
   257
 43
1.0
 76
     1
 77
     6
 78
     2
 67
     7
 79
     5
170
     0
171
     0
290
     0
174
     0
 93
       13
 44
0.0
173
     0
291
     1
 45
0.0
1001
ACAD
1000
AcDbSavedByObjectVersion
1070
     0
  0
VISUALSTYLE
  5
9A81
102
{ACAD_XDICTIONARY
360
9AE1
102
}
102
{ACAD_REACTORS
330
9A79
102
}
330
9A79
100
AcDbVisualStyle
  2
Hidden
 70
     6
 71
     1
 72
     2
 73
     2
 90
        0
 40
-0.6
 41
-30.0
 62
     5
 63
     7
 74
     2
 91
        2
 64
     7
 65
   257
 75
     2
175
     1
 42
40.0
 92
        0
 66
   257
 43
1.0
 76
     1
 77
     6
 78
     2
 67
     7
 79
     3
170
     0
171
     0
290
     0
174
     0
 93
        1
 44
0.0
173
     0
291
     0
 45
0.0
1001
ACAD
1000
AcDbSavedByObjectVersion
1070
     0
  0
VISUALSTYLE
  5
9A8F
102
{ACAD_XDICTIONARY
360
9AFD
102
}
102
{ACAD_REACTORS
330
9A79
102
}
330
9A79
100
AcDbVisualStyle
  2
JitterOff
 70
    20
 71
     2
 72
     2
 73
     0
 90
        0
 40
-0.6
 41
-30.0
 62
     5
 63
     7
 74
     1
 91
        4
 64
     7
 65
   257
 75
     1
175
     1
 42
1.0
 92
       10
 66
     7
 43
1.0
 76
     1
 77
     6
 78
     2
 67
     7
 79
     5
170
     0
171
     0
290
     0
174
     0
 93
        1
 44
0.0
173
     0
291
     1
 45
0.0
1001
ACAD
1000
AcDbSavedByObjectVersion
1070
     0
  0
VISUALSTYLE
  5
9A87
102
{ACAD_XDICTIONARY
360
9AED
102
}
102
{ACAD_REACTORS
330
9A79
102
}
330
9A79
100
AcDbVisualStyle
  2
Linepattern
 70
    14
 71
     2
 72
     2
 73
     0
 90
        0
 40
-0.6
 41
-30.0
 62
     5
 63
     7
 74
     1
 91
        4
 64
     7
 65
   257
 75
     7
175
     7
 42
1.0
 92
        8
 66
     7
 43
1.0
 76
     1
 77
     6
 78
     2
 67
     7
 79
     5
170
     0
171
     0
290
     0
174
     0
 93
        1
 44
0.0
173
     0
291
     1
 45
0.0
1001
ACAD
1000
AcDbSavedByObjectVersion
1070
     0
  0
VISUALSTYLE
  5
9A90
102
{ACAD_XDICTIONARY
360
9AFF
102
}
102
{ACAD_REACTORS
330
9A79
102
}
330
9A79
100
AcDbVisualStyle
  2
OverhangOff
 70
    21
 71
     2
 72
     2
 73
     0
 90
        0
 40
-0.6
 41
-30.0
 62
     5
 63
     7
 74
     1
 91
        4
 64
     7
 65
   257
 75
     1
175
     1
 42
1.0
 92
        9
 66
     7
 43
1.0
 76
     1
 77
     6
 78
     2
 67
     7
 79
     5
170
     0
171
     0
290
     0
174
     0
 93
        1
 44
0.0
173
     0
291
     1
 45
0.0
1001
ACAD
1000
AcDbSavedByObjectVersion
1070
     0
  0
VISUALSTYLE
  5
9A83
102
{ACAD_XDICTIONARY
360
9AE5
102
}
102
{ACAD_REACTORS
330
9A79
102
}
330
9A79
100
AcDbVisualStyle
  2
Realistic
 70
     8
 71
     2
 72
     3
 73
     0
 90
        2
 40
-0.6
 41
30.0
 62
     5
 63
     7
 74
     0
 91
        0
 64
     7
 65
   257
 75
     1
175
     1
 42
1.0
 92
        8
 66
   257
 43
1.0
 76
     1
 77
     6
 78
     2
 67
     7
 79
     3
170
     0
171
     0
290
     0
174
     0
 93
       13
 44
0.0
173
     0
291
     0
 45
0.0
1001
ACAD
1000
AcDbSavedByObjectVersion
1070
     0
  0
VISUALSTYLE
  5
9A8E
102
{ACAD_XDICTIONARY
360
9AFB
102
}
102
{ACAD_REACTORS
330
9A79
102
}
330
9A79
100
AcDbVisualStyle
  2
Shaded
 70
    27
 71
     2
 72
     2
 73
     1
 90
        2
 40
-0.6
 41
30.0
 62
     5
 63
     7
 74
     0
 91
        4
 64
     7
 65
   257
 75
     1
175
     1
 42
1.0
 92
        8
 66
   257
 43
1.0
 76
     1
 77
     6
 78
     2
 67
     8
 79
     3
170
     0
171
     0
290
     0
174
     0
 93
        5
 44
0.0
173
     0
291
     0
 45
0.0
1001
ACAD
1000
AcDbSavedByObjectVersion
1070
     0
  0
VISUALSTYLE
  5
9A8D
102
{ACAD_XDICTIONARY
360
9AF9
102
}
102
{ACAD_REACTORS
330
9A79
102
}
330
9A79
100
AcDbVisualStyle
  2
Shaded with edges
 70
    26
 71
     2
 72
     2
 73
     1
 90
        2
 40
-0.6
 41
30.0
 62
     5
 63
     7
 74
     1
 91
       10
 64
     7
 65
   257
 75
     2
175
     1
 42
1.0
 92
        8
 66
   257
 43
1.0
 76
     1
 77
     6
 78
     2
 67
     7
 79
     3
170
     0
171
     0
290
     0
174
     0
 93
        5
 44
0.0
173
     0
291
     0
 45
0.0
1001
ACAD
1000
AcDbSavedByObjectVersion
1070
     0
  0
VISUALSTYLE
  5
9A8A
102
{ACAD_XDICTIONARY
360
9AF3
102
}
102
{ACAD_REACTORS
330
9A79
102
}
330
9A79
100
AcDbVisualStyle
  2
Shades of Gray
 70
    23
 71
     2
 72
     2
 73
     3
 90
        0
 40
-0.6
 41
-30.0
 62
     5
 63
     7
 74
     2
 91
        2
 64
     7
 65
     7
 75
     1
175
     1
 42
40.0
 92
        8
 66
     7
 43
1.0
 76
     1
 77
     6
 78
     2
 67
     7
 79
     3
170
     0
171
     0
290
     0
174
     0
 93
        1
 44
0.0
173
     0
291
     0
 45
0.0
1001
ACAD
1000
AcDbSavedByObjectVersion
1070
     0
  0
VISUALSTYLE
  5
9A8B
102
{ACAD_XDICTIONARY
360
9AF5
102
}
102
{ACAD_REACTORS
330
9A79
102
}
330
9A79
100
AcDbVisualStyle
  2
Sketchy
 70
    24
 71
     1
 72
     2
 73
     2
 90
        0
 40
-0.6
 41
-30.0
 62
     5
 63
     7
 74
     2
 91
        2
 64
     7
 65
     7
 75
     1
175
     1
 42
40.0
 92
       11
 66
     7
 43
1.0
 76
     1
 77
     6
 78
     2
 67
     7
 79
     6
170
     0
171
     0
290
     0
174
     0
 93
        1
 44
0.0
173
     0
291
     0
 45
0.0
1001
ACAD
1000
AcDbSavedByObjectVersion
1070
     0
  0
VISUALSTYLE
  5
9A86
102
{ACAD_XDICTIONARY
360
9AEB
102
}
102
{ACAD_REACTORS
330
9A79
102
}
330
9A79
100
AcDbVisualStyle
  2
Thicken
 70
    13
 71
     2
 72
     2
 73
     0
 90
        0
 40
-0.6
 41
-30.0
 62
     5
 63
     7
 74
     1
 91
        4
 64
     7
 65
   257
 75
     1
175
     1
 42
1.0
 92
       12
 66
     7
 43
1.0
 76
     1
 77
     6
 78
     2
 67
     7
 79
     5
170
     0
171
     0
290
     0
174
     0
 93
        1
 44
0.0
173
     0
291
     1
 45
0.0
1001
ACAD
1000
AcDbSavedByObjectVersion
1070
     0
  0
VISUALSTYLE
  5
9A80
102
{ACAD_XDICTIONARY
360
9ADF
102
}
102
{ACAD_REACTORS
330
9A79
102
}
330
9A79
100
AcDbVisualStyle
  2
Wireframe
 70
     5
 71
     0
 72
     2
 73
     0
 90
        0
 40
-0.6
 41
-30.0
 62
     5
 63
     7
 74
     1
 91
        4
 64
     7
 65
   257
 75
     1
175
     1
 42
1.0
 92
        0
 66
   257
 43
1.0
 76
     1
 77
     6
 78
     2
 67
     7
 79
     3
170
     0
171
     0
290
     0
174
     0
 93
        1
 44
0.0
173
     0
291
     0
 45
0.0
1001
ACAD
1000
AcDbSavedByObjectVersion
1070
     0
  0
VISUALSTYLE
  5
9A8C
102
{ACAD_XDICTIONARY
360
9AF7
102
}
102
{ACAD_REACTORS
330
9A79
102
}
330
9A79
100
AcDbVisualStyle
  2
X-Ray
 70
    25
 71
     2
 72
     2
 73
     1
 90
        1
 40
0.5
 41
-30.0
 62
     5
 63
     7
 74
     1
 91
        0
 64
     7
 65
   257
 75
     1
175
     1
 42
1.0
 92
        8
 66
     7
 43
1.0
 76
     1
 77
     6
 78
     2
 67
     7
 79
     3
170
     0
171
     0
290
     0
174
     0
 93
       13
 44
0.0
173
     0
291
     0
 45
0.0
1001
ACAD
1000
AcDbSavedByObjectVersion
1070
     0
  0
DICTIONARYVAR
  5
9AC6
102
{ACAD_REACTORS
330
9AC1
102
}
330
9AC1
100
DictionaryVariables
280
     0
  1
1:1
  0
DICTIONARYVAR
  5
9AC3
102
{ACAD_REACTORS
330
9AC1
102
}
330
9AC1
100
DictionaryVariables
280
     0
  1
STANDARD
  0
DICTIONARYVAR
  5
9AC2
102
{ACAD_REACTORS
330
9AC1
102
}
330
9AC1
100
DictionaryVariables
280
     0
  1
STANDARD
  0
DICTIONARYVAR
  5
9AC4
102
{ACAD_REACTORS
330
9AC1
102
}
330
9AC1
100
DictionaryVariables
280
     0
  1
Imperial24
  0
DICTIONARYVAR
  5
9AC5
102
{ACAD_REACTORS
330
9AC1
102
}
330
9AC1
100
DictionaryVariables
280
     0
  1
Imperial24
  0
DICTIONARYVAR
  5
9AC9
102
{ACAD_REACTORS
330
9AC1
102
}
330
9AC1
100
DictionaryVariables
280
     0
  1
1
  0
DICTIONARYVAR
  5
9AC8
102
{ACAD_REACTORS
330
9AC1
102
}
330
9AC1
100
DictionaryVariables
280
     0
  1
0
  0
DICTIONARYVAR
  5
9AC7
102
{ACAD_REACTORS
330
9AC1
102
}
330
9AC1
100
DictionaryVariables
280
     0
  1
127
  0
DICTIONARYVAR
  5
9ACA
102
{ACAD_REACTORS
330
9AC1
102
}
330
9AC1
100
DictionaryVariables
280
     0
  1
2
  0
DICTIONARY
  5
9B07
330
9AAC
100
AcDbDictionary
280
     1
281
     1
  3
ACAD_XREC_ROUNDTRIP
360
9B08
  0
DICTIONARY
  5
9B09
330
9AAD
100
AcDbDictionary
280
     1
281
     1
  3
ACAD_XREC_ROUNDTRIP
360
9B0A
  0
DICTIONARY
  5
9B0B
330
9AAE
100
AcDbDictionary
280
     1
281
     1
  3
ACAD_XREC_ROUNDTRIP
360
9B0C
  0
DICTIONARY
  5
9A6A
330
9A69
100
AcDbDictionary
280
     1
281
     1
  3
ACAD_XREC_ROUNDTRIP
360
9AD1
  3
BUMPTILE
360
9A6C
  3
DIFFUSETILE
360
9A6B
  3
OPACITYTILE
360
9A6F
  3
REFLECTIONTILE
360
9A6E
  3
REFRACTIONTILE
360
9A70
  3
SPECULARTILE
360
9A6D
  0
DICTIONARY
  5
9A62
330
9A61
100
AcDbDictionary
280
     1
281
     1
  3
ACAD_XREC_ROUNDTRIP
360
9AD0
  3
BUMPTILE
360
9A64
  3
DIFFUSETILE
360
9A63
  3
OPACITYTILE
360
9A67
  3
REFLECTIONTILE
360
9A66
  3
REFRACTIONTILE
360
9A68
  3
SPECULARTILE
360
9A65
  0
DICTIONARY
  5
9A72
330
9A71
100
AcDbDictionary
280
     1
281
     1
  3
ACAD_XREC_ROUNDTRIP
360
9AD2
  3
BUMPTILE
360
9A74
  3
DIFFUSETILE
360
9A73
  3
OPACITYTILE
360
9A77
  3
REFLECTIONTILE
360
9A76
  3
REFRACTIONTILE
360
9A78
  3
SPECULARTILE
360
9A75
  0
DICTIONARY
  5
9B05
330
9AAA
100
AcDbDictionary
280
     1
281
     1
  3
ACAD_XREC_ROUNDTRIP
360
9B06
  0
DICTIONARY
  5
9ACC
330
9A94
100
AcDbDictionary
280
     1
281
     1
  3
ACAD_ROUNDTRIP_2008_TABLESTYLE_CELLSTYLEMAP
360
9ACD
  3
ACAD_XREC_ROUNDTRIP
360
9B03
  0
DICTIONARY
  5
9ADD
330
9A7F
100
AcDbDictionary
280
     1
281
     1
  3
ACAD_XREC_ROUNDTRIP
360
9ADE
  0
DICTIONARY
  5
9ADB
330
9A7E
100
AcDbDictionary
280
     1
281
     1
  3
ACAD_XREC_ROUNDTRIP
360
9ADC
  0
DICTIONARY
  5
9AE9
330
9A85
100
AcDbDictionary
280
     1
281
     1
  3
ACAD_XREC_ROUNDTRIP
360
9AEA
  0
DICTIONARY
  5
9AF1
330
9A89
100
AcDbDictionary
280
     1
281
     1
  3
ACAD_XREC_ROUNDTRIP
360
9AF2
  0
DICTIONARY
  5
9AE3
330
9A82
100
AcDbDictionary
280
     1
281
     1
  3
ACAD_XREC_ROUNDTRIP
360
9AE4
  0
DICTIONARY
  5
9AE7
330
9A84
100
AcDbDictionary
280
     1
281
     1
  3
ACAD_XREC_ROUNDTRIP
360
9AE8
  0
DICTIONARY
  5
9B01
330
9A91
100
AcDbDictionary
280
     1
281
     1
  3
ACAD_XREC_ROUNDTRIP
360
9B02
  0
DICTIONARY
  5
9AEF
330
9A88
100
AcDbDictionary
280
     1
281
     1
  3
ACAD_XREC_ROUNDTRIP
360
9AF0
  0
DICTIONARY
  5
9AD3
330
9A7A
100
AcDbDictionary
280
     1
281
     1
  3
ACAD_XREC_ROUNDTRIP
360
9AD4
  0
DICTIONARY
  5
9AD5
330
9A7B
100
AcDbDictionary
280
     1
281
     1
  3
ACAD_XREC_ROUNDTRIP
360
9AD6
  0
DICTIONARY
  5
9AD7
330
9A7C
100
AcDbDictionary
280
     1
281
     1
  3
ACAD_XREC_ROUNDTRIP
360
9AD8
  0
DICTIONARY
  5
9AD9
330
9A7D
100
AcDbDictionary
280
     1
281
     1
  3
ACAD_XREC_ROUNDTRIP
360
9ADA
  0
DICTIONARY
  5
9AE1
330
9A81
100
AcDbDictionary
280
     1
281
     1
  3
ACAD_XREC_ROUNDTRIP
360
9AE2
  0
DICTIONARY
  5
9AFD
330
9A8F
100
AcDbDictionary
280
     1
281
     1
  3
ACAD_XREC_ROUNDTRIP
360
9AFE
  0
DICTIONARY
  5
9AED
330
9A87
100
AcDbDictionary
280
     1
281
     1
  3
ACAD_XREC_ROUNDTRIP
360
9AEE
  0
DICTIONARY
  5
9AFF
330
9A90
100
AcDbDictionary
280
     1
281
     1
  3
ACAD_XREC_ROUNDTRIP
360
9B00
  0
DICTIONARY
  5
9AE5
330
9A83
100
AcDbDictionary
280
     1
281
     1
  3
ACAD_XREC_ROUNDTRIP
360
9AE6
  0
DICTIONARY
  5
9AFB
330
9A8E
100
AcDbDictionary
280
     1
281
     1
  3
ACAD_XREC_ROUNDTRIP
360
9AFC
  0
DICTIONARY
  5
9AF9
330
9A8D
100
AcDbDictionary
280
     1
281
     1
  3
ACAD_XREC_ROUNDTRIP
360
9AFA
  0
DICTIONARY
  5
9AF3
330
9A8A
100
AcDbDictionary
280
     1
281
     1
  3
ACAD_XREC_ROUNDTRIP
360
9AF4
  0
DICTIONARY
  5
9AF5
330
9A8B
100
AcDbDictionary
280
     1
281
     1
  3
ACAD_XREC_ROUNDTRIP
360
9AF6
  0
DICTIONARY
  5
9AEB
330
9A86
100
AcDbDictionary
280
     1
281
     1
  3
ACAD_XREC_ROUNDTRIP
360
9AEC
  0
DICTIONARY
  5
9ADF
330
9A80
100
AcDbDictionary
280
     1
281
     1
  3
ACAD_XREC_ROUNDTRIP
360
9AE0
  0
DICTIONARY
  5
9AF7
330
9A8C
100
AcDbDictionary
280
     1
281
     1
  3
ACAD_XREC_ROUNDTRIP
360
9AF8
  0
XRECORD
  5
9B08
102
{ACAD_REACTORS
330
9B07
102
}
330
9B07
100
AcDbXrecord
280
     1
102
DISPLAYNAME
  1
Imperial24
102
FLAGS
 90
        0
  0
XRECORD
  5
9B0A
102
{ACAD_REACTORS
330
9B09
102
}
330
9B09
100
AcDbXrecord
280
     1
102
SHADEPLOT
 70
     0
102
SHADEPLOTRESLEVEL
 70
     2
102
SHADEPLOTCUSTOMDPI
 70
   300
  0
XRECORD
  5
9B0C
102
{ACAD_REACTORS
330
9B0B
102
}
330
9B0B
100
AcDbXrecord
280
     1
102
SHADEPLOT
 70
     0
102
SHADEPLOTRESLEVEL
 70
     2
102
SHADEPLOTCUSTOMDPI
 70
   300
  0
XRECORD
  5
9AD1
102
{ACAD_REACTORS
330
9A6A
102
}
330
9A6A
100
AcDbXrecord
280
     1
102
MATERIAL
148
0.0
149
0.0
149
0.0
 93
        0
 94
      127
282
     0
 72
     0
 77
     0
171
     0
175
     0
179
     0
273
     0
  0
XRECORD
  5
9A6C
102
{ACAD_REACTORS
330
9A6A
102
}
330
9A6A
100
AcDbXrecord
280
     1
270
     1
271
     1
  0
XRECORD
  5
9A6B
102
{ACAD_REACTORS
330
9A6A
102
}
330
9A6A
100
AcDbXrecord
280
     1
270
     1
271
     1
  0
XRECORD
  5
9A6F
102
{ACAD_REACTORS
330
9A6A
102
}
330
9A6A
100
AcDbXrecord
280
     1
270
     1
271
     1
  0
XRECORD
  5
9A6E
102
{ACAD_REACTORS
330
9A6A
102
}
330
9A6A
100
AcDbXrecord
280
     1
270
     1
271
     1
  0
XRECORD
  5
9A70
102
{ACAD_REACTORS
330
9A6A
102
}
330
9A6A
100
AcDbXrecord
280
     1
270
     1
271
     1
  0
XRECORD
  5
9A6D
102
{ACAD_REACTORS
330
9A6A
102
}
330
9A6A
100
AcDbXrecord
280
     1
270
     1
271
     1
  0
XRECORD
  5
9AD0
102
{ACAD_REACTORS
330
9A62
102
}
330
9A62
100
AcDbXrecord
280
     1
102
MATERIAL
148
0.0
149
0.0
149
0.0
 93
        0
 94
      127
282
     0
 72
     0
 77
     0
171
     0
175
     0
179
     0
273
     0
  0
XRECORD
  5
9A64
102
{ACAD_REACTORS
330
9A62
102
}
330
9A62
100
AcDbXrecord
280
     1
270
     1
271
     1
  0
XRECORD
  5
9A63
102
{ACAD_REACTORS
330
9A62
102
}
330
9A62
100
AcDbXrecord
280
     1
270
     1
271
     1
  0
XRECORD
  5
9A67
102
{ACAD_REACTORS
330
9A62
102
}
330
9A62
100
AcDbXrecord
280
     1
270
     1
271
     1
  0
XRECORD
  5
9A66
102
{ACAD_REACTORS
330
9A62
102
}
330
9A62
100
AcDbXrecord
280
     1
270
     1
271
     1
  0
XRECORD
  5
9A68
102
{ACAD_REACTORS
330
9A62
102
}
330
9A62
100
AcDbXrecord
280
     1
270
     1
271
     1
  0
XRECORD
  5
9A65
102
{ACAD_REACTORS
330
9A62
102
}
330
9A62
100
AcDbXrecord
280
     1
270
     1
271
     1
  0
XRECORD
  5
9AD2
102
{ACAD_REACTORS
330
9A72
102
}
330
9A72
100
AcDbXrecord
280
     1
102
MATERIAL
148
0.0
149
0.0
149
0.0
 93
        0
 94
      127
282
     0
 72
     0
 77
     0
171
     0
175
     0
179
     0
273
     0
  0
XRECORD
  5
9A74
102
{ACAD_REACTORS
330
9A72
102
}
330
9A72
100
AcDbXrecord
280
     1
270
     1
271
     1
  0
XRECORD
  5
9A73
102
{ACAD_REACTORS
330
9A72
102
}
330
9A72
100
AcDbXrecord
280
     1
270
     1
271
     1
  0
XRECORD
  5
9A77
102
{ACAD_REACTORS
330
9A72
102
}
330
9A72
100
AcDbXrecord
280
     1
270
     1
271
     1
  0
XRECORD
  5
9A76
102
{ACAD_REACTORS
330
9A72
102
}
330
9A72
100
AcDbXrecord
280
     1
270
     1
271
     1
  0
XRECORD
  5
9A78
102
{ACAD_REACTORS
330
9A72
102
}
330
9A72
100
AcDbXrecord
280
     1
270
     1
271
     1
  0
XRECORD
  5
9A75
102
{ACAD_REACTORS
330
9A72
102
}
330
9A72
100
AcDbXrecord
280
     1
270
     1
271
     1
  0
XRECORD
  5
9B06
102
{ACAD_REACTORS
330
9B05
102
}
330
9B05
100
AcDbXrecord
280
     1
102
DISPLAYNAME
  1
Imperial24
102
FLAGS
 90
        0
  0
CELLSTYLEMAP
  5
9ACD
102
{ACAD_REACTORS
330
9ACC
102
}
330
9ACC
100
AcDbCellStyleMap
 90
        3
300
CELLSTYLE
  1
TABLEFORMAT_BEGIN
 90
        5
170
     1
 91
        0
 92
    32768
 62
   257
 93
        1
300
CONTENTFORMAT
  1
CONTENTFORMAT_BEGIN
 90
        0
 91
        0
 92
      512
 93
        0
300

 40
0.0
140
1.0
 94
        5
 62
     0
340
985A
144
0.25
309
CONTENTFORMAT_END
171
     0
 94
        0
309
TABLEFORMAT_END
  1
CELLSTYLE_BEGIN
 90
        1
 91
        1
300
_TITLE
309
CELLSTYLE_END
300
CELLSTYLE
  1
TABLEFORMAT_BEGIN
 90
        5
170
     1
 91
        0
 92
        0
 62
   257
 93
        1
300
CONTENTFORMAT
  1
CONTENTFORMAT_BEGIN
 90
        0
 91
        0
 92
      512
 93
        0
300

 40
0.0
140
1.0
 94
        5
 62
     0
340
985A
144
0.18
309
CONTENTFORMAT_END
171
     0
 94
        0
309
TABLEFORMAT_END
  1
CELLSTYLE_BEGIN
 90
        2
 91
        1
300
_HEADER
309
CELLSTYLE_END
300
CELLSTYLE
  1
TABLEFORMAT_BEGIN
 90
        5
170
     1
 91
        0
 92
        0
 62
   257
 93
        1
300
CONTENTFORMAT
  1
CONTENTFORMAT_BEGIN
 90
        0
 91
        0
 92
      512
 93
        0
300

 40
0.0
140
1.0
 94
        2
 62
     0
340
985A
144
0.18
309
CONTENTFORMAT_END
171
     0
 94
        0
309
TABLEFORMAT_END
  1
CELLSTYLE_BEGIN
 90
        3
 91
        2
300
_DATA
309
CELLSTYLE_END
  0
XRECORD
  5
9B03
102
{ACAD_REACTORS
330
9ACC
102
}
330
9ACC
100
AcDbXrecord
280
     1
102
ACAD_ROUNDTRIP_PRE2007_TABLESTYLE
 90
      512
 91
        0
  1

 92
      512
 93
        0
  2

 94
      512
 95
        0
  3

  0
XRECORD
  5
9ADE
102
{ACAD_REACTORS
330
9ADD
102
}
330
9ADD
100
AcDbXrecord
280
     1
102
RTVSPost2010Prop28
280
     1
102
RTVSPost2010PropOp28
 70
     1
102
RTVSPost2010Prop29
280
     1
102
RTVSPost2010PropOp29
 70
     1
102
RTVSPost2010Prop30
280
     0
102
RTVSPost2010PropOp30
 70
     1
102
RTVSPost2010Prop31
280
     0
102
RTVSPost2010PropOp31
 70
     1
102
RTVSPost2010Prop32
280
     0
102
RTVSPost2010PropOp32
 70
     1
102
RTVSPost2010Prop33
280
     0
102
RTVSPost2010PropOp33
 70
     1
102
RTVSPost2010Prop34
280
     0
102
RTVSPost2010PropOp34
 70
     1
102
RTVSPost2010Prop35
280
     0
102
RTVSPost2010PropOp35
 70
     1
102
RTVSPost2010Prop36
280
     0
102
RTVSPost2010PropOp36
 70
     1
102
RTVSPost2010Prop37
 90
       50
102
RTVSPost2010PropOp37
 70
     1
102
RTVSPost2010Prop38
140
0.0
102
RTVSPost2010PropOp38
 70
     1
102
RTVSPost2010Prop39
140
1.0
102
RTVSPost2010PropOp39
 70
     1
102
RTVSPost2010Prop40
 90
        0
102
RTVSPost2010PropOp40
 70
     1
102
RTVSPost2010Prop41ColorIndex
 90
       18
102
RTVSPost2010Prop41ColorRGB
 90
        0
102
RTVSPost2010PropOp41
 70
     1
102
RTVSPost2010Prop42
 90
       50
102
RTVSPost2010PropOp42
 70
     1
102
RTVSPost2010Prop43
 90
        3
102
RTVSPost2010PropOp43
 70
     1
102
RTVSPost2010Prop44ColorIndex
 90
        5
102
RTVSPost2010Prop44ColorRGB
 90
      255
102
RTVSPost2010PropOp44
 70
     1
102
RTVSPost2010Prop45
280
     0
102
RTVSPost2010PropOp45
 70
     1
102
RTVSPost2010Prop46
 90
       50
102
RTVSPost2010PropOp46
 70
     1
102
RTVSPost2010Prop47
 90
       50
102
RTVSPost2010PropOp47
 70
     1
102
RTVSPost2010Prop48
 90
       50
102
RTVSPost2010PropOp48
 70
     1
102
RTVSPost2010Prop49
280
     0
102
RTVSPost2010PropOp49
 70
     1
102
RTVSPost2010Prop50
 90
       50
102
RTVSPost2010PropOp50
 70
     1
102
RTVSPost2010Prop51ColorIndex
 90
      256
102
RTVSPost2010Prop51ColorRGB
 90
-16777216
102
RTVSPost2010PropOp51
 70
     0
102
RTVSPost2010Prop52
140
1.0
102
RTVSPost2010PropOp52
 70
     0
102
RTVSPost2010Prop53
 90
        2
102
RTVSPost2010PropOp53
 70
     1
102
RTVSPost2010Prop54
  1
strokes_ogs.tif
102
RTVSPost2010PropOp54
 70
     1
102
RTVSPost2010Prop55
280
     0
102
RTVSPost2010PropOp55
 70
     1
102
RTVSPost2010Prop56
140
1.0
102
RTVSPost2010PropOp56
 70
     1
102
RTVSPost2010Prop57
140
1.0
102
RTVSPost2010PropOp57
 70
     1
102
RTVSPropertyOp0
 70
     1
102
RTVSPropertyOp1
 70
     1
102
RTVSPropertyOp2
 70
     1
102
RTVSPropertyOp3
 70
     1
102
RTVSPropertyOp4
 70
     1
102
RTVSPropertyOp5
 70
     1
102
RTVSPropertyOp6
 70
     1
102
RTVSPropertyOp7
 70
     1
102
RTVSPropertyOp8
 70
     1
102
RTVSPropertyOp9
 70
     1
102
RTVSPropertyOp10
 70
     1
102
RTVSPropertyOp11
 70
     1
102
RTVSPropertyOp12
 70
     1
102
RTVSPropertyOp13
 70
     1
102
RTVSPropertyOp14
 70
     1
102
RTVSPropertyOp15
 70
     1
102
RTVSPropertyOp16
 70
     1
102
RTVSPropertyOp17
 70
     1
102
RTVSPropertyOp18
 70
     1
102
RTVSPropertyOp19
 70
     1
102
RTVSPropertyOp20
 70
     1
102
RTVSPropertyOp21
 70
     1
102
RTVSPropertyOp22
 70
     1
102
RTVSPropertyOp23
 70
     1
102
RTVSPropertyOp24
 70
     1
102
RTVSPropertyOp25
 70
     1
102
RTVSPropertyOp26
 70
     1
102
RTVSPropertyOp27
 70
     1
102
RTVSPropertyOp28
 70
     1
102
RTVSPropertyOp29
 70
     1
102
RTVSPropertyOp30
 70
     1
102
RTVSPropertyOp31
 70
     1
102
RTVSPropertyOp32
 70
     1
102
RTVSPropertyOp33
 70
     1
102
RTVSPropertyOp34
 70
     1
102
RTVSPropertyOp35
 70
     1
102
RTVSPropertyOp36
 70
     1
102
RTVSPropertyOp37
 70
     1
102
RTVSPropertyOp38
 70
     1
102
RTVSPropertyOp39
 70
     1
102
RTVSPropertyOp40
 70
     1
102
RTVSPropertyOp41
 70
     1
102
RTVSPropertyOp42
 70
     1
102
RTVSPropertyOp43
 70
     1
102
RTVSPropertyOp44
 70
     1
102
RTVSPropertyOp45
 70
     1
102
RTVSPropertyOp46
 70
     1
102
RTVSPropertyOp47
 70
     1
102
RTVSPropertyOp48
 70
     1
102
RTVSPropertyOp49
 70
     1
102
RTVSPropertyOp50
 70
     1
102
RTVSPropertyOp51
 70
     0
102
RTVSPropertyOp52
 70
     0
102
RTVSPropertyOp53
 70
     1
102
RTVSPropertyOp54
 70
     1
102
RTVSPropertyOp55
 70
     1
102
RTVSPropertyOp56
 70
     1
102
RTVSPropertyOp57
 70
     1
102
RTVSPropertyOp58
 70
     1
102
RTVSPropertyOp59
 70
     1
102
RTVSPropertyOp60
 70
     1
102
RTVSPropertyOp61
 70
     1
102
RTVSPropertyOp62
 70
     1
  0
XRECORD
  5
9ADC
102
{ACAD_REACTORS
330
9ADB
102
}
330
9ADB
100
AcDbXrecord
280
     1
102
RTVSPost2010Prop28
280
     0
102
RTVSPost2010PropOp28
 70
     1
102
RTVSPost2010Prop29
280
     1
102
RTVSPost2010PropOp29
 70
     1
102
RTVSPost2010Prop30
280
     1
102
RTVSPost2010PropOp30
 70
     1
102
RTVSPost2010Prop31
280
     0
102
RTVSPost2010PropOp31
 70
     1
102
RTVSPost2010Prop32
280
     0
102
RTVSPost2010PropOp32
 70
     1
102
RTVSPost2010Prop33
280
     0
102
RTVSPost2010PropOp33
 70
     1
102
RTVSPost2010Prop34
280
     0
102
RTVSPost2010PropOp34
 70
     1
102
RTVSPost2010Prop35
280
     0
102
RTVSPost2010PropOp35
 70
     1
102
RTVSPost2010Prop36
280
     0
102
RTVSPost2010PropOp36
 70
     1
102
RTVSPost2010Prop37
 90
       50
102
RTVSPost2010PropOp37
 70
     1
102
RTVSPost2010Prop38
140
0.0
102
RTVSPost2010PropOp38
 70
     1
102
RTVSPost2010Prop39
140
1.0
102
RTVSPost2010PropOp39
 70
     1
102
RTVSPost2010Prop40
 90
        0
102
RTVSPost2010PropOp40
 70
     1
102
RTVSPost2010Prop41ColorIndex
 90
       18
102
RTVSPost2010Prop41ColorRGB
 90
        0
102
RTVSPost2010PropOp41
 70
     1
102
RTVSPost2010Prop42
 90
       50
102
RTVSPost2010PropOp42
 70
     1
102
RTVSPost2010Prop43
 90
        3
102
RTVSPost2010PropOp43
 70
     1
102
RTVSPost2010Prop44ColorIndex
 90
        5
102
RTVSPost2010Prop44ColorRGB
 90
      255
102
RTVSPost2010PropOp44
 70
     1
102
RTVSPost2010Prop45
280
     0
102
RTVSPost2010PropOp45
 70
     1
102
RTVSPost2010Prop46
 90
       50
102
RTVSPost2010PropOp46
 70
     1
102
RTVSPost2010Prop47
 90
       50
102
RTVSPost2010PropOp47
 70
     1
102
RTVSPost2010Prop48
 90
       50
102
RTVSPost2010PropOp48
 70
     1
102
RTVSPost2010Prop49
280
     0
102
RTVSPost2010PropOp49
 70
     1
102
RTVSPost2010Prop50
 90
       50
102
RTVSPost2010PropOp50
 70
     1
102
RTVSPost2010Prop51ColorIndex
 90
      256
102
RTVSPost2010Prop51ColorRGB
 90
-16777216
102
RTVSPost2010PropOp51
 70
     0
102
RTVSPost2010Prop52
140
1.0
102
RTVSPost2010PropOp52
 70
     0
102
RTVSPost2010Prop53
 90
        2
102
RTVSPost2010PropOp53
 70
     1
102
RTVSPost2010Prop54
  1
strokes_ogs.tif
102
RTVSPost2010PropOp54
 70
     1
102
RTVSPost2010Prop55
280
     0
102
RTVSPost2010PropOp55
 70
     1
102
RTVSPost2010Prop56
140
1.0
102
RTVSPost2010PropOp56
 70
     1
102
RTVSPost2010Prop57
140
1.0
102
RTVSPost2010PropOp57
 70
     1
102
RTVSPropertyOp0
 70
     1
102
RTVSPropertyOp1
 70
     1
102
RTVSPropertyOp2
 70
     1
102
RTVSPropertyOp3
 70
     1
102
RTVSPropertyOp4
 70
     1
102
RTVSPropertyOp5
 70
     1
102
RTVSPropertyOp6
 70
     1
102
RTVSPropertyOp7
 70
     1
102
RTVSPropertyOp8
 70
     1
102
RTVSPropertyOp9
 70
     1
102
RTVSPropertyOp10
 70
     1
102
RTVSPropertyOp11
 70
     1
102
RTVSPropertyOp12
 70
     1
102
RTVSPropertyOp13
 70
     1
102
RTVSPropertyOp14
 70
     1
102
RTVSPropertyOp15
 70
     1
102
RTVSPropertyOp16
 70
     1
102
RTVSPropertyOp17
 70
     1
102
RTVSPropertyOp18
 70
     1
102
RTVSPropertyOp19
 70
     1
102
RTVSPropertyOp20
 70
     1
102
RTVSPropertyOp21
 70
     1
102
RTVSPropertyOp22
 70
     1
102
RTVSPropertyOp23
 70
     1
102
RTVSPropertyOp24
 70
     1
102
RTVSPropertyOp25
 70
     1
102
RTVSPropertyOp26
 70
     1
102
RTVSPropertyOp27
 70
     1
102
RTVSPropertyOp28
 70
     1
102
RTVSPropertyOp29
 70
     1
102
RTVSPropertyOp30
 70
     1
102
RTVSPropertyOp31
 70
     1
102
RTVSPropertyOp32
 70
     1
102
RTVSPropertyOp33
 70
     1
102
RTVSPropertyOp34
 70
     1
102
RTVSPropertyOp35
 70
     1
102
RTVSPropertyOp36
 70
     1
102
RTVSPropertyOp37
 70
     1
102
RTVSPropertyOp38
 70
     1
102
RTVSPropertyOp39
 70
     1
102
RTVSPropertyOp40
 70
     1
102
RTVSPropertyOp41
 70
     1
102
RTVSPropertyOp42
 70
     1
102
RTVSPropertyOp43
 70
     1
102
RTVSPropertyOp44
 70
     1
102
RTVSPropertyOp45
 70
     1
102
RTVSPropertyOp46
 70
     1
102
RTVSPropertyOp47
 70
     1
102
RTVSPropertyOp48
 70
     1
102
RTVSPropertyOp49
 70
     1
102
RTVSPropertyOp50
 70
     1
102
RTVSPropertyOp51
 70
     0
102
RTVSPropertyOp52
 70
     0
102
RTVSPropertyOp53
 70
     1
102
RTVSPropertyOp54
 70
     1
102
RTVSPropertyOp55
 70
     1
102
RTVSPropertyOp56
 70
     1
102
RTVSPropertyOp57
 70
     1
102
RTVSPropertyOp58
 70
     1
102
RTVSPropertyOp59
 70
     1
102
RTVSPropertyOp60
 70
     1
102
RTVSPropertyOp61
 70
     1
102
RTVSPropertyOp62
 70
     1
  0
XRECORD
  5
9AEA
102
{ACAD_REACTORS
330
9AE9
102
}
330
9AE9
100
AcDbXrecord
280
     1
102
RTVSPost2010Prop28
280
     0
102
RTVSPost2010PropOp28
 70
     1
102
RTVSPost2010Prop29
280
     1
102
RTVSPost2010PropOp29
 70
     1
102
RTVSPost2010Prop30
280
     1
102
RTVSPost2010PropOp30
 70
     1
102
RTVSPost2010Prop31
280
     0
102
RTVSPost2010PropOp31
 70
     1
102
RTVSPost2010Prop32
280
     0
102
RTVSPost2010PropOp32
 70
     1
102
RTVSPost2010Prop33
280
     0
102
RTVSPost2010PropOp33
 70
     1
102
RTVSPost2010Prop34
280
     0
102
RTVSPost2010PropOp34
 70
     1
102
RTVSPost2010Prop35
280
     0
102
RTVSPost2010PropOp35
 70
     1
102
RTVSPost2010Prop36
280
     0
102
RTVSPost2010PropOp36
 70
     1
102
RTVSPost2010Prop37
 90
       50
102
RTVSPost2010PropOp37
 70
     1
102
RTVSPost2010Prop38
140
0.0
102
RTVSPost2010PropOp38
 70
     1
102
RTVSPost2010Prop39
140
1.0
102
RTVSPost2010PropOp39
 70
     1
102
RTVSPost2010Prop40
 90
        0
102
RTVSPost2010PropOp40
 70
     1
102
RTVSPost2010Prop41ColorIndex
 90
       18
102
RTVSPost2010Prop41ColorRGB
 90
        0
102
RTVSPost2010PropOp41
 70
     1
102
RTVSPost2010Prop42
 90
       50
102
RTVSPost2010PropOp42
 70
     1
102
RTVSPost2010Prop43
 90
        3
102
RTVSPost2010PropOp43
 70
     1
102
RTVSPost2010Prop44ColorIndex
 90
        5
102
RTVSPost2010Prop44ColorRGB
 90
      255
102
RTVSPost2010PropOp44
 70
     1
102
RTVSPost2010Prop45
280
     0
102
RTVSPost2010PropOp45
 70
     1
102
RTVSPost2010Prop46
 90
       50
102
RTVSPost2010PropOp46
 70
     1
102
RTVSPost2010Prop47
 90
       50
102
RTVSPost2010PropOp47
 70
     1
102
RTVSPost2010Prop48
 90
       50
102
RTVSPost2010PropOp48
 70
     1
102
RTVSPost2010Prop49
280
     0
102
RTVSPost2010PropOp49
 70
     1
102
RTVSPost2010Prop50
 90
       50
102
RTVSPost2010PropOp50
 70
     1
102
RTVSPost2010Prop51ColorIndex
 90
      256
102
RTVSPost2010Prop51ColorRGB
 90
-16777216
102
RTVSPost2010PropOp51
 70
     0
102
RTVSPost2010Prop52
140
1.0
102
RTVSPost2010PropOp52
 70
     0
102
RTVSPost2010Prop53
 90
        2
102
RTVSPost2010PropOp53
 70
     1
102
RTVSPost2010Prop54
  1
strokes_ogs.tif
102
RTVSPost2010PropOp54
 70
     1
102
RTVSPost2010Prop55
280
     0
102
RTVSPost2010PropOp55
 70
     1
102
RTVSPost2010Prop56
140
1.0
102
RTVSPost2010PropOp56
 70
     1
102
RTVSPost2010Prop57
140
1.0
102
RTVSPost2010PropOp57
 70
     1
102
RTVSPropertyOp0
 70
     1
102
RTVSPropertyOp1
 70
     1
102
RTVSPropertyOp2
 70
     1
102
RTVSPropertyOp3
 70
     1
102
RTVSPropertyOp4
 70
     1
102
RTVSPropertyOp5
 70
     1
102
RTVSPropertyOp6
 70
     1
102
RTVSPropertyOp7
 70
     1
102
RTVSPropertyOp8
 70
     1
102
RTVSPropertyOp9
 70
     1
102
RTVSPropertyOp10
 70
     1
102
RTVSPropertyOp11
 70
     1
102
RTVSPropertyOp12
 70
     1
102
RTVSPropertyOp13
 70
     1
102
RTVSPropertyOp14
 70
     1
102
RTVSPropertyOp15
 70
     1
102
RTVSPropertyOp16
 70
     1
102
RTVSPropertyOp17
 70
     1
102
RTVSPropertyOp18
 70
     1
102
RTVSPropertyOp19
 70
     1
102
RTVSPropertyOp20
 70
     1
102
RTVSPropertyOp21
 70
     1
102
RTVSPropertyOp22
 70
     1
102
RTVSPropertyOp23
 70
     1
102
RTVSPropertyOp24
 70
     1
102
RTVSPropertyOp25
 70
     1
102
RTVSPropertyOp26
 70
     1
102
RTVSPropertyOp27
 70
     1
102
RTVSPropertyOp28
 70
     1
102
RTVSPropertyOp29
 70
     1
102
RTVSPropertyOp30
 70
     1
102
RTVSPropertyOp31
 70
     1
102
RTVSPropertyOp32
 70
     1
102
RTVSPropertyOp33
 70
     1
102
RTVSPropertyOp34
 70
     1
102
RTVSPropertyOp35
 70
     1
102
RTVSPropertyOp36
 70
     1
102
RTVSPropertyOp37
 70
     1
102
RTVSPropertyOp38
 70
     1
102
RTVSPropertyOp39
 70
     1
102
RTVSPropertyOp40
 70
     1
102
RTVSPropertyOp41
 70
     1
102
RTVSPropertyOp42
 70
     1
102
RTVSPropertyOp43
 70
     1
102
RTVSPropertyOp44
 70
     1
102
RTVSPropertyOp45
 70
     1
102
RTVSPropertyOp46
 70
     1
102
RTVSPropertyOp47
 70
     1
102
RTVSPropertyOp48
 70
     1
102
RTVSPropertyOp49
 70
     1
102
RTVSPropertyOp50
 70
     1
102
RTVSPropertyOp51
 70
     0
102
RTVSPropertyOp52
 70
     0
102
RTVSPropertyOp53
 70
     1
102
RTVSPropertyOp54
 70
     1
102
RTVSPropertyOp55
 70
     1
102
RTVSPropertyOp56
 70
     1
102
RTVSPropertyOp57
 70
     1
102
RTVSPropertyOp58
 70
     1
102
RTVSPropertyOp59
 70
     1
102
RTVSPropertyOp60
 70
     1
102
RTVSPropertyOp61
 70
     1
102
RTVSPropertyOp62
 70
     1
  0
XRECORD
  5
9AF2
102
{ACAD_REACTORS
330
9AF1
102
}
330
9AF1
100
AcDbXrecord
280
     1
102
RTVSPost2010Prop28
280
     0
102
RTVSPost2010PropOp28
 70
     1
102
RTVSPost2010Prop29
280
     1
102
RTVSPost2010PropOp29
 70
     1
102
RTVSPost2010Prop30
280
     1
102
RTVSPost2010PropOp30
 70
     1
102
RTVSPost2010Prop31
280
     0
102
RTVSPost2010PropOp31
 70
     1
102
RTVSPost2010Prop32
280
     0
102
RTVSPost2010PropOp32
 70
     1
102
RTVSPost2010Prop33
280
     0
102
RTVSPost2010PropOp33
 70
     1
102
RTVSPost2010Prop34
280
     0
102
RTVSPost2010PropOp34
 70
     1
102
RTVSPost2010Prop35
280
     0
102
RTVSPost2010PropOp35
 70
     1
102
RTVSPost2010Prop36
280
     0
102
RTVSPost2010PropOp36
 70
     1
102
RTVSPost2010Prop37
 90
       50
102
RTVSPost2010PropOp37
 70
     1
102
RTVSPost2010Prop38
140
0.0
102
RTVSPost2010PropOp38
 70
     1
102
RTVSPost2010Prop39
140
1.0
102
RTVSPost2010PropOp39
 70
     1
102
RTVSPost2010Prop40
 90
        0
102
RTVSPost2010PropOp40
 70
     1
102
RTVSPost2010Prop41ColorIndex
 90
       18
102
RTVSPost2010Prop41ColorRGB
 90
        0
102
RTVSPost2010PropOp41
 70
     1
102
RTVSPost2010Prop42
 90
       50
102
RTVSPost2010PropOp42
 70
     1
102
RTVSPost2010Prop43
 90
        3
102
RTVSPost2010PropOp43
 70
     1
102
RTVSPost2010Prop44ColorIndex
 90
        5
102
RTVSPost2010Prop44ColorRGB
 90
      255
102
RTVSPost2010PropOp44
 70
     1
102
RTVSPost2010Prop45
280
     0
102
RTVSPost2010PropOp45
 70
     1
102
RTVSPost2010Prop46
 90
       50
102
RTVSPost2010PropOp46
 70
     1
102
RTVSPost2010Prop47
 90
       50
102
RTVSPost2010PropOp47
 70
     1
102
RTVSPost2010Prop48
 90
       50
102
RTVSPost2010PropOp48
 70
     1
102
RTVSPost2010Prop49
280
     0
102
RTVSPost2010PropOp49
 70
     1
102
RTVSPost2010Prop50
 90
       50
102
RTVSPost2010PropOp50
 70
     1
102
RTVSPost2010Prop51ColorIndex
 90
      256
102
RTVSPost2010Prop51ColorRGB
 90
-16777216
102
RTVSPost2010PropOp51
 70
     0
102
RTVSPost2010Prop52
140
1.0
102
RTVSPost2010PropOp52
 70
     0
102
RTVSPost2010Prop53
 90
        2
102
RTVSPost2010PropOp53
 70
     1
102
RTVSPost2010Prop54
  1
strokes_ogs.tif
102
RTVSPost2010PropOp54
 70
     1
102
RTVSPost2010Prop55
280
     0
102
RTVSPost2010PropOp55
 70
     1
102
RTVSPost2010Prop56
140
1.0
102
RTVSPost2010PropOp56
 70
     1
102
RTVSPost2010Prop57
140
1.0
102
RTVSPost2010PropOp57
 70
     1
102
RTVSPropertyOp0
 70
     1
102
RTVSPropertyOp1
 70
     1
102
RTVSPropertyOp2
 70
     1
102
RTVSPropertyOp3
 70
     1
102
RTVSPropertyOp4
 70
     1
102
RTVSPropertyOp5
 70
     1
102
RTVSPropertyOp6
 70
     1
102
RTVSPropertyOp7
 70
     1
102
RTVSPropertyOp8
 70
     1
102
RTVSPropertyOp9
 70
     1
102
RTVSPropertyOp10
 70
     1
102
RTVSPropertyOp11
 70
     1
102
RTVSPropertyOp12
 70
     1
102
RTVSPropertyOp13
 70
     1
102
RTVSPropertyOp14
 70
     1
102
RTVSPropertyOp15
 70
     1
102
RTVSPropertyOp16
 70
     1
102
RTVSPropertyOp17
 70
     1
102
RTVSPropertyOp18
 70
     1
102
RTVSPropertyOp19
 70
     1
102
RTVSPropertyOp20
 70
     1
102
RTVSPropertyOp21
 70
     1
102
RTVSPropertyOp22
 70
     1
102
RTVSPropertyOp23
 70
     1
102
RTVSPropertyOp24
 70
     1
102
RTVSPropertyOp25
 70
     1
102
RTVSPropertyOp26
 70
     1
102
RTVSPropertyOp27
 70
     1
102
RTVSPropertyOp28
 70
     1
102
RTVSPropertyOp29
 70
     1
102
RTVSPropertyOp30
 70
     1
102
RTVSPropertyOp31
 70
     1
102
RTVSPropertyOp32
 70
     1
102
RTVSPropertyOp33
 70
     1
102
RTVSPropertyOp34
 70
     1
102
RTVSPropertyOp35
 70
     1
102
RTVSPropertyOp36
 70
     1
102
RTVSPropertyOp37
 70
     1
102
RTVSPropertyOp38
 70
     1
102
RTVSPropertyOp39
 70
     1
102
RTVSPropertyOp40
 70
     1
102
RTVSPropertyOp41
 70
     1
102
RTVSPropertyOp42
 70
     1
102
RTVSPropertyOp43
 70
     1
102
RTVSPropertyOp44
 70
     1
102
RTVSPropertyOp45
 70
     1
102
RTVSPropertyOp46
 70
     1
102
RTVSPropertyOp47
 70
     1
102
RTVSPropertyOp48
 70
     1
102
RTVSPropertyOp49
 70
     1
102
RTVSPropertyOp50
 70
     1
102
RTVSPropertyOp51
 70
     0
102
RTVSPropertyOp52
 70
     0
102
RTVSPropertyOp53
 70
     1
102
RTVSPropertyOp54
 70
     1
102
RTVSPropertyOp55
 70
     1
102
RTVSPropertyOp56
 70
     1
102
RTVSPropertyOp57
 70
     1
102
RTVSPropertyOp58
 70
     1
102
RTVSPropertyOp59
 70
     1
102
RTVSPropertyOp60
 70
     1
102
RTVSPropertyOp61
 70
     1
102
RTVSPropertyOp62
 70
     1
  0
XRECORD
  5
9AE4
102
{ACAD_REACTORS
330
9AE3
102
}
330
9AE3
100
AcDbXrecord
280
     1
102
RTVSPost2010Prop28
280
     0
102
RTVSPost2010PropOp28
 70
     1
102
RTVSPost2010Prop29
280
     1
102
RTVSPost2010PropOp29
 70
     1
102
RTVSPost2010Prop30
280
     1
102
RTVSPost2010PropOp30
 70
     1
102
RTVSPost2010Prop31
280
     0
102
RTVSPost2010PropOp31
 70
     1
102
RTVSPost2010Prop32
280
     0
102
RTVSPost2010PropOp32
 70
     1
102
RTVSPost2010Prop33
280
     0
102
RTVSPost2010PropOp33
 70
     1
102
RTVSPost2010Prop34
280
     0
102
RTVSPost2010PropOp34
 70
     1
102
RTVSPost2010Prop35
280
     0
102
RTVSPost2010PropOp35
 70
     1
102
RTVSPost2010Prop36
280
     0
102
RTVSPost2010PropOp36
 70
     1
102
RTVSPost2010Prop37
 90
       50
102
RTVSPost2010PropOp37
 70
     1
102
RTVSPost2010Prop38
140
0.0
102
RTVSPost2010PropOp38
 70
     1
102
RTVSPost2010Prop39
140
1.0
102
RTVSPost2010PropOp39
 70
     1
102
RTVSPost2010Prop40
 90
        0
102
RTVSPost2010PropOp40
 70
     1
102
RTVSPost2010Prop41ColorIndex
 90
       18
102
RTVSPost2010Prop41ColorRGB
 90
        0
102
RTVSPost2010PropOp41
 70
     1
102
RTVSPost2010Prop42
 90
       50
102
RTVSPost2010PropOp42
 70
     1
102
RTVSPost2010Prop43
 90
        3
102
RTVSPost2010PropOp43
 70
     1
102
RTVSPost2010Prop44ColorIndex
 90
        5
102
RTVSPost2010Prop44ColorRGB
 90
      255
102
RTVSPost2010PropOp44
 70
     1
102
RTVSPost2010Prop45
280
     0
102
RTVSPost2010PropOp45
 70
     1
102
RTVSPost2010Prop46
 90
       50
102
RTVSPost2010PropOp46
 70
     1
102
RTVSPost2010Prop47
 90
       50
102
RTVSPost2010PropOp47
 70
     1
102
RTVSPost2010Prop48
 90
       50
102
RTVSPost2010PropOp48
 70
     1
102
RTVSPost2010Prop49
280
     0
102
RTVSPost2010PropOp49
 70
     1
102
RTVSPost2010Prop50
 90
       50
102
RTVSPost2010PropOp50
 70
     1
102
RTVSPost2010Prop51ColorIndex
 90
      256
102
RTVSPost2010Prop51ColorRGB
 90
-16777216
102
RTVSPost2010PropOp51
 70
     0
102
RTVSPost2010Prop52
140
1.0
102
RTVSPost2010PropOp52
 70
     0
102
RTVSPost2010Prop53
 90
        2
102
RTVSPost2010PropOp53
 70
     1
102
RTVSPost2010Prop54
  1
strokes_ogs.tif
102
RTVSPost2010PropOp54
 70
     1
102
RTVSPost2010Prop55
280
     0
102
RTVSPost2010PropOp55
 70
     1
102
RTVSPost2010Prop56
140
1.0
102
RTVSPost2010PropOp56
 70
     1
102
RTVSPost2010Prop57
140
1.0
102
RTVSPost2010PropOp57
 70
     1
102
RTVSPropertyOp0
 70
     1
102
RTVSPropertyOp1
 70
     1
102
RTVSPropertyOp2
 70
     1
102
RTVSPropertyOp3
 70
     1
102
RTVSPropertyOp4
 70
     1
102
RTVSPropertyOp5
 70
     1
102
RTVSPropertyOp6
 70
     1
102
RTVSPropertyOp7
 70
     1
102
RTVSPropertyOp8
 70
     1
102
RTVSPropertyOp9
 70
     1
102
RTVSPropertyOp10
 70
     1
102
RTVSPropertyOp11
 70
     1
102
RTVSPropertyOp12
 70
     1
102
RTVSPropertyOp13
 70
     1
102
RTVSPropertyOp14
 70
     1
102
RTVSPropertyOp15
 70
     1
102
RTVSPropertyOp16
 70
     1
102
RTVSPropertyOp17
 70
     1
102
RTVSPropertyOp18
 70
     1
102
RTVSPropertyOp19
 70
     1
102
RTVSPropertyOp20
 70
     1
102
RTVSPropertyOp21
 70
     1
102
RTVSPropertyOp22
 70
     1
102
RTVSPropertyOp23
 70
     1
102
RTVSPropertyOp24
 70
     1
102
RTVSPropertyOp25
 70
     1
102
RTVSPropertyOp26
 70
     1
102
RTVSPropertyOp27
 70
     1
102
RTVSPropertyOp28
 70
     1
102
RTVSPropertyOp29
 70
     1
102
RTVSPropertyOp30
 70
     1
102
RTVSPropertyOp31
 70
     1
102
RTVSPropertyOp32
 70
     1
102
RTVSPropertyOp33
 70
     1
102
RTVSPropertyOp34
 70
     1
102
RTVSPropertyOp35
 70
     1
102
RTVSPropertyOp36
 70
     1
102
RTVSPropertyOp37
 70
     1
102
RTVSPropertyOp38
 70
     1
102
RTVSPropertyOp39
 70
     1
102
RTVSPropertyOp40
 70
     1
102
RTVSPropertyOp41
 70
     1
102
RTVSPropertyOp42
 70
     1
102
RTVSPropertyOp43
 70
     1
102
RTVSPropertyOp44
 70
     1
102
RTVSPropertyOp45
 70
     1
102
RTVSPropertyOp46
 70
     1
102
RTVSPropertyOp47
 70
     1
102
RTVSPropertyOp48
 70
     1
102
RTVSPropertyOp49
 70
     1
102
RTVSPropertyOp50
 70
     1
102
RTVSPropertyOp51
 70
     0
102
RTVSPropertyOp52
 70
     0
102
RTVSPropertyOp53
 70
     1
102
RTVSPropertyOp54
 70
     1
102
RTVSPropertyOp55
 70
     1
102
RTVSPropertyOp56
 70
     1
102
RTVSPropertyOp57
 70
     1
102
RTVSPropertyOp58
 70
     1
102
RTVSPropertyOp59
 70
     1
102
RTVSPropertyOp60
 70
     1
102
RTVSPropertyOp61
 70
     1
102
RTVSPropertyOp62
 70
     1
  0
XRECORD
  5
9AE8
102
{ACAD_REACTORS
330
9AE7
102
}
330
9AE7
100
AcDbXrecord
280
     1
102
RTVSPost2010Prop28
280
     0
102
RTVSPost2010PropOp28
 70
     1
102
RTVSPost2010Prop29
280
     1
102
RTVSPost2010PropOp29
 70
     1
102
RTVSPost2010Prop30
280
     1
102
RTVSPost2010PropOp30
 70
     1
102
RTVSPost2010Prop31
280
     0
102
RTVSPost2010PropOp31
 70
     1
102
RTVSPost2010Prop32
280
     0
102
RTVSPost2010PropOp32
 70
     1
102
RTVSPost2010Prop33
280
     0
102
RTVSPost2010PropOp33
 70
     1
102
RTVSPost2010Prop34
280
     0
102
RTVSPost2010PropOp34
 70
     1
102
RTVSPost2010Prop35
280
     0
102
RTVSPost2010PropOp35
 70
     1
102
RTVSPost2010Prop36
280
     0
102
RTVSPost2010PropOp36
 70
     1
102
RTVSPost2010Prop37
 90
       50
102
RTVSPost2010PropOp37
 70
     1
102
RTVSPost2010Prop38
140
0.0
102
RTVSPost2010PropOp38
 70
     1
102
RTVSPost2010Prop39
140
1.0
102
RTVSPost2010PropOp39
 70
     1
102
RTVSPost2010Prop40
 90
        0
102
RTVSPost2010PropOp40
 70
     1
102
RTVSPost2010Prop41ColorIndex
 90
       18
102
RTVSPost2010Prop41ColorRGB
 90
        0
102
RTVSPost2010PropOp41
 70
     1
102
RTVSPost2010Prop42
 90
       50
102
RTVSPost2010PropOp42
 70
     1
102
RTVSPost2010Prop43
 90
        3
102
RTVSPost2010PropOp43
 70
     1
102
RTVSPost2010Prop44ColorIndex
 90
        5
102
RTVSPost2010Prop44ColorRGB
 90
      255
102
RTVSPost2010PropOp44
 70
     1
102
RTVSPost2010Prop45
280
     0
102
RTVSPost2010PropOp45
 70
     1
102
RTVSPost2010Prop46
 90
       50
102
RTVSPost2010PropOp46
 70
     1
102
RTVSPost2010Prop47
 90
       50
102
RTVSPost2010PropOp47
 70
     1
102
RTVSPost2010Prop48
 90
       50
102
RTVSPost2010PropOp48
 70
     1
102
RTVSPost2010Prop49
280
     0
102
RTVSPost2010PropOp49
 70
     1
102
RTVSPost2010Prop50
 90
       50
102
RTVSPost2010PropOp50
 70
     1
102
RTVSPost2010Prop51ColorIndex
 90
      256
102
RTVSPost2010Prop51ColorRGB
 90
-16777216
102
RTVSPost2010PropOp51
 70
     0
102
RTVSPost2010Prop52
140
1.0
102
RTVSPost2010PropOp52
 70
     0
102
RTVSPost2010Prop53
 90
        2
102
RTVSPost2010PropOp53
 70
     1
102
RTVSPost2010Prop54
  1
strokes_ogs.tif
102
RTVSPost2010PropOp54
 70
     1
102
RTVSPost2010Prop55
280
     0
102
RTVSPost2010PropOp55
 70
     1
102
RTVSPost2010Prop56
140
1.0
102
RTVSPost2010PropOp56
 70
     1
102
RTVSPost2010Prop57
140
1.0
102
RTVSPost2010PropOp57
 70
     1
102
RTVSPropertyOp0
 70
     1
102
RTVSPropertyOp1
 70
     1
102
RTVSPropertyOp2
 70
     1
102
RTVSPropertyOp3
 70
     1
102
RTVSPropertyOp4
 70
     1
102
RTVSPropertyOp5
 70
     1
102
RTVSPropertyOp6
 70
     1
102
RTVSPropertyOp7
 70
     1
102
RTVSPropertyOp8
 70
     1
102
RTVSPropertyOp9
 70
     1
102
RTVSPropertyOp10
 70
     1
102
RTVSPropertyOp11
 70
     1
102
RTVSPropertyOp12
 70
     1
102
RTVSPropertyOp13
 70
     1
102
RTVSPropertyOp14
 70
     1
102
RTVSPropertyOp15
 70
     1
102
RTVSPropertyOp16
 70
     1
102
RTVSPropertyOp17
 70
     1
102
RTVSPropertyOp18
 70
     1
102
RTVSPropertyOp19
 70
     1
102
RTVSPropertyOp20
 70
     1
102
RTVSPropertyOp21
 70
     1
102
RTVSPropertyOp22
 70
     1
102
RTVSPropertyOp23
 70
     1
102
RTVSPropertyOp24
 70
     1
102
RTVSPropertyOp25
 70
     1
102
RTVSPropertyOp26
 70
     1
102
RTVSPropertyOp27
 70
     1
102
RTVSPropertyOp28
 70
     1
102
RTVSPropertyOp29
 70
     1
102
RTVSPropertyOp30
 70
     1
102
RTVSPropertyOp31
 70
     1
102
RTVSPropertyOp32
 70
     1
102
RTVSPropertyOp33
 70
     1
102
RTVSPropertyOp34
 70
     1
102
RTVSPropertyOp35
 70
     1
102
RTVSPropertyOp36
 70
     1
102
RTVSPropertyOp37
 70
     1
102
RTVSPropertyOp38
 70
     1
102
RTVSPropertyOp39
 70
     1
102
RTVSPropertyOp40
 70
     1
102
RTVSPropertyOp41
 70
     1
102
RTVSPropertyOp42
 70
     1
102
RTVSPropertyOp43
 70
     1
102
RTVSPropertyOp44
 70
     1
102
RTVSPropertyOp45
 70
     1
102
RTVSPropertyOp46
 70
     1
102
RTVSPropertyOp47
 70
     1
102
RTVSPropertyOp48
 70
     1
102
RTVSPropertyOp49
 70
     1
102
RTVSPropertyOp50
 70
     1
102
RTVSPropertyOp51
 70
     0
102
RTVSPropertyOp52
 70
     0
102
RTVSPropertyOp53
 70
     1
102
RTVSPropertyOp54
 70
     1
102
RTVSPropertyOp55
 70
     1
102
RTVSPropertyOp56
 70
     1
102
RTVSPropertyOp57
 70
     1
102
RTVSPropertyOp58
 70
     1
102
RTVSPropertyOp59
 70
     1
102
RTVSPropertyOp60
 70
     1
102
RTVSPropertyOp61
 70
     1
102
RTVSPropertyOp62
 70
     1
  0
XRECORD
  5
9B02
102
{ACAD_REACTORS
330
9B01
102
}
330
9B01
100
AcDbXrecord
280
     1
102
RTVSPost2010Prop28
280
     0
102
RTVSPost2010PropOp28
 70
     1
102
RTVSPost2010Prop29
280
     1
102
RTVSPost2010PropOp29
 70
     1
102
RTVSPost2010Prop30
280
     1
102
RTVSPost2010PropOp30
 70
     1
102
RTVSPost2010Prop31
280
     0
102
RTVSPost2010PropOp31
 70
     1
102
RTVSPost2010Prop32
280
     0
102
RTVSPost2010PropOp32
 70
     1
102
RTVSPost2010Prop33
280
     0
102
RTVSPost2010PropOp33
 70
     1
102
RTVSPost2010Prop34
280
     0
102
RTVSPost2010PropOp34
 70
     1
102
RTVSPost2010Prop35
280
     0
102
RTVSPost2010PropOp35
 70
     1
102
RTVSPost2010Prop36
280
     0
102
RTVSPost2010PropOp36
 70
     1
102
RTVSPost2010Prop37
 90
       50
102
RTVSPost2010PropOp37
 70
     0
102
RTVSPost2010Prop38
140
0.0
102
RTVSPost2010PropOp38
 70
     0
102
RTVSPost2010Prop39
140
1.0
102
RTVSPost2010PropOp39
 70
     0
102
RTVSPost2010Prop40
 90
        0
102
RTVSPost2010PropOp40
 70
     0
102
RTVSPost2010Prop41ColorIndex
 90
       18
102
RTVSPost2010Prop41ColorRGB
 90
        0
102
RTVSPost2010PropOp41
 70
     0
102
RTVSPost2010Prop42
 90
       50
102
RTVSPost2010PropOp42
 70
     0
102
RTVSPost2010Prop43
 90
        3
102
RTVSPost2010PropOp43
 70
     0
102
RTVSPost2010Prop44ColorIndex
 90
        5
102
RTVSPost2010Prop44ColorRGB
 90
      255
102
RTVSPost2010PropOp44
 70
     0
102
RTVSPost2010Prop45
280
     0
102
RTVSPost2010PropOp45
 70
     1
102
RTVSPost2010Prop46
 90
       50
102
RTVSPost2010PropOp46
 70
     0
102
RTVSPost2010Prop47
 90
       50
102
RTVSPost2010PropOp47
 70
     0
102
RTVSPost2010Prop48
 90
       50
102
RTVSPost2010PropOp48
 70
     0
102
RTVSPost2010Prop49
280
     0
102
RTVSPost2010PropOp49
 70
     1
102
RTVSPost2010Prop50
 90
       50
102
RTVSPost2010PropOp50
 70
     0
102
RTVSPost2010Prop51ColorIndex
 90
      256
102
RTVSPost2010Prop51ColorRGB
 90
-16777216
102
RTVSPost2010PropOp51
 70
     0
102
RTVSPost2010Prop52
140
1.0
102
RTVSPost2010PropOp52
 70
     0
102
RTVSPost2010Prop53
 90
        2
102
RTVSPost2010PropOp53
 70
     0
102
RTVSPost2010Prop54
  1
strokes_ogs.tif
102
RTVSPost2010PropOp54
 70
     0
102
RTVSPost2010Prop55
280
     0
102
RTVSPost2010PropOp55
 70
     1
102
RTVSPost2010Prop56
140
1.0
102
RTVSPost2010PropOp56
 70
     0
102
RTVSPost2010Prop57
140
1.0
102
RTVSPost2010PropOp57
 70
     0
102
RTVSPropertyOp0
 70
     0
102
RTVSPropertyOp1
 70
     0
102
RTVSPropertyOp2
 70
     0
102
RTVSPropertyOp3
 70
     0
102
RTVSPropertyOp4
 70
     0
102
RTVSPropertyOp5
 70
     0
102
RTVSPropertyOp6
 70
     0
102
RTVSPropertyOp7
 70
     0
102
RTVSPropertyOp8
 70
     0
102
RTVSPropertyOp9
 70
     0
102
RTVSPropertyOp10
 70
     0
102
RTVSPropertyOp11
 70
     0
102
RTVSPropertyOp12
 70
     0
102
RTVSPropertyOp13
 70
     0
102
RTVSPropertyOp14
 70
     2
102
RTVSPropertyOp15
 70
     0
102
RTVSPropertyOp16
 70
     0
102
RTVSPropertyOp17
 70
     0
102
RTVSPropertyOp18
 70
     0
102
RTVSPropertyOp19
 70
     0
102
RTVSPropertyOp20
 70
     0
102
RTVSPropertyOp21
 70
     0
102
RTVSPropertyOp22
 70
     0
102
RTVSPropertyOp23
 70
     0
102
RTVSPropertyOp24
 70
     0
102
RTVSPropertyOp25
 70
     0
102
RTVSPropertyOp26
 70
     0
102
RTVSPropertyOp27
 70
     0
102
RTVSPropertyOp28
 70
     1
102
RTVSPropertyOp29
 70
     1
102
RTVSPropertyOp30
 70
     1
102
RTVSPropertyOp31
 70
     1
102
RTVSPropertyOp32
 70
     1
102
RTVSPropertyOp33
 70
     1
102
RTVSPropertyOp34
 70
     1
102
RTVSPropertyOp35
 70
     1
102
RTVSPropertyOp36
 70
     1
102
RTVSPropertyOp37
 70
     0
102
RTVSPropertyOp38
 70
     0
102
RTVSPropertyOp39
 70
     0
102
RTVSPropertyOp40
 70
     0
102
RTVSPropertyOp41
 70
     0
102
RTVSPropertyOp42
 70
     0
102
RTVSPropertyOp43
 70
     0
102
RTVSPropertyOp44
 70
     0
102
RTVSPropertyOp45
 70
     1
102
RTVSPropertyOp46
 70
     0
102
RTVSPropertyOp47
 70
     0
102
RTVSPropertyOp48
 70
     0
102
RTVSPropertyOp49
 70
     1
102
RTVSPropertyOp50
 70
     0
102
RTVSPropertyOp51
 70
     0
102
RTVSPropertyOp52
 70
     0
102
RTVSPropertyOp53
 70
     0
102
RTVSPropertyOp54
 70
     0
102
RTVSPropertyOp55
 70
     1
102
RTVSPropertyOp56
 70
     0
102
RTVSPropertyOp57
 70
     0
102
RTVSPropertyOp58
 70
     0
102
RTVSPropertyOp59
 70
     0
102
RTVSPropertyOp60
 70
     0
102
RTVSPropertyOp61
 70
     0
102
RTVSPropertyOp62
 70
     0
  0
XRECORD
  5
9AF0
102
{ACAD_REACTORS
330
9AEF
102
}
330
9AEF
100
AcDbXrecord
280
     1
102
RTVSPost2010Prop28
280
     0
102
RTVSPost2010PropOp28
 70
     1
102
RTVSPost2010Prop29
280
     1
102
RTVSPost2010PropOp29
 70
     1
102
RTVSPost2010Prop30
280
     1
102
RTVSPost2010PropOp30
 70
     1
102
RTVSPost2010Prop31
280
     0
102
RTVSPost2010PropOp31
 70
     1
102
RTVSPost2010Prop32
280
     0
102
RTVSPost2010PropOp32
 70
     1
102
RTVSPost2010Prop33
280
     0
102
RTVSPost2010PropOp33
 70
     1
102
RTVSPost2010Prop34
280
     0
102
RTVSPost2010PropOp34
 70
     1
102
RTVSPost2010Prop35
280
     0
102
RTVSPost2010PropOp35
 70
     1
102
RTVSPost2010Prop36
280
     0
102
RTVSPost2010PropOp36
 70
     1
102
RTVSPost2010Prop37
 90
       50
102
RTVSPost2010PropOp37
 70
     1
102
RTVSPost2010Prop38
140
0.0
102
RTVSPost2010PropOp38
 70
     1
102
RTVSPost2010Prop39
140
1.0
102
RTVSPost2010PropOp39
 70
     1
102
RTVSPost2010Prop40
 90
        0
102
RTVSPost2010PropOp40
 70
     1
102
RTVSPost2010Prop41ColorIndex
 90
       18
102
RTVSPost2010Prop41ColorRGB
 90
        0
102
RTVSPost2010PropOp41
 70
     1
102
RTVSPost2010Prop42
 90
       50
102
RTVSPost2010PropOp42
 70
     1
102
RTVSPost2010Prop43
 90
        3
102
RTVSPost2010PropOp43
 70
     1
102
RTVSPost2010Prop44ColorIndex
 90
        5
102
RTVSPost2010Prop44ColorRGB
 90
      255
102
RTVSPost2010PropOp44
 70
     1
102
RTVSPost2010Prop45
280
     0
102
RTVSPost2010PropOp45
 70
     1
102
RTVSPost2010Prop46
 90
       50
102
RTVSPost2010PropOp46
 70
     1
102
RTVSPost2010Prop47
 90
       50
102
RTVSPost2010PropOp47
 70
     1
102
RTVSPost2010Prop48
 90
       50
102
RTVSPost2010PropOp48
 70
     1
102
RTVSPost2010Prop49
280
     0
102
RTVSPost2010PropOp49
 70
     1
102
RTVSPost2010Prop50
 90
       50
102
RTVSPost2010PropOp50
 70
     1
102
RTVSPost2010Prop51ColorIndex
 90
      256
102
RTVSPost2010Prop51ColorRGB
 90
-16777216
102
RTVSPost2010PropOp51
 70
     0
102
RTVSPost2010Prop52
140
1.0
102
RTVSPost2010PropOp52
 70
     0
102
RTVSPost2010Prop53
 90
        2
102
RTVSPost2010PropOp53
 70
     1
102
RTVSPost2010Prop54
  1
strokes_ogs.tif
102
RTVSPost2010PropOp54
 70
     1
102
RTVSPost2010Prop55
280
     0
102
RTVSPost2010PropOp55
 70
     1
102
RTVSPost2010Prop56
140
1.0
102
RTVSPost2010PropOp56
 70
     1
102
RTVSPost2010Prop57
140
1.0
102
RTVSPost2010PropOp57
 70
     1
102
RTVSPropertyOp0
 70
     1
102
RTVSPropertyOp1
 70
     1
102
RTVSPropertyOp2
 70
     1
102
RTVSPropertyOp3
 70
     1
102
RTVSPropertyOp4
 70
     1
102
RTVSPropertyOp5
 70
     1
102
RTVSPropertyOp6
 70
     1
102
RTVSPropertyOp7
 70
     1
102
RTVSPropertyOp8
 70
     1
102
RTVSPropertyOp9
 70
     1
102
RTVSPropertyOp10
 70
     1
102
RTVSPropertyOp11
 70
     1
102
RTVSPropertyOp12
 70
     1
102
RTVSPropertyOp13
 70
     1
102
RTVSPropertyOp14
 70
     1
102
RTVSPropertyOp15
 70
     1
102
RTVSPropertyOp16
 70
     1
102
RTVSPropertyOp17
 70
     1
102
RTVSPropertyOp18
 70
     1
102
RTVSPropertyOp19
 70
     1
102
RTVSPropertyOp20
 70
     1
102
RTVSPropertyOp21
 70
     1
102
RTVSPropertyOp22
 70
     1
102
RTVSPropertyOp23
 70
     1
102
RTVSPropertyOp24
 70
     1
102
RTVSPropertyOp25
 70
     1
102
RTVSPropertyOp26
 70
     1
102
RTVSPropertyOp27
 70
     1
102
RTVSPropertyOp28
 70
     1
102
RTVSPropertyOp29
 70
     1
102
RTVSPropertyOp30
 70
     1
102
RTVSPropertyOp31
 70
     1
102
RTVSPropertyOp32
 70
     1
102
RTVSPropertyOp33
 70
     1
102
RTVSPropertyOp34
 70
     1
102
RTVSPropertyOp35
 70
     1
102
RTVSPropertyOp36
 70
     1
102
RTVSPropertyOp37
 70
     1
102
RTVSPropertyOp38
 70
     1
102
RTVSPropertyOp39
 70
     1
102
RTVSPropertyOp40
 70
     1
102
RTVSPropertyOp41
 70
     1
102
RTVSPropertyOp42
 70
     1
102
RTVSPropertyOp43
 70
     1
102
RTVSPropertyOp44
 70
     1
102
RTVSPropertyOp45
 70
     1
102
RTVSPropertyOp46
 70
     1
102
RTVSPropertyOp47
 70
     1
102
RTVSPropertyOp48
 70
     1
102
RTVSPropertyOp49
 70
     1
102
RTVSPropertyOp50
 70
     1
102
RTVSPropertyOp51
 70
     0
102
RTVSPropertyOp52
 70
     0
102
RTVSPropertyOp53
 70
     1
102
RTVSPropertyOp54
 70
     1
102
RTVSPropertyOp55
 70
     1
102
RTVSPropertyOp56
 70
     1
102
RTVSPropertyOp57
 70
     1
102
RTVSPropertyOp58
 70
     1
102
RTVSPropertyOp59
 70
     1
102
RTVSPropertyOp60
 70
     1
102
RTVSPropertyOp61
 70
     1
102
RTVSPropertyOp62
 70
     1
  0
XRECORD
  5
9AD4
102
{ACAD_REACTORS
330
9AD3
102
}
330
9AD3
100
AcDbXrecord
280
     1
102
RTVSPost2010Prop28
280
     0
102
RTVSPost2010PropOp28
 70
     1
102
RTVSPost2010Prop29
280
     1
102
RTVSPost2010PropOp29
 70
     1
102
RTVSPost2010Prop30
280
     1
102
RTVSPost2010PropOp30
 70
     1
102
RTVSPost2010Prop31
280
     0
102
RTVSPost2010PropOp31
 70
     1
102
RTVSPost2010Prop32
280
     0
102
RTVSPost2010PropOp32
 70
     1
102
RTVSPost2010Prop33
280
     0
102
RTVSPost2010PropOp33
 70
     1
102
RTVSPost2010Prop34
280
     0
102
RTVSPost2010PropOp34
 70
     1
102
RTVSPost2010Prop35
280
     0
102
RTVSPost2010PropOp35
 70
     1
102
RTVSPost2010Prop36
280
     0
102
RTVSPost2010PropOp36
 70
     1
102
RTVSPost2010Prop37
 90
       50
102
RTVSPost2010PropOp37
 70
     1
102
RTVSPost2010Prop38
140
0.0
102
RTVSPost2010PropOp38
 70
     1
102
RTVSPost2010Prop39
140
1.0
102
RTVSPost2010PropOp39
 70
     1
102
RTVSPost2010Prop40
 90
        0
102
RTVSPost2010PropOp40
 70
     1
102
RTVSPost2010Prop41ColorIndex
 90
       18
102
RTVSPost2010Prop41ColorRGB
 90
        0
102
RTVSPost2010PropOp41
 70
     1
102
RTVSPost2010Prop42
 90
       50
102
RTVSPost2010PropOp42
 70
     1
102
RTVSPost2010Prop43
 90
        3
102
RTVSPost2010PropOp43
 70
     1
102
RTVSPost2010Prop44ColorIndex
 90
        5
102
RTVSPost2010Prop44ColorRGB
 90
      255
102
RTVSPost2010PropOp44
 70
     1
102
RTVSPost2010Prop45
280
     0
102
RTVSPost2010PropOp45
 70
     1
102
RTVSPost2010Prop46
 90
       50
102
RTVSPost2010PropOp46
 70
     1
102
RTVSPost2010Prop47
 90
       50
102
RTVSPost2010PropOp47
 70
     1
102
RTVSPost2010Prop48
 90
       50
102
RTVSPost2010PropOp48
 70
     1
102
RTVSPost2010Prop49
280
     0
102
RTVSPost2010PropOp49
 70
     1
102
RTVSPost2010Prop50
 90
       50
102
RTVSPost2010PropOp50
 70
     1
102
RTVSPost2010Prop51ColorIndex
 90
      256
102
RTVSPost2010Prop51ColorRGB
 90
-16777216
102
RTVSPost2010PropOp51
 70
     0
102
RTVSPost2010Prop52
140
1.0
102
RTVSPost2010PropOp52
 70
     0
102
RTVSPost2010Prop53
 90
        2
102
RTVSPost2010PropOp53
 70
     1
102
RTVSPost2010Prop54
  1
strokes_ogs.tif
102
RTVSPost2010PropOp54
 70
     1
102
RTVSPost2010Prop55
280
     0
102
RTVSPost2010PropOp55
 70
     1
102
RTVSPost2010Prop56
140
1.0
102
RTVSPost2010PropOp56
 70
     1
102
RTVSPost2010Prop57
140
1.0
102
RTVSPost2010PropOp57
 70
     1
102
RTVSPropertyOp0
 70
     1
102
RTVSPropertyOp1
 70
     1
102
RTVSPropertyOp2
 70
     1
102
RTVSPropertyOp3
 70
     1
102
RTVSPropertyOp4
 70
     1
102
RTVSPropertyOp5
 70
     1
102
RTVSPropertyOp6
 70
     1
102
RTVSPropertyOp7
 70
     1
102
RTVSPropertyOp8
 70
     1
102
RTVSPropertyOp9
 70
     1
102
RTVSPropertyOp10
 70
     1
102
RTVSPropertyOp11
 70
     1
102
RTVSPropertyOp12
 70
     1
102
RTVSPropertyOp13
 70
     1
102
RTVSPropertyOp14
 70
     1
102
RTVSPropertyOp15
 70
     1
102
RTVSPropertyOp16
 70
     1
102
RTVSPropertyOp17
 70
     1
102
RTVSPropertyOp18
 70
     1
102
RTVSPropertyOp19
 70
     1
102
RTVSPropertyOp20
 70
     1
102
RTVSPropertyOp21
 70
     1
102
RTVSPropertyOp22
 70
     1
102
RTVSPropertyOp23
 70
     1
102
RTVSPropertyOp24
 70
     1
102
RTVSPropertyOp25
 70
     1
102
RTVSPropertyOp26
 70
     1
102
RTVSPropertyOp27
 70
     1
102
RTVSPropertyOp28
 70
     1
102
RTVSPropertyOp29
 70
     1
102
RTVSPropertyOp30
 70
     1
102
RTVSPropertyOp31
 70
     1
102
RTVSPropertyOp32
 70
     1
102
RTVSPropertyOp33
 70
     1
102
RTVSPropertyOp34
 70
     1
102
RTVSPropertyOp35
 70
     1
102
RTVSPropertyOp36
 70
     1
102
RTVSPropertyOp37
 70
     1
102
RTVSPropertyOp38
 70
     1
102
RTVSPropertyOp39
 70
     1
102
RTVSPropertyOp40
 70
     1
102
RTVSPropertyOp41
 70
     1
102
RTVSPropertyOp42
 70
     1
102
RTVSPropertyOp43
 70
     1
102
RTVSPropertyOp44
 70
     1
102
RTVSPropertyOp45
 70
     1
102
RTVSPropertyOp46
 70
     1
102
RTVSPropertyOp47
 70
     1
102
RTVSPropertyOp48
 70
     1
102
RTVSPropertyOp49
 70
     1
102
RTVSPropertyOp50
 70
     1
102
RTVSPropertyOp51
 70
     0
102
RTVSPropertyOp52
 70
     0
102
RTVSPropertyOp53
 70
     1
102
RTVSPropertyOp54
 70
     1
102
RTVSPropertyOp55
 70
     1
102
RTVSPropertyOp56
 70
     1
102
RTVSPropertyOp57
 70
     1
102
RTVSPropertyOp58
 70
     1
102
RTVSPropertyOp59
 70
     1
102
RTVSPropertyOp60
 70
     1
102
RTVSPropertyOp61
 70
     1
102
RTVSPropertyOp62
 70
     1
  0
XRECORD
  5
9AD6
102
{ACAD_REACTORS
330
9AD5
102
}
330
9AD5
100
AcDbXrecord
280
     1
102
RTVSPost2010Prop28
280
     0
102
RTVSPost2010PropOp28
 70
     1
102
RTVSPost2010Prop29
280
     1
102
RTVSPost2010PropOp29
 70
     1
102
RTVSPost2010Prop30
280
     1
102
RTVSPost2010PropOp30
 70
     1
102
RTVSPost2010Prop31
280
     0
102
RTVSPost2010PropOp31
 70
     1
102
RTVSPost2010Prop32
280
     0
102
RTVSPost2010PropOp32
 70
     1
102
RTVSPost2010Prop33
280
     0
102
RTVSPost2010PropOp33
 70
     1
102
RTVSPost2010Prop34
280
     0
102
RTVSPost2010PropOp34
 70
     1
102
RTVSPost2010Prop35
280
     0
102
RTVSPost2010PropOp35
 70
     1
102
RTVSPost2010Prop36
280
     0
102
RTVSPost2010PropOp36
 70
     1
102
RTVSPost2010Prop37
 90
       50
102
RTVSPost2010PropOp37
 70
     1
102
RTVSPost2010Prop38
140
0.0
102
RTVSPost2010PropOp38
 70
     1
102
RTVSPost2010Prop39
140
1.0
102
RTVSPost2010PropOp39
 70
     1
102
RTVSPost2010Prop40
 90
        0
102
RTVSPost2010PropOp40
 70
     1
102
RTVSPost2010Prop41ColorIndex
 90
       18
102
RTVSPost2010Prop41ColorRGB
 90
        0
102
RTVSPost2010PropOp41
 70
     1
102
RTVSPost2010Prop42
 90
       50
102
RTVSPost2010PropOp42
 70
     1
102
RTVSPost2010Prop43
 90
        3
102
RTVSPost2010PropOp43
 70
     1
102
RTVSPost2010Prop44ColorIndex
 90
        5
102
RTVSPost2010Prop44ColorRGB
 90
      255
102
RTVSPost2010PropOp44
 70
     1
102
RTVSPost2010Prop45
280
     0
102
RTVSPost2010PropOp45
 70
     1
102
RTVSPost2010Prop46
 90
       50
102
RTVSPost2010PropOp46
 70
     1
102
RTVSPost2010Prop47
 90
       50
102
RTVSPost2010PropOp47
 70
     1
102
RTVSPost2010Prop48
 90
       50
102
RTVSPost2010PropOp48
 70
     1
102
RTVSPost2010Prop49
280
     0
102
RTVSPost2010PropOp49
 70
     1
102
RTVSPost2010Prop50
 90
       50
102
RTVSPost2010PropOp50
 70
     1
102
RTVSPost2010Prop51ColorIndex
 90
      256
102
RTVSPost2010Prop51ColorRGB
 90
-16777216
102
RTVSPost2010PropOp51
 70
     0
102
RTVSPost2010Prop52
140
1.0
102
RTVSPost2010PropOp52
 70
     0
102
RTVSPost2010Prop53
 90
        2
102
RTVSPost2010PropOp53
 70
     1
102
RTVSPost2010Prop54
  1
strokes_ogs.tif
102
RTVSPost2010PropOp54
 70
     1
102
RTVSPost2010Prop55
280
     0
102
RTVSPost2010PropOp55
 70
     1
102
RTVSPost2010Prop56
140
1.0
102
RTVSPost2010PropOp56
 70
     1
102
RTVSPost2010Prop57
140
1.0
102
RTVSPost2010PropOp57
 70
     1
102
RTVSPropertyOp0
 70
     1
102
RTVSPropertyOp1
 70
     1
102
RTVSPropertyOp2
 70
     1
102
RTVSPropertyOp3
 70
     1
102
RTVSPropertyOp4
 70
     1
102
RTVSPropertyOp5
 70
     1
102
RTVSPropertyOp6
 70
     1
102
RTVSPropertyOp7
 70
     1
102
RTVSPropertyOp8
 70
     1
102
RTVSPropertyOp9
 70
     1
102
RTVSPropertyOp10
 70
     1
102
RTVSPropertyOp11
 70
     1
102
RTVSPropertyOp12
 70
     1
102
RTVSPropertyOp13
 70
     1
102
RTVSPropertyOp14
 70
     1
102
RTVSPropertyOp15
 70
     1
102
RTVSPropertyOp16
 70
     1
102
RTVSPropertyOp17
 70
     1
102
RTVSPropertyOp18
 70
     1
102
RTVSPropertyOp19
 70
     1
102
RTVSPropertyOp20
 70
     1
102
RTVSPropertyOp21
 70
     1
102
RTVSPropertyOp22
 70
     1
102
RTVSPropertyOp23
 70
     1
102
RTVSPropertyOp24
 70
     1
102
RTVSPropertyOp25
 70
     1
102
RTVSPropertyOp26
 70
     1
102
RTVSPropertyOp27
 70
     1
102
RTVSPropertyOp28
 70
     1
102
RTVSPropertyOp29
 70
     1
102
RTVSPropertyOp30
 70
     1
102
RTVSPropertyOp31
 70
     1
102
RTVSPropertyOp32
 70
     1
102
RTVSPropertyOp33
 70
     1
102
RTVSPropertyOp34
 70
     1
102
RTVSPropertyOp35
 70
     1
102
RTVSPropertyOp36
 70
     1
102
RTVSPropertyOp37
 70
     1
102
RTVSPropertyOp38
 70
     1
102
RTVSPropertyOp39
 70
     1
102
RTVSPropertyOp40
 70
     1
102
RTVSPropertyOp41
 70
     1
102
RTVSPropertyOp42
 70
     1
102
RTVSPropertyOp43
 70
     1
102
RTVSPropertyOp44
 70
     1
102
RTVSPropertyOp45
 70
     1
102
RTVSPropertyOp46
 70
     1
102
RTVSPropertyOp47
 70
     1
102
RTVSPropertyOp48
 70
     1
102
RTVSPropertyOp49
 70
     1
102
RTVSPropertyOp50
 70
     1
102
RTVSPropertyOp51
 70
     0
102
RTVSPropertyOp52
 70
     0
102
RTVSPropertyOp53
 70
     1
102
RTVSPropertyOp54
 70
     1
102
RTVSPropertyOp55
 70
     1
102
RTVSPropertyOp56
 70
     1
102
RTVSPropertyOp57
 70
     1
102
RTVSPropertyOp58
 70
     1
102
RTVSPropertyOp59
 70
     1
102
RTVSPropertyOp60
 70
     1
102
RTVSPropertyOp61
 70
     1
102
RTVSPropertyOp62
 70
     1
  0
XRECORD
  5
9AD8
102
{ACAD_REACTORS
330
9AD7
102
}
330
9AD7
100
AcDbXrecord
280
     1
102
RTVSPost2010Prop28
280
     0
102
RTVSPost2010PropOp28
 70
     1
102
RTVSPost2010Prop29
280
     1
102
RTVSPost2010PropOp29
 70
     1
102
RTVSPost2010Prop30
280
     1
102
RTVSPost2010PropOp30
 70
     1
102
RTVSPost2010Prop31
280
     0
102
RTVSPost2010PropOp31
 70
     1
102
RTVSPost2010Prop32
280
     0
102
RTVSPost2010PropOp32
 70
     1
102
RTVSPost2010Prop33
280
     0
102
RTVSPost2010PropOp33
 70
     1
102
RTVSPost2010Prop34
280
     0
102
RTVSPost2010PropOp34
 70
     1
102
RTVSPost2010Prop35
280
     0
102
RTVSPost2010PropOp35
 70
     1
102
RTVSPost2010Prop36
280
     0
102
RTVSPost2010PropOp36
 70
     1
102
RTVSPost2010Prop37
 90
       50
102
RTVSPost2010PropOp37
 70
     1
102
RTVSPost2010Prop38
140
0.0
102
RTVSPost2010PropOp38
 70
     1
102
RTVSPost2010Prop39
140
1.0
102
RTVSPost2010PropOp39
 70
     1
102
RTVSPost2010Prop40
 90
        0
102
RTVSPost2010PropOp40
 70
     1
102
RTVSPost2010Prop41ColorIndex
 90
       18
102
RTVSPost2010Prop41ColorRGB
 90
        0
102
RTVSPost2010PropOp41
 70
     1
102
RTVSPost2010Prop42
 90
       50
102
RTVSPost2010PropOp42
 70
     1
102
RTVSPost2010Prop43
 90
        3
102
RTVSPost2010PropOp43
 70
     1
102
RTVSPost2010Prop44ColorIndex
 90
        5
102
RTVSPost2010Prop44ColorRGB
 90
      255
102
RTVSPost2010PropOp44
 70
     1
102
RTVSPost2010Prop45
280
     0
102
RTVSPost2010PropOp45
 70
     1
102
RTVSPost2010Prop46
 90
       50
102
RTVSPost2010PropOp46
 70
     1
102
RTVSPost2010Prop47
 90
       50
102
RTVSPost2010PropOp47
 70
     1
102
RTVSPost2010Prop48
 90
       50
102
RTVSPost2010PropOp48
 70
     1
102
RTVSPost2010Prop49
280
     0
102
RTVSPost2010PropOp49
 70
     1
102
RTVSPost2010Prop50
 90
       50
102
RTVSPost2010PropOp50
 70
     1
102
RTVSPost2010Prop51ColorIndex
 90
      256
102
RTVSPost2010Prop51ColorRGB
 90
-16777216
102
RTVSPost2010PropOp51
 70
     0
102
RTVSPost2010Prop52
140
1.0
102
RTVSPost2010PropOp52
 70
     0
102
RTVSPost2010Prop53
 90
        2
102
RTVSPost2010PropOp53
 70
     1
102
RTVSPost2010Prop54
  1
strokes_ogs.tif
102
RTVSPost2010PropOp54
 70
     1
102
RTVSPost2010Prop55
280
     0
102
RTVSPost2010PropOp55
 70
     1
102
RTVSPost2010Prop56
140
1.0
102
RTVSPost2010PropOp56
 70
     1
102
RTVSPost2010Prop57
140
1.0
102
RTVSPost2010PropOp57
 70
     1
102
RTVSPropertyOp0
 70
     1
102
RTVSPropertyOp1
 70
     1
102
RTVSPropertyOp2
 70
     1
102
RTVSPropertyOp3
 70
     1
102
RTVSPropertyOp4
 70
     1
102
RTVSPropertyOp5
 70
     1
102
RTVSPropertyOp6
 70
     1
102
RTVSPropertyOp7
 70
     1
102
RTVSPropertyOp8
 70
     1
102
RTVSPropertyOp9
 70
     1
102
RTVSPropertyOp10
 70
     1
102
RTVSPropertyOp11
 70
     1
102
RTVSPropertyOp12
 70
     1
102
RTVSPropertyOp13
 70
     1
102
RTVSPropertyOp14
 70
     1
102
RTVSPropertyOp15
 70
     1
102
RTVSPropertyOp16
 70
     1
102
RTVSPropertyOp17
 70
     1
102
RTVSPropertyOp18
 70
     1
102
RTVSPropertyOp19
 70
     1
102
RTVSPropertyOp20
 70
     1
102
RTVSPropertyOp21
 70
     1
102
RTVSPropertyOp22
 70
     1
102
RTVSPropertyOp23
 70
     1
102
RTVSPropertyOp24
 70
     1
102
RTVSPropertyOp25
 70
     1
102
RTVSPropertyOp26
 70
     1
102
RTVSPropertyOp27
 70
     1
102
RTVSPropertyOp28
 70
     1
102
RTVSPropertyOp29
 70
     1
102
RTVSPropertyOp30
 70
     1
102
RTVSPropertyOp31
 70
     1
102
RTVSPropertyOp32
 70
     1
102
RTVSPropertyOp33
 70
     1
102
RTVSPropertyOp34
 70
     1
102
RTVSPropertyOp35
 70
     1
102
RTVSPropertyOp36
 70
     1
102
RTVSPropertyOp37
 70
     1
102
RTVSPropertyOp38
 70
     1
102
RTVSPropertyOp39
 70
     1
102
RTVSPropertyOp40
 70
     1
102
RTVSPropertyOp41
 70
     1
102
RTVSPropertyOp42
 70
     1
102
RTVSPropertyOp43
 70
     1
102
RTVSPropertyOp44
 70
     1
102
RTVSPropertyOp45
 70
     1
102
RTVSPropertyOp46
 70
     1
102
RTVSPropertyOp47
 70
     1
102
RTVSPropertyOp48
 70
     1
102
RTVSPropertyOp49
 70
     1
102
RTVSPropertyOp50
 70
     1
102
RTVSPropertyOp51
 70
     0
102
RTVSPropertyOp52
 70
     0
102
RTVSPropertyOp53
 70
     1
102
RTVSPropertyOp54
 70
     1
102
RTVSPropertyOp55
 70
     1
102
RTVSPropertyOp56
 70
     1
102
RTVSPropertyOp57
 70
     1
102
RTVSPropertyOp58
 70
     1
102
RTVSPropertyOp59
 70
     1
102
RTVSPropertyOp60
 70
     1
102
RTVSPropertyOp61
 70
     1
102
RTVSPropertyOp62
 70
     1
  0
XRECORD
  5
9ADA
102
{ACAD_REACTORS
330
9AD9
102
}
330
9AD9
100
AcDbXrecord
280
     1
102
RTVSPost2010Prop28
280
     0
102
RTVSPost2010PropOp28
 70
     1
102
RTVSPost2010Prop29
280
     1
102
RTVSPost2010PropOp29
 70
     1
102
RTVSPost2010Prop30
280
     1
102
RTVSPost2010PropOp30
 70
     1
102
RTVSPost2010Prop31
280
     0
102
RTVSPost2010PropOp31
 70
     1
102
RTVSPost2010Prop32
280
     0
102
RTVSPost2010PropOp32
 70
     1
102
RTVSPost2010Prop33
280
     0
102
RTVSPost2010PropOp33
 70
     1
102
RTVSPost2010Prop34
280
     0
102
RTVSPost2010PropOp34
 70
     1
102
RTVSPost2010Prop35
280
     0
102
RTVSPost2010PropOp35
 70
     1
102
RTVSPost2010Prop36
280
     0
102
RTVSPost2010PropOp36
 70
     1
102
RTVSPost2010Prop37
 90
       50
102
RTVSPost2010PropOp37
 70
     1
102
RTVSPost2010Prop38
140
0.0
102
RTVSPost2010PropOp38
 70
     1
102
RTVSPost2010Prop39
140
1.0
102
RTVSPost2010PropOp39
 70
     1
102
RTVSPost2010Prop40
 90
        0
102
RTVSPost2010PropOp40
 70
     1
102
RTVSPost2010Prop41ColorIndex
 90
       18
102
RTVSPost2010Prop41ColorRGB
 90
        0
102
RTVSPost2010PropOp41
 70
     1
102
RTVSPost2010Prop42
 90
       50
102
RTVSPost2010PropOp42
 70
     1
102
RTVSPost2010Prop43
 90
        3
102
RTVSPost2010PropOp43
 70
     1
102
RTVSPost2010Prop44ColorIndex
 90
        5
102
RTVSPost2010Prop44ColorRGB
 90
      255
102
RTVSPost2010PropOp44
 70
     1
102
RTVSPost2010Prop45
280
     0
102
RTVSPost2010PropOp45
 70
     1
102
RTVSPost2010Prop46
 90
       50
102
RTVSPost2010PropOp46
 70
     1
102
RTVSPost2010Prop47
 90
       50
102
RTVSPost2010PropOp47
 70
     1
102
RTVSPost2010Prop48
 90
       50
102
RTVSPost2010PropOp48
 70
     1
102
RTVSPost2010Prop49
280
     0
102
RTVSPost2010PropOp49
 70
     1
102
RTVSPost2010Prop50
 90
       50
102
RTVSPost2010PropOp50
 70
     1
102
RTVSPost2010Prop51ColorIndex
 90
      256
102
RTVSPost2010Prop51ColorRGB
 90
-16777216
102
RTVSPost2010PropOp51
 70
     0
102
RTVSPost2010Prop52
140
1.0
102
RTVSPost2010PropOp52
 70
     0
102
RTVSPost2010Prop53
 90
        2
102
RTVSPost2010PropOp53
 70
     1
102
RTVSPost2010Prop54
  1
strokes_ogs.tif
102
RTVSPost2010PropOp54
 70
     1
102
RTVSPost2010Prop55
280
     0
102
RTVSPost2010PropOp55
 70
     1
102
RTVSPost2010Prop56
140
1.0
102
RTVSPost2010PropOp56
 70
     1
102
RTVSPost2010Prop57
140
1.0
102
RTVSPost2010PropOp57
 70
     1
102
RTVSPropertyOp0
 70
     1
102
RTVSPropertyOp1
 70
     1
102
RTVSPropertyOp2
 70
     1
102
RTVSPropertyOp3
 70
     1
102
RTVSPropertyOp4
 70
     1
102
RTVSPropertyOp5
 70
     1
102
RTVSPropertyOp6
 70
     1
102
RTVSPropertyOp7
 70
     1
102
RTVSPropertyOp8
 70
     1
102
RTVSPropertyOp9
 70
     1
102
RTVSPropertyOp10
 70
     1
102
RTVSPropertyOp11
 70
     1
102
RTVSPropertyOp12
 70
     1
102
RTVSPropertyOp13
 70
     1
102
RTVSPropertyOp14
 70
     1
102
RTVSPropertyOp15
 70
     1
102
RTVSPropertyOp16
 70
     1
102
RTVSPropertyOp17
 70
     1
102
RTVSPropertyOp18
 70
     1
102
RTVSPropertyOp19
 70
     1
102
RTVSPropertyOp20
 70
     1
102
RTVSPropertyOp21
 70
     1
102
RTVSPropertyOp22
 70
     1
102
RTVSPropertyOp23
 70
     1
102
RTVSPropertyOp24
 70
     1
102
RTVSPropertyOp25
 70
     1
102
RTVSPropertyOp26
 70
     1
102
RTVSPropertyOp27
 70
     1
102
RTVSPropertyOp28
 70
     1
102
RTVSPropertyOp29
 70
     1
102
RTVSPropertyOp30
 70
     1
102
RTVSPropertyOp31
 70
     1
102
RTVSPropertyOp32
 70
     1
102
RTVSPropertyOp33
 70
     1
102
RTVSPropertyOp34
 70
     1
102
RTVSPropertyOp35
 70
     1
102
RTVSPropertyOp36
 70
     1
102
RTVSPropertyOp37
 70
     1
102
RTVSPropertyOp38
 70
     1
102
RTVSPropertyOp39
 70
     1
102
RTVSPropertyOp40
 70
     1
102
RTVSPropertyOp41
 70
     1
102
RTVSPropertyOp42
 70
     1
102
RTVSPropertyOp43
 70
     1
102
RTVSPropertyOp44
 70
     1
102
RTVSPropertyOp45
 70
     1
102
RTVSPropertyOp46
 70
     1
102
RTVSPropertyOp47
 70
     1
102
RTVSPropertyOp48
 70
     1
102
RTVSPropertyOp49
 70
     1
102
RTVSPropertyOp50
 70
     1
102
RTVSPropertyOp51
 70
     0
102
RTVSPropertyOp52
 70
     0
102
RTVSPropertyOp53
 70
     1
102
RTVSPropertyOp54
 70
     1
102
RTVSPropertyOp55
 70
     1
102
RTVSPropertyOp56
 70
     1
102
RTVSPropertyOp57
 70
     1
102
RTVSPropertyOp58
 70
     1
102
RTVSPropertyOp59
 70
     1
102
RTVSPropertyOp60
 70
     1
102
RTVSPropertyOp61
 70
     1
102
RTVSPropertyOp62
 70
     1
  0
XRECORD
  5
9AE2
102
{ACAD_REACTORS
330
9AE1
102
}
330
9AE1
100
AcDbXrecord
280
     1
102
RTVSPost2010Prop28
280
     0
102
RTVSPost2010PropOp28
 70
     1
102
RTVSPost2010Prop29
280
     1
102
RTVSPost2010PropOp29
 70
     1
102
RTVSPost2010Prop30
280
     1
102
RTVSPost2010PropOp30
 70
     1
102
RTVSPost2010Prop31
280
     0
102
RTVSPost2010PropOp31
 70
     1
102
RTVSPost2010Prop32
280
     0
102
RTVSPost2010PropOp32
 70
     1
102
RTVSPost2010Prop33
280
     0
102
RTVSPost2010PropOp33
 70
     1
102
RTVSPost2010Prop34
280
     0
102
RTVSPost2010PropOp34
 70
     1
102
RTVSPost2010Prop35
280
     0
102
RTVSPost2010PropOp35
 70
     1
102
RTVSPost2010Prop36
280
     0
102
RTVSPost2010PropOp36
 70
     1
102
RTVSPost2010Prop37
 90
       50
102
RTVSPost2010PropOp37
 70
     1
102
RTVSPost2010Prop38
140
0.0
102
RTVSPost2010PropOp38
 70
     1
102
RTVSPost2010Prop39
140
1.0
102
RTVSPost2010PropOp39
 70
     1
102
RTVSPost2010Prop40
 90
        0
102
RTVSPost2010PropOp40
 70
     1
102
RTVSPost2010Prop41ColorIndex
 90
       18
102
RTVSPost2010Prop41ColorRGB
 90
        0
102
RTVSPost2010PropOp41
 70
     1
102
RTVSPost2010Prop42
 90
       50
102
RTVSPost2010PropOp42
 70
     1
102
RTVSPost2010Prop43
 90
        3
102
RTVSPost2010PropOp43
 70
     1
102
RTVSPost2010Prop44ColorIndex
 90
        5
102
RTVSPost2010Prop44ColorRGB
 90
      255
102
RTVSPost2010PropOp44
 70
     1
102
RTVSPost2010Prop45
280
     0
102
RTVSPost2010PropOp45
 70
     1
102
RTVSPost2010Prop46
 90
       50
102
RTVSPost2010PropOp46
 70
     1
102
RTVSPost2010Prop47
 90
       50
102
RTVSPost2010PropOp47
 70
     1
102
RTVSPost2010Prop48
 90
       50
102
RTVSPost2010PropOp48
 70
     1
102
RTVSPost2010Prop49
280
     0
102
RTVSPost2010PropOp49
 70
     1
102
RTVSPost2010Prop50
 90
       50
102
RTVSPost2010PropOp50
 70
     1
102
RTVSPost2010Prop51ColorIndex
 90
      256
102
RTVSPost2010Prop51ColorRGB
 90
-16777216
102
RTVSPost2010PropOp51
 70
     0
102
RTVSPost2010Prop52
140
1.0
102
RTVSPost2010PropOp52
 70
     0
102
RTVSPost2010Prop53
 90
        2
102
RTVSPost2010PropOp53
 70
     1
102
RTVSPost2010Prop54
  1
strokes_ogs.tif
102
RTVSPost2010PropOp54
 70
     1
102
RTVSPost2010Prop55
280
     0
102
RTVSPost2010PropOp55
 70
     1
102
RTVSPost2010Prop56
140
1.0
102
RTVSPost2010PropOp56
 70
     1
102
RTVSPost2010Prop57
140
1.0
102
RTVSPost2010PropOp57
 70
     1
102
RTVSPropertyOp0
 70
     1
102
RTVSPropertyOp1
 70
     1
102
RTVSPropertyOp2
 70
     1
102
RTVSPropertyOp3
 70
     1
102
RTVSPropertyOp4
 70
     1
102
RTVSPropertyOp5
 70
     1
102
RTVSPropertyOp6
 70
     1
102
RTVSPropertyOp7
 70
     1
102
RTVSPropertyOp8
 70
     1
102
RTVSPropertyOp9
 70
     1
102
RTVSPropertyOp10
 70
     1
102
RTVSPropertyOp11
 70
     1
102
RTVSPropertyOp12
 70
     1
102
RTVSPropertyOp13
 70
     1
102
RTVSPropertyOp14
 70
     1
102
RTVSPropertyOp15
 70
     1
102
RTVSPropertyOp16
 70
     1
102
RTVSPropertyOp17
 70
     1
102
RTVSPropertyOp18
 70
     1
102
RTVSPropertyOp19
 70
     1
102
RTVSPropertyOp20
 70
     1
102
RTVSPropertyOp21
 70
     1
102
RTVSPropertyOp22
 70
     1
102
RTVSPropertyOp23
 70
     1
102
RTVSPropertyOp24
 70
     1
102
RTVSPropertyOp25
 70
     1
102
RTVSPropertyOp26
 70
     1
102
RTVSPropertyOp27
 70
     1
102
RTVSPropertyOp28
 70
     1
102
RTVSPropertyOp29
 70
     1
102
RTVSPropertyOp30
 70
     1
102
RTVSPropertyOp31
 70
     1
102
RTVSPropertyOp32
 70
     1
102
RTVSPropertyOp33
 70
     1
102
RTVSPropertyOp34
 70
     1
102
RTVSPropertyOp35
 70
     1
102
RTVSPropertyOp36
 70
     1
102
RTVSPropertyOp37
 70
     1
102
RTVSPropertyOp38
 70
     1
102
RTVSPropertyOp39
 70
     1
102
RTVSPropertyOp40
 70
     1
102
RTVSPropertyOp41
 70
     1
102
RTVSPropertyOp42
 70
     1
102
RTVSPropertyOp43
 70
     1
102
RTVSPropertyOp44
 70
     1
102
RTVSPropertyOp45
 70
     1
102
RTVSPropertyOp46
 70
     1
102
RTVSPropertyOp47
 70
     1
102
RTVSPropertyOp48
 70
     1
102
RTVSPropertyOp49
 70
     1
102
RTVSPropertyOp50
 70
     1
102
RTVSPropertyOp51
 70
     0
102
RTVSPropertyOp52
 70
     0
102
RTVSPropertyOp53
 70
     1
102
RTVSPropertyOp54
 70
     1
102
RTVSPropertyOp55
 70
     1
102
RTVSPropertyOp56
 70
     1
102
RTVSPropertyOp57
 70
     1
102
RTVSPropertyOp58
 70
     1
102
RTVSPropertyOp59
 70
     1
102
RTVSPropertyOp60
 70
     1
102
RTVSPropertyOp61
 70
     1
102
RTVSPropertyOp62
 70
     1
  0
XRECORD
  5
9AFE
102
{ACAD_REACTORS
330
9AFD
102
}
330
9AFD
100
AcDbXrecord
280
     1
102
RTVSPost2010Prop28
280
     0
102
RTVSPost2010PropOp28
 70
     1
102
RTVSPost2010Prop29
280
     1
102
RTVSPost2010PropOp29
 70
     1
102
RTVSPost2010Prop30
280
     1
102
RTVSPost2010PropOp30
 70
     1
102
RTVSPost2010Prop31
280
     0
102
RTVSPost2010PropOp31
 70
     1
102
RTVSPost2010Prop32
280
     0
102
RTVSPost2010PropOp32
 70
     1
102
RTVSPost2010Prop33
280
     0
102
RTVSPost2010PropOp33
 70
     1
102
RTVSPost2010Prop34
280
     0
102
RTVSPost2010PropOp34
 70
     1
102
RTVSPost2010Prop35
280
     0
102
RTVSPost2010PropOp35
 70
     1
102
RTVSPost2010Prop36
280
     0
102
RTVSPost2010PropOp36
 70
     1
102
RTVSPost2010Prop37
 90
       50
102
RTVSPost2010PropOp37
 70
     0
102
RTVSPost2010Prop38
140
0.0
102
RTVSPost2010PropOp38
 70
     0
102
RTVSPost2010Prop39
140
1.0
102
RTVSPost2010PropOp39
 70
     0
102
RTVSPost2010Prop40
 90
        0
102
RTVSPost2010PropOp40
 70
     0
102
RTVSPost2010Prop41ColorIndex
 90
       18
102
RTVSPost2010Prop41ColorRGB
 90
        0
102
RTVSPost2010PropOp41
 70
     0
102
RTVSPost2010Prop42
 90
       50
102
RTVSPost2010PropOp42
 70
     0
102
RTVSPost2010Prop43
 90
        3
102
RTVSPost2010PropOp43
 70
     0
102
RTVSPost2010Prop44ColorIndex
 90
        5
102
RTVSPost2010Prop44ColorRGB
 90
      255
102
RTVSPost2010PropOp44
 70
     0
102
RTVSPost2010Prop45
280
     0
102
RTVSPost2010PropOp45
 70
     1
102
RTVSPost2010Prop46
 90
       50
102
RTVSPost2010PropOp46
 70
     0
102
RTVSPost2010Prop47
 90
       50
102
RTVSPost2010PropOp47
 70
     0
102
RTVSPost2010Prop48
 90
       50
102
RTVSPost2010PropOp48
 70
     0
102
RTVSPost2010Prop49
280
     0
102
RTVSPost2010PropOp49
 70
     1
102
RTVSPost2010Prop50
 90
       50
102
RTVSPost2010PropOp50
 70
     0
102
RTVSPost2010Prop51ColorIndex
 90
      256
102
RTVSPost2010Prop51ColorRGB
 90
-16777216
102
RTVSPost2010PropOp51
 70
     0
102
RTVSPost2010Prop52
140
1.0
102
RTVSPost2010PropOp52
 70
     0
102
RTVSPost2010Prop53
 90
        2
102
RTVSPost2010PropOp53
 70
     0
102
RTVSPost2010Prop54
  1
strokes_ogs.tif
102
RTVSPost2010PropOp54
 70
     0
102
RTVSPost2010Prop55
280
     0
102
RTVSPost2010PropOp55
 70
     1
102
RTVSPost2010Prop56
140
1.0
102
RTVSPost2010PropOp56
 70
     0
102
RTVSPost2010Prop57
140
1.0
102
RTVSPost2010PropOp57
 70
     0
102
RTVSPropertyOp0
 70
     0
102
RTVSPropertyOp1
 70
     0
102
RTVSPropertyOp2
 70
     0
102
RTVSPropertyOp3
 70
     0
102
RTVSPropertyOp4
 70
     0
102
RTVSPropertyOp5
 70
     0
102
RTVSPropertyOp6
 70
     0
102
RTVSPropertyOp7
 70
     0
102
RTVSPropertyOp8
 70
     0
102
RTVSPropertyOp9
 70
     0
102
RTVSPropertyOp10
 70
     0
102
RTVSPropertyOp11
 70
     0
102
RTVSPropertyOp12
 70
     0
102
RTVSPropertyOp13
 70
     0
102
RTVSPropertyOp14
 70
     2
102
RTVSPropertyOp15
 70
     0
102
RTVSPropertyOp16
 70
     0
102
RTVSPropertyOp17
 70
     0
102
RTVSPropertyOp18
 70
     0
102
RTVSPropertyOp19
 70
     0
102
RTVSPropertyOp20
 70
     0
102
RTVSPropertyOp21
 70
     0
102
RTVSPropertyOp22
 70
     0
102
RTVSPropertyOp23
 70
     0
102
RTVSPropertyOp24
 70
     0
102
RTVSPropertyOp25
 70
     0
102
RTVSPropertyOp26
 70
     0
102
RTVSPropertyOp27
 70
     0
102
RTVSPropertyOp28
 70
     1
102
RTVSPropertyOp29
 70
     1
102
RTVSPropertyOp30
 70
     1
102
RTVSPropertyOp31
 70
     1
102
RTVSPropertyOp32
 70
     1
102
RTVSPropertyOp33
 70
     1
102
RTVSPropertyOp34
 70
     1
102
RTVSPropertyOp35
 70
     1
102
RTVSPropertyOp36
 70
     1
102
RTVSPropertyOp37
 70
     0
102
RTVSPropertyOp38
 70
     0
102
RTVSPropertyOp39
 70
     0
102
RTVSPropertyOp40
 70
     0
102
RTVSPropertyOp41
 70
     0
102
RTVSPropertyOp42
 70
     0
102
RTVSPropertyOp43
 70
     0
102
RTVSPropertyOp44
 70
     0
102
RTVSPropertyOp45
 70
     1
102
RTVSPropertyOp46
 70
     0
102
RTVSPropertyOp47
 70
     0
102
RTVSPropertyOp48
 70
     0
102
RTVSPropertyOp49
 70
     1
102
RTVSPropertyOp50
 70
     0
102
RTVSPropertyOp51
 70
     0
102
RTVSPropertyOp52
 70
     0
102
RTVSPropertyOp53
 70
     0
102
RTVSPropertyOp54
 70
     0
102
RTVSPropertyOp55
 70
     1
102
RTVSPropertyOp56
 70
     0
102
RTVSPropertyOp57
 70
     0
102
RTVSPropertyOp58
 70
     0
102
RTVSPropertyOp59
 70
     0
102
RTVSPropertyOp60
 70
     0
102
RTVSPropertyOp61
 70
     0
102
RTVSPropertyOp62
 70
     0
  0
XRECORD
  5
9AEE
102
{ACAD_REACTORS
330
9AED
102
}
330
9AED
100
AcDbXrecord
280
     1
102
RTVSPost2010Prop28
280
     0
102
RTVSPost2010PropOp28
 70
     1
102
RTVSPost2010Prop29
280
     1
102
RTVSPost2010PropOp29
 70
     1
102
RTVSPost2010Prop30
280
     1
102
RTVSPost2010PropOp30
 70
     1
102
RTVSPost2010Prop31
280
     0
102
RTVSPost2010PropOp31
 70
     1
102
RTVSPost2010Prop32
280
     0
102
RTVSPost2010PropOp32
 70
     1
102
RTVSPost2010Prop33
280
     0
102
RTVSPost2010PropOp33
 70
     1
102
RTVSPost2010Prop34
280
     0
102
RTVSPost2010PropOp34
 70
     1
102
RTVSPost2010Prop35
280
     0
102
RTVSPost2010PropOp35
 70
     1
102
RTVSPost2010Prop36
280
     0
102
RTVSPost2010PropOp36
 70
     1
102
RTVSPost2010Prop37
 90
       50
102
RTVSPost2010PropOp37
 70
     1
102
RTVSPost2010Prop38
140
0.0
102
RTVSPost2010PropOp38
 70
     1
102
RTVSPost2010Prop39
140
1.0
102
RTVSPost2010PropOp39
 70
     1
102
RTVSPost2010Prop40
 90
        0
102
RTVSPost2010PropOp40
 70
     1
102
RTVSPost2010Prop41ColorIndex
 90
       18
102
RTVSPost2010Prop41ColorRGB
 90
        0
102
RTVSPost2010PropOp41
 70
     1
102
RTVSPost2010Prop42
 90
       50
102
RTVSPost2010PropOp42
 70
     1
102
RTVSPost2010Prop43
 90
        3
102
RTVSPost2010PropOp43
 70
     1
102
RTVSPost2010Prop44ColorIndex
 90
        5
102
RTVSPost2010Prop44ColorRGB
 90
      255
102
RTVSPost2010PropOp44
 70
     1
102
RTVSPost2010Prop45
280
     0
102
RTVSPost2010PropOp45
 70
     1
102
RTVSPost2010Prop46
 90
       50
102
RTVSPost2010PropOp46
 70
     1
102
RTVSPost2010Prop47
 90
       50
102
RTVSPost2010PropOp47
 70
     1
102
RTVSPost2010Prop48
 90
       50
102
RTVSPost2010PropOp48
 70
     1
102
RTVSPost2010Prop49
280
     0
102
RTVSPost2010PropOp49
 70
     1
102
RTVSPost2010Prop50
 90
       50
102
RTVSPost2010PropOp50
 70
     1
102
RTVSPost2010Prop51ColorIndex
 90
      256
102
RTVSPost2010Prop51ColorRGB
 90
-16777216
102
RTVSPost2010PropOp51
 70
     0
102
RTVSPost2010Prop52
140
1.0
102
RTVSPost2010PropOp52
 70
     0
102
RTVSPost2010Prop53
 90
        2
102
RTVSPost2010PropOp53
 70
     1
102
RTVSPost2010Prop54
  1
strokes_ogs.tif
102
RTVSPost2010PropOp54
 70
     1
102
RTVSPost2010Prop55
280
     0
102
RTVSPost2010PropOp55
 70
     1
102
RTVSPost2010Prop56
140
1.0
102
RTVSPost2010PropOp56
 70
     1
102
RTVSPost2010Prop57
140
1.0
102
RTVSPost2010PropOp57
 70
     1
102
RTVSPropertyOp0
 70
     1
102
RTVSPropertyOp1
 70
     1
102
RTVSPropertyOp2
 70
     1
102
RTVSPropertyOp3
 70
     1
102
RTVSPropertyOp4
 70
     1
102
RTVSPropertyOp5
 70
     1
102
RTVSPropertyOp6
 70
     1
102
RTVSPropertyOp7
 70
     1
102
RTVSPropertyOp8
 70
     1
102
RTVSPropertyOp9
 70
     1
102
RTVSPropertyOp10
 70
     1
102
RTVSPropertyOp11
 70
     1
102
RTVSPropertyOp12
 70
     1
102
RTVSPropertyOp13
 70
     1
102
RTVSPropertyOp14
 70
     1
102
RTVSPropertyOp15
 70
     1
102
RTVSPropertyOp16
 70
     1
102
RTVSPropertyOp17
 70
     1
102
RTVSPropertyOp18
 70
     1
102
RTVSPropertyOp19
 70
     1
102
RTVSPropertyOp20
 70
     1
102
RTVSPropertyOp21
 70
     1
102
RTVSPropertyOp22
 70
     1
102
RTVSPropertyOp23
 70
     1
102
RTVSPropertyOp24
 70
     1
102
RTVSPropertyOp25
 70
     1
102
RTVSPropertyOp26
 70
     1
102
RTVSPropertyOp27
 70
     1
102
RTVSPropertyOp28
 70
     1
102
RTVSPropertyOp29
 70
     1
102
RTVSPropertyOp30
 70
     1
102
RTVSPropertyOp31
 70
     1
102
RTVSPropertyOp32
 70
     1
102
RTVSPropertyOp33
 70
     1
102
RTVSPropertyOp34
 70
     1
102
RTVSPropertyOp35
 70
     1
102
RTVSPropertyOp36
 70
     1
102
RTVSPropertyOp37
 70
     1
102
RTVSPropertyOp38
 70
     1
102
RTVSPropertyOp39
 70
     1
102
RTVSPropertyOp40
 70
     1
102
RTVSPropertyOp41
 70
     1
102
RTVSPropertyOp42
 70
     1
102
RTVSPropertyOp43
 70
     1
102
RTVSPropertyOp44
 70
     1
102
RTVSPropertyOp45
 70
     1
102
RTVSPropertyOp46
 70
     1
102
RTVSPropertyOp47
 70
     1
102
RTVSPropertyOp48
 70
     1
102
RTVSPropertyOp49
 70
     1
102
RTVSPropertyOp50
 70
     1
102
RTVSPropertyOp51
 70
     0
102
RTVSPropertyOp52
 70
     0
102
RTVSPropertyOp53
 70
     1
102
RTVSPropertyOp54
 70
     1
102
RTVSPropertyOp55
 70
     1
102
RTVSPropertyOp56
 70
     1
102
RTVSPropertyOp57
 70
     1
102
RTVSPropertyOp58
 70
     1
102
RTVSPropertyOp59
 70
     1
102
RTVSPropertyOp60
 70
     1
102
RTVSPropertyOp61
 70
     1
102
RTVSPropertyOp62
 70
     1
  0
XRECORD
  5
9B00
102
{ACAD_REACTORS
330
9AFF
102
}
330
9AFF
100
AcDbXrecord
280
     1
102
RTVSPost2010Prop28
280
     0
102
RTVSPost2010PropOp28
 70
     1
102
RTVSPost2010Prop29
280
     1
102
RTVSPost2010PropOp29
 70
     1
102
RTVSPost2010Prop30
280
     1
102
RTVSPost2010PropOp30
 70
     1
102
RTVSPost2010Prop31
280
     0
102
RTVSPost2010PropOp31
 70
     1
102
RTVSPost2010Prop32
280
     0
102
RTVSPost2010PropOp32
 70
     1
102
RTVSPost2010Prop33
280
     0
102
RTVSPost2010PropOp33
 70
     1
102
RTVSPost2010Prop34
280
     0
102
RTVSPost2010PropOp34
 70
     1
102
RTVSPost2010Prop35
280
     0
102
RTVSPost2010PropOp35
 70
     1
102
RTVSPost2010Prop36
280
     0
102
RTVSPost2010PropOp36
 70
     1
102
RTVSPost2010Prop37
 90
       50
102
RTVSPost2010PropOp37
 70
     0
102
RTVSPost2010Prop38
140
0.0
102
RTVSPost2010PropOp38
 70
     0
102
RTVSPost2010Prop39
140
1.0
102
RTVSPost2010PropOp39
 70
     0
102
RTVSPost2010Prop40
 90
        0
102
RTVSPost2010PropOp40
 70
     0
102
RTVSPost2010Prop41ColorIndex
 90
       18
102
RTVSPost2010Prop41ColorRGB
 90
        0
102
RTVSPost2010PropOp41
 70
     0
102
RTVSPost2010Prop42
 90
       50
102
RTVSPost2010PropOp42
 70
     0
102
RTVSPost2010Prop43
 90
        3
102
RTVSPost2010PropOp43
 70
     0
102
RTVSPost2010Prop44ColorIndex
 90
        5
102
RTVSPost2010Prop44ColorRGB
 90
      255
102
RTVSPost2010PropOp44
 70
     0
102
RTVSPost2010Prop45
280
     0
102
RTVSPost2010PropOp45
 70
     1
102
RTVSPost2010Prop46
 90
       50
102
RTVSPost2010PropOp46
 70
     0
102
RTVSPost2010Prop47
 90
       50
102
RTVSPost2010PropOp47
 70
     0
102
RTVSPost2010Prop48
 90
       50
102
RTVSPost2010PropOp48
 70
     0
102
RTVSPost2010Prop49
280
     0
102
RTVSPost2010PropOp49
 70
     1
102
RTVSPost2010Prop50
 90
       50
102
RTVSPost2010PropOp50
 70
     0
102
RTVSPost2010Prop51ColorIndex
 90
      256
102
RTVSPost2010Prop51ColorRGB
 90
-16777216
102
RTVSPost2010PropOp51
 70
     0
102
RTVSPost2010Prop52
140
1.0
102
RTVSPost2010PropOp52
 70
     0
102
RTVSPost2010Prop53
 90
        2
102
RTVSPost2010PropOp53
 70
     0
102
RTVSPost2010Prop54
  1
strokes_ogs.tif
102
RTVSPost2010PropOp54
 70
     0
102
RTVSPost2010Prop55
280
     0
102
RTVSPost2010PropOp55
 70
     1
102
RTVSPost2010Prop56
140
1.0
102
RTVSPost2010PropOp56
 70
     0
102
RTVSPost2010Prop57
140
1.0
102
RTVSPost2010PropOp57
 70
     0
102
RTVSPropertyOp0
 70
     0
102
RTVSPropertyOp1
 70
     0
102
RTVSPropertyOp2
 70
     0
102
RTVSPropertyOp3
 70
     0
102
RTVSPropertyOp4
 70
     0
102
RTVSPropertyOp5
 70
     0
102
RTVSPropertyOp6
 70
     0
102
RTVSPropertyOp7
 70
     0
102
RTVSPropertyOp8
 70
     0
102
RTVSPropertyOp9
 70
     0
102
RTVSPropertyOp10
 70
     0
102
RTVSPropertyOp11
 70
     0
102
RTVSPropertyOp12
 70
     0
102
RTVSPropertyOp13
 70
     0
102
RTVSPropertyOp14
 70
     2
102
RTVSPropertyOp15
 70
     0
102
RTVSPropertyOp16
 70
     0
102
RTVSPropertyOp17
 70
     0
102
RTVSPropertyOp18
 70
     0
102
RTVSPropertyOp19
 70
     0
102
RTVSPropertyOp20
 70
     0
102
RTVSPropertyOp21
 70
     0
102
RTVSPropertyOp22
 70
     0
102
RTVSPropertyOp23
 70
     0
102
RTVSPropertyOp24
 70
     0
102
RTVSPropertyOp25
 70
     0
102
RTVSPropertyOp26
 70
     0
102
RTVSPropertyOp27
 70
     0
102
RTVSPropertyOp28
 70
     1
102
RTVSPropertyOp29
 70
     1
102
RTVSPropertyOp30
 70
     1
102
RTVSPropertyOp31
 70
     1
102
RTVSPropertyOp32
 70
     1
102
RTVSPropertyOp33
 70
     1
102
RTVSPropertyOp34
 70
     1
102
RTVSPropertyOp35
 70
     1
102
RTVSPropertyOp36
 70
     1
102
RTVSPropertyOp37
 70
     0
102
RTVSPropertyOp38
 70
     0
102
RTVSPropertyOp39
 70
     0
102
RTVSPropertyOp40
 70
     0
102
RTVSPropertyOp41
 70
     0
102
RTVSPropertyOp42
 70
     0
102
RTVSPropertyOp43
 70
     0
102
RTVSPropertyOp44
 70
     0
102
RTVSPropertyOp45
 70
     1
102
RTVSPropertyOp46
 70
     0
102
RTVSPropertyOp47
 70
     0
102
RTVSPropertyOp48
 70
     0
102
RTVSPropertyOp49
 70
     1
102
RTVSPropertyOp50
 70
     0
102
RTVSPropertyOp51
 70
     0
102
RTVSPropertyOp52
 70
     0
102
RTVSPropertyOp53
 70
     0
102
RTVSPropertyOp54
 70
     0
102
RTVSPropertyOp55
 70
     1
102
RTVSPropertyOp56
 70
     0
102
RTVSPropertyOp57
 70
     0
102
RTVSPropertyOp58
 70
     0
102
RTVSPropertyOp59
 70
     0
102
RTVSPropertyOp60
 70
     0
102
RTVSPropertyOp61
 70
     0
102
RTVSPropertyOp62
 70
     0
  0
XRECORD
  5
9AE6
102
{ACAD_REACTORS
330
9AE5
102
}
330
9AE5
100
AcDbXrecord
280
     1
102
RTVSPost2010Prop28
280
     0
102
RTVSPost2010PropOp28
 70
     1
102
RTVSPost2010Prop29
280
     1
102
RTVSPost2010PropOp29
 70
     1
102
RTVSPost2010Prop30
280
     1
102
RTVSPost2010PropOp30
 70
     1
102
RTVSPost2010Prop31
280
     0
102
RTVSPost2010PropOp31
 70
     1
102
RTVSPost2010Prop32
280
     0
102
RTVSPost2010PropOp32
 70
     1
102
RTVSPost2010Prop33
280
     0
102
RTVSPost2010PropOp33
 70
     1
102
RTVSPost2010Prop34
280
     0
102
RTVSPost2010PropOp34
 70
     1
102
RTVSPost2010Prop35
280
     0
102
RTVSPost2010PropOp35
 70
     1
102
RTVSPost2010Prop36
280
     0
102
RTVSPost2010PropOp36
 70
     1
102
RTVSPost2010Prop37
 90
       50
102
RTVSPost2010PropOp37
 70
     1
102
RTVSPost2010Prop38
140
0.0
102
RTVSPost2010PropOp38
 70
     1
102
RTVSPost2010Prop39
140
1.0
102
RTVSPost2010PropOp39
 70
     1
102
RTVSPost2010Prop40
 90
        0
102
RTVSPost2010PropOp40
 70
     1
102
RTVSPost2010Prop41ColorIndex
 90
       18
102
RTVSPost2010Prop41ColorRGB
 90
        0
102
RTVSPost2010PropOp41
 70
     1
102
RTVSPost2010Prop42
 90
       50
102
RTVSPost2010PropOp42
 70
     1
102
RTVSPost2010Prop43
 90
        3
102
RTVSPost2010PropOp43
 70
     1
102
RTVSPost2010Prop44ColorIndex
 90
        5
102
RTVSPost2010Prop44ColorRGB
 90
      255
102
RTVSPost2010PropOp44
 70
     1
102
RTVSPost2010Prop45
280
     0
102
RTVSPost2010PropOp45
 70
     1
102
RTVSPost2010Prop46
 90
       50
102
RTVSPost2010PropOp46
 70
     1
102
RTVSPost2010Prop47
 90
       50
102
RTVSPost2010PropOp47
 70
     1
102
RTVSPost2010Prop48
 90
       50
102
RTVSPost2010PropOp48
 70
     1
102
RTVSPost2010Prop49
280
     0
102
RTVSPost2010PropOp49
 70
     1
102
RTVSPost2010Prop50
 90
       50
102
RTVSPost2010PropOp50
 70
     1
102
RTVSPost2010Prop51ColorIndex
 90
      256
102
RTVSPost2010Prop51ColorRGB
 90
-16777216
102
RTVSPost2010PropOp51
 70
     0
102
RTVSPost2010Prop52
140
1.0
102
RTVSPost2010PropOp52
 70
     0
102
RTVSPost2010Prop53
 90
        2
102
RTVSPost2010PropOp53
 70
     1
102
RTVSPost2010Prop54
  1
strokes_ogs.tif
102
RTVSPost2010PropOp54
 70
     1
102
RTVSPost2010Prop55
280
     0
102
RTVSPost2010PropOp55
 70
     1
102
RTVSPost2010Prop56
140
1.0
102
RTVSPost2010PropOp56
 70
     1
102
RTVSPost2010Prop57
140
1.0
102
RTVSPost2010PropOp57
 70
     1
102
RTVSPropertyOp0
 70
     1
102
RTVSPropertyOp1
 70
     1
102
RTVSPropertyOp2
 70
     1
102
RTVSPropertyOp3
 70
     1
102
RTVSPropertyOp4
 70
     1
102
RTVSPropertyOp5
 70
     1
102
RTVSPropertyOp6
 70
     1
102
RTVSPropertyOp7
 70
     1
102
RTVSPropertyOp8
 70
     1
102
RTVSPropertyOp9
 70
     1
102
RTVSPropertyOp10
 70
     1
102
RTVSPropertyOp11
 70
     1
102
RTVSPropertyOp12
 70
     1
102
RTVSPropertyOp13
 70
     1
102
RTVSPropertyOp14
 70
     1
102
RTVSPropertyOp15
 70
     1
102
RTVSPropertyOp16
 70
     1
102
RTVSPropertyOp17
 70
     1
102
RTVSPropertyOp18
 70
     1
102
RTVSPropertyOp19
 70
     1
102
RTVSPropertyOp20
 70
     1
102
RTVSPropertyOp21
 70
     1
102
RTVSPropertyOp22
 70
     1
102
RTVSPropertyOp23
 70
     1
102
RTVSPropertyOp24
 70
     1
102
RTVSPropertyOp25
 70
     1
102
RTVSPropertyOp26
 70
     1
102
RTVSPropertyOp27
 70
     1
102
RTVSPropertyOp28
 70
     1
102
RTVSPropertyOp29
 70
     1
102
RTVSPropertyOp30
 70
     1
102
RTVSPropertyOp31
 70
     1
102
RTVSPropertyOp32
 70
     1
102
RTVSPropertyOp33
 70
     1
102
RTVSPropertyOp34
 70
     1
102
RTVSPropertyOp35
 70
     1
102
RTVSPropertyOp36
 70
     1
102
RTVSPropertyOp37
 70
     1
102
RTVSPropertyOp38
 70
     1
102
RTVSPropertyOp39
 70
     1
102
RTVSPropertyOp40
 70
     1
102
RTVSPropertyOp41
 70
     1
102
RTVSPropertyOp42
 70
     1
102
RTVSPropertyOp43
 70
     1
102
RTVSPropertyOp44
 70
     1
102
RTVSPropertyOp45
 70
     1
102
RTVSPropertyOp46
 70
     1
102
RTVSPropertyOp47
 70
     1
102
RTVSPropertyOp48
 70
     1
102
RTVSPropertyOp49
 70
     1
102
RTVSPropertyOp50
 70
     1
102
RTVSPropertyOp51
 70
     0
102
RTVSPropertyOp52
 70
     0
102
RTVSPropertyOp53
 70
     1
102
RTVSPropertyOp54
 70
     1
102
RTVSPropertyOp55
 70
     1
102
RTVSPropertyOp56
 70
     1
102
RTVSPropertyOp57
 70
     1
102
RTVSPropertyOp58
 70
     1
102
RTVSPropertyOp59
 70
     1
102
RTVSPropertyOp60
 70
     1
102
RTVSPropertyOp61
 70
     1
102
RTVSPropertyOp62
 70
     1
  0
XRECORD
  5
9AFC
102
{ACAD_REACTORS
330
9AFB
102
}
330
9AFB
100
AcDbXrecord
280
     1
102
RTVSPost2010Prop28
280
     0
102
RTVSPost2010PropOp28
 70
     1
102
RTVSPost2010Prop29
280
     1
102
RTVSPost2010PropOp29
 70
     1
102
RTVSPost2010Prop30
280
     1
102
RTVSPost2010PropOp30
 70
     1
102
RTVSPost2010Prop31
280
     0
102
RTVSPost2010PropOp31
 70
     1
102
RTVSPost2010Prop32
280
     0
102
RTVSPost2010PropOp32
 70
     1
102
RTVSPost2010Prop33
280
     0
102
RTVSPost2010PropOp33
 70
     1
102
RTVSPost2010Prop34
280
     0
102
RTVSPost2010PropOp34
 70
     1
102
RTVSPost2010Prop35
280
     0
102
RTVSPost2010PropOp35
 70
     1
102
RTVSPost2010Prop36
280
     0
102
RTVSPost2010PropOp36
 70
     1
102
RTVSPost2010Prop37
 90
       50
102
RTVSPost2010PropOp37
 70
     1
102
RTVSPost2010Prop38
140
0.0
102
RTVSPost2010PropOp38
 70
     1
102
RTVSPost2010Prop39
140
1.0
102
RTVSPost2010PropOp39
 70
     1
102
RTVSPost2010Prop40
 90
        0
102
RTVSPost2010PropOp40
 70
     1
102
RTVSPost2010Prop41ColorIndex
 90
       18
102
RTVSPost2010Prop41ColorRGB
 90
        0
102
RTVSPost2010PropOp41
 70
     1
102
RTVSPost2010Prop42
 90
       50
102
RTVSPost2010PropOp42
 70
     1
102
RTVSPost2010Prop43
 90
        3
102
RTVSPost2010PropOp43
 70
     1
102
RTVSPost2010Prop44ColorIndex
 90
        5
102
RTVSPost2010Prop44ColorRGB
 90
      255
102
RTVSPost2010PropOp44
 70
     1
102
RTVSPost2010Prop45
280
     0
102
RTVSPost2010PropOp45
 70
     1
102
RTVSPost2010Prop46
 90
       50
102
RTVSPost2010PropOp46
 70
     1
102
RTVSPost2010Prop47
 90
       50
102
RTVSPost2010PropOp47
 70
     1
102
RTVSPost2010Prop48
 90
       50
102
RTVSPost2010PropOp48
 70
     1
102
RTVSPost2010Prop49
280
     0
102
RTVSPost2010PropOp49
 70
     1
102
RTVSPost2010Prop50
 90
       50
102
RTVSPost2010PropOp50
 70
     1
102
RTVSPost2010Prop51ColorIndex
 90
      256
102
RTVSPost2010Prop51ColorRGB
 90
-16777216
102
RTVSPost2010PropOp51
 70
     0
102
RTVSPost2010Prop52
140
1.0
102
RTVSPost2010PropOp52
 70
     0
102
RTVSPost2010Prop53
 90
        2
102
RTVSPost2010PropOp53
 70
     1
102
RTVSPost2010Prop54
  1
strokes_ogs.tif
102
RTVSPost2010PropOp54
 70
     1
102
RTVSPost2010Prop55
280
     0
102
RTVSPost2010PropOp55
 70
     1
102
RTVSPost2010Prop56
140
1.0
102
RTVSPost2010PropOp56
 70
     1
102
RTVSPost2010Prop57
140
1.0
102
RTVSPost2010PropOp57
 70
     1
102
RTVSPropertyOp0
 70
     1
102
RTVSPropertyOp1
 70
     1
102
RTVSPropertyOp2
 70
     1
102
RTVSPropertyOp3
 70
     1
102
RTVSPropertyOp4
 70
     1
102
RTVSPropertyOp5
 70
     1
102
RTVSPropertyOp6
 70
     1
102
RTVSPropertyOp7
 70
     1
102
RTVSPropertyOp8
 70
     1
102
RTVSPropertyOp9
 70
     1
102
RTVSPropertyOp10
 70
     1
102
RTVSPropertyOp11
 70
     1
102
RTVSPropertyOp12
 70
     1
102
RTVSPropertyOp13
 70
     1
102
RTVSPropertyOp14
 70
     1
102
RTVSPropertyOp15
 70
     1
102
RTVSPropertyOp16
 70
     1
102
RTVSPropertyOp17
 70
     1
102
RTVSPropertyOp18
 70
     1
102
RTVSPropertyOp19
 70
     1
102
RTVSPropertyOp20
 70
     1
102
RTVSPropertyOp21
 70
     1
102
RTVSPropertyOp22
 70
     1
102
RTVSPropertyOp23
 70
     1
102
RTVSPropertyOp24
 70
     1
102
RTVSPropertyOp25
 70
     1
102
RTVSPropertyOp26
 70
     1
102
RTVSPropertyOp27
 70
     1
102
RTVSPropertyOp28
 70
     1
102
RTVSPropertyOp29
 70
     1
102
RTVSPropertyOp30
 70
     1
102
RTVSPropertyOp31
 70
     1
102
RTVSPropertyOp32
 70
     1
102
RTVSPropertyOp33
 70
     1
102
RTVSPropertyOp34
 70
     1
102
RTVSPropertyOp35
 70
     1
102
RTVSPropertyOp36
 70
     1
102
RTVSPropertyOp37
 70
     1
102
RTVSPropertyOp38
 70
     1
102
RTVSPropertyOp39
 70
     1
102
RTVSPropertyOp40
 70
     1
102
RTVSPropertyOp41
 70
     1
102
RTVSPropertyOp42
 70
     1
102
RTVSPropertyOp43
 70
     1
102
RTVSPropertyOp44
 70
     1
102
RTVSPropertyOp45
 70
     1
102
RTVSPropertyOp46
 70
     1
102
RTVSPropertyOp47
 70
     1
102
RTVSPropertyOp48
 70
     1
102
RTVSPropertyOp49
 70
     1
102
RTVSPropertyOp50
 70
     1
102
RTVSPropertyOp51
 70
     0
102
RTVSPropertyOp52
 70
     0
102
RTVSPropertyOp53
 70
     1
102
RTVSPropertyOp54
 70
     1
102
RTVSPropertyOp55
 70
     1
102
RTVSPropertyOp56
 70
     1
102
RTVSPropertyOp57
 70
     1
102
RTVSPropertyOp58
 70
     1
102
RTVSPropertyOp59
 70
     1
102
RTVSPropertyOp60
 70
     1
102
RTVSPropertyOp61
 70
     1
102
RTVSPropertyOp62
 70
     1
  0
XRECORD
  5
9AFA
102
{ACAD_REACTORS
330
9AF9
102
}
330
9AF9
100
AcDbXrecord
280
     1
102
RTVSPost2010Prop28
280
     0
102
RTVSPost2010PropOp28
 70
     1
102
RTVSPost2010Prop29
280
     1
102
RTVSPost2010PropOp29
 70
     1
102
RTVSPost2010Prop30
280
     1
102
RTVSPost2010PropOp30
 70
     1
102
RTVSPost2010Prop31
280
     0
102
RTVSPost2010PropOp31
 70
     1
102
RTVSPost2010Prop32
280
     0
102
RTVSPost2010PropOp32
 70
     1
102
RTVSPost2010Prop33
280
     0
102
RTVSPost2010PropOp33
 70
     1
102
RTVSPost2010Prop34
280
     0
102
RTVSPost2010PropOp34
 70
     1
102
RTVSPost2010Prop35
280
     0
102
RTVSPost2010PropOp35
 70
     1
102
RTVSPost2010Prop36
280
     0
102
RTVSPost2010PropOp36
 70
     1
102
RTVSPost2010Prop37
 90
       50
102
RTVSPost2010PropOp37
 70
     1
102
RTVSPost2010Prop38
140
0.0
102
RTVSPost2010PropOp38
 70
     1
102
RTVSPost2010Prop39
140
1.0
102
RTVSPost2010PropOp39
 70
     1
102
RTVSPost2010Prop40
 90
        0
102
RTVSPost2010PropOp40
 70
     1
102
RTVSPost2010Prop41ColorIndex
 90
       18
102
RTVSPost2010Prop41ColorRGB
 90
        0
102
RTVSPost2010PropOp41
 70
     1
102
RTVSPost2010Prop42
 90
       50
102
RTVSPost2010PropOp42
 70
     1
102
RTVSPost2010Prop43
 90
        3
102
RTVSPost2010PropOp43
 70
     1
102
RTVSPost2010Prop44ColorIndex
 90
        5
102
RTVSPost2010Prop44ColorRGB
 90
      255
102
RTVSPost2010PropOp44
 70
     1
102
RTVSPost2010Prop45
280
     0
102
RTVSPost2010PropOp45
 70
     1
102
RTVSPost2010Prop46
 90
       50
102
RTVSPost2010PropOp46
 70
     1
102
RTVSPost2010Prop47
 90
       50
102
RTVSPost2010PropOp47
 70
     1
102
RTVSPost2010Prop48
 90
       50
102
RTVSPost2010PropOp48
 70
     1
102
RTVSPost2010Prop49
280
     0
102
RTVSPost2010PropOp49
 70
     1
102
RTVSPost2010Prop50
 90
       50
102
RTVSPost2010PropOp50
 70
     1
102
RTVSPost2010Prop51ColorIndex
 90
      256
102
RTVSPost2010Prop51ColorRGB
 90
-16777216
102
RTVSPost2010PropOp51
 70
     0
102
RTVSPost2010Prop52
140
1.0
102
RTVSPost2010PropOp52
 70
     0
102
RTVSPost2010Prop53
 90
        2
102
RTVSPost2010PropOp53
 70
     1
102
RTVSPost2010Prop54
  1
strokes_ogs.tif
102
RTVSPost2010PropOp54
 70
     1
102
RTVSPost2010Prop55
280
     0
102
RTVSPost2010PropOp55
 70
     1
102
RTVSPost2010Prop56
140
1.0
102
RTVSPost2010PropOp56
 70
     1
102
RTVSPost2010Prop57
140
1.0
102
RTVSPost2010PropOp57
 70
     1
102
RTVSPropertyOp0
 70
     1
102
RTVSPropertyOp1
 70
     1
102
RTVSPropertyOp2
 70
     1
102
RTVSPropertyOp3
 70
     1
102
RTVSPropertyOp4
 70
     1
102
RTVSPropertyOp5
 70
     1
102
RTVSPropertyOp6
 70
     1
102
RTVSPropertyOp7
 70
     1
102
RTVSPropertyOp8
 70
     1
102
RTVSPropertyOp9
 70
     1
102
RTVSPropertyOp10
 70
     1
102
RTVSPropertyOp11
 70
     1
102
RTVSPropertyOp12
 70
     1
102
RTVSPropertyOp13
 70
     1
102
RTVSPropertyOp14
 70
     1
102
RTVSPropertyOp15
 70
     1
102
RTVSPropertyOp16
 70
     1
102
RTVSPropertyOp17
 70
     1
102
RTVSPropertyOp18
 70
     1
102
RTVSPropertyOp19
 70
     1
102
RTVSPropertyOp20
 70
     1
102
RTVSPropertyOp21
 70
     1
102
RTVSPropertyOp22
 70
     1
102
RTVSPropertyOp23
 70
     1
102
RTVSPropertyOp24
 70
     1
102
RTVSPropertyOp25
 70
     1
102
RTVSPropertyOp26
 70
     1
102
RTVSPropertyOp27
 70
     1
102
RTVSPropertyOp28
 70
     1
102
RTVSPropertyOp29
 70
     1
102
RTVSPropertyOp30
 70
     1
102
RTVSPropertyOp31
 70
     1
102
RTVSPropertyOp32
 70
     1
102
RTVSPropertyOp33
 70
     1
102
RTVSPropertyOp34
 70
     1
102
RTVSPropertyOp35
 70
     1
102
RTVSPropertyOp36
 70
     1
102
RTVSPropertyOp37
 70
     1
102
RTVSPropertyOp38
 70
     1
102
RTVSPropertyOp39
 70
     1
102
RTVSPropertyOp40
 70
     1
102
RTVSPropertyOp41
 70
     1
102
RTVSPropertyOp42
 70
     1
102
RTVSPropertyOp43
 70
     1
102
RTVSPropertyOp44
 70
     1
102
RTVSPropertyOp45
 70
     1
102
RTVSPropertyOp46
 70
     1
102
RTVSPropertyOp47
 70
     1
102
RTVSPropertyOp48
 70
     1
102
RTVSPropertyOp49
 70
     1
102
RTVSPropertyOp50
 70
     1
102
RTVSPropertyOp51
 70
     0
102
RTVSPropertyOp52
 70
     0
102
RTVSPropertyOp53
 70
     1
102
RTVSPropertyOp54
 70
     1
102
RTVSPropertyOp55
 70
     1
102
RTVSPropertyOp56
 70
     1
102
RTVSPropertyOp57
 70
     1
102
RTVSPropertyOp58
 70
     1
102
RTVSPropertyOp59
 70
     1
102
RTVSPropertyOp60
 70
     1
102
RTVSPropertyOp61
 70
     1
102
RTVSPropertyOp62
 70
     1
  0
XRECORD
  5
9AF4
102
{ACAD_REACTORS
330
9AF3
102
}
330
9AF3
100
AcDbXrecord
280
     1
102
RTVSPost2010Prop28
280
     0
102
RTVSPost2010PropOp28
 70
     1
102
RTVSPost2010Prop29
280
     1
102
RTVSPost2010PropOp29
 70
     1
102
RTVSPost2010Prop30
280
     1
102
RTVSPost2010PropOp30
 70
     1
102
RTVSPost2010Prop31
280
     0
102
RTVSPost2010PropOp31
 70
     1
102
RTVSPost2010Prop32
280
     0
102
RTVSPost2010PropOp32
 70
     1
102
RTVSPost2010Prop33
280
     0
102
RTVSPost2010PropOp33
 70
     1
102
RTVSPost2010Prop34
280
     0
102
RTVSPost2010PropOp34
 70
     1
102
RTVSPost2010Prop35
280
     0
102
RTVSPost2010PropOp35
 70
     1
102
RTVSPost2010Prop36
280
     0
102
RTVSPost2010PropOp36
 70
     1
102
RTVSPost2010Prop37
 90
       50
102
RTVSPost2010PropOp37
 70
     1
102
RTVSPost2010Prop38
140
0.0
102
RTVSPost2010PropOp38
 70
     1
102
RTVSPost2010Prop39
140
1.0
102
RTVSPost2010PropOp39
 70
     1
102
RTVSPost2010Prop40
 90
        0
102
RTVSPost2010PropOp40
 70
     1
102
RTVSPost2010Prop41ColorIndex
 90
       18
102
RTVSPost2010Prop41ColorRGB
 90
        0
102
RTVSPost2010PropOp41
 70
     1
102
RTVSPost2010Prop42
 90
       50
102
RTVSPost2010PropOp42
 70
     1
102
RTVSPost2010Prop43
 90
        3
102
RTVSPost2010PropOp43
 70
     1
102
RTVSPost2010Prop44ColorIndex
 90
        5
102
RTVSPost2010Prop44ColorRGB
 90
      255
102
RTVSPost2010PropOp44
 70
     1
102
RTVSPost2010Prop45
280
     0
102
RTVSPost2010PropOp45
 70
     1
102
RTVSPost2010Prop46
 90
       50
102
RTVSPost2010PropOp46
 70
     1
102
RTVSPost2010Prop47
 90
       50
102
RTVSPost2010PropOp47
 70
     1
102
RTVSPost2010Prop48
 90
       50
102
RTVSPost2010PropOp48
 70
     1
102
RTVSPost2010Prop49
280
     0
102
RTVSPost2010PropOp49
 70
     1
102
RTVSPost2010Prop50
 90
       50
102
RTVSPost2010PropOp50
 70
     1
102
RTVSPost2010Prop51ColorIndex
 90
      256
102
RTVSPost2010Prop51ColorRGB
 90
-16777216
102
RTVSPost2010PropOp51
 70
     0
102
RTVSPost2010Prop52
140
1.0
102
RTVSPost2010PropOp52
 70
     0
102
RTVSPost2010Prop53
 90
        2
102
RTVSPost2010PropOp53
 70
     1
102
RTVSPost2010Prop54
  1
strokes_ogs.tif
102
RTVSPost2010PropOp54
 70
     1
102
RTVSPost2010Prop55
280
     0
102
RTVSPost2010PropOp55
 70
     1
102
RTVSPost2010Prop56
140
1.0
102
RTVSPost2010PropOp56
 70
     1
102
RTVSPost2010Prop57
140
1.0
102
RTVSPost2010PropOp57
 70
     1
102
RTVSPropertyOp0
 70
     1
102
RTVSPropertyOp1
 70
     1
102
RTVSPropertyOp2
 70
     1
102
RTVSPropertyOp3
 70
     1
102
RTVSPropertyOp4
 70
     1
102
RTVSPropertyOp5
 70
     1
102
RTVSPropertyOp6
 70
     1
102
RTVSPropertyOp7
 70
     1
102
RTVSPropertyOp8
 70
     1
102
RTVSPropertyOp9
 70
     1
102
RTVSPropertyOp10
 70
     1
102
RTVSPropertyOp11
 70
     1
102
RTVSPropertyOp12
 70
     1
102
RTVSPropertyOp13
 70
     1
102
RTVSPropertyOp14
 70
     1
102
RTVSPropertyOp15
 70
     1
102
RTVSPropertyOp16
 70
     1
102
RTVSPropertyOp17
 70
     1
102
RTVSPropertyOp18
 70
     1
102
RTVSPropertyOp19
 70
     1
102
RTVSPropertyOp20
 70
     1
102
RTVSPropertyOp21
 70
     1
102
RTVSPropertyOp22
 70
     1
102
RTVSPropertyOp23
 70
     1
102
RTVSPropertyOp24
 70
     1
102
RTVSPropertyOp25
 70
     1
102
RTVSPropertyOp26
 70
     1
102
RTVSPropertyOp27
 70
     1
102
RTVSPropertyOp28
 70
     1
102
RTVSPropertyOp29
 70
     1
102
RTVSPropertyOp30
 70
     1
102
RTVSPropertyOp31
 70
     1
102
RTVSPropertyOp32
 70
     1
102
RTVSPropertyOp33
 70
     1
102
RTVSPropertyOp34
 70
     1
102
RTVSPropertyOp35
 70
     1
102
RTVSPropertyOp36
 70
     1
102
RTVSPropertyOp37
 70
     1
102
RTVSPropertyOp38
 70
     1
102
RTVSPropertyOp39
 70
     1
102
RTVSPropertyOp40
 70
     1
102
RTVSPropertyOp41
 70
     1
102
RTVSPropertyOp42
 70
     1
102
RTVSPropertyOp43
 70
     1
102
RTVSPropertyOp44
 70
     1
102
RTVSPropertyOp45
 70
     1
102
RTVSPropertyOp46
 70
     1
102
RTVSPropertyOp47
 70
     1
102
RTVSPropertyOp48
 70
     1
102
RTVSPropertyOp49
 70
     1
102
RTVSPropertyOp50
 70
     1
102
RTVSPropertyOp51
 70
     0
102
RTVSPropertyOp52
 70
     0
102
RTVSPropertyOp53
 70
     1
102
RTVSPropertyOp54
 70
     1
102
RTVSPropertyOp55
 70
     1
102
RTVSPropertyOp56
 70
     1
102
RTVSPropertyOp57
 70
     1
102
RTVSPropertyOp58
 70
     1
102
RTVSPropertyOp59
 70
     1
102
RTVSPropertyOp60
 70
     1
102
RTVSPropertyOp61
 70
     1
102
RTVSPropertyOp62
 70
     1
  0
XRECORD
  5
9AF6
102
{ACAD_REACTORS
330
9AF5
102
}
330
9AF5
100
AcDbXrecord
280
     1
102
RTVSPost2010Prop28
280
     0
102
RTVSPost2010PropOp28
 70
     1
102
RTVSPost2010Prop29
280
     1
102
RTVSPost2010PropOp29
 70
     1
102
RTVSPost2010Prop30
280
     1
102
RTVSPost2010PropOp30
 70
     1
102
RTVSPost2010Prop31
280
     0
102
RTVSPost2010PropOp31
 70
     1
102
RTVSPost2010Prop32
280
     0
102
RTVSPost2010PropOp32
 70
     1
102
RTVSPost2010Prop33
280
     0
102
RTVSPost2010PropOp33
 70
     1
102
RTVSPost2010Prop34
280
     0
102
RTVSPost2010PropOp34
 70
     1
102
RTVSPost2010Prop35
280
     0
102
RTVSPost2010PropOp35
 70
     1
102
RTVSPost2010Prop36
280
     0
102
RTVSPost2010PropOp36
 70
     1
102
RTVSPost2010Prop37
 90
       50
102
RTVSPost2010PropOp37
 70
     1
102
RTVSPost2010Prop38
140
0.0
102
RTVSPost2010PropOp38
 70
     1
102
RTVSPost2010Prop39
140
1.0
102
RTVSPost2010PropOp39
 70
     1
102
RTVSPost2010Prop40
 90
        0
102
RTVSPost2010PropOp40
 70
     1
102
RTVSPost2010Prop41ColorIndex
 90
       18
102
RTVSPost2010Prop41ColorRGB
 90
        0
102
RTVSPost2010PropOp41
 70
     1
102
RTVSPost2010Prop42
 90
       50
102
RTVSPost2010PropOp42
 70
     1
102
RTVSPost2010Prop43
 90
        3
102
RTVSPost2010PropOp43
 70
     1
102
RTVSPost2010Prop44ColorIndex
 90
        5
102
RTVSPost2010Prop44ColorRGB
 90
      255
102
RTVSPost2010PropOp44
 70
     1
102
RTVSPost2010Prop45
280
     0
102
RTVSPost2010PropOp45
 70
     1
102
RTVSPost2010Prop46
 90
       50
102
RTVSPost2010PropOp46
 70
     1
102
RTVSPost2010Prop47
 90
       50
102
RTVSPost2010PropOp47
 70
     1
102
RTVSPost2010Prop48
 90
       50
102
RTVSPost2010PropOp48
 70
     1
102
RTVSPost2010Prop49
280
     0
102
RTVSPost2010PropOp49
 70
     1
102
RTVSPost2010Prop50
 90
       50
102
RTVSPost2010PropOp50
 70
     1
102
RTVSPost2010Prop51ColorIndex
 90
      256
102
RTVSPost2010Prop51ColorRGB
 90
-16777216
102
RTVSPost2010PropOp51
 70
     0
102
RTVSPost2010Prop52
140
1.0
102
RTVSPost2010PropOp52
 70
     0
102
RTVSPost2010Prop53
 90
        2
102
RTVSPost2010PropOp53
 70
     1
102
RTVSPost2010Prop54
  1
strokes_ogs.tif
102
RTVSPost2010PropOp54
 70
     1
102
RTVSPost2010Prop55
280
     0
102
RTVSPost2010PropOp55
 70
     1
102
RTVSPost2010Prop56
140
1.0
102
RTVSPost2010PropOp56
 70
     1
102
RTVSPost2010Prop57
140
1.0
102
RTVSPost2010PropOp57
 70
     1
102
RTVSPropertyOp0
 70
     1
102
RTVSPropertyOp1
 70
     1
102
RTVSPropertyOp2
 70
     1
102
RTVSPropertyOp3
 70
     1
102
RTVSPropertyOp4
 70
     1
102
RTVSPropertyOp5
 70
     1
102
RTVSPropertyOp6
 70
     1
102
RTVSPropertyOp7
 70
     1
102
RTVSPropertyOp8
 70
     1
102
RTVSPropertyOp9
 70
     1
102
RTVSPropertyOp10
 70
     1
102
RTVSPropertyOp11
 70
     1
102
RTVSPropertyOp12
 70
     1
102
RTVSPropertyOp13
 70
     1
102
RTVSPropertyOp14
 70
     1
102
RTVSPropertyOp15
 70
     1
102
RTVSPropertyOp16
 70
     1
102
RTVSPropertyOp17
 70
     1
102
RTVSPropertyOp18
 70
     1
102
RTVSPropertyOp19
 70
     1
102
RTVSPropertyOp20
 70
     1
102
RTVSPropertyOp21
 70
     1
102
RTVSPropertyOp22
 70
     1
102
RTVSPropertyOp23
 70
     1
102
RTVSPropertyOp24
 70
     1
102
RTVSPropertyOp25
 70
     1
102
RTVSPropertyOp26
 70
     1
102
RTVSPropertyOp27
 70
     1
102
RTVSPropertyOp28
 70
     1
102
RTVSPropertyOp29
 70
     1
102
RTVSPropertyOp30
 70
     1
102
RTVSPropertyOp31
 70
     1
102
RTVSPropertyOp32
 70
     1
102
RTVSPropertyOp33
 70
     1
102
RTVSPropertyOp34
 70
     1
102
RTVSPropertyOp35
 70
     1
102
RTVSPropertyOp36
 70
     1
102
RTVSPropertyOp37
 70
     1
102
RTVSPropertyOp38
 70
     1
102
RTVSPropertyOp39
 70
     1
102
RTVSPropertyOp40
 70
     1
102
RTVSPropertyOp41
 70
     1
102
RTVSPropertyOp42
 70
     1
102
RTVSPropertyOp43
 70
     1
102
RTVSPropertyOp44
 70
     1
102
RTVSPropertyOp45
 70
     1
102
RTVSPropertyOp46
 70
     1
102
RTVSPropertyOp47
 70
     1
102
RTVSPropertyOp48
 70
     1
102
RTVSPropertyOp49
 70
     1
102
RTVSPropertyOp50
 70
     1
102
RTVSPropertyOp51
 70
     0
102
RTVSPropertyOp52
 70
     0
102
RTVSPropertyOp53
 70
     1
102
RTVSPropertyOp54
 70
     1
102
RTVSPropertyOp55
 70
     1
102
RTVSPropertyOp56
 70
     1
102
RTVSPropertyOp57
 70
     1
102
RTVSPropertyOp58
 70
     1
102
RTVSPropertyOp59
 70
     1
102
RTVSPropertyOp60
 70
     1
102
RTVSPropertyOp61
 70
     1
102
RTVSPropertyOp62
 70
     1
  0
XRECORD
  5
9AEC
102
{ACAD_REACTORS
330
9AEB
102
}
330
9AEB
100
AcDbXrecord
280
     1
102
RTVSPost2010Prop28
280
     0
102
RTVSPost2010PropOp28
 70
     1
102
RTVSPost2010Prop29
280
     1
102
RTVSPost2010PropOp29
 70
     1
102
RTVSPost2010Prop30
280
     1
102
RTVSPost2010PropOp30
 70
     1
102
RTVSPost2010Prop31
280
     0
102
RTVSPost2010PropOp31
 70
     1
102
RTVSPost2010Prop32
280
     0
102
RTVSPost2010PropOp32
 70
     1
102
RTVSPost2010Prop33
280
     0
102
RTVSPost2010PropOp33
 70
     1
102
RTVSPost2010Prop34
280
     0
102
RTVSPost2010PropOp34
 70
     1
102
RTVSPost2010Prop35
280
     0
102
RTVSPost2010PropOp35
 70
     1
102
RTVSPost2010Prop36
280
     0
102
RTVSPost2010PropOp36
 70
     1
102
RTVSPost2010Prop37
 90
       50
102
RTVSPost2010PropOp37
 70
     1
102
RTVSPost2010Prop38
140
0.0
102
RTVSPost2010PropOp38
 70
     1
102
RTVSPost2010Prop39
140
1.0
102
RTVSPost2010PropOp39
 70
     1
102
RTVSPost2010Prop40
 90
        0
102
RTVSPost2010PropOp40
 70
     1
102
RTVSPost2010Prop41ColorIndex
 90
       18
102
RTVSPost2010Prop41ColorRGB
 90
        0
102
RTVSPost2010PropOp41
 70
     1
102
RTVSPost2010Prop42
 90
       50
102
RTVSPost2010PropOp42
 70
     1
102
RTVSPost2010Prop43
 90
        3
102
RTVSPost2010PropOp43
 70
     1
102
RTVSPost2010Prop44ColorIndex
 90
        5
102
RTVSPost2010Prop44ColorRGB
 90
      255
102
RTVSPost2010PropOp44
 70
     1
102
RTVSPost2010Prop45
280
     0
102
RTVSPost2010PropOp45
 70
     1
102
RTVSPost2010Prop46
 90
       50
102
RTVSPost2010PropOp46
 70
     1
102
RTVSPost2010Prop47
 90
       50
102
RTVSPost2010PropOp47
 70
     1
102
RTVSPost2010Prop48
 90
       50
102
RTVSPost2010PropOp48
 70
     1
102
RTVSPost2010Prop49
280
     0
102
RTVSPost2010PropOp49
 70
     1
102
RTVSPost2010Prop50
 90
       50
102
RTVSPost2010PropOp50
 70
     1
102
RTVSPost2010Prop51ColorIndex
 90
      256
102
RTVSPost2010Prop51ColorRGB
 90
-16777216
102
RTVSPost2010PropOp51
 70
     0
102
RTVSPost2010Prop52
140
1.0
102
RTVSPost2010PropOp52
 70
     0
102
RTVSPost2010Prop53
 90
        2
102
RTVSPost2010PropOp53
 70
     1
102
RTVSPost2010Prop54
  1
strokes_ogs.tif
102
RTVSPost2010PropOp54
 70
     1
102
RTVSPost2010Prop55
280
     0
102
RTVSPost2010PropOp55
 70
     1
102
RTVSPost2010Prop56
140
1.0
102
RTVSPost2010PropOp56
 70
     1
102
RTVSPost2010Prop57
140
1.0
102
RTVSPost2010PropOp57
 70
     1
102
RTVSPropertyOp0
 70
     1
102
RTVSPropertyOp1
 70
     1
102
RTVSPropertyOp2
 70
     1
102
RTVSPropertyOp3
 70
     1
102
RTVSPropertyOp4
 70
     1
102
RTVSPropertyOp5
 70
     1
102
RTVSPropertyOp6
 70
     1
102
RTVSPropertyOp7
 70
     1
102
RTVSPropertyOp8
 70
     1
102
RTVSPropertyOp9
 70
     1
102
RTVSPropertyOp10
 70
     1
102
RTVSPropertyOp11
 70
     1
102
RTVSPropertyOp12
 70
     1
102
RTVSPropertyOp13
 70
     1
102
RTVSPropertyOp14
 70
     1
102
RTVSPropertyOp15
 70
     1
102
RTVSPropertyOp16
 70
     1
102
RTVSPropertyOp17
 70
     1
102
RTVSPropertyOp18
 70
     1
102
RTVSPropertyOp19
 70
     1
102
RTVSPropertyOp20
 70
     1
102
RTVSPropertyOp21
 70
     1
102
RTVSPropertyOp22
 70
     1
102
RTVSPropertyOp23
 70
     1
102
RTVSPropertyOp24
 70
     1
102
RTVSPropertyOp25
 70
     1
102
RTVSPropertyOp26
 70
     1
102
RTVSPropertyOp27
 70
     1
102
RTVSPropertyOp28
 70
     1
102
RTVSPropertyOp29
 70
     1
102
RTVSPropertyOp30
 70
     1
102
RTVSPropertyOp31
 70
     1
102
RTVSPropertyOp32
 70
     1
102
RTVSPropertyOp33
 70
     1
102
RTVSPropertyOp34
 70
     1
102
RTVSPropertyOp35
 70
     1
102
RTVSPropertyOp36
 70
     1
102
RTVSPropertyOp37
 70
     1
102
RTVSPropertyOp38
 70
     1
102
RTVSPropertyOp39
 70
     1
102
RTVSPropertyOp40
 70
     1
102
RTVSPropertyOp41
 70
     1
102
RTVSPropertyOp42
 70
     1
102
RTVSPropertyOp43
 70
     1
102
RTVSPropertyOp44
 70
     1
102
RTVSPropertyOp45
 70
     1
102
RTVSPropertyOp46
 70
     1
102
RTVSPropertyOp47
 70
     1
102
RTVSPropertyOp48
 70
     1
102
RTVSPropertyOp49
 70
     1
102
RTVSPropertyOp50
 70
     1
102
RTVSPropertyOp51
 70
     0
102
RTVSPropertyOp52
 70
     0
102
RTVSPropertyOp53
 70
     1
102
RTVSPropertyOp54
 70
     1
102
RTVSPropertyOp55
 70
     1
102
RTVSPropertyOp56
 70
     1
102
RTVSPropertyOp57
 70
     1
102
RTVSPropertyOp58
 70
     1
102
RTVSPropertyOp59
 70
     1
102
RTVSPropertyOp60
 70
     1
102
RTVSPropertyOp61
 70
     1
102
RTVSPropertyOp62
 70
     1
  0
XRECORD
  5
9AE0
102
{ACAD_REACTORS
330
9ADF
102
}
330
9ADF
100
AcDbXrecord
280
     1
102
RTVSPost2010Prop28
280
     0
102
RTVSPost2010PropOp28
 70
     1
102
RTVSPost2010Prop29
280
     1
102
RTVSPost2010PropOp29
 70
     1
102
RTVSPost2010Prop30
280
     1
102
RTVSPost2010PropOp30
 70
     1
102
RTVSPost2010Prop31
280
     0
102
RTVSPost2010PropOp31
 70
     1
102
RTVSPost2010Prop32
280
     0
102
RTVSPost2010PropOp32
 70
     1
102
RTVSPost2010Prop33
280
     0
102
RTVSPost2010PropOp33
 70
     1
102
RTVSPost2010Prop34
280
     0
102
RTVSPost2010PropOp34
 70
     1
102
RTVSPost2010Prop35
280
     0
102
RTVSPost2010PropOp35
 70
     1
102
RTVSPost2010Prop36
280
     0
102
RTVSPost2010PropOp36
 70
     1
102
RTVSPost2010Prop37
 90
       50
102
RTVSPost2010PropOp37
 70
     1
102
RTVSPost2010Prop38
140
0.0
102
RTVSPost2010PropOp38
 70
     1
102
RTVSPost2010Prop39
140
1.0
102
RTVSPost2010PropOp39
 70
     1
102
RTVSPost2010Prop40
 90
        0
102
RTVSPost2010PropOp40
 70
     1
102
RTVSPost2010Prop41ColorIndex
 90
       18
102
RTVSPost2010Prop41ColorRGB
 90
        0
102
RTVSPost2010PropOp41
 70
     1
102
RTVSPost2010Prop42
 90
       50
102
RTVSPost2010PropOp42
 70
     1
102
RTVSPost2010Prop43
 90
        3
102
RTVSPost2010PropOp43
 70
     1
102
RTVSPost2010Prop44ColorIndex
 90
        5
102
RTVSPost2010Prop44ColorRGB
 90
      255
102
RTVSPost2010PropOp44
 70
     1
102
RTVSPost2010Prop45
280
     0
102
RTVSPost2010PropOp45
 70
     1
102
RTVSPost2010Prop46
 90
       50
102
RTVSPost2010PropOp46
 70
     1
102
RTVSPost2010Prop47
 90
       50
102
RTVSPost2010PropOp47
 70
     1
102
RTVSPost2010Prop48
 90
       50
102
RTVSPost2010PropOp48
 70
     1
102
RTVSPost2010Prop49
280
     0
102
RTVSPost2010PropOp49
 70
     1
102
RTVSPost2010Prop50
 90
       50
102
RTVSPost2010PropOp50
 70
     1
102
RTVSPost2010Prop51ColorIndex
 90
      256
102
RTVSPost2010Prop51ColorRGB
 90
-16777216
102
RTVSPost2010PropOp51
 70
     0
102
RTVSPost2010Prop52
140
1.0
102
RTVSPost2010PropOp52
 70
     0
102
RTVSPost2010Prop53
 90
        2
102
RTVSPost2010PropOp53
 70
     1
102
RTVSPost2010Prop54
  1
strokes_ogs.tif
102
RTVSPost2010PropOp54
 70
     1
102
RTVSPost2010Prop55
280
     0
102
RTVSPost2010PropOp55
 70
     1
102
RTVSPost2010Prop56
140
1.0
102
RTVSPost2010PropOp56
 70
     1
102
RTVSPost2010Prop57
140
1.0
102
RTVSPost2010PropOp57
 70
     1
102
RTVSPropertyOp0
 70
     1
102
RTVSPropertyOp1
 70
     1
102
RTVSPropertyOp2
 70
     1
102
RTVSPropertyOp3
 70
     1
102
RTVSPropertyOp4
 70
     1
102
RTVSPropertyOp5
 70
     1
102
RTVSPropertyOp6
 70
     1
102
RTVSPropertyOp7
 70
     1
102
RTVSPropertyOp8
 70
     1
102
RTVSPropertyOp9
 70
     1
102
RTVSPropertyOp10
 70
     1
102
RTVSPropertyOp11
 70
     1
102
RTVSPropertyOp12
 70
     1
102
RTVSPropertyOp13
 70
     1
102
RTVSPropertyOp14
 70
     1
102
RTVSPropertyOp15
 70
     1
102
RTVSPropertyOp16
 70
     1
102
RTVSPropertyOp17
 70
     1
102
RTVSPropertyOp18
 70
     1
102
RTVSPropertyOp19
 70
     1
102
RTVSPropertyOp20
 70
     1
102
RTVSPropertyOp21
 70
     1
102
RTVSPropertyOp22
 70
     1
102
RTVSPropertyOp23
 70
     1
102
RTVSPropertyOp24
 70
     1
102
RTVSPropertyOp25
 70
     1
102
RTVSPropertyOp26
 70
     1
102
RTVSPropertyOp27
 70
     1
102
RTVSPropertyOp28
 70
     1
102
RTVSPropertyOp29
 70
     1
102
RTVSPropertyOp30
 70
     1
102
RTVSPropertyOp31
 70
     1
102
RTVSPropertyOp32
 70
     1
102
RTVSPropertyOp33
 70
     1
102
RTVSPropertyOp34
 70
     1
102
RTVSPropertyOp35
 70
     1
102
RTVSPropertyOp36
 70
     1
102
RTVSPropertyOp37
 70
     1
102
RTVSPropertyOp38
 70
     1
102
RTVSPropertyOp39
 70
     1
102
RTVSPropertyOp40
 70
     1
102
RTVSPropertyOp41
 70
     1
102
RTVSPropertyOp42
 70
     1
102
RTVSPropertyOp43
 70
     1
102
RTVSPropertyOp44
 70
     1
102
RTVSPropertyOp45
 70
     1
102
RTVSPropertyOp46
 70
     1
102
RTVSPropertyOp47
 70
     1
102
RTVSPropertyOp48
 70
     1
102
RTVSPropertyOp49
 70
     1
102
RTVSPropertyOp50
 70
     1
102
RTVSPropertyOp51
 70
     0
102
RTVSPropertyOp52
 70
     0
102
RTVSPropertyOp53
 70
     1
102
RTVSPropertyOp54
 70
     1
102
RTVSPropertyOp55
 70
     1
102
RTVSPropertyOp56
 70
     1
102
RTVSPropertyOp57
 70
     1
102
RTVSPropertyOp58
 70
     1
102
RTVSPropertyOp59
 70
     1
102
RTVSPropertyOp60
 70
     1
102
RTVSPropertyOp61
 70
     1
102
RTVSPropertyOp62
 70
     1
  0
XRECORD
  5
9AF8
102
{ACAD_REACTORS
330
9AF7
102
}
330
9AF7
100
AcDbXrecord
280
     1
102
RTVSPost2010Prop28
280
     0
102
RTVSPost2010PropOp28
 70
     1
102
RTVSPost2010Prop29
280
     1
102
RTVSPost2010PropOp29
 70
     1
102
RTVSPost2010Prop30
280
     1
102
RTVSPost2010PropOp30
 70
     1
102
RTVSPost2010Prop31
280
     0
102
RTVSPost2010PropOp31
 70
     1
102
RTVSPost2010Prop32
280
     0
102
RTVSPost2010PropOp32
 70
     1
102
RTVSPost2010Prop33
280
     0
102
RTVSPost2010PropOp33
 70
     1
102
RTVSPost2010Prop34
280
     0
102
RTVSPost2010PropOp34
 70
     1
102
RTVSPost2010Prop35
280
     0
102
RTVSPost2010PropOp35
 70
     1
102
RTVSPost2010Prop36
280
     0
102
RTVSPost2010PropOp36
 70
     1
102
RTVSPost2010Prop37
 90
       50
102
RTVSPost2010PropOp37
 70
     1
102
RTVSPost2010Prop38
140
0.0
102
RTVSPost2010PropOp38
 70
     1
102
RTVSPost2010Prop39
140
1.0
102
RTVSPost2010PropOp39
 70
     1
102
RTVSPost2010Prop40
 90
        0
102
RTVSPost2010PropOp40
 70
     1
102
RTVSPost2010Prop41ColorIndex
 90
       18
102
RTVSPost2010Prop41ColorRGB
 90
        0
102
RTVSPost2010PropOp41
 70
     1
102
RTVSPost2010Prop42
 90
       50
102
RTVSPost2010PropOp42
 70
     1
102
RTVSPost2010Prop43
 90
        3
102
RTVSPost2010PropOp43
 70
     1
102
RTVSPost2010Prop44ColorIndex
 90
        5
102
RTVSPost2010Prop44ColorRGB
 90
      255
102
RTVSPost2010PropOp44
 70
     1
102
RTVSPost2010Prop45
280
     0
102
RTVSPost2010PropOp45
 70
     1
102
RTVSPost2010Prop46
 90
       50
102
RTVSPost2010PropOp46
 70
     1
102
RTVSPost2010Prop47
 90
       50
102
RTVSPost2010PropOp47
 70
     1
102
RTVSPost2010Prop48
 90
       50
102
RTVSPost2010PropOp48
 70
     1
102
RTVSPost2010Prop49
280
     0
102
RTVSPost2010PropOp49
 70
     1
102
RTVSPost2010Prop50
 90
       50
102
RTVSPost2010PropOp50
 70
     1
102
RTVSPost2010Prop51ColorIndex
 90
      256
102
RTVSPost2010Prop51ColorRGB
 90
-16777216
102
RTVSPost2010PropOp51
 70
     0
102
RTVSPost2010Prop52
140
1.0
102
RTVSPost2010PropOp52
 70
     0
102
RTVSPost2010Prop53
 90
        2
102
RTVSPost2010PropOp53
 70
     1
102
RTVSPost2010Prop54
  1
strokes_ogs.tif
102
RTVSPost2010PropOp54
 70
     1
102
RTVSPost2010Prop55
280
     0
102
RTVSPost2010PropOp55
 70
     1
102
RTVSPost2010Prop56
140
1.0
102
RTVSPost2010PropOp56
 70
     1
102
RTVSPost2010Prop57
140
1.0
102
RTVSPost2010PropOp57
 70
     1
102
RTVSPropertyOp0
 70
     1
102
RTVSPropertyOp1
 70
     1
102
RTVSPropertyOp2
 70
     1
102
RTVSPropertyOp3
 70
     1
102
RTVSPropertyOp4
 70
     1
102
RTVSPropertyOp5
 70
     1
102
RTVSPropertyOp6
 70
     1
102
RTVSPropertyOp7
 70
     1
102
RTVSPropertyOp8
 70
     1
102
RTVSPropertyOp9
 70
     1
102
RTVSPropertyOp10
 70
     1
102
RTVSPropertyOp11
 70
     1
102
RTVSPropertyOp12
 70
     1
102
RTVSPropertyOp13
 70
     1
102
RTVSPropertyOp14
 70
     1
102
RTVSPropertyOp15
 70
     1
102
RTVSPropertyOp16
 70
     1
102
RTVSPropertyOp17
 70
     1
102
RTVSPropertyOp18
 70
     1
102
RTVSPropertyOp19
 70
     1
102
RTVSPropertyOp20
 70
     1
102
RTVSPropertyOp21
 70
     1
102
RTVSPropertyOp22
 70
     1
102
RTVSPropertyOp23
 70
     1
102
RTVSPropertyOp24
 70
     1
102
RTVSPropertyOp25
 70
     1
102
RTVSPropertyOp26
 70
     1
102
RTVSPropertyOp27
 70
     1
102
RTVSPropertyOp28
 70
     1
102
RTVSPropertyOp29
 70
     1
102
RTVSPropertyOp30
 70
     1
102
RTVSPropertyOp31
 70
     1
102
RTVSPropertyOp32
 70
     1
102
RTVSPropertyOp33
 70
     1
102
RTVSPropertyOp34
 70
     1
102
RTVSPropertyOp35
 70
     1
102
RTVSPropertyOp36
 70
     1
102
RTVSPropertyOp37
 70
     1
102
RTVSPropertyOp38
 70
     1
102
RTVSPropertyOp39
 70
     1
102
RTVSPropertyOp40
 70
     1
102
RTVSPropertyOp41
 70
     1
102
RTVSPropertyOp42
 70
     1
102
RTVSPropertyOp43
 70
     1
102
RTVSPropertyOp44
 70
     1
102
RTVSPropertyOp45
 70
     1
102
RTVSPropertyOp46
 70
     1
102
RTVSPropertyOp47
 70
     1
102
RTVSPropertyOp48
 70
     1
102
RTVSPropertyOp49
 70
     1
102
RTVSPropertyOp50
 70
     1
102
RTVSPropertyOp51
 70
     0
102
RTVSPropertyOp52
 70
     0
102
RTVSPropertyOp53
 70
     1
102
RTVSPropertyOp54
 70
     1
102
RTVSPropertyOp55
 70
     1
102
RTVSPropertyOp56
 70
     1
102
RTVSPropertyOp57
 70
     1
102
RTVSPropertyOp58
 70
     1
102
RTVSPropertyOp59
 70
     1
102
RTVSPropertyOp60
 70
     1
102
RTVSPropertyOp61
 70
     1
102
RTVSPropertyOp62
 70
     1
  0
ENDSEC
  0
EOF
