  0
SECTION
  2
HEADER
  9
$ACADVER
  1
AC1014
  9
$DWGCODEPAGE
  3
ANSI_932
  9
$LTSCALE
 40
20.0
  9
$FILLMODE
 70
     1
  9
$CLAYER
  8
0
  9
$PDMODE
 70
     0
  9
$SPLFRAME
 70
     0
  9
$SPLINETYPE
 70
     6
  9
$SPLINESEGS
 70
     8
  9
$DIMASZ
 40
2.000000
  9
$DIMEXE
 40
1.500000
  9
$DIMEXO
 40
0.800000
  9
$DIMTAD
 70
     1
  9
$DIMTIH
 70
     0
  9
$DIMTOH
 70
     0
  9
$DIMTVP
 40
0.500000
  9
$DIMTXT
 40
3.100000
  9
$EXTMIN
 10
0.000000
 20
0.000000
 30
0.000000
  9
$EXTMAX
 10
297.000000
 20
420.000000
 30
0.000000
  9
$MEASUREMENT
 70
  1
  9
$LIMMIN
 10
0.000000
 20
0.000000
  9
$LIMMAX
 10
297.000000
 20
420.000000
  9
$HANDLING
 70
     1
  9
$HANDSEED
  5
1BE
  9
$DIMBLK
  1
_OPEN
  9
$DIMDEC
 70
     2
  9
$DIMAUNIT
 70
     0
  9
$DIMZIN
 70
     8
  9
$DIMTOFL
 70
     1
  0
ENDSEC
  0
SECTION
  2
CLASSES
  0
ENDSEC
  0
SECTION
  2
TABLES
  0
TABLE
  2
VPORT
  5
18E
100
AcDbSymbolTable
 70
     1
  0
VPORT
  5
18F
100
AcDbSymbolTableRecord
100
AcDbViewportTableRecord
  2
*ACTIVE
 70
     0
 12
154.001381
 22
95.561185
 40
155.122368
 41
1.856617
  0
ENDTAB
  0
TABLE
  2
LTYPE
  5
190
100
AcDbSymbolTable
 70
     3
  0
LTYPE
  5
191
100
AcDbSymbolTableRecord
100
AcDbLinetypeTableRecord
  2
BYBLOCK
 70
     0
  3

 72
    65
 73
     0
 40
0.0
  0
LTYPE
  5
192
100
AcDbSymbolTableRecord
100
AcDbLinetypeTableRecord
  2
BYLAYER
 70
     0
  3

 72
    65
 73
     0
 40
0.0
  0
LTYPE
  5
193
100
AcDbSymbolTableRecord
100
AcDbLinetypeTableRecord
  2
CONTINUOUS
 70
     0
  3
Solid line (NEC CAE2D for Win R18.0 : 2024.12.17)
 72
    65
 73
     0
 40
0.0
  0
LTYPE
  5
194
100
AcDbSymbolTableRecord
100
AcDbLinetypeTableRecord
  2
DASHED
 70
     0
  3
__ __ __ __ __ __ __ __ __ __ __ __ __ _
 72
    65
 73
     2
 40
0.75
 49
0.5
 74
     0
 49
-0.25
 74
     0
  0
LTYPE
  5
195
100
AcDbSymbolTableRecord
100
AcDbLinetypeTableRecord
  2
CENTER
 70
     0
  3
____ _ ____ _ ____ _ ____ _ ____ _ ____
 72
    65
 73
     4
 40
2.0
 49
1.25
 74
     0
 49
-0.25
 74
     0
 49
0.25
 74
     0
 49
-0.25
 74
     0
  0
ENDTAB
  0
TABLE
  2
LAYER
  5
196
100
AcDbSymbolTable
 70
    16
  0
LAYER
  5
197
100
AcDbSymbolTableRecord
100
AcDbLayerTableRecord
  2
0
 70
     0
 62
     7
  6
CONTINUOUS
  0
LAYER
  5
198
100
AcDbSymbolTableRecord
100
AcDbLayerTableRecord
  2
A0
 70
     0
 62
     9
  6
CONTINUOUS
  0
LAYER
  5
199
100
AcDbSymbolTableRecord
100
AcDbLayerTableRecord
  2
A1
 70
     0
 62
    12
  6
CONTINUOUS
  0
LAYER
  5
19A
100
AcDbSymbolTableRecord
100
AcDbLayerTableRecord
  2
A2
 70
     0
 62
     9
  6
CONTINUOUS
  0
LAYER
  5
19B
100
AcDbSymbolTableRecord
100
AcDbLayerTableRecord
  2
A4
 70
     0
 62
     9
  6
CONTINUOUS
  0
LAYER
  5
19C
100
AcDbSymbolTableRecord
100
AcDbLayerTableRecord
  2
A5
 70
     0
 62
     8
  6
CONTINUOUS
  0
LAYER
  5
19D
100
AcDbSymbolTableRecord
100
AcDbLayerTableRecord
  2
A6
 70
     0
 62
    12
  6
CONTINUOUS
  0
LAYER
  5
19E
100
AcDbSymbolTableRecord
100
AcDbLayerTableRecord
  2
A7
 70
     0
 62
    12
  6
CONTINUOUS
  0
LAYER
  5
19F
100
AcDbSymbolTableRecord
100
AcDbLayerTableRecord
  2
A8
 70
     0
 62
    10
  6
CONTINUOUS
  0
LAYER
  5
1A0
100
AcDbSymbolTableRecord
100
AcDbLayerTableRecord
  2
A9
 70
     0
 62
     9
  6
CONTINUOUS
  0
LAYER
  5
1A1
100
AcDbSymbolTableRecord
100
AcDbLayerTableRecord
  2
A10
 70
     0
 62
     6
  6
CONTINUOUS
  0
LAYER
  5
1A2
100
AcDbSymbolTableRecord
100
AcDbLayerTableRecord
  2
A20
 70
     0
 62
     1
  6
CONTINUOUS
  0
LAYER
  5
1A3
100
AcDbSymbolTableRecord
100
AcDbLayerTableRecord
  2
A30
 70
     0
 62
     1
  6
CONTINUOUS
  0
LAYER
  5
1A4
100
AcDbSymbolTableRecord
100
AcDbLayerTableRecord
  2
A40
 70
     0
 62
     9
  6
CONTINUOUS
  0
LAYER
  5
1A5
100
AcDbSymbolTableRecord
100
AcDbLayerTableRecord
  2
A50
 70
     0
 62
    12
  6
CONTINUOUS
  0
LAYER
  5
1A6
100
AcDbSymbolTableRecord
100
AcDbLayerTableRecord
  2
A1023
 70
     0
 62
    16
  6
CONTINUOUS
  0
ENDTAB
  0
TABLE
  2
STYLE
  5
1A7
100
AcDbSymbolTable
 70
     4
  0
STYLE
  5
1A8
100
AcDbSymbolTableRecord
100
AcDbTextStyleTableRecord
  2
STANDARD
 70
    64
 40
0.0
 41
1.0
 50
0.0
 71
     0
 42
3.000000000000000
  3
TXT
  4

  0
STYLE
  5
1A9
100
AcDbSymbolTableRecord
100
AcDbTextStyleTableRecord
  2
ANKTATE
 70
    68
 40
0.0
 41
1.0
 50
0.0
 71
     0
 42
3.000000000000000
  3
TXT
  4

  0
STYLE
  5
1AA
100
AcDbSymbolTableRecord
100
AcDbTextStyleTableRecord
  2
KNJYOKO
 70
    64
 40
0.0
 41
1.0
 50
0.0
 71
     0
 42
3.000000000000000
  3
TXT
  4
BIGFONT
  0
STYLE
  5
1AB
100
AcDbSymbolTableRecord
100
AcDbTextStyleTableRecord
  2
KNJTATE
 70
    68
 40
0.0
 41
1.0
 50
0.0
 71
     0
 42
3.000000000000000
  3
TXT
  4
BIGFONT
  0
ENDTAB
  0
TABLE
  2
VIEW
  5
1AC
100
AcDbSymbolTable
 70
     0
  0
ENDTAB
  0
TABLE
  2
UCS
  5
1AD
100
AcDbSymbolTable
 70
     0
  0
ENDTAB
  0
TABLE
  2
APPID
  5
1AE
100
AcDbSymbolTable
 70
     1
  0
APPID
  5
1AF
100
AcDbSymbolTableRecord
100
AcDbRegAppTableRecord
  2
ACAD
 70
     0
  0
ENDTAB
  0
TABLE
  2
DIMSTYLE
  5
1B0
100
AcDbSymbolTable
 70
     2
  0
DIMSTYLE
105
1B1
100
AcDbSymbolTableRecord
100
AcDbDimStyleTableRecord
  2
STANDARD
 70
     0
 41
2.000000
 44
1.500000
 42
0.800000
145
0.661290
140
3.100000
144
1.000000
146
0.645161
340
1A8
  0
DIMSTYLE
105
1B2
100
AcDbSymbolTableRecord
100
AcDbDimStyleTableRecord
  2
A001
 70
     0
 41
2.000000
 44
1.500000
 42
0.800000
145
0.661290
140
3.100000
144
1.000000
146
0.645161
 77
     1
 73
     0
 74
     0
271
     2
275
     0
 78
     8
172
     1
340
1A8
  0
ENDTAB
  0
TABLE
  2
BLOCK_RECORD
  5
1B3
100
AcDbSymbolTable
 70
    12
  0
BLOCK_RECORD
  5
1B4
100
AcDbSymbolTableRecord
100
AcDbBlockTableRecord
  2
*MODEL_SPACE
  0
BLOCK_RECORD
  5
1B5
100
AcDbSymbolTableRecord
100
AcDbBlockTableRecord
  2
*PAPER_SPACE
  0
BLOCK_RECORD
  5
1
100
AcDbSymbolTableRecord
100
AcDbBlockTableRecord
  2
_NONE
  0
BLOCK_RECORD
  5
4
100
AcDbSymbolTableRecord
100
AcDbBlockTableRecord
  2
_CLOSED
  0
BLOCK_RECORD
  5
B
100
AcDbSymbolTableRecord
100
AcDbBlockTableRecord
  2
_DOT
  0
BLOCK_RECORD
  5
13
100
AcDbSymbolTableRecord
100
AcDbBlockTableRecord
  2
_OPEN
  0
BLOCK_RECORD
  5
19
100
AcDbSymbolTableRecord
100
AcDbBlockTableRecord
  2
_ORIGIN
  0
BLOCK_RECORD
  5
1E
100
AcDbSymbolTableRecord
100
AcDbBlockTableRecord
  2
_OPEN30
  0
BLOCK_RECORD
  5
24
100
AcDbSymbolTableRecord
100
AcDbBlockTableRecord
  2
_BOXFILLED
  0
BLOCK_RECORD
  5
29
100
AcDbSymbolTableRecord
100
AcDbBlockTableRecord
  2
_BOXBLANK
  0
BLOCK_RECORD
  5
31
100
AcDbSymbolTableRecord
100
AcDbBlockTableRecord
  2
_OBLIQUE
  0
BLOCK_RECORD
  5
35
100
AcDbSymbolTableRecord
100
AcDbBlockTableRecord
  2
_OPEN90
  0
BLOCK_RECORD
  5
3B
100
AcDbSymbolTableRecord
100
AcDbBlockTableRecord
  2
_CLOSEDBLANK
  0
BLOCK_RECORD
  5
41
100
AcDbSymbolTableRecord
100
AcDbBlockTableRecord
  2
_DOTBLANK
  0
ENDTAB
  0
ENDSEC
  0
SECTION
  2
BLOCKS
  0
BLOCK
  5
1B6
100
AcDbEntity
  8
0
100
AcDbBlockBegin
  2
*MODEL_SPACE
 70
     0
 10
0.0
 20
0.0
 30
0.0
  3
*MODEL_SPACE
  1

  0
ENDBLK
  5
1B7
100
AcDbEntity
  8
0
100
AcDbBlockEnd
  0
BLOCK
  5
1B8
100
AcDbEntity
  8
0
100
AcDbBlockBegin
  2
*PAPER_SPACE
 70
     0
 10
0.0
 20
0.0
 30
0.0
  3
*PAPER_SPACE
  1

  0
ENDBLK
  5
1B9
100
AcDbEntity
  8
0
100
AcDbBlockEnd
  0
BLOCK
  5
2
100
AcDbEntity
  8
0
100
AcDbBlockBegin
  2
_NONE
 70
     0
 10
0.0
 20
0.0
 30
0.0
  3
_NONE
  1

  0
ENDBLK
  5
3
100
AcDbEntity
  8
0
100
AcDbBlockEnd
  0
BLOCK
  5
5
100
AcDbEntity
  8
0
100
AcDbBlockBegin
  2
_CLOSED
 70
     0
 10
0.0
 20
0.0
 30
0.0
  3
_CLOSED
  1

  0
LINE
  5
6
100
AcDbEntity
  8
0
  6
BYBLOCK
 62
     0
100
AcDbLine
 10
-1.0
 20
0.166667
 30
0.0
 11
0.0
 21
0.0
 31
0.0
  0
LINE
  5
7
100
AcDbEntity
  8
0
  6
BYBLOCK
 62
     0
100
AcDbLine
 10
0.0
 20
0.0
 30
0.0
 11
-1.0
 21
-0.166667
 31
0.0
  0
LINE
  5
8
100
AcDbEntity
  8
0
  6
BYBLOCK
 62
     0
100
AcDbLine
 10
-1.0
 20
0.166667
 30
0.0
 11
-1.0
 21
-0.166667
 31
0.0
  0
LINE
  5
9
100
AcDbEntity
  8
0
  6
BYBLOCK
 62
     0
100
AcDbLine
 10
0.0
 20
0.0
 30
0.0
 11
-1.0
 21
0.0
 31
0.0
  0
ENDBLK
  5
A
100
AcDbEntity
  8
0
100
AcDbBlockEnd
  0
BLOCK
  5
C
100
AcDbEntity
  8
0
100
AcDbBlockBegin
  2
_DOT
 70
     0
 10
0.0
 20
0.0
 30
0.0
  3
_DOT
  1

  0
POLYLINE
  5
D
100
AcDbEntity
  8
0
  6
BYBLOCK
 62
     0
100
AcDb2dPolyline
 66
     1
 10
0.0
 20
0.0
 30
0.0
 70
     1
 40
0.5
 41
0.5
  0
VERTEX
  5
E
100
AcDbEntity
  8
0
  6
BYBLOCK
 62
     0
100
AcDbVertex
100
AcDb2dVertex
 10
-0.25
 20
0.0
 30
0.0
 42
1.0
  0
VERTEX
  5
F
100
AcDbEntity
  8
0
  6
BYBLOCK
 62
     0
100
AcDbVertex
100
AcDb2dVertex
 10
0.25
 20
0.0
 30
0.0
 42
1.0
  0
SEQEND
  5
10
100
AcDbEntity
  8
0
  6
BYBLOCK
 62
     0
  0
LINE
  5
11
100
AcDbEntity
  8
0
  6
BYBLOCK
 62
     0
100
AcDbLine
 10
-0.5
 20
0.0
 30
0.0
 11
-1.0
 21
0.0
 31
0.0
  0
ENDBLK
  5
12
100
AcDbEntity
  8
0
100
AcDbBlockEnd
  0
BLOCK
  5
14
100
AcDbEntity
  8
0
100
AcDbBlockBegin
  2
_OPEN
 70
     0
 10
0.0
 20
0.0
 30
0.0
  3
_OPEN
  1

  0
LINE
  5
15
100
AcDbEntity
  8
0
  6
BYBLOCK
 62
     0
100
AcDbLine
 10
-1.0
 20
0.166667
 30
0.0
 11
0.0
 21
0.0
 31
0.0
  0
LINE
  5
16
100
AcDbEntity
  8
0
  6
BYBLOCK
 62
     0
100
AcDbLine
 10
0.0
 20
0.0
 30
0.0
 11
-1.0
 21
-0.166667
 31
0.0
  0
LINE
  5
17
100
AcDbEntity
  8
0
  6
BYBLOCK
 62
     0
100
AcDbLine
 10
0.0
 20
0.0
 30
0.0
 11
-1.0
 21
0.0
 31
0.0
  0
ENDBLK
  5
18
100
AcDbEntity
  8
0
100
AcDbBlockEnd
  0
BLOCK
  5
1A
100
AcDbEntity
  8
0
100
AcDbBlockBegin
  2
_ORIGIN
 70
     0
 10
0.0
 20
0.0
 30
0.0
  3
_ORIGIN
  1

  0
CIRCLE
  5
1B
100
AcDbEntity
  8
0
  6
BYBLOCK
 62
     0
100
AcDbCircle
 10
0.0
 20
0.0
 30
0.0
 40
0.5
  0
LINE
  5
1C
100
AcDbEntity
  8
0
  6
BYBLOCK
 62
     0
100
AcDbLine
 10
0.0
 20
0.0
 30
0.0
 11
-1.0
 21
0.0
 31
0.0
  0
ENDBLK
  5
1D
100
AcDbEntity
  8
0
100
AcDbBlockEnd
  0
BLOCK
  5
1F
100
AcDbEntity
  8
0
100
AcDbBlockBegin
  2
_OPEN30
 70
     0
 10
0.0
 20
0.0
 30
0.0
  3
_OPEN30
  1

  0
LINE
  5
20
100
AcDbEntity
  8
0
  6
BYBLOCK
 62
     0
100
AcDbLine
 10
-1.0
 20
0.267949
 30
0.0
 11
0.0
 21
0.0
 31
0.0
  0
LINE
  5
21
100
AcDbEntity
  8
0
  6
BYBLOCK
 62
     0
100
AcDbLine
 10
0.0
 20
0.0
 30
0.0
 11
-1.0
 21
-0.267949
 31
0.0
  0
LINE
  5
22
100
AcDbEntity
  8
0
  6
BYBLOCK
 62
     0
100
AcDbLine
 10
0.0
 20
0.0
 30
0.0
 11
-1.0
 21
0.0
 31
0.0
  0
ENDBLK
  5
23
100
AcDbEntity
  8
0
100
AcDbBlockEnd
  0
BLOCK
  5
25
100
AcDbEntity
  8
0
100
AcDbBlockBegin
  2
_BOXFILLED
 70
     0
 10
0.0
 20
0.0
 30
0.0
  3
_BOXFILLED
  1

  0
SOLID
  5
26
100
AcDbEntity
  8
0
  6
BYBLOCK
 62
     0
100
AcDbTrace
 10
-0.5
 20
0.5
 30
0.0
 11
0.5
 21
0.5
 31
0.0
 12
-0.5
 22
-0.5
 32
0.0
 13
0.5
 23
-0.5
 33
0.0
  0
LINE
  5
27
100
AcDbEntity
  8
0
  6
BYBLOCK
 62
     0
100
AcDbLine
 10
-0.5
 20
0.0
 30
0.0
 11
-1.0
 21
0.0
 31
0.0
  0
ENDBLK
  5
28
100
AcDbEntity
  8
0
100
AcDbBlockEnd
  0
BLOCK
  5
2A
100
AcDbEntity
  8
0
100
AcDbBlockBegin
  2
_BOXBLANK
 70
     0
 10
0.0
 20
0.0
 30
0.0
  3
_BOXBLANK
  1

  0
LINE
  5
2B
100
AcDbEntity
  8
0
  6
BYBLOCK
 62
     0
100
AcDbLine
 10
-0.5
 20
-0.5
 30
0.0
 11
0.5
 21
-0.5
 31
0.0
  0
LINE
  5
2C
100
AcDbEntity
  8
0
  6
BYBLOCK
 62
     0
100
AcDbLine
 10
0.5
 20
-0.5
 30
0.0
 11
0.5
 21
0.5
 31
0.0
  0
LINE
  5
2D
100
AcDbEntity
  8
0
  6
BYBLOCK
 62
     0
100
AcDbLine
 10
0.5
 20
0.5
 30
0.0
 11
-0.5
 21
0.5
 31
0.0
  0
LINE
  5
2E
100
AcDbEntity
  8
0
  6
BYBLOCK
 62
     0
100
AcDbLine
 10
-0.5
 20
0.5
 30
0.0
 11
-0.5
 21
-0.5
 31
0.0
  0
LINE
  5
2F
100
AcDbEntity
  8
0
  6
BYBLOCK
 62
     0
100
AcDbLine
 10
-0.5
 20
0.0
 30
0.0
 11
-1.0
 21
0.0
 31
0.0
  0
ENDBLK
  5
30
100
AcDbEntity
  8
0
100
AcDbBlockEnd
  0
BLOCK
  5
32
100
AcDbEntity
  8
0
100
AcDbBlockBegin
  2
_OBLIQUE
 70
     0
 10
0.0
 20
0.0
 30
0.0
  3
_OBLIQUE
  1

  0
LINE
  5
33
100
AcDbEntity
  8
0
  6
BYBLOCK
 62
     0
100
AcDbLine
 10
-0.5
 20
-0.5
 30
0.0
 11
0.5
 21
0.5
 31
0.0
  0
ENDBLK
  5
34
100
AcDbEntity
  8
0
100
AcDbBlockEnd
  0
BLOCK
  5
36
100
AcDbEntity
  8
0
100
AcDbBlockBegin
  2
_OPEN90
 70
     0
 10
0.0
 20
0.0
 30
0.0
  3
_OPEN90
  1

  0
LINE
  5
37
100
AcDbEntity
  8
0
  6
BYBLOCK
 62
     0
100
AcDbLine
 10
-0.5
 20
0.5
 30
0.0
 11
0.0
 21
0.0
 31
0.0
  0
LINE
  5
38
100
AcDbEntity
  8
0
  6
BYBLOCK
 62
     0
100
AcDbLine
 10
0.0
 20
0.0
 30
0.0
 11
-0.5
 21
-0.5
 31
0.0
  0
LINE
  5
39
100
AcDbEntity
  8
0
  6
BYBLOCK
 62
     0
100
AcDbLine
 10
0.0
 20
0.0
 30
0.0
 11
-1.0
 21
0.0
 31
0.0
  0
ENDBLK
  5
3A
100
AcDbEntity
  8
0
100
AcDbBlockEnd
  0
BLOCK
  5
3C
100
AcDbEntity
  8
0
100
AcDbBlockBegin
  2
_CLOSEDBLANK
 70
     0
 10
0.0
 20
0.0
 30
0.0
  3
_CLOSEDBLANK
  1

  0
LINE
  5
3D
100
AcDbEntity
  8
0
  6
BYBLOCK
 62
     0
100
AcDbLine
 10
-1.0
 20
0.1666666666666666
 30
0.0
 11
0.0
 21
0.0
 31
0.0
  0
LINE
  5
3E
100
AcDbEntity
  8
0
  6
BYBLOCK
 62
     0
100
AcDbLine
 10
0.0
 20
0.0
 30
0.0
 11
-1.0
 21
-0.1666666666666666
 31
0.0
  0
LINE
  5
3F
100
AcDbEntity
  8
0
  6
BYBLOCK
 62
     0
100
AcDbLine
 10
-1.0
 20
0.1666666666666666
 30
0.0
 11
-1.0
 21
-0.1666666666666666
 31
0.0
  0
ENDBLK
  5
40
100
AcDbEntity
  8
0
100
AcDbBlockEnd
  0
BLOCK
  5
42
100
AcDbEntity
  8
0
100
AcDbBlockBegin
  2
_DOTBLANK
 70
     0
 10
0.0
 20
0.0
 30
0.0
  3
_DOTBLANK
  1

  0
CIRCLE
  5
43
100
AcDbEntity
  8
0
  6
BYBLOCK
 62
     0
100
AcDbCircle
 10
0.0
 20
0.0
 30
0.0
 40
0.5
  0
LINE
  5
44
100
AcDbEntity
  8
0
  6
BYBLOCK
 62
     0
100
AcDbLine
 10
-0.5
 20
0.0
 30
0.0
 11
-1.0
 21
0.0
 31
0.0
  0
ENDBLK
  5
45
100
AcDbEntity
  8
0
100
AcDbBlockEnd
  0
ENDSEC
  0
SECTION
  2
ENTITIES
  0
MTEXT
  5
46
100
AcDbEntity
  8
A4
  6
CONTINUOUS
 62
3
100
AcDbMText
 10
9.999997526638502
 20
18.00000076076889
 30
0.000000000000000
 40
3.000000000000000
 41
0.000000000000000
 71
     7
 72
     1
  1
{\H0.93x;{TYPE No.TL-2SUS}}
 11
1.000000000000000
 21
0.000000000000000
 31
0.000000000000000
  7
STANDARD
  0
LINE
  5
47
100
AcDbEntity
  8
A1
  6
CONTINUOUS
 62
7
100
AcDbLine
 10
79.55989411503494
 20
123.9278151561312
 30
0.000000000000000
 11
70.05989411503499
 21
123.9278151561312
 31
0.000000000000000
  0
LINE
  5
48
100
AcDbEntity
  8
A1
  6
CONTINUOUS
 62
7
100
AcDbLine
 10
78.55989411503496
 20
129.3486335030212
 30
0.000000000000000
 11
71.05989411503496
 21
129.3486335030212
 31
0.000000000000000
  0
LINE
  5
49
100
AcDbEntity
  8
A1
  6
CONTINUOUS
 62
7
100
AcDbLine
 10
81.80989411503498
 20
134.3278151561312
 30
0.000000000000000
 11
67.80989411503504
 21
134.3278151561312
 31
0.000000000000000
  0
LINE
  5
4A
100
AcDbEntity
  8
A4
  6
CENTER
 62
1
100
AcDbLine
 10
74.80989411503501
 20
135.8176644529758
 30
0.000000000000000
 11
74.80989411503499
 21
123.2044495229180
 31
0.000000000000000
  0
LINE
  5
4B
100
AcDbEntity
  8
A1
  6
CONTINUOUS
 62
7
100
AcDbLine
 10
81.80989411503496
 20
129.8278151561312
 30
0.000000000000000
 11
79.55989411503496
 21
129.8278151561312
 31
0.000000000000000
  0
LINE
  5
4C
100
AcDbEntity
  8
A4
  6
CENTER
 62
1
100
AcDbLine
 10
83.55989411503496
 20
132.0278151561313
 30
0.000000000000000
 11
80.05989411503496
 21
132.0278151561313
 31
0.000000000000000
  0
LINE
  5
4D
100
AcDbEntity
  8
A4
  6
CENTER
 62
1
100
AcDbLine
 10
81.80989411503498
 20
133.7778151561312
 30
0.000000000000000
 11
81.80989411503496
 21
130.2778151561312
 31
0.000000000000000
  0
LINE
  5
4E
100
AcDbEntity
  8
A4
  6
CENTER
 62
1
100
AcDbLine
 10
69.55989411503496
 20
132.0278151561313
 30
0.000000000000000
 11
66.05989411503508
 21
132.0278151561313
 31
0.000000000000000
  0
LINE
  5
4F
100
AcDbEntity
  8
A4
  6
CENTER
 62
1
100
AcDbLine
 10
67.80989411503498
 20
133.7778151561313
 30
0.000000000000000
 11
67.80989411503496
 21
130.2778151561312
 31
0.000000000000000
  0
LINE
  5
50
100
AcDbEntity
  8
A1
  6
CONTINUOUS
 62
7
100
AcDbLine
 10
70.05989411503496
 20
129.8278151561312
 30
0.000000000000000
 11
70.05989411503496
 21
123.9278151561311
 31
0.000000000000000
  0
LINE
  5
51
100
AcDbEntity
  8
A1
  6
CONTINUOUS
 62
7
100
AcDbLine
 10
79.55989411503496
 20
129.8278151561312
 30
0.000000000000000
 11
79.55989411503496
 21
123.9278151561311
 31
0.000000000000000
  0
LINE
  5
52
100
AcDbEntity
  8
A1
  6
CONTINUOUS
 62
7
100
AcDbLine
 10
70.05989411503496
 20
129.8278151561312
 30
0.000000000000000
 11
67.80989411503502
 21
129.8278151561312
 31
0.000000000000000
  0
LINE
  5
53
100
AcDbEntity
  8
A1
  6
CONTINUOUS
 62
7
100
AcDbLine
 10
71.05989411503496
 20
128.8127425947994
 30
0.000000000000000
 11
78.55989411503496
 21
128.8127425947994
 31
0.000000000000000
  0
CIRCLE
  5
54
100
AcDbEntity
  8
A1
  6
CONTINUOUS
 62
7
100
AcDbCircle
 10
81.80989411503498
 20
132.0278151561312
 30
0.000000000000000
 40
1.050000000000000
  0
CIRCLE
  5
55
100
AcDbEntity
  8
A1
  6
CONTINUOUS
 62
7
100
AcDbCircle
 10
67.80989411503498
 20
132.0278151561313
 30
0.000000000000000
 40
1.050000000000000
  0
ARC
  5
56
100
AcDbEntity
  8
A1
  6
CONTINUOUS
 62
7
100
AcDbCircle
 10
81.80989411503498
 20
132.0778151561312
 30
0.000000000000000
 40
2.250000000000000
100
AcDbArc
 50
269.9999999999999
 51
449.9999999999999
  0
ARC
  5
57
100
AcDbEntity
  8
A1
  6
CONTINUOUS
 62
7
100
AcDbCircle
 10
67.80989411503498
 20
132.0778151561312
 30
0.000000000000000
 40
2.250000000000000
100
AcDbArc
 50
89.99999999999993
 51
269.9999999999999
  0
ARC
  5
58
100
AcDbEntity
  8
A1
  6
CONTINUOUS
 62
7
100
AcDbCircle
 10
71.05989411503498
 20
127.8127425947994
 30
0.000000000000000
 40
1.000000000000000
100
AcDbArc
 50
89.99999999999993
 51
179.9999999999999
  0
ARC
  5
59
100
AcDbEntity
  8
A1
  6
CONTINUOUS
 62
7
100
AcDbCircle
 10
78.55989411503498
 20
127.8127425947994
 30
0.000000000000000
 40
1.000000000000000
100
AcDbArc
 50
359.9999999999999
 51
449.9999999999999
  0
ARC
  5
5A
100
AcDbEntity
  8
A1
  6
CONTINUOUS
 62
7
100
AcDbCircle
 10
71.05989411503498
 20
128.3486335030212
 30
0.000000000000000
 40
1.000000000000000
100
AcDbArc
 50
89.99999999999993
 51
179.9999999999999
  0
ARC
  5
5B
100
AcDbEntity
  8
A1
  6
CONTINUOUS
 62
7
100
AcDbCircle
 10
78.55989411503498
 20
128.3486335030212
 30
0.000000000000000
 40
1.000000000000000
100
AcDbArc
 50
359.9999999999999
 51
449.9999999999999
  0
LINE
  5
5C
100
AcDbEntity
  8
A1
  6
CONTINUOUS
 62
7
100
AcDbLine
 10
180.2560417808386
 20
134.3278151561311
 30
0.000000000000000
 11
179.2560417808386
 21
134.3278151561311
 31
0.000000000000000
  0
LINE
  5
5D
100
AcDbEntity
  8
A1
  6
CONTINUOUS
 62
7
100
AcDbLine
 10
180.2560417808386
 20
134.3278151561310
 30
0.000000000000000
 11
180.2560417808384
 21
125.9278151561310
 31
0.000000000000000
  0
LINE
  5
5E
100
AcDbEntity
  8
A1
  6
CONTINUOUS
 62
7
100
AcDbLine
 10
179.2560417808386
 20
134.3278151561311
 30
0.000000000000000
 11
179.2560417808384
 21
125.9278151561311
 31
0.000000000000000
  0
LINE
  5
5F
100
AcDbEntity
  8
A4
  6
CENTER
 62
1
100
AcDbLine
 10
182.2950417808387
 20
132.2278151561312
 30
0.000000000000000
 11
177.3250417808387
 21
132.2278151561313
 31
0.000000000000000
  0
LINE
  5
60
100
AcDbEntity
  8
A1
  6
CONTINUOUS
 62
7
100
AcDbLine
 10
180.2560417808385
 20
129.8278151561311
 30
0.000000000000000
 11
179.2560417808385
 21
129.8278151561311
 31
0.000000000000000
  0
ARC
  5
61
100
AcDbEntity
  8
A1
  6
CONTINUOUS
 62
7
100
AcDbCircle
 10
178.2560417808384
 20
125.9278151561311
 30
0.000000000000000
 40
2.000000000000000
100
AcDbArc
 50
209.2861971578895
 51
359.9999999999983
  0
ARC
  5
62
100
AcDbEntity
  8
A1
  6
CONTINUOUS
 62
7
100
AcDbCircle
 10
178.2560417808384
 20
125.9278151561311
 30
0.000000000000000
 40
1.000000000000000
100
AcDbArc
 50
209.2861971578895
 51
359.9999999999983
  0
LINE
  5
63
100
AcDbEntity
  8
A1
  6
CONTINUOUS
 62
7
100
AcDbLine
 10
176.5674673116660
 20
124.8560333396875
 30
0.000000000000000
 11
174.0560417808384
 21
128.8127425947993
 31
0.000000000000000
  0
LINE
  5
64
100
AcDbEntity
  8
A1
  6
CONTINUOUS
 62
7
100
AcDbLine
 10
177.4117545462522
 20
125.3919242479093
 30
0.000000000000000
 11
174.9003290154246
 21
129.3486335030213
 31
0.000000000000000
  0
LINE
  5
65
100
AcDbEntity
  8
A1
  6
CONTINUOUS
 62
7
100
AcDbLine
 10
174.0560417808385
 20
128.8127425947994
 30
0.000000000000000
 11
174.9003290154247
 21
129.3486335030212
 31
0.000000000000000
  0
LINE
  5
66
100
AcDbEntity
  8
A4
  6
CENTER
 62
1
100
AcDbLine
 10
20.85777367833515
 20
108.5884643751738
 30
0.000000000000000
 11
37.15777367833523
 21
108.5884643751738
 31
0.000000000000000
  0
LINE
  5
67
100
AcDbEntity
  8
A1
  6
CONTINUOUS
 62
7
100
AcDbLine
 10
24.20777367833528
 20
110.8384643751739
 30
0.000000000000000
 11
33.60777367833536
 21
110.8384643751738
 31
0.000000000000000
  0
LINE
  5
68
100
AcDbEntity
  8
A1
  6
CONTINUOUS
 62
7
100
AcDbLine
 10
24.15777367833527
 20
106.3384643751740
 30
0.000000000000000
 11
24.15777367833527
 21
105.9387724073207
 31
0.000000000000000
  0
LINE
  5
69
100
AcDbEntity
  8
A1
  6
CONTINUOUS
 62
7
100
AcDbLine
 10
24.20777367833533
 20
110.8384643751739
 30
0.000000000000000
 11
24.20777367833532
 21
106.3384643751740
 31
0.000000000000000
  0
LINE
  5
6A
100
AcDbEntity
  8
A1
  6
CONTINUOUS
 62
7
100
AcDbLine
 10
33.60777367833529
 20
110.8384643751739
 30
0.000000000000000
 11
33.60777367833528
 21
106.3384643751740
 31
0.000000000000000
  0
LINE
  5
6B
100
AcDbEntity
  8
A1
  6
CONTINUOUS
 62
7
100
AcDbLine
 10
25.20777367833533
 20
110.8384643751739
 30
0.000000000000000
 11
25.20777367833532
 21
106.3384643751740
 31
0.000000000000000
  0
LINE
  5
6C
100
AcDbEntity
  8
A1
  6
CONTINUOUS
 62
7
100
AcDbLine
 10
32.60777367833529
 20
110.8384643751739
 30
0.000000000000000
 11
32.60777367833528
 21
106.3384643751740
 31
0.000000000000000
  0
LINE
  5
6D
100
AcDbEntity
  8
A1
  6
CONTINUOUS
 62
7
100
AcDbLine
 10
24.15777367833532
 20
106.3384643751739
 30
0.000000000000000
 11
25.20777367833534
 21
106.3384643751739
 31
0.000000000000000
  0
LINE
  5
6E
100
AcDbEntity
  8
A1
  6
CONTINUOUS
 62
7
100
AcDbLine
 10
32.60777367833531
 20
106.3384643751739
 30
0.000000000000000
 11
33.65777367833537
 21
106.3384643751739
 31
0.000000000000000
  0
ARC
  5
6F
100
AcDbEntity
  8
A1
  6
CONTINUOUS
 62
7
100
AcDbCircle
 10
25.15777367833538
 20
94.83846437517397
 30
0.000000000000000
 40
1.000000000000000
100
AcDbArc
 50
180.7252350228923
 51
270.0000000000000
  0
LINE
  5
70
100
AcDbEntity
  8
A1
  6
CONTINUOUS
 62
7
100
AcDbLine
 10
23.65777367833527
 20
110.5884643751738
 30
0.000000000000000
 11
23.65777367833527
 21
105.9387724073215
 31
0.000000000000000
  0
LINE
  5
71
100
AcDbEntity
  8
A1
  6
CONTINUOUS
 62
7
100
AcDbLine
 10
34.15777367833527
 20
110.5884643751738
 30
0.000000000000000
 11
34.15777367833527
 21
105.9387724073038
 31
0.000000000000000
  0
LINE
  5
72
100
AcDbEntity
  8
A1
  6
CONTINUOUS
 62
7
100
AcDbLine
 10
34.95777367833534
 20
110.5884643751738
 30
0.000000000000000
 11
34.95777367833534
 21
95.96387401706400
 31
0.000000000000000
  0
LINE
  5
73
100
AcDbEntity
  8
A1
  6
CONTINUOUS
 62
7
100
AcDbLine
 10
22.85777367833526
 20
110.5884643751739
 30
0.000000000000000
 11
22.85777367833526
 21
95.96387401706343
 31
0.000000000000000
  0
LINE
  5
74
100
AcDbEntity
  8
A1
  6
CONTINUOUS
 62
7
100
AcDbLine
 10
22.85777367833526
 20
107.0817767856717
 30
0.000000000000000
 11
23.65777367833521
 21
107.0817767856713
 31
0.000000000000000
  0
LINE
  5
75
100
AcDbEntity
  8
A1
  6
CONTINUOUS
 62
7
100
AcDbLine
 10
34.15777367833532
 20
107.0817767856660
 30
0.000000000000000
 11
34.95777367833676
 21
107.0817767856656
 31
0.000000000000000
  0
LINE
  5
76
100
AcDbEntity
  8
A1
  6
CONTINUOUS
 62
7
100
AcDbLine
 10
23.35777367833423
 20
105.5231344517089
 30
0.000000000000000
 11
34.45777367833495
 21
105.5231344516991
 31
0.000000000000000
  0
LINE
  5
77
100
AcDbEntity
  8
A1
  6
CONTINUOUS
 62
7
100
AcDbLine
 10
26.96095712779242
 20
91.88249068444165
 30
0.000000000000000
 11
30.65022660444927
 21
91.88249068444165
 31
0.000000000000000
  0
ARC
  5
78
100
AcDbEntity
  8
A1
  6
CONTINUOUS
 62
7
100
AcDbCircle
 10
28.90777367833385
 20
86.89243909458096
 30
0.000000000000000
 40
2.160297299687258
100
AcDbArc
 50
190.5895338175976
 51
349.4104661823766
  0
LINE
  5
79
100
AcDbEntity
  8
A1
  6
CONTINUOUS
 62
7
100
AcDbLine
 10
33.65777367833527
 20
105.9387724073046
 30
0.000000000000000
 11
33.65777367833527
 21
106.3384643751740
 31
0.000000000000000
  0
LINE
  5
7A
100
AcDbEntity
  8
A1
  6
CONTINUOUS
 62
7
100
AcDbLine
 10
32.38027086880589
 20
93.83846437517379
 30
0.000000000000000
 11
32.65777367833525
 21
93.83846437517393
 31
0.000000000000000
  0
LINE
  5
7B
100
AcDbEntity
  8
A1
  6
CONTINUOUS
 62
7
100
AcDbLine
 10
25.15777367833538
 20
93.83846437517391
 30
0.000000000000000
 11
25.43527648786272
 21
93.83846437517391
 31
0.000000000000000
  0
LINE
  5
7C
100
AcDbEntity
  8
A1
  6
CONTINUOUS
 62
7
100
AcDbLine
 10
22.35777367833520
 20
109.7884643751738
 30
0.000000000000000
 11
22.35777367833520
 21
107.3884643751738
 31
0.000000000000000
  0
LINE
  5
7D
100
AcDbEntity
  8
A1
  6
CONTINUOUS
 62
7
100
AcDbLine
 10
22.85777367833517
 20
109.5884643751739
 30
0.000000000000000
 11
22.35777367833518
 21
109.7884643751739
 31
0.000000000000000
  0
LINE
  5
7E
100
AcDbEntity
  8
A1
  6
CONTINUOUS
 62
7
100
AcDbLine
 10
22.85777367833523
 20
107.5884643751739
 30
0.000000000000000
 11
22.35777367833521
 21
107.3884643751738
 31
0.000000000000000
  0
LINE
  5
7F
100
AcDbEntity
  8
A1
  6
CONTINUOUS
 62
7
100
AcDbLine
 10
23.65777367833516
 20
109.5884643751738
 30
0.000000000000000
 11
24.20777367833511
 21
109.5884643751738
 31
0.000000000000000
  0
LINE
  5
80
100
AcDbEntity
  8
A1
  6
CONTINUOUS
 62
7
100
AcDbLine
 10
23.65777367833516
 20
107.5884643751738
 30
0.000000000000000
 11
24.20777367833511
 21
107.5884643751738
 31
0.000000000000000
  0
LINE
  5
81
100
AcDbEntity
  8
A1
  6
CONTINUOUS
 62
7
100
AcDbLine
 10
25.20777367833511
 20
109.5884643751738
 30
0.000000000000000
 11
32.60777367833509
 21
109.5884643751738
 31
0.000000000000000
  0
LINE
  5
82
100
AcDbEntity
  8
A1
  6
CONTINUOUS
 62
7
100
AcDbLine
 10
25.20777367833511
 20
107.5884643751738
 30
0.000000000000000
 11
32.60777367833509
 21
107.5884643751738
 31
0.000000000000000
  0
LINE
  5
83
100
AcDbEntity
  8
A1
  6
CONTINUOUS
 62
7
100
AcDbLine
 10
33.60777367833509
 20
107.5884643751738
 30
0.000000000000000
 11
34.15777367833515
 21
107.5884643751738
 31
0.000000000000000
  0
LINE
  5
84
100
AcDbEntity
  8
A1
  6
CONTINUOUS
 62
7
100
AcDbLine
 10
33.60777367833509
 20
109.5884643751738
 30
0.000000000000000
 11
34.15777367833515
 21
109.5884643751738
 31
0.000000000000000
  0
ARC
  5
85
100
AcDbEntity
  8
A1
  6
CONTINUOUS
 62
7
100
AcDbCircle
 10
35.30777367833513
 20
110.2384643751738
 30
0.000000000000000
 40
0.3500000000000014
100
AcDbArc
 50
0.000000000000000
 51
180.0000000000000
  0
LINE
  5
86
100
AcDbEntity
  8
A1
  6
CONTINUOUS
 62
7
100
AcDbLine
 10
35.65777367833527
 20
110.2384643751738
 30
0.000000000000000
 11
35.65777367833527
 21
106.9384643751738
 31
0.000000000000000
  0
ARC
  5
87
100
AcDbEntity
  8
A1
  6
CONTINUOUS
 62
7
100
AcDbCircle
 10
35.30777367833513
 20
106.9384643751738
 30
0.000000000000000
 40
0.3500000000000085
100
AcDbArc
 50
180.0000000000000
 51
360.0000000000000
  0
LINE
  5
88
100
AcDbEntity
  8
A1
  6
CONTINUOUS
 62
7
100
AcDbLine
 10
22.85777367833532
 20
110.5884643751738
 30
0.000000000000000
 11
23.65777367833527
 21
110.5884643751738
 31
0.000000000000000
  0
LINE
  5
89
100
AcDbEntity
  8
A1
  6
CONTINUOUS
 62
7
100
AcDbLine
 10
34.15777367833527
 20
110.5884643751738
 30
0.000000000000000
 11
34.95777367833534
 21
110.5884643751738
 31
0.000000000000000
  0
LINE
  5
8A
100
AcDbEntity
  8
A4
  6
CENTER
 62
1
100
AcDbLine
 10
26.35777367833532
 20
102.8384643751738
 30
0.000000000000000
 11
31.45777367833534
 21
102.8384643751738
 31
0.000000000000000
  0
LINE
  5
8B
100
AcDbEntity
  8
A4
  6
CENTER
 62
1
100
AcDbLine
 10
28.90777367833378
 20
82.77012644190276
 30
0.000000000000000
 11
28.90777367833569
 21
118.7727039808615
 31
0.000000000000000
  0
LINE
  5
8C
100
AcDbEntity
  8
A4
  6
CENTER
 62
1
100
AcDbLine
 10
26.35777367833532
 20
97.33846437517391
 30
0.000000000000000
 11
31.45777367833534
 21
97.33846437517391
 31
0.000000000000000
  0
ARC
  5
8D
100
AcDbEntity
  8
A1
  6
CONTINUOUS
 62
7
100
AcDbCircle
 10
28.90777367833391
 20
87.24592524094086
 30
0.000000000000000
 40
2.229438635530130
100
AcDbArc
 50
191.2796195303781
 51
348.7203804695966
  0
LINE
  5
8E
100
AcDbEntity
  8
A1
  6
CONTINUOUS
 62
7
100
AcDbLine
 10
133.1049256775212
 20
105.3948036503897
 30
0.000000000000000
 11
134.3539213441377
 21
105.3948036503897
 31
0.000000000000000
  0
LINE
  5
8F
100
AcDbEntity
  8
A1
  6
CONTINUOUS
 62
7
100
AcDbLine
 10
134.3539213441378
 20
109.8948036503896
 30
0.000000000000000
 11
134.3539213441375
 21
92.89480365038972
 31
0.000000000000000
  0
LINE
  5
90
100
AcDbEntity
  8
A1
  6
CONTINUOUS
 62
7
100
AcDbLine
 10
133.3539213441375
 20
92.89480365038973
 30
0.000000000000000
 11
134.3539213441375
 21
92.89480365038972
 31
0.000000000000000
  0
LINE
  5
91
100
AcDbEntity
  8
A1
  6
CONTINUOUS
 62
7
100
AcDbLine
 10
133.3539213441377
 20
105.3948036503897
 30
0.000000000000000
 11
133.3539213441375
 21
92.89480365038973
 31
0.000000000000000
  0
LINE
  5
92
100
AcDbEntity
  8
A4
  6
CENTER
 62
1
100
AcDbLine
 10
132.6039213441377
 20
101.8948036503896
 30
0.000000000000000
 11
135.1039213441377
 21
101.8948036503896
 31
0.000000000000000
  0
LINE
  5
93
100
AcDbEntity
  8
A4
  6
CENTER
 62
1
100
AcDbLine
 10
132.6039213441376
 20
96.39480365038975
 30
0.000000000000000
 11
135.1039213441376
 21
96.39480365038970
 31
0.000000000000000
  0
LINE
  5
94
100
AcDbEntity
  8
A4
  6
CENTER
 62
1
100
AcDbLine
 10
130.3539213441378
 20
111.3944703022402
 30
0.000000000000000
 11
130.3539213441377
 21
103.8951369985391
 31
0.000000000000000
  0
LINE
  5
95
100
AcDbEntity
  8
A4
  6
CENTER
 62
1
100
AcDbLine
 10
126.5539213441378
 20
107.6448036503897
 30
0.000000000000000
 11
134.0539213441378
 21
107.6448036503896
 31
0.000000000000000
  0
LINE
  5
96
100
AcDbEntity
  8
A1
  6
CONTINUOUS
 62
7
100
AcDbLine
 10
130.9992167223489
 20
109.8948036503896
 30
0.000000000000000
 11
134.3539213441378
 21
109.8948036503896
 31
0.000000000000000
  0
ARC
  5
97
100
AcDbEntity
  8
A1
  6
CONTINUOUS
 62
7
100
AcDbCircle
 10
130.1992173325579
 20
101.9329755456226
 30
0.000000000000000
 40
0.8000000000000000
100
AcDbArc
 50
179.9999999999991
 51
359.9999999999991
  0
LINE
  5
98
100
AcDbEntity
  8
A1
  6
CONTINUOUS
 62
7
100
AcDbLine
 10
130.9992167223490
 20
115.4329755456186
 30
0.000000000000000
 11
130.9992167223488
 21
101.9329751854145
 31
0.000000000000000
  0
LINE
  5
99
100
AcDbEntity
  8
A1
  6
CONTINUOUS
 62
7
100
AcDbLine
 10
129.3992173325580
 20
115.4329755456186
 30
0.000000000000000
 11
129.3992173325578
 21
101.9329755456226
 31
0.000000000000000
  0
ARC
  5
9A
100
AcDbEntity
  8
A10
  6
DASHED
 62
7
100
AcDbCircle
 10
130.3039213441378
 20
107.6448036503897
 30
0.000000000000000
 40
2.250000000000000
100
AcDbArc
 50
113.7089416887533
 51
117.2386415157495
  0
ARC
  5
9B
100
AcDbEntity
  8
A1
  6
CONTINUOUS
 62
7
100
AcDbCircle
 10
130.3039213441378
 20
107.6448036503897
 30
0.000000000000000
 40
2.250000000000000
100
AcDbArc
 50
113.7089416887531
 51
194.7496981903653
  0
ARC
  5
9C
100
AcDbEntity
  8
A1
  6
CONTINUOUS
 62
7
100
AcDbCircle
 10
130.1992167223490
 20
115.4329755456186
 30
0.000000000000000
 40
0.8000000000000000
100
AcDbArc
 50
359.9999999999991
 51
539.9999999999991
  0
LINE
  5
9D
100
AcDbEntity
  8
A4
  6
CENTER
 62
1
100
AcDbLine
 10
132.6992173325578
 20
101.9329755456225
 30
0.000000000000000
 11
127.6992173325578
 21
101.9329755456226
 31
0.000000000000000
  0
LINE
  5
9E
100
AcDbEntity
  8
A4
  6
CENTER
 62
1
100
AcDbLine
 10
130.1992173325578
 20
99.43297554562255
 30
0.000000000000000
 11
130.1992173325579
 21
104.4329755456225
 31
0.000000000000000
  0
ARC
  5
9F
100
AcDbEntity
  8
A1
  6
CONTINUOUS
 62
7
100
AcDbCircle
 10
130.1992173325579
 20
101.9329755456226
 30
0.000000000000000
 40
1.000000000000000
100
AcDbArc
 50
143.1301023541608
 51
396.8699559164716
  0
LINE
  5
A0
100
AcDbEntity
  8
A1
  6
CONTINUOUS
 62
7
100
AcDbLine
 10
133.5295069082354
 20
92.60603770153240
 30
0.000000000000000
 11
131.4975779949453
 21
95.94772403930841
 31
0.000000000000000
  0
LINE
  5
A1
100
AcDbEntity
  8
A1
  6
CONTINUOUS
 62
7
100
AcDbLine
 10
127.8760406957528
 20
106.1381160608876
 30
0.000000000000000
 11
125.3127158870787
 21
104.5794737269201
 31
0.000000000000000
  0
LINE
  5
A2
100
AcDbEntity
  8
A1
  6
CONTINUOUS
 62
7
100
AcDbLine
 10
132.8459536259223
 20
92.19039974580774
 30
0.000000000000000
 11
125.3127158870787
 21
104.5794737269201
 31
0.000000000000000
  0
LINE
  5
A3
100
AcDbEntity
  8
A1
  6
CONTINUOUS
 62
7
100
AcDbLine
 10
128.4116223403177
 20
108.1226474163535
 30
0.000000000000000
 11
127.8760406957529
 21
106.1381160608876
 31
0.000000000000000
  0
ARC
  5
A4
100
AcDbEntity
  8
A1
  6
CONTINUOUS
 62
7
100
AcDbCircle
 10
130.7104298281198
 20
90.89150435915600
 30
0.000000000000000
 40
2.500000000000000
100
AcDbArc
 50
339.1801375132773
 51
392.4268361246359
  0
ARC
  5
A5
100
AcDbEntity
  8
A1
  6
CONTINUOUS
 62
7
100
AcDbCircle
 10
130.7104298281198
 20
90.89150435915600
 30
0.000000000000000
 40
3.299527611291639
100
AcDbArc
 50
339.1801375132774
 51
391.3018998748847
  0
LINE
  5
A6
100
AcDbEntity
  8
A1
  6
CONTINUOUS
 62
7
100
AcDbLine
 10
133.0471861200952
 20
90.00292682629035
 30
0.000000000000000
 11
130.7921993737075
 21
84.07282588062657
 31
0.000000000000000
  0
LINE
  5
A7
100
AcDbEntity
  8
A1
  6
CONTINUOUS
 62
7
100
AcDbLine
 10
133.7949481335272
 20
89.71858201577328
 30
0.000000000000000
 11
131.5399613871396
 21
83.78848107010953
 31
0.000000000000000
  0
LINE
  5
A8
100
AcDbEntity
  8
A1
  6
CONTINUOUS
 62
7
100
AcDbLine
 10
132.0631582037125
 20
108.6841135806395
 30
0.000000000000000
 11
132.5792835831400
 21
107.8352998658822
 31
0.000000000000000
  0
LINE
  5
A9
100
AcDbEntity
  8
A1
  6
CONTINUOUS
 62
7
100
AcDbLine
 10
133.0101596722458
 20
93.46015004361128
 30
0.000000000000000
 11
132.3266063899328
 21
93.04451208788662
 31
0.000000000000000
  0
LINE
  5
AA
100
AcDbEntity
  8
A1
  6
CONTINUOUS
 62
7
100
AcDbLine
 10
133.1010444677557
 20
105.0641997881262
 30
0.000000000000000
 11
131.2875115006210
 21
94.75339529366936
 31
0.000000000000000
  0
ARC
  5
AB
100
AcDbEntity
  8
A1
  6
CONTINUOUS
 62
7
100
AcDbCircle
 10
135.3192909232780
 20
95.41589342283314
 30
0.000000000000000
 40
3.858540334272219
100
AcDbArc
 50
172.0775829360909
 51
200.4169860185017
  0
ARC
  5
AC
100
AcDbEntity
  8
A1
  6
CONTINUOUS
 62
7
100
AcDbCircle
 10
129.1615171715746
 20
105.7571100872588
 30
0.000000000000000
 40
4.000000000000000
100
AcDbArc
 50
350.0244696118688
 51
391.3018998748847
  0
LINE
  5
AD
100
AcDbEntity
  8
A1
  6
CONTINUOUS
 62
7
100
AcDbLine
 10
130.7921993737075
 20
84.07282588062662
 30
0.000000000000000
 11
131.5399613871397
 21
83.78848107010955
 31
0.000000000000000
  0
LINE
  5
AE
100
AcDbEntity
  8
A1
  6
CONTINUOUS
 62
7
100
AcDbLine
 10
22.30777367833474
 20
102.0766362704028
 30
0.000000000000000
 11
22.85777367833532
 21
102.0766362704028
 31
0.000000000000000
  0
LINE
  5
AF
100
AcDbEntity
  8
A4
  6
CENTER
 62
1
100
AcDbLine
 10
21.55777367833474
 20
102.8766362704028
 30
0.000000000000000
 11
36.55789723007677
 21
102.8766362704028
 31
0.000000000000000
  0
ARC
  5
B0
100
AcDbEntity
  8
A1
  6
CONTINUOUS
 62
7
100
AcDbCircle
 10
22.30777367833474
 20
103.6766362704028
 30
0.000000000000000
 40
1.600000000000000
100
AcDbArc
 50
199.2089508740521
 51
270.0000000000000
  0
ARC
  5
B1
100
AcDbEntity
  8
A1
  6
CONTINUOUS
 62
7
100
AcDbCircle
 10
36.59380988758351
 20
108.5240745562191
 30
0.000000000000000
 40
16.68603620924877
100
AcDbArc
 50
152.1285502125652
 51
198.7427441343601
  0
ARC
  5
B2
100
AcDbEntity
  8
A1
  6
CONTINUOUS
 62
7
100
AcDbCircle
 10
36.59380988758351
 20
108.5240745562191
 30
0.000000000000000
 40
15.08603620924877
100
AcDbArc
 50
152.1285502125652
 51
198.7427441343601
  0
LINE
  5
B3
100
AcDbEntity
  8
A1
  6
CONTINUOUS
 62
7
100
AcDbLine
 10
23.25777367833484
 20
115.5766362704028
 30
0.000000000000000
 11
34.55777367833479
 21
115.5766362704028
 31
0.000000000000000
  0
LINE
  5
B4
100
AcDbEntity
  8
A1
  6
CONTINUOUS
 62
7
100
AcDbLine
 10
23.25777367833484
 20
117.1766362704028
 30
0.000000000000000
 11
34.55777367833479
 21
117.1766362704028
 31
0.000000000000000
  0
ARC
  5
B5
100
AcDbEntity
  8
A1
  6
CONTINUOUS
 62
7
100
AcDbCircle
 10
23.25777367833473
 20
115.5766362704028
 30
0.000000000000000
 40
1.600000000000000
100
AcDbArc
 50
90.00000000000000
 51
151.4272926531501
  0
ARC
  5
B6
100
AcDbEntity
  8
A1
  6
CONTINUOUS
 62
7
100
AcDbCircle
 10
34.55777367833485
 20
115.5766362704028
 30
0.000000000000000
 40
1.600000000000000
100
AcDbArc
 50
28.57270734684990
 51
90.00000000000000
  0
ARC
  5
B7
100
AcDbEntity
  8
A1
  6
CONTINUOUS
 62
7
100
AcDbCircle
 10
21.22173746908606
 20
108.5240745562191
 30
0.000000000000000
 40
16.68603620924877
100
AcDbArc
 50
341.2572558656399
 51
387.8714497874347
  0
ARC
  5
B8
100
AcDbEntity
  8
A1
  6
CONTINUOUS
 62
7
100
AcDbCircle
 10
21.22173746908606
 20
108.5240745562191
 30
0.000000000000000
 40
15.08603620924877
100
AcDbArc
 50
341.2572558656399
 51
387.8714497874347
  0
LINE
  5
B9
100
AcDbEntity
  8
A1
  6
CONTINUOUS
 62
7
100
AcDbLine
 10
35.50777367833484
 20
102.0766362704028
 30
0.000000000000000
 11
34.95777367833528
 21
102.0766362704028
 31
0.000000000000000
  0
LINE
  5
BA
100
AcDbEntity
  8
A1
  6
CONTINUOUS
 62
7
100
AcDbLine
 10
35.50777367833484
 20
103.6766362704028
 30
0.000000000000000
 11
34.95777367833528
 21
103.6766362704028
 31
0.000000000000000
  0
LINE
  5
BB
100
AcDbEntity
  8
A1
  6
CONTINUOUS
 62
7
100
AcDbLine
 10
22.30777367833479
 20
103.6766362704028
 30
0.000000000000000
 11
22.85777367833526
 21
103.6766362704028
 31
0.000000000000000
  0
ARC
  5
BC
100
AcDbEntity
  8
A1
  6
CONTINUOUS
 62
7
100
AcDbCircle
 10
35.50777367833484
 20
103.6766362704028
 30
0.000000000000000
 40
1.600000000000000
100
AcDbArc
 50
270.0000000000000
 51
340.7910491259479
  0
ARC
  5
BD
100
AcDbEntity
  8
A1
  6
CONTINUOUS
 62
7
100
AcDbCircle
 10
130.3542749979298
 20
107.6450186913278
 30
0.000000000000000
 40
2.000000000000000
100
AcDbArc
 50
31.30189987488468
 51
71.18758184655132
  0
LINE
  5
BE
100
AcDbEntity
  8
A1
  6
CONTINUOUS
 62
7
100
AcDbLine
 10
26.78303286181680
 20
86.50210476908210
 30
0.000000000000000
 11
25.40777367833531
 21
93.98817281267083
 31
0.000000000000000
  0
LINE
  5
BF
100
AcDbEntity
  8
A1
  6
CONTINUOUS
 62
7
100
AcDbLine
 10
31.03251449485104
 20
86.50210476908188
 30
0.000000000000000
 11
32.40777367833333
 21
93.98817281267046
 31
0.000000000000000
  0
LINE
  5
C0
100
AcDbEntity
  8
A1
  6
CONTINUOUS
 62
7
100
AcDbLine
 10
25.40777367833536
 20
93.98817281267080
 30
0.000000000000000
 11
23.07942265737209
 21
95.54851789380440
 31
0.000000000000000
  0
LINE
  5
C1
100
AcDbEntity
  8
A1
  6
CONTINUOUS
 62
7
100
AcDbLine
 10
32.40777367833324
 20
93.98817281267041
 30
0.000000000000000
 11
34.73612469929852
 21
95.54851789380498
 31
0.000000000000000
  0
LINE
  5
C2
100
AcDbEntity
  8
A1
  6
CONTINUOUS
 62
7
100
AcDbLine
 10
23.65777367833525
 20
105.9387724073216
 30
0.000000000000000
 11
34.15777367834782
 21
105.9387724073038
 31
0.000000000000000
  0
ARC
  5
C3
100
AcDbEntity
  8
A1
  6
CONTINUOUS
 62
7
100
AcDbCircle
 10
34.45777367833534
 20
106.0231344516991
 30
0.000000000000000
 40
0.5000000000000000
100
AcDbArc
 50
270.0000000000000
 51
360.0000000000000
  0
ARC
  5
C4
100
AcDbEntity
  8
A1
  6
CONTINUOUS
 62
7
100
AcDbCircle
 10
23.35777367833463
 20
106.0231344516997
 30
0.000000000000000
 40
0.5000000000000000
100
AcDbArc
 50
179.9999999999939
 51
269.9999999999939
  0
ARC
  5
C5
100
AcDbEntity
  8
A1
  6
CONTINUOUS
 62
7
100
AcDbCircle
 10
34.45777367833534
 20
95.96387401706400
 30
0.000000000000000
 40
0.5000000000000000
100
AcDbArc
 50
303.8280273989954
 51
360.0000000000000
  0
ARC
  5
C6
100
AcDbEntity
  8
A1
  6
CONTINUOUS
 62
7
100
AcDbCircle
 10
23.35777367833526
 20
95.96387401706343
 30
0.000000000000000
 40
0.5000000000000000
100
AcDbArc
 50
180.0000000000000
 51
236.1719726010001
  0
ARC
  5
C7
100
AcDbEntity
  8
A1
  6
CONTINUOUS
 62
7
100
AcDbCircle
 10
130.3539213441378
 20
107.6448036503896
 30
0.000000000000000
 40
2.000215009670413
100
AcDbArc
 50
118.5092539632843
 51
241.4907460367138
  0
ARC
  5
C8
100
AcDbEntity
  8
A1
  6
CONTINUOUS
 62
7
100
AcDbCircle
 10
130.3539213441378
 20
107.6448036503896
 30
0.000000000000000
 40
2.000215009670413
100
AcDbArc
 50
288.8210222756290
 51
431.1789777243693
  0
LINE
  5
C9
100
AcDbEntity
  8
A1
  6
CONTINUOUS
 62
7
100
AcDbLine
 10
293.5027640784099
 20
122.9841544313487
 30
0.000000000000000
 11
284.0027640784100
 21
122.9841544313487
 31
0.000000000000000
  0
LINE
  5
CA
100
AcDbEntity
  8
A1
  6
CONTINUOUS
 62
7
100
AcDbLine
 10
295.7527640784100
 20
133.3841544313488
 30
0.000000000000000
 11
281.7527640784101
 21
133.3841544313488
 31
0.000000000000000
  0
LINE
  5
CB
100
AcDbEntity
  8
A4
  6
CENTER
 62
1
100
AcDbLine
 10
288.7527640784101
 20
134.8740037281934
 30
0.000000000000000
 11
288.7527640784101
 21
122.2607887981356
 31
0.000000000000000
  0
LINE
  5
CC
100
AcDbEntity
  8
A1
  6
CONTINUOUS
 62
7
100
AcDbLine
 10
295.7527640784100
 20
128.8841544313487
 30
0.000000000000000
 11
293.5027640784100
 21
128.8841544313487
 31
0.000000000000000
  0
LINE
  5
CD
100
AcDbEntity
  8
A4
  6
CENTER
 62
1
100
AcDbLine
 10
297.5027640784100
 20
131.0841544313488
 30
0.000000000000000
 11
294.0027640784100
 21
131.0841544313488
 31
0.000000000000000
  0
LINE
  5
CE
100
AcDbEntity
  8
A4
  6
CENTER
 62
1
100
AcDbLine
 10
295.7527640784100
 20
132.8341544313488
 30
0.000000000000000
 11
295.7527640784100
 21
129.3341544313487
 31
0.000000000000000
  0
LINE
  5
CF
100
AcDbEntity
  8
A4
  6
CENTER
 62
1
100
AcDbLine
 10
283.5027640784100
 20
131.0841544313488
 30
0.000000000000000
 11
280.0027640784101
 21
131.0841544313488
 31
0.000000000000000
  0
LINE
  5
D0
100
AcDbEntity
  8
A4
  6
CENTER
 62
1
100
AcDbLine
 10
281.7527640784100
 20
132.8341544313488
 30
0.000000000000000
 11
281.7527640784100
 21
129.3341544313488
 31
0.000000000000000
  0
LINE
  5
D1
100
AcDbEntity
  8
A1
  6
CONTINUOUS
 62
7
100
AcDbLine
 10
284.0027640784100
 20
128.8841544313488
 30
0.000000000000000
 11
284.0027640784100
 21
122.9841544313487
 31
0.000000000000000
  0
LINE
  5
D2
100
AcDbEntity
  8
A1
  6
CONTINUOUS
 62
7
100
AcDbLine
 10
293.5027640784100
 20
128.8841544313488
 30
0.000000000000000
 11
293.5027640784100
 21
122.9841544313487
 31
0.000000000000000
  0
LINE
  5
D3
100
AcDbEntity
  8
A1
  6
CONTINUOUS
 62
7
100
AcDbLine
 10
284.0027640784100
 20
128.8841544313488
 30
0.000000000000000
 11
281.7527640784101
 21
128.8841544313488
 31
0.000000000000000
  0
CIRCLE
  5
D4
100
AcDbEntity
  8
A1
  6
CONTINUOUS
 62
7
100
AcDbCircle
 10
295.7527640784100
 20
131.0841544313488
 30
0.000000000000000
 40
1.050000000000000
  0
CIRCLE
  5
D5
100
AcDbEntity
  8
A1
  6
CONTINUOUS
 62
7
100
AcDbCircle
 10
281.7527640784100
 20
131.0841544313489
 30
0.000000000000000
 40
1.050000000000000
  0
ARC
  5
D6
100
AcDbEntity
  8
A1
  6
CONTINUOUS
 62
7
100
AcDbCircle
 10
295.7527640784100
 20
131.1341544313488
 30
0.000000000000000
 40
2.250000000000000
100
AcDbArc
 50
269.9999999999999
 51
449.9999999999999
  0
ARC
  5
D7
100
AcDbEntity
  8
A1
  6
CONTINUOUS
 62
7
100
AcDbCircle
 10
281.7527640784100
 20
131.1341544313488
 30
0.000000000000000
 40
2.250000000000000
100
AcDbArc
 50
89.99999999999993
 51
269.9999999999999
  0
LINE
  5
D8
100
AcDbEntity
  8
A4
  6
CENTER
 62
1
100
AcDbLine
 10
250.9006436417102
 20
107.6448036503905
 30
0.000000000000000
 11
234.6006436417101
 21
107.6448036503922
 31
0.000000000000000
  0
LINE
  5
D9
100
AcDbEntity
  8
A1
  6
CONTINUOUS
 62
7
100
AcDbLine
 10
247.5506436417103
 20
109.8948036503909
 30
0.000000000000000
 11
238.1506436417102
 21
109.8948036503919
 31
0.000000000000000
  0
LINE
  5
DA
100
AcDbEntity
  8
A1
  6
CONTINUOUS
 62
7
100
AcDbLine
 10
247.6006436417098
 20
105.3948036503911
 30
0.000000000000000
 11
247.6006436417098
 21
104.9951116825377
 31
0.000000000000000
  0
LINE
  5
DB
100
AcDbEntity
  8
A1
  6
CONTINUOUS
 62
7
100
AcDbLine
 10
247.5506436417103
 20
109.8948036503910
 30
0.000000000000000
 11
247.5506436417098
 21
105.3948036503911
 31
0.000000000000000
  0
LINE
  5
DC
100
AcDbEntity
  8
A1
  6
CONTINUOUS
 62
7
100
AcDbLine
 10
238.1506436417103
 20
109.8948036503920
 30
0.000000000000000
 11
238.1506436417098
 21
105.3948036503921
 31
0.000000000000000
  0
ARC
  5
DD
100
AcDbEntity
  8
A1
  6
CONTINUOUS
 62
7
100
AcDbCircle
 10
246.6006436417085
 20
93.89480365039114
 30
0.000000000000000
 40
1.000000000000000
100
AcDbArc
 50
269.9999999999939
 51
359.9999999999939
  0
CIRCLE
  5
DE
100
AcDbEntity
  8
A1
  6
CONTINUOUS
 62
7
100
AcDbCircle
 10
242.8506436417088
 20
96.39480365039151
 30
0.000000000000000
 40
1.050000000000000
  0
CIRCLE
  5
DF
100
AcDbEntity
  8
A1
  6
CONTINUOUS
 62
7
100
AcDbCircle
 10
242.8506436417094
 20
101.8948036503914
 30
0.000000000000000
 40
1.050000000000000
  0
ARC
  5
E0
100
AcDbEntity
  8
A1
  6
CONTINUOUS
 62
7
100
AcDbCircle
 10
239.1006436417086
 20
93.89480365039191
 30
0.000000000000000
 40
1.000000000000000
100
AcDbArc
 50
179.9999999999939
 51
269.9999999999939
  0
LINE
  5
E1
100
AcDbEntity
  8
A1
  6
CONTINUOUS
 62
7
100
AcDbLine
 10
248.1006436417103
 20
109.6448036503908
 30
0.000000000000000
 11
248.1006436417086
 21
94.21727507224844
 31
0.000000000000000
  0
LINE
  5
E2
100
AcDbEntity
  8
A1
  6
CONTINUOUS
 62
7
100
AcDbLine
 10
237.6006436417103
 20
109.6448036503919
 30
0.000000000000000
 11
237.6006436417086
 21
94.21727507225016
 31
0.000000000000000
  0
LINE
  5
E3
100
AcDbEntity
  8
A1
  6
CONTINUOUS
 62
7
100
AcDbLine
 10
236.8006436417102
 20
109.6448036503921
 30
0.000000000000000
 11
236.8006436417086
 21
95.02021329228224
 31
0.000000000000000
  0
LINE
  5
E4
100
AcDbEntity
  8
A1
  6
CONTINUOUS
 62
7
100
AcDbLine
 10
248.9006436417103
 20
109.6448036503908
 30
0.000000000000000
 11
248.9006436417087
 21
95.02021329228037
 31
0.000000000000000
  0
ARC
  5
E5
100
AcDbEntity
  8
A1
  6
CONTINUOUS
 62
7
100
AcDbCircle
 10
242.8506436417092
 20
85.94877836979856
 30
0.000000000000000
 40
2.160297299687258
100
AcDbArc
 50
190.5895338176172
 51
349.4104661823962
  0
LINE
  5
E6
100
AcDbEntity
  8
A1
  6
CONTINUOUS
 62
7
100
AcDbLine
 10
238.1006436417098
 20
104.9951116825227
 30
0.000000000000000
 11
238.1006436417098
 21
105.3948036503921
 31
0.000000000000000
  0
LINE
  5
E7
100
AcDbEntity
  8
A1
  6
CONTINUOUS
 62
7
100
AcDbLine
 10
247.6006436417086
 20
93.89480365039105
 30
0.000000000000000
 11
247.6006436417098
 21
104.9951116825378
 31
0.000000000000000
  0
LINE
  5
E8
100
AcDbEntity
  8
A1
  6
CONTINUOUS
 62
7
100
AcDbLine
 10
238.1006436417086
 20
93.89480365039203
 30
0.000000000000000
 11
238.1006436417098
 21
104.9951116825228
 31
0.000000000000000
  0
LINE
  5
E9
100
AcDbEntity
  8
A1
  6
CONTINUOUS
 62
7
100
AcDbLine
 10
239.1272091403544
 20
92.89480365039188
 30
0.000000000000000
 11
239.1006436417085
 21
92.89480365039189
 31
0.000000000000000
  0
LINE
  5
EA
100
AcDbEntity
  8
A1
  6
CONTINUOUS
 62
7
100
AcDbLine
 10
246.6006436417084
 20
92.89480365039110
 30
0.000000000000000
 11
246.5740781430615
 21
92.89480365039110
 31
0.000000000000000
  0
LINE
  5
EB
100
AcDbEntity
  8
A1
  6
CONTINUOUS
 62
7
100
AcDbLine
 10
246.5740781430615
 20
92.89480365039117
 30
0.000000000000000
 11
239.1272091403545
 21
92.89480365039196
 31
0.000000000000000
  0
LINE
  5
EC
100
AcDbEntity
  8
A1
  6
CONTINUOUS
 62
7
100
AcDbLine
 10
249.4006436417102
 20
108.8448036503907
 30
0.000000000000000
 11
249.4006436417100
 21
106.4448036503906
 31
0.000000000000000
  0
LINE
  5
ED
100
AcDbEntity
  8
A1
  6
CONTINUOUS
 62
7
100
AcDbLine
 10
248.9006436417103
 20
108.6448036503908
 30
0.000000000000000
 11
249.4006436417103
 21
108.8448036503907
 31
0.000000000000000
  0
LINE
  5
EE
100
AcDbEntity
  8
A1
  6
CONTINUOUS
 62
7
100
AcDbLine
 10
248.9006436417100
 20
106.6448036503908
 30
0.000000000000000
 11
249.4006436417100
 21
106.4448036503907
 31
0.000000000000000
  0
LINE
  5
EF
100
AcDbEntity
  8
A1
  6
CONTINUOUS
 62
7
100
AcDbLine
 10
248.1006436417103
 20
108.6448036503908
 30
0.000000000000000
 11
247.5506436417103
 21
108.6448036503909
 31
0.000000000000000
  0
LINE
  5
F0
100
AcDbEntity
  8
A1
  6
CONTINUOUS
 62
7
100
AcDbLine
 10
248.1006436417101
 20
106.6448036503908
 30
0.000000000000000
 11
247.5506436417101
 21
106.6448036503909
 31
0.000000000000000
  0
LINE
  5
F1
100
AcDbEntity
  8
A1
  6
CONTINUOUS
 62
7
100
AcDbLine
 10
238.1506436417101
 20
106.6448036503919
 30
0.000000000000000
 11
237.6006436417101
 21
106.6448036503919
 31
0.000000000000000
  0
LINE
  5
F2
100
AcDbEntity
  8
A1
  6
CONTINUOUS
 62
7
100
AcDbLine
 10
238.1506436417103
 20
108.6448036503919
 30
0.000000000000000
 11
237.6006436417103
 21
108.6448036503919
 31
0.000000000000000
  0
ARC
  5
F3
100
AcDbEntity
  8
A1
  6
CONTINUOUS
 62
7
100
AcDbCircle
 10
236.4506436417104
 20
109.2948036503921
 30
0.000000000000000
 40
0.3500000000000014
100
AcDbArc
 50
359.9999999999939
 51
539.9999999999939
  0
LINE
  5
F4
100
AcDbEntity
  8
A1
  6
CONTINUOUS
 62
7
100
AcDbLine
 10
236.1006436417102
 20
109.2948036503921
 30
0.000000000000000
 11
236.1006436417099
 21
105.9948036503921
 31
0.000000000000000
  0
ARC
  5
F5
100
AcDbEntity
  8
A1
  6
CONTINUOUS
 62
7
100
AcDbCircle
 10
236.4506436417100
 20
105.9948036503921
 30
0.000000000000000
 40
0.3500000000000085
100
AcDbArc
 50
179.9999999999939
 51
359.9999999999939
  0
LINE
  5
F6
100
AcDbEntity
  8
A1
  6
CONTINUOUS
 62
7
100
AcDbLine
 10
248.9006436417102
 20
109.6448036503907
 30
0.000000000000000
 11
248.1006436417103
 21
109.6448036503908
 31
0.000000000000000
  0
LINE
  5
F7
100
AcDbEntity
  8
A1
  6
CONTINUOUS
 62
7
100
AcDbLine
 10
237.6006436417103
 20
109.6448036503919
 30
0.000000000000000
 11
236.8006436417102
 21
109.6448036503920
 31
0.000000000000000
  0
LINE
  5
F8
100
AcDbEntity
  8
A4
  6
CENTER
 62
1
100
AcDbLine
 10
245.4006436417094
 20
101.8948036503911
 30
0.000000000000000
 11
240.3006436417094
 21
101.8948036503917
 31
0.000000000000000
  0
LINE
  5
F9
100
AcDbEntity
  8
A4
  6
CENTER
 62
1
100
AcDbLine
 10
242.8506436417088
 20
81.82646571712033
 30
0.000000000000000
 11
242.8506436417107
 21
117.8290432560791
 31
0.000000000000000
  0
LINE
  5
FA
100
AcDbEntity
  8
A4
  6
CENTER
 62
1
100
AcDbLine
 10
245.4006436417088
 20
96.39480365039122
 30
0.000000000000000
 11
240.3006436417088
 21
96.39480365039178
 31
0.000000000000000
  0
LINE
  5
FB
100
AcDbEntity
  8
A4
  6
CENTER
 62
1
100
AcDbLine
 10
250.2006436417100
 20
101.9329755456196
 30
0.000000000000000
 11
235.2005200899679
 21
101.9329755456212
 31
0.000000000000000
  0
ARC
  5
FC
100
AcDbEntity
  8
A1
  6
CONTINUOUS
 62
7
100
AcDbCircle
 10
249.4506436417101
 20
102.7329755456197
 30
0.000000000000000
 40
1.600000000000000
100
AcDbArc
 50
269.9999999999939
 51
340.7910491259418
  0
ARC
  5
FD
100
AcDbEntity
  8
A1
  6
CONTINUOUS
 62
7
100
AcDbCircle
 10
235.1646074324618
 20
107.5804138314375
 30
0.000000000000000
 40
16.68603620924877
100
AcDbArc
 50
341.2572558656337
 51
387.8714497874286
  0
ARC
  5
FE
100
AcDbEntity
  8
A1
  6
CONTINUOUS
 62
7
100
AcDbCircle
 10
235.1646074324618
 20
107.5804138314375
 30
0.000000000000000
 40
15.08603620924877
100
AcDbArc
 50
341.2572558656337
 51
387.8714497874286
  0
LINE
  5
FF
100
AcDbEntity
  8
A1
  6
CONTINUOUS
 62
7
100
AcDbLine
 10
248.5006436417112
 20
114.6329755456198
 30
0.000000000000000
 11
237.2006436417113
 21
114.6329755456210
 31
0.000000000000000
  0
LINE
  5
100
100
AcDbEntity
  8
A1
  6
CONTINUOUS
 62
7
100
AcDbLine
 10
248.5006436417114
 20
116.2329755456198
 30
0.000000000000000
 11
237.2006436417115
 21
116.2329755456210
 31
0.000000000000000
  0
ARC
  5
101
100
AcDbEntity
  8
A1
  6
CONTINUOUS
 62
7
100
AcDbCircle
 10
248.5006436417113
 20
114.6329755456198
 30
0.000000000000000
 40
1.600000000000000
100
AcDbArc
 50
28.57270734684376
 51
89.99999999999385
  0
ARC
  5
102
100
AcDbEntity
  8
A1
  6
CONTINUOUS
 62
7
100
AcDbCircle
 10
237.2006436417112
 20
114.6329755456210
 30
0.000000000000000
 40
1.600000000000000
100
AcDbArc
 50
89.99999999999385
 51
151.4272926531439
  0
ARC
  5
103
100
AcDbEntity
  8
A1
  6
CONTINUOUS
 62
7
100
AcDbCircle
 10
250.5366798509593
 20
107.5804138314359
 30
0.000000000000000
 40
16.68603620924877
100
AcDbArc
 50
152.1285502125591
 51
198.7427441343540
  0
ARC
  5
104
100
AcDbEntity
  8
A1
  6
CONTINUOUS
 62
7
100
AcDbCircle
 10
250.5366798509593
 20
107.5804138314359
 30
0.000000000000000
 40
15.08603620924877
100
AcDbArc
 50
152.1285502125591
 51
198.7427441343540
  0
ARC
  5
105
100
AcDbEntity
  8
A1
  6
CONTINUOUS
 62
7
100
AcDbCircle
 10
236.2506436417100
 20
102.7329755456211
 30
0.000000000000000
 40
1.600000000000000
100
AcDbArc
 50
199.2089508740460
 51
269.9999999999939
  0
LINE
  5
106
100
AcDbEntity
  8
A1
  6
CONTINUOUS
 62
7
100
AcDbLine
 10
244.9753844582261
 20
85.55844404429942
 30
0.000000000000000
 11
246.3231408321809
 21
92.89480365039117
 31
0.000000000000000
  0
LINE
  5
107
100
AcDbEntity
  8
A1
  6
CONTINUOUS
 62
7
100
AcDbLine
 10
240.7259028251918
 20
85.55844404429970
 30
0.000000000000000
 11
239.3781464512377
 21
92.89480365039196
 31
0.000000000000000
  0
LINE
  5
108
100
AcDbEntity
  8
A1
  6
CONTINUOUS
 62
7
100
AcDbLine
 10
247.6005635335997
 20
93.88214624938846
 30
0.000000000000000
 11
248.6789946626718
 21
94.60485716902136
 31
0.000000000000000
  0
LINE
  5
109
100
AcDbEntity
  8
A1
  6
CONTINUOUS
 62
7
100
AcDbLine
 10
238.1007237498173
 20
93.88214624939022
 30
0.000000000000000
 11
237.0222926207454
 21
94.60485716902316
 31
0.000000000000000
  0
ARC
  5
10A
100
AcDbEntity
  8
A1
  6
CONTINUOUS
 62
7
100
AcDbCircle
 10
237.3006436417086
 20
95.02021329228219
 30
0.000000000000000
 40
0.5000000000000000
100
AcDbArc
 50
179.9999999999939
 51
236.1719726009984
  0
ARC
  5
10B
100
AcDbEntity
  8
A1
  6
CONTINUOUS
 62
7
100
AcDbCircle
 10
248.4006436417087
 20
95.02021329228043
 30
0.000000000000000
 40
0.5000000000000000
100
AcDbArc
 50
303.8280273989937
 51
359.9999999999939
  0
LINE
  5
10C
100
AcDbEntity
  8
A1
  6
CONTINUOUS
 62
7
100
AcDbLine
 10
248.1006436417098
 20
104.9951116825385
 30
0.000000000000000
 11
247.6006436417098
 21
104.9951116825378
 31
0.000000000000000
  0
LINE
  5
10D
100
AcDbEntity
  8
A1
  6
CONTINUOUS
 62
7
100
AcDbLine
 10
238.1006436417098
 20
104.9951116825227
 30
0.000000000000000
 11
237.6006436416972
 21
104.9951116825220
 31
0.000000000000000
  0
LINE
  5
10E
100
AcDbEntity
  8
A1
  6
CONTINUOUS
 62
7
100
AcDbLine
 10
236.2506436417100
 20
102.7329755456211
 30
0.000000000000000
 11
236.8006436417095
 21
102.7329755456210
 31
0.000000000000000
  0
LINE
  5
10F
100
AcDbEntity
  8
A1
  6
CONTINUOUS
 62
7
100
AcDbLine
 10
237.6006436417096
 20
102.7329755456210
 30
0.000000000000000
 11
238.1006436417096
 21
102.7329755456209
 31
0.000000000000000
  0
LINE
  5
110
100
AcDbEntity
  8
A1
  6
CONTINUOUS
 62
7
100
AcDbLine
 10
236.2506436417098
 20
101.1329755456211
 30
0.000000000000000
 11
236.8006436417093
 21
101.1329755456211
 31
0.000000000000000
  0
LINE
  5
111
100
AcDbEntity
  8
A1
  6
CONTINUOUS
 62
7
100
AcDbLine
 10
237.6006436417094
 20
101.1329755456210
 30
0.000000000000000
 11
238.1006436417094
 21
101.1329755456209
 31
0.000000000000000
  0
LINE
  5
112
100
AcDbEntity
  8
A1
  6
CONTINUOUS
 62
7
100
AcDbLine
 10
248.1006436417094
 20
101.1329755456199
 30
0.000000000000000
 11
247.6006436417094
 21
101.1329755456200
 31
0.000000000000000
  0
LINE
  5
113
100
AcDbEntity
  8
A1
  6
CONTINUOUS
 62
7
100
AcDbLine
 10
249.4506436417099
 20
101.1329755456197
 30
0.000000000000000
 11
248.9006436417094
 21
101.1329755456198
 31
0.000000000000000
  0
LINE
  5
114
100
AcDbEntity
  8
A1
  6
CONTINUOUS
 62
7
100
AcDbLine
 10
248.1006436417095
 20
102.7329755456199
 30
0.000000000000000
 11
247.6006436417096
 21
102.7329755456199
 31
0.000000000000000
  0
LINE
  5
115
100
AcDbEntity
  8
A1
  6
CONTINUOUS
 62
7
100
AcDbLine
 10
249.4506436417100
 20
102.7329755456197
 30
0.000000000000000
 11
248.9006436417095
 21
102.7329755456197
 31
0.000000000000000
  0
LINE
  5
116
100
AcDbEntity
  8
A1
  6
CONTINUOUS
 62
7
100
AcDbLine
 10
238.1006436417098
 20
105.3948036503920
 30
0.000000000000000
 11
238.1506436417098
 21
105.3948036503920
 31
0.000000000000000
  0
LINE
  5
117
100
AcDbEntity
  8
A1
  6
CONTINUOUS
 62
7
100
AcDbLine
 10
247.6006436417098
 20
105.3948036503911
 30
0.000000000000000
 11
247.5506436417098
 21
105.3948036503911
 31
0.000000000000000
  0
LINE
  5
118
100
AcDbEntity
  8
A1
  6
CONTINUOUS
 62
7
100
AcDbLine
 10
33.65777367833544
 20
172.0903961376572
 30
0.000000000000000
 11
24.15777367833539
 21
172.0903961376572
 31
0.000000000000000
  0
LINE
  5
119
100
AcDbEntity
  8
A1
  6
CONTINUOUS
 62
7
100
AcDbLine
 10
33.65777367833683
 20
163.0491906805981
 30
0.000000000000000
 11
24.15777367833534
 21
163.0491906805981
 31
0.000000000000000
  0
LINE
  5
11A
100
AcDbEntity
  8
A1
  6
CONTINUOUS
 62
7
100
AcDbLine
 10
37.10777398343937
 20
168.7356915158684
 30
0.000000000000000
 11
20.70777337323035
 21
168.7356915158684
 31
0.000000000000000
  0
LINE
  5
11B
100
AcDbEntity
  8
A1
  6
CONTINUOUS
 62
7
100
AcDbLine
 10
37.10777398343937
 20
167.1356921260773
 30
0.000000000000000
 11
20.70777337323035
 21
167.1356921260773
 31
0.000000000000000
  0
LINE
  5
11C
100
AcDbEntity
  8
A1
  6
CONTINUOUS
 62
7
100
AcDbLine
 10
33.65777367833554
 20
163.8010992911424
 30
0.000000000000000
 11
24.15777367833528
 21
163.8010992911424
 31
0.000000000000000
  0
LINE
  5
11D
100
AcDbEntity
  8
A1
  6
CONTINUOUS
 62
7
100
AcDbLine
 10
32.60777367833516
 20
171.0903961376572
 30
0.000000000000000
 11
25.20777367833518
 21
171.0903961376572
 31
0.000000000000000
  0
LINE
  5
11E
100
AcDbEntity
  8
A1
  6
CONTINUOUS
 62
7
100
AcDbLine
 10
23.65777367833443
 20
170.8991906805981
 30
0.000000000000000
 11
22.85777367833533
 21
170.8991906805981
 31
0.000000000000000
  0
LINE
  5
11F
100
AcDbEntity
  8
A1
  6
CONTINUOUS
 62
7
100
AcDbLine
 10
34.95777367833683
 20
170.8991906805981
 30
0.000000000000000
 11
34.15777367833807
 21
170.8991906805981
 31
0.000000000000000
  0
LINE
  5
120
100
AcDbEntity
  8
A1
  6
CONTINUOUS
 62
7
100
AcDbLine
 10
23.65777367833528
 20
164.3010992911424
 30
0.000000000000000
 11
23.65777367833492
 21
167.1356921260773
 31
0.000000000000000
  0
LINE
  5
121
100
AcDbEntity
  8
A1
  6
CONTINUOUS
 62
7
100
AcDbLine
 10
23.65777367833471
 20
168.7356915158684
 30
0.000000000000000
 11
23.65777367833443
 21
170.8991906805990
 31
0.000000000000000
  0
LINE
  5
122
100
AcDbEntity
  8
A1
  6
CONTINUOUS
 62
7
100
AcDbLine
 10
22.85777367833533
 20
164.3491906805981
 30
0.000000000000000
 11
22.85777367833533
 21
167.1356921260773
 31
0.000000000000000
  0
LINE
  5
123
100
AcDbEntity
  8
A1
  6
CONTINUOUS
 62
7
100
AcDbLine
 10
22.85777367833533
 20
168.7356915158684
 30
0.000000000000000
 11
22.85777367833533
 21
170.8991906805981
 31
0.000000000000000
  0
LINE
  5
124
100
AcDbEntity
  8
A1
  6
CONTINUOUS
 62
7
100
AcDbLine
 10
34.15777367833554
 20
164.3010992911422
 30
0.000000000000000
 11
34.15777367833662
 21
167.1356921260773
 31
0.000000000000000
  0
LINE
  5
125
100
AcDbEntity
  8
A1
  6
CONTINUOUS
 62
7
100
AcDbLine
 10
34.15777367833724
 20
168.7356915158684
 30
0.000000000000000
 11
34.15777367833807
 21
170.8991906805990
 31
0.000000000000000
  0
LINE
  5
126
100
AcDbEntity
  8
A1
  6
CONTINUOUS
 62
7
100
AcDbLine
 10
34.95777367833683
 20
164.3491906805980
 30
0.000000000000000
 11
34.95777367833683
 21
167.1356921260773
 31
0.000000000000000
  0
LINE
  5
127
100
AcDbEntity
  8
A1
  6
CONTINUOUS
 62
7
100
AcDbLine
 10
34.95777367833683
 20
168.7356915158684
 30
0.000000000000000
 11
34.95777367833683
 21
170.8991906805981
 31
0.000000000000000
  0
LINE
  5
128
100
AcDbEntity
  8
A1
  6
CONTINUOUS
 62
7
100
AcDbLine
 10
25.20777367833552
 20
165.7903961376572
 30
0.000000000000000
 11
24.20777367833539
 21
165.7903961376572
 31
0.000000000000000
  0
LINE
  5
129
100
AcDbEntity
  8
A1
  6
CONTINUOUS
 62
7
100
AcDbLine
 10
33.60777367833544
 20
165.7903961376572
 30
0.000000000000000
 11
32.60777367833516
 21
165.7903961376572
 31
0.000000000000000
  0
LINE
  5
12A
100
AcDbEntity
  8
A1
  6
CONTINUOUS
 62
7
100
AcDbLine
 10
25.20777367833544
 20
167.1356921260773
 30
0.000000000000000
 11
25.20777367833552
 21
165.7903961376527
 31
0.000000000000000
  0
LINE
  5
12B
100
AcDbEntity
  8
A1
  6
CONTINUOUS
 62
7
100
AcDbLine
 10
25.20777367833518
 20
171.0903961376572
 30
0.000000000000000
 11
25.20777367833534
 21
168.7356915158684
 31
0.000000000000000
  0
LINE
  5
12C
100
AcDbEntity
  8
A1
  6
CONTINUOUS
 62
7
100
AcDbLine
 10
24.20777367833539
 20
167.1356921260773
 30
0.000000000000000
 11
24.20777367833539
 21
165.7903961376572
 31
0.000000000000000
  0
LINE
  5
12D
100
AcDbEntity
  8
A1
  6
CONTINUOUS
 62
7
100
AcDbLine
 10
24.20777367833539
 20
171.0903961376572
 30
0.000000000000000
 11
24.20777367833539
 21
168.7356915158684
 31
0.000000000000000
  0
LINE
  5
12E
100
AcDbEntity
  8
A1
  6
CONTINUOUS
 62
7
100
AcDbLine
 10
32.60777367833516
 20
167.1356921260773
 30
0.000000000000000
 11
32.60777367833516
 21
165.7903961376527
 31
0.000000000000000
  0
LINE
  5
12F
100
AcDbEntity
  8
A1
  6
CONTINUOUS
 62
7
100
AcDbLine
 10
32.60777367833516
 20
171.0903961376572
 30
0.000000000000000
 11
32.60777367833516
 21
168.7356915158684
 31
0.000000000000000
  0
LINE
  5
130
100
AcDbEntity
  8
A1
  6
CONTINUOUS
 62
7
100
AcDbLine
 10
33.60777367833544
 20
167.1356921260773
 30
0.000000000000000
 11
33.60777367833544
 21
165.7903961376572
 31
0.000000000000000
  0
LINE
  5
131
100
AcDbEntity
  8
A1
  6
CONTINUOUS
 62
7
100
AcDbLine
 10
33.60777367833544
 20
171.0903961376572
 30
0.000000000000000
 11
33.60777367833544
 21
168.7356915158684
 31
0.000000000000000
  0
ARC
  5
132
100
AcDbEntity
  8
A1
  6
CONTINUOUS
 62
7
100
AcDbCircle
 10
35.30777367833608
 20
169.7406111473283
 30
0.000000000000000
 40
0.3499999999992554
100
AcDbArc
 50
0.000000000000000
 51
180.0000000000000
  0
ARC
  5
133
100
AcDbEntity
  8
A1
  6
CONTINUOUS
 62
7
100
AcDbCircle
 10
35.30777367833608
 20
166.3691375437976
 30
0.000000000000000
 40
0.3499999999992553
100
AcDbArc
 50
180.0000000000000
 51
360.0000000000000
  0
LINE
  5
134
100
AcDbEntity
  8
A1
  6
CONTINUOUS
 62
7
100
AcDbLine
 10
35.65777367833534
 20
167.1356921260773
 30
0.000000000000000
 11
35.65777367833534
 21
166.3691375437976
 31
0.000000000000000
  0
LINE
  5
135
100
AcDbEntity
  8
A1
  6
CONTINUOUS
 62
7
100
AcDbLine
 10
35.65777367833534
 20
169.7406111473283
 30
0.000000000000000
 11
35.65777367833534
 21
168.7356915158684
 31
0.000000000000000
  0
LINE
  5
136
100
AcDbEntity
  8
A1
  6
CONTINUOUS
 62
7
100
AcDbLine
 10
22.85777367833523
 20
169.0906111473283
 30
0.000000000000000
 11
22.35777367833524
 21
169.2906111473283
 31
0.000000000000000
  0
LINE
  5
137
100
AcDbEntity
  8
A1
  6
CONTINUOUS
 62
7
100
AcDbLine
 10
22.85777367833532
 20
167.0906111473283
 30
0.000000000000000
 11
22.35777367833529
 21
166.8906111473283
 31
0.000000000000000
  0
LINE
  5
138
100
AcDbEntity
  8
A1
  6
CONTINUOUS
 62
7
100
AcDbLine
 10
23.65777367833523
 20
167.0906111473282
 30
0.000000000000000
 11
24.20777367833518
 21
167.0906111473282
 31
0.000000000000000
  0
LINE
  5
139
100
AcDbEntity
  8
A1
  6
CONTINUOUS
 62
7
100
AcDbLine
 10
23.65777367833523
 20
169.0906111473282
 30
0.000000000000000
 11
24.20777367833518
 21
169.0906111473282
 31
0.000000000000000
  0
LINE
  5
13A
100
AcDbEntity
  8
A1
  6
CONTINUOUS
 62
7
100
AcDbLine
 10
25.20777367833518
 20
169.0906111473282
 30
0.000000000000000
 11
32.60777367833516
 21
169.0906111473282
 31
0.000000000000000
  0
LINE
  5
13B
100
AcDbEntity
  8
A1
  6
CONTINUOUS
 62
7
100
AcDbLine
 10
25.20777367833518
 20
167.0906111473282
 30
0.000000000000000
 11
32.60777367833516
 21
167.0906111473282
 31
0.000000000000000
  0
LINE
  5
13C
100
AcDbEntity
  8
A1
  6
CONTINUOUS
 62
7
100
AcDbLine
 10
33.60777367833516
 20
169.0906111473282
 30
0.000000000000000
 11
34.15777367833523
 21
169.0906111473282
 31
0.000000000000000
  0
LINE
  5
13D
100
AcDbEntity
  8
A1
  6
CONTINUOUS
 62
7
100
AcDbLine
 10
33.60777367833516
 20
167.0906111473282
 30
0.000000000000000
 11
34.15777367833523
 21
167.0906111473282
 31
0.000000000000000
  0
LINE
  5
13E
100
AcDbEntity
  8
A1
  6
CONTINUOUS
 62
7
100
AcDbLine
 10
22.35777367833527
 20
167.1356921260773
 30
0.000000000000000
 11
22.35777367833527
 21
166.8906111473282
 31
0.000000000000000
  0
LINE
  5
13F
100
AcDbEntity
  8
A1
  6
CONTINUOUS
 62
7
100
AcDbLine
 10
22.35777367833527
 20
169.2906111473283
 30
0.000000000000000
 11
22.35777367833527
 21
168.7356915158684
 31
0.000000000000000
  0
ARC
  5
140
100
AcDbEntity
  8
A1
  6
CONTINUOUS
 62
7
100
AcDbCircle
 10
20.70777337323035
 20
167.9356918209728
 30
0.000000000000000
 40
0.7999996948955186
100
AcDbArc
 50
90.00000000000000
 51
270.0000000000000
  0
ARC
  5
141
100
AcDbEntity
  8
A1
  6
CONTINUOUS
 62
7
100
AcDbCircle
 10
37.10777398343937
 20
167.9356918209728
 30
0.000000000000000
 40
0.7999996948955186
100
AcDbArc
 50
270.0000000000000
 51
450.0000000000000
  0
ARC
  5
142
100
AcDbEntity
  8
A1
  6
CONTINUOUS
 62
7
100
AcDbCircle
 10
22.65188030453975
 20
167.9356918209728
 30
0.000000000000000
 40
0.7999996948955328
100
AcDbArc
 50
117.1448428530379
 51
236.3959118003592
  0
ARC
  5
143
100
AcDbEntity
  8
A1
  6
CONTINUOUS
 62
7
100
AcDbCircle
 10
35.16366705213544
 20
167.9356918209728
 30
0.000000000000000
 40
0.7999996948955186
100
AcDbArc
 50
304.5306391261358
 51
417.4381231792090
  0
ARC
  5
144
100
AcDbEntity
  8
A1
  6
CONTINUOUS
 62
7
100
AcDbCircle
 10
25.20777367833539
 20
171.0903961376572
 30
0.000000000000000
 40
1.000000000000000
100
AcDbArc
 50
90.00000000000000
 51
180.0000000000000
  0
ARC
  5
145
100
AcDbEntity
  8
A1
  6
CONTINUOUS
 62
7
100
AcDbCircle
 10
32.60777367833544
 20
171.0903961376572
 30
0.000000000000000
 40
1.000000000000000
100
AcDbArc
 50
0.000000000000000
 51
90.00000000000000
  0
ARC
  5
146
100
AcDbEntity
  8
A1
  6
CONTINUOUS
 62
7
100
AcDbCircle
 10
24.15777367833528
 20
164.3010992911425
 30
0.000000000000000
 40
0.5000000000000000
100
AcDbArc
 50
180.0000000000000
 51
270.0000000000000
  0
ARC
  5
147
100
AcDbEntity
  8
A1
  6
CONTINUOUS
 62
7
100
AcDbCircle
 10
33.65777367833554
 20
164.3010992911424
 30
0.000000000000000
 40
0.5000000000000000
100
AcDbArc
 50
270.0000000000000
 51
360.0000000000000
  0
ARC
  5
148
100
AcDbEntity
  8
A1
  6
CONTINUOUS
 62
7
100
AcDbCircle
 10
33.65777367833683
 20
164.3491906805980
 30
0.000000000000000
 40
1.300000000000000
100
AcDbArc
 50
270.0000000000000
 51
360.0000000000000
  0
ARC
  5
149
100
AcDbEntity
  8
A1
  6
CONTINUOUS
 62
7
100
AcDbCircle
 10
24.15777367833534
 20
164.3491906805981
 30
0.000000000000000
 40
1.300000000000000
100
AcDbArc
 50
180.0000000000000
 51
270.0000000000000
  0
LINE
  5
14A
100
AcDbEntity
  8
A1
  6
CONTINUOUS
 62
7
100
AcDbLine
 10
79.55989411503496
 20
165.8903961376555
 30
0.000000000000000
 11
70.05989411503502
 21
165.8903961376555
 31
0.000000000000000
  0
LINE
  5
14B
100
AcDbEntity
  8
A1
  6
CONTINUOUS
 62
7
100
AcDbLine
 10
84.05989411503498
 20
172.0903961376555
 30
0.000000000000000
 11
65.55989411503495
 21
172.0903961376555
 31
0.000000000000000
  0
LINE
  5
14C
100
AcDbEntity
  8
A1
  6
CONTINUOUS
 62
7
100
AcDbLine
 10
84.05989411503498
 20
171.0903961376555
 30
0.000000000000000
 11
65.55989411503495
 21
171.0903961376555
 31
0.000000000000000
  0
LINE
  5
14D
100
AcDbEntity
  8
A1
  6
CONTINUOUS
 62
7
100
AcDbLine
 10
79.55989411503496
 20
166.7303961376555
 30
0.000000000000000
 11
70.05989411503502
 21
166.7303961376555
 31
0.000000000000000
  0
LINE
  5
14E
100
AcDbEntity
  8
A1
  6
CONTINUOUS
 62
7
100
AcDbLine
 10
70.05989411503504
 20
165.8903961376555
 30
0.000000000000000
 11
70.05989411503981
 21
171.0903961376503
 31
0.000000000000000
  0
LINE
  5
14F
100
AcDbEntity
  8
A1
  6
CONTINUOUS
 62
7
100
AcDbLine
 10
79.55989411503496
 20
165.8903961376555
 30
0.000000000000000
 11
79.55989411503980
 21
171.0903961376503
 31
0.000000000000000
  0
LINE
  5
150
100
AcDbEntity
  8
A1
  6
CONTINUOUS
 62
7
100
AcDbLine
 10
84.05989411503496
 20
171.0903961376555
 30
0.000000000000000
 11
84.05989411503496
 21
172.0903961376555
 31
0.000000000000000
  0
LINE
  5
151
100
AcDbEntity
  8
A1
  6
CONTINUOUS
 62
7
100
AcDbLine
 10
65.55989411503494
 20
172.0903961376555
 30
0.000000000000000
 11
65.55989411503494
 21
171.0903961376555
 31
0.000000000000000
  0
LINE
  5
152
100
AcDbEntity
  8
A4
  6
CENTER
 62
1
100
AcDbLine
 10
74.80989411503739
 20
164.3903961376555
 30
0.000000000000000
 11
74.80989411503739
 21
173.1223691996995
 31
0.000000000000000
  0
LINE
  5
153
100
AcDbEntity
  8
A4
  6
CENTER
 62
1
100
AcDbLine
 10
67.80989411503495
 20
169.9710547839470
 30
0.000000000000000
 11
67.80989411503495
 21
173.1223691996995
 31
0.000000000000000
  0
LINE
  5
154
100
AcDbEntity
  8
A4
  6
CENTER
 62
1
100
AcDbLine
 10
81.80989411503495
 20
169.9710547839470
 30
0.000000000000000
 11
81.80989411503495
 21
173.1223691996995
 31
0.000000000000000
  0
LINE
  5
155
100
AcDbEntity
  8
A1
  6
CONTINUOUS
 62
7
100
AcDbLine
 10
24.15777367833539
 20
172.0903961376572
 30
0.000000000000000
 11
24.15777367833539
 21
171.0903961376572
 31
0.000000000000000
  0
LINE
  5
156
100
AcDbEntity
  8
A1
  6
CONTINUOUS
 62
7
100
AcDbLine
 10
33.65777367833544
 20
172.0903961376572
 30
0.000000000000000
 11
33.65777367833544
 21
171.0903961376572
 31
0.000000000000000
  0
LINE
  5
157
100
AcDbEntity
  8
A1
  6
CONTINUOUS
 62
7
100
AcDbLine
 10
24.15777367833539
 20
171.0903961376572
 30
0.000000000000000
 11
24.20777367833539
 21
171.0903961376572
 31
0.000000000000000
  0
LINE
  5
158
100
AcDbEntity
  8
A1
  6
CONTINUOUS
 62
7
100
AcDbLine
 10
33.65777367833544
 20
171.0903961376572
 30
0.000000000000000
 11
33.60777367833544
 21
171.0903961376572
 31
0.000000000000000
  0
LINE
  5
159
100
AcDbEntity
  8
A4
  6
CENTER
 62
1
100
AcDbLine
 10
22.15777367833523
 20
168.0906111473282
 30
0.000000000000000
 11
35.65777367833523
 21
168.0906111473282
 31
0.000000000000000
  0
LINE
  5
15A
100
AcDbEntity
  8
A4
  6
CENTER
 62
1
100
AcDbLine
 10
19.20777337323035
 20
167.9356918209728
 30
0.000000000000000
 11
38.60777398343937
 21
167.9356918209728
 31
0.000000000000000
  0
LINE
  5
15B
100
AcDbEntity
  8
A4
  6
CENTER
 62
1
100
AcDbLine
 10
28.90777367833608
 20
162.8491906805981
 30
0.000000000000000
 11
28.90777367833608
 21
172.3991906805981
 31
0.000000000000000
  0
LINE
  5
15C
100
AcDbEntity
  8
A4
  6
CENTER
 62
1
100
AcDbLine
 10
80.60576029845127
 20
170.0903961376555
 30
0.000000000000000
 11
68.50014642050972
 21
170.0903961376555
 31
0.000000000000000
  0
LINE
  5
15D
100
AcDbEntity
  8
A4
  6
CENTER
 62
1
100
AcDbLine
 10
81.80989411503496
 20
125.9278151561311
 30
0.000000000000000
 11
67.80989411503496
 21
125.9278151561311
 31
0.000000000000000
  0
LINE
  5
15E
100
AcDbEntity
  8
A4
  6
CENTER
 62
1
100
AcDbLine
 10
295.7527640784100
 20
124.9841544313487
 30
0.000000000000000
 11
281.7527640784100
 21
124.9841544313487
 31
0.000000000000000
  0
LINE
  5
15F
100
AcDbEntity
  8
A1
  6
CONTINUOUS
 62
7
100
AcDbLine
 10
33.65777367833600
 20
45.73634410679474
 30
0.000000000000000
 11
24.15777367833595
 21
45.73634410679474
 31
0.000000000000000
  0
LINE
  5
160
100
AcDbEntity
  8
A1
  6
CONTINUOUS
 62
7
100
AcDbLine
 10
32.02094060822500
 20
46.08030801152082
 30
0.000000000000000
 11
25.79460674844347
 21
46.08030801152082
 31
0.000000000000000
  0
LINE
  5
161
100
AcDbEntity
  8
A1
  6
CONTINUOUS
 62
7
100
AcDbLine
 10
33.65777367833597
 20
54.77754956385358
 30
0.000000000000000
 11
24.15777367833526
 21
54.77754956385358
 31
0.000000000000000
  0
LINE
  5
162
100
AcDbEntity
  8
A1
  6
CONTINUOUS
 62
7
100
AcDbLine
 10
24.15777367833594
 20
46.73634410679474
 30
0.000000000000000
 11
24.15777367833594
 21
45.73634410679474
 31
0.000000000000000
  0
LINE
  5
163
100
AcDbEntity
  8
A1
  6
CONTINUOUS
 62
7
100
AcDbLine
 10
33.65777367833600
 20
46.73634410679474
 30
0.000000000000000
 11
33.65777367833600
 21
45.73634410679474
 31
0.000000000000000
  0
ARC
  5
164
100
AcDbEntity
  8
A1
  6
CONTINUOUS
 62
7
100
AcDbCircle
 10
20.70777337323085
 20
49.89104842347898
 30
0.000000000000000
 40
0.7999996948954902
100
AcDbArc
 50
90.00000000000000
 51
270.0000000000000
  0
ARC
  5
165
100
AcDbEntity
  8
A1
  6
CONTINUOUS
 62
7
100
AcDbCircle
 10
37.10777398343996
 20
49.89104842347898
 30
0.000000000000000
 40
0.7999996948954831
100
AcDbArc
 50
270.0000000000000
 51
450.0000000000000
  0
LINE
  5
166
100
AcDbEntity
  8
A1
  6
CONTINUOUS
 62
7
100
AcDbLine
 10
22.85777367833526
 20
53.47754956385359
 30
0.000000000000000
 11
22.85777367833526
 21
46.92754956385357
 31
0.000000000000000
  0
LINE
  5
167
100
AcDbEntity
  8
A1
  6
CONTINUOUS
 62
7
100
AcDbLine
 10
34.95777367833597
 20
53.47754956385358
 30
0.000000000000000
 11
34.95777367833597
 21
46.92754956385358
 31
0.000000000000000
  0
LINE
  5
168
100
AcDbEntity
  8
A1
  6
CONTINUOUS
 62
7
100
AcDbLine
 10
22.85777367833526
 20
50.69104811837442
 30
0.000000000000000
 11
20.70777337323086
 21
50.69104811837442
 31
0.000000000000000
  0
LINE
  5
169
100
AcDbEntity
  8
A1
  6
CONTINUOUS
 62
7
100
AcDbLine
 10
37.10777398343997
 20
50.69104811837442
 30
0.000000000000000
 11
34.95777367833597
 21
50.69104811837442
 31
0.000000000000000
  0
LINE
  5
16A
100
AcDbEntity
  8
A1
  6
CONTINUOUS
 62
7
100
AcDbLine
 10
22.85777367833526
 20
49.09104872858344
 30
0.000000000000000
 11
20.70777337323086
 21
49.09104872858344
 31
0.000000000000000
  0
LINE
  5
16B
100
AcDbEntity
  8
A1
  6
CONTINUOUS
 62
7
100
AcDbLine
 10
37.10777398343997
 20
49.09104872858344
 30
0.000000000000000
 11
34.95777367833597
 21
49.09104872858344
 31
0.000000000000000
  0
LINE
  5
16C
100
AcDbEntity
  8
A4
  6
CENTER
 62
1
100
AcDbLine
 10
28.90777367833562
 20
47.05030406379259
 30
0.000000000000000
 11
28.90777367833562
 21
56.27754956385358
 31
0.000000000000000
  0
LINE
  5
16D
100
AcDbEntity
  8
A1
  6
CONTINUOUS
 62
7
100
AcDbLine
 10
32.40777367836566
 20
47.58711599458476
 30
0.000000000000000
 11
32.02094060822500
 21
46.08030801152083
 31
0.000000000000000
  0
ARC
  5
16E
100
AcDbEntity
  8
A1
  6
CONTINUOUS
 62
7
100
AcDbCircle
 10
28.90777367833424
 20
45.35339838107330
 30
0.000000000000000
 40
3.196905682719283
100
AcDbArc
 50
13.14281907371963
 51
166.8571809262804
  0
LINE
  5
16F
100
AcDbEntity
  8
A1
  6
CONTINUOUS
 62
7
100
AcDbLine
 10
32.40777367836562
 20
48.38711599458474
 30
0.000000000000000
 11
32.02094060822500
 21
47.77591667815486
 31
0.000000000000000
  0
LINE
  5
170
100
AcDbEntity
  8
A1
  6
CONTINUOUS
 62
7
100
AcDbLine
 10
25.62618684378003
 20
46.73634410679474
 30
0.000000000000000
 11
24.15777367833595
 21
46.73634410679474
 31
0.000000000000000
  0
LINE
  5
171
100
AcDbEntity
  8
A1
  6
CONTINUOUS
 62
7
100
AcDbLine
 10
33.65777367833600
 20
46.73634410679474
 30
0.000000000000000
 11
32.18936051289121
 21
46.73634410679474
 31
0.000000000000000
  0
LINE
  5
172
100
AcDbEntity
  8
A1
  6
CONTINUOUS
 62
7
100
AcDbLine
 10
25.40777367830559
 20
48.38711599458473
 30
0.000000000000000
 11
25.79460674844621
 21
47.77591667815486
 31
0.000000000000000
  0
LINE
  5
173
100
AcDbEntity
  8
A1
  6
CONTINUOUS
 62
7
100
AcDbLine
 10
25.40777367830557
 20
47.58711599458476
 30
0.000000000000000
 11
25.79460674844623
 21
46.08030801152083
 31
0.000000000000000
  0
ARC
  5
174
100
AcDbEntity
  8
A1
  6
CONTINUOUS
 62
7
100
AcDbCircle
 10
28.90777367833424
 20
45.35339838107330
 30
0.000000000000000
 40
3.944667696151406
100
AcDbArc
 50
37.88835487512146
 51
142.1116451248428
  0
LINE
  5
175
100
AcDbEntity
  8
A1
  6
CONTINUOUS
 62
7
100
AcDbLine
 10
25.40777367830560
 20
48.38711599458475
 30
0.000000000000000
 11
22.85777367833526
 21
48.80275395031128
 31
0.000000000000000
  0
LINE
  5
176
100
AcDbEntity
  8
A1
  6
CONTINUOUS
 62
7
100
AcDbLine
 10
25.40777367830557
 20
47.58711599458476
 30
0.000000000000000
 11
22.85777367833526
 21
48.59268745598702
 31
0.000000000000000
  0
LINE
  5
177
100
AcDbEntity
  8
A1
  6
CONTINUOUS
 62
7
100
AcDbLine
 10
32.40777367836563
 20
48.38711599458474
 30
0.000000000000000
 11
34.95777367833597
 21
48.80275395031128
 31
0.000000000000000
  0
LINE
  5
178
100
AcDbEntity
  8
A1
  6
CONTINUOUS
 62
7
100
AcDbLine
 10
34.95777367833597
 20
48.59268745598702
 30
0.000000000000000
 11
32.40777367836566
 21
47.58711599458476
 31
0.000000000000000
  0
ARC
  5
179
100
AcDbEntity
  8
A1
  6
CONTINUOUS
 62
7
100
AcDbCircle
 10
24.15777367833526
 20
53.47754956385359
 30
0.000000000000000
 40
1.300000000000000
100
AcDbArc
 50
90.00000000000000
 51
180.0000000000000
  0
ARC
  5
17A
100
AcDbEntity
  8
A1
  6
CONTINUOUS
 62
7
100
AcDbCircle
 10
33.65777367833597
 20
53.47754956385358
 30
0.000000000000000
 40
1.300000000000000
100
AcDbArc
 50
0.000000000000000
 51
90.00000000000000
  0
LINE
  5
17B
100
AcDbEntity
  8
A4
  6
CENTER
 62
1
100
AcDbLine
 10
19.20777337323086
 20
49.89104842347893
 30
0.000000000000000
 11
38.60777398343997
 21
49.89104842347893
 31
0.000000000000000
  0
LINE
  5
17C
100
AcDbEntity
  8
A1
  6
CONTINUOUS
 62
7
100
AcDbLine
 10
22.85777367833517
 20
50.73655911646491
 30
0.000000000000000
 11
22.35777367833518
 21
50.93655911646491
 31
0.000000000000000
  0
LINE
  5
17D
100
AcDbEntity
  8
A1
  6
CONTINUOUS
 62
7
100
AcDbLine
 10
22.85777367833523
 20
48.73655911646496
 30
0.000000000000000
 11
22.35777367833521
 21
48.53655911646490
 31
0.000000000000000
  0
ARC
  5
17E
100
AcDbEntity
  8
A1
  6
CONTINUOUS
 62
7
100
AcDbCircle
 10
35.30777367833513
 20
51.38655911646489
 30
0.000000000000000
 40
0.3500000000000014
100
AcDbArc
 50
0.000000000000000
 51
180.0000000000000
  0
ARC
  5
17F
100
AcDbEntity
  8
A1
  6
CONTINUOUS
 62
7
100
AcDbCircle
 10
35.30777367833513
 20
48.08655911646488
 30
0.000000000000000
 40
0.3500000000000085
100
AcDbArc
 50
180.0000000000000
 51
360.0000000000000
  0
LINE
  5
180
100
AcDbEntity
  8
A1
  6
CONTINUOUS
 62
7
100
AcDbLine
 10
22.35777367833520
 20
49.09104872858344
 30
0.000000000000000
 11
22.35777367833520
 21
48.53655911646482
 31
0.000000000000000
  0
LINE
  5
181
100
AcDbEntity
  8
A1
  6
CONTINUOUS
 62
7
100
AcDbLine
 10
22.35777367833520
 20
50.93655911646491
 30
0.000000000000000
 11
22.35777367833520
 21
50.69104811837442
 31
0.000000000000000
  0
LINE
  5
182
100
AcDbEntity
  8
A1
  6
CONTINUOUS
 62
7
100
AcDbLine
 10
35.65777367833527
 20
49.09104872858344
 30
0.000000000000000
 11
35.65777367833527
 21
48.08655911646488
 31
0.000000000000000
  0
LINE
  5
183
100
AcDbEntity
  8
A1
  6
CONTINUOUS
 62
7
100
AcDbLine
 10
35.65777367833527
 20
51.38655911646489
 30
0.000000000000000
 11
35.65777367833527
 21
50.69104811837441
 31
0.000000000000000
  0
LINE
  5
184
100
AcDbEntity
  8
A4
  6
CENTER
 62
1
100
AcDbLine
 10
20.85777367833523
 20
49.73655911646492
 30
0.000000000000000
 11
36.59529377578360
 21
49.73655911646501
 31
0.000000000000000
  0
ARC
  5
185
100
AcDbEntity
  8
A1
  6
CONTINUOUS
 62
7
100
AcDbCircle
 10
32.65777367833527
 20
94.83846437517391
 30
0.000000000000000
 40
1.000000000000000
100
AcDbArc
 50
269.9999999999999
 51
359.2747649771565
  0
LINE
  5
186
100
AcDbEntity
  8
A1
  6
CONTINUOUS
 62
7
100
AcDbLine
 10
23.65777367833526
 20
48.27721405632774
 30
0.000000000000000
 11
23.65777367833526
 21
46.92754956385357
 31
0.000000000000000
  0
LINE
  5
187
100
AcDbEntity
  8
A1
  6
CONTINUOUS
 62
7
100
AcDbLine
 10
34.15777367833597
 20
48.27721405632774
 30
0.000000000000000
 11
34.15777367833597
 21
46.92754956385358
 31
0.000000000000000
  0
LINE
  5
188
100
AcDbEntity
  8
A1
  6
CONTINUOUS
 62
7
100
AcDbLine
 10
23.65777367833526
 20
46.92754956385357
 30
0.000000000000000
 11
22.85777367833526
 21
46.92754956385357
 31
0.000000000000000
  0
LINE
  5
189
100
AcDbEntity
  8
A1
  6
CONTINUOUS
 62
7
100
AcDbLine
 10
34.95777367833597
 20
46.92754956385357
 30
0.000000000000000
 11
34.15777367833597
 21
46.92754956385357
 31
0.000000000000000
  0
LINE
  5
18A
100
AcDbEntity
  8
A1
  6
CONTINUOUS
 62
7
100
AcDbLine
 10
24.20777367832511
 20
48.06032609406598
 30
0.000000000000000
 11
24.20777367832488
 21
46.73634410684463
 31
0.000000000000000
  0
LINE
  5
18B
100
AcDbEntity
  8
A1
  6
CONTINUOUS
 62
7
100
AcDbLine
 10
33.60777367833528
 20
48.06032609406170
 30
0.000000000000000
 11
33.60777367833528
 21
46.73634410679474
 31
0.000000000000000
  0
LINE
  5
18C
100
AcDbEntity
  8
A1
  6
CONTINUOUS
 62
7
100
AcDbLine
 10
25.20777367832505
 20
47.66598434449190
 30
0.000000000000000
 11
25.20777367832488
 21
46.73634410684445
 31
0.000000000000000
  0
LINE
  5
18D
100
AcDbEntity
  8
A1
  6
CONTINUOUS
 62
7
100
AcDbLine
 10
32.60777367833528
 20
47.66598434448760
 30
0.000000000000000
 11
32.60777367833528
 21
46.73634410679474
 31
0.000000000000000
  0
ENDSEC
  0
SECTION
  2
OBJECTS
  0
DICTIONARY
  5
1BA
100
AcDbDictionary
  3
ACAD_GROUP
350
1BB
  3
ACAD_MLINESTYLE
350
1BC
  0
DICTIONARY
  5
1BB
102
{ACAD_REACTORS
330
1BA
102
}
100
AcDbDictionary
  0
DICTIONARY
  5
1BC
102
{ACAD_REACTORS
330
1BA
102
}
100
AcDbDictionary
  3
STANDARD
350
1BD
  0
MLINESTYLE
  5
1BD
102
{ACAD_REACTORS
330
1BC
102
}
100
AcDbMlineStyle
  2
STANDARD
 70
     0
  3

 62
   256
 51
90.00
 52
90.00
 71
     2
 49
0.50
 62
   256
  6
BYLAYER
 49
-0.50
 62
   256
  6
BYLAYER
  0
ENDSEC
  0
EOF
