  0
SECTION
  2
HEADER
  9
$ACADVER
  1
AC1015
  9
$ACADMAINTVER
 70
    20
  9
$DWGCODEPAGE
  3
ANSI_932
  9
$INSBASE
 10
0.0
 20
0.0
 30
0.0
  9
$EXTMIN
 10
10.000001
 20
10.000001
 30
0.0
  9
$EXTMAX
 10
381.296192
 20
258.3461419999998
 30
0.0
  9
$LIMMIN
 10
0.0
 20
0.0
  9
$LIMMAX
 10
396.0
 20
273.0
  9
$ORTHOMODE
 70
     0
  9
$REGENMODE
 70
     1
  9
$FILLMODE
 70
     1
  9
$QTEXTMODE
 70
     0
  9
$MIRRTEXT
 70
     1
  9
$LTSCALE
 40
20.0
  9
$ATTMODE
 70
     1
  9
$TEXTSIZE
 40
5.0
  9
$TRACEWID
 40
1.0
  9
$TEXTSTYLE
  7
STANDARD
  9
$CLAYER
  8
0
  9
$CELTYPE
  6
BYLAYER
  9
$CECOLOR
 62
   256
  9
$CELTSCALE
 40
1.0
  9
$DISPSILH
 70
     0
  9
$DIMSCALE
 40
1.0
  9
$DIMASZ
 40
2.5
  9
$DIMEXO
 40
1.0
  9
$DIMDLI
 40
10.0
  9
$DIMRND
 40
0.0
  9
$DIMDLE
 40
0.0
  9
$DIMEXE
 40
1.0
  9
$DIMTP
 40
0.0
  9
$DIMTM
 40
0.0
  9
$DIMTXT
 40
3.2
  9
$DIMCEN
 40
0.0
  9
$DIMTSZ
 40
0.0
  9
$DIMTOL
 70
     0
  9
$DIMLIM
 70
     0
  9
$DIMTIH
 70
     0
  9
$DIMTOH
 70
     0
  9
$DIMSE1
 70
     0
  9
$DIMSE2
 70
     0
  9
$DIMTAD
 70
     3
  9
$DIMZIN
 70
     8
  9
$DIMBLK
  1

  9
$DIMASO
 70
     1
  9
$DIMSHO
 70
     1
  9
$DIMPOST
  1

  9
$DIMAPOST
  1

  9
$DIMALT
 70
     0
  9
$DIMALTD
 70
     2
  9
$DIMALTF
 40
25.4
  9
$DIMLFAC
 40
1.0
  9
$DIMTOFL
 70
     1
  9
$DIMTVP
 40
0.0
  9
$DIMTIX
 70
     0
  9
$DIMSOXD
 70
     0
  9
$DIMSAH
 70
     1
  9
$DIMBLK1
  1
OPEN
  9
$DIMBLK2
  1
OPEN
  9
$DIMSTYLE
  2
STANDARD
  9
$DIMCLRD
 70
     0
  9
$DIMCLRE
 70
     0
  9
$DIMCLRT
 70
     0
  9
$DIMTFAC
 40
1.0
  9
$DIMGAP
 40
1.0
  9
$DIMJUST
 70
     0
  9
$DIMSD1
 70
     0
  9
$DIMSD2
 70
     0
  9
$DIMTOLJ
 70
     1
  9
$DIMTZIN
 70
     0
  9
$DIMALTZ
 70
     0
  9
$DIMALTTZ
 70
     0
  9
$DIMUPT
 70
     0
  9
$DIMDEC
 70
     4
  9
$DIMTDEC
 70
     4
  9
$DIMALTU
 70
     2
  9
$DIMALTTD
 70
     2
  9
$DIMTXSTY
  7
STANDARD
  9
$DIMAUNIT
 70
     0
  9
$DIMADEC
 70
     0
  9
$DIMALTRND
 40
0.0
  9
$DIMAZIN
 70
     0
  9
$DIMDSEP
 70
    46
  9
$DIMATFIT
 70
     3
  9
$DIMFRAC
 70
     0
  9
$DIMLDRBLK
  1
OPEN
  9
$DIMLUNIT
 70
     2
  9
$DIMLWD
 70
    -2
  9
$DIMLWE
 70
    -2
  9
$DIMTMOVE
 70
     0
  9
$LUNITS
 70
     2
  9
$LUPREC
 70
     4
  9
$SKETCHINC
 40
1.0
  9
$FILLETRAD
 40
2.5
  9
$AUNITS
 70
     0
  9
$AUPREC
 70
     2
  9
$MENU
  1
.
  9
$ELEVATION
 40
0.0
  9
$PELEVATION
 40
0.0
  9
$THICKNESS
 40
0.0
  9
$LIMCHECK
 70
     0
  9
$CHAMFERA
 40
10.0
  9
$CHAMFERB
 40
10.0
  9
$CHAMFERC
 40
0.0
  9
$CHAMFERD
 40
0.0
  9
$SKPOLY
 70
     0
  9
$TDCREATE
 40
2451345.467816435
  9
$TDUCREATE
 40
2451345.092816435
  9
$TDUPDATE
 40
2457192.601329630
  9
$TDUUPDATE
 40
2457192.226329630
  9
$TDINDWG
 40
0.0000146644
  9
$TDUSRTIMER
 40
0.0000143403
  9
$USRTIMER
 70
     1
  9
$ANGBASE
 50
0.0
  9
$ANGDIR
 70
     0
  9
$PDMODE
 70
     0
  9
$PDSIZE
 40
0.0
  9
$PLINEWID
 40
0.0
  9
$SPLFRAME
 70
     0
  9
$SPLINETYPE
 70
     6
  9
$SPLINESEGS
 70
     8
  9
$HANDSEED
  5
A3E7
  9
$SURFTAB1
 70
     6
  9
$SURFTAB2
 70
     6
  9
$SURFTYPE
 70
     6
  9
$SURFU
 70
     6
  9
$SURFV
 70
     6
  9
$UCSBASE
  2

  9
$UCSNAME
  2

  9
$UCSORG
 10
0.0
 20
0.0
 30
0.0
  9
$UCSXDIR
 10
1.0
 20
0.0
 30
0.0
  9
$UCSYDIR
 10
0.0
 20
1.0
 30
0.0
  9
$UCSORTHOREF
  2

  9
$UCSORTHOVIEW
 70
     0
  9
$UCSORGTOP
 10
0.0
 20
0.0
 30
0.0
  9
$UCSORGBOTTOM
 10
0.0
 20
0.0
 30
0.0
  9
$UCSORGLEFT
 10
0.0
 20
0.0
 30
0.0
  9
$UCSORGRIGHT
 10
0.0
 20
0.0
 30
0.0
  9
$UCSORGFRONT
 10
0.0
 20
0.0
 30
0.0
  9
$UCSORGBACK
 10
0.0
 20
0.0
 30
0.0
  9
$PUCSBASE
  2

  9
$PUCSNAME
  2

  9
$PUCSORG
 10
0.0
 20
0.0
 30
0.0
  9
$PUCSXDIR
 10
1.0
 20
0.0
 30
0.0
  9
$PUCSYDIR
 10
0.0
 20
1.0
 30
0.0
  9
$PUCSORTHOREF
  2

  9
$PUCSORTHOVIEW
 70
     0
  9
$PUCSORGTOP
 10
0.0
 20
0.0
 30
0.0
  9
$PUCSORGBOTTOM
 10
0.0
 20
0.0
 30
0.0
  9
$PUCSORGLEFT
 10
0.0
 20
0.0
 30
0.0
  9
$PUCSORGRIGHT
 10
0.0
 20
0.0
 30
0.0
  9
$PUCSORGFRONT
 10
0.0
 20
0.0
 30
0.0
  9
$PUCSORGBACK
 10
0.0
 20
0.0
 30
0.0
  9
$USERI1
 70
     0
  9
$USERI2
 70
     0
  9
$USERI3
 70
     0
  9
$USERI4
 70
     0
  9
$USERI5
 70
     0
  9
$USERR1
 40
0.0
  9
$USERR2
 40
0.0
  9
$USERR3
 40
0.0
  9
$USERR4
 40
0.0
  9
$USERR5
 40
0.0
  9
$WORLDVIEW
 70
     1
  9
$SHADEDGE
 70
     3
  9
$SHADEDIF
 70
    70
  9
$TILEMODE
 70
     1
  9
$MAXACTVP
 70
    16
  9
$PINSBASE
 10
0.0
 20
0.0
 30
0.0
  9
$PLIMCHECK
 70
     0
  9
$PEXTMIN
 10
1.000000000000000E+20
 20
1.000000000000000E+20
 30
1.000000000000000E+20
  9
$PEXTMAX
 10
-1.000000000000000E+20
 20
-1.000000000000000E+20
 30
-1.000000000000000E+20
  9
$PLIMMIN
 10
0.0
 20
0.0
  9
$PLIMMAX
 10
420.0
 20
297.0
  9
$UNITMODE
 70
     0
  9
$VISRETAIN
 70
     0
  9
$PLINEGEN
 70
     0
  9
$PSLTSCALE
 70
     0
  9
$TREEDEPTH
 70
  3020
  9
$CMLSTYLE
  2
STANDARD
  9
$CMLJUST
 70
     0
  9
$CMLSCALE
 40
1.0
  9
$PROXYGRAPHICS
 70
     1
  9
$MEASUREMENT
 70
     0
  9
$CELWEIGHT
370
    -1
  9
$ENDCAPS
280
     0
  9
$JOINSTYLE
280
     0
  9
$LWDISPLAY
290
     0
  9
$INSUNITS
 70
     0
  9
$HYPERLINKBASE
  1

  9
$STYLESHEET
  1

  9
$XEDIT
290
     1
  9
$CEPSNTYPE
380
     0
  9
$PSTYLEMODE
290
     1
  9
$FINGERPRINTGUID
  2
{A1E03F24-553E-414E-9DFA-0494A321D697}
  9
$VERSIONGUID
  2
{02CFC3A4-41AE-4567-9FB4-C69F25A57C7C}
  9
$EXTNAMES
290
     1
  9
$PSVPSCALE
 40
0.0
  9
$OLESTARTUP
290
     0
  0
ENDSEC
  0
SECTION
  2
CLASSES
  0
CLASS
  1
ACDBDICTIONARYWDFLT
  2
AcDbDictionaryWithDefault
  3
ObjectDBX Classes
 90
        0
280
     0
281
     0
  0
CLASS
  1
ACDBPLACEHOLDER
  2
AcDbPlaceHolder
  3
ObjectDBX Classes
 90
        0
280
     0
281
     0
  0
CLASS
  1
LAYOUT
  2
AcDbLayout
  3
ObjectDBX Classes
 90
        0
280
     0
281
     0
  0
CLASS
  1
DICTIONARYVAR
  2
AcDbDictionaryVar
  3
ObjectDBX Classes
 90
        0
280
     0
281
     0
  0
CLASS
  1
MATERIAL
  2
AcDbMaterial
  3
ObjectDBX Classes
 90
     1153
280
     0
281
     0
  0
CLASS
  1
VISUALSTYLE
  2
AcDbVisualStyle
  3
ObjectDBX Classes
 90
     4095
280
     0
281
     0
  0
CLASS
  1
TABLESTYLE
  2
AcDbTableStyle
  3
ObjectDBX Classes
 90
     4095
280
     0
281
     0
  0
CLASS
  1
SCALE
  2
AcDbScale
  3
ObjectDBX Classes
 90
     1153
280
     0
281
     0
  0
CLASS
  1
MLEADERSTYLE
  2
AcDbMLeaderStyle
  3
ACDB_MLEADERSTYLE_CLASS
 90
     4095
280
     0
281
     0
  0
CLASS
  1
ACDBSECTIONVIEWSTYLE
  2
AcDbSectionViewStyle
  3
ObjectDBX Classes
 90
     1025
280
     0
281
     0
  0
CLASS
  1
ACDBDETAILVIEWSTYLE
  2
AcDbDetailViewStyle
  3
ObjectDBX Classes
 90
     1025
280
     0
281
     0
  0
CLASS
  1
CELLSTYLEMAP
  2
AcDbCellStyleMap
  3
ObjectDBX Classes
 90
     1152
280
     0
281
     0
  0
ENDSEC
  0
SECTION
  2
TABLES
  0
TABLE
  2
VPORT
  5
A120
330
0
100
AcDbSymbolTable
 70
     1
  0
VPORT
  5
A330
330
A120
100
AcDbSymbolTableRecord
100
AcDbViewportTableRecord
  2
*ACTIVE
 70
     0
 10
0.0
 20
0.0
 11
1.0
 21
1.0
 12
270.8722985135831
 22
134.1776510845841
 13
0.0
 23
0.0
 14
10.0
 24
10.0
 15
10.0
 25
10.0
 16
0.0
 26
0.0
 36
1.0
 17
0.0
 27
0.0
 37
0.0
 40
251.1547966759438
 41
1.899603698811096
 42
50.0
 43
0.0
 44
0.0
 50
0.0
 51
0.0
 71
     0
 72
   100
 73
     1
 74
     0
 75
     0
 76
     0
 77
     0
 78
     0
281
     0
 65
     1
110
0.0
120
0.0
130
0.0
111
1.0
121
0.0
131
0.0
112
0.0
122
1.0
132
0.0
 79
     0
146
0.0
1001
ACAD_NAV_VCDISPLAY
1070
     3
  0
ENDTAB
  0
TABLE
  2
LTYPE
  5
A11D
330
0
100
AcDbSymbolTable
 70
     4
  0
LTYPE
  5
A12B
330
A11D
100
AcDbSymbolTableRecord
100
AcDbLinetypeTableRecord
  2
BYBLOCK
 70
     0
  3

 72
    65
 73
     0
 40
0.0
  0
LTYPE
  5
A12C
330
A11D
100
AcDbSymbolTableRecord
100
AcDbLinetypeTableRecord
  2
BYLAYER
 70
     0
  3

 72
    65
 73
     0
 40
0.0
  0
LTYPE
  5
A12D
330
A11D
100
AcDbSymbolTableRecord
100
AcDbLinetypeTableRecord
  2
CONTINUOUS
 70
     0
  3
Solid line
 72
    65
 73
     0
 40
0.0
  0
LTYPE
  5
A13B
330
A11D
100
AcDbSymbolTableRecord
100
AcDbLinetypeTableRecord
  2
DASHED
 70
     0
  3
__ __ __ __ __ __ __ __ __ __ __ __ __ __ __ __
 72
    65
 73
     2
 40
0.75
 49
0.5
 74
     0
 49
-0.25
 74
     0
  0
LTYPE
  5
A13C
330
A11D
100
AcDbSymbolTableRecord
100
AcDbLinetypeTableRecord
  2
CENTER
 70
     0
  3
____ _ ____ _ ____ _ ____ _ ____ _ ____ _ ____ 
 72
    65
 73
     4
 40
2.0
 49
1.25
 74
     0
 49
-0.25
 74
     0
 49
0.25
 74
     0
 49
-0.25
 74
     0
  0
LTYPE
  5
A13D
330
A11D
100
AcDbSymbolTableRecord
100
AcDbLinetypeTableRecord
  2
PHANTOM
 70
     0
  3
______  __  __  ______  __  __  ______  __  __ 
 72
    65
 73
     6
 40
2.5
 49
1.25
 74
     0
 49
-0.25
 74
     0
 49
0.25
 74
     0
 49
-0.25
 74
     0
 49
0.25
 74
     0
 49
-0.25
 74
     0
  0
ENDTAB
  0
TABLE
  2
LAYER
  5
A11A
330
0
100
AcDbSymbolTable
 70
     8
  0
LAYER
  5
A128
102
{ACAD_XDICTIONARY
360
A38B
102
}
330
A11A
100
AcDbSymbolTableRecord
100
AcDbLayerTableRecord
  2
0
 70
     0
 62
     7
  6
CONTINUOUS
370
    -3
390
A339
  0
LAYER
  5
A13E
102
{ACAD_XDICTIONARY
360
A38D
102
}
330
A11A
100
AcDbSymbolTableRecord
100
AcDbLayerTableRecord
  2
4
 70
     0
 62
     1
  6
CENTER
370
    -3
390
A339
  0
LAYER
  5
A13F
102
{ACAD_XDICTIONARY
360
A38F
102
}
330
A11A
100
AcDbSymbolTableRecord
100
AcDbLayerTableRecord
  2
5
 70
     0
 62
     6
  6
PHANTOM
370
    -3
390
A339
  0
LAYER
  5
A140
102
{ACAD_XDICTIONARY
360
A391
102
}
330
A11A
100
AcDbSymbolTableRecord
100
AcDbLayerTableRecord
  2
1
 70
     0
 62
     7
  6
CONTINUOUS
370
    -3
390
A339
  0
LAYER
  5
A141
102
{ACAD_XDICTIONARY
360
A393
102
}
330
A11A
100
AcDbSymbolTableRecord
100
AcDbLayerTableRecord
  2
2
 70
     0
 62
     4
  6
CONTINUOUS
370
    -3
390
A339
  0
LAYER
  5
A142
102
{ACAD_XDICTIONARY
360
A395
102
}
330
A11A
100
AcDbSymbolTableRecord
100
AcDbLayerTableRecord
  2
3
 70
     0
 62
     2
  6
DASHED
370
    -3
390
A339
  0
LAYER
  5
A143
102
{ACAD_XDICTIONARY
360
A397
102
}
330
A11A
100
AcDbSymbolTableRecord
100
AcDbLayerTableRecord
  2
6
 70
     0
 62
     5
  6
CONTINUOUS
370
    -3
390
A339
  0
LAYER
  5
A144
102
{ACAD_XDICTIONARY
360
A399
102
}
330
A11A
100
AcDbSymbolTableRecord
100
AcDbLayerTableRecord
  2
7
 70
     0
 62
     3
  6
CONTINUOUS
370
    -3
390
A339
  0
ENDTAB
  0
TABLE
  2
STYLE
  5
A11B
330
0
100
AcDbSymbolTable
 70
     1
  0
STYLE
  5
A129
330
A11B
100
AcDbSymbolTableRecord
100
AcDbTextStyleTableRecord
  2
STANDARD
 70
     0
 40
0.0
 41
1.0
 50
0.0
 71
     0
 42
5.0
  3
txt
  4

  0
ENDTAB
  0
TABLE
  2
VIEW
  5
A11E
330
0
100
AcDbSymbolTable
 70
     0
  0
ENDTAB
  0
TABLE
  2
UCS
  5
A11F
330
0
100
AcDbSymbolTable
 70
     0
  0
ENDTAB
  0
TABLE
  2
APPID
  5
A121
330
0
100
AcDbSymbolTable
 70
     3
  0
APPID
  5
A12A
330
A121
100
AcDbSymbolTableRecord
100
AcDbRegAppTableRecord
  2
ACAD
 70
     0
  0
APPID
  5
A3A5
330
A121
100
AcDbSymbolTableRecord
100
AcDbRegAppTableRecord
  2
ACAD_NAV_VCDISPLAY
 70
     0
  0
APPID
  5
A3DE
330
A121
100
AcDbSymbolTableRecord
100
AcDbRegAppTableRecord
  2
ACAD_MLEADERVER
 70
     0
  0
ENDTAB
  0
TABLE
  2
DIMSTYLE
  5
A122
330
0
100
AcDbSymbolTable
 70
     1
100
AcDbDimStyleTable
 71
     0
  0
DIMSTYLE
105
A146
330
A122
100
AcDbSymbolTableRecord
100
AcDbDimStyleTableRecord
  2
STANDARD
 70
     0
 41
2.5
 42
1.0
 43
10.0
 44
1.0
 73
     0
 74
     0
 77
     3
 78
     8
140
3.2
141
0.0
147
1.0
172
     1
173
     1
284
     8
285
     8
286
     8
340
A129
  0
ENDTAB
  0
TABLE
  2
BLOCK_RECORD
  5
A119
330
0
100
AcDbSymbolTable
 70
     1
  0
BLOCK_RECORD
  5
A136
102
{ACAD_XDICTIONARY
360
A333
102
}
330
A119
100
AcDbSymbolTableRecord
100
AcDbBlockTableRecord
  2
*MODEL_SPACE
340
A387
  0
BLOCK_RECORD
  5
A132
102
{ACAD_XDICTIONARY
360
A331
102
}
330
A119
100
AcDbSymbolTableRecord
100
AcDbBlockTableRecord
  2
*PAPER_SPACE
340
A388
  0
BLOCK_RECORD
  5
A14E
330
A119
100
AcDbSymbolTableRecord
100
AcDbBlockTableRecord
  2
_OPEN
340
0
  0
ENDTAB
  0
ENDSEC
  0
SECTION
  2
BLOCKS
  0
BLOCK
  5
A137
330
A136
100
AcDbEntity
  8
0
100
AcDbBlockBegin
  2
*MODEL_SPACE
 70
     0
 10
0.0
 20
0.0
 30
0.0
  3
*MODEL_SPACE
  1

  0
ENDBLK
  5
A138
330
A136
100
AcDbEntity
  8
0
100
AcDbBlockEnd
  0
BLOCK
  5
A133
330
A132
100
AcDbEntity
 67
     1
  8
0
100
AcDbBlockBegin
  2
*PAPER_SPACE
 70
     0
 10
0.0
 20
0.0
 30
0.0
  3
*PAPER_SPACE
  1

  0
ENDBLK
  5
A134
330
A132
100
AcDbEntity
 67
     1
  8
0
100
AcDbBlockEnd
  0
BLOCK
  5
A14F
330
A14E
100
AcDbEntity
  8
0
100
AcDbBlockBegin
  2
_OPEN
 70
     0
 10
0.0
 20
0.0
 30
0.0
  3
_OPEN
  1

  0
LINE
  5
A150
330
A14E
100
AcDbEntity
  8
0
  6
ByBlock
 62
     0
100
AcDbLine
 10
-1.0
 20
0.166667
 30
0.0
 11
0.0
 21
0.0
 31
0.0
  0
LINE
  5
A151
330
A14E
100
AcDbEntity
  8
0
  6
ByBlock
 62
     0
100
AcDbLine
 10
0.0
 20
0.0
 30
0.0
 11
-1.0
 21
-0.166667
 31
0.0
  0
LINE
  5
A152
330
A14E
100
AcDbEntity
  8
0
  6
ByBlock
 62
     0
100
AcDbLine
 10
0.0
 20
0.0
 30
0.0
 11
-1.0
 21
0.0
 31
0.0
  0
ENDBLK
  5
A153
330
A14E
100
AcDbEntity
  8
0
100
AcDbBlockEnd
  0
ENDSEC
  0
SECTION
  2
ENTITIES
  0
LINE
  5
A154
330
A136
100
AcDbEntity
  8
1
  6
Continuous
100
AcDbLine
 10
235.527435
 20
156.4529349999999
 30
0.0
 11
269.160615
 21
156.4529349999999
 31
0.0
  0
LINE
  5
A155
330
A136
100
AcDbEntity
  8
1
  6
Continuous
100
AcDbLine
 10
235.527435
 20
144.452935
 30
0.0
 11
269.160615
 21
144.452935
 31
0.0
  0
LINE
  5
A156
330
A136
100
AcDbEntity
  8
4
  6
CENTER
100
AcDbLine
 10
277.160615
 20
150.452935
 30
0.0
 11
219.1606149999998
 21
150.452935
 31
0.0
  0
LINE
  5
A157
330
A136
100
AcDbEntity
  8
5
  6
PHANTOM
100
AcDbLine
 10
231.1606149999998
 20
148.8197549999999
 30
0.0
 11
231.1606149999998
 21
182.4529349999999
 31
0.0
  0
LINE
  5
A158
330
A136
100
AcDbEntity
  8
5
  6
PHANTOM
100
AcDbLine
 10
243.1606149999999
 20
148.8197549999999
 30
0.0
 11
243.1606149999999
 21
182.4529349999999
 31
0.0
  0
LINE
  5
A159
330
A136
100
AcDbEntity
  8
4
  6
CENTER
100
AcDbLine
 10
60.000001
 20
190.4529349999999
 30
0.0
 11
60.000001
 21
132.4529349999999
 31
0.0
  0
LINE
  5
A15A
330
A136
100
AcDbEntity
  8
4
  6
CENTER
100
AcDbLine
 10
237.1606149999998
 20
190.4529349999999
 30
0.0
 11
237.1606149999998
 21
132.4529349999999
 31
0.0
  0
LINE
  5
A15B
330
A136
100
AcDbEntity
  8
5
  6
PHANTOM
100
AcDbLine
 10
66.00000099999999
 20
162.163296
 30
0.0
 11
66.00000099999999
 21
182.4529349999999
 31
0.0
  0
LINE
  5
A15C
330
A136
100
AcDbEntity
  8
5
  6
PHANTOM
100
AcDbLine
 10
54.00000099999999
 20
162.163296
 30
0.0
 11
54.00000099999999
 21
182.4529349999999
 31
0.0
  0
LINE
  5
A15D
330
A136
100
AcDbEntity
  8
1
  6
Continuous
100
AcDbLine
 10
124.0250389999998
 20
144.202935
 30
0.0
 11
133.5250389999999
 21
144.202935
 31
0.0
  0
LINE
  5
A15E
330
A136
100
AcDbEntity
  8
1
  6
Continuous
100
AcDbLine
 10
124.0250389999998
 20
156.702935
 30
0.0
 11
133.5250389999999
 21
156.702935
 31
0.0
  0
LINE
  5
A15F
330
A136
100
AcDbEntity
  8
4
  6
CENTER
100
AcDbLine
 10
115.0250389999998
 20
77.55972699999998
 30
0.0
 11
145.925039
 21
77.55972699999998
 31
0.0
  0
LINE
  5
A160
330
A136
100
AcDbEntity
  8
2
  6
Continuous
100
AcDbLine
 10
125.0250389999998
 20
85.01822699999998
 30
0.0
 11
132.0250389999999
 21
85.01822699999998
 31
0.0
  0
LINE
  5
A161
330
A136
100
AcDbEntity
  8
2
  6
Continuous
100
AcDbLine
 10
132.0250389999999
 20
82.55347299999998
 30
0.0
 11
124.0250389999998
 21
72.56598099999997
 31
0.0
  0
LINE
  5
A162
330
A136
100
AcDbEntity
  8
2
  6
Continuous
100
AcDbLine
 10
124.0250389999998
 20
82.55347299999998
 30
0.0
 11
132.0250389999999
 21
72.56598099999997
 31
0.0
  0
LINE
  5
A163
330
A136
100
AcDbEntity
  8
1
  6
Continuous
100
AcDbLine
 10
124.0250389999998
 20
69.559727
 30
0.0
 11
132.0250389999999
 21
69.559727
 31
0.0
  0
LINE
  5
A164
330
A136
100
AcDbEntity
  8
1
  6
Continuous
100
AcDbLine
 10
124.0250389999998
 20
85.55972699999998
 30
0.0
 11
132.0250389999999
 21
85.55972699999998
 31
0.0
  0
LINE
  5
A165
330
A136
100
AcDbEntity
  8
2
  6
Continuous
100
AcDbLine
 10
125.0250389999998
 20
70.10122700000001
 30
0.0
 11
132.0250389999999
 21
70.10122700000001
 31
0.0
  0
LINE
  5
A166
330
A136
100
AcDbEntity
  8
4
  6
CENTER
100
AcDbLine
 10
115.0250389999998
 20
150.452935
 30
0.0
 11
145.925039
 21
150.452935
 31
0.0
  0
LINE
  5
A167
330
A136
100
AcDbEntity
  8
1
  6
Continuous
100
AcDbLine
 10
132.0250389999999
 20
72.56598099999997
 30
0.0
 11
124.0250389999998
 21
72.56598099999997
 31
0.0
  0
LINE
  5
A168
330
A136
100
AcDbEntity
  8
1
  6
Continuous
100
AcDbLine
 10
132.0250389999999
 20
82.55347299999998
 30
0.0
 11
124.0250389999998
 21
82.55347299999998
 31
0.0
  0
TEXT
  5
A169
330
A136
100
AcDbEntity
  8
7
  6
Continuous
100
AcDbText
 10
10.000001
 20
26.000001
 30
0.0
 40
3.0
  1
CODE No.1566
100
AcDbText
  0
TEXT
  5
A16A
330
A136
100
AcDbEntity
  8
7
  6
Continuous
100
AcDbText
 10
10.000001
 20
18.000001
 30
0.0
 40
3.0
  1
TYPE No.TL-302
100
AcDbText
  0
TEXT
  5
A16B
330
A136
100
AcDbEntity
  8
1
  6
Continuous
100
AcDbText
 10
10.000001
 20
10.000001
 30
0.0
 40
1.399999999999999
  1
LAYER
100
AcDbText
  0
TEXT
  5
A16C
330
A136
100
AcDbEntity
  8
5
  6
PHANTOM
100
AcDbText
 10
25.979512
 20
10.048738
 30
0.0
 40
1.399999999999999
  1
5
100
AcDbText
  0
TEXT
  5
A16D
330
A136
100
AcDbEntity
  8
6
  6
Continuous
100
AcDbText
 10
27.97951199999999
 20
10.048738
 30
0.0
 40
1.399999999999999
  1
6
100
AcDbText
  0
TEXT
  5
A16E
330
A136
100
AcDbEntity
  8
2
  6
Continuous
100
AcDbText
 10
19.979512
 20
10.048738
 30
0.0
 40
1.399999999999999
  1
2
100
AcDbText
  0
TEXT
  5
A16F
330
A136
100
AcDbEntity
  8
3
  6
DASHED
100
AcDbText
 10
21.97951199999998
 20
10.048738
 30
0.0
 40
1.399999999999999
  1
3
100
AcDbText
  0
TEXT
  5
A170
330
A136
100
AcDbEntity
  8
4
  6
CENTER
100
AcDbText
 10
23.979512
 20
10.048738
 30
0.0
 40
1.399999999999999
  1
4
100
AcDbText
  0
TEXT
  5
A171
330
A136
100
AcDbEntity
  8
7
  6
Continuous
100
AcDbText
 10
29.979512
 20
10.048738
 30
0.0
 40
1.399999999999999
  1
7
100
AcDbText
  0
TEXT
  5
A172
330
A136
100
AcDbEntity
  8
1
  6
Continuous
100
AcDbText
 10
17.97951199999999
 20
10.048738
 30
0.0
 40
1.399999999999999
  1
1
100
AcDbText
  0
LINE
  5
A173
330
A136
100
AcDbEntity
  8
1
  6
Continuous
100
AcDbLine
 10
125.0250389999998
 20
72.56598099999997
 30
0.0
 11
125.0250389999998
 21
69.559727
 31
0.0
  0
LINE
  5
A174
330
A136
100
AcDbEntity
  8
1
  6
Continuous
100
AcDbLine
 10
125.0250389999998
 20
85.55972699999998
 30
0.0
 11
125.0250389999998
 21
82.55347299999998
 31
0.0
  0
LINE
  5
A175
330
A136
100
AcDbEntity
  8
2
  6
Continuous
100
AcDbLine
 10
125.0250389999998
 20
85.01822699999998
 30
0.0
 11
124.0250389999998
 21
85.55972699999998
 31
0.0
  0
LINE
  5
A176
330
A136
100
AcDbEntity
  8
2
  6
Continuous
100
AcDbLine
 10
125.0250389999998
 20
70.10122700000001
 30
0.0
 11
124.0250389999998
 21
69.559727
 31
0.0
  0
LINE
  5
A177
330
A136
100
AcDbEntity
  8
1
  6
Continuous
100
AcDbLine
 10
123.0250389999998
 20
67.559727
 30
0.0
 11
120.158629
 21
69.47066600000001
 31
0.0
  0
LINE
  5
A178
330
A136
100
AcDbEntity
  8
1
  6
Continuous
100
AcDbLine
 10
123.0250389999998
 20
87.55972699999999
 30
0.0
 11
120.158629
 21
85.64878799999998
 31
0.0
  0
LINE
  5
A179
330
A136
100
AcDbEntity
  8
1
  6
Continuous
100
AcDbLine
 10
123.0250389999998
 20
67.559727
 30
0.0
 11
124.0250389999998
 21
67.559727
 31
0.0
  0
LINE
  5
A17A
330
A136
100
AcDbEntity
  8
1
  6
Continuous
100
AcDbLine
 10
123.0250389999998
 20
87.55972699999999
 30
0.0
 11
124.0250389999998
 21
87.55972699999999
 31
0.0
  0
ARC
  5
A17B
330
A136
100
AcDbEntity
  8
1
  6
Continuous
100
AcDbCircle
 10
120.325039
 20
85.39917199999996
 30
0.0
 40
0.3
100
AcDbArc
 50
123.690068
 51
180.0
  0
ARC
  5
A17C
330
A136
100
AcDbEntity
  8
1
  6
Continuous
100
AcDbCircle
 10
120.325039
 20
69.720282
 30
0.0
 40
0.3
100
AcDbArc
 50
180.0
 51
236.3099319999999
  0
LINE
  5
A17D
330
A136
100
AcDbEntity
  8
1
  6
Continuous
100
AcDbLine
 10
124.0250389999998
 20
67.559727
 30
0.0
 11
124.0250389999998
 21
87.55972699999999
 31
0.0
  0
LINE
  5
A17E
330
A136
100
AcDbEntity
  8
1
  6
Continuous
100
AcDbLine
 10
123.0250389999998
 20
67.559727
 30
0.0
 11
123.0250389999998
 21
87.55972699999999
 31
0.0
  0
LINE
  5
A17F
330
A136
100
AcDbEntity
  8
1
  6
Continuous
100
AcDbLine
 10
120.0250389999998
 20
85.39917199999996
 30
0.0
 11
120.0250389999998
 21
69.720282
 31
0.0
  0
CIRCLE
  5
A180
330
A136
100
AcDbEntity
  8
1
  6
Continuous
100
AcDbCircle
 10
60.000001
 20
150.452935
 30
0.0
 40
8.25
  0
CIRCLE
  5
A181
330
A136
100
AcDbEntity
  8
1
  6
Continuous
100
AcDbCircle
 10
60.000001
 20
150.452935
 30
0.0
 40
13.0
  0
LINE
  5
A182
330
A136
100
AcDbEntity
  8
4
  6
CENTER
100
AcDbLine
 10
20.000001
 20
150.452935
 30
0.0
 11
78.00000099999998
 21
150.452935
 31
0.0
  0
CIRCLE
  5
A183
330
A136
100
AcDbEntity
  8
1
  6
Continuous
100
AcDbCircle
 10
60.000001
 20
150.452935
 30
0.0
 40
6.0
  0
LINE
  5
A184
330
A136
100
AcDbEntity
  8
1
  6
Continuous
100
AcDbLine
 10
54.427748
 20
149.5529349999999
 30
0.0
 11
65.572254
 21
149.5529349999999
 31
0.0
  0
LINE
  5
A185
330
A136
100
AcDbEntity
  8
1
  6
Continuous
100
AcDbLine
 10
54.427748
 20
151.3529349999998
 30
0.0
 11
65.572254
 21
151.3529349999998
 31
0.0
  0
CIRCLE
  5
A186
330
A136
100
AcDbEntity
  8
1
  6
Continuous
100
AcDbCircle
 10
60.000001
 20
150.452935
 30
0.0
 40
6.049999999999998
  0
CIRCLE
  5
A187
330
A136
100
AcDbEntity
  8
1
  6
Continuous
100
AcDbCircle
 10
60.000001
 20
150.452935
 30
0.0
 40
8.0
  0
CIRCLE
  5
A188
330
A136
100
AcDbEntity
  8
1
  6
Continuous
100
AcDbCircle
 10
60.000001
 20
150.452935
 30
0.0
 40
10.0
  0
CIRCLE
  5
A189
330
A136
100
AcDbEntity
  8
1
  6
Continuous
100
AcDbCircle
 10
60.000001
 20
150.452935
 30
0.0
 40
10.5
  0
LINE
  5
A18A
330
A136
100
AcDbEntity
  8
1
  6
Continuous
100
AcDbLine
 10
48.467438
 20
156.4529349999999
 30
0.0
 11
28.000001
 21
156.4529349999999
 31
0.0
  0
LINE
  5
A18B
330
A136
100
AcDbEntity
  8
1
  6
Continuous
100
AcDbLine
 10
48.467438
 20
144.452935
 30
0.0
 11
28.000001
 21
144.452935
 31
0.0
  0
ARC
  5
A18C
330
A136
100
AcDbEntity
  8
1
  6
Continuous
100
AcDbCircle
 10
28.000001
 20
153.4529349999999
 30
0.0
 40
3.0
100
AcDbArc
 50
90.0
 51
180.0
  0
ARC
  5
A18D
330
A136
100
AcDbEntity
  8
1
  6
Continuous
100
AcDbCircle
 10
28.000001
 20
147.452935
 30
0.0
 40
3.0
100
AcDbArc
 50
180.0
 51
270.0
  0
LINE
  5
A18E
330
A136
100
AcDbEntity
  8
1
  6
Continuous
100
AcDbLine
 10
25.000001
 20
147.452935
 30
0.0
 11
25.000001
 21
153.4529349999999
 31
0.0
  0
ARC
  5
A18F
330
A136
100
AcDbEntity
  8
1
  6
Continuous
100
AcDbCircle
 10
54.427748
 20
151.652935
 30
0.0
 40
0.3
100
AcDbArc
 50
167.8468029999999
 51
270.0
  0
ARC
  5
A190
330
A136
100
AcDbEntity
  8
1
  6
Continuous
100
AcDbCircle
 10
54.427748
 20
149.252935
 30
0.0
 40
0.3
100
AcDbArc
 50
90.0
 51
192.153197
  0
ARC
  5
A191
330
A136
100
AcDbEntity
  8
1
  6
Continuous
100
AcDbCircle
 10
65.572254
 20
149.252935
 30
0.0
 40
0.3
100
AcDbArc
 50
347.846803
 51
90.0
  0
ARC
  5
A192
330
A136
100
AcDbEntity
  8
1
  6
Continuous
100
AcDbCircle
 10
65.572254
 20
151.652935
 30
0.0
 40
0.3
100
AcDbArc
 50
270.0
 51
12.153197
  0
LINE
  5
A193
330
A136
100
AcDbEntity
  8
1
  6
Continuous
100
AcDbLine
 10
124.0250389999998
 20
160.4529349999999
 30
0.0
 11
124.0250389999998
 21
140.4529349999999
 31
0.0
  0
LINE
  5
A194
330
A136
100
AcDbEntity
  8
1
  6
Continuous
100
AcDbLine
 10
123.0250389999998
 20
160.4529349999999
 30
0.0
 11
123.0250389999998
 21
140.4529349999999
 31
0.0
  0
LINE
  5
A195
330
A136
100
AcDbEntity
  8
1
  6
Continuous
100
AcDbLine
 10
120.0250389999998
 20
142.6134899999999
 30
0.0
 11
120.0250389999998
 21
158.29238
 31
0.0
  0
LINE
  5
A196
330
A136
100
AcDbEntity
  8
1
  6
Continuous
100
AcDbLine
 10
123.0250389999998
 20
140.4529349999999
 30
0.0
 11
120.158629
 21
142.363874
 31
0.0
  0
ARC
  5
A197
330
A136
100
AcDbEntity
  8
1
  6
Continuous
100
AcDbCircle
 10
120.325039
 20
142.6134899999999
 30
0.0
 40
0.3
100
AcDbArc
 50
180.0
 51
236.3099319999999
  0
LINE
  5
A198
330
A136
100
AcDbEntity
  8
1
  6
Continuous
100
AcDbLine
 10
123.0250389999998
 20
140.4529349999999
 30
0.0
 11
124.0250389999998
 21
140.4529349999999
 31
0.0
  0
LINE
  5
A199
330
A136
100
AcDbEntity
  8
1
  6
Continuous
100
AcDbLine
 10
123.0250389999998
 20
160.4529349999999
 30
0.0
 11
120.158629
 21
158.5419949999999
 31
0.0
  0
LINE
  5
A19A
330
A136
100
AcDbEntity
  8
1
  6
Continuous
100
AcDbLine
 10
123.0250389999998
 20
160.4529349999999
 30
0.0
 11
124.0250389999998
 21
160.4529349999999
 31
0.0
  0
ARC
  5
A19B
330
A136
100
AcDbEntity
  8
1
  6
Continuous
100
AcDbCircle
 10
120.325039
 20
158.29238
 30
0.0
 40
0.3
100
AcDbArc
 50
123.690068
 51
180.0
  0
LINE
  5
A19C
330
A136
100
AcDbEntity
  8
1
  6
Continuous
100
AcDbLine
 10
176.390228
 20
88.25972699999999
 30
0.0
 11
176.390228
 21
66.859727
 31
0.0
  0
LINE
  5
A19D
330
A136
100
AcDbEntity
  8
1
  6
Continuous
100
AcDbLine
 10
173.390228
 20
88.25972699999999
 30
0.0
 11
173.390228
 21
66.859727
 31
0.0
  0
LINE
  5
A19E
330
A136
100
AcDbEntity
  8
1
  6
Continuous
100
AcDbLine
 10
172.290228
 20
64.559727
 30
0.0
 11
172.290228
 21
90.55972699999999
 31
0.0
  0
LINE
  5
A19F
330
A136
100
AcDbEntity
  8
1
  6
Continuous
100
AcDbLine
 10
171.0902279999999
 20
64.559727
 30
0.0
 11
171.0902279999999
 21
90.55972699999999
 31
0.0
  0
LINE
  5
A1A0
330
A136
100
AcDbEntity
  8
1
  6
Continuous
100
AcDbLine
 10
137.6250389999998
 20
83.55972699999998
 30
0.0
 11
137.6250389999998
 21
42.559727
 31
0.0
  0
LINE
  5
A1A1
330
A136
100
AcDbEntity
  8
1
  6
Continuous
100
AcDbLine
 10
139.9250389999999
 20
83.55972699999998
 30
0.0
 11
139.9250389999999
 21
42.559727
 31
0.0
  0
LINE
  5
A1A2
330
A136
100
AcDbEntity
  8
1
  6
Continuous
100
AcDbLine
 10
137.6250389999998
 20
42.559727
 30
0.0
 11
139.9250389999999
 21
42.559727
 31
0.0
  0
LINE
  5
A1A3
330
A136
100
AcDbEntity
  8
1
  6
Continuous
100
AcDbLine
 10
140.9250389999999
 20
80.55972699999998
 30
0.0
 11
140.9250389999999
 21
74.55972699999998
 31
0.0
  0
LINE
  5
A1A4
330
A136
100
AcDbEntity
  8
1
  6
Continuous
100
AcDbLine
 10
140.9250389999999
 20
80.55972699999998
 30
0.0
 11
139.9250389999999
 21
80.55972699999998
 31
0.0
  0
LINE
  5
A1A5
330
A136
100
AcDbEntity
  8
1
  6
Continuous
100
AcDbLine
 10
140.9250389999999
 20
74.55972699999998
 30
0.0
 11
139.9250389999999
 21
74.55972699999998
 31
0.0
  0
LINE
  5
A1A6
330
A136
100
AcDbEntity
  8
1
  6
Continuous
100
AcDbLine
 10
137.6250389999998
 20
83.55972699999998
 30
0.0
 11
139.9250389999999
 21
83.55972699999998
 31
0.0
  0
LINE
  5
A1A7
330
A136
100
AcDbEntity
  8
1
  6
Continuous
100
AcDbLine
 10
136.9250389999999
 20
83.55972699999998
 30
0.0
 11
136.9250389999999
 21
71.55972699999998
 31
0.0
  0
LINE
  5
A1A8
330
A136
100
AcDbEntity
  8
1
  6
Continuous
100
AcDbLine
 10
132.0250389999999
 20
82.55347299999998
 30
0.0
 11
132.0250389999999
 21
85.55972699999998
 31
0.0
  0
LINE
  5
A1A9
330
A136
100
AcDbEntity
  8
1
  6
Continuous
100
AcDbLine
 10
132.0250389999999
 20
69.559727
 30
0.0
 11
132.0250389999999
 21
72.56598099999997
 31
0.0
  0
LINE
  5
A1AA
330
A136
100
AcDbEntity
  8
1
  6
Continuous
100
AcDbLine
 10
137.425039
 20
72.05972699999998
 30
0.0
 11
137.425039
 21
83.05972699999998
 31
0.0
  0
LINE
  5
A1AB
330
A136
100
AcDbEntity
  8
1
  6
Continuous
100
AcDbLine
 10
133.5250389999999
 20
71.55972699999998
 30
0.0
 11
132.0250389999999
 21
69.559727
 31
0.0
  0
LINE
  5
A1AC
330
A136
100
AcDbEntity
  8
1
  6
Continuous
100
AcDbLine
 10
133.5250389999999
 20
83.55972699999998
 30
0.0
 11
132.0250389999999
 21
85.55972699999998
 31
0.0
  0
LINE
  5
A1AD
330
A136
100
AcDbEntity
  8
1
  6
Continuous
100
AcDbLine
 10
137.425039
 20
72.05972699999998
 30
0.0
 11
136.9250389999999
 21
71.55972699999998
 31
0.0
  0
LINE
  5
A1AE
330
A136
100
AcDbEntity
  8
1
  6
Continuous
100
AcDbLine
 10
137.425039
 20
83.05972699999998
 30
0.0
 11
136.9250389999999
 21
83.55972699999998
 31
0.0
  0
LINE
  5
A1AF
330
A136
100
AcDbEntity
  8
1
  6
Continuous
100
AcDbLine
 10
136.9250389999999
 20
71.55972699999998
 30
0.0
 11
133.5250389999999
 21
71.55972699999998
 31
0.0
  0
LINE
  5
A1B0
330
A136
100
AcDbEntity
  8
1
  6
Continuous
100
AcDbLine
 10
136.9250389999999
 20
83.55972699999998
 30
0.0
 11
133.5250389999999
 21
83.55972699999998
 31
0.0
  0
ARC
  5
A1B1
330
A136
100
AcDbEntity
  8
1
  6
Continuous
100
AcDbCircle
 10
123.181289
 20
77.55972699999998
 30
0.0
 40
10.15625
100
AcDbArc
 50
330.548152
 51
29.45184799999999
  0
LINE
  5
A1B2
330
A136
100
AcDbEntity
  8
1
  6
Continuous
100
AcDbLine
 10
133.5250389999999
 20
71.55972699999998
 30
0.0
 11
133.5250389999999
 21
83.55972699999998
 31
0.0
  0
LINE
  5
A1B3
330
A136
100
AcDbEntity
  8
1
  6
Continuous
100
AcDbLine
 10
137.6250389999998
 20
71.617339
 30
0.0
 11
137.6250389999998
 21
71.55972699999998
 31
0.0
  0
LINE
  5
A1B4
330
A136
100
AcDbEntity
  8
1
  6
Continuous
100
AcDbLine
 10
137.425039
 20
73.05972699999998
 30
0.0
 11
137.6250389999998
 21
73.05972699999998
 31
0.0
  0
LINE
  5
A1B5
330
A136
100
AcDbEntity
  8
1
  6
Continuous
100
AcDbLine
 10
137.425039
 20
82.05972699999998
 30
0.0
 11
137.6250389999998
 21
82.05972699999998
 31
0.0
  0
LINE
  5
A1B6
330
A136
100
AcDbEntity
  8
1
  6
Continuous
100
AcDbLine
 10
171.0902279999999
 20
64.559727
 30
0.0
 11
172.290228
 21
64.559727
 31
0.0
  0
LINE
  5
A1B7
330
A136
100
AcDbEntity
  8
1
  6
Continuous
100
AcDbLine
 10
173.390228
 20
77.55972699999998
 30
0.0
 11
176.390228
 21
77.55972699999998
 31
0.0
  0
LINE
  5
A1B8
330
A136
100
AcDbEntity
  8
1
  6
Continuous
100
AcDbLine
 10
173.6902279999999
 20
66.55972699999999
 30
0.0
 11
176.0902279999999
 21
66.55972699999999
 31
0.0
  0
LINE
  5
A1B9
330
A136
100
AcDbEntity
  8
4
  6
CENTER
100
AcDbLine
 10
166.0902279999999
 20
77.55972699999998
 30
0.0
 11
181.890228
 21
77.55972699999998
 31
0.0
  0
ARC
  5
A1BA
330
A136
100
AcDbEntity
  8
1
  6
Continuous
100
AcDbCircle
 10
173.6902279999999
 20
66.859727
 30
0.0
 40
0.3
100
AcDbArc
 50
180.0
 51
270.0
  0
LINE
  5
A1BB
330
A136
100
AcDbEntity
  8
1
  6
Continuous
100
AcDbLine
 10
173.1902279999999
 20
87.90501799999999
 30
0.0
 11
173.390228
 21
87.90501799999999
 31
0.0
  0
ARC
  5
A1BC
330
A136
100
AcDbEntity
  8
1
  6
Continuous
100
AcDbCircle
 10
173.1902279999999
 20
87.605018
 30
0.0
 40
0.3
100
AcDbArc
 50
90.0
 51
180.0
  0
LINE
  5
A1BD
330
A136
100
AcDbEntity
  8
1
  6
Continuous
100
AcDbLine
 10
173.1902279999999
 20
67.214427
 30
0.0
 11
173.390228
 21
67.214427
 31
0.0
  0
LINE
  5
A1BE
330
A136
100
AcDbEntity
  8
1
  6
Continuous
100
AcDbLine
 10
172.3078379999998
 20
72.56598099999997
 30
0.0
 11
172.290228
 21
72.56598099999997
 31
0.0
  0
LINE
  5
A1BF
330
A136
100
AcDbEntity
  8
1
  6
Continuous
100
AcDbLine
 10
172.8902279999998
 20
82.55347299999998
 30
0.0
 11
172.290228
 21
82.55347299999998
 31
0.0
  0
LINE
  5
A1C0
330
A136
100
AcDbEntity
  8
1
  6
Continuous
100
AcDbLine
 10
171.0902279999999
 20
82.55347299999998
 30
0.0
 11
171.0726179999998
 21
82.55347299999998
 31
0.0
  0
LINE
  5
A1C1
330
A136
100
AcDbEntity
  8
1
  6
Continuous
100
AcDbLine
 10
172.290228
 20
85.39351399999999
 30
0.0
 11
172.8902279999998
 21
85.542799
 31
0.0
  0
LINE
  5
A1C2
330
A136
100
AcDbEntity
  8
1
  6
Continuous
100
AcDbLine
 10
170.586807
 20
84.96968800000002
 30
0.0
 11
171.0902279999999
 21
85.09494399999999
 31
0.0
  0
LINE
  5
A1C3
330
A136
100
AcDbEntity
  8
1
  6
Continuous
100
AcDbLine
 10
172.290228
 20
85.80570899999996
 30
0.0
 11
172.7936489999999
 21
85.93096499999999
 31
0.0
  0
LINE
  5
A1C4
330
A136
100
AcDbEntity
  8
1
  6
Continuous
100
AcDbLine
 10
170.4902279999998
 20
85.35785399999998
 30
0.0
 11
171.0902279999999
 21
85.50713899999998
 31
0.0
  0
LINE
  5
A1C5
330
A136
100
AcDbEntity
  8
1
  6
Continuous
100
AcDbLine
 10
172.7936489999999
 20
85.93096499999999
 30
0.0
 11
172.8902279999998
 21
85.542799
 31
0.0
  0
LINE
  5
A1C6
330
A136
100
AcDbEntity
  8
1
  6
Continuous
100
AcDbLine
 10
170.586807
 20
84.96968800000002
 30
0.0
 11
170.4902279999998
 21
85.35785399999998
 31
0.0
  0
LINE
  5
A1C7
330
A136
100
AcDbEntity
  8
1
  6
Continuous
100
AcDbLine
 10
172.290228
 20
84.10664999999999
 30
0.0
 11
172.552924
 21
84.28521999999999
 31
0.0
  0
LINE
  5
A1C8
330
A136
100
AcDbEntity
  8
1
  6
Continuous
100
AcDbLine
 10
170.4902279999998
 20
82.88308599999998
 30
0.0
 11
171.0902279999999
 21
83.290941
 31
0.0
  0
LINE
  5
A1C9
330
A136
100
AcDbEntity
  8
1
  6
Continuous
100
AcDbLine
 10
172.290228
 20
83.381153
 30
0.0
 11
172.8902279999998
 21
83.78900799999998
 31
0.0
  0
LINE
  5
A1CA
330
A136
100
AcDbEntity
  8
1
  6
Continuous
100
AcDbLine
 10
170.827532
 20
82.38687400000001
 30
0.0
 11
171.0902279999999
 21
82.56544400000001
 31
0.0
  0
LINE
  5
A1CB
330
A136
100
AcDbEntity
  8
1
  6
Continuous
100
AcDbLine
 10
172.552924
 20
84.28521999999999
 30
0.0
 11
172.8902279999998
 21
83.78900799999998
 31
0.0
  0
LINE
  5
A1CC
330
A136
100
AcDbEntity
  8
1
  6
Continuous
100
AcDbLine
 10
170.827532
 20
82.38687400000001
 30
0.0
 11
170.4902279999998
 21
82.88308599999998
 31
0.0
  0
LINE
  5
A1CD
330
A136
100
AcDbEntity
  8
1
  6
Continuous
100
AcDbLine
 10
172.290228
 20
80.75212500000002
 30
0.0
 11
172.8902279999998
 21
80.105968
 31
0.0
  0
LINE
  5
A1CE
330
A136
100
AcDbEntity
  8
1
  6
Continuous
100
AcDbLine
 10
171.0902279999999
 20
78.595889
 30
0.0
 11
170.4902279999998
 21
79.242046
 31
0.0
  0
LINE
  5
A1CF
330
A136
100
AcDbEntity
  8
1
  6
Continuous
100
AcDbLine
 10
172.290228
 20
79.548828
 30
0.0
 11
172.8902279999998
 21
80.105968
 31
0.0
  0
LINE
  5
A1D0
330
A136
100
AcDbEntity
  8
1
  6
Continuous
100
AcDbLine
 10
170.4902279999998
 20
79.242046
 30
0.0
 11
171.0902279999999
 21
79.79918599999997
 31
0.0
  0
LINE
  5
A1D1
330
A136
100
AcDbEntity
  8
1
  6
Continuous
100
AcDbLine
 10
172.290228
 20
69.61231600000001
 30
0.0
 11
172.8902279999998
 21
69.761601
 31
0.0
  0
LINE
  5
A1D2
330
A136
100
AcDbEntity
  8
1
  6
Continuous
100
AcDbLine
 10
170.586807
 20
69.18849
 30
0.0
 11
171.0902279999999
 21
69.313745
 31
0.0
  0
LINE
  5
A1D3
330
A136
100
AcDbEntity
  8
1
  6
Continuous
100
AcDbLine
 10
172.290228
 20
70.024511
 30
0.0
 11
172.7936489999999
 21
70.149766
 31
0.0
  0
LINE
  5
A1D4
330
A136
100
AcDbEntity
  8
1
  6
Continuous
100
AcDbLine
 10
170.4902279999998
 20
69.576655
 30
0.0
 11
171.0902279999999
 21
69.72593999999999
 31
0.0
  0
LINE
  5
A1D5
330
A136
100
AcDbEntity
  8
1
  6
Continuous
100
AcDbLine
 10
172.7936489999999
 20
70.149766
 30
0.0
 11
172.8902279999998
 21
69.761601
 31
0.0
  0
LINE
  5
A1D6
330
A136
100
AcDbEntity
  8
1
  6
Continuous
100
AcDbLine
 10
170.586807
 20
69.18849
 30
0.0
 11
170.4902279999998
 21
69.576655
 31
0.0
  0
LINE
  5
A1D7
330
A136
100
AcDbEntity
  8
1
  6
Continuous
100
AcDbLine
 10
172.290228
 20
72.554011
 30
0.0
 11
172.552924
 21
72.73258100000003
 31
0.0
  0
LINE
  5
A1D8
330
A136
100
AcDbEntity
  8
1
  6
Continuous
100
AcDbLine
 10
170.4902279999998
 20
71.33044699999998
 30
0.0
 11
171.0902279999999
 21
71.73830100000002
 31
0.0
  0
LINE
  5
A1D9
330
A136
100
AcDbEntity
  8
1
  6
Continuous
100
AcDbLine
 10
172.290228
 20
71.828514
 30
0.0
 11
172.8902279999998
 21
72.23636899999998
 31
0.0
  0
LINE
  5
A1DA
330
A136
100
AcDbEntity
  8
1
  6
Continuous
100
AcDbLine
 10
170.827532
 20
70.83423499999998
 30
0.0
 11
171.0902279999999
 21
71.012805
 31
0.0
  0
LINE
  5
A1DB
330
A136
100
AcDbEntity
  8
1
  6
Continuous
100
AcDbLine
 10
172.552924
 20
72.73258100000003
 30
0.0
 11
172.8902279999998
 21
72.23636899999998
 31
0.0
  0
LINE
  5
A1DC
330
A136
100
AcDbEntity
  8
1
  6
Continuous
100
AcDbLine
 10
170.827532
 20
70.83423499999998
 30
0.0
 11
170.4902279999998
 21
71.33044699999998
 31
0.0
  0
LINE
  5
A1DD
330
A136
100
AcDbEntity
  8
1
  6
Continuous
100
AcDbLine
 10
172.290228
 20
76.523566
 30
0.0
 11
172.8902279999998
 21
75.877409
 31
0.0
  0
LINE
  5
A1DE
330
A136
100
AcDbEntity
  8
1
  6
Continuous
100
AcDbLine
 10
171.0902279999999
 20
74.36732899999999
 30
0.0
 11
170.4902279999998
 21
75.013487
 31
0.0
  0
LINE
  5
A1DF
330
A136
100
AcDbEntity
  8
1
  6
Continuous
100
AcDbLine
 10
172.290228
 20
75.32026899999998
 30
0.0
 11
172.8902279999998
 21
75.877409
 31
0.0
  0
LINE
  5
A1E0
330
A136
100
AcDbEntity
  8
1
  6
Continuous
100
AcDbLine
 10
170.4902279999998
 20
75.013487
 30
0.0
 11
171.0902279999999
 21
75.570627
 31
0.0
  0
ARC
  5
A1E1
330
A136
100
AcDbEntity
  8
1
  6
Continuous
100
AcDbCircle
 10
173.1902279999999
 20
67.514427
 30
0.0
 40
0.3
100
AcDbArc
 50
180.0
 51
270.0
  0
LINE
  5
A1E2
330
A136
100
AcDbEntity
  8
1
  6
Continuous
100
AcDbLine
 10
172.8902279999998
 20
87.605018
 30
0.0
 11
172.8902279999998
 21
67.514427
 31
0.0
  0
ARC
  5
A1E3
330
A136
100
AcDbEntity
  8
1
  6
Continuous
100
AcDbCircle
 10
176.0902279999999
 20
66.859727
 30
0.0
 40
0.3
100
AcDbArc
 50
270.0
 51
0.0
  0
ARC
  5
A1E4
330
A136
100
AcDbEntity
  8
1
  6
Continuous
100
AcDbCircle
 10
176.5902279999999
 20
87.605018
 30
0.0
 40
0.3
100
AcDbArc
 50
0.0
 51
90.0
  0
LINE
  5
A1E5
330
A136
100
AcDbEntity
  8
1
  6
Continuous
100
AcDbLine
 10
176.390228
 20
87.90501799999999
 30
0.0
 11
176.5902279999999
 21
87.90501799999999
 31
0.0
  0
ARC
  5
A1E6
330
A136
100
AcDbEntity
  8
1
  6
Continuous
100
AcDbCircle
 10
176.5902279999999
 20
67.514427
 30
0.0
 40
0.3
100
AcDbArc
 50
270.0
 51
0.0
  0
LINE
  5
A1E7
330
A136
100
AcDbEntity
  8
1
  6
Continuous
100
AcDbLine
 10
176.390228
 20
67.214427
 30
0.0
 11
176.5902279999999
 21
67.214427
 31
0.0
  0
LINE
  5
A1E8
330
A136
100
AcDbEntity
  8
1
  6
Continuous
100
AcDbLine
 10
176.890228
 20
87.605018
 30
0.0
 11
176.890228
 21
67.514427
 31
0.0
  0
LINE
  5
A1E9
330
A136
100
AcDbEntity
  8
1
  6
Continuous
100
AcDbLine
 10
173.6902279999999
 20
88.55972699999998
 30
0.0
 11
176.0902279999999
 21
88.55972699999998
 31
0.0
  0
ARC
  5
A1EA
330
A136
100
AcDbEntity
  8
1
  6
Continuous
100
AcDbCircle
 10
173.6902279999999
 20
88.25972699999999
 30
0.0
 40
0.3
100
AcDbArc
 50
90.0
 51
180.0
  0
LINE
  5
A1EB
330
A136
100
AcDbEntity
  8
1
  6
Continuous
100
AcDbLine
 10
171.0902279999999
 20
90.55972699999999
 30
0.0
 11
172.290228
 21
90.55972699999999
 31
0.0
  0
ARC
  5
A1EC
330
A136
100
AcDbEntity
  8
1
  6
Continuous
100
AcDbCircle
 10
176.0902279999999
 20
88.25972699999999
 30
0.0
 40
0.3
100
AcDbArc
 50
0.0
 51
90.0
  0
LINE
  5
A1ED
330
A136
100
AcDbEntity
  8
1
  6
Continuous
100
AcDbLine
 10
136.9250389999999
 20
144.452935
 30
0.0
 11
136.9250389999999
 21
156.4529349999999
 31
0.0
  0
LINE
  5
A1EE
330
A136
100
AcDbEntity
  8
1
  6
Continuous
100
AcDbLine
 10
137.425039
 20
155.952935
 30
0.0
 11
137.425039
 21
144.9529349999999
 31
0.0
  0
LINE
  5
A1EF
330
A136
100
AcDbEntity
  8
1
  6
Continuous
100
AcDbLine
 10
133.5250389999999
 20
156.702935
 30
0.0
 11
133.5250389999999
 21
144.202935
 31
0.0
  0
LINE
  5
A1F0
330
A136
100
AcDbEntity
  8
1
  6
Continuous
100
AcDbLine
 10
139.9250389999999
 20
156.4529349999999
 30
0.0
 11
139.9250389999999
 21
144.452935
 31
0.0
  0
LINE
  5
A1F1
330
A136
100
AcDbEntity
  8
1
  6
Continuous
100
AcDbLine
 10
137.6250389999998
 20
156.4529349999999
 30
0.0
 11
137.6250389999998
 21
144.452935
 31
0.0
  0
LINE
  5
A1F2
330
A136
100
AcDbEntity
  8
1
  6
Continuous
100
AcDbLine
 10
137.425039
 20
144.9529349999999
 30
0.0
 11
136.9250389999999
 21
144.452935
 31
0.0
  0
LINE
  5
A1F3
330
A136
100
AcDbEntity
  8
1
  6
Continuous
100
AcDbLine
 10
136.9250389999999
 20
144.452935
 30
0.0
 11
133.5250389999999
 21
144.452935
 31
0.0
  0
LINE
  5
A1F4
330
A136
100
AcDbEntity
  8
1
  6
Continuous
100
AcDbLine
 10
137.425039
 20
145.9529349999999
 30
0.0
 11
137.6250389999998
 21
145.9529349999999
 31
0.0
  0
LINE
  5
A1F5
330
A136
100
AcDbEntity
  8
1
  6
Continuous
100
AcDbLine
 10
137.6250389999998
 20
144.452935
 30
0.0
 11
139.9250389999999
 21
144.452935
 31
0.0
  0
LINE
  5
A1F6
330
A136
100
AcDbEntity
  8
1
  6
Continuous
100
AcDbLine
 10
140.9250389999999
 20
147.452935
 30
0.0
 11
139.9250389999999
 21
147.452935
 31
0.0
  0
LINE
  5
A1F7
330
A136
100
AcDbEntity
  8
1
  6
Continuous
100
AcDbLine
 10
140.9250389999999
 20
153.4529349999999
 30
0.0
 11
139.9250389999999
 21
153.4529349999999
 31
0.0
  0
LINE
  5
A1F8
330
A136
100
AcDbEntity
  8
1
  6
Continuous
100
AcDbLine
 10
140.9250389999999
 20
153.4529349999999
 30
0.0
 11
140.9250389999999
 21
147.452935
 31
0.0
  0
LINE
  5
A1F9
330
A136
100
AcDbEntity
  8
1
  6
Continuous
100
AcDbLine
 10
137.425039
 20
155.952935
 30
0.0
 11
136.9250389999999
 21
156.4529349999999
 31
0.0
  0
LINE
  5
A1FA
330
A136
100
AcDbEntity
  8
1
  6
Continuous
100
AcDbLine
 10
136.9250389999999
 20
156.4529349999999
 30
0.0
 11
133.5250389999999
 21
156.4529349999999
 31
0.0
  0
LINE
  5
A1FB
330
A136
100
AcDbEntity
  8
1
  6
Continuous
100
AcDbLine
 10
137.425039
 20
154.952935
 30
0.0
 11
137.6250389999998
 21
154.952935
 31
0.0
  0
LINE
  5
A1FC
330
A136
100
AcDbEntity
  8
1
  6
Continuous
100
AcDbLine
 10
137.6250389999998
 20
156.4529349999999
 30
0.0
 11
139.9250389999999
 21
156.4529349999999
 31
0.0
  0
LINE
  5
A1FD
330
A136
100
AcDbEntity
  8
1
  6
Continuous
100
AcDbLine
 10
172.8902279999998
 20
160.4982259999998
 30
0.0
 11
172.8902279999998
 21
140.4076349999999
 31
0.0
  0
LINE
  5
A1FE
330
A136
100
AcDbEntity
  8
1
  6
Continuous
100
AcDbLine
 10
171.0902279999999
 20
137.4529349999999
 30
0.0
 11
171.0902279999999
 21
163.452935
 31
0.0
  0
LINE
  5
A1FF
330
A136
100
AcDbEntity
  8
1
  6
Continuous
100
AcDbLine
 10
172.290228
 20
137.4529349999999
 30
0.0
 11
172.290228
 21
163.452935
 31
0.0
  0
LINE
  5
A200
330
A136
100
AcDbEntity
  8
1
  6
Continuous
100
AcDbLine
 10
173.390228
 20
162.8546329999998
 30
0.0
 11
173.390228
 21
138.051229
 31
0.0
  0
LINE
  5
A201
330
A136
100
AcDbEntity
  8
1
  6
Continuous
100
AcDbLine
 10
176.390228
 20
162.8546329999998
 30
0.0
 11
176.390228
 21
138.051229
 31
0.0
  0
LINE
  5
A202
330
A136
100
AcDbEntity
  8
1
  6
Continuous
100
AcDbLine
 10
176.890228
 20
160.4982259999998
 30
0.0
 11
176.890228
 21
140.4076349999999
 31
0.0
  0
LINE
  5
A203
330
A136
100
AcDbEntity
  8
4
  6
CENTER
100
AcDbLine
 10
166.0902279999999
 20
150.452935
 30
0.0
 11
181.890228
 21
150.452935
 31
0.0
  0
LINE
  5
A204
330
A136
100
AcDbEntity
  8
1
  6
Continuous
100
AcDbLine
 10
173.6902279999999
 20
137.751229
 30
0.0
 11
176.0902279999999
 21
137.751229
 31
0.0
  0
LINE
  5
A205
330
A136
100
AcDbEntity
  8
1
  6
Continuous
100
AcDbLine
 10
173.390228
 20
144.102082
 30
0.0
 11
176.390228
 21
144.102082
 31
0.0
  0
ARC
  5
A206
330
A136
100
AcDbEntity
  8
1
  6
Continuous
100
AcDbCircle
 10
173.6902279999999
 20
138.051229
 30
0.0
 40
0.3
100
AcDbArc
 50
180.0
 51
270.0
  0
ARC
  5
A207
330
A136
100
AcDbEntity
  8
1
  6
Continuous
100
AcDbCircle
 10
173.1902279999999
 20
140.4076349999999
 30
0.0
 40
0.3
100
AcDbArc
 50
180.0
 51
270.0
  0
LINE
  5
A208
330
A136
100
AcDbEntity
  8
1
  6
Continuous
100
AcDbLine
 10
171.0902279999999
 20
137.4529349999999
 30
0.0
 11
172.290228
 21
137.4529349999999
 31
0.0
  0
LINE
  5
A209
330
A136
100
AcDbEntity
  8
1
  6
Continuous
100
AcDbLine
 10
170.4902279999998
 20
147.9066949999999
 30
0.0
 11
171.0902279999999
 21
148.4638349999999
 31
0.0
  0
LINE
  5
A20A
330
A136
100
AcDbEntity
  8
1
  6
Continuous
100
AcDbLine
 10
172.290228
 20
148.213477
 30
0.0
 11
172.8902279999998
 21
148.7706169999998
 31
0.0
  0
LINE
  5
A20B
330
A136
100
AcDbEntity
  8
1
  6
Continuous
100
AcDbLine
 10
171.0902279999999
 20
147.2605369999999
 30
0.0
 11
170.4902279999998
 21
147.9066949999999
 31
0.0
  0
LINE
  5
A20C
330
A136
100
AcDbEntity
  8
1
  6
Continuous
100
AcDbLine
 10
172.290228
 20
149.4167739999998
 30
0.0
 11
172.8902279999998
 21
148.7706169999998
 31
0.0
  0
LINE
  5
A20D
330
A136
100
AcDbEntity
  8
1
  6
Continuous
100
AcDbLine
 10
170.827532
 20
143.7274429999999
 30
0.0
 11
170.4902279999998
 21
144.223655
 31
0.0
  0
LINE
  5
A20E
330
A136
100
AcDbEntity
  8
1
  6
Continuous
100
AcDbLine
 10
172.552924
 20
145.625789
 30
0.0
 11
172.8902279999998
 21
145.129577
 31
0.0
  0
LINE
  5
A20F
330
A136
100
AcDbEntity
  8
1
  6
Continuous
100
AcDbLine
 10
170.827532
 20
143.7274429999999
 30
0.0
 11
171.0902279999999
 21
143.906013
 31
0.0
  0
LINE
  5
A210
330
A136
100
AcDbEntity
  8
1
  6
Continuous
100
AcDbLine
 10
172.290228
 20
144.7217219999998
 30
0.0
 11
172.8902279999998
 21
145.129577
 31
0.0
  0
LINE
  5
A211
330
A136
100
AcDbEntity
  8
1
  6
Continuous
100
AcDbLine
 10
170.4902279999998
 20
144.223655
 30
0.0
 11
171.0902279999999
 21
144.6315089999999
 31
0.0
  0
LINE
  5
A212
330
A136
100
AcDbEntity
  8
1
  6
Continuous
100
AcDbLine
 10
172.290228
 20
145.4472189999999
 30
0.0
 11
172.552924
 21
145.625789
 31
0.0
  0
LINE
  5
A213
330
A136
100
AcDbEntity
  8
1
  6
Continuous
100
AcDbLine
 10
170.586807
 20
142.0816979999998
 30
0.0
 11
170.4902279999998
 21
142.4698629999998
 31
0.0
  0
LINE
  5
A214
330
A136
100
AcDbEntity
  8
1
  6
Continuous
100
AcDbLine
 10
172.7936489999999
 20
143.0429739999999
 30
0.0
 11
172.8902279999998
 21
142.654809
 31
0.0
  0
LINE
  5
A215
330
A136
100
AcDbEntity
  8
1
  6
Continuous
100
AcDbLine
 10
170.4902279999998
 20
142.4698629999998
 30
0.0
 11
171.0902279999999
 21
142.6191479999999
 31
0.0
  0
LINE
  5
A216
330
A136
100
AcDbEntity
  8
1
  6
Continuous
100
AcDbLine
 10
172.290228
 20
142.917719
 30
0.0
 11
172.7936489999999
 21
143.0429739999999
 31
0.0
  0
LINE
  5
A217
330
A136
100
AcDbEntity
  8
1
  6
Continuous
100
AcDbLine
 10
170.586807
 20
142.0816979999998
 30
0.0
 11
171.0902279999999
 21
142.2069529999999
 31
0.0
  0
LINE
  5
A218
330
A136
100
AcDbEntity
  8
1
  6
Continuous
100
AcDbLine
 10
172.290228
 20
142.505524
 30
0.0
 11
172.8902279999998
 21
142.654809
 31
0.0
  0
LINE
  5
A219
330
A136
100
AcDbEntity
  8
1
  6
Continuous
100
AcDbLine
 10
170.4902279999998
 20
152.135254
 30
0.0
 11
171.0902279999999
 21
152.692394
 31
0.0
  0
LINE
  5
A21A
330
A136
100
AcDbEntity
  8
1
  6
Continuous
100
AcDbLine
 10
172.290228
 20
152.442036
 30
0.0
 11
172.8902279999998
 21
152.999176
 31
0.0
  0
LINE
  5
A21B
330
A136
100
AcDbEntity
  8
1
  6
Continuous
100
AcDbLine
 10
171.0902279999999
 20
151.4890969999999
 30
0.0
 11
170.4902279999998
 21
152.135254
 31
0.0
  0
LINE
  5
A21C
330
A136
100
AcDbEntity
  8
1
  6
Continuous
100
AcDbLine
 10
172.290228
 20
153.645333
 30
0.0
 11
172.8902279999998
 21
152.999176
 31
0.0
  0
LINE
  5
A21D
330
A136
100
AcDbEntity
  8
1
  6
Continuous
100
AcDbLine
 10
172.3078379999998
 20
145.4591889999998
 30
0.0
 11
172.290228
 21
145.4591889999998
 31
0.0
  0
LINE
  5
A21E
330
A136
100
AcDbEntity
  8
1
  6
Continuous
100
AcDbLine
 10
173.1902279999999
 20
140.1076349999999
 30
0.0
 11
173.390228
 21
140.1076349999999
 31
0.0
  0
LINE
  5
A21F
330
A136
100
AcDbEntity
  8
1
  6
Continuous
100
AcDbLine
 10
176.390228
 20
140.1076349999999
 30
0.0
 11
176.5902279999999
 21
140.1076349999999
 31
0.0
  0
ARC
  5
A220
330
A136
100
AcDbEntity
  8
1
  6
Continuous
100
AcDbCircle
 10
176.0902279999999
 20
138.051229
 30
0.0
 40
0.3
100
AcDbArc
 50
270.0
 51
0.0
  0
ARC
  5
A221
330
A136
100
AcDbEntity
  8
1
  6
Continuous
100
AcDbCircle
 10
176.5902279999999
 20
140.4076349999999
 30
0.0
 40
0.3
100
AcDbArc
 50
270.0
 51
0.0
  0
LINE
  5
A222
330
A136
100
AcDbEntity
  8
1
  6
Continuous
100
AcDbLine
 10
173.6902279999999
 20
163.1546329999999
 30
0.0
 11
176.0902279999999
 21
163.1546329999999
 31
0.0
  0
LINE
  5
A223
330
A136
100
AcDbEntity
  8
1
  6
Continuous
100
AcDbLine
 10
173.390228
 20
156.803788
 30
0.0
 11
176.390228
 21
156.803788
 31
0.0
  0
ARC
  5
A224
330
A136
100
AcDbEntity
  8
1
  6
Continuous
100
AcDbCircle
 10
173.6902279999999
 20
162.8546329999998
 30
0.0
 40
0.3
100
AcDbArc
 50
90.0
 51
180.0
  0
LINE
  5
A225
330
A136
100
AcDbEntity
  8
1
  6
Continuous
100
AcDbLine
 10
171.0902279999999
 20
163.452935
 30
0.0
 11
172.290228
 21
163.452935
 31
0.0
  0
ARC
  5
A226
330
A136
100
AcDbEntity
  8
1
  6
Continuous
100
AcDbCircle
 10
173.1902279999999
 20
160.4982259999998
 30
0.0
 40
0.3
100
AcDbArc
 50
90.0
 51
180.0
  0
LINE
  5
A227
330
A136
100
AcDbEntity
  8
1
  6
Continuous
100
AcDbLine
 10
173.1902279999999
 20
160.7982259999998
 30
0.0
 11
173.390228
 21
160.7982259999998
 31
0.0
  0
LINE
  5
A228
330
A136
100
AcDbEntity
  8
1
  6
Continuous
100
AcDbLine
 10
170.827532
 20
155.2800819999999
 30
0.0
 11
170.4902279999998
 21
155.776294
 31
0.0
  0
LINE
  5
A229
330
A136
100
AcDbEntity
  8
1
  6
Continuous
100
AcDbLine
 10
172.552924
 20
157.1784279999999
 30
0.0
 11
172.8902279999998
 21
156.6822159999999
 31
0.0
  0
LINE
  5
A22A
330
A136
100
AcDbEntity
  8
1
  6
Continuous
100
AcDbLine
 10
170.827532
 20
155.2800819999999
 30
0.0
 11
171.0902279999999
 21
155.4586519999998
 31
0.0
  0
LINE
  5
A22B
330
A136
100
AcDbEntity
  8
1
  6
Continuous
100
AcDbLine
 10
172.290228
 20
156.274361
 30
0.0
 11
172.8902279999998
 21
156.6822159999999
 31
0.0
  0
LINE
  5
A22C
330
A136
100
AcDbEntity
  8
1
  6
Continuous
100
AcDbLine
 10
170.4902279999998
 20
155.776294
 30
0.0
 11
171.0902279999999
 21
156.1841489999999
 31
0.0
  0
LINE
  5
A22D
330
A136
100
AcDbEntity
  8
1
  6
Continuous
100
AcDbLine
 10
172.290228
 20
156.999858
 30
0.0
 11
172.552924
 21
157.1784279999999
 31
0.0
  0
LINE
  5
A22E
330
A136
100
AcDbEntity
  8
1
  6
Continuous
100
AcDbLine
 10
170.586807
 20
157.862896
 30
0.0
 11
170.4902279999998
 21
158.2510619999999
 31
0.0
  0
LINE
  5
A22F
330
A136
100
AcDbEntity
  8
1
  6
Continuous
100
AcDbLine
 10
172.7936489999999
 20
158.824173
 30
0.0
 11
172.8902279999998
 21
158.4360069999999
 31
0.0
  0
LINE
  5
A230
330
A136
100
AcDbEntity
  8
1
  6
Continuous
100
AcDbLine
 10
170.4902279999998
 20
158.2510619999999
 30
0.0
 11
171.0902279999999
 21
158.400347
 31
0.0
  0
LINE
  5
A231
330
A136
100
AcDbEntity
  8
1
  6
Continuous
100
AcDbLine
 10
172.290228
 20
158.698917
 30
0.0
 11
172.7936489999999
 21
158.824173
 31
0.0
  0
LINE
  5
A232
330
A136
100
AcDbEntity
  8
1
  6
Continuous
100
AcDbLine
 10
170.586807
 20
157.862896
 30
0.0
 11
171.0902279999999
 21
157.988152
 31
0.0
  0
LINE
  5
A233
330
A136
100
AcDbEntity
  8
1
  6
Continuous
100
AcDbLine
 10
172.290228
 20
158.2867219999999
 30
0.0
 11
172.8902279999998
 21
158.4360069999999
 31
0.0
  0
LINE
  5
A234
330
A136
100
AcDbEntity
  8
1
  6
Continuous
100
AcDbLine
 10
171.0902279999999
 20
155.446681
 30
0.0
 11
171.0726179999998
 21
155.446681
 31
0.0
  0
LINE
  5
A235
330
A136
100
AcDbEntity
  8
1
  6
Continuous
100
AcDbLine
 10
172.8902279999998
 20
155.446681
 30
0.0
 11
172.290228
 21
155.446681
 31
0.0
  0
ARC
  5
A236
330
A136
100
AcDbEntity
  8
1
  6
Continuous
100
AcDbCircle
 10
176.0902279999999
 20
162.8546329999998
 30
0.0
 40
0.3
100
AcDbArc
 50
0.0
 51
90.0
  0
LINE
  5
A237
330
A136
100
AcDbEntity
  8
1
  6
Continuous
100
AcDbLine
 10
176.390228
 20
160.7982259999998
 30
0.0
 11
176.5902279999999
 21
160.7982259999998
 31
0.0
  0
ARC
  5
A238
330
A136
100
AcDbEntity
  8
1
  6
Continuous
100
AcDbCircle
 10
176.5902279999999
 20
160.4982259999998
 30
0.0
 40
0.3
100
AcDbArc
 50
0.0
 51
90.0
  0
ARC
  5
A239
330
A136
100
AcDbEntity
  8
1
  6
Continuous
100
AcDbCircle
 10
237.1606149999998
 20
150.452935
 30
0.0
 40
13.0
100
AcDbArc
 50
27.486426
 51
332.513574
  0
ARC
  5
A23A
330
A136
100
AcDbEntity
  8
1
  6
Continuous
100
AcDbCircle
 10
237.1606149999998
 20
150.452935
 30
0.0
 40
8.0
100
AcDbArc
 50
128.624833
 51
231.375167
  0
ARC
  5
A23B
330
A136
100
AcDbEntity
  8
2
  6
Continuous
100
AcDbCircle
 10
237.1606149999998
 20
150.452935
 30
0.0
 40
7.458499999999999
100
AcDbArc
 50
123.0736159999999
 51
236.9263839999999
  0
ARC
  5
A23C
330
A136
100
AcDbEntity
  8
1
  6
Continuous
100
AcDbCircle
 10
237.1606149999998
 20
150.452935
 30
0.0
 40
9.0
100
AcDbArc
 50
41.810315
 51
318.189685
  0
ARC
  5
A23D
330
A136
100
AcDbEntity
  8
1
  6
Continuous
100
AcDbCircle
 10
239.1606149999998
 20
150.452935
 30
0.0
 40
8.0
100
AcDbArc
 50
147.6639739999999
 51
212.336026
  0
ARC
  5
A23E
330
A136
100
AcDbEntity
  8
1
  6
Continuous
100
AcDbCircle
 10
233.9106149999998
 20
153.702935
 30
0.0
 40
0.5
100
AcDbArc
 50
90.0
 51
180.0
  0
ARC
  5
A23F
330
A136
100
AcDbEntity
  8
1
  6
Continuous
100
AcDbCircle
 10
240.410615
 20
153.702935
 30
0.0
 40
0.5
100
AcDbArc
 50
0.0
 51
90.0
  0
ARC
  5
A240
330
A136
100
AcDbEntity
  8
1
  6
Continuous
100
AcDbCircle
 10
237.1606149999998
 20
150.452935
 30
0.0
 40
10.5
100
AcDbArc
 50
34.849905
 51
325.150095
  0
LINE
  5
A241
330
A136
100
AcDbEntity
  8
1
  6
Continuous
100
AcDbLine
 10
226.1606149999999
 20
156.803788
 30
0.0
 11
226.1606149999999
 21
144.102082
 31
0.0
  0
LINE
  5
A242
330
A136
100
AcDbEntity
  8
1
  6
Continuous
100
AcDbLine
 10
232.166869
 20
144.202935
 30
0.0
 11
242.154361
 21
144.202935
 31
0.0
  0
ARC
  5
A243
330
A136
100
AcDbEntity
  8
5
  6
PHANTOM
100
AcDbCircle
 10
237.1606149999998
 20
152.4529349999999
 30
0.0
 40
8.0
100
AcDbArc
 50
237.663974
 51
302.336026
  0
LINE
  5
A244
330
A136
100
AcDbEntity
  8
1
  6
Continuous
100
AcDbLine
 10
232.166869
 20
144.202935
 30
0.0
 11
242.154361
 21
144.202935
 31
0.0
  0
LINE
  5
A245
330
A136
100
AcDbEntity
  8
1
  6
Continuous
100
AcDbLine
 10
233.9106149999998
 20
146.7029349999999
 30
0.0
 11
240.410615
 21
146.7029349999999
 31
0.0
  0
LINE
  5
A246
330
A136
100
AcDbEntity
  8
1
  6
Continuous
100
AcDbLine
 10
240.410615
 20
153.702935
 30
0.0
 11
233.9106149999998
 21
153.702935
 31
0.0
  0
LINE
  5
A247
330
A136
100
AcDbEntity
  8
1
  6
Continuous
100
AcDbLine
 10
240.410615
 20
147.2029349999999
 30
0.0
 11
233.9106149999998
 21
147.2029349999999
 31
0.0
  0
LINE
  5
A248
330
A136
100
AcDbEntity
  8
1
  6
Continuous
100
AcDbLine
 10
237.1606149999998
 20
137.751229
 30
0.0
 11
248.1606149999998
 21
144.102082
 31
0.0
  0
ARC
  5
A249
330
A136
100
AcDbEntity
  8
5
  6
PHANTOM
100
AcDbCircle
 10
234.860615
 20
148.8197549999999
 30
0.0
 40
3.7
100
AcDbArc
 50
180.0
 51
237.663974
  0
ARC
  5
A24A
330
A136
100
AcDbEntity
  8
1
  6
Continuous
100
AcDbCircle
 10
235.527435
 20
148.152935
 30
0.0
 40
3.7
100
AcDbArc
 50
212.336026
 51
270.0
  0
ARC
  5
A24B
330
A136
100
AcDbEntity
  8
1
  6
Continuous
100
AcDbCircle
 10
233.9106149999998
 20
147.2029349999999
 30
0.0
 40
0.5
100
AcDbArc
 50
180.0
 51
270.0
  0
LINE
  5
A24C
330
A136
100
AcDbEntity
  8
1
  6
Continuous
100
AcDbLine
 10
233.4106149999998
 20
153.702935
 30
0.0
 11
233.4106149999998
 21
147.2029349999999
 31
0.0
  0
LINE
  5
A24D
330
A136
100
AcDbEntity
  8
1
  6
Continuous
100
AcDbLine
 10
233.9106149999998
 20
153.702935
 30
0.0
 11
233.9106149999998
 21
147.2029349999999
 31
0.0
  0
LINE
  5
A24E
330
A136
100
AcDbEntity
  8
1
  6
Continuous
100
AcDbLine
 10
226.1606149999999
 20
144.102082
 30
0.0
 11
237.1606149999998
 21
137.751229
 31
0.0
  0
ARC
  5
A24F
330
A136
100
AcDbEntity
  8
5
  6
PHANTOM
100
AcDbCircle
 10
239.4606149999999
 20
148.8197549999999
 30
0.0
 40
3.7
100
AcDbArc
 50
302.336026
 51
0.0
  0
ARC
  5
A250
330
A136
100
AcDbEntity
  8
1
  6
Continuous
100
AcDbCircle
 10
237.1606149999998
 20
150.452935
 30
0.0
 40
8.0
100
AcDbArc
 50
308.624833
 51
311.409622
  0
ARC
  5
A251
330
A136
100
AcDbEntity
  8
2
  6
Continuous
100
AcDbCircle
 10
237.1606149999998
 20
150.452935
 30
0.0
 40
7.458499999999999
100
AcDbArc
 50
303.073616
 51
306.442703
  0
ARC
  5
A252
330
A136
100
AcDbEntity
  8
1
  6
Continuous
100
AcDbCircle
 10
240.410615
 20
147.2029349999999
 30
0.0
 40
0.5
100
AcDbArc
 50
270.0
 51
0.0
  0
LINE
  5
A253
330
A136
100
AcDbEntity
  8
1
  6
Continuous
100
AcDbLine
 10
240.9106149999999
 20
147.2029349999999
 30
0.0
 11
240.9106149999999
 21
153.702935
 31
0.0
  0
LINE
  5
A254
330
A136
100
AcDbEntity
  8
1
  6
Continuous
100
AcDbLine
 10
240.410615
 20
153.702935
 30
0.0
 11
240.410615
 21
147.2029349999999
 31
0.0
  0
LINE
  5
A255
330
A136
100
AcDbEntity
  8
1
  6
Continuous
100
AcDbLine
 10
248.1606149999998
 20
144.102082
 30
0.0
 11
248.1606149999998
 21
144.452935
 31
0.0
  0
LINE
  5
A256
330
A136
100
AcDbEntity
  8
1
  6
Continuous
100
AcDbLine
 10
232.166869
 20
156.702935
 30
0.0
 11
242.154361
 21
156.702935
 31
0.0
  0
LINE
  5
A257
330
A136
100
AcDbEntity
  8
1
  6
Continuous
100
AcDbLine
 10
240.410615
 20
154.2029349999999
 30
0.0
 11
233.9106149999998
 21
154.2029349999999
 31
0.0
  0
LINE
  5
A258
330
A136
100
AcDbEntity
  8
1
  6
Continuous
100
AcDbLine
 10
248.1606149999998
 20
156.803788
 30
0.0
 11
237.1606149999998
 21
163.154641
 31
0.0
  0
ARC
  5
A259
330
A136
100
AcDbEntity
  8
1
  6
Continuous
100
AcDbCircle
 10
235.527435
 20
152.752935
 30
0.0
 40
3.7
100
AcDbArc
 50
90.0
 51
147.6639739999999
  0
LINE
  5
A25A
330
A136
100
AcDbEntity
  8
1
  6
Continuous
100
AcDbLine
 10
237.1606149999998
 20
163.154641
 30
0.0
 11
226.1606149999999
 21
156.803788
 31
0.0
  0
ARC
  5
A25B
330
A136
100
AcDbEntity
  8
1
  6
Continuous
100
AcDbCircle
 10
237.1606149999998
 20
150.452935
 30
0.0
 40
8.0
100
AcDbArc
 50
48.590378
 51
51.37516699999999
  0
ARC
  5
A25C
330
A136
100
AcDbEntity
  8
2
  6
Continuous
100
AcDbCircle
 10
237.1606149999998
 20
150.452935
 30
0.0
 40
7.458499999999999
100
AcDbArc
 50
53.55729699999999
 51
56.92638399999999
  0
LINE
  5
A25D
330
A136
100
AcDbEntity
  8
1
  6
Continuous
100
AcDbLine
 10
248.1606149999998
 20
156.4529349999999
 30
0.0
 11
248.1606149999998
 21
156.803788
 31
0.0
  0
LINE
  5
A25E
330
A136
100
AcDbEntity
  8
4
  6
CENTER
100
AcDbLine
 10
115.0250389999998
 20
223.3461419999999
 30
0.0
 11
145.925039
 21
223.3461419999999
 31
0.0
  0
LINE
  5
A25F
330
A136
100
AcDbEntity
  8
1
  6
Continuous
100
AcDbLine
 10
132.0250389999999
 20
228.339888
 30
0.0
 11
124.0250389999998
 21
228.339888
 31
0.0
  0
LINE
  5
A260
330
A136
100
AcDbEntity
  8
1
  6
Continuous
100
AcDbLine
 10
132.0250389999999
 20
218.352396
 30
0.0
 11
124.0250389999998
 21
218.352396
 31
0.0
  0
LINE
  5
A261
330
A136
100
AcDbEntity
  8
2
  6
Continuous
100
AcDbLine
 10
125.0250389999998
 20
215.8876419999999
 30
0.0
 11
132.0250389999999
 21
215.8876419999999
 31
0.0
  0
LINE
  5
A262
330
A136
100
AcDbEntity
  8
1
  6
Continuous
100
AcDbLine
 10
124.0250389999998
 20
231.3461419999999
 30
0.0
 11
132.0250389999999
 21
231.3461419999999
 31
0.0
  0
LINE
  5
A263
330
A136
100
AcDbEntity
  8
1
  6
Continuous
100
AcDbLine
 10
124.0250389999998
 20
215.3461419999999
 30
0.0
 11
132.0250389999999
 21
215.3461419999999
 31
0.0
  0
LINE
  5
A264
330
A136
100
AcDbEntity
  8
2
  6
Continuous
100
AcDbLine
 10
124.0250389999998
 20
228.339888
 30
0.0
 11
132.0250389999999
 21
218.352396
 31
0.0
  0
LINE
  5
A265
330
A136
100
AcDbEntity
  8
2
  6
Continuous
100
AcDbLine
 10
132.0250389999999
 20
228.339888
 30
0.0
 11
124.0250389999998
 21
218.352396
 31
0.0
  0
LINE
  5
A266
330
A136
100
AcDbEntity
  8
2
  6
Continuous
100
AcDbLine
 10
125.0250389999998
 20
230.804642
 30
0.0
 11
132.0250389999999
 21
230.804642
 31
0.0
  0
ARC
  5
A267
330
A136
100
AcDbEntity
  8
5
  6
PHANTOM
100
AcDbCircle
 10
63.000001
 20
182.4529349999999
 30
0.0
 40
3.0
100
AcDbArc
 50
0.0
 51
90.0
  0
LINE
  5
A268
330
A136
100
AcDbEntity
  8
5
  6
PHANTOM
100
AcDbLine
 10
57.000001
 20
185.4529349999999
 30
0.0
 11
63.000001
 21
185.4529349999999
 31
0.0
  0
ARC
  5
A269
330
A136
100
AcDbEntity
  8
5
  6
PHANTOM
100
AcDbCircle
 10
57.000001
 20
182.4529349999999
 30
0.0
 40
3.0
100
AcDbArc
 50
90.0
 51
180.0
  0
LINE
  5
A26A
330
A136
100
AcDbEntity
  8
1
  6
Continuous
100
AcDbLine
 10
120.0250389999998
 20
231.185587
 30
0.0
 11
120.0250389999998
 21
215.506697
 31
0.0
  0
LINE
  5
A26B
330
A136
100
AcDbEntity
  8
1
  6
Continuous
100
AcDbLine
 10
123.0250389999998
 20
213.3461419999999
 30
0.0
 11
123.0250389999998
 21
233.3461419999999
 31
0.0
  0
LINE
  5
A26C
330
A136
100
AcDbEntity
  8
1
  6
Continuous
100
AcDbLine
 10
124.0250389999998
 20
213.3461419999999
 30
0.0
 11
124.0250389999998
 21
233.3461419999999
 31
0.0
  0
ARC
  5
A26D
330
A136
100
AcDbEntity
  8
1
  6
Continuous
100
AcDbCircle
 10
120.325039
 20
215.506697
 30
0.0
 40
0.3
100
AcDbArc
 50
180.0
 51
236.3099319999999
  0
LINE
  5
A26E
330
A136
100
AcDbEntity
  8
1
  6
Continuous
100
AcDbLine
 10
123.0250389999998
 20
213.3461419999999
 30
0.0
 11
124.0250389999998
 21
213.3461419999999
 31
0.0
  0
LINE
  5
A26F
330
A136
100
AcDbEntity
  8
1
  6
Continuous
100
AcDbLine
 10
123.0250389999998
 20
213.3461419999999
 30
0.0
 11
120.158629
 21
215.257082
 31
0.0
  0
LINE
  5
A270
330
A136
100
AcDbEntity
  8
2
  6
Continuous
100
AcDbLine
 10
125.0250389999998
 20
215.8876419999999
 30
0.0
 11
124.0250389999998
 21
215.3461419999999
 31
0.0
  0
LINE
  5
A271
330
A136
100
AcDbEntity
  8
1
  6
Continuous
100
AcDbLine
 10
125.0250389999998
 20
218.352396
 30
0.0
 11
125.0250389999998
 21
215.3461419999999
 31
0.0
  0
CIRCLE
  5
A272
330
A136
100
AcDbEntity
  8
1
  6
Continuous
100
AcDbCircle
 10
125.6250389999999
 20
223.3461419999999
 30
0.0
 40
1.6
  0
LINE
  5
A273
330
A136
100
AcDbEntity
  8
4
  6
CENTER
100
AcDbLine
 10
125.6250389999999
 20
220.349895
 30
0.0
 11
125.6250389999999
 21
226.3423899999999
 31
0.0
  0
LINE
  5
A274
330
A136
100
AcDbEntity
  8
1
  6
Continuous
100
AcDbLine
 10
123.0250389999998
 20
233.3461419999999
 30
0.0
 11
124.0250389999998
 21
233.3461419999999
 31
0.0
  0
ARC
  5
A275
330
A136
100
AcDbEntity
  8
1
  6
Continuous
100
AcDbCircle
 10
120.325039
 20
231.185587
 30
0.0
 40
0.3
100
AcDbArc
 50
123.690068
 51
180.0
  0
LINE
  5
A276
330
A136
100
AcDbEntity
  8
2
  6
Continuous
100
AcDbLine
 10
125.0250389999998
 20
230.804642
 30
0.0
 11
124.0250389999998
 21
231.3461419999999
 31
0.0
  0
LINE
  5
A277
330
A136
100
AcDbEntity
  8
1
  6
Continuous
100
AcDbLine
 10
125.0250389999998
 20
231.3461419999999
 30
0.0
 11
125.0250389999998
 21
228.339888
 31
0.0
  0
LINE
  5
A278
330
A136
100
AcDbEntity
  8
1
  6
Continuous
100
AcDbLine
 10
123.0250389999998
 20
233.3461419999999
 30
0.0
 11
120.158629
 21
231.4352029999998
 31
0.0
  0
LINE
  5
A279
330
A136
100
AcDbEntity
  8
1
  6
Continuous
100
AcDbLine
 10
176.890228
 20
213.3008509999999
 30
0.0
 11
176.890228
 21
233.3914419999999
 31
0.0
  0
LINE
  5
A27A
330
A136
100
AcDbEntity
  8
1
  6
Continuous
100
AcDbLine
 10
172.8902279999998
 20
213.3008509999999
 30
0.0
 11
172.8902279999998
 21
233.3914419999999
 31
0.0
  0
LINE
  5
A27B
330
A136
100
AcDbEntity
  8
1
  6
Continuous
100
AcDbLine
 10
139.9250389999999
 20
217.3461419999999
 30
0.0
 11
139.9250389999999
 21
258.3461419999998
 31
0.0
  0
LINE
  5
A27C
330
A136
100
AcDbEntity
  8
1
  6
Continuous
100
AcDbLine
 10
137.6250389999998
 20
217.3461419999999
 30
0.0
 11
137.6250389999998
 21
258.3461419999998
 31
0.0
  0
LINE
  5
A27D
330
A136
100
AcDbEntity
  8
1
  6
Continuous
100
AcDbLine
 10
171.0902279999999
 20
236.3461419999999
 30
0.0
 11
171.0902279999999
 21
210.3461419999999
 31
0.0
  0
LINE
  5
A27E
330
A136
100
AcDbEntity
  8
1
  6
Continuous
100
AcDbLine
 10
172.290228
 20
236.3461419999999
 30
0.0
 11
172.290228
 21
210.3461419999999
 31
0.0
  0
LINE
  5
A27F
330
A136
100
AcDbEntity
  8
1
  6
Continuous
100
AcDbLine
 10
173.390228
 20
212.646142
 30
0.0
 11
173.390228
 21
234.046142
 31
0.0
  0
LINE
  5
A280
330
A136
100
AcDbEntity
  8
1
  6
Continuous
100
AcDbLine
 10
176.390228
 20
212.646142
 30
0.0
 11
176.390228
 21
234.046142
 31
0.0
  0
LINE
  5
A281
330
A136
100
AcDbEntity
  8
1
  6
Continuous
100
AcDbLine
 10
133.5250389999999
 20
217.3461419999999
 30
0.0
 11
133.5250389999999
 21
229.3461419999999
 31
0.0
  0
ARC
  5
A282
330
A136
100
AcDbEntity
  8
1
  6
Continuous
100
AcDbCircle
 10
123.181289
 20
223.3461419999999
 30
0.0
 40
10.15625
100
AcDbArc
 50
330.548152
 51
29.45184799999999
  0
LINE
  5
A283
330
A136
100
AcDbEntity
  8
1
  6
Continuous
100
AcDbLine
 10
137.425039
 20
217.846142
 30
0.0
 11
137.425039
 21
228.8461419999999
 31
0.0
  0
LINE
  5
A284
330
A136
100
AcDbEntity
  8
1
  6
Continuous
100
AcDbLine
 10
136.9250389999999
 20
229.3461419999999
 30
0.0
 11
136.9250389999999
 21
217.3461419999999
 31
0.0
  0
LINE
  5
A285
330
A136
100
AcDbEntity
  8
1
  6
Continuous
100
AcDbLine
 10
137.6250389999998
 20
217.3461419999999
 30
0.0
 11
139.9250389999999
 21
217.3461419999999
 31
0.0
  0
LINE
  5
A286
330
A136
100
AcDbEntity
  8
1
  6
Continuous
100
AcDbLine
 10
137.425039
 20
218.8461419999999
 30
0.0
 11
137.6250389999998
 21
218.8461419999999
 31
0.0
  0
LINE
  5
A287
330
A136
100
AcDbEntity
  8
1
  6
Continuous
100
AcDbLine
 10
136.9250389999999
 20
217.3461419999999
 30
0.0
 11
133.5250389999999
 21
217.3461419999999
 31
0.0
  0
LINE
  5
A288
330
A136
100
AcDbEntity
  8
1
  6
Continuous
100
AcDbLine
 10
137.425039
 20
217.846142
 30
0.0
 11
136.9250389999999
 21
217.3461419999999
 31
0.0
  0
LINE
  5
A289
330
A136
100
AcDbEntity
  8
1
  6
Continuous
100
AcDbLine
 10
133.5250389999999
 20
217.3461419999999
 30
0.0
 11
132.0250389999999
 21
215.3461419999999
 31
0.0
  0
LINE
  5
A28A
330
A136
100
AcDbEntity
  8
1
  6
Continuous
100
AcDbLine
 10
132.0250389999999
 20
215.3461419999999
 30
0.0
 11
132.0250389999999
 21
218.352396
 31
0.0
  0
LINE
  5
A28B
330
A136
100
AcDbEntity
  8
1
  6
Continuous
100
AcDbLine
 10
173.6902279999999
 20
212.3461419999999
 30
0.0
 11
176.0902279999999
 21
212.3461419999999
 31
0.0
  0
LINE
  5
A28C
330
A136
100
AcDbEntity
  8
1
  6
Continuous
100
AcDbLine
 10
171.0902279999999
 20
210.3461419999999
 30
0.0
 11
172.290228
 21
210.3461419999999
 31
0.0
  0
ARC
  5
A28D
330
A136
100
AcDbEntity
  8
1
  6
Continuous
100
AcDbCircle
 10
173.6902279999999
 20
212.646142
 30
0.0
 40
0.3
100
AcDbArc
 50
180.0
 51
270.0
  0
LINE
  5
A28E
330
A136
100
AcDbEntity
  8
1
  6
Continuous
100
AcDbLine
 10
170.827532
 20
218.5189949999999
 30
0.0
 11
170.4902279999998
 21
218.022783
 31
0.0
  0
LINE
  5
A28F
330
A136
100
AcDbEntity
  8
1
  6
Continuous
100
AcDbLine
 10
172.552924
 20
216.6206489999999
 30
0.0
 11
172.8902279999998
 21
217.116861
 31
0.0
  0
LINE
  5
A290
330
A136
100
AcDbEntity
  8
1
  6
Continuous
100
AcDbLine
 10
170.827532
 20
218.5189949999999
 30
0.0
 11
171.0902279999999
 21
218.340425
 31
0.0
  0
LINE
  5
A291
330
A136
100
AcDbEntity
  8
1
  6
Continuous
100
AcDbLine
 10
172.290228
 20
217.524716
 30
0.0
 11
172.8902279999998
 21
217.116861
 31
0.0
  0
LINE
  5
A292
330
A136
100
AcDbEntity
  8
1
  6
Continuous
100
AcDbLine
 10
170.4902279999998
 20
218.022783
 30
0.0
 11
171.0902279999999
 21
217.614928
 31
0.0
  0
LINE
  5
A293
330
A136
100
AcDbEntity
  8
1
  6
Continuous
100
AcDbLine
 10
172.290228
 20
216.799219
 30
0.0
 11
172.552924
 21
216.6206489999999
 31
0.0
  0
LINE
  5
A294
330
A136
100
AcDbEntity
  8
1
  6
Continuous
100
AcDbLine
 10
170.586807
 20
215.936181
 30
0.0
 11
170.4902279999998
 21
215.5480149999999
 31
0.0
  0
LINE
  5
A295
330
A136
100
AcDbEntity
  8
1
  6
Continuous
100
AcDbLine
 10
172.7936489999999
 20
214.974904
 30
0.0
 11
172.8902279999998
 21
215.3630699999999
 31
0.0
  0
LINE
  5
A296
330
A136
100
AcDbEntity
  8
1
  6
Continuous
100
AcDbLine
 10
170.4902279999998
 20
215.5480149999999
 30
0.0
 11
171.0902279999999
 21
215.3987299999998
 31
0.0
  0
LINE
  5
A297
330
A136
100
AcDbEntity
  8
1
  6
Continuous
100
AcDbLine
 10
172.290228
 20
215.1001599999999
 30
0.0
 11
172.7936489999999
 21
214.974904
 31
0.0
  0
LINE
  5
A298
330
A136
100
AcDbEntity
  8
1
  6
Continuous
100
AcDbLine
 10
170.586807
 20
215.936181
 30
0.0
 11
171.0902279999999
 21
215.8109249999998
 31
0.0
  0
LINE
  5
A299
330
A136
100
AcDbEntity
  8
1
  6
Continuous
100
AcDbLine
 10
172.290228
 20
215.5123549999999
 30
0.0
 11
172.8902279999998
 21
215.3630699999999
 31
0.0
  0
LINE
  5
A29A
330
A136
100
AcDbEntity
  8
1
  6
Continuous
100
AcDbLine
 10
171.0902279999999
 20
218.352396
 30
0.0
 11
171.0726179999998
 21
218.352396
 31
0.0
  0
LINE
  5
A29B
330
A136
100
AcDbEntity
  8
1
  6
Continuous
100
AcDbLine
 10
172.8902279999998
 20
218.352396
 30
0.0
 11
172.290228
 21
218.352396
 31
0.0
  0
ARC
  5
A29C
330
A136
100
AcDbEntity
  8
1
  6
Continuous
100
AcDbCircle
 10
173.1902279999999
 20
213.3008509999999
 30
0.0
 40
0.3
100
AcDbArc
 50
180.0
 51
270.0
  0
LINE
  5
A29D
330
A136
100
AcDbEntity
  8
1
  6
Continuous
100
AcDbLine
 10
173.1902279999999
 20
213.0008509999999
 30
0.0
 11
173.390228
 21
213.0008509999999
 31
0.0
  0
ARC
  5
A29E
330
A136
100
AcDbEntity
  8
1
  6
Continuous
100
AcDbCircle
 10
176.0902279999999
 20
212.646142
 30
0.0
 40
0.3
100
AcDbArc
 50
270.0
 51
0.0
  0
LINE
  5
A29F
330
A136
100
AcDbEntity
  8
1
  6
Continuous
100
AcDbLine
 10
176.390228
 20
213.0008509999999
 30
0.0
 11
176.5902279999999
 21
213.0008509999999
 31
0.0
  0
ARC
  5
A2A0
330
A136
100
AcDbEntity
  8
1
  6
Continuous
100
AcDbCircle
 10
176.5902279999999
 20
213.3008509999999
 30
0.0
 40
0.3
100
AcDbArc
 50
270.0
 51
0.0
  0
LINE
  5
A2A1
330
A136
100
AcDbEntity
  8
1
  6
Continuous
100
AcDbLine
 10
140.9250389999999
 20
226.346142
 30
0.0
 11
139.9250389999999
 21
226.346142
 31
0.0
  0
LINE
  5
A2A2
330
A136
100
AcDbEntity
  8
1
  6
Continuous
100
AcDbLine
 10
140.9250389999999
 20
220.346142
 30
0.0
 11
139.9250389999999
 21
220.346142
 31
0.0
  0
LINE
  5
A2A3
330
A136
100
AcDbEntity
  8
1
  6
Continuous
100
AcDbLine
 10
140.9250389999999
 20
220.346142
 30
0.0
 11
140.9250389999999
 21
226.346142
 31
0.0
  0
LINE
  5
A2A4
330
A136
100
AcDbEntity
  8
1
  6
Continuous
100
AcDbLine
 10
137.425039
 20
227.8461419999999
 30
0.0
 11
137.6250389999998
 21
227.8461419999999
 31
0.0
  0
LINE
  5
A2A5
330
A136
100
AcDbEntity
  8
1
  6
Continuous
100
AcDbLine
 10
136.9250389999999
 20
229.3461419999999
 30
0.0
 11
133.5250389999999
 21
229.3461419999999
 31
0.0
  0
LINE
  5
A2A6
330
A136
100
AcDbEntity
  8
1
  6
Continuous
100
AcDbLine
 10
137.425039
 20
228.8461419999999
 30
0.0
 11
136.9250389999999
 21
229.3461419999999
 31
0.0
  0
LINE
  5
A2A7
330
A136
100
AcDbEntity
  8
1
  6
Continuous
100
AcDbLine
 10
133.5250389999999
 20
229.3461419999999
 30
0.0
 11
132.0250389999999
 21
231.3461419999999
 31
0.0
  0
LINE
  5
A2A8
330
A136
100
AcDbEntity
  8
1
  6
Continuous
100
AcDbLine
 10
132.0250389999999
 20
228.339888
 30
0.0
 11
132.0250389999999
 21
231.3461419999999
 31
0.0
  0
LINE
  5
A2A9
330
A136
100
AcDbEntity
  8
1
  6
Continuous
100
AcDbLine
 10
137.6250389999998
 20
258.3461419999998
 30
0.0
 11
139.9250389999999
 21
258.3461419999998
 31
0.0
  0
LINE
  5
A2AA
330
A136
100
AcDbEntity
  8
4
  6
CENTER
100
AcDbLine
 10
166.0902279999999
 20
223.3461419999999
 30
0.0
 11
181.890228
 21
223.3461419999999
 31
0.0
  0
LINE
  5
A2AB
330
A136
100
AcDbEntity
  8
1
  6
Continuous
100
AcDbLine
 10
173.6902279999999
 20
234.346142
 30
0.0
 11
176.0902279999999
 21
234.346142
 31
0.0
  0
LINE
  5
A2AC
330
A136
100
AcDbEntity
  8
1
  6
Continuous
100
AcDbLine
 10
173.390228
 20
223.3461419999999
 30
0.0
 11
176.390228
 21
223.3461419999999
 31
0.0
  0
ARC
  5
A2AD
330
A136
100
AcDbEntity
  8
1
  6
Continuous
100
AcDbCircle
 10
173.1902279999999
 20
233.3914419999999
 30
0.0
 40
0.3
100
AcDbArc
 50
90.0
 51
180.0
  0
LINE
  5
A2AE
330
A136
100
AcDbEntity
  8
1
  6
Continuous
100
AcDbLine
 10
170.4902279999998
 20
225.8923819999999
 30
0.0
 11
171.0902279999999
 21
225.335242
 31
0.0
  0
LINE
  5
A2AF
330
A136
100
AcDbEntity
  8
1
  6
Continuous
100
AcDbLine
 10
172.290228
 20
225.5856
 30
0.0
 11
172.8902279999998
 21
225.02846
 31
0.0
  0
LINE
  5
A2B0
330
A136
100
AcDbEntity
  8
1
  6
Continuous
100
AcDbLine
 10
171.0902279999999
 20
226.5385399999999
 30
0.0
 11
170.4902279999998
 21
225.8923819999999
 31
0.0
  0
LINE
  5
A2B1
330
A136
100
AcDbEntity
  8
1
  6
Continuous
100
AcDbLine
 10
172.290228
 20
224.3823029999998
 30
0.0
 11
172.8902279999998
 21
225.02846
 31
0.0
  0
LINE
  5
A2B2
330
A136
100
AcDbEntity
  8
1
  6
Continuous
100
AcDbLine
 10
170.827532
 20
230.071634
 30
0.0
 11
170.4902279999998
 21
229.575422
 31
0.0
  0
LINE
  5
A2B3
330
A136
100
AcDbEntity
  8
1
  6
Continuous
100
AcDbLine
 10
172.552924
 20
228.1732879999999
 30
0.0
 11
172.8902279999998
 21
228.6694999999999
 31
0.0
  0
LINE
  5
A2B4
330
A136
100
AcDbEntity
  8
1
  6
Continuous
100
AcDbLine
 10
170.827532
 20
230.071634
 30
0.0
 11
171.0902279999999
 21
229.893064
 31
0.0
  0
LINE
  5
A2B5
330
A136
100
AcDbEntity
  8
1
  6
Continuous
100
AcDbLine
 10
172.290228
 20
229.0773549999999
 30
0.0
 11
172.8902279999998
 21
228.6694999999999
 31
0.0
  0
LINE
  5
A2B6
330
A136
100
AcDbEntity
  8
1
  6
Continuous
100
AcDbLine
 10
170.4902279999998
 20
229.575422
 30
0.0
 11
171.0902279999999
 21
229.1675679999999
 31
0.0
  0
LINE
  5
A2B7
330
A136
100
AcDbEntity
  8
1
  6
Continuous
100
AcDbLine
 10
172.290228
 20
228.3518579999999
 30
0.0
 11
172.552924
 21
228.1732879999999
 31
0.0
  0
LINE
  5
A2B8
330
A136
100
AcDbEntity
  8
1
  6
Continuous
100
AcDbLine
 10
170.586807
 20
231.717379
 30
0.0
 11
170.4902279999998
 21
231.329214
 31
0.0
  0
LINE
  5
A2B9
330
A136
100
AcDbEntity
  8
1
  6
Continuous
100
AcDbLine
 10
172.7936489999999
 20
230.7561029999999
 30
0.0
 11
172.8902279999998
 21
231.144268
 31
0.0
  0
LINE
  5
A2BA
330
A136
100
AcDbEntity
  8
1
  6
Continuous
100
AcDbLine
 10
170.4902279999998
 20
231.329214
 30
0.0
 11
171.0902279999999
 21
231.1799289999999
 31
0.0
  0
LINE
  5
A2BB
330
A136
100
AcDbEntity
  8
1
  6
Continuous
100
AcDbLine
 10
172.290228
 20
230.881358
 30
0.0
 11
172.7936489999999
 21
230.7561029999999
 31
0.0
  0
LINE
  5
A2BC
330
A136
100
AcDbEntity
  8
1
  6
Continuous
100
AcDbLine
 10
170.586807
 20
231.717379
 30
0.0
 11
171.0902279999999
 21
231.592124
 31
0.0
  0
LINE
  5
A2BD
330
A136
100
AcDbEntity
  8
1
  6
Continuous
100
AcDbLine
 10
172.290228
 20
231.2935529999998
 30
0.0
 11
172.8902279999998
 21
231.144268
 31
0.0
  0
LINE
  5
A2BE
330
A136
100
AcDbEntity
  8
1
  6
Continuous
100
AcDbLine
 10
170.4902279999998
 20
221.663823
 30
0.0
 11
171.0902279999999
 21
221.106683
 31
0.0
  0
LINE
  5
A2BF
330
A136
100
AcDbEntity
  8
1
  6
Continuous
100
AcDbLine
 10
172.290228
 20
221.3570409999999
 30
0.0
 11
172.8902279999998
 21
220.7999009999999
 31
0.0
  0
LINE
  5
A2C0
330
A136
100
AcDbEntity
  8
1
  6
Continuous
100
AcDbLine
 10
171.0902279999999
 20
222.3099799999999
 30
0.0
 11
170.4902279999998
 21
221.663823
 31
0.0
  0
LINE
  5
A2C1
330
A136
100
AcDbEntity
  8
1
  6
Continuous
100
AcDbLine
 10
172.290228
 20
220.153744
 30
0.0
 11
172.8902279999998
 21
220.7999009999999
 31
0.0
  0
LINE
  5
A2C2
330
A136
100
AcDbEntity
  8
1
  6
Continuous
100
AcDbLine
 10
172.3078379999998
 20
228.339888
 30
0.0
 11
172.290228
 21
228.339888
 31
0.0
  0
LINE
  5
A2C3
330
A136
100
AcDbEntity
  8
1
  6
Continuous
100
AcDbLine
 10
173.1902279999999
 20
233.6914419999998
 30
0.0
 11
173.390228
 21
233.6914419999998
 31
0.0
  0
ARC
  5
A2C4
330
A136
100
AcDbEntity
  8
1
  6
Continuous
100
AcDbCircle
 10
173.6902279999999
 20
234.046142
 30
0.0
 40
0.3
100
AcDbArc
 50
90.0
 51
180.0
  0
LINE
  5
A2C5
330
A136
100
AcDbEntity
  8
1
  6
Continuous
100
AcDbLine
 10
171.0902279999999
 20
236.3461419999999
 30
0.0
 11
172.290228
 21
236.3461419999999
 31
0.0
  0
LINE
  5
A2C6
330
A136
100
AcDbEntity
  8
1
  6
Continuous
100
AcDbLine
 10
176.390228
 20
233.6914419999998
 30
0.0
 11
176.5902279999999
 21
233.6914419999998
 31
0.0
  0
ARC
  5
A2C7
330
A136
100
AcDbEntity
  8
1
  6
Continuous
100
AcDbCircle
 10
176.5902279999999
 20
233.3914419999999
 30
0.0
 40
0.3
100
AcDbArc
 50
0.0
 51
90.0
  0
ARC
  5
A2C8
330
A136
100
AcDbEntity
  8
1
  6
Continuous
100
AcDbCircle
 10
176.0902279999999
 20
234.046142
 30
0.0
 40
0.3
100
AcDbArc
 50
0.0
 51
90.0
  0
LINE
  5
A2C9
330
A136
100
AcDbEntity
  8
5
  6
PHANTOM
100
AcDbLine
 10
234.160615
 20
185.4529349999999
 30
0.0
 11
240.1606149999998
 21
185.4529349999999
 31
0.0
  0
ARC
  5
A2CA
330
A136
100
AcDbEntity
  8
5
  6
PHANTOM
100
AcDbCircle
 10
234.160615
 20
182.4529349999999
 30
0.0
 40
3.0
100
AcDbArc
 50
90.0
 51
180.0
  0
ARC
  5
A2CB
330
A136
100
AcDbEntity
  8
5
  6
PHANTOM
100
AcDbCircle
 10
240.1606149999998
 20
182.4529349999999
 30
0.0
 40
3.0
100
AcDbArc
 50
0.0
 51
90.0
  0
LINE
  5
A2CC
330
A136
100
AcDbEntity
  8
4
  6
CENTER
100
AcDbLine
 10
330.231003
 20
150.452935
 30
0.0
 11
314.4310029999999
 21
150.452935
 31
0.0
  0
ARC
  5
A2CD
330
A136
100
AcDbEntity
  8
1
  6
Continuous
100
AcDbCircle
 10
269.160615
 20
153.4529349999999
 30
0.0
 40
3.0
100
AcDbArc
 50
0.0
 51
90.0
  0
ARC
  5
A2CE
330
A136
100
AcDbEntity
  8
1
  6
Continuous
100
AcDbCircle
 10
269.160615
 20
147.452935
 30
0.0
 40
3.0
100
AcDbArc
 50
270.0
 51
0.0
  0
LINE
  5
A2CF
330
A136
100
AcDbEntity
  8
1
  6
Continuous
100
AcDbLine
 10
272.1606149999999
 20
153.4529349999999
 30
0.0
 11
272.1606149999999
 21
147.452935
 31
0.0
  0
LINE
  5
A2D0
330
A136
100
AcDbEntity
  8
4
  6
CENTER
100
AcDbLine
 10
381.296192
 20
150.452935
 30
0.0
 11
350.396192
 21
150.452935
 31
0.0
  0
LINE
  5
A2D1
330
A136
100
AcDbEntity
  8
1
  6
Continuous
100
AcDbLine
 10
319.431003
 20
160.4982259999998
 30
0.0
 11
319.431003
 21
140.4076349999999
 31
0.0
  0
LINE
  5
A2D2
330
A136
100
AcDbEntity
  8
1
  6
Continuous
100
AcDbLine
 10
319.9310029999999
 20
162.8546329999998
 30
0.0
 11
319.9310029999999
 21
138.051229
 31
0.0
  0
LINE
  5
A2D3
330
A136
100
AcDbEntity
  8
1
  6
Continuous
100
AcDbLine
 10
322.9310029999999
 20
162.8546329999998
 30
0.0
 11
322.9310029999999
 21
138.051229
 31
0.0
  0
LINE
  5
A2D4
330
A136
100
AcDbEntity
  8
1
  6
Continuous
100
AcDbLine
 10
324.0310029999998
 20
137.4529349999999
 30
0.0
 11
324.0310029999998
 21
163.452935
 31
0.0
  0
LINE
  5
A2D5
330
A136
100
AcDbEntity
  8
1
  6
Continuous
100
AcDbLine
 10
325.2310029999998
 20
137.4529349999999
 30
0.0
 11
325.2310029999998
 21
163.452935
 31
0.0
  0
LINE
  5
A2D6
330
A136
100
AcDbEntity
  8
1
  6
Continuous
100
AcDbLine
 10
323.4310029999999
 20
160.4982259999998
 30
0.0
 11
323.4310029999999
 21
140.4076349999999
 31
0.0
  0
ARC
  5
A2D7
330
A136
100
AcDbEntity
  8
1
  6
Continuous
100
AcDbCircle
 10
319.731003
 20
140.4076349999999
 30
0.0
 40
0.3
100
AcDbArc
 50
180.0
 51
270.0
  0
ARC
  5
A2D8
330
A136
100
AcDbEntity
  8
1
  6
Continuous
100
AcDbCircle
 10
320.231003
 20
138.051229
 30
0.0
 40
0.3
100
AcDbArc
 50
180.0
 51
270.0
  0
LINE
  5
A2D9
330
A136
100
AcDbEntity
  8
1
  6
Continuous
100
AcDbLine
 10
319.9310029999999
 20
140.1076349999999
 30
0.0
 11
319.731003
 21
140.1076349999999
 31
0.0
  0
LINE
  5
A2DA
330
A136
100
AcDbEntity
  8
1
  6
Continuous
100
AcDbLine
 10
323.1310029999999
 20
140.1076349999999
 30
0.0
 11
322.9310029999999
 21
140.1076349999999
 31
0.0
  0
LINE
  5
A2DB
330
A136
100
AcDbEntity
  8
1
  6
Continuous
100
AcDbLine
 10
324.013393
 20
145.4591889999998
 30
0.0
 11
324.0310029999998
 21
145.4591889999998
 31
0.0
  0
LINE
  5
A2DC
330
A136
100
AcDbEntity
  8
1
  6
Continuous
100
AcDbLine
 10
324.0310029999998
 20
153.645333
 30
0.0
 11
323.4310029999999
 21
152.999176
 31
0.0
  0
LINE
  5
A2DD
330
A136
100
AcDbEntity
  8
1
  6
Continuous
100
AcDbLine
 10
325.2310029999998
 20
151.4890969999999
 30
0.0
 11
325.8310029999999
 21
152.135254
 31
0.0
  0
LINE
  5
A2DE
330
A136
100
AcDbEntity
  8
1
  6
Continuous
100
AcDbLine
 10
324.0310029999998
 20
152.442036
 30
0.0
 11
323.4310029999999
 21
152.999176
 31
0.0
  0
LINE
  5
A2DF
330
A136
100
AcDbEntity
  8
1
  6
Continuous
100
AcDbLine
 10
325.8310029999999
 20
152.135254
 30
0.0
 11
325.2310029999998
 21
152.692394
 31
0.0
  0
LINE
  5
A2E0
330
A136
100
AcDbEntity
  8
1
  6
Continuous
100
AcDbLine
 10
324.0310029999998
 20
142.505524
 30
0.0
 11
323.4310029999999
 21
142.654809
 31
0.0
  0
LINE
  5
A2E1
330
A136
100
AcDbEntity
  8
1
  6
Continuous
100
AcDbLine
 10
325.7344240000001
 20
142.0816979999998
 30
0.0
 11
325.2310029999998
 21
142.2069529999999
 31
0.0
  0
LINE
  5
A2E2
330
A136
100
AcDbEntity
  8
1
  6
Continuous
100
AcDbLine
 10
324.0310029999998
 20
142.917719
 30
0.0
 11
323.527582
 21
143.0429739999999
 31
0.0
  0
LINE
  5
A2E3
330
A136
100
AcDbEntity
  8
1
  6
Continuous
100
AcDbLine
 10
325.8310029999999
 20
142.4698629999998
 30
0.0
 11
325.2310029999998
 21
142.6191479999999
 31
0.0
  0
LINE
  5
A2E4
330
A136
100
AcDbEntity
  8
1
  6
Continuous
100
AcDbLine
 10
323.527582
 20
143.0429739999999
 30
0.0
 11
323.4310029999999
 21
142.654809
 31
0.0
  0
LINE
  5
A2E5
330
A136
100
AcDbEntity
  8
1
  6
Continuous
100
AcDbLine
 10
325.7344240000001
 20
142.0816979999998
 30
0.0
 11
325.8310029999999
 21
142.4698629999998
 31
0.0
  0
LINE
  5
A2E6
330
A136
100
AcDbEntity
  8
1
  6
Continuous
100
AcDbLine
 10
324.0310029999998
 20
145.4472189999999
 30
0.0
 11
323.768307
 21
145.625789
 31
0.0
  0
LINE
  5
A2E7
330
A136
100
AcDbEntity
  8
1
  6
Continuous
100
AcDbLine
 10
325.8310029999999
 20
144.223655
 30
0.0
 11
325.2310029999998
 21
144.6315089999999
 31
0.0
  0
LINE
  5
A2E8
330
A136
100
AcDbEntity
  8
1
  6
Continuous
100
AcDbLine
 10
324.0310029999998
 20
144.7217219999998
 30
0.0
 11
323.4310029999999
 21
145.129577
 31
0.0
  0
LINE
  5
A2E9
330
A136
100
AcDbEntity
  8
1
  6
Continuous
100
AcDbLine
 10
325.493699
 20
143.7274429999999
 30
0.0
 11
325.2310029999998
 21
143.906013
 31
0.0
  0
LINE
  5
A2EA
330
A136
100
AcDbEntity
  8
1
  6
Continuous
100
AcDbLine
 10
323.768307
 20
145.625789
 30
0.0
 11
323.4310029999999
 21
145.129577
 31
0.0
  0
LINE
  5
A2EB
330
A136
100
AcDbEntity
  8
1
  6
Continuous
100
AcDbLine
 10
325.493699
 20
143.7274429999999
 30
0.0
 11
325.8310029999999
 21
144.223655
 31
0.0
  0
LINE
  5
A2EC
330
A136
100
AcDbEntity
  8
1
  6
Continuous
100
AcDbLine
 10
324.0310029999998
 20
149.4167739999998
 30
0.0
 11
323.4310029999999
 21
148.7706169999998
 31
0.0
  0
LINE
  5
A2ED
330
A136
100
AcDbEntity
  8
1
  6
Continuous
100
AcDbLine
 10
325.2310029999998
 20
147.2605369999999
 30
0.0
 11
325.8310029999999
 21
147.9066949999999
 31
0.0
  0
LINE
  5
A2EE
330
A136
100
AcDbEntity
  8
1
  6
Continuous
100
AcDbLine
 10
324.0310029999998
 20
148.213477
 30
0.0
 11
323.4310029999999
 21
148.7706169999998
 31
0.0
  0
LINE
  5
A2EF
330
A136
100
AcDbEntity
  8
1
  6
Continuous
100
AcDbLine
 10
325.8310029999999
 20
147.9066949999999
 30
0.0
 11
325.2310029999998
 21
148.4638349999999
 31
0.0
  0
LINE
  5
A2F0
330
A136
100
AcDbEntity
  8
1
  6
Continuous
100
AcDbLine
 10
325.2310029999998
 20
137.4529349999999
 30
0.0
 11
324.0310029999998
 21
137.4529349999999
 31
0.0
  0
ARC
  5
A2F1
330
A136
100
AcDbEntity
  8
1
  6
Continuous
100
AcDbCircle
 10
323.1310029999999
 20
140.4076349999999
 30
0.0
 40
0.3
100
AcDbArc
 50
270.0
 51
0.0
  0
ARC
  5
A2F2
330
A136
100
AcDbEntity
  8
1
  6
Continuous
100
AcDbCircle
 10
322.6310029999999
 20
138.051229
 30
0.0
 40
0.3
100
AcDbArc
 50
270.0
 51
0.0
  0
LINE
  5
A2F3
330
A136
100
AcDbEntity
  8
1
  6
Continuous
100
AcDbLine
 10
322.9310029999999
 20
144.102082
 30
0.0
 11
319.9310029999999
 21
144.102082
 31
0.0
  0
LINE
  5
A2F4
330
A136
100
AcDbEntity
  8
1
  6
Continuous
100
AcDbLine
 10
322.6310029999999
 20
137.751229
 30
0.0
 11
320.231003
 21
137.751229
 31
0.0
  0
ARC
  5
A2F5
330
A136
100
AcDbEntity
  8
1
  6
Continuous
100
AcDbCircle
 10
319.731003
 20
160.4982259999998
 30
0.0
 40
0.3
100
AcDbArc
 50
90.0
 51
180.0
  0
LINE
  5
A2F6
330
A136
100
AcDbEntity
  8
1
  6
Continuous
100
AcDbLine
 10
319.9310029999999
 20
160.7982259999998
 30
0.0
 11
319.731003
 21
160.7982259999998
 31
0.0
  0
ARC
  5
A2F7
330
A136
100
AcDbEntity
  8
1
  6
Continuous
100
AcDbCircle
 10
320.231003
 20
162.8546329999998
 30
0.0
 40
0.3
100
AcDbArc
 50
90.0
 51
180.0
  0
LINE
  5
A2F8
330
A136
100
AcDbEntity
  8
1
  6
Continuous
100
AcDbLine
 10
323.1310029999999
 20
160.7982259999998
 30
0.0
 11
322.9310029999999
 21
160.7982259999998
 31
0.0
  0
ARC
  5
A2F9
330
A136
100
AcDbEntity
  8
1
  6
Continuous
100
AcDbCircle
 10
323.1310029999999
 20
160.4982259999998
 30
0.0
 40
0.3
100
AcDbArc
 50
0.0
 51
90.0
  0
LINE
  5
A2FA
330
A136
100
AcDbEntity
  8
1
  6
Continuous
100
AcDbLine
 10
325.2310029999998
 20
163.452935
 30
0.0
 11
324.0310029999998
 21
163.452935
 31
0.0
  0
ARC
  5
A2FB
330
A136
100
AcDbEntity
  8
1
  6
Continuous
100
AcDbCircle
 10
322.6310029999999
 20
162.8546329999998
 30
0.0
 40
0.3
100
AcDbArc
 50
0.0
 51
90.0
  0
LINE
  5
A2FC
330
A136
100
AcDbEntity
  8
1
  6
Continuous
100
AcDbLine
 10
322.6310029999999
 20
163.1546329999999
 30
0.0
 11
320.231003
 21
163.1546329999999
 31
0.0
  0
LINE
  5
A2FD
330
A136
100
AcDbEntity
  8
1
  6
Continuous
100
AcDbLine
 10
323.4310029999999
 20
155.446681
 30
0.0
 11
324.0310029999998
 21
155.446681
 31
0.0
  0
LINE
  5
A2FE
330
A136
100
AcDbEntity
  8
1
  6
Continuous
100
AcDbLine
 10
325.2310029999998
 20
155.446681
 30
0.0
 11
325.2486129999998
 21
155.446681
 31
0.0
  0
LINE
  5
A2FF
330
A136
100
AcDbEntity
  8
1
  6
Continuous
100
AcDbLine
 10
324.0310029999998
 20
158.2867219999999
 30
0.0
 11
323.4310029999999
 21
158.4360069999999
 31
0.0
  0
LINE
  5
A300
330
A136
100
AcDbEntity
  8
1
  6
Continuous
100
AcDbLine
 10
325.7344240000001
 20
157.862896
 30
0.0
 11
325.2310029999998
 21
157.988152
 31
0.0
  0
LINE
  5
A301
330
A136
100
AcDbEntity
  8
1
  6
Continuous
100
AcDbLine
 10
324.0310029999998
 20
158.698917
 30
0.0
 11
323.527582
 21
158.824173
 31
0.0
  0
LINE
  5
A302
330
A136
100
AcDbEntity
  8
1
  6
Continuous
100
AcDbLine
 10
325.8310029999999
 20
158.2510619999999
 30
0.0
 11
325.2310029999998
 21
158.400347
 31
0.0
  0
LINE
  5
A303
330
A136
100
AcDbEntity
  8
1
  6
Continuous
100
AcDbLine
 10
323.527582
 20
158.824173
 30
0.0
 11
323.4310029999999
 21
158.4360069999999
 31
0.0
  0
LINE
  5
A304
330
A136
100
AcDbEntity
  8
1
  6
Continuous
100
AcDbLine
 10
325.7344240000001
 20
157.862896
 30
0.0
 11
325.8310029999999
 21
158.2510619999999
 31
0.0
  0
LINE
  5
A305
330
A136
100
AcDbEntity
  8
1
  6
Continuous
100
AcDbLine
 10
324.0310029999998
 20
156.999858
 30
0.0
 11
323.768307
 21
157.1784279999999
 31
0.0
  0
LINE
  5
A306
330
A136
100
AcDbEntity
  8
1
  6
Continuous
100
AcDbLine
 10
325.8310029999999
 20
155.776294
 30
0.0
 11
325.2310029999998
 21
156.1841489999999
 31
0.0
  0
LINE
  5
A307
330
A136
100
AcDbEntity
  8
1
  6
Continuous
100
AcDbLine
 10
324.0310029999998
 20
156.274361
 30
0.0
 11
323.4310029999999
 21
156.6822159999999
 31
0.0
  0
LINE
  5
A308
330
A136
100
AcDbEntity
  8
1
  6
Continuous
100
AcDbLine
 10
325.493699
 20
155.2800819999999
 30
0.0
 11
325.2310029999998
 21
155.4586519999998
 31
0.0
  0
LINE
  5
A309
330
A136
100
AcDbEntity
  8
1
  6
Continuous
100
AcDbLine
 10
323.768307
 20
157.1784279999999
 30
0.0
 11
323.4310029999999
 21
156.6822159999999
 31
0.0
  0
LINE
  5
A30A
330
A136
100
AcDbEntity
  8
1
  6
Continuous
100
AcDbLine
 10
325.493699
 20
155.2800819999999
 30
0.0
 11
325.8310029999999
 21
155.776294
 31
0.0
  0
LINE
  5
A30B
330
A136
100
AcDbEntity
  8
1
  6
Continuous
100
AcDbLine
 10
322.9310029999999
 20
156.803788
 30
0.0
 11
319.9310029999999
 21
156.803788
 31
0.0
  0
LINE
  5
A30C
330
A136
100
AcDbEntity
  8
1
  6
Continuous
100
AcDbLine
 10
358.696192
 20
156.4529349999999
 30
0.0
 11
358.696192
 21
144.452935
 31
0.0
  0
LINE
  5
A30D
330
A136
100
AcDbEntity
  8
1
  6
Continuous
100
AcDbLine
 10
356.396192
 20
156.4529349999999
 30
0.0
 11
356.396192
 21
144.452935
 31
0.0
  0
LINE
  5
A30E
330
A136
100
AcDbEntity
  8
1
  6
Continuous
100
AcDbLine
 10
358.896192
 20
155.952935
 30
0.0
 11
358.896192
 21
144.9529349999999
 31
0.0
  0
LINE
  5
A30F
330
A136
100
AcDbEntity
  8
1
  6
Continuous
100
AcDbLine
 10
359.3961919999999
 20
144.452935
 30
0.0
 11
359.3961919999999
 21
156.4529349999999
 31
0.0
  0
LINE
  5
A310
330
A136
100
AcDbEntity
  8
1
  6
Continuous
100
AcDbLine
 10
362.796192
 20
156.702935
 30
0.0
 11
362.796192
 21
144.202935
 31
0.0
  0
LINE
  5
A311
330
A136
100
AcDbEntity
  8
1
  6
Continuous
100
AcDbLine
 10
373.296192
 20
160.4529349999999
 30
0.0
 11
373.296192
 21
140.4529349999999
 31
0.0
  0
LINE
  5
A312
330
A136
100
AcDbEntity
  8
1
  6
Continuous
100
AcDbLine
 10
372.296192
 20
160.4529349999999
 30
0.0
 11
372.296192
 21
140.4529349999999
 31
0.0
  0
LINE
  5
A313
330
A136
100
AcDbEntity
  8
1
  6
Continuous
100
AcDbLine
 10
376.296192
 20
158.29238
 30
0.0
 11
376.296192
 21
142.6134899999999
 31
0.0
  0
LINE
  5
A314
330
A136
100
AcDbEntity
  8
1
  6
Continuous
100
AcDbLine
 10
372.296192
 20
144.202935
 30
0.0
 11
362.796192
 21
144.202935
 31
0.0
  0
LINE
  5
A315
330
A136
100
AcDbEntity
  8
1
  6
Continuous
100
AcDbLine
 10
355.3961919999999
 20
153.4529349999999
 30
0.0
 11
355.3961919999999
 21
147.452935
 31
0.0
  0
LINE
  5
A316
330
A136
100
AcDbEntity
  8
1
  6
Continuous
100
AcDbLine
 10
355.3961919999999
 20
153.4529349999999
 30
0.0
 11
356.396192
 21
153.4529349999999
 31
0.0
  0
LINE
  5
A317
330
A136
100
AcDbEntity
  8
1
  6
Continuous
100
AcDbLine
 10
355.3961919999999
 20
147.452935
 30
0.0
 11
356.396192
 21
147.452935
 31
0.0
  0
LINE
  5
A318
330
A136
100
AcDbEntity
  8
1
  6
Continuous
100
AcDbLine
 10
358.696192
 20
144.452935
 30
0.0
 11
356.396192
 21
144.452935
 31
0.0
  0
LINE
  5
A319
330
A136
100
AcDbEntity
  8
1
  6
Continuous
100
AcDbLine
 10
359.3961919999999
 20
144.452935
 30
0.0
 11
362.796192
 21
144.452935
 31
0.0
  0
LINE
  5
A31A
330
A136
100
AcDbEntity
  8
1
  6
Continuous
100
AcDbLine
 10
358.896192
 20
145.9529349999999
 30
0.0
 11
358.696192
 21
145.9529349999999
 31
0.0
  0
LINE
  5
A31B
330
A136
100
AcDbEntity
  8
1
  6
Continuous
100
AcDbLine
 10
358.896192
 20
144.9529349999999
 30
0.0
 11
359.3961919999999
 21
144.452935
 31
0.0
  0
ARC
  5
A31C
330
A136
100
AcDbEntity
  8
1
  6
Continuous
100
AcDbCircle
 10
375.996192
 20
142.6134899999999
 30
0.0
 40
0.3
100
AcDbArc
 50
303.690068
 51
0.0
  0
LINE
  5
A31D
330
A136
100
AcDbEntity
  8
1
  6
Continuous
100
AcDbLine
 10
373.296192
 20
140.4529349999999
 30
0.0
 11
372.296192
 21
140.4529349999999
 31
0.0
  0
LINE
  5
A31E
330
A136
100
AcDbEntity
  8
1
  6
Continuous
100
AcDbLine
 10
373.296192
 20
140.4529349999999
 30
0.0
 11
376.162602
 21
142.363874
 31
0.0
  0
LINE
  5
A31F
330
A136
100
AcDbEntity
  8
1
  6
Continuous
100
AcDbLine
 10
372.296192
 20
156.702935
 30
0.0
 11
362.796192
 21
156.702935
 31
0.0
  0
LINE
  5
A320
330
A136
100
AcDbEntity
  8
1
  6
Continuous
100
AcDbLine
 10
358.696192
 20
156.4529349999999
 30
0.0
 11
356.396192
 21
156.4529349999999
 31
0.0
  0
LINE
  5
A321
330
A136
100
AcDbEntity
  8
1
  6
Continuous
100
AcDbLine
 10
359.3961919999999
 20
156.4529349999999
 30
0.0
 11
362.796192
 21
156.4529349999999
 31
0.0
  0
LINE
  5
A322
330
A136
100
AcDbEntity
  8
1
  6
Continuous
100
AcDbLine
 10
358.896192
 20
154.952935
 30
0.0
 11
358.696192
 21
154.952935
 31
0.0
  0
LINE
  5
A323
330
A136
100
AcDbEntity
  8
1
  6
Continuous
100
AcDbLine
 10
358.896192
 20
155.952935
 30
0.0
 11
359.3961919999999
 21
156.4529349999999
 31
0.0
  0
ARC
  5
A324
330
A136
100
AcDbEntity
  8
1
  6
Continuous
100
AcDbCircle
 10
375.996192
 20
158.29238
 30
0.0
 40
0.3
100
AcDbArc
 50
0.0
 51
56.30993199999998
  0
LINE
  5
A325
330
A136
100
AcDbEntity
  8
1
  6
Continuous
100
AcDbLine
 10
373.296192
 20
160.4529349999999
 30
0.0
 11
372.296192
 21
160.4529349999999
 31
0.0
  0
LINE
  5
A326
330
A136
100
AcDbEntity
  8
1
  6
Continuous
100
AcDbLine
 10
373.296192
 20
160.4529349999999
 30
0.0
 11
376.162602
 21
158.5419949999999
 31
0.0
  0
ENDSEC
  0
SECTION
  2
OBJECTS
  0
DICTIONARY
  5
A124
330
0
100
AcDbDictionary
281
     1
  3
ACAD_CIP_PREVIOUS_PRODUCT_INFO
350
A38A
  3
ACAD_COLOR
350
A36C
  3
ACAD_DETAILVIEWSTYLE
350
A385
  3
ACAD_GROUP
350
A125
  3
ACAD_LAYOUT
350
A131
  3
ACAD_MATERIAL
350
A33A
  3
ACAD_MLEADERSTYLE
350
A381
  3
ACAD_MLINESTYLE
350
A12E
  3
ACAD_PLOTSETTINGS
350
A130
  3
ACAD_PLOTSTYLENAME
350
A338
  3
ACAD_SCALELIST
350
A36F
  3
ACAD_SECTIONVIEWSTYLE
350
A383
  3
ACAD_TABLESTYLE
350
A36D
  3
ACAD_VISUALSTYLE
350
A353
  3
ACDB_RECOMPOSE_DATA
350
A3A8
  3
AcDbVariableDictionary
350
A39B
  3
DWGPROPS
350
A3A9
  0
DICTIONARY
  5
A38B
330
A128
100
AcDbDictionary
280
     1
281
     1
  3
ADSK_XREC_LAYER_RECONCILED
360
A38C
  0
DICTIONARY
  5
A38D
330
A13E
100
AcDbDictionary
280
     1
281
     1
  3
ADSK_XREC_LAYER_RECONCILED
360
A38E
  0
DICTIONARY
  5
A38F
330
A13F
100
AcDbDictionary
280
     1
281
     1
  3
ADSK_XREC_LAYER_RECONCILED
360
A390
  0
DICTIONARY
  5
A391
330
A140
100
AcDbDictionary
280
     1
281
     1
  3
ADSK_XREC_LAYER_RECONCILED
360
A392
  0
DICTIONARY
  5
A393
330
A141
100
AcDbDictionary
280
     1
281
     1
  3
ADSK_XREC_LAYER_RECONCILED
360
A394
  0
DICTIONARY
  5
A395
330
A142
100
AcDbDictionary
280
     1
281
     1
  3
ADSK_XREC_LAYER_RECONCILED
360
A396
  0
DICTIONARY
  5
A397
330
A143
100
AcDbDictionary
280
     1
281
     1
  3
ADSK_XREC_LAYER_RECONCILED
360
A398
  0
DICTIONARY
  5
A399
330
A144
100
AcDbDictionary
280
     1
281
     1
  3
ADSK_XREC_LAYER_RECONCILED
360
A39A
  0
DICTIONARY
  5
A333
330
A136
100
AcDbDictionary
281
     1
  3
ACAD_LAYOUTSELFREF
350
A334
  0
DICTIONARY
  5
A331
330
A132
100
AcDbDictionary
281
     1
  3
ACAD_LAYOUTSELFREF
350
A332
  0
XRECORD
  5
A38A
102
{ACAD_REACTORS
330
A124
102
}
330
A124
100
AcDbXrecord
280
     1
300
ACDLT
300
2014
300
ACDLT_F_S
  0
DICTIONARY
  5
A36C
102
{ACAD_REACTORS
330
A124
102
}
330
A124
100
AcDbDictionary
281
     1
  0
DICTIONARY
  5
A385
102
{ACAD_REACTORS
330
A124
102
}
330
A124
100
AcDbDictionary
281
     1
  3
Imperial24
350
A386
  0
DICTIONARY
  5
A125
102
{ACAD_REACTORS
330
A124
102
}
330
A124
100
AcDbDictionary
281
     1
  0
DICTIONARY
  5
A131
102
{ACAD_REACTORS
330
A124
102
}
330
A124
100
AcDbDictionary
281
     1
  3
Model
350
A387
  3
レイアウト1
350
A388
  0
DICTIONARY
  5
A33A
102
{ACAD_REACTORS
330
A124
102
}
330
A124
100
AcDbDictionary
281
     1
  3
ByBlock
350
A343
  3
ByLayer
350
A33B
  3
Global
350
A34B
  0
DICTIONARY
  5
A381
102
{ACAD_REACTORS
330
A124
102
}
330
A124
100
AcDbDictionary
281
     1
  3
Standard
350
A382
  0
DICTIONARY
  5
A12E
102
{ACAD_REACTORS
330
A124
102
}
330
A124
100
AcDbDictionary
281
     1
  3
STANDARD
350
A12F
  0
DICTIONARY
  5
A130
102
{ACAD_REACTORS
330
A124
102
}
330
A124
100
AcDbDictionary
281
     1
  0
ACDBDICTIONARYWDFLT
  5
A338
102
{ACAD_REACTORS
330
A124
102
}
330
A124
100
AcDbDictionary
281
     1
  3
Normal
350
A339
100
AcDbDictionaryWithDefault
340
A339
  0
DICTIONARY
  5
A36F
102
{ACAD_REACTORS
330
A124
102
}
330
A124
100
AcDbDictionary
281
     1
  3
A0
350
A370
  3
A1
350
A371
  3
A2
350
A372
  3
A3
350
A373
  3
A4
350
A374
  3
A5
350
A375
  3
A6
350
A376
  3
A7
350
A377
  3
A8
350
A378
  3
A9
350
A379
  3
B0
350
A37A
  3
B1
350
A37B
  3
B2
350
A37C
  3
B3
350
A37D
  3
B4
350
A37E
  3
B5
350
A37F
  3
B6
350
A380
  0
DICTIONARY
  5
A383
102
{ACAD_REACTORS
330
A124
102
}
330
A124
100
AcDbDictionary
281
     1
  3
Imperial24
350
A384
  0
DICTIONARY
  5
A36D
102
{ACAD_REACTORS
330
A124
102
}
330
A124
100
AcDbDictionary
281
     1
  3
Standard
350
A36E
  0
DICTIONARY
  5
A353
102
{ACAD_REACTORS
330
A124
102
}
330
A124
100
AcDbDictionary
281
     1
  3
2dWireframe
350
A359
  3
Basic
350
A358
  3
Brighten
350
A35F
  3
ColorChange
350
A363
  3
Conceptual
350
A35C
  3
Dim
350
A35E
  3
EdgeColorOff
350
A36B
  3
Facepattern
350
A362
  3
Flat
350
A354
  3
FlatWithEdges
350
A355
  3
Gouraud
350
A356
  3
GouraudWithEdges
350
A357
  3
Hidden
350
A35B
  3
JitterOff
350
A369
  3
Linepattern
350
A361
  3
OverhangOff
350
A36A
  3
Realistic
350
A35D
  3
Shaded
350
A368
  3
Shaded with edges
350
A367
  3
Shades of Gray
350
A364
  3
Sketchy
350
A365
  3
Thicken
350
A360
  3
Wireframe
350
A35A
  3
X-Ray
350
A366
  0
XRECORD
  5
A3A8
102
{ACAD_REACTORS
330
A124
102
}
330
A124
100
AcDbXrecord
280
     1
 90
        1
330
A36E
  0
DICTIONARY
  5
A39B
102
{ACAD_REACTORS
330
A124
102
}
330
A124
100
AcDbDictionary
281
     1
  3
CANNOSCALE
350
A3A0
  3
CMLEADERSTYLE
350
A39D
  3
CTABLESTYLE
350
A39C
  3
CVIEWDETAILSTYLE
350
A39E
  3
CVIEWSECTIONSTYLE
350
A39F
  3
DIMASSOC
350
A3A3
  3
INDEXCTL
350
A3A2
  3
SORTENTS
350
A3A1
  3
XCLIPFRAME
350
A3A4
  0
XRECORD
  5
A3A9
102
{ACAD_REACTORS
330
A124
102
}
330
A124
100
AcDbXrecord
280
     1
  1
DWGPROPS COOKIE
  2

  3

  4

  6

  7

  8
Yoshitsune
  9

300
=
301
=
302
=
303
=
304
=
305
=
306
=
307
=
308
=
309
=
 40
0.0000139930555556
 41
2451345.467816435
 42
2457192.60132963
  1

 90
        0
  0
XRECORD
  5
A38C
102
{ACAD_REACTORS
330
A38B
102
}
330
A38B
100
AcDbXrecord
280
     1
290
     1
  0
XRECORD
  5
A38E
102
{ACAD_REACTORS
330
A38D
102
}
330
A38D
100
AcDbXrecord
280
     1
290
     1
  0
XRECORD
  5
A390
102
{ACAD_REACTORS
330
A38F
102
}
330
A38F
100
AcDbXrecord
280
     1
290
     1
  0
XRECORD
  5
A392
102
{ACAD_REACTORS
330
A391
102
}
330
A391
100
AcDbXrecord
280
     1
290
     1
  0
XRECORD
  5
A394
102
{ACAD_REACTORS
330
A393
102
}
330
A393
100
AcDbXrecord
280
     1
290
     1
  0
XRECORD
  5
A396
102
{ACAD_REACTORS
330
A395
102
}
330
A395
100
AcDbXrecord
280
     1
290
     1
  0
XRECORD
  5
A398
102
{ACAD_REACTORS
330
A397
102
}
330
A397
100
AcDbXrecord
280
     1
290
     1
  0
XRECORD
  5
A39A
102
{ACAD_REACTORS
330
A399
102
}
330
A399
100
AcDbXrecord
280
     1
290
     1
  0
XRECORD
  5
A334
102
{ACAD_REACTORS
330
A333
102
}
330
A333
100
AcDbXrecord
280
     1
340
A136
  0
XRECORD
  5
A332
102
{ACAD_REACTORS
330
A331
102
}
330
A331
100
AcDbXrecord
280
     1
340
A132
  0
ACDBDETAILVIEWSTYLE
  5
A386
102
{ACAD_XDICTIONARY
360
A3E1
102
}
102
{ACAD_REACTORS
330
A385
102
}
330
A385
100
AcDbModelDocViewStyle
 70
     0
  3
Imperial24
290
     0
100
AcDbDetailViewStyle
 70
     0
 71
     0
 90
        3
 71
     1
340
A129
 40
0.24
340
0
 40
0.24
300

 40
0.36
280
     3
 71
     2
340
A12D
 90
       25
 71
     3
340
A129
 40
0.24
 90
        1
 40
0.75
 90
        1
300
%<\AcVar ViewType \f "%tc1">% %<\AcVar ViewDetailId>%\PSCALE %<\AcVar ViewScale \f "%sn">%
 71
     4
340
A12D
 90
       25
340
A12D
 90
       25
280
     0
  0
LAYOUT
  5
A387
102
{ACAD_XDICTIONARY
360
A3E3
102
}
102
{ACAD_REACTORS
330
A131
102
}
330
A131
100
AcDbPlotSettings
  1

  2
Canon LBP9100C
  4

  6

 40
0.0
 41
0.0
 42
0.0
 43
0.0
 44
0.0
 45
0.0
 46
0.0
 47
0.0
 48
0.0
 49
0.0
140
0.0
141
0.0
142
1.0
143
1.0
 70
  1712
 72
     0
 73
     0
 74
     0
  7

 75
     0
147
1.0
148
0.0
149
0.0
100
AcDbLayout
  1
Model
 70
     1
 71
     0
 10
0.0
 20
0.0
 11
12.0
 21
9.0
 12
0.0
 22
0.0
 32
0.0
 14
0.0
 24
0.0
 34
0.0
 15
0.0
 25
0.0
 35
0.0
146
0.0
 13
0.0
 23
0.0
 33
0.0
 16
1.0
 26
0.0
 36
0.0
 17
0.0
 27
1.0
 37
0.0
 76
     0
330
A136
331
A330
  0
LAYOUT
  5
A388
102
{ACAD_XDICTIONARY
360
A3E5
102
}
102
{ACAD_REACTORS
330
A131
102
}
330
A131
100
AcDbPlotSettings
  1

  2
Canon LBP9100C
  4

  6

 40
0.0
 41
0.0
 42
0.0
 43
0.0
 44
0.0
 45
0.0
 46
0.0
 47
0.0
 48
0.0
 49
0.0
140
0.0
141
0.0
142
1.0
143
1.0
 70
   688
 72
     0
 73
     0
 74
     5
  7

 75
    16
147
1.0
148
0.0
149
0.0
100
AcDbLayout
  1
レイアウト1
 70
     0
 71
     1
 10
0.0
 20
0.0
 11
420.0
 21
297.0
 12
0.0
 22
0.0
 32
0.0
 14
1.000000000000000E+20
 24
1.000000000000000E+20
 34
1.000000000000000E+20
 15
-1.000000000000000E+20
 25
-1.000000000000000E+20
 35
-1.000000000000000E+20
146
0.0
 13
0.0
 23
0.0
 33
0.0
 16
1.0
 26
0.0
 36
0.0
 17
0.0
 27
1.0
 37
0.0
 76
     0
330
A132
  0
MATERIAL
  5
A343
102
{ACAD_XDICTIONARY
360
A344
102
}
102
{ACAD_REACTORS
330
A33A
102
}
330
A33A
100
AcDbMaterial
  1
ByBlock
 72
     0
 43
0.0208333333333333
 43
0.0
 43
0.0
 43
0.0
 43
0.0
 43
0.0208333333333333
 43
0.0
 43
0.0
 43
0.0
 43
0.0
 43
1.0
 43
0.0
 43
0.0
 43
0.0
 43
0.0
 43
1.0
 77
     0
 47
0.0208333333333333
 47
0.0
 47
0.0
 47
0.0
 47
0.0
 47
0.0208333333333333
 47
0.0
 47
0.0
 47
0.0
 47
0.0
 47
1.0
 47
0.0
 47
0.0
 47
0.0
 47
0.0
 47
1.0
171
     0
 49
0.0208333333333333
 49
0.0
 49
0.0
 49
0.0
 49
0.0
 49
0.0208333333333333
 49
0.0
 49
0.0
 49
0.0
 49
0.0
 49
1.0
 49
0.0
 49
0.0
 49
0.0
 49
0.0
 49
1.0
175
     0
142
0.0208333333333333
142
0.0
142
0.0
142
0.0
142
0.0
142
0.0208333333333333
142
0.0
142
0.0
142
0.0
142
0.0
142
1.0
142
0.0
142
0.0
142
0.0
142
0.0
142
1.0
179
     0
144
0.0208333333333333
144
0.0
144
0.0
144
0.0
144
0.0
144
0.0208333333333333
144
0.0
144
0.0
144
0.0
144
0.0
144
1.0
144
0.0
144
0.0
144
0.0
144
0.0
144
1.0
147
0.0208333333333333
147
0.0
147
0.0
147
0.0
147
0.0
147
0.0208333333333333
147
0.0
147
0.0
147
0.0
147
0.0
147
1.0
147
0.0
147
0.0
147
0.0
147
0.0
147
1.0
  0
MATERIAL
  5
A33B
102
{ACAD_XDICTIONARY
360
A33C
102
}
102
{ACAD_REACTORS
330
A33A
102
}
330
A33A
100
AcDbMaterial
  1
ByLayer
 72
     0
 43
0.0208333333333333
 43
0.0
 43
0.0
 43
0.0
 43
0.0
 43
0.0208333333333333
 43
0.0
 43
0.0
 43
0.0
 43
0.0
 43
1.0
 43
0.0
 43
0.0
 43
0.0
 43
0.0
 43
1.0
 77
     0
 47
0.0208333333333333
 47
0.0
 47
0.0
 47
0.0
 47
0.0
 47
0.0208333333333333
 47
0.0
 47
0.0
 47
0.0
 47
0.0
 47
1.0
 47
0.0
 47
0.0
 47
0.0
 47
0.0
 47
1.0
171
     0
 49
0.0208333333333333
 49
0.0
 49
0.0
 49
0.0
 49
0.0
 49
0.0208333333333333
 49
0.0
 49
0.0
 49
0.0
 49
0.0
 49
1.0
 49
0.0
 49
0.0
 49
0.0
 49
0.0
 49
1.0
175
     0
142
0.0208333333333333
142
0.0
142
0.0
142
0.0
142
0.0
142
0.0208333333333333
142
0.0
142
0.0
142
0.0
142
0.0
142
1.0
142
0.0
142
0.0
142
0.0
142
0.0
142
1.0
179
     0
144
0.0208333333333333
144
0.0
144
0.0
144
0.0
144
0.0
144
0.0208333333333333
144
0.0
144
0.0
144
0.0
144
0.0
144
1.0
144
0.0
144
0.0
144
0.0
144
0.0
144
1.0
147
0.0208333333333333
147
0.0
147
0.0
147
0.0
147
0.0
147
0.0208333333333333
147
0.0
147
0.0
147
0.0
147
0.0
147
1.0
147
0.0
147
0.0
147
0.0
147
0.0
147
1.0
  0
MATERIAL
  5
A34B
102
{ACAD_XDICTIONARY
360
A34C
102
}
102
{ACAD_REACTORS
330
A33A
102
}
330
A33A
100
AcDbMaterial
  1
Global
 72
     0
 43
0.0208333333333333
 43
0.0
 43
0.0
 43
0.0
 43
0.0
 43
0.0208333333333333
 43
0.0
 43
0.0
 43
0.0
 43
0.0
 43
1.0
 43
0.0
 43
0.0
 43
0.0
 43
0.0
 43
1.0
 77
     0
 47
0.0208333333333333
 47
0.0
 47
0.0
 47
0.0
 47
0.0
 47
0.0208333333333333
 47
0.0
 47
0.0
 47
0.0
 47
0.0
 47
1.0
 47
0.0
 47
0.0
 47
0.0
 47
0.0
 47
1.0
171
     0
 49
0.0208333333333333
 49
0.0
 49
0.0
 49
0.0
 49
0.0
 49
0.0208333333333333
 49
0.0
 49
0.0
 49
0.0
 49
0.0
 49
1.0
 49
0.0
 49
0.0
 49
0.0
 49
0.0
 49
1.0
175
     0
142
0.0208333333333333
142
0.0
142
0.0
142
0.0
142
0.0
142
0.0208333333333333
142
0.0
142
0.0
142
0.0
142
0.0
142
1.0
142
0.0
142
0.0
142
0.0
142
0.0
142
1.0
179
     0
144
0.0208333333333333
144
0.0
144
0.0
144
0.0
144
0.0
144
0.0208333333333333
144
0.0
144
0.0
144
0.0
144
0.0
144
1.0
144
0.0
144
0.0
144
0.0
144
0.0
144
1.0
147
0.0208333333333333
147
0.0
147
0.0
147
0.0
147
0.0
147
0.0208333333333333
147
0.0
147
0.0
147
0.0
147
0.0
147
1.0
147
0.0
147
0.0
147
0.0
147
0.0
147
1.0
  0
MLEADERSTYLE
  5
A382
102
{ACAD_REACTORS
330
A381
102
}
330
A381
100
AcDbMLeaderStyle
170
     2
171
     1
172
     0
 90
        2
 40
0.0
 41
0.0
173
     1
 91
-1056964608
340
A12B
 92
       -2
290
     1
 42
0.09
291
     1
 43
0.36
  3
Standard
 44
0.18
300

342
A129
174
     1
178
     6
175
     1
176
     0
 93
-1056964608
 45
0.18
292
     0
297
     0
 46
0.18
 94
-1056964608
 47
1.0
 49
1.0
140
1.0
293
     1
141
0.0
294
     1
177
     0
142
1.0
295
     0
296
     0
143
0.125
1001
ACAD_MLEADERVER
1070
     2
  0
MLINESTYLE
  5
A12F
102
{ACAD_REACTORS
330
A12E
102
}
330
A12E
100
AcDbMlineStyle
  2
STANDARD
 70
     0
  3

 62
   256
 51
90.0
 52
90.0
 71
     2
 49
0.5
 62
   256
  6
BYLAYER
 49
-0.5
 62
   256
  6
BYLAYER
  0
ACDBPLACEHOLDER
  5
A339
102
{ACAD_REACTORS
330
A338
102
}
330
A338
  0
SCALE
  5
A370
102
{ACAD_REACTORS
330
A36F
102
}
330
A36F
100
AcDbScale
 70
     0
300
1:1
140
1.0
141
1.0
290
     1
  0
SCALE
  5
A371
102
{ACAD_REACTORS
330
A36F
102
}
330
A36F
100
AcDbScale
 70
     0
300
1/128" = 1'-0"
140
0.0078125
141
12.0
290
     0
  0
SCALE
  5
A372
102
{ACAD_REACTORS
330
A36F
102
}
330
A36F
100
AcDbScale
 70
     0
300
1/64" = 1'-0"
140
0.015625
141
12.0
290
     0
  0
SCALE
  5
A373
102
{ACAD_REACTORS
330
A36F
102
}
330
A36F
100
AcDbScale
 70
     0
300
1/32" = 1'-0"
140
0.03125
141
12.0
290
     0
  0
SCALE
  5
A374
102
{ACAD_REACTORS
330
A36F
102
}
330
A36F
100
AcDbScale
 70
     0
300
1/16" = 1'-0"
140
0.0625
141
12.0
290
     0
  0
SCALE
  5
A375
102
{ACAD_REACTORS
330
A36F
102
}
330
A36F
100
AcDbScale
 70
     0
300
3/32" = 1'-0"
140
0.09375
141
12.0
290
     0
  0
SCALE
  5
A376
102
{ACAD_REACTORS
330
A36F
102
}
330
A36F
100
AcDbScale
 70
     0
300
1/8" = 1'-0"
140
0.125
141
12.0
290
     0
  0
SCALE
  5
A377
102
{ACAD_REACTORS
330
A36F
102
}
330
A36F
100
AcDbScale
 70
     0
300
3/16" = 1'-0"
140
0.1875
141
12.0
290
     0
  0
SCALE
  5
A378
102
{ACAD_REACTORS
330
A36F
102
}
330
A36F
100
AcDbScale
 70
     0
300
1/4" = 1'-0"
140
0.25
141
12.0
290
     0
  0
SCALE
  5
A379
102
{ACAD_REACTORS
330
A36F
102
}
330
A36F
100
AcDbScale
 70
     0
300
3/8" = 1'-0"
140
0.375
141
12.0
290
     0
  0
SCALE
  5
A37A
102
{ACAD_REACTORS
330
A36F
102
}
330
A36F
100
AcDbScale
 70
     0
300
1/2" = 1'-0"
140
0.5
141
12.0
290
     0
  0
SCALE
  5
A37B
102
{ACAD_REACTORS
330
A36F
102
}
330
A36F
100
AcDbScale
 70
     0
300
3/4" = 1'-0"
140
0.75
141
12.0
290
     0
  0
SCALE
  5
A37C
102
{ACAD_REACTORS
330
A36F
102
}
330
A36F
100
AcDbScale
 70
     0
300
1" = 1'-0"
140
1.0
141
12.0
290
     0
  0
SCALE
  5
A37D
102
{ACAD_REACTORS
330
A36F
102
}
330
A36F
100
AcDbScale
 70
     0
300
1-1/2" = 1'-0"
140
1.5
141
12.0
290
     0
  0
SCALE
  5
A37E
102
{ACAD_REACTORS
330
A36F
102
}
330
A36F
100
AcDbScale
 70
     0
300
3" = 1'-0"
140
3.0
141
12.0
290
     0
  0
SCALE
  5
A37F
102
{ACAD_REACTORS
330
A36F
102
}
330
A36F
100
AcDbScale
 70
     0
300
6" = 1'-0"
140
6.0
141
12.0
290
     0
  0
SCALE
  5
A380
102
{ACAD_REACTORS
330
A36F
102
}
330
A36F
100
AcDbScale
 70
     0
300
1'-0" = 1'-0"
140
12.0
141
12.0
290
     0
  0
ACDBSECTIONVIEWSTYLE
  5
A384
102
{ACAD_XDICTIONARY
360
A3DF
102
}
102
{ACAD_REACTORS
330
A383
102
}
330
A383
100
AcDbModelDocViewStyle
 70
     0
  3
Imperial24
290
     0
100
AcDbSectionViewStyle
 70
     0
 71
     0
 90
       78
 71
     1
340
A129
 40
0.24
340
0
340
0
 40
0.24
300
I, O, Q, S, X, Z
 40
0.48
 90
        3
 40
0.18
 90
        1
 71
     2
340
A12D
 90
       25
340
A12D
 90
       50
 40
0.24
 40
0.0
 40
0.24
 71
     3
340
A129
 40
0.24
 90
        1
 40
0.75
 90
        1
300
%<\AcVar ViewType \f "%tc1">% %<\AcVar ViewSectionStartId>%-%<\AcVar ViewSectionEndId>%\PSCALE %<\AcVar ViewScale \f "%sn">%
 71
     4
300
ANSI31
 40
1.0
 90
        0
290
     0
290
     0
 90
        6
 40
0.0
 40
1.570796326794896
 40
0.2617993877991494
 40
1.308996938995747
 40
-0.2617993877991494
 40
1.832595714594046
  0
TABLESTYLE
  5
A36E
102
{ACAD_XDICTIONARY
360
A3A6
102
}
102
{ACAD_REACTORS
330
A36D
102
}
330
A36D
100
AcDbTableStyle
  3
Standard
 70
     0
 71
     0
 40
0.06
 41
0.06
280
     0
281
     0
  7
STANDARD
140
0.18
170
     2
 62
     0
 63
     7
283
     0
274
    -2
284
     1
 64
     0
275
    -2
285
     1
 65
     0
276
    -2
286
     1
 66
     0
277
    -2
287
     1
 67
     0
278
    -2
288
     1
 68
     0
279
    -2
289
     1
 69
     0
  7
STANDARD
140
0.25
170
     5
 62
     0
 63
     7
283
     0
274
    -2
284
     1
 64
     0
275
    -2
285
     1
 65
     0
276
    -2
286
     1
 66
     0
277
    -2
287
     1
 67
     0
278
    -2
288
     1
 68
     0
279
    -2
289
     1
 69
     0
  7
STANDARD
140
0.18
170
     5
 62
     0
 63
     7
283
     0
274
    -2
284
     1
 64
     0
275
    -2
285
     1
 65
     0
276
    -2
286
     1
 66
     0
277
    -2
287
     1
 67
     0
278
    -2
288
     1
 68
     0
279
    -2
289
     1
 69
     0
  0
VISUALSTYLE
  5
A359
102
{ACAD_XDICTIONARY
360
A3B7
102
}
102
{ACAD_REACTORS
330
A353
102
}
330
A353
100
AcDbVisualStyle
  2
2dWireframe
 70
     4
 71
     0
 72
     2
 73
     0
 90
        0
 40
-0.6
 41
-30.0
 62
     5
 63
     7
 74
     1
 91
        4
 64
     7
 65
   257
 75
     1
175
     1
 42
1.0
 92
        0
 66
   257
 43
1.0
 76
     1
 77
     6
 78
     2
 67
     7
 79
     5
170
     0
171
     0
290
     0
174
     0
 93
        1
 44
0.0
173
     0
291
     0
 45
0.0
1001
ACAD
1000
AcDbSavedByObjectVersion
1070
     0
  0
VISUALSTYLE
  5
A358
102
{ACAD_XDICTIONARY
360
A3B5
102
}
102
{ACAD_REACTORS
330
A353
102
}
330
A353
100
AcDbVisualStyle
  2
Basic
 70
     7
 71
     1
 72
     0
 73
     1
 90
        0
 40
-0.6
 41
-30.0
 62
     5
 63
     7
 74
     0
 91
        4
 64
     7
 65
   257
 75
     1
175
     1
 42
1.0
 92
        8
 66
     7
 43
1.0
 76
     1
 77
     6
 78
     2
 67
     7
 79
     5
170
     0
171
     0
290
     0
174
     0
 93
        1
 44
0.0
173
     0
291
     1
 45
0.0
1001
ACAD
1000
AcDbSavedByObjectVersion
1070
     0
  0
VISUALSTYLE
  5
A35F
102
{ACAD_XDICTIONARY
360
A3C3
102
}
102
{ACAD_REACTORS
330
A353
102
}
330
A353
100
AcDbVisualStyle
  2
Brighten
 70
    12
 71
     2
 72
     2
 73
     0
 90
        0
 40
-0.6
 41
-30.0
 62
     5
 63
     7
 74
     1
 91
        4
 64
     7
 65
   257
 75
     1
175
     1
 42
1.0
 92
        8
 66
     7
 43
1.0
 76
     1
 77
     6
 78
     2
 67
     7
 79
     5
170
     0
171
     0
290
     0
174
     0
 93
        1
 44
50.0
173
     0
291
     1
 45
0.0
1001
ACAD
1000
AcDbSavedByObjectVersion
1070
     0
  0
VISUALSTYLE
  5
A363
102
{ACAD_XDICTIONARY
360
A3CB
102
}
102
{ACAD_REACTORS
330
A353
102
}
330
A353
100
AcDbVisualStyle
  2
ColorChange
 70
    16
 71
     2
 72
     2
 73
     3
 90
        0
 40
-0.6
 41
-30.0
 62
     5
 63
     8
 74
     1
 91
        4
 64
     7
 65
   257
 75
     1
175
     1
 42
1.0
 92
        8
 66
     8
 43
1.0
 76
     1
 77
     6
 78
     2
 67
     7
 79
     5
170
     0
171
     0
290
     0
174
     0
 93
        1
 44
0.0
173
     0
291
     1
 45
0.0
1001
ACAD
1000
AcDbSavedByObjectVersion
1070
     0
  0
VISUALSTYLE
  5
A35C
102
{ACAD_XDICTIONARY
360
A3BD
102
}
102
{ACAD_REACTORS
330
A353
102
}
330
A353
100
AcDbVisualStyle
  2
Conceptual
 70
     9
 71
     3
 72
     2
 73
     0
 90
        0
 40
-0.6
 41
-30.0
 62
     5
 63
     7
 74
     2
 91
        2
 64
     7
 65
   257
 75
     1
175
     1
 42
179.0
 92
        8
 66
     7
 43
1.0
 76
     1
 77
     6
 78
     2
 67
     7
 79
     3
170
     0
171
     0
290
     0
174
     0
 93
        1
 44
0.0
173
     0
291
     0
 45
0.0
1001
ACAD
1000
AcDbSavedByObjectVersion
1070
     0
  0
VISUALSTYLE
  5
A35E
102
{ACAD_XDICTIONARY
360
A3C1
102
}
102
{ACAD_REACTORS
330
A353
102
}
330
A353
100
AcDbVisualStyle
  2
Dim
 70
    11
 71
     2
 72
     2
 73
     0
 90
        0
 40
-0.6
 41
-30.0
 62
     5
 63
     7
 74
     1
 91
        4
 64
     7
 65
   257
 75
     1
175
     1
 42
1.0
 92
        8
 66
     7
 43
1.0
 76
     1
 77
     6
 78
     2
 67
     7
 79
     5
170
     0
171
     0
290
     0
174
     0
 93
        1
 44
-50.0
173
     0
291
     1
 45
0.0
1001
ACAD
1000
AcDbSavedByObjectVersion
1070
     0
  0
VISUALSTYLE
  5
A36B
102
{ACAD_XDICTIONARY
360
A3DB
102
}
102
{ACAD_REACTORS
330
A353
102
}
330
A353
100
AcDbVisualStyle
  2
EdgeColorOff
 70
    22
 71
     2
 72
     2
 73
     0
 90
        0
 40
-0.6
 41
-30.0
 62
     5
 63
     7
 74
     1
 91
        4
 64
     7
 65
   257
 75
     1
175
     1
 42
1.0
 92
        8
 66
     7
 43
1.0
 76
     1
 77
     6
 78
     2
 67
     7
 79
     5
170
     0
171
     0
290
     0
174
     0
 93
        1
 44
0.0
173
     0
291
     1
 45
0.0
1001
ACAD
1000
AcDbSavedByObjectVersion
1070
     0
  0
VISUALSTYLE
  5
A362
102
{ACAD_XDICTIONARY
360
A3C9
102
}
102
{ACAD_REACTORS
330
A353
102
}
330
A353
100
AcDbVisualStyle
  2
Facepattern
 70
    15
 71
     2
 72
     2
 73
     0
 90
        0
 40
-0.6
 41
-30.0
 62
     5
 63
     7
 74
     1
 91
        4
 64
     7
 65
   257
 75
     1
175
     1
 42
1.0
 92
        8
 66
     7
 43
1.0
 76
     1
 77
     6
 78
     2
 67
     7
 79
     5
170
     0
171
     0
290
     0
174
     0
 93
        1
 44
0.0
173
     0
291
     1
 45
0.0
1001
ACAD
1000
AcDbSavedByObjectVersion
1070
     0
  0
VISUALSTYLE
  5
A354
102
{ACAD_XDICTIONARY
360
A3AD
102
}
102
{ACAD_REACTORS
330
A353
102
}
330
A353
100
AcDbVisualStyle
  2
Flat
 70
     0
 71
     2
 72
     1
 73
     1
 90
        2
 40
-0.6
 41
30.0
 62
     5
 63
     7
 74
     0
 91
        0
 64
     7
 65
   257
 75
     1
175
     1
 42
1.0
 92
        8
 66
     7
 43
1.0
 76
     1
 77
     6
 78
     2
 67
     7
 79
     5
170
     0
171
     0
290
     0
174
     0
 93
       13
 44
0.0
173
     0
291
     1
 45
0.0
1001
ACAD
1000
AcDbSavedByObjectVersion
1070
     0
  0
VISUALSTYLE
  5
A355
102
{ACAD_XDICTIONARY
360
A3AF
102
}
102
{ACAD_REACTORS
330
A353
102
}
330
A353
100
AcDbVisualStyle
  2
FlatWithEdges
 70
     1
 71
     2
 72
     1
 73
     1
 90
        2
 40
-0.6
 41
30.0
 62
     5
 63
     7
 74
     1
 91
        0
 64
     7
 65
   257
 75
     1
175
     1
 42
1.0
 92
        0
 66
   257
 43
1.0
 76
     1
 77
     6
 78
     2
 67
     7
 79
     5
170
     0
171
     0
290
     0
174
     0
 93
       13
 44
0.0
173
     0
291
     1
 45
0.0
1001
ACAD
1000
AcDbSavedByObjectVersion
1070
     0
  0
VISUALSTYLE
  5
A356
102
{ACAD_XDICTIONARY
360
A3B1
102
}
102
{ACAD_REACTORS
330
A353
102
}
330
A353
100
AcDbVisualStyle
  2
Gouraud
 70
     2
 71
     2
 72
     2
 73
     1
 90
        2
 40
-0.6
 41
30.0
 62
     5
 63
     7
 74
     0
 91
        0
 64
     7
 65
   257
 75
     1
175
     1
 42
1.0
 92
        0
 66
     7
 43
1.0
 76
     1
 77
     6
 78
     2
 67
     7
 79
     5
170
     0
171
     0
290
     0
174
     0
 93
       13
 44
0.0
173
     0
291
     1
 45
0.0
1001
ACAD
1000
AcDbSavedByObjectVersion
1070
     0
  0
VISUALSTYLE
  5
A357
102
{ACAD_XDICTIONARY
360
A3B3
102
}
102
{ACAD_REACTORS
330
A353
102
}
330
A353
100
AcDbVisualStyle
  2
GouraudWithEdges
 70
     3
 71
     2
 72
     2
 73
     1
 90
        2
 40
-0.6
 41
30.0
 62
     5
 63
     7
 74
     1
 91
        0
 64
     7
 65
   257
 75
     1
175
     1
 42
1.0
 92
        0
 66
   257
 43
1.0
 76
     1
 77
     6
 78
     2
 67
     7
 79
     5
170
     0
171
     0
290
     0
174
     0
 93
       13
 44
0.0
173
     0
291
     1
 45
0.0
1001
ACAD
1000
AcDbSavedByObjectVersion
1070
     0
  0
VISUALSTYLE
  5
A35B
102
{ACAD_XDICTIONARY
360
A3BB
102
}
102
{ACAD_REACTORS
330
A353
102
}
330
A353
100
AcDbVisualStyle
  2
Hidden
 70
     6
 71
     1
 72
     2
 73
     2
 90
        0
 40
-0.6
 41
-30.0
 62
     5
 63
     7
 74
     2
 91
        2
 64
     7
 65
   257
 75
     2
175
     1
 42
40.0
 92
        0
 66
   257
 43
1.0
 76
     1
 77
     6
 78
     2
 67
     7
 79
     3
170
     0
171
     0
290
     0
174
     0
 93
        1
 44
0.0
173
     0
291
     0
 45
0.0
1001
ACAD
1000
AcDbSavedByObjectVersion
1070
     0
  0
VISUALSTYLE
  5
A369
102
{ACAD_XDICTIONARY
360
A3D7
102
}
102
{ACAD_REACTORS
330
A353
102
}
330
A353
100
AcDbVisualStyle
  2
JitterOff
 70
    20
 71
     2
 72
     2
 73
     0
 90
        0
 40
-0.6
 41
-30.0
 62
     5
 63
     7
 74
     1
 91
        4
 64
     7
 65
   257
 75
     1
175
     1
 42
1.0
 92
       10
 66
     7
 43
1.0
 76
     1
 77
     6
 78
     2
 67
     7
 79
     5
170
     0
171
     0
290
     0
174
     0
 93
        1
 44
0.0
173
     0
291
     1
 45
0.0
1001
ACAD
1000
AcDbSavedByObjectVersion
1070
     0
  0
VISUALSTYLE
  5
A361
102
{ACAD_XDICTIONARY
360
A3C7
102
}
102
{ACAD_REACTORS
330
A353
102
}
330
A353
100
AcDbVisualStyle
  2
Linepattern
 70
    14
 71
     2
 72
     2
 73
     0
 90
        0
 40
-0.6
 41
-30.0
 62
     5
 63
     7
 74
     1
 91
        4
 64
     7
 65
   257
 75
     7
175
     7
 42
1.0
 92
        8
 66
     7
 43
1.0
 76
     1
 77
     6
 78
     2
 67
     7
 79
     5
170
     0
171
     0
290
     0
174
     0
 93
        1
 44
0.0
173
     0
291
     1
 45
0.0
1001
ACAD
1000
AcDbSavedByObjectVersion
1070
     0
  0
VISUALSTYLE
  5
A36A
102
{ACAD_XDICTIONARY
360
A3D9
102
}
102
{ACAD_REACTORS
330
A353
102
}
330
A353
100
AcDbVisualStyle
  2
OverhangOff
 70
    21
 71
     2
 72
     2
 73
     0
 90
        0
 40
-0.6
 41
-30.0
 62
     5
 63
     7
 74
     1
 91
        4
 64
     7
 65
   257
 75
     1
175
     1
 42
1.0
 92
        9
 66
     7
 43
1.0
 76
     1
 77
     6
 78
     2
 67
     7
 79
     5
170
     0
171
     0
290
     0
174
     0
 93
        1
 44
0.0
173
     0
291
     1
 45
0.0
1001
ACAD
1000
AcDbSavedByObjectVersion
1070
     0
  0
VISUALSTYLE
  5
A35D
102
{ACAD_XDICTIONARY
360
A3BF
102
}
102
{ACAD_REACTORS
330
A353
102
}
330
A353
100
AcDbVisualStyle
  2
Realistic
 70
     8
 71
     2
 72
     3
 73
     0
 90
        2
 40
-0.6
 41
30.0
 62
     5
 63
     7
 74
     0
 91
        0
 64
     7
 65
   257
 75
     1
175
     1
 42
1.0
 92
        8
 66
   257
 43
1.0
 76
     1
 77
     6
 78
     2
 67
     7
 79
     3
170
     0
171
     0
290
     0
174
     0
 93
       13
 44
0.0
173
     0
291
     0
 45
0.0
1001
ACAD
1000
AcDbSavedByObjectVersion
1070
     0
  0
VISUALSTYLE
  5
A368
102
{ACAD_XDICTIONARY
360
A3D5
102
}
102
{ACAD_REACTORS
330
A353
102
}
330
A353
100
AcDbVisualStyle
  2
Shaded
 70
    27
 71
     2
 72
     2
 73
     1
 90
        2
 40
-0.6
 41
30.0
 62
     5
 63
     7
 74
     0
 91
        4
 64
     7
 65
   257
 75
     1
175
     1
 42
1.0
 92
        8
 66
   257
 43
1.0
 76
     1
 77
     6
 78
     2
 67
     8
 79
     3
170
     0
171
     0
290
     0
174
     0
 93
        5
 44
0.0
173
     0
291
     0
 45
0.0
1001
ACAD
1000
AcDbSavedByObjectVersion
1070
     0
  0
VISUALSTYLE
  5
A367
102
{ACAD_XDICTIONARY
360
A3D3
102
}
102
{ACAD_REACTORS
330
A353
102
}
330
A353
100
AcDbVisualStyle
  2
Shaded with edges
 70
    26
 71
     2
 72
     2
 73
     1
 90
        2
 40
-0.6
 41
30.0
 62
     5
 63
     7
 74
     1
 91
       10
 64
     7
 65
   257
 75
     2
175
     1
 42
1.0
 92
        8
 66
   257
 43
1.0
 76
     1
 77
     6
 78
     2
 67
     7
 79
     3
170
     0
171
     0
290
     0
174
     0
 93
        5
 44
0.0
173
     0
291
     0
 45
0.0
1001
ACAD
1000
AcDbSavedByObjectVersion
1070
     0
  0
VISUALSTYLE
  5
A364
102
{ACAD_XDICTIONARY
360
A3CD
102
}
102
{ACAD_REACTORS
330
A353
102
}
330
A353
100
AcDbVisualStyle
  2
Shades of Gray
 70
    23
 71
     2
 72
     2
 73
     3
 90
        0
 40
-0.6
 41
-30.0
 62
     5
 63
     7
 74
     2
 91
        2
 64
     7
 65
     7
 75
     1
175
     1
 42
40.0
 92
        8
 66
     7
 43
1.0
 76
     1
 77
     6
 78
     2
 67
     7
 79
     3
170
     0
171
     0
290
     0
174
     0
 93
        1
 44
0.0
173
     0
291
     0
 45
0.0
1001
ACAD
1000
AcDbSavedByObjectVersion
1070
     0
  0
VISUALSTYLE
  5
A365
102
{ACAD_XDICTIONARY
360
A3CF
102
}
102
{ACAD_REACTORS
330
A353
102
}
330
A353
100
AcDbVisualStyle
  2
Sketchy
 70
    24
 71
     1
 72
     2
 73
     2
 90
        0
 40
-0.6
 41
-30.0
 62
     5
 63
     7
 74
     2
 91
        2
 64
     7
 65
     7
 75
     1
175
     1
 42
40.0
 92
       11
 66
     7
 43
1.0
 76
     1
 77
     6
 78
     2
 67
     7
 79
     6
170
     0
171
     0
290
     0
174
     0
 93
        1
 44
0.0
173
     0
291
     0
 45
0.0
1001
ACAD
1000
AcDbSavedByObjectVersion
1070
     0
  0
VISUALSTYLE
  5
A360
102
{ACAD_XDICTIONARY
360
A3C5
102
}
102
{ACAD_REACTORS
330
A353
102
}
330
A353
100
AcDbVisualStyle
  2
Thicken
 70
    13
 71
     2
 72
     2
 73
     0
 90
        0
 40
-0.6
 41
-30.0
 62
     5
 63
     7
 74
     1
 91
        4
 64
     7
 65
   257
 75
     1
175
     1
 42
1.0
 92
       12
 66
     7
 43
1.0
 76
     1
 77
     6
 78
     2
 67
     7
 79
     5
170
     0
171
     0
290
     0
174
     0
 93
        1
 44
0.0
173
     0
291
     1
 45
0.0
1001
ACAD
1000
AcDbSavedByObjectVersion
1070
     0
  0
VISUALSTYLE
  5
A35A
102
{ACAD_XDICTIONARY
360
A3B9
102
}
102
{ACAD_REACTORS
330
A353
102
}
330
A353
100
AcDbVisualStyle
  2
Wireframe
 70
     5
 71
     0
 72
     2
 73
     0
 90
        0
 40
-0.6
 41
-30.0
 62
     5
 63
     7
 74
     1
 91
        4
 64
     7
 65
   257
 75
     1
175
     1
 42
1.0
 92
        0
 66
   257
 43
1.0
 76
     1
 77
     6
 78
     2
 67
     7
 79
     3
170
     0
171
     0
290
     0
174
     0
 93
        1
 44
0.0
173
     0
291
     0
 45
0.0
1001
ACAD
1000
AcDbSavedByObjectVersion
1070
     0
  0
VISUALSTYLE
  5
A366
102
{ACAD_XDICTIONARY
360
A3D1
102
}
102
{ACAD_REACTORS
330
A353
102
}
330
A353
100
AcDbVisualStyle
  2
X-Ray
 70
    25
 71
     2
 72
     2
 73
     1
 90
        1
 40
0.5
 41
-30.0
 62
     5
 63
     7
 74
     1
 91
        0
 64
     7
 65
   257
 75
     1
175
     1
 42
1.0
 92
        8
 66
     7
 43
1.0
 76
     1
 77
     6
 78
     2
 67
     7
 79
     3
170
     0
171
     0
290
     0
174
     0
 93
       13
 44
0.0
173
     0
291
     0
 45
0.0
1001
ACAD
1000
AcDbSavedByObjectVersion
1070
     0
  0
DICTIONARYVAR
  5
A3A0
102
{ACAD_REACTORS
330
A39B
102
}
330
A39B
100
DictionaryVariables
280
     0
  1
1:1
  0
DICTIONARYVAR
  5
A39D
102
{ACAD_REACTORS
330
A39B
102
}
330
A39B
100
DictionaryVariables
280
     0
  1
STANDARD
  0
DICTIONARYVAR
  5
A39C
102
{ACAD_REACTORS
330
A39B
102
}
330
A39B
100
DictionaryVariables
280
     0
  1
STANDARD
  0
DICTIONARYVAR
  5
A39E
102
{ACAD_REACTORS
330
A39B
102
}
330
A39B
100
DictionaryVariables
280
     0
  1
Imperial24
  0
DICTIONARYVAR
  5
A39F
102
{ACAD_REACTORS
330
A39B
102
}
330
A39B
100
DictionaryVariables
280
     0
  1
Imperial24
  0
DICTIONARYVAR
  5
A3A3
102
{ACAD_REACTORS
330
A39B
102
}
330
A39B
100
DictionaryVariables
280
     0
  1
1
  0
DICTIONARYVAR
  5
A3A2
102
{ACAD_REACTORS
330
A39B
102
}
330
A39B
100
DictionaryVariables
280
     0
  1
0
  0
DICTIONARYVAR
  5
A3A1
102
{ACAD_REACTORS
330
A39B
102
}
330
A39B
100
DictionaryVariables
280
     0
  1
127
  0
DICTIONARYVAR
  5
A3A4
102
{ACAD_REACTORS
330
A39B
102
}
330
A39B
100
DictionaryVariables
280
     0
  1
2
  0
DICTIONARY
  5
A3E1
330
A386
100
AcDbDictionary
280
     1
281
     1
  3
ACAD_XREC_ROUNDTRIP
360
A3E2
  0
DICTIONARY
  5
A3E3
330
A387
100
AcDbDictionary
280
     1
281
     1
  3
ACAD_XREC_ROUNDTRIP
360
A3E4
  0
DICTIONARY
  5
A3E5
330
A388
100
AcDbDictionary
280
     1
281
     1
  3
ACAD_XREC_ROUNDTRIP
360
A3E6
  0
DICTIONARY
  5
A344
330
A343
100
AcDbDictionary
280
     1
281
     1
  3
ACAD_XREC_ROUNDTRIP
360
A3AB
  3
BUMPTILE
360
A346
  3
DIFFUSETILE
360
A345
  3
OPACITYTILE
360
A349
  3
REFLECTIONTILE
360
A348
  3
REFRACTIONTILE
360
A34A
  3
SPECULARTILE
360
A347
  0
DICTIONARY
  5
A33C
330
A33B
100
AcDbDictionary
280
     1
281
     1
  3
ACAD_XREC_ROUNDTRIP
360
A3AA
  3
BUMPTILE
360
A33E
  3
DIFFUSETILE
360
A33D
  3
OPACITYTILE
360
A341
  3
REFLECTIONTILE
360
A340
  3
REFRACTIONTILE
360
A342
  3
SPECULARTILE
360
A33F
  0
DICTIONARY
  5
A34C
330
A34B
100
AcDbDictionary
280
     1
281
     1
  3
ACAD_XREC_ROUNDTRIP
360
A3AC
  3
BUMPTILE
360
A34E
  3
DIFFUSETILE
360
A34D
  3
OPACITYTILE
360
A351
  3
REFLECTIONTILE
360
A350
  3
REFRACTIONTILE
360
A352
  3
SPECULARTILE
360
A34F
  0
DICTIONARY
  5
A3DF
330
A384
100
AcDbDictionary
280
     1
281
     1
  3
ACAD_XREC_ROUNDTRIP
360
A3E0
  0
DICTIONARY
  5
A3A6
330
A36E
100
AcDbDictionary
280
     1
281
     1
  3
ACAD_ROUNDTRIP_2008_TABLESTYLE_CELLSTYLEMAP
360
A3A7
  3
ACAD_XREC_ROUNDTRIP
360
A3DD
  0
DICTIONARY
  5
A3B7
330
A359
100
AcDbDictionary
280
     1
281
     1
  3
ACAD_XREC_ROUNDTRIP
360
A3B8
  0
DICTIONARY
  5
A3B5
330
A358
100
AcDbDictionary
280
     1
281
     1
  3
ACAD_XREC_ROUNDTRIP
360
A3B6
  0
DICTIONARY
  5
A3C3
330
A35F
100
AcDbDictionary
280
     1
281
     1
  3
ACAD_XREC_ROUNDTRIP
360
A3C4
  0
DICTIONARY
  5
A3CB
330
A363
100
AcDbDictionary
280
     1
281
     1
  3
ACAD_XREC_ROUNDTRIP
360
A3CC
  0
DICTIONARY
  5
A3BD
330
A35C
100
AcDbDictionary
280
     1
281
     1
  3
ACAD_XREC_ROUNDTRIP
360
A3BE
  0
DICTIONARY
  5
A3C1
330
A35E
100
AcDbDictionary
280
     1
281
     1
  3
ACAD_XREC_ROUNDTRIP
360
A3C2
  0
DICTIONARY
  5
A3DB
330
A36B
100
AcDbDictionary
280
     1
281
     1
  3
ACAD_XREC_ROUNDTRIP
360
A3DC
  0
DICTIONARY
  5
A3C9
330
A362
100
AcDbDictionary
280
     1
281
     1
  3
ACAD_XREC_ROUNDTRIP
360
A3CA
  0
DICTIONARY
  5
A3AD
330
A354
100
AcDbDictionary
280
     1
281
     1
  3
ACAD_XREC_ROUNDTRIP
360
A3AE
  0
DICTIONARY
  5
A3AF
330
A355
100
AcDbDictionary
280
     1
281
     1
  3
ACAD_XREC_ROUNDTRIP
360
A3B0
  0
DICTIONARY
  5
A3B1
330
A356
100
AcDbDictionary
280
     1
281
     1
  3
ACAD_XREC_ROUNDTRIP
360
A3B2
  0
DICTIONARY
  5
A3B3
330
A357
100
AcDbDictionary
280
     1
281
     1
  3
ACAD_XREC_ROUNDTRIP
360
A3B4
  0
DICTIONARY
  5
A3BB
330
A35B
100
AcDbDictionary
280
     1
281
     1
  3
ACAD_XREC_ROUNDTRIP
360
A3BC
  0
DICTIONARY
  5
A3D7
330
A369
100
AcDbDictionary
280
     1
281
     1
  3
ACAD_XREC_ROUNDTRIP
360
A3D8
  0
DICTIONARY
  5
A3C7
330
A361
100
AcDbDictionary
280
     1
281
     1
  3
ACAD_XREC_ROUNDTRIP
360
A3C8
  0
DICTIONARY
  5
A3D9
330
A36A
100
AcDbDictionary
280
     1
281
     1
  3
ACAD_XREC_ROUNDTRIP
360
A3DA
  0
DICTIONARY
  5
A3BF
330
A35D
100
AcDbDictionary
280
     1
281
     1
  3
ACAD_XREC_ROUNDTRIP
360
A3C0
  0
DICTIONARY
  5
A3D5
330
A368
100
AcDbDictionary
280
     1
281
     1
  3
ACAD_XREC_ROUNDTRIP
360
A3D6
  0
DICTIONARY
  5
A3D3
330
A367
100
AcDbDictionary
280
     1
281
     1
  3
ACAD_XREC_ROUNDTRIP
360
A3D4
  0
DICTIONARY
  5
A3CD
330
A364
100
AcDbDictionary
280
     1
281
     1
  3
ACAD_XREC_ROUNDTRIP
360
A3CE
  0
DICTIONARY
  5
A3CF
330
A365
100
AcDbDictionary
280
     1
281
     1
  3
ACAD_XREC_ROUNDTRIP
360
A3D0
  0
DICTIONARY
  5
A3C5
330
A360
100
AcDbDictionary
280
     1
281
     1
  3
ACAD_XREC_ROUNDTRIP
360
A3C6
  0
DICTIONARY
  5
A3B9
330
A35A
100
AcDbDictionary
280
     1
281
     1
  3
ACAD_XREC_ROUNDTRIP
360
A3BA
  0
DICTIONARY
  5
A3D1
330
A366
100
AcDbDictionary
280
     1
281
     1
  3
ACAD_XREC_ROUNDTRIP
360
A3D2
  0
XRECORD
  5
A3E2
102
{ACAD_REACTORS
330
A3E1
102
}
330
A3E1
100
AcDbXrecord
280
     1
102
DISPLAYNAME
  1
Imperial24
102
FLAGS
 90
        0
  0
XRECORD
  5
A3E4
102
{ACAD_REACTORS
330
A3E3
102
}
330
A3E3
100
AcDbXrecord
280
     1
102
SHADEPLOT
 70
     0
102
SHADEPLOTRESLEVEL
 70
     2
102
SHADEPLOTCUSTOMDPI
 70
   300
  0
XRECORD
  5
A3E6
102
{ACAD_REACTORS
330
A3E5
102
}
330
A3E5
100
AcDbXrecord
280
     1
102
SHADEPLOT
 70
     0
102
SHADEPLOTRESLEVEL
 70
     2
102
SHADEPLOTCUSTOMDPI
 70
   300
  0
XRECORD
  5
A3AB
102
{ACAD_REACTORS
330
A344
102
}
330
A344
100
AcDbXrecord
280
     1
102
MATERIAL
148
0.0
149
0.0
149
0.0
 93
        0
 94
      127
282
     0
 72
     0
 77
     0
171
     0
175
     0
179
     0
273
     0
  0
XRECORD
  5
A346
102
{ACAD_REACTORS
330
A344
102
}
330
A344
100
AcDbXrecord
280
     1
270
     1
271
     1
  0
XRECORD
  5
A345
102
{ACAD_REACTORS
330
A344
102
}
330
A344
100
AcDbXrecord
280
     1
270
     1
271
     1
  0
XRECORD
  5
A349
102
{ACAD_REACTORS
330
A344
102
}
330
A344
100
AcDbXrecord
280
     1
270
     1
271
     1
  0
XRECORD
  5
A348
102
{ACAD_REACTORS
330
A344
102
}
330
A344
100
AcDbXrecord
280
     1
270
     1
271
     1
  0
XRECORD
  5
A34A
102
{ACAD_REACTORS
330
A344
102
}
330
A344
100
AcDbXrecord
280
     1
270
     1
271
     1
  0
XRECORD
  5
A347
102
{ACAD_REACTORS
330
A344
102
}
330
A344
100
AcDbXrecord
280
     1
270
     1
271
     1
  0
XRECORD
  5
A3AA
102
{ACAD_REACTORS
330
A33C
102
}
330
A33C
100
AcDbXrecord
280
     1
102
MATERIAL
148
0.0
149
0.0
149
0.0
 93
        0
 94
      127
282
     0
 72
     0
 77
     0
171
     0
175
     0
179
     0
273
     0
  0
XRECORD
  5
A33E
102
{ACAD_REACTORS
330
A33C
102
}
330
A33C
100
AcDbXrecord
280
     1
270
     1
271
     1
  0
XRECORD
  5
A33D
102
{ACAD_REACTORS
330
A33C
102
}
330
A33C
100
AcDbXrecord
280
     1
270
     1
271
     1
  0
XRECORD
  5
A341
102
{ACAD_REACTORS
330
A33C
102
}
330
A33C
100
AcDbXrecord
280
     1
270
     1
271
     1
  0
XRECORD
  5
A340
102
{ACAD_REACTORS
330
A33C
102
}
330
A33C
100
AcDbXrecord
280
     1
270
     1
271
     1
  0
XRECORD
  5
A342
102
{ACAD_REACTORS
330
A33C
102
}
330
A33C
100
AcDbXrecord
280
     1
270
     1
271
     1
  0
XRECORD
  5
A33F
102
{ACAD_REACTORS
330
A33C
102
}
330
A33C
100
AcDbXrecord
280
     1
270
     1
271
     1
  0
XRECORD
  5
A3AC
102
{ACAD_REACTORS
330
A34C
102
}
330
A34C
100
AcDbXrecord
280
     1
102
MATERIAL
148
0.0
149
0.0
149
0.0
 93
        0
 94
      127
282
     0
 72
     0
 77
     0
171
     0
175
     0
179
     0
273
     0
  0
XRECORD
  5
A34E
102
{ACAD_REACTORS
330
A34C
102
}
330
A34C
100
AcDbXrecord
280
     1
270
     1
271
     1
  0
XRECORD
  5
A34D
102
{ACAD_REACTORS
330
A34C
102
}
330
A34C
100
AcDbXrecord
280
     1
270
     1
271
     1
  0
XRECORD
  5
A351
102
{ACAD_REACTORS
330
A34C
102
}
330
A34C
100
AcDbXrecord
280
     1
270
     1
271
     1
  0
XRECORD
  5
A350
102
{ACAD_REACTORS
330
A34C
102
}
330
A34C
100
AcDbXrecord
280
     1
270
     1
271
     1
  0
XRECORD
  5
A352
102
{ACAD_REACTORS
330
A34C
102
}
330
A34C
100
AcDbXrecord
280
     1
270
     1
271
     1
  0
XRECORD
  5
A34F
102
{ACAD_REACTORS
330
A34C
102
}
330
A34C
100
AcDbXrecord
280
     1
270
     1
271
     1
  0
XRECORD
  5
A3E0
102
{ACAD_REACTORS
330
A3DF
102
}
330
A3DF
100
AcDbXrecord
280
     1
102
DISPLAYNAME
  1
Imperial24
102
FLAGS
 90
        0
  0
CELLSTYLEMAP
  5
A3A7
102
{ACAD_REACTORS
330
A3A6
102
}
330
A3A6
100
AcDbCellStyleMap
 90
        3
300
CELLSTYLE
  1
TABLEFORMAT_BEGIN
 90
        5
170
     1
 91
        0
 92
    32768
 62
   257
 93
        1
300
CONTENTFORMAT
  1
CONTENTFORMAT_BEGIN
 90
        0
 91
        0
 92
      512
 93
        0
300

 40
0.0
140
1.0
 94
        5
 62
     0
340
A129
144
0.25
309
CONTENTFORMAT_END
171
     0
 94
        0
309
TABLEFORMAT_END
  1
CELLSTYLE_BEGIN
 90
        1
 91
        1
300
_TITLE
309
CELLSTYLE_END
300
CELLSTYLE
  1
TABLEFORMAT_BEGIN
 90
        5
170
     1
 91
        0
 92
        0
 62
   257
 93
        1
300
CONTENTFORMAT
  1
CONTENTFORMAT_BEGIN
 90
        0
 91
        0
 92
      512
 93
        0
300

 40
0.0
140
1.0
 94
        5
 62
     0
340
A129
144
0.18
309
CONTENTFORMAT_END
171
     0
 94
        0
309
TABLEFORMAT_END
  1
CELLSTYLE_BEGIN
 90
        2
 91
        1
300
_HEADER
309
CELLSTYLE_END
300
CELLSTYLE
  1
TABLEFORMAT_BEGIN
 90
        5
170
     1
 91
        0
 92
        0
 62
   257
 93
        1
300
CONTENTFORMAT
  1
CONTENTFORMAT_BEGIN
 90
        0
 91
        0
 92
      512
 93
        0
300

 40
0.0
140
1.0
 94
        2
 62
     0
340
A129
144
0.18
309
CONTENTFORMAT_END
171
     0
 94
        0
309
TABLEFORMAT_END
  1
CELLSTYLE_BEGIN
 90
        3
 91
        2
300
_DATA
309
CELLSTYLE_END
  0
XRECORD
  5
A3DD
102
{ACAD_REACTORS
330
A3A6
102
}
330
A3A6
100
AcDbXrecord
280
     1
102
ACAD_ROUNDTRIP_PRE2007_TABLESTYLE
 90
      512
 91
        0
  1

 92
      512
 93
        0
  2

 94
      512
 95
        0
  3

  0
XRECORD
  5
A3B8
102
{ACAD_REACTORS
330
A3B7
102
}
330
A3B7
100
AcDbXrecord
280
     1
102
RTVSPost2010Prop28
280
     1
102
RTVSPost2010PropOp28
 70
     1
102
RTVSPost2010Prop29
280
     1
102
RTVSPost2010PropOp29
 70
     1
102
RTVSPost2010Prop30
280
     0
102
RTVSPost2010PropOp30
 70
     1
102
RTVSPost2010Prop31
280
     0
102
RTVSPost2010PropOp31
 70
     1
102
RTVSPost2010Prop32
280
     0
102
RTVSPost2010PropOp32
 70
     1
102
RTVSPost2010Prop33
280
     0
102
RTVSPost2010PropOp33
 70
     1
102
RTVSPost2010Prop34
280
     0
102
RTVSPost2010PropOp34
 70
     1
102
RTVSPost2010Prop35
280
     0
102
RTVSPost2010PropOp35
 70
     1
102
RTVSPost2010Prop36
280
     0
102
RTVSPost2010PropOp36
 70
     1
102
RTVSPost2010Prop37
 90
       50
102
RTVSPost2010PropOp37
 70
     1
102
RTVSPost2010Prop38
140
0.0
102
RTVSPost2010PropOp38
 70
     1
102
RTVSPost2010Prop39
140
1.0
102
RTVSPost2010PropOp39
 70
     1
102
RTVSPost2010Prop40
 90
        0
102
RTVSPost2010PropOp40
 70
     1
102
RTVSPost2010Prop41ColorIndex
 90
       18
102
RTVSPost2010Prop41ColorRGB
 90
        0
102
RTVSPost2010PropOp41
 70
     1
102
RTVSPost2010Prop42
 90
       50
102
RTVSPost2010PropOp42
 70
     1
102
RTVSPost2010Prop43
 90
        3
102
RTVSPost2010PropOp43
 70
     1
102
RTVSPost2010Prop44ColorIndex
 90
        5
102
RTVSPost2010Prop44ColorRGB
 90
      255
102
RTVSPost2010PropOp44
 70
     1
102
RTVSPost2010Prop45
280
     0
102
RTVSPost2010PropOp45
 70
     1
102
RTVSPost2010Prop46
 90
       50
102
RTVSPost2010PropOp46
 70
     1
102
RTVSPost2010Prop47
 90
       50
102
RTVSPost2010PropOp47
 70
     1
102
RTVSPost2010Prop48
 90
       50
102
RTVSPost2010PropOp48
 70
     1
102
RTVSPost2010Prop49
280
     0
102
RTVSPost2010PropOp49
 70
     1
102
RTVSPost2010Prop50
 90
       50
102
RTVSPost2010PropOp50
 70
     1
102
RTVSPost2010Prop51ColorIndex
 90
      256
102
RTVSPost2010Prop51ColorRGB
 90
-16777216
102
RTVSPost2010PropOp51
 70
     0
102
RTVSPost2010Prop52
140
1.0
102
RTVSPost2010PropOp52
 70
     0
102
RTVSPost2010Prop53
 90
        2
102
RTVSPost2010PropOp53
 70
     1
102
RTVSPost2010Prop54
  1
strokes_ogs.tif
102
RTVSPost2010PropOp54
 70
     1
102
RTVSPost2010Prop55
280
     0
102
RTVSPost2010PropOp55
 70
     1
102
RTVSPost2010Prop56
140
1.0
102
RTVSPost2010PropOp56
 70
     1
102
RTVSPost2010Prop57
140
1.0
102
RTVSPost2010PropOp57
 70
     1
102
RTVSPropertyOp0
 70
     1
102
RTVSPropertyOp1
 70
     1
102
RTVSPropertyOp2
 70
     1
102
RTVSPropertyOp3
 70
     1
102
RTVSPropertyOp4
 70
     1
102
RTVSPropertyOp5
 70
     1
102
RTVSPropertyOp6
 70
     1
102
RTVSPropertyOp7
 70
     1
102
RTVSPropertyOp8
 70
     1
102
RTVSPropertyOp9
 70
     1
102
RTVSPropertyOp10
 70
     1
102
RTVSPropertyOp11
 70
     1
102
RTVSPropertyOp12
 70
     1
102
RTVSPropertyOp13
 70
     1
102
RTVSPropertyOp14
 70
     1
102
RTVSPropertyOp15
 70
     1
102
RTVSPropertyOp16
 70
     1
102
RTVSPropertyOp17
 70
     1
102
RTVSPropertyOp18
 70
     1
102
RTVSPropertyOp19
 70
     1
102
RTVSPropertyOp20
 70
     1
102
RTVSPropertyOp21
 70
     1
102
RTVSPropertyOp22
 70
     1
102
RTVSPropertyOp23
 70
     1
102
RTVSPropertyOp24
 70
     1
102
RTVSPropertyOp25
 70
     1
102
RTVSPropertyOp26
 70
     1
102
RTVSPropertyOp27
 70
     1
102
RTVSPropertyOp28
 70
     1
102
RTVSPropertyOp29
 70
     1
102
RTVSPropertyOp30
 70
     1
102
RTVSPropertyOp31
 70
     1
102
RTVSPropertyOp32
 70
     1
102
RTVSPropertyOp33
 70
     1
102
RTVSPropertyOp34
 70
     1
102
RTVSPropertyOp35
 70
     1
102
RTVSPropertyOp36
 70
     1
102
RTVSPropertyOp37
 70
     1
102
RTVSPropertyOp38
 70
     1
102
RTVSPropertyOp39
 70
     1
102
RTVSPropertyOp40
 70
     1
102
RTVSPropertyOp41
 70
     1
102
RTVSPropertyOp42
 70
     1
102
RTVSPropertyOp43
 70
     1
102
RTVSPropertyOp44
 70
     1
102
RTVSPropertyOp45
 70
     1
102
RTVSPropertyOp46
 70
     1
102
RTVSPropertyOp47
 70
     1
102
RTVSPropertyOp48
 70
     1
102
RTVSPropertyOp49
 70
     1
102
RTVSPropertyOp50
 70
     1
102
RTVSPropertyOp51
 70
     0
102
RTVSPropertyOp52
 70
     0
102
RTVSPropertyOp53
 70
     1
102
RTVSPropertyOp54
 70
     1
102
RTVSPropertyOp55
 70
     1
102
RTVSPropertyOp56
 70
     1
102
RTVSPropertyOp57
 70
     1
102
RTVSPropertyOp58
 70
     1
102
RTVSPropertyOp59
 70
     1
102
RTVSPropertyOp60
 70
     1
102
RTVSPropertyOp61
 70
     1
102
RTVSPropertyOp62
 70
     1
  0
XRECORD
  5
A3B6
102
{ACAD_REACTORS
330
A3B5
102
}
330
A3B5
100
AcDbXrecord
280
     1
102
RTVSPost2010Prop28
280
     0
102
RTVSPost2010PropOp28
 70
     1
102
RTVSPost2010Prop29
280
     1
102
RTVSPost2010PropOp29
 70
     1
102
RTVSPost2010Prop30
280
     1
102
RTVSPost2010PropOp30
 70
     1
102
RTVSPost2010Prop31
280
     0
102
RTVSPost2010PropOp31
 70
     1
102
RTVSPost2010Prop32
280
     0
102
RTVSPost2010PropOp32
 70
     1
102
RTVSPost2010Prop33
280
     0
102
RTVSPost2010PropOp33
 70
     1
102
RTVSPost2010Prop34
280
     0
102
RTVSPost2010PropOp34
 70
     1
102
RTVSPost2010Prop35
280
     0
102
RTVSPost2010PropOp35
 70
     1
102
RTVSPost2010Prop36
280
     0
102
RTVSPost2010PropOp36
 70
     1
102
RTVSPost2010Prop37
 90
       50
102
RTVSPost2010PropOp37
 70
     1
102
RTVSPost2010Prop38
140
0.0
102
RTVSPost2010PropOp38
 70
     1
102
RTVSPost2010Prop39
140
1.0
102
RTVSPost2010PropOp39
 70
     1
102
RTVSPost2010Prop40
 90
        0
102
RTVSPost2010PropOp40
 70
     1
102
RTVSPost2010Prop41ColorIndex
 90
       18
102
RTVSPost2010Prop41ColorRGB
 90
        0
102
RTVSPost2010PropOp41
 70
     1
102
RTVSPost2010Prop42
 90
       50
102
RTVSPost2010PropOp42
 70
     1
102
RTVSPost2010Prop43
 90
        3
102
RTVSPost2010PropOp43
 70
     1
102
RTVSPost2010Prop44ColorIndex
 90
        5
102
RTVSPost2010Prop44ColorRGB
 90
      255
102
RTVSPost2010PropOp44
 70
     1
102
RTVSPost2010Prop45
280
     0
102
RTVSPost2010PropOp45
 70
     1
102
RTVSPost2010Prop46
 90
       50
102
RTVSPost2010PropOp46
 70
     1
102
RTVSPost2010Prop47
 90
       50
102
RTVSPost2010PropOp47
 70
     1
102
RTVSPost2010Prop48
 90
       50
102
RTVSPost2010PropOp48
 70
     1
102
RTVSPost2010Prop49
280
     0
102
RTVSPost2010PropOp49
 70
     1
102
RTVSPost2010Prop50
 90
       50
102
RTVSPost2010PropOp50
 70
     1
102
RTVSPost2010Prop51ColorIndex
 90
      256
102
RTVSPost2010Prop51ColorRGB
 90
-16777216
102
RTVSPost2010PropOp51
 70
     0
102
RTVSPost2010Prop52
140
1.0
102
RTVSPost2010PropOp52
 70
     0
102
RTVSPost2010Prop53
 90
        2
102
RTVSPost2010PropOp53
 70
     1
102
RTVSPost2010Prop54
  1
strokes_ogs.tif
102
RTVSPost2010PropOp54
 70
     1
102
RTVSPost2010Prop55
280
     0
102
RTVSPost2010PropOp55
 70
     1
102
RTVSPost2010Prop56
140
1.0
102
RTVSPost2010PropOp56
 70
     1
102
RTVSPost2010Prop57
140
1.0
102
RTVSPost2010PropOp57
 70
     1
102
RTVSPropertyOp0
 70
     1
102
RTVSPropertyOp1
 70
     1
102
RTVSPropertyOp2
 70
     1
102
RTVSPropertyOp3
 70
     1
102
RTVSPropertyOp4
 70
     1
102
RTVSPropertyOp5
 70
     1
102
RTVSPropertyOp6
 70
     1
102
RTVSPropertyOp7
 70
     1
102
RTVSPropertyOp8
 70
     1
102
RTVSPropertyOp9
 70
     1
102
RTVSPropertyOp10
 70
     1
102
RTVSPropertyOp11
 70
     1
102
RTVSPropertyOp12
 70
     1
102
RTVSPropertyOp13
 70
     1
102
RTVSPropertyOp14
 70
     1
102
RTVSPropertyOp15
 70
     1
102
RTVSPropertyOp16
 70
     1
102
RTVSPropertyOp17
 70
     1
102
RTVSPropertyOp18
 70
     1
102
RTVSPropertyOp19
 70
     1
102
RTVSPropertyOp20
 70
     1
102
RTVSPropertyOp21
 70
     1
102
RTVSPropertyOp22
 70
     1
102
RTVSPropertyOp23
 70
     1
102
RTVSPropertyOp24
 70
     1
102
RTVSPropertyOp25
 70
     1
102
RTVSPropertyOp26
 70
     1
102
RTVSPropertyOp27
 70
     1
102
RTVSPropertyOp28
 70
     1
102
RTVSPropertyOp29
 70
     1
102
RTVSPropertyOp30
 70
     1
102
RTVSPropertyOp31
 70
     1
102
RTVSPropertyOp32
 70
     1
102
RTVSPropertyOp33
 70
     1
102
RTVSPropertyOp34
 70
     1
102
RTVSPropertyOp35
 70
     1
102
RTVSPropertyOp36
 70
     1
102
RTVSPropertyOp37
 70
     1
102
RTVSPropertyOp38
 70
     1
102
RTVSPropertyOp39
 70
     1
102
RTVSPropertyOp40
 70
     1
102
RTVSPropertyOp41
 70
     1
102
RTVSPropertyOp42
 70
     1
102
RTVSPropertyOp43
 70
     1
102
RTVSPropertyOp44
 70
     1
102
RTVSPropertyOp45
 70
     1
102
RTVSPropertyOp46
 70
     1
102
RTVSPropertyOp47
 70
     1
102
RTVSPropertyOp48
 70
     1
102
RTVSPropertyOp49
 70
     1
102
RTVSPropertyOp50
 70
     1
102
RTVSPropertyOp51
 70
     0
102
RTVSPropertyOp52
 70
     0
102
RTVSPropertyOp53
 70
     1
102
RTVSPropertyOp54
 70
     1
102
RTVSPropertyOp55
 70
     1
102
RTVSPropertyOp56
 70
     1
102
RTVSPropertyOp57
 70
     1
102
RTVSPropertyOp58
 70
     1
102
RTVSPropertyOp59
 70
     1
102
RTVSPropertyOp60
 70
     1
102
RTVSPropertyOp61
 70
     1
102
RTVSPropertyOp62
 70
     1
  0
XRECORD
  5
A3C4
102
{ACAD_REACTORS
330
A3C3
102
}
330
A3C3
100
AcDbXrecord
280
     1
102
RTVSPost2010Prop28
280
     0
102
RTVSPost2010PropOp28
 70
     1
102
RTVSPost2010Prop29
280
     1
102
RTVSPost2010PropOp29
 70
     1
102
RTVSPost2010Prop30
280
     1
102
RTVSPost2010PropOp30
 70
     1
102
RTVSPost2010Prop31
280
     0
102
RTVSPost2010PropOp31
 70
     1
102
RTVSPost2010Prop32
280
     0
102
RTVSPost2010PropOp32
 70
     1
102
RTVSPost2010Prop33
280
     0
102
RTVSPost2010PropOp33
 70
     1
102
RTVSPost2010Prop34
280
     0
102
RTVSPost2010PropOp34
 70
     1
102
RTVSPost2010Prop35
280
     0
102
RTVSPost2010PropOp35
 70
     1
102
RTVSPost2010Prop36
280
     0
102
RTVSPost2010PropOp36
 70
     1
102
RTVSPost2010Prop37
 90
       50
102
RTVSPost2010PropOp37
 70
     1
102
RTVSPost2010Prop38
140
0.0
102
RTVSPost2010PropOp38
 70
     1
102
RTVSPost2010Prop39
140
1.0
102
RTVSPost2010PropOp39
 70
     1
102
RTVSPost2010Prop40
 90
        0
102
RTVSPost2010PropOp40
 70
     1
102
RTVSPost2010Prop41ColorIndex
 90
       18
102
RTVSPost2010Prop41ColorRGB
 90
        0
102
RTVSPost2010PropOp41
 70
     1
102
RTVSPost2010Prop42
 90
       50
102
RTVSPost2010PropOp42
 70
     1
102
RTVSPost2010Prop43
 90
        3
102
RTVSPost2010PropOp43
 70
     1
102
RTVSPost2010Prop44ColorIndex
 90
        5
102
RTVSPost2010Prop44ColorRGB
 90
      255
102
RTVSPost2010PropOp44
 70
     1
102
RTVSPost2010Prop45
280
     0
102
RTVSPost2010PropOp45
 70
     1
102
RTVSPost2010Prop46
 90
       50
102
RTVSPost2010PropOp46
 70
     1
102
RTVSPost2010Prop47
 90
       50
102
RTVSPost2010PropOp47
 70
     1
102
RTVSPost2010Prop48
 90
       50
102
RTVSPost2010PropOp48
 70
     1
102
RTVSPost2010Prop49
280
     0
102
RTVSPost2010PropOp49
 70
     1
102
RTVSPost2010Prop50
 90
       50
102
RTVSPost2010PropOp50
 70
     1
102
RTVSPost2010Prop51ColorIndex
 90
      256
102
RTVSPost2010Prop51ColorRGB
 90
-16777216
102
RTVSPost2010PropOp51
 70
     0
102
RTVSPost2010Prop52
140
1.0
102
RTVSPost2010PropOp52
 70
     0
102
RTVSPost2010Prop53
 90
        2
102
RTVSPost2010PropOp53
 70
     1
102
RTVSPost2010Prop54
  1
strokes_ogs.tif
102
RTVSPost2010PropOp54
 70
     1
102
RTVSPost2010Prop55
280
     0
102
RTVSPost2010PropOp55
 70
     1
102
RTVSPost2010Prop56
140
1.0
102
RTVSPost2010PropOp56
 70
     1
102
RTVSPost2010Prop57
140
1.0
102
RTVSPost2010PropOp57
 70
     1
102
RTVSPropertyOp0
 70
     1
102
RTVSPropertyOp1
 70
     1
102
RTVSPropertyOp2
 70
     1
102
RTVSPropertyOp3
 70
     1
102
RTVSPropertyOp4
 70
     1
102
RTVSPropertyOp5
 70
     1
102
RTVSPropertyOp6
 70
     1
102
RTVSPropertyOp7
 70
     1
102
RTVSPropertyOp8
 70
     1
102
RTVSPropertyOp9
 70
     1
102
RTVSPropertyOp10
 70
     1
102
RTVSPropertyOp11
 70
     1
102
RTVSPropertyOp12
 70
     1
102
RTVSPropertyOp13
 70
     1
102
RTVSPropertyOp14
 70
     1
102
RTVSPropertyOp15
 70
     1
102
RTVSPropertyOp16
 70
     1
102
RTVSPropertyOp17
 70
     1
102
RTVSPropertyOp18
 70
     1
102
RTVSPropertyOp19
 70
     1
102
RTVSPropertyOp20
 70
     1
102
RTVSPropertyOp21
 70
     1
102
RTVSPropertyOp22
 70
     1
102
RTVSPropertyOp23
 70
     1
102
RTVSPropertyOp24
 70
     1
102
RTVSPropertyOp25
 70
     1
102
RTVSPropertyOp26
 70
     1
102
RTVSPropertyOp27
 70
     1
102
RTVSPropertyOp28
 70
     1
102
RTVSPropertyOp29
 70
     1
102
RTVSPropertyOp30
 70
     1
102
RTVSPropertyOp31
 70
     1
102
RTVSPropertyOp32
 70
     1
102
RTVSPropertyOp33
 70
     1
102
RTVSPropertyOp34
 70
     1
102
RTVSPropertyOp35
 70
     1
102
RTVSPropertyOp36
 70
     1
102
RTVSPropertyOp37
 70
     1
102
RTVSPropertyOp38
 70
     1
102
RTVSPropertyOp39
 70
     1
102
RTVSPropertyOp40
 70
     1
102
RTVSPropertyOp41
 70
     1
102
RTVSPropertyOp42
 70
     1
102
RTVSPropertyOp43
 70
     1
102
RTVSPropertyOp44
 70
     1
102
RTVSPropertyOp45
 70
     1
102
RTVSPropertyOp46
 70
     1
102
RTVSPropertyOp47
 70
     1
102
RTVSPropertyOp48
 70
     1
102
RTVSPropertyOp49
 70
     1
102
RTVSPropertyOp50
 70
     1
102
RTVSPropertyOp51
 70
     0
102
RTVSPropertyOp52
 70
     0
102
RTVSPropertyOp53
 70
     1
102
RTVSPropertyOp54
 70
     1
102
RTVSPropertyOp55
 70
     1
102
RTVSPropertyOp56
 70
     1
102
RTVSPropertyOp57
 70
     1
102
RTVSPropertyOp58
 70
     1
102
RTVSPropertyOp59
 70
     1
102
RTVSPropertyOp60
 70
     1
102
RTVSPropertyOp61
 70
     1
102
RTVSPropertyOp62
 70
     1
  0
XRECORD
  5
A3CC
102
{ACAD_REACTORS
330
A3CB
102
}
330
A3CB
100
AcDbXrecord
280
     1
102
RTVSPost2010Prop28
280
     0
102
RTVSPost2010PropOp28
 70
     1
102
RTVSPost2010Prop29
280
     1
102
RTVSPost2010PropOp29
 70
     1
102
RTVSPost2010Prop30
280
     1
102
RTVSPost2010PropOp30
 70
     1
102
RTVSPost2010Prop31
280
     0
102
RTVSPost2010PropOp31
 70
     1
102
RTVSPost2010Prop32
280
     0
102
RTVSPost2010PropOp32
 70
     1
102
RTVSPost2010Prop33
280
     0
102
RTVSPost2010PropOp33
 70
     1
102
RTVSPost2010Prop34
280
     0
102
RTVSPost2010PropOp34
 70
     1
102
RTVSPost2010Prop35
280
     0
102
RTVSPost2010PropOp35
 70
     1
102
RTVSPost2010Prop36
280
     0
102
RTVSPost2010PropOp36
 70
     1
102
RTVSPost2010Prop37
 90
       50
102
RTVSPost2010PropOp37
 70
     1
102
RTVSPost2010Prop38
140
0.0
102
RTVSPost2010PropOp38
 70
     1
102
RTVSPost2010Prop39
140
1.0
102
RTVSPost2010PropOp39
 70
     1
102
RTVSPost2010Prop40
 90
        0
102
RTVSPost2010PropOp40
 70
     1
102
RTVSPost2010Prop41ColorIndex
 90
       18
102
RTVSPost2010Prop41ColorRGB
 90
        0
102
RTVSPost2010PropOp41
 70
     1
102
RTVSPost2010Prop42
 90
       50
102
RTVSPost2010PropOp42
 70
     1
102
RTVSPost2010Prop43
 90
        3
102
RTVSPost2010PropOp43
 70
     1
102
RTVSPost2010Prop44ColorIndex
 90
        5
102
RTVSPost2010Prop44ColorRGB
 90
      255
102
RTVSPost2010PropOp44
 70
     1
102
RTVSPost2010Prop45
280
     0
102
RTVSPost2010PropOp45
 70
     1
102
RTVSPost2010Prop46
 90
       50
102
RTVSPost2010PropOp46
 70
     1
102
RTVSPost2010Prop47
 90
       50
102
RTVSPost2010PropOp47
 70
     1
102
RTVSPost2010Prop48
 90
       50
102
RTVSPost2010PropOp48
 70
     1
102
RTVSPost2010Prop49
280
     0
102
RTVSPost2010PropOp49
 70
     1
102
RTVSPost2010Prop50
 90
       50
102
RTVSPost2010PropOp50
 70
     1
102
RTVSPost2010Prop51ColorIndex
 90
      256
102
RTVSPost2010Prop51ColorRGB
 90
-16777216
102
RTVSPost2010PropOp51
 70
     0
102
RTVSPost2010Prop52
140
1.0
102
RTVSPost2010PropOp52
 70
     0
102
RTVSPost2010Prop53
 90
        2
102
RTVSPost2010PropOp53
 70
     1
102
RTVSPost2010Prop54
  1
strokes_ogs.tif
102
RTVSPost2010PropOp54
 70
     1
102
RTVSPost2010Prop55
280
     0
102
RTVSPost2010PropOp55
 70
     1
102
RTVSPost2010Prop56
140
1.0
102
RTVSPost2010PropOp56
 70
     1
102
RTVSPost2010Prop57
140
1.0
102
RTVSPost2010PropOp57
 70
     1
102
RTVSPropertyOp0
 70
     1
102
RTVSPropertyOp1
 70
     1
102
RTVSPropertyOp2
 70
     1
102
RTVSPropertyOp3
 70
     1
102
RTVSPropertyOp4
 70
     1
102
RTVSPropertyOp5
 70
     1
102
RTVSPropertyOp6
 70
     1
102
RTVSPropertyOp7
 70
     1
102
RTVSPropertyOp8
 70
     1
102
RTVSPropertyOp9
 70
     1
102
RTVSPropertyOp10
 70
     1
102
RTVSPropertyOp11
 70
     1
102
RTVSPropertyOp12
 70
     1
102
RTVSPropertyOp13
 70
     1
102
RTVSPropertyOp14
 70
     1
102
RTVSPropertyOp15
 70
     1
102
RTVSPropertyOp16
 70
     1
102
RTVSPropertyOp17
 70
     1
102
RTVSPropertyOp18
 70
     1
102
RTVSPropertyOp19
 70
     1
102
RTVSPropertyOp20
 70
     1
102
RTVSPropertyOp21
 70
     1
102
RTVSPropertyOp22
 70
     1
102
RTVSPropertyOp23
 70
     1
102
RTVSPropertyOp24
 70
     1
102
RTVSPropertyOp25
 70
     1
102
RTVSPropertyOp26
 70
     1
102
RTVSPropertyOp27
 70
     1
102
RTVSPropertyOp28
 70
     1
102
RTVSPropertyOp29
 70
     1
102
RTVSPropertyOp30
 70
     1
102
RTVSPropertyOp31
 70
     1
102
RTVSPropertyOp32
 70
     1
102
RTVSPropertyOp33
 70
     1
102
RTVSPropertyOp34
 70
     1
102
RTVSPropertyOp35
 70
     1
102
RTVSPropertyOp36
 70
     1
102
RTVSPropertyOp37
 70
     1
102
RTVSPropertyOp38
 70
     1
102
RTVSPropertyOp39
 70
     1
102
RTVSPropertyOp40
 70
     1
102
RTVSPropertyOp41
 70
     1
102
RTVSPropertyOp42
 70
     1
102
RTVSPropertyOp43
 70
     1
102
RTVSPropertyOp44
 70
     1
102
RTVSPropertyOp45
 70
     1
102
RTVSPropertyOp46
 70
     1
102
RTVSPropertyOp47
 70
     1
102
RTVSPropertyOp48
 70
     1
102
RTVSPropertyOp49
 70
     1
102
RTVSPropertyOp50
 70
     1
102
RTVSPropertyOp51
 70
     0
102
RTVSPropertyOp52
 70
     0
102
RTVSPropertyOp53
 70
     1
102
RTVSPropertyOp54
 70
     1
102
RTVSPropertyOp55
 70
     1
102
RTVSPropertyOp56
 70
     1
102
RTVSPropertyOp57
 70
     1
102
RTVSPropertyOp58
 70
     1
102
RTVSPropertyOp59
 70
     1
102
RTVSPropertyOp60
 70
     1
102
RTVSPropertyOp61
 70
     1
102
RTVSPropertyOp62
 70
     1
  0
XRECORD
  5
A3BE
102
{ACAD_REACTORS
330
A3BD
102
}
330
A3BD
100
AcDbXrecord
280
     1
102
RTVSPost2010Prop28
280
     0
102
RTVSPost2010PropOp28
 70
     1
102
RTVSPost2010Prop29
280
     1
102
RTVSPost2010PropOp29
 70
     1
102
RTVSPost2010Prop30
280
     1
102
RTVSPost2010PropOp30
 70
     1
102
RTVSPost2010Prop31
280
     0
102
RTVSPost2010PropOp31
 70
     1
102
RTVSPost2010Prop32
280
     0
102
RTVSPost2010PropOp32
 70
     1
102
RTVSPost2010Prop33
280
     0
102
RTVSPost2010PropOp33
 70
     1
102
RTVSPost2010Prop34
280
     0
102
RTVSPost2010PropOp34
 70
     1
102
RTVSPost2010Prop35
280
     0
102
RTVSPost2010PropOp35
 70
     1
102
RTVSPost2010Prop36
280
     0
102
RTVSPost2010PropOp36
 70
     1
102
RTVSPost2010Prop37
 90
       50
102
RTVSPost2010PropOp37
 70
     1
102
RTVSPost2010Prop38
140
0.0
102
RTVSPost2010PropOp38
 70
     1
102
RTVSPost2010Prop39
140
1.0
102
RTVSPost2010PropOp39
 70
     1
102
RTVSPost2010Prop40
 90
        0
102
RTVSPost2010PropOp40
 70
     1
102
RTVSPost2010Prop41ColorIndex
 90
       18
102
RTVSPost2010Prop41ColorRGB
 90
        0
102
RTVSPost2010PropOp41
 70
     1
102
RTVSPost2010Prop42
 90
       50
102
RTVSPost2010PropOp42
 70
     1
102
RTVSPost2010Prop43
 90
        3
102
RTVSPost2010PropOp43
 70
     1
102
RTVSPost2010Prop44ColorIndex
 90
        5
102
RTVSPost2010Prop44ColorRGB
 90
      255
102
RTVSPost2010PropOp44
 70
     1
102
RTVSPost2010Prop45
280
     0
102
RTVSPost2010PropOp45
 70
     1
102
RTVSPost2010Prop46
 90
       50
102
RTVSPost2010PropOp46
 70
     1
102
RTVSPost2010Prop47
 90
       50
102
RTVSPost2010PropOp47
 70
     1
102
RTVSPost2010Prop48
 90
       50
102
RTVSPost2010PropOp48
 70
     1
102
RTVSPost2010Prop49
280
     0
102
RTVSPost2010PropOp49
 70
     1
102
RTVSPost2010Prop50
 90
       50
102
RTVSPost2010PropOp50
 70
     1
102
RTVSPost2010Prop51ColorIndex
 90
      256
102
RTVSPost2010Prop51ColorRGB
 90
-16777216
102
RTVSPost2010PropOp51
 70
     0
102
RTVSPost2010Prop52
140
1.0
102
RTVSPost2010PropOp52
 70
     0
102
RTVSPost2010Prop53
 90
        2
102
RTVSPost2010PropOp53
 70
     1
102
RTVSPost2010Prop54
  1
strokes_ogs.tif
102
RTVSPost2010PropOp54
 70
     1
102
RTVSPost2010Prop55
280
     0
102
RTVSPost2010PropOp55
 70
     1
102
RTVSPost2010Prop56
140
1.0
102
RTVSPost2010PropOp56
 70
     1
102
RTVSPost2010Prop57
140
1.0
102
RTVSPost2010PropOp57
 70
     1
102
RTVSPropertyOp0
 70
     1
102
RTVSPropertyOp1
 70
     1
102
RTVSPropertyOp2
 70
     1
102
RTVSPropertyOp3
 70
     1
102
RTVSPropertyOp4
 70
     1
102
RTVSPropertyOp5
 70
     1
102
RTVSPropertyOp6
 70
     1
102
RTVSPropertyOp7
 70
     1
102
RTVSPropertyOp8
 70
     1
102
RTVSPropertyOp9
 70
     1
102
RTVSPropertyOp10
 70
     1
102
RTVSPropertyOp11
 70
     1
102
RTVSPropertyOp12
 70
     1
102
RTVSPropertyOp13
 70
     1
102
RTVSPropertyOp14
 70
     1
102
RTVSPropertyOp15
 70
     1
102
RTVSPropertyOp16
 70
     1
102
RTVSPropertyOp17
 70
     1
102
RTVSPropertyOp18
 70
     1
102
RTVSPropertyOp19
 70
     1
102
RTVSPropertyOp20
 70
     1
102
RTVSPropertyOp21
 70
     1
102
RTVSPropertyOp22
 70
     1
102
RTVSPropertyOp23
 70
     1
102
RTVSPropertyOp24
 70
     1
102
RTVSPropertyOp25
 70
     1
102
RTVSPropertyOp26
 70
     1
102
RTVSPropertyOp27
 70
     1
102
RTVSPropertyOp28
 70
     1
102
RTVSPropertyOp29
 70
     1
102
RTVSPropertyOp30
 70
     1
102
RTVSPropertyOp31
 70
     1
102
RTVSPropertyOp32
 70
     1
102
RTVSPropertyOp33
 70
     1
102
RTVSPropertyOp34
 70
     1
102
RTVSPropertyOp35
 70
     1
102
RTVSPropertyOp36
 70
     1
102
RTVSPropertyOp37
 70
     1
102
RTVSPropertyOp38
 70
     1
102
RTVSPropertyOp39
 70
     1
102
RTVSPropertyOp40
 70
     1
102
RTVSPropertyOp41
 70
     1
102
RTVSPropertyOp42
 70
     1
102
RTVSPropertyOp43
 70
     1
102
RTVSPropertyOp44
 70
     1
102
RTVSPropertyOp45
 70
     1
102
RTVSPropertyOp46
 70
     1
102
RTVSPropertyOp47
 70
     1
102
RTVSPropertyOp48
 70
     1
102
RTVSPropertyOp49
 70
     1
102
RTVSPropertyOp50
 70
     1
102
RTVSPropertyOp51
 70
     0
102
RTVSPropertyOp52
 70
     0
102
RTVSPropertyOp53
 70
     1
102
RTVSPropertyOp54
 70
     1
102
RTVSPropertyOp55
 70
     1
102
RTVSPropertyOp56
 70
     1
102
RTVSPropertyOp57
 70
     1
102
RTVSPropertyOp58
 70
     1
102
RTVSPropertyOp59
 70
     1
102
RTVSPropertyOp60
 70
     1
102
RTVSPropertyOp61
 70
     1
102
RTVSPropertyOp62
 70
     1
  0
XRECORD
  5
A3C2
102
{ACAD_REACTORS
330
A3C1
102
}
330
A3C1
100
AcDbXrecord
280
     1
102
RTVSPost2010Prop28
280
     0
102
RTVSPost2010PropOp28
 70
     1
102
RTVSPost2010Prop29
280
     1
102
RTVSPost2010PropOp29
 70
     1
102
RTVSPost2010Prop30
280
     1
102
RTVSPost2010PropOp30
 70
     1
102
RTVSPost2010Prop31
280
     0
102
RTVSPost2010PropOp31
 70
     1
102
RTVSPost2010Prop32
280
     0
102
RTVSPost2010PropOp32
 70
     1
102
RTVSPost2010Prop33
280
     0
102
RTVSPost2010PropOp33
 70
     1
102
RTVSPost2010Prop34
280
     0
102
RTVSPost2010PropOp34
 70
     1
102
RTVSPost2010Prop35
280
     0
102
RTVSPost2010PropOp35
 70
     1
102
RTVSPost2010Prop36
280
     0
102
RTVSPost2010PropOp36
 70
     1
102
RTVSPost2010Prop37
 90
       50
102
RTVSPost2010PropOp37
 70
     1
102
RTVSPost2010Prop38
140
0.0
102
RTVSPost2010PropOp38
 70
     1
102
RTVSPost2010Prop39
140
1.0
102
RTVSPost2010PropOp39
 70
     1
102
RTVSPost2010Prop40
 90
        0
102
RTVSPost2010PropOp40
 70
     1
102
RTVSPost2010Prop41ColorIndex
 90
       18
102
RTVSPost2010Prop41ColorRGB
 90
        0
102
RTVSPost2010PropOp41
 70
     1
102
RTVSPost2010Prop42
 90
       50
102
RTVSPost2010PropOp42
 70
     1
102
RTVSPost2010Prop43
 90
        3
102
RTVSPost2010PropOp43
 70
     1
102
RTVSPost2010Prop44ColorIndex
 90
        5
102
RTVSPost2010Prop44ColorRGB
 90
      255
102
RTVSPost2010PropOp44
 70
     1
102
RTVSPost2010Prop45
280
     0
102
RTVSPost2010PropOp45
 70
     1
102
RTVSPost2010Prop46
 90
       50
102
RTVSPost2010PropOp46
 70
     1
102
RTVSPost2010Prop47
 90
       50
102
RTVSPost2010PropOp47
 70
     1
102
RTVSPost2010Prop48
 90
       50
102
RTVSPost2010PropOp48
 70
     1
102
RTVSPost2010Prop49
280
     0
102
RTVSPost2010PropOp49
 70
     1
102
RTVSPost2010Prop50
 90
       50
102
RTVSPost2010PropOp50
 70
     1
102
RTVSPost2010Prop51ColorIndex
 90
      256
102
RTVSPost2010Prop51ColorRGB
 90
-16777216
102
RTVSPost2010PropOp51
 70
     0
102
RTVSPost2010Prop52
140
1.0
102
RTVSPost2010PropOp52
 70
     0
102
RTVSPost2010Prop53
 90
        2
102
RTVSPost2010PropOp53
 70
     1
102
RTVSPost2010Prop54
  1
strokes_ogs.tif
102
RTVSPost2010PropOp54
 70
     1
102
RTVSPost2010Prop55
280
     0
102
RTVSPost2010PropOp55
 70
     1
102
RTVSPost2010Prop56
140
1.0
102
RTVSPost2010PropOp56
 70
     1
102
RTVSPost2010Prop57
140
1.0
102
RTVSPost2010PropOp57
 70
     1
102
RTVSPropertyOp0
 70
     1
102
RTVSPropertyOp1
 70
     1
102
RTVSPropertyOp2
 70
     1
102
RTVSPropertyOp3
 70
     1
102
RTVSPropertyOp4
 70
     1
102
RTVSPropertyOp5
 70
     1
102
RTVSPropertyOp6
 70
     1
102
RTVSPropertyOp7
 70
     1
102
RTVSPropertyOp8
 70
     1
102
RTVSPropertyOp9
 70
     1
102
RTVSPropertyOp10
 70
     1
102
RTVSPropertyOp11
 70
     1
102
RTVSPropertyOp12
 70
     1
102
RTVSPropertyOp13
 70
     1
102
RTVSPropertyOp14
 70
     1
102
RTVSPropertyOp15
 70
     1
102
RTVSPropertyOp16
 70
     1
102
RTVSPropertyOp17
 70
     1
102
RTVSPropertyOp18
 70
     1
102
RTVSPropertyOp19
 70
     1
102
RTVSPropertyOp20
 70
     1
102
RTVSPropertyOp21
 70
     1
102
RTVSPropertyOp22
 70
     1
102
RTVSPropertyOp23
 70
     1
102
RTVSPropertyOp24
 70
     1
102
RTVSPropertyOp25
 70
     1
102
RTVSPropertyOp26
 70
     1
102
RTVSPropertyOp27
 70
     1
102
RTVSPropertyOp28
 70
     1
102
RTVSPropertyOp29
 70
     1
102
RTVSPropertyOp30
 70
     1
102
RTVSPropertyOp31
 70
     1
102
RTVSPropertyOp32
 70
     1
102
RTVSPropertyOp33
 70
     1
102
RTVSPropertyOp34
 70
     1
102
RTVSPropertyOp35
 70
     1
102
RTVSPropertyOp36
 70
     1
102
RTVSPropertyOp37
 70
     1
102
RTVSPropertyOp38
 70
     1
102
RTVSPropertyOp39
 70
     1
102
RTVSPropertyOp40
 70
     1
102
RTVSPropertyOp41
 70
     1
102
RTVSPropertyOp42
 70
     1
102
RTVSPropertyOp43
 70
     1
102
RTVSPropertyOp44
 70
     1
102
RTVSPropertyOp45
 70
     1
102
RTVSPropertyOp46
 70
     1
102
RTVSPropertyOp47
 70
     1
102
RTVSPropertyOp48
 70
     1
102
RTVSPropertyOp49
 70
     1
102
RTVSPropertyOp50
 70
     1
102
RTVSPropertyOp51
 70
     0
102
RTVSPropertyOp52
 70
     0
102
RTVSPropertyOp53
 70
     1
102
RTVSPropertyOp54
 70
     1
102
RTVSPropertyOp55
 70
     1
102
RTVSPropertyOp56
 70
     1
102
RTVSPropertyOp57
 70
     1
102
RTVSPropertyOp58
 70
     1
102
RTVSPropertyOp59
 70
     1
102
RTVSPropertyOp60
 70
     1
102
RTVSPropertyOp61
 70
     1
102
RTVSPropertyOp62
 70
     1
  0
XRECORD
  5
A3DC
102
{ACAD_REACTORS
330
A3DB
102
}
330
A3DB
100
AcDbXrecord
280
     1
102
RTVSPost2010Prop28
280
     0
102
RTVSPost2010PropOp28
 70
     1
102
RTVSPost2010Prop29
280
     1
102
RTVSPost2010PropOp29
 70
     1
102
RTVSPost2010Prop30
280
     1
102
RTVSPost2010PropOp30
 70
     1
102
RTVSPost2010Prop31
280
     0
102
RTVSPost2010PropOp31
 70
     1
102
RTVSPost2010Prop32
280
     0
102
RTVSPost2010PropOp32
 70
     1
102
RTVSPost2010Prop33
280
     0
102
RTVSPost2010PropOp33
 70
     1
102
RTVSPost2010Prop34
280
     0
102
RTVSPost2010PropOp34
 70
     1
102
RTVSPost2010Prop35
280
     0
102
RTVSPost2010PropOp35
 70
     1
102
RTVSPost2010Prop36
280
     0
102
RTVSPost2010PropOp36
 70
     1
102
RTVSPost2010Prop37
 90
       50
102
RTVSPost2010PropOp37
 70
     0
102
RTVSPost2010Prop38
140
0.0
102
RTVSPost2010PropOp38
 70
     0
102
RTVSPost2010Prop39
140
1.0
102
RTVSPost2010PropOp39
 70
     0
102
RTVSPost2010Prop40
 90
        0
102
RTVSPost2010PropOp40
 70
     0
102
RTVSPost2010Prop41ColorIndex
 90
       18
102
RTVSPost2010Prop41ColorRGB
 90
        0
102
RTVSPost2010PropOp41
 70
     0
102
RTVSPost2010Prop42
 90
       50
102
RTVSPost2010PropOp42
 70
     0
102
RTVSPost2010Prop43
 90
        3
102
RTVSPost2010PropOp43
 70
     0
102
RTVSPost2010Prop44ColorIndex
 90
        5
102
RTVSPost2010Prop44ColorRGB
 90
      255
102
RTVSPost2010PropOp44
 70
     0
102
RTVSPost2010Prop45
280
     0
102
RTVSPost2010PropOp45
 70
     1
102
RTVSPost2010Prop46
 90
       50
102
RTVSPost2010PropOp46
 70
     0
102
RTVSPost2010Prop47
 90
       50
102
RTVSPost2010PropOp47
 70
     0
102
RTVSPost2010Prop48
 90
       50
102
RTVSPost2010PropOp48
 70
     0
102
RTVSPost2010Prop49
280
     0
102
RTVSPost2010PropOp49
 70
     1
102
RTVSPost2010Prop50
 90
       50
102
RTVSPost2010PropOp50
 70
     0
102
RTVSPost2010Prop51ColorIndex
 90
      256
102
RTVSPost2010Prop51ColorRGB
 90
-16777216
102
RTVSPost2010PropOp51
 70
     0
102
RTVSPost2010Prop52
140
1.0
102
RTVSPost2010PropOp52
 70
     0
102
RTVSPost2010Prop53
 90
        2
102
RTVSPost2010PropOp53
 70
     0
102
RTVSPost2010Prop54
  1
strokes_ogs.tif
102
RTVSPost2010PropOp54
 70
     0
102
RTVSPost2010Prop55
280
     0
102
RTVSPost2010PropOp55
 70
     1
102
RTVSPost2010Prop56
140
1.0
102
RTVSPost2010PropOp56
 70
     0
102
RTVSPost2010Prop57
140
1.0
102
RTVSPost2010PropOp57
 70
     0
102
RTVSPropertyOp0
 70
     0
102
RTVSPropertyOp1
 70
     0
102
RTVSPropertyOp2
 70
     0
102
RTVSPropertyOp3
 70
     0
102
RTVSPropertyOp4
 70
     0
102
RTVSPropertyOp5
 70
     0
102
RTVSPropertyOp6
 70
     0
102
RTVSPropertyOp7
 70
     0
102
RTVSPropertyOp8
 70
     0
102
RTVSPropertyOp9
 70
     0
102
RTVSPropertyOp10
 70
     0
102
RTVSPropertyOp11
 70
     0
102
RTVSPropertyOp12
 70
     0
102
RTVSPropertyOp13
 70
     0
102
RTVSPropertyOp14
 70
     2
102
RTVSPropertyOp15
 70
     0
102
RTVSPropertyOp16
 70
     0
102
RTVSPropertyOp17
 70
     0
102
RTVSPropertyOp18
 70
     0
102
RTVSPropertyOp19
 70
     0
102
RTVSPropertyOp20
 70
     0
102
RTVSPropertyOp21
 70
     0
102
RTVSPropertyOp22
 70
     0
102
RTVSPropertyOp23
 70
     0
102
RTVSPropertyOp24
 70
     0
102
RTVSPropertyOp25
 70
     0
102
RTVSPropertyOp26
 70
     0
102
RTVSPropertyOp27
 70
     0
102
RTVSPropertyOp28
 70
     1
102
RTVSPropertyOp29
 70
     1
102
RTVSPropertyOp30
 70
     1
102
RTVSPropertyOp31
 70
     1
102
RTVSPropertyOp32
 70
     1
102
RTVSPropertyOp33
 70
     1
102
RTVSPropertyOp34
 70
     1
102
RTVSPropertyOp35
 70
     1
102
RTVSPropertyOp36
 70
     1
102
RTVSPropertyOp37
 70
     0
102
RTVSPropertyOp38
 70
     0
102
RTVSPropertyOp39
 70
     0
102
RTVSPropertyOp40
 70
     0
102
RTVSPropertyOp41
 70
     0
102
RTVSPropertyOp42
 70
     0
102
RTVSPropertyOp43
 70
     0
102
RTVSPropertyOp44
 70
     0
102
RTVSPropertyOp45
 70
     1
102
RTVSPropertyOp46
 70
     0
102
RTVSPropertyOp47
 70
     0
102
RTVSPropertyOp48
 70
     0
102
RTVSPropertyOp49
 70
     1
102
RTVSPropertyOp50
 70
     0
102
RTVSPropertyOp51
 70
     0
102
RTVSPropertyOp52
 70
     0
102
RTVSPropertyOp53
 70
     0
102
RTVSPropertyOp54
 70
     0
102
RTVSPropertyOp55
 70
     1
102
RTVSPropertyOp56
 70
     0
102
RTVSPropertyOp57
 70
     0
102
RTVSPropertyOp58
 70
     0
102
RTVSPropertyOp59
 70
     0
102
RTVSPropertyOp60
 70
     0
102
RTVSPropertyOp61
 70
     0
102
RTVSPropertyOp62
 70
     0
  0
XRECORD
  5
A3CA
102
{ACAD_REACTORS
330
A3C9
102
}
330
A3C9
100
AcDbXrecord
280
     1
102
RTVSPost2010Prop28
280
     0
102
RTVSPost2010PropOp28
 70
     1
102
RTVSPost2010Prop29
280
     1
102
RTVSPost2010PropOp29
 70
     1
102
RTVSPost2010Prop30
280
     1
102
RTVSPost2010PropOp30
 70
     1
102
RTVSPost2010Prop31
280
     0
102
RTVSPost2010PropOp31
 70
     1
102
RTVSPost2010Prop32
280
     0
102
RTVSPost2010PropOp32
 70
     1
102
RTVSPost2010Prop33
280
     0
102
RTVSPost2010PropOp33
 70
     1
102
RTVSPost2010Prop34
280
     0
102
RTVSPost2010PropOp34
 70
     1
102
RTVSPost2010Prop35
280
     0
102
RTVSPost2010PropOp35
 70
     1
102
RTVSPost2010Prop36
280
     0
102
RTVSPost2010PropOp36
 70
     1
102
RTVSPost2010Prop37
 90
       50
102
RTVSPost2010PropOp37
 70
     1
102
RTVSPost2010Prop38
140
0.0
102
RTVSPost2010PropOp38
 70
     1
102
RTVSPost2010Prop39
140
1.0
102
RTVSPost2010PropOp39
 70
     1
102
RTVSPost2010Prop40
 90
        0
102
RTVSPost2010PropOp40
 70
     1
102
RTVSPost2010Prop41ColorIndex
 90
       18
102
RTVSPost2010Prop41ColorRGB
 90
        0
102
RTVSPost2010PropOp41
 70
     1
102
RTVSPost2010Prop42
 90
       50
102
RTVSPost2010PropOp42
 70
     1
102
RTVSPost2010Prop43
 90
        3
102
RTVSPost2010PropOp43
 70
     1
102
RTVSPost2010Prop44ColorIndex
 90
        5
102
RTVSPost2010Prop44ColorRGB
 90
      255
102
RTVSPost2010PropOp44
 70
     1
102
RTVSPost2010Prop45
280
     0
102
RTVSPost2010PropOp45
 70
     1
102
RTVSPost2010Prop46
 90
       50
102
RTVSPost2010PropOp46
 70
     1
102
RTVSPost2010Prop47
 90
       50
102
RTVSPost2010PropOp47
 70
     1
102
RTVSPost2010Prop48
 90
       50
102
RTVSPost2010PropOp48
 70
     1
102
RTVSPost2010Prop49
280
     0
102
RTVSPost2010PropOp49
 70
     1
102
RTVSPost2010Prop50
 90
       50
102
RTVSPost2010PropOp50
 70
     1
102
RTVSPost2010Prop51ColorIndex
 90
      256
102
RTVSPost2010Prop51ColorRGB
 90
-16777216
102
RTVSPost2010PropOp51
 70
     0
102
RTVSPost2010Prop52
140
1.0
102
RTVSPost2010PropOp52
 70
     0
102
RTVSPost2010Prop53
 90
        2
102
RTVSPost2010PropOp53
 70
     1
102
RTVSPost2010Prop54
  1
strokes_ogs.tif
102
RTVSPost2010PropOp54
 70
     1
102
RTVSPost2010Prop55
280
     0
102
RTVSPost2010PropOp55
 70
     1
102
RTVSPost2010Prop56
140
1.0
102
RTVSPost2010PropOp56
 70
     1
102
RTVSPost2010Prop57
140
1.0
102
RTVSPost2010PropOp57
 70
     1
102
RTVSPropertyOp0
 70
     1
102
RTVSPropertyOp1
 70
     1
102
RTVSPropertyOp2
 70
     1
102
RTVSPropertyOp3
 70
     1
102
RTVSPropertyOp4
 70
     1
102
RTVSPropertyOp5
 70
     1
102
RTVSPropertyOp6
 70
     1
102
RTVSPropertyOp7
 70
     1
102
RTVSPropertyOp8
 70
     1
102
RTVSPropertyOp9
 70
     1
102
RTVSPropertyOp10
 70
     1
102
RTVSPropertyOp11
 70
     1
102
RTVSPropertyOp12
 70
     1
102
RTVSPropertyOp13
 70
     1
102
RTVSPropertyOp14
 70
     1
102
RTVSPropertyOp15
 70
     1
102
RTVSPropertyOp16
 70
     1
102
RTVSPropertyOp17
 70
     1
102
RTVSPropertyOp18
 70
     1
102
RTVSPropertyOp19
 70
     1
102
RTVSPropertyOp20
 70
     1
102
RTVSPropertyOp21
 70
     1
102
RTVSPropertyOp22
 70
     1
102
RTVSPropertyOp23
 70
     1
102
RTVSPropertyOp24
 70
     1
102
RTVSPropertyOp25
 70
     1
102
RTVSPropertyOp26
 70
     1
102
RTVSPropertyOp27
 70
     1
102
RTVSPropertyOp28
 70
     1
102
RTVSPropertyOp29
 70
     1
102
RTVSPropertyOp30
 70
     1
102
RTVSPropertyOp31
 70
     1
102
RTVSPropertyOp32
 70
     1
102
RTVSPropertyOp33
 70
     1
102
RTVSPropertyOp34
 70
     1
102
RTVSPropertyOp35
 70
     1
102
RTVSPropertyOp36
 70
     1
102
RTVSPropertyOp37
 70
     1
102
RTVSPropertyOp38
 70
     1
102
RTVSPropertyOp39
 70
     1
102
RTVSPropertyOp40
 70
     1
102
RTVSPropertyOp41
 70
     1
102
RTVSPropertyOp42
 70
     1
102
RTVSPropertyOp43
 70
     1
102
RTVSPropertyOp44
 70
     1
102
RTVSPropertyOp45
 70
     1
102
RTVSPropertyOp46
 70
     1
102
RTVSPropertyOp47
 70
     1
102
RTVSPropertyOp48
 70
     1
102
RTVSPropertyOp49
 70
     1
102
RTVSPropertyOp50
 70
     1
102
RTVSPropertyOp51
 70
     0
102
RTVSPropertyOp52
 70
     0
102
RTVSPropertyOp53
 70
     1
102
RTVSPropertyOp54
 70
     1
102
RTVSPropertyOp55
 70
     1
102
RTVSPropertyOp56
 70
     1
102
RTVSPropertyOp57
 70
     1
102
RTVSPropertyOp58
 70
     1
102
RTVSPropertyOp59
 70
     1
102
RTVSPropertyOp60
 70
     1
102
RTVSPropertyOp61
 70
     1
102
RTVSPropertyOp62
 70
     1
  0
XRECORD
  5
A3AE
102
{ACAD_REACTORS
330
A3AD
102
}
330
A3AD
100
AcDbXrecord
280
     1
102
RTVSPost2010Prop28
280
     0
102
RTVSPost2010PropOp28
 70
     1
102
RTVSPost2010Prop29
280
     1
102
RTVSPost2010PropOp29
 70
     1
102
RTVSPost2010Prop30
280
     1
102
RTVSPost2010PropOp30
 70
     1
102
RTVSPost2010Prop31
280
     0
102
RTVSPost2010PropOp31
 70
     1
102
RTVSPost2010Prop32
280
     0
102
RTVSPost2010PropOp32
 70
     1
102
RTVSPost2010Prop33
280
     0
102
RTVSPost2010PropOp33
 70
     1
102
RTVSPost2010Prop34
280
     0
102
RTVSPost2010PropOp34
 70
     1
102
RTVSPost2010Prop35
280
     0
102
RTVSPost2010PropOp35
 70
     1
102
RTVSPost2010Prop36
280
     0
102
RTVSPost2010PropOp36
 70
     1
102
RTVSPost2010Prop37
 90
       50
102
RTVSPost2010PropOp37
 70
     1
102
RTVSPost2010Prop38
140
0.0
102
RTVSPost2010PropOp38
 70
     1
102
RTVSPost2010Prop39
140
1.0
102
RTVSPost2010PropOp39
 70
     1
102
RTVSPost2010Prop40
 90
        0
102
RTVSPost2010PropOp40
 70
     1
102
RTVSPost2010Prop41ColorIndex
 90
       18
102
RTVSPost2010Prop41ColorRGB
 90
        0
102
RTVSPost2010PropOp41
 70
     1
102
RTVSPost2010Prop42
 90
       50
102
RTVSPost2010PropOp42
 70
     1
102
RTVSPost2010Prop43
 90
        3
102
RTVSPost2010PropOp43
 70
     1
102
RTVSPost2010Prop44ColorIndex
 90
        5
102
RTVSPost2010Prop44ColorRGB
 90
      255
102
RTVSPost2010PropOp44
 70
     1
102
RTVSPost2010Prop45
280
     0
102
RTVSPost2010PropOp45
 70
     1
102
RTVSPost2010Prop46
 90
       50
102
RTVSPost2010PropOp46
 70
     1
102
RTVSPost2010Prop47
 90
       50
102
RTVSPost2010PropOp47
 70
     1
102
RTVSPost2010Prop48
 90
       50
102
RTVSPost2010PropOp48
 70
     1
102
RTVSPost2010Prop49
280
     0
102
RTVSPost2010PropOp49
 70
     1
102
RTVSPost2010Prop50
 90
       50
102
RTVSPost2010PropOp50
 70
     1
102
RTVSPost2010Prop51ColorIndex
 90
      256
102
RTVSPost2010Prop51ColorRGB
 90
-16777216
102
RTVSPost2010PropOp51
 70
     0
102
RTVSPost2010Prop52
140
1.0
102
RTVSPost2010PropOp52
 70
     0
102
RTVSPost2010Prop53
 90
        2
102
RTVSPost2010PropOp53
 70
     1
102
RTVSPost2010Prop54
  1
strokes_ogs.tif
102
RTVSPost2010PropOp54
 70
     1
102
RTVSPost2010Prop55
280
     0
102
RTVSPost2010PropOp55
 70
     1
102
RTVSPost2010Prop56
140
1.0
102
RTVSPost2010PropOp56
 70
     1
102
RTVSPost2010Prop57
140
1.0
102
RTVSPost2010PropOp57
 70
     1
102
RTVSPropertyOp0
 70
     1
102
RTVSPropertyOp1
 70
     1
102
RTVSPropertyOp2
 70
     1
102
RTVSPropertyOp3
 70
     1
102
RTVSPropertyOp4
 70
     1
102
RTVSPropertyOp5
 70
     1
102
RTVSPropertyOp6
 70
     1
102
RTVSPropertyOp7
 70
     1
102
RTVSPropertyOp8
 70
     1
102
RTVSPropertyOp9
 70
     1
102
RTVSPropertyOp10
 70
     1
102
RTVSPropertyOp11
 70
     1
102
RTVSPropertyOp12
 70
     1
102
RTVSPropertyOp13
 70
     1
102
RTVSPropertyOp14
 70
     1
102
RTVSPropertyOp15
 70
     1
102
RTVSPropertyOp16
 70
     1
102
RTVSPropertyOp17
 70
     1
102
RTVSPropertyOp18
 70
     1
102
RTVSPropertyOp19
 70
     1
102
RTVSPropertyOp20
 70
     1
102
RTVSPropertyOp21
 70
     1
102
RTVSPropertyOp22
 70
     1
102
RTVSPropertyOp23
 70
     1
102
RTVSPropertyOp24
 70
     1
102
RTVSPropertyOp25
 70
     1
102
RTVSPropertyOp26
 70
     1
102
RTVSPropertyOp27
 70
     1
102
RTVSPropertyOp28
 70
     1
102
RTVSPropertyOp29
 70
     1
102
RTVSPropertyOp30
 70
     1
102
RTVSPropertyOp31
 70
     1
102
RTVSPropertyOp32
 70
     1
102
RTVSPropertyOp33
 70
     1
102
RTVSPropertyOp34
 70
     1
102
RTVSPropertyOp35
 70
     1
102
RTVSPropertyOp36
 70
     1
102
RTVSPropertyOp37
 70
     1
102
RTVSPropertyOp38
 70
     1
102
RTVSPropertyOp39
 70
     1
102
RTVSPropertyOp40
 70
     1
102
RTVSPropertyOp41
 70
     1
102
RTVSPropertyOp42
 70
     1
102
RTVSPropertyOp43
 70
     1
102
RTVSPropertyOp44
 70
     1
102
RTVSPropertyOp45
 70
     1
102
RTVSPropertyOp46
 70
     1
102
RTVSPropertyOp47
 70
     1
102
RTVSPropertyOp48
 70
     1
102
RTVSPropertyOp49
 70
     1
102
RTVSPropertyOp50
 70
     1
102
RTVSPropertyOp51
 70
     0
102
RTVSPropertyOp52
 70
     0
102
RTVSPropertyOp53
 70
     1
102
RTVSPropertyOp54
 70
     1
102
RTVSPropertyOp55
 70
     1
102
RTVSPropertyOp56
 70
     1
102
RTVSPropertyOp57
 70
     1
102
RTVSPropertyOp58
 70
     1
102
RTVSPropertyOp59
 70
     1
102
RTVSPropertyOp60
 70
     1
102
RTVSPropertyOp61
 70
     1
102
RTVSPropertyOp62
 70
     1
  0
XRECORD
  5
A3B0
102
{ACAD_REACTORS
330
A3AF
102
}
330
A3AF
100
AcDbXrecord
280
     1
102
RTVSPost2010Prop28
280
     0
102
RTVSPost2010PropOp28
 70
     1
102
RTVSPost2010Prop29
280
     1
102
RTVSPost2010PropOp29
 70
     1
102
RTVSPost2010Prop30
280
     1
102
RTVSPost2010PropOp30
 70
     1
102
RTVSPost2010Prop31
280
     0
102
RTVSPost2010PropOp31
 70
     1
102
RTVSPost2010Prop32
280
     0
102
RTVSPost2010PropOp32
 70
     1
102
RTVSPost2010Prop33
280
     0
102
RTVSPost2010PropOp33
 70
     1
102
RTVSPost2010Prop34
280
     0
102
RTVSPost2010PropOp34
 70
     1
102
RTVSPost2010Prop35
280
     0
102
RTVSPost2010PropOp35
 70
     1
102
RTVSPost2010Prop36
280
     0
102
RTVSPost2010PropOp36
 70
     1
102
RTVSPost2010Prop37
 90
       50
102
RTVSPost2010PropOp37
 70
     1
102
RTVSPost2010Prop38
140
0.0
102
RTVSPost2010PropOp38
 70
     1
102
RTVSPost2010Prop39
140
1.0
102
RTVSPost2010PropOp39
 70
     1
102
RTVSPost2010Prop40
 90
        0
102
RTVSPost2010PropOp40
 70
     1
102
RTVSPost2010Prop41ColorIndex
 90
       18
102
RTVSPost2010Prop41ColorRGB
 90
        0
102
RTVSPost2010PropOp41
 70
     1
102
RTVSPost2010Prop42
 90
       50
102
RTVSPost2010PropOp42
 70
     1
102
RTVSPost2010Prop43
 90
        3
102
RTVSPost2010PropOp43
 70
     1
102
RTVSPost2010Prop44ColorIndex
 90
        5
102
RTVSPost2010Prop44ColorRGB
 90
      255
102
RTVSPost2010PropOp44
 70
     1
102
RTVSPost2010Prop45
280
     0
102
RTVSPost2010PropOp45
 70
     1
102
RTVSPost2010Prop46
 90
       50
102
RTVSPost2010PropOp46
 70
     1
102
RTVSPost2010Prop47
 90
       50
102
RTVSPost2010PropOp47
 70
     1
102
RTVSPost2010Prop48
 90
       50
102
RTVSPost2010PropOp48
 70
     1
102
RTVSPost2010Prop49
280
     0
102
RTVSPost2010PropOp49
 70
     1
102
RTVSPost2010Prop50
 90
       50
102
RTVSPost2010PropOp50
 70
     1
102
RTVSPost2010Prop51ColorIndex
 90
      256
102
RTVSPost2010Prop51ColorRGB
 90
-16777216
102
RTVSPost2010PropOp51
 70
     0
102
RTVSPost2010Prop52
140
1.0
102
RTVSPost2010PropOp52
 70
     0
102
RTVSPost2010Prop53
 90
        2
102
RTVSPost2010PropOp53
 70
     1
102
RTVSPost2010Prop54
  1
strokes_ogs.tif
102
RTVSPost2010PropOp54
 70
     1
102
RTVSPost2010Prop55
280
     0
102
RTVSPost2010PropOp55
 70
     1
102
RTVSPost2010Prop56
140
1.0
102
RTVSPost2010PropOp56
 70
     1
102
RTVSPost2010Prop57
140
1.0
102
RTVSPost2010PropOp57
 70
     1
102
RTVSPropertyOp0
 70
     1
102
RTVSPropertyOp1
 70
     1
102
RTVSPropertyOp2
 70
     1
102
RTVSPropertyOp3
 70
     1
102
RTVSPropertyOp4
 70
     1
102
RTVSPropertyOp5
 70
     1
102
RTVSPropertyOp6
 70
     1
102
RTVSPropertyOp7
 70
     1
102
RTVSPropertyOp8
 70
     1
102
RTVSPropertyOp9
 70
     1
102
RTVSPropertyOp10
 70
     1
102
RTVSPropertyOp11
 70
     1
102
RTVSPropertyOp12
 70
     1
102
RTVSPropertyOp13
 70
     1
102
RTVSPropertyOp14
 70
     1
102
RTVSPropertyOp15
 70
     1
102
RTVSPropertyOp16
 70
     1
102
RTVSPropertyOp17
 70
     1
102
RTVSPropertyOp18
 70
     1
102
RTVSPropertyOp19
 70
     1
102
RTVSPropertyOp20
 70
     1
102
RTVSPropertyOp21
 70
     1
102
RTVSPropertyOp22
 70
     1
102
RTVSPropertyOp23
 70
     1
102
RTVSPropertyOp24
 70
     1
102
RTVSPropertyOp25
 70
     1
102
RTVSPropertyOp26
 70
     1
102
RTVSPropertyOp27
 70
     1
102
RTVSPropertyOp28
 70
     1
102
RTVSPropertyOp29
 70
     1
102
RTVSPropertyOp30
 70
     1
102
RTVSPropertyOp31
 70
     1
102
RTVSPropertyOp32
 70
     1
102
RTVSPropertyOp33
 70
     1
102
RTVSPropertyOp34
 70
     1
102
RTVSPropertyOp35
 70
     1
102
RTVSPropertyOp36
 70
     1
102
RTVSPropertyOp37
 70
     1
102
RTVSPropertyOp38
 70
     1
102
RTVSPropertyOp39
 70
     1
102
RTVSPropertyOp40
 70
     1
102
RTVSPropertyOp41
 70
     1
102
RTVSPropertyOp42
 70
     1
102
RTVSPropertyOp43
 70
     1
102
RTVSPropertyOp44
 70
     1
102
RTVSPropertyOp45
 70
     1
102
RTVSPropertyOp46
 70
     1
102
RTVSPropertyOp47
 70
     1
102
RTVSPropertyOp48
 70
     1
102
RTVSPropertyOp49
 70
     1
102
RTVSPropertyOp50
 70
     1
102
RTVSPropertyOp51
 70
     0
102
RTVSPropertyOp52
 70
     0
102
RTVSPropertyOp53
 70
     1
102
RTVSPropertyOp54
 70
     1
102
RTVSPropertyOp55
 70
     1
102
RTVSPropertyOp56
 70
     1
102
RTVSPropertyOp57
 70
     1
102
RTVSPropertyOp58
 70
     1
102
RTVSPropertyOp59
 70
     1
102
RTVSPropertyOp60
 70
     1
102
RTVSPropertyOp61
 70
     1
102
RTVSPropertyOp62
 70
     1
  0
XRECORD
  5
A3B2
102
{ACAD_REACTORS
330
A3B1
102
}
330
A3B1
100
AcDbXrecord
280
     1
102
RTVSPost2010Prop28
280
     0
102
RTVSPost2010PropOp28
 70
     1
102
RTVSPost2010Prop29
280
     1
102
RTVSPost2010PropOp29
 70
     1
102
RTVSPost2010Prop30
280
     1
102
RTVSPost2010PropOp30
 70
     1
102
RTVSPost2010Prop31
280
     0
102
RTVSPost2010PropOp31
 70
     1
102
RTVSPost2010Prop32
280
     0
102
RTVSPost2010PropOp32
 70
     1
102
RTVSPost2010Prop33
280
     0
102
RTVSPost2010PropOp33
 70
     1
102
RTVSPost2010Prop34
280
     0
102
RTVSPost2010PropOp34
 70
     1
102
RTVSPost2010Prop35
280
     0
102
RTVSPost2010PropOp35
 70
     1
102
RTVSPost2010Prop36
280
     0
102
RTVSPost2010PropOp36
 70
     1
102
RTVSPost2010Prop37
 90
       50
102
RTVSPost2010PropOp37
 70
     1
102
RTVSPost2010Prop38
140
0.0
102
RTVSPost2010PropOp38
 70
     1
102
RTVSPost2010Prop39
140
1.0
102
RTVSPost2010PropOp39
 70
     1
102
RTVSPost2010Prop40
 90
        0
102
RTVSPost2010PropOp40
 70
     1
102
RTVSPost2010Prop41ColorIndex
 90
       18
102
RTVSPost2010Prop41ColorRGB
 90
        0
102
RTVSPost2010PropOp41
 70
     1
102
RTVSPost2010Prop42
 90
       50
102
RTVSPost2010PropOp42
 70
     1
102
RTVSPost2010Prop43
 90
        3
102
RTVSPost2010PropOp43
 70
     1
102
RTVSPost2010Prop44ColorIndex
 90
        5
102
RTVSPost2010Prop44ColorRGB
 90
      255
102
RTVSPost2010PropOp44
 70
     1
102
RTVSPost2010Prop45
280
     0
102
RTVSPost2010PropOp45
 70
     1
102
RTVSPost2010Prop46
 90
       50
102
RTVSPost2010PropOp46
 70
     1
102
RTVSPost2010Prop47
 90
       50
102
RTVSPost2010PropOp47
 70
     1
102
RTVSPost2010Prop48
 90
       50
102
RTVSPost2010PropOp48
 70
     1
102
RTVSPost2010Prop49
280
     0
102
RTVSPost2010PropOp49
 70
     1
102
RTVSPost2010Prop50
 90
       50
102
RTVSPost2010PropOp50
 70
     1
102
RTVSPost2010Prop51ColorIndex
 90
      256
102
RTVSPost2010Prop51ColorRGB
 90
-16777216
102
RTVSPost2010PropOp51
 70
     0
102
RTVSPost2010Prop52
140
1.0
102
RTVSPost2010PropOp52
 70
     0
102
RTVSPost2010Prop53
 90
        2
102
RTVSPost2010PropOp53
 70
     1
102
RTVSPost2010Prop54
  1
strokes_ogs.tif
102
RTVSPost2010PropOp54
 70
     1
102
RTVSPost2010Prop55
280
     0
102
RTVSPost2010PropOp55
 70
     1
102
RTVSPost2010Prop56
140
1.0
102
RTVSPost2010PropOp56
 70
     1
102
RTVSPost2010Prop57
140
1.0
102
RTVSPost2010PropOp57
 70
     1
102
RTVSPropertyOp0
 70
     1
102
RTVSPropertyOp1
 70
     1
102
RTVSPropertyOp2
 70
     1
102
RTVSPropertyOp3
 70
     1
102
RTVSPropertyOp4
 70
     1
102
RTVSPropertyOp5
 70
     1
102
RTVSPropertyOp6
 70
     1
102
RTVSPropertyOp7
 70
     1
102
RTVSPropertyOp8
 70
     1
102
RTVSPropertyOp9
 70
     1
102
RTVSPropertyOp10
 70
     1
102
RTVSPropertyOp11
 70
     1
102
RTVSPropertyOp12
 70
     1
102
RTVSPropertyOp13
 70
     1
102
RTVSPropertyOp14
 70
     1
102
RTVSPropertyOp15
 70
     1
102
RTVSPropertyOp16
 70
     1
102
RTVSPropertyOp17
 70
     1
102
RTVSPropertyOp18
 70
     1
102
RTVSPropertyOp19
 70
     1
102
RTVSPropertyOp20
 70
     1
102
RTVSPropertyOp21
 70
     1
102
RTVSPropertyOp22
 70
     1
102
RTVSPropertyOp23
 70
     1
102
RTVSPropertyOp24
 70
     1
102
RTVSPropertyOp25
 70
     1
102
RTVSPropertyOp26
 70
     1
102
RTVSPropertyOp27
 70
     1
102
RTVSPropertyOp28
 70
     1
102
RTVSPropertyOp29
 70
     1
102
RTVSPropertyOp30
 70
     1
102
RTVSPropertyOp31
 70
     1
102
RTVSPropertyOp32
 70
     1
102
RTVSPropertyOp33
 70
     1
102
RTVSPropertyOp34
 70
     1
102
RTVSPropertyOp35
 70
     1
102
RTVSPropertyOp36
 70
     1
102
RTVSPropertyOp37
 70
     1
102
RTVSPropertyOp38
 70
     1
102
RTVSPropertyOp39
 70
     1
102
RTVSPropertyOp40
 70
     1
102
RTVSPropertyOp41
 70
     1
102
RTVSPropertyOp42
 70
     1
102
RTVSPropertyOp43
 70
     1
102
RTVSPropertyOp44
 70
     1
102
RTVSPropertyOp45
 70
     1
102
RTVSPropertyOp46
 70
     1
102
RTVSPropertyOp47
 70
     1
102
RTVSPropertyOp48
 70
     1
102
RTVSPropertyOp49
 70
     1
102
RTVSPropertyOp50
 70
     1
102
RTVSPropertyOp51
 70
     0
102
RTVSPropertyOp52
 70
     0
102
RTVSPropertyOp53
 70
     1
102
RTVSPropertyOp54
 70
     1
102
RTVSPropertyOp55
 70
     1
102
RTVSPropertyOp56
 70
     1
102
RTVSPropertyOp57
 70
     1
102
RTVSPropertyOp58
 70
     1
102
RTVSPropertyOp59
 70
     1
102
RTVSPropertyOp60
 70
     1
102
RTVSPropertyOp61
 70
     1
102
RTVSPropertyOp62
 70
     1
  0
XRECORD
  5
A3B4
102
{ACAD_REACTORS
330
A3B3
102
}
330
A3B3
100
AcDbXrecord
280
     1
102
RTVSPost2010Prop28
280
     0
102
RTVSPost2010PropOp28
 70
     1
102
RTVSPost2010Prop29
280
     1
102
RTVSPost2010PropOp29
 70
     1
102
RTVSPost2010Prop30
280
     1
102
RTVSPost2010PropOp30
 70
     1
102
RTVSPost2010Prop31
280
     0
102
RTVSPost2010PropOp31
 70
     1
102
RTVSPost2010Prop32
280
     0
102
RTVSPost2010PropOp32
 70
     1
102
RTVSPost2010Prop33
280
     0
102
RTVSPost2010PropOp33
 70
     1
102
RTVSPost2010Prop34
280
     0
102
RTVSPost2010PropOp34
 70
     1
102
RTVSPost2010Prop35
280
     0
102
RTVSPost2010PropOp35
 70
     1
102
RTVSPost2010Prop36
280
     0
102
RTVSPost2010PropOp36
 70
     1
102
RTVSPost2010Prop37
 90
       50
102
RTVSPost2010PropOp37
 70
     1
102
RTVSPost2010Prop38
140
0.0
102
RTVSPost2010PropOp38
 70
     1
102
RTVSPost2010Prop39
140
1.0
102
RTVSPost2010PropOp39
 70
     1
102
RTVSPost2010Prop40
 90
        0
102
RTVSPost2010PropOp40
 70
     1
102
RTVSPost2010Prop41ColorIndex
 90
       18
102
RTVSPost2010Prop41ColorRGB
 90
        0
102
RTVSPost2010PropOp41
 70
     1
102
RTVSPost2010Prop42
 90
       50
102
RTVSPost2010PropOp42
 70
     1
102
RTVSPost2010Prop43
 90
        3
102
RTVSPost2010PropOp43
 70
     1
102
RTVSPost2010Prop44ColorIndex
 90
        5
102
RTVSPost2010Prop44ColorRGB
 90
      255
102
RTVSPost2010PropOp44
 70
     1
102
RTVSPost2010Prop45
280
     0
102
RTVSPost2010PropOp45
 70
     1
102
RTVSPost2010Prop46
 90
       50
102
RTVSPost2010PropOp46
 70
     1
102
RTVSPost2010Prop47
 90
       50
102
RTVSPost2010PropOp47
 70
     1
102
RTVSPost2010Prop48
 90
       50
102
RTVSPost2010PropOp48
 70
     1
102
RTVSPost2010Prop49
280
     0
102
RTVSPost2010PropOp49
 70
     1
102
RTVSPost2010Prop50
 90
       50
102
RTVSPost2010PropOp50
 70
     1
102
RTVSPost2010Prop51ColorIndex
 90
      256
102
RTVSPost2010Prop51ColorRGB
 90
-16777216
102
RTVSPost2010PropOp51
 70
     0
102
RTVSPost2010Prop52
140
1.0
102
RTVSPost2010PropOp52
 70
     0
102
RTVSPost2010Prop53
 90
        2
102
RTVSPost2010PropOp53
 70
     1
102
RTVSPost2010Prop54
  1
strokes_ogs.tif
102
RTVSPost2010PropOp54
 70
     1
102
RTVSPost2010Prop55
280
     0
102
RTVSPost2010PropOp55
 70
     1
102
RTVSPost2010Prop56
140
1.0
102
RTVSPost2010PropOp56
 70
     1
102
RTVSPost2010Prop57
140
1.0
102
RTVSPost2010PropOp57
 70
     1
102
RTVSPropertyOp0
 70
     1
102
RTVSPropertyOp1
 70
     1
102
RTVSPropertyOp2
 70
     1
102
RTVSPropertyOp3
 70
     1
102
RTVSPropertyOp4
 70
     1
102
RTVSPropertyOp5
 70
     1
102
RTVSPropertyOp6
 70
     1
102
RTVSPropertyOp7
 70
     1
102
RTVSPropertyOp8
 70
     1
102
RTVSPropertyOp9
 70
     1
102
RTVSPropertyOp10
 70
     1
102
RTVSPropertyOp11
 70
     1
102
RTVSPropertyOp12
 70
     1
102
RTVSPropertyOp13
 70
     1
102
RTVSPropertyOp14
 70
     1
102
RTVSPropertyOp15
 70
     1
102
RTVSPropertyOp16
 70
     1
102
RTVSPropertyOp17
 70
     1
102
RTVSPropertyOp18
 70
     1
102
RTVSPropertyOp19
 70
     1
102
RTVSPropertyOp20
 70
     1
102
RTVSPropertyOp21
 70
     1
102
RTVSPropertyOp22
 70
     1
102
RTVSPropertyOp23
 70
     1
102
RTVSPropertyOp24
 70
     1
102
RTVSPropertyOp25
 70
     1
102
RTVSPropertyOp26
 70
     1
102
RTVSPropertyOp27
 70
     1
102
RTVSPropertyOp28
 70
     1
102
RTVSPropertyOp29
 70
     1
102
RTVSPropertyOp30
 70
     1
102
RTVSPropertyOp31
 70
     1
102
RTVSPropertyOp32
 70
     1
102
RTVSPropertyOp33
 70
     1
102
RTVSPropertyOp34
 70
     1
102
RTVSPropertyOp35
 70
     1
102
RTVSPropertyOp36
 70
     1
102
RTVSPropertyOp37
 70
     1
102
RTVSPropertyOp38
 70
     1
102
RTVSPropertyOp39
 70
     1
102
RTVSPropertyOp40
 70
     1
102
RTVSPropertyOp41
 70
     1
102
RTVSPropertyOp42
 70
     1
102
RTVSPropertyOp43
 70
     1
102
RTVSPropertyOp44
 70
     1
102
RTVSPropertyOp45
 70
     1
102
RTVSPropertyOp46
 70
     1
102
RTVSPropertyOp47
 70
     1
102
RTVSPropertyOp48
 70
     1
102
RTVSPropertyOp49
 70
     1
102
RTVSPropertyOp50
 70
     1
102
RTVSPropertyOp51
 70
     0
102
RTVSPropertyOp52
 70
     0
102
RTVSPropertyOp53
 70
     1
102
RTVSPropertyOp54
 70
     1
102
RTVSPropertyOp55
 70
     1
102
RTVSPropertyOp56
 70
     1
102
RTVSPropertyOp57
 70
     1
102
RTVSPropertyOp58
 70
     1
102
RTVSPropertyOp59
 70
     1
102
RTVSPropertyOp60
 70
     1
102
RTVSPropertyOp61
 70
     1
102
RTVSPropertyOp62
 70
     1
  0
XRECORD
  5
A3BC
102
{ACAD_REACTORS
330
A3BB
102
}
330
A3BB
100
AcDbXrecord
280
     1
102
RTVSPost2010Prop28
280
     0
102
RTVSPost2010PropOp28
 70
     1
102
RTVSPost2010Prop29
280
     1
102
RTVSPost2010PropOp29
 70
     1
102
RTVSPost2010Prop30
280
     1
102
RTVSPost2010PropOp30
 70
     1
102
RTVSPost2010Prop31
280
     0
102
RTVSPost2010PropOp31
 70
     1
102
RTVSPost2010Prop32
280
     0
102
RTVSPost2010PropOp32
 70
     1
102
RTVSPost2010Prop33
280
     0
102
RTVSPost2010PropOp33
 70
     1
102
RTVSPost2010Prop34
280
     0
102
RTVSPost2010PropOp34
 70
     1
102
RTVSPost2010Prop35
280
     0
102
RTVSPost2010PropOp35
 70
     1
102
RTVSPost2010Prop36
280
     0
102
RTVSPost2010PropOp36
 70
     1
102
RTVSPost2010Prop37
 90
       50
102
RTVSPost2010PropOp37
 70
     1
102
RTVSPost2010Prop38
140
0.0
102
RTVSPost2010PropOp38
 70
     1
102
RTVSPost2010Prop39
140
1.0
102
RTVSPost2010PropOp39
 70
     1
102
RTVSPost2010Prop40
 90
        0
102
RTVSPost2010PropOp40
 70
     1
102
RTVSPost2010Prop41ColorIndex
 90
       18
102
RTVSPost2010Prop41ColorRGB
 90
        0
102
RTVSPost2010PropOp41
 70
     1
102
RTVSPost2010Prop42
 90
       50
102
RTVSPost2010PropOp42
 70
     1
102
RTVSPost2010Prop43
 90
        3
102
RTVSPost2010PropOp43
 70
     1
102
RTVSPost2010Prop44ColorIndex
 90
        5
102
RTVSPost2010Prop44ColorRGB
 90
      255
102
RTVSPost2010PropOp44
 70
     1
102
RTVSPost2010Prop45
280
     0
102
RTVSPost2010PropOp45
 70
     1
102
RTVSPost2010Prop46
 90
       50
102
RTVSPost2010PropOp46
 70
     1
102
RTVSPost2010Prop47
 90
       50
102
RTVSPost2010PropOp47
 70
     1
102
RTVSPost2010Prop48
 90
       50
102
RTVSPost2010PropOp48
 70
     1
102
RTVSPost2010Prop49
280
     0
102
RTVSPost2010PropOp49
 70
     1
102
RTVSPost2010Prop50
 90
       50
102
RTVSPost2010PropOp50
 70
     1
102
RTVSPost2010Prop51ColorIndex
 90
      256
102
RTVSPost2010Prop51ColorRGB
 90
-16777216
102
RTVSPost2010PropOp51
 70
     0
102
RTVSPost2010Prop52
140
1.0
102
RTVSPost2010PropOp52
 70
     0
102
RTVSPost2010Prop53
 90
        2
102
RTVSPost2010PropOp53
 70
     1
102
RTVSPost2010Prop54
  1
strokes_ogs.tif
102
RTVSPost2010PropOp54
 70
     1
102
RTVSPost2010Prop55
280
     0
102
RTVSPost2010PropOp55
 70
     1
102
RTVSPost2010Prop56
140
1.0
102
RTVSPost2010PropOp56
 70
     1
102
RTVSPost2010Prop57
140
1.0
102
RTVSPost2010PropOp57
 70
     1
102
RTVSPropertyOp0
 70
     1
102
RTVSPropertyOp1
 70
     1
102
RTVSPropertyOp2
 70
     1
102
RTVSPropertyOp3
 70
     1
102
RTVSPropertyOp4
 70
     1
102
RTVSPropertyOp5
 70
     1
102
RTVSPropertyOp6
 70
     1
102
RTVSPropertyOp7
 70
     1
102
RTVSPropertyOp8
 70
     1
102
RTVSPropertyOp9
 70
     1
102
RTVSPropertyOp10
 70
     1
102
RTVSPropertyOp11
 70
     1
102
RTVSPropertyOp12
 70
     1
102
RTVSPropertyOp13
 70
     1
102
RTVSPropertyOp14
 70
     1
102
RTVSPropertyOp15
 70
     1
102
RTVSPropertyOp16
 70
     1
102
RTVSPropertyOp17
 70
     1
102
RTVSPropertyOp18
 70
     1
102
RTVSPropertyOp19
 70
     1
102
RTVSPropertyOp20
 70
     1
102
RTVSPropertyOp21
 70
     1
102
RTVSPropertyOp22
 70
     1
102
RTVSPropertyOp23
 70
     1
102
RTVSPropertyOp24
 70
     1
102
RTVSPropertyOp25
 70
     1
102
RTVSPropertyOp26
 70
     1
102
RTVSPropertyOp27
 70
     1
102
RTVSPropertyOp28
 70
     1
102
RTVSPropertyOp29
 70
     1
102
RTVSPropertyOp30
 70
     1
102
RTVSPropertyOp31
 70
     1
102
RTVSPropertyOp32
 70
     1
102
RTVSPropertyOp33
 70
     1
102
RTVSPropertyOp34
 70
     1
102
RTVSPropertyOp35
 70
     1
102
RTVSPropertyOp36
 70
     1
102
RTVSPropertyOp37
 70
     1
102
RTVSPropertyOp38
 70
     1
102
RTVSPropertyOp39
 70
     1
102
RTVSPropertyOp40
 70
     1
102
RTVSPropertyOp41
 70
     1
102
RTVSPropertyOp42
 70
     1
102
RTVSPropertyOp43
 70
     1
102
RTVSPropertyOp44
 70
     1
102
RTVSPropertyOp45
 70
     1
102
RTVSPropertyOp46
 70
     1
102
RTVSPropertyOp47
 70
     1
102
RTVSPropertyOp48
 70
     1
102
RTVSPropertyOp49
 70
     1
102
RTVSPropertyOp50
 70
     1
102
RTVSPropertyOp51
 70
     0
102
RTVSPropertyOp52
 70
     0
102
RTVSPropertyOp53
 70
     1
102
RTVSPropertyOp54
 70
     1
102
RTVSPropertyOp55
 70
     1
102
RTVSPropertyOp56
 70
     1
102
RTVSPropertyOp57
 70
     1
102
RTVSPropertyOp58
 70
     1
102
RTVSPropertyOp59
 70
     1
102
RTVSPropertyOp60
 70
     1
102
RTVSPropertyOp61
 70
     1
102
RTVSPropertyOp62
 70
     1
  0
XRECORD
  5
A3D8
102
{ACAD_REACTORS
330
A3D7
102
}
330
A3D7
100
AcDbXrecord
280
     1
102
RTVSPost2010Prop28
280
     0
102
RTVSPost2010PropOp28
 70
     1
102
RTVSPost2010Prop29
280
     1
102
RTVSPost2010PropOp29
 70
     1
102
RTVSPost2010Prop30
280
     1
102
RTVSPost2010PropOp30
 70
     1
102
RTVSPost2010Prop31
280
     0
102
RTVSPost2010PropOp31
 70
     1
102
RTVSPost2010Prop32
280
     0
102
RTVSPost2010PropOp32
 70
     1
102
RTVSPost2010Prop33
280
     0
102
RTVSPost2010PropOp33
 70
     1
102
RTVSPost2010Prop34
280
     0
102
RTVSPost2010PropOp34
 70
     1
102
RTVSPost2010Prop35
280
     0
102
RTVSPost2010PropOp35
 70
     1
102
RTVSPost2010Prop36
280
     0
102
RTVSPost2010PropOp36
 70
     1
102
RTVSPost2010Prop37
 90
       50
102
RTVSPost2010PropOp37
 70
     0
102
RTVSPost2010Prop38
140
0.0
102
RTVSPost2010PropOp38
 70
     0
102
RTVSPost2010Prop39
140
1.0
102
RTVSPost2010PropOp39
 70
     0
102
RTVSPost2010Prop40
 90
        0
102
RTVSPost2010PropOp40
 70
     0
102
RTVSPost2010Prop41ColorIndex
 90
       18
102
RTVSPost2010Prop41ColorRGB
 90
        0
102
RTVSPost2010PropOp41
 70
     0
102
RTVSPost2010Prop42
 90
       50
102
RTVSPost2010PropOp42
 70
     0
102
RTVSPost2010Prop43
 90
        3
102
RTVSPost2010PropOp43
 70
     0
102
RTVSPost2010Prop44ColorIndex
 90
        5
102
RTVSPost2010Prop44ColorRGB
 90
      255
102
RTVSPost2010PropOp44
 70
     0
102
RTVSPost2010Prop45
280
     0
102
RTVSPost2010PropOp45
 70
     1
102
RTVSPost2010Prop46
 90
       50
102
RTVSPost2010PropOp46
 70
     0
102
RTVSPost2010Prop47
 90
       50
102
RTVSPost2010PropOp47
 70
     0
102
RTVSPost2010Prop48
 90
       50
102
RTVSPost2010PropOp48
 70
     0
102
RTVSPost2010Prop49
280
     0
102
RTVSPost2010PropOp49
 70
     1
102
RTVSPost2010Prop50
 90
       50
102
RTVSPost2010PropOp50
 70
     0
102
RTVSPost2010Prop51ColorIndex
 90
      256
102
RTVSPost2010Prop51ColorRGB
 90
-16777216
102
RTVSPost2010PropOp51
 70
     0
102
RTVSPost2010Prop52
140
1.0
102
RTVSPost2010PropOp52
 70
     0
102
RTVSPost2010Prop53
 90
        2
102
RTVSPost2010PropOp53
 70
     0
102
RTVSPost2010Prop54
  1
strokes_ogs.tif
102
RTVSPost2010PropOp54
 70
     0
102
RTVSPost2010Prop55
280
     0
102
RTVSPost2010PropOp55
 70
     1
102
RTVSPost2010Prop56
140
1.0
102
RTVSPost2010PropOp56
 70
     0
102
RTVSPost2010Prop57
140
1.0
102
RTVSPost2010PropOp57
 70
     0
102
RTVSPropertyOp0
 70
     0
102
RTVSPropertyOp1
 70
     0
102
RTVSPropertyOp2
 70
     0
102
RTVSPropertyOp3
 70
     0
102
RTVSPropertyOp4
 70
     0
102
RTVSPropertyOp5
 70
     0
102
RTVSPropertyOp6
 70
     0
102
RTVSPropertyOp7
 70
     0
102
RTVSPropertyOp8
 70
     0
102
RTVSPropertyOp9
 70
     0
102
RTVSPropertyOp10
 70
     0
102
RTVSPropertyOp11
 70
     0
102
RTVSPropertyOp12
 70
     0
102
RTVSPropertyOp13
 70
     0
102
RTVSPropertyOp14
 70
     2
102
RTVSPropertyOp15
 70
     0
102
RTVSPropertyOp16
 70
     0
102
RTVSPropertyOp17
 70
     0
102
RTVSPropertyOp18
 70
     0
102
RTVSPropertyOp19
 70
     0
102
RTVSPropertyOp20
 70
     0
102
RTVSPropertyOp21
 70
     0
102
RTVSPropertyOp22
 70
     0
102
RTVSPropertyOp23
 70
     0
102
RTVSPropertyOp24
 70
     0
102
RTVSPropertyOp25
 70
     0
102
RTVSPropertyOp26
 70
     0
102
RTVSPropertyOp27
 70
     0
102
RTVSPropertyOp28
 70
     1
102
RTVSPropertyOp29
 70
     1
102
RTVSPropertyOp30
 70
     1
102
RTVSPropertyOp31
 70
     1
102
RTVSPropertyOp32
 70
     1
102
RTVSPropertyOp33
 70
     1
102
RTVSPropertyOp34
 70
     1
102
RTVSPropertyOp35
 70
     1
102
RTVSPropertyOp36
 70
     1
102
RTVSPropertyOp37
 70
     0
102
RTVSPropertyOp38
 70
     0
102
RTVSPropertyOp39
 70
     0
102
RTVSPropertyOp40
 70
     0
102
RTVSPropertyOp41
 70
     0
102
RTVSPropertyOp42
 70
     0
102
RTVSPropertyOp43
 70
     0
102
RTVSPropertyOp44
 70
     0
102
RTVSPropertyOp45
 70
     1
102
RTVSPropertyOp46
 70
     0
102
RTVSPropertyOp47
 70
     0
102
RTVSPropertyOp48
 70
     0
102
RTVSPropertyOp49
 70
     1
102
RTVSPropertyOp50
 70
     0
102
RTVSPropertyOp51
 70
     0
102
RTVSPropertyOp52
 70
     0
102
RTVSPropertyOp53
 70
     0
102
RTVSPropertyOp54
 70
     0
102
RTVSPropertyOp55
 70
     1
102
RTVSPropertyOp56
 70
     0
102
RTVSPropertyOp57
 70
     0
102
RTVSPropertyOp58
 70
     0
102
RTVSPropertyOp59
 70
     0
102
RTVSPropertyOp60
 70
     0
102
RTVSPropertyOp61
 70
     0
102
RTVSPropertyOp62
 70
     0
  0
XRECORD
  5
A3C8
102
{ACAD_REACTORS
330
A3C7
102
}
330
A3C7
100
AcDbXrecord
280
     1
102
RTVSPost2010Prop28
280
     0
102
RTVSPost2010PropOp28
 70
     1
102
RTVSPost2010Prop29
280
     1
102
RTVSPost2010PropOp29
 70
     1
102
RTVSPost2010Prop30
280
     1
102
RTVSPost2010PropOp30
 70
     1
102
RTVSPost2010Prop31
280
     0
102
RTVSPost2010PropOp31
 70
     1
102
RTVSPost2010Prop32
280
     0
102
RTVSPost2010PropOp32
 70
     1
102
RTVSPost2010Prop33
280
     0
102
RTVSPost2010PropOp33
 70
     1
102
RTVSPost2010Prop34
280
     0
102
RTVSPost2010PropOp34
 70
     1
102
RTVSPost2010Prop35
280
     0
102
RTVSPost2010PropOp35
 70
     1
102
RTVSPost2010Prop36
280
     0
102
RTVSPost2010PropOp36
 70
     1
102
RTVSPost2010Prop37
 90
       50
102
RTVSPost2010PropOp37
 70
     1
102
RTVSPost2010Prop38
140
0.0
102
RTVSPost2010PropOp38
 70
     1
102
RTVSPost2010Prop39
140
1.0
102
RTVSPost2010PropOp39
 70
     1
102
RTVSPost2010Prop40
 90
        0
102
RTVSPost2010PropOp40
 70
     1
102
RTVSPost2010Prop41ColorIndex
 90
       18
102
RTVSPost2010Prop41ColorRGB
 90
        0
102
RTVSPost2010PropOp41
 70
     1
102
RTVSPost2010Prop42
 90
       50
102
RTVSPost2010PropOp42
 70
     1
102
RTVSPost2010Prop43
 90
        3
102
RTVSPost2010PropOp43
 70
     1
102
RTVSPost2010Prop44ColorIndex
 90
        5
102
RTVSPost2010Prop44ColorRGB
 90
      255
102
RTVSPost2010PropOp44
 70
     1
102
RTVSPost2010Prop45
280
     0
102
RTVSPost2010PropOp45
 70
     1
102
RTVSPost2010Prop46
 90
       50
102
RTVSPost2010PropOp46
 70
     1
102
RTVSPost2010Prop47
 90
       50
102
RTVSPost2010PropOp47
 70
     1
102
RTVSPost2010Prop48
 90
       50
102
RTVSPost2010PropOp48
 70
     1
102
RTVSPost2010Prop49
280
     0
102
RTVSPost2010PropOp49
 70
     1
102
RTVSPost2010Prop50
 90
       50
102
RTVSPost2010PropOp50
 70
     1
102
RTVSPost2010Prop51ColorIndex
 90
      256
102
RTVSPost2010Prop51ColorRGB
 90
-16777216
102
RTVSPost2010PropOp51
 70
     0
102
RTVSPost2010Prop52
140
1.0
102
RTVSPost2010PropOp52
 70
     0
102
RTVSPost2010Prop53
 90
        2
102
RTVSPost2010PropOp53
 70
     1
102
RTVSPost2010Prop54
  1
strokes_ogs.tif
102
RTVSPost2010PropOp54
 70
     1
102
RTVSPost2010Prop55
280
     0
102
RTVSPost2010PropOp55
 70
     1
102
RTVSPost2010Prop56
140
1.0
102
RTVSPost2010PropOp56
 70
     1
102
RTVSPost2010Prop57
140
1.0
102
RTVSPost2010PropOp57
 70
     1
102
RTVSPropertyOp0
 70
     1
102
RTVSPropertyOp1
 70
     1
102
RTVSPropertyOp2
 70
     1
102
RTVSPropertyOp3
 70
     1
102
RTVSPropertyOp4
 70
     1
102
RTVSPropertyOp5
 70
     1
102
RTVSPropertyOp6
 70
     1
102
RTVSPropertyOp7
 70
     1
102
RTVSPropertyOp8
 70
     1
102
RTVSPropertyOp9
 70
     1
102
RTVSPropertyOp10
 70
     1
102
RTVSPropertyOp11
 70
     1
102
RTVSPropertyOp12
 70
     1
102
RTVSPropertyOp13
 70
     1
102
RTVSPropertyOp14
 70
     1
102
RTVSPropertyOp15
 70
     1
102
RTVSPropertyOp16
 70
     1
102
RTVSPropertyOp17
 70
     1
102
RTVSPropertyOp18
 70
     1
102
RTVSPropertyOp19
 70
     1
102
RTVSPropertyOp20
 70
     1
102
RTVSPropertyOp21
 70
     1
102
RTVSPropertyOp22
 70
     1
102
RTVSPropertyOp23
 70
     1
102
RTVSPropertyOp24
 70
     1
102
RTVSPropertyOp25
 70
     1
102
RTVSPropertyOp26
 70
     1
102
RTVSPropertyOp27
 70
     1
102
RTVSPropertyOp28
 70
     1
102
RTVSPropertyOp29
 70
     1
102
RTVSPropertyOp30
 70
     1
102
RTVSPropertyOp31
 70
     1
102
RTVSPropertyOp32
 70
     1
102
RTVSPropertyOp33
 70
     1
102
RTVSPropertyOp34
 70
     1
102
RTVSPropertyOp35
 70
     1
102
RTVSPropertyOp36
 70
     1
102
RTVSPropertyOp37
 70
     1
102
RTVSPropertyOp38
 70
     1
102
RTVSPropertyOp39
 70
     1
102
RTVSPropertyOp40
 70
     1
102
RTVSPropertyOp41
 70
     1
102
RTVSPropertyOp42
 70
     1
102
RTVSPropertyOp43
 70
     1
102
RTVSPropertyOp44
 70
     1
102
RTVSPropertyOp45
 70
     1
102
RTVSPropertyOp46
 70
     1
102
RTVSPropertyOp47
 70
     1
102
RTVSPropertyOp48
 70
     1
102
RTVSPropertyOp49
 70
     1
102
RTVSPropertyOp50
 70
     1
102
RTVSPropertyOp51
 70
     0
102
RTVSPropertyOp52
 70
     0
102
RTVSPropertyOp53
 70
     1
102
RTVSPropertyOp54
 70
     1
102
RTVSPropertyOp55
 70
     1
102
RTVSPropertyOp56
 70
     1
102
RTVSPropertyOp57
 70
     1
102
RTVSPropertyOp58
 70
     1
102
RTVSPropertyOp59
 70
     1
102
RTVSPropertyOp60
 70
     1
102
RTVSPropertyOp61
 70
     1
102
RTVSPropertyOp62
 70
     1
  0
XRECORD
  5
A3DA
102
{ACAD_REACTORS
330
A3D9
102
}
330
A3D9
100
AcDbXrecord
280
     1
102
RTVSPost2010Prop28
280
     0
102
RTVSPost2010PropOp28
 70
     1
102
RTVSPost2010Prop29
280
     1
102
RTVSPost2010PropOp29
 70
     1
102
RTVSPost2010Prop30
280
     1
102
RTVSPost2010PropOp30
 70
     1
102
RTVSPost2010Prop31
280
     0
102
RTVSPost2010PropOp31
 70
     1
102
RTVSPost2010Prop32
280
     0
102
RTVSPost2010PropOp32
 70
     1
102
RTVSPost2010Prop33
280
     0
102
RTVSPost2010PropOp33
 70
     1
102
RTVSPost2010Prop34
280
     0
102
RTVSPost2010PropOp34
 70
     1
102
RTVSPost2010Prop35
280
     0
102
RTVSPost2010PropOp35
 70
     1
102
RTVSPost2010Prop36
280
     0
102
RTVSPost2010PropOp36
 70
     1
102
RTVSPost2010Prop37
 90
       50
102
RTVSPost2010PropOp37
 70
     0
102
RTVSPost2010Prop38
140
0.0
102
RTVSPost2010PropOp38
 70
     0
102
RTVSPost2010Prop39
140
1.0
102
RTVSPost2010PropOp39
 70
     0
102
RTVSPost2010Prop40
 90
        0
102
RTVSPost2010PropOp40
 70
     0
102
RTVSPost2010Prop41ColorIndex
 90
       18
102
RTVSPost2010Prop41ColorRGB
 90
        0
102
RTVSPost2010PropOp41
 70
     0
102
RTVSPost2010Prop42
 90
       50
102
RTVSPost2010PropOp42
 70
     0
102
RTVSPost2010Prop43
 90
        3
102
RTVSPost2010PropOp43
 70
     0
102
RTVSPost2010Prop44ColorIndex
 90
        5
102
RTVSPost2010Prop44ColorRGB
 90
      255
102
RTVSPost2010PropOp44
 70
     0
102
RTVSPost2010Prop45
280
     0
102
RTVSPost2010PropOp45
 70
     1
102
RTVSPost2010Prop46
 90
       50
102
RTVSPost2010PropOp46
 70
     0
102
RTVSPost2010Prop47
 90
       50
102
RTVSPost2010PropOp47
 70
     0
102
RTVSPost2010Prop48
 90
       50
102
RTVSPost2010PropOp48
 70
     0
102
RTVSPost2010Prop49
280
     0
102
RTVSPost2010PropOp49
 70
     1
102
RTVSPost2010Prop50
 90
       50
102
RTVSPost2010PropOp50
 70
     0
102
RTVSPost2010Prop51ColorIndex
 90
      256
102
RTVSPost2010Prop51ColorRGB
 90
-16777216
102
RTVSPost2010PropOp51
 70
     0
102
RTVSPost2010Prop52
140
1.0
102
RTVSPost2010PropOp52
 70
     0
102
RTVSPost2010Prop53
 90
        2
102
RTVSPost2010PropOp53
 70
     0
102
RTVSPost2010Prop54
  1
strokes_ogs.tif
102
RTVSPost2010PropOp54
 70
     0
102
RTVSPost2010Prop55
280
     0
102
RTVSPost2010PropOp55
 70
     1
102
RTVSPost2010Prop56
140
1.0
102
RTVSPost2010PropOp56
 70
     0
102
RTVSPost2010Prop57
140
1.0
102
RTVSPost2010PropOp57
 70
     0
102
RTVSPropertyOp0
 70
     0
102
RTVSPropertyOp1
 70
     0
102
RTVSPropertyOp2
 70
     0
102
RTVSPropertyOp3
 70
     0
102
RTVSPropertyOp4
 70
     0
102
RTVSPropertyOp5
 70
     0
102
RTVSPropertyOp6
 70
     0
102
RTVSPropertyOp7
 70
     0
102
RTVSPropertyOp8
 70
     0
102
RTVSPropertyOp9
 70
     0
102
RTVSPropertyOp10
 70
     0
102
RTVSPropertyOp11
 70
     0
102
RTVSPropertyOp12
 70
     0
102
RTVSPropertyOp13
 70
     0
102
RTVSPropertyOp14
 70
     2
102
RTVSPropertyOp15
 70
     0
102
RTVSPropertyOp16
 70
     0
102
RTVSPropertyOp17
 70
     0
102
RTVSPropertyOp18
 70
     0
102
RTVSPropertyOp19
 70
     0
102
RTVSPropertyOp20
 70
     0
102
RTVSPropertyOp21
 70
     0
102
RTVSPropertyOp22
 70
     0
102
RTVSPropertyOp23
 70
     0
102
RTVSPropertyOp24
 70
     0
102
RTVSPropertyOp25
 70
     0
102
RTVSPropertyOp26
 70
     0
102
RTVSPropertyOp27
 70
     0
102
RTVSPropertyOp28
 70
     1
102
RTVSPropertyOp29
 70
     1
102
RTVSPropertyOp30
 70
     1
102
RTVSPropertyOp31
 70
     1
102
RTVSPropertyOp32
 70
     1
102
RTVSPropertyOp33
 70
     1
102
RTVSPropertyOp34
 70
     1
102
RTVSPropertyOp35
 70
     1
102
RTVSPropertyOp36
 70
     1
102
RTVSPropertyOp37
 70
     0
102
RTVSPropertyOp38
 70
     0
102
RTVSPropertyOp39
 70
     0
102
RTVSPropertyOp40
 70
     0
102
RTVSPropertyOp41
 70
     0
102
RTVSPropertyOp42
 70
     0
102
RTVSPropertyOp43
 70
     0
102
RTVSPropertyOp44
 70
     0
102
RTVSPropertyOp45
 70
     1
102
RTVSPropertyOp46
 70
     0
102
RTVSPropertyOp47
 70
     0
102
RTVSPropertyOp48
 70
     0
102
RTVSPropertyOp49
 70
     1
102
RTVSPropertyOp50
 70
     0
102
RTVSPropertyOp51
 70
     0
102
RTVSPropertyOp52
 70
     0
102
RTVSPropertyOp53
 70
     0
102
RTVSPropertyOp54
 70
     0
102
RTVSPropertyOp55
 70
     1
102
RTVSPropertyOp56
 70
     0
102
RTVSPropertyOp57
 70
     0
102
RTVSPropertyOp58
 70
     0
102
RTVSPropertyOp59
 70
     0
102
RTVSPropertyOp60
 70
     0
102
RTVSPropertyOp61
 70
     0
102
RTVSPropertyOp62
 70
     0
  0
XRECORD
  5
A3C0
102
{ACAD_REACTORS
330
A3BF
102
}
330
A3BF
100
AcDbXrecord
280
     1
102
RTVSPost2010Prop28
280
     0
102
RTVSPost2010PropOp28
 70
     1
102
RTVSPost2010Prop29
280
     1
102
RTVSPost2010PropOp29
 70
     1
102
RTVSPost2010Prop30
280
     1
102
RTVSPost2010PropOp30
 70
     1
102
RTVSPost2010Prop31
280
     0
102
RTVSPost2010PropOp31
 70
     1
102
RTVSPost2010Prop32
280
     0
102
RTVSPost2010PropOp32
 70
     1
102
RTVSPost2010Prop33
280
     0
102
RTVSPost2010PropOp33
 70
     1
102
RTVSPost2010Prop34
280
     0
102
RTVSPost2010PropOp34
 70
     1
102
RTVSPost2010Prop35
280
     0
102
RTVSPost2010PropOp35
 70
     1
102
RTVSPost2010Prop36
280
     0
102
RTVSPost2010PropOp36
 70
     1
102
RTVSPost2010Prop37
 90
       50
102
RTVSPost2010PropOp37
 70
     1
102
RTVSPost2010Prop38
140
0.0
102
RTVSPost2010PropOp38
 70
     1
102
RTVSPost2010Prop39
140
1.0
102
RTVSPost2010PropOp39
 70
     1
102
RTVSPost2010Prop40
 90
        0
102
RTVSPost2010PropOp40
 70
     1
102
RTVSPost2010Prop41ColorIndex
 90
       18
102
RTVSPost2010Prop41ColorRGB
 90
        0
102
RTVSPost2010PropOp41
 70
     1
102
RTVSPost2010Prop42
 90
       50
102
RTVSPost2010PropOp42
 70
     1
102
RTVSPost2010Prop43
 90
        3
102
RTVSPost2010PropOp43
 70
     1
102
RTVSPost2010Prop44ColorIndex
 90
        5
102
RTVSPost2010Prop44ColorRGB
 90
      255
102
RTVSPost2010PropOp44
 70
     1
102
RTVSPost2010Prop45
280
     0
102
RTVSPost2010PropOp45
 70
     1
102
RTVSPost2010Prop46
 90
       50
102
RTVSPost2010PropOp46
 70
     1
102
RTVSPost2010Prop47
 90
       50
102
RTVSPost2010PropOp47
 70
     1
102
RTVSPost2010Prop48
 90
       50
102
RTVSPost2010PropOp48
 70
     1
102
RTVSPost2010Prop49
280
     0
102
RTVSPost2010PropOp49
 70
     1
102
RTVSPost2010Prop50
 90
       50
102
RTVSPost2010PropOp50
 70
     1
102
RTVSPost2010Prop51ColorIndex
 90
      256
102
RTVSPost2010Prop51ColorRGB
 90
-16777216
102
RTVSPost2010PropOp51
 70
     0
102
RTVSPost2010Prop52
140
1.0
102
RTVSPost2010PropOp52
 70
     0
102
RTVSPost2010Prop53
 90
        2
102
RTVSPost2010PropOp53
 70
     1
102
RTVSPost2010Prop54
  1
strokes_ogs.tif
102
RTVSPost2010PropOp54
 70
     1
102
RTVSPost2010Prop55
280
     0
102
RTVSPost2010PropOp55
 70
     1
102
RTVSPost2010Prop56
140
1.0
102
RTVSPost2010PropOp56
 70
     1
102
RTVSPost2010Prop57
140
1.0
102
RTVSPost2010PropOp57
 70
     1
102
RTVSPropertyOp0
 70
     1
102
RTVSPropertyOp1
 70
     1
102
RTVSPropertyOp2
 70
     1
102
RTVSPropertyOp3
 70
     1
102
RTVSPropertyOp4
 70
     1
102
RTVSPropertyOp5
 70
     1
102
RTVSPropertyOp6
 70
     1
102
RTVSPropertyOp7
 70
     1
102
RTVSPropertyOp8
 70
     1
102
RTVSPropertyOp9
 70
     1
102
RTVSPropertyOp10
 70
     1
102
RTVSPropertyOp11
 70
     1
102
RTVSPropertyOp12
 70
     1
102
RTVSPropertyOp13
 70
     1
102
RTVSPropertyOp14
 70
     1
102
RTVSPropertyOp15
 70
     1
102
RTVSPropertyOp16
 70
     1
102
RTVSPropertyOp17
 70
     1
102
RTVSPropertyOp18
 70
     1
102
RTVSPropertyOp19
 70
     1
102
RTVSPropertyOp20
 70
     1
102
RTVSPropertyOp21
 70
     1
102
RTVSPropertyOp22
 70
     1
102
RTVSPropertyOp23
 70
     1
102
RTVSPropertyOp24
 70
     1
102
RTVSPropertyOp25
 70
     1
102
RTVSPropertyOp26
 70
     1
102
RTVSPropertyOp27
 70
     1
102
RTVSPropertyOp28
 70
     1
102
RTVSPropertyOp29
 70
     1
102
RTVSPropertyOp30
 70
     1
102
RTVSPropertyOp31
 70
     1
102
RTVSPropertyOp32
 70
     1
102
RTVSPropertyOp33
 70
     1
102
RTVSPropertyOp34
 70
     1
102
RTVSPropertyOp35
 70
     1
102
RTVSPropertyOp36
 70
     1
102
RTVSPropertyOp37
 70
     1
102
RTVSPropertyOp38
 70
     1
102
RTVSPropertyOp39
 70
     1
102
RTVSPropertyOp40
 70
     1
102
RTVSPropertyOp41
 70
     1
102
RTVSPropertyOp42
 70
     1
102
RTVSPropertyOp43
 70
     1
102
RTVSPropertyOp44
 70
     1
102
RTVSPropertyOp45
 70
     1
102
RTVSPropertyOp46
 70
     1
102
RTVSPropertyOp47
 70
     1
102
RTVSPropertyOp48
 70
     1
102
RTVSPropertyOp49
 70
     1
102
RTVSPropertyOp50
 70
     1
102
RTVSPropertyOp51
 70
     0
102
RTVSPropertyOp52
 70
     0
102
RTVSPropertyOp53
 70
     1
102
RTVSPropertyOp54
 70
     1
102
RTVSPropertyOp55
 70
     1
102
RTVSPropertyOp56
 70
     1
102
RTVSPropertyOp57
 70
     1
102
RTVSPropertyOp58
 70
     1
102
RTVSPropertyOp59
 70
     1
102
RTVSPropertyOp60
 70
     1
102
RTVSPropertyOp61
 70
     1
102
RTVSPropertyOp62
 70
     1
  0
XRECORD
  5
A3D6
102
{ACAD_REACTORS
330
A3D5
102
}
330
A3D5
100
AcDbXrecord
280
     1
102
RTVSPost2010Prop28
280
     0
102
RTVSPost2010PropOp28
 70
     1
102
RTVSPost2010Prop29
280
     1
102
RTVSPost2010PropOp29
 70
     1
102
RTVSPost2010Prop30
280
     1
102
RTVSPost2010PropOp30
 70
     1
102
RTVSPost2010Prop31
280
     0
102
RTVSPost2010PropOp31
 70
     1
102
RTVSPost2010Prop32
280
     0
102
RTVSPost2010PropOp32
 70
     1
102
RTVSPost2010Prop33
280
     0
102
RTVSPost2010PropOp33
 70
     1
102
RTVSPost2010Prop34
280
     0
102
RTVSPost2010PropOp34
 70
     1
102
RTVSPost2010Prop35
280
     0
102
RTVSPost2010PropOp35
 70
     1
102
RTVSPost2010Prop36
280
     0
102
RTVSPost2010PropOp36
 70
     1
102
RTVSPost2010Prop37
 90
       50
102
RTVSPost2010PropOp37
 70
     1
102
RTVSPost2010Prop38
140
0.0
102
RTVSPost2010PropOp38
 70
     1
102
RTVSPost2010Prop39
140
1.0
102
RTVSPost2010PropOp39
 70
     1
102
RTVSPost2010Prop40
 90
        0
102
RTVSPost2010PropOp40
 70
     1
102
RTVSPost2010Prop41ColorIndex
 90
       18
102
RTVSPost2010Prop41ColorRGB
 90
        0
102
RTVSPost2010PropOp41
 70
     1
102
RTVSPost2010Prop42
 90
       50
102
RTVSPost2010PropOp42
 70
     1
102
RTVSPost2010Prop43
 90
        3
102
RTVSPost2010PropOp43
 70
     1
102
RTVSPost2010Prop44ColorIndex
 90
        5
102
RTVSPost2010Prop44ColorRGB
 90
      255
102
RTVSPost2010PropOp44
 70
     1
102
RTVSPost2010Prop45
280
     0
102
RTVSPost2010PropOp45
 70
     1
102
RTVSPost2010Prop46
 90
       50
102
RTVSPost2010PropOp46
 70
     1
102
RTVSPost2010Prop47
 90
       50
102
RTVSPost2010PropOp47
 70
     1
102
RTVSPost2010Prop48
 90
       50
102
RTVSPost2010PropOp48
 70
     1
102
RTVSPost2010Prop49
280
     0
102
RTVSPost2010PropOp49
 70
     1
102
RTVSPost2010Prop50
 90
       50
102
RTVSPost2010PropOp50
 70
     1
102
RTVSPost2010Prop51ColorIndex
 90
      256
102
RTVSPost2010Prop51ColorRGB
 90
-16777216
102
RTVSPost2010PropOp51
 70
     0
102
RTVSPost2010Prop52
140
1.0
102
RTVSPost2010PropOp52
 70
     0
102
RTVSPost2010Prop53
 90
        2
102
RTVSPost2010PropOp53
 70
     1
102
RTVSPost2010Prop54
  1
strokes_ogs.tif
102
RTVSPost2010PropOp54
 70
     1
102
RTVSPost2010Prop55
280
     0
102
RTVSPost2010PropOp55
 70
     1
102
RTVSPost2010Prop56
140
1.0
102
RTVSPost2010PropOp56
 70
     1
102
RTVSPost2010Prop57
140
1.0
102
RTVSPost2010PropOp57
 70
     1
102
RTVSPropertyOp0
 70
     1
102
RTVSPropertyOp1
 70
     1
102
RTVSPropertyOp2
 70
     1
102
RTVSPropertyOp3
 70
     1
102
RTVSPropertyOp4
 70
     1
102
RTVSPropertyOp5
 70
     1
102
RTVSPropertyOp6
 70
     1
102
RTVSPropertyOp7
 70
     1
102
RTVSPropertyOp8
 70
     1
102
RTVSPropertyOp9
 70
     1
102
RTVSPropertyOp10
 70
     1
102
RTVSPropertyOp11
 70
     1
102
RTVSPropertyOp12
 70
     1
102
RTVSPropertyOp13
 70
     1
102
RTVSPropertyOp14
 70
     1
102
RTVSPropertyOp15
 70
     1
102
RTVSPropertyOp16
 70
     1
102
RTVSPropertyOp17
 70
     1
102
RTVSPropertyOp18
 70
     1
102
RTVSPropertyOp19
 70
     1
102
RTVSPropertyOp20
 70
     1
102
RTVSPropertyOp21
 70
     1
102
RTVSPropertyOp22
 70
     1
102
RTVSPropertyOp23
 70
     1
102
RTVSPropertyOp24
 70
     1
102
RTVSPropertyOp25
 70
     1
102
RTVSPropertyOp26
 70
     1
102
RTVSPropertyOp27
 70
     1
102
RTVSPropertyOp28
 70
     1
102
RTVSPropertyOp29
 70
     1
102
RTVSPropertyOp30
 70
     1
102
RTVSPropertyOp31
 70
     1
102
RTVSPropertyOp32
 70
     1
102
RTVSPropertyOp33
 70
     1
102
RTVSPropertyOp34
 70
     1
102
RTVSPropertyOp35
 70
     1
102
RTVSPropertyOp36
 70
     1
102
RTVSPropertyOp37
 70
     1
102
RTVSPropertyOp38
 70
     1
102
RTVSPropertyOp39
 70
     1
102
RTVSPropertyOp40
 70
     1
102
RTVSPropertyOp41
 70
     1
102
RTVSPropertyOp42
 70
     1
102
RTVSPropertyOp43
 70
     1
102
RTVSPropertyOp44
 70
     1
102
RTVSPropertyOp45
 70
     1
102
RTVSPropertyOp46
 70
     1
102
RTVSPropertyOp47
 70
     1
102
RTVSPropertyOp48
 70
     1
102
RTVSPropertyOp49
 70
     1
102
RTVSPropertyOp50
 70
     1
102
RTVSPropertyOp51
 70
     0
102
RTVSPropertyOp52
 70
     0
102
RTVSPropertyOp53
 70
     1
102
RTVSPropertyOp54
 70
     1
102
RTVSPropertyOp55
 70
     1
102
RTVSPropertyOp56
 70
     1
102
RTVSPropertyOp57
 70
     1
102
RTVSPropertyOp58
 70
     1
102
RTVSPropertyOp59
 70
     1
102
RTVSPropertyOp60
 70
     1
102
RTVSPropertyOp61
 70
     1
102
RTVSPropertyOp62
 70
     1
  0
XRECORD
  5
A3D4
102
{ACAD_REACTORS
330
A3D3
102
}
330
A3D3
100
AcDbXrecord
280
     1
102
RTVSPost2010Prop28
280
     0
102
RTVSPost2010PropOp28
 70
     1
102
RTVSPost2010Prop29
280
     1
102
RTVSPost2010PropOp29
 70
     1
102
RTVSPost2010Prop30
280
     1
102
RTVSPost2010PropOp30
 70
     1
102
RTVSPost2010Prop31
280
     0
102
RTVSPost2010PropOp31
 70
     1
102
RTVSPost2010Prop32
280
     0
102
RTVSPost2010PropOp32
 70
     1
102
RTVSPost2010Prop33
280
     0
102
RTVSPost2010PropOp33
 70
     1
102
RTVSPost2010Prop34
280
     0
102
RTVSPost2010PropOp34
 70
     1
102
RTVSPost2010Prop35
280
     0
102
RTVSPost2010PropOp35
 70
     1
102
RTVSPost2010Prop36
280
     0
102
RTVSPost2010PropOp36
 70
     1
102
RTVSPost2010Prop37
 90
       50
102
RTVSPost2010PropOp37
 70
     1
102
RTVSPost2010Prop38
140
0.0
102
RTVSPost2010PropOp38
 70
     1
102
RTVSPost2010Prop39
140
1.0
102
RTVSPost2010PropOp39
 70
     1
102
RTVSPost2010Prop40
 90
        0
102
RTVSPost2010PropOp40
 70
     1
102
RTVSPost2010Prop41ColorIndex
 90
       18
102
RTVSPost2010Prop41ColorRGB
 90
        0
102
RTVSPost2010PropOp41
 70
     1
102
RTVSPost2010Prop42
 90
       50
102
RTVSPost2010PropOp42
 70
     1
102
RTVSPost2010Prop43
 90
        3
102
RTVSPost2010PropOp43
 70
     1
102
RTVSPost2010Prop44ColorIndex
 90
        5
102
RTVSPost2010Prop44ColorRGB
 90
      255
102
RTVSPost2010PropOp44
 70
     1
102
RTVSPost2010Prop45
280
     0
102
RTVSPost2010PropOp45
 70
     1
102
RTVSPost2010Prop46
 90
       50
102
RTVSPost2010PropOp46
 70
     1
102
RTVSPost2010Prop47
 90
       50
102
RTVSPost2010PropOp47
 70
     1
102
RTVSPost2010Prop48
 90
       50
102
RTVSPost2010PropOp48
 70
     1
102
RTVSPost2010Prop49
280
     0
102
RTVSPost2010PropOp49
 70
     1
102
RTVSPost2010Prop50
 90
       50
102
RTVSPost2010PropOp50
 70
     1
102
RTVSPost2010Prop51ColorIndex
 90
      256
102
RTVSPost2010Prop51ColorRGB
 90
-16777216
102
RTVSPost2010PropOp51
 70
     0
102
RTVSPost2010Prop52
140
1.0
102
RTVSPost2010PropOp52
 70
     0
102
RTVSPost2010Prop53
 90
        2
102
RTVSPost2010PropOp53
 70
     1
102
RTVSPost2010Prop54
  1
strokes_ogs.tif
102
RTVSPost2010PropOp54
 70
     1
102
RTVSPost2010Prop55
280
     0
102
RTVSPost2010PropOp55
 70
     1
102
RTVSPost2010Prop56
140
1.0
102
RTVSPost2010PropOp56
 70
     1
102
RTVSPost2010Prop57
140
1.0
102
RTVSPost2010PropOp57
 70
     1
102
RTVSPropertyOp0
 70
     1
102
RTVSPropertyOp1
 70
     1
102
RTVSPropertyOp2
 70
     1
102
RTVSPropertyOp3
 70
     1
102
RTVSPropertyOp4
 70
     1
102
RTVSPropertyOp5
 70
     1
102
RTVSPropertyOp6
 70
     1
102
RTVSPropertyOp7
 70
     1
102
RTVSPropertyOp8
 70
     1
102
RTVSPropertyOp9
 70
     1
102
RTVSPropertyOp10
 70
     1
102
RTVSPropertyOp11
 70
     1
102
RTVSPropertyOp12
 70
     1
102
RTVSPropertyOp13
 70
     1
102
RTVSPropertyOp14
 70
     1
102
RTVSPropertyOp15
 70
     1
102
RTVSPropertyOp16
 70
     1
102
RTVSPropertyOp17
 70
     1
102
RTVSPropertyOp18
 70
     1
102
RTVSPropertyOp19
 70
     1
102
RTVSPropertyOp20
 70
     1
102
RTVSPropertyOp21
 70
     1
102
RTVSPropertyOp22
 70
     1
102
RTVSPropertyOp23
 70
     1
102
RTVSPropertyOp24
 70
     1
102
RTVSPropertyOp25
 70
     1
102
RTVSPropertyOp26
 70
     1
102
RTVSPropertyOp27
 70
     1
102
RTVSPropertyOp28
 70
     1
102
RTVSPropertyOp29
 70
     1
102
RTVSPropertyOp30
 70
     1
102
RTVSPropertyOp31
 70
     1
102
RTVSPropertyOp32
 70
     1
102
RTVSPropertyOp33
 70
     1
102
RTVSPropertyOp34
 70
     1
102
RTVSPropertyOp35
 70
     1
102
RTVSPropertyOp36
 70
     1
102
RTVSPropertyOp37
 70
     1
102
RTVSPropertyOp38
 70
     1
102
RTVSPropertyOp39
 70
     1
102
RTVSPropertyOp40
 70
     1
102
RTVSPropertyOp41
 70
     1
102
RTVSPropertyOp42
 70
     1
102
RTVSPropertyOp43
 70
     1
102
RTVSPropertyOp44
 70
     1
102
RTVSPropertyOp45
 70
     1
102
RTVSPropertyOp46
 70
     1
102
RTVSPropertyOp47
 70
     1
102
RTVSPropertyOp48
 70
     1
102
RTVSPropertyOp49
 70
     1
102
RTVSPropertyOp50
 70
     1
102
RTVSPropertyOp51
 70
     0
102
RTVSPropertyOp52
 70
     0
102
RTVSPropertyOp53
 70
     1
102
RTVSPropertyOp54
 70
     1
102
RTVSPropertyOp55
 70
     1
102
RTVSPropertyOp56
 70
     1
102
RTVSPropertyOp57
 70
     1
102
RTVSPropertyOp58
 70
     1
102
RTVSPropertyOp59
 70
     1
102
RTVSPropertyOp60
 70
     1
102
RTVSPropertyOp61
 70
     1
102
RTVSPropertyOp62
 70
     1
  0
XRECORD
  5
A3CE
102
{ACAD_REACTORS
330
A3CD
102
}
330
A3CD
100
AcDbXrecord
280
     1
102
RTVSPost2010Prop28
280
     0
102
RTVSPost2010PropOp28
 70
     1
102
RTVSPost2010Prop29
280
     1
102
RTVSPost2010PropOp29
 70
     1
102
RTVSPost2010Prop30
280
     1
102
RTVSPost2010PropOp30
 70
     1
102
RTVSPost2010Prop31
280
     0
102
RTVSPost2010PropOp31
 70
     1
102
RTVSPost2010Prop32
280
     0
102
RTVSPost2010PropOp32
 70
     1
102
RTVSPost2010Prop33
280
     0
102
RTVSPost2010PropOp33
 70
     1
102
RTVSPost2010Prop34
280
     0
102
RTVSPost2010PropOp34
 70
     1
102
RTVSPost2010Prop35
280
     0
102
RTVSPost2010PropOp35
 70
     1
102
RTVSPost2010Prop36
280
     0
102
RTVSPost2010PropOp36
 70
     1
102
RTVSPost2010Prop37
 90
       50
102
RTVSPost2010PropOp37
 70
     1
102
RTVSPost2010Prop38
140
0.0
102
RTVSPost2010PropOp38
 70
     1
102
RTVSPost2010Prop39
140
1.0
102
RTVSPost2010PropOp39
 70
     1
102
RTVSPost2010Prop40
 90
        0
102
RTVSPost2010PropOp40
 70
     1
102
RTVSPost2010Prop41ColorIndex
 90
       18
102
RTVSPost2010Prop41ColorRGB
 90
        0
102
RTVSPost2010PropOp41
 70
     1
102
RTVSPost2010Prop42
 90
       50
102
RTVSPost2010PropOp42
 70
     1
102
RTVSPost2010Prop43
 90
        3
102
RTVSPost2010PropOp43
 70
     1
102
RTVSPost2010Prop44ColorIndex
 90
        5
102
RTVSPost2010Prop44ColorRGB
 90
      255
102
RTVSPost2010PropOp44
 70
     1
102
RTVSPost2010Prop45
280
     0
102
RTVSPost2010PropOp45
 70
     1
102
RTVSPost2010Prop46
 90
       50
102
RTVSPost2010PropOp46
 70
     1
102
RTVSPost2010Prop47
 90
       50
102
RTVSPost2010PropOp47
 70
     1
102
RTVSPost2010Prop48
 90
       50
102
RTVSPost2010PropOp48
 70
     1
102
RTVSPost2010Prop49
280
     0
102
RTVSPost2010PropOp49
 70
     1
102
RTVSPost2010Prop50
 90
       50
102
RTVSPost2010PropOp50
 70
     1
102
RTVSPost2010Prop51ColorIndex
 90
      256
102
RTVSPost2010Prop51ColorRGB
 90
-16777216
102
RTVSPost2010PropOp51
 70
     0
102
RTVSPost2010Prop52
140
1.0
102
RTVSPost2010PropOp52
 70
     0
102
RTVSPost2010Prop53
 90
        2
102
RTVSPost2010PropOp53
 70
     1
102
RTVSPost2010Prop54
  1
strokes_ogs.tif
102
RTVSPost2010PropOp54
 70
     1
102
RTVSPost2010Prop55
280
     0
102
RTVSPost2010PropOp55
 70
     1
102
RTVSPost2010Prop56
140
1.0
102
RTVSPost2010PropOp56
 70
     1
102
RTVSPost2010Prop57
140
1.0
102
RTVSPost2010PropOp57
 70
     1
102
RTVSPropertyOp0
 70
     1
102
RTVSPropertyOp1
 70
     1
102
RTVSPropertyOp2
 70
     1
102
RTVSPropertyOp3
 70
     1
102
RTVSPropertyOp4
 70
     1
102
RTVSPropertyOp5
 70
     1
102
RTVSPropertyOp6
 70
     1
102
RTVSPropertyOp7
 70
     1
102
RTVSPropertyOp8
 70
     1
102
RTVSPropertyOp9
 70
     1
102
RTVSPropertyOp10
 70
     1
102
RTVSPropertyOp11
 70
     1
102
RTVSPropertyOp12
 70
     1
102
RTVSPropertyOp13
 70
     1
102
RTVSPropertyOp14
 70
     1
102
RTVSPropertyOp15
 70
     1
102
RTVSPropertyOp16
 70
     1
102
RTVSPropertyOp17
 70
     1
102
RTVSPropertyOp18
 70
     1
102
RTVSPropertyOp19
 70
     1
102
RTVSPropertyOp20
 70
     1
102
RTVSPropertyOp21
 70
     1
102
RTVSPropertyOp22
 70
     1
102
RTVSPropertyOp23
 70
     1
102
RTVSPropertyOp24
 70
     1
102
RTVSPropertyOp25
 70
     1
102
RTVSPropertyOp26
 70
     1
102
RTVSPropertyOp27
 70
     1
102
RTVSPropertyOp28
 70
     1
102
RTVSPropertyOp29
 70
     1
102
RTVSPropertyOp30
 70
     1
102
RTVSPropertyOp31
 70
     1
102
RTVSPropertyOp32
 70
     1
102
RTVSPropertyOp33
 70
     1
102
RTVSPropertyOp34
 70
     1
102
RTVSPropertyOp35
 70
     1
102
RTVSPropertyOp36
 70
     1
102
RTVSPropertyOp37
 70
     1
102
RTVSPropertyOp38
 70
     1
102
RTVSPropertyOp39
 70
     1
102
RTVSPropertyOp40
 70
     1
102
RTVSPropertyOp41
 70
     1
102
RTVSPropertyOp42
 70
     1
102
RTVSPropertyOp43
 70
     1
102
RTVSPropertyOp44
 70
     1
102
RTVSPropertyOp45
 70
     1
102
RTVSPropertyOp46
 70
     1
102
RTVSPropertyOp47
 70
     1
102
RTVSPropertyOp48
 70
     1
102
RTVSPropertyOp49
 70
     1
102
RTVSPropertyOp50
 70
     1
102
RTVSPropertyOp51
 70
     0
102
RTVSPropertyOp52
 70
     0
102
RTVSPropertyOp53
 70
     1
102
RTVSPropertyOp54
 70
     1
102
RTVSPropertyOp55
 70
     1
102
RTVSPropertyOp56
 70
     1
102
RTVSPropertyOp57
 70
     1
102
RTVSPropertyOp58
 70
     1
102
RTVSPropertyOp59
 70
     1
102
RTVSPropertyOp60
 70
     1
102
RTVSPropertyOp61
 70
     1
102
RTVSPropertyOp62
 70
     1
  0
XRECORD
  5
A3D0
102
{ACAD_REACTORS
330
A3CF
102
}
330
A3CF
100
AcDbXrecord
280
     1
102
RTVSPost2010Prop28
280
     0
102
RTVSPost2010PropOp28
 70
     1
102
RTVSPost2010Prop29
280
     1
102
RTVSPost2010PropOp29
 70
     1
102
RTVSPost2010Prop30
280
     1
102
RTVSPost2010PropOp30
 70
     1
102
RTVSPost2010Prop31
280
     0
102
RTVSPost2010PropOp31
 70
     1
102
RTVSPost2010Prop32
280
     0
102
RTVSPost2010PropOp32
 70
     1
102
RTVSPost2010Prop33
280
     0
102
RTVSPost2010PropOp33
 70
     1
102
RTVSPost2010Prop34
280
     0
102
RTVSPost2010PropOp34
 70
     1
102
RTVSPost2010Prop35
280
     0
102
RTVSPost2010PropOp35
 70
     1
102
RTVSPost2010Prop36
280
     0
102
RTVSPost2010PropOp36
 70
     1
102
RTVSPost2010Prop37
 90
       50
102
RTVSPost2010PropOp37
 70
     1
102
RTVSPost2010Prop38
140
0.0
102
RTVSPost2010PropOp38
 70
     1
102
RTVSPost2010Prop39
140
1.0
102
RTVSPost2010PropOp39
 70
     1
102
RTVSPost2010Prop40
 90
        0
102
RTVSPost2010PropOp40
 70
     1
102
RTVSPost2010Prop41ColorIndex
 90
       18
102
RTVSPost2010Prop41ColorRGB
 90
        0
102
RTVSPost2010PropOp41
 70
     1
102
RTVSPost2010Prop42
 90
       50
102
RTVSPost2010PropOp42
 70
     1
102
RTVSPost2010Prop43
 90
        3
102
RTVSPost2010PropOp43
 70
     1
102
RTVSPost2010Prop44ColorIndex
 90
        5
102
RTVSPost2010Prop44ColorRGB
 90
      255
102
RTVSPost2010PropOp44
 70
     1
102
RTVSPost2010Prop45
280
     0
102
RTVSPost2010PropOp45
 70
     1
102
RTVSPost2010Prop46
 90
       50
102
RTVSPost2010PropOp46
 70
     1
102
RTVSPost2010Prop47
 90
       50
102
RTVSPost2010PropOp47
 70
     1
102
RTVSPost2010Prop48
 90
       50
102
RTVSPost2010PropOp48
 70
     1
102
RTVSPost2010Prop49
280
     0
102
RTVSPost2010PropOp49
 70
     1
102
RTVSPost2010Prop50
 90
       50
102
RTVSPost2010PropOp50
 70
     1
102
RTVSPost2010Prop51ColorIndex
 90
      256
102
RTVSPost2010Prop51ColorRGB
 90
-16777216
102
RTVSPost2010PropOp51
 70
     0
102
RTVSPost2010Prop52
140
1.0
102
RTVSPost2010PropOp52
 70
     0
102
RTVSPost2010Prop53
 90
        2
102
RTVSPost2010PropOp53
 70
     1
102
RTVSPost2010Prop54
  1
strokes_ogs.tif
102
RTVSPost2010PropOp54
 70
     1
102
RTVSPost2010Prop55
280
     0
102
RTVSPost2010PropOp55
 70
     1
102
RTVSPost2010Prop56
140
1.0
102
RTVSPost2010PropOp56
 70
     1
102
RTVSPost2010Prop57
140
1.0
102
RTVSPost2010PropOp57
 70
     1
102
RTVSPropertyOp0
 70
     1
102
RTVSPropertyOp1
 70
     1
102
RTVSPropertyOp2
 70
     1
102
RTVSPropertyOp3
 70
     1
102
RTVSPropertyOp4
 70
     1
102
RTVSPropertyOp5
 70
     1
102
RTVSPropertyOp6
 70
     1
102
RTVSPropertyOp7
 70
     1
102
RTVSPropertyOp8
 70
     1
102
RTVSPropertyOp9
 70
     1
102
RTVSPropertyOp10
 70
     1
102
RTVSPropertyOp11
 70
     1
102
RTVSPropertyOp12
 70
     1
102
RTVSPropertyOp13
 70
     1
102
RTVSPropertyOp14
 70
     1
102
RTVSPropertyOp15
 70
     1
102
RTVSPropertyOp16
 70
     1
102
RTVSPropertyOp17
 70
     1
102
RTVSPropertyOp18
 70
     1
102
RTVSPropertyOp19
 70
     1
102
RTVSPropertyOp20
 70
     1
102
RTVSPropertyOp21
 70
     1
102
RTVSPropertyOp22
 70
     1
102
RTVSPropertyOp23
 70
     1
102
RTVSPropertyOp24
 70
     1
102
RTVSPropertyOp25
 70
     1
102
RTVSPropertyOp26
 70
     1
102
RTVSPropertyOp27
 70
     1
102
RTVSPropertyOp28
 70
     1
102
RTVSPropertyOp29
 70
     1
102
RTVSPropertyOp30
 70
     1
102
RTVSPropertyOp31
 70
     1
102
RTVSPropertyOp32
 70
     1
102
RTVSPropertyOp33
 70
     1
102
RTVSPropertyOp34
 70
     1
102
RTVSPropertyOp35
 70
     1
102
RTVSPropertyOp36
 70
     1
102
RTVSPropertyOp37
 70
     1
102
RTVSPropertyOp38
 70
     1
102
RTVSPropertyOp39
 70
     1
102
RTVSPropertyOp40
 70
     1
102
RTVSPropertyOp41
 70
     1
102
RTVSPropertyOp42
 70
     1
102
RTVSPropertyOp43
 70
     1
102
RTVSPropertyOp44
 70
     1
102
RTVSPropertyOp45
 70
     1
102
RTVSPropertyOp46
 70
     1
102
RTVSPropertyOp47
 70
     1
102
RTVSPropertyOp48
 70
     1
102
RTVSPropertyOp49
 70
     1
102
RTVSPropertyOp50
 70
     1
102
RTVSPropertyOp51
 70
     0
102
RTVSPropertyOp52
 70
     0
102
RTVSPropertyOp53
 70
     1
102
RTVSPropertyOp54
 70
     1
102
RTVSPropertyOp55
 70
     1
102
RTVSPropertyOp56
 70
     1
102
RTVSPropertyOp57
 70
     1
102
RTVSPropertyOp58
 70
     1
102
RTVSPropertyOp59
 70
     1
102
RTVSPropertyOp60
 70
     1
102
RTVSPropertyOp61
 70
     1
102
RTVSPropertyOp62
 70
     1
  0
XRECORD
  5
A3C6
102
{ACAD_REACTORS
330
A3C5
102
}
330
A3C5
100
AcDbXrecord
280
     1
102
RTVSPost2010Prop28
280
     0
102
RTVSPost2010PropOp28
 70
     1
102
RTVSPost2010Prop29
280
     1
102
RTVSPost2010PropOp29
 70
     1
102
RTVSPost2010Prop30
280
     1
102
RTVSPost2010PropOp30
 70
     1
102
RTVSPost2010Prop31
280
     0
102
RTVSPost2010PropOp31
 70
     1
102
RTVSPost2010Prop32
280
     0
102
RTVSPost2010PropOp32
 70
     1
102
RTVSPost2010Prop33
280
     0
102
RTVSPost2010PropOp33
 70
     1
102
RTVSPost2010Prop34
280
     0
102
RTVSPost2010PropOp34
 70
     1
102
RTVSPost2010Prop35
280
     0
102
RTVSPost2010PropOp35
 70
     1
102
RTVSPost2010Prop36
280
     0
102
RTVSPost2010PropOp36
 70
     1
102
RTVSPost2010Prop37
 90
       50
102
RTVSPost2010PropOp37
 70
     1
102
RTVSPost2010Prop38
140
0.0
102
RTVSPost2010PropOp38
 70
     1
102
RTVSPost2010Prop39
140
1.0
102
RTVSPost2010PropOp39
 70
     1
102
RTVSPost2010Prop40
 90
        0
102
RTVSPost2010PropOp40
 70
     1
102
RTVSPost2010Prop41ColorIndex
 90
       18
102
RTVSPost2010Prop41ColorRGB
 90
        0
102
RTVSPost2010PropOp41
 70
     1
102
RTVSPost2010Prop42
 90
       50
102
RTVSPost2010PropOp42
 70
     1
102
RTVSPost2010Prop43
 90
        3
102
RTVSPost2010PropOp43
 70
     1
102
RTVSPost2010Prop44ColorIndex
 90
        5
102
RTVSPost2010Prop44ColorRGB
 90
      255
102
RTVSPost2010PropOp44
 70
     1
102
RTVSPost2010Prop45
280
     0
102
RTVSPost2010PropOp45
 70
     1
102
RTVSPost2010Prop46
 90
       50
102
RTVSPost2010PropOp46
 70
     1
102
RTVSPost2010Prop47
 90
       50
102
RTVSPost2010PropOp47
 70
     1
102
RTVSPost2010Prop48
 90
       50
102
RTVSPost2010PropOp48
 70
     1
102
RTVSPost2010Prop49
280
     0
102
RTVSPost2010PropOp49
 70
     1
102
RTVSPost2010Prop50
 90
       50
102
RTVSPost2010PropOp50
 70
     1
102
RTVSPost2010Prop51ColorIndex
 90
      256
102
RTVSPost2010Prop51ColorRGB
 90
-16777216
102
RTVSPost2010PropOp51
 70
     0
102
RTVSPost2010Prop52
140
1.0
102
RTVSPost2010PropOp52
 70
     0
102
RTVSPost2010Prop53
 90
        2
102
RTVSPost2010PropOp53
 70
     1
102
RTVSPost2010Prop54
  1
strokes_ogs.tif
102
RTVSPost2010PropOp54
 70
     1
102
RTVSPost2010Prop55
280
     0
102
RTVSPost2010PropOp55
 70
     1
102
RTVSPost2010Prop56
140
1.0
102
RTVSPost2010PropOp56
 70
     1
102
RTVSPost2010Prop57
140
1.0
102
RTVSPost2010PropOp57
 70
     1
102
RTVSPropertyOp0
 70
     1
102
RTVSPropertyOp1
 70
     1
102
RTVSPropertyOp2
 70
     1
102
RTVSPropertyOp3
 70
     1
102
RTVSPropertyOp4
 70
     1
102
RTVSPropertyOp5
 70
     1
102
RTVSPropertyOp6
 70
     1
102
RTVSPropertyOp7
 70
     1
102
RTVSPropertyOp8
 70
     1
102
RTVSPropertyOp9
 70
     1
102
RTVSPropertyOp10
 70
     1
102
RTVSPropertyOp11
 70
     1
102
RTVSPropertyOp12
 70
     1
102
RTVSPropertyOp13
 70
     1
102
RTVSPropertyOp14
 70
     1
102
RTVSPropertyOp15
 70
     1
102
RTVSPropertyOp16
 70
     1
102
RTVSPropertyOp17
 70
     1
102
RTVSPropertyOp18
 70
     1
102
RTVSPropertyOp19
 70
     1
102
RTVSPropertyOp20
 70
     1
102
RTVSPropertyOp21
 70
     1
102
RTVSPropertyOp22
 70
     1
102
RTVSPropertyOp23
 70
     1
102
RTVSPropertyOp24
 70
     1
102
RTVSPropertyOp25
 70
     1
102
RTVSPropertyOp26
 70
     1
102
RTVSPropertyOp27
 70
     1
102
RTVSPropertyOp28
 70
     1
102
RTVSPropertyOp29
 70
     1
102
RTVSPropertyOp30
 70
     1
102
RTVSPropertyOp31
 70
     1
102
RTVSPropertyOp32
 70
     1
102
RTVSPropertyOp33
 70
     1
102
RTVSPropertyOp34
 70
     1
102
RTVSPropertyOp35
 70
     1
102
RTVSPropertyOp36
 70
     1
102
RTVSPropertyOp37
 70
     1
102
RTVSPropertyOp38
 70
     1
102
RTVSPropertyOp39
 70
     1
102
RTVSPropertyOp40
 70
     1
102
RTVSPropertyOp41
 70
     1
102
RTVSPropertyOp42
 70
     1
102
RTVSPropertyOp43
 70
     1
102
RTVSPropertyOp44
 70
     1
102
RTVSPropertyOp45
 70
     1
102
RTVSPropertyOp46
 70
     1
102
RTVSPropertyOp47
 70
     1
102
RTVSPropertyOp48
 70
     1
102
RTVSPropertyOp49
 70
     1
102
RTVSPropertyOp50
 70
     1
102
RTVSPropertyOp51
 70
     0
102
RTVSPropertyOp52
 70
     0
102
RTVSPropertyOp53
 70
     1
102
RTVSPropertyOp54
 70
     1
102
RTVSPropertyOp55
 70
     1
102
RTVSPropertyOp56
 70
     1
102
RTVSPropertyOp57
 70
     1
102
RTVSPropertyOp58
 70
     1
102
RTVSPropertyOp59
 70
     1
102
RTVSPropertyOp60
 70
     1
102
RTVSPropertyOp61
 70
     1
102
RTVSPropertyOp62
 70
     1
  0
XRECORD
  5
A3BA
102
{ACAD_REACTORS
330
A3B9
102
}
330
A3B9
100
AcDbXrecord
280
     1
102
RTVSPost2010Prop28
280
     0
102
RTVSPost2010PropOp28
 70
     1
102
RTVSPost2010Prop29
280
     1
102
RTVSPost2010PropOp29
 70
     1
102
RTVSPost2010Prop30
280
     1
102
RTVSPost2010PropOp30
 70
     1
102
RTVSPost2010Prop31
280
     0
102
RTVSPost2010PropOp31
 70
     1
102
RTVSPost2010Prop32
280
     0
102
RTVSPost2010PropOp32
 70
     1
102
RTVSPost2010Prop33
280
     0
102
RTVSPost2010PropOp33
 70
     1
102
RTVSPost2010Prop34
280
     0
102
RTVSPost2010PropOp34
 70
     1
102
RTVSPost2010Prop35
280
     0
102
RTVSPost2010PropOp35
 70
     1
102
RTVSPost2010Prop36
280
     0
102
RTVSPost2010PropOp36
 70
     1
102
RTVSPost2010Prop37
 90
       50
102
RTVSPost2010PropOp37
 70
     1
102
RTVSPost2010Prop38
140
0.0
102
RTVSPost2010PropOp38
 70
     1
102
RTVSPost2010Prop39
140
1.0
102
RTVSPost2010PropOp39
 70
     1
102
RTVSPost2010Prop40
 90
        0
102
RTVSPost2010PropOp40
 70
     1
102
RTVSPost2010Prop41ColorIndex
 90
       18
102
RTVSPost2010Prop41ColorRGB
 90
        0
102
RTVSPost2010PropOp41
 70
     1
102
RTVSPost2010Prop42
 90
       50
102
RTVSPost2010PropOp42
 70
     1
102
RTVSPost2010Prop43
 90
        3
102
RTVSPost2010PropOp43
 70
     1
102
RTVSPost2010Prop44ColorIndex
 90
        5
102
RTVSPost2010Prop44ColorRGB
 90
      255
102
RTVSPost2010PropOp44
 70
     1
102
RTVSPost2010Prop45
280
     0
102
RTVSPost2010PropOp45
 70
     1
102
RTVSPost2010Prop46
 90
       50
102
RTVSPost2010PropOp46
 70
     1
102
RTVSPost2010Prop47
 90
       50
102
RTVSPost2010PropOp47
 70
     1
102
RTVSPost2010Prop48
 90
       50
102
RTVSPost2010PropOp48
 70
     1
102
RTVSPost2010Prop49
280
     0
102
RTVSPost2010PropOp49
 70
     1
102
RTVSPost2010Prop50
 90
       50
102
RTVSPost2010PropOp50
 70
     1
102
RTVSPost2010Prop51ColorIndex
 90
      256
102
RTVSPost2010Prop51ColorRGB
 90
-16777216
102
RTVSPost2010PropOp51
 70
     0
102
RTVSPost2010Prop52
140
1.0
102
RTVSPost2010PropOp52
 70
     0
102
RTVSPost2010Prop53
 90
        2
102
RTVSPost2010PropOp53
 70
     1
102
RTVSPost2010Prop54
  1
strokes_ogs.tif
102
RTVSPost2010PropOp54
 70
     1
102
RTVSPost2010Prop55
280
     0
102
RTVSPost2010PropOp55
 70
     1
102
RTVSPost2010Prop56
140
1.0
102
RTVSPost2010PropOp56
 70
     1
102
RTVSPost2010Prop57
140
1.0
102
RTVSPost2010PropOp57
 70
     1
102
RTVSPropertyOp0
 70
     1
102
RTVSPropertyOp1
 70
     1
102
RTVSPropertyOp2
 70
     1
102
RTVSPropertyOp3
 70
     1
102
RTVSPropertyOp4
 70
     1
102
RTVSPropertyOp5
 70
     1
102
RTVSPropertyOp6
 70
     1
102
RTVSPropertyOp7
 70
     1
102
RTVSPropertyOp8
 70
     1
102
RTVSPropertyOp9
 70
     1
102
RTVSPropertyOp10
 70
     1
102
RTVSPropertyOp11
 70
     1
102
RTVSPropertyOp12
 70
     1
102
RTVSPropertyOp13
 70
     1
102
RTVSPropertyOp14
 70
     1
102
RTVSPropertyOp15
 70
     1
102
RTVSPropertyOp16
 70
     1
102
RTVSPropertyOp17
 70
     1
102
RTVSPropertyOp18
 70
     1
102
RTVSPropertyOp19
 70
     1
102
RTVSPropertyOp20
 70
     1
102
RTVSPropertyOp21
 70
     1
102
RTVSPropertyOp22
 70
     1
102
RTVSPropertyOp23
 70
     1
102
RTVSPropertyOp24
 70
     1
102
RTVSPropertyOp25
 70
     1
102
RTVSPropertyOp26
 70
     1
102
RTVSPropertyOp27
 70
     1
102
RTVSPropertyOp28
 70
     1
102
RTVSPropertyOp29
 70
     1
102
RTVSPropertyOp30
 70
     1
102
RTVSPropertyOp31
 70
     1
102
RTVSPropertyOp32
 70
     1
102
RTVSPropertyOp33
 70
     1
102
RTVSPropertyOp34
 70
     1
102
RTVSPropertyOp35
 70
     1
102
RTVSPropertyOp36
 70
     1
102
RTVSPropertyOp37
 70
     1
102
RTVSPropertyOp38
 70
     1
102
RTVSPropertyOp39
 70
     1
102
RTVSPropertyOp40
 70
     1
102
RTVSPropertyOp41
 70
     1
102
RTVSPropertyOp42
 70
     1
102
RTVSPropertyOp43
 70
     1
102
RTVSPropertyOp44
 70
     1
102
RTVSPropertyOp45
 70
     1
102
RTVSPropertyOp46
 70
     1
102
RTVSPropertyOp47
 70
     1
102
RTVSPropertyOp48
 70
     1
102
RTVSPropertyOp49
 70
     1
102
RTVSPropertyOp50
 70
     1
102
RTVSPropertyOp51
 70
     0
102
RTVSPropertyOp52
 70
     0
102
RTVSPropertyOp53
 70
     1
102
RTVSPropertyOp54
 70
     1
102
RTVSPropertyOp55
 70
     1
102
RTVSPropertyOp56
 70
     1
102
RTVSPropertyOp57
 70
     1
102
RTVSPropertyOp58
 70
     1
102
RTVSPropertyOp59
 70
     1
102
RTVSPropertyOp60
 70
     1
102
RTVSPropertyOp61
 70
     1
102
RTVSPropertyOp62
 70
     1
  0
XRECORD
  5
A3D2
102
{ACAD_REACTORS
330
A3D1
102
}
330
A3D1
100
AcDbXrecord
280
     1
102
RTVSPost2010Prop28
280
     0
102
RTVSPost2010PropOp28
 70
     1
102
RTVSPost2010Prop29
280
     1
102
RTVSPost2010PropOp29
 70
     1
102
RTVSPost2010Prop30
280
     1
102
RTVSPost2010PropOp30
 70
     1
102
RTVSPost2010Prop31
280
     0
102
RTVSPost2010PropOp31
 70
     1
102
RTVSPost2010Prop32
280
     0
102
RTVSPost2010PropOp32
 70
     1
102
RTVSPost2010Prop33
280
     0
102
RTVSPost2010PropOp33
 70
     1
102
RTVSPost2010Prop34
280
     0
102
RTVSPost2010PropOp34
 70
     1
102
RTVSPost2010Prop35
280
     0
102
RTVSPost2010PropOp35
 70
     1
102
RTVSPost2010Prop36
280
     0
102
RTVSPost2010PropOp36
 70
     1
102
RTVSPost2010Prop37
 90
       50
102
RTVSPost2010PropOp37
 70
     1
102
RTVSPost2010Prop38
140
0.0
102
RTVSPost2010PropOp38
 70
     1
102
RTVSPost2010Prop39
140
1.0
102
RTVSPost2010PropOp39
 70
     1
102
RTVSPost2010Prop40
 90
        0
102
RTVSPost2010PropOp40
 70
     1
102
RTVSPost2010Prop41ColorIndex
 90
       18
102
RTVSPost2010Prop41ColorRGB
 90
        0
102
RTVSPost2010PropOp41
 70
     1
102
RTVSPost2010Prop42
 90
       50
102
RTVSPost2010PropOp42
 70
     1
102
RTVSPost2010Prop43
 90
        3
102
RTVSPost2010PropOp43
 70
     1
102
RTVSPost2010Prop44ColorIndex
 90
        5
102
RTVSPost2010Prop44ColorRGB
 90
      255
102
RTVSPost2010PropOp44
 70
     1
102
RTVSPost2010Prop45
280
     0
102
RTVSPost2010PropOp45
 70
     1
102
RTVSPost2010Prop46
 90
       50
102
RTVSPost2010PropOp46
 70
     1
102
RTVSPost2010Prop47
 90
       50
102
RTVSPost2010PropOp47
 70
     1
102
RTVSPost2010Prop48
 90
       50
102
RTVSPost2010PropOp48
 70
     1
102
RTVSPost2010Prop49
280
     0
102
RTVSPost2010PropOp49
 70
     1
102
RTVSPost2010Prop50
 90
       50
102
RTVSPost2010PropOp50
 70
     1
102
RTVSPost2010Prop51ColorIndex
 90
      256
102
RTVSPost2010Prop51ColorRGB
 90
-16777216
102
RTVSPost2010PropOp51
 70
     0
102
RTVSPost2010Prop52
140
1.0
102
RTVSPost2010PropOp52
 70
     0
102
RTVSPost2010Prop53
 90
        2
102
RTVSPost2010PropOp53
 70
     1
102
RTVSPost2010Prop54
  1
strokes_ogs.tif
102
RTVSPost2010PropOp54
 70
     1
102
RTVSPost2010Prop55
280
     0
102
RTVSPost2010PropOp55
 70
     1
102
RTVSPost2010Prop56
140
1.0
102
RTVSPost2010PropOp56
 70
     1
102
RTVSPost2010Prop57
140
1.0
102
RTVSPost2010PropOp57
 70
     1
102
RTVSPropertyOp0
 70
     1
102
RTVSPropertyOp1
 70
     1
102
RTVSPropertyOp2
 70
     1
102
RTVSPropertyOp3
 70
     1
102
RTVSPropertyOp4
 70
     1
102
RTVSPropertyOp5
 70
     1
102
RTVSPropertyOp6
 70
     1
102
RTVSPropertyOp7
 70
     1
102
RTVSPropertyOp8
 70
     1
102
RTVSPropertyOp9
 70
     1
102
RTVSPropertyOp10
 70
     1
102
RTVSPropertyOp11
 70
     1
102
RTVSPropertyOp12
 70
     1
102
RTVSPropertyOp13
 70
     1
102
RTVSPropertyOp14
 70
     1
102
RTVSPropertyOp15
 70
     1
102
RTVSPropertyOp16
 70
     1
102
RTVSPropertyOp17
 70
     1
102
RTVSPropertyOp18
 70
     1
102
RTVSPropertyOp19
 70
     1
102
RTVSPropertyOp20
 70
     1
102
RTVSPropertyOp21
 70
     1
102
RTVSPropertyOp22
 70
     1
102
RTVSPropertyOp23
 70
     1
102
RTVSPropertyOp24
 70
     1
102
RTVSPropertyOp25
 70
     1
102
RTVSPropertyOp26
 70
     1
102
RTVSPropertyOp27
 70
     1
102
RTVSPropertyOp28
 70
     1
102
RTVSPropertyOp29
 70
     1
102
RTVSPropertyOp30
 70
     1
102
RTVSPropertyOp31
 70
     1
102
RTVSPropertyOp32
 70
     1
102
RTVSPropertyOp33
 70
     1
102
RTVSPropertyOp34
 70
     1
102
RTVSPropertyOp35
 70
     1
102
RTVSPropertyOp36
 70
     1
102
RTVSPropertyOp37
 70
     1
102
RTVSPropertyOp38
 70
     1
102
RTVSPropertyOp39
 70
     1
102
RTVSPropertyOp40
 70
     1
102
RTVSPropertyOp41
 70
     1
102
RTVSPropertyOp42
 70
     1
102
RTVSPropertyOp43
 70
     1
102
RTVSPropertyOp44
 70
     1
102
RTVSPropertyOp45
 70
     1
102
RTVSPropertyOp46
 70
     1
102
RTVSPropertyOp47
 70
     1
102
RTVSPropertyOp48
 70
     1
102
RTVSPropertyOp49
 70
     1
102
RTVSPropertyOp50
 70
     1
102
RTVSPropertyOp51
 70
     0
102
RTVSPropertyOp52
 70
     0
102
RTVSPropertyOp53
 70
     1
102
RTVSPropertyOp54
 70
     1
102
RTVSPropertyOp55
 70
     1
102
RTVSPropertyOp56
 70
     1
102
RTVSPropertyOp57
 70
     1
102
RTVSPropertyOp58
 70
     1
102
RTVSPropertyOp59
 70
     1
102
RTVSPropertyOp60
 70
     1
102
RTVSPropertyOp61
 70
     1
102
RTVSPropertyOp62
 70
     1
  0
ENDSEC
  0
EOF
